  0
SECTION
  2
HEADER
  9
$ACADVER
  1
AC1014
  9
$ACADMAINTVER
 70
     9
  9
$DWGCODEPAGE
  3
ANSI_1252
  9
$INSBASE
 10
0.0
 20
0.0
 30
0.0
  9
$EXTMIN
 10
1.000000000000000E+20
 20
1.000000000000000E+20
 30
1.000000000000000E+20
  9
$EXTMAX
 10
-1.000000000000000E+20
 20
-1.000000000000000E+20
 30
-1.000000000000000E+20
  9
$LIMMIN
 10
0.0
 20
0.0
  9
$LIMMAX
 10
12.0
 20
9.0
  9
$ORTHOMODE
 70
     0
  9
$REGENMODE
 70
     1
  9
$FILLMODE
 70
     1
  9
$QTEXTMODE
 70
     0
  9
$MIRRTEXT
 70
     1
  9
$DRAGMODE
 70
     2
  9
$LTSCALE
 40
1.0
  9
$OSMODE
 70
    37
  9
$ATTMODE
 70
     1
  9
$TEXTSIZE
 40
0.2
  9
$TRACEWID
 40
0.05
  9
$TEXTSTYLE
  7
STANDARD
  9
$CLAYER
  8
0
  9
$CELTYPE
  6
BYLAYER
  9
$CECOLOR
 62
   256
  9
$CELTSCALE
 40
1.0
  9
$DELOBJ
 70
     1
  9
$DISPSILH
 70
     0
  9
$DIMSCALE
 40
1.0
  9
$DIMASZ
 40
0.18
  9
$DIMEXO
 40
0.0625
  9
$DIMDLI
 40
0.38
  9
$DIMRND
 40
0.0
  9
$DIMDLE
 40
0.0
  9
$DIMEXE
 40
0.18
  9
$DIMTP
 40
0.0
  9
$DIMTM
 40
0.0
  9
$DIMTXT
 40
0.18
  9
$DIMCEN
 40
0.09
  9
$DIMTSZ
 40
0.0
  9
$DIMTOL
 70
     0
  9
$DIMLIM
 70
     0
  9
$DIMTIH
 70
     1
  9
$DIMTOH
 70
     1
  9
$DIMSE1
 70
     0
  9
$DIMSE2
 70
     0
  9
$DIMTAD
 70
     0
  9
$DIMZIN
 70
     0
  9
$DIMBLK
  1

  9
$DIMASO
 70
     1
  9
$DIMSHO
 70
     1
  9
$DIMPOST
  1

  9
$DIMAPOST
  1

  9
$DIMALT
 70
     0
  9
$DIMALTD
 70
     2
  9
$DIMALTF
 40
25.4
  9
$DIMLFAC
 40
1.0
  9
$DIMTOFL
 70
     0
  9
$DIMTVP
 40
0.0
  9
$DIMTIX
 70
     0
  9
$DIMSOXD
 70
     0
  9
$DIMSAH
 70
     0
  9
$DIMBLK1
  1

  9
$DIMBLK2
  1

  9
$DIMSTYLE
  2
STANDARD
  9
$DIMCLRD
 70
     0
  9
$DIMCLRE
 70
     0
  9
$DIMCLRT
 70
     0
  9
$DIMTFAC
 40
1.0
  9
$DIMGAP
 40
0.09
  9
$DIMJUST
 70
     0
  9
$DIMSD1
 70
     0
  9
$DIMSD2
 70
     0
  9
$DIMTOLJ
 70
     1
  9
$DIMTZIN
 70
     0
  9
$DIMALTZ
 70
     0
  9
$DIMALTTZ
 70
     0
  9
$DIMFIT
 70
     3
  9
$DIMUPT
 70
     0
  9
$DIMUNIT
 70
     2
  9
$DIMDEC
 70
     4
  9
$DIMTDEC
 70
     4
  9
$DIMALTU
 70
     2
  9
$DIMALTTD
 70
     2
  9
$DIMTXSTY
  7
STANDARD
  9
$DIMAUNIT
 70
     0
  9
$LUNITS
 70
     2
  9
$LUPREC
 70
     4
  9
$SKETCHINC
 40
0.1
  9
$FILLETRAD
 40
0.5
  9
$AUNITS
 70
     0
  9
$AUPREC
 70
     0
  9
$MENU
  1
.
  9
$ELEVATION
 40
0.0
  9
$PELEVATION
 40
0.0
  9
$THICKNESS
 40
0.0
  9
$LIMCHECK
 70
     0
  9
$CHAMFERA
 40
0.5
  9
$CHAMFERB
 40
0.5
  9
$CHAMFERC
 40
1.0
  9
$CHAMFERD
 40
0.0
  9
$SKPOLY
 70
     0
  9
$TDCREATE
 40
2458554.543877859
  9
$TDUPDATE
 40
2458554.54387787
  9
$TDINDWG
 40
0.0000000116
  9
$TDUSRTIMER
 40
0.0000000116
  9
$USRTIMER
 70
     1
  9
$ANGBASE
 50
0.0
  9
$ANGDIR
 70
     0
  9
$PDMODE
 70
     0
  9
$PDSIZE
 40
0.0
  9
$PLINEWID
 40
0.0
  9
$COORDS
 70
     1
  9
$SPLFRAME
 70
     0
  9
$SPLINETYPE
 70
     6
  9
$SPLINESEGS
 70
     8
  9
$ATTDIA
 70
     0
  9
$ATTREQ
 70
     1
  9
$HANDLING
 70
     1
  9
$HANDSEED
  5
9E6
  9
$SURFTAB1
 70
     6
  9
$SURFTAB2
 70
     6
  9
$SURFTYPE
 70
     6
  9
$SURFU
 70
     6
  9
$SURFV
 70
     6
  9
$UCSNAME
  2

  9
$UCSORG
 10
0.0
 20
0.0
 30
0.0
  9
$UCSXDIR
 10
1.0
 20
0.0
 30
0.0
  9
$UCSYDIR
 10
0.0
 20
1.0
 30
0.0
  9
$PUCSNAME
  2

  9
$PUCSORG
 10
0.0
 20
0.0
 30
0.0
  9
$PUCSXDIR
 10
1.0
 20
0.0
 30
0.0
  9
$PUCSYDIR
 10
0.0
 20
1.0
 30
0.0
  9
$USERI1
 70
     0
  9
$USERI2
 70
     0
  9
$USERI3
 70
     0
  9
$USERI4
 70
     0
  9
$USERI5
 70
     0
  9
$USERR1
 40
0.0
  9
$USERR2
 40
0.0
  9
$USERR3
 40
0.0
  9
$USERR4
 40
0.0
  9
$USERR5
 40
0.0
  9
$WORLDVIEW
 70
     1
  9
$SHADEDGE
 70
     3
  9
$SHADEDIF
 70
    70
  9
$TILEMODE
 70
     1
  9
$MAXACTVP
 70
    64
  9
$PINSBASE
 10
0.0
 20
0.0
 30
0.0
  9
$PLIMCHECK
 70
     0
  9
$PEXTMIN
 10
1.000000000000000E+20
 20
1.000000000000000E+20
 30
1.000000000000000E+20
  9
$PEXTMAX
 10
-1.000000000000000E+20
 20
-1.000000000000000E+20
 30
-1.000000000000000E+20
  9
$PLIMMIN
 10
0.0
 20
0.0
  9
$PLIMMAX
 10
12.0
 20
9.0
  9
$UNITMODE
 70
     0
  9
$VISRETAIN
 70
     1
  9
$PLINEGEN
 70
     0
  9
$PSLTSCALE
 70
     1
  9
$TREEDEPTH
 70
  3020
  9
$PICKSTYLE
 70
     1
  9
$CMLSTYLE
  2
STANDARD
  9
$CMLJUST
 70
     0
  9
$CMLSCALE
 40
1.0
  9
$PROXYGRAPHICS
 70
     1
  9
$MEASUREMENT
 70
     0
  0
ENDSEC
  0
SECTION
  2
CLASSES
  0
CLASS
  1
ACDBDICTIONARYWDFLT
  2
AcDbDictionaryWithDefault
  3
ObjectDBX Classes
 90
        0
280
     0
281
     0
  0
CLASS
  1
VISUALSTYLE
  2
AcDbVisualStyle
  3
ObjectDBX Classes
 90
     4095
280
     0
281
     0
  0
CLASS
  1
XRECORD
  2
AcDbXrecord
  3
AutoCAD 2000
 90
        0
280
     0
281
     0
  0
CLASS
  1
LWPOLYLINE
  2
AcDbPolyline
  3
AutoCAD 2000
 90
        0
280
     0
281
     1
  0
CLASS
  1
HATCH
  2
AcDbHatch
  3
AutoCAD 2000
 90
        0
280
     0
281
     1
  0
CLASS
  1
ACDBPLACEHOLDER
  2
AcDbPlaceHolder
  3
ObjectDBX Classes
 90
        0
280
     0
281
     0
  0
CLASS
  1
LAYOUT
  2
AcDbLayout
  3
ObjectDBX Classes
 90
        0
280
     0
281
     0
  0
ENDSEC
  0
SECTION
  2
TABLES
  0
TABLE
  2
VPORT
  5
8
330
0
100
AcDbSymbolTable
 70
     1
  0
VPORT
  5
29
330
8
100
AcDbSymbolTableRecord
100
AcDbViewportTableRecord
  2
*ACTIVE
 70
     0
 10
0.0
 20
0.0
 11
1.0
 21
1.0
 12
0.0
 22
0.0
 13
0.0
 23
0.0
 14
0.5
 24
0.5
 15
0.5
 25
0.5
 16
0.0
 26
0.0
 36
1.0
 17
65.6304470322035
 27
-23.84850124186773
 37
0.0
 40
296.9999592356459
 41
0.7070705664688927
 42
50.0
 43
0.0
 44
0.0
 50
0.0
 51
0.0
 71
     0
 72
   100
 73
     1
 74
     3
 75
     0
 76
     0
 77
     0
 78
     0
  0
ENDTAB
  0
TABLE
  2
LTYPE
  5
5
330
0
100
AcDbSymbolTable
 70
     4
  0
LTYPE
  5
14
330
5
100
AcDbSymbolTableRecord
100
AcDbLinetypeTableRecord
  2
BYBLOCK
 70
     0
  3

 72
    65
 73
     0
 40
0.0
  0
LTYPE
  5
15
330
5
100
AcDbSymbolTableRecord
100
AcDbLinetypeTableRecord
  2
BYLAYER
 70
     0
  3

 72
    65
 73
     0
 40
0.0
  0
LTYPE
  5
16
330
5
100
AcDbSymbolTableRecord
100
AcDbLinetypeTableRecord
  2
CONTINUOUS
 70
     0
  3
Solid line
 72
    65
 73
     0
 40
0.0
  0
LTYPE
  5
189
330
5
100
AcDbSymbolTableRecord
100
AcDbLinetypeTableRecord
  2
AI-LINETYPE-1
 70
     0
  3
Adobe Illustrator Linetype No. 1
 72
    65
 73
     4
 40
8.819444442239584
 49
7.055555553791667
 74
     0
 49
-0.7055555553791667
 74
     0
 49
0.3527777776895833
 74
     0
 49
-0.7055555553791667
 74
     0
  0
LTYPE
  5
18E
330
5
100
AcDbSymbolTableRecord
100
AcDbLinetypeTableRecord
  2
AI-LINETYPE-2
 70
     0
  3
Adobe Illustrator Linetype No. 2
 72
    65
 73
     4
 40
8.819444442239584
 49
7.055555553791667
 74
     0
 49
-0.7055555553791667
 74
     0
 49
0.3527777776895833
 74
     0
 49
-0.7055555553791667
 74
     0
  0
LTYPE
  5
193
330
5
100
AcDbSymbolTableRecord
100
AcDbLinetypeTableRecord
  2
AI-LINETYPE-3
 70
     0
  3
Adobe Illustrator Linetype No. 3
 72
    65
 73
     4
 40
8.819444442239584
 49
7.055555553791667
 74
     0
 49
-0.7055555553791667
 74
     0
 49
0.3527777776895833
 74
     0
 49
-0.7055555553791667
 74
     0
  0
ENDTAB
  0
TABLE
  2
LAYER
  5
2
330
0
100
AcDbSymbolTable
 70
     5
  0
LAYER
  5
10
330
2
100
AcDbSymbolTableRecord
100
AcDbLayerTableRecord
  2
0
 70
     0
 62
     7
  6
CONTINUOUS
  0
LAYER
  5
3B
330
2
100
AcDbSymbolTableRecord
100
AcDbLayerTableRecord
  2
GRAU_10_
 70
     1
 62
     7
  6
CONTINUOUS
  0
LAYER
  5
5E
330
2
100
AcDbSymbolTableRecord
100
AcDbLayerTableRecord
  2
STANDARDEBENE
 70
     0
 62
     7
  6
CONTINUOUS
  0
LAYER
  5
371
330
2
100
AcDbSymbolTableRecord
100
AcDbLayerTableRecord
  2
BEMAßUNG
 70
     1
 62
     7
  6
CONTINUOUS
  0
LAYER
  5
9BA
330
2
100
AcDbSymbolTableRecord
100
AcDbLayerTableRecord
  2
TEXT
 70
     1
 62
     7
  6
CONTINUOUS
  0
ENDTAB
  0
TABLE
  2
STYLE
  5
3
330
0
100
AcDbSymbolTable
 70
     1
  0
STYLE
  5
11
330
3
100
AcDbSymbolTableRecord
100
AcDbTextStyleTableRecord
  2
STANDARD
 70
     0
 40
0.0
 41
1.0
 50
0.0
 71
     0
 42
0.2
  3
txt
  4

  0
ENDTAB
  0
TABLE
  2
VIEW
  5
6
330
0
100
AcDbSymbolTable
 70
     0
  0
ENDTAB
  0
TABLE
  2
UCS
  5
7
330
0
100
AcDbSymbolTable
 70
     0
  0
ENDTAB
  0
TABLE
  2
APPID
  5
9
330
0
100
AcDbSymbolTable
 70
     1
  0
APPID
  5
12
330
9
100
AcDbSymbolTableRecord
100
AcDbRegAppTableRecord
  2
ACAD
 70
     0
  0
ENDTAB
  0
TABLE
  2
DIMSTYLE
  5
A
330
0
100
AcDbSymbolTable
 70
     1
  0
DIMSTYLE
105
27
330
A
100
AcDbSymbolTableRecord
100
AcDbDimStyleTableRecord
  2
STANDARD
 70
     0
  3

  4

  5

  6

  7

 40
1.0
 41
0.18
 42
0.0625
 43
0.38
 44
0.18
 45
0.0
 46
0.0
 47
0.0
 48
0.0
140
0.18
141
0.09
142
0.0
143
25.4
144
1.0
145
0.0
146
1.0
147
0.09
 71
     0
 72
     0
 73
     1
 74
     1
 75
     0
 76
     0
 77
     0
 78
     0
170
     0
171
     2
172
     0
173
     0
174
     0
175
     0
176
     0
177
     0
178
     0
270
     2
271
     4
272
     4
273
     2
274
     2
340
11
275
     0
280
     0
281
     0
282
     0
283
     1
284
     0
285
     0
286
     0
287
     3
288
     0
  0
ENDTAB
  0
TABLE
  2
BLOCK_RECORD
  5
1
330
0
100
AcDbSymbolTable
 70
     1
  0
BLOCK_RECORD
  5
1F
330
1
100
AcDbSymbolTableRecord
100
AcDbBlockTableRecord
  2
*MODEL_SPACE
  0
BLOCK_RECORD
  5
1B
330
1
100
AcDbSymbolTableRecord
100
AcDbBlockTableRecord
  2
*PAPER_SPACE
  0
ENDTAB
  0
ENDSEC
  0
SECTION
  2
BLOCKS
  0
BLOCK
  5
20
330
1F
100
AcDbEntity
  8
0
100
AcDbBlockBegin
  2
*MODEL_SPACE
 70
     0
 71
     0
 10
0.0
 20
0.0
 30
0.0
  3
*MODEL_SPACE
  1

  0
ENDBLK
  5
21
330
1F
100
AcDbEntity
  8
0
100
AcDbBlockEnd
  0
BLOCK
  5
1C
330
1B
100
AcDbEntity
 67
     1
  8
0
100
AcDbBlockBegin
  2
*PAPER_SPACE
 70
     0
 71
     0
 10
0.0
 20
0.0
 30
0.0
  3
*PAPER_SPACE
  1

  0
ENDBLK
  5
1D
330
1B
100
AcDbEntity
 67
     1
  8
0
100
AcDbBlockEnd
  0
ENDSEC
  0
SECTION
  2
ENTITIES
  0
SPLINE
  5
3C
330
1F
100
AcDbEntity
  8
GRAU_10_
100
AcDbSpline
210
0.0
220
0.0
230
1.0
 70
    11
 71
     3
 72
    17
 73
    13
 74
     0
 42
0.0000000001
 43
0.0000000001
 40
0.0
 40
0.0
 40
0.0
 40
0.0
 40
1.0
 40
1.0
 40
1.0
 40
2.0
 40
2.0
 40
2.0
 40
3.0
 40
3.0
 40
3.0
 40
4.0
 40
4.0
 40
4.0
 40
4.0
 10
107.9217501900334
 20
-6.291433375163253
 30
0.0
 10
107.9217501900334
 20
0.9436116534099305
 30
0.0
 10
102.0564751263956
 20
6.808886717047779
 30
0.0
 10
94.82143009782243
 20
6.808886717047779
 30
0.0
 10
87.58638506924925
 20
6.808886717047779
 30
0.0
 10
81.7211100056114
 20
0.9436116534099305
 30
0.0
 10
81.7211100056114
 20
-6.291433375163253
 30
0.0
 10
81.7211100056114
 20
-13.52647840373644
 30
0.0
 10
87.58638506924925
 20
-19.39175346737429
 30
0.0
 10
94.82143009782243
 20
-19.39175346737429
 30
0.0
 10
102.0564751263956
 20
-19.39175346737429
 30
0.0
 10
107.9217501900334
 20
-13.52647840373644
 30
0.0
 10
107.9217501900334
 20
-6.291433375163253
 30
0.0
  0
HATCH
  5
3D
330
1F
100
AcDbEntity
  8
GRAU_10_
 62
   255
100
AcDbHatch
 10
0.0
 20
0.0
 30
0.0
210
0.0
220
0.0
230
1.0
  2
SOLID
 70
     1
 71
     0
 91
        1
 92
        1
 93
        1
 72
     4
 94
        3
 73
     0
 74
     1
 95
       17
 96
       13
 40
0.0
 40
0.0
 40
0.0
 40
0.0
 40
1.0
 40
1.0
 40
1.0
 40
2.0
 40
2.0
 40
2.0
 40
3.0
 40
3.0
 40
3.0
 40
4.0
 40
4.0
 40
4.0
 40
4.0
 10
107.9217501900334
 20
-6.291433375163253
 10
107.9217501900334
 20
0.9436116534099305
 10
102.0564751263956
 20
6.808886717047779
 10
94.82143009782243
 20
6.808886717047779
 10
87.58638506924925
 20
6.808886717047779
 10
81.7211100056114
 20
0.9436116534099305
 10
81.7211100056114
 20
-6.291433375163253
 10
81.7211100056114
 20
-13.52647840373644
 10
87.58638506924925
 20
-19.39175346737429
 10
94.82143009782243
 20
-19.39175346737429
 10
102.0564751263956
 20
-19.39175346737429
 10
107.9217501900334
 20
-13.52647840373644
 10
107.9217501900334
 20
-6.291433375163253
 97
        0
 75
     0
 76
     1
 98
        0
  0
POLYLINE
  5
3E
330
1F
100
AcDbEntity
  8
GRAU_10_
100
AcDb2dPolyline
 66
     1
 10
0.0
 20
0.0
 30
0.0
  0
VERTEX
  5
3F
330
3E
100
AcDbEntity
  8
GRAU_10_
100
AcDbVertex
100
AcDb2dVertex
 10
14.92484266119935
 20
-19.26928032287365
 30
0.0
  0
VERTEX
  5
40
330
3E
100
AcDbEntity
  8
GRAU_10_
100
AcDbVertex
100
AcDb2dVertex
 10
10.63380397954641
 20
-16.77589246542408
 30
0.0
  0
VERTEX
  5
41
330
3E
100
AcDbEntity
  8
GRAU_10_
100
AcDbVertex
100
AcDb2dVertex
 10
9.048887801557223
 20
-14.30179714269191
 30
0.0
  0
VERTEX
  5
42
330
3E
100
AcDbEntity
  8
GRAU_10_
100
AcDbVertex
100
AcDb2dVertex
 10
9.048887801557223
 20
-12.81351589306398
 30
0.0
  0
VERTEX
  5
43
330
3E
100
AcDbEntity
  8
GRAU_10_
100
AcDbVertex
100
AcDb2dVertex
 10
8.314393444101958
 20
-12.81351589306398
 30
0.0
  0
VERTEX
  5
44
330
3E
100
AcDbEntity
  8
GRAU_10_
100
AcDbVertex
100
AcDb2dVertex
 10
7.947146265374325
 20
-12.44626871433635
 30
0.0
  0
VERTEX
  5
45
330
3E
100
AcDbEntity
  8
GRAU_10_
100
AcDbVertex
100
AcDb2dVertex
 10
7.985903589583385
 20
-0.1727715385852794
 30
0.0
  0
VERTEX
  5
46
330
3E
100
AcDbEntity
  8
GRAU_10_
100
AcDbVertex
100
AcDb2dVertex
 10
8.295273164158822
 20
0.1558905707075551
 30
0.0
  0
VERTEX
  5
47
330
3E
100
AcDbEntity
  8
GRAU_10_
100
AcDbVertex
100
AcDb2dVertex
 10
9.010302732122424
 20
0.1751831054249542
 30
0.0
  0
VERTEX
  5
48
330
3E
100
AcDbEntity
  8
GRAU_10_
100
AcDbVertex
100
AcDb2dVertex
 10
9.049060056331486
 20
1.702221679261945
 30
0.0
  0
VERTEX
  5
49
330
3E
100
AcDbEntity
  8
GRAU_10_
100
AcDbVertex
100
AcDb2dVertex
 10
10.51804877124202
 20
4.137559677785054
 30
0.0
  0
VERTEX
  5
4A
330
3E
100
AcDbEntity
  8
GRAU_10_
100
AcDbVertex
100
AcDb2dVertex
 10
15.04094237905226
 20
6.708289928878483
 30
0.0
  0
VERTEX
  5
4B
330
3E
100
AcDbEntity
  8
GRAU_10_
100
AcDbVertex
100
AcDb2dVertex
 10
15.02164984433487
 20
3.731727429622624
 30
0.0
  0
VERTEX
  5
4C
330
3E
100
AcDbEntity
  8
GRAU_10_
100
AcDbVertex
100
AcDb2dVertex
 10
18.03696966779979
 20
3.673677570696164
 30
0.0
  0
VERTEX
  5
4D
330
3E
100
AcDbEntity
  8
GRAU_10_
100
AcDbVertex
100
AcDb2dVertex
 10
18.03696966779979
 20
4.214902071428914
 30
0.0
  0
VERTEX
  5
4E
330
3E
100
AcDbEntity
  8
GRAU_10_
100
AcDbVertex
100
AcDb2dVertex
 10
19.46720105850126
 20
6.688997394161084
 30
0.0
  0
VERTEX
  5
4F
330
3E
100
AcDbEntity
  8
GRAU_10_
100
AcDbVertex
100
AcDb2dVertex
 10
34.04029947065659
 20
4.640199109083006
 30
0.0
  0
VERTEX
  5
50
330
3E
100
AcDbEntity
  8
GRAU_10_
100
AcDbVertex
100
AcDb2dVertex
 10
34.04029947065659
 20
3.190502928889874
 30
0.0
  0
VERTEX
  5
51
330
3E
100
AcDbEntity
  8
GRAU_10_
100
AcDbVertex
100
AcDb2dVertex
 10
41.40453557992664
 20
3.209795463607274
 30
0.0
  0
VERTEX
  5
52
330
3E
100
AcDbEntity
  8
GRAU_10_
100
AcDbVertex
100
AcDb2dVertex
 10
42.04239500902065
 20
2.204688855785633
 30
0.0
  0
VERTEX
  5
53
330
3E
100
AcDbEntity
  8
GRAU_10_
100
AcDbVertex
100
AcDb2dVertex
 10
42.10027261317285
 20
-14.74604220551488
 30
0.0
  0
VERTEX
  5
54
330
3E
100
AcDbEntity
  8
GRAU_10_
100
AcDbVertex
100
AcDb2dVertex
 10
41.4818779735705
 20
-15.78973388277132
 30
0.0
  0
VERTEX
  5
55
330
3E
100
AcDbEntity
  8
GRAU_10_
100
AcDbVertex
100
AcDb2dVertex
 10
33.94349228752107
 20
-15.77044134805392
 30
0.0
  0
VERTEX
  5
56
330
3E
100
AcDbEntity
  8
GRAU_10_
100
AcDbVertex
100
AcDb2dVertex
 10
34.02083468116493
 20
-17.18138020403799
 30
0.0
  0
VERTEX
  5
57
330
3E
100
AcDbEntity
  8
GRAU_10_
100
AcDbVertex
100
AcDb2dVertex
 10
19.5436821782738
 20
-19.32681341747733
 30
0.0
  0
VERTEX
  5
58
330
3E
100
AcDbEntity
  8
GRAU_10_
100
AcDbVertex
100
AcDb2dVertex
 10
17.97788628022775
 20
-16.85271809474515
 30
0.0
  0
VERTEX
  5
59
330
3E
100
AcDbEntity
  8
GRAU_10_
100
AcDbVertex
100
AcDb2dVertex
 10
17.99735106971941
 20
-16.3500786634472
 30
0.0
  0
VERTEX
  5
5A
330
3E
100
AcDbEntity
  8
GRAU_10_
100
AcDbVertex
100
AcDb2dVertex
 10
15.00166829052042
 20
-16.33095838350407
 30
0.0
  0
VERTEX
  5
5B
330
3E
100
AcDbEntity
  8
GRAU_10_
100
AcDbVertex
100
AcDb2dVertex
 10
14.98237575580302
 20
-19.28822834804253
 30
0.0
  0
SEQEND
  5
5C
330
3E
100
AcDbEntity
  8
GRAU_10_
  0
HATCH
  5
5D
330
1F
100
AcDbEntity
  8
GRAU_10_
 62
   255
100
AcDbHatch
 10
0.0
 20
0.0
 30
0.0
210
0.0
220
0.0
230
1.0
  2
SOLID
 70
     1
 71
     0
 91
        1
 92
        1
 93
       29
 72
     1
 10
14.92484266119935
 20
-19.26928032287365
 11
10.63380397954641
 21
-16.77589246542408
 72
     1
 10
10.63380397954641
 20
-16.77589246542408
 11
9.048887801557223
 21
-14.30179714269191
 72
     1
 10
9.048887801557223
 20
-14.30179714269191
 11
9.048887801557223
 21
-12.81351589306398
 72
     1
 10
9.048887801557223
 20
-12.81351589306398
 11
8.314393444101958
 21
-12.81351589306398
 72
     1
 10
8.314393444101958
 20
-12.81351589306398
 11
7.947146265374325
 21
-12.44626871433635
 72
     1
 10
7.947146265374325
 20
-12.44626871433635
 11
7.985903589583385
 21
-0.1727715385852794
 72
     1
 10
7.985903589583385
 20
-0.1727715385852794
 11
8.295273164158822
 21
0.1558905707075551
 72
     1
 10
8.295273164158822
 20
0.1558905707075551
 11
9.010302732122424
 21
0.1751831054249542
 72
     1
 10
9.010302732122424
 20
0.1751831054249542
 11
9.049060056331486
 21
1.702221679261945
 72
     1
 10
9.049060056331486
 20
1.702221679261945
 11
10.51804877124202
 21
4.137559677785054
 72
     1
 10
10.51804877124202
 20
4.137559677785054
 11
15.04094237905226
 21
6.708289928878483
 72
     1
 10
15.04094237905226
 20
6.708289928878483
 11
15.02164984433487
 21
3.731727429622624
 72
     1
 10
15.02164984433487
 20
3.731727429622624
 11
18.03696966779979
 21
3.673677570696164
 72
     1
 10
18.03696966779979
 20
3.673677570696164
 11
18.03696966779979
 21
4.214902071428914
 72
     1
 10
18.03696966779979
 20
4.214902071428914
 11
19.46720105850126
 21
6.688997394161084
 72
     1
 10
19.46720105850126
 20
6.688997394161084
 11
34.04029947065659
 21
4.640199109083006
 72
     1
 10
34.04029947065659
 20
4.640199109083006
 11
34.04029947065659
 21
3.190502928889874
 72
     1
 10
34.04029947065659
 20
3.190502928889874
 11
41.40453557992664
 21
3.209795463607274
 72
     1
 10
41.40453557992664
 20
3.209795463607274
 11
42.04239500902065
 21
2.204688855785633
 72
     1
 10
42.04239500902065
 20
2.204688855785633
 11
42.10027261317285
 21
-14.74604220551488
 72
     1
 10
42.10027261317285
 20
-14.74604220551488
 11
41.4818779735705
 21
-15.78973388277132
 72
     1
 10
41.4818779735705
 20
-15.78973388277132
 11
33.94349228752107
 21
-15.77044134805392
 72
     1
 10
33.94349228752107
 20
-15.77044134805392
 11
34.02083468116493
 21
-17.18138020403799
 72
     1
 10
34.02083468116493
 20
-17.18138020403799
 11
19.5436821782738
 21
-19.32681341747733
 72
     1
 10
19.5436821782738
 20
-19.32681341747733
 11
17.97788628022775
 21
-16.85271809474515
 72
     1
 10
17.97788628022775
 20
-16.85271809474515
 11
17.99735106971941
 21
-16.3500786634472
 72
     1
 10
17.99735106971941
 20
-16.3500786634472
 11
15.00166829052042
 21
-16.33095838350407
 72
     1
 10
15.00166829052042
 20
-16.33095838350407
 11
14.98237575580302
 21
-19.28822834804253
 72
     1
 10
14.98237575580302
 20
-19.28822834804253
 11
14.92484266119935
 21
-19.26928032287365
 97
        0
 75
     0
 76
     1
 98
        0
  0
POLYLINE
  5
5F
330
1F
100
AcDbEntity
  8
STANDARDEBENE
 62
     7
100
AcDb2dPolyline
 66
     1
 10
0.0
 20
0.0
 30
0.0
  0
VERTEX
  5
60
330
5F
100
AcDbEntity
  8
STANDARDEBENE
 62
     7
100
AcDbVertex
100
AcDb2dVertex
 10
0.0242879231710114
 20
-12.9943834060396
 30
0.0
  0
VERTEX
  5
61
330
5F
100
AcDbEntity
  8
STANDARDEBENE
 62
     7
100
AcDbVertex
100
AcDb2dVertex
 10
1.225248209329105
 20
-12.9943834060396
 30
0.0
  0
SEQEND
  5
62
330
5F
100
AcDbEntity
  8
STANDARDEBENE
  0
POLYLINE
  5
63
330
1F
100
AcDbEntity
  8
STANDARDEBENE
 62
     7
100
AcDb2dPolyline
 66
     1
 10
0.0
 20
0.0
 30
0.0
  0
VERTEX
  5
64
330
63
100
AcDbEntity
  8
STANDARDEBENE
 62
     7
100
AcDbVertex
100
AcDb2dVertex
 10
2.026232909649692
 20
-12.9943834060396
 30
0.0
  0
VERTEX
  5
65
330
63
100
AcDbEntity
  8
STANDARDEBENE
 62
     7
100
AcDbVertex
100
AcDb2dVertex
 10
2.048626030303816
 20
-12.9943834060396
 30
0.0
  0
SEQEND
  5
66
330
63
100
AcDbEntity
  8
STANDARDEBENE
  0
POLYLINE
  5
67
330
1F
100
AcDbEntity
  8
STANDARDEBENE
 62
     7
100
AcDb2dPolyline
 66
     1
 10
0.0
 20
0.0
 30
0.0
  0
VERTEX
  5
68
330
67
100
AcDbEntity
  8
STANDARDEBENE
 62
     7
100
AcDbVertex
100
AcDb2dVertex
 10
2.849610730624403
 20
-12.9943834060396
 30
0.0
  0
VERTEX
  5
69
330
67
100
AcDbEntity
  8
STANDARDEBENE
 62
     7
100
AcDbVertex
100
AcDb2dVertex
 10
5.252048067263377
 20
-12.9943834060396
 30
0.0
  0
SEQEND
  5
6A
330
67
100
AcDbEntity
  8
STANDARDEBENE
  0
POLYLINE
  5
6B
330
1F
100
AcDbEntity
  8
STANDARDEBENE
 62
     7
100
AcDb2dPolyline
 66
     1
 10
0.0
 20
0.0
 30
0.0
  0
VERTEX
  5
6C
330
6B
100
AcDbEntity
  8
STANDARDEBENE
 62
     7
100
AcDbVertex
100
AcDb2dVertex
 10
6.052860512809702
 20
-12.9943834060396
 30
0.0
  0
VERTEX
  5
6D
330
6B
100
AcDbEntity
  8
STANDARDEBENE
 62
     7
100
AcDbVertex
100
AcDb2dVertex
 10
6.075425888238088
 20
-12.9943834060396
 30
0.0
  0
SEQEND
  5
6E
330
6B
100
AcDbEntity
  8
STANDARDEBENE
  0
POLYLINE
  5
6F
330
1F
100
AcDbEntity
  8
STANDARDEBENE
 62
     7
100
AcDb2dPolyline
 66
     1
 10
0.0
 20
0.0
 30
0.0
  0
VERTEX
  5
70
330
6F
100
AcDbEntity
  8
STANDARDEBENE
 62
     7
100
AcDbVertex
100
AcDb2dVertex
 10
6.876238333784413
 20
-12.9943834060396
 30
0.0
  0
VERTEX
  5
71
330
6F
100
AcDbEntity
  8
STANDARDEBENE
 62
     7
100
AcDbVertex
100
AcDb2dVertex
 10
8.077887639039556
 20
-12.9943834060396
 30
0.0
  0
SEQEND
  5
72
330
6F
100
AcDbEntity
  8
STANDARDEBENE
  0
POLYLINE
  5
73
330
1F
100
AcDbEntity
  8
STANDARDEBENE
 62
     7
100
AcDb2dPolyline
 66
     1
 10
0.0
 20
0.0
 30
0.0
  0
VERTEX
  5
74
330
73
100
AcDbEntity
  8
STANDARDEBENE
 62
     7
100
AcDbVertex
100
AcDb2dVertex
 10
0.0242879231710114
 20
-12.9943834060396
 30
0.0
  0
VERTEX
  5
75
330
73
100
AcDbEntity
  8
STANDARDEBENE
 62
     7
100
AcDbVertex
100
AcDb2dVertex
 10
0.0242879231710114
 20
-11.6905870196468
 30
0.0
  0
SEQEND
  5
76
330
73
100
AcDbEntity
  8
STANDARDEBENE
  0
POLYLINE
  5
77
330
1F
100
AcDbEntity
  8
STANDARDEBENE
 62
     7
100
AcDb2dPolyline
 66
     1
 10
0.0
 20
0.0
 30
0.0
  0
VERTEX
  5
78
330
77
100
AcDbEntity
  8
STANDARDEBENE
 62
     7
100
AcDbVertex
100
AcDb2dVertex
 10
0.0242879231710114
 20
-10.82173393826679
 30
0.0
  0
VERTEX
  5
79
330
77
100
AcDbEntity
  8
STANDARDEBENE
 62
     7
100
AcDbVertex
100
AcDb2dVertex
 10
0.0242879231710114
 20
-10.79710150554725
 30
0.0
  0
SEQEND
  5
7A
330
77
100
AcDbEntity
  8
STANDARDEBENE
  0
POLYLINE
  5
7B
330
1F
100
AcDbEntity
  8
STANDARDEBENE
 62
     7
100
AcDb2dPolyline
 66
     1
 10
0.0
 20
0.0
 30
0.0
  0
VERTEX
  5
7C
330
7B
100
AcDbEntity
  8
STANDARDEBENE
 62
     7
100
AcDbVertex
100
AcDb2dVertex
 10
0.0242879231710114
 20
-9.928420678941507
 30
0.0
  0
VERTEX
  5
7D
330
7B
100
AcDbEntity
  8
STANDARDEBENE
 62
     7
100
AcDbVertex
100
AcDb2dVertex
 10
0.0242879231710114
 20
-7.321000160930167
 30
0.0
  0
SEQEND
  5
7E
330
7B
100
AcDbEntity
  8
STANDARDEBENE
  0
POLYLINE
  5
7F
330
1F
100
AcDbEntity
  8
STANDARDEBENE
 62
     7
100
AcDb2dPolyline
 66
     1
 10
0.0
 20
0.0
 30
0.0
  0
VERTEX
  5
80
330
7F
100
AcDbEntity
  8
STANDARDEBENE
 62
     7
100
AcDbVertex
100
AcDb2dVertex
 10
0.0242879231710114
 20
-6.451802570001633
 30
0.0
  0
VERTEX
  5
81
330
7F
100
AcDbEntity
  8
STANDARDEBENE
 62
     7
100
AcDbVertex
100
AcDb2dVertex
 10
0.0242879231710114
 20
-6.427859156379147
 30
0.0
  0
SEQEND
  5
82
330
7F
100
AcDbEntity
  8
STANDARDEBENE
  0
POLYLINE
  5
83
330
1F
100
AcDbEntity
  8
STANDARDEBENE
 62
     7
100
AcDb2dPolyline
 66
     1
 10
0.0
 20
0.0
 30
0.0
  0
VERTEX
  5
84
330
83
100
AcDbEntity
  8
STANDARDEBENE
 62
     7
100
AcDbVertex
100
AcDb2dVertex
 10
0.0242879231710114
 20
-5.559006074999138
 30
0.0
  0
VERTEX
  5
85
330
83
100
AcDbEntity
  8
STANDARDEBENE
 62
     7
100
AcDbVertex
100
AcDb2dVertex
 10
0.0242879231710114
 20
-2.951241047439273
 30
0.0
  0
SEQEND
  5
86
330
83
100
AcDbEntity
  8
STANDARDEBENE
  0
POLYLINE
  5
87
330
1F
100
AcDbEntity
  8
STANDARDEBENE
 62
     7
100
AcDb2dPolyline
 66
     1
 10
0.0
 20
0.0
 30
0.0
  0
VERTEX
  5
88
330
87
100
AcDbEntity
  8
STANDARDEBENE
 62
     7
100
AcDbVertex
100
AcDb2dVertex
 10
0.0242879231710114
 20
-2.082732475607789
 30
0.0
  0
VERTEX
  5
89
330
87
100
AcDbEntity
  8
STANDARDEBENE
 62
     7
100
AcDbVertex
100
AcDb2dVertex
 10
0.0242879231710114
 20
-2.058272297662515
 30
0.0
  0
SEQEND
  5
8A
330
87
100
AcDbEntity
  8
STANDARDEBENE
  0
POLYLINE
  5
8B
330
1F
100
AcDbEntity
  8
STANDARDEBENE
 62
     7
100
AcDb2dPolyline
 66
     1
 10
0.0
 20
0.0
 30
0.0
  0
VERTEX
  5
8C
330
8B
100
AcDbEntity
  8
STANDARDEBENE
 62
     7
100
AcDbVertex
100
AcDb2dVertex
 10
0.0242879231710114
 20
-1.188730197185456
 30
0.0
  0
VERTEX
  5
8D
330
8B
100
AcDbEntity
  8
STANDARDEBENE
 62
     7
100
AcDbVertex
100
AcDb2dVertex
 10
0.0242879231710114
 20
0.1143771701102946
 30
0.0
  0
VERTEX
  5
8E
330
8B
100
AcDbEntity
  8
STANDARDEBENE
 62
     7
100
AcDbVertex
100
AcDb2dVertex
 10
1.219219292229917
 20
0.1143771701102946
 30
0.0
  0
SEQEND
  5
8F
330
8B
100
AcDbEntity
  8
STANDARDEBENE
  0
POLYLINE
  5
90
330
1F
100
AcDbEntity
  8
STANDARDEBENE
 62
     7
100
AcDb2dPolyline
 66
     1
 10
0.0
 20
0.0
 30
0.0
  0
VERTEX
  5
91
330
90
100
AcDbEntity
  8
STANDARDEBENE
 62
     7
100
AcDbVertex
100
AcDb2dVertex
 10
2.016069877968205
 20
0.1143771701102946
 30
0.0
  0
VERTEX
  5
92
330
90
100
AcDbEntity
  8
STANDARDEBENE
 62
     7
100
AcDbVertex
100
AcDb2dVertex
 10
2.038290743848066
 20
0.1143771701102946
 30
0.0
  0
SEQEND
  5
93
330
90
100
AcDbEntity
  8
STANDARDEBENE
  0
POLYLINE
  5
94
330
1F
100
AcDbEntity
  8
STANDARDEBENE
 62
     7
100
AcDb2dPolyline
 66
     1
 10
0.0
 20
0.0
 30
0.0
  0
VERTEX
  5
95
330
94
100
AcDbEntity
  8
STANDARDEBENE
 62
     7
100
AcDbVertex
100
AcDb2dVertex
 10
2.834452310489304
 20
0.1143771701102946
 30
0.0
  0
VERTEX
  5
96
330
94
100
AcDbEntity
  8
STANDARDEBENE
 62
     7
100
AcDbVertex
100
AcDb2dVertex
 10
5.224315048607115
 20
0.1143771701102946
 30
0.0
  0
SEQEND
  5
97
330
94
100
AcDbEntity
  8
STANDARDEBENE
  0
POLYLINE
  5
98
330
1F
100
AcDbEntity
  8
STANDARDEBENE
 62
     7
100
AcDb2dPolyline
 66
     1
 10
0.0
 20
0.0
 30
0.0
  0
VERTEX
  5
99
330
98
100
AcDbEntity
  8
STANDARDEBENE
 62
     7
100
AcDbVertex
100
AcDb2dVertex
 10
6.020821124796878
 20
0.1143771701102946
 30
0.0
  0
VERTEX
  5
9A
330
98
100
AcDbEntity
  8
STANDARDEBENE
 62
     7
100
AcDbVertex
100
AcDb2dVertex
 10
6.043386500225265
 20
0.1143771701102946
 30
0.0
  0
SEQEND
  5
9B
330
98
100
AcDbEntity
  8
STANDARDEBENE
  0
POLYLINE
  5
9C
330
1F
100
AcDbEntity
  8
STANDARDEBENE
 62
     7
100
AcDb2dPolyline
 66
     1
 10
0.0
 20
0.0
 30
0.0
  0
VERTEX
  5
9D
330
9C
100
AcDbEntity
  8
STANDARDEBENE
 62
     7
100
AcDbVertex
100
AcDb2dVertex
 10
6.839548066866502
 20
0.1143771701102946
 30
0.0
  0
VERTEX
  5
9E
330
9C
100
AcDbEntity
  8
STANDARDEBENE
 62
     7
100
AcDbVertex
100
AcDb2dVertex
 10
8.034823945473933
 20
0.1143771701102946
 30
0.0
  0
SEQEND
  5
9F
330
9C
100
AcDbEntity
  8
STANDARDEBENE
  0
POLYLINE
  5
A0
330
1F
100
AcDbEntity
  8
STANDARDEBENE
 62
     7
100
AcDb2dPolyline
 66
     1
 10
0.0
 20
0.0
 30
0.0
  0
VERTEX
  5
A1
330
A0
100
AcDbEntity
  8
STANDARDEBENE
 62
     7
100
AcDbVertex
100
AcDb2dVertex
 10
42.02430825772309
 20
-1.302418348198701
 30
0.0
  0
VERTEX
  5
A2
330
A0
100
AcDbEntity
  8
STANDARDEBENE
 62
     7
100
AcDbVertex
100
AcDb2dVertex
 10
41.52408039326482
 20
-1.302418348198701
 30
0.0
  0
SEQEND
  5
A3
330
A0
100
AcDbEntity
  8
STANDARDEBENE
  0
POLYLINE
  5
A4
330
1F
100
AcDbEntity
  8
STANDARDEBENE
 62
     7
100
AcDb2dPolyline
 66
     1
 10
0.0
 20
0.0
 30
0.0
  0
VERTEX
  5
A5
330
A4
100
AcDbEntity
  8
STANDARDEBENE
 62
     7
100
AcDbVertex
100
AcDb2dVertex
 10
40.52431368344531
 20
-1.302418348198701
 30
0.0
  0
VERTEX
  5
A6
330
A4
100
AcDbEntity
  8
STANDARDEBENE
 62
     7
100
AcDbVertex
100
AcDb2dVertex
 10
39.52454697362581
 20
-1.302418348198701
 30
0.0
  0
SEQEND
  5
A7
330
A4
100
AcDbEntity
  8
STANDARDEBENE
  0
POLYLINE
  5
A8
330
1F
100
AcDbEntity
  8
STANDARDEBENE
 62
     7
100
AcDb2dPolyline
 66
     1
 10
0.0
 20
0.0
 30
0.0
  0
VERTEX
  5
A9
330
A8
100
AcDbEntity
  8
STANDARDEBENE
 62
     7
100
AcDbVertex
100
AcDb2dVertex
 10
38.52443575425778
 20
-1.302418348198701
 30
0.0
  0
VERTEX
  5
AA
330
A8
100
AcDbEntity
  8
STANDARDEBENE
 62
     7
100
AcDbVertex
100
AcDb2dVertex
 10
37.52380777056697
 20
-1.302418348198701
 30
0.0
  0
SEQEND
  5
AB
330
A8
100
AcDbEntity
  8
STANDARDEBENE
  0
POLYLINE
  5
AC
330
1F
100
AcDbEntity
  8
STANDARDEBENE
 62
     7
100
AcDb2dPolyline
 66
     1
 10
0.0
 20
0.0
 30
0.0
  0
VERTEX
  5
AD
330
AC
100
AcDbEntity
  8
STANDARDEBENE
 62
     7
100
AcDbVertex
100
AcDb2dVertex
 10
36.52404106074746
 20
-1.302418348198701
 30
0.0
  0
VERTEX
  5
AE
330
AC
100
AcDbEntity
  8
STANDARDEBENE
 62
     7
100
AcDbVertex
100
AcDb2dVertex
 10
35.52427435092796
 20
-1.302418348198701
 30
0.0
  0
SEQEND
  5
AF
330
AC
100
AcDbEntity
  8
STANDARDEBENE
  0
POLYLINE
  5
B0
330
1F
100
AcDbEntity
  8
STANDARDEBENE
 62
     7
100
AcDb2dPolyline
 66
     1
 10
0.0
 20
0.0
 30
0.0
  0
VERTEX
  5
B1
330
B0
100
AcDbEntity
  8
STANDARDEBENE
 62
     7
100
AcDbVertex
100
AcDb2dVertex
 10
34.52416313155993
 20
-1.302418348198701
 30
0.0
  0
VERTEX
  5
B2
330
B0
100
AcDbEntity
  8
STANDARDEBENE
 62
     7
100
AcDbVertex
100
AcDb2dVertex
 10
33.52439642174043
 20
-1.302418348198701
 30
0.0
  0
SEQEND
  5
B3
330
B0
100
AcDbEntity
  8
STANDARDEBENE
  0
POLYLINE
  5
B4
330
1F
100
AcDbEntity
  8
STANDARDEBENE
 62
     7
100
AcDb2dPolyline
 66
     1
 10
0.0
 20
0.0
 30
0.0
  0
VERTEX
  5
B5
330
B4
100
AcDbEntity
  8
STANDARDEBENE
 62
     7
100
AcDbVertex
100
AcDb2dVertex
 10
32.52394069282388
 20
-1.302418348198701
 30
0.0
  0
VERTEX
  5
B6
330
B4
100
AcDbEntity
  8
STANDARDEBENE
 62
     7
100
AcDbVertex
100
AcDb2dVertex
 10
31.52417398300437
 20
-1.302418348198701
 30
0.0
  0
SEQEND
  5
B7
330
B4
100
AcDbEntity
  8
STANDARDEBENE
  0
POLYLINE
  5
B8
330
1F
100
AcDbEntity
  8
STANDARDEBENE
 62
     7
100
AcDb2dPolyline
 66
     1
 10
0.0
 20
0.0
 30
0.0
  0
VERTEX
  5
B9
330
B8
100
AcDbEntity
  8
STANDARDEBENE
 62
     7
100
AcDbVertex
100
AcDb2dVertex
 10
30.52440727318487
 20
-1.302418348198701
 30
0.0
  0
VERTEX
  5
BA
330
B8
100
AcDbEntity
  8
STANDARDEBENE
 62
     7
100
AcDbVertex
100
AcDb2dVertex
 10
29.52429605381684
 20
-1.302418348198701
 30
0.0
  0
SEQEND
  5
BB
330
B8
100
AcDbEntity
  8
STANDARDEBENE
  0
POLYLINE
  5
BC
330
1F
100
AcDbEntity
  8
STANDARDEBENE
 62
     7
100
AcDb2dPolyline
 66
     1
 10
0.0
 20
0.0
 30
0.0
  0
VERTEX
  5
BD
330
BC
100
AcDbEntity
  8
STANDARDEBENE
 62
     7
100
AcDbVertex
100
AcDb2dVertex
 10
28.52452934399734
 20
-1.302418348198701
 30
0.0
  0
VERTEX
  5
BE
330
BC
100
AcDbEntity
  8
STANDARDEBENE
 62
     7
100
AcDbVertex
100
AcDb2dVertex
 10
27.52407361508079
 20
-1.302418348198701
 30
0.0
  0
SEQEND
  5
BF
330
BC
100
AcDbEntity
  8
STANDARDEBENE
  0
POLYLINE
  5
C0
330
1F
100
AcDbEntity
  8
STANDARDEBENE
 62
     7
100
AcDb2dPolyline
 66
     1
 10
0.0
 20
0.0
 30
0.0
  0
VERTEX
  5
C1
330
C0
100
AcDbEntity
  8
STANDARDEBENE
 62
     7
100
AcDbVertex
100
AcDb2dVertex
 10
26.52430690526128
 20
-1.302418348198701
 30
0.0
  0
VERTEX
  5
C2
330
C0
100
AcDbEntity
  8
STANDARDEBENE
 62
     7
100
AcDbVertex
100
AcDb2dVertex
 10
25.52419568589326
 20
-1.302418348198701
 30
0.0
  0
SEQEND
  5
C3
330
C0
100
AcDbEntity
  8
STANDARDEBENE
  0
POLYLINE
  5
C4
330
1F
100
AcDbEntity
  8
STANDARDEBENE
 62
     7
100
AcDb2dPolyline
 66
     1
 10
0.0
 20
0.0
 30
0.0
  0
VERTEX
  5
C5
330
C4
100
AcDbEntity
  8
STANDARDEBENE
 62
     7
100
AcDbVertex
100
AcDb2dVertex
 10
24.52442897607375
 20
-1.302418348198701
 30
0.0
  0
VERTEX
  5
C6
330
C4
100
AcDbEntity
  8
STANDARDEBENE
 62
     7
100
AcDbVertex
100
AcDb2dVertex
 10
23.5239732471572
 20
-1.302418348198701
 30
0.0
  0
SEQEND
  5
C7
330
C4
100
AcDbEntity
  8
STANDARDEBENE
  0
POLYLINE
  5
C8
330
1F
100
AcDbEntity
  8
STANDARDEBENE
 62
     7
100
AcDb2dPolyline
 66
     1
 10
0.0
 20
0.0
 30
0.0
  0
VERTEX
  5
C9
330
C8
100
AcDbEntity
  8
STANDARDEBENE
 62
     7
100
AcDbVertex
100
AcDb2dVertex
 10
22.5242065373377
 20
-1.302418348198701
 30
0.0
  0
VERTEX
  5
CA
330
C8
100
AcDbEntity
  8
STANDARDEBENE
 62
     7
100
AcDbVertex
100
AcDb2dVertex
 10
21.52392306319541
 20
-1.302418348198701
 30
0.0
  0
SEQEND
  5
CB
330
C8
100
AcDbEntity
  8
STANDARDEBENE
  0
POLYLINE
  5
CC
330
1F
100
AcDbEntity
  8
STANDARDEBENE
 62
     7
100
AcDb2dPolyline
 66
     1
 10
0.0
 20
0.0
 30
0.0
  0
VERTEX
  5
CD
330
CC
100
AcDbEntity
  8
STANDARDEBENE
 62
     7
100
AcDbVertex
100
AcDb2dVertex
 10
20.52415635337591
 20
-1.302418348198701
 30
0.0
  0
VERTEX
  5
CE
330
CC
100
AcDbEntity
  8
STANDARDEBENE
 62
     7
100
AcDbVertex
100
AcDb2dVertex
 10
19.5243896435564
 20
-1.302418348198701
 30
0.0
  0
SEQEND
  5
CF
330
CC
100
AcDbEntity
  8
STANDARDEBENE
  0
POLYLINE
  5
D0
330
1F
100
AcDbEntity
  8
STANDARDEBENE
 62
     7
100
AcDb2dPolyline
 66
     1
 10
0.0
 20
0.0
 30
0.0
  0
VERTEX
  5
D1
330
D0
100
AcDbEntity
  8
STANDARDEBENE
 62
     7
100
AcDbVertex
100
AcDb2dVertex
 10
18.52393391463985
 20
-1.302418348198701
 30
0.0
  0
VERTEX
  5
D2
330
D0
100
AcDbEntity
  8
STANDARDEBENE
 62
     7
100
AcDbVertex
100
AcDb2dVertex
 10
17.52416720482035
 20
-1.302418348198701
 30
0.0
  0
SEQEND
  5
D3
330
D0
100
AcDbEntity
  8
STANDARDEBENE
  0
POLYLINE
  5
D4
330
1F
100
AcDbEntity
  8
STANDARDEBENE
 62
     7
100
AcDb2dPolyline
 66
     1
 10
0.0
 20
0.0
 30
0.0
  0
VERTEX
  5
D5
330
D4
100
AcDbEntity
  8
STANDARDEBENE
 62
     7
100
AcDbVertex
100
AcDb2dVertex
 10
16.52405598545232
 20
-1.302418348198701
 30
0.0
  0
VERTEX
  5
D6
330
D4
100
AcDbEntity
  8
STANDARDEBENE
 62
     7
100
AcDbVertex
100
AcDb2dVertex
 10
15.52428927563282
 20
-1.302418348198701
 30
0.0
  0
SEQEND
  5
D7
330
D4
100
AcDbEntity
  8
STANDARDEBENE
  0
POLYLINE
  5
D8
330
1F
100
AcDbEntity
  8
STANDARDEBENE
 62
     7
100
AcDb2dPolyline
 66
     1
 10
0.0
 20
0.0
 30
0.0
  0
VERTEX
  5
D9
330
D8
100
AcDbEntity
  8
STANDARDEBENE
 62
     7
100
AcDbVertex
100
AcDb2dVertex
 10
14.52452256581331
 20
-1.302418348198701
 30
0.0
  0
VERTEX
  5
DA
330
D8
100
AcDbEntity
  8
STANDARDEBENE
 62
     7
100
AcDbVertex
100
AcDb2dVertex
 10
13.52406683689676
 20
-1.302418348198701
 30
0.0
  0
SEQEND
  5
DB
330
D8
100
AcDbEntity
  8
STANDARDEBENE
  0
POLYLINE
  5
DC
330
1F
100
AcDbEntity
  8
STANDARDEBENE
 62
     7
100
AcDb2dPolyline
 66
     1
 10
0.0
 20
0.0
 30
0.0
  0
VERTEX
  5
DD
330
DC
100
AcDbEntity
  8
STANDARDEBENE
 62
     7
100
AcDbVertex
100
AcDb2dVertex
 10
12.52395561752873
 20
-1.302418348198701
 30
0.0
  0
VERTEX
  5
DE
330
DC
100
AcDbEntity
  8
STANDARDEBENE
 62
     7
100
AcDbVertex
100
AcDb2dVertex
 10
11.52418890770923
 20
-1.302418348198701
 30
0.0
  0
SEQEND
  5
DF
330
DC
100
AcDbEntity
  8
STANDARDEBENE
  0
POLYLINE
  5
E0
330
1F
100
AcDbEntity
  8
STANDARDEBENE
 62
     7
100
AcDb2dPolyline
 66
     1
 10
0.0
 20
0.0
 30
0.0
  0
VERTEX
  5
E1
330
E0
100
AcDbEntity
  8
STANDARDEBENE
 62
     7
100
AcDbVertex
100
AcDb2dVertex
 10
10.52442219788973
 20
-1.302418348198701
 30
0.0
  0
VERTEX
  5
E2
330
E0
100
AcDbEntity
  8
STANDARDEBENE
 62
     7
100
AcDbVertex
100
AcDb2dVertex
 10
9.523966468973175
 20
-1.302418348198701
 30
0.0
  0
SEQEND
  5
E3
330
E0
100
AcDbEntity
  8
STANDARDEBENE
  0
POLYLINE
  5
E4
330
1F
100
AcDbEntity
  8
STANDARDEBENE
 62
     7
100
AcDb2dPolyline
 66
     1
 10
0.0
 20
0.0
 30
0.0
  0
VERTEX
  5
E5
330
E4
100
AcDbEntity
  8
STANDARDEBENE
 62
     7
100
AcDbVertex
100
AcDb2dVertex
 10
8.524199759153673
 20
-1.302418348198701
 30
0.0
  0
VERTEX
  5
E6
330
E4
100
AcDbEntity
  8
STANDARDEBENE
 62
     7
100
AcDbVertex
100
AcDb2dVertex
 10
8.02431640424392
 20
-1.302418348198701
 30
0.0
  0
SEQEND
  5
E7
330
E4
100
AcDbEntity
  8
STANDARDEBENE
  0
POLYLINE
  5
E8
330
1F
100
AcDbEntity
  8
STANDARDEBENE
 62
     7
100
AcDb2dPolyline
 66
     1
 10
0.0
 20
0.0
 30
0.0
  0
VERTEX
  5
E9
330
E8
100
AcDbEntity
  8
STANDARDEBENE
 62
     7
100
AcDbVertex
100
AcDb2dVertex
 10
8.02431640424392
 20
-11.30215250368488
 30
0.0
  0
VERTEX
  5
EA
330
E8
100
AcDbEntity
  8
STANDARDEBENE
 62
     7
100
AcDbVertex
100
AcDb2dVertex
 10
8.524199759153673
 20
-11.30215250368488
 30
0.0
  0
SEQEND
  5
EB
330
E8
100
AcDbEntity
  8
STANDARDEBENE
  0
POLYLINE
  5
EC
330
1F
100
AcDbEntity
  8
STANDARDEBENE
 62
     7
100
AcDb2dPolyline
 66
     1
 10
0.0
 20
0.0
 30
0.0
  0
VERTEX
  5
ED
330
EC
100
AcDbEntity
  8
STANDARDEBENE
 62
     7
100
AcDbVertex
100
AcDb2dVertex
 10
9.523966468973175
 20
-11.30215250368488
 30
0.0
  0
VERTEX
  5
EE
330
EC
100
AcDbEntity
  8
STANDARDEBENE
 62
     7
100
AcDbVertex
100
AcDb2dVertex
 10
10.52442219788973
 20
-11.30215250368488
 30
0.0
  0
SEQEND
  5
EF
330
EC
100
AcDbEntity
  8
STANDARDEBENE
  0
POLYLINE
  5
F0
330
1F
100
AcDbEntity
  8
STANDARDEBENE
 62
     7
100
AcDb2dPolyline
 66
     1
 10
0.0
 20
0.0
 30
0.0
  0
VERTEX
  5
F1
330
F0
100
AcDbEntity
  8
STANDARDEBENE
 62
     7
100
AcDbVertex
100
AcDb2dVertex
 10
11.52418890770923
 20
-11.30215250368488
 30
0.0
  0
VERTEX
  5
F2
330
F0
100
AcDbEntity
  8
STANDARDEBENE
 62
     7
100
AcDbVertex
100
AcDb2dVertex
 10
12.52395561752873
 20
-11.30215250368488
 30
0.0
  0
SEQEND
  5
F3
330
F0
100
AcDbEntity
  8
STANDARDEBENE
  0
POLYLINE
  5
F4
330
1F
100
AcDbEntity
  8
STANDARDEBENE
 62
     7
100
AcDb2dPolyline
 66
     1
 10
0.0
 20
0.0
 30
0.0
  0
VERTEX
  5
F5
330
F4
100
AcDbEntity
  8
STANDARDEBENE
 62
     7
100
AcDbVertex
100
AcDb2dVertex
 10
13.52406683689676
 20
-11.30215250368488
 30
0.0
  0
VERTEX
  5
F6
330
F4
100
AcDbEntity
  8
STANDARDEBENE
 62
     7
100
AcDbVertex
100
AcDb2dVertex
 10
14.52452256581331
 20
-11.30215250368488
 30
0.0
  0
SEQEND
  5
F7
330
F4
100
AcDbEntity
  8
STANDARDEBENE
  0
POLYLINE
  5
F8
330
1F
100
AcDbEntity
  8
STANDARDEBENE
 62
     7
100
AcDb2dPolyline
 66
     1
 10
0.0
 20
0.0
 30
0.0
  0
VERTEX
  5
F9
330
F8
100
AcDbEntity
  8
STANDARDEBENE
 62
     7
100
AcDbVertex
100
AcDb2dVertex
 10
15.52428927563282
 20
-11.30215250368488
 30
0.0
  0
VERTEX
  5
FA
330
F8
100
AcDbEntity
  8
STANDARDEBENE
 62
     7
100
AcDbVertex
100
AcDb2dVertex
 10
16.52405598545232
 20
-11.30215250368488
 30
0.0
  0
SEQEND
  5
FB
330
F8
100
AcDbEntity
  8
STANDARDEBENE
  0
POLYLINE
  5
FC
330
1F
100
AcDbEntity
  8
STANDARDEBENE
 62
     7
100
AcDb2dPolyline
 66
     1
 10
0.0
 20
0.0
 30
0.0
  0
VERTEX
  5
FD
330
FC
100
AcDbEntity
  8
STANDARDEBENE
 62
     7
100
AcDbVertex
100
AcDb2dVertex
 10
17.52416720482035
 20
-11.30215250368488
 30
0.0
  0
VERTEX
  5
FE
330
FC
100
AcDbEntity
  8
STANDARDEBENE
 62
     7
100
AcDbVertex
100
AcDb2dVertex
 10
18.52393391463985
 20
-11.30215250368488
 30
0.0
  0
SEQEND
  5
FF
330
FC
100
AcDbEntity
  8
STANDARDEBENE
  0
POLYLINE
  5
100
330
1F
100
AcDbEntity
  8
STANDARDEBENE
 62
     7
100
AcDb2dPolyline
 66
     1
 10
0.0
 20
0.0
 30
0.0
  0
VERTEX
  5
101
330
100
100
AcDbEntity
  8
STANDARDEBENE
 62
     7
100
AcDbVertex
100
AcDb2dVertex
 10
19.5243896435564
 20
-11.30215250368488
 30
0.0
  0
VERTEX
  5
102
330
100
100
AcDbEntity
  8
STANDARDEBENE
 62
     7
100
AcDbVertex
100
AcDb2dVertex
 10
20.52415635337591
 20
-11.30215250368488
 30
0.0
  0
SEQEND
  5
103
330
100
100
AcDbEntity
  8
STANDARDEBENE
  0
POLYLINE
  5
104
330
1F
100
AcDbEntity
  8
STANDARDEBENE
 62
     7
100
AcDb2dPolyline
 66
     1
 10
0.0
 20
0.0
 30
0.0
  0
VERTEX
  5
105
330
104
100
AcDbEntity
  8
STANDARDEBENE
 62
     7
100
AcDbVertex
100
AcDb2dVertex
 10
21.52392306319541
 20
-11.30215250368488
 30
0.0
  0
VERTEX
  5
106
330
104
100
AcDbEntity
  8
STANDARDEBENE
 62
     7
100
AcDbVertex
100
AcDb2dVertex
 10
22.5242065373377
 20
-11.30215250368488
 30
0.0
  0
SEQEND
  5
107
330
104
100
AcDbEntity
  8
STANDARDEBENE
  0
POLYLINE
  5
108
330
1F
100
AcDbEntity
  8
STANDARDEBENE
 62
     7
100
AcDb2dPolyline
 66
     1
 10
0.0
 20
0.0
 30
0.0
  0
VERTEX
  5
109
330
108
100
AcDbEntity
  8
STANDARDEBENE
 62
     7
100
AcDbVertex
100
AcDb2dVertex
 10
23.5239732471572
 20
-11.30215250368488
 30
0.0
  0
VERTEX
  5
10A
330
108
100
AcDbEntity
  8
STANDARDEBENE
 62
     7
100
AcDbVertex
100
AcDb2dVertex
 10
24.52442897607375
 20
-11.30215250368488
 30
0.0
  0
SEQEND
  5
10B
330
108
100
AcDbEntity
  8
STANDARDEBENE
  0
POLYLINE
  5
10C
330
1F
100
AcDbEntity
  8
STANDARDEBENE
 62
     7
100
AcDb2dPolyline
 66
     1
 10
0.0
 20
0.0
 30
0.0
  0
VERTEX
  5
10D
330
10C
100
AcDbEntity
  8
STANDARDEBENE
 62
     7
100
AcDbVertex
100
AcDb2dVertex
 10
25.52419568589326
 20
-11.30215250368488
 30
0.0
  0
VERTEX
  5
10E
330
10C
100
AcDbEntity
  8
STANDARDEBENE
 62
     7
100
AcDbVertex
100
AcDb2dVertex
 10
26.52430690526128
 20
-11.30215250368488
 30
0.0
  0
SEQEND
  5
10F
330
10C
100
AcDbEntity
  8
STANDARDEBENE
  0
POLYLINE
  5
110
330
1F
100
AcDbEntity
  8
STANDARDEBENE
 62
     7
100
AcDb2dPolyline
 66
     1
 10
0.0
 20
0.0
 30
0.0
  0
VERTEX
  5
111
330
110
100
AcDbEntity
  8
STANDARDEBENE
 62
     7
100
AcDbVertex
100
AcDb2dVertex
 10
27.52407361508079
 20
-11.30215250368488
 30
0.0
  0
VERTEX
  5
112
330
110
100
AcDbEntity
  8
STANDARDEBENE
 62
     7
100
AcDbVertex
100
AcDb2dVertex
 10
28.52452934399734
 20
-11.30215250368488
 30
0.0
  0
SEQEND
  5
113
330
110
100
AcDbEntity
  8
STANDARDEBENE
  0
POLYLINE
  5
114
330
1F
100
AcDbEntity
  8
STANDARDEBENE
 62
     7
100
AcDb2dPolyline
 66
     1
 10
0.0
 20
0.0
 30
0.0
  0
VERTEX
  5
115
330
114
100
AcDbEntity
  8
STANDARDEBENE
 62
     7
100
AcDbVertex
100
AcDb2dVertex
 10
29.52429605381684
 20
-11.30215250368488
 30
0.0
  0
VERTEX
  5
116
330
114
100
AcDbEntity
  8
STANDARDEBENE
 62
     7
100
AcDbVertex
100
AcDb2dVertex
 10
30.52440727318487
 20
-11.30215250368488
 30
0.0
  0
SEQEND
  5
117
330
114
100
AcDbEntity
  8
STANDARDEBENE
  0
POLYLINE
  5
118
330
1F
100
AcDbEntity
  8
STANDARDEBENE
 62
     7
100
AcDb2dPolyline
 66
     1
 10
0.0
 20
0.0
 30
0.0
  0
VERTEX
  5
119
330
118
100
AcDbEntity
  8
STANDARDEBENE
 62
     7
100
AcDbVertex
100
AcDb2dVertex
 10
31.52417398300437
 20
-11.30215250368488
 30
0.0
  0
VERTEX
  5
11A
330
118
100
AcDbEntity
  8
STANDARDEBENE
 62
     7
100
AcDbVertex
100
AcDb2dVertex
 10
32.52394069282388
 20
-11.30215250368488
 30
0.0
  0
SEQEND
  5
11B
330
118
100
AcDbEntity
  8
STANDARDEBENE
  0
POLYLINE
  5
11C
330
1F
100
AcDbEntity
  8
STANDARDEBENE
 62
     7
100
AcDb2dPolyline
 66
     1
 10
0.0
 20
0.0
 30
0.0
  0
VERTEX
  5
11D
330
11C
100
AcDbEntity
  8
STANDARDEBENE
 62
     7
100
AcDbVertex
100
AcDb2dVertex
 10
33.52439642174043
 20
-11.30215250368488
 30
0.0
  0
VERTEX
  5
11E
330
11C
100
AcDbEntity
  8
STANDARDEBENE
 62
     7
100
AcDbVertex
100
AcDb2dVertex
 10
34.52416313155993
 20
-11.30215250368488
 30
0.0
  0
SEQEND
  5
11F
330
11C
100
AcDbEntity
  8
STANDARDEBENE
  0
POLYLINE
  5
120
330
1F
100
AcDbEntity
  8
STANDARDEBENE
 62
     7
100
AcDb2dPolyline
 66
     1
 10
0.0
 20
0.0
 30
0.0
  0
VERTEX
  5
121
330
120
100
AcDbEntity
  8
STANDARDEBENE
 62
     7
100
AcDbVertex
100
AcDb2dVertex
 10
35.52427435092796
 20
-11.30215250368488
 30
0.0
  0
VERTEX
  5
122
330
120
100
AcDbEntity
  8
STANDARDEBENE
 62
     7
100
AcDbVertex
100
AcDb2dVertex
 10
36.52404106074746
 20
-11.30215250368488
 30
0.0
  0
SEQEND
  5
123
330
120
100
AcDbEntity
  8
STANDARDEBENE
  0
POLYLINE
  5
124
330
1F
100
AcDbEntity
  8
STANDARDEBENE
 62
     7
100
AcDb2dPolyline
 66
     1
 10
0.0
 20
0.0
 30
0.0
  0
VERTEX
  5
125
330
124
100
AcDbEntity
  8
STANDARDEBENE
 62
     7
100
AcDbVertex
100
AcDb2dVertex
 10
37.52380777056697
 20
-11.30215250368488
 30
0.0
  0
VERTEX
  5
126
330
124
100
AcDbEntity
  8
STANDARDEBENE
 62
     7
100
AcDbVertex
100
AcDb2dVertex
 10
38.52443575425778
 20
-11.30215250368488
 30
0.0
  0
SEQEND
  5
127
330
124
100
AcDbEntity
  8
STANDARDEBENE
  0
POLYLINE
  5
128
330
1F
100
AcDbEntity
  8
STANDARDEBENE
 62
     7
100
AcDb2dPolyline
 66
     1
 10
0.0
 20
0.0
 30
0.0
  0
VERTEX
  5
129
330
128
100
AcDbEntity
  8
STANDARDEBENE
 62
     7
100
AcDbVertex
100
AcDb2dVertex
 10
39.52454697362581
 20
-11.30215250368488
 30
0.0
  0
VERTEX
  5
12A
330
128
100
AcDbEntity
  8
STANDARDEBENE
 62
     7
100
AcDbVertex
100
AcDb2dVertex
 10
40.52431368344531
 20
-11.30215250368488
 30
0.0
  0
SEQEND
  5
12B
330
128
100
AcDbEntity
  8
STANDARDEBENE
  0
POLYLINE
  5
12C
330
1F
100
AcDbEntity
  8
STANDARDEBENE
 62
     7
100
AcDb2dPolyline
 66
     1
 10
0.0
 20
0.0
 30
0.0
  0
VERTEX
  5
12D
330
12C
100
AcDbEntity
  8
STANDARDEBENE
 62
     7
100
AcDbVertex
100
AcDb2dVertex
 10
41.52408039326482
 20
-11.30215250368488
 30
0.0
  0
VERTEX
  5
12E
330
12C
100
AcDbEntity
  8
STANDARDEBENE
 62
     7
100
AcDbVertex
100
AcDb2dVertex
 10
42.02430825772309
 20
-11.30215250368488
 30
0.0
  0
SEQEND
  5
12F
330
12C
100
AcDbEntity
  8
STANDARDEBENE
  0
SPLINE
  5
130
330
1F
100
AcDbEntity
  8
STANDARDEBENE
 62
     7
100
AcDbSpline
210
0.0
220
0.0
230
1.0
 70
     8
 71
     3
 72
    17
 73
    13
 74
     0
 42
0.0000000001
 43
0.0000000001
 40
0.0
 40
0.0
 40
0.0
 40
0.0
 40
1.0
 40
1.0
 40
1.0
 40
2.0
 40
2.0
 40
2.0
 40
3.0
 40
3.0
 40
3.0
 40
4.0
 40
4.0
 40
4.0
 40
4.0
 10
38.1716579765682
 20
-3.887101236007391
 30
0.0
 10
37.94927706299532
 20
-3.827845593661094
 30
0.0
 10
37.72569036600261
 20
-3.800457084553358
 30
0.0
 10
37.52380777056697
 20
-3.802179632295983
 30
0.0
 10
36.14353026440162
 20
-3.802179632295983
 30
0.0
 10
35.02404648646969
 20
-4.921491155453655
 30
0.0
 10
35.02404648646969
 20
-6.30228542594179
 30
0.0
 10
35.02404648646969
 20
-7.683079696429925
 30
0.0
 10
36.14353026440162
 20
-8.802046710039072
 30
0.0
 10
37.52380777056697
 20
-8.802046710039072
 30
0.0
 10
38.67464191741468
 20
-8.802046710039072
 30
0.0
 10
39.64374727741546
 20
-8.024833168566708
 30
0.0
 10
39.93899196050136
 20
-6.948929848523185
 30
0.0
  0
POLYLINE
  5
131
330
1F
100
AcDbEntity
  8
STANDARDEBENE
 62
     7
100
AcDb2dPolyline
 66
     1
 10
0.0
 20
0.0
 30
0.0
  0
VERTEX
  5
132
330
131
100
AcDbEntity
  8
STANDARDEBENE
 62
     7
100
AcDbVertex
100
AcDb2dVertex
 10
38.1716579765682
 20
-3.887101236007391
 30
0.0
  0
VERTEX
  5
133
330
131
100
AcDbEntity
  8
STANDARDEBENE
 62
     7
100
AcDbVertex
100
AcDb2dVertex
 10
37.68503823927666
 20
-3.831118434372082
 30
0.0
  0
SEQEND
  5
134
330
131
100
AcDbEntity
  8
STANDARDEBENE
  0
POLYLINE
  5
135
330
1F
100
AcDbEntity
  8
STANDARDEBENE
 62
     7
100
AcDb2dPolyline
 66
     1
 10
0.0
 20
0.0
 30
0.0
  0
VERTEX
  5
136
330
135
100
AcDbEntity
  8
STANDARDEBENE
 62
     7
100
AcDbVertex
100
AcDb2dVertex
 10
36.72058375818096
 20
-3.934815808478102
 30
0.0
  0
VERTEX
  5
137
330
135
100
AcDbEntity
  8
STANDARDEBENE
 62
     7
100
AcDbVertex
100
AcDb2dVertex
 10
36.06791041850038
 20
-4.270368108741436
 30
0.0
  0
VERTEX
  5
138
330
135
100
AcDbEntity
  8
STANDARDEBENE
 62
     7
100
AcDbVertex
100
AcDb2dVertex
 10
35.89221054875264
 20
-4.439866806615728
 30
0.0
  0
SEQEND
  5
139
330
135
100
AcDbEntity
  8
STANDARDEBENE
  0
POLYLINE
  5
13A
330
1F
100
AcDbEntity
  8
STANDARDEBENE
 62
     7
100
AcDb2dPolyline
 66
     1
 10
0.0
 20
0.0
 30
0.0
  0
VERTEX
  5
13B
330
13A
100
AcDbEntity
  8
STANDARDEBENE
 62
     7
100
AcDbVertex
100
AcDb2dVertex
 10
35.30344373032344
 20
-5.207950845052179
 30
0.0
  0
VERTEX
  5
13C
330
13A
100
AcDbEntity
  8
STANDARDEBENE
 62
     7
100
AcDbVertex
100
AcDb2dVertex
 10
35.1842434265338
 20
-5.421719019911931
 30
0.0
  0
VERTEX
  5
13D
330
13A
100
AcDbEntity
  8
STANDARDEBENE
 62
     7
100
AcDbVertex
100
AcDb2dVertex
 10
35.02973089402035
 20
-6.138298880843898
 30
0.0
  0
SEQEND
  5
13E
330
13A
100
AcDbEntity
  8
STANDARDEBENE
  0
POLYLINE
  5
13F
330
1F
100
AcDbEntity
  8
STANDARDEBENE
 62
     7
100
AcDb2dPolyline
 66
     1
 10
0.0
 20
0.0
 30
0.0
  0
VERTEX
  5
140
330
13F
100
AcDbEntity
  8
STANDARDEBENE
 62
     7
100
AcDbVertex
100
AcDb2dVertex
 10
35.17959254762872
 20
-7.097413463937452
 30
0.0
  0
VERTEX
  5
141
330
13F
100
AcDbEntity
  8
STANDARDEBENE
 62
     7
100
AcDbVertex
100
AcDb2dVertex
 10
35.35890976763597
 20
-7.552166067990431
 30
0.0
  0
VERTEX
  5
142
330
13F
100
AcDbEntity
  8
STANDARDEBENE
 62
     7
100
AcDbVertex
100
AcDb2dVertex
 10
35.66328395375779
 20
-7.935260685950213
 30
0.0
  0
SEQEND
  5
143
330
13F
100
AcDbEntity
  8
STANDARDEBENE
  0
POLYLINE
  5
144
330
1F
100
AcDbEntity
  8
STANDARDEBENE
 62
     7
100
AcDb2dPolyline
 66
     1
 10
0.0
 20
0.0
 30
0.0
  0
VERTEX
  5
145
330
144
100
AcDbEntity
  8
STANDARDEBENE
 62
     7
100
AcDbVertex
100
AcDb2dVertex
 10
36.41862113889882
 20
-8.544525822516647
 30
0.0
  0
VERTEX
  5
146
330
144
100
AcDbEntity
  8
STANDARDEBENE
 62
     7
100
AcDbVertex
100
AcDb2dVertex
 10
37.1167697389847
 20
-8.768629283832148
 30
0.0
  0
VERTEX
  5
147
330
144
100
AcDbEntity
  8
STANDARDEBENE
 62
     7
100
AcDbVertex
100
AcDb2dVertex
 10
37.36119926366317
 20
-8.772418888865923
 30
0.0
  0
SEQEND
  5
148
330
144
100
AcDbEntity
  8
STANDARDEBENE
  0
POLYLINE
  5
149
330
1F
100
AcDbEntity
  8
STANDARDEBENE
 62
     7
100
AcDb2dPolyline
 66
     1
 10
0.0
 20
0.0
 30
0.0
  0
VERTEX
  5
14A
330
149
100
AcDbEntity
  8
STANDARDEBENE
 62
     7
100
AcDbVertex
100
AcDb2dVertex
 10
38.32083061107951
 20
-8.646156139331516
 30
0.0
  0
VERTEX
  5
14B
330
149
100
AcDbEntity
  8
STANDARDEBENE
 62
     7
100
AcDbVertex
100
AcDb2dVertex
 10
38.55578612317355
 20
-8.579149032143407
 30
0.0
  0
VERTEX
  5
14C
330
149
100
AcDbEntity
  8
STANDARDEBENE
 62
     7
100
AcDbVertex
100
AcDb2dVertex
 10
39.17245821503327
 20
-8.181585013145577
 30
0.0
  0
SEQEND
  5
14D
330
149
100
AcDbEntity
  8
STANDARDEBENE
  0
POLYLINE
  5
14E
330
1F
100
AcDbEntity
  8
STANDARDEBENE
 62
     7
100
AcDb2dPolyline
 66
     1
 10
0.0
 20
0.0
 30
0.0
  0
VERTEX
  5
14F
330
14E
100
AcDbEntity
  8
STANDARDEBENE
 62
     7
100
AcDbVertex
100
AcDb2dVertex
 10
39.74468857513327
 20
-7.397998045025501
 30
0.0
  0
VERTEX
  5
150
330
14E
100
AcDbEntity
  8
STANDARDEBENE
 62
     7
100
AcDbVertex
100
AcDb2dVertex
 10
39.93899196050136
 20
-6.948929848523185
 30
0.0
  0
SEQEND
  5
151
330
14E
100
AcDbEntity
  8
STANDARDEBENE
  0
POLYLINE
  5
152
330
1F
100
AcDbEntity
  8
STANDARDEBENE
 62
     7
100
AcDb2dPolyline
 66
     1
 10
0.0
 20
0.0
 30
0.0
  0
VERTEX
  5
153
330
152
100
AcDbEntity
  8
STANDARDEBENE
 62
     7
100
AcDbVertex
100
AcDb2dVertex
 10
37.52380777056697
 20
-8.658041718755628
 30
0.0
  0
VERTEX
  5
154
330
152
100
AcDbEntity
  8
STANDARDEBENE
 62
     7
100
AcDbVertex
100
AcDb2dVertex
 10
37.53310952837714
 20
-8.656663680561529
 30
0.0
  0
SEQEND
  5
155
330
152
100
AcDbEntity
  8
STANDARDEBENE
  0
POLYLINE
  5
156
330
1F
100
AcDbEntity
  8
STANDARDEBENE
 62
     7
100
AcDb2dPolyline
 66
     1
 10
0.0
 20
0.0
 30
0.0
  0
VERTEX
  5
157
330
156
100
AcDbEntity
  8
STANDARDEBENE
 62
     7
100
AcDbVertex
100
AcDb2dVertex
 10
37.54999049625486
 20
-8.654941132818903
 30
0.0
  0
VERTEX
  5
158
330
156
100
AcDbEntity
  8
STANDARDEBENE
 62
     7
100
AcDbVertex
100
AcDb2dVertex
 10
37.55843098019373
 20
-8.654596623270379
 30
0.0
  0
SEQEND
  5
159
330
156
100
AcDbEntity
  8
STANDARDEBENE
  0
POLYLINE
  5
15A
330
1F
100
AcDbEntity
  8
STANDARDEBENE
 62
     7
100
AcDb2dPolyline
 66
     1
 10
0.0
 20
0.0
 30
0.0
  0
VERTEX
  5
15B
330
15A
100
AcDbEntity
  8
STANDARDEBENE
 62
     7
100
AcDbVertex
100
AcDb2dVertex
 10
37.55774196109667
 20
-3.949974228613201
 30
0.0
  0
VERTEX
  5
15C
330
15A
100
AcDbEntity
  8
STANDARDEBENE
 62
     7
100
AcDbVertex
100
AcDb2dVertex
 10
37.52380777056697
 20
-3.946529133127951
 30
0.0
  0
VERTEX
  5
15D
330
15A
100
AcDbEntity
  8
STANDARDEBENE
 62
     7
100
AcDbVertex
100
AcDb2dVertex
 10
37.12452120382651
 20
-3.987009005079637
 30
0.0
  0
SEQEND
  5
15E
330
15A
100
AcDbEntity
  8
STANDARDEBENE
  0
POLYLINE
  5
15F
330
1F
100
AcDbEntity
  8
STANDARDEBENE
 62
     7
100
AcDb2dPolyline
 66
     1
 10
0.0
 20
0.0
 30
0.0
  0
VERTEX
  5
160
330
15F
100
AcDbEntity
  8
STANDARDEBENE
 62
     7
100
AcDbVertex
100
AcDb2dVertex
 10
36.35126952216218
 20
-4.380955673817955
 30
0.0
  0
VERTEX
  5
161
330
15F
100
AcDbEntity
  8
STANDARDEBENE
 62
     7
100
AcDbVertex
100
AcDb2dVertex
 10
35.97868244543241
 20
-4.581115721510971
 30
0.0
  0
SEQEND
  5
162
330
15F
100
AcDbEntity
  8
STANDARDEBENE
  0
POLYLINE
  5
163
330
1F
100
AcDbEntity
  8
STANDARDEBENE
 62
     7
100
AcDb2dPolyline
 66
     1
 10
0.0
 20
0.0
 30
0.0
  0
VERTEX
  5
164
330
163
100
AcDbEntity
  8
STANDARDEBENE
 62
     7
100
AcDbVertex
100
AcDb2dVertex
 10
37.4960747519107
 20
-4.204222275424639
 30
0.0
  0
VERTEX
  5
165
330
163
100
AcDbEntity
  8
STANDARDEBENE
 62
     7
100
AcDbVertex
100
AcDb2dVertex
 10
37.60545653356738
 20
-4.210595702072351
 30
0.0
  0
SEQEND
  5
166
330
163
100
AcDbEntity
  8
STANDARDEBENE
  0
POLYLINE
  5
167
330
1F
100
AcDbEntity
  8
STANDARDEBENE
 62
     7
100
AcDb2dPolyline
 66
     1
 10
0.0
 20
0.0
 30
0.0
  0
VERTEX
  5
168
330
167
100
AcDbEntity
  8
STANDARDEBENE
 62
     7
100
AcDbVertex
100
AcDb2dVertex
 10
37.82404784210649
 20
-4.224031574464826
 30
0.0
  0
VERTEX
  5
169
330
167
100
AcDbEntity
  8
STANDARDEBENE
 62
     7
100
AcDbVertex
100
AcDb2dVertex
 10
37.9310180569235
 20
-4.247285968990262
 30
0.0
  0
SEQEND
  5
16A
330
167
100
AcDbEntity
  8
STANDARDEBENE
  0
POLYLINE
  5
16B
330
1F
100
AcDbEntity
  8
STANDARDEBENE
 62
     7
100
AcDb2dPolyline
 66
     1
 10
0.0
 20
0.0
 30
0.0
  0
VERTEX
  5
16C
330
16B
100
AcDbEntity
  8
STANDARDEBENE
 62
     7
100
AcDbVertex
100
AcDb2dVertex
 10
37.73413084994147
 20
-8.38501790154958
 30
0.0
  0
VERTEX
  5
16D
330
16B
100
AcDbEntity
  8
STANDARDEBENE
 62
     7
100
AcDbVertex
100
AcDb2dVertex
 10
37.68228216288846
 20
-8.393113875939916
 30
0.0
  0
SEQEND
  5
16E
330
16B
100
AcDbEntity
  8
STANDARDEBENE
  0
POLYLINE
  5
16F
330
1F
100
AcDbEntity
  8
STANDARDEBENE
 62
     7
100
AcDb2dPolyline
 66
     1
 10
0.0
 20
0.0
 30
0.0
  0
VERTEX
  5
170
330
16F
100
AcDbEntity
  8
STANDARDEBENE
 62
     7
100
AcDbVertex
100
AcDb2dVertex
 10
37.57824027923392
 20
-8.40034857645894
 30
0.0
  0
VERTEX
  5
171
330
16F
100
AcDbEntity
  8
STANDARDEBENE
 62
     7
100
AcDbVertex
100
AcDb2dVertex
 10
37.52570257308385
 20
-8.402071124201566
 30
0.0
  0
VERTEX
  5
172
330
16F
100
AcDbEntity
  8
STANDARDEBENE
 62
     7
100
AcDbVertex
100
AcDb2dVertex
 10
37.52570257308385
 20
-8.402071124201566
 30
0.0
  0
VERTEX
  5
173
330
16F
100
AcDbEntity
  8
STANDARDEBENE
 62
     7
100
AcDbVertex
100
AcDb2dVertex
 10
37.52380777056697
 20
-8.402071124201566
 30
0.0
  0
SEQEND
  5
174
330
16F
100
AcDbEntity
  8
STANDARDEBENE
  0
POLYLINE
  5
175
330
1F
100
AcDbEntity
  8
STANDARDEBENE
 62
     7
100
AcDb2dPolyline
 66
     1
 10
0.0
 20
0.0
 30
0.0
  0
VERTEX
  5
176
330
175
100
AcDbEntity
  8
STANDARDEBENE
 62
     7
100
AcDbVertex
100
AcDb2dVertex
 10
99.18085392485757
 20
-3.802179632295983
 30
0.0
  0
VERTEX
  5
177
330
175
100
AcDbEntity
  8
STANDARDEBENE
 62
     7
100
AcDbVertex
100
AcDb2dVertex
 10
99.17844235801789
 20
-3.803557670490083
 30
0.0
  0
SEQEND
  5
178
330
175
100
AcDbEntity
  8
STANDARDEBENE
  0
POLYLINE
  5
179
330
1F
100
AcDbEntity
  8
STANDARDEBENE
 62
     7
100
AcDb2dPolyline
 66
     1
 10
0.0
 20
0.0
 30
0.0
  0
VERTEX
  5
17A
330
179
100
AcDbEntity
  8
STANDARDEBENE
 62
     7
100
AcDbVertex
100
AcDb2dVertex
 10
99.18085392485757
 20
-8.802046710039072
 30
0.0
  0
VERTEX
  5
17B
330
179
100
AcDbEntity
  8
STANDARDEBENE
 62
     7
100
AcDbVertex
100
AcDb2dVertex
 10
99.17878686756642
 20
-8.800668671844972
 30
0.0
  0
SEQEND
  5
17C
330
179
100
AcDbEntity
  8
STANDARDEBENE
  0
POLYLINE
  5
17D
330
1F
100
AcDbEntity
  8
STANDARDEBENE
 62
     7
100
AcDb2dPolyline
 66
     1
 10
0.0
 20
0.0
 30
0.0
  0
VERTEX
  5
17E
330
17D
100
AcDbEntity
  8
STANDARDEBENE
 62
     7
100
AcDbVertex
100
AcDb2dVertex
 10
90.52022838448801
 20
-8.802046710039072
 30
0.0
  0
VERTEX
  5
17F
330
17D
100
AcDbEntity
  8
STANDARDEBENE
 62
     7
100
AcDbVertex
100
AcDb2dVertex
 10
90.52263995132768
 20
-8.800668671844972
 30
0.0
  0
SEQEND
  5
180
330
17D
100
AcDbEntity
  8
STANDARDEBENE
  0
POLYLINE
  5
181
330
1F
100
AcDbEntity
  8
STANDARDEBENE
 62
     7
100
AcDb2dPolyline
 66
     1
 10
0.0
 20
0.0
 30
0.0
  0
VERTEX
  5
182
330
181
100
AcDbEntity
  8
STANDARDEBENE
 62
     7
100
AcDbVertex
100
AcDb2dVertex
 10
90.52022838448801
 20
-3.802179632295983
 30
0.0
  0
VERTEX
  5
183
330
181
100
AcDbEntity
  8
STANDARDEBENE
 62
     7
100
AcDbVertex
100
AcDb2dVertex
 10
90.52263995132768
 20
-3.802868651393033
 30
0.0
  0
SEQEND
  5
184
330
181
100
AcDbEntity
  8
STANDARDEBENE
  0
POLYLINE
  5
185
330
1F
100
AcDbEntity
  8
STANDARDEBENE
  6
AI-LINETYPE-1
 62
   250
100
AcDb2dPolyline
 66
     1
 10
0.0
 20
0.0
 30
0.0
  0
VERTEX
  5
186
330
185
100
AcDbEntity
  8
STANDARDEBENE
  6
AI-LINETYPE-1
 62
   250
100
AcDbVertex
100
AcDb2dVertex
 10
94.85105791899558
 20
-20.68865966279659
 30
0.0
  0
VERTEX
  5
187
330
185
100
AcDbEntity
  8
STANDARDEBENE
  6
AI-LINETYPE-1
 62
   250
100
AcDbVertex
100
AcDb2dVertex
 10
94.85105791899558
 20
7.406438528964363
 30
0.0
  0
SEQEND
  5
188
330
185
100
AcDbEntity
  8
STANDARDEBENE
  6
AI-LINETYPE-1
  0
POLYLINE
  5
18A
330
1F
100
AcDbEntity
  8
STANDARDEBENE
  6
AI-LINETYPE-2
 62
   250
100
AcDb2dPolyline
 66
     1
 10
0.0
 20
0.0
 30
0.0
  0
VERTEX
  5
18B
330
18A
100
AcDbEntity
  8
STANDARDEBENE
  6
AI-LINETYPE-2
 62
   250
100
AcDbVertex
100
AcDb2dVertex
 10
81.15645885557895
 20
-6.30228542594179
 30
0.0
  0
VERTEX
  5
18C
330
18A
100
AcDbEntity
  8
STANDARDEBENE
  6
AI-LINETYPE-2
 62
   250
100
AcDbVertex
100
AcDb2dVertex
 10
108.9559678547055
 20
-6.30228542594179
 30
0.0
  0
SEQEND
  5
18D
330
18A
100
AcDbEntity
  8
STANDARDEBENE
  6
AI-LINETYPE-2
  0
POLYLINE
  5
18F
330
1F
100
AcDbEntity
  8
STANDARDEBENE
  6
AI-LINETYPE-3
 62
   250
100
AcDb2dPolyline
 66
     1
 10
0.0
 20
0.0
 30
0.0
  0
VERTEX
  5
190
330
18F
100
AcDbEntity
  8
STANDARDEBENE
  6
AI-LINETYPE-3
 62
   250
100
AcDbVertex
100
AcDb2dVertex
 10
44.50977239555659
 20
-6.30228542594179
 30
0.0
  0
VERTEX
  5
191
330
18F
100
AcDbEntity
  8
STANDARDEBENE
  6
AI-LINETYPE-3
 62
   250
100
AcDbVertex
100
AcDb2dVertex
 10
6.450941296130321
 20
-6.30228542594179
 30
0.0
  0
SEQEND
  5
192
330
18F
100
AcDbEntity
  8
STANDARDEBENE
  6
AI-LINETYPE-3
  0
POLYLINE
  5
194
330
1F
100
AcDbEntity
  8
STANDARDEBENE
 62
   250
100
AcDb2dPolyline
 66
     1
 10
0.0
 20
0.0
 30
0.0
  0
VERTEX
  5
195
330
194
100
AcDbEntity
  8
STANDARDEBENE
 62
   250
100
AcDbVertex
100
AcDb2dVertex
 10
15.02406141117454
 20
6.697954642422734
 30
0.0
  0
VERTEX
  5
196
330
194
100
AcDbEntity
  8
STANDARDEBENE
 62
   250
100
AcDbVertex
100
AcDb2dVertex
 10
10.52442219788973
 20
4.099835882221569
 30
0.0
  0
SEQEND
  5
197
330
194
100
AcDbEntity
  8
STANDARDEBENE
  0
POLYLINE
  5
198
330
1F
100
AcDbEntity
  8
STANDARDEBENE
 62
   250
100
AcDb2dPolyline
 66
     1
 10
0.0
 20
0.0
 30
0.0
  0
VERTEX
  5
199
330
198
100
AcDbEntity
  8
STANDARDEBENE
 62
   250
100
AcDbVertex
100
AcDb2dVertex
 10
10.52442219788973
 20
-16.70423447933089
 30
0.0
  0
VERTEX
  5
19A
330
198
100
AcDbEntity
  8
STANDARDEBENE
 62
   250
100
AcDbVertex
100
AcDb2dVertex
 10
15.02406141117454
 20
-19.30218098475779
 30
0.0
  0
SEQEND
  5
19B
330
198
100
AcDbEntity
  8
STANDARDEBENE
  0
POLYLINE
  5
19C
330
1F
100
AcDbEntity
  8
STANDARDEBENE
 62
   250
100
AcDb2dPolyline
 66
     1
 10
0.0
 20
0.0
 30
0.0
  0
VERTEX
  5
19D
330
19C
100
AcDbEntity
  8
STANDARDEBENE
 62
   250
100
AcDbVertex
100
AcDb2dVertex
 10
19.46771782282404
 20
-19.30218098475779
 30
0.0
  0
VERTEX
  5
19E
330
19C
100
AcDbEntity
  8
STANDARDEBENE
 62
   250
100
AcDbVertex
100
AcDb2dVertex
 10
34.02393526710166
 20
-17.25596652129365
 30
0.0
  0
SEQEND
  5
19F
330
19C
100
AcDbEntity
  8
STANDARDEBENE
  0
POLYLINE
  5
1A0
330
1F
100
AcDbEntity
  8
STANDARDEBENE
 62
   250
100
AcDb2dPolyline
 66
     1
 10
0.0
 20
0.0
 30
0.0
  0
VERTEX
  5
1A1
330
1A0
100
AcDbEntity
  8
STANDARDEBENE
 62
   250
100
AcDbVertex
100
AcDb2dVertex
 10
34.02393526710166
 20
4.652084688507118
 30
0.0
  0
VERTEX
  5
1A2
330
1A0
100
AcDbEntity
  8
STANDARDEBENE
 62
   250
100
AcDbVertex
100
AcDb2dVertex
 10
19.46771782282404
 20
6.697954642422734
 30
0.0
  0
VERTEX
  5
1A3
330
1A0
100
AcDbEntity
  8
STANDARDEBENE
 62
   250
100
AcDbVertex
100
AcDb2dVertex
 10
18.02439506927863
 20
4.197848848776927
 30
0.0
  0
SEQEND
  5
1A4
330
1A0
100
AcDbEntity
  8
STANDARDEBENE
  0
POLYLINE
  5
1A5
330
1F
100
AcDbEntity
  8
STANDARDEBENE
 62
   250
100
AcDb2dPolyline
 66
     1
 10
0.0
 20
0.0
 30
0.0
  0
VERTEX
  5
1A6
330
1A5
100
AcDbEntity
  8
STANDARDEBENE
 62
   250
100
AcDbVertex
100
AcDb2dVertex
 10
18.02439506927863
 20
-16.80224744588624
 30
0.0
  0
VERTEX
  5
1A7
330
1A5
100
AcDbEntity
  8
STANDARDEBENE
 62
   250
100
AcDbVertex
100
AcDb2dVertex
 10
19.46771782282404
 20
-19.30218098475779
 30
0.0
  0
SEQEND
  5
1A8
330
1A5
100
AcDbEntity
  8
STANDARDEBENE
  0
POLYLINE
  5
1A9
330
1F
100
AcDbEntity
  8
STANDARDEBENE
 62
   250
100
AcDb2dPolyline
 66
     1
 10
0.0
 20
0.0
 30
0.0
  0
VERTEX
  5
1AA
330
1A9
100
AcDbEntity
  8
STANDARDEBENE
 62
   250
100
AcDbVertex
100
AcDb2dVertex
 10
10.52442219788973
 20
4.099835882221569
 30
0.0
  0
VERTEX
  5
1AB
330
1A9
100
AcDbEntity
  8
STANDARDEBENE
 62
   250
100
AcDbVertex
100
AcDb2dVertex
 10
9.024427623611949
 20
1.697915309905382
 30
0.0
  0
SEQEND
  5
1AC
330
1A9
100
AcDbEntity
  8
STANDARDEBENE
  0
POLYLINE
  5
1AD
330
1F
100
AcDbEntity
  8
STANDARDEBENE
 62
   250
100
AcDb2dPolyline
 66
     1
 10
0.0
 20
0.0
 30
0.0
  0
VERTEX
  5
1AE
330
1AD
100
AcDbEntity
  8
STANDARDEBENE
 62
   250
100
AcDbVertex
100
AcDb2dVertex
 10
9.024427623611949
 20
-14.30214165224044
 30
0.0
  0
VERTEX
  5
1AF
330
1AD
100
AcDbEntity
  8
STANDARDEBENE
 62
   250
100
AcDbVertex
100
AcDb2dVertex
 10
10.52442219788973
 20
-16.70423447933089
 30
0.0
  0
SEQEND
  5
1B0
330
1AD
100
AcDbEntity
  8
STANDARDEBENE
  0
POLYLINE
  5
1B1
330
1F
100
AcDbEntity
  8
STANDARDEBENE
 62
   250
100
AcDb2dPolyline
 66
     1
 10
0.0
 20
0.0
 30
0.0
  0
VERTEX
  5
1B2
330
1B1
100
AcDbEntity
  8
STANDARDEBENE
 62
   250
100
AcDbVertex
100
AcDb2dVertex
 10
18.02439506927863
 20
3.697965493867176
 30
0.0
  0
VERTEX
  5
1B3
330
1B1
100
AcDbEntity
  8
STANDARDEBENE
 62
   250
100
AcDbVertex
100
AcDb2dVertex
 10
15.02406141117454
 20
3.697965493867176
 30
0.0
  0
SEQEND
  5
1B4
330
1B1
100
AcDbEntity
  8
STANDARDEBENE
  0
POLYLINE
  5
1B5
330
1F
100
AcDbEntity
  8
STANDARDEBENE
 62
   250
100
AcDb2dPolyline
 66
     1
 10
0.0
 20
0.0
 30
0.0
  0
VERTEX
  5
1B6
330
1B5
100
AcDbEntity
  8
STANDARDEBENE
 62
   250
100
AcDbVertex
100
AcDb2dVertex
 10
15.02406141117454
 20
-16.30201958142797
 30
0.0
  0
VERTEX
  5
1B7
330
1B5
100
AcDbEntity
  8
STANDARDEBENE
 62
   250
100
AcDbVertex
100
AcDb2dVertex
 10
18.02439506927863
 20
-16.30201958142797
 30
0.0
  0
SEQEND
  5
1B8
330
1B5
100
AcDbEntity
  8
STANDARDEBENE
  0
POLYLINE
  5
1B9
330
1F
100
AcDbEntity
  8
STANDARDEBENE
 62
   250
100
AcDb2dPolyline
 66
     1
 10
0.0
 20
0.0
 30
0.0
  0
VERTEX
  5
1BA
330
1B9
100
AcDbEntity
  8
STANDARDEBENE
 62
   250
100
AcDbVertex
100
AcDb2dVertex
 10
41.44673799962096
 20
3.197737629408899
 30
0.0
  0
VERTEX
  5
1BB
330
1B9
100
AcDbEntity
  8
STANDARDEBENE
 62
   250
100
AcDbVertex
100
AcDb2dVertex
 10
34.02393526710166
 20
3.197737629408899
 30
0.0
  0
SEQEND
  5
1BC
330
1B9
100
AcDbEntity
  8
STANDARDEBENE
  0
POLYLINE
  5
1BD
330
1F
100
AcDbEntity
  8
STANDARDEBENE
 62
   250
100
AcDb2dPolyline
 66
     1
 10
0.0
 20
0.0
 30
0.0
  0
VERTEX
  5
1BE
330
1BD
100
AcDbEntity
  8
STANDARDEBENE
 62
   250
100
AcDbVertex
100
AcDb2dVertex
 10
34.02393526710166
 20
-15.80179171696969
 30
0.0
  0
VERTEX
  5
1BF
330
1BD
100
AcDbEntity
  8
STANDARDEBENE
 62
   250
100
AcDbVertex
100
AcDb2dVertex
 10
41.44673799962096
 20
-15.80179171696969
 30
0.0
  0
VERTEX
  5
1C0
330
1BD
100
AcDbEntity
  8
STANDARDEBENE
 62
   250
100
AcDbVertex
100
AcDb2dVertex
 10
42.02430825772309
 20
-14.80168049760166
 30
0.0
  0
SEQEND
  5
1C1
330
1BD
100
AcDbEntity
  8
STANDARDEBENE
  0
POLYLINE
  5
1C2
330
1F
100
AcDbEntity
  8
STANDARDEBENE
 62
   250
100
AcDb2dPolyline
 66
     1
 10
0.0
 20
0.0
 30
0.0
  0
VERTEX
  5
1C3
330
1C2
100
AcDbEntity
  8
STANDARDEBENE
 62
   250
100
AcDbVertex
100
AcDb2dVertex
 10
42.02430825772309
 20
2.198315429137921
 30
0.0
  0
VERTEX
  5
1C4
330
1C2
100
AcDbEntity
  8
STANDARDEBENE
 62
   250
100
AcDbVertex
100
AcDb2dVertex
 10
41.44673799962096
 20
3.197737629408899
 30
0.0
  0
SEQEND
  5
1C5
330
1C2
100
AcDbEntity
  8
STANDARDEBENE
  0
POLYLINE
  5
1C6
330
1F
100
AcDbEntity
  8
STANDARDEBENE
 62
   250
100
AcDb2dPolyline
 66
     1
 10
0.0
 20
0.0
 30
0.0
  0
VERTEX
  5
1C7
330
1C6
100
AcDbEntity
  8
STANDARDEBENE
 62
   250
100
AcDbVertex
100
AcDb2dVertex
 10
8.324384221009183
 20
0.1979207356276032
 30
0.0
  0
VERTEX
  5
1C8
330
1C6
100
AcDbEntity
  8
STANDARDEBENE
 62
   250
100
AcDbVertex
100
AcDb2dVertex
 10
8.02431640424392
 20
-0.1018025715891327
 30
0.0
  0
SEQEND
  5
1C9
330
1C6
100
AcDbEntity
  8
STANDARDEBENE
  0
POLYLINE
  5
1CA
330
1F
100
AcDbEntity
  8
STANDARDEBENE
 62
   250
100
AcDb2dPolyline
 66
     1
 10
0.0
 20
0.0
 30
0.0
  0
VERTEX
  5
1CB
330
1CA
100
AcDbEntity
  8
STANDARDEBENE
 62
   250
100
AcDbVertex
100
AcDb2dVertex
 10
8.02431640424392
 20
-12.50190700642314
 30
0.0
  0
VERTEX
  5
1CC
330
1CA
100
AcDbEntity
  8
STANDARDEBENE
 62
   250
100
AcDbVertex
100
AcDb2dVertex
 10
8.324384221009183
 20
-12.80180256841413
 30
0.0
  0
SEQEND
  5
1CD
330
1CA
100
AcDbEntity
  8
STANDARDEBENE
  0
POLYLINE
  5
1CE
330
1F
100
AcDbEntity
  8
STANDARDEBENE
 62
   250
100
AcDb2dPolyline
 66
     1
 10
0.0
 20
0.0
 30
0.0
  0
VERTEX
  5
1CF
330
1CE
100
AcDbEntity
  8
STANDARDEBENE
 62
   250
100
AcDbVertex
100
AcDb2dVertex
 10
9.024427623611949
 20
0.1979207356276032
 30
0.0
  0
VERTEX
  5
1D0
330
1CE
100
AcDbEntity
  8
STANDARDEBENE
 62
   250
100
AcDbVertex
100
AcDb2dVertex
 10
8.823923066370408
 20
0.1979207356276032
 30
0.0
  0
SEQEND
  5
1D1
330
1CE
100
AcDbEntity
  8
STANDARDEBENE
  0
POLYLINE
  5
1D2
330
1F
100
AcDbEntity
  8
STANDARDEBENE
 62
   250
100
AcDb2dPolyline
 66
     1
 10
0.0
 20
0.0
 30
0.0
  0
VERTEX
  5
1D3
330
1D2
100
AcDbEntity
  8
STANDARDEBENE
 62
   250
100
AcDbVertex
100
AcDb2dVertex
 10
8.823923066370408
 20
-0.8021904837404247
 30
0.0
  0
VERTEX
  5
1D4
330
1D2
100
AcDbEntity
  8
STANDARDEBENE
 62
   250
100
AcDbVertex
100
AcDb2dVertex
 10
9.024427623611949
 20
-0.8021904837404247
 30
0.0
  0
SEQEND
  5
1D5
330
1D2
100
AcDbEntity
  8
STANDARDEBENE
  0
POLYLINE
  5
1D6
330
1F
100
AcDbEntity
  8
STANDARDEBENE
 62
   250
100
AcDb2dPolyline
 66
     1
 10
0.0
 20
0.0
 30
0.0
  0
VERTEX
  5
1D7
330
1D6
100
AcDbEntity
  8
STANDARDEBENE
 62
   250
100
AcDbVertex
100
AcDb2dVertex
 10
8.823923066370408
 20
0.1979207356276032
 30
0.0
  0
VERTEX
  5
1D8
330
1D6
100
AcDbEntity
  8
STANDARDEBENE
 62
   250
100
AcDbVertex
100
AcDb2dVertex
 10
8.823923066370408
 20
-0.2401231553219137
 30
0.0
  0
VERTEX
  5
1D9
330
1D6
100
AcDbEntity
  8
STANDARDEBENE
 62
   250
100
AcDbVertex
100
AcDb2dVertex
 10
8.823923066370408
 20
-0.8021904837404247
 30
0.0
  0
SEQEND
  5
1DA
330
1D6
100
AcDbEntity
  8
STANDARDEBENE
  0
POLYLINE
  5
1DB
330
1F
100
AcDbEntity
  8
STANDARDEBENE
 62
   250
100
AcDb2dPolyline
 66
     1
 10
0.0
 20
0.0
 30
0.0
  0
VERTEX
  5
1DC
330
1DB
100
AcDbEntity
  8
STANDARDEBENE
 62
   250
100
AcDbVertex
100
AcDb2dVertex
 10
9.024427623611949
 20
-5.301829697025237
 30
0.0
  0
VERTEX
  5
1DD
330
1DB
100
AcDbEntity
  8
STANDARDEBENE
 62
   250
100
AcDbVertex
100
AcDb2dVertex
 10
8.823923066370408
 20
-5.301829697025237
 30
0.0
  0
SEQEND
  5
1DE
330
1DB
100
AcDbEntity
  8
STANDARDEBENE
  0
POLYLINE
  5
1DF
330
1F
100
AcDbEntity
  8
STANDARDEBENE
 62
   250
100
AcDb2dPolyline
 66
     1
 10
0.0
 20
0.0
 30
0.0
  0
VERTEX
  5
1E0
330
1DF
100
AcDbEntity
  8
STANDARDEBENE
 62
   250
100
AcDbVertex
100
AcDb2dVertex
 10
8.823923066370408
 20
-7.302396645309818
 30
0.0
  0
VERTEX
  5
1E1
330
1DF
100
AcDbEntity
  8
STANDARDEBENE
 62
   250
100
AcDbVertex
100
AcDb2dVertex
 10
9.024427623611949
 20
-7.302396645309818
 30
0.0
  0
SEQEND
  5
1E2
330
1DF
100
AcDbEntity
  8
STANDARDEBENE
  0
POLYLINE
  5
1E3
330
1F
100
AcDbEntity
  8
STANDARDEBENE
 62
   250
100
AcDb2dPolyline
 66
     1
 10
0.0
 20
0.0
 30
0.0
  0
VERTEX
  5
1E4
330
1E3
100
AcDbEntity
  8
STANDARDEBENE
 62
   250
100
AcDbVertex
100
AcDb2dVertex
 10
8.823923066370408
 20
-5.301829697025237
 30
0.0
  0
VERTEX
  5
1E5
330
1E3
100
AcDbEntity
  8
STANDARDEBENE
 62
   250
100
AcDbVertex
100
AcDb2dVertex
 10
8.823923066370408
 20
-6.30228542594179
 30
0.0
  0
VERTEX
  5
1E6
330
1E3
100
AcDbEntity
  8
STANDARDEBENE
 62
   250
100
AcDbVertex
100
AcDb2dVertex
 10
8.823923066370408
 20
-7.302396645309818
 30
0.0
  0
SEQEND
  5
1E7
330
1E3
100
AcDbEntity
  8
STANDARDEBENE
  0
POLYLINE
  5
1E8
330
1F
100
AcDbEntity
  8
STANDARDEBENE
 62
   250
100
AcDb2dPolyline
 66
     1
 10
0.0
 20
0.0
 30
0.0
  0
VERTEX
  5
1E9
330
1E8
100
AcDbEntity
  8
STANDARDEBENE
 62
   250
100
AcDbVertex
100
AcDb2dVertex
 10
9.024427623611949
 20
-11.80203585859463
 30
0.0
  0
VERTEX
  5
1EA
330
1E8
100
AcDbEntity
  8
STANDARDEBENE
 62
   250
100
AcDbVertex
100
AcDb2dVertex
 10
8.823923066370408
 20
-11.80203585859463
 30
0.0
  0
SEQEND
  5
1EB
330
1E8
100
AcDbEntity
  8
STANDARDEBENE
  0
POLYLINE
  5
1EC
330
1F
100
AcDbEntity
  8
STANDARDEBENE
 62
   250
100
AcDb2dPolyline
 66
     1
 10
0.0
 20
0.0
 30
0.0
  0
VERTEX
  5
1ED
330
1EC
100
AcDbEntity
  8
STANDARDEBENE
 62
   250
100
AcDbVertex
100
AcDb2dVertex
 10
8.823923066370408
 20
-12.80180256841413
 30
0.0
  0
VERTEX
  5
1EE
330
1EC
100
AcDbEntity
  8
STANDARDEBENE
 62
   250
100
AcDbVertex
100
AcDb2dVertex
 10
9.024427623611949
 20
-12.80180256841413
 30
0.0
  0
SEQEND
  5
1EF
330
1EC
100
AcDbEntity
  8
STANDARDEBENE
  0
POLYLINE
  5
1F0
330
1F
100
AcDbEntity
  8
STANDARDEBENE
 62
   250
100
AcDb2dPolyline
 66
     1
 10
0.0
 20
0.0
 30
0.0
  0
VERTEX
  5
1F1
330
1F0
100
AcDbEntity
  8
STANDARDEBENE
 62
   250
100
AcDbVertex
100
AcDb2dVertex
 10
8.823923066370408
 20
-11.80203585859463
 30
0.0
  0
VERTEX
  5
1F2
330
1F0
100
AcDbEntity
  8
STANDARDEBENE
 62
   250
100
AcDbVertex
100
AcDb2dVertex
 10
8.823923066370408
 20
-12.36410318701314
 30
0.0
  0
VERTEX
  5
1F3
330
1F0
100
AcDbEntity
  8
STANDARDEBENE
 62
   250
100
AcDbVertex
100
AcDb2dVertex
 10
8.823923066370408
 20
-12.80180256841413
 30
0.0
  0
SEQEND
  5
1F4
330
1F0
100
AcDbEntity
  8
STANDARDEBENE
  0
POLYLINE
  5
1F5
330
1F
100
AcDbEntity
  8
STANDARDEBENE
 62
   250
100
AcDb2dPolyline
 66
     1
 10
0.0
 20
0.0
 30
0.0
  0
VERTEX
  5
1F6
330
1F5
100
AcDbEntity
  8
STANDARDEBENE
 62
   250
100
AcDbVertex
100
AcDb2dVertex
 10
8.02431640424392
 20
-12.50190700642314
 30
0.0
  0
VERTEX
  5
1F7
330
1F5
100
AcDbEntity
  8
STANDARDEBENE
 62
   250
100
AcDbVertex
100
AcDb2dVertex
 10
8.02431640424392
 20
-12.39614257502597
 30
0.0
  0
VERTEX
  5
1F8
330
1F5
100
AcDbEntity
  8
STANDARDEBENE
 62
   250
100
AcDbVertex
100
AcDb2dVertex
 10
8.02431640424392
 20
-12.08350015973954
 30
0.0
  0
VERTEX
  5
1F9
330
1F5
100
AcDbEntity
  8
STANDARDEBENE
 62
   250
100
AcDbVertex
100
AcDb2dVertex
 10
8.02431640424392
 20
-11.5734537731483
 30
0.0
  0
VERTEX
  5
1FA
330
1F5
100
AcDbEntity
  8
STANDARDEBENE
 62
   250
100
AcDbVertex
100
AcDb2dVertex
 10
8.02431640424392
 20
-10.88374565700129
 30
0.0
  0
VERTEX
  5
1FB
330
1F5
100
AcDbEntity
  8
STANDARDEBENE
 62
   250
100
AcDbVertex
100
AcDb2dVertex
 10
8.02431640424392
 20
-10.03849147969524
 30
0.0
  0
VERTEX
  5
1FC
330
1F5
100
AcDbEntity
  8
STANDARDEBENE
 62
   250
100
AcDbVertex
100
AcDb2dVertex
 10
8.02431640424392
 20
-9.065596514660685
 30
0.0
  0
VERTEX
  5
1FD
330
1F5
100
AcDbEntity
  8
STANDARDEBENE
 62
   250
100
AcDbVertex
100
AcDb2dVertex
 10
8.02431640424392
 20
-7.998305933330285
 30
0.0
  0
VERTEX
  5
1FE
330
1F5
100
AcDbEntity
  8
STANDARDEBENE
 62
   250
100
AcDbVertex
100
AcDb2dVertex
 10
8.02431640424392
 20
-6.873826766944738
 30
0.0
  0
VERTEX
  5
1FF
330
1F5
100
AcDbEntity
  8
STANDARDEBENE
 62
   250
100
AcDbVertex
100
AcDb2dVertex
 10
8.02431640424392
 20
-5.729710556293267
 30
0.0
  0
VERTEX
  5
200
330
1F5
100
AcDbEntity
  8
STANDARDEBENE
 62
   250
100
AcDbVertex
100
AcDb2dVertex
 10
8.02431640424392
 20
-4.605059135133458
 30
0.0
  0
VERTEX
  5
201
330
1F5
100
AcDbEntity
  8
STANDARDEBENE
 62
   250
100
AcDbVertex
100
AcDb2dVertex
 10
8.02431640424392
 20
-3.538285318125845
 30
0.0
  0
VERTEX
  5
202
330
1F5
100
AcDbEntity
  8
STANDARDEBENE
 62
   250
100
AcDbVertex
100
AcDb2dVertex
 10
8.02431640424392
 20
-2.566079372188341
 30
0.0
  0
VERTEX
  5
203
330
1F5
100
AcDbEntity
  8
STANDARDEBENE
 62
   250
100
AcDbVertex
100
AcDb2dVertex
 10
8.02431640424392
 20
-1.719963921010981
 30
0.0
  0
VERTEX
  5
204
330
1F5
100
AcDbEntity
  8
STANDARDEBENE
 62
   250
100
AcDbVertex
100
AcDb2dVertex
 10
8.02431640424392
 20
-1.030600314412489
 30
0.0
  0
VERTEX
  5
205
330
1F5
100
AcDbEntity
  8
STANDARDEBENE
 62
   250
100
AcDbVertex
100
AcDb2dVertex
 10
8.02431640424392
 20
-0.5205539278212504
 30
0.0
  0
VERTEX
  5
206
330
1F5
100
AcDbEntity
  8
STANDARDEBENE
 62
   250
100
AcDbVertex
100
AcDb2dVertex
 10
8.02431640424392
 20
-0.2072224934377777
 30
0.0
  0
VERTEX
  5
207
330
1F5
100
AcDbEntity
  8
STANDARDEBENE
 62
   250
100
AcDbVertex
100
AcDb2dVertex
 10
8.02431640424392
 20
-0.1018025715891327
 30
0.0
  0
SEQEND
  5
208
330
1F5
100
AcDbEntity
  8
STANDARDEBENE
  0
POLYLINE
  5
209
330
1F
100
AcDbEntity
  8
STANDARDEBENE
 62
   250
100
AcDb2dPolyline
 66
     1
 10
0.0
 20
0.0
 30
0.0
  0
VERTEX
  5
20A
330
209
100
AcDbEntity
  8
STANDARDEBENE
 62
   250
100
AcDbVertex
100
AcDb2dVertex
 10
8.326623533074594
 20
-12.80180256841413
 30
0.0
  0
VERTEX
  5
20B
330
209
100
AcDbEntity
  8
STANDARDEBENE
 62
   250
100
AcDbVertex
100
AcDb2dVertex
 10
8.349188908502981
 20
-12.80180256841413
 30
0.0
  0
VERTEX
  5
20C
330
209
100
AcDbEntity
  8
STANDARDEBENE
 62
   250
100
AcDbVertex
100
AcDb2dVertex
 10
8.43342149311734
 20
-12.80180256841413
 30
0.0
  0
VERTEX
  5
20D
330
209
100
AcDbEntity
  8
STANDARDEBENE
 62
   250
100
AcDbVertex
100
AcDb2dVertex
 10
8.576737465303733
 20
-12.80180256841413
 30
0.0
  0
VERTEX
  5
20E
330
209
100
AcDbEntity
  8
STANDARDEBENE
 62
   250
100
AcDbVertex
100
AcDb2dVertex
 10
8.771385360220348
 20
-12.80180256841413
 30
0.0
  0
VERTEX
  5
20F
330
209
100
AcDbEntity
  8
STANDARDEBENE
 62
   250
100
AcDbVertex
100
AcDb2dVertex
 10
8.823923066370408
 20
-12.80180256841413
 30
0.0
  0
SEQEND
  5
210
330
209
100
AcDbEntity
  8
STANDARDEBENE
  0
POLYLINE
  5
211
330
1F
100
AcDbEntity
  8
STANDARDEBENE
 62
   250
100
AcDb2dPolyline
 66
     1
 10
0.0
 20
0.0
 30
0.0
  0
VERTEX
  5
212
330
211
100
AcDbEntity
  8
STANDARDEBENE
 62
   250
100
AcDbVertex
100
AcDb2dVertex
 10
8.823923066370408
 20
-11.80203585859463
 30
0.0
  0
VERTEX
  5
213
330
211
100
AcDbEntity
  8
STANDARDEBENE
 62
   250
100
AcDbVertex
100
AcDb2dVertex
 10
8.463738333387537
 20
-10.72440999080848
 30
0.0
  0
VERTEX
  5
214
330
211
100
AcDbEntity
  8
STANDARDEBENE
 62
   250
100
AcDbVertex
100
AcDb2dVertex
 10
8.324384221009183
 20
-9.575642901251923
 30
0.0
  0
VERTEX
  5
215
330
211
100
AcDbEntity
  8
STANDARDEBENE
 62
   250
100
AcDbVertex
100
AcDb2dVertex
 10
8.449957951446539
 20
-8.439278155442263
 30
0.0
  0
VERTEX
  5
216
330
211
100
AcDbEntity
  8
STANDARDEBENE
 62
   250
100
AcDbVertex
100
AcDb2dVertex
 10
8.823923066370408
 20
-7.302396645309818
 30
0.0
  0
SEQEND
  5
217
330
211
100
AcDbEntity
  8
STANDARDEBENE
  0
POLYLINE
  5
218
330
1F
100
AcDbEntity
  8
STANDARDEBENE
 62
   250
100
AcDb2dPolyline
 66
     1
 10
0.0
 20
0.0
 30
0.0
  0
VERTEX
  5
219
330
218
100
AcDbEntity
  8
STANDARDEBENE
 62
   250
100
AcDbVertex
100
AcDb2dVertex
 10
8.823923066370408
 20
-5.301829697025237
 30
0.0
  0
VERTEX
  5
21A
330
218
100
AcDbEntity
  8
STANDARDEBENE
 62
   250
100
AcDbVertex
100
AcDb2dVertex
 10
8.463738333387537
 20
-4.22437608401335
 30
0.0
  0
VERTEX
  5
21B
330
218
100
AcDbEntity
  8
STANDARDEBENE
 62
   250
100
AcDbVertex
100
AcDb2dVertex
 10
8.324384221009183
 20
-3.07543673968253
 30
0.0
  0
VERTEX
  5
21C
330
218
100
AcDbEntity
  8
STANDARDEBENE
 62
   250
100
AcDbVertex
100
AcDb2dVertex
 10
8.449957951446539
 20
-1.939416503421396
 30
0.0
  0
VERTEX
  5
21D
330
218
100
AcDbEntity
  8
STANDARDEBENE
 62
   250
100
AcDbVertex
100
AcDb2dVertex
 10
8.823923066370408
 20
-0.8021904837404247
 30
0.0
  0
SEQEND
  5
21E
330
218
100
AcDbEntity
  8
STANDARDEBENE
  0
POLYLINE
  5
21F
330
1F
100
AcDbEntity
  8
STANDARDEBENE
 62
   250
100
AcDb2dPolyline
 66
     1
 10
0.0
 20
0.0
 30
0.0
  0
VERTEX
  5
220
330
21F
100
AcDbEntity
  8
STANDARDEBENE
 62
   250
100
AcDbVertex
100
AcDb2dVertex
 10
8.823923066370408
 20
0.1979207356276032
 30
0.0
  0
VERTEX
  5
221
330
21F
100
AcDbEntity
  8
STANDARDEBENE
 62
   250
100
AcDbVertex
100
AcDb2dVertex
 10
8.771385360220348
 20
0.1979207356276032
 30
0.0
  0
VERTEX
  5
222
330
21F
100
AcDbEntity
  8
STANDARDEBENE
 62
   250
100
AcDbVertex
100
AcDb2dVertex
 10
8.58276638240292
 20
0.1979207356276032
 30
0.0
  0
VERTEX
  5
223
330
21F
100
AcDbEntity
  8
STANDARDEBENE
 62
   250
100
AcDbVertex
100
AcDb2dVertex
 10
8.440828448410626
 20
0.1979207356276032
 30
0.0
  0
VERTEX
  5
224
330
21F
100
AcDbEntity
  8
STANDARDEBENE
 62
   250
100
AcDbVertex
100
AcDb2dVertex
 10
8.326623533074594
 20
0.1979207356276032
 30
0.0
  0
SEQEND
  5
225
330
21F
100
AcDbEntity
  8
STANDARDEBENE
  0
POLYLINE
  5
226
330
1F
100
AcDbEntity
  8
STANDARDEBENE
 62
   250
100
AcDb2dPolyline
 66
     1
 10
0.0
 20
0.0
 30
0.0
  0
VERTEX
  5
227
330
226
100
AcDbEntity
  8
STANDARDEBENE
 62
   250
100
AcDbVertex
100
AcDb2dVertex
 10
34.02393526710166
 20
4.652084688507118
 30
0.0
  0
VERTEX
  5
228
330
226
100
AcDbEntity
  8
STANDARDEBENE
 62
   250
100
AcDbVertex
100
AcDb2dVertex
 10
34.02393526710166
 20
4.550282116917986
 30
0.0
  0
VERTEX
  5
229
330
226
100
AcDbEntity
  8
STANDARDEBENE
 62
   250
100
AcDbVertex
100
AcDb2dVertex
 10
34.02393526710166
 20
4.245907930796162
 30
0.0
  0
VERTEX
  5
22A
330
226
100
AcDbEntity
  8
STANDARDEBENE
 62
   250
100
AcDbVertex
100
AcDb2dVertex
 10
34.02393526710166
 20
3.745163302015098
 30
0.0
  0
VERTEX
  5
22B
330
226
100
AcDbEntity
  8
STANDARDEBENE
 62
   250
100
AcDbVertex
100
AcDb2dVertex
 10
34.02393526710166
 20
3.057694497933493
 30
0.0
  0
VERTEX
  5
22C
330
226
100
AcDbEntity
  8
STANDARDEBENE
 62
   250
100
AcDbVertex
100
AcDb2dVertex
 10
34.02393526710166
 20
2.195042588426934
 30
0.0
  0
VERTEX
  5
22D
330
226
100
AcDbEntity
  8
STANDARDEBENE
 62
   250
100
AcDbVertex
100
AcDb2dVertex
 10
34.02393526710166
 20
1.174949815244457
 30
0.0
  0
VERTEX
  5
22E
330
226
100
AcDbEntity
  8
STANDARDEBENE
 62
   250
100
AcDbVertex
100
AcDb2dVertex
 10
34.02393526710166
 20
0.0153306749093618
 30
0.0
  0
VERTEX
  5
22F
330
226
100
AcDbEntity
  8
STANDARDEBENE
 62
   250
100
AcDbVertex
100
AcDb2dVertex
 10
34.02393526710166
 20
-1.262110731021278
 30
0.0
  0
VERTEX
  5
230
330
226
100
AcDbEntity
  8
STANDARDEBENE
 62
   250
100
AcDbVertex
100
AcDb2dVertex
 10
34.02393526710166
 20
-2.633775498473501
 30
0.0
  0
VERTEX
  5
231
330
226
100
AcDbEntity
  8
STANDARDEBENE
 62
   250
100
AcDbVertex
100
AcDb2dVertex
 10
34.02393526710166
 20
-4.073308646985145
 30
0.0
  0
VERTEX
  5
232
330
226
100
AcDbEntity
  8
STANDARDEBENE
 62
   250
100
AcDbVertex
100
AcDb2dVertex
 10
34.02393526710166
 20
-5.55435519609405
 30
0.0
  0
VERTEX
  5
233
330
226
100
AcDbEntity
  8
STANDARDEBENE
 62
   250
100
AcDbVertex
100
AcDb2dVertex
 10
34.02393526710166
 20
-7.049871146241005
 30
0.0
  0
VERTEX
  5
234
330
226
100
AcDbEntity
  8
STANDARDEBENE
 62
   250
100
AcDbVertex
100
AcDb2dVertex
 10
34.02393526710166
 20
-8.530745440575647
 30
0.0
  0
VERTEX
  5
235
330
226
100
AcDbEntity
  8
STANDARDEBENE
 62
   250
100
AcDbVertex
100
AcDb2dVertex
 10
34.02393526710166
 20
-9.970450843861554
 30
0.0
  0
VERTEX
  5
236
330
226
100
AcDbEntity
  8
STANDARDEBENE
 62
   250
100
AcDbVertex
100
AcDb2dVertex
 10
34.02393526710166
 20
-11.34142659221673
 30
0.0
  0
VERTEX
  5
237
330
226
100
AcDbEntity
  8
STANDARDEBENE
 62
   250
100
AcDbVertex
100
AcDb2dVertex
 10
34.02393526710166
 20
-12.61938476247015
 30
0.0
  0
VERTEX
  5
238
330
226
100
AcDbEntity
  8
STANDARDEBENE
 62
   250
100
AcDbVertex
100
AcDb2dVertex
 10
34.02393526710166
 20
-13.77865939325672
 30
0.0
  0
VERTEX
  5
239
330
226
100
AcDbEntity
  8
STANDARDEBENE
 62
   250
100
AcDbVertex
100
AcDb2dVertex
 10
34.02393526710166
 20
-14.79961344031051
 30
0.0
  0
VERTEX
  5
23A
330
226
100
AcDbEntity
  8
STANDARDEBENE
 62
   250
100
AcDbVertex
100
AcDb2dVertex
 10
34.02393526710166
 20
-15.66140407594576
 30
0.0
  0
VERTEX
  5
23B
330
226
100
AcDbEntity
  8
STANDARDEBENE
 62
   250
100
AcDbVertex
100
AcDb2dVertex
 10
34.02393526710166
 20
-16.34938964435015
 30
0.0
  0
VERTEX
  5
23C
330
226
100
AcDbEntity
  8
STANDARDEBENE
 62
   250
100
AcDbVertex
100
AcDb2dVertex
 10
34.02393526710166
 20
-16.84996201835695
 30
0.0
  0
VERTEX
  5
23D
330
226
100
AcDbEntity
  8
STANDARDEBENE
 62
   250
100
AcDbVertex
100
AcDb2dVertex
 10
34.02393526710166
 20
-17.15399169493025
 30
0.0
  0
VERTEX
  5
23E
330
226
100
AcDbEntity
  8
STANDARDEBENE
 62
   250
100
AcDbVertex
100
AcDb2dVertex
 10
34.02393526710166
 20
-17.25596652129365
 30
0.0
  0
SEQEND
  5
23F
330
226
100
AcDbEntity
  8
STANDARDEBENE
  0
POLYLINE
  5
240
330
1F
100
AcDbEntity
  8
STANDARDEBENE
 62
   250
100
AcDb2dPolyline
 66
     1
 10
0.0
 20
0.0
 30
0.0
  0
VERTEX
  5
241
330
240
100
AcDbEntity
  8
STANDARDEBENE
 62
   250
100
AcDbVertex
100
AcDb2dVertex
 10
19.46771782282404
 20
6.697954642422734
 30
0.0
  0
VERTEX
  5
242
330
240
100
AcDbEntity
  8
STANDARDEBENE
 62
   250
100
AcDbVertex
100
AcDb2dVertex
 10
19.46771782282404
 20
6.595635306510814
 30
0.0
  0
VERTEX
  5
243
330
240
100
AcDbEntity
  8
STANDARDEBENE
 62
   250
100
AcDbVertex
100
AcDb2dVertex
 10
19.46771782282404
 20
6.289538572646365
 30
0.0
  0
VERTEX
  5
244
330
240
100
AcDbEntity
  8
STANDARDEBENE
 62
   250
100
AcDbVertex
100
AcDb2dVertex
 10
19.46771782282404
 20
5.785348848380052
 30
0.0
  0
VERTEX
  5
245
330
240
100
AcDbEntity
  8
STANDARDEBENE
 62
   250
100
AcDbVertex
100
AcDb2dVertex
 10
19.46771782282404
 20
5.089956324682372
 30
0.0
  0
VERTEX
  5
246
330
240
100
AcDbEntity
  8
STANDARDEBENE
 62
   250
100
AcDbVertex
100
AcDb2dVertex
 10
19.46771782282404
 20
4.215074326203176
 30
0.0
  0
VERTEX
  5
247
330
240
100
AcDbEntity
  8
STANDARDEBENE
 62
   250
100
AcDbVertex
100
AcDb2dVertex
 10
19.46771782282404
 20
3.174827744431988
 30
0.0
  0
VERTEX
  5
248
330
240
100
AcDbEntity
  8
STANDARDEBENE
 62
   250
100
AcDbVertex
100
AcDb2dVertex
 10
19.46771782282404
 20
1.984547254278169
 30
0.0
  0
VERTEX
  5
249
330
240
100
AcDbEntity
  8
STANDARDEBENE
 62
   250
100
AcDbVertex
100
AcDb2dVertex
 10
19.46771782282404
 20
0.6636976452333812
 30
0.0
  0
VERTEX
  5
24A
330
240
100
AcDbEntity
  8
STANDARDEBENE
 62
   250
100
AcDbVertex
100
AcDb2dVertex
 10
19.46771782282404
 20
-0.7668782550166138
 30
0.0
  0
VERTEX
  5
24B
330
240
100
AcDbEntity
  8
STANDARDEBENE
 62
   250
100
AcDbVertex
100
AcDb2dVertex
 10
19.46771782282404
 20
-2.284442816269167
 30
0.0
  0
VERTEX
  5
24C
330
240
100
AcDbEntity
  8
STANDARDEBENE
 62
   250
100
AcDbVertex
100
AcDb2dVertex
 10
19.46771782282404
 20
-3.86625840832163
 30
0.0
  0
VERTEX
  5
24D
330
240
100
AcDbEntity
  8
STANDARDEBENE
 62
   250
100
AcDbVertex
100
AcDb2dVertex
 10
19.46771782282404
 20
-5.485970050711841
 30
0.0
  0
VERTEX
  5
24E
330
240
100
AcDbEntity
  8
STANDARDEBENE
 62
   250
100
AcDbVertex
100
AcDb2dVertex
 10
19.46771782282404
 20
-7.118256291623214
 30
0.0
  0
VERTEX
  5
24F
330
240
100
AcDbEntity
  8
STANDARDEBENE
 62
   250
100
AcDbVertex
100
AcDb2dVertex
 10
19.46771782282404
 20
-8.737795679239163
 30
0.0
  0
VERTEX
  5
250
330
240
100
AcDbEntity
  8
STANDARDEBENE
 62
   250
100
AcDbVertex
100
AcDb2dVertex
 10
19.46771782282404
 20
-10.31892225219458
 30
0.0
  0
VERTEX
  5
251
330
240
100
AcDbEntity
  8
STANDARDEBENE
 62
   250
100
AcDbVertex
100
AcDb2dVertex
 10
19.46771782282404
 20
-11.83700357776992
 30
0.0
  0
VERTEX
  5
252
330
240
100
AcDbEntity
  8
STANDARDEBENE
 62
   250
100
AcDbVertex
100
AcDb2dVertex
 10
19.46771782282404
 20
-13.26792398756844
 30
0.0
  0
VERTEX
  5
253
330
240
100
AcDbEntity
  8
STANDARDEBENE
 62
   250
100
AcDbVertex
100
AcDb2dVertex
 10
19.46771782282404
 20
-14.58860134183896
 30
0.0
  0
VERTEX
  5
254
330
240
100
AcDbEntity
  8
STANDARDEBENE
 62
   250
100
AcDbVertex
100
AcDb2dVertex
 10
19.46771782282404
 20
-15.77853732244425
 30
0.0
  0
VERTEX
  5
255
330
240
100
AcDbEntity
  8
STANDARDEBENE
 62
   250
100
AcDbVertex
100
AcDb2dVertex
 10
19.46771782282404
 20
-16.81930066853823
 30
0.0
  0
VERTEX
  5
256
330
240
100
AcDbEntity
  8
STANDARDEBENE
 62
   250
100
AcDbVertex
100
AcDb2dVertex
 10
19.46771782282404
 20
-17.69418266701743
 30
0.0
  0
VERTEX
  5
257
330
240
100
AcDbEntity
  8
STANDARDEBENE
 62
   250
100
AcDbVertex
100
AcDb2dVertex
 10
19.46771782282404
 20
-18.38957519071511
 30
0.0
  0
VERTEX
  5
258
330
240
100
AcDbEntity
  8
STANDARDEBENE
 62
   250
100
AcDbVertex
100
AcDb2dVertex
 10
19.46771782282404
 20
-18.89393716975568
 30
0.0
  0
VERTEX
  5
259
330
240
100
AcDbEntity
  8
STANDARDEBENE
 62
   250
100
AcDbVertex
100
AcDb2dVertex
 10
19.46771782282404
 20
-19.19951713929735
 30
0.0
  0
VERTEX
  5
25A
330
240
100
AcDbEntity
  8
STANDARDEBENE
 62
   250
100
AcDbVertex
100
AcDb2dVertex
 10
19.46771782282404
 20
-19.30218098475779
 30
0.0
  0
SEQEND
  5
25B
330
240
100
AcDbEntity
  8
STANDARDEBENE
  0
POLYLINE
  5
25C
330
1F
100
AcDbEntity
  8
STANDARDEBENE
 62
   250
100
AcDb2dPolyline
 66
     1
 10
0.0
 20
0.0
 30
0.0
  0
VERTEX
  5
25D
330
25C
100
AcDbEntity
  8
STANDARDEBENE
 62
   250
100
AcDbVertex
100
AcDb2dVertex
 10
18.02439506927863
 20
4.197848848776927
 30
0.0
  0
VERTEX
  5
25E
330
25C
100
AcDbEntity
  8
STANDARDEBENE
 62
   250
100
AcDbVertex
100
AcDb2dVertex
 10
18.02439506927863
 20
4.090878633959919
 30
0.0
  0
VERTEX
  5
25F
330
25C
100
AcDbEntity
  8
STANDARDEBENE
 62
   250
100
AcDbVertex
100
AcDb2dVertex
 10
18.02439506927863
 20
3.772379556348572
 30
0.0
  0
VERTEX
  5
260
330
25C
100
AcDbEntity
  8
STANDARDEBENE
 62
   250
100
AcDbVertex
100
AcDb2dVertex
 10
18.02439506927863
 20
3.249241806913384
 30
0.0
  0
VERTEX
  5
261
330
25C
100
AcDbEntity
  8
STANDARDEBENE
 62
   250
100
AcDbVertex
100
AcDb2dVertex
 10
18.02439506927863
 20
2.530939398238793
 30
0.0
  0
VERTEX
  5
262
330
25C
100
AcDbEntity
  8
STANDARDEBENE
 62
   250
100
AcDbVertex
100
AcDb2dVertex
 10
18.02439506927863
 20
1.63349202433121
 30
0.0
  0
VERTEX
  5
263
330
25C
100
AcDbEntity
  8
STANDARDEBENE
 62
   250
100
AcDbVertex
100
AcDb2dVertex
 10
18.02439506927863
 20
0.5737806530683605
 30
0.0
  0
VERTEX
  5
264
330
25C
100
AcDbEntity
  8
STANDARDEBENE
 62
   250
100
AcDbVertex
100
AcDb2dVertex
 10
18.02439506927863
 20
-0.625457085347108
 30
0.0
  0
VERTEX
  5
265
330
25C
100
AcDbEntity
  8
STANDARDEBENE
 62
   250
100
AcDbVertex
100
AcDb2dVertex
 10
18.02439506927863
 20
-1.940105522518446
 30
0.0
  0
VERTEX
  5
266
330
25C
100
AcDbEntity
  8
STANDARDEBENE
 62
   250
100
AcDbVertex
100
AcDb2dVertex
 10
18.02439506927863
 20
-3.343981932757754
 30
0.0
  0
VERTEX
  5
267
330
25C
100
AcDbEntity
  8
STANDARDEBENE
 62
   250
100
AcDbVertex
100
AcDb2dVertex
 10
18.02439506927863
 20
-4.807803004440411
 30
0.0
  0
VERTEX
  5
268
330
25C
100
AcDbEntity
  8
STANDARDEBENE
 62
   250
100
AcDbVertex
100
AcDb2dVertex
 10
18.02439506927863
 20
-6.30228542594179
 30
0.0
  0
VERTEX
  5
269
330
25C
100
AcDbEntity
  8
STANDARDEBENE
 62
   250
100
AcDbVertex
100
AcDb2dVertex
 10
18.02439506927863
 20
-7.796595592668907
 30
0.0
  0
VERTEX
  5
26A
330
25C
100
AcDbEntity
  8
STANDARDEBENE
 62
   250
100
AcDbVertex
100
AcDb2dVertex
 10
18.02439506927863
 20
-9.2602444095773
 30
0.0
  0
VERTEX
  5
26B
330
25C
100
AcDbEntity
  8
STANDARDEBENE
 62
   250
100
AcDbVertex
100
AcDb2dVertex
 10
18.02439506927863
 20
-10.66394856504235
 30
0.0
  0
VERTEX
  5
26C
330
25C
100
AcDbEntity
  8
STANDARDEBENE
 62
   250
100
AcDbVertex
100
AcDb2dVertex
 10
18.02439506927863
 20
-11.97876925698795
 30
0.0
  0
VERTEX
  5
26D
330
25C
100
AcDbEntity
  8
STANDARDEBENE
 62
   250
100
AcDbVertex
100
AcDb2dVertex
 10
18.02439506927863
 20
-13.17835150495194
 30
0.0
  0
VERTEX
  5
26E
330
25C
100
AcDbEntity
  8
STANDARDEBENE
 62
   250
100
AcDbVertex
100
AcDb2dVertex
 10
18.02439506927863
 20
-14.23771836666627
 30
0.0
  0
VERTEX
  5
26F
330
25C
100
AcDbEntity
  8
STANDARDEBENE
 62
   250
100
AcDbVertex
100
AcDb2dVertex
 10
18.02439506927863
 20
-15.13551025012237
 30
0.0
  0
VERTEX
  5
270
330
25C
100
AcDbEntity
  8
STANDARDEBENE
 62
   250
100
AcDbVertex
100
AcDb2dVertex
 10
18.02439506927863
 20
-15.85312363969991
 30
0.0
  0
VERTEX
  5
271
330
25C
100
AcDbEntity
  8
STANDARDEBENE
 62
   250
100
AcDbVertex
100
AcDb2dVertex
 10
18.02439506927863
 20
-16.37695040823215
 30
0.0
  0
VERTEX
  5
272
330
25C
100
AcDbEntity
  8
STANDARDEBENE
 62
   250
100
AcDbVertex
100
AcDb2dVertex
 10
18.02439506927863
 20
-16.6954494858435
 30
0.0
  0
VERTEX
  5
273
330
25C
100
AcDbEntity
  8
STANDARDEBENE
 62
   250
100
AcDbVertex
100
AcDb2dVertex
 10
18.02439506927863
 20
-16.80224744588624
 30
0.0
  0
SEQEND
  5
274
330
25C
100
AcDbEntity
  8
STANDARDEBENE
  0
POLYLINE
  5
275
330
1F
100
AcDbEntity
  8
STANDARDEBENE
 62
   250
100
AcDb2dPolyline
 66
     1
 10
0.0
 20
0.0
 30
0.0
  0
VERTEX
  5
276
330
275
100
AcDbEntity
  8
STANDARDEBENE
 62
   250
100
AcDbVertex
100
AcDb2dVertex
 10
15.02406141117454
 20
6.697954642422734
 30
0.0
  0
VERTEX
  5
277
330
275
100
AcDbEntity
  8
STANDARDEBENE
 62
   250
100
AcDbVertex
100
AcDb2dVertex
 10
15.02406141117454
 20
6.595635306510814
 30
0.0
  0
VERTEX
  5
278
330
275
100
AcDbEntity
  8
STANDARDEBENE
 62
   250
100
AcDbVertex
100
AcDb2dVertex
 10
15.02406141117454
 20
6.289538572646365
 30
0.0
  0
VERTEX
  5
279
330
275
100
AcDbEntity
  8
STANDARDEBENE
 62
   250
100
AcDbVertex
100
AcDb2dVertex
 10
15.02406141117454
 20
5.785348848380052
 30
0.0
  0
VERTEX
  5
27A
330
275
100
AcDbEntity
  8
STANDARDEBENE
 62
   250
100
AcDbVertex
100
AcDb2dVertex
 10
15.02406141117454
 20
5.089956324682372
 30
0.0
  0
VERTEX
  5
27B
330
275
100
AcDbEntity
  8
STANDARDEBENE
 62
   250
100
AcDbVertex
100
AcDb2dVertex
 10
15.02406141117454
 20
4.215074326203176
 30
0.0
  0
VERTEX
  5
27C
330
275
100
AcDbEntity
  8
STANDARDEBENE
 62
   250
100
AcDbVertex
100
AcDb2dVertex
 10
15.02406141117454
 20
3.174827744431988
 30
0.0
  0
VERTEX
  5
27D
330
275
100
AcDbEntity
  8
STANDARDEBENE
 62
   250
100
AcDbVertex
100
AcDb2dVertex
 10
15.02406141117454
 20
1.984547254278169
 30
0.0
  0
VERTEX
  5
27E
330
275
100
AcDbEntity
  8
STANDARDEBENE
 62
   250
100
AcDbVertex
100
AcDb2dVertex
 10
15.02406141117454
 20
0.6636976452333812
 30
0.0
  0
VERTEX
  5
27F
330
275
100
AcDbEntity
  8
STANDARDEBENE
 62
   250
100
AcDbVertex
100
AcDb2dVertex
 10
15.02406141117454
 20
-0.7668782550166138
 30
0.0
  0
VERTEX
  5
280
330
275
100
AcDbEntity
  8
STANDARDEBENE
 62
   250
100
AcDbVertex
100
AcDb2dVertex
 10
15.02406141117454
 20
-2.284442816269167
 30
0.0
  0
VERTEX
  5
281
330
275
100
AcDbEntity
  8
STANDARDEBENE
 62
   250
100
AcDbVertex
100
AcDb2dVertex
 10
15.02406141117454
 20
-3.86625840832163
 30
0.0
  0
VERTEX
  5
282
330
275
100
AcDbEntity
  8
STANDARDEBENE
 62
   250
100
AcDbVertex
100
AcDb2dVertex
 10
15.02406141117454
 20
-5.485970050711841
 30
0.0
  0
VERTEX
  5
283
330
275
100
AcDbEntity
  8
STANDARDEBENE
 62
   250
100
AcDbVertex
100
AcDb2dVertex
 10
15.02406141117454
 20
-7.118256291623214
 30
0.0
  0
VERTEX
  5
284
330
275
100
AcDbEntity
  8
STANDARDEBENE
 62
   250
100
AcDbVertex
100
AcDb2dVertex
 10
15.02406141117454
 20
-8.737795679239163
 30
0.0
  0
VERTEX
  5
285
330
275
100
AcDbEntity
  8
STANDARDEBENE
 62
   250
100
AcDbVertex
100
AcDb2dVertex
 10
15.02406141117454
 20
-10.31892225219458
 30
0.0
  0
VERTEX
  5
286
330
275
100
AcDbEntity
  8
STANDARDEBENE
 62
   250
100
AcDbVertex
100
AcDb2dVertex
 10
15.02406141117454
 20
-11.83700357776992
 30
0.0
  0
VERTEX
  5
287
330
275
100
AcDbEntity
  8
STANDARDEBENE
 62
   250
100
AcDbVertex
100
AcDb2dVertex
 10
15.02406141117454
 20
-13.26792398756844
 30
0.0
  0
VERTEX
  5
288
330
275
100
AcDbEntity
  8
STANDARDEBENE
 62
   250
100
AcDbVertex
100
AcDb2dVertex
 10
15.02406141117454
 20
-14.58860134183896
 30
0.0
  0
VERTEX
  5
289
330
275
100
AcDbEntity
  8
STANDARDEBENE
 62
   250
100
AcDbVertex
100
AcDb2dVertex
 10
15.02406141117454
 20
-15.77853732244425
 30
0.0
  0
VERTEX
  5
28A
330
275
100
AcDbEntity
  8
STANDARDEBENE
 62
   250
100
AcDbVertex
100
AcDb2dVertex
 10
15.02406141117454
 20
-16.81930066853823
 30
0.0
  0
VERTEX
  5
28B
330
275
100
AcDbEntity
  8
STANDARDEBENE
 62
   250
100
AcDbVertex
100
AcDb2dVertex
 10
15.02406141117454
 20
-17.69418266701743
 30
0.0
  0
VERTEX
  5
28C
330
275
100
AcDbEntity
  8
STANDARDEBENE
 62
   250
100
AcDbVertex
100
AcDb2dVertex
 10
15.02406141117454
 20
-18.38957519071511
 30
0.0
  0
VERTEX
  5
28D
330
275
100
AcDbEntity
  8
STANDARDEBENE
 62
   250
100
AcDbVertex
100
AcDb2dVertex
 10
15.02406141117454
 20
-18.89393716975568
 30
0.0
  0
VERTEX
  5
28E
330
275
100
AcDbEntity
  8
STANDARDEBENE
 62
   250
100
AcDbVertex
100
AcDb2dVertex
 10
15.02406141117454
 20
-19.19951713929735
 30
0.0
  0
VERTEX
  5
28F
330
275
100
AcDbEntity
  8
STANDARDEBENE
 62
   250
100
AcDbVertex
100
AcDb2dVertex
 10
15.02406141117454
 20
-19.30218098475779
 30
0.0
  0
SEQEND
  5
290
330
275
100
AcDbEntity
  8
STANDARDEBENE
  0
POLYLINE
  5
291
330
1F
100
AcDbEntity
  8
STANDARDEBENE
 62
   250
100
AcDb2dPolyline
 66
     1
 10
0.0
 20
0.0
 30
0.0
  0
VERTEX
  5
292
330
291
100
AcDbEntity
  8
STANDARDEBENE
 62
   250
100
AcDbVertex
100
AcDb2dVertex
 10
10.52442219788973
 20
4.099835882221569
 30
0.0
  0
VERTEX
  5
293
330
291
100
AcDbEntity
  8
STANDARDEBENE
 62
   250
100
AcDbVertex
100
AcDb2dVertex
 10
10.52442219788973
 20
3.994243705598661
 30
0.0
  0
VERTEX
  5
294
330
291
100
AcDbEntity
  8
STANDARDEBENE
 62
   250
100
AcDbVertex
100
AcDb2dVertex
 10
10.52442219788973
 20
3.678845213924039
 30
0.0
  0
VERTEX
  5
295
330
291
100
AcDbEntity
  8
STANDARDEBENE
 62
   250
100
AcDbVertex
100
AcDb2dVertex
 10
10.52442219788973
 20
3.160013833845413
 30
0.0
  0
VERTEX
  5
296
330
291
100
AcDbEntity
  8
STANDARDEBENE
 62
   250
100
AcDbVertex
100
AcDb2dVertex
 10
10.52442219788973
 20
2.448773870915585
 30
0.0
  0
VERTEX
  5
297
330
291
100
AcDbEntity
  8
STANDARDEBENE
 62
   250
100
AcDbVertex
100
AcDb2dVertex
 10
10.52442219788973
 20
1.559077961849814
 30
0.0
  0
VERTEX
  5
298
330
291
100
AcDbEntity
  8
STANDARDEBENE
 62
   250
100
AcDbVertex
100
AcDb2dVertex
 10
10.52442219788973
 20
0.509529622268451
 30
0.0
  0
VERTEX
  5
299
330
291
100
AcDbEntity
  8
STANDARDEBENE
 62
   250
100
AcDbVertex
100
AcDb2dVertex
 10
10.52442219788973
 20
-0.6781670462714305
 30
0.0
  0
VERTEX
  5
29A
330
291
100
AcDbEntity
  8
STANDARDEBENE
 62
   250
100
AcDbVertex
100
AcDb2dVertex
 10
10.52442219788973
 20
-1.980757649244394
 30
0.0
  0
VERTEX
  5
29B
330
291
100
AcDbEntity
  8
STANDARDEBENE
 62
   250
100
AcDbVertex
100
AcDb2dVertex
 10
10.52442219788973
 20
-3.371714951414016
 30
0.0
  0
VERTEX
  5
29C
330
291
100
AcDbEntity
  8
STANDARDEBENE
 62
   250
100
AcDbVertex
100
AcDb2dVertex
 10
10.52442219788973
 20
-4.82158338638141
 30
0.0
  0
VERTEX
  5
29D
330
291
100
AcDbEntity
  8
STANDARDEBENE
 62
   250
100
AcDbVertex
100
AcDb2dVertex
 10
10.52442219788973
 20
-6.30228542594179
 30
0.0
  0
VERTEX
  5
29E
330
291
100
AcDbEntity
  8
STANDARDEBENE
 62
   250
100
AcDbVertex
100
AcDb2dVertex
 10
10.52442219788973
 20
-7.782470701179383
 30
0.0
  0
VERTEX
  5
29F
330
291
100
AcDbEntity
  8
STANDARDEBENE
 62
   250
100
AcDbVertex
100
AcDb2dVertex
 10
10.52442219788973
 20
-9.232855900469565
 30
0.0
  0
VERTEX
  5
2A0
330
291
100
AcDbEntity
  8
STANDARDEBENE
 62
   250
100
AcDbVertex
100
AcDb2dVertex
 10
10.52442219788973
 20
-10.62346869309066
 30
0.0
  0
VERTEX
  5
2A1
330
291
100
AcDbEntity
  8
STANDARDEBENE
 62
   250
100
AcDbVertex
100
AcDb2dVertex
 10
10.52442219788973
 20
-11.92588704128936
 30
0.0
  0
VERTEX
  5
2A2
330
291
100
AcDbEntity
  8
STANDARDEBENE
 62
   250
100
AcDbVertex
100
AcDb2dVertex
 10
10.52442219788973
 20
-13.11375596460351
 30
0.0
  0
VERTEX
  5
2A3
330
291
100
AcDbEntity
  8
STANDARDEBENE
 62
   250
100
AcDbVertex
100
AcDb2dVertex
 10
10.52442219788973
 20
-14.16364881373339
 30
0.0
  0
VERTEX
  5
2A4
330
291
100
AcDbEntity
  8
STANDARDEBENE
 62
   250
100
AcDbVertex
100
AcDb2dVertex
 10
10.52442219788973
 20
-15.05248344892785
 30
0.0
  0
VERTEX
  5
2A5
330
291
100
AcDbEntity
  8
STANDARDEBENE
 62
   250
100
AcDbVertex
100
AcDb2dVertex
 10
10.52442219788973
 20
-15.76406792140621
 30
0.0
  0
VERTEX
  5
2A6
330
291
100
AcDbEntity
  8
STANDARDEBENE
 62
   250
100
AcDbVertex
100
AcDb2dVertex
 10
10.52442219788973
 20
-16.28238253716204
 30
0.0
  0
VERTEX
  5
2A7
330
291
100
AcDbEntity
  8
STANDARDEBENE
 62
   250
100
AcDbVertex
100
AcDb2dVertex
 10
10.52442219788973
 20
-16.59847004793372
 30
0.0
  0
VERTEX
  5
2A8
330
291
100
AcDbEntity
  8
STANDARDEBENE
 62
   250
100
AcDbVertex
100
AcDb2dVertex
 10
10.52442219788973
 20
-16.70423447933089
 30
0.0
  0
SEQEND
  5
2A9
330
291
100
AcDbEntity
  8
STANDARDEBENE
  0
POLYLINE
  5
2AA
330
1F
100
AcDbEntity
  8
STANDARDEBENE
 62
   250
100
AcDb2dPolyline
 66
     1
 10
0.0
 20
0.0
 30
0.0
  0
VERTEX
  5
2AB
330
2AA
100
AcDbEntity
  8
STANDARDEBENE
 62
   250
100
AcDbVertex
100
AcDb2dVertex
 10
9.024427623611949
 20
1.697915309905382
 30
0.0
  0
VERTEX
  5
2AC
330
2AA
100
AcDbEntity
  8
STANDARDEBENE
 62
   250
100
AcDbVertex
100
AcDb2dVertex
 10
9.024427623611949
 20
1.589050292571488
 30
0.0
  0
VERTEX
  5
2AD
330
2AA
100
AcDbEntity
  8
STANDARDEBENE
 62
   250
100
AcDbVertex
100
AcDb2dVertex
 10
9.024427623611949
 20
1.264866807409478
 30
0.0
  0
VERTEX
  5
2AE
330
2AA
100
AcDbEntity
  8
STANDARDEBENE
 62
   250
100
AcDbVertex
100
AcDb2dVertex
 10
9.024427623611949
 20
0.7339775931324779
 30
0.0
  0
VERTEX
  5
2AF
330
2AA
100
AcDbEntity
  8
STANDARDEBENE
 62
   250
100
AcDbVertex
100
AcDb2dVertex
 10
9.024427623611949
 20
0.0113688151013245
 30
0.0
  0
VERTEX
  5
2B0
330
2AA
100
AcDbEntity
  8
STANDARDEBENE
 62
   250
100
AcDbVertex
100
AcDb2dVertex
 10
9.024427623611949
 20
-0.8834947371923209
 30
0.0
  0
VERTEX
  5
2B1
330
2AA
100
AcDbEntity
  8
STANDARDEBENE
 62
   250
100
AcDbVertex
100
AcDb2dVertex
 10
9.024427623611949
 20
-1.926325140577447
 30
0.0
  0
VERTEX
  5
2B2
330
2AA
100
AcDbEntity
  8
STANDARDEBENE
 62
   250
100
AcDbVertex
100
AcDb2dVertex
 10
9.024427623611949
 20
-3.088355847752217
 30
0.0
  0
VERTEX
  5
2B3
330
2AA
100
AcDbEntity
  8
STANDARDEBENE
 62
   250
100
AcDbVertex
100
AcDb2dVertex
 10
9.024427623611949
 20
-4.33840874457512
 30
0.0
  0
VERTEX
  5
2B4
330
2AA
100
AcDbEntity
  8
STANDARDEBENE
 62
   250
100
AcDbVertex
100
AcDb2dVertex
 10
9.024427623611949
 20
-5.641171602322347
 30
0.0
  0
VERTEX
  5
2B5
330
2AA
100
AcDbEntity
  8
STANDARDEBENE
 62
   250
100
AcDbVertex
100
AcDb2dVertex
 10
9.024427623611949
 20
-6.962365720915659
 30
0.0
  0
VERTEX
  5
2B6
330
2AA
100
AcDbEntity
  8
STANDARDEBENE
 62
   250
100
AcDbVertex
100
AcDb2dVertex
 10
9.024427623611949
 20
-8.26616210730846
 30
0.0
  0
VERTEX
  5
2B7
330
2AA
100
AcDbEntity
  8
STANDARDEBENE
 62
   250
100
AcDbVertex
100
AcDb2dVertex
 10
9.024427623611949
 20
-9.515698239808575
 30
0.0
  0
VERTEX
  5
2B8
330
2AA
100
AcDbEntity
  8
STANDARDEBENE
 62
   250
100
AcDbVertex
100
AcDb2dVertex
 10
9.024427623611949
 20
-10.67772894698335
 30
0.0
  0
VERTEX
  5
2B9
330
2AA
100
AcDbEntity
  8
STANDARDEBENE
 62
   250
100
AcDbVertex
100
AcDb2dVertex
 10
9.024427623611949
 20
-11.72055935036847
 30
0.0
  0
VERTEX
  5
2BA
330
2AA
100
AcDbEntity
  8
STANDARDEBENE
 62
   250
100
AcDbVertex
100
AcDb2dVertex
 10
9.024427623611949
 20
-12.61490613833933
 30
0.0
  0
VERTEX
  5
2BB
330
2AA
100
AcDbEntity
  8
STANDARDEBENE
 62
   250
100
AcDbVertex
100
AcDb2dVertex
 10
9.024427623611949
 20
-13.33768717114475
 30
0.0
  0
VERTEX
  5
2BC
330
2AA
100
AcDbEntity
  8
STANDARDEBENE
 62
   250
100
AcDbVertex
100
AcDb2dVertex
 10
9.024427623611949
 20
-13.86823187587322
 30
0.0
  0
VERTEX
  5
2BD
330
2AA
100
AcDbEntity
  8
STANDARDEBENE
 62
   250
100
AcDbVertex
100
AcDb2dVertex
 10
9.024427623611949
 20
-14.19293212535802
 30
0.0
  0
VERTEX
  5
2BE
330
2AA
100
AcDbEntity
  8
STANDARDEBENE
 62
   250
100
AcDbVertex
100
AcDb2dVertex
 10
9.024427623611949
 20
-14.30214165224044
 30
0.0
  0
SEQEND
  5
2BF
330
2AA
100
AcDbEntity
  8
STANDARDEBENE
  0
POLYLINE
  5
2C0
330
1F
100
AcDbEntity
  8
STANDARDEBENE
 62
   250
100
AcDb2dPolyline
 66
     1
 10
0.0
 20
0.0
 30
0.0
  0
VERTEX
  5
2C1
330
2C0
100
AcDbEntity
  8
STANDARDEBENE
 62
   250
100
AcDbVertex
100
AcDb2dVertex
 10
42.02430825772309
 20
2.198315429137921
 30
0.0
  0
VERTEX
  5
2C2
330
2C0
100
AcDbEntity
  8
STANDARDEBENE
 62
   250
100
AcDbVertex
100
AcDb2dVertex
 10
42.02430825772309
 20
2.093067762063539
 30
0.0
  0
VERTEX
  5
2C3
330
2C0
100
AcDbEntity
  8
STANDARDEBENE
 62
   250
100
AcDbVertex
100
AcDb2dVertex
 10
42.02430825772309
 20
1.781631130196953
 30
0.0
  0
VERTEX
  5
2C4
330
2C0
100
AcDbEntity
  8
STANDARDEBENE
 62
   250
100
AcDbVertex
100
AcDb2dVertex
 10
42.02430825772309
 20
1.271756998379977
 30
0.0
  0
VERTEX
  5
2C5
330
2C0
100
AcDbEntity
  8
STANDARDEBENE
 62
   250
100
AcDbVertex
100
AcDb2dVertex
 10
42.02430825772309
 20
0.5748141817139354
 30
0.0
  0
VERTEX
  5
2C6
330
2C0
100
AcDbEntity
  8
STANDARDEBENE
 62
   250
100
AcDbVertex
100
AcDb2dVertex
 10
42.02430825772309
 20
-0.2916273328263987
 30
0.0
  0
VERTEX
  5
2C7
330
2C0
100
AcDbEntity
  8
STANDARDEBENE
 62
   250
100
AcDbVertex
100
AcDb2dVertex
 10
42.02430825772309
 20
-1.305863443683951
 30
0.0
  0
VERTEX
  5
2C8
330
2C0
100
AcDbEntity
  8
STANDARDEBENE
 62
   250
100
AcDbVertex
100
AcDb2dVertex
 10
42.02430825772309
 20
-2.443261718139185
 30
0.0
  0
VERTEX
  5
2C9
330
2C0
100
AcDbEntity
  8
STANDARDEBENE
 62
   250
100
AcDbVertex
100
AcDb2dVertex
 10
42.02430825772309
 20
-3.675055608890264
 30
0.0
  0
VERTEX
  5
2CA
330
2C0
100
AcDbEntity
  8
STANDARDEBENE
 62
   250
100
AcDbVertex
100
AcDb2dVertex
 10
42.02430825772309
 20
-4.972650823409615
 30
0.0
  0
VERTEX
  5
2CB
330
2C0
100
AcDbEntity
  8
STANDARDEBENE
 62
   250
100
AcDbVertex
100
AcDb2dVertex
 10
42.02430825772309
 20
-6.30228542594179
 30
0.0
  0
VERTEX
  5
2CC
330
2C0
100
AcDbEntity
  8
STANDARDEBENE
 62
   250
100
AcDbVertex
100
AcDb2dVertex
 10
42.02430825772309
 20
-7.631920028473965
 30
0.0
  0
VERTEX
  5
2CD
330
2C0
100
AcDbEntity
  8
STANDARDEBENE
 62
   250
100
AcDbVertex
100
AcDb2dVertex
 10
42.02430825772309
 20
-8.928309459573478
 30
0.0
  0
VERTEX
  5
2CE
330
2C0
100
AcDbEntity
  8
STANDARDEBENE
 62
   250
100
AcDbVertex
100
AcDb2dVertex
 10
42.02430825772309
 20
-10.16096462419587
 30
0.0
  0
VERTEX
  5
2CF
330
2C0
100
AcDbEntity
  8
STANDARDEBENE
 62
   250
100
AcDbVertex
100
AcDb2dVertex
 10
42.02430825772309
 20
-11.2983628986511
 30
0.0
  0
VERTEX
  5
2D0
330
2C0
100
AcDbEntity
  8
STANDARDEBENE
 62
   250
100
AcDbVertex
100
AcDb2dVertex
 10
42.02430825772309
 20
-12.31259900950866
 30
0.0
  0
VERTEX
  5
2D1
330
2C0
100
AcDbEntity
  8
STANDARDEBENE
 62
   250
100
AcDbVertex
100
AcDb2dVertex
 10
42.02430825772309
 20
-13.17869601450047
 30
0.0
  0
VERTEX
  5
2D2
330
2C0
100
AcDbEntity
  8
STANDARDEBENE
 62
   250
100
AcDbVertex
100
AcDb2dVertex
 10
42.02430825772309
 20
-13.87529432161798
 30
0.0
  0
VERTEX
  5
2D3
330
2C0
100
AcDbEntity
  8
STANDARDEBENE
 62
   250
100
AcDbVertex
100
AcDb2dVertex
 10
42.02430825772309
 20
-14.38585747253201
 30
0.0
  0
VERTEX
  5
2D4
330
2C0
100
AcDbEntity
  8
STANDARDEBENE
 62
   250
100
AcDbVertex
100
AcDb2dVertex
 10
42.02430825772309
 20
-14.69763861394712
 30
0.0
  0
VERTEX
  5
2D5
330
2C0
100
AcDbEntity
  8
STANDARDEBENE
 62
   250
100
AcDbVertex
100
AcDb2dVertex
 10
42.02430825772309
 20
-14.80168049760166
 30
0.0
  0
SEQEND
  5
2D6
330
2C0
100
AcDbEntity
  8
STANDARDEBENE
  0
POLYLINE
  5
2D7
330
1F
100
AcDbEntity
  8
STANDARDEBENE
 62
   250
100
AcDb2dPolyline
 66
     1
 10
0.0
 20
0.0
 30
0.0
  0
VERTEX
  5
2D8
330
2D7
100
AcDbEntity
  8
STANDARDEBENE
 62
   250
100
AcDbVertex
100
AcDb2dVertex
 10
37.52380777056697
 20
-3.946529133127951
 30
0.0
  0
VERTEX
  5
2D9
330
2D7
100
AcDbEntity
  8
STANDARDEBENE
 62
   250
100
AcDbVertex
100
AcDb2dVertex
 10
37.97080890977814
 20
-3.992004393533249
 30
0.0
  0
VERTEX
  5
2DA
330
2D7
100
AcDbEntity
  8
STANDARDEBENE
 62
   250
100
AcDbVertex
100
AcDb2dVertex
 10
38.40575221479092
 20
-4.128430174749143
 30
0.0
  0
VERTEX
  5
2DB
330
2D7
100
AcDbEntity
  8
STANDARDEBENE
 62
   250
100
AcDbVertex
100
AcDb2dVertex
 10
39.15058185870194
 20
-4.636754013597757
 30
0.0
  0
VERTEX
  5
2DC
330
2D7
100
AcDbEntity
  8
STANDARDEBENE
 62
   250
100
AcDbVertex
100
AcDb2dVertex
 10
39.64650335380365
 20
-5.39880913493502
 30
0.0
  0
VERTEX
  5
2DD
330
2D7
100
AcDbEntity
  8
STANDARDEBENE
 62
   250
100
AcDbVertex
100
AcDb2dVertex
 10
39.8235812617455
 20
-6.30090738774769
 30
0.0
  0
VERTEX
  5
2DE
330
2D7
100
AcDbEntity
  8
STANDARDEBENE
 62
   250
100
AcDbVertex
100
AcDb2dVertex
 10
39.64615884425513
 20
-7.204211423980198
 30
0.0
  0
VERTEX
  5
2DF
330
2D7
100
AcDbEntity
  8
STANDARDEBENE
 62
   250
100
AcDbVertex
100
AcDb2dVertex
 10
39.15023734915341
 20
-7.967644583511562
 30
0.0
  0
VERTEX
  5
2E0
330
2D7
100
AcDbEntity
  8
STANDARDEBENE
 62
   250
100
AcDbVertex
100
AcDb2dVertex
 10
38.40575221479092
 20
-8.476140677134438
 30
0.0
  0
VERTEX
  5
2E1
330
2D7
100
AcDbEntity
  8
STANDARDEBENE
 62
   250
100
AcDbVertex
100
AcDb2dVertex
 10
37.97149792887518
 20
-8.612221948801807
 30
0.0
  0
VERTEX
  5
2E2
330
2D7
100
AcDbEntity
  8
STANDARDEBENE
 62
   250
100
AcDbVertex
100
AcDb2dVertex
 10
37.52380777056697
 20
-8.658041718755628
 30
0.0
  0
VERTEX
  5
2E3
330
2D7
100
AcDbEntity
  8
STANDARDEBENE
 62
   250
100
AcDbVertex
100
AcDb2dVertex
 10
37.07697888613006
 20
-8.612221948801807
 30
0.0
  0
VERTEX
  5
2E4
330
2D7
100
AcDbEntity
  8
STANDARDEBENE
 62
   250
100
AcDbVertex
100
AcDb2dVertex
 10
36.64186332634301
 20
-8.475451658037388
 30
0.0
  0
VERTEX
  5
2E5
330
2D7
100
AcDbEntity
  8
STANDARDEBENE
 62
   250
100
AcDbVertex
100
AcDb2dVertex
 10
35.89720593720626
 20
-7.967300073963036
 30
0.0
  0
VERTEX
  5
2E6
330
2D7
100
AcDbEntity
  8
STANDARDEBENE
 62
   250
100
AcDbVertex
100
AcDb2dVertex
 10
35.40197346120159
 20
-7.203522404883148
 30
0.0
  0
VERTEX
  5
2E7
330
2D7
100
AcDbEntity
  8
STANDARDEBENE
 62
   250
100
AcDbVertex
100
AcDb2dVertex
 10
35.22489555325975
 20
-6.30090738774769
 30
0.0
  0
VERTEX
  5
2E8
330
2D7
100
AcDbEntity
  8
STANDARDEBENE
 62
   250
100
AcDbVertex
100
AcDb2dVertex
 10
35.40197346120159
 20
-5.398464625386495
 30
0.0
  0
VERTEX
  5
2E9
330
2D7
100
AcDbEntity
  8
STANDARDEBENE
 62
   250
100
AcDbVertex
100
AcDb2dVertex
 10
35.89823946585183
 20
-4.635720484952182
 30
0.0
  0
VERTEX
  5
2EA
330
2D7
100
AcDbEntity
  8
STANDARDEBENE
 62
   250
100
AcDbVertex
100
AcDb2dVertex
 10
36.64341361931137
 20
-4.128430174749143
 30
0.0
  0
VERTEX
  5
2EB
330
2D7
100
AcDbEntity
  8
STANDARDEBENE
 62
   250
100
AcDbVertex
100
AcDb2dVertex
 10
37.07801241477564
 20
-3.992004393533249
 30
0.0
  0
VERTEX
  5
2EC
330
2D7
100
AcDbEntity
  8
STANDARDEBENE
 62
   250
100
AcDbVertex
100
AcDb2dVertex
 10
37.52380777056697
 20
-3.946529133127951
 30
0.0
  0
SEQEND
  5
2ED
330
2D7
100
AcDbEntity
  8
STANDARDEBENE
  0
POLYLINE
  5
2EE
330
1F
100
AcDbEntity
  8
STANDARDEBENE
 62
   250
100
AcDb2dPolyline
 66
     1
 10
0.0
 20
0.0
 30
0.0
  0
VERTEX
  5
2EF
330
2EE
100
AcDbEntity
  8
STANDARDEBENE
 62
   250
100
AcDbVertex
100
AcDb2dVertex
 10
41.44673799962096
 20
-15.80179171696969
 30
0.0
  0
VERTEX
  5
2F0
330
2EE
100
AcDbEntity
  8
STANDARDEBENE
 62
   250
100
AcDbVertex
100
AcDb2dVertex
 10
41.44673799962096
 20
-15.695682776024
 30
0.0
  0
VERTEX
  5
2F1
330
2EE
100
AcDbEntity
  8
STANDARDEBENE
 62
   250
100
AcDbVertex
100
AcDb2dVertex
 10
41.44673799962096
 20
-15.37993977480085
 30
0.0
  0
VERTEX
  5
2F2
330
2EE
100
AcDbEntity
  8
STANDARDEBENE
 62
   250
100
AcDbVertex
100
AcDb2dVertex
 10
41.44673799962096
 20
-14.86093613994796
 30
0.0
  0
VERTEX
  5
2F3
330
2EE
100
AcDbEntity
  8
STANDARDEBENE
 62
   250
100
AcDbVertex
100
AcDb2dVertex
 10
41.44673799962096
 20
-14.15159097953502
 30
0.0
  0
VERTEX
  5
2F4
330
2EE
100
AcDbEntity
  8
STANDARDEBENE
 62
   250
100
AcDbVertex
100
AcDb2dVertex
 10
41.44673799962096
 20
-13.26602918505155
 30
0.0
  0
VERTEX
  5
2F5
330
2EE
100
AcDbEntity
  8
STANDARDEBENE
 62
   250
100
AcDbVertex
100
AcDb2dVertex
 10
41.44673799962096
 20
-12.22509358418331
 30
0.0
  0
VERTEX
  5
2F6
330
2EE
100
AcDbEntity
  8
STANDARDEBENE
 62
   250
100
AcDbVertex
100
AcDb2dVertex
 10
41.44673799962096
 20
-11.05169406190722
 30
0.0
  0
VERTEX
  5
2F7
330
2EE
100
AcDbEntity
  8
STANDARDEBENE
 62
   250
100
AcDbVertex
100
AcDb2dVertex
 10
41.44673799962096
 20
-9.772530108233951
 30
0.0
  0
VERTEX
  5
2F8
330
2EE
100
AcDbEntity
  8
STANDARDEBENE
 62
   250
100
AcDbVertex
100
AcDb2dVertex
 10
41.44673799962096
 20
-8.415851506142566
 30
0.0
  0
VERTEX
  5
2F9
330
2EE
100
AcDbEntity
  8
STANDARDEBENE
 62
   250
100
AcDbVertex
100
AcDb2dVertex
 10
41.44673799962096
 20
-7.011630586354731
 30
0.0
  0
VERTEX
  5
2FA
330
2EE
100
AcDbEntity
  8
STANDARDEBENE
 62
   250
100
AcDbVertex
100
AcDb2dVertex
 10
41.44673799962096
 20
-5.591734482109011
 30
0.0
  0
VERTEX
  5
2FB
330
2EE
100
AcDbEntity
  8
STANDARDEBENE
 62
   250
100
AcDbVertex
100
AcDb2dVertex
 10
41.44673799962096
 20
-4.18837483619249
 30
0.0
  0
VERTEX
  5
2FC
330
2EE
100
AcDbEntity
  8
STANDARDEBENE
 62
   250
100
AcDbVertex
100
AcDb2dVertex
 10
41.44673799962096
 20
-2.831696234101104
 30
0.0
  0
VERTEX
  5
2FD
330
2EE
100
AcDbEntity
  8
STANDARDEBENE
 62
   250
100
AcDbVertex
100
AcDb2dVertex
 10
41.44673799962096
 20
-1.551843261330789
 30
0.0
  0
VERTEX
  5
2FE
330
2EE
100
AcDbEntity
  8
STANDARDEBENE
 62
   250
100
AcDbVertex
100
AcDb2dVertex
 10
41.44673799962096
 20
-0.3791327581517446
 30
0.0
  0
VERTEX
  5
2FF
330
2EE
100
AcDbEntity
  8
STANDARDEBENE
 62
   250
100
AcDbVertex
100
AcDb2dVertex
 10
41.44673799962096
 20
0.6619750974907562
 30
0.0
  0
VERTEX
  5
300
330
2EE
100
AcDbEntity
  8
STANDARDEBENE
 62
   250
100
AcDbVertex
100
AcDb2dVertex
 10
41.44673799962096
 20
1.547020127651439
 30
0.0
  0
VERTEX
  5
301
330
2EE
100
AcDbEntity
  8
STANDARDEBENE
 62
   250
100
AcDbVertex
100
AcDb2dVertex
 10
41.44673799962096
 20
2.257226561935693
 30
0.0
  0
VERTEX
  5
302
330
2EE
100
AcDbEntity
  8
STANDARDEBENE
 62
   250
100
AcDbVertex
100
AcDb2dVertex
 10
41.44673799962096
 20
2.776230196788581
 30
0.0
  0
VERTEX
  5
303
330
2EE
100
AcDbEntity
  8
STANDARDEBENE
 62
   250
100
AcDbVertex
100
AcDb2dVertex
 10
41.44673799962096
 20
3.091800943237466
 30
0.0
  0
VERTEX
  5
304
330
2EE
100
AcDbEntity
  8
STANDARDEBENE
 62
   250
100
AcDbVertex
100
AcDb2dVertex
 10
41.44673799962096
 20
3.197737629408899
 30
0.0
  0
SEQEND
  5
305
330
2EE
100
AcDbEntity
  8
STANDARDEBENE
  0
POLYLINE
  5
306
330
1F
100
AcDbEntity
  8
STANDARDEBENE
 62
   250
100
AcDb2dPolyline
 66
     1
 10
0.0
 20
0.0
 30
0.0
  0
VERTEX
  5
307
330
306
100
AcDbEntity
  8
STANDARDEBENE
 62
   250
100
AcDbVertex
100
AcDb2dVertex
 10
37.52380777056697
 20
-4.202155218133489
 30
0.0
  0
VERTEX
  5
308
330
306
100
AcDbEntity
  8
STANDARDEBENE
 62
   250
100
AcDbVertex
100
AcDb2dVertex
 10
36.82083603680174
 20
-4.323078069665758
 30
0.0
  0
VERTEX
  5
309
330
306
100
AcDbEntity
  8
STANDARDEBENE
 62
   250
100
AcDbVertex
100
AcDb2dVertex
 10
36.42499456554653
 20
-4.5125583213545
 30
0.0
  0
VERTEX
  5
30A
330
306
100
AcDbEntity
  8
STANDARDEBENE
 62
   250
100
AcDbVertex
100
AcDb2dVertex
 10
36.03966063552134
 20
-4.816760252702061
 30
0.0
  0
VERTEX
  5
30B
330
306
100
AcDbEntity
  8
STANDARDEBENE
 62
   250
100
AcDbVertex
100
AcDb2dVertex
 10
35.73804252578771
 20
-5.197787813370693
 30
0.0
  0
VERTEX
  5
30C
330
306
100
AcDbEntity
  8
STANDARDEBENE
 62
   250
100
AcDbVertex
100
AcDb2dVertex
 10
35.54873452887323
 20
-5.590356443914911
 30
0.0
  0
VERTEX
  5
30D
330
306
100
AcDbEntity
  8
STANDARDEBENE
 62
   250
100
AcDbVertex
100
AcDb2dVertex
 10
35.42419432708145
 20
-6.30090738774769
 30
0.0
  0
VERTEX
  5
30E
330
306
100
AcDbEntity
  8
STANDARDEBENE
 62
   250
100
AcDbVertex
100
AcDb2dVertex
 10
35.54804550977619
 20
-7.012664115000306
 30
0.0
  0
VERTEX
  5
30F
330
306
100
AcDbEntity
  8
STANDARDEBENE
 62
   250
100
AcDbVertex
100
AcDb2dVertex
 10
35.73769801623919
 20
-7.405405000318788
 30
0.0
  0
VERTEX
  5
310
330
306
100
AcDbEntity
  8
STANDARDEBENE
 62
   250
100
AcDbVertex
100
AcDb2dVertex
 10
36.03897161642428
 20
-7.78643256098742
 30
0.0
  0
VERTEX
  5
311
330
306
100
AcDbEntity
  8
STANDARDEBENE
 62
   250
100
AcDbVertex
100
AcDb2dVertex
 10
36.42499456554653
 20
-8.091668020980556
 30
0.0
  0
VERTEX
  5
312
330
306
100
AcDbEntity
  8
STANDARDEBENE
 62
   250
100
AcDbVertex
100
AcDb2dVertex
 10
36.82083603680174
 20
-8.280976017895034
 30
0.0
  0
VERTEX
  5
313
330
306
100
AcDbEntity
  8
STANDARDEBENE
 62
   250
100
AcDbVertex
100
AcDb2dVertex
 10
37.52380777056697
 20
-8.402071124201566
 30
0.0
  0
VERTEX
  5
314
330
306
100
AcDbEntity
  8
STANDARDEBENE
 62
   250
100
AcDbVertex
100
AcDb2dVertex
 10
38.22695175910646
 20
-8.280976017895034
 30
0.0
  0
VERTEX
  5
315
330
306
100
AcDbEntity
  8
STANDARDEBENE
 62
   250
100
AcDbVertex
100
AcDb2dVertex
 10
38.62279323036167
 20
-8.091668020980556
 30
0.0
  0
VERTEX
  5
316
330
306
100
AcDbEntity
  8
STANDARDEBENE
 62
   250
100
AcDbVertex
100
AcDb2dVertex
 10
39.00864392470965
 20
-7.787466089632995
 30
0.0
  0
VERTEX
  5
317
330
306
100
AcDbEntity
  8
STANDARDEBENE
 62
   250
100
AcDbVertex
100
AcDb2dVertex
 10
39.31077879876606
 20
-7.406438528964363
 30
0.0
  0
VERTEX
  5
318
330
306
100
AcDbEntity
  8
STANDARDEBENE
 62
   250
100
AcDbVertex
100
AcDb2dVertex
 10
39.50043130522906
 20
-7.013008624548831
 30
0.0
  0
VERTEX
  5
319
330
306
100
AcDbEntity
  8
STANDARDEBENE
 62
   250
100
AcDbVertex
100
AcDb2dVertex
 10
39.62428248792379
 20
-6.30090738774769
 30
0.0
  0
VERTEX
  5
31A
330
306
100
AcDbEntity
  8
STANDARDEBENE
 62
   250
100
AcDbVertex
100
AcDb2dVertex
 10
39.49974228613201
 20
-5.591045463011961
 30
0.0
  0
VERTEX
  5
31B
330
306
100
AcDbEntity
  8
STANDARDEBENE
 62
   250
100
AcDbVertex
100
AcDb2dVertex
 10
39.31077879876606
 20
-5.198132322919217
 30
0.0
  0
VERTEX
  5
31C
330
306
100
AcDbEntity
  8
STANDARDEBENE
 62
   250
100
AcDbVertex
100
AcDb2dVertex
 10
39.00950519858096
 20
-4.817793781347635
 30
0.0
  0
VERTEX
  5
31D
330
306
100
AcDbEntity
  8
STANDARDEBENE
 62
   250
100
AcDbVertex
100
AcDb2dVertex
 10
38.62348224945872
 20
-4.512902830903024
 30
0.0
  0
VERTEX
  5
31E
330
306
100
AcDbEntity
  8
STANDARDEBENE
 62
   250
100
AcDbVertex
100
AcDb2dVertex
 10
38.22764077820351
 20
-4.323078069665758
 30
0.0
  0
VERTEX
  5
31F
330
306
100
AcDbEntity
  8
STANDARDEBENE
 62
   250
100
AcDbVertex
100
AcDb2dVertex
 10
37.52380777056697
 20
-4.202155218133489
 30
0.0
  0
SEQEND
  5
320
330
306
100
AcDbEntity
  8
STANDARDEBENE
  0
POLYLINE
  5
321
330
1F
100
AcDbEntity
  8
STANDARDEBENE
 62
   250
100
AcDb2dPolyline
 66
     1
 10
0.0
 20
0.0
 30
0.0
  0
VERTEX
  5
322
330
321
100
AcDbEntity
  8
STANDARDEBENE
 62
   250
100
AcDbVertex
100
AcDb2dVertex
 10
99.18085392485757
 20
-3.807347275523858
 30
0.0
  0
VERTEX
  5
323
330
321
100
AcDbEntity
  8
STANDARDEBENE
 62
   250
100
AcDbVertex
100
AcDb2dVertex
 10
99.18085392485757
 20
-3.802179632295983
 30
0.0
  0
SEQEND
  5
324
330
321
100
AcDbEntity
  8
STANDARDEBENE
  0
POLYLINE
  5
325
330
1F
100
AcDbEntity
  8
STANDARDEBENE
 62
   250
100
AcDb2dPolyline
 66
     1
 10
0.0
 20
0.0
 30
0.0
  0
VERTEX
  5
326
330
325
100
AcDbEntity
  8
STANDARDEBENE
 62
   250
100
AcDbVertex
100
AcDb2dVertex
 10
99.18085392485757
 20
-8.79705132158546
 30
0.0
  0
VERTEX
  5
327
330
325
100
AcDbEntity
  8
STANDARDEBENE
 62
   250
100
AcDbVertex
100
AcDb2dVertex
 10
99.18085392485757
 20
-8.802046710039072
 30
0.0
  0
SEQEND
  5
328
330
325
100
AcDbEntity
  8
STANDARDEBENE
  0
POLYLINE
  5
329
330
1F
100
AcDbEntity
  8
STANDARDEBENE
 62
   250
100
AcDb2dPolyline
 66
     1
 10
0.0
 20
0.0
 30
0.0
  0
VERTEX
  5
32A
330
329
100
AcDbEntity
  8
STANDARDEBENE
 62
   250
100
AcDbVertex
100
AcDb2dVertex
 10
90.52022838448801
 20
-8.79705132158546
 30
0.0
  0
VERTEX
  5
32B
330
329
100
AcDbEntity
  8
STANDARDEBENE
 62
   250
100
AcDbVertex
100
AcDb2dVertex
 10
90.52022838448801
 20
-8.802046710039072
 30
0.0
  0
SEQEND
  5
32C
330
329
100
AcDbEntity
  8
STANDARDEBENE
  0
POLYLINE
  5
32D
330
1F
100
AcDbEntity
  8
STANDARDEBENE
 62
   250
100
AcDb2dPolyline
 66
     1
 10
0.0
 20
0.0
 30
0.0
  0
VERTEX
  5
32E
330
32D
100
AcDbEntity
  8
STANDARDEBENE
 62
   250
100
AcDbVertex
100
AcDb2dVertex
 10
90.52022838448801
 20
-3.807002765975333
 30
0.0
  0
VERTEX
  5
32F
330
32D
100
AcDbEntity
  8
STANDARDEBENE
 62
   250
100
AcDbVertex
100
AcDb2dVertex
 10
90.52022838448801
 20
-3.802179632295983
 30
0.0
  0
SEQEND
  5
330
330
32D
100
AcDbEntity
  8
STANDARDEBENE
  0
SPLINE
  5
331
330
1F
100
AcDbEntity
  8
STANDARDEBENE
 62
   250
100
AcDbSpline
210
0.0
220
0.0
230
1.0
 70
     8
 71
     3
 72
     8
 73
     4
 74
     0
 42
0.0000000001
 43
0.0000000001
 40
0.0
 40
0.0
 40
0.0
 40
0.0
 40
1.0
 40
1.0
 40
1.0
 40
1.0
 10
101.8504584163777
 20
-6.30228542594179
 30
0.0
 10
101.8504584163777
 20
-5.949507648252207
 30
0.0
 10
101.8242756906898
 20
-5.602242023339023
 30
0.0
 10
101.7788004302845
 20
-5.301829697025237
 30
0.0
  0
SPLINE
  5
332
330
1F
100
AcDbEntity
  8
STANDARDEBENE
 62
   250
100
AcDbSpline
210
0.0
220
0.0
230
1.0
 70
     8
 71
     3
 72
     8
 73
     4
 74
     0
 42
0.0000000001
 43
0.0000000001
 40
0.0
 40
0.0
 40
0.0
 40
0.0
 40
1.0
 40
1.0
 40
1.0
 40
1.0
 10
99.18085392485757
 20
-0.8021904837404247
 30
0.0
 10
98.62653806128087
 20
-0.3656968857592702
 30
0.0
 10
98.02640242775036
 20
-0.0263549804621613
 30
0.0
 10
97.44865991487396
 20
0.1979207356276032
 30
0.0
  0
SPLINE
  5
333
330
1F
100
AcDbEntity
  8
STANDARDEBENE
 62
   250
100
AcDbSpline
210
0.0
220
0.0
230
1.0
 70
     8
 71
     3
 72
     8
 73
     4
 74
     0
 42
0.0000000001
 43
0.0000000001
 40
0.0
 40
0.0
 40
0.0
 40
0.0
 40
1.0
 40
1.0
 40
1.0
 40
1.0
 10
92.25242239447162
 20
0.1979207356276032
 30
0.0
 10
91.59716523317711
 20
-0.064078776025647
 30
0.0
 10
91.00323077152002
 20
-0.413583713004243
 30
0.0
 10
90.52022838448801
 20
-0.8021904837404247
 30
0.0
  0
SPLINE
  5
334
330
1F
100
AcDbEntity
  8
STANDARDEBENE
 62
   250
100
AcDbSpline
210
0.0
220
0.0
230
1.0
 70
     8
 71
     3
 72
     8
 73
     4
 74
     0
 42
0.0000000001
 43
0.0000000001
 40
0.0
 40
0.0
 40
0.0
 40
0.0
 40
1.0
 40
1.0
 40
1.0
 40
1.0
 10
87.92262638860963
 20
-5.301829697025237
 30
0.0
 10
87.82134058134328
 20
-6.000322806659642
 30
0.0
 10
87.82754175321674
 20
-6.689169648935347
 30
0.0
 10
87.92262638860963
 20
-7.302396645309818
 30
0.0
  0
SPLINE
  5
335
330
1F
100
AcDbEntity
  8
STANDARDEBENE
 62
   250
100
AcDbSpline
210
0.0
220
0.0
230
1.0
 70
     8
 71
     3
 72
     8
 73
     4
 74
     0
 42
0.0000000001
 43
0.0000000001
 40
0.0
 40
0.0
 40
0.0
 40
0.0
 40
1.0
 40
1.0
 40
1.0
 40
1.0
 10
90.52022838448801
 20
-11.80203585859463
 30
0.0
 10
91.07488875761322
 20
-12.23852945657578
 30
0.0
 10
91.67467988159522
 20
-12.57787136187289
 30
0.0
 10
92.25242239447162
 20
-12.80180256841413
 30
0.0
  0
SPLINE
  5
336
330
1F
100
AcDbEntity
  8
STANDARDEBENE
 62
   250
100
AcDbSpline
210
0.0
220
0.0
230
1.0
 70
     8
 71
     3
 72
     8
 73
     4
 74
     0
 42
0.0000000001
 43
0.0000000001
 40
0.0
 40
0.0
 40
0.0
 40
0.0
 40
1.0
 40
1.0
 40
1.0
 40
1.0
 10
97.44865991487396
 20
-12.80180256841413
 30
0.0
 10
98.104261585717
 20
-12.54049207585793
 30
0.0
 10
98.69785153782554
 20
-12.19047037455655
 30
0.0
 10
99.18085392485757
 20
-11.80203585859463
 30
0.0
  0
SPLINE
  5
337
330
1F
100
AcDbEntity
  8
STANDARDEBENE
 62
   250
100
AcDbSpline
210
0.0
220
0.0
230
1.0
 70
     8
 71
     3
 72
     8
 73
     4
 74
     0
 42
0.0000000001
 43
0.0000000001
 40
0.0
 40
0.0
 40
0.0
 40
0.0
 40
1.0
 40
1.0
 40
1.0
 40
1.0
 10
101.7788004302845
 20
-7.302396645309818
 30
0.0
 10
101.8290988243691
 20
-6.953063963105484
 30
0.0
 10
101.8528699832173
 20
-6.605970592966563
 30
0.0
 10
101.8504584163777
 20
-6.30228542594179
 30
0.0
  0
SPLINE
  5
338
330
1F
100
AcDbEntity
  8
STANDARDEBENE
 62
   250
100
AcDbSpline
210
0.0
220
0.0
230
1.0
 70
    11
 71
     3
 72
    17
 73
    13
 74
     0
 42
0.0000000001
 43
0.0000000001
 40
0.0
 40
0.0
 40
0.0
 40
0.0
 40
1.0
 40
1.0
 40
1.0
 40
2.0
 40
2.0
 40
2.0
 40
3.0
 40
3.0
 40
3.0
 40
4.0
 40
4.0
 40
4.0
 40
4.0
 10
101.0505072447027
 20
-6.30228542594179
 30
0.0
 10
101.0505072447027
 20
-2.877860513603452
 30
0.0
 10
98.27444930268834
 20
-0.1018025715891327
 30
0.0
 10
94.85105791899558
 20
-0.1018025715891327
 30
0.0
 10
91.42697751620575
 20
-0.1018025715891327
 30
0.0
 10
88.65091957419143
 20
-2.877860513603452
 30
0.0
 10
88.65091957419143
 20
-6.30228542594179
 30
0.0
 10
88.65091957419143
 20
-9.726365828731604
 30
0.0
 10
91.42697751620575
 20
-12.50190700642314
 30
0.0
 10
94.85105791899558
 20
-12.50190700642314
 30
0.0
 10
98.27444930268834
 20
-12.50190700642314
 30
0.0
 10
101.0505072447027
 20
-9.726365828731604
 30
0.0
 10
101.0505072447027
 20
-6.30228542594179
 30
0.0
  0
POLYLINE
  5
339
330
1F
100
AcDbEntity
  8
STANDARDEBENE
 62
   250
100
AcDb2dPolyline
 66
     1
 10
0.0
 20
0.0
 30
0.0
  0
VERTEX
  5
33A
330
339
100
AcDbEntity
  8
STANDARDEBENE
 62
   250
100
AcDbVertex
100
AcDb2dVertex
 10
87.92262638860963
 20
-7.302396645309818
 30
0.0
  0
VERTEX
  5
33B
330
339
100
AcDbEntity
  8
STANDARDEBENE
 62
   250
100
AcDbVertex
100
AcDb2dVertex
 10
88.54515514279427
 20
-8.379678003547442
 30
0.0
  0
VERTEX
  5
33C
330
339
100
AcDbEntity
  8
STANDARDEBENE
 62
   250
100
AcDbVertex
100
AcDb2dVertex
 10
89.20799151415633
 20
-9.528445093104
 30
0.0
  0
VERTEX
  5
33D
330
339
100
AcDbEntity
  8
STANDARDEBENE
 62
   250
100
AcDbVertex
100
AcDb2dVertex
 10
89.86359318499939
 20
-10.66480983891366
 30
0.0
  0
VERTEX
  5
33E
330
339
100
AcDbEntity
  8
STANDARDEBENE
 62
   250
100
AcDbVertex
100
AcDb2dVertex
 10
90.52022838448801
 20
-11.80203585859463
 30
0.0
  0
SEQEND
  5
33F
330
339
100
AcDbEntity
  8
STANDARDEBENE
  0
POLYLINE
  5
340
330
1F
100
AcDbEntity
  8
STANDARDEBENE
 62
   250
100
AcDb2dPolyline
 66
     1
 10
0.0
 20
0.0
 30
0.0
  0
VERTEX
  5
341
330
340
100
AcDbEntity
  8
STANDARDEBENE
 62
   250
100
AcDbVertex
100
AcDb2dVertex
 10
92.25242239447162
 20
-12.80180256841413
 30
0.0
  0
VERTEX
  5
342
330
340
100
AcDbEntity
  8
STANDARDEBENE
 62
   250
100
AcDbVertex
100
AcDb2dVertex
 10
92.85979272852117
 20
-12.80180256841413
 30
0.0
  0
VERTEX
  5
343
330
340
100
AcDbEntity
  8
STANDARDEBENE
 62
   250
100
AcDbVertex
100
AcDb2dVertex
 10
93.48404403044844
 20
-12.80180256841413
 30
0.0
  0
VERTEX
  5
344
330
340
100
AcDbEntity
  8
STANDARDEBENE
 62
   250
100
AcDbVertex
100
AcDb2dVertex
 10
94.13275551032098
 20
-12.80180256841413
 30
0.0
  0
VERTEX
  5
345
330
340
100
AcDbEntity
  8
STANDARDEBENE
 62
   250
100
AcDbVertex
100
AcDb2dVertex
 10
94.79524737213453
 20
-12.80180256841413
 30
0.0
  0
VERTEX
  5
346
330
340
100
AcDbEntity
  8
STANDARDEBENE
 62
   250
100
AcDbVertex
100
AcDb2dVertex
 10
95.42122122180442
 20
-12.80180256841413
 30
0.0
  0
VERTEX
  5
347
330
340
100
AcDbEntity
  8
STANDARDEBENE
 62
   250
100
AcDbVertex
100
AcDb2dVertex
 10
96.04788409057137
 20
-12.80180256841413
 30
0.0
  0
VERTEX
  5
348
330
340
100
AcDbEntity
  8
STANDARDEBENE
 62
   250
100
AcDbVertex
100
AcDb2dVertex
 10
96.6797146025662
 20
-12.80180256841413
 30
0.0
  0
VERTEX
  5
349
330
340
100
AcDbEntity
  8
STANDARDEBENE
 62
   250
100
AcDbVertex
100
AcDb2dVertex
 10
97.30224335675084
 20
-12.80180256841413
 30
0.0
  0
VERTEX
  5
34A
330
340
100
AcDbEntity
  8
STANDARDEBENE
 62
   250
100
AcDbVertex
100
AcDb2dVertex
 10
97.44865991487396
 20
-12.80180256841413
 30
0.0
  0
SEQEND
  5
34B
330
340
100
AcDbEntity
  8
STANDARDEBENE
  0
POLYLINE
  5
34C
330
1F
100
AcDbEntity
  8
STANDARDEBENE
 62
   250
100
AcDb2dPolyline
 66
     1
 10
0.0
 20
0.0
 30
0.0
  0
VERTEX
  5
34D
330
34C
100
AcDbEntity
  8
STANDARDEBENE
 62
   250
100
AcDbVertex
100
AcDb2dVertex
 10
99.18085392485757
 20
-11.80203585859463
 30
0.0
  0
VERTEX
  5
34E
330
34C
100
AcDbEntity
  8
STANDARDEBENE
 62
   250
100
AcDbVertex
100
AcDb2dVertex
 10
99.80303816949369
 20
-10.72440999080848
 30
0.0
  0
VERTEX
  5
34F
330
34C
100
AcDbEntity
  8
STANDARDEBENE
 62
   250
100
AcDbVertex
100
AcDb2dVertex
 10
100.4658745408558
 20
-9.575642901251923
 30
0.0
  0
VERTEX
  5
350
330
34C
100
AcDbEntity
  8
STANDARDEBENE
 62
   250
100
AcDbVertex
100
AcDb2dVertex
 10
101.1221652307959
 20
-8.439278155442263
 30
0.0
  0
VERTEX
  5
351
330
34C
100
AcDbEntity
  8
STANDARDEBENE
 62
   250
100
AcDbVertex
100
AcDb2dVertex
 10
101.7788004302845
 20
-7.302396645309818
 30
0.0
  0
SEQEND
  5
352
330
34C
100
AcDbEntity
  8
STANDARDEBENE
  0
POLYLINE
  5
353
330
1F
100
AcDbEntity
  8
STANDARDEBENE
 62
   250
100
AcDb2dPolyline
 66
     1
 10
0.0
 20
0.0
 30
0.0
  0
VERTEX
  5
354
330
353
100
AcDbEntity
  8
STANDARDEBENE
 62
   250
100
AcDbVertex
100
AcDb2dVertex
 10
101.7788004302845
 20
-5.301829697025237
 30
0.0
  0
VERTEX
  5
355
330
353
100
AcDbEntity
  8
STANDARDEBENE
 62
   250
100
AcDbVertex
100
AcDb2dVertex
 10
101.1569606951969
 20
-4.22437608401335
 30
0.0
  0
VERTEX
  5
356
330
353
100
AcDbEntity
  8
STANDARDEBENE
 62
   250
100
AcDbVertex
100
AcDb2dVertex
 10
100.4930907951892
 20
-3.07543673968253
 30
0.0
  0
VERTEX
  5
357
330
353
100
AcDbEntity
  8
STANDARDEBENE
 62
   250
100
AcDbVertex
100
AcDb2dVertex
 10
99.83714461479767
 20
-1.939416503421396
 30
0.0
  0
VERTEX
  5
358
330
353
100
AcDbEntity
  8
STANDARDEBENE
 62
   250
100
AcDbVertex
100
AcDb2dVertex
 10
99.18085392485757
 20
-0.8021904837404247
 30
0.0
  0
SEQEND
  5
359
330
353
100
AcDbEntity
  8
STANDARDEBENE
  0
POLYLINE
  5
35A
330
1F
100
AcDbEntity
  8
STANDARDEBENE
 62
   250
100
AcDb2dPolyline
 66
     1
 10
0.0
 20
0.0
 30
0.0
  0
VERTEX
  5
35B
330
35A
100
AcDbEntity
  8
STANDARDEBENE
 62
   250
100
AcDbVertex
100
AcDb2dVertex
 10
97.44865991487396
 20
0.1979207356276032
 30
0.0
  0
VERTEX
  5
35C
330
35A
100
AcDbEntity
  8
STANDARDEBENE
 62
   250
100
AcDbVertex
100
AcDb2dVertex
 10
97.30224335675084
 20
0.1979207356276032
 30
0.0
  0
VERTEX
  5
35D
330
35A
100
AcDbEntity
  8
STANDARDEBENE
 62
   250
100
AcDbVertex
100
AcDb2dVertex
 10
96.70210772322031
 20
0.1979207356276032
 30
0.0
  0
VERTEX
  5
35E
330
35A
100
AcDbEntity
  8
STANDARDEBENE
 62
   250
100
AcDbVertex
100
AcDb2dVertex
 10
96.08612465045763
 20
0.1979207356276032
 30
0.0
  0
VERTEX
  5
35F
330
35A
100
AcDbEntity
  8
STANDARDEBENE
 62
   250
100
AcDbVertex
100
AcDb2dVertex
 10
95.44671492839527
 20
0.1979207356276032
 30
0.0
  0
VERTEX
  5
360
330
35A
100
AcDbEntity
  8
STANDARDEBENE
 62
   250
100
AcDbVertex
100
AcDb2dVertex
 10
94.79524737213453
 20
0.1979207356276032
 30
0.0
  0
VERTEX
  5
361
330
35A
100
AcDbEntity
  8
STANDARDEBENE
 62
   250
100
AcDbVertex
100
AcDb2dVertex
 10
94.15893823600888
 20
0.1979207356276032
 30
0.0
  0
VERTEX
  5
362
330
35A
100
AcDbEntity
  8
STANDARDEBENE
 62
   250
100
AcDbVertex
100
AcDb2dVertex
 10
93.52331811898028
 20
0.1979207356276032
 30
0.0
  0
VERTEX
  5
363
330
35A
100
AcDbEntity
  8
STANDARDEBENE
 62
   250
100
AcDbVertex
100
AcDb2dVertex
 10
92.88253035872381
 20
0.1979207356276032
 30
0.0
  0
VERTEX
  5
364
330
35A
100
AcDbEntity
  8
STANDARDEBENE
 62
   250
100
AcDbVertex
100
AcDb2dVertex
 10
92.25242239447162
 20
0.1979207356276032
 30
0.0
  0
SEQEND
  5
365
330
35A
100
AcDbEntity
  8
STANDARDEBENE
  0
POLYLINE
  5
366
330
1F
100
AcDbEntity
  8
STANDARDEBENE
 62
   250
100
AcDb2dPolyline
 66
     1
 10
0.0
 20
0.0
 30
0.0
  0
VERTEX
  5
367
330
366
100
AcDbEntity
  8
STANDARDEBENE
 62
   250
100
AcDbVertex
100
AcDb2dVertex
 10
90.52022838448801
 20
-0.8021904837404247
 30
0.0
  0
VERTEX
  5
368
330
366
100
AcDbEntity
  8
STANDARDEBENE
 62
   250
100
AcDbVertex
100
AcDb2dVertex
 10
89.89873315894893
 20
-1.879471841978049
 30
0.0
  0
VERTEX
  5
369
330
366
100
AcDbEntity
  8
STANDARDEBENE
 62
   250
100
AcDbVertex
100
AcDb2dVertex
 10
89.23555227803834
 20
-3.028411186308869
 30
0.0
  0
VERTEX
  5
36A
330
366
100
AcDbEntity
  8
STANDARDEBENE
 62
   250
100
AcDbVertex
100
AcDb2dVertex
 10
88.57926158809825
 20
-4.165120441667053
 30
0.0
  0
VERTEX
  5
36B
330
366
100
AcDbEntity
  8
STANDARDEBENE
 62
   250
100
AcDbVertex
100
AcDb2dVertex
 10
87.92262638860963
 20
-5.301829697025237
 30
0.0
  0
SEQEND
  5
36C
330
366
100
AcDbEntity
  8
STANDARDEBENE
  0
SPLINE
  5
36D
330
1F
100
AcDbEntity
  8
STANDARDEBENE
 62
   250
100
AcDbSpline
210
0.0
220
0.0
230
1.0
 70
    11
 71
     3
 72
    17
 73
    13
 74
     0
 42
0.0000000001
 43
0.0000000001
 40
0.0
 40
0.0
 40
0.0
 40
0.0
 40
1.0
 40
1.0
 40
1.0
 40
2.0
 40
2.0
 40
2.0
 40
3.0
 40
3.0
 40
3.0
 40
4.0
 40
4.0
 40
4.0
 40
4.0
 10
107.8504367134888
 20
-6.30228542594179
 30
0.0
 10
107.8504367134888
 20
0.8774658200931336
 30
0.0
 10
102.0302924007077
 20
6.697954642422734
 30
0.0
 10
94.85105791899558
 20
6.697954642422734
 30
0.0
 10
87.67078990863786
 20
6.697954642422734
 30
0.0
 10
81.85099010540532
 20
0.8774658200931336
 30
0.0
 10
81.85099010540532
 20
-6.30228542594179
 30
0.0
 10
81.85099010540532
 20
-13.48169216242819
 30
0.0
 10
87.67078990863786
 20
-19.30218098475779
 30
0.0
 10
94.85105791899558
 20
-19.30218098475779
 30
0.0
 10
102.0302924007077
 20
-19.30218098475779
 30
0.0
 10
107.8504367134888
 20
-13.48169216242819
 30
0.0
 10
107.8504367134888
 20
-6.30228542594179
 30
0.0
  0
SPLINE
  5
36E
330
1F
100
AcDbEntity
  8
STANDARDEBENE
 62
   250
100
AcDbSpline
210
0.0
220
0.0
230
1.0
 70
    11
 71
     3
 72
    17
 73
    13
 74
     0
 42
0.0000000001
 43
0.0000000001
 40
0.0
 40
0.0
 40
0.0
 40
0.0
 40
1.0
 40
1.0
 40
1.0
 40
2.0
 40
2.0
 40
2.0
 40
3.0
 40
3.0
 40
3.0
 40
4.0
 40
4.0
 40
4.0
 40
4.0
 10
105.2528347176104
 20
-6.30228542594179
 30
0.0
 10
105.2528347176104
 20
-0.5575887042876861
 30
0.0
 10
100.5954101311011
 20
4.099835882221569
 30
0.0
 10
94.85105791899558
 20
4.099835882221569
 30
0.0
 10
89.10567217824442
 20
4.099835882221569
 30
0.0
 10
84.44824759173517
 20
-0.5575887042876861
 30
0.0
 10
84.44824759173517
 20
-6.30228542594179
 30
0.0
 10
84.44824759173517
 20
-12.04698214759589
 30
0.0
 10
89.10567217824442
 20
-16.70423447933089
 30
0.0
 10
94.85105791899558
 20
-16.70423447933089
 30
0.0
 10
100.5954101311011
 20
-16.70423447933089
 30
0.0
 10
105.2528347176104
 20
-12.04698214759589
 30
0.0
 10
105.2528347176104
 20
-6.30228542594179
 30
0.0
  0
SPLINE
  5
36F
330
1F
100
AcDbEntity
  8
STANDARDEBENE
 62
   250
100
AcDbSpline
210
0.0
220
0.0
230
1.0
 70
    11
 71
     3
 72
    17
 73
    13
 74
     0
 42
0.0000000001
 43
0.0000000001
 40
0.0
 40
0.0
 40
0.0
 40
0.0
 40
1.0
 40
1.0
 40
1.0
 40
2.0
 40
2.0
 40
2.0
 40
3.0
 40
3.0
 40
3.0
 40
4.0
 40
4.0
 40
4.0
 40
4.0
 10
102.8502251261972
 20
-6.30228542594179
 30
0.0
 10
102.8502251261972
 20
-1.884122720883136
 30
0.0
 10
99.26904836927997
 20
1.697915309905382
 30
0.0
 10
94.85105791899558
 20
1.697915309905382
 30
0.0
 10
90.43272295916266
 20
1.697915309905382
 30
0.0
 10
86.8508571831484
 20
-1.884122720883136
 30
0.0
 10
86.8508571831484
 20
-6.30228542594179
 30
0.0
 10
86.8508571831484
 20
-10.72044813100044
 30
0.0
 10
90.43272295916266
 20
-14.30214165224044
 30
0.0
 10
94.85105791899558
 20
-14.30214165224044
 30
0.0
 10
99.26904836927997
 20
-14.30214165224044
 30
0.0
 10
102.8502251261972
 20
-10.72044813100044
 30
0.0
 10
102.8502251261972
 20
-6.30228542594179
 30
0.0
  0
SPLINE
  5
370
330
1F
100
AcDbEntity
  8
STANDARDEBENE
 62
   250
100
AcDbSpline
210
0.0
220
0.0
230
1.0
 70
    11
 71
     3
 72
    17
 73
    13
 74
     0
 42
0.0000000001
 43
0.0000000001
 40
0.0
 40
0.0
 40
0.0
 40
0.0
 40
1.0
 40
1.0
 40
1.0
 40
2.0
 40
2.0
 40
2.0
 40
3.0
 40
3.0
 40
3.0
 40
4.0
 40
4.0
 40
4.0
 40
4.0
 10
99.85092499673866
 20
-6.30228542594179
 30
0.0
 10
99.85092499673866
 20
-3.54069688496552
 30
0.0
 10
97.61230195042332
 20
-1.302418348198701
 30
0.0
 10
94.85105791899558
 20
-1.302418348198701
 30
0.0
 10
92.08912486847078
 20
-1.302418348198701
 30
0.0
 10
89.85119084125249
 20
-3.54069688496552
 30
0.0
 10
89.85119084125249
 20
-6.30228542594179
 30
0.0
 10
89.85119084125249
 20
-9.063529457369535
 30
0.0
 10
92.08912486847078
 20
-11.30215250368488
 30
0.0
 10
94.85105791899558
 20
-11.30215250368488
 30
0.0
 10
97.61230195042332
 20
-11.30215250368488
 30
0.0
 10
99.85092499673866
 20
-9.063529457369535
 30
0.0
 10
99.85092499673866
 20
-6.30228542594179
 30
0.0
  0
POLYLINE
  5
372
330
1F
100
AcDbEntity
  8
BEMAßUNG
 62
     7
100
AcDb2dPolyline
 66
     1
 10
0.0
 20
0.0
 30
0.0
  0
VERTEX
  5
373
330
372
100
AcDbEntity
  8
BEMAßUNG
 62
     7
100
AcDbVertex
100
AcDb2dVertex
 10
41.44673799962096
 20
3.197737629408899
 30
0.0
  0
VERTEX
  5
374
330
372
100
AcDbEntity
  8
BEMAßUNG
 62
     7
100
AcDbVertex
100
AcDb2dVertex
 10
59.02258163672006
 20
3.197737629408899
 30
0.0
  0
SEQEND
  5
375
330
372
100
AcDbEntity
  8
BEMAßUNG
  0
POLYLINE
  5
376
330
1F
100
AcDbEntity
  8
BEMAßUNG
 62
     7
100
AcDb2dPolyline
 66
     1
 10
0.0
 20
0.0
 30
0.0
  0
VERTEX
  5
377
330
376
100
AcDbEntity
  8
BEMAßUNG
 62
     7
100
AcDbVertex
100
AcDb2dVertex
 10
41.44673799962096
 20
-15.80179171696969
 30
0.0
  0
VERTEX
  5
378
330
376
100
AcDbEntity
  8
BEMAßUNG
 62
     7
100
AcDbVertex
100
AcDb2dVertex
 10
59.02258163672006
 20
-15.80179171696969
 30
0.0
  0
SEQEND
  5
379
330
376
100
AcDbEntity
  8
BEMAßUNG
  0
POLYLINE
  5
37A
330
1F
100
AcDbEntity
  8
BEMAßUNG
 62
     7
100
AcDb2dPolyline
 66
     1
 10
0.0
 20
0.0
 30
0.0
  0
VERTEX
  5
37B
330
37A
100
AcDbEntity
  8
BEMAßUNG
 62
     7
100
AcDbVertex
100
AcDb2dVertex
 10
57.02304821708105
 20
3.197737629408899
 30
0.0
  0
VERTEX
  5
37C
330
37A
100
AcDbEntity
  8
BEMAßUNG
 62
     7
100
AcDbVertex
100
AcDb2dVertex
 10
57.02304821708105
 20
-15.80179171696969
 30
0.0
  0
SEQEND
  5
37D
330
37A
100
AcDbEntity
  8
BEMAßUNG
  0
POLYLINE
  5
37E
330
1F
100
AcDbEntity
  8
BEMAßUNG
 62
     7
100
AcDb2dPolyline
 66
     1
 10
0.0
 20
0.0
 30
0.0
  0
VERTEX
  5
37F
330
37E
100
AcDbEntity
  8
BEMAßUNG
 62
     7
100
AcDbVertex
100
AcDb2dVertex
 10
57.02304821708105
 20
3.197737629408899
 30
0.0
  0
VERTEX
  5
380
330
37E
100
AcDbEntity
  8
BEMAßUNG
 62
     7
100
AcDbVertex
100
AcDb2dVertex
 10
56.56243895070314
 20
-0.3019626192821482
 30
0.0
  0
VERTEX
  5
381
330
37E
100
AcDbEntity
  8
BEMAßUNG
 62
     7
100
AcDbVertex
100
AcDb2dVertex
 10
57.48348522868469
 20
-0.3019626192821482
 30
0.0
  0
VERTEX
  5
382
330
37E
100
AcDbEntity
  8
BEMAßUNG
 62
     7
100
AcDbVertex
100
AcDb2dVertex
 10
57.02304821708105
 20
3.197737629408899
 30
0.0
  0
SEQEND
  5
383
330
37E
100
AcDbEntity
  8
BEMAßUNG
  0
POLYLINE
  5
384
330
1F
100
AcDbEntity
  8
BEMAßUNG
 62
     7
100
AcDb2dPolyline
 66
     1
 10
0.0
 20
0.0
 30
0.0
  0
VERTEX
  5
385
330
384
100
AcDbEntity
  8
BEMAßUNG
 62
     7
100
AcDbVertex
100
AcDb2dVertex
 10
56.56588404618839
 20
-0.3019626192821482
 30
0.0
  0
VERTEX
  5
386
330
384
100
AcDbEntity
  8
BEMAßUNG
 62
     7
100
AcDbVertex
100
AcDb2dVertex
 10
56.56588404618839
 20
-0.2747463649486745
 30
0.0
  0
SEQEND
  5
387
330
384
100
AcDbEntity
  8
BEMAßUNG
  0
POLYLINE
  5
388
330
1F
100
AcDbEntity
  8
BEMAßUNG
 62
     7
100
AcDb2dPolyline
 66
     1
 10
0.0
 20
0.0
 30
0.0
  0
VERTEX
  5
389
330
388
100
AcDbEntity
  8
BEMAßUNG
 62
     7
100
AcDbVertex
100
AcDb2dVertex
 10
56.56588404618839
 20
-0.3019626192821482
 30
0.0
  0
VERTEX
  5
38A
330
388
100
AcDbEntity
  8
BEMAßUNG
 62
     7
100
AcDbVertex
100
AcDb2dVertex
 10
56.56588404618839
 20
-0.2747463649486745
 30
0.0
  0
SEQEND
  5
38B
330
388
100
AcDbEntity
  8
BEMAßUNG
  0
POLYLINE
  5
38C
330
1F
100
AcDbEntity
  8
BEMAßUNG
 62
     7
100
AcDb2dPolyline
 66
     1
 10
0.0
 20
0.0
 30
0.0
  0
VERTEX
  5
38D
330
38C
100
AcDbEntity
  8
BEMAßUNG
 62
     7
100
AcDbVertex
100
AcDb2dVertex
 10
56.61669920459583
 20
-0.3019626192821482
 30
0.0
  0
VERTEX
  5
38E
330
38C
100
AcDbEntity
  8
BEMAßUNG
 62
     7
100
AcDbVertex
100
AcDb2dVertex
 10
56.61669920459583
 20
0.1109320746250448
 30
0.0
  0
SEQEND
  5
38F
330
38C
100
AcDbEntity
  8
BEMAßUNG
  0
POLYLINE
  5
390
330
1F
100
AcDbEntity
  8
BEMAßUNG
 62
     7
100
AcDb2dPolyline
 66
     1
 10
0.0
 20
0.0
 30
0.0
  0
VERTEX
  5
391
330
390
100
AcDbEntity
  8
BEMAßUNG
 62
     7
100
AcDbVertex
100
AcDb2dVertex
 10
56.66716985345474
 20
-0.3019626192821482
 30
0.0
  0
VERTEX
  5
392
330
390
100
AcDbEntity
  8
BEMAßUNG
 62
     7
100
AcDbVertex
100
AcDb2dVertex
 10
56.66716985345474
 20
0.4971272785215515
 30
0.0
  0
SEQEND
  5
393
330
390
100
AcDbEntity
  8
BEMAßUNG
  0
POLYLINE
  5
394
330
1F
100
AcDbEntity
  8
BEMAßUNG
 62
     7
100
AcDb2dPolyline
 66
     1
 10
0.0
 20
0.0
 30
0.0
  0
VERTEX
  5
395
330
394
100
AcDbEntity
  8
BEMAßUNG
 62
     7
100
AcDbVertex
100
AcDb2dVertex
 10
56.71798501186218
 20
-0.3019626192821482
 30
0.0
  0
VERTEX
  5
396
330
394
100
AcDbEntity
  8
BEMAßUNG
 62
     7
100
AcDbVertex
100
AcDb2dVertex
 10
56.71798501186218
 20
0.8828057180952709
 30
0.0
  0
SEQEND
  5
397
330
394
100
AcDbEntity
  8
BEMAßUNG
  0
POLYLINE
  5
398
330
1F
100
AcDbEntity
  8
BEMAßUNG
 62
     7
100
AcDb2dPolyline
 66
     1
 10
0.0
 20
0.0
 30
0.0
  0
VERTEX
  5
399
330
398
100
AcDbEntity
  8
BEMAßUNG
 62
     7
100
AcDbVertex
100
AcDb2dVertex
 10
56.76880017026961
 20
-0.3019626192821482
 30
0.0
  0
VERTEX
  5
39A
330
398
100
AcDbEntity
  8
BEMAßUNG
 62
     7
100
AcDbVertex
100
AcDb2dVertex
 10
56.76880017026961
 20
1.268656412443253
 30
0.0
  0
SEQEND
  5
39B
330
398
100
AcDbEntity
  8
BEMAßUNG
  0
POLYLINE
  5
39C
330
1F
100
AcDbEntity
  8
BEMAßUNG
 62
     7
100
AcDb2dPolyline
 66
     1
 10
0.0
 20
0.0
 30
0.0
  0
VERTEX
  5
39D
330
39C
100
AcDbEntity
  8
BEMAßUNG
 62
     7
100
AcDbVertex
100
AcDb2dVertex
 10
56.81961532867705
 20
-0.3019626192821482
 30
0.0
  0
VERTEX
  5
39E
330
39C
100
AcDbEntity
  8
BEMAßUNG
 62
     7
100
AcDbVertex
100
AcDb2dVertex
 10
56.81961532867705
 20
1.654334852016972
 30
0.0
  0
SEQEND
  5
39F
330
39C
100
AcDbEntity
  8
BEMAßUNG
  0
POLYLINE
  5
3A0
330
1F
100
AcDbEntity
  8
BEMAßUNG
 62
     7
100
AcDb2dPolyline
 66
     1
 10
0.0
 20
0.0
 30
0.0
  0
VERTEX
  5
3A1
330
3A0
100
AcDbEntity
  8
BEMAßUNG
 62
     7
100
AcDbVertex
100
AcDb2dVertex
 10
56.87043048708448
 20
-0.3019626192821482
 30
0.0
  0
VERTEX
  5
3A2
330
3A0
100
AcDbEntity
  8
BEMAßUNG
 62
     7
100
AcDbVertex
100
AcDb2dVertex
 10
56.87043048708448
 20
2.040530055913479
 30
0.0
  0
SEQEND
  5
3A3
330
3A0
100
AcDbEntity
  8
BEMAßUNG
  0
POLYLINE
  5
3A4
330
1F
100
AcDbEntity
  8
BEMAßUNG
 62
     7
100
AcDb2dPolyline
 66
     1
 10
0.0
 20
0.0
 30
0.0
  0
VERTEX
  5
3A5
330
3A4
100
AcDbEntity
  8
BEMAßUNG
 62
     7
100
AcDbVertex
100
AcDb2dVertex
 10
56.92159015504044
 20
-0.3019626192821482
 30
0.0
  0
VERTEX
  5
3A6
330
3A4
100
AcDbEntity
  8
BEMAßUNG
 62
     7
100
AcDbVertex
100
AcDb2dVertex
 10
56.92159015504044
 20
2.426208495487198
 30
0.0
  0
SEQEND
  5
3A7
330
3A4
100
AcDbEntity
  8
BEMAßUNG
  0
POLYLINE
  5
3A8
330
1F
100
AcDbEntity
  8
BEMAßUNG
 62
     7
100
AcDb2dPolyline
 66
     1
 10
0.0
 20
0.0
 30
0.0
  0
VERTEX
  5
3A9
330
3A8
100
AcDbEntity
  8
BEMAßUNG
 62
     7
100
AcDbVertex
100
AcDb2dVertex
 10
56.97240531344787
 20
-0.3019626192821482
 30
0.0
  0
VERTEX
  5
3AA
330
3A8
100
AcDbEntity
  8
BEMAßUNG
 62
     7
100
AcDbVertex
100
AcDb2dVertex
 10
56.97240531344787
 20
2.81205918983518
 30
0.0
  0
SEQEND
  5
3AB
330
3A8
100
AcDbEntity
  8
BEMAßUNG
  0
POLYLINE
  5
3AC
330
1F
100
AcDbEntity
  8
BEMAßUNG
 62
     7
100
AcDb2dPolyline
 66
     1
 10
0.0
 20
0.0
 30
0.0
  0
VERTEX
  5
3AD
330
3AC
100
AcDbEntity
  8
BEMAßUNG
 62
     7
100
AcDbVertex
100
AcDb2dVertex
 10
57.02304821708105
 20
-0.3019626192821482
 30
0.0
  0
VERTEX
  5
3AE
330
3AC
100
AcDbEntity
  8
BEMAßUNG
 62
     7
100
AcDbVertex
100
AcDb2dVertex
 10
57.02304821708105
 20
3.197737629408899
 30
0.0
  0
SEQEND
  5
3AF
330
3AC
100
AcDbEntity
  8
BEMAßUNG
  0
POLYLINE
  5
3B0
330
1F
100
AcDbEntity
  8
BEMAßUNG
 62
     7
100
AcDb2dPolyline
 66
     1
 10
0.0
 20
0.0
 30
0.0
  0
VERTEX
  5
3B1
330
3B0
100
AcDbEntity
  8
BEMAßUNG
 62
     7
100
AcDbVertex
100
AcDb2dVertex
 10
57.48038464274796
 20
-0.3019626192821482
 30
0.0
  0
VERTEX
  5
3B2
330
3B0
100
AcDbEntity
  8
BEMAßUNG
 62
     7
100
AcDbVertex
100
AcDb2dVertex
 10
57.48038464274796
 20
-0.2747463649486745
 30
0.0
  0
SEQEND
  5
3B3
330
3B0
100
AcDbEntity
  8
BEMAßUNG
  0
POLYLINE
  5
3B4
330
1F
100
AcDbEntity
  8
BEMAßUNG
 62
     7
100
AcDb2dPolyline
 66
     1
 10
0.0
 20
0.0
 30
0.0
  0
VERTEX
  5
3B5
330
3B4
100
AcDbEntity
  8
BEMAßUNG
 62
     7
100
AcDbVertex
100
AcDb2dVertex
 10
57.48038464274796
 20
-0.3019626192821482
 30
0.0
  0
VERTEX
  5
3B6
330
3B4
100
AcDbEntity
  8
BEMAßUNG
 62
     7
100
AcDbVertex
100
AcDb2dVertex
 10
57.48038464274796
 20
-0.2747463649486745
 30
0.0
  0
SEQEND
  5
3B7
330
3B4
100
AcDbEntity
  8
BEMAßUNG
  0
POLYLINE
  5
3B8
330
1F
100
AcDbEntity
  8
BEMAßUNG
 62
     7
100
AcDb2dPolyline
 66
     1
 10
0.0
 20
0.0
 30
0.0
  0
VERTEX
  5
3B9
330
3B8
100
AcDbEntity
  8
BEMAßUNG
 62
     7
100
AcDbVertex
100
AcDb2dVertex
 10
57.429224974792
 20
-0.3019626192821482
 30
0.0
  0
VERTEX
  5
3BA
330
3B8
100
AcDbEntity
  8
BEMAßUNG
 62
     7
100
AcDbVertex
100
AcDb2dVertex
 10
57.429224974792
 20
0.1109320746250448
 30
0.0
  0
SEQEND
  5
3BB
330
3B8
100
AcDbEntity
  8
BEMAßUNG
  0
POLYLINE
  5
3BC
330
1F
100
AcDbEntity
  8
BEMAßUNG
 62
     7
100
AcDb2dPolyline
 66
     1
 10
0.0
 20
0.0
 30
0.0
  0
VERTEX
  5
3BD
330
3BC
100
AcDbEntity
  8
BEMAßUNG
 62
     7
100
AcDbVertex
100
AcDb2dVertex
 10
57.37840981638457
 20
-0.3019626192821482
 30
0.0
  0
VERTEX
  5
3BE
330
3BC
100
AcDbEntity
  8
BEMAßUNG
 62
     7
100
AcDbVertex
100
AcDb2dVertex
 10
57.37840981638457
 20
0.4971272785215515
 30
0.0
  0
SEQEND
  5
3BF
330
3BC
100
AcDbEntity
  8
BEMAßUNG
  0
POLYLINE
  5
3C0
330
1F
100
AcDbEntity
  8
BEMAßUNG
 62
     7
100
AcDb2dPolyline
 66
     1
 10
0.0
 20
0.0
 30
0.0
  0
VERTEX
  5
3C1
330
3C0
100
AcDbEntity
  8
BEMAßUNG
 62
     7
100
AcDbVertex
100
AcDb2dVertex
 10
57.32759465797713
 20
-0.3019626192821482
 30
0.0
  0
VERTEX
  5
3C2
330
3C0
100
AcDbEntity
  8
BEMAßUNG
 62
     7
100
AcDbVertex
100
AcDb2dVertex
 10
57.32759465797713
 20
0.8828057180952709
 30
0.0
  0
SEQEND
  5
3C3
330
3C0
100
AcDbEntity
  8
BEMAßUNG
  0
POLYLINE
  5
3C4
330
1F
100
AcDbEntity
  8
BEMAßUNG
 62
     7
100
AcDb2dPolyline
 66
     1
 10
0.0
 20
0.0
 30
0.0
  0
VERTEX
  5
3C5
330
3C4
100
AcDbEntity
  8
BEMAßUNG
 62
     7
100
AcDbVertex
100
AcDb2dVertex
 10
57.2767794995697
 20
-0.3019626192821482
 30
0.0
  0
VERTEX
  5
3C6
330
3C4
100
AcDbEntity
  8
BEMAßUNG
 62
     7
100
AcDbVertex
100
AcDb2dVertex
 10
57.2767794995697
 20
1.268656412443253
 30
0.0
  0
SEQEND
  5
3C7
330
3C4
100
AcDbEntity
  8
BEMAßUNG
  0
POLYLINE
  5
3C8
330
1F
100
AcDbEntity
  8
BEMAßUNG
 62
     7
100
AcDb2dPolyline
 66
     1
 10
0.0
 20
0.0
 30
0.0
  0
VERTEX
  5
3C9
330
3C8
100
AcDbEntity
  8
BEMAßUNG
 62
     7
100
AcDbVertex
100
AcDb2dVertex
 10
57.22596434116226
 20
-0.3019626192821482
 30
0.0
  0
VERTEX
  5
3CA
330
3C8
100
AcDbEntity
  8
BEMAßUNG
 62
     7
100
AcDbVertex
100
AcDb2dVertex
 10
57.22596434116226
 20
1.654334852016972
 30
0.0
  0
SEQEND
  5
3CB
330
3C8
100
AcDbEntity
  8
BEMAßUNG
  0
POLYLINE
  5
3CC
330
1F
100
AcDbEntity
  8
BEMAßUNG
 62
     7
100
AcDb2dPolyline
 66
     1
 10
0.0
 20
0.0
 30
0.0
  0
VERTEX
  5
3CD
330
3CC
100
AcDbEntity
  8
BEMAßUNG
 62
     7
100
AcDbVertex
100
AcDb2dVertex
 10
57.17549369230335
 20
-0.3019626192821482
 30
0.0
  0
VERTEX
  5
3CE
330
3CC
100
AcDbEntity
  8
BEMAßUNG
 62
     7
100
AcDbVertex
100
AcDb2dVertex
 10
57.17549369230335
 20
2.040530055913479
 30
0.0
  0
SEQEND
  5
3CF
330
3CC
100
AcDbEntity
  8
BEMAßUNG
  0
POLYLINE
  5
3D0
330
1F
100
AcDbEntity
  8
BEMAßUNG
 62
     7
100
AcDb2dPolyline
 66
     1
 10
0.0
 20
0.0
 30
0.0
  0
VERTEX
  5
3D1
330
3D0
100
AcDbEntity
  8
BEMAßUNG
 62
     7
100
AcDbVertex
100
AcDb2dVertex
 10
57.12467853389592
 20
-0.3019626192821482
 30
0.0
  0
VERTEX
  5
3D2
330
3D0
100
AcDbEntity
  8
BEMAßUNG
 62
     7
100
AcDbVertex
100
AcDb2dVertex
 10
57.12467853389592
 20
2.426208495487198
 30
0.0
  0
SEQEND
  5
3D3
330
3D0
100
AcDbEntity
  8
BEMAßUNG
  0
POLYLINE
  5
3D4
330
1F
100
AcDbEntity
  8
BEMAßUNG
 62
     7
100
AcDb2dPolyline
 66
     1
 10
0.0
 20
0.0
 30
0.0
  0
VERTEX
  5
3D5
330
3D4
100
AcDbEntity
  8
BEMAßUNG
 62
     7
100
AcDbVertex
100
AcDb2dVertex
 10
57.07386337548848
 20
-0.3019626192821482
 30
0.0
  0
VERTEX
  5
3D6
330
3D4
100
AcDbEntity
  8
BEMAßUNG
 62
     7
100
AcDbVertex
100
AcDb2dVertex
 10
57.07386337548848
 20
2.81205918983518
 30
0.0
  0
SEQEND
  5
3D7
330
3D4
100
AcDbEntity
  8
BEMAßUNG
  0
POLYLINE
  5
3D8
330
1F
100
AcDbEntity
  8
BEMAßUNG
 62
     7
100
AcDb2dPolyline
 66
     1
 10
0.0
 20
0.0
 30
0.0
  0
VERTEX
  5
3D9
330
3D8
100
AcDbEntity
  8
BEMAßUNG
 62
     7
100
AcDbVertex
100
AcDb2dVertex
 10
57.02304821708105
 20
-0.3019626192821482
 30
0.0
  0
VERTEX
  5
3DA
330
3D8
100
AcDbEntity
  8
BEMAßUNG
 62
     7
100
AcDbVertex
100
AcDb2dVertex
 10
57.02304821708105
 20
3.197737629408899
 30
0.0
  0
SEQEND
  5
3DB
330
3D8
100
AcDbEntity
  8
BEMAßUNG
  0
POLYLINE
  5
3DC
330
1F
100
AcDbEntity
  8
BEMAßUNG
 62
     7
100
AcDb2dPolyline
 66
     1
 10
0.0
 20
0.0
 30
0.0
  0
VERTEX
  5
3DD
330
3DC
100
AcDbEntity
  8
BEMAßUNG
 62
     7
100
AcDbVertex
100
AcDb2dVertex
 10
57.02304821708105
 20
-15.80179171696969
 30
0.0
  0
VERTEX
  5
3DE
330
3DC
100
AcDbEntity
  8
BEMAßUNG
 62
     7
100
AcDbVertex
100
AcDb2dVertex
 10
57.48348522868469
 20
-12.30226372305291
 30
0.0
  0
VERTEX
  5
3DF
330
3DC
100
AcDbEntity
  8
BEMAßUNG
 62
     7
100
AcDbVertex
100
AcDb2dVertex
 10
56.56243895070314
 20
-12.30226372305291
 30
0.0
  0
VERTEX
  5
3E0
330
3DC
100
AcDbEntity
  8
BEMAßUNG
 62
     7
100
AcDbVertex
100
AcDb2dVertex
 10
57.02304821708105
 20
-15.80179171696969
 30
0.0
  0
SEQEND
  5
3E1
330
3DC
100
AcDbEntity
  8
BEMAßUNG
  0
POLYLINE
  5
3E2
330
1F
100
AcDbEntity
  8
BEMAßUNG
 62
     7
100
AcDb2dPolyline
 66
     1
 10
0.0
 20
0.0
 30
0.0
  0
VERTEX
  5
3E3
330
3E2
100
AcDbEntity
  8
BEMAßUNG
 62
     7
100
AcDbVertex
100
AcDb2dVertex
 10
57.48038464274796
 20
-12.30226372305291
 30
0.0
  0
VERTEX
  5
3E4
330
3E2
100
AcDbEntity
  8
BEMAßUNG
 62
     7
100
AcDbVertex
100
AcDb2dVertex
 10
57.48038464274796
 20
-12.32947997738638
 30
0.0
  0
SEQEND
  5
3E5
330
3E2
100
AcDbEntity
  8
BEMAßUNG
  0
POLYLINE
  5
3E6
330
1F
100
AcDbEntity
  8
BEMAßUNG
 62
     7
100
AcDb2dPolyline
 66
     1
 10
0.0
 20
0.0
 30
0.0
  0
VERTEX
  5
3E7
330
3E6
100
AcDbEntity
  8
BEMAßUNG
 62
     7
100
AcDbVertex
100
AcDb2dVertex
 10
57.48038464274796
 20
-12.30226372305291
 30
0.0
  0
VERTEX
  5
3E8
330
3E6
100
AcDbEntity
  8
BEMAßUNG
 62
     7
100
AcDbVertex
100
AcDb2dVertex
 10
57.48038464274796
 20
-12.32947997738638
 30
0.0
  0
SEQEND
  5
3E9
330
3E6
100
AcDbEntity
  8
BEMAßUNG
  0
POLYLINE
  5
3EA
330
1F
100
AcDbEntity
  8
BEMAßUNG
 62
     7
100
AcDb2dPolyline
 66
     1
 10
0.0
 20
0.0
 30
0.0
  0
VERTEX
  5
3EB
330
3EA
100
AcDbEntity
  8
BEMAßUNG
 62
     7
100
AcDbVertex
100
AcDb2dVertex
 10
57.429224974792
 20
-12.30226372305291
 30
0.0
  0
VERTEX
  5
3EC
330
3EA
100
AcDbEntity
  8
BEMAßUNG
 62
     7
100
AcDbVertex
100
AcDb2dVertex
 10
57.429224974792
 20
-12.71498616218584
 30
0.0
  0
SEQEND
  5
3ED
330
3EA
100
AcDbEntity
  8
BEMAßUNG
  0
POLYLINE
  5
3EE
330
1F
100
AcDbEntity
  8
BEMAßUNG
 62
     7
100
AcDb2dPolyline
 66
     1
 10
0.0
 20
0.0
 30
0.0
  0
VERTEX
  5
3EF
330
3EE
100
AcDbEntity
  8
BEMAßUNG
 62
     7
100
AcDbVertex
100
AcDb2dVertex
 10
57.37840981638457
 20
-12.30226372305291
 30
0.0
  0
VERTEX
  5
3F0
330
3EE
100
AcDbEntity
  8
BEMAßUNG
 62
     7
100
AcDbVertex
100
AcDb2dVertex
 10
57.37840981638457
 20
-13.10135362085661
 30
0.0
  0
SEQEND
  5
3F1
330
3EE
100
AcDbEntity
  8
BEMAßUNG
  0
POLYLINE
  5
3F2
330
1F
100
AcDbEntity
  8
BEMAßUNG
 62
     7
100
AcDb2dPolyline
 66
     1
 10
0.0
 20
0.0
 30
0.0
  0
VERTEX
  5
3F3
330
3F2
100
AcDbEntity
  8
BEMAßUNG
 62
     7
100
AcDbVertex
100
AcDb2dVertex
 10
57.32759465797713
 20
-12.30226372305291
 30
0.0
  0
VERTEX
  5
3F4
330
3F2
100
AcDbEntity
  8
BEMAßUNG
 62
     7
100
AcDbVertex
100
AcDb2dVertex
 10
57.32759465797713
 20
-13.48703206043033
 30
0.0
  0
SEQEND
  5
3F5
330
3F2
100
AcDbEntity
  8
BEMAßUNG
  0
POLYLINE
  5
3F6
330
1F
100
AcDbEntity
  8
BEMAßUNG
 62
     7
100
AcDb2dPolyline
 66
     1
 10
0.0
 20
0.0
 30
0.0
  0
VERTEX
  5
3F7
330
3F6
100
AcDbEntity
  8
BEMAßUNG
 62
     7
100
AcDbVertex
100
AcDb2dVertex
 10
57.2767794995697
 20
-12.30226372305291
 30
0.0
  0
VERTEX
  5
3F8
330
3F6
100
AcDbEntity
  8
BEMAßUNG
 62
     7
100
AcDbVertex
100
AcDb2dVertex
 10
57.2767794995697
 20
-13.87288275477831
 30
0.0
  0
SEQEND
  5
3F9
330
3F6
100
AcDbEntity
  8
BEMAßUNG
  0
POLYLINE
  5
3FA
330
1F
100
AcDbEntity
  8
BEMAßUNG
 62
     7
100
AcDb2dPolyline
 66
     1
 10
0.0
 20
0.0
 30
0.0
  0
VERTEX
  5
3FB
330
3FA
100
AcDbEntity
  8
BEMAßUNG
 62
     7
100
AcDbVertex
100
AcDb2dVertex
 10
57.22596434116226
 20
-12.30226372305291
 30
0.0
  0
VERTEX
  5
3FC
330
3FA
100
AcDbEntity
  8
BEMAßUNG
 62
     7
100
AcDbVertex
100
AcDb2dVertex
 10
57.22596434116226
 20
-14.25838893957776
 30
0.0
  0
SEQEND
  5
3FD
330
3FA
100
AcDbEntity
  8
BEMAßUNG
  0
POLYLINE
  5
3FE
330
1F
100
AcDbEntity
  8
BEMAßUNG
 62
     7
100
AcDb2dPolyline
 66
     1
 10
0.0
 20
0.0
 30
0.0
  0
VERTEX
  5
3FF
330
3FE
100
AcDbEntity
  8
BEMAßUNG
 62
     7
100
AcDbVertex
100
AcDb2dVertex
 10
57.17549369230335
 20
-12.30226372305291
 30
0.0
  0
VERTEX
  5
400
330
3FE
100
AcDbEntity
  8
BEMAßUNG
 62
     7
100
AcDbVertex
100
AcDb2dVertex
 10
57.17549369230335
 20
-14.64475639824853
 30
0.0
  0
SEQEND
  5
401
330
3FE
100
AcDbEntity
  8
BEMAßUNG
  0
POLYLINE
  5
402
330
1F
100
AcDbEntity
  8
BEMAßUNG
 62
     7
100
AcDb2dPolyline
 66
     1
 10
0.0
 20
0.0
 30
0.0
  0
VERTEX
  5
403
330
402
100
AcDbEntity
  8
BEMAßUNG
 62
     7
100
AcDbVertex
100
AcDb2dVertex
 10
57.12467853389592
 20
-12.30226372305291
 30
0.0
  0
VERTEX
  5
404
330
402
100
AcDbEntity
  8
BEMAßUNG
 62
     7
100
AcDbVertex
100
AcDb2dVertex
 10
57.12467853389592
 20
-15.03043483782225
 30
0.0
  0
SEQEND
  5
405
330
402
100
AcDbEntity
  8
BEMAßUNG
  0
POLYLINE
  5
406
330
1F
100
AcDbEntity
  8
BEMAßUNG
 62
     7
100
AcDb2dPolyline
 66
     1
 10
0.0
 20
0.0
 30
0.0
  0
VERTEX
  5
407
330
406
100
AcDbEntity
  8
BEMAßUNG
 62
     7
100
AcDbVertex
100
AcDb2dVertex
 10
57.07386337548848
 20
-12.30226372305291
 30
0.0
  0
VERTEX
  5
408
330
406
100
AcDbEntity
  8
BEMAßUNG
 62
     7
100
AcDbVertex
100
AcDb2dVertex
 10
57.07386337548848
 20
-15.41628553217024
 30
0.0
  0
SEQEND
  5
409
330
406
100
AcDbEntity
  8
BEMAßUNG
  0
POLYLINE
  5
40A
330
1F
100
AcDbEntity
  8
BEMAßUNG
 62
     7
100
AcDb2dPolyline
 66
     1
 10
0.0
 20
0.0
 30
0.0
  0
VERTEX
  5
40B
330
40A
100
AcDbEntity
  8
BEMAßUNG
 62
     7
100
AcDbVertex
100
AcDb2dVertex
 10
57.02304821708105
 20
-12.30226372305291
 30
0.0
  0
VERTEX
  5
40C
330
40A
100
AcDbEntity
  8
BEMAßUNG
 62
     7
100
AcDbVertex
100
AcDb2dVertex
 10
57.02304821708105
 20
-15.80179171696969
 30
0.0
  0
SEQEND
  5
40D
330
40A
100
AcDbEntity
  8
BEMAßUNG
  0
POLYLINE
  5
40E
330
1F
100
AcDbEntity
  8
BEMAßUNG
 62
     7
100
AcDb2dPolyline
 66
     1
 10
0.0
 20
0.0
 30
0.0
  0
VERTEX
  5
40F
330
40E
100
AcDbEntity
  8
BEMAßUNG
 62
     7
100
AcDbVertex
100
AcDb2dVertex
 10
56.56588404618839
 20
-12.30226372305291
 30
0.0
  0
VERTEX
  5
410
330
40E
100
AcDbEntity
  8
BEMAßUNG
 62
     7
100
AcDbVertex
100
AcDb2dVertex
 10
56.56588404618839
 20
-12.32947997738638
 30
0.0
  0
SEQEND
  5
411
330
40E
100
AcDbEntity
  8
BEMAßUNG
  0
POLYLINE
  5
412
330
1F
100
AcDbEntity
  8
BEMAßUNG
 62
     7
100
AcDb2dPolyline
 66
     1
 10
0.0
 20
0.0
 30
0.0
  0
VERTEX
  5
413
330
412
100
AcDbEntity
  8
BEMAßUNG
 62
     7
100
AcDbVertex
100
AcDb2dVertex
 10
56.56588404618839
 20
-12.30226372305291
 30
0.0
  0
VERTEX
  5
414
330
412
100
AcDbEntity
  8
BEMAßUNG
 62
     7
100
AcDbVertex
100
AcDb2dVertex
 10
56.56588404618839
 20
-12.32947997738638
 30
0.0
  0
SEQEND
  5
415
330
412
100
AcDbEntity
  8
BEMAßUNG
  0
POLYLINE
  5
416
330
1F
100
AcDbEntity
  8
BEMAßUNG
 62
     7
100
AcDb2dPolyline
 66
     1
 10
0.0
 20
0.0
 30
0.0
  0
VERTEX
  5
417
330
416
100
AcDbEntity
  8
BEMAßUNG
 62
     7
100
AcDbVertex
100
AcDb2dVertex
 10
56.61669920459583
 20
-12.30226372305291
 30
0.0
  0
VERTEX
  5
418
330
416
100
AcDbEntity
  8
BEMAßUNG
 62
     7
100
AcDbVertex
100
AcDb2dVertex
 10
56.61669920459583
 20
-12.71498616218584
 30
0.0
  0
SEQEND
  5
419
330
416
100
AcDbEntity
  8
BEMAßUNG
  0
POLYLINE
  5
41A
330
1F
100
AcDbEntity
  8
BEMAßUNG
 62
     7
100
AcDb2dPolyline
 66
     1
 10
0.0
 20
0.0
 30
0.0
  0
VERTEX
  5
41B
330
41A
100
AcDbEntity
  8
BEMAßUNG
 62
     7
100
AcDbVertex
100
AcDb2dVertex
 10
56.66716985345474
 20
-12.30226372305291
 30
0.0
  0
VERTEX
  5
41C
330
41A
100
AcDbEntity
  8
BEMAßUNG
 62
     7
100
AcDbVertex
100
AcDb2dVertex
 10
56.66716985345474
 20
-13.10135362085661
 30
0.0
  0
SEQEND
  5
41D
330
41A
100
AcDbEntity
  8
BEMAßUNG
  0
POLYLINE
  5
41E
330
1F
100
AcDbEntity
  8
BEMAßUNG
 62
     7
100
AcDb2dPolyline
 66
     1
 10
0.0
 20
0.0
 30
0.0
  0
VERTEX
  5
41F
330
41E
100
AcDbEntity
  8
BEMAßUNG
 62
     7
100
AcDbVertex
100
AcDb2dVertex
 10
56.71798501186218
 20
-12.30226372305291
 30
0.0
  0
VERTEX
  5
420
330
41E
100
AcDbEntity
  8
BEMAßUNG
 62
     7
100
AcDbVertex
100
AcDb2dVertex
 10
56.71798501186218
 20
-13.48703206043033
 30
0.0
  0
SEQEND
  5
421
330
41E
100
AcDbEntity
  8
BEMAßUNG
  0
POLYLINE
  5
422
330
1F
100
AcDbEntity
  8
BEMAßUNG
 62
     7
100
AcDb2dPolyline
 66
     1
 10
0.0
 20
0.0
 30
0.0
  0
VERTEX
  5
423
330
422
100
AcDbEntity
  8
BEMAßUNG
 62
     7
100
AcDbVertex
100
AcDb2dVertex
 10
56.76880017026961
 20
-12.30226372305291
 30
0.0
  0
VERTEX
  5
424
330
422
100
AcDbEntity
  8
BEMAßUNG
 62
     7
100
AcDbVertex
100
AcDb2dVertex
 10
56.76880017026961
 20
-13.87288275477831
 30
0.0
  0
SEQEND
  5
425
330
422
100
AcDbEntity
  8
BEMAßUNG
  0
POLYLINE
  5
426
330
1F
100
AcDbEntity
  8
BEMAßUNG
 62
     7
100
AcDb2dPolyline
 66
     1
 10
0.0
 20
0.0
 30
0.0
  0
VERTEX
  5
427
330
426
100
AcDbEntity
  8
BEMAßUNG
 62
     7
100
AcDbVertex
100
AcDb2dVertex
 10
56.81961532867705
 20
-12.30226372305291
 30
0.0
  0
VERTEX
  5
428
330
426
100
AcDbEntity
  8
BEMAßUNG
 62
     7
100
AcDbVertex
100
AcDb2dVertex
 10
56.81961532867705
 20
-14.25838893957776
 30
0.0
  0
SEQEND
  5
429
330
426
100
AcDbEntity
  8
BEMAßUNG
  0
POLYLINE
  5
42A
330
1F
100
AcDbEntity
  8
BEMAßUNG
 62
     7
100
AcDb2dPolyline
 66
     1
 10
0.0
 20
0.0
 30
0.0
  0
VERTEX
  5
42B
330
42A
100
AcDbEntity
  8
BEMAßUNG
 62
     7
100
AcDbVertex
100
AcDb2dVertex
 10
56.87043048708448
 20
-12.30226372305291
 30
0.0
  0
VERTEX
  5
42C
330
42A
100
AcDbEntity
  8
BEMAßUNG
 62
     7
100
AcDbVertex
100
AcDb2dVertex
 10
56.87043048708448
 20
-14.64475639824853
 30
0.0
  0
SEQEND
  5
42D
330
42A
100
AcDbEntity
  8
BEMAßUNG
  0
POLYLINE
  5
42E
330
1F
100
AcDbEntity
  8
BEMAßUNG
 62
     7
100
AcDb2dPolyline
 66
     1
 10
0.0
 20
0.0
 30
0.0
  0
VERTEX
  5
42F
330
42E
100
AcDbEntity
  8
BEMAßUNG
 62
     7
100
AcDbVertex
100
AcDb2dVertex
 10
56.92159015504044
 20
-12.30226372305291
 30
0.0
  0
VERTEX
  5
430
330
42E
100
AcDbEntity
  8
BEMAßUNG
 62
     7
100
AcDbVertex
100
AcDb2dVertex
 10
56.92159015504044
 20
-15.03043483782225
 30
0.0
  0
SEQEND
  5
431
330
42E
100
AcDbEntity
  8
BEMAßUNG
  0
POLYLINE
  5
432
330
1F
100
AcDbEntity
  8
BEMAßUNG
 62
     7
100
AcDb2dPolyline
 66
     1
 10
0.0
 20
0.0
 30
0.0
  0
VERTEX
  5
433
330
432
100
AcDbEntity
  8
BEMAßUNG
 62
     7
100
AcDbVertex
100
AcDb2dVertex
 10
56.97240531344787
 20
-12.30226372305291
 30
0.0
  0
VERTEX
  5
434
330
432
100
AcDbEntity
  8
BEMAßUNG
 62
     7
100
AcDbVertex
100
AcDb2dVertex
 10
56.97240531344787
 20
-15.41628553217024
 30
0.0
  0
SEQEND
  5
435
330
432
100
AcDbEntity
  8
BEMAßUNG
  0
POLYLINE
  5
436
330
1F
100
AcDbEntity
  8
BEMAßUNG
 62
     7
100
AcDb2dPolyline
 66
     1
 10
0.0
 20
0.0
 30
0.0
  0
VERTEX
  5
437
330
436
100
AcDbEntity
  8
BEMAßUNG
 62
     7
100
AcDbVertex
100
AcDb2dVertex
 10
57.02304821708105
 20
-12.30226372305291
 30
0.0
  0
VERTEX
  5
438
330
436
100
AcDbEntity
  8
BEMAßUNG
 62
     7
100
AcDbVertex
100
AcDb2dVertex
 10
57.02304821708105
 20
-15.80179171696969
 30
0.0
  0
SEQEND
  5
439
330
436
100
AcDbEntity
  8
BEMAßUNG
  0
POLYLINE
  5
43A
330
1F
100
AcDbEntity
  8
BEMAßUNG
 62
     7
100
AcDb2dPolyline
 66
     1
 10
0.0
 20
0.0
 30
0.0
  0
VERTEX
  5
43B
330
43A
100
AcDbEntity
  8
BEMAßUNG
 62
     7
100
AcDbVertex
100
AcDb2dVertex
 10
19.46771782282404
 20
6.697954642422734
 30
0.0
  0
VERTEX
  5
43C
330
43A
100
AcDbEntity
  8
BEMAßUNG
 62
     7
100
AcDbVertex
100
AcDb2dVertex
 10
68.7744411720425
 20
6.697954642422734
 30
0.0
  0
SEQEND
  5
43D
330
43A
100
AcDbEntity
  8
BEMAßUNG
  0
POLYLINE
  5
43E
330
1F
100
AcDbEntity
  8
BEMAßUNG
 62
     7
100
AcDb2dPolyline
 66
     1
 10
0.0
 20
0.0
 30
0.0
  0
VERTEX
  5
43F
330
43E
100
AcDbEntity
  8
BEMAßUNG
 62
     7
100
AcDbVertex
100
AcDb2dVertex
 10
19.46771782282404
 20
-19.30218098475779
 30
0.0
  0
VERTEX
  5
440
330
43E
100
AcDbEntity
  8
BEMAßUNG
 62
     7
100
AcDbVertex
100
AcDb2dVertex
 10
68.7744411720425
 20
-19.30218098475779
 30
0.0
  0
SEQEND
  5
441
330
43E
100
AcDbEntity
  8
BEMAßUNG
  0
POLYLINE
  5
442
330
1F
100
AcDbEntity
  8
BEMAßUNG
 62
     7
100
AcDb2dPolyline
 66
     1
 10
0.0
 20
0.0
 30
0.0
  0
VERTEX
  5
443
330
442
100
AcDbEntity
  8
BEMAßUNG
 62
     7
100
AcDbVertex
100
AcDb2dVertex
 10
66.77421873330645
 20
6.697954642422734
 30
0.0
  0
VERTEX
  5
444
330
442
100
AcDbEntity
  8
BEMAßUNG
 62
     7
100
AcDbVertex
100
AcDb2dVertex
 10
66.77421873330645
 20
-19.30218098475779
 30
0.0
  0
SEQEND
  5
445
330
442
100
AcDbEntity
  8
BEMAßUNG
  0
POLYLINE
  5
446
330
1F
100
AcDbEntity
  8
BEMAßUNG
 62
     7
100
AcDb2dPolyline
 66
     1
 10
0.0
 20
0.0
 30
0.0
  0
VERTEX
  5
447
330
446
100
AcDbEntity
  8
BEMAßUNG
 62
     7
100
AcDbVertex
100
AcDb2dVertex
 10
66.77421873330645
 20
6.697954642422734
 30
0.0
  0
VERTEX
  5
448
330
446
100
AcDbEntity
  8
BEMAßUNG
 62
     7
100
AcDbVertex
100
AcDb2dVertex
 10
66.31326495738001
 20
3.197737629408899
 30
0.0
  0
VERTEX
  5
449
330
446
100
AcDbEntity
  8
BEMAßUNG
 62
     7
100
AcDbVertex
100
AcDb2dVertex
 10
67.23482799968436
 20
3.197737629408899
 30
0.0
  0
VERTEX
  5
44A
330
446
100
AcDbEntity
  8
BEMAßUNG
 62
     7
100
AcDbVertex
100
AcDb2dVertex
 10
66.77421873330645
 20
6.697954642422734
 30
0.0
  0
SEQEND
  5
44B
330
446
100
AcDbEntity
  8
BEMAßUNG
  0
POLYLINE
  5
44C
330
1F
100
AcDbEntity
  8
BEMAßUNG
 62
     7
100
AcDb2dPolyline
 66
     1
 10
0.0
 20
0.0
 30
0.0
  0
VERTEX
  5
44D
330
44C
100
AcDbEntity
  8
BEMAßUNG
 62
     7
100
AcDbVertex
100
AcDb2dVertex
 10
66.31671005286528
 20
3.197737629408899
 30
0.0
  0
VERTEX
  5
44E
330
44C
100
AcDbEntity
  8
BEMAßUNG
 62
     7
100
AcDbVertex
100
AcDb2dVertex
 10
66.31671005286528
 20
3.22478162896811
 30
0.0
  0
SEQEND
  5
44F
330
44C
100
AcDbEntity
  8
BEMAßUNG
  0
POLYLINE
  5
450
330
1F
100
AcDbEntity
  8
BEMAßUNG
 62
     7
100
AcDb2dPolyline
 66
     1
 10
0.0
 20
0.0
 30
0.0
  0
VERTEX
  5
451
330
450
100
AcDbEntity
  8
BEMAßUNG
 62
     7
100
AcDbVertex
100
AcDb2dVertex
 10
66.31671005286528
 20
3.197737629408899
 30
0.0
  0
VERTEX
  5
452
330
450
100
AcDbEntity
  8
BEMAßUNG
 62
     7
100
AcDbVertex
100
AcDb2dVertex
 10
66.31671005286528
 20
3.22478162896811
 30
0.0
  0
SEQEND
  5
453
330
450
100
AcDbEntity
  8
BEMAßUNG
  0
POLYLINE
  5
454
330
1F
100
AcDbEntity
  8
BEMAßUNG
 62
     7
100
AcDb2dPolyline
 66
     1
 10
0.0
 20
0.0
 30
0.0
  0
VERTEX
  5
455
330
454
100
AcDbEntity
  8
BEMAßUNG
 62
     7
100
AcDbVertex
100
AcDb2dVertex
 10
66.36735295649844
 20
3.197737629408899
 30
0.0
  0
VERTEX
  5
456
330
454
100
AcDbEntity
  8
BEMAßUNG
 62
     7
100
AcDbVertex
100
AcDb2dVertex
 10
66.36735295649844
 20
3.611149087638879
 30
0.0
  0
SEQEND
  5
457
330
454
100
AcDbEntity
  8
BEMAßUNG
  0
POLYLINE
  5
458
330
1F
100
AcDbEntity
  8
BEMAßUNG
 62
     7
100
AcDb2dPolyline
 66
     1
 10
0.0
 20
0.0
 30
0.0
  0
VERTEX
  5
459
330
458
100
AcDbEntity
  8
BEMAßUNG
 62
     7
100
AcDbVertex
100
AcDb2dVertex
 10
66.41834036968014
 20
3.197737629408899
 30
0.0
  0
VERTEX
  5
45A
330
458
100
AcDbEntity
  8
BEMAßUNG
 62
     7
100
AcDbVertex
100
AcDb2dVertex
 10
66.41834036968014
 20
3.997172036761124
 30
0.0
  0
SEQEND
  5
45B
330
458
100
AcDbEntity
  8
BEMAßUNG
  0
POLYLINE
  5
45C
330
1F
100
AcDbEntity
  8
BEMAßUNG
 62
     7
100
AcDb2dPolyline
 66
     1
 10
0.0
 20
0.0
 30
0.0
  0
VERTEX
  5
45D
330
45C
100
AcDbEntity
  8
BEMAßUNG
 62
     7
100
AcDbVertex
100
AcDb2dVertex
 10
66.46898327331331
 20
3.197737629408899
 30
0.0
  0
VERTEX
  5
45E
330
45C
100
AcDbEntity
  8
BEMAßUNG
 62
     7
100
AcDbVertex
100
AcDb2dVertex
 10
66.46898327331331
 20
4.382678221560581
 30
0.0
  0
SEQEND
  5
45F
330
45C
100
AcDbEntity
  8
BEMAßUNG
  0
POLYLINE
  5
460
330
1F
100
AcDbEntity
  8
BEMAßUNG
 62
     7
100
AcDb2dPolyline
 66
     1
 10
0.0
 20
0.0
 30
0.0
  0
VERTEX
  5
461
330
460
100
AcDbEntity
  8
BEMAßUNG
 62
     7
100
AcDbVertex
100
AcDb2dVertex
 10
66.51997068649501
 20
3.197737629408899
 30
0.0
  0
VERTEX
  5
462
330
460
100
AcDbEntity
  8
BEMAßUNG
 62
     7
100
AcDbVertex
100
AcDb2dVertex
 10
66.51997068649501
 20
4.768873425457087
 30
0.0
  0
SEQEND
  5
463
330
460
100
AcDbEntity
  8
BEMAßUNG
  0
POLYLINE
  5
464
330
1F
100
AcDbEntity
  8
BEMAßUNG
 62
     7
100
AcDb2dPolyline
 66
     1
 10
0.0
 20
0.0
 30
0.0
  0
VERTEX
  5
465
330
464
100
AcDbEntity
  8
BEMAßUNG
 62
     7
100
AcDbVertex
100
AcDb2dVertex
 10
66.57130260922523
 20
3.197737629408899
 30
0.0
  0
VERTEX
  5
466
330
464
100
AcDbEntity
  8
BEMAßUNG
 62
     7
100
AcDbVertex
100
AcDb2dVertex
 10
66.57130260922523
 20
5.154551865030807
 30
0.0
  0
SEQEND
  5
467
330
464
100
AcDbEntity
  8
BEMAßUNG
  0
POLYLINE
  5
468
330
1F
100
AcDbEntity
  8
BEMAßUNG
 62
     7
100
AcDb2dPolyline
 66
     1
 10
0.0
 20
0.0
 30
0.0
  0
VERTEX
  5
469
330
468
100
AcDbEntity
  8
BEMAßUNG
 62
     7
100
AcDbVertex
100
AcDb2dVertex
 10
66.6219455128584
 20
3.197737629408899
 30
0.0
  0
VERTEX
  5
46A
330
468
100
AcDbEntity
  8
BEMAßUNG
 62
     7
100
AcDbVertex
100
AcDb2dVertex
 10
66.6219455128584
 20
5.540574814153051
 30
0.0
  0
SEQEND
  5
46B
330
468
100
AcDbEntity
  8
BEMAßUNG
  0
POLYLINE
  5
46C
330
1F
100
AcDbEntity
  8
BEMAßUNG
 62
     7
100
AcDb2dPolyline
 66
     1
 10
0.0
 20
0.0
 30
0.0
  0
VERTEX
  5
46D
330
46C
100
AcDbEntity
  8
BEMAßUNG
 62
     7
100
AcDbVertex
100
AcDb2dVertex
 10
66.6729329260401
 20
3.197737629408899
 30
0.0
  0
VERTEX
  5
46E
330
46C
100
AcDbEntity
  8
BEMAßUNG
 62
     7
100
AcDbVertex
100
AcDb2dVertex
 10
66.6729329260401
 20
5.926080998952508
 30
0.0
  0
SEQEND
  5
46F
330
46C
100
AcDbEntity
  8
BEMAßUNG
  0
POLYLINE
  5
470
330
1F
100
AcDbEntity
  8
BEMAßUNG
 62
     7
100
AcDb2dPolyline
 66
     1
 10
0.0
 20
0.0
 30
0.0
  0
VERTEX
  5
471
330
470
100
AcDbEntity
  8
BEMAßUNG
 62
     7
100
AcDbVertex
100
AcDb2dVertex
 10
66.72357582967328
 20
3.197737629408899
 30
0.0
  0
VERTEX
  5
472
330
470
100
AcDbEntity
  8
BEMAßUNG
 62
     7
100
AcDbVertex
100
AcDb2dVertex
 10
66.72357582967328
 20
6.312276202849015
 30
0.0
  0
SEQEND
  5
473
330
470
100
AcDbEntity
  8
BEMAßUNG
  0
POLYLINE
  5
474
330
1F
100
AcDbEntity
  8
BEMAßUNG
 62
     7
100
AcDb2dPolyline
 66
     1
 10
0.0
 20
0.0
 30
0.0
  0
VERTEX
  5
475
330
474
100
AcDbEntity
  8
BEMAßUNG
 62
     7
100
AcDbVertex
100
AcDb2dVertex
 10
66.77421873330645
 20
3.197737629408899
 30
0.0
  0
VERTEX
  5
476
330
474
100
AcDbEntity
  8
BEMAßUNG
 62
     7
100
AcDbVertex
100
AcDb2dVertex
 10
66.77421873330645
 20
6.697954642422734
 30
0.0
  0
SEQEND
  5
477
330
474
100
AcDbEntity
  8
BEMAßUNG
  0
POLYLINE
  5
478
330
1F
100
AcDbEntity
  8
BEMAßUNG
 62
     7
100
AcDb2dPolyline
 66
     1
 10
0.0
 20
0.0
 30
0.0
  0
VERTEX
  5
479
330
478
100
AcDbEntity
  8
BEMAßUNG
 62
     7
100
AcDbVertex
100
AcDb2dVertex
 10
67.23138290419911
 20
3.197737629408899
 30
0.0
  0
VERTEX
  5
47A
330
478
100
AcDbEntity
  8
BEMAßUNG
 62
     7
100
AcDbVertex
100
AcDb2dVertex
 10
67.23138290419911
 20
3.22478162896811
 30
0.0
  0
SEQEND
  5
47B
330
478
100
AcDbEntity
  8
BEMAßUNG
  0
POLYLINE
  5
47C
330
1F
100
AcDbEntity
  8
BEMAßUNG
 62
     7
100
AcDb2dPolyline
 66
     1
 10
0.0
 20
0.0
 30
0.0
  0
VERTEX
  5
47D
330
47C
100
AcDbEntity
  8
BEMAßUNG
 62
     7
100
AcDbVertex
100
AcDb2dVertex
 10
67.23138290419911
 20
3.197737629408899
 30
0.0
  0
VERTEX
  5
47E
330
47C
100
AcDbEntity
  8
BEMAßUNG
 62
     7
100
AcDbVertex
100
AcDb2dVertex
 10
67.23138290419911
 20
3.22478162896811
 30
0.0
  0
SEQEND
  5
47F
330
47C
100
AcDbEntity
  8
BEMAßUNG
  0
POLYLINE
  5
480
330
1F
100
AcDbEntity
  8
BEMAßUNG
 62
     7
100
AcDb2dPolyline
 66
     1
 10
0.0
 20
0.0
 30
0.0
  0
VERTEX
  5
481
330
480
100
AcDbEntity
  8
BEMAßUNG
 62
     7
100
AcDbVertex
100
AcDb2dVertex
 10
67.18074000056593
 20
3.197737629408899
 30
0.0
  0
VERTEX
  5
482
330
480
100
AcDbEntity
  8
BEMAßUNG
 62
     7
100
AcDbVertex
100
AcDb2dVertex
 10
67.18074000056593
 20
3.611149087638879
 30
0.0
  0
SEQEND
  5
483
330
480
100
AcDbEntity
  8
BEMAßUNG
  0
POLYLINE
  5
484
330
1F
100
AcDbEntity
  8
BEMAßUNG
 62
     7
100
AcDb2dPolyline
 66
     1
 10
0.0
 20
0.0
 30
0.0
  0
VERTEX
  5
485
330
484
100
AcDbEntity
  8
BEMAßUNG
 62
     7
100
AcDbVertex
100
AcDb2dVertex
 10
67.13009709693276
 20
3.197737629408899
 30
0.0
  0
VERTEX
  5
486
330
484
100
AcDbEntity
  8
BEMAßUNG
 62
     7
100
AcDbVertex
100
AcDb2dVertex
 10
67.13009709693276
 20
3.997172036761124
 30
0.0
  0
SEQEND
  5
487
330
484
100
AcDbEntity
  8
BEMAßUNG
  0
POLYLINE
  5
488
330
1F
100
AcDbEntity
  8
BEMAßUNG
 62
     7
100
AcDb2dPolyline
 66
     1
 10
0.0
 20
0.0
 30
0.0
  0
VERTEX
  5
489
330
488
100
AcDbEntity
  8
BEMAßUNG
 62
     7
100
AcDbVertex
100
AcDb2dVertex
 10
67.07910968375106
 20
3.197737629408899
 30
0.0
  0
VERTEX
  5
48A
330
488
100
AcDbEntity
  8
BEMAßUNG
 62
     7
100
AcDbVertex
100
AcDb2dVertex
 10
67.07910968375106
 20
4.382678221560581
 30
0.0
  0
SEQEND
  5
48B
330
488
100
AcDbEntity
  8
BEMAßUNG
  0
POLYLINE
  5
48C
330
1F
100
AcDbEntity
  8
BEMAßUNG
 62
     7
100
AcDb2dPolyline
 66
     1
 10
0.0
 20
0.0
 30
0.0
  0
VERTEX
  5
48D
330
48C
100
AcDbEntity
  8
BEMAßUNG
 62
     7
100
AcDbVertex
100
AcDb2dVertex
 10
67.02812227056936
 20
3.197737629408899
 30
0.0
  0
VERTEX
  5
48E
330
48C
100
AcDbEntity
  8
BEMAßUNG
 62
     7
100
AcDbVertex
100
AcDb2dVertex
 10
67.02812227056936
 20
4.768873425457087
 30
0.0
  0
SEQEND
  5
48F
330
48C
100
AcDbEntity
  8
BEMAßUNG
  0
POLYLINE
  5
490
330
1F
100
AcDbEntity
  8
BEMAßUNG
 62
     7
100
AcDb2dPolyline
 66
     1
 10
0.0
 20
0.0
 30
0.0
  0
VERTEX
  5
491
330
490
100
AcDbEntity
  8
BEMAßUNG
 62
     7
100
AcDbVertex
100
AcDb2dVertex
 10
66.97713485738767
 20
3.197737629408899
 30
0.0
  0
VERTEX
  5
492
330
490
100
AcDbEntity
  8
BEMAßUNG
 62
     7
100
AcDbVertex
100
AcDb2dVertex
 10
66.97713485738767
 20
5.154551865030807
 30
0.0
  0
SEQEND
  5
493
330
490
100
AcDbEntity
  8
BEMAßUNG
  0
POLYLINE
  5
494
330
1F
100
AcDbEntity
  8
BEMAßUNG
 62
     7
100
AcDb2dPolyline
 66
     1
 10
0.0
 20
0.0
 30
0.0
  0
VERTEX
  5
495
330
494
100
AcDbEntity
  8
BEMAßUNG
 62
     7
100
AcDbVertex
100
AcDb2dVertex
 10
66.92614744420597
 20
3.197737629408899
 30
0.0
  0
VERTEX
  5
496
330
494
100
AcDbEntity
  8
BEMAßUNG
 62
     7
100
AcDbVertex
100
AcDb2dVertex
 10
66.92614744420597
 20
5.540574814153051
 30
0.0
  0
SEQEND
  5
497
330
494
100
AcDbEntity
  8
BEMAßUNG
  0
POLYLINE
  5
498
330
1F
100
AcDbEntity
  8
BEMAßUNG
 62
     7
100
AcDb2dPolyline
 66
     1
 10
0.0
 20
0.0
 30
0.0
  0
VERTEX
  5
499
330
498
100
AcDbEntity
  8
BEMAßUNG
 62
     7
100
AcDbVertex
100
AcDb2dVertex
 10
66.87550454057279
 20
3.197737629408899
 30
0.0
  0
VERTEX
  5
49A
330
498
100
AcDbEntity
  8
BEMAßUNG
 62
     7
100
AcDbVertex
100
AcDb2dVertex
 10
66.87550454057279
 20
5.926080998952508
 30
0.0
  0
SEQEND
  5
49B
330
498
100
AcDbEntity
  8
BEMAßUNG
  0
POLYLINE
  5
49C
330
1F
100
AcDbEntity
  8
BEMAßUNG
 62
     7
100
AcDb2dPolyline
 66
     1
 10
0.0
 20
0.0
 30
0.0
  0
VERTEX
  5
49D
330
49C
100
AcDbEntity
  8
BEMAßUNG
 62
     7
100
AcDbVertex
100
AcDb2dVertex
 10
66.82486163693962
 20
3.197737629408899
 30
0.0
  0
VERTEX
  5
49E
330
49C
100
AcDbEntity
  8
BEMAßUNG
 62
     7
100
AcDbVertex
100
AcDb2dVertex
 10
66.82486163693962
 20
6.312276202849015
 30
0.0
  0
SEQEND
  5
49F
330
49C
100
AcDbEntity
  8
BEMAßUNG
  0
POLYLINE
  5
4A0
330
1F
100
AcDbEntity
  8
BEMAßUNG
 62
     7
100
AcDb2dPolyline
 66
     1
 10
0.0
 20
0.0
 30
0.0
  0
VERTEX
  5
4A1
330
4A0
100
AcDbEntity
  8
BEMAßUNG
 62
     7
100
AcDbVertex
100
AcDb2dVertex
 10
66.77421873330645
 20
3.197737629408899
 30
0.0
  0
VERTEX
  5
4A2
330
4A0
100
AcDbEntity
  8
BEMAßUNG
 62
     7
100
AcDbVertex
100
AcDb2dVertex
 10
66.77421873330645
 20
6.697954642422734
 30
0.0
  0
SEQEND
  5
4A3
330
4A0
100
AcDbEntity
  8
BEMAßUNG
  0
POLYLINE
  5
4A4
330
1F
100
AcDbEntity
  8
BEMAßUNG
 62
     7
100
AcDb2dPolyline
 66
     1
 10
0.0
 20
0.0
 30
0.0
  0
VERTEX
  5
4A5
330
4A4
100
AcDbEntity
  8
BEMAßUNG
 62
     7
100
AcDbVertex
100
AcDb2dVertex
 10
66.77421873330645
 20
-19.30218098475779
 30
0.0
  0
VERTEX
  5
4A6
330
4A4
100
AcDbEntity
  8
BEMAßUNG
 62
     7
100
AcDbVertex
100
AcDb2dVertex
 10
67.23482799968436
 20
-15.80179171696969
 30
0.0
  0
VERTEX
  5
4A7
330
4A4
100
AcDbEntity
  8
BEMAßUNG
 62
     7
100
AcDbVertex
100
AcDb2dVertex
 10
66.31326495738001
 20
-15.80179171696969
 30
0.0
  0
VERTEX
  5
4A8
330
4A4
100
AcDbEntity
  8
BEMAßUNG
 62
     7
100
AcDbVertex
100
AcDb2dVertex
 10
66.77421873330645
 20
-19.30218098475779
 30
0.0
  0
SEQEND
  5
4A9
330
4A4
100
AcDbEntity
  8
BEMAßUNG
  0
POLYLINE
  5
4AA
330
1F
100
AcDbEntity
  8
BEMAßUNG
 62
     7
100
AcDb2dPolyline
 66
     1
 10
0.0
 20
0.0
 30
0.0
  0
VERTEX
  5
4AB
330
4AA
100
AcDbEntity
  8
BEMAßUNG
 62
     7
100
AcDbVertex
100
AcDb2dVertex
 10
67.23138290419911
 20
-15.80179171696969
 30
0.0
  0
VERTEX
  5
4AC
330
4AA
100
AcDbEntity
  8
BEMAßUNG
 62
     7
100
AcDbVertex
100
AcDb2dVertex
 10
67.23138290419911
 20
-15.82900797130316
 30
0.0
  0
SEQEND
  5
4AD
330
4AA
100
AcDbEntity
  8
BEMAßUNG
  0
POLYLINE
  5
4AE
330
1F
100
AcDbEntity
  8
BEMAßUNG
 62
     7
100
AcDb2dPolyline
 66
     1
 10
0.0
 20
0.0
 30
0.0
  0
VERTEX
  5
4AF
330
4AE
100
AcDbEntity
  8
BEMAßUNG
 62
     7
100
AcDbVertex
100
AcDb2dVertex
 10
67.23138290419911
 20
-15.80179171696969
 30
0.0
  0
VERTEX
  5
4B0
330
4AE
100
AcDbEntity
  8
BEMAßUNG
 62
     7
100
AcDbVertex
100
AcDb2dVertex
 10
67.23138290419911
 20
-15.82900797130316
 30
0.0
  0
SEQEND
  5
4B1
330
4AE
100
AcDbEntity
  8
BEMAßUNG
  0
POLYLINE
  5
4B2
330
1F
100
AcDbEntity
  8
BEMAßUNG
 62
     7
100
AcDb2dPolyline
 66
     1
 10
0.0
 20
0.0
 30
0.0
  0
VERTEX
  5
4B3
330
4B2
100
AcDbEntity
  8
BEMAßUNG
 62
     7
100
AcDbVertex
100
AcDb2dVertex
 10
67.18074000056593
 20
-15.80179171696969
 30
0.0
  0
VERTEX
  5
4B4
330
4B2
100
AcDbEntity
  8
BEMAßUNG
 62
     7
100
AcDbVertex
100
AcDb2dVertex
 10
67.18074000056593
 20
-16.21537542997394
 30
0.0
  0
SEQEND
  5
4B5
330
4B2
100
AcDbEntity
  8
BEMAßUNG
  0
POLYLINE
  5
4B6
330
1F
100
AcDbEntity
  8
BEMAßUNG
 62
     7
100
AcDb2dPolyline
 66
     1
 10
0.0
 20
0.0
 30
0.0
  0
VERTEX
  5
4B7
330
4B6
100
AcDbEntity
  8
BEMAßUNG
 62
     7
100
AcDbVertex
100
AcDb2dVertex
 10
67.13009709693276
 20
-15.80179171696969
 30
0.0
  0
VERTEX
  5
4B8
330
4B6
100
AcDbEntity
  8
BEMAßUNG
 62
     7
100
AcDbVertex
100
AcDb2dVertex
 10
67.13009709693276
 20
-16.60088161477339
 30
0.0
  0
SEQEND
  5
4B9
330
4B6
100
AcDbEntity
  8
BEMAßUNG
  0
POLYLINE
  5
4BA
330
1F
100
AcDbEntity
  8
BEMAßUNG
 62
     7
100
AcDb2dPolyline
 66
     1
 10
0.0
 20
0.0
 30
0.0
  0
VERTEX
  5
4BB
330
4BA
100
AcDbEntity
  8
BEMAßUNG
 62
     7
100
AcDbVertex
100
AcDb2dVertex
 10
67.07910968375106
 20
-15.80179171696969
 30
0.0
  0
VERTEX
  5
4BC
330
4BA
100
AcDbEntity
  8
BEMAßUNG
 62
     7
100
AcDbVertex
100
AcDb2dVertex
 10
67.07910968375106
 20
-16.98690456389564
 30
0.0
  0
SEQEND
  5
4BD
330
4BA
100
AcDbEntity
  8
BEMAßUNG
  0
POLYLINE
  5
4BE
330
1F
100
AcDbEntity
  8
BEMAßUNG
 62
     7
100
AcDb2dPolyline
 66
     1
 10
0.0
 20
0.0
 30
0.0
  0
VERTEX
  5
4BF
330
4BE
100
AcDbEntity
  8
BEMAßUNG
 62
     7
100
AcDbVertex
100
AcDb2dVertex
 10
67.02812227056936
 20
-15.80179171696969
 30
0.0
  0
VERTEX
  5
4C0
330
4BE
100
AcDbEntity
  8
BEMAßUNG
 62
     7
100
AcDbVertex
100
AcDb2dVertex
 10
67.02812227056936
 20
-17.37241074869509
 30
0.0
  0
SEQEND
  5
4C1
330
4BE
100
AcDbEntity
  8
BEMAßUNG
  0
POLYLINE
  5
4C2
330
1F
100
AcDbEntity
  8
BEMAßUNG
 62
     7
100
AcDb2dPolyline
 66
     1
 10
0.0
 20
0.0
 30
0.0
  0
VERTEX
  5
4C3
330
4C2
100
AcDbEntity
  8
BEMAßUNG
 62
     7
100
AcDbVertex
100
AcDb2dVertex
 10
66.97713485738767
 20
-15.80179171696969
 30
0.0
  0
VERTEX
  5
4C4
330
4C2
100
AcDbEntity
  8
BEMAßUNG
 62
     7
100
AcDbVertex
100
AcDb2dVertex
 10
66.97713485738767
 20
-17.75877820736586
 30
0.0
  0
SEQEND
  5
4C5
330
4C2
100
AcDbEntity
  8
BEMAßUNG
  0
POLYLINE
  5
4C6
330
1F
100
AcDbEntity
  8
BEMAßUNG
 62
     7
100
AcDb2dPolyline
 66
     1
 10
0.0
 20
0.0
 30
0.0
  0
VERTEX
  5
4C7
330
4C6
100
AcDbEntity
  8
BEMAßUNG
 62
     7
100
AcDbVertex
100
AcDb2dVertex
 10
66.92614744420597
 20
-15.80179171696969
 30
0.0
  0
VERTEX
  5
4C8
330
4C6
100
AcDbEntity
  8
BEMAßUNG
 62
     7
100
AcDbVertex
100
AcDb2dVertex
 10
66.92614744420597
 20
-18.14428439216532
 30
0.0
  0
SEQEND
  5
4C9
330
4C6
100
AcDbEntity
  8
BEMAßUNG
  0
POLYLINE
  5
4CA
330
1F
100
AcDbEntity
  8
BEMAßUNG
 62
     7
100
AcDb2dPolyline
 66
     1
 10
0.0
 20
0.0
 30
0.0
  0
VERTEX
  5
4CB
330
4CA
100
AcDbEntity
  8
BEMAßUNG
 62
     7
100
AcDbVertex
100
AcDb2dVertex
 10
66.87550454057279
 20
-15.80179171696969
 30
0.0
  0
VERTEX
  5
4CC
330
4CA
100
AcDbEntity
  8
BEMAßUNG
 62
     7
100
AcDbVertex
100
AcDb2dVertex
 10
66.87550454057279
 20
-18.53065185083609
 30
0.0
  0
SEQEND
  5
4CD
330
4CA
100
AcDbEntity
  8
BEMAßUNG
  0
POLYLINE
  5
4CE
330
1F
100
AcDbEntity
  8
BEMAßUNG
 62
     7
100
AcDb2dPolyline
 66
     1
 10
0.0
 20
0.0
 30
0.0
  0
VERTEX
  5
4CF
330
4CE
100
AcDbEntity
  8
BEMAßUNG
 62
     7
100
AcDbVertex
100
AcDb2dVertex
 10
66.82486163693962
 20
-15.80179171696969
 30
0.0
  0
VERTEX
  5
4D0
330
4CE
100
AcDbEntity
  8
BEMAßUNG
 62
     7
100
AcDbVertex
100
AcDb2dVertex
 10
66.82486163693962
 20
-18.91581352608702
 30
0.0
  0
SEQEND
  5
4D1
330
4CE
100
AcDbEntity
  8
BEMAßUNG
  0
POLYLINE
  5
4D2
330
1F
100
AcDbEntity
  8
BEMAßUNG
 62
     7
100
AcDb2dPolyline
 66
     1
 10
0.0
 20
0.0
 30
0.0
  0
VERTEX
  5
4D3
330
4D2
100
AcDbEntity
  8
BEMAßUNG
 62
     7
100
AcDbVertex
100
AcDb2dVertex
 10
66.77421873330645
 20
-15.80179171696969
 30
0.0
  0
VERTEX
  5
4D4
330
4D2
100
AcDbEntity
  8
BEMAßUNG
 62
     7
100
AcDbVertex
100
AcDb2dVertex
 10
66.77421873330645
 20
-19.30218098475779
 30
0.0
  0
SEQEND
  5
4D5
330
4D2
100
AcDbEntity
  8
BEMAßUNG
  0
POLYLINE
  5
4D6
330
1F
100
AcDbEntity
  8
BEMAßUNG
 62
     7
100
AcDb2dPolyline
 66
     1
 10
0.0
 20
0.0
 30
0.0
  0
VERTEX
  5
4D7
330
4D6
100
AcDbEntity
  8
BEMAßUNG
 62
     7
100
AcDbVertex
100
AcDb2dVertex
 10
66.31671005286528
 20
-15.80179171696969
 30
0.0
  0
VERTEX
  5
4D8
330
4D6
100
AcDbEntity
  8
BEMAßUNG
 62
     7
100
AcDbVertex
100
AcDb2dVertex
 10
66.31671005286528
 20
-15.82900797130316
 30
0.0
  0
SEQEND
  5
4D9
330
4D6
100
AcDbEntity
  8
BEMAßUNG
  0
POLYLINE
  5
4DA
330
1F
100
AcDbEntity
  8
BEMAßUNG
 62
     7
100
AcDb2dPolyline
 66
     1
 10
0.0
 20
0.0
 30
0.0
  0
VERTEX
  5
4DB
330
4DA
100
AcDbEntity
  8
BEMAßUNG
 62
     7
100
AcDbVertex
100
AcDb2dVertex
 10
66.31671005286528
 20
-15.80179171696969
 30
0.0
  0
VERTEX
  5
4DC
330
4DA
100
AcDbEntity
  8
BEMAßUNG
 62
     7
100
AcDbVertex
100
AcDb2dVertex
 10
66.31671005286528
 20
-15.82900797130316
 30
0.0
  0
SEQEND
  5
4DD
330
4DA
100
AcDbEntity
  8
BEMAßUNG
  0
POLYLINE
  5
4DE
330
1F
100
AcDbEntity
  8
BEMAßUNG
 62
     7
100
AcDb2dPolyline
 66
     1
 10
0.0
 20
0.0
 30
0.0
  0
VERTEX
  5
4DF
330
4DE
100
AcDbEntity
  8
BEMAßUNG
 62
     7
100
AcDbVertex
100
AcDb2dVertex
 10
66.36735295649844
 20
-15.80179171696969
 30
0.0
  0
VERTEX
  5
4E0
330
4DE
100
AcDbEntity
  8
BEMAßUNG
 62
     7
100
AcDbVertex
100
AcDb2dVertex
 10
66.36735295649844
 20
-16.21537542997394
 30
0.0
  0
SEQEND
  5
4E1
330
4DE
100
AcDbEntity
  8
BEMAßUNG
  0
POLYLINE
  5
4E2
330
1F
100
AcDbEntity
  8
BEMAßUNG
 62
     7
100
AcDb2dPolyline
 66
     1
 10
0.0
 20
0.0
 30
0.0
  0
VERTEX
  5
4E3
330
4E2
100
AcDbEntity
  8
BEMAßUNG
 62
     7
100
AcDbVertex
100
AcDb2dVertex
 10
66.41834036968014
 20
-15.80179171696969
 30
0.0
  0
VERTEX
  5
4E4
330
4E2
100
AcDbEntity
  8
BEMAßUNG
 62
     7
100
AcDbVertex
100
AcDb2dVertex
 10
66.41834036968014
 20
-16.60088161477339
 30
0.0
  0
SEQEND
  5
4E5
330
4E2
100
AcDbEntity
  8
BEMAßUNG
  0
POLYLINE
  5
4E6
330
1F
100
AcDbEntity
  8
BEMAßUNG
 62
     7
100
AcDb2dPolyline
 66
     1
 10
0.0
 20
0.0
 30
0.0
  0
VERTEX
  5
4E7
330
4E6
100
AcDbEntity
  8
BEMAßUNG
 62
     7
100
AcDbVertex
100
AcDb2dVertex
 10
66.46898327331331
 20
-15.80179171696969
 30
0.0
  0
VERTEX
  5
4E8
330
4E6
100
AcDbEntity
  8
BEMAßUNG
 62
     7
100
AcDbVertex
100
AcDb2dVertex
 10
66.46898327331331
 20
-16.98690456389564
 30
0.0
  0
SEQEND
  5
4E9
330
4E6
100
AcDbEntity
  8
BEMAßUNG
  0
POLYLINE
  5
4EA
330
1F
100
AcDbEntity
  8
BEMAßUNG
 62
     7
100
AcDb2dPolyline
 66
     1
 10
0.0
 20
0.0
 30
0.0
  0
VERTEX
  5
4EB
330
4EA
100
AcDbEntity
  8
BEMAßUNG
 62
     7
100
AcDbVertex
100
AcDb2dVertex
 10
66.51997068649501
 20
-15.80179171696969
 30
0.0
  0
VERTEX
  5
4EC
330
4EA
100
AcDbEntity
  8
BEMAßUNG
 62
     7
100
AcDbVertex
100
AcDb2dVertex
 10
66.51997068649501
 20
-17.37241074869509
 30
0.0
  0
SEQEND
  5
4ED
330
4EA
100
AcDbEntity
  8
BEMAßUNG
  0
POLYLINE
  5
4EE
330
1F
100
AcDbEntity
  8
BEMAßUNG
 62
     7
100
AcDb2dPolyline
 66
     1
 10
0.0
 20
0.0
 30
0.0
  0
VERTEX
  5
4EF
330
4EE
100
AcDbEntity
  8
BEMAßUNG
 62
     7
100
AcDbVertex
100
AcDb2dVertex
 10
66.57130260922523
 20
-15.80179171696969
 30
0.0
  0
VERTEX
  5
4F0
330
4EE
100
AcDbEntity
  8
BEMAßUNG
 62
     7
100
AcDbVertex
100
AcDb2dVertex
 10
66.57130260922523
 20
-17.75877820736586
 30
0.0
  0
SEQEND
  5
4F1
330
4EE
100
AcDbEntity
  8
BEMAßUNG
  0
POLYLINE
  5
4F2
330
1F
100
AcDbEntity
  8
BEMAßUNG
 62
     7
100
AcDb2dPolyline
 66
     1
 10
0.0
 20
0.0
 30
0.0
  0
VERTEX
  5
4F3
330
4F2
100
AcDbEntity
  8
BEMAßUNG
 62
     7
100
AcDbVertex
100
AcDb2dVertex
 10
66.6219455128584
 20
-15.80179171696969
 30
0.0
  0
VERTEX
  5
4F4
330
4F2
100
AcDbEntity
  8
BEMAßUNG
 62
     7
100
AcDbVertex
100
AcDb2dVertex
 10
66.6219455128584
 20
-18.14428439216532
 30
0.0
  0
SEQEND
  5
4F5
330
4F2
100
AcDbEntity
  8
BEMAßUNG
  0
POLYLINE
  5
4F6
330
1F
100
AcDbEntity
  8
BEMAßUNG
 62
     7
100
AcDb2dPolyline
 66
     1
 10
0.0
 20
0.0
 30
0.0
  0
VERTEX
  5
4F7
330
4F6
100
AcDbEntity
  8
BEMAßUNG
 62
     7
100
AcDbVertex
100
AcDb2dVertex
 10
66.6729329260401
 20
-15.80179171696969
 30
0.0
  0
VERTEX
  5
4F8
330
4F6
100
AcDbEntity
  8
BEMAßUNG
 62
     7
100
AcDbVertex
100
AcDb2dVertex
 10
66.6729329260401
 20
-18.53065185083609
 30
0.0
  0
SEQEND
  5
4F9
330
4F6
100
AcDbEntity
  8
BEMAßUNG
  0
POLYLINE
  5
4FA
330
1F
100
AcDbEntity
  8
BEMAßUNG
 62
     7
100
AcDb2dPolyline
 66
     1
 10
0.0
 20
0.0
 30
0.0
  0
VERTEX
  5
4FB
330
4FA
100
AcDbEntity
  8
BEMAßUNG
 62
     7
100
AcDbVertex
100
AcDb2dVertex
 10
66.72357582967328
 20
-15.80179171696969
 30
0.0
  0
VERTEX
  5
4FC
330
4FA
100
AcDbEntity
  8
BEMAßUNG
 62
     7
100
AcDbVertex
100
AcDb2dVertex
 10
66.72357582967328
 20
-18.91581352608702
 30
0.0
  0
SEQEND
  5
4FD
330
4FA
100
AcDbEntity
  8
BEMAßUNG
  0
POLYLINE
  5
4FE
330
1F
100
AcDbEntity
  8
BEMAßUNG
 62
     7
100
AcDb2dPolyline
 66
     1
 10
0.0
 20
0.0
 30
0.0
  0
VERTEX
  5
4FF
330
4FE
100
AcDbEntity
  8
BEMAßUNG
 62
     7
100
AcDbVertex
100
AcDb2dVertex
 10
66.77421873330645
 20
-15.80179171696969
 30
0.0
  0
VERTEX
  5
500
330
4FE
100
AcDbEntity
  8
BEMAßUNG
 62
     7
100
AcDbVertex
100
AcDb2dVertex
 10
66.77421873330645
 20
-19.30218098475779
 30
0.0
  0
SEQEND
  5
501
330
4FE
100
AcDbEntity
  8
BEMAßUNG
  0
POLYLINE
  5
502
330
1F
100
AcDbEntity
  8
BEMAßUNG
 62
     7
100
AcDb2dPolyline
 66
     1
 10
0.0
 20
0.0
 30
0.0
  0
VERTEX
  5
503
330
502
100
AcDbEntity
  8
BEMAßUNG
 62
     7
100
AcDbVertex
100
AcDb2dVertex
 10
8.02431640424392
 20
-0.1018025715891327
 30
0.0
  0
VERTEX
  5
504
330
502
100
AcDbEntity
  8
BEMAßUNG
 62
     7
100
AcDbVertex
100
AcDb2dVertex
 10
8.02431640424392
 20
28.68782686999818
 30
0.0
  0
SEQEND
  5
505
330
502
100
AcDbEntity
  8
BEMAßUNG
  0
POLYLINE
  5
506
330
1F
100
AcDbEntity
  8
BEMAßUNG
 62
     7
100
AcDb2dPolyline
 66
     1
 10
0.0
 20
0.0
 30
0.0
  0
VERTEX
  5
507
330
506
100
AcDbEntity
  8
BEMAßUNG
 62
     7
100
AcDbVertex
100
AcDb2dVertex
 10
18.02439506927863
 20
4.197848848776927
 30
0.0
  0
VERTEX
  5
508
330
506
100
AcDbEntity
  8
BEMAßUNG
 62
     7
100
AcDbVertex
100
AcDb2dVertex
 10
18.02439506927863
 20
14.81322156747725
 30
0.0
  0
SEQEND
  5
509
330
506
100
AcDbEntity
  8
BEMAßUNG
  0
POLYLINE
  5
50A
330
1F
100
AcDbEntity
  8
BEMAßUNG
 62
     7
100
AcDb2dPolyline
 66
     1
 10
0.0
 20
0.0
 30
0.0
  0
VERTEX
  5
50B
330
50A
100
AcDbEntity
  8
BEMAßUNG
 62
     7
100
AcDbVertex
100
AcDb2dVertex
 10
18.02439506927863
 20
17.64509005635262
 30
0.0
  0
VERTEX
  5
50C
330
50A
100
AcDbEntity
  8
BEMAßUNG
 62
     7
100
AcDbVertex
100
AcDb2dVertex
 10
18.02439506927863
 20
28.68782686999818
 30
0.0
  0
SEQEND
  5
50D
330
50A
100
AcDbEntity
  8
BEMAßUNG
  0
POLYLINE
  5
50E
330
1F
100
AcDbEntity
  8
BEMAßUNG
 62
     7
100
AcDb2dPolyline
 66
     1
 10
0.0
 20
0.0
 30
0.0
  0
VERTEX
  5
50F
330
50E
100
AcDbEntity
  8
BEMAßUNG
 62
     7
100
AcDbVertex
100
AcDb2dVertex
 10
8.02431640424392
 20
26.6872599217136
 30
0.0
  0
VERTEX
  5
510
330
50E
100
AcDbEntity
  8
BEMAßUNG
 62
     7
100
AcDbVertex
100
AcDb2dVertex
 10
18.02439506927863
 20
26.6872599217136
 30
0.0
  0
SEQEND
  5
511
330
50E
100
AcDbEntity
  8
BEMAßUNG
  0
POLYLINE
  5
512
330
1F
100
AcDbEntity
  8
BEMAßUNG
 62
     7
100
AcDb2dPolyline
 66
     1
 10
0.0
 20
0.0
 30
0.0
  0
VERTEX
  5
513
330
512
100
AcDbEntity
  8
BEMAßUNG
 62
     7
100
AcDbVertex
100
AcDb2dVertex
 10
8.02431640424392
 20
26.6872599217136
 30
0.0
  0
VERTEX
  5
514
330
512
100
AcDbEntity
  8
BEMAßUNG
 62
     7
100
AcDbVertex
100
AcDb2dVertex
 10
11.52418890770923
 20
26.22699516488423
 30
0.0
  0
VERTEX
  5
515
330
512
100
AcDbEntity
  8
BEMAßUNG
 62
     7
100
AcDbVertex
100
AcDb2dVertex
 10
11.52418890770923
 20
27.14838595241429
 30
0.0
  0
VERTEX
  5
516
330
512
100
AcDbEntity
  8
BEMAßUNG
 62
     7
100
AcDbVertex
100
AcDb2dVertex
 10
8.02431640424392
 20
26.6872599217136
 30
0.0
  0
SEQEND
  5
517
330
512
100
AcDbEntity
  8
BEMAßUNG
  0
POLYLINE
  5
518
330
1F
100
AcDbEntity
  8
BEMAßUNG
 62
     7
100
AcDb2dPolyline
 66
     1
 10
0.0
 20
0.0
 30
0.0
  0
VERTEX
  5
519
330
518
100
AcDbEntity
  8
BEMAßUNG
 62
     7
100
AcDbVertex
100
AcDb2dVertex
 10
11.52418890770923
 20
26.23044026036947
 30
0.0
  0
VERTEX
  5
51A
330
518
100
AcDbEntity
  8
BEMAßUNG
 62
     7
100
AcDbVertex
100
AcDb2dVertex
 10
11.49697265337576
 20
26.23044026036947
 30
0.0
  0
SEQEND
  5
51B
330
518
100
AcDbEntity
  8
BEMAßUNG
  0
POLYLINE
  5
51C
330
1F
100
AcDbEntity
  8
BEMAßUNG
 62
     7
100
AcDb2dPolyline
 66
     1
 10
0.0
 20
0.0
 30
0.0
  0
VERTEX
  5
51D
330
51C
100
AcDbEntity
  8
BEMAßUNG
 62
     7
100
AcDbVertex
100
AcDb2dVertex
 10
11.52418890770923
 20
26.23044026036947
 30
0.0
  0
VERTEX
  5
51E
330
51C
100
AcDbEntity
  8
BEMAßUNG
 62
     7
100
AcDbVertex
100
AcDb2dVertex
 10
11.49697265337576
 20
26.23044026036947
 30
0.0
  0
SEQEND
  5
51F
330
51C
100
AcDbEntity
  8
BEMAßUNG
  0
POLYLINE
  5
520
330
1F
100
AcDbEntity
  8
BEMAßUNG
 62
     7
100
AcDb2dPolyline
 66
     1
 10
0.0
 20
0.0
 30
0.0
  0
VERTEX
  5
521
330
520
100
AcDbEntity
  8
BEMAßUNG
 62
     7
100
AcDbVertex
100
AcDb2dVertex
 10
11.52418890770923
 20
26.28125541877691
 30
0.0
  0
VERTEX
  5
522
330
520
100
AcDbEntity
  8
BEMAßUNG
 62
     7
100
AcDbVertex
100
AcDb2dVertex
 10
11.1114664685763
 20
26.28125541877691
 30
0.0
  0
SEQEND
  5
523
330
520
100
AcDbEntity
  8
BEMAßUNG
  0
POLYLINE
  5
524
330
1F
100
AcDbEntity
  8
BEMAßUNG
 62
     7
100
AcDb2dPolyline
 66
     1
 10
0.0
 20
0.0
 30
0.0
  0
VERTEX
  5
525
330
524
100
AcDbEntity
  8
BEMAßUNG
 62
     7
100
AcDbVertex
100
AcDb2dVertex
 10
11.52418890770923
 20
26.33207057718435
 30
0.0
  0
VERTEX
  5
526
330
524
100
AcDbEntity
  8
BEMAßUNG
 62
     7
100
AcDbVertex
100
AcDb2dVertex
 10
10.72544351945406
 20
26.33207057718435
 30
0.0
  0
SEQEND
  5
527
330
524
100
AcDbEntity
  8
BEMAßUNG
  0
POLYLINE
  5
528
330
1F
100
AcDbEntity
  8
BEMAßUNG
 62
     7
100
AcDb2dPolyline
 66
     1
 10
0.0
 20
0.0
 30
0.0
  0
VERTEX
  5
529
330
528
100
AcDbEntity
  8
BEMAßUNG
 62
     7
100
AcDbVertex
100
AcDb2dVertex
 10
11.52418890770923
 20
26.38288573559178
 30
0.0
  0
VERTEX
  5
52A
330
528
100
AcDbEntity
  8
BEMAßUNG
 62
     7
100
AcDbVertex
100
AcDb2dVertex
 10
10.33959282510607
 20
26.38288573559178
 30
0.0
  0
SEQEND
  5
52B
330
528
100
AcDbEntity
  8
BEMAßUNG
  0
POLYLINE
  5
52C
330
1F
100
AcDbEntity
  8
BEMAßUNG
 62
     7
100
AcDb2dPolyline
 66
     1
 10
0.0
 20
0.0
 30
0.0
  0
VERTEX
  5
52D
330
52C
100
AcDbEntity
  8
BEMAßUNG
 62
     7
100
AcDbVertex
100
AcDb2dVertex
 10
11.52418890770923
 20
26.43335638445069
 30
0.0
  0
VERTEX
  5
52E
330
52C
100
AcDbEntity
  8
BEMAßUNG
 62
     7
100
AcDbVertex
100
AcDb2dVertex
 10
9.95356987598383
 20
26.43335638445069
 30
0.0
  0
SEQEND
  5
52F
330
52C
100
AcDbEntity
  8
BEMAßUNG
  0
POLYLINE
  5
530
330
1F
100
AcDbEntity
  8
BEMAßUNG
 62
     7
100
AcDb2dPolyline
 66
     1
 10
0.0
 20
0.0
 30
0.0
  0
VERTEX
  5
531
330
530
100
AcDbEntity
  8
BEMAßUNG
 62
     7
100
AcDbVertex
100
AcDb2dVertex
 10
11.52418890770923
 20
26.48399928808386
 30
0.0
  0
VERTEX
  5
532
330
530
100
AcDbEntity
  8
BEMAßUNG
 62
     7
100
AcDbVertex
100
AcDb2dVertex
 10
9.568063691184374
 20
26.48399928808386
 30
0.0
  0
SEQEND
  5
533
330
530
100
AcDbEntity
  8
BEMAßUNG
  0
POLYLINE
  5
534
330
1F
100
AcDbEntity
  8
BEMAßUNG
 62
     7
100
AcDb2dPolyline
 66
     1
 10
0.0
 20
0.0
 30
0.0
  0
VERTEX
  5
535
330
534
100
AcDbEntity
  8
BEMAßUNG
 62
     7
100
AcDbVertex
100
AcDb2dVertex
 10
11.52418890770923
 20
26.53498670126556
 30
0.0
  0
VERTEX
  5
536
330
534
100
AcDbEntity
  8
BEMAßUNG
 62
     7
100
AcDbVertex
100
AcDb2dVertex
 10
9.18204074206213
 20
26.53498670126556
 30
0.0
  0
SEQEND
  5
537
330
534
100
AcDbEntity
  8
BEMAßUNG
  0
POLYLINE
  5
538
330
1F
100
AcDbEntity
  8
BEMAßUNG
 62
     7
100
AcDb2dPolyline
 66
     1
 10
0.0
 20
0.0
 30
0.0
  0
VERTEX
  5
539
330
538
100
AcDbEntity
  8
BEMAßUNG
 62
     7
100
AcDbVertex
100
AcDb2dVertex
 10
11.52418890770923
 20
26.58562960489873
 30
0.0
  0
VERTEX
  5
53A
330
538
100
AcDbEntity
  8
BEMAßUNG
 62
     7
100
AcDbVertex
100
AcDb2dVertex
 10
8.796190047714147
 20
26.58562960489873
 30
0.0
  0
SEQEND
  5
53B
330
538
100
AcDbEntity
  8
BEMAßUNG
  0
POLYLINE
  5
53C
330
1F
100
AcDbEntity
  8
BEMAßUNG
 62
     7
100
AcDb2dPolyline
 66
     1
 10
0.0
 20
0.0
 30
0.0
  0
VERTEX
  5
53D
330
53C
100
AcDbEntity
  8
BEMAßUNG
 62
     7
100
AcDbVertex
100
AcDb2dVertex
 10
11.52418890770923
 20
26.63661701808043
 30
0.0
  0
VERTEX
  5
53E
330
53C
100
AcDbEntity
  8
BEMAßUNG
 62
     7
100
AcDbVertex
100
AcDb2dVertex
 10
8.410167098591904
 20
26.63661701808043
 30
0.0
  0
SEQEND
  5
53F
330
53C
100
AcDbEntity
  8
BEMAßUNG
  0
POLYLINE
  5
540
330
1F
100
AcDbEntity
  8
BEMAßUNG
 62
     7
100
AcDb2dPolyline
 66
     1
 10
0.0
 20
0.0
 30
0.0
  0
VERTEX
  5
541
330
540
100
AcDbEntity
  8
BEMAßUNG
 62
     7
100
AcDbVertex
100
AcDb2dVertex
 10
11.52418890770923
 20
26.6872599217136
 30
0.0
  0
VERTEX
  5
542
330
540
100
AcDbEntity
  8
BEMAßUNG
 62
     7
100
AcDbVertex
100
AcDb2dVertex
 10
8.02431640424392
 20
26.6872599217136
 30
0.0
  0
SEQEND
  5
543
330
540
100
AcDbEntity
  8
BEMAßUNG
  0
POLYLINE
  5
544
330
1F
100
AcDbEntity
  8
BEMAßUNG
 62
     7
100
AcDb2dPolyline
 66
     1
 10
0.0
 20
0.0
 30
0.0
  0
VERTEX
  5
545
330
544
100
AcDbEntity
  8
BEMAßUNG
 62
     7
100
AcDbVertex
100
AcDb2dVertex
 10
11.52418890770923
 20
27.14476860215478
 30
0.0
  0
VERTEX
  5
546
330
544
100
AcDbEntity
  8
BEMAßUNG
 62
     7
100
AcDbVertex
100
AcDb2dVertex
 10
11.49697265337576
 20
27.14476860215478
 30
0.0
  0
SEQEND
  5
547
330
544
100
AcDbEntity
  8
BEMAßUNG
  0
POLYLINE
  5
548
330
1F
100
AcDbEntity
  8
BEMAßUNG
 62
     7
100
AcDb2dPolyline
 66
     1
 10
0.0
 20
0.0
 30
0.0
  0
VERTEX
  5
549
330
548
100
AcDbEntity
  8
BEMAßUNG
 62
     7
100
AcDbVertex
100
AcDb2dVertex
 10
11.52418890770923
 20
27.14476860215478
 30
0.0
  0
VERTEX
  5
54A
330
548
100
AcDbEntity
  8
BEMAßUNG
 62
     7
100
AcDbVertex
100
AcDb2dVertex
 10
11.49697265337576
 20
27.14476860215478
 30
0.0
  0
SEQEND
  5
54B
330
548
100
AcDbEntity
  8
BEMAßUNG
  0
POLYLINE
  5
54C
330
1F
100
AcDbEntity
  8
BEMAßUNG
 62
     7
100
AcDb2dPolyline
 66
     1
 10
0.0
 20
0.0
 30
0.0
  0
VERTEX
  5
54D
330
54C
100
AcDbEntity
  8
BEMAßUNG
 62
     7
100
AcDbVertex
100
AcDb2dVertex
 10
11.52418890770923
 20
27.09412569852161
 30
0.0
  0
VERTEX
  5
54E
330
54C
100
AcDbEntity
  8
BEMAßUNG
 62
     7
100
AcDbVertex
100
AcDb2dVertex
 10
11.1114664685763
 20
27.09412569852161
 30
0.0
  0
SEQEND
  5
54F
330
54C
100
AcDbEntity
  8
BEMAßUNG
  0
POLYLINE
  5
550
330
1F
100
AcDbEntity
  8
BEMAßUNG
 62
     7
100
AcDb2dPolyline
 66
     1
 10
0.0
 20
0.0
 30
0.0
  0
VERTEX
  5
551
330
550
100
AcDbEntity
  8
BEMAßUNG
 62
     7
100
AcDbVertex
100
AcDb2dVertex
 10
11.52418890770923
 20
27.04331054011417
 30
0.0
  0
VERTEX
  5
552
330
550
100
AcDbEntity
  8
BEMAßUNG
 62
     7
100
AcDbVertex
100
AcDb2dVertex
 10
10.72544351945406
 20
27.04331054011417
 30
0.0
  0
SEQEND
  5
553
330
550
100
AcDbEntity
  8
BEMAßUNG
  0
POLYLINE
  5
554
330
1F
100
AcDbEntity
  8
BEMAßUNG
 62
     7
100
AcDb2dPolyline
 66
     1
 10
0.0
 20
0.0
 30
0.0
  0
VERTEX
  5
555
330
554
100
AcDbEntity
  8
BEMAßUNG
 62
     7
100
AcDbVertex
100
AcDb2dVertex
 10
11.52418890770923
 20
26.99249538170674
 30
0.0
  0
VERTEX
  5
556
330
554
100
AcDbEntity
  8
BEMAßUNG
 62
     7
100
AcDbVertex
100
AcDb2dVertex
 10
10.33959282510607
 20
26.99249538170674
 30
0.0
  0
SEQEND
  5
557
330
554
100
AcDbEntity
  8
BEMAßUNG
  0
POLYLINE
  5
558
330
1F
100
AcDbEntity
  8
BEMAßUNG
 62
     7
100
AcDb2dPolyline
 66
     1
 10
0.0
 20
0.0
 30
0.0
  0
VERTEX
  5
559
330
558
100
AcDbEntity
  8
BEMAßUNG
 62
     7
100
AcDbVertex
100
AcDb2dVertex
 10
11.52418890770923
 20
26.94133571375078
 30
0.0
  0
VERTEX
  5
55A
330
558
100
AcDbEntity
  8
BEMAßUNG
 62
     7
100
AcDbVertex
100
AcDb2dVertex
 10
9.95356987598383
 20
26.94133571375078
 30
0.0
  0
SEQEND
  5
55B
330
558
100
AcDbEntity
  8
BEMAßUNG
  0
POLYLINE
  5
55C
330
1F
100
AcDbEntity
  8
BEMAßUNG
 62
     7
100
AcDb2dPolyline
 66
     1
 10
0.0
 20
0.0
 30
0.0
  0
VERTEX
  5
55D
330
55C
100
AcDbEntity
  8
BEMAßUNG
 62
     7
100
AcDbVertex
100
AcDb2dVertex
 10
11.52418890770923
 20
26.89052055534334
 30
0.0
  0
VERTEX
  5
55E
330
55C
100
AcDbEntity
  8
BEMAßUNG
 62
     7
100
AcDbVertex
100
AcDb2dVertex
 10
9.568063691184374
 20
26.89052055534334
 30
0.0
  0
SEQEND
  5
55F
330
55C
100
AcDbEntity
  8
BEMAßUNG
  0
POLYLINE
  5
560
330
1F
100
AcDbEntity
  8
BEMAßUNG
 62
     7
100
AcDb2dPolyline
 66
     1
 10
0.0
 20
0.0
 30
0.0
  0
VERTEX
  5
561
330
560
100
AcDbEntity
  8
BEMAßUNG
 62
     7
100
AcDbVertex
100
AcDb2dVertex
 10
11.52418890770923
 20
26.83970539693591
 30
0.0
  0
VERTEX
  5
562
330
560
100
AcDbEntity
  8
BEMAßUNG
 62
     7
100
AcDbVertex
100
AcDb2dVertex
 10
9.18204074206213
 20
26.83970539693591
 30
0.0
  0
SEQEND
  5
563
330
560
100
AcDbEntity
  8
BEMAßUNG
  0
POLYLINE
  5
564
330
1F
100
AcDbEntity
  8
BEMAßUNG
 62
     7
100
AcDb2dPolyline
 66
     1
 10
0.0
 20
0.0
 30
0.0
  0
VERTEX
  5
565
330
564
100
AcDbEntity
  8
BEMAßUNG
 62
     7
100
AcDbVertex
100
AcDb2dVertex
 10
11.52418890770923
 20
26.78889023852847
 30
0.0
  0
VERTEX
  5
566
330
564
100
AcDbEntity
  8
BEMAßUNG
 62
     7
100
AcDbVertex
100
AcDb2dVertex
 10
8.796190047714147
 20
26.78889023852847
 30
0.0
  0
SEQEND
  5
567
330
564
100
AcDbEntity
  8
BEMAßUNG
  0
POLYLINE
  5
568
330
1F
100
AcDbEntity
  8
BEMAßUNG
 62
     7
100
AcDb2dPolyline
 66
     1
 10
0.0
 20
0.0
 30
0.0
  0
VERTEX
  5
569
330
568
100
AcDbEntity
  8
BEMAßUNG
 62
     7
100
AcDbVertex
100
AcDb2dVertex
 10
11.52418890770923
 20
26.73807508012104
 30
0.0
  0
VERTEX
  5
56A
330
568
100
AcDbEntity
  8
BEMAßUNG
 62
     7
100
AcDbVertex
100
AcDb2dVertex
 10
8.410167098591904
 20
26.73807508012104
 30
0.0
  0
SEQEND
  5
56B
330
568
100
AcDbEntity
  8
BEMAßUNG
  0
POLYLINE
  5
56C
330
1F
100
AcDbEntity
  8
BEMAßUNG
 62
     7
100
AcDb2dPolyline
 66
     1
 10
0.0
 20
0.0
 30
0.0
  0
VERTEX
  5
56D
330
56C
100
AcDbEntity
  8
BEMAßUNG
 62
     7
100
AcDbVertex
100
AcDb2dVertex
 10
11.52418890770923
 20
26.6872599217136
 30
0.0
  0
VERTEX
  5
56E
330
56C
100
AcDbEntity
  8
BEMAßUNG
 62
     7
100
AcDbVertex
100
AcDb2dVertex
 10
8.02431640424392
 20
26.6872599217136
 30
0.0
  0
SEQEND
  5
56F
330
56C
100
AcDbEntity
  8
BEMAßUNG
  0
POLYLINE
  5
570
330
1F
100
AcDbEntity
  8
BEMAßUNG
 62
     7
100
AcDb2dPolyline
 66
     1
 10
0.0
 20
0.0
 30
0.0
  0
VERTEX
  5
571
330
570
100
AcDbEntity
  8
BEMAßUNG
 62
     7
100
AcDbVertex
100
AcDb2dVertex
 10
18.02439506927863
 20
26.6872599217136
 30
0.0
  0
VERTEX
  5
572
330
570
100
AcDbEntity
  8
BEMAßUNG
 62
     7
100
AcDbVertex
100
AcDb2dVertex
 10
14.52452256581331
 20
27.14838595241429
 30
0.0
  0
VERTEX
  5
573
330
570
100
AcDbEntity
  8
BEMAßUNG
 62
     7
100
AcDbVertex
100
AcDb2dVertex
 10
14.52452256581331
 20
26.22699516488423
 30
0.0
  0
VERTEX
  5
574
330
570
100
AcDbEntity
  8
BEMAßUNG
 62
     7
100
AcDbVertex
100
AcDb2dVertex
 10
18.02439506927863
 20
26.6872599217136
 30
0.0
  0
SEQEND
  5
575
330
570
100
AcDbEntity
  8
BEMAßUNG
  0
POLYLINE
  5
576
330
1F
100
AcDbEntity
  8
BEMAßUNG
 62
     7
100
AcDb2dPolyline
 66
     1
 10
0.0
 20
0.0
 30
0.0
  0
VERTEX
  5
577
330
576
100
AcDbEntity
  8
BEMAßUNG
 62
     7
100
AcDbVertex
100
AcDb2dVertex
 10
14.52452256581331
 20
27.14476860215478
 30
0.0
  0
VERTEX
  5
578
330
576
100
AcDbEntity
  8
BEMAßUNG
 62
     7
100
AcDbVertex
100
AcDb2dVertex
 10
14.55173882014679
 20
27.14476860215478
 30
0.0
  0
SEQEND
  5
579
330
576
100
AcDbEntity
  8
BEMAßUNG
  0
POLYLINE
  5
57A
330
1F
100
AcDbEntity
  8
BEMAßUNG
 62
     7
100
AcDb2dPolyline
 66
     1
 10
0.0
 20
0.0
 30
0.0
  0
VERTEX
  5
57B
330
57A
100
AcDbEntity
  8
BEMAßUNG
 62
     7
100
AcDbVertex
100
AcDb2dVertex
 10
14.52452256581331
 20
27.14476860215478
 30
0.0
  0
VERTEX
  5
57C
330
57A
100
AcDbEntity
  8
BEMAßUNG
 62
     7
100
AcDbVertex
100
AcDb2dVertex
 10
14.55173882014679
 20
27.14476860215478
 30
0.0
  0
SEQEND
  5
57D
330
57A
100
AcDbEntity
  8
BEMAßUNG
  0
POLYLINE
  5
57E
330
1F
100
AcDbEntity
  8
BEMAßUNG
 62
     7
100
AcDb2dPolyline
 66
     1
 10
0.0
 20
0.0
 30
0.0
  0
VERTEX
  5
57F
330
57E
100
AcDbEntity
  8
BEMAßUNG
 62
     7
100
AcDbVertex
100
AcDb2dVertex
 10
14.52452256581331
 20
27.09412569852161
 30
0.0
  0
VERTEX
  5
580
330
57E
100
AcDbEntity
  8
BEMAßUNG
 62
     7
100
AcDbVertex
100
AcDb2dVertex
 10
14.93758951449477
 20
27.09412569852161
 30
0.0
  0
SEQEND
  5
581
330
57E
100
AcDbEntity
  8
BEMAßUNG
  0
POLYLINE
  5
582
330
1F
100
AcDbEntity
  8
BEMAßUNG
 62
     7
100
AcDb2dPolyline
 66
     1
 10
0.0
 20
0.0
 30
0.0
  0
VERTEX
  5
583
330
582
100
AcDbEntity
  8
BEMAßUNG
 62
     7
100
AcDbVertex
100
AcDb2dVertex
 10
14.52452256581331
 20
27.04331054011417
 30
0.0
  0
VERTEX
  5
584
330
582
100
AcDbEntity
  8
BEMAßUNG
 62
     7
100
AcDbVertex
100
AcDb2dVertex
 10
15.32326795406849
 20
27.04331054011417
 30
0.0
  0
SEQEND
  5
585
330
582
100
AcDbEntity
  8
BEMAßUNG
  0
POLYLINE
  5
586
330
1F
100
AcDbEntity
  8
BEMAßUNG
 62
     7
100
AcDb2dPolyline
 66
     1
 10
0.0
 20
0.0
 30
0.0
  0
VERTEX
  5
587
330
586
100
AcDbEntity
  8
BEMAßUNG
 62
     7
100
AcDbVertex
100
AcDb2dVertex
 10
14.52452256581331
 20
26.99249538170674
 30
0.0
  0
VERTEX
  5
588
330
586
100
AcDbEntity
  8
BEMAßUNG
 62
     7
100
AcDbVertex
100
AcDb2dVertex
 10
15.70911864841647
 20
26.99249538170674
 30
0.0
  0
SEQEND
  5
589
330
586
100
AcDbEntity
  8
BEMAßUNG
  0
POLYLINE
  5
58A
330
1F
100
AcDbEntity
  8
BEMAßUNG
 62
     7
100
AcDb2dPolyline
 66
     1
 10
0.0
 20
0.0
 30
0.0
  0
VERTEX
  5
58B
330
58A
100
AcDbEntity
  8
BEMAßUNG
 62
     7
100
AcDbVertex
100
AcDb2dVertex
 10
14.52452256581331
 20
26.94133571375078
 30
0.0
  0
VERTEX
  5
58C
330
58A
100
AcDbEntity
  8
BEMAßUNG
 62
     7
100
AcDbVertex
100
AcDb2dVertex
 10
16.09514159753872
 20
26.94133571375078
 30
0.0
  0
SEQEND
  5
58D
330
58A
100
AcDbEntity
  8
BEMAßUNG
  0
POLYLINE
  5
58E
330
1F
100
AcDbEntity
  8
BEMAßUNG
 62
     7
100
AcDb2dPolyline
 66
     1
 10
0.0
 20
0.0
 30
0.0
  0
VERTEX
  5
58F
330
58E
100
AcDbEntity
  8
BEMAßUNG
 62
     7
100
AcDbVertex
100
AcDb2dVertex
 10
14.52452256581331
 20
26.89052055534334
 30
0.0
  0
VERTEX
  5
590
330
58E
100
AcDbEntity
  8
BEMAßUNG
 62
     7
100
AcDbVertex
100
AcDb2dVertex
 10
16.4809922918867
 20
26.89052055534334
 30
0.0
  0
SEQEND
  5
591
330
58E
100
AcDbEntity
  8
BEMAßUNG
  0
POLYLINE
  5
592
330
1F
100
AcDbEntity
  8
BEMAßUNG
 62
     7
100
AcDb2dPolyline
 66
     1
 10
0.0
 20
0.0
 30
0.0
  0
VERTEX
  5
593
330
592
100
AcDbEntity
  8
BEMAßUNG
 62
     7
100
AcDbVertex
100
AcDb2dVertex
 10
14.52452256581331
 20
26.83970539693591
 30
0.0
  0
VERTEX
  5
594
330
592
100
AcDbEntity
  8
BEMAßUNG
 62
     7
100
AcDbVertex
100
AcDb2dVertex
 10
16.86667073146042
 20
26.83970539693591
 30
0.0
  0
SEQEND
  5
595
330
592
100
AcDbEntity
  8
BEMAßUNG
  0
POLYLINE
  5
596
330
1F
100
AcDbEntity
  8
BEMAßUNG
 62
     7
100
AcDb2dPolyline
 66
     1
 10
0.0
 20
0.0
 30
0.0
  0
VERTEX
  5
597
330
596
100
AcDbEntity
  8
BEMAßUNG
 62
     7
100
AcDbVertex
100
AcDb2dVertex
 10
14.52452256581331
 20
26.78889023852847
 30
0.0
  0
VERTEX
  5
598
330
596
100
AcDbEntity
  8
BEMAßUNG
 62
     7
100
AcDbVertex
100
AcDb2dVertex
 10
17.2525214258084
 20
26.78889023852847
 30
0.0
  0
SEQEND
  5
599
330
596
100
AcDbEntity
  8
BEMAßUNG
  0
POLYLINE
  5
59A
330
1F
100
AcDbEntity
  8
BEMAßUNG
 62
     7
100
AcDb2dPolyline
 66
     1
 10
0.0
 20
0.0
 30
0.0
  0
VERTEX
  5
59B
330
59A
100
AcDbEntity
  8
BEMAßUNG
 62
     7
100
AcDbVertex
100
AcDb2dVertex
 10
14.52452256581331
 20
26.73807508012104
 30
0.0
  0
VERTEX
  5
59C
330
59A
100
AcDbEntity
  8
BEMAßUNG
 62
     7
100
AcDbVertex
100
AcDb2dVertex
 10
17.63854437493064
 20
26.73807508012104
 30
0.0
  0
SEQEND
  5
59D
330
59A
100
AcDbEntity
  8
BEMAßUNG
  0
POLYLINE
  5
59E
330
1F
100
AcDbEntity
  8
BEMAßUNG
 62
     7
100
AcDb2dPolyline
 66
     1
 10
0.0
 20
0.0
 30
0.0
  0
VERTEX
  5
59F
330
59E
100
AcDbEntity
  8
BEMAßUNG
 62
     7
100
AcDbVertex
100
AcDb2dVertex
 10
14.52452256581331
 20
26.6872599217136
 30
0.0
  0
VERTEX
  5
5A0
330
59E
100
AcDbEntity
  8
BEMAßUNG
 62
     7
100
AcDbVertex
100
AcDb2dVertex
 10
18.02439506927863
 20
26.6872599217136
 30
0.0
  0
SEQEND
  5
5A1
330
59E
100
AcDbEntity
  8
BEMAßUNG
  0
POLYLINE
  5
5A2
330
1F
100
AcDbEntity
  8
BEMAßUNG
 62
     7
100
AcDb2dPolyline
 66
     1
 10
0.0
 20
0.0
 30
0.0
  0
VERTEX
  5
5A3
330
5A2
100
AcDbEntity
  8
BEMAßUNG
 62
     7
100
AcDbVertex
100
AcDb2dVertex
 10
14.52452256581331
 20
26.23044026036947
 30
0.0
  0
VERTEX
  5
5A4
330
5A2
100
AcDbEntity
  8
BEMAßUNG
 62
     7
100
AcDbVertex
100
AcDb2dVertex
 10
14.55173882014679
 20
26.23044026036947
 30
0.0
  0
SEQEND
  5
5A5
330
5A2
100
AcDbEntity
  8
BEMAßUNG
  0
POLYLINE
  5
5A6
330
1F
100
AcDbEntity
  8
BEMAßUNG
 62
     7
100
AcDb2dPolyline
 66
     1
 10
0.0
 20
0.0
 30
0.0
  0
VERTEX
  5
5A7
330
5A6
100
AcDbEntity
  8
BEMAßUNG
 62
     7
100
AcDbVertex
100
AcDb2dVertex
 10
14.52452256581331
 20
26.23044026036947
 30
0.0
  0
VERTEX
  5
5A8
330
5A6
100
AcDbEntity
  8
BEMAßUNG
 62
     7
100
AcDbVertex
100
AcDb2dVertex
 10
14.55173882014679
 20
26.23044026036947
 30
0.0
  0
SEQEND
  5
5A9
330
5A6
100
AcDbEntity
  8
BEMAßUNG
  0
POLYLINE
  5
5AA
330
1F
100
AcDbEntity
  8
BEMAßUNG
 62
     7
100
AcDb2dPolyline
 66
     1
 10
0.0
 20
0.0
 30
0.0
  0
VERTEX
  5
5AB
330
5AA
100
AcDbEntity
  8
BEMAßUNG
 62
     7
100
AcDbVertex
100
AcDb2dVertex
 10
14.52452256581331
 20
26.28125541877691
 30
0.0
  0
VERTEX
  5
5AC
330
5AA
100
AcDbEntity
  8
BEMAßUNG
 62
     7
100
AcDbVertex
100
AcDb2dVertex
 10
14.93758951449477
 20
26.28125541877691
 30
0.0
  0
SEQEND
  5
5AD
330
5AA
100
AcDbEntity
  8
BEMAßUNG
  0
POLYLINE
  5
5AE
330
1F
100
AcDbEntity
  8
BEMAßUNG
 62
     7
100
AcDb2dPolyline
 66
     1
 10
0.0
 20
0.0
 30
0.0
  0
VERTEX
  5
5AF
330
5AE
100
AcDbEntity
  8
BEMAßUNG
 62
     7
100
AcDbVertex
100
AcDb2dVertex
 10
14.52452256581331
 20
26.33207057718435
 30
0.0
  0
VERTEX
  5
5B0
330
5AE
100
AcDbEntity
  8
BEMAßUNG
 62
     7
100
AcDbVertex
100
AcDb2dVertex
 10
15.32326795406849
 20
26.33207057718435
 30
0.0
  0
SEQEND
  5
5B1
330
5AE
100
AcDbEntity
  8
BEMAßUNG
  0
POLYLINE
  5
5B2
330
1F
100
AcDbEntity
  8
BEMAßUNG
 62
     7
100
AcDb2dPolyline
 66
     1
 10
0.0
 20
0.0
 30
0.0
  0
VERTEX
  5
5B3
330
5B2
100
AcDbEntity
  8
BEMAßUNG
 62
     7
100
AcDbVertex
100
AcDb2dVertex
 10
14.52452256581331
 20
26.38288573559178
 30
0.0
  0
VERTEX
  5
5B4
330
5B2
100
AcDbEntity
  8
BEMAßUNG
 62
     7
100
AcDbVertex
100
AcDb2dVertex
 10
15.70911864841647
 20
26.38288573559178
 30
0.0
  0
SEQEND
  5
5B5
330
5B2
100
AcDbEntity
  8
BEMAßUNG
  0
POLYLINE
  5
5B6
330
1F
100
AcDbEntity
  8
BEMAßUNG
 62
     7
100
AcDb2dPolyline
 66
     1
 10
0.0
 20
0.0
 30
0.0
  0
VERTEX
  5
5B7
330
5B6
100
AcDbEntity
  8
BEMAßUNG
 62
     7
100
AcDbVertex
100
AcDb2dVertex
 10
14.52452256581331
 20
26.43335638445069
 30
0.0
  0
VERTEX
  5
5B8
330
5B6
100
AcDbEntity
  8
BEMAßUNG
 62
     7
100
AcDbVertex
100
AcDb2dVertex
 10
16.09514159753872
 20
26.43335638445069
 30
0.0
  0
SEQEND
  5
5B9
330
5B6
100
AcDbEntity
  8
BEMAßUNG
  0
POLYLINE
  5
5BA
330
1F
100
AcDbEntity
  8
BEMAßUNG
 62
     7
100
AcDb2dPolyline
 66
     1
 10
0.0
 20
0.0
 30
0.0
  0
VERTEX
  5
5BB
330
5BA
100
AcDbEntity
  8
BEMAßUNG
 62
     7
100
AcDbVertex
100
AcDb2dVertex
 10
14.52452256581331
 20
26.48399928808386
 30
0.0
  0
VERTEX
  5
5BC
330
5BA
100
AcDbEntity
  8
BEMAßUNG
 62
     7
100
AcDbVertex
100
AcDb2dVertex
 10
16.4809922918867
 20
26.48399928808386
 30
0.0
  0
SEQEND
  5
5BD
330
5BA
100
AcDbEntity
  8
BEMAßUNG
  0
POLYLINE
  5
5BE
330
1F
100
AcDbEntity
  8
BEMAßUNG
 62
     7
100
AcDb2dPolyline
 66
     1
 10
0.0
 20
0.0
 30
0.0
  0
VERTEX
  5
5BF
330
5BE
100
AcDbEntity
  8
BEMAßUNG
 62
     7
100
AcDbVertex
100
AcDb2dVertex
 10
14.52452256581331
 20
26.53498670126556
 30
0.0
  0
VERTEX
  5
5C0
330
5BE
100
AcDbEntity
  8
BEMAßUNG
 62
     7
100
AcDbVertex
100
AcDb2dVertex
 10
16.86667073146042
 20
26.53498670126556
 30
0.0
  0
SEQEND
  5
5C1
330
5BE
100
AcDbEntity
  8
BEMAßUNG
  0
POLYLINE
  5
5C2
330
1F
100
AcDbEntity
  8
BEMAßUNG
 62
     7
100
AcDb2dPolyline
 66
     1
 10
0.0
 20
0.0
 30
0.0
  0
VERTEX
  5
5C3
330
5C2
100
AcDbEntity
  8
BEMAßUNG
 62
     7
100
AcDbVertex
100
AcDb2dVertex
 10
14.52452256581331
 20
26.58562960489873
 30
0.0
  0
VERTEX
  5
5C4
330
5C2
100
AcDbEntity
  8
BEMAßUNG
 62
     7
100
AcDbVertex
100
AcDb2dVertex
 10
17.2525214258084
 20
26.58562960489873
 30
0.0
  0
SEQEND
  5
5C5
330
5C2
100
AcDbEntity
  8
BEMAßUNG
  0
POLYLINE
  5
5C6
330
1F
100
AcDbEntity
  8
BEMAßUNG
 62
     7
100
AcDb2dPolyline
 66
     1
 10
0.0
 20
0.0
 30
0.0
  0
VERTEX
  5
5C7
330
5C6
100
AcDbEntity
  8
BEMAßUNG
 62
     7
100
AcDbVertex
100
AcDb2dVertex
 10
14.52452256581331
 20
26.63661701808043
 30
0.0
  0
VERTEX
  5
5C8
330
5C6
100
AcDbEntity
  8
BEMAßUNG
 62
     7
100
AcDbVertex
100
AcDb2dVertex
 10
17.63854437493064
 20
26.63661701808043
 30
0.0
  0
SEQEND
  5
5C9
330
5C6
100
AcDbEntity
  8
BEMAßUNG
  0
POLYLINE
  5
5CA
330
1F
100
AcDbEntity
  8
BEMAßUNG
 62
     7
100
AcDb2dPolyline
 66
     1
 10
0.0
 20
0.0
 30
0.0
  0
VERTEX
  5
5CB
330
5CA
100
AcDbEntity
  8
BEMAßUNG
 62
     7
100
AcDbVertex
100
AcDb2dVertex
 10
14.52452256581331
 20
26.6872599217136
 30
0.0
  0
VERTEX
  5
5CC
330
5CA
100
AcDbEntity
  8
BEMAßUNG
 62
     7
100
AcDbVertex
100
AcDb2dVertex
 10
18.02439506927863
 20
26.6872599217136
 30
0.0
  0
SEQEND
  5
5CD
330
5CA
100
AcDbEntity
  8
BEMAßUNG
  0
POLYLINE
  5
5CE
330
1F
100
AcDbEntity
  8
BEMAßUNG
 62
     7
100
AcDb2dPolyline
 66
     1
 10
0.0
 20
0.0
 30
0.0
  0
VERTEX
  5
5CF
330
5CE
100
AcDbEntity
  8
BEMAßUNG
 62
     7
100
AcDbVertex
100
AcDb2dVertex
 10
42.02430825772309
 20
2.198315429137921
 30
0.0
  0
VERTEX
  5
5D0
330
5CE
100
AcDbEntity
  8
BEMAßUNG
 62
     7
100
AcDbVertex
100
AcDb2dVertex
 10
42.02430825772309
 20
28.68782686999818
 30
0.0
  0
SEQEND
  5
5D1
330
5CE
100
AcDbEntity
  8
BEMAßUNG
  0
POLYLINE
  5
5D2
330
1F
100
AcDbEntity
  8
BEMAßUNG
 62
     7
100
AcDb2dPolyline
 66
     1
 10
0.0
 20
0.0
 30
0.0
  0
VERTEX
  5
5D3
330
5D2
100
AcDbEntity
  8
BEMAßUNG
 62
     7
100
AcDbVertex
100
AcDb2dVertex
 10
18.02439506927863
 20
26.6872599217136
 30
0.0
  0
VERTEX
  5
5D4
330
5D2
100
AcDbEntity
  8
BEMAßUNG
 62
     7
100
AcDbVertex
100
AcDb2dVertex
 10
42.02430825772309
 20
26.6872599217136
 30
0.0
  0
SEQEND
  5
5D5
330
5D2
100
AcDbEntity
  8
BEMAßUNG
  0
POLYLINE
  5
5D6
330
1F
100
AcDbEntity
  8
BEMAßUNG
 62
     7
100
AcDb2dPolyline
 66
     1
 10
0.0
 20
0.0
 30
0.0
  0
VERTEX
  5
5D7
330
5D6
100
AcDbEntity
  8
BEMAßUNG
 62
     7
100
AcDbVertex
100
AcDb2dVertex
 10
18.02439506927863
 20
26.6872599217136
 30
0.0
  0
VERTEX
  5
5D8
330
5D6
100
AcDbEntity
  8
BEMAßUNG
 62
     7
100
AcDbVertex
100
AcDb2dVertex
 10
21.52392306319541
 20
26.22699516488423
 30
0.0
  0
VERTEX
  5
5D9
330
5D6
100
AcDbEntity
  8
BEMAßUNG
 62
     7
100
AcDbVertex
100
AcDb2dVertex
 10
21.52392306319541
 20
27.14838595241429
 30
0.0
  0
VERTEX
  5
5DA
330
5D6
100
AcDbEntity
  8
BEMAßUNG
 62
     7
100
AcDbVertex
100
AcDb2dVertex
 10
18.02439506927863
 20
26.6872599217136
 30
0.0
  0
SEQEND
  5
5DB
330
5D6
100
AcDbEntity
  8
BEMAßUNG
  0
POLYLINE
  5
5DC
330
1F
100
AcDbEntity
  8
BEMAßUNG
 62
     7
100
AcDb2dPolyline
 66
     1
 10
0.0
 20
0.0
 30
0.0
  0
VERTEX
  5
5DD
330
5DC
100
AcDbEntity
  8
BEMAßUNG
 62
     7
100
AcDbVertex
100
AcDb2dVertex
 10
21.52392306319541
 20
26.23044026036947
 30
0.0
  0
VERTEX
  5
5DE
330
5DC
100
AcDbEntity
  8
BEMAßUNG
 62
     7
100
AcDbVertex
100
AcDb2dVertex
 10
21.49722357318472
 20
26.23044026036947
 30
0.0
  0
SEQEND
  5
5DF
330
5DC
100
AcDbEntity
  8
BEMAßUNG
  0
POLYLINE
  5
5E0
330
1F
100
AcDbEntity
  8
BEMAßUNG
 62
     7
100
AcDb2dPolyline
 66
     1
 10
0.0
 20
0.0
 30
0.0
  0
VERTEX
  5
5E1
330
5E0
100
AcDbEntity
  8
BEMAßUNG
 62
     7
100
AcDbVertex
100
AcDb2dVertex
 10
21.52392306319541
 20
26.23044026036947
 30
0.0
  0
VERTEX
  5
5E2
330
5E0
100
AcDbEntity
  8
BEMAßUNG
 62
     7
100
AcDbVertex
100
AcDb2dVertex
 10
21.49722357318472
 20
26.23044026036947
 30
0.0
  0
SEQEND
  5
5E3
330
5E0
100
AcDbEntity
  8
BEMAßUNG
  0
POLYLINE
  5
5E4
330
1F
100
AcDbEntity
  8
BEMAßUNG
 62
     7
100
AcDb2dPolyline
 66
     1
 10
0.0
 20
0.0
 30
0.0
  0
VERTEX
  5
5E5
330
5E4
100
AcDbEntity
  8
BEMAßUNG
 62
     7
100
AcDbVertex
100
AcDb2dVertex
 10
21.52392306319541
 20
26.28125541877691
 30
0.0
  0
VERTEX
  5
5E6
330
5E4
100
AcDbEntity
  8
BEMAßUNG
 62
     7
100
AcDbVertex
100
AcDb2dVertex
 10
21.11120062406248
 20
26.28125541877691
 30
0.0
  0
SEQEND
  5
5E7
330
5E4
100
AcDbEntity
  8
BEMAßUNG
  0
POLYLINE
  5
5E8
330
1F
100
AcDbEntity
  8
BEMAßUNG
 62
     7
100
AcDb2dPolyline
 66
     1
 10
0.0
 20
0.0
 30
0.0
  0
VERTEX
  5
5E9
330
5E8
100
AcDbEntity
  8
BEMAßUNG
 62
     7
100
AcDbVertex
100
AcDb2dVertex
 10
21.52392306319541
 20
26.33207057718435
 30
0.0
  0
VERTEX
  5
5EA
330
5E8
100
AcDbEntity
  8
BEMAßUNG
 62
     7
100
AcDbVertex
100
AcDb2dVertex
 10
20.7253499297145
 20
26.33207057718435
 30
0.0
  0
SEQEND
  5
5EB
330
5E8
100
AcDbEntity
  8
BEMAßUNG
  0
POLYLINE
  5
5EC
330
1F
100
AcDbEntity
  8
BEMAßUNG
 62
     7
100
AcDb2dPolyline
 66
     1
 10
0.0
 20
0.0
 30
0.0
  0
VERTEX
  5
5ED
330
5EC
100
AcDbEntity
  8
BEMAßUNG
 62
     7
100
AcDbVertex
100
AcDb2dVertex
 10
21.52392306319541
 20
26.38288573559178
 30
0.0
  0
VERTEX
  5
5EE
330
5EC
100
AcDbEntity
  8
BEMAßUNG
 62
     7
100
AcDbVertex
100
AcDb2dVertex
 10
20.33932698059225
 20
26.38288573559178
 30
0.0
  0
SEQEND
  5
5EF
330
5EC
100
AcDbEntity
  8
BEMAßUNG
  0
POLYLINE
  5
5F0
330
1F
100
AcDbEntity
  8
BEMAßUNG
 62
     7
100
AcDb2dPolyline
 66
     1
 10
0.0
 20
0.0
 30
0.0
  0
VERTEX
  5
5F1
330
5F0
100
AcDbEntity
  8
BEMAßUNG
 62
     7
100
AcDbVertex
100
AcDb2dVertex
 10
21.52392306319541
 20
26.43335638445069
 30
0.0
  0
VERTEX
  5
5F2
330
5F0
100
AcDbEntity
  8
BEMAßUNG
 62
     7
100
AcDbVertex
100
AcDb2dVertex
 10
19.9538207957928
 20
26.43335638445069
 30
0.0
  0
SEQEND
  5
5F3
330
5F0
100
AcDbEntity
  8
BEMAßUNG
  0
POLYLINE
  5
5F4
330
1F
100
AcDbEntity
  8
BEMAßUNG
 62
     7
100
AcDb2dPolyline
 66
     1
 10
0.0
 20
0.0
 30
0.0
  0
VERTEX
  5
5F5
330
5F4
100
AcDbEntity
  8
BEMAßUNG
 62
     7
100
AcDbVertex
100
AcDb2dVertex
 10
21.52392306319541
 20
26.48399928808386
 30
0.0
  0
VERTEX
  5
5F6
330
5F4
100
AcDbEntity
  8
BEMAßUNG
 62
     7
100
AcDbVertex
100
AcDb2dVertex
 10
19.56779784667055
 20
26.48399928808386
 30
0.0
  0
SEQEND
  5
5F7
330
5F4
100
AcDbEntity
  8
BEMAßUNG
  0
POLYLINE
  5
5F8
330
1F
100
AcDbEntity
  8
BEMAßUNG
 62
     7
100
AcDb2dPolyline
 66
     1
 10
0.0
 20
0.0
 30
0.0
  0
VERTEX
  5
5F9
330
5F8
100
AcDbEntity
  8
BEMAßUNG
 62
     7
100
AcDbVertex
100
AcDb2dVertex
 10
21.52392306319541
 20
26.53498670126556
 30
0.0
  0
VERTEX
  5
5FA
330
5F8
100
AcDbEntity
  8
BEMAßUNG
 62
     7
100
AcDbVertex
100
AcDb2dVertex
 10
19.18194715232257
 20
26.53498670126556
 30
0.0
  0
SEQEND
  5
5FB
330
5F8
100
AcDbEntity
  8
BEMAßUNG
  0
POLYLINE
  5
5FC
330
1F
100
AcDbEntity
  8
BEMAßUNG
 62
     7
100
AcDb2dPolyline
 66
     1
 10
0.0
 20
0.0
 30
0.0
  0
VERTEX
  5
5FD
330
5FC
100
AcDbEntity
  8
BEMAßUNG
 62
     7
100
AcDbVertex
100
AcDb2dVertex
 10
21.52392306319541
 20
26.58562960489873
 30
0.0
  0
VERTEX
  5
5FE
330
5FC
100
AcDbEntity
  8
BEMAßUNG
 62
     7
100
AcDbVertex
100
AcDb2dVertex
 10
18.79592420320033
 20
26.58562960489873
 30
0.0
  0
SEQEND
  5
5FF
330
5FC
100
AcDbEntity
  8
BEMAßUNG
  0
POLYLINE
  5
600
330
1F
100
AcDbEntity
  8
BEMAßUNG
 62
     7
100
AcDb2dPolyline
 66
     1
 10
0.0
 20
0.0
 30
0.0
  0
VERTEX
  5
601
330
600
100
AcDbEntity
  8
BEMAßUNG
 62
     7
100
AcDbVertex
100
AcDb2dVertex
 10
21.52392306319541
 20
26.63661701808043
 30
0.0
  0
VERTEX
  5
602
330
600
100
AcDbEntity
  8
BEMAßUNG
 62
     7
100
AcDbVertex
100
AcDb2dVertex
 10
18.41041801840087
 20
26.63661701808043
 30
0.0
  0
SEQEND
  5
603
330
600
100
AcDbEntity
  8
BEMAßUNG
  0
POLYLINE
  5
604
330
1F
100
AcDbEntity
  8
BEMAßUNG
 62
     7
100
AcDb2dPolyline
 66
     1
 10
0.0
 20
0.0
 30
0.0
  0
VERTEX
  5
605
330
604
100
AcDbEntity
  8
BEMAßUNG
 62
     7
100
AcDbVertex
100
AcDb2dVertex
 10
21.52392306319541
 20
26.6872599217136
 30
0.0
  0
VERTEX
  5
606
330
604
100
AcDbEntity
  8
BEMAßUNG
 62
     7
100
AcDbVertex
100
AcDb2dVertex
 10
18.02439506927863
 20
26.6872599217136
 30
0.0
  0
SEQEND
  5
607
330
604
100
AcDbEntity
  8
BEMAßUNG
  0
POLYLINE
  5
608
330
1F
100
AcDbEntity
  8
BEMAßUNG
 62
     7
100
AcDb2dPolyline
 66
     1
 10
0.0
 20
0.0
 30
0.0
  0
VERTEX
  5
609
330
608
100
AcDbEntity
  8
BEMAßUNG
 62
     7
100
AcDbVertex
100
AcDb2dVertex
 10
21.52392306319541
 20
27.14476860215478
 30
0.0
  0
VERTEX
  5
60A
330
608
100
AcDbEntity
  8
BEMAßUNG
 62
     7
100
AcDbVertex
100
AcDb2dVertex
 10
21.49722357318472
 20
27.14476860215478
 30
0.0
  0
SEQEND
  5
60B
330
608
100
AcDbEntity
  8
BEMAßUNG
  0
POLYLINE
  5
60C
330
1F
100
AcDbEntity
  8
BEMAßUNG
 62
     7
100
AcDb2dPolyline
 66
     1
 10
0.0
 20
0.0
 30
0.0
  0
VERTEX
  5
60D
330
60C
100
AcDbEntity
  8
BEMAßUNG
 62
     7
100
AcDbVertex
100
AcDb2dVertex
 10
21.52392306319541
 20
27.14476860215478
 30
0.0
  0
VERTEX
  5
60E
330
60C
100
AcDbEntity
  8
BEMAßUNG
 62
     7
100
AcDbVertex
100
AcDb2dVertex
 10
21.49722357318472
 20
27.14476860215478
 30
0.0
  0
SEQEND
  5
60F
330
60C
100
AcDbEntity
  8
BEMAßUNG
  0
POLYLINE
  5
610
330
1F
100
AcDbEntity
  8
BEMAßUNG
 62
     7
100
AcDb2dPolyline
 66
     1
 10
0.0
 20
0.0
 30
0.0
  0
VERTEX
  5
611
330
610
100
AcDbEntity
  8
BEMAßUNG
 62
     7
100
AcDbVertex
100
AcDb2dVertex
 10
21.52392306319541
 20
27.09412569852161
 30
0.0
  0
VERTEX
  5
612
330
610
100
AcDbEntity
  8
BEMAßUNG
 62
     7
100
AcDbVertex
100
AcDb2dVertex
 10
21.11120062406248
 20
27.09412569852161
 30
0.0
  0
SEQEND
  5
613
330
610
100
AcDbEntity
  8
BEMAßUNG
  0
POLYLINE
  5
614
330
1F
100
AcDbEntity
  8
BEMAßUNG
 62
     7
100
AcDb2dPolyline
 66
     1
 10
0.0
 20
0.0
 30
0.0
  0
VERTEX
  5
615
330
614
100
AcDbEntity
  8
BEMAßUNG
 62
     7
100
AcDbVertex
100
AcDb2dVertex
 10
21.52392306319541
 20
27.04331054011417
 30
0.0
  0
VERTEX
  5
616
330
614
100
AcDbEntity
  8
BEMAßUNG
 62
     7
100
AcDbVertex
100
AcDb2dVertex
 10
20.7253499297145
 20
27.04331054011417
 30
0.0
  0
SEQEND
  5
617
330
614
100
AcDbEntity
  8
BEMAßUNG
  0
POLYLINE
  5
618
330
1F
100
AcDbEntity
  8
BEMAßUNG
 62
     7
100
AcDb2dPolyline
 66
     1
 10
0.0
 20
0.0
 30
0.0
  0
VERTEX
  5
619
330
618
100
AcDbEntity
  8
BEMAßUNG
 62
     7
100
AcDbVertex
100
AcDb2dVertex
 10
21.52392306319541
 20
26.99249538170674
 30
0.0
  0
VERTEX
  5
61A
330
618
100
AcDbEntity
  8
BEMAßUNG
 62
     7
100
AcDbVertex
100
AcDb2dVertex
 10
20.33932698059225
 20
26.99249538170674
 30
0.0
  0
SEQEND
  5
61B
330
618
100
AcDbEntity
  8
BEMAßUNG
  0
POLYLINE
  5
61C
330
1F
100
AcDbEntity
  8
BEMAßUNG
 62
     7
100
AcDb2dPolyline
 66
     1
 10
0.0
 20
0.0
 30
0.0
  0
VERTEX
  5
61D
330
61C
100
AcDbEntity
  8
BEMAßUNG
 62
     7
100
AcDbVertex
100
AcDb2dVertex
 10
21.52392306319541
 20
26.94133571375078
 30
0.0
  0
VERTEX
  5
61E
330
61C
100
AcDbEntity
  8
BEMAßUNG
 62
     7
100
AcDbVertex
100
AcDb2dVertex
 10
19.9538207957928
 20
26.94133571375078
 30
0.0
  0
SEQEND
  5
61F
330
61C
100
AcDbEntity
  8
BEMAßUNG
  0
POLYLINE
  5
620
330
1F
100
AcDbEntity
  8
BEMAßUNG
 62
     7
100
AcDb2dPolyline
 66
     1
 10
0.0
 20
0.0
 30
0.0
  0
VERTEX
  5
621
330
620
100
AcDbEntity
  8
BEMAßUNG
 62
     7
100
AcDbVertex
100
AcDb2dVertex
 10
21.52392306319541
 20
26.89052055534334
 30
0.0
  0
VERTEX
  5
622
330
620
100
AcDbEntity
  8
BEMAßUNG
 62
     7
100
AcDbVertex
100
AcDb2dVertex
 10
19.56779784667055
 20
26.89052055534334
 30
0.0
  0
SEQEND
  5
623
330
620
100
AcDbEntity
  8
BEMAßUNG
  0
POLYLINE
  5
624
330
1F
100
AcDbEntity
  8
BEMAßUNG
 62
     7
100
AcDb2dPolyline
 66
     1
 10
0.0
 20
0.0
 30
0.0
  0
VERTEX
  5
625
330
624
100
AcDbEntity
  8
BEMAßUNG
 62
     7
100
AcDbVertex
100
AcDb2dVertex
 10
21.52392306319541
 20
26.83970539693591
 30
0.0
  0
VERTEX
  5
626
330
624
100
AcDbEntity
  8
BEMAßUNG
 62
     7
100
AcDbVertex
100
AcDb2dVertex
 10
19.18194715232257
 20
26.83970539693591
 30
0.0
  0
SEQEND
  5
627
330
624
100
AcDbEntity
  8
BEMAßUNG
  0
POLYLINE
  5
628
330
1F
100
AcDbEntity
  8
BEMAßUNG
 62
     7
100
AcDb2dPolyline
 66
     1
 10
0.0
 20
0.0
 30
0.0
  0
VERTEX
  5
629
330
628
100
AcDbEntity
  8
BEMAßUNG
 62
     7
100
AcDbVertex
100
AcDb2dVertex
 10
21.52392306319541
 20
26.78889023852847
 30
0.0
  0
VERTEX
  5
62A
330
628
100
AcDbEntity
  8
BEMAßUNG
 62
     7
100
AcDbVertex
100
AcDb2dVertex
 10
18.79592420320033
 20
26.78889023852847
 30
0.0
  0
SEQEND
  5
62B
330
628
100
AcDbEntity
  8
BEMAßUNG
  0
POLYLINE
  5
62C
330
1F
100
AcDbEntity
  8
BEMAßUNG
 62
     7
100
AcDb2dPolyline
 66
     1
 10
0.0
 20
0.0
 30
0.0
  0
VERTEX
  5
62D
330
62C
100
AcDbEntity
  8
BEMAßUNG
 62
     7
100
AcDbVertex
100
AcDb2dVertex
 10
21.52392306319541
 20
26.73807508012104
 30
0.0
  0
VERTEX
  5
62E
330
62C
100
AcDbEntity
  8
BEMAßUNG
 62
     7
100
AcDbVertex
100
AcDb2dVertex
 10
18.41041801840087
 20
26.73807508012104
 30
0.0
  0
SEQEND
  5
62F
330
62C
100
AcDbEntity
  8
BEMAßUNG
  0
POLYLINE
  5
630
330
1F
100
AcDbEntity
  8
BEMAßUNG
 62
     7
100
AcDb2dPolyline
 66
     1
 10
0.0
 20
0.0
 30
0.0
  0
VERTEX
  5
631
330
630
100
AcDbEntity
  8
BEMAßUNG
 62
     7
100
AcDbVertex
100
AcDb2dVertex
 10
21.52392306319541
 20
26.6872599217136
 30
0.0
  0
VERTEX
  5
632
330
630
100
AcDbEntity
  8
BEMAßUNG
 62
     7
100
AcDbVertex
100
AcDb2dVertex
 10
18.02439506927863
 20
26.6872599217136
 30
0.0
  0
SEQEND
  5
633
330
630
100
AcDbEntity
  8
BEMAßUNG
  0
POLYLINE
  5
634
330
1F
100
AcDbEntity
  8
BEMAßUNG
 62
     7
100
AcDb2dPolyline
 66
     1
 10
0.0
 20
0.0
 30
0.0
  0
VERTEX
  5
635
330
634
100
AcDbEntity
  8
BEMAßUNG
 62
     7
100
AcDbVertex
100
AcDb2dVertex
 10
42.02430825772309
 20
26.6872599217136
 30
0.0
  0
VERTEX
  5
636
330
634
100
AcDbEntity
  8
BEMAßUNG
 62
     7
100
AcDbVertex
100
AcDb2dVertex
 10
38.52443575425778
 20
27.14838595241429
 30
0.0
  0
VERTEX
  5
637
330
634
100
AcDbEntity
  8
BEMAßUNG
 62
     7
100
AcDbVertex
100
AcDb2dVertex
 10
38.52443575425778
 20
26.22699516488423
 30
0.0
  0
VERTEX
  5
638
330
634
100
AcDbEntity
  8
BEMAßUNG
 62
     7
100
AcDbVertex
100
AcDb2dVertex
 10
42.02430825772309
 20
26.6872599217136
 30
0.0
  0
SEQEND
  5
639
330
634
100
AcDbEntity
  8
BEMAßUNG
  0
POLYLINE
  5
63A
330
1F
100
AcDbEntity
  8
BEMAßUNG
 62
     7
100
AcDb2dPolyline
 66
     1
 10
0.0
 20
0.0
 30
0.0
  0
VERTEX
  5
63B
330
63A
100
AcDbEntity
  8
BEMAßUNG
 62
     7
100
AcDbVertex
100
AcDb2dVertex
 10
38.52443575425778
 20
27.14476860215478
 30
0.0
  0
VERTEX
  5
63C
330
63A
100
AcDbEntity
  8
BEMAßUNG
 62
     7
100
AcDbVertex
100
AcDb2dVertex
 10
38.55147975381699
 20
27.14476860215478
 30
0.0
  0
SEQEND
  5
63D
330
63A
100
AcDbEntity
  8
BEMAßUNG
  0
POLYLINE
  5
63E
330
1F
100
AcDbEntity
  8
BEMAßUNG
 62
     7
100
AcDb2dPolyline
 66
     1
 10
0.0
 20
0.0
 30
0.0
  0
VERTEX
  5
63F
330
63E
100
AcDbEntity
  8
BEMAßUNG
 62
     7
100
AcDbVertex
100
AcDb2dVertex
 10
38.52443575425778
 20
27.14476860215478
 30
0.0
  0
VERTEX
  5
640
330
63E
100
AcDbEntity
  8
BEMAßUNG
 62
     7
100
AcDbVertex
100
AcDb2dVertex
 10
38.55147975381699
 20
27.14476860215478
 30
0.0
  0
SEQEND
  5
641
330
63E
100
AcDbEntity
  8
BEMAßUNG
  0
POLYLINE
  5
642
330
1F
100
AcDbEntity
  8
BEMAßUNG
 62
     7
100
AcDb2dPolyline
 66
     1
 10
0.0
 20
0.0
 30
0.0
  0
VERTEX
  5
643
330
642
100
AcDbEntity
  8
BEMAßUNG
 62
     7
100
AcDbVertex
100
AcDb2dVertex
 10
38.52443575425778
 20
27.09412569852161
 30
0.0
  0
VERTEX
  5
644
330
642
100
AcDbEntity
  8
BEMAßUNG
 62
     7
100
AcDbVertex
100
AcDb2dVertex
 10
38.93750270293923
 20
27.09412569852161
 30
0.0
  0
SEQEND
  5
645
330
642
100
AcDbEntity
  8
BEMAßUNG
  0
POLYLINE
  5
646
330
1F
100
AcDbEntity
  8
BEMAßUNG
 62
     7
100
AcDb2dPolyline
 66
     1
 10
0.0
 20
0.0
 30
0.0
  0
VERTEX
  5
647
330
646
100
AcDbEntity
  8
BEMAßUNG
 62
     7
100
AcDbVertex
100
AcDb2dVertex
 10
38.52443575425778
 20
27.04331054011417
 30
0.0
  0
VERTEX
  5
648
330
646
100
AcDbEntity
  8
BEMAßUNG
 62
     7
100
AcDbVertex
100
AcDb2dVertex
 10
39.32335339728722
 20
27.04331054011417
 30
0.0
  0
SEQEND
  5
649
330
646
100
AcDbEntity
  8
BEMAßUNG
  0
POLYLINE
  5
64A
330
1F
100
AcDbEntity
  8
BEMAßUNG
 62
     7
100
AcDb2dPolyline
 66
     1
 10
0.0
 20
0.0
 30
0.0
  0
VERTEX
  5
64B
330
64A
100
AcDbEntity
  8
BEMAßUNG
 62
     7
100
AcDbVertex
100
AcDb2dVertex
 10
38.52443575425778
 20
26.99249538170674
 30
0.0
  0
VERTEX
  5
64C
330
64A
100
AcDbEntity
  8
BEMAßUNG
 62
     7
100
AcDbVertex
100
AcDb2dVertex
 10
39.70937634640946
 20
26.99249538170674
 30
0.0
  0
SEQEND
  5
64D
330
64A
100
AcDbEntity
  8
BEMAßUNG
  0
POLYLINE
  5
64E
330
1F
100
AcDbEntity
  8
BEMAßUNG
 62
     7
100
AcDb2dPolyline
 66
     1
 10
0.0
 20
0.0
 30
0.0
  0
VERTEX
  5
64F
330
64E
100
AcDbEntity
  8
BEMAßUNG
 62
     7
100
AcDbVertex
100
AcDb2dVertex
 10
38.52443575425778
 20
26.94133571375078
 30
0.0
  0
VERTEX
  5
650
330
64E
100
AcDbEntity
  8
BEMAßUNG
 62
     7
100
AcDbVertex
100
AcDb2dVertex
 10
40.09488253120892
 20
26.94133571375078
 30
0.0
  0
SEQEND
  5
651
330
64E
100
AcDbEntity
  8
BEMAßUNG
  0
POLYLINE
  5
652
330
1F
100
AcDbEntity
  8
BEMAßUNG
 62
     7
100
AcDb2dPolyline
 66
     1
 10
0.0
 20
0.0
 30
0.0
  0
VERTEX
  5
653
330
652
100
AcDbEntity
  8
BEMAßUNG
 62
     7
100
AcDbVertex
100
AcDb2dVertex
 10
38.52443575425778
 20
26.89052055534334
 30
0.0
  0
VERTEX
  5
654
330
652
100
AcDbEntity
  8
BEMAßUNG
 62
     7
100
AcDbVertex
100
AcDb2dVertex
 10
40.48090548033117
 20
26.89052055534334
 30
0.0
  0
SEQEND
  5
655
330
652
100
AcDbEntity
  8
BEMAßUNG
  0
POLYLINE
  5
656
330
1F
100
AcDbEntity
  8
BEMAßUNG
 62
     7
100
AcDb2dPolyline
 66
     1
 10
0.0
 20
0.0
 30
0.0
  0
VERTEX
  5
657
330
656
100
AcDbEntity
  8
BEMAßUNG
 62
     7
100
AcDbVertex
100
AcDb2dVertex
 10
38.52443575425778
 20
26.83970539693591
 30
0.0
  0
VERTEX
  5
658
330
656
100
AcDbEntity
  8
BEMAßUNG
 62
     7
100
AcDbVertex
100
AcDb2dVertex
 10
40.86675617467915
 20
26.83970539693591
 30
0.0
  0
SEQEND
  5
659
330
656
100
AcDbEntity
  8
BEMAßUNG
  0
POLYLINE
  5
65A
330
1F
100
AcDbEntity
  8
BEMAßUNG
 62
     7
100
AcDb2dPolyline
 66
     1
 10
0.0
 20
0.0
 30
0.0
  0
VERTEX
  5
65B
330
65A
100
AcDbEntity
  8
BEMAßUNG
 62
     7
100
AcDbVertex
100
AcDb2dVertex
 10
38.52443575425778
 20
26.78889023852847
 30
0.0
  0
VERTEX
  5
65C
330
65A
100
AcDbEntity
  8
BEMAßUNG
 62
     7
100
AcDbVertex
100
AcDb2dVertex
 10
41.25277912380139
 20
26.78889023852847
 30
0.0
  0
SEQEND
  5
65D
330
65A
100
AcDbEntity
  8
BEMAßUNG
  0
POLYLINE
  5
65E
330
1F
100
AcDbEntity
  8
BEMAßUNG
 62
     7
100
AcDb2dPolyline
 66
     1
 10
0.0
 20
0.0
 30
0.0
  0
VERTEX
  5
65F
330
65E
100
AcDbEntity
  8
BEMAßUNG
 62
     7
100
AcDbVertex
100
AcDb2dVertex
 10
38.52443575425778
 20
26.73807508012104
 30
0.0
  0
VERTEX
  5
660
330
65E
100
AcDbEntity
  8
BEMAßUNG
 62
     7
100
AcDbVertex
100
AcDb2dVertex
 10
41.63828530860085
 20
26.73807508012104
 30
0.0
  0
SEQEND
  5
661
330
65E
100
AcDbEntity
  8
BEMAßUNG
  0
POLYLINE
  5
662
330
1F
100
AcDbEntity
  8
BEMAßUNG
 62
     7
100
AcDb2dPolyline
 66
     1
 10
0.0
 20
0.0
 30
0.0
  0
VERTEX
  5
663
330
662
100
AcDbEntity
  8
BEMAßUNG
 62
     7
100
AcDbVertex
100
AcDb2dVertex
 10
38.52443575425778
 20
26.6872599217136
 30
0.0
  0
VERTEX
  5
664
330
662
100
AcDbEntity
  8
BEMAßUNG
 62
     7
100
AcDbVertex
100
AcDb2dVertex
 10
42.02430825772309
 20
26.6872599217136
 30
0.0
  0
SEQEND
  5
665
330
662
100
AcDbEntity
  8
BEMAßUNG
  0
POLYLINE
  5
666
330
1F
100
AcDbEntity
  8
BEMAßUNG
 62
     7
100
AcDb2dPolyline
 66
     1
 10
0.0
 20
0.0
 30
0.0
  0
VERTEX
  5
667
330
666
100
AcDbEntity
  8
BEMAßUNG
 62
     7
100
AcDbVertex
100
AcDb2dVertex
 10
38.52443575425778
 20
26.23044026036947
 30
0.0
  0
VERTEX
  5
668
330
666
100
AcDbEntity
  8
BEMAßUNG
 62
     7
100
AcDbVertex
100
AcDb2dVertex
 10
38.55147975381699
 20
26.23044026036947
 30
0.0
  0
SEQEND
  5
669
330
666
100
AcDbEntity
  8
BEMAßUNG
  0
POLYLINE
  5
66A
330
1F
100
AcDbEntity
  8
BEMAßUNG
 62
     7
100
AcDb2dPolyline
 66
     1
 10
0.0
 20
0.0
 30
0.0
  0
VERTEX
  5
66B
330
66A
100
AcDbEntity
  8
BEMAßUNG
 62
     7
100
AcDbVertex
100
AcDb2dVertex
 10
38.52443575425778
 20
26.23044026036947
 30
0.0
  0
VERTEX
  5
66C
330
66A
100
AcDbEntity
  8
BEMAßUNG
 62
     7
100
AcDbVertex
100
AcDb2dVertex
 10
38.55147975381699
 20
26.23044026036947
 30
0.0
  0
SEQEND
  5
66D
330
66A
100
AcDbEntity
  8
BEMAßUNG
  0
POLYLINE
  5
66E
330
1F
100
AcDbEntity
  8
BEMAßUNG
 62
     7
100
AcDb2dPolyline
 66
     1
 10
0.0
 20
0.0
 30
0.0
  0
VERTEX
  5
66F
330
66E
100
AcDbEntity
  8
BEMAßUNG
 62
     7
100
AcDbVertex
100
AcDb2dVertex
 10
38.52443575425778
 20
26.28125541877691
 30
0.0
  0
VERTEX
  5
670
330
66E
100
AcDbEntity
  8
BEMAßUNG
 62
     7
100
AcDbVertex
100
AcDb2dVertex
 10
38.93750270293923
 20
26.28125541877691
 30
0.0
  0
SEQEND
  5
671
330
66E
100
AcDbEntity
  8
BEMAßUNG
  0
POLYLINE
  5
672
330
1F
100
AcDbEntity
  8
BEMAßUNG
 62
     7
100
AcDb2dPolyline
 66
     1
 10
0.0
 20
0.0
 30
0.0
  0
VERTEX
  5
673
330
672
100
AcDbEntity
  8
BEMAßUNG
 62
     7
100
AcDbVertex
100
AcDb2dVertex
 10
38.52443575425778
 20
26.33207057718435
 30
0.0
  0
VERTEX
  5
674
330
672
100
AcDbEntity
  8
BEMAßUNG
 62
     7
100
AcDbVertex
100
AcDb2dVertex
 10
39.32335339728722
 20
26.33207057718435
 30
0.0
  0
SEQEND
  5
675
330
672
100
AcDbEntity
  8
BEMAßUNG
  0
POLYLINE
  5
676
330
1F
100
AcDbEntity
  8
BEMAßUNG
 62
     7
100
AcDb2dPolyline
 66
     1
 10
0.0
 20
0.0
 30
0.0
  0
VERTEX
  5
677
330
676
100
AcDbEntity
  8
BEMAßUNG
 62
     7
100
AcDbVertex
100
AcDb2dVertex
 10
38.52443575425778
 20
26.38288573559178
 30
0.0
  0
VERTEX
  5
678
330
676
100
AcDbEntity
  8
BEMAßUNG
 62
     7
100
AcDbVertex
100
AcDb2dVertex
 10
39.70937634640946
 20
26.38288573559178
 30
0.0
  0
SEQEND
  5
679
330
676
100
AcDbEntity
  8
BEMAßUNG
  0
POLYLINE
  5
67A
330
1F
100
AcDbEntity
  8
BEMAßUNG
 62
     7
100
AcDb2dPolyline
 66
     1
 10
0.0
 20
0.0
 30
0.0
  0
VERTEX
  5
67B
330
67A
100
AcDbEntity
  8
BEMAßUNG
 62
     7
100
AcDbVertex
100
AcDb2dVertex
 10
38.52443575425778
 20
26.43335638445069
 30
0.0
  0
VERTEX
  5
67C
330
67A
100
AcDbEntity
  8
BEMAßUNG
 62
     7
100
AcDbVertex
100
AcDb2dVertex
 10
40.09488253120892
 20
26.43335638445069
 30
0.0
  0
SEQEND
  5
67D
330
67A
100
AcDbEntity
  8
BEMAßUNG
  0
POLYLINE
  5
67E
330
1F
100
AcDbEntity
  8
BEMAßUNG
 62
     7
100
AcDb2dPolyline
 66
     1
 10
0.0
 20
0.0
 30
0.0
  0
VERTEX
  5
67F
330
67E
100
AcDbEntity
  8
BEMAßUNG
 62
     7
100
AcDbVertex
100
AcDb2dVertex
 10
38.52443575425778
 20
26.48399928808386
 30
0.0
  0
VERTEX
  5
680
330
67E
100
AcDbEntity
  8
BEMAßUNG
 62
     7
100
AcDbVertex
100
AcDb2dVertex
 10
40.48090548033117
 20
26.48399928808386
 30
0.0
  0
SEQEND
  5
681
330
67E
100
AcDbEntity
  8
BEMAßUNG
  0
POLYLINE
  5
682
330
1F
100
AcDbEntity
  8
BEMAßUNG
 62
     7
100
AcDb2dPolyline
 66
     1
 10
0.0
 20
0.0
 30
0.0
  0
VERTEX
  5
683
330
682
100
AcDbEntity
  8
BEMAßUNG
 62
     7
100
AcDbVertex
100
AcDb2dVertex
 10
38.52443575425778
 20
26.53498670126556
 30
0.0
  0
VERTEX
  5
684
330
682
100
AcDbEntity
  8
BEMAßUNG
 62
     7
100
AcDbVertex
100
AcDb2dVertex
 10
40.86675617467915
 20
26.53498670126556
 30
0.0
  0
SEQEND
  5
685
330
682
100
AcDbEntity
  8
BEMAßUNG
  0
POLYLINE
  5
686
330
1F
100
AcDbEntity
  8
BEMAßUNG
 62
     7
100
AcDb2dPolyline
 66
     1
 10
0.0
 20
0.0
 30
0.0
  0
VERTEX
  5
687
330
686
100
AcDbEntity
  8
BEMAßUNG
 62
     7
100
AcDbVertex
100
AcDb2dVertex
 10
38.52443575425778
 20
26.58562960489873
 30
0.0
  0
VERTEX
  5
688
330
686
100
AcDbEntity
  8
BEMAßUNG
 62
     7
100
AcDbVertex
100
AcDb2dVertex
 10
41.25277912380139
 20
26.58562960489873
 30
0.0
  0
SEQEND
  5
689
330
686
100
AcDbEntity
  8
BEMAßUNG
  0
POLYLINE
  5
68A
330
1F
100
AcDbEntity
  8
BEMAßUNG
 62
     7
100
AcDb2dPolyline
 66
     1
 10
0.0
 20
0.0
 30
0.0
  0
VERTEX
  5
68B
330
68A
100
AcDbEntity
  8
BEMAßUNG
 62
     7
100
AcDbVertex
100
AcDb2dVertex
 10
38.52443575425778
 20
26.63661701808043
 30
0.0
  0
VERTEX
  5
68C
330
68A
100
AcDbEntity
  8
BEMAßUNG
 62
     7
100
AcDbVertex
100
AcDb2dVertex
 10
41.63828530860085
 20
26.63661701808043
 30
0.0
  0
SEQEND
  5
68D
330
68A
100
AcDbEntity
  8
BEMAßUNG
  0
POLYLINE
  5
68E
330
1F
100
AcDbEntity
  8
BEMAßUNG
 62
     7
100
AcDb2dPolyline
 66
     1
 10
0.0
 20
0.0
 30
0.0
  0
VERTEX
  5
68F
330
68E
100
AcDbEntity
  8
BEMAßUNG
 62
     7
100
AcDbVertex
100
AcDb2dVertex
 10
38.52443575425778
 20
26.6872599217136
 30
0.0
  0
VERTEX
  5
690
330
68E
100
AcDbEntity
  8
BEMAßUNG
 62
     7
100
AcDbVertex
100
AcDb2dVertex
 10
42.02430825772309
 20
26.6872599217136
 30
0.0
  0
SEQEND
  5
691
330
68E
100
AcDbEntity
  8
BEMAßUNG
  0
POLYLINE
  5
692
330
1F
100
AcDbEntity
  8
BEMAßUNG
 62
     7
100
AcDb2dPolyline
 66
     1
 10
0.0
 20
0.0
 30
0.0
  0
VERTEX
  5
693
330
692
100
AcDbEntity
  8
BEMAßUNG
 62
     7
100
AcDbVertex
100
AcDb2dVertex
 10
34.02393526710166
 20
-17.25596652129365
 30
0.0
  0
VERTEX
  5
694
330
692
100
AcDbEntity
  8
BEMAßUNG
 62
     7
100
AcDbVertex
100
AcDb2dVertex
 10
34.02393526710166
 20
-40.97837726840124
 30
0.0
  0
SEQEND
  5
695
330
692
100
AcDbEntity
  8
BEMAßUNG
  0
POLYLINE
  5
696
330
1F
100
AcDbEntity
  8
BEMAßUNG
 62
     7
100
AcDb2dPolyline
 66
     1
 10
0.0
 20
0.0
 30
0.0
  0
VERTEX
  5
697
330
696
100
AcDbEntity
  8
BEMAßUNG
 62
     7
100
AcDbVertex
100
AcDb2dVertex
 10
8.02431640424392
 20
-12.50190700642314
 30
0.0
  0
VERTEX
  5
698
330
696
100
AcDbEntity
  8
BEMAßUNG
 62
     7
100
AcDbVertex
100
AcDb2dVertex
 10
8.02431640424392
 20
-26.62955457233567
 30
0.0
  0
SEQEND
  5
699
330
696
100
AcDbEntity
  8
BEMAßUNG
  0
POLYLINE
  5
69A
330
1F
100
AcDbEntity
  8
BEMAßUNG
 62
     7
100
AcDb2dPolyline
 66
     1
 10
0.0
 20
0.0
 30
0.0
  0
VERTEX
  5
69B
330
69A
100
AcDbEntity
  8
BEMAßUNG
 62
     7
100
AcDbVertex
100
AcDb2dVertex
 10
8.02431640424392
 20
-29.80421006199339
 30
0.0
  0
VERTEX
  5
69C
330
69A
100
AcDbEntity
  8
BEMAßUNG
 62
     7
100
AcDbVertex
100
AcDb2dVertex
 10
8.02431640424392
 20
-40.97837726840124
 30
0.0
  0
SEQEND
  5
69D
330
69A
100
AcDbEntity
  8
BEMAßUNG
  0
POLYLINE
  5
69E
330
1F
100
AcDbEntity
  8
BEMAßUNG
 62
     7
100
AcDb2dPolyline
 66
     1
 10
0.0
 20
0.0
 30
0.0
  0
VERTEX
  5
69F
330
69E
100
AcDbEntity
  8
BEMAßUNG
 62
     7
100
AcDbVertex
100
AcDb2dVertex
 10
34.02393526710166
 20
-38.97884384876224
 30
0.0
  0
VERTEX
  5
6A0
330
69E
100
AcDbEntity
  8
BEMAßUNG
 62
     7
100
AcDbVertex
100
AcDb2dVertex
 10
8.02431640424392
 20
-38.97884384876224
 30
0.0
  0
SEQEND
  5
6A1
330
69E
100
AcDbEntity
  8
BEMAßUNG
  0
POLYLINE
  5
6A2
330
1F
100
AcDbEntity
  8
BEMAßUNG
 62
     7
100
AcDb2dPolyline
 66
     1
 10
0.0
 20
0.0
 30
0.0
  0
VERTEX
  5
6A3
330
6A2
100
AcDbEntity
  8
BEMAßUNG
 62
     7
100
AcDbVertex
100
AcDb2dVertex
 10
34.02393526710166
 20
-38.97884384876224
 30
0.0
  0
VERTEX
  5
6A4
330
6A2
100
AcDbEntity
  8
BEMAßUNG
 62
     7
100
AcDbVertex
100
AcDb2dVertex
 10
30.52440727318487
 20
-38.5178900728358
 30
0.0
  0
VERTEX
  5
6A5
330
6A2
100
AcDbEntity
  8
BEMAßUNG
 62
     7
100
AcDbVertex
100
AcDb2dVertex
 10
30.52440727318487
 20
-39.43910860559161
 30
0.0
  0
VERTEX
  5
6A6
330
6A2
100
AcDbEntity
  8
BEMAßUNG
 62
     7
100
AcDbVertex
100
AcDb2dVertex
 10
34.02393526710166
 20
-38.97884384876224
 30
0.0
  0
SEQEND
  5
6A7
330
6A2
100
AcDbEntity
  8
BEMAßUNG
  0
POLYLINE
  5
6A8
330
1F
100
AcDbEntity
  8
BEMAßUNG
 62
     7
100
AcDb2dPolyline
 66
     1
 10
0.0
 20
0.0
 30
0.0
  0
VERTEX
  5
6A9
330
6A8
100
AcDbEntity
  8
BEMAßUNG
 62
     7
100
AcDbVertex
100
AcDb2dVertex
 10
30.52440727318487
 20
-38.52133516832106
 30
0.0
  0
VERTEX
  5
6AA
330
6A8
100
AcDbEntity
  8
BEMAßUNG
 62
     7
100
AcDbVertex
100
AcDb2dVertex
 10
30.55127901796982
 20
-38.52133516832106
 30
0.0
  0
SEQEND
  5
6AB
330
6A8
100
AcDbEntity
  8
BEMAßUNG
  0
POLYLINE
  5
6AC
330
1F
100
AcDbEntity
  8
BEMAßUNG
 62
     7
100
AcDb2dPolyline
 66
     1
 10
0.0
 20
0.0
 30
0.0
  0
VERTEX
  5
6AD
330
6AC
100
AcDbEntity
  8
BEMAßUNG
 62
     7
100
AcDbVertex
100
AcDb2dVertex
 10
30.52440727318487
 20
-38.52133516832106
 30
0.0
  0
VERTEX
  5
6AE
330
6AC
100
AcDbEntity
  8
BEMAßUNG
 62
     7
100
AcDbVertex
100
AcDb2dVertex
 10
30.55127901796982
 20
-38.52133516832106
 30
0.0
  0
SEQEND
  5
6AF
330
6AC
100
AcDbEntity
  8
BEMAßUNG
  0
POLYLINE
  5
6B0
330
1F
100
AcDbEntity
  8
BEMAßUNG
 62
     7
100
AcDb2dPolyline
 66
     1
 10
0.0
 20
0.0
 30
0.0
  0
VERTEX
  5
6B1
330
6B0
100
AcDbEntity
  8
BEMAßUNG
 62
     7
100
AcDbVertex
100
AcDb2dVertex
 10
30.52440727318487
 20
-38.57232258150275
 30
0.0
  0
VERTEX
  5
6B2
330
6B0
100
AcDbEntity
  8
BEMAßUNG
 62
     7
100
AcDbVertex
100
AcDb2dVertex
 10
30.9371297123178
 20
-38.57232258150275
 30
0.0
  0
SEQEND
  5
6B3
330
6B0
100
AcDbEntity
  8
BEMAßUNG
  0
POLYLINE
  5
6B4
330
1F
100
AcDbEntity
  8
BEMAßUNG
 62
     7
100
AcDb2dPolyline
 66
     1
 10
0.0
 20
0.0
 30
0.0
  0
VERTEX
  5
6B5
330
6B4
100
AcDbEntity
  8
BEMAßUNG
 62
     7
100
AcDbVertex
100
AcDb2dVertex
 10
30.52440727318487
 20
-38.6226209755874
 30
0.0
  0
VERTEX
  5
6B6
330
6B4
100
AcDbEntity
  8
BEMAßUNG
 62
     7
100
AcDbVertex
100
AcDb2dVertex
 10
31.32315266144005
 20
-38.6226209755874
 30
0.0
  0
SEQEND
  5
6B7
330
6B4
100
AcDbEntity
  8
BEMAßUNG
  0
POLYLINE
  5
6B8
330
1F
100
AcDbEntity
  8
BEMAßUNG
 62
     7
100
AcDb2dPolyline
 66
     1
 10
0.0
 20
0.0
 30
0.0
  0
VERTEX
  5
6B9
330
6B8
100
AcDbEntity
  8
BEMAßUNG
 62
     7
100
AcDbVertex
100
AcDb2dVertex
 10
30.52440727318487
 20
-38.6736083887691
 30
0.0
  0
VERTEX
  5
6BA
330
6B8
100
AcDbEntity
  8
BEMAßUNG
 62
     7
100
AcDbVertex
100
AcDb2dVertex
 10
31.70900335578803
 20
-38.6736083887691
 30
0.0
  0
SEQEND
  5
6BB
330
6B8
100
AcDbEntity
  8
BEMAßUNG
  0
POLYLINE
  5
6BC
330
1F
100
AcDbEntity
  8
BEMAßUNG
 62
     7
100
AcDb2dPolyline
 66
     1
 10
0.0
 20
0.0
 30
0.0
  0
VERTEX
  5
6BD
330
6BC
100
AcDbEntity
  8
BEMAßUNG
 62
     7
100
AcDbVertex
100
AcDb2dVertex
 10
30.52440727318487
 20
-38.72425129240227
 30
0.0
  0
VERTEX
  5
6BE
330
6BC
100
AcDbEntity
  8
BEMAßUNG
 62
     7
100
AcDbVertex
100
AcDb2dVertex
 10
32.09468179536175
 20
-38.72425129240227
 30
0.0
  0
SEQEND
  5
6BF
330
6BC
100
AcDbEntity
  8
BEMAßUNG
  0
POLYLINE
  5
6C0
330
1F
100
AcDbEntity
  8
BEMAßUNG
 62
     7
100
AcDb2dPolyline
 66
     1
 10
0.0
 20
0.0
 30
0.0
  0
VERTEX
  5
6C1
330
6C0
100
AcDbEntity
  8
BEMAßUNG
 62
     7
100
AcDbVertex
100
AcDb2dVertex
 10
30.52440727318487
 20
-38.77523870558397
 30
0.0
  0
VERTEX
  5
6C2
330
6C0
100
AcDbEntity
  8
BEMAßUNG
 62
     7
100
AcDbVertex
100
AcDb2dVertex
 10
32.48053248970973
 20
-38.77523870558397
 30
0.0
  0
SEQEND
  5
6C3
330
6C0
100
AcDbEntity
  8
BEMAßUNG
  0
POLYLINE
  5
6C4
330
1F
100
AcDbEntity
  8
BEMAßUNG
 62
     7
100
AcDb2dPolyline
 66
     1
 10
0.0
 20
0.0
 30
0.0
  0
VERTEX
  5
6C5
330
6C4
100
AcDbEntity
  8
BEMAßUNG
 62
     7
100
AcDbVertex
100
AcDb2dVertex
 10
30.52440727318487
 20
-38.82588160921714
 30
0.0
  0
VERTEX
  5
6C6
330
6C4
100
AcDbEntity
  8
BEMAßUNG
 62
     7
100
AcDbVertex
100
AcDb2dVertex
 10
32.86655543883197
 20
-38.82588160921714
 30
0.0
  0
SEQEND
  5
6C7
330
6C4
100
AcDbEntity
  8
BEMAßUNG
  0
POLYLINE
  5
6C8
330
1F
100
AcDbEntity
  8
BEMAßUNG
 62
     7
100
AcDb2dPolyline
 66
     1
 10
0.0
 20
0.0
 30
0.0
  0
VERTEX
  5
6C9
330
6C8
100
AcDbEntity
  8
BEMAßUNG
 62
     7
100
AcDbVertex
100
AcDb2dVertex
 10
30.52440727318487
 20
-38.87721353194736
 30
0.0
  0
VERTEX
  5
6CA
330
6C8
100
AcDbEntity
  8
BEMAßUNG
 62
     7
100
AcDbVertex
100
AcDb2dVertex
 10
33.25240613317995
 20
-38.87721353194736
 30
0.0
  0
SEQEND
  5
6CB
330
6C8
100
AcDbEntity
  8
BEMAßUNG
  0
POLYLINE
  5
6CC
330
1F
100
AcDbEntity
  8
BEMAßUNG
 62
     7
100
AcDb2dPolyline
 66
     1
 10
0.0
 20
0.0
 30
0.0
  0
VERTEX
  5
6CD
330
6CC
100
AcDbEntity
  8
BEMAßUNG
 62
     7
100
AcDbVertex
100
AcDb2dVertex
 10
30.52440727318487
 20
-38.92820094512906
 30
0.0
  0
VERTEX
  5
6CE
330
6CC
100
AcDbEntity
  8
BEMAßUNG
 62
     7
100
AcDbVertex
100
AcDb2dVertex
 10
33.63808457275368
 20
-38.92820094512906
 30
0.0
  0
SEQEND
  5
6CF
330
6CC
100
AcDbEntity
  8
BEMAßUNG
  0
POLYLINE
  5
6D0
330
1F
100
AcDbEntity
  8
BEMAßUNG
 62
     7
100
AcDb2dPolyline
 66
     1
 10
0.0
 20
0.0
 30
0.0
  0
VERTEX
  5
6D1
330
6D0
100
AcDbEntity
  8
BEMAßUNG
 62
     7
100
AcDbVertex
100
AcDb2dVertex
 10
30.52440727318487
 20
-38.97884384876224
 30
0.0
  0
VERTEX
  5
6D2
330
6D0
100
AcDbEntity
  8
BEMAßUNG
 62
     7
100
AcDbVertex
100
AcDb2dVertex
 10
34.02393526710166
 20
-38.97884384876224
 30
0.0
  0
SEQEND
  5
6D3
330
6D0
100
AcDbEntity
  8
BEMAßUNG
  0
POLYLINE
  5
6D4
330
1F
100
AcDbEntity
  8
BEMAßUNG
 62
     7
100
AcDb2dPolyline
 66
     1
 10
0.0
 20
0.0
 30
0.0
  0
VERTEX
  5
6D5
330
6D4
100
AcDbEntity
  8
BEMAßUNG
 62
     7
100
AcDbVertex
100
AcDb2dVertex
 10
30.52440727318487
 20
-39.43600801965489
 30
0.0
  0
VERTEX
  5
6D6
330
6D4
100
AcDbEntity
  8
BEMAßUNG
 62
     7
100
AcDbVertex
100
AcDb2dVertex
 10
30.55127901796982
 20
-39.43600801965489
 30
0.0
  0
SEQEND
  5
6D7
330
6D4
100
AcDbEntity
  8
BEMAßUNG
  0
POLYLINE
  5
6D8
330
1F
100
AcDbEntity
  8
BEMAßUNG
 62
     7
100
AcDb2dPolyline
 66
     1
 10
0.0
 20
0.0
 30
0.0
  0
VERTEX
  5
6D9
330
6D8
100
AcDbEntity
  8
BEMAßUNG
 62
     7
100
AcDbVertex
100
AcDb2dVertex
 10
30.52440727318487
 20
-39.43600801965489
 30
0.0
  0
VERTEX
  5
6DA
330
6D8
100
AcDbEntity
  8
BEMAßUNG
 62
     7
100
AcDbVertex
100
AcDb2dVertex
 10
30.55127901796982
 20
-39.43600801965489
 30
0.0
  0
SEQEND
  5
6DB
330
6D8
100
AcDbEntity
  8
BEMAßUNG
  0
POLYLINE
  5
6DC
330
1F
100
AcDbEntity
  8
BEMAßUNG
 62
     7
100
AcDb2dPolyline
 66
     1
 10
0.0
 20
0.0
 30
0.0
  0
VERTEX
  5
6DD
330
6DC
100
AcDbEntity
  8
BEMAßUNG
 62
     7
100
AcDbVertex
100
AcDb2dVertex
 10
30.52440727318487
 20
-39.38502060647319
 30
0.0
  0
VERTEX
  5
6DE
330
6DC
100
AcDbEntity
  8
BEMAßUNG
 62
     7
100
AcDbVertex
100
AcDb2dVertex
 10
30.9371297123178
 20
-39.38502060647319
 30
0.0
  0
SEQEND
  5
6DF
330
6DC
100
AcDbEntity
  8
BEMAßUNG
  0
POLYLINE
  5
6E0
330
1F
100
AcDbEntity
  8
BEMAßUNG
 62
     7
100
AcDb2dPolyline
 66
     1
 10
0.0
 20
0.0
 30
0.0
  0
VERTEX
  5
6E1
330
6E0
100
AcDbEntity
  8
BEMAßUNG
 62
     7
100
AcDbVertex
100
AcDb2dVertex
 10
30.52440727318487
 20
-39.3340331932915
 30
0.0
  0
VERTEX
  5
6E2
330
6E0
100
AcDbEntity
  8
BEMAßUNG
 62
     7
100
AcDbVertex
100
AcDb2dVertex
 10
31.32315266144005
 20
-39.3340331932915
 30
0.0
  0
SEQEND
  5
6E3
330
6E0
100
AcDbEntity
  8
BEMAßUNG
  0
POLYLINE
  5
6E4
330
1F
100
AcDbEntity
  8
BEMAßUNG
 62
     7
100
AcDb2dPolyline
 66
     1
 10
0.0
 20
0.0
 30
0.0
  0
VERTEX
  5
6E5
330
6E4
100
AcDbEntity
  8
BEMAßUNG
 62
     7
100
AcDbVertex
100
AcDb2dVertex
 10
30.52440727318487
 20
-39.28339028965832
 30
0.0
  0
VERTEX
  5
6E6
330
6E4
100
AcDbEntity
  8
BEMAßUNG
 62
     7
100
AcDbVertex
100
AcDb2dVertex
 10
31.70900335578803
 20
-39.28339028965832
 30
0.0
  0
SEQEND
  5
6E7
330
6E4
100
AcDbEntity
  8
BEMAßUNG
  0
POLYLINE
  5
6E8
330
1F
100
AcDbEntity
  8
BEMAßUNG
 62
     7
100
AcDb2dPolyline
 66
     1
 10
0.0
 20
0.0
 30
0.0
  0
VERTEX
  5
6E9
330
6E8
100
AcDbEntity
  8
BEMAßUNG
 62
     7
100
AcDbVertex
100
AcDb2dVertex
 10
30.52440727318487
 20
-39.23240287647663
 30
0.0
  0
VERTEX
  5
6EA
330
6E8
100
AcDbEntity
  8
BEMAßUNG
 62
     7
100
AcDbVertex
100
AcDb2dVertex
 10
32.09468179536175
 20
-39.23240287647663
 30
0.0
  0
SEQEND
  5
6EB
330
6E8
100
AcDbEntity
  8
BEMAßUNG
  0
POLYLINE
  5
6EC
330
1F
100
AcDbEntity
  8
BEMAßUNG
 62
     7
100
AcDb2dPolyline
 66
     1
 10
0.0
 20
0.0
 30
0.0
  0
VERTEX
  5
6ED
330
6EC
100
AcDbEntity
  8
BEMAßUNG
 62
     7
100
AcDbVertex
100
AcDb2dVertex
 10
30.52440727318487
 20
-39.18141546329493
 30
0.0
  0
VERTEX
  5
6EE
330
6EC
100
AcDbEntity
  8
BEMAßUNG
 62
     7
100
AcDbVertex
100
AcDb2dVertex
 10
32.48053248970973
 20
-39.18141546329493
 30
0.0
  0
SEQEND
  5
6EF
330
6EC
100
AcDbEntity
  8
BEMAßUNG
  0
POLYLINE
  5
6F0
330
1F
100
AcDbEntity
  8
BEMAßUNG
 62
     7
100
AcDb2dPolyline
 66
     1
 10
0.0
 20
0.0
 30
0.0
  0
VERTEX
  5
6F1
330
6F0
100
AcDbEntity
  8
BEMAßUNG
 62
     7
100
AcDbVertex
100
AcDb2dVertex
 10
30.52440727318487
 20
-39.13077255966175
 30
0.0
  0
VERTEX
  5
6F2
330
6F0
100
AcDbEntity
  8
BEMAßUNG
 62
     7
100
AcDbVertex
100
AcDb2dVertex
 10
32.86655543883197
 20
-39.13077255966175
 30
0.0
  0
SEQEND
  5
6F3
330
6F0
100
AcDbEntity
  8
BEMAßUNG
  0
POLYLINE
  5
6F4
330
1F
100
AcDbEntity
  8
BEMAßUNG
 62
     7
100
AcDb2dPolyline
 66
     1
 10
0.0
 20
0.0
 30
0.0
  0
VERTEX
  5
6F5
330
6F4
100
AcDbEntity
  8
BEMAßUNG
 62
     7
100
AcDbVertex
100
AcDb2dVertex
 10
30.52440727318487
 20
-39.08047416557711
 30
0.0
  0
VERTEX
  5
6F6
330
6F4
100
AcDbEntity
  8
BEMAßUNG
 62
     7
100
AcDbVertex
100
AcDb2dVertex
 10
33.25240613317995
 20
-39.08047416557711
 30
0.0
  0
SEQEND
  5
6F7
330
6F4
100
AcDbEntity
  8
BEMAßUNG
  0
POLYLINE
  5
6F8
330
1F
100
AcDbEntity
  8
BEMAßUNG
 62
     7
100
AcDb2dPolyline
 66
     1
 10
0.0
 20
0.0
 30
0.0
  0
VERTEX
  5
6F9
330
6F8
100
AcDbEntity
  8
BEMAßUNG
 62
     7
100
AcDbVertex
100
AcDb2dVertex
 10
30.52440727318487
 20
-39.02983126194393
 30
0.0
  0
VERTEX
  5
6FA
330
6F8
100
AcDbEntity
  8
BEMAßUNG
 62
     7
100
AcDbVertex
100
AcDb2dVertex
 10
33.63808457275368
 20
-39.02983126194393
 30
0.0
  0
SEQEND
  5
6FB
330
6F8
100
AcDbEntity
  8
BEMAßUNG
  0
POLYLINE
  5
6FC
330
1F
100
AcDbEntity
  8
BEMAßUNG
 62
     7
100
AcDb2dPolyline
 66
     1
 10
0.0
 20
0.0
 30
0.0
  0
VERTEX
  5
6FD
330
6FC
100
AcDbEntity
  8
BEMAßUNG
 62
     7
100
AcDbVertex
100
AcDb2dVertex
 10
30.52440727318487
 20
-38.97884384876224
 30
0.0
  0
VERTEX
  5
6FE
330
6FC
100
AcDbEntity
  8
BEMAßUNG
 62
     7
100
AcDbVertex
100
AcDb2dVertex
 10
34.02393526710166
 20
-38.97884384876224
 30
0.0
  0
SEQEND
  5
6FF
330
6FC
100
AcDbEntity
  8
BEMAßUNG
  0
POLYLINE
  5
700
330
1F
100
AcDbEntity
  8
BEMAßUNG
 62
     7
100
AcDb2dPolyline
 66
     1
 10
0.0
 20
0.0
 30
0.0
  0
VERTEX
  5
701
330
700
100
AcDbEntity
  8
BEMAßUNG
 62
     7
100
AcDbVertex
100
AcDb2dVertex
 10
8.02431640424392
 20
-38.97884384876224
 30
0.0
  0
VERTEX
  5
702
330
700
100
AcDbEntity
  8
BEMAßUNG
 62
     7
100
AcDbVertex
100
AcDb2dVertex
 10
11.52418890770923
 20
-39.43910860559161
 30
0.0
  0
VERTEX
  5
703
330
700
100
AcDbEntity
  8
BEMAßUNG
 62
     7
100
AcDbVertex
100
AcDb2dVertex
 10
11.52418890770923
 20
-38.5178900728358
 30
0.0
  0
VERTEX
  5
704
330
700
100
AcDbEntity
  8
BEMAßUNG
 62
     7
100
AcDbVertex
100
AcDb2dVertex
 10
8.02431640424392
 20
-38.97884384876224
 30
0.0
  0
SEQEND
  5
705
330
700
100
AcDbEntity
  8
BEMAßUNG
  0
POLYLINE
  5
706
330
1F
100
AcDbEntity
  8
BEMAßUNG
 62
     7
100
AcDb2dPolyline
 66
     1
 10
0.0
 20
0.0
 30
0.0
  0
VERTEX
  5
707
330
706
100
AcDbEntity
  8
BEMAßUNG
 62
     7
100
AcDbVertex
100
AcDb2dVertex
 10
11.52418890770923
 20
-39.43600801965489
 30
0.0
  0
VERTEX
  5
708
330
706
100
AcDbEntity
  8
BEMAßUNG
 62
     7
100
AcDbVertex
100
AcDb2dVertex
 10
11.49697265337576
 20
-39.43600801965489
 30
0.0
  0
SEQEND
  5
709
330
706
100
AcDbEntity
  8
BEMAßUNG
  0
POLYLINE
  5
70A
330
1F
100
AcDbEntity
  8
BEMAßUNG
 62
     7
100
AcDb2dPolyline
 66
     1
 10
0.0
 20
0.0
 30
0.0
  0
VERTEX
  5
70B
330
70A
100
AcDbEntity
  8
BEMAßUNG
 62
     7
100
AcDbVertex
100
AcDb2dVertex
 10
11.52418890770923
 20
-39.43600801965489
 30
0.0
  0
VERTEX
  5
70C
330
70A
100
AcDbEntity
  8
BEMAßUNG
 62
     7
100
AcDbVertex
100
AcDb2dVertex
 10
11.49697265337576
 20
-39.43600801965489
 30
0.0
  0
SEQEND
  5
70D
330
70A
100
AcDbEntity
  8
BEMAßUNG
  0
POLYLINE
  5
70E
330
1F
100
AcDbEntity
  8
BEMAßUNG
 62
     7
100
AcDb2dPolyline
 66
     1
 10
0.0
 20
0.0
 30
0.0
  0
VERTEX
  5
70F
330
70E
100
AcDbEntity
  8
BEMAßUNG
 62
     7
100
AcDbVertex
100
AcDb2dVertex
 10
11.52418890770923
 20
-39.38502060647319
 30
0.0
  0
VERTEX
  5
710
330
70E
100
AcDbEntity
  8
BEMAßUNG
 62
     7
100
AcDbVertex
100
AcDb2dVertex
 10
11.1114664685763
 20
-39.38502060647319
 30
0.0
  0
SEQEND
  5
711
330
70E
100
AcDbEntity
  8
BEMAßUNG
  0
POLYLINE
  5
712
330
1F
100
AcDbEntity
  8
BEMAßUNG
 62
     7
100
AcDb2dPolyline
 66
     1
 10
0.0
 20
0.0
 30
0.0
  0
VERTEX
  5
713
330
712
100
AcDbEntity
  8
BEMAßUNG
 62
     7
100
AcDbVertex
100
AcDb2dVertex
 10
11.52418890770923
 20
-39.3340331932915
 30
0.0
  0
VERTEX
  5
714
330
712
100
AcDbEntity
  8
BEMAßUNG
 62
     7
100
AcDbVertex
100
AcDb2dVertex
 10
10.72544351945406
 20
-39.3340331932915
 30
0.0
  0
SEQEND
  5
715
330
712
100
AcDbEntity
  8
BEMAßUNG
  0
POLYLINE
  5
716
330
1F
100
AcDbEntity
  8
BEMAßUNG
 62
     7
100
AcDb2dPolyline
 66
     1
 10
0.0
 20
0.0
 30
0.0
  0
VERTEX
  5
717
330
716
100
AcDbEntity
  8
BEMAßUNG
 62
     7
100
AcDbVertex
100
AcDb2dVertex
 10
11.52418890770923
 20
-39.28339028965832
 30
0.0
  0
VERTEX
  5
718
330
716
100
AcDbEntity
  8
BEMAßUNG
 62
     7
100
AcDbVertex
100
AcDb2dVertex
 10
10.33959282510607
 20
-39.28339028965832
 30
0.0
  0
SEQEND
  5
719
330
716
100
AcDbEntity
  8
BEMAßUNG
  0
POLYLINE
  5
71A
330
1F
100
AcDbEntity
  8
BEMAßUNG
 62
     7
100
AcDb2dPolyline
 66
     1
 10
0.0
 20
0.0
 30
0.0
  0
VERTEX
  5
71B
330
71A
100
AcDbEntity
  8
BEMAßUNG
 62
     7
100
AcDbVertex
100
AcDb2dVertex
 10
11.52418890770923
 20
-39.23240287647663
 30
0.0
  0
VERTEX
  5
71C
330
71A
100
AcDbEntity
  8
BEMAßUNG
 62
     7
100
AcDbVertex
100
AcDb2dVertex
 10
9.95356987598383
 20
-39.23240287647663
 30
0.0
  0
SEQEND
  5
71D
330
71A
100
AcDbEntity
  8
BEMAßUNG
  0
POLYLINE
  5
71E
330
1F
100
AcDbEntity
  8
BEMAßUNG
 62
     7
100
AcDb2dPolyline
 66
     1
 10
0.0
 20
0.0
 30
0.0
  0
VERTEX
  5
71F
330
71E
100
AcDbEntity
  8
BEMAßUNG
 62
     7
100
AcDbVertex
100
AcDb2dVertex
 10
11.52418890770923
 20
-39.18141546329493
 30
0.0
  0
VERTEX
  5
720
330
71E
100
AcDbEntity
  8
BEMAßUNG
 62
     7
100
AcDbVertex
100
AcDb2dVertex
 10
9.568063691184374
 20
-39.18141546329493
 30
0.0
  0
SEQEND
  5
721
330
71E
100
AcDbEntity
  8
BEMAßUNG
  0
POLYLINE
  5
722
330
1F
100
AcDbEntity
  8
BEMAßUNG
 62
     7
100
AcDb2dPolyline
 66
     1
 10
0.0
 20
0.0
 30
0.0
  0
VERTEX
  5
723
330
722
100
AcDbEntity
  8
BEMAßUNG
 62
     7
100
AcDbVertex
100
AcDb2dVertex
 10
11.52418890770923
 20
-39.13077255966175
 30
0.0
  0
VERTEX
  5
724
330
722
100
AcDbEntity
  8
BEMAßUNG
 62
     7
100
AcDbVertex
100
AcDb2dVertex
 10
9.18204074206213
 20
-39.13077255966175
 30
0.0
  0
SEQEND
  5
725
330
722
100
AcDbEntity
  8
BEMAßUNG
  0
POLYLINE
  5
726
330
1F
100
AcDbEntity
  8
BEMAßUNG
 62
     7
100
AcDb2dPolyline
 66
     1
 10
0.0
 20
0.0
 30
0.0
  0
VERTEX
  5
727
330
726
100
AcDbEntity
  8
BEMAßUNG
 62
     7
100
AcDbVertex
100
AcDb2dVertex
 10
11.52418890770923
 20
-39.08047416557711
 30
0.0
  0
VERTEX
  5
728
330
726
100
AcDbEntity
  8
BEMAßUNG
 62
     7
100
AcDbVertex
100
AcDb2dVertex
 10
8.796190047714147
 20
-39.08047416557711
 30
0.0
  0
SEQEND
  5
729
330
726
100
AcDbEntity
  8
BEMAßUNG
  0
POLYLINE
  5
72A
330
1F
100
AcDbEntity
  8
BEMAßUNG
 62
     7
100
AcDb2dPolyline
 66
     1
 10
0.0
 20
0.0
 30
0.0
  0
VERTEX
  5
72B
330
72A
100
AcDbEntity
  8
BEMAßUNG
 62
     7
100
AcDbVertex
100
AcDb2dVertex
 10
11.52418890770923
 20
-39.02983126194393
 30
0.0
  0
VERTEX
  5
72C
330
72A
100
AcDbEntity
  8
BEMAßUNG
 62
     7
100
AcDbVertex
100
AcDb2dVertex
 10
8.410167098591904
 20
-39.02983126194393
 30
0.0
  0
SEQEND
  5
72D
330
72A
100
AcDbEntity
  8
BEMAßUNG
  0
POLYLINE
  5
72E
330
1F
100
AcDbEntity
  8
BEMAßUNG
 62
     7
100
AcDb2dPolyline
 66
     1
 10
0.0
 20
0.0
 30
0.0
  0
VERTEX
  5
72F
330
72E
100
AcDbEntity
  8
BEMAßUNG
 62
     7
100
AcDbVertex
100
AcDb2dVertex
 10
11.52418890770923
 20
-38.97884384876224
 30
0.0
  0
VERTEX
  5
730
330
72E
100
AcDbEntity
  8
BEMAßUNG
 62
     7
100
AcDbVertex
100
AcDb2dVertex
 10
8.02431640424392
 20
-38.97884384876224
 30
0.0
  0
SEQEND
  5
731
330
72E
100
AcDbEntity
  8
BEMAßUNG
  0
POLYLINE
  5
732
330
1F
100
AcDbEntity
  8
BEMAßUNG
 62
     7
100
AcDb2dPolyline
 66
     1
 10
0.0
 20
0.0
 30
0.0
  0
VERTEX
  5
733
330
732
100
AcDbEntity
  8
BEMAßUNG
 62
     7
100
AcDbVertex
100
AcDb2dVertex
 10
11.52418890770923
 20
-38.52133516832106
 30
0.0
  0
VERTEX
  5
734
330
732
100
AcDbEntity
  8
BEMAßUNG
 62
     7
100
AcDbVertex
100
AcDb2dVertex
 10
11.49697265337576
 20
-38.52133516832106
 30
0.0
  0
SEQEND
  5
735
330
732
100
AcDbEntity
  8
BEMAßUNG
  0
POLYLINE
  5
736
330
1F
100
AcDbEntity
  8
BEMAßUNG
 62
     7
100
AcDb2dPolyline
 66
     1
 10
0.0
 20
0.0
 30
0.0
  0
VERTEX
  5
737
330
736
100
AcDbEntity
  8
BEMAßUNG
 62
     7
100
AcDbVertex
100
AcDb2dVertex
 10
11.52418890770923
 20
-38.52133516832106
 30
0.0
  0
VERTEX
  5
738
330
736
100
AcDbEntity
  8
BEMAßUNG
 62
     7
100
AcDbVertex
100
AcDb2dVertex
 10
11.49697265337576
 20
-38.52133516832106
 30
0.0
  0
SEQEND
  5
739
330
736
100
AcDbEntity
  8
BEMAßUNG
  0
POLYLINE
  5
73A
330
1F
100
AcDbEntity
  8
BEMAßUNG
 62
     7
100
AcDb2dPolyline
 66
     1
 10
0.0
 20
0.0
 30
0.0
  0
VERTEX
  5
73B
330
73A
100
AcDbEntity
  8
BEMAßUNG
 62
     7
100
AcDbVertex
100
AcDb2dVertex
 10
11.52418890770923
 20
-38.57232258150275
 30
0.0
  0
VERTEX
  5
73C
330
73A
100
AcDbEntity
  8
BEMAßUNG
 62
     7
100
AcDbVertex
100
AcDb2dVertex
 10
11.1114664685763
 20
-38.57232258150275
 30
0.0
  0
SEQEND
  5
73D
330
73A
100
AcDbEntity
  8
BEMAßUNG
  0
POLYLINE
  5
73E
330
1F
100
AcDbEntity
  8
BEMAßUNG
 62
     7
100
AcDb2dPolyline
 66
     1
 10
0.0
 20
0.0
 30
0.0
  0
VERTEX
  5
73F
330
73E
100
AcDbEntity
  8
BEMAßUNG
 62
     7
100
AcDbVertex
100
AcDb2dVertex
 10
11.52418890770923
 20
-38.6226209755874
 30
0.0
  0
VERTEX
  5
740
330
73E
100
AcDbEntity
  8
BEMAßUNG
 62
     7
100
AcDbVertex
100
AcDb2dVertex
 10
10.72544351945406
 20
-38.6226209755874
 30
0.0
  0
SEQEND
  5
741
330
73E
100
AcDbEntity
  8
BEMAßUNG
  0
POLYLINE
  5
742
330
1F
100
AcDbEntity
  8
BEMAßUNG
 62
     7
100
AcDb2dPolyline
 66
     1
 10
0.0
 20
0.0
 30
0.0
  0
VERTEX
  5
743
330
742
100
AcDbEntity
  8
BEMAßUNG
 62
     7
100
AcDbVertex
100
AcDb2dVertex
 10
11.52418890770923
 20
-38.6736083887691
 30
0.0
  0
VERTEX
  5
744
330
742
100
AcDbEntity
  8
BEMAßUNG
 62
     7
100
AcDbVertex
100
AcDb2dVertex
 10
10.33959282510607
 20
-38.6736083887691
 30
0.0
  0
SEQEND
  5
745
330
742
100
AcDbEntity
  8
BEMAßUNG
  0
POLYLINE
  5
746
330
1F
100
AcDbEntity
  8
BEMAßUNG
 62
     7
100
AcDb2dPolyline
 66
     1
 10
0.0
 20
0.0
 30
0.0
  0
VERTEX
  5
747
330
746
100
AcDbEntity
  8
BEMAßUNG
 62
     7
100
AcDbVertex
100
AcDb2dVertex
 10
11.52418890770923
 20
-38.72425129240227
 30
0.0
  0
VERTEX
  5
748
330
746
100
AcDbEntity
  8
BEMAßUNG
 62
     7
100
AcDbVertex
100
AcDb2dVertex
 10
9.95356987598383
 20
-38.72425129240227
 30
0.0
  0
SEQEND
  5
749
330
746
100
AcDbEntity
  8
BEMAßUNG
  0
POLYLINE
  5
74A
330
1F
100
AcDbEntity
  8
BEMAßUNG
 62
     7
100
AcDb2dPolyline
 66
     1
 10
0.0
 20
0.0
 30
0.0
  0
VERTEX
  5
74B
330
74A
100
AcDbEntity
  8
BEMAßUNG
 62
     7
100
AcDbVertex
100
AcDb2dVertex
 10
11.52418890770923
 20
-38.77523870558397
 30
0.0
  0
VERTEX
  5
74C
330
74A
100
AcDbEntity
  8
BEMAßUNG
 62
     7
100
AcDbVertex
100
AcDb2dVertex
 10
9.568063691184374
 20
-38.77523870558397
 30
0.0
  0
SEQEND
  5
74D
330
74A
100
AcDbEntity
  8
BEMAßUNG
  0
POLYLINE
  5
74E
330
1F
100
AcDbEntity
  8
BEMAßUNG
 62
     7
100
AcDb2dPolyline
 66
     1
 10
0.0
 20
0.0
 30
0.0
  0
VERTEX
  5
74F
330
74E
100
AcDbEntity
  8
BEMAßUNG
 62
     7
100
AcDbVertex
100
AcDb2dVertex
 10
11.52418890770923
 20
-38.82588160921714
 30
0.0
  0
VERTEX
  5
750
330
74E
100
AcDbEntity
  8
BEMAßUNG
 62
     7
100
AcDbVertex
100
AcDb2dVertex
 10
9.18204074206213
 20
-38.82588160921714
 30
0.0
  0
SEQEND
  5
751
330
74E
100
AcDbEntity
  8
BEMAßUNG
  0
POLYLINE
  5
752
330
1F
100
AcDbEntity
  8
BEMAßUNG
 62
     7
100
AcDb2dPolyline
 66
     1
 10
0.0
 20
0.0
 30
0.0
  0
VERTEX
  5
753
330
752
100
AcDbEntity
  8
BEMAßUNG
 62
     7
100
AcDbVertex
100
AcDb2dVertex
 10
11.52418890770923
 20
-38.87721353194736
 30
0.0
  0
VERTEX
  5
754
330
752
100
AcDbEntity
  8
BEMAßUNG
 62
     7
100
AcDbVertex
100
AcDb2dVertex
 10
8.796190047714147
 20
-38.87721353194736
 30
0.0
  0
SEQEND
  5
755
330
752
100
AcDbEntity
  8
BEMAßUNG
  0
POLYLINE
  5
756
330
1F
100
AcDbEntity
  8
BEMAßUNG
 62
     7
100
AcDb2dPolyline
 66
     1
 10
0.0
 20
0.0
 30
0.0
  0
VERTEX
  5
757
330
756
100
AcDbEntity
  8
BEMAßUNG
 62
     7
100
AcDbVertex
100
AcDb2dVertex
 10
11.52418890770923
 20
-38.92820094512906
 30
0.0
  0
VERTEX
  5
758
330
756
100
AcDbEntity
  8
BEMAßUNG
 62
     7
100
AcDbVertex
100
AcDb2dVertex
 10
8.410167098591904
 20
-38.92820094512906
 30
0.0
  0
SEQEND
  5
759
330
756
100
AcDbEntity
  8
BEMAßUNG
  0
POLYLINE
  5
75A
330
1F
100
AcDbEntity
  8
BEMAßUNG
 62
     7
100
AcDb2dPolyline
 66
     1
 10
0.0
 20
0.0
 30
0.0
  0
VERTEX
  5
75B
330
75A
100
AcDbEntity
  8
BEMAßUNG
 62
     7
100
AcDbVertex
100
AcDb2dVertex
 10
11.52418890770923
 20
-38.97884384876224
 30
0.0
  0
VERTEX
  5
75C
330
75A
100
AcDbEntity
  8
BEMAßUNG
 62
     7
100
AcDbVertex
100
AcDb2dVertex
 10
8.02431640424392
 20
-38.97884384876224
 30
0.0
  0
SEQEND
  5
75D
330
75A
100
AcDbEntity
  8
BEMAßUNG
  0
POLYLINE
  5
75E
330
1F
100
AcDbEntity
  8
BEMAßUNG
 62
     7
100
AcDb2dPolyline
 66
     1
 10
0.0
 20
0.0
 30
0.0
  0
VERTEX
  5
75F
330
75E
100
AcDbEntity
  8
BEMAßUNG
 62
     7
100
AcDbVertex
100
AcDb2dVertex
 10
61.53646781230686
 20
-28.76482475409352
 30
0.0
  0
VERTEX
  5
760
330
75E
100
AcDbEntity
  8
BEMAßUNG
 62
     7
100
AcDbVertex
100
AcDb2dVertex
 10
49.80402288251427
 20
-28.76482475409352
 30
0.0
  0
SEQEND
  5
761
330
75E
100
AcDbEntity
  8
BEMAßUNG
  0
POLYLINE
  5
762
330
1F
100
AcDbEntity
  8
BEMAßUNG
 62
     7
100
AcDb2dPolyline
 66
     1
 10
0.0
 20
0.0
 30
0.0
  0
VERTEX
  5
763
330
762
100
AcDbEntity
  8
BEMAßUNG
 62
     7
100
AcDbVertex
100
AcDb2dVertex
 10
39.72091741628505
 20
-7.494632973386759
 30
0.0
  0
VERTEX
  5
764
330
762
100
AcDbEntity
  8
BEMAßUNG
 62
     7
100
AcDbVertex
100
AcDb2dVertex
 10
49.80402288251427
 20
-28.76482475409352
 30
0.0
  0
SEQEND
  5
765
330
762
100
AcDbEntity
  8
BEMAßUNG
  0
POLYLINE
  5
766
330
1F
100
AcDbEntity
  8
BEMAßUNG
 62
     7
100
AcDb2dPolyline
 66
     1
 10
0.0
 20
0.0
 30
0.0
  0
VERTEX
  5
767
330
766
100
AcDbEntity
  8
BEMAßUNG
 62
     7
100
AcDbVertex
100
AcDb2dVertex
 10
0.0242879231710114
 20
0.1143771701102946
 30
0.0
  0
VERTEX
  5
768
330
766
100
AcDbEntity
  8
BEMAßUNG
 62
     7
100
AcDbVertex
100
AcDb2dVertex
 10
0.0242879231710114
 20
18.52117783825165
 30
0.0
  0
SEQEND
  5
769
330
766
100
AcDbEntity
  8
BEMAßUNG
  0
POLYLINE
  5
76A
330
1F
100
AcDbEntity
  8
BEMAßUNG
 62
     7
100
AcDb2dPolyline
 66
     1
 10
0.0
 20
0.0
 30
0.0
  0
VERTEX
  5
76B
330
76A
100
AcDbEntity
  8
BEMAßUNG
 62
     7
100
AcDbVertex
100
AcDb2dVertex
 10
-8.725565590266525
 20
16.52129990906412
 30
0.0
  0
VERTEX
  5
76C
330
76A
100
AcDbEntity
  8
BEMAßUNG
 62
     7
100
AcDbVertex
100
AcDb2dVertex
 10
16.78484971368573
 20
16.52129990906412
 30
0.0
  0
SEQEND
  5
76D
330
76A
100
AcDbEntity
  8
BEMAßUNG
  0
POLYLINE
  5
76E
330
1F
100
AcDbEntity
  8
BEMAßUNG
 62
     7
100
AcDb2dPolyline
 66
     1
 10
0.0
 20
0.0
 30
0.0
  0
VERTEX
  5
76F
330
76E
100
AcDbEntity
  8
BEMAßUNG
 62
     7
100
AcDbVertex
100
AcDb2dVertex
 10
0.0242879231710114
 20
16.52129990906412
 30
0.0
  0
VERTEX
  5
770
330
76E
100
AcDbEntity
  8
BEMAßUNG
 62
     7
100
AcDbVertex
100
AcDb2dVertex
 10
-3.475584580294298
 20
16.98242593976481
 30
0.0
  0
VERTEX
  5
771
330
76E
100
AcDbEntity
  8
BEMAßUNG
 62
     7
100
AcDbVertex
100
AcDb2dVertex
 10
-3.475584580294298
 20
16.06017387836343
 30
0.0
  0
VERTEX
  5
772
330
76E
100
AcDbEntity
  8
BEMAßUNG
 62
     7
100
AcDbVertex
100
AcDb2dVertex
 10
0.0242879231710114
 20
16.52129990906412
 30
0.0
  0
SEQEND
  5
773
330
76E
100
AcDbEntity
  8
BEMAßUNG
  0
POLYLINE
  5
774
330
1F
100
AcDbEntity
  8
BEMAßUNG
 62
     7
100
AcDb2dPolyline
 66
     1
 10
0.0
 20
0.0
 30
0.0
  0
VERTEX
  5
775
330
774
100
AcDbEntity
  8
BEMAßUNG
 62
     7
100
AcDbVertex
100
AcDb2dVertex
 10
-3.475584580294298
 20
16.97829182518251
 30
0.0
  0
VERTEX
  5
776
330
774
100
AcDbEntity
  8
BEMAßUNG
 62
     7
100
AcDbVertex
100
AcDb2dVertex
 10
-3.448368325960825
 20
16.97829182518251
 30
0.0
  0
SEQEND
  5
777
330
774
100
AcDbEntity
  8
BEMAßUNG
  0
POLYLINE
  5
778
330
1F
100
AcDbEntity
  8
BEMAßUNG
 62
     7
100
AcDb2dPolyline
 66
     1
 10
0.0
 20
0.0
 30
0.0
  0
VERTEX
  5
779
330
778
100
AcDbEntity
  8
BEMAßUNG
 62
     7
100
AcDbVertex
100
AcDb2dVertex
 10
-3.475584580294298
 20
16.97829182518251
 30
0.0
  0
VERTEX
  5
77A
330
778
100
AcDbEntity
  8
BEMAßUNG
 62
     7
100
AcDbVertex
100
AcDb2dVertex
 10
-3.448368325960825
 20
16.97829182518251
 30
0.0
  0
SEQEND
  5
77B
330
778
100
AcDbEntity
  8
BEMAßUNG
  0
POLYLINE
  5
77C
330
1F
100
AcDbEntity
  8
BEMAßUNG
 62
     7
100
AcDb2dPolyline
 66
     1
 10
0.0
 20
0.0
 30
0.0
  0
VERTEX
  5
77D
330
77C
100
AcDbEntity
  8
BEMAßUNG
 62
     7
100
AcDbVertex
100
AcDb2dVertex
 10
-3.475584580294298
 20
16.92730441200082
 30
0.0
  0
VERTEX
  5
77E
330
77C
100
AcDbEntity
  8
BEMAßUNG
 62
     7
100
AcDbVertex
100
AcDb2dVertex
 10
-3.062517631612843
 20
16.92730441200082
 30
0.0
  0
SEQEND
  5
77F
330
77C
100
AcDbEntity
  8
BEMAßUNG
  0
POLYLINE
  5
780
330
1F
100
AcDbEntity
  8
BEMAßUNG
 62
     7
100
AcDb2dPolyline
 66
     1
 10
0.0
 20
0.0
 30
0.0
  0
VERTEX
  5
781
330
780
100
AcDbEntity
  8
BEMAßUNG
 62
     7
100
AcDbVertex
100
AcDb2dVertex
 10
-3.475584580294298
 20
16.87666150836764
 30
0.0
  0
VERTEX
  5
782
330
780
100
AcDbEntity
  8
BEMAßUNG
 62
     7
100
AcDbVertex
100
AcDb2dVertex
 10
-2.676494682490599
 20
16.87666150836764
 30
0.0
  0
SEQEND
  5
783
330
780
100
AcDbEntity
  8
BEMAßUNG
  0
POLYLINE
  5
784
330
1F
100
AcDbEntity
  8
BEMAßUNG
 62
     7
100
AcDb2dPolyline
 66
     1
 10
0.0
 20
0.0
 30
0.0
  0
VERTEX
  5
785
330
784
100
AcDbEntity
  8
BEMAßUNG
 62
     7
100
AcDbVertex
100
AcDb2dVertex
 10
-3.475584580294298
 20
16.82567409518594
 30
0.0
  0
VERTEX
  5
786
330
784
100
AcDbEntity
  8
BEMAßUNG
 62
     7
100
AcDbVertex
100
AcDb2dVertex
 10
-2.291333007239667
 20
16.82567409518594
 30
0.0
  0
SEQEND
  5
787
330
784
100
AcDbEntity
  8
BEMAßUNG
  0
POLYLINE
  5
788
330
1F
100
AcDbEntity
  8
BEMAßUNG
 62
     7
100
AcDb2dPolyline
 66
     1
 10
0.0
 20
0.0
 30
0.0
  0
VERTEX
  5
789
330
788
100
AcDbEntity
  8
BEMAßUNG
 62
     7
100
AcDbVertex
100
AcDb2dVertex
 10
-3.475584580294298
 20
16.77503119155277
 30
0.0
  0
VERTEX
  5
78A
330
788
100
AcDbEntity
  8
BEMAßUNG
 62
     7
100
AcDbVertex
100
AcDb2dVertex
 10
-1.904965548568898
 20
16.77503119155277
 30
0.0
  0
SEQEND
  5
78B
330
788
100
AcDbEntity
  8
BEMAßUNG
  0
POLYLINE
  5
78C
330
1F
100
AcDbEntity
  8
BEMAßUNG
 62
     7
100
AcDb2dPolyline
 66
     1
 10
0.0
 20
0.0
 30
0.0
  0
VERTEX
  5
78D
330
78C
100
AcDbEntity
  8
BEMAßUNG
 62
     7
100
AcDbVertex
100
AcDb2dVertex
 10
-3.475584580294298
 20
16.72456054269386
 30
0.0
  0
VERTEX
  5
78E
330
78C
100
AcDbEntity
  8
BEMAßUNG
 62
     7
100
AcDbVertex
100
AcDb2dVertex
 10
-1.519114854220916
 20
16.72456054269386
 30
0.0
  0
SEQEND
  5
78F
330
78C
100
AcDbEntity
  8
BEMAßUNG
  0
POLYLINE
  5
790
330
1F
100
AcDbEntity
  8
BEMAßUNG
 62
     7
100
AcDb2dPolyline
 66
     1
 10
0.0
 20
0.0
 30
0.0
  0
VERTEX
  5
791
330
790
100
AcDbEntity
  8
BEMAßUNG
 62
     7
100
AcDbVertex
100
AcDb2dVertex
 10
-3.475584580294298
 20
16.67374538428643
 30
0.0
  0
VERTEX
  5
792
330
790
100
AcDbEntity
  8
BEMAßUNG
 62
     7
100
AcDbVertex
100
AcDb2dVertex
 10
-1.133091905098671
 20
16.67374538428643
 30
0.0
  0
SEQEND
  5
793
330
790
100
AcDbEntity
  8
BEMAßUNG
  0
POLYLINE
  5
794
330
1F
100
AcDbEntity
  8
BEMAßUNG
 62
     7
100
AcDb2dPolyline
 66
     1
 10
0.0
 20
0.0
 30
0.0
  0
VERTEX
  5
795
330
794
100
AcDbEntity
  8
BEMAßUNG
 62
     7
100
AcDbVertex
100
AcDb2dVertex
 10
-3.475584580294298
 20
16.62293022587899
 30
0.0
  0
VERTEX
  5
796
330
794
100
AcDbEntity
  8
BEMAßUNG
 62
     7
100
AcDbVertex
100
AcDb2dVertex
 10
-0.7475857202992147
 20
16.62293022587899
 30
0.0
  0
SEQEND
  5
797
330
794
100
AcDbEntity
  8
BEMAßUNG
  0
POLYLINE
  5
798
330
1F
100
AcDbEntity
  8
BEMAßUNG
 62
     7
100
AcDb2dPolyline
 66
     1
 10
0.0
 20
0.0
 30
0.0
  0
VERTEX
  5
799
330
798
100
AcDbEntity
  8
BEMAßUNG
 62
     7
100
AcDbVertex
100
AcDb2dVertex
 10
-3.475584580294298
 20
16.57211506747155
 30
0.0
  0
VERTEX
  5
79A
330
798
100
AcDbEntity
  8
BEMAßUNG
 62
     7
100
AcDbVertex
100
AcDb2dVertex
 10
-0.3615627711769704
 20
16.57211506747155
 30
0.0
  0
SEQEND
  5
79B
330
798
100
AcDbEntity
  8
BEMAßUNG
  0
POLYLINE
  5
79C
330
1F
100
AcDbEntity
  8
BEMAßUNG
 62
     7
100
AcDb2dPolyline
 66
     1
 10
0.0
 20
0.0
 30
0.0
  0
VERTEX
  5
79D
330
79C
100
AcDbEntity
  8
BEMAßUNG
 62
     7
100
AcDbVertex
100
AcDb2dVertex
 10
-3.475584580294298
 20
16.52129990906412
 30
0.0
  0
VERTEX
  5
79E
330
79C
100
AcDbEntity
  8
BEMAßUNG
 62
     7
100
AcDbVertex
100
AcDb2dVertex
 10
0.0242879231710114
 20
16.52129990906412
 30
0.0
  0
SEQEND
  5
79F
330
79C
100
AcDbEntity
  8
BEMAßUNG
  0
POLYLINE
  5
7A0
330
1F
100
AcDbEntity
  8
BEMAßUNG
 62
     7
100
AcDb2dPolyline
 66
     1
 10
0.0
 20
0.0
 30
0.0
  0
VERTEX
  5
7A1
330
7A0
100
AcDbEntity
  8
BEMAßUNG
 62
     7
100
AcDbVertex
100
AcDb2dVertex
 10
-3.475584580294298
 20
16.06379122862294
 30
0.0
  0
VERTEX
  5
7A2
330
7A0
100
AcDbEntity
  8
BEMAßUNG
 62
     7
100
AcDbVertex
100
AcDb2dVertex
 10
-3.448368325960825
 20
16.06379122862294
 30
0.0
  0
SEQEND
  5
7A3
330
7A0
100
AcDbEntity
  8
BEMAßUNG
  0
POLYLINE
  5
7A4
330
1F
100
AcDbEntity
  8
BEMAßUNG
 62
     7
100
AcDb2dPolyline
 66
     1
 10
0.0
 20
0.0
 30
0.0
  0
VERTEX
  5
7A5
330
7A4
100
AcDbEntity
  8
BEMAßUNG
 62
     7
100
AcDbVertex
100
AcDb2dVertex
 10
-3.475584580294298
 20
16.06379122862294
 30
0.0
  0
VERTEX
  5
7A6
330
7A4
100
AcDbEntity
  8
BEMAßUNG
 62
     7
100
AcDbVertex
100
AcDb2dVertex
 10
-3.448368325960825
 20
16.06379122862294
 30
0.0
  0
SEQEND
  5
7A7
330
7A4
100
AcDbEntity
  8
BEMAßUNG
  0
POLYLINE
  5
7A8
330
1F
100
AcDbEntity
  8
BEMAßUNG
 62
     7
100
AcDb2dPolyline
 66
     1
 10
0.0
 20
0.0
 30
0.0
  0
VERTEX
  5
7A9
330
7A8
100
AcDbEntity
  8
BEMAßUNG
 62
     7
100
AcDbVertex
100
AcDb2dVertex
 10
-3.475584580294298
 20
16.11460638703038
 30
0.0
  0
VERTEX
  5
7AA
330
7A8
100
AcDbEntity
  8
BEMAßUNG
 62
     7
100
AcDbVertex
100
AcDb2dVertex
 10
-3.062517631612843
 20
16.11460638703038
 30
0.0
  0
SEQEND
  5
7AB
330
7A8
100
AcDbEntity
  8
BEMAßUNG
  0
POLYLINE
  5
7AC
330
1F
100
AcDbEntity
  8
BEMAßUNG
 62
     7
100
AcDb2dPolyline
 66
     1
 10
0.0
 20
0.0
 30
0.0
  0
VERTEX
  5
7AD
330
7AC
100
AcDbEntity
  8
BEMAßUNG
 62
     7
100
AcDbVertex
100
AcDb2dVertex
 10
-3.475584580294298
 20
16.16542154543781
 30
0.0
  0
VERTEX
  5
7AE
330
7AC
100
AcDbEntity
  8
BEMAßUNG
 62
     7
100
AcDbVertex
100
AcDb2dVertex
 10
-2.676494682490599
 20
16.16542154543781
 30
0.0
  0
SEQEND
  5
7AF
330
7AC
100
AcDbEntity
  8
BEMAßUNG
  0
POLYLINE
  5
7B0
330
1F
100
AcDbEntity
  8
BEMAßUNG
 62
     7
100
AcDb2dPolyline
 66
     1
 10
0.0
 20
0.0
 30
0.0
  0
VERTEX
  5
7B1
330
7B0
100
AcDbEntity
  8
BEMAßUNG
 62
     7
100
AcDbVertex
100
AcDb2dVertex
 10
-3.475584580294298
 20
16.21623670384525
 30
0.0
  0
VERTEX
  5
7B2
330
7B0
100
AcDbEntity
  8
BEMAßUNG
 62
     7
100
AcDbVertex
100
AcDb2dVertex
 10
-2.291333007239667
 20
16.21623670384525
 30
0.0
  0
SEQEND
  5
7B3
330
7B0
100
AcDbEntity
  8
BEMAßUNG
  0
POLYLINE
  5
7B4
330
1F
100
AcDbEntity
  8
BEMAßUNG
 62
     7
100
AcDb2dPolyline
 66
     1
 10
0.0
 20
0.0
 30
0.0
  0
VERTEX
  5
7B5
330
7B4
100
AcDbEntity
  8
BEMAßUNG
 62
     7
100
AcDbVertex
100
AcDb2dVertex
 10
-3.475584580294298
 20
16.26722411702695
 30
0.0
  0
VERTEX
  5
7B6
330
7B4
100
AcDbEntity
  8
BEMAßUNG
 62
     7
100
AcDbVertex
100
AcDb2dVertex
 10
-1.904965548568898
 20
16.26722411702695
 30
0.0
  0
SEQEND
  5
7B7
330
7B4
100
AcDbEntity
  8
BEMAßUNG
  0
POLYLINE
  5
7B8
330
1F
100
AcDbEntity
  8
BEMAßUNG
 62
     7
100
AcDb2dPolyline
 66
     1
 10
0.0
 20
0.0
 30
0.0
  0
VERTEX
  5
7B9
330
7B8
100
AcDbEntity
  8
BEMAßUNG
 62
     7
100
AcDbVertex
100
AcDb2dVertex
 10
-3.475584580294298
 20
16.31821153020864
 30
0.0
  0
VERTEX
  5
7BA
330
7B8
100
AcDbEntity
  8
BEMAßUNG
 62
     7
100
AcDbVertex
100
AcDb2dVertex
 10
-1.519114854220916
 20
16.31821153020864
 30
0.0
  0
SEQEND
  5
7BB
330
7B8
100
AcDbEntity
  8
BEMAßUNG
  0
POLYLINE
  5
7BC
330
1F
100
AcDbEntity
  8
BEMAßUNG
 62
     7
100
AcDb2dPolyline
 66
     1
 10
0.0
 20
0.0
 30
0.0
  0
VERTEX
  5
7BD
330
7BC
100
AcDbEntity
  8
BEMAßUNG
 62
     7
100
AcDbVertex
100
AcDb2dVertex
 10
-3.475584580294298
 20
16.36885443384181
 30
0.0
  0
VERTEX
  5
7BE
330
7BC
100
AcDbEntity
  8
BEMAßUNG
 62
     7
100
AcDbVertex
100
AcDb2dVertex
 10
-1.133091905098671
 20
16.36885443384181
 30
0.0
  0
SEQEND
  5
7BF
330
7BC
100
AcDbEntity
  8
BEMAßUNG
  0
POLYLINE
  5
7C0
330
1F
100
AcDbEntity
  8
BEMAßUNG
 62
     7
100
AcDb2dPolyline
 66
     1
 10
0.0
 20
0.0
 30
0.0
  0
VERTEX
  5
7C1
330
7C0
100
AcDbEntity
  8
BEMAßUNG
 62
     7
100
AcDbVertex
100
AcDb2dVertex
 10
-3.475584580294298
 20
16.41984184702351
 30
0.0
  0
VERTEX
  5
7C2
330
7C0
100
AcDbEntity
  8
BEMAßUNG
 62
     7
100
AcDbVertex
100
AcDb2dVertex
 10
-0.7475857202992147
 20
16.41984184702351
 30
0.0
  0
SEQEND
  5
7C3
330
7C0
100
AcDbEntity
  8
BEMAßUNG
  0
POLYLINE
  5
7C4
330
1F
100
AcDbEntity
  8
BEMAßUNG
 62
     7
100
AcDb2dPolyline
 66
     1
 10
0.0
 20
0.0
 30
0.0
  0
VERTEX
  5
7C5
330
7C4
100
AcDbEntity
  8
BEMAßUNG
 62
     7
100
AcDbVertex
100
AcDb2dVertex
 10
-3.475584580294298
 20
16.47048475065668
 30
0.0
  0
VERTEX
  5
7C6
330
7C4
100
AcDbEntity
  8
BEMAßUNG
 62
     7
100
AcDbVertex
100
AcDb2dVertex
 10
-0.3615627711769704
 20
16.47048475065668
 30
0.0
  0
SEQEND
  5
7C7
330
7C4
100
AcDbEntity
  8
BEMAßUNG
  0
POLYLINE
  5
7C8
330
1F
100
AcDbEntity
  8
BEMAßUNG
 62
     7
100
AcDb2dPolyline
 66
     1
 10
0.0
 20
0.0
 30
0.0
  0
VERTEX
  5
7C9
330
7C8
100
AcDbEntity
  8
BEMAßUNG
 62
     7
100
AcDbVertex
100
AcDb2dVertex
 10
-3.475584580294298
 20
16.52129990906412
 30
0.0
  0
VERTEX
  5
7CA
330
7C8
100
AcDbEntity
  8
BEMAßUNG
 62
     7
100
AcDbVertex
100
AcDb2dVertex
 10
0.0242879231710114
 20
16.52129990906412
 30
0.0
  0
SEQEND
  5
7CB
330
7C8
100
AcDbEntity
  8
BEMAßUNG
  0
POLYLINE
  5
7CC
330
1F
100
AcDbEntity
  8
BEMAßUNG
 62
     7
100
AcDb2dPolyline
 66
     1
 10
0.0
 20
0.0
 30
0.0
  0
VERTEX
  5
7CD
330
7CC
100
AcDbEntity
  8
BEMAßUNG
 62
     7
100
AcDbVertex
100
AcDb2dVertex
 10
8.034823945473933
 20
16.52129990906412
 30
0.0
  0
VERTEX
  5
7CE
330
7CC
100
AcDbEntity
  8
BEMAßUNG
 62
     7
100
AcDbVertex
100
AcDb2dVertex
 10
11.53504095848777
 20
16.06017387836343
 30
0.0
  0
VERTEX
  5
7CF
330
7CC
100
AcDbEntity
  8
BEMAßUNG
 62
     7
100
AcDbVertex
100
AcDb2dVertex
 10
11.53504095848777
 20
16.98242593976481
 30
0.0
  0
VERTEX
  5
7D0
330
7CC
100
AcDbEntity
  8
BEMAßUNG
 62
     7
100
AcDbVertex
100
AcDb2dVertex
 10
8.034823945473933
 20
16.52129990906412
 30
0.0
  0
SEQEND
  5
7D1
330
7CC
100
AcDbEntity
  8
BEMAßUNG
  0
POLYLINE
  5
7D2
330
1F
100
AcDbEntity
  8
BEMAßUNG
 62
     7
100
AcDb2dPolyline
 66
     1
 10
0.0
 20
0.0
 30
0.0
  0
VERTEX
  5
7D3
330
7D2
100
AcDbEntity
  8
BEMAßUNG
 62
     7
100
AcDbVertex
100
AcDb2dVertex
 10
11.53504095848777
 20
16.06379122862294
 30
0.0
  0
VERTEX
  5
7D4
330
7D2
100
AcDbEntity
  8
BEMAßUNG
 62
     7
100
AcDbVertex
100
AcDb2dVertex
 10
11.50799695892856
 20
16.06379122862294
 30
0.0
  0
SEQEND
  5
7D5
330
7D2
100
AcDbEntity
  8
BEMAßUNG
  0
POLYLINE
  5
7D6
330
1F
100
AcDbEntity
  8
BEMAßUNG
 62
     7
100
AcDb2dPolyline
 66
     1
 10
0.0
 20
0.0
 30
0.0
  0
VERTEX
  5
7D7
330
7D6
100
AcDbEntity
  8
BEMAßUNG
 62
     7
100
AcDbVertex
100
AcDb2dVertex
 10
11.53504095848777
 20
16.06379122862294
 30
0.0
  0
VERTEX
  5
7D8
330
7D6
100
AcDbEntity
  8
BEMAßUNG
 62
     7
100
AcDbVertex
100
AcDb2dVertex
 10
11.50799695892856
 20
16.06379122862294
 30
0.0
  0
SEQEND
  5
7D9
330
7D6
100
AcDbEntity
  8
BEMAßUNG
  0
POLYLINE
  5
7DA
330
1F
100
AcDbEntity
  8
BEMAßUNG
 62
     7
100
AcDb2dPolyline
 66
     1
 10
0.0
 20
0.0
 30
0.0
  0
VERTEX
  5
7DB
330
7DA
100
AcDbEntity
  8
BEMAßUNG
 62
     7
100
AcDbVertex
100
AcDb2dVertex
 10
11.53504095848777
 20
16.11460638703038
 30
0.0
  0
VERTEX
  5
7DC
330
7DA
100
AcDbEntity
  8
BEMAßUNG
 62
     7
100
AcDbVertex
100
AcDb2dVertex
 10
11.12162950025779
 20
16.11460638703038
 30
0.0
  0
SEQEND
  5
7DD
330
7DA
100
AcDbEntity
  8
BEMAßUNG
  0
POLYLINE
  5
7DE
330
1F
100
AcDbEntity
  8
BEMAßUNG
 62
     7
100
AcDb2dPolyline
 66
     1
 10
0.0
 20
0.0
 30
0.0
  0
VERTEX
  5
7DF
330
7DE
100
AcDbEntity
  8
BEMAßUNG
 62
     7
100
AcDbVertex
100
AcDb2dVertex
 10
11.53504095848777
 20
16.16542154543781
 30
0.0
  0
VERTEX
  5
7E0
330
7DE
100
AcDbEntity
  8
BEMAßUNG
 62
     7
100
AcDbVertex
100
AcDb2dVertex
 10
10.73577880590981
 20
16.16542154543781
 30
0.0
  0
SEQEND
  5
7E1
330
7DE
100
AcDbEntity
  8
BEMAßUNG
  0
POLYLINE
  5
7E2
330
1F
100
AcDbEntity
  8
BEMAßUNG
 62
     7
100
AcDb2dPolyline
 66
     1
 10
0.0
 20
0.0
 30
0.0
  0
VERTEX
  5
7E3
330
7E2
100
AcDbEntity
  8
BEMAßUNG
 62
     7
100
AcDbVertex
100
AcDb2dVertex
 10
11.53504095848777
 20
16.21623670384525
 30
0.0
  0
VERTEX
  5
7E4
330
7E2
100
AcDbEntity
  8
BEMAßUNG
 62
     7
100
AcDbVertex
100
AcDb2dVertex
 10
10.34975585678756
 20
16.21623670384525
 30
0.0
  0
SEQEND
  5
7E5
330
7E2
100
AcDbEntity
  8
BEMAßUNG
  0
POLYLINE
  5
7E6
330
1F
100
AcDbEntity
  8
BEMAßUNG
 62
     7
100
AcDb2dPolyline
 66
     1
 10
0.0
 20
0.0
 30
0.0
  0
VERTEX
  5
7E7
330
7E6
100
AcDbEntity
  8
BEMAßUNG
 62
     7
100
AcDbVertex
100
AcDb2dVertex
 10
11.53504095848777
 20
16.26722411702695
 30
0.0
  0
VERTEX
  5
7E8
330
7E6
100
AcDbEntity
  8
BEMAßUNG
 62
     7
100
AcDbVertex
100
AcDb2dVertex
 10
9.96459418153663
 20
16.26722411702695
 30
0.0
  0
SEQEND
  5
7E9
330
7E6
100
AcDbEntity
  8
BEMAßUNG
  0
POLYLINE
  5
7EA
330
1F
100
AcDbEntity
  8
BEMAßUNG
 62
     7
100
AcDb2dPolyline
 66
     1
 10
0.0
 20
0.0
 30
0.0
  0
VERTEX
  5
7EB
330
7EA
100
AcDbEntity
  8
BEMAßUNG
 62
     7
100
AcDbVertex
100
AcDb2dVertex
 10
11.53504095848777
 20
16.31821153020864
 30
0.0
  0
VERTEX
  5
7EC
330
7EA
100
AcDbEntity
  8
BEMAßUNG
 62
     7
100
AcDbVertex
100
AcDb2dVertex
 10
9.57822672286586
 20
16.31821153020864
 30
0.0
  0
SEQEND
  5
7ED
330
7EA
100
AcDbEntity
  8
BEMAßUNG
  0
POLYLINE
  5
7EE
330
1F
100
AcDbEntity
  8
BEMAßUNG
 62
     7
100
AcDb2dPolyline
 66
     1
 10
0.0
 20
0.0
 30
0.0
  0
VERTEX
  5
7EF
330
7EE
100
AcDbEntity
  8
BEMAßUNG
 62
     7
100
AcDbVertex
100
AcDb2dVertex
 10
11.53504095848777
 20
16.36885443384181
 30
0.0
  0
VERTEX
  5
7F0
330
7EE
100
AcDbEntity
  8
BEMAßUNG
 62
     7
100
AcDbVertex
100
AcDb2dVertex
 10
9.192376028517879
 20
16.36885443384181
 30
0.0
  0
SEQEND
  5
7F1
330
7EE
100
AcDbEntity
  8
BEMAßUNG
  0
POLYLINE
  5
7F2
330
1F
100
AcDbEntity
  8
BEMAßUNG
 62
     7
100
AcDb2dPolyline
 66
     1
 10
0.0
 20
0.0
 30
0.0
  0
VERTEX
  5
7F3
330
7F2
100
AcDbEntity
  8
BEMAßUNG
 62
     7
100
AcDbVertex
100
AcDb2dVertex
 10
11.53504095848777
 20
16.41984184702351
 30
0.0
  0
VERTEX
  5
7F4
330
7F2
100
AcDbEntity
  8
BEMAßUNG
 62
     7
100
AcDbVertex
100
AcDb2dVertex
 10
8.806353079395635
 20
16.41984184702351
 30
0.0
  0
SEQEND
  5
7F5
330
7F2
100
AcDbEntity
  8
BEMAßUNG
  0
POLYLINE
  5
7F6
330
1F
100
AcDbEntity
  8
BEMAßUNG
 62
     7
100
AcDb2dPolyline
 66
     1
 10
0.0
 20
0.0
 30
0.0
  0
VERTEX
  5
7F7
330
7F6
100
AcDbEntity
  8
BEMAßUNG
 62
     7
100
AcDbVertex
100
AcDb2dVertex
 10
11.53504095848777
 20
16.47048475065668
 30
0.0
  0
VERTEX
  5
7F8
330
7F6
100
AcDbEntity
  8
BEMAßUNG
 62
     7
100
AcDbVertex
100
AcDb2dVertex
 10
8.42033013027339
 20
16.47048475065668
 30
0.0
  0
SEQEND
  5
7F9
330
7F6
100
AcDbEntity
  8
BEMAßUNG
  0
POLYLINE
  5
7FA
330
1F
100
AcDbEntity
  8
BEMAßUNG
 62
     7
100
AcDb2dPolyline
 66
     1
 10
0.0
 20
0.0
 30
0.0
  0
VERTEX
  5
7FB
330
7FA
100
AcDbEntity
  8
BEMAßUNG
 62
     7
100
AcDbVertex
100
AcDb2dVertex
 10
11.53504095848777
 20
16.52129990906412
 30
0.0
  0
VERTEX
  5
7FC
330
7FA
100
AcDbEntity
  8
BEMAßUNG
 62
     7
100
AcDbVertex
100
AcDb2dVertex
 10
8.034823945473933
 20
16.52129990906412
 30
0.0
  0
SEQEND
  5
7FD
330
7FA
100
AcDbEntity
  8
BEMAßUNG
  0
POLYLINE
  5
7FE
330
1F
100
AcDbEntity
  8
BEMAßUNG
 62
     7
100
AcDb2dPolyline
 66
     1
 10
0.0
 20
0.0
 30
0.0
  0
VERTEX
  5
7FF
330
7FE
100
AcDbEntity
  8
BEMAßUNG
 62
     7
100
AcDbVertex
100
AcDb2dVertex
 10
11.53504095848777
 20
16.97829182518251
 30
0.0
  0
VERTEX
  5
800
330
7FE
100
AcDbEntity
  8
BEMAßUNG
 62
     7
100
AcDbVertex
100
AcDb2dVertex
 10
11.50799695892856
 20
16.97829182518251
 30
0.0
  0
SEQEND
  5
801
330
7FE
100
AcDbEntity
  8
BEMAßUNG
  0
POLYLINE
  5
802
330
1F
100
AcDbEntity
  8
BEMAßUNG
 62
     7
100
AcDb2dPolyline
 66
     1
 10
0.0
 20
0.0
 30
0.0
  0
VERTEX
  5
803
330
802
100
AcDbEntity
  8
BEMAßUNG
 62
     7
100
AcDbVertex
100
AcDb2dVertex
 10
11.53504095848777
 20
16.97829182518251
 30
0.0
  0
VERTEX
  5
804
330
802
100
AcDbEntity
  8
BEMAßUNG
 62
     7
100
AcDbVertex
100
AcDb2dVertex
 10
11.50799695892856
 20
16.97829182518251
 30
0.0
  0
SEQEND
  5
805
330
802
100
AcDbEntity
  8
BEMAßUNG
  0
POLYLINE
  5
806
330
1F
100
AcDbEntity
  8
BEMAßUNG
 62
     7
100
AcDb2dPolyline
 66
     1
 10
0.0
 20
0.0
 30
0.0
  0
VERTEX
  5
807
330
806
100
AcDbEntity
  8
BEMAßUNG
 62
     7
100
AcDbVertex
100
AcDb2dVertex
 10
11.53504095848777
 20
16.92730441200082
 30
0.0
  0
VERTEX
  5
808
330
806
100
AcDbEntity
  8
BEMAßUNG
 62
     7
100
AcDbVertex
100
AcDb2dVertex
 10
11.12162950025779
 20
16.92730441200082
 30
0.0
  0
SEQEND
  5
809
330
806
100
AcDbEntity
  8
BEMAßUNG
  0
POLYLINE
  5
80A
330
1F
100
AcDbEntity
  8
BEMAßUNG
 62
     7
100
AcDb2dPolyline
 66
     1
 10
0.0
 20
0.0
 30
0.0
  0
VERTEX
  5
80B
330
80A
100
AcDbEntity
  8
BEMAßUNG
 62
     7
100
AcDbVertex
100
AcDb2dVertex
 10
11.53504095848777
 20
16.87666150836764
 30
0.0
  0
VERTEX
  5
80C
330
80A
100
AcDbEntity
  8
BEMAßUNG
 62
     7
100
AcDbVertex
100
AcDb2dVertex
 10
10.73577880590981
 20
16.87666150836764
 30
0.0
  0
SEQEND
  5
80D
330
80A
100
AcDbEntity
  8
BEMAßUNG
  0
POLYLINE
  5
80E
330
1F
100
AcDbEntity
  8
BEMAßUNG
 62
     7
100
AcDb2dPolyline
 66
     1
 10
0.0
 20
0.0
 30
0.0
  0
VERTEX
  5
80F
330
80E
100
AcDbEntity
  8
BEMAßUNG
 62
     7
100
AcDbVertex
100
AcDb2dVertex
 10
11.53504095848777
 20
16.82567409518594
 30
0.0
  0
VERTEX
  5
810
330
80E
100
AcDbEntity
  8
BEMAßUNG
 62
     7
100
AcDbVertex
100
AcDb2dVertex
 10
10.34975585678756
 20
16.82567409518594
 30
0.0
  0
SEQEND
  5
811
330
80E
100
AcDbEntity
  8
BEMAßUNG
  0
POLYLINE
  5
812
330
1F
100
AcDbEntity
  8
BEMAßUNG
 62
     7
100
AcDb2dPolyline
 66
     1
 10
0.0
 20
0.0
 30
0.0
  0
VERTEX
  5
813
330
812
100
AcDbEntity
  8
BEMAßUNG
 62
     7
100
AcDbVertex
100
AcDb2dVertex
 10
11.53504095848777
 20
16.77503119155277
 30
0.0
  0
VERTEX
  5
814
330
812
100
AcDbEntity
  8
BEMAßUNG
 62
     7
100
AcDbVertex
100
AcDb2dVertex
 10
9.96459418153663
 20
16.77503119155277
 30
0.0
  0
SEQEND
  5
815
330
812
100
AcDbEntity
  8
BEMAßUNG
  0
POLYLINE
  5
816
330
1F
100
AcDbEntity
  8
BEMAßUNG
 62
     7
100
AcDb2dPolyline
 66
     1
 10
0.0
 20
0.0
 30
0.0
  0
VERTEX
  5
817
330
816
100
AcDbEntity
  8
BEMAßUNG
 62
     7
100
AcDbVertex
100
AcDb2dVertex
 10
11.53504095848777
 20
16.72456054269386
 30
0.0
  0
VERTEX
  5
818
330
816
100
AcDbEntity
  8
BEMAßUNG
 62
     7
100
AcDbVertex
100
AcDb2dVertex
 10
9.57822672286586
 20
16.72456054269386
 30
0.0
  0
SEQEND
  5
819
330
816
100
AcDbEntity
  8
BEMAßUNG
  0
POLYLINE
  5
81A
330
1F
100
AcDbEntity
  8
BEMAßUNG
 62
     7
100
AcDb2dPolyline
 66
     1
 10
0.0
 20
0.0
 30
0.0
  0
VERTEX
  5
81B
330
81A
100
AcDbEntity
  8
BEMAßUNG
 62
     7
100
AcDbVertex
100
AcDb2dVertex
 10
11.53504095848777
 20
16.67374538428643
 30
0.0
  0
VERTEX
  5
81C
330
81A
100
AcDbEntity
  8
BEMAßUNG
 62
     7
100
AcDbVertex
100
AcDb2dVertex
 10
9.192376028517879
 20
16.67374538428643
 30
0.0
  0
SEQEND
  5
81D
330
81A
100
AcDbEntity
  8
BEMAßUNG
  0
POLYLINE
  5
81E
330
1F
100
AcDbEntity
  8
BEMAßUNG
 62
     7
100
AcDb2dPolyline
 66
     1
 10
0.0
 20
0.0
 30
0.0
  0
VERTEX
  5
81F
330
81E
100
AcDbEntity
  8
BEMAßUNG
 62
     7
100
AcDbVertex
100
AcDb2dVertex
 10
11.53504095848777
 20
16.62293022587899
 30
0.0
  0
VERTEX
  5
820
330
81E
100
AcDbEntity
  8
BEMAßUNG
 62
     7
100
AcDbVertex
100
AcDb2dVertex
 10
8.806353079395635
 20
16.62293022587899
 30
0.0
  0
SEQEND
  5
821
330
81E
100
AcDbEntity
  8
BEMAßUNG
  0
POLYLINE
  5
822
330
1F
100
AcDbEntity
  8
BEMAßUNG
 62
     7
100
AcDb2dPolyline
 66
     1
 10
0.0
 20
0.0
 30
0.0
  0
VERTEX
  5
823
330
822
100
AcDbEntity
  8
BEMAßUNG
 62
     7
100
AcDbVertex
100
AcDb2dVertex
 10
11.53504095848777
 20
16.57211506747155
 30
0.0
  0
VERTEX
  5
824
330
822
100
AcDbEntity
  8
BEMAßUNG
 62
     7
100
AcDbVertex
100
AcDb2dVertex
 10
8.42033013027339
 20
16.57211506747155
 30
0.0
  0
SEQEND
  5
825
330
822
100
AcDbEntity
  8
BEMAßUNG
  0
POLYLINE
  5
826
330
1F
100
AcDbEntity
  8
BEMAßUNG
 62
     7
100
AcDb2dPolyline
 66
     1
 10
0.0
 20
0.0
 30
0.0
  0
VERTEX
  5
827
330
826
100
AcDbEntity
  8
BEMAßUNG
 62
     7
100
AcDbVertex
100
AcDb2dVertex
 10
11.53504095848777
 20
16.52129990906412
 30
0.0
  0
VERTEX
  5
828
330
826
100
AcDbEntity
  8
BEMAßUNG
 62
     7
100
AcDbVertex
100
AcDb2dVertex
 10
8.034823945473933
 20
16.52129990906412
 30
0.0
  0
SEQEND
  5
829
330
826
100
AcDbEntity
  8
BEMAßUNG
  0
POLYLINE
  5
82A
330
1F
100
AcDbEntity
  8
BEMAßUNG
 62
     7
100
AcDb2dPolyline
 66
     1
 10
0.0
 20
0.0
 30
0.0
  0
VERTEX
  5
82B
330
82A
100
AcDbEntity
  8
BEMAßUNG
 62
     7
100
AcDbVertex
100
AcDb2dVertex
 10
8.02431640424392
 20
-1.302418348198701
 30
0.0
  0
VERTEX
  5
82C
330
82A
100
AcDbEntity
  8
BEMAßUNG
 62
     7
100
AcDbVertex
100
AcDb2dVertex
 10
-12.1704888207421
 20
-1.302418348198701
 30
0.0
  0
SEQEND
  5
82D
330
82A
100
AcDbEntity
  8
BEMAßUNG
  0
POLYLINE
  5
82E
330
1F
100
AcDbEntity
  8
BEMAßUNG
 62
     7
100
AcDb2dPolyline
 66
     1
 10
0.0
 20
0.0
 30
0.0
  0
VERTEX
  5
82F
330
82E
100
AcDbEntity
  8
BEMAßUNG
 62
     7
100
AcDbVertex
100
AcDb2dVertex
 10
8.02431640424392
 20
-11.30215250368488
 30
0.0
  0
VERTEX
  5
830
330
82E
100
AcDbEntity
  8
BEMAßUNG
 62
     7
100
AcDbVertex
100
AcDb2dVertex
 10
-12.1704888207421
 20
-11.30215250368488
 30
0.0
  0
SEQEND
  5
831
330
82E
100
AcDbEntity
  8
BEMAßUNG
  0
POLYLINE
  5
832
330
1F
100
AcDbEntity
  8
BEMAßUNG
 62
     7
100
AcDb2dPolyline
 66
     1
 10
0.0
 20
0.0
 30
0.0
  0
VERTEX
  5
833
330
832
100
AcDbEntity
  8
BEMAßUNG
 62
     7
100
AcDbVertex
100
AcDb2dVertex
 10
-10.17026638200604
 20
-1.302418348198701
 30
0.0
  0
VERTEX
  5
834
330
832
100
AcDbEntity
  8
BEMAßUNG
 62
     7
100
AcDbVertex
100
AcDb2dVertex
 10
-10.17026638200604
 20
-11.30215250368488
 30
0.0
  0
SEQEND
  5
835
330
832
100
AcDbEntity
  8
BEMAßUNG
  0
POLYLINE
  5
836
330
1F
100
AcDbEntity
  8
BEMAßUNG
 62
     7
100
AcDb2dPolyline
 66
     1
 10
0.0
 20
0.0
 30
0.0
  0
VERTEX
  5
837
330
836
100
AcDbEntity
  8
BEMAßUNG
 62
     7
100
AcDbVertex
100
AcDb2dVertex
 10
-10.17026638200604
 20
-1.302418348198701
 30
0.0
  0
VERTEX
  5
838
330
836
100
AcDbEntity
  8
BEMAßUNG
 62
     7
100
AcDbVertex
100
AcDb2dVertex
 10
-10.63122015793247
 20
-4.801946342115486
 30
0.0
  0
VERTEX
  5
839
330
836
100
AcDbEntity
  8
BEMAßUNG
 62
     7
100
AcDbVertex
100
AcDb2dVertex
 10
-9.709484860853879
 20
-4.801946342115486
 30
0.0
  0
VERTEX
  5
83A
330
836
100
AcDbEntity
  8
BEMAßUNG
 62
     7
100
AcDbVertex
100
AcDb2dVertex
 10
-10.17026638200604
 20
-1.302418348198701
 30
0.0
  0
SEQEND
  5
83B
330
836
100
AcDbEntity
  8
BEMAßUNG
  0
POLYLINE
  5
83C
330
1F
100
AcDbEntity
  8
BEMAßUNG
 62
     7
100
AcDb2dPolyline
 66
     1
 10
0.0
 20
0.0
 30
0.0
  0
VERTEX
  5
83D
330
83C
100
AcDbEntity
  8
BEMAßUNG
 62
     7
100
AcDbVertex
100
AcDb2dVertex
 10
-10.6274305528987
 20
-4.801946342115486
 30
0.0
  0
VERTEX
  5
83E
330
83C
100
AcDbEntity
  8
BEMAßUNG
 62
     7
100
AcDbVertex
100
AcDb2dVertex
 10
-10.6274305528987
 20
-4.774730087782012
 30
0.0
  0
SEQEND
  5
83F
330
83C
100
AcDbEntity
  8
BEMAßUNG
  0
POLYLINE
  5
840
330
1F
100
AcDbEntity
  8
BEMAßUNG
 62
     7
100
AcDb2dPolyline
 66
     1
 10
0.0
 20
0.0
 30
0.0
  0
VERTEX
  5
841
330
840
100
AcDbEntity
  8
BEMAßUNG
 62
     7
100
AcDbVertex
100
AcDb2dVertex
 10
-10.6274305528987
 20
-4.801946342115486
 30
0.0
  0
VERTEX
  5
842
330
840
100
AcDbEntity
  8
BEMAßUNG
 62
     7
100
AcDbVertex
100
AcDb2dVertex
 10
-10.6274305528987
 20
-4.774730087782012
 30
0.0
  0
SEQEND
  5
843
330
840
100
AcDbEntity
  8
BEMAßUNG
  0
POLYLINE
  5
844
330
1F
100
AcDbEntity
  8
BEMAßUNG
 62
     7
100
AcDb2dPolyline
 66
     1
 10
0.0
 20
0.0
 30
0.0
  0
VERTEX
  5
845
330
844
100
AcDbEntity
  8
BEMAßUNG
 62
     7
100
AcDbVertex
100
AcDb2dVertex
 10
-10.57695990403979
 20
-4.801946342115486
 30
0.0
  0
VERTEX
  5
846
330
844
100
AcDbEntity
  8
BEMAßUNG
 62
     7
100
AcDbVertex
100
AcDb2dVertex
 10
-10.57695990403979
 20
-4.389223902982556
 30
0.0
  0
SEQEND
  5
847
330
844
100
AcDbEntity
  8
BEMAßUNG
  0
POLYLINE
  5
848
330
1F
100
AcDbEntity
  8
BEMAßUNG
 62
     7
100
AcDb2dPolyline
 66
     1
 10
0.0
 20
0.0
 30
0.0
  0
VERTEX
  5
849
330
848
100
AcDbEntity
  8
BEMAßUNG
 62
     7
100
AcDbVertex
100
AcDb2dVertex
 10
-10.52614474563235
 20
-4.801946342115486
 30
0.0
  0
VERTEX
  5
84A
330
848
100
AcDbEntity
  8
BEMAßUNG
 62
     7
100
AcDbVertex
100
AcDb2dVertex
 10
-10.52614474563235
 20
-4.002856444311786
 30
0.0
  0
SEQEND
  5
84B
330
848
100
AcDbEntity
  8
BEMAßUNG
  0
POLYLINE
  5
84C
330
1F
100
AcDbEntity
  8
BEMAßUNG
 62
     7
100
AcDb2dPolyline
 66
     1
 10
0.0
 20
0.0
 30
0.0
  0
VERTEX
  5
84D
330
84C
100
AcDbEntity
  8
BEMAßUNG
 62
     7
100
AcDbVertex
100
AcDb2dVertex
 10
-10.47532958722492
 20
-4.801946342115486
 30
0.0
  0
VERTEX
  5
84E
330
84C
100
AcDbEntity
  8
BEMAßUNG
 62
     7
100
AcDbVertex
100
AcDb2dVertex
 10
-10.47532958722492
 20
-3.617178004738067
 30
0.0
  0
SEQEND
  5
84F
330
84C
100
AcDbEntity
  8
BEMAßUNG
  0
POLYLINE
  5
850
330
1F
100
AcDbEntity
  8
BEMAßUNG
 62
     7
100
AcDb2dPolyline
 66
     1
 10
0.0
 20
0.0
 30
0.0
  0
VERTEX
  5
851
330
850
100
AcDbEntity
  8
BEMAßUNG
 62
     7
100
AcDbVertex
100
AcDb2dVertex
 10
-10.42416991926896
 20
-4.801946342115486
 30
0.0
  0
VERTEX
  5
852
330
850
100
AcDbEntity
  8
BEMAßUNG
 62
     7
100
AcDbVertex
100
AcDb2dVertex
 10
-10.42416991926896
 20
-3.231327310390085
 30
0.0
  0
SEQEND
  5
853
330
850
100
AcDbEntity
  8
BEMAßUNG
  0
POLYLINE
  5
854
330
1F
100
AcDbEntity
  8
BEMAßUNG
 62
     7
100
AcDb2dPolyline
 66
     1
 10
0.0
 20
0.0
 30
0.0
  0
VERTEX
  5
855
330
854
100
AcDbEntity
  8
BEMAßUNG
 62
     7
100
AcDbVertex
100
AcDb2dVertex
 10
-10.37335476086152
 20
-4.801946342115486
 30
0.0
  0
VERTEX
  5
856
330
854
100
AcDbEntity
  8
BEMAßUNG
 62
     7
100
AcDbVertex
100
AcDb2dVertex
 10
-10.37335476086152
 20
-2.845821125590628
 30
0.0
  0
SEQEND
  5
857
330
854
100
AcDbEntity
  8
BEMAßUNG
  0
POLYLINE
  5
858
330
1F
100
AcDbEntity
  8
BEMAßUNG
 62
     7
100
AcDb2dPolyline
 66
     1
 10
0.0
 20
0.0
 30
0.0
  0
VERTEX
  5
859
330
858
100
AcDbEntity
  8
BEMAßUNG
 62
     7
100
AcDbVertex
100
AcDb2dVertex
 10
-10.32253960245409
 20
-4.801946342115486
 30
0.0
  0
VERTEX
  5
85A
330
858
100
AcDbEntity
  8
BEMAßUNG
 62
     7
100
AcDbVertex
100
AcDb2dVertex
 10
-10.32253960245409
 20
-2.459453666919859
 30
0.0
  0
SEQEND
  5
85B
330
858
100
AcDbEntity
  8
BEMAßUNG
  0
POLYLINE
  5
85C
330
1F
100
AcDbEntity
  8
BEMAßUNG
 62
     7
100
AcDb2dPolyline
 66
     1
 10
0.0
 20
0.0
 30
0.0
  0
VERTEX
  5
85D
330
85C
100
AcDbEntity
  8
BEMAßUNG
 62
     7
100
AcDbVertex
100
AcDb2dVertex
 10
-10.27206895359518
 20
-4.801946342115486
 30
0.0
  0
VERTEX
  5
85E
330
85C
100
AcDbEntity
  8
BEMAßUNG
 62
     7
100
AcDbVertex
100
AcDb2dVertex
 10
-10.27206895359518
 20
-2.07377522734614
 30
0.0
  0
SEQEND
  5
85F
330
85C
100
AcDbEntity
  8
BEMAßUNG
  0
POLYLINE
  5
860
330
1F
100
AcDbEntity
  8
BEMAßUNG
 62
     7
100
AcDb2dPolyline
 66
     1
 10
0.0
 20
0.0
 30
0.0
  0
VERTEX
  5
861
330
860
100
AcDbEntity
  8
BEMAßUNG
 62
     7
100
AcDbVertex
100
AcDb2dVertex
 10
-10.22142604996201
 20
-4.801946342115486
 30
0.0
  0
VERTEX
  5
862
330
860
100
AcDbEntity
  8
BEMAßUNG
 62
     7
100
AcDbVertex
100
AcDb2dVertex
 10
-10.22142604996201
 20
-1.687580023449633
 30
0.0
  0
SEQEND
  5
863
330
860
100
AcDbEntity
  8
BEMAßUNG
  0
POLYLINE
  5
864
330
1F
100
AcDbEntity
  8
BEMAßUNG
 62
     7
100
AcDb2dPolyline
 66
     1
 10
0.0
 20
0.0
 30
0.0
  0
VERTEX
  5
865
330
864
100
AcDbEntity
  8
BEMAßUNG
 62
     7
100
AcDbVertex
100
AcDb2dVertex
 10
-10.17026638200604
 20
-4.801946342115486
 30
0.0
  0
VERTEX
  5
866
330
864
100
AcDbEntity
  8
BEMAßUNG
 62
     7
100
AcDbVertex
100
AcDb2dVertex
 10
-10.17026638200604
 20
-1.302418348198701
 30
0.0
  0
SEQEND
  5
867
330
864
100
AcDbEntity
  8
BEMAßUNG
  0
POLYLINE
  5
868
330
1F
100
AcDbEntity
  8
BEMAßUNG
 62
     7
100
AcDb2dPolyline
 66
     1
 10
0.0
 20
0.0
 30
0.0
  0
VERTEX
  5
869
330
868
100
AcDbEntity
  8
BEMAßUNG
 62
     7
100
AcDbVertex
100
AcDb2dVertex
 10
-9.713274465887654
 20
-4.801946342115486
 30
0.0
  0
VERTEX
  5
86A
330
868
100
AcDbEntity
  8
BEMAßUNG
 62
     7
100
AcDbVertex
100
AcDb2dVertex
 10
-9.713274465887654
 20
-4.774730087782012
 30
0.0
  0
SEQEND
  5
86B
330
868
100
AcDbEntity
  8
BEMAßUNG
  0
POLYLINE
  5
86C
330
1F
100
AcDbEntity
  8
BEMAßUNG
 62
     7
100
AcDb2dPolyline
 66
     1
 10
0.0
 20
0.0
 30
0.0
  0
VERTEX
  5
86D
330
86C
100
AcDbEntity
  8
BEMAßUNG
 62
     7
100
AcDbVertex
100
AcDb2dVertex
 10
-9.713274465887654
 20
-4.801946342115486
 30
0.0
  0
VERTEX
  5
86E
330
86C
100
AcDbEntity
  8
BEMAßUNG
 62
     7
100
AcDbVertex
100
AcDb2dVertex
 10
-9.713274465887654
 20
-4.774730087782012
 30
0.0
  0
SEQEND
  5
86F
330
86C
100
AcDbEntity
  8
BEMAßUNG
  0
POLYLINE
  5
870
330
1F
100
AcDbEntity
  8
BEMAßUNG
 62
     7
100
AcDb2dPolyline
 66
     1
 10
0.0
 20
0.0
 30
0.0
  0
VERTEX
  5
871
330
870
100
AcDbEntity
  8
BEMAßUNG
 62
     7
100
AcDbVertex
100
AcDb2dVertex
 10
-9.764089624295089
 20
-4.801946342115486
 30
0.0
  0
VERTEX
  5
872
330
870
100
AcDbEntity
  8
BEMAßUNG
 62
     7
100
AcDbVertex
100
AcDb2dVertex
 10
-9.764089624295089
 20
-4.389223902982556
 30
0.0
  0
SEQEND
  5
873
330
870
100
AcDbEntity
  8
BEMAßUNG
  0
POLYLINE
  5
874
330
1F
100
AcDbEntity
  8
BEMAßUNG
 62
     7
100
AcDb2dPolyline
 66
     1
 10
0.0
 20
0.0
 30
0.0
  0
VERTEX
  5
875
330
874
100
AcDbEntity
  8
BEMAßUNG
 62
     7
100
AcDbVertex
100
AcDb2dVertex
 10
-9.814560273154
 20
-4.801946342115486
 30
0.0
  0
VERTEX
  5
876
330
874
100
AcDbEntity
  8
BEMAßUNG
 62
     7
100
AcDbVertex
100
AcDb2dVertex
 10
-9.814560273154
 20
-4.002856444311786
 30
0.0
  0
SEQEND
  5
877
330
874
100
AcDbEntity
  8
BEMAßUNG
  0
POLYLINE
  5
878
330
1F
100
AcDbEntity
  8
BEMAßUNG
 62
     7
100
AcDb2dPolyline
 66
     1
 10
0.0
 20
0.0
 30
0.0
  0
VERTEX
  5
879
330
878
100
AcDbEntity
  8
BEMAßUNG
 62
     7
100
AcDbVertex
100
AcDb2dVertex
 10
-9.865375431561434
 20
-4.801946342115486
 30
0.0
  0
VERTEX
  5
87A
330
878
100
AcDbEntity
  8
BEMAßUNG
 62
     7
100
AcDbVertex
100
AcDb2dVertex
 10
-9.865375431561434
 20
-3.617178004738067
 30
0.0
  0
SEQEND
  5
87B
330
878
100
AcDbEntity
  8
BEMAßUNG
  0
POLYLINE
  5
87C
330
1F
100
AcDbEntity
  8
BEMAßUNG
 62
     7
100
AcDb2dPolyline
 66
     1
 10
0.0
 20
0.0
 30
0.0
  0
VERTEX
  5
87D
330
87C
100
AcDbEntity
  8
BEMAßUNG
 62
     7
100
AcDbVertex
100
AcDb2dVertex
 10
-9.916190589968869
 20
-4.801946342115486
 30
0.0
  0
VERTEX
  5
87E
330
87C
100
AcDbEntity
  8
BEMAßUNG
 62
     7
100
AcDbVertex
100
AcDb2dVertex
 10
-9.916190589968869
 20
-3.231327310390085
 30
0.0
  0
SEQEND
  5
87F
330
87C
100
AcDbEntity
  8
BEMAßUNG
  0
POLYLINE
  5
880
330
1F
100
AcDbEntity
  8
BEMAßUNG
 62
     7
100
AcDb2dPolyline
 66
     1
 10
0.0
 20
0.0
 30
0.0
  0
VERTEX
  5
881
330
880
100
AcDbEntity
  8
BEMAßUNG
 62
     7
100
AcDbVertex
100
AcDb2dVertex
 10
-9.96735025792483
 20
-4.801946342115486
 30
0.0
  0
VERTEX
  5
882
330
880
100
AcDbEntity
  8
BEMAßUNG
 62
     7
100
AcDbVertex
100
AcDb2dVertex
 10
-9.96735025792483
 20
-2.845821125590628
 30
0.0
  0
SEQEND
  5
883
330
880
100
AcDbEntity
  8
BEMAßUNG
  0
POLYLINE
  5
884
330
1F
100
AcDbEntity
  8
BEMAßUNG
 62
     7
100
AcDb2dPolyline
 66
     1
 10
0.0
 20
0.0
 30
0.0
  0
VERTEX
  5
885
330
884
100
AcDbEntity
  8
BEMAßUNG
 62
     7
100
AcDbVertex
100
AcDb2dVertex
 10
-10.01816541633226
 20
-4.801946342115486
 30
0.0
  0
VERTEX
  5
886
330
884
100
AcDbEntity
  8
BEMAßUNG
 62
     7
100
AcDbVertex
100
AcDb2dVertex
 10
-10.01816541633226
 20
-2.459453666919859
 30
0.0
  0
SEQEND
  5
887
330
884
100
AcDbEntity
  8
BEMAßUNG
  0
POLYLINE
  5
888
330
1F
100
AcDbEntity
  8
BEMAßUNG
 62
     7
100
AcDb2dPolyline
 66
     1
 10
0.0
 20
0.0
 30
0.0
  0
VERTEX
  5
889
330
888
100
AcDbEntity
  8
BEMAßUNG
 62
     7
100
AcDbVertex
100
AcDb2dVertex
 10
-10.06863606519117
 20
-4.801946342115486
 30
0.0
  0
VERTEX
  5
88A
330
888
100
AcDbEntity
  8
BEMAßUNG
 62
     7
100
AcDbVertex
100
AcDb2dVertex
 10
-10.06863606519117
 20
-2.07377522734614
 30
0.0
  0
SEQEND
  5
88B
330
888
100
AcDbEntity
  8
BEMAßUNG
  0
POLYLINE
  5
88C
330
1F
100
AcDbEntity
  8
BEMAßUNG
 62
     7
100
AcDb2dPolyline
 66
     1
 10
0.0
 20
0.0
 30
0.0
  0
VERTEX
  5
88D
330
88C
100
AcDbEntity
  8
BEMAßUNG
 62
     7
100
AcDbVertex
100
AcDb2dVertex
 10
-10.11945122359861
 20
-4.801946342115486
 30
0.0
  0
VERTEX
  5
88E
330
88C
100
AcDbEntity
  8
BEMAßUNG
 62
     7
100
AcDbVertex
100
AcDb2dVertex
 10
-10.11945122359861
 20
-1.687580023449633
 30
0.0
  0
SEQEND
  5
88F
330
88C
100
AcDbEntity
  8
BEMAßUNG
  0
POLYLINE
  5
890
330
1F
100
AcDbEntity
  8
BEMAßUNG
 62
     7
100
AcDb2dPolyline
 66
     1
 10
0.0
 20
0.0
 30
0.0
  0
VERTEX
  5
891
330
890
100
AcDbEntity
  8
BEMAßUNG
 62
     7
100
AcDbVertex
100
AcDb2dVertex
 10
-10.17026638200604
 20
-4.801946342115486
 30
0.0
  0
VERTEX
  5
892
330
890
100
AcDbEntity
  8
BEMAßUNG
 62
     7
100
AcDbVertex
100
AcDb2dVertex
 10
-10.17026638200604
 20
-1.302418348198701
 30
0.0
  0
SEQEND
  5
893
330
890
100
AcDbEntity
  8
BEMAßUNG
  0
POLYLINE
  5
894
330
1F
100
AcDbEntity
  8
BEMAßUNG
 62
     7
100
AcDb2dPolyline
 66
     1
 10
0.0
 20
0.0
 30
0.0
  0
VERTEX
  5
895
330
894
100
AcDbEntity
  8
BEMAßUNG
 62
     7
100
AcDbVertex
100
AcDb2dVertex
 10
-10.17026638200604
 20
-11.30215250368488
 30
0.0
  0
VERTEX
  5
896
330
894
100
AcDbEntity
  8
BEMAßUNG
 62
     7
100
AcDbVertex
100
AcDb2dVertex
 10
-9.709484860853879
 20
-7.801935490671045
 30
0.0
  0
VERTEX
  5
897
330
894
100
AcDbEntity
  8
BEMAßUNG
 62
     7
100
AcDbVertex
100
AcDb2dVertex
 10
-10.63122015793247
 20
-7.801935490671045
 30
0.0
  0
VERTEX
  5
898
330
894
100
AcDbEntity
  8
BEMAßUNG
 62
     7
100
AcDbVertex
100
AcDb2dVertex
 10
-10.17026638200604
 20
-11.30215250368488
 30
0.0
  0
SEQEND
  5
899
330
894
100
AcDbEntity
  8
BEMAßUNG
  0
POLYLINE
  5
89A
330
1F
100
AcDbEntity
  8
BEMAßUNG
 62
     7
100
AcDb2dPolyline
 66
     1
 10
0.0
 20
0.0
 30
0.0
  0
VERTEX
  5
89B
330
89A
100
AcDbEntity
  8
BEMAßUNG
 62
     7
100
AcDbVertex
100
AcDb2dVertex
 10
-9.713274465887654
 20
-7.801935490671045
 30
0.0
  0
VERTEX
  5
89C
330
89A
100
AcDbEntity
  8
BEMAßUNG
 62
     7
100
AcDbVertex
100
AcDb2dVertex
 10
-9.713274465887654
 20
-7.829151745004518
 30
0.0
  0
SEQEND
  5
89D
330
89A
100
AcDbEntity
  8
BEMAßUNG
  0
POLYLINE
  5
89E
330
1F
100
AcDbEntity
  8
BEMAßUNG
 62
     7
100
AcDb2dPolyline
 66
     1
 10
0.0
 20
0.0
 30
0.0
  0
VERTEX
  5
89F
330
89E
100
AcDbEntity
  8
BEMAßUNG
 62
     7
100
AcDbVertex
100
AcDb2dVertex
 10
-9.713274465887654
 20
-7.801935490671045
 30
0.0
  0
VERTEX
  5
8A0
330
89E
100
AcDbEntity
  8
BEMAßUNG
 62
     7
100
AcDbVertex
100
AcDb2dVertex
 10
-9.713274465887654
 20
-7.829151745004518
 30
0.0
  0
SEQEND
  5
8A1
330
89E
100
AcDbEntity
  8
BEMAßUNG
  0
POLYLINE
  5
8A2
330
1F
100
AcDbEntity
  8
BEMAßUNG
 62
     7
100
AcDb2dPolyline
 66
     1
 10
0.0
 20
0.0
 30
0.0
  0
VERTEX
  5
8A3
330
8A2
100
AcDbEntity
  8
BEMAßUNG
 62
     7
100
AcDbVertex
100
AcDb2dVertex
 10
-9.764089624295089
 20
-7.801935490671045
 30
0.0
  0
VERTEX
  5
8A4
330
8A2
100
AcDbEntity
  8
BEMAßUNG
 62
     7
100
AcDbVertex
100
AcDb2dVertex
 10
-9.764089624295089
 20
-8.215346948901026
 30
0.0
  0
SEQEND
  5
8A5
330
8A2
100
AcDbEntity
  8
BEMAßUNG
  0
POLYLINE
  5
8A6
330
1F
100
AcDbEntity
  8
BEMAßUNG
 62
     7
100
AcDb2dPolyline
 66
     1
 10
0.0
 20
0.0
 30
0.0
  0
VERTEX
  5
8A7
330
8A6
100
AcDbEntity
  8
BEMAßUNG
 62
     7
100
AcDbVertex
100
AcDb2dVertex
 10
-9.814560273154
 20
-7.801935490671045
 30
0.0
  0
VERTEX
  5
8A8
330
8A6
100
AcDbEntity
  8
BEMAßUNG
 62
     7
100
AcDbVertex
100
AcDb2dVertex
 10
-9.814560273154
 20
-8.601025388474744
 30
0.0
  0
SEQEND
  5
8A9
330
8A6
100
AcDbEntity
  8
BEMAßUNG
  0
POLYLINE
  5
8AA
330
1F
100
AcDbEntity
  8
BEMAßUNG
 62
     7
100
AcDb2dPolyline
 66
     1
 10
0.0
 20
0.0
 30
0.0
  0
VERTEX
  5
8AB
330
8AA
100
AcDbEntity
  8
BEMAßUNG
 62
     7
100
AcDbVertex
100
AcDb2dVertex
 10
-9.865375431561434
 20
-7.801935490671045
 30
0.0
  0
VERTEX
  5
8AC
330
8AA
100
AcDbEntity
  8
BEMAßUNG
 62
     7
100
AcDbVertex
100
AcDb2dVertex
 10
-9.865375431561434
 20
-8.986876082822725
 30
0.0
  0
SEQEND
  5
8AD
330
8AA
100
AcDbEntity
  8
BEMAßUNG
  0
POLYLINE
  5
8AE
330
1F
100
AcDbEntity
  8
BEMAßUNG
 62
     7
100
AcDb2dPolyline
 66
     1
 10
0.0
 20
0.0
 30
0.0
  0
VERTEX
  5
8AF
330
8AE
100
AcDbEntity
  8
BEMAßUNG
 62
     7
100
AcDbVertex
100
AcDb2dVertex
 10
-9.916190589968869
 20
-7.801935490671045
 30
0.0
  0
VERTEX
  5
8B0
330
8AE
100
AcDbEntity
  8
BEMAßUNG
 62
     7
100
AcDbVertex
100
AcDb2dVertex
 10
-9.916190589968869
 20
-9.372554522396445
 30
0.0
  0
SEQEND
  5
8B1
330
8AE
100
AcDbEntity
  8
BEMAßUNG
  0
POLYLINE
  5
8B2
330
1F
100
AcDbEntity
  8
BEMAßUNG
 62
     7
100
AcDb2dPolyline
 66
     1
 10
0.0
 20
0.0
 30
0.0
  0
VERTEX
  5
8B3
330
8B2
100
AcDbEntity
  8
BEMAßUNG
 62
     7
100
AcDbVertex
100
AcDb2dVertex
 10
-9.96735025792483
 20
-7.801935490671045
 30
0.0
  0
VERTEX
  5
8B4
330
8B2
100
AcDbEntity
  8
BEMAßUNG
 62
     7
100
AcDbVertex
100
AcDb2dVertex
 10
-9.96735025792483
 20
-9.758749726292953
 30
0.0
  0
SEQEND
  5
8B5
330
8B2
100
AcDbEntity
  8
BEMAßUNG
  0
POLYLINE
  5
8B6
330
1F
100
AcDbEntity
  8
BEMAßUNG
 62
     7
100
AcDb2dPolyline
 66
     1
 10
0.0
 20
0.0
 30
0.0
  0
VERTEX
  5
8B7
330
8B6
100
AcDbEntity
  8
BEMAßUNG
 62
     7
100
AcDbVertex
100
AcDb2dVertex
 10
-10.01816541633226
 20
-7.801935490671045
 30
0.0
  0
VERTEX
  5
8B8
330
8B6
100
AcDbEntity
  8
BEMAßUNG
 62
     7
100
AcDbVertex
100
AcDb2dVertex
 10
-10.01816541633226
 20
-10.14442816586667
 30
0.0
  0
SEQEND
  5
8B9
330
8B6
100
AcDbEntity
  8
BEMAßUNG
  0
POLYLINE
  5
8BA
330
1F
100
AcDbEntity
  8
BEMAßUNG
 62
     7
100
AcDb2dPolyline
 66
     1
 10
0.0
 20
0.0
 30
0.0
  0
VERTEX
  5
8BB
330
8BA
100
AcDbEntity
  8
BEMAßUNG
 62
     7
100
AcDbVertex
100
AcDb2dVertex
 10
-10.06863606519117
 20
-7.801935490671045
 30
0.0
  0
VERTEX
  5
8BC
330
8BA
100
AcDbEntity
  8
BEMAßUNG
 62
     7
100
AcDbVertex
100
AcDb2dVertex
 10
-10.06863606519117
 20
-10.53027886021465
 30
0.0
  0
SEQEND
  5
8BD
330
8BA
100
AcDbEntity
  8
BEMAßUNG
  0
POLYLINE
  5
8BE
330
1F
100
AcDbEntity
  8
BEMAßUNG
 62
     7
100
AcDb2dPolyline
 66
     1
 10
0.0
 20
0.0
 30
0.0
  0
VERTEX
  5
8BF
330
8BE
100
AcDbEntity
  8
BEMAßUNG
 62
     7
100
AcDbVertex
100
AcDb2dVertex
 10
-10.11945122359861
 20
-7.801935490671045
 30
0.0
  0
VERTEX
  5
8C0
330
8BE
100
AcDbEntity
  8
BEMAßUNG
 62
     7
100
AcDbVertex
100
AcDb2dVertex
 10
-10.11945122359861
 20
-10.91595729978837
 30
0.0
  0
SEQEND
  5
8C1
330
8BE
100
AcDbEntity
  8
BEMAßUNG
  0
POLYLINE
  5
8C2
330
1F
100
AcDbEntity
  8
BEMAßUNG
 62
     7
100
AcDb2dPolyline
 66
     1
 10
0.0
 20
0.0
 30
0.0
  0
VERTEX
  5
8C3
330
8C2
100
AcDbEntity
  8
BEMAßUNG
 62
     7
100
AcDbVertex
100
AcDb2dVertex
 10
-10.17026638200604
 20
-7.801935490671045
 30
0.0
  0
VERTEX
  5
8C4
330
8C2
100
AcDbEntity
  8
BEMAßUNG
 62
     7
100
AcDbVertex
100
AcDb2dVertex
 10
-10.17026638200604
 20
-11.30215250368488
 30
0.0
  0
SEQEND
  5
8C5
330
8C2
100
AcDbEntity
  8
BEMAßUNG
  0
POLYLINE
  5
8C6
330
1F
100
AcDbEntity
  8
BEMAßUNG
 62
     7
100
AcDb2dPolyline
 66
     1
 10
0.0
 20
0.0
 30
0.0
  0
VERTEX
  5
8C7
330
8C6
100
AcDbEntity
  8
BEMAßUNG
 62
     7
100
AcDbVertex
100
AcDb2dVertex
 10
-10.6274305528987
 20
-7.801935490671045
 30
0.0
  0
VERTEX
  5
8C8
330
8C6
100
AcDbEntity
  8
BEMAßUNG
 62
     7
100
AcDbVertex
100
AcDb2dVertex
 10
-10.6274305528987
 20
-7.829151745004518
 30
0.0
  0
SEQEND
  5
8C9
330
8C6
100
AcDbEntity
  8
BEMAßUNG
  0
POLYLINE
  5
8CA
330
1F
100
AcDbEntity
  8
BEMAßUNG
 62
     7
100
AcDb2dPolyline
 66
     1
 10
0.0
 20
0.0
 30
0.0
  0
VERTEX
  5
8CB
330
8CA
100
AcDbEntity
  8
BEMAßUNG
 62
     7
100
AcDbVertex
100
AcDb2dVertex
 10
-10.6274305528987
 20
-7.801935490671045
 30
0.0
  0
VERTEX
  5
8CC
330
8CA
100
AcDbEntity
  8
BEMAßUNG
 62
     7
100
AcDbVertex
100
AcDb2dVertex
 10
-10.6274305528987
 20
-7.829151745004518
 30
0.0
  0
SEQEND
  5
8CD
330
8CA
100
AcDbEntity
  8
BEMAßUNG
  0
POLYLINE
  5
8CE
330
1F
100
AcDbEntity
  8
BEMAßUNG
 62
     7
100
AcDb2dPolyline
 66
     1
 10
0.0
 20
0.0
 30
0.0
  0
VERTEX
  5
8CF
330
8CE
100
AcDbEntity
  8
BEMAßUNG
 62
     7
100
AcDbVertex
100
AcDb2dVertex
 10
-10.57695990403979
 20
-7.801935490671045
 30
0.0
  0
VERTEX
  5
8D0
330
8CE
100
AcDbEntity
  8
BEMAßUNG
 62
     7
100
AcDbVertex
100
AcDb2dVertex
 10
-10.57695990403979
 20
-8.215346948901026
 30
0.0
  0
SEQEND
  5
8D1
330
8CE
100
AcDbEntity
  8
BEMAßUNG
  0
POLYLINE
  5
8D2
330
1F
100
AcDbEntity
  8
BEMAßUNG
 62
     7
100
AcDb2dPolyline
 66
     1
 10
0.0
 20
0.0
 30
0.0
  0
VERTEX
  5
8D3
330
8D2
100
AcDbEntity
  8
BEMAßUNG
 62
     7
100
AcDbVertex
100
AcDb2dVertex
 10
-10.52614474563235
 20
-7.801935490671045
 30
0.0
  0
VERTEX
  5
8D4
330
8D2
100
AcDbEntity
  8
BEMAßUNG
 62
     7
100
AcDbVertex
100
AcDb2dVertex
 10
-10.52614474563235
 20
-8.601025388474744
 30
0.0
  0
SEQEND
  5
8D5
330
8D2
100
AcDbEntity
  8
BEMAßUNG
  0
POLYLINE
  5
8D6
330
1F
100
AcDbEntity
  8
BEMAßUNG
 62
     7
100
AcDb2dPolyline
 66
     1
 10
0.0
 20
0.0
 30
0.0
  0
VERTEX
  5
8D7
330
8D6
100
AcDbEntity
  8
BEMAßUNG
 62
     7
100
AcDbVertex
100
AcDb2dVertex
 10
-10.47532958722492
 20
-7.801935490671045
 30
0.0
  0
VERTEX
  5
8D8
330
8D6
100
AcDbEntity
  8
BEMAßUNG
 62
     7
100
AcDbVertex
100
AcDb2dVertex
 10
-10.47532958722492
 20
-8.986876082822725
 30
0.0
  0
SEQEND
  5
8D9
330
8D6
100
AcDbEntity
  8
BEMAßUNG
  0
POLYLINE
  5
8DA
330
1F
100
AcDbEntity
  8
BEMAßUNG
 62
     7
100
AcDb2dPolyline
 66
     1
 10
0.0
 20
0.0
 30
0.0
  0
VERTEX
  5
8DB
330
8DA
100
AcDbEntity
  8
BEMAßUNG
 62
     7
100
AcDbVertex
100
AcDb2dVertex
 10
-10.42416991926896
 20
-7.801935490671045
 30
0.0
  0
VERTEX
  5
8DC
330
8DA
100
AcDbEntity
  8
BEMAßUNG
 62
     7
100
AcDbVertex
100
AcDb2dVertex
 10
-10.42416991926896
 20
-9.372554522396445
 30
0.0
  0
SEQEND
  5
8DD
330
8DA
100
AcDbEntity
  8
BEMAßUNG
  0
POLYLINE
  5
8DE
330
1F
100
AcDbEntity
  8
BEMAßUNG
 62
     7
100
AcDb2dPolyline
 66
     1
 10
0.0
 20
0.0
 30
0.0
  0
VERTEX
  5
8DF
330
8DE
100
AcDbEntity
  8
BEMAßUNG
 62
     7
100
AcDbVertex
100
AcDb2dVertex
 10
-10.37335476086152
 20
-7.801935490671045
 30
0.0
  0
VERTEX
  5
8E0
330
8DE
100
AcDbEntity
  8
BEMAßUNG
 62
     7
100
AcDbVertex
100
AcDb2dVertex
 10
-10.37335476086152
 20
-9.758749726292953
 30
0.0
  0
SEQEND
  5
8E1
330
8DE
100
AcDbEntity
  8
BEMAßUNG
  0
POLYLINE
  5
8E2
330
1F
100
AcDbEntity
  8
BEMAßUNG
 62
     7
100
AcDb2dPolyline
 66
     1
 10
0.0
 20
0.0
 30
0.0
  0
VERTEX
  5
8E3
330
8E2
100
AcDbEntity
  8
BEMAßUNG
 62
     7
100
AcDbVertex
100
AcDb2dVertex
 10
-10.32253960245409
 20
-7.801935490671045
 30
0.0
  0
VERTEX
  5
8E4
330
8E2
100
AcDbEntity
  8
BEMAßUNG
 62
     7
100
AcDbVertex
100
AcDb2dVertex
 10
-10.32253960245409
 20
-10.14442816586667
 30
0.0
  0
SEQEND
  5
8E5
330
8E2
100
AcDbEntity
  8
BEMAßUNG
  0
POLYLINE
  5
8E6
330
1F
100
AcDbEntity
  8
BEMAßUNG
 62
     7
100
AcDb2dPolyline
 66
     1
 10
0.0
 20
0.0
 30
0.0
  0
VERTEX
  5
8E7
330
8E6
100
AcDbEntity
  8
BEMAßUNG
 62
     7
100
AcDbVertex
100
AcDb2dVertex
 10
-10.27206895359518
 20
-7.801935490671045
 30
0.0
  0
VERTEX
  5
8E8
330
8E6
100
AcDbEntity
  8
BEMAßUNG
 62
     7
100
AcDbVertex
100
AcDb2dVertex
 10
-10.27206895359518
 20
-10.53027886021465
 30
0.0
  0
SEQEND
  5
8E9
330
8E6
100
AcDbEntity
  8
BEMAßUNG
  0
POLYLINE
  5
8EA
330
1F
100
AcDbEntity
  8
BEMAßUNG
 62
     7
100
AcDb2dPolyline
 66
     1
 10
0.0
 20
0.0
 30
0.0
  0
VERTEX
  5
8EB
330
8EA
100
AcDbEntity
  8
BEMAßUNG
 62
     7
100
AcDbVertex
100
AcDb2dVertex
 10
-10.22142604996201
 20
-7.801935490671045
 30
0.0
  0
VERTEX
  5
8EC
330
8EA
100
AcDbEntity
  8
BEMAßUNG
 62
     7
100
AcDbVertex
100
AcDb2dVertex
 10
-10.22142604996201
 20
-10.91595729978837
 30
0.0
  0
SEQEND
  5
8ED
330
8EA
100
AcDbEntity
  8
BEMAßUNG
  0
POLYLINE
  5
8EE
330
1F
100
AcDbEntity
  8
BEMAßUNG
 62
     7
100
AcDb2dPolyline
 66
     1
 10
0.0
 20
0.0
 30
0.0
  0
VERTEX
  5
8EF
330
8EE
100
AcDbEntity
  8
BEMAßUNG
 62
     7
100
AcDbVertex
100
AcDb2dVertex
 10
-10.17026638200604
 20
-7.801935490671045
 30
0.0
  0
VERTEX
  5
8F0
330
8EE
100
AcDbEntity
  8
BEMAßUNG
 62
     7
100
AcDbVertex
100
AcDb2dVertex
 10
-10.17026638200604
 20
-11.30215250368488
 30
0.0
  0
SEQEND
  5
8F1
330
8EE
100
AcDbEntity
  8
BEMAßUNG
  0
POLYLINE
  5
8F2
330
1F
100
AcDbEntity
  8
BEMAßUNG
 62
     7
100
AcDb2dPolyline
 66
     1
 10
0.0
 20
0.0
 30
0.0
  0
VERTEX
  5
8F3
330
8F2
100
AcDbEntity
  8
BEMAßUNG
 62
     7
100
AcDbVertex
100
AcDb2dVertex
 10
15.02406141117454
 20
-19.30218098475779
 30
0.0
  0
VERTEX
  5
8F4
330
8F2
100
AcDbEntity
  8
BEMAßUNG
 62
     7
100
AcDbVertex
100
AcDb2dVertex
 10
15.02406141117454
 20
-30.59692653314938
 30
0.0
  0
SEQEND
  5
8F5
330
8F2
100
AcDbEntity
  8
BEMAßUNG
  0
POLYLINE
  5
8F6
330
1F
100
AcDbEntity
  8
BEMAßUNG
 62
     7
100
AcDb2dPolyline
 66
     1
 10
0.0
 20
0.0
 30
0.0
  0
VERTEX
  5
8F7
330
8F6
100
AcDbEntity
  8
BEMAßUNG
 62
     7
100
AcDbVertex
100
AcDb2dVertex
 10
18.02439506927863
 20
-16.80224744588624
 30
0.0
  0
VERTEX
  5
8F8
330
8F6
100
AcDbEntity
  8
BEMAßUNG
 62
     7
100
AcDbVertex
100
AcDb2dVertex
 10
18.02439506927863
 20
-30.59692653314938
 30
0.0
  0
SEQEND
  5
8F9
330
8F6
100
AcDbEntity
  8
BEMAßUNG
  0
POLYLINE
  5
8FA
330
1F
100
AcDbEntity
  8
BEMAßUNG
 62
     7
100
AcDb2dPolyline
 66
     1
 10
0.0
 20
0.0
 30
0.0
  0
VERTEX
  5
8FB
330
8FA
100
AcDbEntity
  8
BEMAßUNG
 62
     7
100
AcDbVertex
100
AcDb2dVertex
 10
24.87720675376334
 20
-28.59670409441333
 30
0.0
  0
VERTEX
  5
8FC
330
8FA
100
AcDbEntity
  8
BEMAßUNG
 62
     7
100
AcDbVertex
100
AcDb2dVertex
 10
6.274035642962741
 20
-28.59670409441333
 30
0.0
  0
SEQEND
  5
8FD
330
8FA
100
AcDbEntity
  8
BEMAßUNG
  0
POLYLINE
  5
8FE
330
1F
100
AcDbEntity
  8
BEMAßUNG
 62
     7
100
AcDb2dPolyline
 66
     1
 10
0.0
 20
0.0
 30
0.0
  0
VERTEX
  5
8FF
330
8FE
100
AcDbEntity
  8
BEMAßUNG
 62
     7
100
AcDbVertex
100
AcDb2dVertex
 10
15.02406141117454
 20
-28.59670409441333
 30
0.0
  0
VERTEX
  5
900
330
8FE
100
AcDbEntity
  8
BEMAßUNG
 62
     7
100
AcDbVertex
100
AcDb2dVertex
 10
11.52418890770923
 20
-28.1357503184869
 30
0.0
  0
VERTEX
  5
901
330
8FE
100
AcDbEntity
  8
BEMAßUNG
 62
     7
100
AcDbVertex
100
AcDb2dVertex
 10
11.52418890770923
 20
-29.05800237988828
 30
0.0
  0
VERTEX
  5
902
330
8FE
100
AcDbEntity
  8
BEMAßUNG
 62
     7
100
AcDbVertex
100
AcDb2dVertex
 10
15.02406141117454
 20
-28.59670409441333
 30
0.0
  0
SEQEND
  5
903
330
8FE
100
AcDbEntity
  8
BEMAßUNG
  0
POLYLINE
  5
904
330
1F
100
AcDbEntity
  8
BEMAßUNG
 62
     7
100
AcDb2dPolyline
 66
     1
 10
0.0
 20
0.0
 30
0.0
  0
VERTEX
  5
905
330
904
100
AcDbEntity
  8
BEMAßUNG
 62
     7
100
AcDbVertex
100
AcDb2dVertex
 10
11.52418890770923
 20
-28.1398844330692
 30
0.0
  0
VERTEX
  5
906
330
904
100
AcDbEntity
  8
BEMAßUNG
 62
     7
100
AcDbVertex
100
AcDb2dVertex
 10
11.55123290726844
 20
-28.1398844330692
 30
0.0
  0
SEQEND
  5
907
330
904
100
AcDbEntity
  8
BEMAßUNG
  0
POLYLINE
  5
908
330
1F
100
AcDbEntity
  8
BEMAßUNG
 62
     7
100
AcDb2dPolyline
 66
     1
 10
0.0
 20
0.0
 30
0.0
  0
VERTEX
  5
909
330
908
100
AcDbEntity
  8
BEMAßUNG
 62
     7
100
AcDbVertex
100
AcDb2dVertex
 10
11.52418890770923
 20
-28.1398844330692
 30
0.0
  0
VERTEX
  5
90A
330
908
100
AcDbEntity
  8
BEMAßUNG
 62
     7
100
AcDbVertex
100
AcDb2dVertex
 10
11.55123290726844
 20
-28.1398844330692
 30
0.0
  0
SEQEND
  5
90B
330
908
100
AcDbEntity
  8
BEMAßUNG
  0
POLYLINE
  5
90C
330
1F
100
AcDbEntity
  8
BEMAßUNG
 62
     7
100
AcDb2dPolyline
 66
     1
 10
0.0
 20
0.0
 30
0.0
  0
VERTEX
  5
90D
330
90C
100
AcDbEntity
  8
BEMAßUNG
 62
     7
100
AcDbVertex
100
AcDb2dVertex
 10
11.52418890770923
 20
-28.19052733670237
 30
0.0
  0
VERTEX
  5
90E
330
90C
100
AcDbEntity
  8
BEMAßUNG
 62
     7
100
AcDbVertex
100
AcDb2dVertex
 10
11.93725585639069
 20
-28.19052733670237
 30
0.0
  0
SEQEND
  5
90F
330
90C
100
AcDbEntity
  8
BEMAßUNG
  0
POLYLINE
  5
910
330
1F
100
AcDbEntity
  8
BEMAßUNG
 62
     7
100
AcDb2dPolyline
 66
     1
 10
0.0
 20
0.0
 30
0.0
  0
VERTEX
  5
911
330
910
100
AcDbEntity
  8
BEMAßUNG
 62
     7
100
AcDbVertex
100
AcDb2dVertex
 10
11.52418890770923
 20
-28.24151474988407
 30
0.0
  0
VERTEX
  5
912
330
910
100
AcDbEntity
  8
BEMAßUNG
 62
     7
100
AcDbVertex
100
AcDb2dVertex
 10
12.32327880551293
 20
-28.24151474988407
 30
0.0
  0
SEQEND
  5
913
330
910
100
AcDbEntity
  8
BEMAßUNG
  0
POLYLINE
  5
914
330
1F
100
AcDbEntity
  8
BEMAßUNG
 62
     7
100
AcDb2dPolyline
 66
     1
 10
0.0
 20
0.0
 30
0.0
  0
VERTEX
  5
915
330
914
100
AcDbEntity
  8
BEMAßUNG
 62
     7
100
AcDbVertex
100
AcDb2dVertex
 10
11.52418890770923
 20
-28.29215765351724
 30
0.0
  0
VERTEX
  5
916
330
914
100
AcDbEntity
  8
BEMAßUNG
 62
     7
100
AcDbVertex
100
AcDb2dVertex
 10
12.70912949986091
 20
-28.29215765351724
 30
0.0
  0
SEQEND
  5
917
330
914
100
AcDbEntity
  8
BEMAßUNG
  0
POLYLINE
  5
918
330
1F
100
AcDbEntity
  8
BEMAßUNG
 62
     7
100
AcDb2dPolyline
 66
     1
 10
0.0
 20
0.0
 30
0.0
  0
VERTEX
  5
919
330
918
100
AcDbEntity
  8
BEMAßUNG
 62
     7
100
AcDbVertex
100
AcDb2dVertex
 10
11.52418890770923
 20
-28.34314506669894
 30
0.0
  0
VERTEX
  5
91A
330
918
100
AcDbEntity
  8
BEMAßUNG
 62
     7
100
AcDbVertex
100
AcDb2dVertex
 10
13.09463568466037
 20
-28.34314506669894
 30
0.0
  0
SEQEND
  5
91B
330
918
100
AcDbEntity
  8
BEMAßUNG
  0
POLYLINE
  5
91C
330
1F
100
AcDbEntity
  8
BEMAßUNG
 62
     7
100
AcDb2dPolyline
 66
     1
 10
0.0
 20
0.0
 30
0.0
  0
VERTEX
  5
91D
330
91C
100
AcDbEntity
  8
BEMAßUNG
 62
     7
100
AcDbVertex
100
AcDb2dVertex
 10
11.52418890770923
 20
-28.39378797033211
 30
0.0
  0
VERTEX
  5
91E
330
91C
100
AcDbEntity
  8
BEMAßUNG
 62
     7
100
AcDbVertex
100
AcDb2dVertex
 10
13.48065863378261
 20
-28.39378797033211
 30
0.0
  0
SEQEND
  5
91F
330
91C
100
AcDbEntity
  8
BEMAßUNG
  0
POLYLINE
  5
920
330
1F
100
AcDbEntity
  8
BEMAßUNG
 62
     7
100
AcDb2dPolyline
 66
     1
 10
0.0
 20
0.0
 30
0.0
  0
VERTEX
  5
921
330
920
100
AcDbEntity
  8
BEMAßUNG
 62
     7
100
AcDbVertex
100
AcDb2dVertex
 10
11.52418890770923
 20
-28.44477538351381
 30
0.0
  0
VERTEX
  5
922
330
920
100
AcDbEntity
  8
BEMAßUNG
 62
     7
100
AcDbVertex
100
AcDb2dVertex
 10
13.86668158290486
 20
-28.44477538351381
 30
0.0
  0
SEQEND
  5
923
330
920
100
AcDbEntity
  8
BEMAßUNG
  0
POLYLINE
  5
924
330
1F
100
AcDbEntity
  8
BEMAßUNG
 62
     7
100
AcDb2dPolyline
 66
     1
 10
0.0
 20
0.0
 30
0.0
  0
VERTEX
  5
925
330
924
100
AcDbEntity
  8
BEMAßUNG
 62
     7
100
AcDbVertex
100
AcDb2dVertex
 10
11.52418890770923
 20
-28.49541828714698
 30
0.0
  0
VERTEX
  5
926
330
924
100
AcDbEntity
  8
BEMAßUNG
 62
     7
100
AcDbVertex
100
AcDb2dVertex
 10
14.25253227725284
 20
-28.49541828714698
 30
0.0
  0
SEQEND
  5
927
330
924
100
AcDbEntity
  8
BEMAßUNG
  0
POLYLINE
  5
928
330
1F
100
AcDbEntity
  8
BEMAßUNG
 62
     7
100
AcDb2dPolyline
 66
     1
 10
0.0
 20
0.0
 30
0.0
  0
VERTEX
  5
929
330
928
100
AcDbEntity
  8
BEMAßUNG
 62
     7
100
AcDbVertex
100
AcDb2dVertex
 10
11.52418890770923
 20
-28.54606119078015
 30
0.0
  0
VERTEX
  5
92A
330
928
100
AcDbEntity
  8
BEMAßUNG
 62
     7
100
AcDbVertex
100
AcDb2dVertex
 10
14.6380384620523
 20
-28.54606119078015
 30
0.0
  0
SEQEND
  5
92B
330
928
100
AcDbEntity
  8
BEMAßUNG
  0
POLYLINE
  5
92C
330
1F
100
AcDbEntity
  8
BEMAßUNG
 62
     7
100
AcDb2dPolyline
 66
     1
 10
0.0
 20
0.0
 30
0.0
  0
VERTEX
  5
92D
330
92C
100
AcDbEntity
  8
BEMAßUNG
 62
     7
100
AcDbVertex
100
AcDb2dVertex
 10
11.52418890770923
 20
-28.59670409441333
 30
0.0
  0
VERTEX
  5
92E
330
92C
100
AcDbEntity
  8
BEMAßUNG
 62
     7
100
AcDbVertex
100
AcDb2dVertex
 10
15.02406141117454
 20
-28.59670409441333
 30
0.0
  0
SEQEND
  5
92F
330
92C
100
AcDbEntity
  8
BEMAßUNG
  0
POLYLINE
  5
930
330
1F
100
AcDbEntity
  8
BEMAßUNG
 62
     7
100
AcDb2dPolyline
 66
     1
 10
0.0
 20
0.0
 30
0.0
  0
VERTEX
  5
931
330
930
100
AcDbEntity
  8
BEMAßUNG
 62
     7
100
AcDbVertex
100
AcDb2dVertex
 10
11.52418890770923
 20
-29.0542127748545
 30
0.0
  0
VERTEX
  5
932
330
930
100
AcDbEntity
  8
BEMAßUNG
 62
     7
100
AcDbVertex
100
AcDb2dVertex
 10
11.55123290726844
 20
-29.0542127748545
 30
0.0
  0
SEQEND
  5
933
330
930
100
AcDbEntity
  8
BEMAßUNG
  0
POLYLINE
  5
934
330
1F
100
AcDbEntity
  8
BEMAßUNG
 62
     7
100
AcDb2dPolyline
 66
     1
 10
0.0
 20
0.0
 30
0.0
  0
VERTEX
  5
935
330
934
100
AcDbEntity
  8
BEMAßUNG
 62
     7
100
AcDbVertex
100
AcDb2dVertex
 10
11.52418890770923
 20
-29.0542127748545
 30
0.0
  0
VERTEX
  5
936
330
934
100
AcDbEntity
  8
BEMAßUNG
 62
     7
100
AcDbVertex
100
AcDb2dVertex
 10
11.55123290726844
 20
-29.0542127748545
 30
0.0
  0
SEQEND
  5
937
330
934
100
AcDbEntity
  8
BEMAßUNG
  0
POLYLINE
  5
938
330
1F
100
AcDbEntity
  8
BEMAßUNG
 62
     7
100
AcDb2dPolyline
 66
     1
 10
0.0
 20
0.0
 30
0.0
  0
VERTEX
  5
939
330
938
100
AcDbEntity
  8
BEMAßUNG
 62
     7
100
AcDbVertex
100
AcDb2dVertex
 10
11.52418890770923
 20
-29.00356987122133
 30
0.0
  0
VERTEX
  5
93A
330
938
100
AcDbEntity
  8
BEMAßUNG
 62
     7
100
AcDbVertex
100
AcDb2dVertex
 10
11.93725585639069
 20
-29.00356987122133
 30
0.0
  0
SEQEND
  5
93B
330
938
100
AcDbEntity
  8
BEMAßUNG
  0
POLYLINE
  5
93C
330
1F
100
AcDbEntity
  8
BEMAßUNG
 62
     7
100
AcDb2dPolyline
 66
     1
 10
0.0
 20
0.0
 30
0.0
  0
VERTEX
  5
93D
330
93C
100
AcDbEntity
  8
BEMAßUNG
 62
     7
100
AcDbVertex
100
AcDb2dVertex
 10
11.52418890770923
 20
-28.95292696758816
 30
0.0
  0
VERTEX
  5
93E
330
93C
100
AcDbEntity
  8
BEMAßUNG
 62
     7
100
AcDbVertex
100
AcDb2dVertex
 10
12.32327880551293
 20
-28.95292696758816
 30
0.0
  0
SEQEND
  5
93F
330
93C
100
AcDbEntity
  8
BEMAßUNG
  0
POLYLINE
  5
940
330
1F
100
AcDbEntity
  8
BEMAßUNG
 62
     7
100
AcDb2dPolyline
 66
     1
 10
0.0
 20
0.0
 30
0.0
  0
VERTEX
  5
941
330
940
100
AcDbEntity
  8
BEMAßUNG
 62
     7
100
AcDbVertex
100
AcDb2dVertex
 10
11.52418890770923
 20
-28.90193955440646
 30
0.0
  0
VERTEX
  5
942
330
940
100
AcDbEntity
  8
BEMAßUNG
 62
     7
100
AcDbVertex
100
AcDb2dVertex
 10
12.70912949986091
 20
-28.90193955440646
 30
0.0
  0
SEQEND
  5
943
330
940
100
AcDbEntity
  8
BEMAßUNG
  0
POLYLINE
  5
944
330
1F
100
AcDbEntity
  8
BEMAßUNG
 62
     7
100
AcDb2dPolyline
 66
     1
 10
0.0
 20
0.0
 30
0.0
  0
VERTEX
  5
945
330
944
100
AcDbEntity
  8
BEMAßUNG
 62
     7
100
AcDbVertex
100
AcDb2dVertex
 10
11.52418890770923
 20
-28.85095214122476
 30
0.0
  0
VERTEX
  5
946
330
944
100
AcDbEntity
  8
BEMAßUNG
 62
     7
100
AcDbVertex
100
AcDb2dVertex
 10
13.09463568466037
 20
-28.85095214122476
 30
0.0
  0
SEQEND
  5
947
330
944
100
AcDbEntity
  8
BEMAßUNG
  0
POLYLINE
  5
948
330
1F
100
AcDbEntity
  8
BEMAßUNG
 62
     7
100
AcDb2dPolyline
 66
     1
 10
0.0
 20
0.0
 30
0.0
  0
VERTEX
  5
949
330
948
100
AcDbEntity
  8
BEMAßUNG
 62
     7
100
AcDbVertex
100
AcDb2dVertex
 10
11.52418890770923
 20
-28.79996472804307
 30
0.0
  0
VERTEX
  5
94A
330
948
100
AcDbEntity
  8
BEMAßUNG
 62
     7
100
AcDbVertex
100
AcDb2dVertex
 10
13.48065863378261
 20
-28.79996472804307
 30
0.0
  0
SEQEND
  5
94B
330
948
100
AcDbEntity
  8
BEMAßUNG
  0
POLYLINE
  5
94C
330
1F
100
AcDbEntity
  8
BEMAßUNG
 62
     7
100
AcDb2dPolyline
 66
     1
 10
0.0
 20
0.0
 30
0.0
  0
VERTEX
  5
94D
330
94C
100
AcDbEntity
  8
BEMAßUNG
 62
     7
100
AcDbVertex
100
AcDb2dVertex
 10
11.52418890770923
 20
-28.74932182440989
 30
0.0
  0
VERTEX
  5
94E
330
94C
100
AcDbEntity
  8
BEMAßUNG
 62
     7
100
AcDbVertex
100
AcDb2dVertex
 10
13.86668158290486
 20
-28.74932182440989
 30
0.0
  0
SEQEND
  5
94F
330
94C
100
AcDbEntity
  8
BEMAßUNG
  0
POLYLINE
  5
950
330
1F
100
AcDbEntity
  8
BEMAßUNG
 62
     7
100
AcDb2dPolyline
 66
     1
 10
0.0
 20
0.0
 30
0.0
  0
VERTEX
  5
951
330
950
100
AcDbEntity
  8
BEMAßUNG
 62
     7
100
AcDbVertex
100
AcDb2dVertex
 10
11.52418890770923
 20
-28.6983344112282
 30
0.0
  0
VERTEX
  5
952
330
950
100
AcDbEntity
  8
BEMAßUNG
 62
     7
100
AcDbVertex
100
AcDb2dVertex
 10
14.25253227725284
 20
-28.6983344112282
 30
0.0
  0
SEQEND
  5
953
330
950
100
AcDbEntity
  8
BEMAßUNG
  0
POLYLINE
  5
954
330
1F
100
AcDbEntity
  8
BEMAßUNG
 62
     7
100
AcDb2dPolyline
 66
     1
 10
0.0
 20
0.0
 30
0.0
  0
VERTEX
  5
955
330
954
100
AcDbEntity
  8
BEMAßUNG
 62
     7
100
AcDbVertex
100
AcDb2dVertex
 10
11.52418890770923
 20
-28.64769150759502
 30
0.0
  0
VERTEX
  5
956
330
954
100
AcDbEntity
  8
BEMAßUNG
 62
     7
100
AcDbVertex
100
AcDb2dVertex
 10
14.6380384620523
 20
-28.64769150759502
 30
0.0
  0
SEQEND
  5
957
330
954
100
AcDbEntity
  8
BEMAßUNG
  0
POLYLINE
  5
958
330
1F
100
AcDbEntity
  8
BEMAßUNG
 62
     7
100
AcDb2dPolyline
 66
     1
 10
0.0
 20
0.0
 30
0.0
  0
VERTEX
  5
959
330
958
100
AcDbEntity
  8
BEMAßUNG
 62
     7
100
AcDbVertex
100
AcDb2dVertex
 10
11.52418890770923
 20
-28.59670409441333
 30
0.0
  0
VERTEX
  5
95A
330
958
100
AcDbEntity
  8
BEMAßUNG
 62
     7
100
AcDbVertex
100
AcDb2dVertex
 10
15.02406141117454
 20
-28.59670409441333
 30
0.0
  0
SEQEND
  5
95B
330
958
100
AcDbEntity
  8
BEMAßUNG
  0
POLYLINE
  5
95C
330
1F
100
AcDbEntity
  8
BEMAßUNG
 62
     7
100
AcDb2dPolyline
 66
     1
 10
0.0
 20
0.0
 30
0.0
  0
VERTEX
  5
95D
330
95C
100
AcDbEntity
  8
BEMAßUNG
 62
     7
100
AcDbVertex
100
AcDb2dVertex
 10
18.02439506927863
 20
-28.59670409441333
 30
0.0
  0
VERTEX
  5
95E
330
95C
100
AcDbEntity
  8
BEMAßUNG
 62
     7
100
AcDbVertex
100
AcDb2dVertex
 10
21.52392306319541
 20
-29.05800237988828
 30
0.0
  0
VERTEX
  5
95F
330
95C
100
AcDbEntity
  8
BEMAßUNG
 62
     7
100
AcDbVertex
100
AcDb2dVertex
 10
21.52392306319541
 20
-28.1357503184869
 30
0.0
  0
VERTEX
  5
960
330
95C
100
AcDbEntity
  8
BEMAßUNG
 62
     7
100
AcDbVertex
100
AcDb2dVertex
 10
18.02439506927863
 20
-28.59670409441333
 30
0.0
  0
SEQEND
  5
961
330
95C
100
AcDbEntity
  8
BEMAßUNG
  0
POLYLINE
  5
962
330
1F
100
AcDbEntity
  8
BEMAßUNG
 62
     7
100
AcDb2dPolyline
 66
     1
 10
0.0
 20
0.0
 30
0.0
  0
VERTEX
  5
963
330
962
100
AcDbEntity
  8
BEMAßUNG
 62
     7
100
AcDbVertex
100
AcDb2dVertex
 10
21.52392306319541
 20
-29.0542127748545
 30
0.0
  0
VERTEX
  5
964
330
962
100
AcDbEntity
  8
BEMAßUNG
 62
     7
100
AcDbVertex
100
AcDb2dVertex
 10
21.49722357318472
 20
-29.0542127748545
 30
0.0
  0
SEQEND
  5
965
330
962
100
AcDbEntity
  8
BEMAßUNG
  0
POLYLINE
  5
966
330
1F
100
AcDbEntity
  8
BEMAßUNG
 62
     7
100
AcDb2dPolyline
 66
     1
 10
0.0
 20
0.0
 30
0.0
  0
VERTEX
  5
967
330
966
100
AcDbEntity
  8
BEMAßUNG
 62
     7
100
AcDbVertex
100
AcDb2dVertex
 10
21.52392306319541
 20
-29.0542127748545
 30
0.0
  0
VERTEX
  5
968
330
966
100
AcDbEntity
  8
BEMAßUNG
 62
     7
100
AcDbVertex
100
AcDb2dVertex
 10
21.49722357318472
 20
-29.0542127748545
 30
0.0
  0
SEQEND
  5
969
330
966
100
AcDbEntity
  8
BEMAßUNG
  0
POLYLINE
  5
96A
330
1F
100
AcDbEntity
  8
BEMAßUNG
 62
     7
100
AcDb2dPolyline
 66
     1
 10
0.0
 20
0.0
 30
0.0
  0
VERTEX
  5
96B
330
96A
100
AcDbEntity
  8
BEMAßUNG
 62
     7
100
AcDbVertex
100
AcDb2dVertex
 10
21.52392306319541
 20
-29.00356987122133
 30
0.0
  0
VERTEX
  5
96C
330
96A
100
AcDbEntity
  8
BEMAßUNG
 62
     7
100
AcDbVertex
100
AcDb2dVertex
 10
21.11120062406248
 20
-29.00356987122133
 30
0.0
  0
SEQEND
  5
96D
330
96A
100
AcDbEntity
  8
BEMAßUNG
  0
POLYLINE
  5
96E
330
1F
100
AcDbEntity
  8
BEMAßUNG
 62
     7
100
AcDb2dPolyline
 66
     1
 10
0.0
 20
0.0
 30
0.0
  0
VERTEX
  5
96F
330
96E
100
AcDbEntity
  8
BEMAßUNG
 62
     7
100
AcDbVertex
100
AcDb2dVertex
 10
21.52392306319541
 20
-28.95292696758816
 30
0.0
  0
VERTEX
  5
970
330
96E
100
AcDbEntity
  8
BEMAßUNG
 62
     7
100
AcDbVertex
100
AcDb2dVertex
 10
20.7253499297145
 20
-28.95292696758816
 30
0.0
  0
SEQEND
  5
971
330
96E
100
AcDbEntity
  8
BEMAßUNG
  0
POLYLINE
  5
972
330
1F
100
AcDbEntity
  8
BEMAßUNG
 62
     7
100
AcDb2dPolyline
 66
     1
 10
0.0
 20
0.0
 30
0.0
  0
VERTEX
  5
973
330
972
100
AcDbEntity
  8
BEMAßUNG
 62
     7
100
AcDbVertex
100
AcDb2dVertex
 10
21.52392306319541
 20
-28.90193955440646
 30
0.0
  0
VERTEX
  5
974
330
972
100
AcDbEntity
  8
BEMAßUNG
 62
     7
100
AcDbVertex
100
AcDb2dVertex
 10
20.33932698059225
 20
-28.90193955440646
 30
0.0
  0
SEQEND
  5
975
330
972
100
AcDbEntity
  8
BEMAßUNG
  0
POLYLINE
  5
976
330
1F
100
AcDbEntity
  8
BEMAßUNG
 62
     7
100
AcDb2dPolyline
 66
     1
 10
0.0
 20
0.0
 30
0.0
  0
VERTEX
  5
977
330
976
100
AcDbEntity
  8
BEMAßUNG
 62
     7
100
AcDbVertex
100
AcDb2dVertex
 10
21.52392306319541
 20
-28.85095214122476
 30
0.0
  0
VERTEX
  5
978
330
976
100
AcDbEntity
  8
BEMAßUNG
 62
     7
100
AcDbVertex
100
AcDb2dVertex
 10
19.9538207957928
 20
-28.85095214122476
 30
0.0
  0
SEQEND
  5
979
330
976
100
AcDbEntity
  8
BEMAßUNG
  0
POLYLINE
  5
97A
330
1F
100
AcDbEntity
  8
BEMAßUNG
 62
     7
100
AcDb2dPolyline
 66
     1
 10
0.0
 20
0.0
 30
0.0
  0
VERTEX
  5
97B
330
97A
100
AcDbEntity
  8
BEMAßUNG
 62
     7
100
AcDbVertex
100
AcDb2dVertex
 10
21.52392306319541
 20
-28.79996472804307
 30
0.0
  0
VERTEX
  5
97C
330
97A
100
AcDbEntity
  8
BEMAßUNG
 62
     7
100
AcDbVertex
100
AcDb2dVertex
 10
19.56779784667055
 20
-28.79996472804307
 30
0.0
  0
SEQEND
  5
97D
330
97A
100
AcDbEntity
  8
BEMAßUNG
  0
POLYLINE
  5
97E
330
1F
100
AcDbEntity
  8
BEMAßUNG
 62
     7
100
AcDb2dPolyline
 66
     1
 10
0.0
 20
0.0
 30
0.0
  0
VERTEX
  5
97F
330
97E
100
AcDbEntity
  8
BEMAßUNG
 62
     7
100
AcDbVertex
100
AcDb2dVertex
 10
21.52392306319541
 20
-28.74932182440989
 30
0.0
  0
VERTEX
  5
980
330
97E
100
AcDbEntity
  8
BEMAßUNG
 62
     7
100
AcDbVertex
100
AcDb2dVertex
 10
19.18194715232257
 20
-28.74932182440989
 30
0.0
  0
SEQEND
  5
981
330
97E
100
AcDbEntity
  8
BEMAßUNG
  0
POLYLINE
  5
982
330
1F
100
AcDbEntity
  8
BEMAßUNG
 62
     7
100
AcDb2dPolyline
 66
     1
 10
0.0
 20
0.0
 30
0.0
  0
VERTEX
  5
983
330
982
100
AcDbEntity
  8
BEMAßUNG
 62
     7
100
AcDbVertex
100
AcDb2dVertex
 10
21.52392306319541
 20
-28.6983344112282
 30
0.0
  0
VERTEX
  5
984
330
982
100
AcDbEntity
  8
BEMAßUNG
 62
     7
100
AcDbVertex
100
AcDb2dVertex
 10
18.79592420320033
 20
-28.6983344112282
 30
0.0
  0
SEQEND
  5
985
330
982
100
AcDbEntity
  8
BEMAßUNG
  0
POLYLINE
  5
986
330
1F
100
AcDbEntity
  8
BEMAßUNG
 62
     7
100
AcDb2dPolyline
 66
     1
 10
0.0
 20
0.0
 30
0.0
  0
VERTEX
  5
987
330
986
100
AcDbEntity
  8
BEMAßUNG
 62
     7
100
AcDbVertex
100
AcDb2dVertex
 10
21.52392306319541
 20
-28.64769150759502
 30
0.0
  0
VERTEX
  5
988
330
986
100
AcDbEntity
  8
BEMAßUNG
 62
     7
100
AcDbVertex
100
AcDb2dVertex
 10
18.41041801840087
 20
-28.64769150759502
 30
0.0
  0
SEQEND
  5
989
330
986
100
AcDbEntity
  8
BEMAßUNG
  0
POLYLINE
  5
98A
330
1F
100
AcDbEntity
  8
BEMAßUNG
 62
     7
100
AcDb2dPolyline
 66
     1
 10
0.0
 20
0.0
 30
0.0
  0
VERTEX
  5
98B
330
98A
100
AcDbEntity
  8
BEMAßUNG
 62
     7
100
AcDbVertex
100
AcDb2dVertex
 10
21.52392306319541
 20
-28.59670409441333
 30
0.0
  0
VERTEX
  5
98C
330
98A
100
AcDbEntity
  8
BEMAßUNG
 62
     7
100
AcDbVertex
100
AcDb2dVertex
 10
18.02439506927863
 20
-28.59670409441333
 30
0.0
  0
SEQEND
  5
98D
330
98A
100
AcDbEntity
  8
BEMAßUNG
  0
POLYLINE
  5
98E
330
1F
100
AcDbEntity
  8
BEMAßUNG
 62
     7
100
AcDb2dPolyline
 66
     1
 10
0.0
 20
0.0
 30
0.0
  0
VERTEX
  5
98F
330
98E
100
AcDbEntity
  8
BEMAßUNG
 62
     7
100
AcDbVertex
100
AcDb2dVertex
 10
21.52392306319541
 20
-28.1398844330692
 30
0.0
  0
VERTEX
  5
990
330
98E
100
AcDbEntity
  8
BEMAßUNG
 62
     7
100
AcDbVertex
100
AcDb2dVertex
 10
21.49722357318472
 20
-28.1398844330692
 30
0.0
  0
SEQEND
  5
991
330
98E
100
AcDbEntity
  8
BEMAßUNG
  0
POLYLINE
  5
992
330
1F
100
AcDbEntity
  8
BEMAßUNG
 62
     7
100
AcDb2dPolyline
 66
     1
 10
0.0
 20
0.0
 30
0.0
  0
VERTEX
  5
993
330
992
100
AcDbEntity
  8
BEMAßUNG
 62
     7
100
AcDbVertex
100
AcDb2dVertex
 10
21.52392306319541
 20
-28.1398844330692
 30
0.0
  0
VERTEX
  5
994
330
992
100
AcDbEntity
  8
BEMAßUNG
 62
     7
100
AcDbVertex
100
AcDb2dVertex
 10
21.49722357318472
 20
-28.1398844330692
 30
0.0
  0
SEQEND
  5
995
330
992
100
AcDbEntity
  8
BEMAßUNG
  0
POLYLINE
  5
996
330
1F
100
AcDbEntity
  8
BEMAßUNG
 62
     7
100
AcDb2dPolyline
 66
     1
 10
0.0
 20
0.0
 30
0.0
  0
VERTEX
  5
997
330
996
100
AcDbEntity
  8
BEMAßUNG
 62
     7
100
AcDbVertex
100
AcDb2dVertex
 10
21.52392306319541
 20
-28.19052733670237
 30
0.0
  0
VERTEX
  5
998
330
996
100
AcDbEntity
  8
BEMAßUNG
 62
     7
100
AcDbVertex
100
AcDb2dVertex
 10
21.11120062406248
 20
-28.19052733670237
 30
0.0
  0
SEQEND
  5
999
330
996
100
AcDbEntity
  8
BEMAßUNG
  0
POLYLINE
  5
99A
330
1F
100
AcDbEntity
  8
BEMAßUNG
 62
     7
100
AcDb2dPolyline
 66
     1
 10
0.0
 20
0.0
 30
0.0
  0
VERTEX
  5
99B
330
99A
100
AcDbEntity
  8
BEMAßUNG
 62
     7
100
AcDbVertex
100
AcDb2dVertex
 10
21.52392306319541
 20
-28.24151474988407
 30
0.0
  0
VERTEX
  5
99C
330
99A
100
AcDbEntity
  8
BEMAßUNG
 62
     7
100
AcDbVertex
100
AcDb2dVertex
 10
20.7253499297145
 20
-28.24151474988407
 30
0.0
  0
SEQEND
  5
99D
330
99A
100
AcDbEntity
  8
BEMAßUNG
  0
POLYLINE
  5
99E
330
1F
100
AcDbEntity
  8
BEMAßUNG
 62
     7
100
AcDb2dPolyline
 66
     1
 10
0.0
 20
0.0
 30
0.0
  0
VERTEX
  5
99F
330
99E
100
AcDbEntity
  8
BEMAßUNG
 62
     7
100
AcDbVertex
100
AcDb2dVertex
 10
21.52392306319541
 20
-28.29215765351724
 30
0.0
  0
VERTEX
  5
9A0
330
99E
100
AcDbEntity
  8
BEMAßUNG
 62
     7
100
AcDbVertex
100
AcDb2dVertex
 10
20.33932698059225
 20
-28.29215765351724
 30
0.0
  0
SEQEND
  5
9A1
330
99E
100
AcDbEntity
  8
BEMAßUNG
  0
POLYLINE
  5
9A2
330
1F
100
AcDbEntity
  8
BEMAßUNG
 62
     7
100
AcDb2dPolyline
 66
     1
 10
0.0
 20
0.0
 30
0.0
  0
VERTEX
  5
9A3
330
9A2
100
AcDbEntity
  8
BEMAßUNG
 62
     7
100
AcDbVertex
100
AcDb2dVertex
 10
21.52392306319541
 20
-28.34314506669894
 30
0.0
  0
VERTEX
  5
9A4
330
9A2
100
AcDbEntity
  8
BEMAßUNG
 62
     7
100
AcDbVertex
100
AcDb2dVertex
 10
19.9538207957928
 20
-28.34314506669894
 30
0.0
  0
SEQEND
  5
9A5
330
9A2
100
AcDbEntity
  8
BEMAßUNG
  0
POLYLINE
  5
9A6
330
1F
100
AcDbEntity
  8
BEMAßUNG
 62
     7
100
AcDb2dPolyline
 66
     1
 10
0.0
 20
0.0
 30
0.0
  0
VERTEX
  5
9A7
330
9A6
100
AcDbEntity
  8
BEMAßUNG
 62
     7
100
AcDbVertex
100
AcDb2dVertex
 10
21.52392306319541
 20
-28.39378797033211
 30
0.0
  0
VERTEX
  5
9A8
330
9A6
100
AcDbEntity
  8
BEMAßUNG
 62
     7
100
AcDbVertex
100
AcDb2dVertex
 10
19.56779784667055
 20
-28.39378797033211
 30
0.0
  0
SEQEND
  5
9A9
330
9A6
100
AcDbEntity
  8
BEMAßUNG
  0
POLYLINE
  5
9AA
330
1F
100
AcDbEntity
  8
BEMAßUNG
 62
     7
100
AcDb2dPolyline
 66
     1
 10
0.0
 20
0.0
 30
0.0
  0
VERTEX
  5
9AB
330
9AA
100
AcDbEntity
  8
BEMAßUNG
 62
     7
100
AcDbVertex
100
AcDb2dVertex
 10
21.52392306319541
 20
-28.44477538351381
 30
0.0
  0
VERTEX
  5
9AC
330
9AA
100
AcDbEntity
  8
BEMAßUNG
 62
     7
100
AcDbVertex
100
AcDb2dVertex
 10
19.18194715232257
 20
-28.44477538351381
 30
0.0
  0
SEQEND
  5
9AD
330
9AA
100
AcDbEntity
  8
BEMAßUNG
  0
POLYLINE
  5
9AE
330
1F
100
AcDbEntity
  8
BEMAßUNG
 62
     7
100
AcDb2dPolyline
 66
     1
 10
0.0
 20
0.0
 30
0.0
  0
VERTEX
  5
9AF
330
9AE
100
AcDbEntity
  8
BEMAßUNG
 62
     7
100
AcDbVertex
100
AcDb2dVertex
 10
21.52392306319541
 20
-28.49541828714698
 30
0.0
  0
VERTEX
  5
9B0
330
9AE
100
AcDbEntity
  8
BEMAßUNG
 62
     7
100
AcDbVertex
100
AcDb2dVertex
 10
18.79592420320033
 20
-28.49541828714698
 30
0.0
  0
SEQEND
  5
9B1
330
9AE
100
AcDbEntity
  8
BEMAßUNG
  0
POLYLINE
  5
9B2
330
1F
100
AcDbEntity
  8
BEMAßUNG
 62
     7
100
AcDb2dPolyline
 66
     1
 10
0.0
 20
0.0
 30
0.0
  0
VERTEX
  5
9B3
330
9B2
100
AcDbEntity
  8
BEMAßUNG
 62
     7
100
AcDbVertex
100
AcDb2dVertex
 10
21.52392306319541
 20
-28.54606119078015
 30
0.0
  0
VERTEX
  5
9B4
330
9B2
100
AcDbEntity
  8
BEMAßUNG
 62
     7
100
AcDbVertex
100
AcDb2dVertex
 10
18.41041801840087
 20
-28.54606119078015
 30
0.0
  0
SEQEND
  5
9B5
330
9B2
100
AcDbEntity
  8
BEMAßUNG
  0
POLYLINE
  5
9B6
330
1F
100
AcDbEntity
  8
BEMAßUNG
 62
     7
100
AcDb2dPolyline
 66
     1
 10
0.0
 20
0.0
 30
0.0
  0
VERTEX
  5
9B7
330
9B6
100
AcDbEntity
  8
BEMAßUNG
 62
     7
100
AcDbVertex
100
AcDb2dVertex
 10
21.52392306319541
 20
-28.59670409441333
 30
0.0
  0
VERTEX
  5
9B8
330
9B6
100
AcDbEntity
  8
BEMAßUNG
 62
     7
100
AcDbVertex
100
AcDb2dVertex
 10
18.02439506927863
 20
-28.59670409441333
 30
0.0
  0
SEQEND
  5
9B9
330
9B6
100
AcDbEntity
  8
BEMAßUNG
  0
MTEXT
  5
9BB
330
1F
100
AcDbEntity
  8
TEXT
 62
     7
100
AcDbMText
 10
56.36658527236669
 20
-9.881911889890633
 30
0.0
 40
2.398888888289167
 41
0.0
 71
     7
 72
     1
  1
\fINDEX Univers 45 Light|b0|i0|c0|p34;\W1;ø19
 11
-4.371139000186241E-8
 21
0.999999999999999
 31
0.0
  0
MTEXT
  5
9BC
330
1F
100
AcDbEntity
  8
TEXT
 62
     7
100
AcDbMText
 10
65.95721433897945
 20
-10.43450520572471
 30
0.0
 40
2.398888888289167
 41
0.0
 71
     7
 72
     1
  1
\fINDEX Univers 45 Light|b0|i0|c0|p34;\W1;ø26
 11
-4.371139000186241E-8
 21
0.999999999999999
 31
0.0
  0
MTEXT
  5
9BD
330
1F
100
AcDbEntity
  8
TEXT
 62
     7
100
AcDbMText
 10
10.37042642969906
 20
27.52786322011456
 30
0.0
 40
2.398888888289167
 41
0.0
 71
     7
 72
     1
  1
\fINDEX Univers 45 Light|b0|i0|c0|p34;\W1;10
  0
MTEXT
  5
9BE
330
1F
100
AcDbEntity
  8
TEXT
 62
     7
100
AcDbMText
 10
27.54405516889524
 20
27.5276909653403
 30
0.0
 40
2.398888888289167
 41
0.0
 71
     7
 72
     1
  1
\fINDEX Univers 45 Light|b0|i0|c0|p34;\W1;24
  0
MTEXT
  5
9BF
330
1F
100
AcDbEntity
  8
TEXT
 62
     7
100
AcDbMText
 10
18.6031711108006
 20
-38.22195637065285
 30
0.0
 40
2.398888888289167
 41
0.0
 71
     7
 72
     1
  1
\fINDEX Univers 45 Light|b0|i0|c0|p34;\W1;26
  0
MTEXT
  5
9C0
330
1F
100
AcDbEntity
  8
TEXT
 62
     7
100
AcDbMText
 10
2.69871554837046
 20
17.22719997399181
 30
0.0
 40
2.398888888289167
 41
0.0
 71
     7
 72
     1
  1
\fINDEX Univers 45 Light|b0|i0|c0|p34;\W1;8
  0
MTEXT
  5
9C1
330
1F
100
AcDbEntity
  8
TEXT
 62
     7
100
AcDbMText
 10
-10.92267523598461
 20
-7.067785642764304
 30
0.0
 40
2.398888888289167
 41
0.0
 71
     7
 72
     1
  1
\fINDEX Univers 45 Light|b0|i0|c0|p34;\W1;d
 11
-4.371139000186241E-8
 21
0.999999999999999
 31
0.0
  0
MTEXT
  5
9C2
330
1F
100
AcDbEntity
  8
TEXT
 62
     7
100
AcDbMText
 10
-12.46108262492293
 20
-8.102520071759093
 30
0.0
 40
2.398888888289167
 41
0.0
 71
     7
 72
     1
  1
\fINDEX Univers 45 Light|b0|i0|c0|p34;\W1; 
 11
-4.371139000186241E-8
 21
0.999999999999999
 31
0.0
  0
MTEXT
  5
9C3
330
1F
100
AcDbEntity
  8
TEXT
 62
     7
100
AcDbMText
 10
21.98694389641299
 20
-27.81707898610129
 30
0.0
 40
2.398888888289167
 41
0.0
 71
     7
 72
     1
  1
\fINDEX Univers 45 Light|b0|i0|c0|p34;\W1;3
  0
MTEXT
  5
9C4
330
1F
100
AcDbEntity
  8
TEXT
 62
     7
100
AcDbMText
 10
50.61396483109651
 20
-28.11886935060917
 30
0.0
 40
2.398888888289167
 41
0.0
 71
     7
 72
     1
  1
\fINDEX Univers 45 Light|b0|i0|c0|p34;\W1;2x M5
  0
ENDSEC
  0
SECTION
  2
OBJECTS
  0
DICTIONARY
  5
C
330
0
100
AcDbDictionary
  3
ACAD_GROUP
350
D
  3
ACAD_LAYOUT
350
1A
  3
ACAD_MLINESTYLE
350
17
  3
ACAD_PLOTSETTINGS
350
19
  3
ACAD_TABLESTYLE
350
9E5
  3
ACAD_VISUALSTYLE
350
2A
  3
ACDBHEADERROUNDTRIPXREC
350
9C5
  0
DICTIONARY
  5
D
102
{ACAD_REACTORS
330
C
102
}
330
C
100
AcDbDictionary
  0
DICTIONARY
  5
1A
102
{ACAD_REACTORS
330
C
102
}
330
C
100
AcDbDictionary
  0
DICTIONARY
  5
17
102
{ACAD_REACTORS
330
C
102
}
330
C
100
AcDbDictionary
  3
STANDARD
350
18
  0
DICTIONARY
  5
19
102
{ACAD_REACTORS
330
C
102
}
330
C
100
AcDbDictionary
  0
DICTIONARY
  5
9E5
102
{ACAD_REACTORS
330
C
102
}
330
C
100
AcDbDictionary
  0
DICTIONARY
  5
2A
102
{ACAD_REACTORS
330
C
102
}
330
C
100
AcDbDictionary
  3
2DWIREFRAME
350
2F
  3
3D_HIDDEN
350
31
  3
3DWIREFRAME
350
30
  3
BASIC
350
32
  3
BRIGHTEN
350
36
  3
COLORCHANGE
350
3A
  3
CONCEPTUAL
350
34
  3
DIM
350
35
  3
FACEPATTERN
350
39
  3
FLAT
350
2B
  3
FLATWITHEDGES
350
2C
  3
GOURAUD
350
2D
  3
GOURAUDWITHEDGES
350
2E
  3
LINEPATTERN
350
38
  3
REALISTIC
350
33
  3
THICKEN
350
37
  0
DICTIONARY
  5
9C5
102
{ACAD_REACTORS
330
C
102
}
330
C
100
AcDbDictionary
  3
CEPSNTYPE
350
9CE
  3
DIMSTYLEDATA
350
9E4
  3
FINGERPRINTGUID
350
9CF
  3
HYPERLINKBASE
350
9C8
  3
INSUNITS
350
9CD
  3
LAYOUTDICT
350
9CA
  3
LWETCUNION
350
9CC
  3
PLOTSETDICT
350
9CB
  3
PSVPSCALE
350
9D1
  3
PUCSBASE
350
9D4
  3
PUCSORGBACK
350
9DA
  3
PUCSORGBOTTOM
350
9D6
  3
PUCSORGFRONT
350
9D9
  3
PUCSORGLEFT
350
9D7
  3
PUCSORGRIGHT
350
9D8
  3
PUCSORGTOP
350
9D5
  3
PUCSORTHOREF
350
9D2
  3
PUCSORTHOVIEW
350
9D3
  3
STYLESHEET
350
9C9
  3
TSTACKALIGN
350
9C6
  3
TSTACKSIZE
350
9C7
  3
UCSBASE
350
9DD
  3
UCSORGBACK
350
9E3
  3
UCSORGBOTTOM
350
9DF
  3
UCSORGFRONT
350
9E2
  3
UCSORGLEFT
350
9E0
  3
UCSORGRIGHT
350
9E1
  3
UCSORGTOP
350
9DE
  3
UCSORTHOREF
350
9DB
  3
UCSORTHOVIEW
350
9DC
  3
VERSIONGUID
350
9D0
  0
MLINESTYLE
  5
18
102
{ACAD_REACTORS
330
17
102
}
330
17
100
AcDbMlineStyle
  2
Standard
 70
     0
  3

 62
   256
 51
90.0
 52
90.0
 71
     2
 49
0.5
 62
   256
  6
BYLAYER
 49
-0.5
 62
   256
  6
BYLAYER
  0
VISUALSTYLE
  5
2F
102
{ACAD_REACTORS
330
2A
102
}
330
2A
100
AcDbVisualStyle
  2
2dWireframe
 70
     4
 71
     0
 72
     2
 73
     0
 90
        0
 40
-0.6
 41
-30.0
 62
     5
 63
     7
 74
     1
 91
        4
 64
     7
 65
   257
 75
     1
175
     1
 42
1.0
 92
        0
 66
   257
 43
1.0
 76
     1
 77
     6
 78
     2
 67
     7
 79
     5
170
     0
171
     0
290
     0
174
     0
 93
        1
 44
0.0
173
     0
291
     0
 45
0.0
1001
ACAD
1000
AcDbSavedByObjectVersion
1070
     0
  0
VISUALSTYLE
  5
31
102
{ACAD_REACTORS
330
2A
102
}
330
2A
100
AcDbVisualStyle
  2
3D Hidden
 70
     6
 71
     1
 72
     2
 73
     2
 90
        0
 40
-0.6
 41
-30.0
 62
     5
 63
     7
 74
     2
 91
        2
 64
     7
 65
   257
 75
     2
175
     1
 42
40.0
 92
        0
 66
   257
 43
1.0
 76
     1
 77
     6
 78
     2
 67
     7
 79
     3
170
     0
171
     0
290
     0
174
     0
 93
        1
 44
0.0
173
     0
291
     0
 45
0.0
1001
ACAD
1000
AcDbSavedByObjectVersion
1070
     0
  0
VISUALSTYLE
  5
30
102
{ACAD_REACTORS
330
2A
102
}
330
2A
100
AcDbVisualStyle
  2
3dWireframe
 70
     5
 71
     0
 72
     2
 73
     0
 90
        0
 40
-0.6
 41
-30.0
 62
     5
 63
     7
 74
     1
 91
        4
 64
     7
 65
   257
 75
     1
175
     1
 42
1.0
 92
        0
 66
   257
 43
1.0
 76
     1
 77
     6
 78
     2
 67
     7
 79
     5
170
     0
171
     0
290
     0
174
     0
 93
        1
 44
0.0
173
     0
291
     0
 45
0.0
1001
ACAD
1000
AcDbSavedByObjectVersion
1070
     0
  0
VISUALSTYLE
  5
32
102
{ACAD_REACTORS
330
2A
102
}
330
2A
100
AcDbVisualStyle
  2
Basic
 70
     7
 71
     1
 72
     0
 73
     1
 90
        0
 40
-0.6
 41
-30.0
 62
     5
 63
     7
 74
     0
 91
        4
 64
     7
 65
   257
 75
     1
175
     1
 42
1.0
 92
        8
 66
     7
 43
1.0
 76
     1
 77
     6
 78
     2
 67
     7
 79
     5
170
     0
171
     0
290
     0
174
     0
 93
        1
 44
0.0
173
     0
291
     1
 45
0.0
1001
ACAD
1000
AcDbSavedByObjectVersion
1070
     0
  0
VISUALSTYLE
  5
36
102
{ACAD_REACTORS
330
2A
102
}
330
2A
100
AcDbVisualStyle
  2
Brighten
 70
    12
 71
     2
 72
     2
 73
     0
 90
        0
 40
-0.6
 41
-30.0
 62
     5
 63
     7
 74
     1
 91
        4
 64
     7
 65
   257
 75
     1
175
     1
 42
1.0
 92
        8
 66
     7
 43
1.0
 76
     1
 77
     6
 78
     2
 67
     7
 79
     5
170
     0
171
     0
290
     0
174
     0
 93
        1
 44
50.0
173
     0
291
     1
 45
0.0
1001
ACAD
1000
AcDbSavedByObjectVersion
1070
     0
  0
VISUALSTYLE
  5
3A
102
{ACAD_REACTORS
330
2A
102
}
330
2A
100
AcDbVisualStyle
  2
ColorChange
 70
    16
 71
     2
 72
     2
 73
     3
 90
        0
 40
-0.6
 41
-30.0
 62
     5
 63
     8
 74
     1
 91
        4
 64
     7
 65
   257
 75
     1
175
     1
 42
1.0
 92
        8
 66
     8
 43
1.0
 76
     1
 77
     6
 78
     2
 67
     7
 79
     5
170
     0
171
     0
290
     0
174
     0
 93
        1
 44
0.0
173
     0
291
     1
 45
0.0
1001
ACAD
1000
AcDbSavedByObjectVersion
1070
     0
  0
VISUALSTYLE
  5
34
102
{ACAD_REACTORS
330
2A
102
}
330
2A
100
AcDbVisualStyle
  2
Conceptual
 70
     9
 71
     3
 72
     2
 73
     0
 90
        0
 40
-0.6
 41
-30.0
 62
     5
 63
     7
 74
     2
 91
        2
 64
     7
 65
   257
 75
     1
175
     1
 42
40.0
 92
        8
 66
     7
 43
1.0
 76
     1
 77
     6
 78
     2
 67
     7
 79
     3
170
     0
171
     0
290
     0
174
     0
 93
        1
 44
0.0
173
     0
291
     0
 45
0.0
1001
ACAD
1000
AcDbSavedByObjectVersion
1070
     0
  0
VISUALSTYLE
  5
35
102
{ACAD_REACTORS
330
2A
102
}
330
2A
100
AcDbVisualStyle
  2
Dim
 70
    11
 71
     2
 72
     2
 73
     0
 90
        0
 40
-0.6
 41
-30.0
 62
     5
 63
     7
 74
     1
 91
        4
 64
     7
 65
   257
 75
     1
175
     1
 42
1.0
 92
        8
 66
     7
 43
1.0
 76
     1
 77
     6
 78
     2
 67
     7
 79
     5
170
     0
171
     0
290
     0
174
     0
 93
        1
 44
-50.0
173
     0
291
     1
 45
0.0
1001
ACAD
1000
AcDbSavedByObjectVersion
1070
     0
  0
VISUALSTYLE
  5
39
102
{ACAD_REACTORS
330
2A
102
}
330
2A
100
AcDbVisualStyle
  2
Facepattern
 70
    15
 71
     2
 72
     2
 73
     0
 90
        0
 40
-0.6
 41
-30.0
 62
     5
 63
     7
 74
     1
 91
        4
 64
     7
 65
   257
 75
     1
175
     1
 42
1.0
 92
        8
 66
     7
 43
1.0
 76
     1
 77
     6
 78
     2
 67
     7
 79
     5
170
     0
171
     0
290
     0
174
     0
 93
        1
 44
0.0
173
     0
291
     1
 45
0.0
1001
ACAD
1000
AcDbSavedByObjectVersion
1070
     0
  0
VISUALSTYLE
  5
2B
102
{ACAD_REACTORS
330
2A
102
}
330
2A
100
AcDbVisualStyle
  2
Flat
 70
     0
 71
     2
 72
     1
 73
     1
 90
        2
 40
-0.6
 41
30.0
 62
     5
 63
     7
 74
     0
 91
        4
 64
     7
 65
   257
 75
     1
175
     1
 42
1.0
 92
        8
 66
     7
 43
1.0
 76
     1
 77
     6
 78
     2
 67
     7
 79
     5
170
     0
171
     0
290
     0
174
     0
 93
       13
 44
0.0
173
     0
291
     1
 45
0.0
1001
ACAD
1000
AcDbSavedByObjectVersion
1070
     0
  0
VISUALSTYLE
  5
2C
102
{ACAD_REACTORS
330
2A
102
}
330
2A
100
AcDbVisualStyle
  2
FlatWithEdges
 70
     1
 71
     2
 72
     1
 73
     1
 90
        2
 40
-0.6
 41
30.0
 62
     5
 63
     7
 74
     1
 91
        4
 64
     7
 65
   257
 75
     1
175
     1
 42
1.0
 92
        0
 66
   257
 43
1.0
 76
     1
 77
     6
 78
     2
 67
     7
 79
     5
170
     0
171
     0
290
     0
174
     0
 93
       13
 44
0.0
173
     0
291
     1
 45
0.0
1001
ACAD
1000
AcDbSavedByObjectVersion
1070
     0
  0
VISUALSTYLE
  5
2D
102
{ACAD_REACTORS
330
2A
102
}
330
2A
100
AcDbVisualStyle
  2
Gouraud
 70
     2
 71
     2
 72
     2
 73
     1
 90
        2
 40
-0.6
 41
30.0
 62
     5
 63
     7
 74
     0
 91
        4
 64
     7
 65
   257
 75
     1
175
     1
 42
1.0
 92
        0
 66
     7
 43
1.0
 76
     1
 77
     6
 78
     2
 67
     7
 79
     5
170
     0
171
     0
290
     0
174
     0
 93
       13
 44
0.0
173
     0
291
     1
 45
0.0
1001
ACAD
1000
AcDbSavedByObjectVersion
1070
     0
  0
VISUALSTYLE
  5
2E
102
{ACAD_REACTORS
330
2A
102
}
330
2A
100
AcDbVisualStyle
  2
GouraudWithEdges
 70
     3
 71
     2
 72
     2
 73
     1
 90
        2
 40
-0.6
 41
30.0
 62
     5
 63
     7
 74
     1
 91
        4
 64
     7
 65
   257
 75
     1
175
     1
 42
1.0
 92
        0
 66
   257
 43
1.0
 76
     1
 77
     6
 78
     2
 67
     7
 79
     5
170
     0
171
     0
290
     0
174
     0
 93
       13
 44
0.0
173
     0
291
     1
 45
0.0
1001
ACAD
1000
AcDbSavedByObjectVersion
1070
     0
  0
VISUALSTYLE
  5
38
102
{ACAD_REACTORS
330
2A
102
}
330
2A
100
AcDbVisualStyle
  2
Linepattern
 70
    14
 71
     2
 72
     2
 73
     0
 90
        0
 40
-0.6
 41
-30.0
 62
     5
 63
     7
 74
     1
 91
        4
 64
     7
 65
   257
 75
     7
175
     7
 42
1.0
 92
        8
 66
     7
 43
1.0
 76
     1
 77
     6
 78
     2
 67
     7
 79
     5
170
     0
171
     0
290
     0
174
     0
 93
        1
 44
0.0
173
     0
291
     1
 45
0.0
1001
ACAD
1000
AcDbSavedByObjectVersion
1070
     0
  0
VISUALSTYLE
  5
33
102
{ACAD_REACTORS
330
2A
102
}
330
2A
100
AcDbVisualStyle
  2
Realistic
 70
     8
 71
     2
 72
     2
 73
     0
 90
        0
 40
-0.6
 41
-30.0
 62
     5
 63
     7
 74
     1
 91
        0
 64
     7
 65
   257
 75
     1
175
     1
 42
1.0
 92
        8
 66
     8
 43
1.0
 76
     1
 77
     6
 78
     2
 67
     7
 79
     5
170
     0
171
     0
290
     0
174
     0
 93
       13
 44
0.0
173
     0
291
     0
 45
0.0
1001
ACAD
1000
AcDbSavedByObjectVersion
1070
     0
  0
VISUALSTYLE
  5
37
102
{ACAD_REACTORS
330
2A
102
}
330
2A
100
AcDbVisualStyle
  2
Thicken
 70
    13
 71
     2
 72
     2
 73
     0
 90
        0
 40
-0.6
 41
-30.0
 62
     5
 63
     7
 74
     1
 91
        4
 64
     7
 65
   257
 75
     1
175
     1
 42
1.0
 92
       12
 66
     7
 43
1.0
 76
     1
 77
     6
 78
     2
 67
     7
 79
     5
170
     0
171
     0
290
     0
174
     0
 93
        1
 44
0.0
173
     0
291
     1
 45
0.0
1001
ACAD
1000
AcDbSavedByObjectVersion
1070
     0
  0
XRECORD
  5
9CE
102
{ACAD_REACTORS
330
9C5
102
}
330
9C5
100
AcDbXrecord
 90
        0
  0
XRECORD
  5
9E4
102
{ACAD_REACTORS
330
9C5
102
}
330
9C5
100
AcDbXrecord
1000
DSTYLE
1002
{
1070
   340
340
11
1002
}
  0
XRECORD
  5
9CF
102
{ACAD_REACTORS
330
9C5
102
}
330
9C5
100
AcDbXrecord
  1
{1E18E848-31C8-4BB2-80EE-32D35376789C}
  0
XRECORD
  5
9C8
102
{ACAD_REACTORS
330
9C5
102
}
330
9C5
100
AcDbXrecord
  1

  0
XRECORD
  5
9CD
102
{ACAD_REACTORS
330
9C5
102
}
330
9C5
100
AcDbXrecord
 90
        1
  0
XRECORD
  5
9CA
102
{ACAD_REACTORS
330
9C5
102
}
330
9C5
100
AcDbXrecord
340
1A
  0
XRECORD
  5
9CC
102
{ACAD_REACTORS
330
9C5
102
}
330
9C5
100
AcDbXrecord
 90
    10269
  0
XRECORD
  5
9CB
102
{ACAD_REACTORS
330
9C5
102
}
330
9C5
100
AcDbXrecord
340
19
  0
XRECORD
  5
9D1
102
{ACAD_REACTORS
330
9C5
102
}
330
9C5
100
AcDbXrecord
 40
0.0
  0
XRECORD
  5
9D4
102
{ACAD_REACTORS
330
9C5
102
}
330
9C5
100
AcDbXrecord
340
0
  0
XRECORD
  5
9DA
102
{ACAD_REACTORS
330
9C5
102
}
330
9C5
100
AcDbXrecord
 10
0.0
 20
0.0
 30
0.0
  0
XRECORD
  5
9D6
102
{ACAD_REACTORS
330
9C5
102
}
330
9C5
100
AcDbXrecord
 10
0.0
 20
0.0
 30
0.0
  0
XRECORD
  5
9D9
102
{ACAD_REACTORS
330
9C5
102
}
330
9C5
100
AcDbXrecord
 10
0.0
 20
0.0
 30
0.0
  0
XRECORD
  5
9D7
102
{ACAD_REACTORS
330
9C5
102
}
330
9C5
100
AcDbXrecord
 10
0.0
 20
0.0
 30
0.0
  0
XRECORD
  5
9D8
102
{ACAD_REACTORS
330
9C5
102
}
330
9C5
100
AcDbXrecord
 10
0.0
 20
0.0
 30
0.0
  0
XRECORD
  5
9D5
102
{ACAD_REACTORS
330
9C5
102
}
330
9C5
100
AcDbXrecord
 10
0.0
 20
0.0
 30
0.0
  0
XRECORD
  5
9D2
102
{ACAD_REACTORS
330
9C5
102
}
330
9C5
100
AcDbXrecord
340
0
  0
XRECORD
  5
9D3
102
{ACAD_REACTORS
330
9C5
102
}
330
9C5
100
AcDbXrecord
 70
     0
  0
XRECORD
  5
9C9
102
{ACAD_REACTORS
330
9C5
102
}
330
9C5
100
AcDbXrecord
  1

  0
XRECORD
  5
9C6
102
{ACAD_REACTORS
330
9C5
102
}
330
9C5
100
AcDbXrecord
 90
        1
  0
XRECORD
  5
9C7
102
{ACAD_REACTORS
330
9C5
102
}
330
9C5
100
AcDbXrecord
 90
       70
  0
XRECORD
  5
9DD
102
{ACAD_REACTORS
330
9C5
102
}
330
9C5
100
AcDbXrecord
340
0
  0
XRECORD
  5
9E3
102
{ACAD_REACTORS
330
9C5
102
}
330
9C5
100
AcDbXrecord
 10
0.0
 20
0.0
 30
0.0
  0
XRECORD
  5
9DF
102
{ACAD_REACTORS
330
9C5
102
}
330
9C5
100
AcDbXrecord
 10
0.0
 20
0.0
 30
0.0
  0
XRECORD
  5
9E2
102
{ACAD_REACTORS
330
9C5
102
}
330
9C5
100
AcDbXrecord
 10
0.0
 20
0.0
 30
0.0
  0
XRECORD
  5
9E0
102
{ACAD_REACTORS
330
9C5
102
}
330
9C5
100
AcDbXrecord
 10
0.0
 20
0.0
 30
0.0
  0
XRECORD
  5
9E1
102
{ACAD_REACTORS
330
9C5
102
}
330
9C5
100
AcDbXrecord
 10
0.0
 20
0.0
 30
0.0
  0
XRECORD
  5
9DE
102
{ACAD_REACTORS
330
9C5
102
}
330
9C5
100
AcDbXrecord
 10
0.0
 20
0.0
 30
0.0
  0
XRECORD
  5
9DB
102
{ACAD_REACTORS
330
9C5
102
}
330
9C5
100
AcDbXrecord
340
0
  0
XRECORD
  5
9DC
102
{ACAD_REACTORS
330
9C5
102
}
330
9C5
100
AcDbXrecord
 70
     0
  0
XRECORD
  5
9D0
102
{ACAD_REACTORS
330
9C5
102
}
330
9C5
100
AcDbXrecord
  1
{FAEB1C32-E019-11D5-929B-00C0DF256EC4}
  0
ENDSEC
  0
EOF
