ISO-10303-21;
HEADER;
/* Generated by software containing ST-Developer
 * from STEP Tools, Inc. (www.steptools.com) 
 */
/* OPTION: using custom schema-name function */

FILE_DESCRIPTION(
/* description */ (''),
/* implementation_level */ '2;1');

FILE_NAME(
/* name */ 'W9990125_stp.stp',
/* time_stamp */ '2017-05-04T14:41:49+02:00',
/* author */ (''),
/* organization */ (''),
/* preprocessor_version */ 'ST-DEVELOPER v15',
/* originating_system */ 'SIEMENS PLM Software NX 9.0',
/* authorisation */ '');

FILE_SCHEMA (('AUTOMOTIVE_DESIGN { 1 0 10303 214 3 1 1 1 }'));
ENDSEC;

DATA;
#10=PROPERTY_DEFINITION_REPRESENTATION(#14,#12);
#11=PROPERTY_DEFINITION_REPRESENTATION(#15,#13);
#12=REPRESENTATION('',(#16),#353);
#13=REPRESENTATION('',(#17),#353);
#14=PROPERTY_DEFINITION('pmi validation property','',#21);
#15=PROPERTY_DEFINITION('pmi validation property','',#21);
#16=VALUE_REPRESENTATION_ITEM('number of annotations',COUNT_MEASURE(0.));
#17=VALUE_REPRESENTATION_ITEM('number of views',COUNT_MEASURE(0.));
#18=SHAPE_REPRESENTATION_RELATIONSHIP('None',
'relationship between reic08DC0832exjb-None and reic08DC0832exjb-None',
#30,#19);
#19=ADVANCED_BREP_SHAPE_REPRESENTATION('reic08DC0832exjb-None',(#40),#353);
#20=SHAPE_DEFINITION_REPRESENTATION(#21,#30);
#21=PRODUCT_DEFINITION_SHAPE('','',#22);
#22=PRODUCT_DEFINITION(' ','',#24,#23);
#23=PRODUCT_DEFINITION_CONTEXT('part definition',#29,'design');
#24=PRODUCT_DEFINITION_FORMATION_WITH_SPECIFIED_SOURCE(' ',' ',#26,
 .NOT_KNOWN.);
#25=PRODUCT_RELATED_PRODUCT_CATEGORY('part','',(#26));
#26=PRODUCT('reic08DC0832exjb','reic08DC0832exjb',' ',(#27));
#27=PRODUCT_CONTEXT(' ',#29,'mechanical');
#28=APPLICATION_PROTOCOL_DEFINITION('international standard',
'automotive_design',2010,#29);
#29=APPLICATION_CONTEXT(
'core data for automotive mechanical design processes');
#30=SHAPE_REPRESENTATION('reic08DC0832exjb-None',(#209),#353);
#31=PRESENTATION_LAYER_ASSIGNMENT('210','Layer 210',(#40));
#32=STYLED_ITEM('',(#33),#40);
#33=PRESENTATION_STYLE_ASSIGNMENT((#34));
#34=SURFACE_STYLE_USAGE(.BOTH.,#35);
#35=SURFACE_SIDE_STYLE('',(#36));
#36=SURFACE_STYLE_FILL_AREA(#37);
#37=FILL_AREA_STYLE('',(#38));
#38=FILL_AREA_STYLE_COLOUR('',#39);
#39=COLOUR_RGB('Orange',1.,0.499992370489052,0.);
#40=MANIFOLD_SOLID_BREP('',#41);
#41=CLOSED_SHELL('',(#56,#57,#58,#59,#60,#61,#62,#63,#64,#65,#66,#67,#68,
#69,#70,#71));
#42=FACE_OUTER_BOUND('',#128,.T.);
#43=FACE_OUTER_BOUND('',#133,.T.);
#44=TOROIDAL_SURFACE('',#224,705.,700.);
#45=TOROIDAL_SURFACE('',#225,8.65864264104388,3.);
#46=TOROIDAL_SURFACE('',#226,3.07560950834171,1.);
#47=CONICAL_SURFACE('',#222,3.99999999999991,4.50000000000084);
#48=CONICAL_SURFACE('',#234,4.3135099835713,8.00000000000003);
#49=PLANE('',#214);
#50=PLANE('',#216);
#51=PLANE('',#219);
#52=PLANE('',#229);
#53=PLANE('',#233);
#54=PLANE('',#236);
#55=PLANE('',#240);
#56=ADVANCED_FACE('',(#76,#77),#72,.T.);
#57=ADVANCED_FACE('',(#78,#79),#49,.F.);
#58=ADVANCED_FACE('',(#80,#81),#50,.F.);
#59=ADVANCED_FACE('',(#82,#83),#51,.T.);
#60=ADVANCED_FACE('',(#84,#85),#47,.T.);
#61=ADVANCED_FACE('',(#86,#87),#44,.F.);
#62=ADVANCED_FACE('',(#88,#89),#45,.F.);
#63=ADVANCED_FACE('',(#90,#91),#46,.T.);
#64=ADVANCED_FACE('',(#92,#93),#52,.T.);
#65=ADVANCED_FACE('',(#94,#95),#73,.T.);
#66=ADVANCED_FACE('',(#96,#97),#53,.T.);
#67=ADVANCED_FACE('',(#98,#99),#48,.T.);
#68=ADVANCED_FACE('',(#42),#54,.T.);
#69=ADVANCED_FACE('',(#100,#101),#74,.T.);
#70=ADVANCED_FACE('',(#102,#103),#75,.F.);
#71=ADVANCED_FACE('',(#43),#55,.F.);
#72=CYLINDRICAL_SURFACE('',#212,15.);
#73=CYLINDRICAL_SURFACE('',#230,10.);
#74=CYLINDRICAL_SURFACE('',#237,4.);
#75=CYLINDRICAL_SURFACE('',#239,1.5);
#76=FACE_BOUND('',#104,.T.);
#77=FACE_BOUND('',#105,.T.);
#78=FACE_BOUND('',#106,.T.);
#79=FACE_BOUND('',#107,.T.);
#80=FACE_BOUND('',#108,.T.);
#81=FACE_BOUND('',#109,.T.);
#82=FACE_BOUND('',#110,.T.);
#83=FACE_BOUND('',#111,.T.);
#84=FACE_BOUND('',#112,.T.);
#85=FACE_BOUND('',#113,.T.);
#86=FACE_BOUND('',#114,.T.);
#87=FACE_BOUND('',#115,.T.);
#88=FACE_BOUND('',#116,.T.);
#89=FACE_BOUND('',#117,.T.);
#90=FACE_BOUND('',#118,.T.);
#91=FACE_BOUND('',#119,.T.);
#92=FACE_BOUND('',#120,.T.);
#93=FACE_BOUND('',#121,.T.);
#94=FACE_BOUND('',#122,.T.);
#95=FACE_BOUND('',#123,.T.);
#96=FACE_BOUND('',#124,.T.);
#97=FACE_BOUND('',#125,.T.);
#98=FACE_BOUND('',#126,.T.);
#99=FACE_BOUND('',#127,.T.);
#100=FACE_BOUND('',#129,.T.);
#101=FACE_BOUND('',#130,.T.);
#102=FACE_BOUND('',#131,.T.);
#103=FACE_BOUND('',#132,.T.);
#104=EDGE_LOOP('',(#134));
#105=EDGE_LOOP('',(#135));
#106=EDGE_LOOP('',(#136));
#107=EDGE_LOOP('',(#137));
#108=EDGE_LOOP('',(#138));
#109=EDGE_LOOP('',(#139));
#110=EDGE_LOOP('',(#140));
#111=EDGE_LOOP('',(#141));
#112=EDGE_LOOP('',(#142));
#113=EDGE_LOOP('',(#143));
#114=EDGE_LOOP('',(#144));
#115=EDGE_LOOP('',(#145));
#116=EDGE_LOOP('',(#146));
#117=EDGE_LOOP('',(#147));
#118=EDGE_LOOP('',(#148));
#119=EDGE_LOOP('',(#149));
#120=EDGE_LOOP('',(#150));
#121=EDGE_LOOP('',(#151));
#122=EDGE_LOOP('',(#152));
#123=EDGE_LOOP('',(#153));
#124=EDGE_LOOP('',(#154));
#125=EDGE_LOOP('',(#155));
#126=EDGE_LOOP('',(#156));
#127=EDGE_LOOP('',(#157));
#128=EDGE_LOOP('',(#158));
#129=EDGE_LOOP('',(#159));
#130=EDGE_LOOP('',(#160));
#131=EDGE_LOOP('',(#161));
#132=EDGE_LOOP('',(#162));
#133=EDGE_LOOP('',(#163));
#134=ORIENTED_EDGE('',*,*,#179,.T.);
#135=ORIENTED_EDGE('',*,*,#180,.F.);
#136=ORIENTED_EDGE('',*,*,#181,.T.);
#137=ORIENTED_EDGE('',*,*,#179,.F.);
#138=ORIENTED_EDGE('',*,*,#182,.F.);
#139=ORIENTED_EDGE('',*,*,#180,.T.);
#140=ORIENTED_EDGE('',*,*,#183,.T.);
#141=ORIENTED_EDGE('',*,*,#184,.T.);
#142=ORIENTED_EDGE('',*,*,#185,.T.);
#143=ORIENTED_EDGE('',*,*,#186,.T.);
#144=ORIENTED_EDGE('',*,*,#187,.T.);
#145=ORIENTED_EDGE('',*,*,#186,.F.);
#146=ORIENTED_EDGE('',*,*,#187,.F.);
#147=ORIENTED_EDGE('',*,*,#181,.F.);
#148=ORIENTED_EDGE('',*,*,#184,.F.);
#149=ORIENTED_EDGE('',*,*,#185,.F.);
#150=ORIENTED_EDGE('',*,*,#188,.T.);
#151=ORIENTED_EDGE('',*,*,#189,.F.);
#152=ORIENTED_EDGE('',*,*,#189,.T.);
#153=ORIENTED_EDGE('',*,*,#182,.T.);
#154=ORIENTED_EDGE('',*,*,#190,.F.);
#155=ORIENTED_EDGE('',*,*,#191,.F.);
#156=ORIENTED_EDGE('',*,*,#191,.T.);
#157=ORIENTED_EDGE('',*,*,#188,.F.);
#158=ORIENTED_EDGE('',*,*,#192,.T.);
#159=ORIENTED_EDGE('',*,*,#192,.F.);
#160=ORIENTED_EDGE('',*,*,#190,.T.);
#161=ORIENTED_EDGE('',*,*,#193,.T.);
#162=ORIENTED_EDGE('',*,*,#183,.F.);
#163=ORIENTED_EDGE('',*,*,#193,.F.);
#164=VERTEX_POINT('',#307);
#165=VERTEX_POINT('',#309);
#166=VERTEX_POINT('',#312);
#167=VERTEX_POINT('',#315);
#168=VERTEX_POINT('',#318);
#169=VERTEX_POINT('',#320);
#170=VERTEX_POINT('',#323);
#171=VERTEX_POINT('',#325);
#172=VERTEX_POINT('',#328);
#173=VERTEX_POINT('',#333);
#174=VERTEX_POINT('',#335);
#175=VERTEX_POINT('',#339);
#176=VERTEX_POINT('',#341);
#177=VERTEX_POINT('',#345);
#178=VERTEX_POINT('',#349);
#179=EDGE_CURVE('',#164,#164,#194,.T.);
#180=EDGE_CURVE('',#165,#165,#195,.T.);
#181=EDGE_CURVE('',#166,#166,#196,.T.);
#182=EDGE_CURVE('',#167,#167,#197,.T.);
#183=EDGE_CURVE('',#168,#168,#198,.T.);
#184=EDGE_CURVE('',#169,#169,#199,.T.);
#185=EDGE_CURVE('',#170,#170,#200,.T.);
#186=EDGE_CURVE('',#171,#171,#201,.T.);
#187=EDGE_CURVE('',#172,#172,#202,.T.);
#188=EDGE_CURVE('',#173,#173,#203,.T.);
#189=EDGE_CURVE('',#174,#174,#204,.T.);
#190=EDGE_CURVE('',#175,#175,#205,.T.);
#191=EDGE_CURVE('',#176,#176,#206,.T.);
#192=EDGE_CURVE('',#177,#177,#207,.T.);
#193=EDGE_CURVE('',#178,#178,#208,.T.);
#194=CIRCLE('',#210,15.);
#195=CIRCLE('',#211,15.);
#196=CIRCLE('',#213,8.65864264104388);
#197=CIRCLE('',#215,10.);
#198=CIRCLE('',#217,1.5);
#199=CIRCLE('',#218,3.07560950834171);
#200=CIRCLE('',#220,4.07252684207484);
#201=CIRCLE('',#221,5.);
#202=CIRCLE('',#223,5.66147754480727);
#203=CIRCLE('',#227,6.);
#204=CIRCLE('',#228,10.);
#205=CIRCLE('',#231,4.);
#206=CIRCLE('',#232,4.3135099835713);
#207=CIRCLE('',#235,4.);
#208=CIRCLE('',#238,1.5);
#209=AXIS2_PLACEMENT_3D('',#305,#241,#242);
#210=AXIS2_PLACEMENT_3D('',#306,#243,#244);
#211=AXIS2_PLACEMENT_3D('',#308,#245,#246);
#212=AXIS2_PLACEMENT_3D('',#310,#247,#248);
#213=AXIS2_PLACEMENT_3D('',#311,#249,#250);
#214=AXIS2_PLACEMENT_3D('',#313,#251,#252);
#215=AXIS2_PLACEMENT_3D('',#314,#253,#254);
#216=AXIS2_PLACEMENT_3D('',#316,#255,#256);
#217=AXIS2_PLACEMENT_3D('',#317,#257,#258);
#218=AXIS2_PLACEMENT_3D('',#319,#259,#260);
#219=AXIS2_PLACEMENT_3D('',#321,#261,#262);
#220=AXIS2_PLACEMENT_3D('',#322,#263,#264);
#221=AXIS2_PLACEMENT_3D('',#324,#265,#266);
#222=AXIS2_PLACEMENT_3D('',#326,#267,#268);
#223=AXIS2_PLACEMENT_3D('',#327,#269,#270);
#224=AXIS2_PLACEMENT_3D('',#329,#271,#272);
#225=AXIS2_PLACEMENT_3D('',#330,#273,#274);
#226=AXIS2_PLACEMENT_3D('',#331,#275,#276);
#227=AXIS2_PLACEMENT_3D('',#332,#277,#278);
#228=AXIS2_PLACEMENT_3D('',#334,#279,#280);
#229=AXIS2_PLACEMENT_3D('',#336,#281,#282);
#230=AXIS2_PLACEMENT_3D('',#337,#283,#284);
#231=AXIS2_PLACEMENT_3D('',#338,#285,#286);
#232=AXIS2_PLACEMENT_3D('',#340,#287,#288);
#233=AXIS2_PLACEMENT_3D('',#342,#289,#290);
#234=AXIS2_PLACEMENT_3D('',#343,#291,#292);
#235=AXIS2_PLACEMENT_3D('',#344,#293,#294);
#236=AXIS2_PLACEMENT_3D('',#346,#295,#296);
#237=AXIS2_PLACEMENT_3D('',#347,#297,#298);
#238=AXIS2_PLACEMENT_3D('',#348,#299,#300);
#239=AXIS2_PLACEMENT_3D('',#350,#301,#302);
#240=AXIS2_PLACEMENT_3D('',#351,#303,#304);
#241=DIRECTION('',(0.,0.,1.));
#242=DIRECTION('',(1.,0.,0.));
#243=DIRECTION('',(0.,0.,-1.));
#244=DIRECTION('',(-1.,0.,0.));
#245=DIRECTION('',(0.,0.,-1.));
#246=DIRECTION('',(1.,0.,0.));
#247=DIRECTION('',(0.,0.,1.));
#248=DIRECTION('',(0.,-1.,0.));
#249=DIRECTION('',(0.,0.,-1.));
#250=DIRECTION('',(0.,1.,0.));
#251=DIRECTION('',(0.,0.,-1.));
#252=DIRECTION('',(0.,1.,0.));
#253=DIRECTION('',(0.,0.,-1.));
#254=DIRECTION('',(1.,0.,0.));
#255=DIRECTION('',(0.,0.,1.));
#256=DIRECTION('',(0.,-1.,0.));
#257=DIRECTION('',(0.,0.,-1.));
#258=DIRECTION('',(1.,0.,0.));
#259=DIRECTION('',(0.,0.,1.));
#260=DIRECTION('',(0.,-1.,0.));
#261=DIRECTION('',(0.,0.,1.));
#262=DIRECTION('',(0.,-1.,0.));
#263=DIRECTION('',(0.,0.,-1.));
#264=DIRECTION('',(0.,1.,0.));
#265=DIRECTION('',(0.,0.,1.));
#266=DIRECTION('',(0.,1.,0.));
#267=DIRECTION('',(0.,0.,-1.));
#268=DIRECTION('',(0.,1.,-3.35610674571492E-016));
#269=DIRECTION('',(0.,0.,1.));
#270=DIRECTION('',(0.,-1.,0.));
#271=DIRECTION('',(0.,0.,-1.));
#272=DIRECTION('',(0.,1.,0.));
#273=DIRECTION('',(0.,0.,1.));
#274=DIRECTION('',(0.,-1.,0.));
#275=DIRECTION('',(0.,0.,1.));
#276=DIRECTION('',(0.,-1.,0.));
#277=DIRECTION('',(0.,0.,1.));
#278=DIRECTION('',(-1.,0.,0.));
#279=DIRECTION('',(0.,0.,1.));
#280=DIRECTION('',(0.,-1.,0.));
#281=DIRECTION('',(0.,0.,-1.));
#282=DIRECTION('',(0.,1.,0.));
#283=DIRECTION('',(0.,0.,1.));
#284=DIRECTION('',(0.,-1.,0.));
#285=DIRECTION('',(0.,0.,-1.));
#286=DIRECTION('',(-1.,0.,0.));
#287=DIRECTION('',(0.,0.,1.));
#288=DIRECTION('',(0.,1.,0.));
#289=DIRECTION('',(0.,0.,-1.));
#290=DIRECTION('',(0.,1.,0.));
#291=DIRECTION('',(0.,0.,1.));
#292=DIRECTION('',(0.,-1.,-1.91610239070161E-016));
#293=DIRECTION('',(0.,0.,-1.));
#294=DIRECTION('',(-1.,0.,0.));
#295=DIRECTION('',(0.,0.,-1.));
#296=DIRECTION('',(0.,1.,0.));
#297=DIRECTION('',(0.,0.,-1.));
#298=DIRECTION('',(0.,1.,0.));
#299=DIRECTION('',(0.,0.,-1.));
#300=DIRECTION('',(0.,1.,0.));
#301=DIRECTION('',(0.,0.,-1.));
#302=DIRECTION('',(0.,1.,0.));
#303=DIRECTION('',(0.,0.,-1.));
#304=DIRECTION('',(-1.,0.,0.));
#305=CARTESIAN_POINT('',(0.,0.,0.));
#306=CARTESIAN_POINT('',(0.,0.,4.99999999999998));
#307=CARTESIAN_POINT('',(-15.,0.,4.99999999999998));
#308=CARTESIAN_POINT('',(0.,0.,0.));
#309=CARTESIAN_POINT('',(15.,0.,0.));
#310=CARTESIAN_POINT('',(0.,0.,-28.));
#311=CARTESIAN_POINT('',(0.,0.,4.99999999999998));
#312=CARTESIAN_POINT('',(0.,8.65864264104388,4.99999999999998));
#313=CARTESIAN_POINT('',(-5.79221743681169,0.,4.99999999999998));
#314=CARTESIAN_POINT('',(-9.34807244633295E-015,-6.73533494602307E-016,
0.));
#315=CARTESIAN_POINT('',(9.99999999999999,-6.73533494602307E-016,0.));
#316=CARTESIAN_POINT('',(0.,0.,1.30104260698261E-015));
#317=CARTESIAN_POINT('',(2.16840434497101E-016,0.,51.));
#318=CARTESIAN_POINT('',(1.5,0.,51.));
#319=CARTESIAN_POINT('',(0.,0.,51.));
#320=CARTESIAN_POINT('',(0.,-3.07560950834171,51.));
#321=CARTESIAN_POINT('',(0.,0.,51.));
#322=CARTESIAN_POINT('',(0.,0.,50.0784590957279));
#323=CARTESIAN_POINT('',(0.,4.07252684207484,50.0784590957279));
#324=CARTESIAN_POINT('',(0.,0.,38.2937952638265));
#325=CARTESIAN_POINT('',(0.,5.,38.2937952638265));
#326=CARTESIAN_POINT('',(0.,0.,51.));
#327=CARTESIAN_POINT('',(0.,0.,7.86961063731493));
#328=CARTESIAN_POINT('',(0.,-5.66147754480727,7.86961063731493));
#329=CARTESIAN_POINT('',(0.,0.,38.2937952638265));
#330=CARTESIAN_POINT('',(0.,0.,7.99999999999998));
#331=CARTESIAN_POINT('',(0.,0.,50.));
#332=CARTESIAN_POINT('',(0.,0.,-11.));
#333=CARTESIAN_POINT('',(-6.,0.,-11.));
#334=CARTESIAN_POINT('',(0.,0.,-11.));
#335=CARTESIAN_POINT('',(0.,-10.,-11.));
#336=CARTESIAN_POINT('',(-6.,0.,-11.));
#337=CARTESIAN_POINT('',(0.,0.,-5.5));
#338=CARTESIAN_POINT('',(0.,0.,-23.));
#339=CARTESIAN_POINT('',(-4.,0.,-23.));
#340=CARTESIAN_POINT('',(0.,0.,-23.));
#341=CARTESIAN_POINT('',(0.,4.3135099835713,-23.));
#342=CARTESIAN_POINT('',(-3.5,0.,-23.));
#343=CARTESIAN_POINT('',(0.,0.,-23.));
#344=CARTESIAN_POINT('',(0.,0.,-28.));
#345=CARTESIAN_POINT('',(-4.,0.,-28.));
#346=CARTESIAN_POINT('',(0.,0.,-28.));
#347=CARTESIAN_POINT('',(0.,0.,-100.81126254777));
#348=CARTESIAN_POINT('',(2.16840434497101E-016,0.,23.));
#349=CARTESIAN_POINT('',(2.16840434497101E-016,1.5,23.));
#350=CARTESIAN_POINT('',(2.16840434497101E-016,0.,51.));
#351=CARTESIAN_POINT('',(2.16840434497101E-016,0.,23.));
#352=MECHANICAL_DESIGN_GEOMETRIC_PRESENTATION_REPRESENTATION('',(#32),#353);
#353=(
GEOMETRIC_REPRESENTATION_CONTEXT(3)
GLOBAL_UNCERTAINTY_ASSIGNED_CONTEXT((#354))
GLOBAL_UNIT_ASSIGNED_CONTEXT((#360,#356,#355))
REPRESENTATION_CONTEXT('W9990125_stp','TOP_LEVEL_ASSEMBLY_PART')
);
#354=UNCERTAINTY_MEASURE_WITH_UNIT(LENGTH_MEASURE(2.E-005),#360,
'DISTANCE_ACCURACY_VALUE','Maximum Tolerance applied to model');
#355=(
NAMED_UNIT(*)
SI_UNIT($,.STERADIAN.)
SOLID_ANGLE_UNIT()
);
#356=(
CONVERSION_BASED_UNIT('DEGREE',#358)
NAMED_UNIT(#357)
PLANE_ANGLE_UNIT()
);
#357=DIMENSIONAL_EXPONENTS(0.,0.,0.,0.,0.,0.,0.);
#358=PLANE_ANGLE_MEASURE_WITH_UNIT(PLANE_ANGLE_MEASURE(0.0174532925),#359);
#359=(
NAMED_UNIT(*)
PLANE_ANGLE_UNIT()
SI_UNIT($,.RADIAN.)
);
#360=(
LENGTH_UNIT()
NAMED_UNIT(*)
SI_UNIT(.MILLI.,.METRE.)
);
ENDSEC;
END-ISO-10303-21;
