  0
SECTION
  2
HEADER
  9
$ACADVER
  1
AC1014
  9
$ACADMAINTVER
 70
     9
  9
$DWGCODEPAGE
  3
ANSI_1252
  9
$INSBASE
 10
0.0
 20
0.0
 30
0.0
  9
$EXTMIN
 10
1.000000000000000E+20
 20
1.000000000000000E+20
 30
1.000000000000000E+20
  9
$EXTMAX
 10
-1.000000000000000E+20
 20
-1.000000000000000E+20
 30
-1.000000000000000E+20
  9
$LIMMIN
 10
0.0
 20
0.0
  9
$LIMMAX
 10
12.0
 20
9.0
  9
$ORTHOMODE
 70
     0
  9
$REGENMODE
 70
     1
  9
$FILLMODE
 70
     1
  9
$QTEXTMODE
 70
     0
  9
$MIRRTEXT
 70
     1
  9
$DRAGMODE
 70
     2
  9
$LTSCALE
 40
1.0
  9
$OSMODE
 70
    37
  9
$ATTMODE
 70
     1
  9
$TEXTSIZE
 40
0.2
  9
$TRACEWID
 40
0.05
  9
$TEXTSTYLE
  7
STANDARD
  9
$CLAYER
  8
0
  9
$CELTYPE
  6
BYLAYER
  9
$CECOLOR
 62
   256
  9
$CELTSCALE
 40
1.0
  9
$DELOBJ
 70
     1
  9
$DISPSILH
 70
     0
  9
$DIMSCALE
 40
1.0
  9
$DIMASZ
 40
0.18
  9
$DIMEXO
 40
0.0625
  9
$DIMDLI
 40
0.38
  9
$DIMRND
 40
0.0
  9
$DIMDLE
 40
0.0
  9
$DIMEXE
 40
0.18
  9
$DIMTP
 40
0.0
  9
$DIMTM
 40
0.0
  9
$DIMTXT
 40
0.18
  9
$DIMCEN
 40
0.09
  9
$DIMTSZ
 40
0.0
  9
$DIMTOL
 70
     0
  9
$DIMLIM
 70
     0
  9
$DIMTIH
 70
     1
  9
$DIMTOH
 70
     1
  9
$DIMSE1
 70
     0
  9
$DIMSE2
 70
     0
  9
$DIMTAD
 70
     0
  9
$DIMZIN
 70
     0
  9
$DIMBLK
  1

  9
$DIMASO
 70
     1
  9
$DIMSHO
 70
     1
  9
$DIMPOST
  1

  9
$DIMAPOST
  1

  9
$DIMALT
 70
     0
  9
$DIMALTD
 70
     2
  9
$DIMALTF
 40
25.4
  9
$DIMLFAC
 40
1.0
  9
$DIMTOFL
 70
     0
  9
$DIMTVP
 40
0.0
  9
$DIMTIX
 70
     0
  9
$DIMSOXD
 70
     0
  9
$DIMSAH
 70
     0
  9
$DIMBLK1
  1

  9
$DIMBLK2
  1

  9
$DIMSTYLE
  2
STANDARD
  9
$DIMCLRD
 70
     0
  9
$DIMCLRE
 70
     0
  9
$DIMCLRT
 70
     0
  9
$DIMTFAC
 40
1.0
  9
$DIMGAP
 40
0.09
  9
$DIMJUST
 70
     0
  9
$DIMSD1
 70
     0
  9
$DIMSD2
 70
     0
  9
$DIMTOLJ
 70
     1
  9
$DIMTZIN
 70
     0
  9
$DIMALTZ
 70
     0
  9
$DIMALTTZ
 70
     0
  9
$DIMFIT
 70
     3
  9
$DIMUPT
 70
     0
  9
$DIMUNIT
 70
     2
  9
$DIMDEC
 70
     4
  9
$DIMTDEC
 70
     4
  9
$DIMALTU
 70
     2
  9
$DIMALTTD
 70
     2
  9
$DIMTXSTY
  7
STANDARD
  9
$DIMAUNIT
 70
     0
  9
$LUNITS
 70
     2
  9
$LUPREC
 70
     4
  9
$SKETCHINC
 40
0.1
  9
$FILLETRAD
 40
0.5
  9
$AUNITS
 70
     0
  9
$AUPREC
 70
     0
  9
$MENU
  1
.
  9
$ELEVATION
 40
0.0
  9
$PELEVATION
 40
0.0
  9
$THICKNESS
 40
0.0
  9
$LIMCHECK
 70
     0
  9
$CHAMFERA
 40
0.5
  9
$CHAMFERB
 40
0.5
  9
$CHAMFERC
 40
1.0
  9
$CHAMFERD
 40
0.0
  9
$SKPOLY
 70
     0
  9
$TDCREATE
 40
2456393.434426215
  9
$TDUPDATE
 40
2456393.434426227
  9
$TDINDWG
 40
0.0000000116
  9
$TDUSRTIMER
 40
0.0000000116
  9
$USRTIMER
 70
     1
  9
$ANGBASE
 50
0.0
  9
$ANGDIR
 70
     0
  9
$PDMODE
 70
     0
  9
$PDSIZE
 40
0.0
  9
$PLINEWID
 40
0.0
  9
$COORDS
 70
     1
  9
$SPLFRAME
 70
     0
  9
$SPLINETYPE
 70
     6
  9
$SPLINESEGS
 70
     8
  9
$ATTDIA
 70
     0
  9
$ATTREQ
 70
     1
  9
$HANDLING
 70
     1
  9
$HANDSEED
  5
6A3
  9
$SURFTAB1
 70
     6
  9
$SURFTAB2
 70
     6
  9
$SURFTYPE
 70
     6
  9
$SURFU
 70
     6
  9
$SURFV
 70
     6
  9
$UCSNAME
  2

  9
$UCSORG
 10
0.0
 20
0.0
 30
0.0
  9
$UCSXDIR
 10
1.0
 20
0.0
 30
0.0
  9
$UCSYDIR
 10
0.0
 20
1.0
 30
0.0
  9
$PUCSNAME
  2

  9
$PUCSORG
 10
0.0
 20
0.0
 30
0.0
  9
$PUCSXDIR
 10
1.0
 20
0.0
 30
0.0
  9
$PUCSYDIR
 10
0.0
 20
1.0
 30
0.0
  9
$USERI1
 70
     0
  9
$USERI2
 70
     0
  9
$USERI3
 70
     0
  9
$USERI4
 70
     0
  9
$USERI5
 70
     0
  9
$USERR1
 40
0.0
  9
$USERR2
 40
0.0
  9
$USERR3
 40
0.0
  9
$USERR4
 40
0.0
  9
$USERR5
 40
0.0
  9
$WORLDVIEW
 70
     1
  9
$SHADEDGE
 70
     3
  9
$SHADEDIF
 70
    70
  9
$TILEMODE
 70
     1
  9
$MAXACTVP
 70
    64
  9
$PINSBASE
 10
0.0
 20
0.0
 30
0.0
  9
$PLIMCHECK
 70
     0
  9
$PEXTMIN
 10
1.000000000000000E+20
 20
1.000000000000000E+20
 30
1.000000000000000E+20
  9
$PEXTMAX
 10
-1.000000000000000E+20
 20
-1.000000000000000E+20
 30
-1.000000000000000E+20
  9
$PLIMMIN
 10
0.0
 20
0.0
  9
$PLIMMAX
 10
12.0
 20
9.0
  9
$UNITMODE
 70
     0
  9
$VISRETAIN
 70
     1
  9
$PLINEGEN
 70
     0
  9
$PSLTSCALE
 70
     1
  9
$TREEDEPTH
 70
  3020
  9
$PICKSTYLE
 70
     1
  9
$CMLSTYLE
  2
STANDARD
  9
$CMLJUST
 70
     0
  9
$CMLSCALE
 40
1.0
  9
$PROXYGRAPHICS
 70
     1
  9
$MEASUREMENT
 70
     0
  0
ENDSEC
  0
SECTION
  2
CLASSES
  0
CLASS
  1
ACDBDICTIONARYWDFLT
  2
AcDbDictionaryWithDefault
  3
ObjectDBX Classes
 90
        0
280
     0
281
     0
  0
CLASS
  1
VISUALSTYLE
  2
AcDbVisualStyle
  3
ObjectDBX Classes
 90
     4095
280
     0
281
     0
  0
CLASS
  1
XRECORD
  2
AcDbXrecord
  3
AutoCAD 2000
 90
        0
280
     0
281
     0
  0
CLASS
  1
LWPOLYLINE
  2
AcDbPolyline
  3
AutoCAD 2000
 90
        0
280
     0
281
     1
  0
CLASS
  1
HATCH
  2
AcDbHatch
  3
AutoCAD 2000
 90
        0
280
     0
281
     1
  0
CLASS
  1
ACDBPLACEHOLDER
  2
AcDbPlaceHolder
  3
ObjectDBX Classes
 90
        0
280
     0
281
     0
  0
CLASS
  1
LAYOUT
  2
AcDbLayout
  3
ObjectDBX Classes
 90
        0
280
     0
281
     0
  0
ENDSEC
  0
SECTION
  2
TABLES
  0
TABLE
  2
VPORT
  5
8
330
0
100
AcDbSymbolTable
 70
     1
  0
VPORT
  5
29
330
8
100
AcDbSymbolTableRecord
100
AcDbViewportTableRecord
  2
*ACTIVE
 70
     0
 10
0.0
 20
0.0
 11
1.0
 21
1.0
 12
0.0
 22
0.0
 13
0.0
 23
0.0
 14
0.5
 24
0.5
 15
0.5
 25
0.5
 16
0.0
 26
0.0
 36
1.0
 17
100.0619370952102
 27
127.0193786303545
 37
0.0
 40
297.0001314904201
 41
0.7070759562020681
 42
50.0
 43
0.0
 44
0.0
 50
0.0
 51
0.0
 71
     0
 72
   100
 73
     1
 74
     3
 75
     0
 76
     0
 77
     0
 78
     0
  0
ENDTAB
  0
TABLE
  2
LTYPE
  5
5
330
0
100
AcDbSymbolTable
 70
     5
  0
LTYPE
  5
14
330
5
100
AcDbSymbolTableRecord
100
AcDbLinetypeTableRecord
  2
BYBLOCK
 70
     0
  3

 72
    65
 73
     0
 40
0.0
  0
LTYPE
  5
15
330
5
100
AcDbSymbolTableRecord
100
AcDbLinetypeTableRecord
  2
BYLAYER
 70
     0
  3

 72
    65
 73
     0
 40
0.0
  0
LTYPE
  5
16
330
5
100
AcDbSymbolTableRecord
100
AcDbLinetypeTableRecord
  2
CONTINUOUS
 70
     0
  3
Solid line
 72
    65
 73
     0
 40
0.0
  0
LTYPE
  5
40
330
5
100
AcDbSymbolTableRecord
100
AcDbLinetypeTableRecord
  2
AI-LINETYPE-1
 70
     0
  3
Adobe Illustrator Linetype No. 1
 72
    65
 73
     4
 40
8.819444442239584
 49
7.055555553791667
 74
     0
 49
-0.7055555553791667
 74
     0
 49
0.3527777776895833
 74
     0
 49
-0.7055555553791667
 74
     0
  0
LTYPE
  5
45
330
5
100
AcDbSymbolTableRecord
100
AcDbLinetypeTableRecord
  2
AI-LINETYPE-2
 70
     0
  3
Adobe Illustrator Linetype No. 2
 72
    65
 73
     4
 40
8.819444442239584
 49
7.055555553791667
 74
     0
 49
-0.7055555553791667
 74
     0
 49
0.3527777776895833
 74
     0
 49
-0.7055555553791667
 74
     0
  0
LTYPE
  5
4A
330
5
100
AcDbSymbolTableRecord
100
AcDbLinetypeTableRecord
  2
AI-LINETYPE-3
 70
     0
  3
Adobe Illustrator Linetype No. 3
 72
    65
 73
     4
 40
8.819444442239584
 49
7.055555553791667
 74
     0
 49
-0.7055555553791667
 74
     0
 49
0.3527777776895833
 74
     0
 49
-0.7055555553791667
 74
     0
  0
LTYPE
  5
4F
330
5
100
AcDbSymbolTableRecord
100
AcDbLinetypeTableRecord
  2
AI-LINETYPE-4
 70
     0
  3
Adobe Illustrator Linetype No. 4
 72
    65
 73
     4
 40
8.819444442239584
 49
7.055555553791667
 74
     0
 49
-0.7055555553791667
 74
     0
 49
0.3527777776895833
 74
     0
 49
-0.7055555553791667
 74
     0
  0
ENDTAB
  0
TABLE
  2
LAYER
  5
2
330
0
100
AcDbSymbolTable
 70
     5
  0
LAYER
  5
10
330
2
100
AcDbSymbolTableRecord
100
AcDbLayerTableRecord
  2
0
 70
     0
 62
     7
  6
CONTINUOUS
  0
LAYER
  5
3B
330
2
100
AcDbSymbolTableRecord
100
AcDbLayerTableRecord
  2
GRAU_10_
 70
     0
 62
     7
  6
CONTINUOUS
  0
LAYER
  5
29A
330
2
100
AcDbSymbolTableRecord
100
AcDbLayerTableRecord
  2
STANDARDEBENE
 70
     0
 62
     7
  6
CONTINUOUS
  0
LAYER
  5
29B
330
2
100
AcDbSymbolTableRecord
100
AcDbLayerTableRecord
  2
BEMAßUNG
 70
     1
 62
     7
  6
CONTINUOUS
  0
LAYER
  5
67C
330
2
100
AcDbSymbolTableRecord
100
AcDbLayerTableRecord
  2
TEXT
 70
     1
 62
     7
  6
CONTINUOUS
  0
ENDTAB
  0
TABLE
  2
STYLE
  5
3
330
0
100
AcDbSymbolTable
 70
     1
  0
STYLE
  5
11
330
3
100
AcDbSymbolTableRecord
100
AcDbTextStyleTableRecord
  2
STANDARD
 70
     0
 40
0.0
 41
1.0
 50
0.0
 71
     0
 42
0.2
  3
txt
  4

  0
ENDTAB
  0
TABLE
  2
VIEW
  5
6
330
0
100
AcDbSymbolTable
 70
     0
  0
ENDTAB
  0
TABLE
  2
UCS
  5
7
330
0
100
AcDbSymbolTable
 70
     0
  0
ENDTAB
  0
TABLE
  2
APPID
  5
9
330
0
100
AcDbSymbolTable
 70
     1
  0
APPID
  5
12
330
9
100
AcDbSymbolTableRecord
100
AcDbRegAppTableRecord
  2
ACAD
 70
     0
  0
ENDTAB
  0
TABLE
  2
DIMSTYLE
  5
A
330
0
100
AcDbSymbolTable
 70
     1
  0
DIMSTYLE
105
27
330
A
100
AcDbSymbolTableRecord
100
AcDbDimStyleTableRecord
  2
STANDARD
 70
     0
  3

  4

  5

  6

  7

 40
1.0
 41
0.18
 42
0.0625
 43
0.38
 44
0.18
 45
0.0
 46
0.0
 47
0.0
 48
0.0
140
0.18
141
0.09
142
0.0
143
25.4
144
1.0
145
0.0
146
1.0
147
0.09
 71
     0
 72
     0
 73
     1
 74
     1
 75
     0
 76
     0
 77
     0
 78
     0
170
     0
171
     2
172
     0
173
     0
174
     0
175
     0
176
     0
177
     0
178
     0
270
     2
271
     4
272
     4
273
     2
274
     2
340
11
275
     0
280
     0
281
     0
282
     0
283
     1
284
     0
285
     0
286
     0
287
     3
288
     0
  0
ENDTAB
  0
TABLE
  2
BLOCK_RECORD
  5
1
330
0
100
AcDbSymbolTable
 70
     1
  0
BLOCK_RECORD
  5
1F
330
1
100
AcDbSymbolTableRecord
100
AcDbBlockTableRecord
  2
*MODEL_SPACE
  0
BLOCK_RECORD
  5
1B
330
1
100
AcDbSymbolTableRecord
100
AcDbBlockTableRecord
  2
*PAPER_SPACE
  0
ENDTAB
  0
ENDSEC
  0
SECTION
  2
BLOCKS
  0
BLOCK
  5
20
330
1F
100
AcDbEntity
  8
0
100
AcDbBlockBegin
  2
*MODEL_SPACE
 70
     0
 71
     0
 10
0.0
 20
0.0
 30
0.0
  3
*MODEL_SPACE
  1

  0
ENDBLK
  5
21
330
1F
100
AcDbEntity
  8
0
100
AcDbBlockEnd
  0
BLOCK
  5
1C
330
1B
100
AcDbEntity
 67
     1
  8
0
100
AcDbBlockBegin
  2
*PAPER_SPACE
 70
     0
 71
     0
 10
0.0
 20
0.0
 30
0.0
  3
*PAPER_SPACE
  1

  0
ENDBLK
  5
1D
330
1B
100
AcDbEntity
 67
     1
  8
0
100
AcDbBlockEnd
  0
ENDSEC
  0
SECTION
  2
ENTITIES
  0
POLYLINE
  5
3C
330
1F
100
AcDbEntity
  8
GRAU_10_
  6
AI-LINETYPE-1
 62
   250
100
AcDb2dPolyline
 66
     1
 10
0.0
 20
0.0
 30
0.0
  0
VERTEX
  5
3D
330
3C
100
AcDbEntity
  8
GRAU_10_
  6
AI-LINETYPE-1
 62
   250
100
AcDbVertex
100
AcDb2dVertex
 10
197.5924180278589
 20
221.0181199262993
 30
0.0
  0
VERTEX
  5
3E
330
3C
100
AcDbEntity
  8
GRAU_10_
  6
AI-LINETYPE-1
 62
   250
100
AcDbVertex
100
AcDb2dVertex
 10
-10.19197048356312
 20
221.0181199262993
 30
0.0
  0
SEQEND
  5
3F
330
3C
100
AcDbEntity
  8
GRAU_10_
  6
AI-LINETYPE-1
  0
POLYLINE
  5
41
330
1F
100
AcDbEntity
  8
GRAU_10_
  6
AI-LINETYPE-2
 62
   250
100
AcDb2dPolyline
 66
     1
 10
0.0
 20
0.0
 30
0.0
  0
VERTEX
  5
42
330
41
100
AcDbEntity
  8
GRAU_10_
  6
AI-LINETYPE-2
 62
   250
100
AcDbVertex
100
AcDb2dVertex
 10
197.8480441128644
 20
136.2931450397114
 30
0.0
  0
VERTEX
  5
43
330
41
100
AcDbEntity
  8
GRAU_10_
  6
AI-LINETYPE-2
 62
   250
100
AcDbVertex
100
AcDb2dVertex
 10
-9.229583059758577
 20
136.2931450397114
 30
0.0
  0
SEQEND
  5
44
330
41
100
AcDbEntity
  8
GRAU_10_
  6
AI-LINETYPE-2
  0
POLYLINE
  5
46
330
1F
100
AcDbEntity
  8
GRAU_10_
  6
AI-LINETYPE-3
 62
   250
100
AcDb2dPolyline
 66
     1
 10
0.0
 20
0.0
 30
0.0
  0
VERTEX
  5
47
330
46
100
AcDbEntity
  8
GRAU_10_
  6
AI-LINETYPE-3
 62
   250
100
AcDbVertex
100
AcDb2dVertex
 10
263.18720832179
 20
196.5125528480073
 30
0.0
  0
VERTEX
  5
48
330
46
100
AcDbEntity
  8
GRAU_10_
  6
AI-LINETYPE-3
 62
   250
100
AcDbVertex
100
AcDb2dVertex
 10
263.18720832179
 20
245.0101093951277
 30
0.0
  0
SEQEND
  5
49
330
46
100
AcDbEntity
  8
GRAU_10_
  6
AI-LINETYPE-3
  0
POLYLINE
  5
4B
330
1F
100
AcDbEntity
  8
GRAU_10_
  6
AI-LINETYPE-4
 62
   250
100
AcDb2dPolyline
 66
     1
 10
0.0
 20
0.0
 30
0.0
  0
VERTEX
  5
4C
330
4B
100
AcDbEntity
  8
GRAU_10_
  6
AI-LINETYPE-4
 62
   250
100
AcDbVertex
100
AcDb2dVertex
 10
239.1569782930754
 20
221.0181199262993
 30
0.0
  0
VERTEX
  5
4D
330
4B
100
AcDbEntity
  8
GRAU_10_
  6
AI-LINETYPE-4
 62
   250
100
AcDbVertex
100
AcDb2dVertex
 10
287.8012097804803
 20
221.0181199262993
 30
0.0
  0
SEQEND
  5
4E
330
4B
100
AcDbEntity
  8
GRAU_10_
  6
AI-LINETYPE-4
  0
POLYLINE
  5
50
330
1F
100
AcDbEntity
  8
GRAU_10_
 62
     7
100
AcDb2dPolyline
 66
     1
 10
0.0
 20
0.0
 30
0.0
  0
VERTEX
  5
51
330
50
100
AcDbEntity
  8
GRAU_10_
 62
     7
100
AcDbVertex
100
AcDb2dVertex
 10
151.7705810167449
 20
198.5175984204227
 30
0.0
  0
VERTEX
  5
52
330
50
100
AcDbEntity
  8
GRAU_10_
 62
     7
100
AcDbVertex
100
AcDb2dVertex
 10
161.7704874270053
 20
198.5175984204227
 30
0.0
  0
SEQEND
  5
53
330
50
100
AcDbEntity
  8
GRAU_10_
  0
POLYLINE
  5
54
330
1F
100
AcDbEntity
  8
GRAU_10_
 62
     7
100
AcDb2dPolyline
 66
     1
 10
0.0
 20
0.0
 30
0.0
  0
VERTEX
  5
55
330
54
100
AcDbEntity
  8
GRAU_10_
 62
     7
100
AcDbVertex
100
AcDb2dVertex
 10
161.7704874270053
 20
243.5179524130789
 30
0.0
  0
VERTEX
  5
56
330
54
100
AcDbEntity
  8
GRAU_10_
 62
     7
100
AcDbVertex
100
AcDb2dVertex
 10
151.7705810167449
 20
243.5179524130789
 30
0.0
  0
SEQEND
  5
57
330
54
100
AcDbEntity
  8
GRAU_10_
  0
POLYLINE
  5
58
330
1F
100
AcDbEntity
  8
GRAU_10_
 62
     7
100
AcDb2dPolyline
 66
     1
 10
0.0
 20
0.0
 30
0.0
  0
VERTEX
  5
59
330
58
100
AcDbEntity
  8
GRAU_10_
 62
     7
100
AcDbVertex
100
AcDb2dVertex
 10
161.7704874270053
 20
205.0179768367663
 30
0.0
  0
VERTEX
  5
5A
330
58
100
AcDbEntity
  8
GRAU_10_
 62
     7
100
AcDbVertex
100
AcDb2dVertex
 10
176.7706054245573
 20
205.0179768367663
 30
0.0
  0
SEQEND
  5
5B
330
58
100
AcDbEntity
  8
GRAU_10_
  0
POLYLINE
  5
5C
330
1F
100
AcDbEntity
  8
GRAU_10_
 62
     7
100
AcDb2dPolyline
 66
     1
 10
0.0
 20
0.0
 30
0.0
  0
VERTEX
  5
5D
330
5C
100
AcDbEntity
  8
GRAU_10_
 62
     7
100
AcDbVertex
100
AcDb2dVertex
 10
176.7706054245573
 20
237.0176601241223
 30
0.0
  0
VERTEX
  5
5E
330
5C
100
AcDbEntity
  8
GRAU_10_
 62
     7
100
AcDbVertex
100
AcDb2dVertex
 10
161.7704874270053
 20
237.0176601241223
 30
0.0
  0
SEQEND
  5
5F
330
5C
100
AcDbEntity
  8
GRAU_10_
  0
POLYLINE
  5
60
330
1F
100
AcDbEntity
  8
GRAU_10_
 62
     7
100
AcDb2dPolyline
 66
     1
 10
0.0
 20
0.0
 30
0.0
  0
VERTEX
  5
61
330
60
100
AcDbEntity
  8
GRAU_10_
 62
     7
100
AcDbVertex
100
AcDb2dVertex
 10
-7.229532875796783
 20
233.5180460028184
 30
0.0
  0
VERTEX
  5
62
330
60
100
AcDbEntity
  8
GRAU_10_
 62
     7
100
AcDbVertex
100
AcDb2dVertex
 10
-8.228955076067761
 20
232.5175902739019
 30
0.0
  0
SEQEND
  5
63
330
60
100
AcDbEntity
  8
GRAU_10_
  0
POLYLINE
  5
64
330
1F
100
AcDbEntity
  8
GRAU_10_
 62
     7
100
AcDb2dPolyline
 66
     1
 10
0.0
 20
0.0
 30
0.0
  0
VERTEX
  5
65
330
64
100
AcDbEntity
  8
GRAU_10_
 62
     7
100
AcDbVertex
100
AcDb2dVertex
 10
-8.228955076067761
 20
209.517529922664
 30
0.0
  0
VERTEX
  5
66
330
64
100
AcDbEntity
  8
GRAU_10_
 62
     7
100
AcDbVertex
100
AcDb2dVertex
 10
-7.229532875796783
 20
208.518107722393
 30
0.0
  0
SEQEND
  5
67
330
64
100
AcDbEntity
  8
GRAU_10_
  0
POLYLINE
  5
68
330
1F
100
AcDbEntity
  8
GRAU_10_
 62
     7
100
AcDb2dPolyline
 66
     1
 10
0.0
 20
0.0
 30
0.0
  0
VERTEX
  5
69
330
68
100
AcDbEntity
  8
GRAU_10_
 62
     7
100
AcDbVertex
100
AcDb2dVertex
 10
176.7706054245573
 20
210.0044080421169
 30
0.0
  0
VERTEX
  5
6A
330
68
100
AcDbEntity
  8
GRAU_10_
 62
     7
100
AcDbVertex
100
AcDb2dVertex
 10
195.770823790033
 20
210.4813815120498
 30
0.0
  0
SEQEND
  5
6B
330
68
100
AcDbEntity
  8
GRAU_10_
  0
POLYLINE
  5
6C
330
1F
100
AcDbEntity
  8
GRAU_10_
 62
     7
100
AcDb2dPolyline
 66
     1
 10
0.0
 20
0.0
 30
0.0
  0
VERTEX
  5
6D
330
6C
100
AcDbEntity
  8
GRAU_10_
 62
     7
100
AcDbVertex
100
AcDb2dVertex
 10
195.770823790033
 20
231.5545138310003
 30
0.0
  0
VERTEX
  5
6E
330
6C
100
AcDbEntity
  8
GRAU_10_
 62
     7
100
AcDbVertex
100
AcDb2dVertex
 10
176.7706054245573
 20
232.0314873009331
 30
0.0
  0
SEQEND
  5
6F
330
6C
100
AcDbEntity
  8
GRAU_10_
  0
POLYLINE
  5
70
330
1F
100
AcDbEntity
  8
GRAU_10_
 62
     7
100
AcDb2dPolyline
 66
     1
 10
0.0
 20
0.0
 30
0.0
  0
VERTEX
  5
71
330
70
100
AcDbEntity
  8
GRAU_10_
 62
     7
100
AcDbVertex
100
AcDb2dVertex
 10
-7.229532875796783
 20
208.518107722393
 30
0.0
  0
VERTEX
  5
72
330
70
100
AcDbEntity
  8
GRAU_10_
 62
     7
100
AcDbVertex
100
AcDb2dVertex
 10
151.7705810167449
 20
208.518107722393
 30
0.0
  0
SEQEND
  5
73
330
70
100
AcDbEntity
  8
GRAU_10_
  0
POLYLINE
  5
74
330
1F
100
AcDbEntity
  8
GRAU_10_
 62
     7
100
AcDb2dPolyline
 66
     1
 10
0.0
 20
0.0
 30
0.0
  0
VERTEX
  5
75
330
74
100
AcDbEntity
  8
GRAU_10_
 62
     7
100
AcDbVertex
100
AcDb2dVertex
 10
151.7705810167449
 20
233.5180460028184
 30
0.0
  0
VERTEX
  5
76
330
74
100
AcDbEntity
  8
GRAU_10_
 62
     7
100
AcDbVertex
100
AcDb2dVertex
 10
-7.229532875796783
 20
233.5180460028184
 30
0.0
  0
SEQEND
  5
77
330
74
100
AcDbEntity
  8
GRAU_10_
  0
POLYLINE
  5
78
330
1F
100
AcDbEntity
  8
GRAU_10_
 62
     7
100
AcDb2dPolyline
 66
     1
 10
0.0
 20
0.0
 30
0.0
  0
VERTEX
  5
79
330
78
100
AcDbEntity
  8
GRAU_10_
 62
     7
100
AcDbVertex
100
AcDb2dVertex
 10
195.770823790033
 20
210.4813815120498
 30
0.0
  0
VERTEX
  5
7A
330
78
100
AcDbEntity
  8
GRAU_10_
 62
     7
100
AcDbVertex
100
AcDb2dVertex
 10
195.770823790033
 20
210.591107803255
 30
0.0
  0
VERTEX
  5
7B
330
78
100
AcDbEntity
  8
GRAU_10_
 62
     7
100
AcDbVertex
100
AcDb2dVertex
 10
195.770823790033
 20
210.9183918743537
 30
0.0
  0
VERTEX
  5
7C
330
78
100
AcDbEntity
  8
GRAU_10_
 62
     7
100
AcDbVertex
100
AcDb2dVertex
 10
195.770823790033
 20
211.4582383368924
 30
0.0
  0
VERTEX
  5
7D
330
78
100
AcDbEntity
  8
GRAU_10_
 62
     7
100
AcDbVertex
100
AcDb2dVertex
 10
195.770823790033
 20
212.2025512164806
 30
0.0
  0
VERTEX
  5
7E
330
78
100
AcDbEntity
  8
GRAU_10_
 62
     7
100
AcDbVertex
100
AcDb2dVertex
 10
195.770823790033
 20
213.140564589727
 30
0.0
  0
VERTEX
  5
7F
330
78
100
AcDbEntity
  8
GRAU_10_
 62
     7
100
AcDbVertex
100
AcDb2dVertex
 10
195.770823790033
 20
214.2578090555936
 30
0.0
  0
VERTEX
  5
80
330
78
100
AcDbEntity
  8
GRAU_10_
 62
     7
100
AcDbVertex
100
AcDb2dVertex
 10
195.770823790033
 20
215.5374036462025
 30
0.0
  0
VERTEX
  5
81
330
78
100
AcDbEntity
  8
GRAU_10_
 62
     7
100
AcDbVertex
100
AcDb2dVertex
 10
195.770823790033
 20
216.9600558268364
 30
0.0
  0
VERTEX
  5
82
330
78
100
AcDbEntity
  8
GRAU_10_
 62
     7
100
AcDbVertex
100
AcDb2dVertex
 10
195.770823790033
 20
218.5049227698096
 30
0.0
  0
VERTEX
  5
83
330
78
100
AcDbEntity
  8
GRAU_10_
 62
     7
100
AcDbVertex
100
AcDb2dVertex
 10
195.770823790033
 20
219.7262091193306
 30
0.0
  0
VERTEX
  5
84
330
78
100
AcDbEntity
  8
GRAU_10_
 62
     7
100
AcDbVertex
100
AcDb2dVertex
 10
195.770823790033
 20
221.0181199262993
 30
0.0
  0
VERTEX
  5
85
330
78
100
AcDbEntity
  8
GRAU_10_
 62
     7
100
AcDbVertex
100
AcDb2dVertex
 10
195.770823790033
 20
222.3092555867838
 30
0.0
  0
VERTEX
  5
86
330
78
100
AcDbEntity
  8
GRAU_10_
 62
     7
100
AcDbVertex
100
AcDb2dVertex
 10
195.770823790033
 20
223.5305419363049
 30
0.0
  0
VERTEX
  5
87
330
78
100
AcDbEntity
  8
GRAU_10_
 62
     7
100
AcDbVertex
100
AcDb2dVertex
 10
195.770823790033
 20
225.075408879278
 30
0.0
  0
VERTEX
  5
88
330
78
100
AcDbEntity
  8
GRAU_10_
 62
     7
100
AcDbVertex
100
AcDb2dVertex
 10
195.770823790033
 20
226.4984916968476
 30
0.0
  0
VERTEX
  5
89
330
78
100
AcDbEntity
  8
GRAU_10_
 62
     7
100
AcDbVertex
100
AcDb2dVertex
 10
195.770823790033
 20
227.7776556505209
 30
0.0
  0
VERTEX
  5
8A
330
78
100
AcDbEntity
  8
GRAU_10_
 62
     7
100
AcDbVertex
100
AcDb2dVertex
 10
195.770823790033
 20
228.8949001163874
 30
0.0
  0
VERTEX
  5
8B
330
78
100
AcDbEntity
  8
GRAU_10_
 62
     7
100
AcDbVertex
100
AcDb2dVertex
 10
195.770823790033
 20
229.8329996170209
 30
0.0
  0
VERTEX
  5
8C
330
78
100
AcDbEntity
  8
GRAU_10_
 62
     7
100
AcDbVertex
100
AcDb2dVertex
 10
195.770823790033
 20
230.5773124966092
 30
0.0
  0
VERTEX
  5
8D
330
78
100
AcDbEntity
  8
GRAU_10_
 62
     7
100
AcDbVertex
100
AcDb2dVertex
 10
195.770823790033
 20
231.1170728317607
 30
0.0
  0
VERTEX
  5
8E
330
78
100
AcDbEntity
  8
GRAU_10_
 62
     7
100
AcDbVertex
100
AcDb2dVertex
 10
195.770823790033
 20
231.4444430302465
 30
0.0
  0
VERTEX
  5
8F
330
78
100
AcDbEntity
  8
GRAU_10_
 62
     7
100
AcDbVertex
100
AcDb2dVertex
 10
195.770823790033
 20
231.5545138310003
 30
0.0
  0
SEQEND
  5
90
330
78
100
AcDbEntity
  8
GRAU_10_
  0
POLYLINE
  5
91
330
1F
100
AcDbEntity
  8
GRAU_10_
 62
     7
100
AcDb2dPolyline
 66
     1
 10
0.0
 20
0.0
 30
0.0
  0
VERTEX
  5
92
330
91
100
AcDbEntity
  8
GRAU_10_
 62
     7
100
AcDbVertex
100
AcDb2dVertex
 10
172.0211967885919
 20
236.0538085347366
 30
0.0
  0
VERTEX
  5
93
330
91
100
AcDbEntity
  8
GRAU_10_
 62
     7
100
AcDbVertex
100
AcDb2dVertex
 10
172.421516883978
 20
235.3687512974946
 30
0.0
  0
VERTEX
  5
94
330
91
100
AcDbEntity
  8
GRAU_10_
 62
     7
100
AcDbVertex
100
AcDb2dVertex
 10
172.7112494142875
 20
234.5125589420229
 30
0.0
  0
VERTEX
  5
95
330
91
100
AcDbEntity
  8
GRAU_10_
 62
     7
100
AcDbVertex
100
AcDb2dVertex
 10
172.8866047744867
 20
233.4961696464871
 30
0.0
  0
VERTEX
  5
96
330
91
100
AcDbEntity
  8
GRAU_10_
 62
     7
100
AcDbVertex
100
AcDb2dVertex
 10
172.9451713977359
 20
232.3313828629241
 30
0.0
  0
VERTEX
  5
97
330
91
100
AcDbEntity
  8
GRAU_10_
 62
     7
100
AcDbVertex
100
AcDb2dVertex
 10
172.8866047744867
 20
231.0320651006621
 30
0.0
  0
VERTEX
  5
98
330
91
100
AcDbEntity
  8
GRAU_10_
 62
     7
100
AcDbVertex
100
AcDb2dVertex
 10
172.7112494142875
 20
229.613891544159
 30
0.0
  0
VERTEX
  5
99
330
91
100
AcDbEntity
  8
GRAU_10_
 62
     7
100
AcDbVertex
100
AcDb2dVertex
 10
172.421516883978
 20
228.092709632647
 30
0.0
  0
VERTEX
  5
9A
330
91
100
AcDbEntity
  8
GRAU_10_
 62
     7
100
AcDbVertex
100
AcDb2dVertex
 10
172.0211967885919
 20
226.4883286651661
 30
0.0
  0
VERTEX
  5
9B
330
91
100
AcDbEntity
  8
GRAU_10_
 62
     7
100
AcDbVertex
100
AcDb2dVertex
 10
172.0211967885919
 20
236.0538085347366
 30
0.0
  0
SEQEND
  5
9C
330
91
100
AcDbEntity
  8
GRAU_10_
  0
POLYLINE
  5
9D
330
1F
100
AcDbEntity
  8
GRAU_10_
 62
     7
100
AcDb2dPolyline
 66
     1
 10
0.0
 20
0.0
 30
0.0
  0
VERTEX
  5
9E
330
9D
100
AcDbEntity
  8
GRAU_10_
 62
     7
100
AcDbVertex
100
AcDb2dVertex
 10
169.5210909949461
 20
226.4883286651661
 30
0.0
  0
VERTEX
  5
9F
330
9D
100
AcDbEntity
  8
GRAU_10_
 62
     7
100
AcDbVertex
100
AcDb2dVertex
 10
169.1199096256888
 20
228.092709632647
 30
0.0
  0
VERTEX
  5
A0
330
9D
100
AcDbEntity
  8
GRAU_10_
 62
     7
100
AcDbVertex
100
AcDb2dVertex
 10
168.8306938597021
 20
229.613891544159
 30
0.0
  0
VERTEX
  5
A1
330
9D
100
AcDbEntity
  8
GRAU_10_
 62
     7
100
AcDbVertex
100
AcDb2dVertex
 10
168.6553384995028
 20
231.0320651006621
 30
0.0
  0
VERTEX
  5
A2
330
9D
100
AcDbEntity
  8
GRAU_10_
 62
     7
100
AcDbVertex
100
AcDb2dVertex
 10
168.5971163858021
 20
232.3313828629241
 30
0.0
  0
VERTEX
  5
A3
330
9D
100
AcDbEntity
  8
GRAU_10_
 62
     7
100
AcDbVertex
100
AcDb2dVertex
 10
168.6553384995028
 20
233.4961696464871
 30
0.0
  0
VERTEX
  5
A4
330
9D
100
AcDbEntity
  8
GRAU_10_
 62
     7
100
AcDbVertex
100
AcDb2dVertex
 10
168.8306938597021
 20
234.5125589420229
 30
0.0
  0
VERTEX
  5
A5
330
9D
100
AcDbEntity
  8
GRAU_10_
 62
     7
100
AcDbVertex
100
AcDb2dVertex
 10
169.1199096256888
 20
235.3687512974946
 30
0.0
  0
VERTEX
  5
A6
330
9D
100
AcDbEntity
  8
GRAU_10_
 62
     7
100
AcDbVertex
100
AcDb2dVertex
 10
169.5210909949461
 20
236.0538085347366
 30
0.0
  0
SEQEND
  5
A7
330
9D
100
AcDbEntity
  8
GRAU_10_
  0
POLYLINE
  5
A8
330
1F
100
AcDbEntity
  8
GRAU_10_
 62
     7
100
AcDb2dPolyline
 66
     1
 10
0.0
 20
0.0
 30
0.0
  0
VERTEX
  5
A9
330
A8
100
AcDbEntity
  8
GRAU_10_
 62
     7
100
AcDbVertex
100
AcDb2dVertex
 10
169.5210909949461
 20
226.4883286651661
 30
0.0
  0
VERTEX
  5
AA
330
A8
100
AcDbEntity
  8
GRAU_10_
 62
     7
100
AcDbVertex
100
AcDb2dVertex
 10
169.5210909949461
 20
236.0538085347366
 30
0.0
  0
VERTEX
  5
AB
330
A8
100
AcDbEntity
  8
GRAU_10_
 62
     7
100
AcDbVertex
100
AcDb2dVertex
 10
172.0211967885919
 20
236.0538085347366
 30
0.0
  0
SEQEND
  5
AC
330
A8
100
AcDbEntity
  8
GRAU_10_
  0
POLYLINE
  5
AD
330
1F
100
AcDbEntity
  8
GRAU_10_
 62
     7
100
AcDb2dPolyline
 66
     1
 10
0.0
 20
0.0
 30
0.0
  0
VERTEX
  5
AE
330
AD
100
AcDbEntity
  8
GRAU_10_
 62
     7
100
AcDbVertex
100
AcDb2dVertex
 10
172.0211967885919
 20
226.4883286651661
 30
0.0
  0
VERTEX
  5
AF
330
AD
100
AcDbEntity
  8
GRAU_10_
 62
     7
100
AcDbVertex
100
AcDb2dVertex
 10
169.5210909949461
 20
226.4883286651661
 30
0.0
  0
SEQEND
  5
B0
330
AD
100
AcDbEntity
  8
GRAU_10_
  0
POLYLINE
  5
B1
330
1F
100
AcDbEntity
  8
GRAU_10_
 62
     7
100
AcDb2dPolyline
 66
     1
 10
0.0
 20
0.0
 30
0.0
  0
VERTEX
  5
B2
330
B1
100
AcDbEntity
  8
GRAU_10_
 62
     7
100
AcDbVertex
100
AcDb2dVertex
 10
172.0211967885919
 20
215.547566677884
 30
0.0
  0
VERTEX
  5
B3
330
B1
100
AcDbEntity
  8
GRAU_10_
 62
     7
100
AcDbVertex
100
AcDb2dVertex
 10
172.421516883978
 20
213.942496691306
 30
0.0
  0
VERTEX
  5
B4
330
B1
100
AcDbEntity
  8
GRAU_10_
 62
     7
100
AcDbVertex
100
AcDb2dVertex
 10
172.7112494142875
 20
212.4223483084396
 30
0.0
  0
VERTEX
  5
B5
330
B1
100
AcDbEntity
  8
GRAU_10_
 62
     7
100
AcDbVertex
100
AcDb2dVertex
 10
172.8866047744867
 20
211.0034857328394
 30
0.0
  0
VERTEX
  5
B6
330
B1
100
AcDbEntity
  8
GRAU_10_
 62
     7
100
AcDbVertex
100
AcDb2dVertex
 10
172.9451713977359
 20
209.7041679705774
 30
0.0
  0
VERTEX
  5
B7
330
B1
100
AcDbEntity
  8
GRAU_10_
 62
     7
100
AcDbVertex
100
AcDb2dVertex
 10
172.8866047744867
 20
208.5392950596273
 30
0.0
  0
VERTEX
  5
B8
330
B1
100
AcDbEntity
  8
GRAU_10_
 62
     7
100
AcDbVertex
100
AcDb2dVertex
 10
172.7112494142875
 20
207.5229057640915
 30
0.0
  0
VERTEX
  5
B9
330
B1
100
AcDbEntity
  8
GRAU_10_
 62
     7
100
AcDbVertex
100
AcDb2dVertex
 10
172.421516883978
 20
206.6671440455554
 30
0.0
  0
VERTEX
  5
BA
330
B1
100
AcDbEntity
  8
GRAU_10_
 62
     7
100
AcDbVertex
100
AcDb2dVertex
 10
172.0211967885919
 20
205.9819145535392
 30
0.0
  0
VERTEX
  5
BB
330
B1
100
AcDbEntity
  8
GRAU_10_
 62
     7
100
AcDbVertex
100
AcDb2dVertex
 10
172.0211967885919
 20
215.547566677884
 30
0.0
  0
SEQEND
  5
BC
330
B1
100
AcDbEntity
  8
GRAU_10_
  0
POLYLINE
  5
BD
330
1F
100
AcDbEntity
  8
GRAU_10_
 62
     7
100
AcDb2dPolyline
 66
     1
 10
0.0
 20
0.0
 30
0.0
  0
VERTEX
  5
BE
330
BD
100
AcDbEntity
  8
GRAU_10_
 62
     7
100
AcDbVertex
100
AcDb2dVertex
 10
169.5210909949461
 20
205.9819145535392
 30
0.0
  0
VERTEX
  5
BF
330
BD
100
AcDbEntity
  8
GRAU_10_
 62
     7
100
AcDbVertex
100
AcDb2dVertex
 10
169.1199096256888
 20
206.6671440455554
 30
0.0
  0
VERTEX
  5
C0
330
BD
100
AcDbEntity
  8
GRAU_10_
 62
     7
100
AcDbVertex
100
AcDb2dVertex
 10
168.8306938597021
 20
207.5229057640915
 30
0.0
  0
VERTEX
  5
C1
330
BD
100
AcDbEntity
  8
GRAU_10_
 62
     7
100
AcDbVertex
100
AcDb2dVertex
 10
168.6553384995028
 20
208.5392950596273
 30
0.0
  0
VERTEX
  5
C2
330
BD
100
AcDbEntity
  8
GRAU_10_
 62
     7
100
AcDbVertex
100
AcDb2dVertex
 10
168.5971163858021
 20
209.7041679705774
 30
0.0
  0
VERTEX
  5
C3
330
BD
100
AcDbEntity
  8
GRAU_10_
 62
     7
100
AcDbVertex
100
AcDb2dVertex
 10
168.6553384995028
 20
211.0034857328394
 30
0.0
  0
VERTEX
  5
C4
330
BD
100
AcDbEntity
  8
GRAU_10_
 62
     7
100
AcDbVertex
100
AcDb2dVertex
 10
168.8306938597021
 20
212.4223483084396
 30
0.0
  0
VERTEX
  5
C5
330
BD
100
AcDbEntity
  8
GRAU_10_
 62
     7
100
AcDbVertex
100
AcDb2dVertex
 10
169.1199096256888
 20
213.942496691306
 30
0.0
  0
VERTEX
  5
C6
330
BD
100
AcDbEntity
  8
GRAU_10_
 62
     7
100
AcDbVertex
100
AcDb2dVertex
 10
169.5210909949461
 20
215.547566677884
 30
0.0
  0
SEQEND
  5
C7
330
BD
100
AcDbEntity
  8
GRAU_10_
  0
POLYLINE
  5
C8
330
1F
100
AcDbEntity
  8
GRAU_10_
 62
     7
100
AcDb2dPolyline
 66
     1
 10
0.0
 20
0.0
 30
0.0
  0
VERTEX
  5
C9
330
C8
100
AcDbEntity
  8
GRAU_10_
 62
     7
100
AcDbVertex
100
AcDb2dVertex
 10
169.5210909949461
 20
205.9819145535392
 30
0.0
  0
VERTEX
  5
CA
330
C8
100
AcDbEntity
  8
GRAU_10_
 62
     7
100
AcDbVertex
100
AcDb2dVertex
 10
169.5210909949461
 20
215.547566677884
 30
0.0
  0
VERTEX
  5
CB
330
C8
100
AcDbEntity
  8
GRAU_10_
 62
     7
100
AcDbVertex
100
AcDb2dVertex
 10
172.0211967885919
 20
215.547566677884
 30
0.0
  0
SEQEND
  5
CC
330
C8
100
AcDbEntity
  8
GRAU_10_
  0
POLYLINE
  5
CD
330
1F
100
AcDbEntity
  8
GRAU_10_
 62
     7
100
AcDb2dPolyline
 66
     1
 10
0.0
 20
0.0
 30
0.0
  0
VERTEX
  5
CE
330
CD
100
AcDbEntity
  8
GRAU_10_
 62
     7
100
AcDbVertex
100
AcDb2dVertex
 10
172.0211967885919
 20
205.9819145535392
 30
0.0
  0
VERTEX
  5
CF
330
CD
100
AcDbEntity
  8
GRAU_10_
 62
     7
100
AcDbVertex
100
AcDb2dVertex
 10
169.5210909949461
 20
205.9819145535392
 30
0.0
  0
SEQEND
  5
D0
330
CD
100
AcDbEntity
  8
GRAU_10_
  0
POLYLINE
  5
D1
330
1F
100
AcDbEntity
  8
GRAU_10_
 62
     7
100
AcDb2dPolyline
 66
     1
 10
0.0
 20
0.0
 30
0.0
  0
VERTEX
  5
D2
330
D1
100
AcDbEntity
  8
GRAU_10_
 62
     7
100
AcDbVertex
100
AcDb2dVertex
 10
176.7706054245573
 20
205.0179768367663
 30
0.0
  0
VERTEX
  5
D3
330
D1
100
AcDbEntity
  8
GRAU_10_
 62
     7
100
AcDbVertex
100
AcDb2dVertex
 10
176.7706054245573
 20
205.1261528350032
 30
0.0
  0
VERTEX
  5
D4
330
D1
100
AcDbEntity
  8
GRAU_10_
 62
     7
100
AcDbVertex
100
AcDb2dVertex
 10
176.7706054245573
 20
205.4489582819711
 30
0.0
  0
VERTEX
  5
D5
330
D1
100
AcDbEntity
  8
GRAU_10_
 62
     7
100
AcDbVertex
100
AcDb2dVertex
 10
176.7706054245573
 20
205.9831203369591
 30
0.0
  0
VERTEX
  5
D6
330
D1
100
AcDbEntity
  8
GRAU_10_
 62
     7
100
AcDbVertex
100
AcDb2dVertex
 10
176.7706054245573
 20
206.7196817517055
 30
0.0
  0
VERTEX
  5
D7
330
D1
100
AcDbEntity
  8
GRAU_10_
 62
     7
100
AcDbVertex
100
AcDb2dVertex
 10
176.7706054245573
 20
207.6502881696586
 30
0.0
  0
VERTEX
  5
D8
330
D1
100
AcDbEntity
  8
GRAU_10_
 62
     7
100
AcDbVertex
100
AcDb2dVertex
 10
176.7706054245573
 20
208.7612453362646
 30
0.0
  0
VERTEX
  5
D9
330
D1
100
AcDbEntity
  8
GRAU_10_
 62
     7
100
AcDbVertex
100
AcDb2dVertex
 10
176.7706054245573
 20
210.0382561052595
 30
0.0
  0
VERTEX
  5
DA
330
D1
100
AcDbEntity
  8
GRAU_10_
 62
     7
100
AcDbVertex
100
AcDb2dVertex
 10
176.7706054245573
 20
211.4631475979589
 30
0.0
  0
VERTEX
  5
DB
330
D1
100
AcDbEntity
  8
GRAU_10_
 62
     7
100
AcDbVertex
100
AcDb2dVertex
 10
176.7706054245573
 20
213.0181775726135
 30
0.0
  0
VERTEX
  5
DC
330
D1
100
AcDbEntity
  8
GRAU_10_
 62
     7
100
AcDbVertex
100
AcDb2dVertex
 10
176.7706054245573
 20
214.6804361442466
 30
0.0
  0
VERTEX
  5
DD
330
D1
100
AcDbEntity
  8
GRAU_10_
 62
     7
100
AcDbVertex
100
AcDb2dVertex
 10
176.7706054245573
 20
216.4291666125594
 30
0.0
  0
VERTEX
  5
DE
330
D1
100
AcDbEntity
  8
GRAU_10_
 62
     7
100
AcDbVertex
100
AcDb2dVertex
 10
176.7706054245573
 20
218.2393059078968
 30
0.0
  0
VERTEX
  5
DF
330
D1
100
AcDbEntity
  8
GRAU_10_
 62
     7
100
AcDbVertex
100
AcDb2dVertex
 10
176.7706054245573
 20
220.0875135083462
 30
0.0
  0
VERTEX
  5
E0
330
D1
100
AcDbEntity
  8
GRAU_10_
 62
     7
100
AcDbVertex
100
AcDb2dVertex
 10
176.7706054245573
 20
221.9480373251554
 30
0.0
  0
VERTEX
  5
E1
330
D1
100
AcDbEntity
  8
GRAU_10_
 62
     7
100
AcDbVertex
100
AcDb2dVertex
 10
176.7706054245573
 20
223.7962449256048
 30
0.0
  0
VERTEX
  5
E2
330
D1
100
AcDbEntity
  8
GRAU_10_
 62
     7
100
AcDbVertex
100
AcDb2dVertex
 10
176.7706054245573
 20
225.6067287304907
 30
0.0
  0
VERTEX
  5
E3
330
D1
100
AcDbEntity
  8
GRAU_10_
 62
     7
100
AcDbVertex
100
AcDb2dVertex
 10
176.7706054245573
 20
227.3550285618678
 30
0.0
  0
VERTEX
  5
E4
330
D1
100
AcDbEntity
  8
GRAU_10_
 62
     7
100
AcDbVertex
100
AcDb2dVertex
 10
176.7706054245573
 20
229.0177177704365
 30
0.0
  0
VERTEX
  5
E5
330
D1
100
AcDbEntity
  8
GRAU_10_
 62
     7
100
AcDbVertex
100
AcDb2dVertex
 10
176.7706054245573
 20
230.5724032355427
 30
0.0
  0
VERTEX
  5
E6
330
D1
100
AcDbEntity
  8
GRAU_10_
 62
     7
100
AcDbVertex
100
AcDb2dVertex
 10
176.7706054245573
 20
231.9976392377905
 30
0.0
  0
VERTEX
  5
E7
330
D1
100
AcDbEntity
  8
GRAU_10_
 62
     7
100
AcDbVertex
100
AcDb2dVertex
 10
176.7706054245573
 20
233.274305497237
 30
0.0
  0
VERTEX
  5
E8
330
D1
100
AcDbEntity
  8
GRAU_10_
 62
     7
100
AcDbVertex
100
AcDb2dVertex
 10
176.7706054245573
 20
234.3855210460043
 30
0.0
  0
VERTEX
  5
E9
330
D1
100
AcDbEntity
  8
GRAU_10_
 62
     7
100
AcDbVertex
100
AcDb2dVertex
 10
176.7706054245573
 20
235.3162135913446
 30
0.0
  0
VERTEX
  5
EA
330
D1
100
AcDbEntity
  8
GRAU_10_
 62
     7
100
AcDbVertex
100
AcDb2dVertex
 10
176.7706054245573
 20
236.052775006091
 30
0.0
  0
VERTEX
  5
EB
330
D1
100
AcDbEntity
  8
GRAU_10_
 62
     7
100
AcDbVertex
100
AcDb2dVertex
 10
176.7706054245573
 20
236.5865925515305
 30
0.0
  0
VERTEX
  5
EC
330
D1
100
AcDbEntity
  8
GRAU_10_
 62
     7
100
AcDbVertex
100
AcDb2dVertex
 10
176.7706054245573
 20
236.9093118711112
 30
0.0
  0
VERTEX
  5
ED
330
D1
100
AcDbEntity
  8
GRAU_10_
 62
     7
100
AcDbVertex
100
AcDb2dVertex
 10
176.7706054245573
 20
237.0176601241223
 30
0.0
  0
SEQEND
  5
EE
330
D1
100
AcDbEntity
  8
GRAU_10_
  0
POLYLINE
  5
EF
330
1F
100
AcDbEntity
  8
GRAU_10_
 62
     7
100
AcDb2dPolyline
 66
     1
 10
0.0
 20
0.0
 30
0.0
  0
VERTEX
  5
F0
330
EF
100
AcDbEntity
  8
GRAU_10_
 62
     7
100
AcDbVertex
100
AcDb2dVertex
 10
151.7705810167449
 20
198.5175984204227
 30
0.0
  0
VERTEX
  5
F1
330
EF
100
AcDbEntity
  8
GRAU_10_
 62
     7
100
AcDbVertex
100
AcDb2dVertex
 10
151.7705810167449
 20
198.6199177563346
 30
0.0
  0
VERTEX
  5
F2
330
EF
100
AcDbEntity
  8
GRAU_10_
 62
     7
100
AcDbVertex
100
AcDb2dVertex
 10
151.7705810167449
 20
198.9242919424564
 30
0.0
  0
VERTEX
  5
F3
330
EF
100
AcDbEntity
  8
GRAU_10_
 62
     7
100
AcDbVertex
100
AcDb2dVertex
 10
151.7705810167449
 20
199.4295151953683
 30
0.0
  0
VERTEX
  5
F4
330
EF
100
AcDbEntity
  8
GRAU_10_
 62
     7
100
AcDbVertex
100
AcDb2dVertex
 10
151.7705810167449
 20
200.1297308527454
 30
0.0
  0
VERTEX
  5
F5
330
EF
100
AcDbEntity
  8
GRAU_10_
 62
     7
100
AcDbVertex
100
AcDb2dVertex
 10
151.7705810167449
 20
201.0187377427141
 30
0.0
  0
VERTEX
  5
F6
330
EF
100
AcDbEntity
  8
GRAU_10_
 62
     7
100
AcDbVertex
100
AcDb2dVertex
 10
151.7705810167449
 20
202.0894734195297
 30
0.0
  0
VERTEX
  5
F7
330
EF
100
AcDbEntity
  8
GRAU_10_
 62
     7
100
AcDbVertex
100
AcDb2dVertex
 10
151.7705810167449
 20
203.3319471062851
 30
0.0
  0
VERTEX
  5
F8
330
EF
100
AcDbEntity
  8
GRAU_10_
 62
     7
100
AcDbVertex
100
AcDb2dVertex
 10
151.7705810167449
 20
204.733584204459
 30
0.0
  0
VERTEX
  5
F9
330
EF
100
AcDbEntity
  8
GRAU_10_
 62
     7
100
AcDbVertex
100
AcDb2dVertex
 10
151.7705810167449
 20
206.2832742811115
 30
0.0
  0
VERTEX
  5
FA
330
EF
100
AcDbEntity
  8
GRAU_10_
 62
     7
100
AcDbVertex
100
AcDb2dVertex
 10
151.7705810167449
 20
207.9663756804303
 30
0.0
  0
VERTEX
  5
FB
330
EF
100
AcDbEntity
  8
GRAU_10_
 62
     7
100
AcDbVertex
100
AcDb2dVertex
 10
151.7705810167449
 20
209.7680744918288
 30
0.0
  0
VERTEX
  5
FC
330
EF
100
AcDbEntity
  8
GRAU_10_
 62
     7
100
AcDbVertex
100
AcDb2dVertex
 10
151.7705810167449
 20
211.671231365268
 30
0.0
  0
VERTEX
  5
FD
330
EF
100
AcDbEntity
  8
GRAU_10_
 62
     7
100
AcDbVertex
100
AcDb2dVertex
 10
151.7705810167449
 20
213.6591375876443
 30
0.0
  0
VERTEX
  5
FE
330
EF
100
AcDbEntity
  8
GRAU_10_
 62
     7
100
AcDbVertex
100
AcDb2dVertex
 10
151.7705810167449
 20
215.7133618981116
 30
0.0
  0
VERTEX
  5
FF
330
EF
100
AcDbEntity
  8
GRAU_10_
 62
     7
100
AcDbVertex
100
AcDb2dVertex
 10
151.7705810167449
 20
217.8159898001467
 30
0.0
  0
VERTEX
  5
100
330
EF
100
AcDbEntity
  8
GRAU_10_
 62
     7
100
AcDbVertex
100
AcDb2dVertex
 10
151.7705810167449
 20
219.9471258673223
 30
0.0
  0
VERTEX
  5
101
330
EF
100
AcDbEntity
  8
GRAU_10_
 62
     7
100
AcDbVertex
100
AcDb2dVertex
 10
151.7705810167449
 20
222.0887694757278
 30
0.0
  0
VERTEX
  5
102
330
EF
100
AcDbEntity
  8
GRAU_10_
 62
     7
100
AcDbVertex
100
AcDb2dVertex
 10
151.7705810167449
 20
224.2202500524519
 30
0.0
  0
VERTEX
  5
103
330
EF
100
AcDbEntity
  8
GRAU_10_
 62
     7
100
AcDbVertex
100
AcDb2dVertex
 10
151.7705810167449
 20
226.3221028080028
 30
0.0
  0
VERTEX
  5
104
330
EF
100
AcDbEntity
  8
GRAU_10_
 62
     7
100
AcDbVertex
100
AcDb2dVertex
 10
151.7705810167449
 20
228.3771022649543
 30
0.0
  0
VERTEX
  5
105
330
EF
100
AcDbEntity
  8
GRAU_10_
 62
     7
100
AcDbVertex
100
AcDb2dVertex
 10
151.7705810167449
 20
230.3649223599435
 30
0.0
  0
VERTEX
  5
106
330
EF
100
AcDbEntity
  8
GRAU_10_
 62
     7
100
AcDbVertex
100
AcDb2dVertex
 10
151.7705810167449
 20
232.2681653607698
 30
0.0
  0
VERTEX
  5
107
330
EF
100
AcDbEntity
  8
GRAU_10_
 62
     7
100
AcDbVertex
100
AcDb2dVertex
 10
151.7705810167449
 20
234.0694335352327
 30
0.0
  0
VERTEX
  5
108
330
EF
100
AcDbEntity
  8
GRAU_10_
 62
     7
100
AcDbVertex
100
AcDb2dVertex
 10
151.7705810167449
 20
235.7521904250029
 30
0.0
  0
VERTEX
  5
109
330
EF
100
AcDbEntity
  8
GRAU_10_
 62
     7
100
AcDbVertex
100
AcDb2dVertex
 10
151.7705810167449
 20
237.3019666290426
 30
0.0
  0
VERTEX
  5
10A
330
EF
100
AcDbEntity
  8
GRAU_10_
 62
     7
100
AcDbVertex
100
AcDb2dVertex
 10
151.7705810167449
 20
238.7042927463135
 30
0.0
  0
VERTEX
  5
10B
330
EF
100
AcDbEntity
  8
GRAU_10_
 62
     7
100
AcDbVertex
100
AcDb2dVertex
 10
151.7705810167449
 20
239.9464219235203
 30
0.0
  0
VERTEX
  5
10C
330
EF
100
AcDbEntity
  8
GRAU_10_
 62
     7
100
AcDbVertex
100
AcDb2dVertex
 10
151.7705810167449
 20
241.0167269634003
 30
0.0
  0
VERTEX
  5
10D
330
EF
100
AcDbEntity
  8
GRAU_10_
 62
     7
100
AcDbVertex
100
AcDb2dVertex
 10
151.7705810167449
 20
241.9064228724661
 30
0.0
  0
VERTEX
  5
10E
330
EF
100
AcDbEntity
  8
GRAU_10_
 62
     7
100
AcDbVertex
100
AcDb2dVertex
 10
151.7705810167449
 20
242.6063801476818
 30
0.0
  0
VERTEX
  5
10F
330
EF
100
AcDbEntity
  8
GRAU_10_
 62
     7
100
AcDbVertex
100
AcDb2dVertex
 10
151.7705810167449
 20
243.111172763658
 30
0.0
  0
VERTEX
  5
110
330
EF
100
AcDbEntity
  8
GRAU_10_
 62
     7
100
AcDbVertex
100
AcDb2dVertex
 10
151.7705810167449
 20
243.416322096264
 30
0.0
  0
VERTEX
  5
111
330
EF
100
AcDbEntity
  8
GRAU_10_
 62
     7
100
AcDbVertex
100
AcDb2dVertex
 10
151.7705810167449
 20
243.5179524130789
 30
0.0
  0
SEQEND
  5
112
330
EF
100
AcDbEntity
  8
GRAU_10_
  0
POLYLINE
  5
113
330
1F
100
AcDbEntity
  8
GRAU_10_
 62
     7
100
AcDb2dPolyline
 66
     1
 10
0.0
 20
0.0
 30
0.0
  0
VERTEX
  5
114
330
113
100
AcDbEntity
  8
GRAU_10_
 62
     7
100
AcDbVertex
100
AcDb2dVertex
 10
161.7704874270053
 20
198.5175984204227
 30
0.0
  0
VERTEX
  5
115
330
113
100
AcDbEntity
  8
GRAU_10_
 62
     7
100
AcDbVertex
100
AcDb2dVertex
 10
161.7704874270053
 20
198.6199177563346
 30
0.0
  0
VERTEX
  5
116
330
113
100
AcDbEntity
  8
GRAU_10_
 62
     7
100
AcDbVertex
100
AcDb2dVertex
 10
161.7704874270053
 20
198.9242919424564
 30
0.0
  0
VERTEX
  5
117
330
113
100
AcDbEntity
  8
GRAU_10_
 62
     7
100
AcDbVertex
100
AcDb2dVertex
 10
161.7704874270053
 20
199.4295151953683
 30
0.0
  0
VERTEX
  5
118
330
113
100
AcDbEntity
  8
GRAU_10_
 62
     7
100
AcDbVertex
100
AcDb2dVertex
 10
161.7704874270053
 20
200.1297308527454
 30
0.0
  0
VERTEX
  5
119
330
113
100
AcDbEntity
  8
GRAU_10_
 62
     7
100
AcDbVertex
100
AcDb2dVertex
 10
161.7704874270053
 20
201.0187377427141
 30
0.0
  0
VERTEX
  5
11A
330
113
100
AcDbEntity
  8
GRAU_10_
 62
     7
100
AcDbVertex
100
AcDb2dVertex
 10
161.7704874270053
 20
202.0894734195297
 30
0.0
  0
VERTEX
  5
11B
330
113
100
AcDbEntity
  8
GRAU_10_
 62
     7
100
AcDbVertex
100
AcDb2dVertex
 10
161.7704874270053
 20
203.3319471062851
 30
0.0
  0
VERTEX
  5
11C
330
113
100
AcDbEntity
  8
GRAU_10_
 62
     7
100
AcDbVertex
100
AcDb2dVertex
 10
161.7704874270053
 20
204.733584204459
 30
0.0
  0
VERTEX
  5
11D
330
113
100
AcDbEntity
  8
GRAU_10_
 62
     7
100
AcDbVertex
100
AcDb2dVertex
 10
161.7704874270053
 20
206.2832742811115
 30
0.0
  0
VERTEX
  5
11E
330
113
100
AcDbEntity
  8
GRAU_10_
 62
     7
100
AcDbVertex
100
AcDb2dVertex
 10
161.7704874270053
 20
207.9663756804303
 30
0.0
  0
VERTEX
  5
11F
330
113
100
AcDbEntity
  8
GRAU_10_
 62
     7
100
AcDbVertex
100
AcDb2dVertex
 10
161.7704874270053
 20
209.7680744918288
 30
0.0
  0
VERTEX
  5
120
330
113
100
AcDbEntity
  8
GRAU_10_
 62
     7
100
AcDbVertex
100
AcDb2dVertex
 10
161.7704874270053
 20
211.671231365268
 30
0.0
  0
VERTEX
  5
121
330
113
100
AcDbEntity
  8
GRAU_10_
 62
     7
100
AcDbVertex
100
AcDb2dVertex
 10
161.7704874270053
 20
213.6591375876443
 30
0.0
  0
VERTEX
  5
122
330
113
100
AcDbEntity
  8
GRAU_10_
 62
     7
100
AcDbVertex
100
AcDb2dVertex
 10
161.7704874270053
 20
215.7133618981116
 30
0.0
  0
VERTEX
  5
123
330
113
100
AcDbEntity
  8
GRAU_10_
 62
     7
100
AcDbVertex
100
AcDb2dVertex
 10
161.7704874270053
 20
217.8159898001467
 30
0.0
  0
VERTEX
  5
124
330
113
100
AcDbEntity
  8
GRAU_10_
 62
     7
100
AcDbVertex
100
AcDb2dVertex
 10
161.7704874270053
 20
219.9471258673223
 30
0.0
  0
VERTEX
  5
125
330
113
100
AcDbEntity
  8
GRAU_10_
 62
     7
100
AcDbVertex
100
AcDb2dVertex
 10
161.7704874270053
 20
222.0887694757278
 30
0.0
  0
VERTEX
  5
126
330
113
100
AcDbEntity
  8
GRAU_10_
 62
     7
100
AcDbVertex
100
AcDb2dVertex
 10
161.7704874270053
 20
224.2202500524519
 30
0.0
  0
VERTEX
  5
127
330
113
100
AcDbEntity
  8
GRAU_10_
 62
     7
100
AcDbVertex
100
AcDb2dVertex
 10
161.7704874270053
 20
226.3221028080028
 30
0.0
  0
VERTEX
  5
128
330
113
100
AcDbEntity
  8
GRAU_10_
 62
     7
100
AcDbVertex
100
AcDb2dVertex
 10
161.7704874270053
 20
228.3771022649543
 30
0.0
  0
VERTEX
  5
129
330
113
100
AcDbEntity
  8
GRAU_10_
 62
     7
100
AcDbVertex
100
AcDb2dVertex
 10
161.7704874270053
 20
230.3649223599435
 30
0.0
  0
VERTEX
  5
12A
330
113
100
AcDbEntity
  8
GRAU_10_
 62
     7
100
AcDbVertex
100
AcDb2dVertex
 10
161.7704874270053
 20
232.2681653607698
 30
0.0
  0
VERTEX
  5
12B
330
113
100
AcDbEntity
  8
GRAU_10_
 62
     7
100
AcDbVertex
100
AcDb2dVertex
 10
161.7704874270053
 20
234.0694335352327
 30
0.0
  0
VERTEX
  5
12C
330
113
100
AcDbEntity
  8
GRAU_10_
 62
     7
100
AcDbVertex
100
AcDb2dVertex
 10
161.7704874270053
 20
235.7521904250029
 30
0.0
  0
VERTEX
  5
12D
330
113
100
AcDbEntity
  8
GRAU_10_
 62
     7
100
AcDbVertex
100
AcDb2dVertex
 10
161.7704874270053
 20
237.3019666290426
 30
0.0
  0
VERTEX
  5
12E
330
113
100
AcDbEntity
  8
GRAU_10_
 62
     7
100
AcDbVertex
100
AcDb2dVertex
 10
161.7704874270053
 20
238.7042927463135
 30
0.0
  0
VERTEX
  5
12F
330
113
100
AcDbEntity
  8
GRAU_10_
 62
     7
100
AcDbVertex
100
AcDb2dVertex
 10
161.7704874270053
 20
239.9464219235203
 30
0.0
  0
VERTEX
  5
130
330
113
100
AcDbEntity
  8
GRAU_10_
 62
     7
100
AcDbVertex
100
AcDb2dVertex
 10
161.7704874270053
 20
241.0167269634003
 30
0.0
  0
VERTEX
  5
131
330
113
100
AcDbEntity
  8
GRAU_10_
 62
     7
100
AcDbVertex
100
AcDb2dVertex
 10
161.7704874270053
 20
241.9064228724661
 30
0.0
  0
VERTEX
  5
132
330
113
100
AcDbEntity
  8
GRAU_10_
 62
     7
100
AcDbVertex
100
AcDb2dVertex
 10
161.7704874270053
 20
242.6063801476818
 30
0.0
  0
VERTEX
  5
133
330
113
100
AcDbEntity
  8
GRAU_10_
 62
     7
100
AcDbVertex
100
AcDb2dVertex
 10
161.7704874270053
 20
243.111172763658
 30
0.0
  0
VERTEX
  5
134
330
113
100
AcDbEntity
  8
GRAU_10_
 62
     7
100
AcDbVertex
100
AcDb2dVertex
 10
161.7704874270053
 20
243.416322096264
 30
0.0
  0
VERTEX
  5
135
330
113
100
AcDbEntity
  8
GRAU_10_
 62
     7
100
AcDbVertex
100
AcDb2dVertex
 10
161.7704874270053
 20
243.5179524130789
 30
0.0
  0
SEQEND
  5
136
330
113
100
AcDbEntity
  8
GRAU_10_
  0
POLYLINE
  5
137
330
1F
100
AcDbEntity
  8
GRAU_10_
 62
     7
100
AcDb2dPolyline
 66
     1
 10
0.0
 20
0.0
 30
0.0
  0
VERTEX
  5
138
330
137
100
AcDbEntity
  8
GRAU_10_
 62
     7
100
AcDbVertex
100
AcDb2dVertex
 10
-8.228955076067761
 20
209.517529922664
 30
0.0
  0
VERTEX
  5
139
330
137
100
AcDbEntity
  8
GRAU_10_
 62
     7
100
AcDbVertex
100
AcDb2dVertex
 10
-8.228955076067761
 20
209.6247585196424
 30
0.0
  0
VERTEX
  5
13A
330
137
100
AcDbEntity
  8
GRAU_10_
 62
     7
100
AcDbVertex
100
AcDb2dVertex
 10
-8.228955076067761
 20
209.9444633806736
 30
0.0
  0
VERTEX
  5
13B
330
137
100
AcDbEntity
  8
GRAU_10_
 62
     7
100
AcDbVertex
100
AcDb2dVertex
 10
-8.228955076067761
 20
210.4696681873999
 30
0.0
  0
VERTEX
  5
13C
330
137
100
AcDbEntity
  8
GRAU_10_
 62
     7
100
AcDbVertex
100
AcDb2dVertex
 10
-8.228955076067761
 20
211.1918463284954
 30
0.0
  0
VERTEX
  5
13D
330
137
100
AcDbEntity
  8
GRAU_10_
 62
     7
100
AcDbVertex
100
AcDb2dVertex
 10
-8.228955076067761
 20
212.0973896767934
 30
0.0
  0
VERTEX
  5
13E
330
137
100
AcDbEntity
  8
GRAU_10_
 62
     7
100
AcDbVertex
100
AcDb2dVertex
 10
-8.228955076067761
 20
213.1688143727061
 30
0.0
  0
VERTEX
  5
13F
330
137
100
AcDbEntity
  8
GRAU_10_
 62
     7
100
AcDbVertex
100
AcDb2dVertex
 10
-8.228955076067761
 20
214.3858804802577
 30
0.0
  0
VERTEX
  5
140
330
137
100
AcDbEntity
  8
GRAU_10_
 62
     7
100
AcDbVertex
100
AcDb2dVertex
 10
-8.228955076067761
 20
215.7267977705041
 30
0.0
  0
VERTEX
  5
141
330
137
100
AcDbEntity
  8
GRAU_10_
 62
     7
100
AcDbVertex
100
AcDb2dVertex
 10
-8.228955076067761
 20
217.1668476833385
 30
0.0
  0
VERTEX
  5
142
330
137
100
AcDbEntity
  8
GRAU_10_
 62
     7
100
AcDbVertex
100
AcDb2dVertex
 10
-8.228955076067761
 20
218.6781249453305
 30
0.0
  0
VERTEX
  5
143
330
137
100
AcDbEntity
  8
GRAU_10_
 62
     7
100
AcDbVertex
100
AcDb2dVertex
 10
-8.228955076067761
 20
220.2331549199851
 30
0.0
  0
VERTEX
  5
144
330
137
100
AcDbEntity
  8
GRAU_10_
 62
     7
100
AcDbVertex
100
AcDb2dVertex
 10
-8.228955076067761
 20
221.8023097861293
 30
0.0
  0
VERTEX
  5
145
330
137
100
AcDbEntity
  8
GRAU_10_
 62
     7
100
AcDbVertex
100
AcDb2dVertex
 10
-8.228955076067761
 20
223.3574258881711
 30
0.0
  0
VERTEX
  5
146
330
137
100
AcDbEntity
  8
GRAU_10_
 62
     7
100
AcDbVertex
100
AcDb2dVertex
 10
-8.228955076067761
 20
224.868703150163
 30
0.0
  0
VERTEX
  5
147
330
137
100
AcDbEntity
  8
GRAU_10_
 62
     7
100
AcDbVertex
100
AcDb2dVertex
 10
-8.228955076067761
 20
226.3083224260618
 30
0.0
  0
VERTEX
  5
148
330
137
100
AcDbEntity
  8
GRAU_10_
 62
     7
100
AcDbVertex
100
AcDb2dVertex
 10
-8.228955076067761
 20
227.6500148627924
 30
0.0
  0
VERTEX
  5
149
330
137
100
AcDbEntity
  8
GRAU_10_
 62
     7
100
AcDbVertex
100
AcDb2dVertex
 10
-8.228955076067761
 20
228.8674254798925
 30
0.0
  0
VERTEX
  5
14A
330
137
100
AcDbEntity
  8
GRAU_10_
 62
     7
100
AcDbVertex
100
AcDb2dVertex
 10
-8.228955076067761
 20
229.9384195388696
 30
0.0
  0
VERTEX
  5
14B
330
137
100
AcDbEntity
  8
GRAU_10_
 62
     7
100
AcDbVertex
100
AcDb2dVertex
 10
-8.228955076067761
 20
230.843618377619
 30
0.0
  0
VERTEX
  5
14C
330
137
100
AcDbEntity
  8
GRAU_10_
 62
     7
100
AcDbVertex
100
AcDb2dVertex
 10
-8.228955076067761
 20
231.5657965187145
 30
0.0
  0
VERTEX
  5
14D
330
137
100
AcDbEntity
  8
GRAU_10_
 62
     7
100
AcDbVertex
100
AcDb2dVertex
 10
-8.228955076067761
 20
232.0914319623764
 30
0.0
  0
VERTEX
  5
14E
330
137
100
AcDbEntity
  8
GRAU_10_
 62
     7
100
AcDbVertex
100
AcDb2dVertex
 10
-8.228955076067761
 20
232.410706186472
 30
0.0
  0
VERTEX
  5
14F
330
137
100
AcDbEntity
  8
GRAU_10_
 62
     7
100
AcDbVertex
100
AcDb2dVertex
 10
-8.228955076067761
 20
232.5175902739019
 30
0.0
  0
SEQEND
  5
150
330
137
100
AcDbEntity
  8
GRAU_10_
  0
POLYLINE
  5
151
330
1F
100
AcDbEntity
  8
GRAU_10_
 62
     7
100
AcDb2dPolyline
 66
     1
 10
0.0
 20
0.0
 30
0.0
  0
VERTEX
  5
152
330
151
100
AcDbEntity
  8
GRAU_10_
 62
     7
100
AcDbVertex
100
AcDb2dVertex
 10
-7.229532875796783
 20
233.5180460028184
 30
0.0
  0
VERTEX
  5
153
330
151
100
AcDbEntity
  8
GRAU_10_
 62
     7
100
AcDbVertex
100
AcDb2dVertex
 10
-7.229532875796783
 20
233.4112480427757
 30
0.0
  0
VERTEX
  5
154
330
151
100
AcDbEntity
  8
GRAU_10_
 62
     7
100
AcDbVertex
100
AcDb2dVertex
 10
-7.229532875796783
 20
233.0922322008415
 30
0.0
  0
VERTEX
  5
155
330
151
100
AcDbEntity
  8
GRAU_10_
 62
     7
100
AcDbVertex
100
AcDb2dVertex
 10
-7.229532875796783
 20
232.5666828845667
 30
0.0
  0
VERTEX
  5
156
330
151
100
AcDbEntity
  8
GRAU_10_
 62
     7
100
AcDbVertex
100
AcDb2dVertex
 10
-7.229532875796783
 20
231.8431267052771
 30
0.0
  0
VERTEX
  5
157
330
151
100
AcDbEntity
  8
GRAU_10_
 62
     7
100
AcDbVertex
100
AcDb2dVertex
 10
-7.229532875796783
 20
230.9350856627524
 30
0.0
  0
VERTEX
  5
158
330
151
100
AcDbEntity
  8
GRAU_10_
 62
     7
100
AcDbVertex
100
AcDb2dVertex
 10
-7.229532875796783
 20
229.8565985210949
 30
0.0
  0
VERTEX
  5
159
330
151
100
AcDbEntity
  8
GRAU_10_
 62
     7
100
AcDbVertex
100
AcDb2dVertex
 10
-7.229532875796783
 20
228.6272161971835
 30
0.0
  0
VERTEX
  5
15A
330
151
100
AcDbEntity
  8
GRAU_10_
 62
     7
100
AcDbVertex
100
AcDb2dVertex
 10
-7.229532875796783
 20
227.2679537734782
 30
0.0
  0
VERTEX
  5
15B
330
151
100
AcDbEntity
  8
GRAU_10_
 62
     7
100
AcDbVertex
100
AcDb2dVertex
 10
-7.229532875796783
 20
225.8013766254073
 30
0.0
  0
VERTEX
  5
15C
330
151
100
AcDbEntity
  8
GRAU_10_
 62
     7
100
AcDbVertex
100
AcDb2dVertex
 10
-7.229532875796783
 20
224.2530645869489
 30
0.0
  0
VERTEX
  5
15D
330
151
100
AcDbEntity
  8
GRAU_10_
 62
     7
100
AcDbVertex
100
AcDb2dVertex
 10
-7.229532875796783
 20
222.6497171481136
 30
0.0
  0
VERTEX
  5
15E
330
151
100
AcDbEntity
  8
GRAU_10_
 62
     7
100
AcDbVertex
100
AcDb2dVertex
 10
-7.229532875796783
 20
221.0181199262993
 30
0.0
  0
VERTEX
  5
15F
330
151
100
AcDbEntity
  8
GRAU_10_
 62
     7
100
AcDbVertex
100
AcDb2dVertex
 10
-7.229532875796783
 20
219.386522704485
 30
0.0
  0
VERTEX
  5
160
330
151
100
AcDbEntity
  8
GRAU_10_
 62
     7
100
AcDbVertex
100
AcDb2dVertex
 10
-7.229532875796783
 20
217.7824001191655
 30
0.0
  0
VERTEX
  5
161
330
151
100
AcDbEntity
  8
GRAU_10_
 62
     7
100
AcDbVertex
100
AcDb2dVertex
 10
-7.229532875796783
 20
216.2340880807071
 30
0.0
  0
VERTEX
  5
162
330
151
100
AcDbEntity
  8
GRAU_10_
 62
     7
100
AcDbVertex
100
AcDb2dVertex
 10
-7.229532875796783
 20
214.7679415695719
 30
0.0
  0
VERTEX
  5
163
330
151
100
AcDbEntity
  8
GRAU_10_
 62
     7
100
AcDbVertex
100
AcDb2dVertex
 10
-7.229532875796783
 20
213.4083346363181
 30
0.0
  0
VERTEX
  5
164
330
151
100
AcDbEntity
  8
GRAU_10_
 62
     7
100
AcDbVertex
100
AcDb2dVertex
 10
-7.229532875796783
 20
212.1789523124067
 30
0.0
  0
VERTEX
  5
165
330
151
100
AcDbEntity
  8
GRAU_10_
 62
     7
100
AcDbVertex
100
AcDb2dVertex
 10
-7.229532875796783
 20
211.1011541898463
 30
0.0
  0
VERTEX
  5
166
330
151
100
AcDbEntity
  8
GRAU_10_
 62
     7
100
AcDbVertex
100
AcDb2dVertex
 10
-7.229532875796783
 20
210.192768637773
 30
0.0
  0
VERTEX
  5
167
330
151
100
AcDbEntity
  8
GRAU_10_
 62
     7
100
AcDbVertex
100
AcDb2dVertex
 10
-7.229532875796783
 20
209.4695569680319
 30
0.0
  0
VERTEX
  5
168
330
151
100
AcDbEntity
  8
GRAU_10_
 62
     7
100
AcDbVertex
100
AcDb2dVertex
 10
-7.229532875796783
 20
208.9439215243699
 30
0.0
  0
VERTEX
  5
169
330
151
100
AcDbEntity
  8
GRAU_10_
 62
     7
100
AcDbVertex
100
AcDb2dVertex
 10
-7.229532875796783
 20
208.6249918098229
 30
0.0
  0
VERTEX
  5
16A
330
151
100
AcDbEntity
  8
GRAU_10_
 62
     7
100
AcDbVertex
100
AcDb2dVertex
 10
-7.229532875796783
 20
208.518107722393
 30
0.0
  0
SEQEND
  5
16B
330
151
100
AcDbEntity
  8
GRAU_10_
  0
POLYLINE
  5
16C
330
1F
100
AcDbEntity
  8
GRAU_10_
 62
     7
100
AcDb2dPolyline
 66
     1
 10
0.0
 20
0.0
 30
0.0
  0
VERTEX
  5
16D
330
16C
100
AcDbEntity
  8
GRAU_10_
 62
     7
100
AcDbVertex
100
AcDb2dVertex
 10
151.7705810167449
 20
113.793398680319
 30
0.0
  0
VERTEX
  5
16E
330
16C
100
AcDbEntity
  8
GRAU_10_
 62
     7
100
AcDbVertex
100
AcDb2dVertex
 10
161.7704874270053
 20
113.793398680319
 30
0.0
  0
SEQEND
  5
16F
330
16C
100
AcDbEntity
  8
GRAU_10_
  0
POLYLINE
  5
170
330
1F
100
AcDbEntity
  8
GRAU_10_
 62
     7
100
AcDb2dPolyline
 66
     1
 10
0.0
 20
0.0
 30
0.0
  0
VERTEX
  5
171
330
170
100
AcDbEntity
  8
GRAU_10_
 62
     7
100
AcDbVertex
100
AcDb2dVertex
 10
161.7704874270053
 20
158.7930636538781
 30
0.0
  0
VERTEX
  5
172
330
170
100
AcDbEntity
  8
GRAU_10_
 62
     7
100
AcDbVertex
100
AcDb2dVertex
 10
151.7705810167449
 20
158.7930636538781
 30
0.0
  0
SEQEND
  5
173
330
170
100
AcDbEntity
  8
GRAU_10_
  0
POLYLINE
  5
174
330
1F
100
AcDbEntity
  8
GRAU_10_
 62
     7
100
AcDb2dPolyline
 66
     1
 10
0.0
 20
0.0
 30
0.0
  0
VERTEX
  5
175
330
174
100
AcDbEntity
  8
GRAU_10_
 62
     7
100
AcDbVertex
100
AcDb2dVertex
 10
161.7704874270053
 20
120.2929158227914
 30
0.0
  0
VERTEX
  5
176
330
174
100
AcDbEntity
  8
GRAU_10_
 62
     7
100
AcDbVertex
100
AcDb2dVertex
 10
176.7706054245573
 20
120.2929158227914
 30
0.0
  0
SEQEND
  5
177
330
174
100
AcDbEntity
  8
GRAU_10_
  0
POLYLINE
  5
178
330
1F
100
AcDbEntity
  8
GRAU_10_
 62
     7
100
AcDb2dPolyline
 66
     1
 10
0.0
 20
0.0
 30
0.0
  0
VERTEX
  5
179
330
178
100
AcDbEntity
  8
GRAU_10_
 62
     7
100
AcDbVertex
100
AcDb2dVertex
 10
176.7706054245573
 20
152.293029747083
 30
0.0
  0
VERTEX
  5
17A
330
178
100
AcDbEntity
  8
GRAU_10_
 62
     7
100
AcDbVertex
100
AcDb2dVertex
 10
161.7704874270053
 20
152.293029747083
 30
0.0
  0
SEQEND
  5
17B
330
178
100
AcDbEntity
  8
GRAU_10_
  0
POLYLINE
  5
17C
330
1F
100
AcDbEntity
  8
GRAU_10_
 62
     7
100
AcDb2dPolyline
 66
     1
 10
0.0
 20
0.0
 30
0.0
  0
VERTEX
  5
17D
330
17C
100
AcDbEntity
  8
GRAU_10_
 62
     7
100
AcDbVertex
100
AcDb2dVertex
 10
-7.229532875796783
 20
123.7933050905795
 30
0.0
  0
VERTEX
  5
17E
330
17C
100
AcDbEntity
  8
GRAU_10_
 62
     7
100
AcDbVertex
100
AcDb2dVertex
 10
151.7705810167449
 20
123.7933050905795
 30
0.0
  0
SEQEND
  5
17F
330
17C
100
AcDbEntity
  8
GRAU_10_
  0
POLYLINE
  5
180
330
1F
100
AcDbEntity
  8
GRAU_10_
 62
     7
100
AcDb2dPolyline
 66
     1
 10
0.0
 20
0.0
 30
0.0
  0
VERTEX
  5
181
330
180
100
AcDbEntity
  8
GRAU_10_
 62
     7
100
AcDbVertex
100
AcDb2dVertex
 10
151.7705810167449
 20
148.7931572436177
 30
0.0
  0
VERTEX
  5
182
330
180
100
AcDbEntity
  8
GRAU_10_
 62
     7
100
AcDbVertex
100
AcDb2dVertex
 10
-7.229532875796783
 20
148.7931572436177
 30
0.0
  0
VERTEX
  5
183
330
180
100
AcDbEntity
  8
GRAU_10_
 62
     7
100
AcDbVertex
100
AcDb2dVertex
 10
-8.228955076067761
 20
147.7933905337982
 30
0.0
  0
SEQEND
  5
184
330
180
100
AcDbEntity
  8
GRAU_10_
  0
POLYLINE
  5
185
330
1F
100
AcDbEntity
  8
GRAU_10_
 62
     7
100
AcDb2dPolyline
 66
     1
 10
0.0
 20
0.0
 30
0.0
  0
VERTEX
  5
186
330
185
100
AcDbEntity
  8
GRAU_10_
 62
     7
100
AcDbVertex
100
AcDb2dVertex
 10
-8.228955076067761
 20
124.7934163099475
 30
0.0
  0
VERTEX
  5
187
330
185
100
AcDbEntity
  8
GRAU_10_
 62
     7
100
AcDbVertex
100
AcDb2dVertex
 10
-7.229532875796783
 20
123.7933050905795
 30
0.0
  0
SEQEND
  5
188
330
185
100
AcDbEntity
  8
GRAU_10_
  0
POLYLINE
  5
189
330
1F
100
AcDbEntity
  8
GRAU_10_
 62
     7
100
AcDb2dPolyline
 66
     1
 10
0.0
 20
0.0
 30
0.0
  0
VERTEX
  5
18A
330
189
100
AcDbEntity
  8
GRAU_10_
 62
     7
100
AcDbVertex
100
AcDb2dVertex
 10
191.4112277082236
 20
146.3128607490121
 30
0.0
  0
VERTEX
  5
18B
330
189
100
AcDbEntity
  8
GRAU_10_
 62
     7
100
AcDbVertex
100
AcDb2dVertex
 10
176.7706054245573
 20
146.6807969468368
 30
0.0
  0
SEQEND
  5
18C
330
189
100
AcDbEntity
  8
GRAU_10_
  0
POLYLINE
  5
18D
330
1F
100
AcDbEntity
  8
GRAU_10_
 62
     7
100
AcDb2dPolyline
 66
     1
 10
0.0
 20
0.0
 30
0.0
  0
VERTEX
  5
18E
330
18D
100
AcDbEntity
  8
GRAU_10_
 62
     7
100
AcDbVertex
100
AcDb2dVertex
 10
176.7706054245573
 20
124.5305555244229
 30
0.0
  0
VERTEX
  5
18F
330
18D
100
AcDbEntity
  8
GRAU_10_
 62
     7
100
AcDbVertex
100
AcDb2dVertex
 10
195.770823790033
 20
125.0078735039043
 30
0.0
  0
SEQEND
  5
190
330
18D
100
AcDbEntity
  8
GRAU_10_
  0
POLYLINE
  5
191
330
1F
100
AcDbEntity
  8
GRAU_10_
 62
     7
100
AcDb2dPolyline
 66
     1
 10
0.0
 20
0.0
 30
0.0
  0
VERTEX
  5
192
330
191
100
AcDbEntity
  8
GRAU_10_
 62
     7
100
AcDbVertex
100
AcDb2dVertex
 10
191.4355156313946
 20
146.3061428128158
 30
0.0
  0
VERTEX
  5
193
330
191
100
AcDbEntity
  8
GRAU_10_
 62
     7
100
AcDbVertex
100
AcDb2dVertex
 10
191.4892591209645
 20
146.2958075263601
 30
0.0
  0
VERTEX
  5
194
330
191
100
AcDbEntity
  8
GRAU_10_
 62
     7
100
AcDbVertex
100
AcDb2dVertex
 10
191.7004434742103
 20
146.2536051066658
 30
0.0
  0
VERTEX
  5
195
330
191
100
AcDbEntity
  8
GRAU_10_
 62
     7
100
AcDbVertex
100
AcDb2dVertex
 10
191.9925875713595
 20
146.19073211406
 30
0.0
  0
VERTEX
  5
196
330
191
100
AcDbEntity
  8
GRAU_10_
 62
     7
100
AcDbVertex
100
AcDb2dVertex
 10
192.4208129401761
 20
146.0904798354392
 30
0.0
  0
SEQEND
  5
197
330
191
100
AcDbEntity
  8
GRAU_10_
  0
POLYLINE
  5
198
330
1F
100
AcDbEntity
  8
GRAU_10_
 62
     7
100
AcDb2dPolyline
 66
     1
 10
0.0
 20
0.0
 30
0.0
  0
VERTEX
  5
199
330
198
100
AcDbEntity
  8
GRAU_10_
 62
     7
100
AcDbVertex
100
AcDb2dVertex
 10
195.770823790033
 20
146.0203721423144
 30
0.0
  0
VERTEX
  5
19A
330
198
100
AcDbEntity
  8
GRAU_10_
 62
     7
100
AcDbVertex
100
AcDb2dVertex
 10
194.095473855556
 20
146.0556843710382
 30
0.0
  0
VERTEX
  5
19B
330
198
100
AcDbEntity
  8
GRAU_10_
 62
     7
100
AcDbVertex
100
AcDb2dVertex
 10
192.4208129401761
 20
146.0904798354392
 30
0.0
  0
SEQEND
  5
19C
330
198
100
AcDbEntity
  8
GRAU_10_
  0
POLYLINE
  5
19D
330
1F
100
AcDbEntity
  8
GRAU_10_
 62
     7
100
AcDb2dPolyline
 66
     1
 10
0.0
 20
0.0
 30
0.0
  0
VERTEX
  5
19E
330
19D
100
AcDbEntity
  8
GRAU_10_
 62
     7
100
AcDbVertex
100
AcDb2dVertex
 10
195.770823790033
 20
143.8137884840118
 30
0.0
  0
VERTEX
  5
19F
330
19D
100
AcDbEntity
  8
GRAU_10_
 62
     7
100
AcDbVertex
100
AcDb2dVertex
 10
195.770823790033
 20
144.815277741574
 30
0.0
  0
VERTEX
  5
1A0
330
19D
100
AcDbEntity
  8
GRAU_10_
 62
     7
100
AcDbVertex
100
AcDb2dVertex
 10
195.770823790033
 20
145.5554565065799
 30
0.0
  0
VERTEX
  5
1A1
330
19D
100
AcDbEntity
  8
GRAU_10_
 62
     7
100
AcDbVertex
100
AcDb2dVertex
 10
195.770823790033
 20
146.0203721423144
 30
0.0
  0
SEQEND
  5
1A2
330
19D
100
AcDbEntity
  8
GRAU_10_
  0
POLYLINE
  5
1A3
330
1F
100
AcDbEntity
  8
GRAU_10_
 62
     7
100
AcDb2dPolyline
 66
     1
 10
0.0
 20
0.0
 30
0.0
  0
VERTEX
  5
1A4
330
1A3
100
AcDbEntity
  8
GRAU_10_
 62
     7
100
AcDbVertex
100
AcDb2dVertex
 10
195.770823790033
 20
139.4607380836244
 30
0.0
  0
VERTEX
  5
1A5
330
1A3
100
AcDbEntity
  8
GRAU_10_
 62
     7
100
AcDbVertex
100
AcDb2dVertex
 10
195.770823790033
 20
140.7421413493631
 30
0.0
  0
VERTEX
  5
1A6
330
1A3
100
AcDbEntity
  8
GRAU_10_
 62
     7
100
AcDbVertex
100
AcDb2dVertex
 10
195.770823790033
 20
141.9358669350021
 30
0.0
  0
VERTEX
  5
1A7
330
1A3
100
AcDbEntity
  8
GRAU_10_
 62
     7
100
AcDbVertex
100
AcDb2dVertex
 10
195.770823790033
 20
142.9783528288388
 30
0.0
  0
VERTEX
  5
1A8
330
1A3
100
AcDbEntity
  8
GRAU_10_
 62
     7
100
AcDbVertex
100
AcDb2dVertex
 10
195.770823790033
 20
143.8137884840118
 30
0.0
  0
SEQEND
  5
1A9
330
1A3
100
AcDbEntity
  8
GRAU_10_
  0
POLYLINE
  5
1AA
330
1F
100
AcDbEntity
  8
GRAU_10_
 62
     7
100
AcDb2dPolyline
 66
     1
 10
0.0
 20
0.0
 30
0.0
  0
VERTEX
  5
1AB
330
1AA
100
AcDbEntity
  8
GRAU_10_
 62
     7
100
AcDbVertex
100
AcDb2dVertex
 10
195.770823790033
 20
125.0078735039043
 30
0.0
  0
VERTEX
  5
1AC
330
1AA
100
AcDbEntity
  8
GRAU_10_
 62
     7
100
AcDbVertex
100
AcDb2dVertex
 10
195.770823790033
 20
125.1587686861582
 30
0.0
  0
VERTEX
  5
1AD
330
1AA
100
AcDbEntity
  8
GRAU_10_
 62
     7
100
AcDbVertex
100
AcDb2dVertex
 10
195.770823790033
 20
125.6047362967238
 30
0.0
  0
VERTEX
  5
1AE
330
1AA
100
AcDbEntity
  8
GRAU_10_
 62
     7
100
AcDbVertex
100
AcDb2dVertex
 10
195.770823790033
 20
126.5573051983954
 30
0.0
  0
VERTEX
  5
1AF
330
1AA
100
AcDbEntity
  8
GRAU_10_
 62
     7
100
AcDbVertex
100
AcDb2dVertex
 10
195.770823790033
 20
127.7105509120828
 30
0.0
  0
VERTEX
  5
1B0
330
1AA
100
AcDbEntity
  8
GRAU_10_
 62
     7
100
AcDbVertex
100
AcDb2dVertex
 10
195.770823790033
 20
129.0453531578428
 30
0.0
  0
VERTEX
  5
1B1
330
1AA
100
AcDbEntity
  8
GRAU_10_
 62
     7
100
AcDbVertex
100
AcDb2dVertex
 10
195.770823790033
 20
130.5393188150214
 30
0.0
  0
VERTEX
  5
1B2
330
1AA
100
AcDbEntity
  8
GRAU_10_
 62
     7
100
AcDbVertex
100
AcDb2dVertex
 10
195.770823790033
 20
132.167815450899
 30
0.0
  0
VERTEX
  5
1B3
330
1AA
100
AcDbEntity
  8
GRAU_10_
 62
     7
100
AcDbVertex
100
AcDb2dVertex
 10
195.770823790033
 20
133.9034545563679
 30
0.0
  0
VERTEX
  5
1B4
330
1AA
100
AcDbEntity
  8
GRAU_10_
 62
     7
100
AcDbVertex
100
AcDb2dVertex
 10
195.770823790033
 20
135.7181586032232
 30
0.0
  0
VERTEX
  5
1B5
330
1AA
100
AcDbEntity
  8
GRAU_10_
 62
     7
100
AcDbVertex
100
AcDb2dVertex
 10
195.770823790033
 20
137.5805772225493
 30
0.0
  0
VERTEX
  5
1B6
330
1AA
100
AcDbEntity
  8
GRAU_10_
 62
     7
100
AcDbVertex
100
AcDb2dVertex
 10
195.770823790033
 20
139.4607380836244
 30
0.0
  0
SEQEND
  5
1B7
330
1AA
100
AcDbEntity
  8
GRAU_10_
  0
POLYLINE
  5
1B8
330
1F
100
AcDbEntity
  8
GRAU_10_
 62
     7
100
AcDb2dPolyline
 66
     1
 10
0.0
 20
0.0
 30
0.0
  0
VERTEX
  5
1B9
330
1B8
100
AcDbEntity
  8
GRAU_10_
 62
     7
100
AcDbVertex
100
AcDb2dVertex
 10
172.0211967885919
 20
151.3289197755358
 30
0.0
  0
VERTEX
  5
1BA
330
1B8
100
AcDbEntity
  8
GRAU_10_
 62
     7
100
AcDbVertex
100
AcDb2dVertex
 10
172.421516883978
 20
150.6435180287454
 30
0.0
  0
VERTEX
  5
1BB
330
1B8
100
AcDbEntity
  8
GRAU_10_
 62
     7
100
AcDbVertex
100
AcDb2dVertex
 10
172.7112494142875
 20
149.7881008197578
 30
0.0
  0
VERTEX
  5
1BC
330
1B8
100
AcDbEntity
  8
GRAU_10_
 62
     7
100
AcDbVertex
100
AcDb2dVertex
 10
172.8866047744867
 20
148.7712808872864
 30
0.0
  0
VERTEX
  5
1BD
330
1B8
100
AcDbEntity
  8
GRAU_10_
 62
     7
100
AcDbVertex
100
AcDb2dVertex
 10
172.9451713977359
 20
147.6068386132719
 30
0.0
  0
VERTEX
  5
1BE
330
1B8
100
AcDbEntity
  8
GRAU_10_
 62
     7
100
AcDbVertex
100
AcDb2dVertex
 10
172.8866047744867
 20
146.3075208510099
 30
0.0
  0
VERTEX
  5
1BF
330
1B8
100
AcDbEntity
  8
GRAU_10_
 62
     7
100
AcDbVertex
100
AcDb2dVertex
 10
172.7112494142875
 20
144.8890027849583
 30
0.0
  0
VERTEX
  5
1C0
330
1B8
100
AcDbEntity
  8
GRAU_10_
 62
     7
100
AcDbVertex
100
AcDb2dVertex
 10
172.421516883978
 20
143.3685098925433
 30
0.0
  0
VERTEX
  5
1C1
330
1B8
100
AcDbEntity
  8
GRAU_10_
 62
     7
100
AcDbVertex
100
AcDb2dVertex
 10
172.0211967885919
 20
141.7637844155139
 30
0.0
  0
VERTEX
  5
1C2
330
1B8
100
AcDbEntity
  8
GRAU_10_
 62
     7
100
AcDbVertex
100
AcDb2dVertex
 10
172.0211967885919
 20
151.3289197755358
 30
0.0
  0
SEQEND
  5
1C3
330
1B8
100
AcDbEntity
  8
GRAU_10_
  0
POLYLINE
  5
1C4
330
1F
100
AcDbEntity
  8
GRAU_10_
 62
     7
100
AcDb2dPolyline
 66
     1
 10
0.0
 20
0.0
 30
0.0
  0
VERTEX
  5
1C5
330
1C4
100
AcDbEntity
  8
GRAU_10_
 62
     7
100
AcDbVertex
100
AcDb2dVertex
 10
169.5210909949461
 20
141.7637844155139
 30
0.0
  0
VERTEX
  5
1C6
330
1C4
100
AcDbEntity
  8
GRAU_10_
 62
     7
100
AcDbVertex
100
AcDb2dVertex
 10
169.1199096256888
 20
143.3685098925433
 30
0.0
  0
VERTEX
  5
1C7
330
1C4
100
AcDbEntity
  8
GRAU_10_
 62
     7
100
AcDbVertex
100
AcDb2dVertex
 10
168.8306938597021
 20
144.8890027849583
 30
0.0
  0
VERTEX
  5
1C8
330
1C4
100
AcDbEntity
  8
GRAU_10_
 62
     7
100
AcDbVertex
100
AcDb2dVertex
 10
168.6553384995028
 20
146.3075208510099
 30
0.0
  0
VERTEX
  5
1C9
330
1C4
100
AcDbEntity
  8
GRAU_10_
 62
     7
100
AcDbVertex
100
AcDb2dVertex
 10
168.5971163858021
 20
147.6068386132719
 30
0.0
  0
VERTEX
  5
1CA
330
1C4
100
AcDbEntity
  8
GRAU_10_
 62
     7
100
AcDbVertex
100
AcDb2dVertex
 10
168.6553384995028
 20
148.7712808872864
 30
0.0
  0
VERTEX
  5
1CB
330
1C4
100
AcDbEntity
  8
GRAU_10_
 62
     7
100
AcDbVertex
100
AcDb2dVertex
 10
168.8306938597021
 20
149.7881008197578
 30
0.0
  0
VERTEX
  5
1CC
330
1C4
100
AcDbEntity
  8
GRAU_10_
 62
     7
100
AcDbVertex
100
AcDb2dVertex
 10
169.1199096256888
 20
150.6435180287454
 30
0.0
  0
VERTEX
  5
1CD
330
1C4
100
AcDbEntity
  8
GRAU_10_
 62
     7
100
AcDbVertex
100
AcDb2dVertex
 10
169.5210909949461
 20
151.3289197755358
 30
0.0
  0
SEQEND
  5
1CE
330
1C4
100
AcDbEntity
  8
GRAU_10_
  0
POLYLINE
  5
1CF
330
1F
100
AcDbEntity
  8
GRAU_10_
 62
     7
100
AcDb2dPolyline
 66
     1
 10
0.0
 20
0.0
 30
0.0
  0
VERTEX
  5
1D0
330
1CF
100
AcDbEntity
  8
GRAU_10_
 62
     7
100
AcDbVertex
100
AcDb2dVertex
 10
169.5210909949461
 20
141.7637844155139
 30
0.0
  0
VERTEX
  5
1D1
330
1CF
100
AcDbEntity
  8
GRAU_10_
 62
     7
100
AcDbVertex
100
AcDb2dVertex
 10
169.5210909949461
 20
151.3289197755358
 30
0.0
  0
VERTEX
  5
1D2
330
1CF
100
AcDbEntity
  8
GRAU_10_
 62
     7
100
AcDbVertex
100
AcDb2dVertex
 10
172.0211967885919
 20
151.3289197755358
 30
0.0
  0
SEQEND
  5
1D3
330
1CF
100
AcDbEntity
  8
GRAU_10_
  0
POLYLINE
  5
1D4
330
1F
100
AcDbEntity
  8
GRAU_10_
 62
     7
100
AcDb2dPolyline
 66
     1
 10
0.0
 20
0.0
 30
0.0
  0
VERTEX
  5
1D5
330
1D4
100
AcDbEntity
  8
GRAU_10_
 62
     7
100
AcDbVertex
100
AcDb2dVertex
 10
172.0211967885919
 20
141.7637844155139
 30
0.0
  0
VERTEX
  5
1D6
330
1D4
100
AcDbEntity
  8
GRAU_10_
 62
     7
100
AcDbVertex
100
AcDb2dVertex
 10
169.5210909949461
 20
141.7637844155139
 30
0.0
  0
SEQEND
  5
1D7
330
1D4
100
AcDbEntity
  8
GRAU_10_
  0
POLYLINE
  5
1D8
330
1F
100
AcDbEntity
  8
GRAU_10_
 62
     7
100
AcDb2dPolyline
 66
     1
 10
0.0
 20
0.0
 30
0.0
  0
VERTEX
  5
1D9
330
1D8
100
AcDbEntity
  8
GRAU_10_
 62
     7
100
AcDbVertex
100
AcDb2dVertex
 10
172.0211967885919
 20
130.8226779186832
 30
0.0
  0
VERTEX
  5
1DA
330
1D8
100
AcDbEntity
  8
GRAU_10_
 62
     7
100
AcDbVertex
100
AcDb2dVertex
 10
172.421516883978
 20
129.2182969512024
 30
0.0
  0
VERTEX
  5
1DB
330
1D8
100
AcDbEntity
  8
GRAU_10_
 62
     7
100
AcDbVertex
100
AcDb2dVertex
 10
172.7112494142875
 20
127.6971150396903
 30
0.0
  0
VERTEX
  5
1DC
330
1D8
100
AcDbEntity
  8
GRAU_10_
 62
     7
100
AcDbVertex
100
AcDb2dVertex
 10
172.8866047744867
 20
126.2789414831872
 30
0.0
  0
VERTEX
  5
1DD
330
1D8
100
AcDbEntity
  8
GRAU_10_
 62
     7
100
AcDbVertex
100
AcDb2dVertex
 10
172.9451713977359
 20
124.9796237209252
 30
0.0
  0
VERTEX
  5
1DE
330
1D8
100
AcDbEntity
  8
GRAU_10_
 62
     7
100
AcDbVertex
100
AcDb2dVertex
 10
172.8866047744867
 20
123.8148369373623
 30
0.0
  0
VERTEX
  5
1DF
330
1D8
100
AcDbEntity
  8
GRAU_10_
 62
     7
100
AcDbVertex
100
AcDb2dVertex
 10
172.7112494142875
 20
122.7980170048908
 30
0.0
  0
VERTEX
  5
1E0
330
1D8
100
AcDbEntity
  8
GRAU_10_
 62
     7
100
AcDbVertex
100
AcDb2dVertex
 10
172.421516883978
 20
121.9422552863547
 30
0.0
  0
VERTEX
  5
1E1
330
1D8
100
AcDbEntity
  8
GRAU_10_
 62
     7
100
AcDbVertex
100
AcDb2dVertex
 10
172.0211967885919
 20
121.2571980491128
 30
0.0
  0
VERTEX
  5
1E2
330
1D8
100
AcDbEntity
  8
GRAU_10_
 62
     7
100
AcDbVertex
100
AcDb2dVertex
 10
172.0211967885919
 20
130.8226779186832
 30
0.0
  0
SEQEND
  5
1E3
330
1D8
100
AcDbEntity
  8
GRAU_10_
  0
POLYLINE
  5
1E4
330
1F
100
AcDbEntity
  8
GRAU_10_
 62
     7
100
AcDb2dPolyline
 66
     1
 10
0.0
 20
0.0
 30
0.0
  0
VERTEX
  5
1E5
330
1E4
100
AcDbEntity
  8
GRAU_10_
 62
     7
100
AcDbVertex
100
AcDb2dVertex
 10
169.5210909949461
 20
121.2571980491128
 30
0.0
  0
VERTEX
  5
1E6
330
1E4
100
AcDbEntity
  8
GRAU_10_
 62
     7
100
AcDbVertex
100
AcDb2dVertex
 10
169.1199096256888
 20
121.9422552863547
 30
0.0
  0
VERTEX
  5
1E7
330
1E4
100
AcDbEntity
  8
GRAU_10_
 62
     7
100
AcDbVertex
100
AcDb2dVertex
 10
168.8306938597021
 20
122.7980170048908
 30
0.0
  0
VERTEX
  5
1E8
330
1E4
100
AcDbEntity
  8
GRAU_10_
 62
     7
100
AcDbVertex
100
AcDb2dVertex
 10
168.6553384995028
 20
123.8148369373623
 30
0.0
  0
VERTEX
  5
1E9
330
1E4
100
AcDbEntity
  8
GRAU_10_
 62
     7
100
AcDbVertex
100
AcDb2dVertex
 10
168.5971163858021
 20
124.9796237209252
 30
0.0
  0
VERTEX
  5
1EA
330
1E4
100
AcDbEntity
  8
GRAU_10_
 62
     7
100
AcDbVertex
100
AcDb2dVertex
 10
168.6553384995028
 20
126.2789414831872
 30
0.0
  0
VERTEX
  5
1EB
330
1E4
100
AcDbEntity
  8
GRAU_10_
 62
     7
100
AcDbVertex
100
AcDb2dVertex
 10
168.8306938597021
 20
127.6971150396903
 30
0.0
  0
VERTEX
  5
1EC
330
1E4
100
AcDbEntity
  8
GRAU_10_
 62
     7
100
AcDbVertex
100
AcDb2dVertex
 10
169.1199096256888
 20
129.2182969512024
 30
0.0
  0
VERTEX
  5
1ED
330
1E4
100
AcDbEntity
  8
GRAU_10_
 62
     7
100
AcDbVertex
100
AcDb2dVertex
 10
169.5210909949461
 20
130.8226779186832
 30
0.0
  0
SEQEND
  5
1EE
330
1E4
100
AcDbEntity
  8
GRAU_10_
  0
POLYLINE
  5
1EF
330
1F
100
AcDbEntity
  8
GRAU_10_
 62
     7
100
AcDb2dPolyline
 66
     1
 10
0.0
 20
0.0
 30
0.0
  0
VERTEX
  5
1F0
330
1EF
100
AcDbEntity
  8
GRAU_10_
 62
     7
100
AcDbVertex
100
AcDb2dVertex
 10
169.5210909949461
 20
121.2571980491128
 30
0.0
  0
VERTEX
  5
1F1
330
1EF
100
AcDbEntity
  8
GRAU_10_
 62
     7
100
AcDbVertex
100
AcDb2dVertex
 10
169.5210909949461
 20
130.8226779186832
 30
0.0
  0
VERTEX
  5
1F2
330
1EF
100
AcDbEntity
  8
GRAU_10_
 62
     7
100
AcDbVertex
100
AcDb2dVertex
 10
172.0211967885919
 20
130.8226779186832
 30
0.0
  0
SEQEND
  5
1F3
330
1EF
100
AcDbEntity
  8
GRAU_10_
  0
POLYLINE
  5
1F4
330
1F
100
AcDbEntity
  8
GRAU_10_
 62
     7
100
AcDb2dPolyline
 66
     1
 10
0.0
 20
0.0
 30
0.0
  0
VERTEX
  5
1F5
330
1F4
100
AcDbEntity
  8
GRAU_10_
 62
     7
100
AcDbVertex
100
AcDb2dVertex
 10
172.0211967885919
 20
121.2571980491128
 30
0.0
  0
VERTEX
  5
1F6
330
1F4
100
AcDbEntity
  8
GRAU_10_
 62
     7
100
AcDbVertex
100
AcDb2dVertex
 10
169.5210909949461
 20
121.2571980491128
 30
0.0
  0
SEQEND
  5
1F7
330
1F4
100
AcDbEntity
  8
GRAU_10_
  0
POLYLINE
  5
1F8
330
1F
100
AcDbEntity
  8
GRAU_10_
 62
     7
100
AcDb2dPolyline
 66
     1
 10
0.0
 20
0.0
 30
0.0
  0
VERTEX
  5
1F9
330
1F8
100
AcDbEntity
  8
GRAU_10_
 62
     7
100
AcDbVertex
100
AcDb2dVertex
 10
176.7706054245573
 20
120.2929158227914
 30
0.0
  0
VERTEX
  5
1FA
330
1F8
100
AcDbEntity
  8
GRAU_10_
 62
     7
100
AcDbVertex
100
AcDb2dVertex
 10
176.7706054245573
 20
120.4012640758025
 30
0.0
  0
VERTEX
  5
1FB
330
1F8
100
AcDbEntity
  8
GRAU_10_
 62
     7
100
AcDbVertex
100
AcDb2dVertex
 10
176.7706054245573
 20
120.7244140323189
 30
0.0
  0
VERTEX
  5
1FC
330
1F8
100
AcDbEntity
  8
GRAU_10_
 62
     7
100
AcDbVertex
100
AcDb2dVertex
 10
176.7706054245573
 20
121.2578870682098
 30
0.0
  0
VERTEX
  5
1FD
330
1F8
100
AcDbEntity
  8
GRAU_10_
 62
     7
100
AcDbVertex
100
AcDb2dVertex
 10
176.7706054245573
 20
121.9947929925048
 30
0.0
  0
VERTEX
  5
1FE
330
1F8
100
AcDbEntity
  8
GRAU_10_
 62
     7
100
AcDbVertex
100
AcDb2dVertex
 10
176.7706054245573
 20
122.9249687735222
 30
0.0
  0
VERTEX
  5
1FF
330
1F8
100
AcDbEntity
  8
GRAU_10_
 62
     7
100
AcDbVertex
100
AcDb2dVertex
 10
176.7706054245573
 20
124.0367010866124
 30
0.0
  0
VERTEX
  5
200
330
1F8
100
AcDbEntity
  8
GRAU_10_
 62
     7
100
AcDbVertex
100
AcDb2dVertex
 10
176.7706054245573
 20
125.3129367091232
 30
0.0
  0
VERTEX
  5
201
330
1F8
100
AcDbEntity
  8
GRAU_10_
 62
     7
100
AcDbVertex
100
AcDb2dVertex
 10
176.7706054245573
 20
126.7385172209195
 30
0.0
  0
VERTEX
  5
202
330
1F8
100
AcDbEntity
  8
GRAU_10_
 62
     7
100
AcDbVertex
100
AcDb2dVertex
 10
176.7706054245573
 20
128.2929443038643
 30
0.0
  0
VERTEX
  5
203
330
1F8
100
AcDbEntity
  8
GRAU_10_
 62
     7
100
AcDbVertex
100
AcDb2dVertex
 10
176.7706054245573
 20
129.9558918945944
 30
0.0
  0
VERTEX
  5
204
330
1F8
100
AcDbEntity
  8
GRAU_10_
 62
     7
100
AcDbVertex
100
AcDb2dVertex
 10
176.7706054245573
 20
131.7046223629072
 30
0.0
  0
VERTEX
  5
205
330
1F8
100
AcDbEntity
  8
GRAU_10_
 62
     7
100
AcDbVertex
100
AcDb2dVertex
 10
176.7706054245573
 20
133.515020040406
 30
0.0
  0
VERTEX
  5
206
330
1F8
100
AcDbEntity
  8
GRAU_10_
 62
     7
100
AcDbVertex
100
AcDb2dVertex
 10
176.7706054245573
 20
135.362969258694
 30
0.0
  0
VERTEX
  5
207
330
1F8
100
AcDbEntity
  8
GRAU_10_
 62
     7
100
AcDbVertex
100
AcDb2dVertex
 10
176.7706054245573
 20
137.2234930755032
 30
0.0
  0
VERTEX
  5
208
330
1F8
100
AcDbEntity
  8
GRAU_10_
 62
     7
100
AcDbVertex
100
AcDb2dVertex
 10
176.7706054245573
 20
139.0712700390169
 30
0.0
  0
VERTEX
  5
209
330
1F8
100
AcDbEntity
  8
GRAU_10_
 62
     7
100
AcDbVertex
100
AcDb2dVertex
 10
176.7706054245573
 20
140.8821844808385
 30
0.0
  0
VERTEX
  5
20A
330
1F8
100
AcDbEntity
  8
GRAU_10_
 62
     7
100
AcDbVertex
100
AcDb2dVertex
 10
176.7706054245573
 20
142.6305704396028
 30
0.0
  0
VERTEX
  5
20B
330
1F8
100
AcDbEntity
  8
GRAU_10_
 62
     7
100
AcDbVertex
100
AcDb2dVertex
 10
176.7706054245573
 20
144.2928290112358
 30
0.0
  0
VERTEX
  5
20C
330
1F8
100
AcDbEntity
  8
GRAU_10_
 62
     7
100
AcDbVertex
100
AcDb2dVertex
 10
176.7706054245573
 20
145.8477728585033
 30
0.0
  0
VERTEX
  5
20D
330
1F8
100
AcDbEntity
  8
GRAU_10_
 62
     7
100
AcDbVertex
100
AcDb2dVertex
 10
176.7706054245573
 20
147.2726643512027
 30
0.0
  0
VERTEX
  5
20E
330
1F8
100
AcDbEntity
  8
GRAU_10_
 62
     7
100
AcDbVertex
100
AcDb2dVertex
 10
176.7706054245573
 20
148.5497612475848
 30
0.0
  0
VERTEX
  5
20F
330
1F8
100
AcDbEntity
  8
GRAU_10_
 62
     7
100
AcDbVertex
100
AcDb2dVertex
 10
176.7706054245573
 20
149.6606322868036
 30
0.0
  0
VERTEX
  5
210
330
1F8
100
AcDbEntity
  8
GRAU_10_
 62
     7
100
AcDbVertex
100
AcDb2dVertex
 10
176.7706054245573
 20
150.5909803225953
 30
0.0
  0
VERTEX
  5
211
330
1F8
100
AcDbEntity
  8
GRAU_10_
 62
     7
100
AcDbVertex
100
AcDb2dVertex
 10
176.7706054245573
 20
151.3278862468902
 30
0.0
  0
VERTEX
  5
212
330
1F8
100
AcDbEntity
  8
GRAU_10_
 62
     7
100
AcDbVertex
100
AcDb2dVertex
 10
176.7706054245573
 20
151.8620483018782
 30
0.0
  0
VERTEX
  5
213
330
1F8
100
AcDbEntity
  8
GRAU_10_
 62
     7
100
AcDbVertex
100
AcDb2dVertex
 10
176.7706054245573
 20
152.1851982583947
 30
0.0
  0
VERTEX
  5
214
330
1F8
100
AcDbEntity
  8
GRAU_10_
 62
     7
100
AcDbVertex
100
AcDb2dVertex
 10
176.7706054245573
 20
152.293029747083
 30
0.0
  0
SEQEND
  5
215
330
1F8
100
AcDbEntity
  8
GRAU_10_
  0
POLYLINE
  5
216
330
1F
100
AcDbEntity
  8
GRAU_10_
 62
     7
100
AcDb2dPolyline
 66
     1
 10
0.0
 20
0.0
 30
0.0
  0
VERTEX
  5
217
330
216
100
AcDbEntity
  8
GRAU_10_
 62
     7
100
AcDbVertex
100
AcDb2dVertex
 10
151.7705810167449
 20
113.793398680319
 30
0.0
  0
VERTEX
  5
218
330
216
100
AcDbEntity
  8
GRAU_10_
 62
     7
100
AcDbVertex
100
AcDb2dVertex
 10
151.7705810167449
 20
113.8953735066824
 30
0.0
  0
VERTEX
  5
219
330
216
100
AcDbEntity
  8
GRAU_10_
 62
     7
100
AcDbVertex
100
AcDb2dVertex
 10
151.7705810167449
 20
114.1997476928042
 30
0.0
  0
VERTEX
  5
21A
330
216
100
AcDbEntity
  8
GRAU_10_
 62
     7
100
AcDbVertex
100
AcDb2dVertex
 10
151.7705810167449
 20
114.7042819266191
 30
0.0
  0
VERTEX
  5
21B
330
216
100
AcDbEntity
  8
GRAU_10_
 62
     7
100
AcDbVertex
100
AcDb2dVertex
 10
151.7705810167449
 20
115.4048420935446
 30
0.0
  0
VERTEX
  5
21C
330
216
100
AcDbEntity
  8
GRAU_10_
 62
     7
100
AcDbVertex
100
AcDb2dVertex
 10
151.7705810167449
 20
116.2941934930619
 30
0.0
  0
VERTEX
  5
21D
330
216
100
AcDbEntity
  8
GRAU_10_
 62
     7
100
AcDbVertex
100
AcDb2dVertex
 10
151.7705810167449
 20
117.3652736794261
 30
0.0
  0
VERTEX
  5
21E
330
216
100
AcDbEntity
  8
GRAU_10_
 62
     7
100
AcDbVertex
100
AcDb2dVertex
 10
151.7705810167449
 20
118.6070583470843
 30
0.0
  0
VERTEX
  5
21F
330
216
100
AcDbEntity
  8
GRAU_10_
 62
     7
100
AcDbVertex
100
AcDb2dVertex
 10
151.7705810167449
 20
120.0093844643553
 30
0.0
  0
VERTEX
  5
220
330
216
100
AcDbEntity
  8
GRAU_10_
 62
     7
100
AcDbVertex
100
AcDb2dVertex
 10
151.7705810167449
 20
121.5591606683949
 30
0.0
  0
VERTEX
  5
221
330
216
100
AcDbEntity
  8
GRAU_10_
 62
     7
100
AcDbVertex
100
AcDb2dVertex
 10
151.7705810167449
 20
123.2422620677137
 30
0.0
  0
VERTEX
  5
222
330
216
100
AcDbEntity
  8
GRAU_10_
 62
     7
100
AcDbVertex
100
AcDb2dVertex
 10
151.7705810167449
 20
125.0435302421766
 30
0.0
  0
VERTEX
  5
223
330
216
100
AcDbEntity
  8
GRAU_10_
 62
     7
100
AcDbVertex
100
AcDb2dVertex
 10
151.7705810167449
 20
126.9464287334544
 30
0.0
  0
VERTEX
  5
224
330
216
100
AcDbEntity
  8
GRAU_10_
 62
     7
100
AcDbVertex
100
AcDb2dVertex
 10
151.7705810167449
 20
128.9342488284435
 30
0.0
  0
VERTEX
  5
225
330
216
100
AcDbEntity
  8
GRAU_10_
 62
     7
100
AcDbVertex
100
AcDb2dVertex
 10
151.7705810167449
 20
130.9889037758465
 30
0.0
  0
VERTEX
  5
226
330
216
100
AcDbEntity
  8
GRAU_10_
 62
     7
100
AcDbVertex
100
AcDb2dVertex
 10
151.7705810167449
 20
133.091101040946
 30
0.0
  0
VERTEX
  5
227
330
216
100
AcDbEntity
  8
GRAU_10_
 62
     7
100
AcDbVertex
100
AcDb2dVertex
 10
151.7705810167449
 20
135.2229261272186
 30
0.0
  0
VERTEX
  5
228
330
216
100
AcDbEntity
  8
GRAU_10_
 62
     7
100
AcDbVertex
100
AcDb2dVertex
 10
151.7705810167449
 20
137.3635362069786
 30
0.0
  0
VERTEX
  5
229
330
216
100
AcDbEntity
  8
GRAU_10_
 62
     7
100
AcDbVertex
100
AcDb2dVertex
 10
151.7705810167449
 20
139.4953612932512
 30
0.0
  0
VERTEX
  5
22A
330
216
100
AcDbEntity
  8
GRAU_10_
 62
     7
100
AcDbVertex
100
AcDb2dVertex
 10
151.7705810167449
 20
141.5975585583506
 30
0.0
  0
VERTEX
  5
22B
330
216
100
AcDbEntity
  8
GRAU_10_
 62
     7
100
AcDbVertex
100
AcDb2dVertex
 10
151.7705810167449
 20
143.6525580153021
 30
0.0
  0
VERTEX
  5
22C
330
216
100
AcDbEntity
  8
GRAU_10_
 62
     7
100
AcDbVertex
100
AcDb2dVertex
 10
151.7705810167449
 20
145.6400336007428
 30
0.0
  0
VERTEX
  5
22D
330
216
100
AcDbEntity
  8
GRAU_10_
 62
     7
100
AcDbVertex
100
AcDb2dVertex
 10
151.7705810167449
 20
147.5432766015691
 30
0.0
  0
VERTEX
  5
22E
330
216
100
AcDbEntity
  8
GRAU_10_
 62
     7
100
AcDbVertex
100
AcDb2dVertex
 10
151.7705810167449
 20
149.3445447760319
 30
0.0
  0
VERTEX
  5
22F
330
216
100
AcDbEntity
  8
GRAU_10_
 62
     7
100
AcDbVertex
100
AcDb2dVertex
 10
151.7705810167449
 20
151.0276461753507
 30
0.0
  0
VERTEX
  5
230
330
216
100
AcDbEntity
  8
GRAU_10_
 62
     7
100
AcDbVertex
100
AcDb2dVertex
 10
151.7705810167449
 20
152.5770778698418
 30
0.0
  0
VERTEX
  5
231
330
216
100
AcDbEntity
  8
GRAU_10_
 62
     7
100
AcDbVertex
100
AcDb2dVertex
 10
151.7705810167449
 20
153.9790594775643
 30
0.0
  0
VERTEX
  5
232
330
216
100
AcDbEntity
  8
GRAU_10_
 62
     7
100
AcDbVertex
100
AcDb2dVertex
 10
151.7705810167449
 20
155.2211886547711
 30
0.0
  0
VERTEX
  5
233
330
216
100
AcDbEntity
  8
GRAU_10_
 62
     7
100
AcDbVertex
100
AcDb2dVertex
 10
151.7705810167449
 20
156.292096586361
 30
0.0
  0
VERTEX
  5
234
330
216
100
AcDbEntity
  8
GRAU_10_
 62
     7
100
AcDbVertex
100
AcDb2dVertex
 10
151.7705810167449
 20
157.181275731104
 30
0.0
  0
VERTEX
  5
235
330
216
100
AcDbEntity
  8
GRAU_10_
 62
     7
100
AcDbVertex
100
AcDb2dVertex
 10
151.7705810167449
 20
157.881491388481
 30
0.0
  0
VERTEX
  5
236
330
216
100
AcDbEntity
  8
GRAU_10_
 62
     7
100
AcDbVertex
100
AcDb2dVertex
 10
151.7705810167449
 20
158.3861978770701
 30
0.0
  0
VERTEX
  5
237
330
216
100
AcDbEntity
  8
GRAU_10_
 62
     7
100
AcDbVertex
100
AcDb2dVertex
 10
151.7705810167449
 20
158.6914333370633
 30
0.0
  0
VERTEX
  5
238
330
216
100
AcDbEntity
  8
GRAU_10_
 62
     7
100
AcDbVertex
100
AcDb2dVertex
 10
151.7705810167449
 20
158.7930636538781
 30
0.0
  0
SEQEND
  5
239
330
216
100
AcDbEntity
  8
GRAU_10_
  0
POLYLINE
  5
23A
330
1F
100
AcDbEntity
  8
GRAU_10_
 62
     7
100
AcDb2dPolyline
 66
     1
 10
0.0
 20
0.0
 30
0.0
  0
VERTEX
  5
23B
330
23A
100
AcDbEntity
  8
GRAU_10_
 62
     7
100
AcDbVertex
100
AcDb2dVertex
 10
161.7704874270053
 20
113.793398680319
 30
0.0
  0
VERTEX
  5
23C
330
23A
100
AcDbEntity
  8
GRAU_10_
 62
     7
100
AcDbVertex
100
AcDb2dVertex
 10
161.7704874270053
 20
113.8953735066824
 30
0.0
  0
VERTEX
  5
23D
330
23A
100
AcDbEntity
  8
GRAU_10_
 62
     7
100
AcDbVertex
100
AcDb2dVertex
 10
161.7704874270053
 20
114.1997476928042
 30
0.0
  0
VERTEX
  5
23E
330
23A
100
AcDbEntity
  8
GRAU_10_
 62
     7
100
AcDbVertex
100
AcDb2dVertex
 10
161.7704874270053
 20
114.7042819266191
 30
0.0
  0
VERTEX
  5
23F
330
23A
100
AcDbEntity
  8
GRAU_10_
 62
     7
100
AcDbVertex
100
AcDb2dVertex
 10
161.7704874270053
 20
115.4048420935446
 30
0.0
  0
VERTEX
  5
240
330
23A
100
AcDbEntity
  8
GRAU_10_
 62
     7
100
AcDbVertex
100
AcDb2dVertex
 10
161.7704874270053
 20
116.2941934930619
 30
0.0
  0
VERTEX
  5
241
330
23A
100
AcDbEntity
  8
GRAU_10_
 62
     7
100
AcDbVertex
100
AcDb2dVertex
 10
161.7704874270053
 20
117.3652736794261
 30
0.0
  0
VERTEX
  5
242
330
23A
100
AcDbEntity
  8
GRAU_10_
 62
     7
100
AcDbVertex
100
AcDb2dVertex
 10
161.7704874270053
 20
118.6070583470843
 30
0.0
  0
VERTEX
  5
243
330
23A
100
AcDbEntity
  8
GRAU_10_
 62
     7
100
AcDbVertex
100
AcDb2dVertex
 10
161.7704874270053
 20
120.0093844643553
 30
0.0
  0
VERTEX
  5
244
330
23A
100
AcDbEntity
  8
GRAU_10_
 62
     7
100
AcDbVertex
100
AcDb2dVertex
 10
161.7704874270053
 20
121.5591606683949
 30
0.0
  0
VERTEX
  5
245
330
23A
100
AcDbEntity
  8
GRAU_10_
 62
     7
100
AcDbVertex
100
AcDb2dVertex
 10
161.7704874270053
 20
123.2422620677137
 30
0.0
  0
VERTEX
  5
246
330
23A
100
AcDbEntity
  8
GRAU_10_
 62
     7
100
AcDbVertex
100
AcDb2dVertex
 10
161.7704874270053
 20
125.0435302421766
 30
0.0
  0
VERTEX
  5
247
330
23A
100
AcDbEntity
  8
GRAU_10_
 62
     7
100
AcDbVertex
100
AcDb2dVertex
 10
161.7704874270053
 20
126.9464287334544
 30
0.0
  0
VERTEX
  5
248
330
23A
100
AcDbEntity
  8
GRAU_10_
 62
     7
100
AcDbVertex
100
AcDb2dVertex
 10
161.7704874270053
 20
128.9342488284435
 30
0.0
  0
VERTEX
  5
249
330
23A
100
AcDbEntity
  8
GRAU_10_
 62
     7
100
AcDbVertex
100
AcDb2dVertex
 10
161.7704874270053
 20
130.9889037758465
 30
0.0
  0
VERTEX
  5
24A
330
23A
100
AcDbEntity
  8
GRAU_10_
 62
     7
100
AcDbVertex
100
AcDb2dVertex
 10
161.7704874270053
 20
133.091101040946
 30
0.0
  0
VERTEX
  5
24B
330
23A
100
AcDbEntity
  8
GRAU_10_
 62
     7
100
AcDbVertex
100
AcDb2dVertex
 10
161.7704874270053
 20
135.2229261272186
 30
0.0
  0
VERTEX
  5
24C
330
23A
100
AcDbEntity
  8
GRAU_10_
 62
     7
100
AcDbVertex
100
AcDb2dVertex
 10
161.7704874270053
 20
137.3635362069786
 30
0.0
  0
VERTEX
  5
24D
330
23A
100
AcDbEntity
  8
GRAU_10_
 62
     7
100
AcDbVertex
100
AcDb2dVertex
 10
161.7704874270053
 20
139.4953612932512
 30
0.0
  0
VERTEX
  5
24E
330
23A
100
AcDbEntity
  8
GRAU_10_
 62
     7
100
AcDbVertex
100
AcDb2dVertex
 10
161.7704874270053
 20
141.5975585583506
 30
0.0
  0
VERTEX
  5
24F
330
23A
100
AcDbEntity
  8
GRAU_10_
 62
     7
100
AcDbVertex
100
AcDb2dVertex
 10
161.7704874270053
 20
143.6525580153021
 30
0.0
  0
VERTEX
  5
250
330
23A
100
AcDbEntity
  8
GRAU_10_
 62
     7
100
AcDbVertex
100
AcDb2dVertex
 10
161.7704874270053
 20
145.6400336007428
 30
0.0
  0
VERTEX
  5
251
330
23A
100
AcDbEntity
  8
GRAU_10_
 62
     7
100
AcDbVertex
100
AcDb2dVertex
 10
161.7704874270053
 20
147.5432766015691
 30
0.0
  0
VERTEX
  5
252
330
23A
100
AcDbEntity
  8
GRAU_10_
 62
     7
100
AcDbVertex
100
AcDb2dVertex
 10
161.7704874270053
 20
149.3445447760319
 30
0.0
  0
VERTEX
  5
253
330
23A
100
AcDbEntity
  8
GRAU_10_
 62
     7
100
AcDbVertex
100
AcDb2dVertex
 10
161.7704874270053
 20
151.0276461753507
 30
0.0
  0
VERTEX
  5
254
330
23A
100
AcDbEntity
  8
GRAU_10_
 62
     7
100
AcDbVertex
100
AcDb2dVertex
 10
161.7704874270053
 20
152.5770778698418
 30
0.0
  0
VERTEX
  5
255
330
23A
100
AcDbEntity
  8
GRAU_10_
 62
     7
100
AcDbVertex
100
AcDb2dVertex
 10
161.7704874270053
 20
153.9790594775643
 30
0.0
  0
VERTEX
  5
256
330
23A
100
AcDbEntity
  8
GRAU_10_
 62
     7
100
AcDbVertex
100
AcDb2dVertex
 10
161.7704874270053
 20
155.2211886547711
 30
0.0
  0
VERTEX
  5
257
330
23A
100
AcDbEntity
  8
GRAU_10_
 62
     7
100
AcDbVertex
100
AcDb2dVertex
 10
161.7704874270053
 20
156.292096586361
 30
0.0
  0
VERTEX
  5
258
330
23A
100
AcDbEntity
  8
GRAU_10_
 62
     7
100
AcDbVertex
100
AcDb2dVertex
 10
161.7704874270053
 20
157.181275731104
 30
0.0
  0
VERTEX
  5
259
330
23A
100
AcDbEntity
  8
GRAU_10_
 62
     7
100
AcDbVertex
100
AcDb2dVertex
 10
161.7704874270053
 20
157.881491388481
 30
0.0
  0
VERTEX
  5
25A
330
23A
100
AcDbEntity
  8
GRAU_10_
 62
     7
100
AcDbVertex
100
AcDb2dVertex
 10
161.7704874270053
 20
158.3861978770701
 30
0.0
  0
VERTEX
  5
25B
330
23A
100
AcDbEntity
  8
GRAU_10_
 62
     7
100
AcDbVertex
100
AcDb2dVertex
 10
161.7704874270053
 20
158.6914333370633
 30
0.0
  0
VERTEX
  5
25C
330
23A
100
AcDbEntity
  8
GRAU_10_
 62
     7
100
AcDbVertex
100
AcDb2dVertex
 10
161.7704874270053
 20
158.7930636538781
 30
0.0
  0
SEQEND
  5
25D
330
23A
100
AcDbEntity
  8
GRAU_10_
  0
POLYLINE
  5
25E
330
1F
100
AcDbEntity
  8
GRAU_10_
 62
     7
100
AcDb2dPolyline
 66
     1
 10
0.0
 20
0.0
 30
0.0
  0
VERTEX
  5
25F
330
25E
100
AcDbEntity
  8
GRAU_10_
 62
     7
100
AcDbVertex
100
AcDb2dVertex
 10
-8.228955076067761
 20
124.7934163099475
 30
0.0
  0
VERTEX
  5
260
330
25E
100
AcDbEntity
  8
GRAU_10_
 62
     7
100
AcDbVertex
100
AcDb2dVertex
 10
-8.228955076067761
 20
124.9002142699902
 30
0.0
  0
VERTEX
  5
261
330
25E
100
AcDbEntity
  8
GRAU_10_
 62
     7
100
AcDbVertex
100
AcDb2dVertex
 10
-8.228955076067761
 20
125.2199191310214
 30
0.0
  0
VERTEX
  5
262
330
25E
100
AcDbEntity
  8
GRAU_10_
 62
     7
100
AcDbVertex
100
AcDb2dVertex
 10
-8.228955076067761
 20
125.7454684472963
 30
0.0
  0
VERTEX
  5
263
330
25E
100
AcDbEntity
  8
GRAU_10_
 62
     7
100
AcDbVertex
100
AcDb2dVertex
 10
-8.228955076067761
 20
126.4672159514561
 30
0.0
  0
VERTEX
  5
264
330
25E
100
AcDbEntity
  8
GRAU_10_
 62
     7
100
AcDbVertex
100
AcDb2dVertex
 10
-8.228955076067761
 20
127.3722425354313
 30
0.0
  0
VERTEX
  5
265
330
25E
100
AcDbEntity
  8
GRAU_10_
 62
     7
100
AcDbVertex
100
AcDb2dVertex
 10
-8.228955076067761
 20
128.4438394861182
 30
0.0
  0
VERTEX
  5
266
330
25E
100
AcDbEntity
  8
GRAU_10_
 62
     7
100
AcDbVertex
100
AcDb2dVertex
 10
-8.228955076067761
 20
129.660991721057
 30
0.0
  0
VERTEX
  5
267
330
25E
100
AcDbEntity
  8
GRAU_10_
 62
     7
100
AcDbVertex
100
AcDb2dVertex
 10
-8.228955076067761
 20
131.0026841577875
 30
0.0
  0
VERTEX
  5
268
330
25E
100
AcDbEntity
  8
GRAU_10_
 62
     7
100
AcDbVertex
100
AcDb2dVertex
 10
-8.228955076067761
 20
132.4422173062992
 30
0.0
  0
VERTEX
  5
269
330
25E
100
AcDbEntity
  8
GRAU_10_
 62
     7
100
AcDbVertex
100
AcDb2dVertex
 10
-8.228955076067761
 20
133.9535806956783
 30
0.0
  0
VERTEX
  5
26A
330
25E
100
AcDbEntity
  8
GRAU_10_
 62
     7
100
AcDbVertex
100
AcDb2dVertex
 10
-8.228955076067761
 20
135.5083522881715
 30
0.0
  0
VERTEX
  5
26B
330
25E
100
AcDbEntity
  8
GRAU_10_
 62
     7
100
AcDbVertex
100
AcDb2dVertex
 10
-8.228955076067761
 20
137.0777655364771
 30
0.0
  0
VERTEX
  5
26C
330
25E
100
AcDbEntity
  8
GRAU_10_
 62
     7
100
AcDbVertex
100
AcDb2dVertex
 10
-8.228955076067761
 20
138.6332261480674
 30
0.0
  0
VERTEX
  5
26D
330
25E
100
AcDbEntity
  8
GRAU_10_
 62
     7
100
AcDbVertex
100
AcDb2dVertex
 10
-8.228955076067761
 20
140.1440727731237
 30
0.0
  0
VERTEX
  5
26E
330
25E
100
AcDbEntity
  8
GRAU_10_
 62
     7
100
AcDbVertex
100
AcDb2dVertex
 10
-8.228955076067761
 20
141.5841226859581
 30
0.0
  0
VERTEX
  5
26F
330
25E
100
AcDbEntity
  8
GRAU_10_
 62
     7
100
AcDbVertex
100
AcDb2dVertex
 10
-8.228955076067761
 20
142.9247815940431
 30
0.0
  0
VERTEX
  5
270
330
25E
100
AcDbEntity
  8
GRAU_10_
 62
     7
100
AcDbVertex
100
AcDb2dVertex
 10
-8.228955076067761
 20
144.1424505933047
 30
0.0
  0
VERTEX
  5
271
330
25E
100
AcDbEntity
  8
GRAU_10_
 62
     7
100
AcDbVertex
100
AcDb2dVertex
 10
-8.228955076067761
 20
145.2135307796688
 30
0.0
  0
VERTEX
  5
272
330
25E
100
AcDbEntity
  8
GRAU_10_
 62
     7
100
AcDbVertex
100
AcDb2dVertex
 10
-8.228955076067761
 20
146.1187296184182
 30
0.0
  0
VERTEX
  5
273
330
25E
100
AcDbEntity
  8
GRAU_10_
 62
     7
100
AcDbVertex
100
AcDb2dVertex
 10
-8.228955076067761
 20
146.8409938869009
 30
0.0
  0
VERTEX
  5
274
330
25E
100
AcDbEntity
  8
GRAU_10_
 62
     7
100
AcDbVertex
100
AcDb2dVertex
 10
-8.228955076067761
 20
147.3668877127243
 30
0.0
  0
VERTEX
  5
275
330
25E
100
AcDbEntity
  8
GRAU_10_
 62
     7
100
AcDbVertex
100
AcDb2dVertex
 10
-8.228955076067761
 20
147.6859035546584
 30
0.0
  0
VERTEX
  5
276
330
25E
100
AcDbEntity
  8
GRAU_10_
 62
     7
100
AcDbVertex
100
AcDb2dVertex
 10
-8.228955076067761
 20
147.7933905337982
 30
0.0
  0
SEQEND
  5
277
330
25E
100
AcDbEntity
  8
GRAU_10_
  0
POLYLINE
  5
278
330
1F
100
AcDbEntity
  8
GRAU_10_
 62
     7
100
AcDb2dPolyline
 66
     1
 10
0.0
 20
0.0
 30
0.0
  0
VERTEX
  5
279
330
278
100
AcDbEntity
  8
GRAU_10_
 62
     7
100
AcDbVertex
100
AcDb2dVertex
 10
-7.229532875796783
 20
136.2931450397114
 30
0.0
  0
VERTEX
  5
27A
330
278
100
AcDbEntity
  8
GRAU_10_
 62
     7
100
AcDbVertex
100
AcDb2dVertex
 10
-7.229532875796783
 20
134.6615478178971
 30
0.0
  0
VERTEX
  5
27B
330
278
100
AcDbEntity
  8
GRAU_10_
 62
     7
100
AcDbVertex
100
AcDb2dVertex
 10
-7.229532875796783
 20
133.0582003790618
 30
0.0
  0
VERTEX
  5
27C
330
278
100
AcDbEntity
  8
GRAU_10_
 62
     7
100
AcDbVertex
100
AcDb2dVertex
 10
-7.229532875796783
 20
131.5094577036678
 30
0.0
  0
VERTEX
  5
27D
330
278
100
AcDbEntity
  8
GRAU_10_
 62
     7
100
AcDbVertex
100
AcDb2dVertex
 10
-7.229532875796783
 20
130.0433973199197
 30
0.0
  0
VERTEX
  5
27E
330
278
100
AcDbEntity
  8
GRAU_10_
 62
     7
100
AcDbVertex
100
AcDb2dVertex
 10
-7.229532875796783
 20
128.6837903866659
 30
0.0
  0
VERTEX
  5
27F
330
278
100
AcDbEntity
  8
GRAU_10_
 62
     7
100
AcDbVertex
100
AcDb2dVertex
 10
-7.229532875796783
 20
127.4544080627545
 30
0.0
  0
VERTEX
  5
280
330
278
100
AcDbEntity
  8
GRAU_10_
 62
     7
100
AcDbVertex
100
AcDb2dVertex
 10
-7.229532875796783
 20
126.375920921097
 30
0.0
  0
VERTEX
  5
281
330
278
100
AcDbEntity
  8
GRAU_10_
 62
     7
100
AcDbVertex
100
AcDb2dVertex
 10
-7.229532875796783
 20
125.4674492416366
 30
0.0
  0
VERTEX
  5
282
330
278
100
AcDbEntity
  8
GRAU_10_
 62
     7
100
AcDbVertex
100
AcDb2dVertex
 10
-7.229532875796783
 20
124.7443236992827
 30
0.0
  0
VERTEX
  5
283
330
278
100
AcDbEntity
  8
GRAU_10_
 62
     7
100
AcDbVertex
100
AcDb2dVertex
 10
-7.229532875796783
 20
124.2191188925563
 30
0.0
  0
VERTEX
  5
284
330
278
100
AcDbEntity
  8
GRAU_10_
 62
     7
100
AcDbVertex
100
AcDb2dVertex
 10
-7.229532875796783
 20
123.9001030506222
 30
0.0
  0
VERTEX
  5
285
330
278
100
AcDbEntity
  8
GRAU_10_
 62
     7
100
AcDbVertex
100
AcDb2dVertex
 10
-7.229532875796783
 20
123.7933050905795
 30
0.0
  0
SEQEND
  5
286
330
278
100
AcDbEntity
  8
GRAU_10_
  0
POLYLINE
  5
287
330
1F
100
AcDbEntity
  8
GRAU_10_
 62
     7
100
AcDb2dPolyline
 66
     1
 10
0.0
 20
0.0
 30
0.0
  0
VERTEX
  5
288
330
287
100
AcDbEntity
  8
GRAU_10_
 62
     7
100
AcDbVertex
100
AcDb2dVertex
 10
-7.229532875796783
 20
148.7931572436177
 30
0.0
  0
VERTEX
  5
289
330
287
100
AcDbEntity
  8
GRAU_10_
 62
     7
100
AcDbVertex
100
AcDb2dVertex
 10
-7.229532875796783
 20
148.6863592835749
 30
0.0
  0
VERTEX
  5
28A
330
287
100
AcDbEntity
  8
GRAU_10_
 62
     7
100
AcDbVertex
100
AcDb2dVertex
 10
-7.229532875796783
 20
148.3673434416408
 30
0.0
  0
VERTEX
  5
28B
330
287
100
AcDbEntity
  8
GRAU_10_
 62
     7
100
AcDbVertex
100
AcDb2dVertex
 10
-7.229532875796783
 20
147.8417941253659
 30
0.0
  0
VERTEX
  5
28C
330
287
100
AcDbEntity
  8
GRAU_10_
 62
     7
100
AcDbVertex
100
AcDb2dVertex
 10
-7.229532875796783
 20
147.1181518186892
 30
0.0
  0
VERTEX
  5
28D
330
287
100
AcDbEntity
  8
GRAU_10_
 62
     7
100
AcDbVertex
100
AcDb2dVertex
 10
-7.229532875796783
 20
146.2101969035516
 30
0.0
  0
VERTEX
  5
28E
330
287
100
AcDbEntity
  8
GRAU_10_
 62
     7
100
AcDbVertex
100
AcDb2dVertex
 10
-7.229532875796783
 20
145.1320542714427
 30
0.0
  0
VERTEX
  5
28F
330
287
100
AcDbEntity
  8
GRAU_10_
 62
     7
100
AcDbVertex
100
AcDb2dVertex
 10
-7.229532875796783
 20
143.9026719475313
 30
0.0
  0
VERTEX
  5
290
330
287
100
AcDbEntity
  8
GRAU_10_
 62
     7
100
AcDbVertex
100
AcDb2dVertex
 10
-7.229532875796783
 20
142.543409523826
 30
0.0
  0
VERTEX
  5
291
330
287
100
AcDbEntity
  8
GRAU_10_
 62
     7
100
AcDbVertex
100
AcDb2dVertex
 10
-7.229532875796783
 20
141.0768323757551
 30
0.0
  0
VERTEX
  5
292
330
287
100
AcDbEntity
  8
GRAU_10_
 62
     7
100
AcDbVertex
100
AcDb2dVertex
 10
-7.229532875796783
 20
139.5286064646838
 30
0.0
  0
VERTEX
  5
293
330
287
100
AcDbEntity
  8
GRAU_10_
 62
     7
100
AcDbVertex
100
AcDb2dVertex
 10
-7.229532875796783
 20
137.9247422615258
 30
0.0
  0
VERTEX
  5
294
330
287
100
AcDbEntity
  8
GRAU_10_
 62
     7
100
AcDbVertex
100
AcDb2dVertex
 10
-7.229532875796783
 20
136.2931450397114
 30
0.0
  0
SEQEND
  5
295
330
287
100
AcDbEntity
  8
GRAU_10_
  0
SPLINE
  5
296
330
1F
100
AcDbEntity
  8
GRAU_10_
 62
     7
100
AcDbSpline
210
0.0
220
0.0
230
1.0
 70
    11
 71
     3
 72
    17
 73
    13
 74
     0
 42
0.0000000001
 43
0.0000000001
 40
0.0
 40
0.0
 40
0.0
 40
0.0
 40
1.0
 40
1.0
 40
1.0
 40
2.0
 40
2.0
 40
2.0
 40
3.0
 40
3.0
 40
3.0
 40
4.0
 40
4.0
 40
4.0
 40
4.0
 10
285.6869546811824
 20
221.0181199262993
 30
0.0
 10
285.6869546811824
 20
233.4439764498856
 30
0.0
 10
275.6133232275376
 20
243.5179524130789
 30
0.0
 10
263.18720832179
 20
243.5179524130789
 30
0.0
 10
250.7612656708166
 20
243.5179524130789
 30
0.0
 10
240.6869451980748
 20
233.4439764498856
 30
0.0
 10
240.6869451980748
 20
221.0181199262993
 30
0.0
 10
240.6869451980748
 20
208.5914882562289
 30
0.0
 10
250.7612656708166
 20
198.5175984204227
 30
0.0
 10
263.18720832179
 20
198.5175984204227
 30
0.0
 10
275.6133232275376
 20
198.5175984204227
 30
0.0
 10
285.6869546811824
 20
208.5914882562289
 30
0.0
 10
285.6869546811824
 20
221.0181199262993
 30
0.0
  0
SPLINE
  5
297
330
1F
100
AcDbEntity
  8
GRAU_10_
 62
     7
100
AcDbSpline
210
0.0
220
0.0
230
1.0
 70
    11
 71
     3
 72
    17
 73
    13
 74
     0
 42
0.0000000001
 43
0.0000000001
 40
0.0
 40
0.0
 40
0.0
 40
0.0
 40
1.0
 40
1.0
 40
1.0
 40
2.0
 40
2.0
 40
2.0
 40
3.0
 40
3.0
 40
3.0
 40
4.0
 40
4.0
 40
4.0
 40
4.0
 10
274.6874538158768
 20
221.0181199262993
 30
0.0
 10
274.6874538158768
 20
227.3688089438089
 30
0.0
 10
269.5385863583966
 20
232.5175902739019
 30
0.0
 10
263.18720832179
 20
232.5175902739019
 30
0.0
 10
256.836174794732
 20
232.5175902739019
 30
0.0
 10
251.6873073372518
 20
227.3688089438089
 30
0.0
 10
251.6873073372518
 20
221.0181199262993
 30
0.0
 10
251.6873073372518
 20
214.6666557623056
 30
0.0
 10
256.836174794732
 20
209.517529922664
 30
0.0
 10
263.18720832179
 20
209.517529922664
 30
0.0
 10
269.5385863583966
 20
209.517529922664
 30
0.0
 10
274.6874538158768
 20
214.6666557623056
 30
0.0
 10
274.6874538158768
 20
221.0181199262993
 30
0.0
  0
SPLINE
  5
298
330
1F
100
AcDbEntity
  8
GRAU_10_
 62
     7
100
AcDbSpline
210
0.0
220
0.0
230
1.0
 70
    11
 71
     3
 72
    17
 73
    13
 74
     0
 42
0.0000000001
 43
0.0000000001
 40
0.0
 40
0.0
 40
0.0
 40
0.0
 40
1.0
 40
1.0
 40
1.0
 40
2.0
 40
2.0
 40
2.0
 40
3.0
 40
3.0
 40
3.0
 40
4.0
 40
4.0
 40
4.0
 40
4.0
 10
266.1871974703456
 20
221.0181199262993
 30
0.0
 10
266.1871974703456
 20
222.6744357082203
 30
0.0
 10
264.8437824858724
 20
224.0177645653063
 30
0.0
 10
263.18720832179
 20
224.0177645653063
 30
0.0
 10
261.5301173933848
 20
224.0177645653063
 30
0.0
 10
260.187563682783
 20
222.6744357082203
 30
0.0
 10
260.187563682783
 20
221.0181199262993
 30
0.0
 10
260.187563682783
 20
219.3611151252813
 30
0.0
 10
261.5301173933848
 20
218.0180446503566
 30
0.0
 10
263.18720832179
 20
218.0180446503566
 30
0.0
 10
264.8437824858724
 20
218.0180446503566
 30
0.0
 10
266.1871974703456
 20
219.3611151252813
 30
0.0
 10
266.1871974703456
 20
221.0181199262993
 30
0.0
  0
SPLINE
  5
299
330
1F
100
AcDbEntity
  8
GRAU_10_
 62
     7
100
AcDbSpline
210
0.0
220
0.0
230
1.0
 70
    11
 71
     3
 72
    17
 73
    13
 74
     0
 42
0.0000000001
 43
0.0000000001
 40
0.0
 40
0.0
 40
0.0
 40
0.0
 40
1.0
 40
1.0
 40
1.0
 40
2.0
 40
2.0
 40
2.0
 40
3.0
 40
3.0
 40
3.0
 40
4.0
 40
4.0
 40
4.0
 40
4.0
 10
275.6872205256963
 20
221.0181199262993
 30
0.0
 10
275.6872205256963
 20
227.9213161322558
 30
0.0
 10
270.0906629099079
 20
233.5180460028184
 30
0.0
 10
263.18720832179
 20
233.5180460028184
 30
0.0
 10
256.2837537336721
 20
233.5180460028184
 30
0.0
 10
250.6868516083352
 20
227.9213161322558
 30
0.0
 10
250.6868516083352
 20
221.0181199262993
 30
0.0
 10
250.6868516083352
 20
214.1142347012457
 30
0.0
 10
256.2837537336721
 20
208.518107722393
 30
0.0
 10
263.18720832179
 20
208.518107722393
 30
0.0
 10
270.0906629099079
 20
208.518107722393
 30
0.0
 10
275.6872205256963
 20
214.1142347012457
 30
0.0
 10
275.6872205256963
 20
221.0181199262993
 30
0.0
  0
POLYLINE
  5
29C
330
1F
100
AcDbEntity
  8
BEMAßUNG
 62
     7
100
AcDb2dPolyline
 66
     1
 10
0.0
 20
0.0
 30
0.0
  0
VERTEX
  5
29D
330
29C
100
AcDbEntity
  8
BEMAßUNG
 62
     7
100
AcDbVertex
100
AcDb2dVertex
 10
161.7704874270053
 20
243.5179524130789
 30
0.0
  0
VERTEX
  5
29E
330
29C
100
AcDbEntity
  8
BEMAßUNG
 62
     7
100
AcDbVertex
100
AcDb2dVertex
 10
212.4082234169501
 20
243.5179524130789
 30
0.0
  0
SEQEND
  5
29F
330
29C
100
AcDbEntity
  8
BEMAßUNG
  0
POLYLINE
  5
2A0
330
1F
100
AcDbEntity
  8
BEMAßUNG
 62
     7
100
AcDb2dPolyline
 66
     1
 10
0.0
 20
0.0
 30
0.0
  0
VERTEX
  5
2A1
330
2A0
100
AcDbEntity
  8
BEMAßUNG
 62
     7
100
AcDbVertex
100
AcDb2dVertex
 10
161.7704874270053
 20
198.5175984204227
 30
0.0
  0
VERTEX
  5
2A2
330
2A0
100
AcDbEntity
  8
BEMAßUNG
 62
     7
100
AcDbVertex
100
AcDb2dVertex
 10
212.4082234169501
 20
198.5175984204227
 30
0.0
  0
SEQEND
  5
2A3
330
2A0
100
AcDbEntity
  8
BEMAßUNG
  0
POLYLINE
  5
2A4
330
1F
100
AcDbEntity
  8
BEMAßUNG
 62
     7
100
AcDb2dPolyline
 66
     1
 10
0.0
 20
0.0
 30
0.0
  0
VERTEX
  5
2A5
330
2A4
100
AcDbEntity
  8
BEMAßUNG
 62
     7
100
AcDbVertex
100
AcDb2dVertex
 10
210.4083454877625
 20
243.5179524130789
 30
0.0
  0
VERTEX
  5
2A6
330
2A4
100
AcDbEntity
  8
BEMAßUNG
 62
     7
100
AcDbVertex
100
AcDb2dVertex
 10
210.4083454877625
 20
198.5175984204227
 30
0.0
  0
SEQEND
  5
2A7
330
2A4
100
AcDbEntity
  8
BEMAßUNG
  0
POLYLINE
  5
2A8
330
1F
100
AcDbEntity
  8
BEMAßUNG
 62
     7
100
AcDb2dPolyline
 66
     1
 10
0.0
 20
0.0
 30
0.0
  0
VERTEX
  5
2A9
330
2A8
100
AcDbEntity
  8
BEMAßUNG
 62
     7
100
AcDbVertex
100
AcDb2dVertex
 10
210.4083454877625
 20
243.5179524130789
 30
0.0
  0
VERTEX
  5
2AA
330
2A8
100
AcDbEntity
  8
BEMAßUNG
 62
     7
100
AcDbVertex
100
AcDb2dVertex
 10
209.9479084761589
 20
240.0176492726779
 30
0.0
  0
VERTEX
  5
2AB
330
2A8
100
AcDbEntity
  8
BEMAßUNG
 62
     7
100
AcDbVertex
100
AcDb2dVertex
 10
210.8694715184632
 20
240.0176492726779
 30
0.0
  0
VERTEX
  5
2AC
330
2A8
100
AcDbEntity
  8
BEMAßUNG
 62
     7
100
AcDbVertex
100
AcDb2dVertex
 10
210.4083454877625
 20
243.5179524130789
 30
0.0
  0
SEQEND
  5
2AD
330
2A8
100
AcDbEntity
  8
BEMAßUNG
  0
POLYLINE
  5
2AE
330
1F
100
AcDbEntity
  8
BEMAßUNG
 62
     7
100
AcDb2dPolyline
 66
     1
 10
0.0
 20
0.0
 30
0.0
  0
VERTEX
  5
2AF
330
2AE
100
AcDbEntity
  8
BEMAßUNG
 62
     7
100
AcDbVertex
100
AcDb2dVertex
 10
209.9515258264184
 20
240.0176492726779
 30
0.0
  0
VERTEX
  5
2B0
330
2AE
100
AcDbEntity
  8
BEMAßUNG
 62
     7
100
AcDbVertex
100
AcDb2dVertex
 10
209.9515258264184
 20
240.0447793996242
 30
0.0
  0
SEQEND
  5
2B1
330
2AE
100
AcDbEntity
  8
BEMAßUNG
  0
POLYLINE
  5
2B2
330
1F
100
AcDbEntity
  8
BEMAßUNG
 62
     7
100
AcDb2dPolyline
 66
     1
 10
0.0
 20
0.0
 30
0.0
  0
VERTEX
  5
2B3
330
2B2
100
AcDbEntity
  8
BEMAßUNG
 62
     7
100
AcDbVertex
100
AcDb2dVertex
 10
209.9515258264184
 20
240.0176492726779
 30
0.0
  0
VERTEX
  5
2B4
330
2B2
100
AcDbEntity
  8
BEMAßUNG
 62
     7
100
AcDbVertex
100
AcDb2dVertex
 10
209.9515258264184
 20
240.0447793996242
 30
0.0
  0
SEQEND
  5
2B5
330
2B2
100
AcDbEntity
  8
BEMAßUNG
  0
POLYLINE
  5
2B6
330
1F
100
AcDbEntity
  8
BEMAßUNG
 62
     7
100
AcDb2dPolyline
 66
     1
 10
0.0
 20
0.0
 30
0.0
  0
VERTEX
  5
2B7
330
2B6
100
AcDbEntity
  8
BEMAßUNG
 62
     7
100
AcDbVertex
100
AcDb2dVertex
 10
210.0023409848258
 20
240.0176492726779
 30
0.0
  0
VERTEX
  5
2B8
330
2B6
100
AcDbEntity
  8
BEMAßUNG
 62
     7
100
AcDbVertex
100
AcDb2dVertex
 10
210.0023409848258
 20
240.431146858295
 30
0.0
  0
SEQEND
  5
2B9
330
2B6
100
AcDbEntity
  8
BEMAßUNG
  0
POLYLINE
  5
2BA
330
1F
100
AcDbEntity
  8
BEMAßUNG
 62
     7
100
AcDb2dPolyline
 66
     1
 10
0.0
 20
0.0
 30
0.0
  0
VERTEX
  5
2BB
330
2BA
100
AcDbEntity
  8
BEMAßUNG
 62
     7
100
AcDbVertex
100
AcDb2dVertex
 10
210.052983888459
 20
240.0176492726779
 30
0.0
  0
VERTEX
  5
2BC
330
2BA
100
AcDbEntity
  8
BEMAßUNG
 62
     7
100
AcDbVertex
100
AcDb2dVertex
 10
210.052983888459
 20
240.8166530430944
 30
0.0
  0
SEQEND
  5
2BD
330
2BA
100
AcDbEntity
  8
BEMAßUNG
  0
POLYLINE
  5
2BE
330
1F
100
AcDbEntity
  8
BEMAßUNG
 62
     7
100
AcDb2dPolyline
 66
     1
 10
0.0
 20
0.0
 30
0.0
  0
VERTEX
  5
2BF
330
2BE
100
AcDbEntity
  8
BEMAßUNG
 62
     7
100
AcDbVertex
100
AcDb2dVertex
 10
210.1037990468664
 20
240.0176492726779
 30
0.0
  0
VERTEX
  5
2C0
330
2BE
100
AcDbEntity
  8
BEMAßUNG
 62
     7
100
AcDbVertex
100
AcDb2dVertex
 10
210.1037990468664
 20
241.2030205017652
 30
0.0
  0
SEQEND
  5
2C1
330
2BE
100
AcDbEntity
  8
BEMAßUNG
  0
POLYLINE
  5
2C2
330
1F
100
AcDbEntity
  8
BEMAßUNG
 62
     7
100
AcDb2dPolyline
 66
     1
 10
0.0
 20
0.0
 30
0.0
  0
VERTEX
  5
2C3
330
2C2
100
AcDbEntity
  8
BEMAßUNG
 62
     7
100
AcDbVertex
100
AcDb2dVertex
 10
210.1546142052738
 20
240.0176492726779
 30
0.0
  0
VERTEX
  5
2C4
330
2C2
100
AcDbEntity
  8
BEMAßUNG
 62
     7
100
AcDbVertex
100
AcDb2dVertex
 10
210.1546142052738
 20
241.5881821770162
 30
0.0
  0
SEQEND
  5
2C5
330
2C2
100
AcDbEntity
  8
BEMAßUNG
  0
POLYLINE
  5
2C6
330
1F
100
AcDbEntity
  8
BEMAßUNG
 62
     7
100
AcDb2dPolyline
 66
     1
 10
0.0
 20
0.0
 30
0.0
  0
VERTEX
  5
2C7
330
2C6
100
AcDbEntity
  8
BEMAßUNG
 62
     7
100
AcDbVertex
100
AcDb2dVertex
 10
210.2050848541328
 20
240.0176492726779
 30
0.0
  0
VERTEX
  5
2C8
330
2C6
100
AcDbEntity
  8
BEMAßUNG
 62
     7
100
AcDbVertex
100
AcDb2dVertex
 10
210.2050848541328
 20
241.9745496356869
 30
0.0
  0
SEQEND
  5
2C9
330
2C6
100
AcDbEntity
  8
BEMAßUNG
  0
POLYLINE
  5
2CA
330
1F
100
AcDbEntity
  8
BEMAßUNG
 62
     7
100
AcDb2dPolyline
 66
     1
 10
0.0
 20
0.0
 30
0.0
  0
VERTEX
  5
2CB
330
2CA
100
AcDbEntity
  8
BEMAßUNG
 62
     7
100
AcDbVertex
100
AcDb2dVertex
 10
210.2559000125402
 20
240.0176492726779
 30
0.0
  0
VERTEX
  5
2CC
330
2CA
100
AcDbEntity
  8
BEMAßUNG
 62
     7
100
AcDbVertex
100
AcDb2dVertex
 10
210.2559000125402
 20
242.3600558204864
 30
0.0
  0
SEQEND
  5
2CD
330
2CA
100
AcDbEntity
  8
BEMAßUNG
  0
POLYLINE
  5
2CE
330
1F
100
AcDbEntity
  8
BEMAßUNG
 62
     7
100
AcDb2dPolyline
 66
     1
 10
0.0
 20
0.0
 30
0.0
  0
VERTEX
  5
2CF
330
2CE
100
AcDbEntity
  8
BEMAßUNG
 62
     7
100
AcDbVertex
100
AcDb2dVertex
 10
210.3067151709476
 20
240.0176492726779
 30
0.0
  0
VERTEX
  5
2D0
330
2CE
100
AcDbEntity
  8
BEMAßUNG
 62
     7
100
AcDbVertex
100
AcDb2dVertex
 10
210.3067151709476
 20
242.7464232791571
 30
0.0
  0
SEQEND
  5
2D1
330
2CE
100
AcDbEntity
  8
BEMAßUNG
  0
POLYLINE
  5
2D2
330
1F
100
AcDbEntity
  8
BEMAßUNG
 62
     7
100
AcDb2dPolyline
 66
     1
 10
0.0
 20
0.0
 30
0.0
  0
VERTEX
  5
2D3
330
2D2
100
AcDbEntity
  8
BEMAßUNG
 62
     7
100
AcDbVertex
100
AcDb2dVertex
 10
210.3575303293551
 20
240.0176492726779
 30
0.0
  0
VERTEX
  5
2D4
330
2D2
100
AcDbEntity
  8
BEMAßUNG
 62
     7
100
AcDbVertex
100
AcDb2dVertex
 10
210.3575303293551
 20
243.1320155913437
 30
0.0
  0
SEQEND
  5
2D5
330
2D2
100
AcDbEntity
  8
BEMAßUNG
  0
POLYLINE
  5
2D6
330
1F
100
AcDbEntity
  8
BEMAßUNG
 62
     7
100
AcDb2dPolyline
 66
     1
 10
0.0
 20
0.0
 30
0.0
  0
VERTEX
  5
2D7
330
2D6
100
AcDbEntity
  8
BEMAßUNG
 62
     7
100
AcDbVertex
100
AcDb2dVertex
 10
210.4083454877625
 20
240.0176492726779
 30
0.0
  0
VERTEX
  5
2D8
330
2D6
100
AcDbEntity
  8
BEMAßUNG
 62
     7
100
AcDbVertex
100
AcDb2dVertex
 10
210.4083454877625
 20
243.5179524130789
 30
0.0
  0
SEQEND
  5
2D9
330
2D6
100
AcDbEntity
  8
BEMAßUNG
  0
POLYLINE
  5
2DA
330
1F
100
AcDbEntity
  8
BEMAßUNG
 62
     7
100
AcDb2dPolyline
 66
     1
 10
0.0
 20
0.0
 30
0.0
  0
VERTEX
  5
2DB
330
2DA
100
AcDbEntity
  8
BEMAßUNG
 62
     7
100
AcDbVertex
100
AcDb2dVertex
 10
210.8658541682037
 20
240.0176492726779
 30
0.0
  0
VERTEX
  5
2DC
330
2DA
100
AcDbEntity
  8
BEMAßUNG
 62
     7
100
AcDbVertex
100
AcDb2dVertex
 10
210.8658541682037
 20
240.0447793996242
 30
0.0
  0
SEQEND
  5
2DD
330
2DA
100
AcDbEntity
  8
BEMAßUNG
  0
POLYLINE
  5
2DE
330
1F
100
AcDbEntity
  8
BEMAßUNG
 62
     7
100
AcDb2dPolyline
 66
     1
 10
0.0
 20
0.0
 30
0.0
  0
VERTEX
  5
2DF
330
2DE
100
AcDbEntity
  8
BEMAßUNG
 62
     7
100
AcDbVertex
100
AcDb2dVertex
 10
210.8658541682037
 20
240.0176492726779
 30
0.0
  0
VERTEX
  5
2E0
330
2DE
100
AcDbEntity
  8
BEMAßUNG
 62
     7
100
AcDbVertex
100
AcDb2dVertex
 10
210.8658541682037
 20
240.0447793996242
 30
0.0
  0
SEQEND
  5
2E1
330
2DE
100
AcDbEntity
  8
BEMAßUNG
  0
POLYLINE
  5
2E2
330
1F
100
AcDbEntity
  8
BEMAßUNG
 62
     7
100
AcDb2dPolyline
 66
     1
 10
0.0
 20
0.0
 30
0.0
  0
VERTEX
  5
2E3
330
2E2
100
AcDbEntity
  8
BEMAßUNG
 62
     7
100
AcDbVertex
100
AcDb2dVertex
 10
210.8150390097962
 20
240.0176492726779
 30
0.0
  0
VERTEX
  5
2E4
330
2E2
100
AcDbEntity
  8
BEMAßUNG
 62
     7
100
AcDbVertex
100
AcDb2dVertex
 10
210.8150390097962
 20
240.431146858295
 30
0.0
  0
SEQEND
  5
2E5
330
2E2
100
AcDbEntity
  8
BEMAßUNG
  0
POLYLINE
  5
2E6
330
1F
100
AcDbEntity
  8
BEMAßUNG
 62
     7
100
AcDb2dPolyline
 66
     1
 10
0.0
 20
0.0
 30
0.0
  0
VERTEX
  5
2E7
330
2E6
100
AcDbEntity
  8
BEMAßUNG
 62
     7
100
AcDbVertex
100
AcDb2dVertex
 10
210.7642238513888
 20
240.0176492726779
 30
0.0
  0
VERTEX
  5
2E8
330
2E6
100
AcDbEntity
  8
BEMAßUNG
 62
     7
100
AcDbVertex
100
AcDb2dVertex
 10
210.7642238513888
 20
240.8166530430944
 30
0.0
  0
SEQEND
  5
2E9
330
2E6
100
AcDbEntity
  8
BEMAßUNG
  0
POLYLINE
  5
2EA
330
1F
100
AcDbEntity
  8
BEMAßUNG
 62
     7
100
AcDb2dPolyline
 66
     1
 10
0.0
 20
0.0
 30
0.0
  0
VERTEX
  5
2EB
330
2EA
100
AcDbEntity
  8
BEMAßUNG
 62
     7
100
AcDbVertex
100
AcDb2dVertex
 10
210.7134086929814
 20
240.0176492726779
 30
0.0
  0
VERTEX
  5
2EC
330
2EA
100
AcDbEntity
  8
BEMAßUNG
 62
     7
100
AcDbVertex
100
AcDb2dVertex
 10
210.7134086929814
 20
241.2030205017652
 30
0.0
  0
SEQEND
  5
2ED
330
2EA
100
AcDbEntity
  8
BEMAßUNG
  0
POLYLINE
  5
2EE
330
1F
100
AcDbEntity
  8
BEMAßUNG
 62
     7
100
AcDb2dPolyline
 66
     1
 10
0.0
 20
0.0
 30
0.0
  0
VERTEX
  5
2EF
330
2EE
100
AcDbEntity
  8
BEMAßUNG
 62
     7
100
AcDbVertex
100
AcDb2dVertex
 10
210.6622490250254
 20
240.0176492726779
 30
0.0
  0
VERTEX
  5
2F0
330
2EE
100
AcDbEntity
  8
BEMAßUNG
 62
     7
100
AcDbVertex
100
AcDb2dVertex
 10
210.6622490250254
 20
241.5881821770162
 30
0.0
  0
SEQEND
  5
2F1
330
2EE
100
AcDbEntity
  8
BEMAßUNG
  0
POLYLINE
  5
2F2
330
1F
100
AcDbEntity
  8
BEMAßUNG
 62
     7
100
AcDb2dPolyline
 66
     1
 10
0.0
 20
0.0
 30
0.0
  0
VERTEX
  5
2F3
330
2F2
100
AcDbEntity
  8
BEMAßUNG
 62
     7
100
AcDbVertex
100
AcDb2dVertex
 10
210.611433866618
 20
240.0176492726779
 30
0.0
  0
VERTEX
  5
2F4
330
2F2
100
AcDbEntity
  8
BEMAßUNG
 62
     7
100
AcDbVertex
100
AcDb2dVertex
 10
210.611433866618
 20
241.9745496356869
 30
0.0
  0
SEQEND
  5
2F5
330
2F2
100
AcDbEntity
  8
BEMAßUNG
  0
POLYLINE
  5
2F6
330
1F
100
AcDbEntity
  8
BEMAßUNG
 62
     7
100
AcDb2dPolyline
 66
     1
 10
0.0
 20
0.0
 30
0.0
  0
VERTEX
  5
2F7
330
2F6
100
AcDbEntity
  8
BEMAßUNG
 62
     7
100
AcDbVertex
100
AcDb2dVertex
 10
210.5607909629848
 20
240.0176492726779
 30
0.0
  0
VERTEX
  5
2F8
330
2F6
100
AcDbEntity
  8
BEMAßUNG
 62
     7
100
AcDbVertex
100
AcDb2dVertex
 10
210.5607909629848
 20
242.3600558204864
 30
0.0
  0
SEQEND
  5
2F9
330
2F6
100
AcDbEntity
  8
BEMAßUNG
  0
POLYLINE
  5
2FA
330
1F
100
AcDbEntity
  8
BEMAßUNG
 62
     7
100
AcDb2dPolyline
 66
     1
 10
0.0
 20
0.0
 30
0.0
  0
VERTEX
  5
2FB
330
2FA
100
AcDbEntity
  8
BEMAßUNG
 62
     7
100
AcDbVertex
100
AcDb2dVertex
 10
210.5099758045774
 20
240.0176492726779
 30
0.0
  0
VERTEX
  5
2FC
330
2FA
100
AcDbEntity
  8
BEMAßUNG
 62
     7
100
AcDbVertex
100
AcDb2dVertex
 10
210.5099758045774
 20
242.7464232791571
 30
0.0
  0
SEQEND
  5
2FD
330
2FA
100
AcDbEntity
  8
BEMAßUNG
  0
POLYLINE
  5
2FE
330
1F
100
AcDbEntity
  8
BEMAßUNG
 62
     7
100
AcDb2dPolyline
 66
     1
 10
0.0
 20
0.0
 30
0.0
  0
VERTEX
  5
2FF
330
2FE
100
AcDbEntity
  8
BEMAßUNG
 62
     7
100
AcDbVertex
100
AcDb2dVertex
 10
210.4591606461699
 20
240.0176492726779
 30
0.0
  0
VERTEX
  5
300
330
2FE
100
AcDbEntity
  8
BEMAßUNG
 62
     7
100
AcDbVertex
100
AcDb2dVertex
 10
210.4591606461699
 20
243.1320155913437
 30
0.0
  0
SEQEND
  5
301
330
2FE
100
AcDbEntity
  8
BEMAßUNG
  0
POLYLINE
  5
302
330
1F
100
AcDbEntity
  8
BEMAßUNG
 62
     7
100
AcDb2dPolyline
 66
     1
 10
0.0
 20
0.0
 30
0.0
  0
VERTEX
  5
303
330
302
100
AcDbEntity
  8
BEMAßUNG
 62
     7
100
AcDbVertex
100
AcDb2dVertex
 10
210.4083454877625
 20
240.0176492726779
 30
0.0
  0
VERTEX
  5
304
330
302
100
AcDbEntity
  8
BEMAßUNG
 62
     7
100
AcDbVertex
100
AcDb2dVertex
 10
210.4083454877625
 20
243.5179524130789
 30
0.0
  0
SEQEND
  5
305
330
302
100
AcDbEntity
  8
BEMAßUNG
  0
POLYLINE
  5
306
330
1F
100
AcDbEntity
  8
BEMAßUNG
 62
     7
100
AcDb2dPolyline
 66
     1
 10
0.0
 20
0.0
 30
0.0
  0
VERTEX
  5
307
330
306
100
AcDbEntity
  8
BEMAßUNG
 62
     7
100
AcDbVertex
100
AcDb2dVertex
 10
210.4083454877625
 20
198.5175984204227
 30
0.0
  0
VERTEX
  5
308
330
306
100
AcDbEntity
  8
BEMAßUNG
 62
     7
100
AcDbVertex
100
AcDb2dVertex
 10
210.8694715184632
 20
202.0178154334365
 30
0.0
  0
VERTEX
  5
309
330
306
100
AcDbEntity
  8
BEMAßUNG
 62
     7
100
AcDbVertex
100
AcDb2dVertex
 10
209.9479084761589
 20
202.0178154334365
 30
0.0
  0
VERTEX
  5
30A
330
306
100
AcDbEntity
  8
BEMAßUNG
 62
     7
100
AcDbVertex
100
AcDb2dVertex
 10
210.4083454877625
 20
198.5175984204227
 30
0.0
  0
SEQEND
  5
30B
330
306
100
AcDbEntity
  8
BEMAßUNG
  0
POLYLINE
  5
30C
330
1F
100
AcDbEntity
  8
BEMAßUNG
 62
     7
100
AcDb2dPolyline
 66
     1
 10
0.0
 20
0.0
 30
0.0
  0
VERTEX
  5
30D
330
30C
100
AcDbEntity
  8
BEMAßUNG
 62
     7
100
AcDbVertex
100
AcDb2dVertex
 10
210.8658541682037
 20
202.0178154334365
 30
0.0
  0
VERTEX
  5
30E
330
30C
100
AcDbEntity
  8
BEMAßUNG
 62
     7
100
AcDbVertex
100
AcDb2dVertex
 10
210.8658541682037
 20
201.9907714338773
 30
0.0
  0
SEQEND
  5
30F
330
30C
100
AcDbEntity
  8
BEMAßUNG
  0
POLYLINE
  5
310
330
1F
100
AcDbEntity
  8
BEMAßUNG
 62
     7
100
AcDb2dPolyline
 66
     1
 10
0.0
 20
0.0
 30
0.0
  0
VERTEX
  5
311
330
310
100
AcDbEntity
  8
BEMAßUNG
 62
     7
100
AcDbVertex
100
AcDb2dVertex
 10
210.8658541682037
 20
202.0178154334365
 30
0.0
  0
VERTEX
  5
312
330
310
100
AcDbEntity
  8
BEMAßUNG
 62
     7
100
AcDbVertex
100
AcDb2dVertex
 10
210.8658541682037
 20
201.9907714338773
 30
0.0
  0
SEQEND
  5
313
330
310
100
AcDbEntity
  8
BEMAßUNG
  0
POLYLINE
  5
314
330
1F
100
AcDbEntity
  8
BEMAßUNG
 62
     7
100
AcDb2dPolyline
 66
     1
 10
0.0
 20
0.0
 30
0.0
  0
VERTEX
  5
315
330
314
100
AcDbEntity
  8
BEMAßUNG
 62
     7
100
AcDbVertex
100
AcDb2dVertex
 10
210.8150390097962
 20
202.0178154334365
 30
0.0
  0
VERTEX
  5
316
330
314
100
AcDbEntity
  8
BEMAßUNG
 62
     7
100
AcDbVertex
100
AcDb2dVertex
 10
210.8150390097962
 20
201.6050929943036
 30
0.0
  0
SEQEND
  5
317
330
314
100
AcDbEntity
  8
BEMAßUNG
  0
POLYLINE
  5
318
330
1F
100
AcDbEntity
  8
BEMAßUNG
 62
     7
100
AcDb2dPolyline
 66
     1
 10
0.0
 20
0.0
 30
0.0
  0
VERTEX
  5
319
330
318
100
AcDbEntity
  8
BEMAßUNG
 62
     7
100
AcDbVertex
100
AcDb2dVertex
 10
210.7642238513888
 20
202.0178154334365
 30
0.0
  0
VERTEX
  5
31A
330
318
100
AcDbEntity
  8
BEMAßUNG
 62
     7
100
AcDbVertex
100
AcDb2dVertex
 10
210.7642238513888
 20
201.2187255356328
 30
0.0
  0
SEQEND
  5
31B
330
318
100
AcDbEntity
  8
BEMAßUNG
  0
POLYLINE
  5
31C
330
1F
100
AcDbEntity
  8
BEMAßUNG
 62
     7
100
AcDb2dPolyline
 66
     1
 10
0.0
 20
0.0
 30
0.0
  0
VERTEX
  5
31D
330
31C
100
AcDbEntity
  8
BEMAßUNG
 62
     7
100
AcDbVertex
100
AcDb2dVertex
 10
210.7134086929814
 20
202.0178154334365
 30
0.0
  0
VERTEX
  5
31E
330
31C
100
AcDbEntity
  8
BEMAßUNG
 62
     7
100
AcDbVertex
100
AcDb2dVertex
 10
210.7134086929814
 20
200.8332193508334
 30
0.0
  0
SEQEND
  5
31F
330
31C
100
AcDbEntity
  8
BEMAßUNG
  0
POLYLINE
  5
320
330
1F
100
AcDbEntity
  8
BEMAßUNG
 62
     7
100
AcDb2dPolyline
 66
     1
 10
0.0
 20
0.0
 30
0.0
  0
VERTEX
  5
321
330
320
100
AcDbEntity
  8
BEMAßUNG
 62
     7
100
AcDbVertex
100
AcDb2dVertex
 10
210.6622490250254
 20
202.0178154334365
 30
0.0
  0
VERTEX
  5
322
330
320
100
AcDbEntity
  8
BEMAßUNG
 62
     7
100
AcDbVertex
100
AcDb2dVertex
 10
210.6622490250254
 20
200.4473686564854
 30
0.0
  0
SEQEND
  5
323
330
320
100
AcDbEntity
  8
BEMAßUNG
  0
POLYLINE
  5
324
330
1F
100
AcDbEntity
  8
BEMAßUNG
 62
     7
100
AcDb2dPolyline
 66
     1
 10
0.0
 20
0.0
 30
0.0
  0
VERTEX
  5
325
330
324
100
AcDbEntity
  8
BEMAßUNG
 62
     7
100
AcDbVertex
100
AcDb2dVertex
 10
210.611433866618
 20
202.0178154334365
 30
0.0
  0
VERTEX
  5
326
330
324
100
AcDbEntity
  8
BEMAßUNG
 62
     7
100
AcDbVertex
100
AcDb2dVertex
 10
210.611433866618
 20
200.0610011978146
 30
0.0
  0
SEQEND
  5
327
330
324
100
AcDbEntity
  8
BEMAßUNG
  0
POLYLINE
  5
328
330
1F
100
AcDbEntity
  8
BEMAßUNG
 62
     7
100
AcDb2dPolyline
 66
     1
 10
0.0
 20
0.0
 30
0.0
  0
VERTEX
  5
329
330
328
100
AcDbEntity
  8
BEMAßUNG
 62
     7
100
AcDbVertex
100
AcDb2dVertex
 10
210.5607909629848
 20
202.0178154334365
 30
0.0
  0
VERTEX
  5
32A
330
328
100
AcDbEntity
  8
BEMAßUNG
 62
     7
100
AcDbVertex
100
AcDb2dVertex
 10
210.5607909629848
 20
199.6753227582409
 30
0.0
  0
SEQEND
  5
32B
330
328
100
AcDbEntity
  8
BEMAßUNG
  0
POLYLINE
  5
32C
330
1F
100
AcDbEntity
  8
BEMAßUNG
 62
     7
100
AcDb2dPolyline
 66
     1
 10
0.0
 20
0.0
 30
0.0
  0
VERTEX
  5
32D
330
32C
100
AcDbEntity
  8
BEMAßUNG
 62
     7
100
AcDbVertex
100
AcDb2dVertex
 10
210.5099758045774
 20
202.0178154334365
 30
0.0
  0
VERTEX
  5
32E
330
32C
100
AcDbEntity
  8
BEMAßUNG
 62
     7
100
AcDbVertex
100
AcDb2dVertex
 10
210.5099758045774
 20
199.2898165734414
 30
0.0
  0
SEQEND
  5
32F
330
32C
100
AcDbEntity
  8
BEMAßUNG
  0
POLYLINE
  5
330
330
1F
100
AcDbEntity
  8
BEMAßUNG
 62
     7
100
AcDb2dPolyline
 66
     1
 10
0.0
 20
0.0
 30
0.0
  0
VERTEX
  5
331
330
330
100
AcDbEntity
  8
BEMAßUNG
 62
     7
100
AcDbVertex
100
AcDb2dVertex
 10
210.4591606461699
 20
202.0178154334365
 30
0.0
  0
VERTEX
  5
332
330
330
100
AcDbEntity
  8
BEMAßUNG
 62
     7
100
AcDbVertex
100
AcDb2dVertex
 10
210.4591606461699
 20
198.9039658790934
 30
0.0
  0
SEQEND
  5
333
330
330
100
AcDbEntity
  8
BEMAßUNG
  0
POLYLINE
  5
334
330
1F
100
AcDbEntity
  8
BEMAßUNG
 62
     7
100
AcDb2dPolyline
 66
     1
 10
0.0
 20
0.0
 30
0.0
  0
VERTEX
  5
335
330
334
100
AcDbEntity
  8
BEMAßUNG
 62
     7
100
AcDbVertex
100
AcDb2dVertex
 10
210.4083454877625
 20
202.0178154334365
 30
0.0
  0
VERTEX
  5
336
330
334
100
AcDbEntity
  8
BEMAßUNG
 62
     7
100
AcDbVertex
100
AcDb2dVertex
 10
210.4083454877625
 20
198.5175984204227
 30
0.0
  0
SEQEND
  5
337
330
334
100
AcDbEntity
  8
BEMAßUNG
  0
POLYLINE
  5
338
330
1F
100
AcDbEntity
  8
BEMAßUNG
 62
     7
100
AcDb2dPolyline
 66
     1
 10
0.0
 20
0.0
 30
0.0
  0
VERTEX
  5
339
330
338
100
AcDbEntity
  8
BEMAßUNG
 62
     7
100
AcDbVertex
100
AcDb2dVertex
 10
209.9515258264184
 20
202.0178154334365
 30
0.0
  0
VERTEX
  5
33A
330
338
100
AcDbEntity
  8
BEMAßUNG
 62
     7
100
AcDbVertex
100
AcDb2dVertex
 10
209.9515258264184
 20
201.9907714338773
 30
0.0
  0
SEQEND
  5
33B
330
338
100
AcDbEntity
  8
BEMAßUNG
  0
POLYLINE
  5
33C
330
1F
100
AcDbEntity
  8
BEMAßUNG
 62
     7
100
AcDb2dPolyline
 66
     1
 10
0.0
 20
0.0
 30
0.0
  0
VERTEX
  5
33D
330
33C
100
AcDbEntity
  8
BEMAßUNG
 62
     7
100
AcDbVertex
100
AcDb2dVertex
 10
209.9515258264184
 20
202.0178154334365
 30
0.0
  0
VERTEX
  5
33E
330
33C
100
AcDbEntity
  8
BEMAßUNG
 62
     7
100
AcDbVertex
100
AcDb2dVertex
 10
209.9515258264184
 20
201.9907714338773
 30
0.0
  0
SEQEND
  5
33F
330
33C
100
AcDbEntity
  8
BEMAßUNG
  0
POLYLINE
  5
340
330
1F
100
AcDbEntity
  8
BEMAßUNG
 62
     7
100
AcDb2dPolyline
 66
     1
 10
0.0
 20
0.0
 30
0.0
  0
VERTEX
  5
341
330
340
100
AcDbEntity
  8
BEMAßUNG
 62
     7
100
AcDbVertex
100
AcDb2dVertex
 10
210.0023409848258
 20
202.0178154334365
 30
0.0
  0
VERTEX
  5
342
330
340
100
AcDbEntity
  8
BEMAßUNG
 62
     7
100
AcDbVertex
100
AcDb2dVertex
 10
210.0023409848258
 20
201.6050929943036
 30
0.0
  0
SEQEND
  5
343
330
340
100
AcDbEntity
  8
BEMAßUNG
  0
POLYLINE
  5
344
330
1F
100
AcDbEntity
  8
BEMAßUNG
 62
     7
100
AcDb2dPolyline
 66
     1
 10
0.0
 20
0.0
 30
0.0
  0
VERTEX
  5
345
330
344
100
AcDbEntity
  8
BEMAßUNG
 62
     7
100
AcDbVertex
100
AcDb2dVertex
 10
210.052983888459
 20
202.0178154334365
 30
0.0
  0
VERTEX
  5
346
330
344
100
AcDbEntity
  8
BEMAßUNG
 62
     7
100
AcDbVertex
100
AcDb2dVertex
 10
210.052983888459
 20
201.2187255356328
 30
0.0
  0
SEQEND
  5
347
330
344
100
AcDbEntity
  8
BEMAßUNG
  0
POLYLINE
  5
348
330
1F
100
AcDbEntity
  8
BEMAßUNG
 62
     7
100
AcDb2dPolyline
 66
     1
 10
0.0
 20
0.0
 30
0.0
  0
VERTEX
  5
349
330
348
100
AcDbEntity
  8
BEMAßUNG
 62
     7
100
AcDbVertex
100
AcDb2dVertex
 10
210.1037990468664
 20
202.0178154334365
 30
0.0
  0
VERTEX
  5
34A
330
348
100
AcDbEntity
  8
BEMAßUNG
 62
     7
100
AcDbVertex
100
AcDb2dVertex
 10
210.1037990468664
 20
200.8332193508334
 30
0.0
  0
SEQEND
  5
34B
330
348
100
AcDbEntity
  8
BEMAßUNG
  0
POLYLINE
  5
34C
330
1F
100
AcDbEntity
  8
BEMAßUNG
 62
     7
100
AcDb2dPolyline
 66
     1
 10
0.0
 20
0.0
 30
0.0
  0
VERTEX
  5
34D
330
34C
100
AcDbEntity
  8
BEMAßUNG
 62
     7
100
AcDbVertex
100
AcDb2dVertex
 10
210.1546142052738
 20
202.0178154334365
 30
0.0
  0
VERTEX
  5
34E
330
34C
100
AcDbEntity
  8
BEMAßUNG
 62
     7
100
AcDbVertex
100
AcDb2dVertex
 10
210.1546142052738
 20
200.4473686564854
 30
0.0
  0
SEQEND
  5
34F
330
34C
100
AcDbEntity
  8
BEMAßUNG
  0
POLYLINE
  5
350
330
1F
100
AcDbEntity
  8
BEMAßUNG
 62
     7
100
AcDb2dPolyline
 66
     1
 10
0.0
 20
0.0
 30
0.0
  0
VERTEX
  5
351
330
350
100
AcDbEntity
  8
BEMAßUNG
 62
     7
100
AcDbVertex
100
AcDb2dVertex
 10
210.2050848541328
 20
202.0178154334365
 30
0.0
  0
VERTEX
  5
352
330
350
100
AcDbEntity
  8
BEMAßUNG
 62
     7
100
AcDbVertex
100
AcDb2dVertex
 10
210.2050848541328
 20
200.0610011978146
 30
0.0
  0
SEQEND
  5
353
330
350
100
AcDbEntity
  8
BEMAßUNG
  0
POLYLINE
  5
354
330
1F
100
AcDbEntity
  8
BEMAßUNG
 62
     7
100
AcDb2dPolyline
 66
     1
 10
0.0
 20
0.0
 30
0.0
  0
VERTEX
  5
355
330
354
100
AcDbEntity
  8
BEMAßUNG
 62
     7
100
AcDbVertex
100
AcDb2dVertex
 10
210.2559000125402
 20
202.0178154334365
 30
0.0
  0
VERTEX
  5
356
330
354
100
AcDbEntity
  8
BEMAßUNG
 62
     7
100
AcDbVertex
100
AcDb2dVertex
 10
210.2559000125402
 20
199.6753227582409
 30
0.0
  0
SEQEND
  5
357
330
354
100
AcDbEntity
  8
BEMAßUNG
  0
POLYLINE
  5
358
330
1F
100
AcDbEntity
  8
BEMAßUNG
 62
     7
100
AcDb2dPolyline
 66
     1
 10
0.0
 20
0.0
 30
0.0
  0
VERTEX
  5
359
330
358
100
AcDbEntity
  8
BEMAßUNG
 62
     7
100
AcDbVertex
100
AcDb2dVertex
 10
210.3067151709476
 20
202.0178154334365
 30
0.0
  0
VERTEX
  5
35A
330
358
100
AcDbEntity
  8
BEMAßUNG
 62
     7
100
AcDbVertex
100
AcDb2dVertex
 10
210.3067151709476
 20
199.2898165734414
 30
0.0
  0
SEQEND
  5
35B
330
358
100
AcDbEntity
  8
BEMAßUNG
  0
POLYLINE
  5
35C
330
1F
100
AcDbEntity
  8
BEMAßUNG
 62
     7
100
AcDb2dPolyline
 66
     1
 10
0.0
 20
0.0
 30
0.0
  0
VERTEX
  5
35D
330
35C
100
AcDbEntity
  8
BEMAßUNG
 62
     7
100
AcDbVertex
100
AcDb2dVertex
 10
210.3575303293551
 20
202.0178154334365
 30
0.0
  0
VERTEX
  5
35E
330
35C
100
AcDbEntity
  8
BEMAßUNG
 62
     7
100
AcDbVertex
100
AcDb2dVertex
 10
210.3575303293551
 20
198.9039658790934
 30
0.0
  0
SEQEND
  5
35F
330
35C
100
AcDbEntity
  8
BEMAßUNG
  0
POLYLINE
  5
360
330
1F
100
AcDbEntity
  8
BEMAßUNG
 62
     7
100
AcDb2dPolyline
 66
     1
 10
0.0
 20
0.0
 30
0.0
  0
VERTEX
  5
361
330
360
100
AcDbEntity
  8
BEMAßUNG
 62
     7
100
AcDbVertex
100
AcDb2dVertex
 10
210.4083454877625
 20
202.0178154334365
 30
0.0
  0
VERTEX
  5
362
330
360
100
AcDbEntity
  8
BEMAßUNG
 62
     7
100
AcDbVertex
100
AcDb2dVertex
 10
210.4083454877625
 20
198.5175984204227
 30
0.0
  0
SEQEND
  5
363
330
360
100
AcDbEntity
  8
BEMAßUNG
  0
POLYLINE
  5
364
330
1F
100
AcDbEntity
  8
BEMAßUNG
 62
     7
100
AcDb2dPolyline
 66
     1
 10
0.0
 20
0.0
 30
0.0
  0
VERTEX
  5
365
330
364
100
AcDbEntity
  8
BEMAßUNG
 62
     7
100
AcDbVertex
100
AcDb2dVertex
 10
-7.229532875796783
 20
208.518107722393
 30
0.0
  0
VERTEX
  5
366
330
364
100
AcDbEntity
  8
BEMAßUNG
 62
     7
100
AcDbVertex
100
AcDb2dVertex
 10
-20.37773979525279
 20
208.518107722393
 30
0.0
  0
SEQEND
  5
367
330
364
100
AcDbEntity
  8
BEMAßUNG
  0
POLYLINE
  5
368
330
1F
100
AcDbEntity
  8
BEMAßUNG
 62
     7
100
AcDb2dPolyline
 66
     1
 10
0.0
 20
0.0
 30
0.0
  0
VERTEX
  5
369
330
368
100
AcDbEntity
  8
BEMAßUNG
 62
     7
100
AcDbVertex
100
AcDb2dVertex
 10
-7.229532875796783
 20
233.5180460028184
 30
0.0
  0
VERTEX
  5
36A
330
368
100
AcDbEntity
  8
BEMAßUNG
 62
     7
100
AcDbVertex
100
AcDb2dVertex
 10
-20.37773979525279
 20
233.5180460028184
 30
0.0
  0
SEQEND
  5
36B
330
368
100
AcDbEntity
  8
BEMAßUNG
  0
POLYLINE
  5
36C
330
1F
100
AcDbEntity
  8
BEMAßUNG
 62
     7
100
AcDb2dPolyline
 66
     1
 10
0.0
 20
0.0
 30
0.0
  0
VERTEX
  5
36D
330
36C
100
AcDbEntity
  8
BEMAßUNG
 62
     7
100
AcDbVertex
100
AcDb2dVertex
 10
-18.37786186606526
 20
208.518107722393
 30
0.0
  0
VERTEX
  5
36E
330
36C
100
AcDbEntity
  8
BEMAßUNG
 62
     7
100
AcDbVertex
100
AcDb2dVertex
 10
-18.37786186606526
 20
233.5180460028184
 30
0.0
  0
SEQEND
  5
36F
330
36C
100
AcDbEntity
  8
BEMAßUNG
  0
POLYLINE
  5
370
330
1F
100
AcDbEntity
  8
BEMAßUNG
 62
     7
100
AcDb2dPolyline
 66
     1
 10
0.0
 20
0.0
 30
0.0
  0
VERTEX
  5
371
330
370
100
AcDbEntity
  8
BEMAßUNG
 62
     7
100
AcDbVertex
100
AcDb2dVertex
 10
-18.37786186606526
 20
208.518107722393
 30
0.0
  0
VERTEX
  5
372
330
370
100
AcDbEntity
  8
BEMAßUNG
 62
     7
100
AcDbVertex
100
AcDb2dVertex
 10
-17.91725259968736
 20
212.017721843697
 30
0.0
  0
VERTEX
  5
373
330
370
100
AcDbEntity
  8
BEMAßUNG
 62
     7
100
AcDbVertex
100
AcDb2dVertex
 10
-18.83864338721742
 20
212.017721843697
 30
0.0
  0
VERTEX
  5
374
330
370
100
AcDbEntity
  8
BEMAßUNG
 62
     7
100
AcDbVertex
100
AcDb2dVertex
 10
-18.37786186606526
 20
208.518107722393
 30
0.0
  0
SEQEND
  5
375
330
370
100
AcDbEntity
  8
BEMAßUNG
  0
POLYLINE
  5
376
330
1F
100
AcDbEntity
  8
BEMAßUNG
 62
     7
100
AcDb2dPolyline
 66
     1
 10
0.0
 20
0.0
 30
0.0
  0
VERTEX
  5
377
330
376
100
AcDbEntity
  8
BEMAßUNG
 62
     7
100
AcDbVertex
100
AcDb2dVertex
 10
-17.92035318562408
 20
212.017721843697
 30
0.0
  0
VERTEX
  5
378
330
376
100
AcDbEntity
  8
BEMAßUNG
 62
     7
100
AcDbVertex
100
AcDb2dVertex
 10
-17.92035318562408
 20
211.9905055893635
 30
0.0
  0
SEQEND
  5
379
330
376
100
AcDbEntity
  8
BEMAßUNG
  0
POLYLINE
  5
37A
330
1F
100
AcDbEntity
  8
BEMAßUNG
 62
     7
100
AcDb2dPolyline
 66
     1
 10
0.0
 20
0.0
 30
0.0
  0
VERTEX
  5
37B
330
37A
100
AcDbEntity
  8
BEMAßUNG
 62
     7
100
AcDbVertex
100
AcDb2dVertex
 10
-17.92035318562408
 20
212.017721843697
 30
0.0
  0
VERTEX
  5
37C
330
37A
100
AcDbEntity
  8
BEMAßUNG
 62
     7
100
AcDbVertex
100
AcDb2dVertex
 10
-17.92035318562408
 20
211.9905055893635
 30
0.0
  0
SEQEND
  5
37D
330
37A
100
AcDbEntity
  8
BEMAßUNG
  0
POLYLINE
  5
37E
330
1F
100
AcDbEntity
  8
BEMAßUNG
 62
     7
100
AcDb2dPolyline
 66
     1
 10
0.0
 20
0.0
 30
0.0
  0
VERTEX
  5
37F
330
37E
100
AcDbEntity
  8
BEMAßUNG
 62
     7
100
AcDbVertex
100
AcDb2dVertex
 10
-17.97151285358004
 20
212.017721843697
 30
0.0
  0
VERTEX
  5
380
330
37E
100
AcDbEntity
  8
BEMAßUNG
 62
     7
100
AcDbVertex
100
AcDb2dVertex
 10
-17.97151285358004
 20
211.6049132771769
 30
0.0
  0
SEQEND
  5
381
330
37E
100
AcDbEntity
  8
BEMAßUNG
  0
POLYLINE
  5
382
330
1F
100
AcDbEntity
  8
BEMAßUNG
 62
     7
100
AcDb2dPolyline
 66
     1
 10
0.0
 20
0.0
 30
0.0
  0
VERTEX
  5
383
330
382
100
AcDbEntity
  8
BEMAßUNG
 62
     7
100
AcDbVertex
100
AcDb2dVertex
 10
-18.02198350243895
 20
212.017721843697
 30
0.0
  0
VERTEX
  5
384
330
382
100
AcDbEntity
  8
BEMAßUNG
 62
     7
100
AcDbVertex
100
AcDb2dVertex
 10
-18.02198350243895
 20
211.2186319458933
 30
0.0
  0
SEQEND
  5
385
330
382
100
AcDbEntity
  8
BEMAßUNG
  0
POLYLINE
  5
386
330
1F
100
AcDbEntity
  8
BEMAßUNG
 62
     7
100
AcDb2dPolyline
 66
     1
 10
0.0
 20
0.0
 30
0.0
  0
VERTEX
  5
387
330
386
100
AcDbEntity
  8
BEMAßUNG
 62
     7
100
AcDbVertex
100
AcDb2dVertex
 10
-18.07279866084638
 20
212.017721843697
 30
0.0
  0
VERTEX
  5
388
330
386
100
AcDbEntity
  8
BEMAßUNG
 62
     7
100
AcDbVertex
100
AcDb2dVertex
 10
-18.07279866084638
 20
210.8326951241582
 30
0.0
  0
SEQEND
  5
389
330
386
100
AcDbEntity
  8
BEMAßUNG
  0
POLYLINE
  5
38A
330
1F
100
AcDbEntity
  8
BEMAßUNG
 62
     7
100
AcDb2dPolyline
 66
     1
 10
0.0
 20
0.0
 30
0.0
  0
VERTEX
  5
38B
330
38A
100
AcDbEntity
  8
BEMAßUNG
 62
     7
100
AcDbVertex
100
AcDb2dVertex
 10
-18.12395832880235
 20
212.017721843697
 30
0.0
  0
VERTEX
  5
38C
330
38A
100
AcDbEntity
  8
BEMAßUNG
 62
     7
100
AcDbVertex
100
AcDb2dVertex
 10
-18.12395832880235
 20
210.4471028119716
 30
0.0
  0
SEQEND
  5
38D
330
38A
100
AcDbEntity
  8
BEMAßUNG
  0
POLYLINE
  5
38E
330
1F
100
AcDbEntity
  8
BEMAßUNG
 62
     7
100
AcDb2dPolyline
 66
     1
 10
0.0
 20
0.0
 30
0.0
  0
VERTEX
  5
38F
330
38E
100
AcDbEntity
  8
BEMAßUNG
 62
     7
100
AcDbVertex
100
AcDb2dVertex
 10
-18.17442897766125
 20
212.017721843697
 30
0.0
  0
VERTEX
  5
390
330
38E
100
AcDbEntity
  8
BEMAßUNG
 62
     7
100
AcDbVertex
100
AcDb2dVertex
 10
-18.17442897766125
 20
210.061510499785
 30
0.0
  0
SEQEND
  5
391
330
38E
100
AcDbEntity
  8
BEMAßUNG
  0
POLYLINE
  5
392
330
1F
100
AcDbEntity
  8
BEMAßUNG
 62
     7
100
AcDb2dPolyline
 66
     1
 10
0.0
 20
0.0
 30
0.0
  0
VERTEX
  5
393
330
392
100
AcDbEntity
  8
BEMAßUNG
 62
     7
100
AcDbVertex
100
AcDb2dVertex
 10
-18.22541639084295
 20
212.017721843697
 30
0.0
  0
VERTEX
  5
394
330
392
100
AcDbEntity
  8
BEMAßUNG
 62
     7
100
AcDbVertex
100
AcDb2dVertex
 10
-18.22541639084295
 20
209.6752291685013
 30
0.0
  0
SEQEND
  5
395
330
392
100
AcDbEntity
  8
BEMAßUNG
  0
POLYLINE
  5
396
330
1F
100
AcDbEntity
  8
BEMAßUNG
 62
     7
100
AcDb2dPolyline
 66
     1
 10
0.0
 20
0.0
 30
0.0
  0
VERTEX
  5
397
330
396
100
AcDbEntity
  8
BEMAßUNG
 62
     7
100
AcDbVertex
100
AcDb2dVertex
 10
-18.27588703970186
 20
212.017721843697
 30
0.0
  0
VERTEX
  5
398
330
396
100
AcDbEntity
  8
BEMAßUNG
 62
     7
100
AcDbVertex
100
AcDb2dVertex
 10
-18.27588703970186
 20
209.2892923467662
 30
0.0
  0
SEQEND
  5
399
330
396
100
AcDbEntity
  8
BEMAßUNG
  0
POLYLINE
  5
39A
330
1F
100
AcDbEntity
  8
BEMAßUNG
 62
     7
100
AcDb2dPolyline
 66
     1
 10
0.0
 20
0.0
 30
0.0
  0
VERTEX
  5
39B
330
39A
100
AcDbEntity
  8
BEMAßUNG
 62
     7
100
AcDbVertex
100
AcDb2dVertex
 10
-18.3267021981093
 20
212.017721843697
 30
0.0
  0
VERTEX
  5
39C
330
39A
100
AcDbEntity
  8
BEMAßUNG
 62
     7
100
AcDbVertex
100
AcDb2dVertex
 10
-18.3267021981093
 20
208.9037000345796
 30
0.0
  0
SEQEND
  5
39D
330
39A
100
AcDbEntity
  8
BEMAßUNG
  0
POLYLINE
  5
39E
330
1F
100
AcDbEntity
  8
BEMAßUNG
 62
     7
100
AcDb2dPolyline
 66
     1
 10
0.0
 20
0.0
 30
0.0
  0
VERTEX
  5
39F
330
39E
100
AcDbEntity
  8
BEMAßUNG
 62
     7
100
AcDbVertex
100
AcDb2dVertex
 10
-18.37786186606526
 20
212.017721843697
 30
0.0
  0
VERTEX
  5
3A0
330
39E
100
AcDbEntity
  8
BEMAßUNG
 62
     7
100
AcDbVertex
100
AcDb2dVertex
 10
-18.37786186606526
 20
208.518107722393
 30
0.0
  0
SEQEND
  5
3A1
330
39E
100
AcDbEntity
  8
BEMAßUNG
  0
POLYLINE
  5
3A2
330
1F
100
AcDbEntity
  8
BEMAßUNG
 62
     7
100
AcDb2dPolyline
 66
     1
 10
0.0
 20
0.0
 30
0.0
  0
VERTEX
  5
3A3
330
3A2
100
AcDbEntity
  8
BEMAßUNG
 62
     7
100
AcDbVertex
100
AcDb2dVertex
 10
-18.83468152740939
 20
212.017721843697
 30
0.0
  0
VERTEX
  5
3A4
330
3A2
100
AcDbEntity
  8
BEMAßUNG
 62
     7
100
AcDbVertex
100
AcDb2dVertex
 10
-18.83468152740939
 20
211.9905055893635
 30
0.0
  0
SEQEND
  5
3A5
330
3A2
100
AcDbEntity
  8
BEMAßUNG
  0
POLYLINE
  5
3A6
330
1F
100
AcDbEntity
  8
BEMAßUNG
 62
     7
100
AcDb2dPolyline
 66
     1
 10
0.0
 20
0.0
 30
0.0
  0
VERTEX
  5
3A7
330
3A6
100
AcDbEntity
  8
BEMAßUNG
 62
     7
100
AcDbVertex
100
AcDb2dVertex
 10
-18.83468152740939
 20
212.017721843697
 30
0.0
  0
VERTEX
  5
3A8
330
3A6
100
AcDbEntity
  8
BEMAßUNG
 62
     7
100
AcDbVertex
100
AcDb2dVertex
 10
-18.83468152740939
 20
211.9905055893635
 30
0.0
  0
SEQEND
  5
3A9
330
3A6
100
AcDbEntity
  8
BEMAßUNG
  0
POLYLINE
  5
3AA
330
1F
100
AcDbEntity
  8
BEMAßUNG
 62
     7
100
AcDb2dPolyline
 66
     1
 10
0.0
 20
0.0
 30
0.0
  0
VERTEX
  5
3AB
330
3AA
100
AcDbEntity
  8
BEMAßUNG
 62
     7
100
AcDbVertex
100
AcDb2dVertex
 10
-18.78438313332474
 20
212.017721843697
 30
0.0
  0
VERTEX
  5
3AC
330
3AA
100
AcDbEntity
  8
BEMAßUNG
 62
     7
100
AcDbVertex
100
AcDb2dVertex
 10
-18.78438313332474
 20
211.6049132771769
 30
0.0
  0
SEQEND
  5
3AD
330
3AA
100
AcDbEntity
  8
BEMAßUNG
  0
POLYLINE
  5
3AE
330
1F
100
AcDbEntity
  8
BEMAßUNG
 62
     7
100
AcDb2dPolyline
 66
     1
 10
0.0
 20
0.0
 30
0.0
  0
VERTEX
  5
3AF
330
3AE
100
AcDbEntity
  8
BEMAßUNG
 62
     7
100
AcDbVertex
100
AcDb2dVertex
 10
-18.73322346536878
 20
212.017721843697
 30
0.0
  0
VERTEX
  5
3B0
330
3AE
100
AcDbEntity
  8
BEMAßUNG
 62
     7
100
AcDbVertex
100
AcDb2dVertex
 10
-18.73322346536878
 20
211.2186319458933
 30
0.0
  0
SEQEND
  5
3B1
330
3AE
100
AcDbEntity
  8
BEMAßUNG
  0
POLYLINE
  5
3B2
330
1F
100
AcDbEntity
  8
BEMAßUNG
 62
     7
100
AcDb2dPolyline
 66
     1
 10
0.0
 20
0.0
 30
0.0
  0
VERTEX
  5
3B3
330
3B2
100
AcDbEntity
  8
BEMAßUNG
 62
     7
100
AcDbVertex
100
AcDb2dVertex
 10
-18.68240830696134
 20
212.017721843697
 30
0.0
  0
VERTEX
  5
3B4
330
3B2
100
AcDbEntity
  8
BEMAßUNG
 62
     7
100
AcDbVertex
100
AcDb2dVertex
 10
-18.68240830696134
 20
210.8326951241582
 30
0.0
  0
SEQEND
  5
3B5
330
3B2
100
AcDbEntity
  8
BEMAßUNG
  0
POLYLINE
  5
3B6
330
1F
100
AcDbEntity
  8
BEMAßUNG
 62
     7
100
AcDb2dPolyline
 66
     1
 10
0.0
 20
0.0
 30
0.0
  0
VERTEX
  5
3B7
330
3B6
100
AcDbEntity
  8
BEMAßUNG
 62
     7
100
AcDbVertex
100
AcDb2dVertex
 10
-18.63193765810243
 20
212.017721843697
 30
0.0
  0
VERTEX
  5
3B8
330
3B6
100
AcDbEntity
  8
BEMAßUNG
 62
     7
100
AcDbVertex
100
AcDb2dVertex
 10
-18.63193765810243
 20
210.4471028119716
 30
0.0
  0
SEQEND
  5
3B9
330
3B6
100
AcDbEntity
  8
BEMAßUNG
  0
POLYLINE
  5
3BA
330
1F
100
AcDbEntity
  8
BEMAßUNG
 62
     7
100
AcDb2dPolyline
 66
     1
 10
0.0
 20
0.0
 30
0.0
  0
VERTEX
  5
3BB
330
3BA
100
AcDbEntity
  8
BEMAßUNG
 62
     7
100
AcDbVertex
100
AcDb2dVertex
 10
-18.58077799014647
 20
212.017721843697
 30
0.0
  0
VERTEX
  5
3BC
330
3BA
100
AcDbEntity
  8
BEMAßUNG
 62
     7
100
AcDbVertex
100
AcDb2dVertex
 10
-18.58077799014647
 20
210.061510499785
 30
0.0
  0
SEQEND
  5
3BD
330
3BA
100
AcDbEntity
  8
BEMAßUNG
  0
POLYLINE
  5
3BE
330
1F
100
AcDbEntity
  8
BEMAßUNG
 62
     7
100
AcDb2dPolyline
 66
     1
 10
0.0
 20
0.0
 30
0.0
  0
VERTEX
  5
3BF
330
3BE
100
AcDbEntity
  8
BEMAßUNG
 62
     7
100
AcDbVertex
100
AcDb2dVertex
 10
-18.53030734128756
 20
212.017721843697
 30
0.0
  0
VERTEX
  5
3C0
330
3BE
100
AcDbEntity
  8
BEMAßUNG
 62
     7
100
AcDbVertex
100
AcDb2dVertex
 10
-18.53030734128756
 20
209.6752291685013
 30
0.0
  0
SEQEND
  5
3C1
330
3BE
100
AcDbEntity
  8
BEMAßUNG
  0
POLYLINE
  5
3C2
330
1F
100
AcDbEntity
  8
BEMAßUNG
 62
     7
100
AcDb2dPolyline
 66
     1
 10
0.0
 20
0.0
 30
0.0
  0
VERTEX
  5
3C3
330
3C2
100
AcDbEntity
  8
BEMAßUNG
 62
     7
100
AcDbVertex
100
AcDb2dVertex
 10
-18.47949218288013
 20
212.017721843697
 30
0.0
  0
VERTEX
  5
3C4
330
3C2
100
AcDbEntity
  8
BEMAßUNG
 62
     7
100
AcDbVertex
100
AcDb2dVertex
 10
-18.47949218288013
 20
209.2892923467662
 30
0.0
  0
SEQEND
  5
3C5
330
3C2
100
AcDbEntity
  8
BEMAßUNG
  0
POLYLINE
  5
3C6
330
1F
100
AcDbEntity
  8
BEMAßUNG
 62
     7
100
AcDb2dPolyline
 66
     1
 10
0.0
 20
0.0
 30
0.0
  0
VERTEX
  5
3C7
330
3C6
100
AcDbEntity
  8
BEMAßUNG
 62
     7
100
AcDbVertex
100
AcDb2dVertex
 10
-18.42833251492417
 20
212.017721843697
 30
0.0
  0
VERTEX
  5
3C8
330
3C6
100
AcDbEntity
  8
BEMAßUNG
 62
     7
100
AcDbVertex
100
AcDb2dVertex
 10
-18.42833251492417
 20
208.9037000345796
 30
0.0
  0
SEQEND
  5
3C9
330
3C6
100
AcDbEntity
  8
BEMAßUNG
  0
POLYLINE
  5
3CA
330
1F
100
AcDbEntity
  8
BEMAßUNG
 62
     7
100
AcDb2dPolyline
 66
     1
 10
0.0
 20
0.0
 30
0.0
  0
VERTEX
  5
3CB
330
3CA
100
AcDbEntity
  8
BEMAßUNG
 62
     7
100
AcDbVertex
100
AcDb2dVertex
 10
-18.37786186606526
 20
212.017721843697
 30
0.0
  0
VERTEX
  5
3CC
330
3CA
100
AcDbEntity
  8
BEMAßUNG
 62
     7
100
AcDbVertex
100
AcDb2dVertex
 10
-18.37786186606526
 20
208.518107722393
 30
0.0
  0
SEQEND
  5
3CD
330
3CA
100
AcDbEntity
  8
BEMAßUNG
  0
POLYLINE
  5
3CE
330
1F
100
AcDbEntity
  8
BEMAßUNG
 62
     7
100
AcDb2dPolyline
 66
     1
 10
0.0
 20
0.0
 30
0.0
  0
VERTEX
  5
3CF
330
3CE
100
AcDbEntity
  8
BEMAßUNG
 62
     7
100
AcDbVertex
100
AcDb2dVertex
 10
-18.37786186606526
 20
233.5180460028184
 30
0.0
  0
VERTEX
  5
3D0
330
3CE
100
AcDbEntity
  8
BEMAßUNG
 62
     7
100
AcDbVertex
100
AcDb2dVertex
 10
-18.83864338721742
 20
230.0178289898046
 30
0.0
  0
VERTEX
  5
3D1
330
3CE
100
AcDbEntity
  8
BEMAßUNG
 62
     7
100
AcDbVertex
100
AcDb2dVertex
 10
-17.91725259968736
 20
230.0178289898046
 30
0.0
  0
VERTEX
  5
3D2
330
3CE
100
AcDbEntity
  8
BEMAßUNG
 62
     7
100
AcDbVertex
100
AcDb2dVertex
 10
-18.37786186606526
 20
233.5180460028184
 30
0.0
  0
SEQEND
  5
3D3
330
3CE
100
AcDbEntity
  8
BEMAßUNG
  0
POLYLINE
  5
3D4
330
1F
100
AcDbEntity
  8
BEMAßUNG
 62
     7
100
AcDb2dPolyline
 66
     1
 10
0.0
 20
0.0
 30
0.0
  0
VERTEX
  5
3D5
330
3D4
100
AcDbEntity
  8
BEMAßUNG
 62
     7
100
AcDbVertex
100
AcDb2dVertex
 10
-18.83468152740939
 20
230.0178289898046
 30
0.0
  0
VERTEX
  5
3D6
330
3D4
100
AcDbEntity
  8
BEMAßUNG
 62
     7
100
AcDbVertex
100
AcDb2dVertex
 10
-18.83468152740939
 20
230.0449591167509
 30
0.0
  0
SEQEND
  5
3D7
330
3D4
100
AcDbEntity
  8
BEMAßUNG
  0
POLYLINE
  5
3D8
330
1F
100
AcDbEntity
  8
BEMAßUNG
 62
     7
100
AcDb2dPolyline
 66
     1
 10
0.0
 20
0.0
 30
0.0
  0
VERTEX
  5
3D9
330
3D8
100
AcDbEntity
  8
BEMAßUNG
 62
     7
100
AcDbVertex
100
AcDb2dVertex
 10
-18.83468152740939
 20
230.0178289898046
 30
0.0
  0
VERTEX
  5
3DA
330
3D8
100
AcDbEntity
  8
BEMAßUNG
 62
     7
100
AcDbVertex
100
AcDb2dVertex
 10
-18.83468152740939
 20
230.0449591167509
 30
0.0
  0
SEQEND
  5
3DB
330
3D8
100
AcDbEntity
  8
BEMAßUNG
  0
POLYLINE
  5
3DC
330
1F
100
AcDbEntity
  8
BEMAßUNG
 62
     7
100
AcDb2dPolyline
 66
     1
 10
0.0
 20
0.0
 30
0.0
  0
VERTEX
  5
3DD
330
3DC
100
AcDbEntity
  8
BEMAßUNG
 62
     7
100
AcDbVertex
100
AcDb2dVertex
 10
-18.78438313332474
 20
230.0178289898046
 30
0.0
  0
VERTEX
  5
3DE
330
3DC
100
AcDbEntity
  8
BEMAßUNG
 62
     7
100
AcDbVertex
100
AcDb2dVertex
 10
-18.78438313332474
 20
230.4312404480346
 30
0.0
  0
SEQEND
  5
3DF
330
3DC
100
AcDbEntity
  8
BEMAßUNG
  0
POLYLINE
  5
3E0
330
1F
100
AcDbEntity
  8
BEMAßUNG
 62
     7
100
AcDb2dPolyline
 66
     1
 10
0.0
 20
0.0
 30
0.0
  0
VERTEX
  5
3E1
330
3E0
100
AcDbEntity
  8
BEMAßUNG
 62
     7
100
AcDbVertex
100
AcDb2dVertex
 10
-18.73322346536878
 20
230.0178289898046
 30
0.0
  0
VERTEX
  5
3E2
330
3E0
100
AcDbEntity
  8
BEMAßUNG
 62
     7
100
AcDbVertex
100
AcDb2dVertex
 10
-18.73322346536878
 20
230.8164882506726
 30
0.0
  0
SEQEND
  5
3E3
330
3E0
100
AcDbEntity
  8
BEMAßUNG
  0
POLYLINE
  5
3E4
330
1F
100
AcDbEntity
  8
BEMAßUNG
 62
     7
100
AcDb2dPolyline
 66
     1
 10
0.0
 20
0.0
 30
0.0
  0
VERTEX
  5
3E5
330
3E4
100
AcDbEntity
  8
BEMAßUNG
 62
     7
100
AcDbVertex
100
AcDb2dVertex
 10
-18.68240830696134
 20
230.0178289898046
 30
0.0
  0
VERTEX
  5
3E6
330
3E4
100
AcDbEntity
  8
BEMAßUNG
 62
     7
100
AcDbVertex
100
AcDb2dVertex
 10
-18.68240830696134
 20
231.2027695819563
 30
0.0
  0
SEQEND
  5
3E7
330
3E4
100
AcDbEntity
  8
BEMAßUNG
  0
POLYLINE
  5
3E8
330
1F
100
AcDbEntity
  8
BEMAßUNG
 62
     7
100
AcDb2dPolyline
 66
     1
 10
0.0
 20
0.0
 30
0.0
  0
VERTEX
  5
3E9
330
3E8
100
AcDbEntity
  8
BEMAßUNG
 62
     7
100
AcDbVertex
100
AcDb2dVertex
 10
-18.63193765810243
 20
230.0178289898046
 30
0.0
  0
VERTEX
  5
3EA
330
3E8
100
AcDbEntity
  8
BEMAßUNG
 62
     7
100
AcDbVertex
100
AcDb2dVertex
 10
-18.63193765810243
 20
231.5883618941428
 30
0.0
  0
SEQEND
  5
3EB
330
3E8
100
AcDbEntity
  8
BEMAßUNG
  0
POLYLINE
  5
3EC
330
1F
100
AcDbEntity
  8
BEMAßUNG
 62
     7
100
AcDb2dPolyline
 66
     1
 10
0.0
 20
0.0
 30
0.0
  0
VERTEX
  5
3ED
330
3EC
100
AcDbEntity
  8
BEMAßUNG
 62
     7
100
AcDbVertex
100
AcDb2dVertex
 10
-18.58077799014647
 20
230.0178289898046
 30
0.0
  0
VERTEX
  5
3EE
330
3EC
100
AcDbEntity
  8
BEMAßUNG
 62
     7
100
AcDbVertex
100
AcDb2dVertex
 10
-18.58077799014647
 20
231.9746432254265
 30
0.0
  0
SEQEND
  5
3EF
330
3EC
100
AcDbEntity
  8
BEMAßUNG
  0
POLYLINE
  5
3F0
330
1F
100
AcDbEntity
  8
BEMAßUNG
 62
     7
100
AcDb2dPolyline
 66
     1
 10
0.0
 20
0.0
 30
0.0
  0
VERTEX
  5
3F1
330
3F0
100
AcDbEntity
  8
BEMAßUNG
 62
     7
100
AcDbVertex
100
AcDb2dVertex
 10
-18.53030734128756
 20
230.0178289898046
 30
0.0
  0
VERTEX
  5
3F2
330
3F0
100
AcDbEntity
  8
BEMAßUNG
 62
     7
100
AcDbVertex
100
AcDb2dVertex
 10
-18.53030734128756
 20
232.3598910280645
 30
0.0
  0
SEQEND
  5
3F3
330
3F0
100
AcDbEntity
  8
BEMAßUNG
  0
POLYLINE
  5
3F4
330
1F
100
AcDbEntity
  8
BEMAßUNG
 62
     7
100
AcDb2dPolyline
 66
     1
 10
0.0
 20
0.0
 30
0.0
  0
VERTEX
  5
3F5
330
3F4
100
AcDbEntity
  8
BEMAßUNG
 62
     7
100
AcDbVertex
100
AcDb2dVertex
 10
-18.47949218288013
 20
230.0178289898046
 30
0.0
  0
VERTEX
  5
3F6
330
3F4
100
AcDbEntity
  8
BEMAßUNG
 62
     7
100
AcDbVertex
100
AcDb2dVertex
 10
-18.47949218288013
 20
232.7461723593482
 30
0.0
  0
SEQEND
  5
3F7
330
3F4
100
AcDbEntity
  8
BEMAßUNG
  0
POLYLINE
  5
3F8
330
1F
100
AcDbEntity
  8
BEMAßUNG
 62
     7
100
AcDb2dPolyline
 66
     1
 10
0.0
 20
0.0
 30
0.0
  0
VERTEX
  5
3F9
330
3F8
100
AcDbEntity
  8
BEMAßUNG
 62
     7
100
AcDbVertex
100
AcDb2dVertex
 10
-18.42833251492417
 20
230.0178289898046
 30
0.0
  0
VERTEX
  5
3FA
330
3F8
100
AcDbEntity
  8
BEMAßUNG
 62
     7
100
AcDbVertex
100
AcDb2dVertex
 10
-18.42833251492417
 20
233.1317646715348
 30
0.0
  0
SEQEND
  5
3FB
330
3F8
100
AcDbEntity
  8
BEMAßUNG
  0
POLYLINE
  5
3FC
330
1F
100
AcDbEntity
  8
BEMAßUNG
 62
     7
100
AcDb2dPolyline
 66
     1
 10
0.0
 20
0.0
 30
0.0
  0
VERTEX
  5
3FD
330
3FC
100
AcDbEntity
  8
BEMAßUNG
 62
     7
100
AcDbVertex
100
AcDb2dVertex
 10
-18.37786186606526
 20
230.0178289898046
 30
0.0
  0
VERTEX
  5
3FE
330
3FC
100
AcDbEntity
  8
BEMAßUNG
 62
     7
100
AcDbVertex
100
AcDb2dVertex
 10
-18.37786186606526
 20
233.5180460028184
 30
0.0
  0
SEQEND
  5
3FF
330
3FC
100
AcDbEntity
  8
BEMAßUNG
  0
POLYLINE
  5
400
330
1F
100
AcDbEntity
  8
BEMAßUNG
 62
     7
100
AcDb2dPolyline
 66
     1
 10
0.0
 20
0.0
 30
0.0
  0
VERTEX
  5
401
330
400
100
AcDbEntity
  8
BEMAßUNG
 62
     7
100
AcDbVertex
100
AcDb2dVertex
 10
-17.92035318562408
 20
230.0178289898046
 30
0.0
  0
VERTEX
  5
402
330
400
100
AcDbEntity
  8
BEMAßUNG
 62
     7
100
AcDbVertex
100
AcDb2dVertex
 10
-17.92035318562408
 20
230.0449591167509
 30
0.0
  0
SEQEND
  5
403
330
400
100
AcDbEntity
  8
BEMAßUNG
  0
POLYLINE
  5
404
330
1F
100
AcDbEntity
  8
BEMAßUNG
 62
     7
100
AcDb2dPolyline
 66
     1
 10
0.0
 20
0.0
 30
0.0
  0
VERTEX
  5
405
330
404
100
AcDbEntity
  8
BEMAßUNG
 62
     7
100
AcDbVertex
100
AcDb2dVertex
 10
-17.92035318562408
 20
230.0178289898046
 30
0.0
  0
VERTEX
  5
406
330
404
100
AcDbEntity
  8
BEMAßUNG
 62
     7
100
AcDbVertex
100
AcDb2dVertex
 10
-17.92035318562408
 20
230.0449591167509
 30
0.0
  0
SEQEND
  5
407
330
404
100
AcDbEntity
  8
BEMAßUNG
  0
POLYLINE
  5
408
330
1F
100
AcDbEntity
  8
BEMAßUNG
 62
     7
100
AcDb2dPolyline
 66
     1
 10
0.0
 20
0.0
 30
0.0
  0
VERTEX
  5
409
330
408
100
AcDbEntity
  8
BEMAßUNG
 62
     7
100
AcDbVertex
100
AcDb2dVertex
 10
-17.97151285358004
 20
230.0178289898046
 30
0.0
  0
VERTEX
  5
40A
330
408
100
AcDbEntity
  8
BEMAßUNG
 62
     7
100
AcDbVertex
100
AcDb2dVertex
 10
-17.97151285358004
 20
230.4312404480346
 30
0.0
  0
SEQEND
  5
40B
330
408
100
AcDbEntity
  8
BEMAßUNG
  0
POLYLINE
  5
40C
330
1F
100
AcDbEntity
  8
BEMAßUNG
 62
     7
100
AcDb2dPolyline
 66
     1
 10
0.0
 20
0.0
 30
0.0
  0
VERTEX
  5
40D
330
40C
100
AcDbEntity
  8
BEMAßUNG
 62
     7
100
AcDbVertex
100
AcDb2dVertex
 10
-18.02198350243895
 20
230.0178289898046
 30
0.0
  0
VERTEX
  5
40E
330
40C
100
AcDbEntity
  8
BEMAßUNG
 62
     7
100
AcDbVertex
100
AcDb2dVertex
 10
-18.02198350243895
 20
230.8164882506726
 30
0.0
  0
SEQEND
  5
40F
330
40C
100
AcDbEntity
  8
BEMAßUNG
  0
POLYLINE
  5
410
330
1F
100
AcDbEntity
  8
BEMAßUNG
 62
     7
100
AcDb2dPolyline
 66
     1
 10
0.0
 20
0.0
 30
0.0
  0
VERTEX
  5
411
330
410
100
AcDbEntity
  8
BEMAßUNG
 62
     7
100
AcDbVertex
100
AcDb2dVertex
 10
-18.07279866084638
 20
230.0178289898046
 30
0.0
  0
VERTEX
  5
412
330
410
100
AcDbEntity
  8
BEMAßUNG
 62
     7
100
AcDbVertex
100
AcDb2dVertex
 10
-18.07279866084638
 20
231.2027695819563
 30
0.0
  0
SEQEND
  5
413
330
410
100
AcDbEntity
  8
BEMAßUNG
  0
POLYLINE
  5
414
330
1F
100
AcDbEntity
  8
BEMAßUNG
 62
     7
100
AcDb2dPolyline
 66
     1
 10
0.0
 20
0.0
 30
0.0
  0
VERTEX
  5
415
330
414
100
AcDbEntity
  8
BEMAßUNG
 62
     7
100
AcDbVertex
100
AcDb2dVertex
 10
-18.12395832880235
 20
230.0178289898046
 30
0.0
  0
VERTEX
  5
416
330
414
100
AcDbEntity
  8
BEMAßUNG
 62
     7
100
AcDbVertex
100
AcDb2dVertex
 10
-18.12395832880235
 20
231.5883618941428
 30
0.0
  0
SEQEND
  5
417
330
414
100
AcDbEntity
  8
BEMAßUNG
  0
POLYLINE
  5
418
330
1F
100
AcDbEntity
  8
BEMAßUNG
 62
     7
100
AcDb2dPolyline
 66
     1
 10
0.0
 20
0.0
 30
0.0
  0
VERTEX
  5
419
330
418
100
AcDbEntity
  8
BEMAßUNG
 62
     7
100
AcDbVertex
100
AcDb2dVertex
 10
-18.17442897766125
 20
230.0178289898046
 30
0.0
  0
VERTEX
  5
41A
330
418
100
AcDbEntity
  8
BEMAßUNG
 62
     7
100
AcDbVertex
100
AcDb2dVertex
 10
-18.17442897766125
 20
231.9746432254265
 30
0.0
  0
SEQEND
  5
41B
330
418
100
AcDbEntity
  8
BEMAßUNG
  0
POLYLINE
  5
41C
330
1F
100
AcDbEntity
  8
BEMAßUNG
 62
     7
100
AcDb2dPolyline
 66
     1
 10
0.0
 20
0.0
 30
0.0
  0
VERTEX
  5
41D
330
41C
100
AcDbEntity
  8
BEMAßUNG
 62
     7
100
AcDbVertex
100
AcDb2dVertex
 10
-18.22541639084295
 20
230.0178289898046
 30
0.0
  0
VERTEX
  5
41E
330
41C
100
AcDbEntity
  8
BEMAßUNG
 62
     7
100
AcDbVertex
100
AcDb2dVertex
 10
-18.22541639084295
 20
232.3598910280645
 30
0.0
  0
SEQEND
  5
41F
330
41C
100
AcDbEntity
  8
BEMAßUNG
  0
POLYLINE
  5
420
330
1F
100
AcDbEntity
  8
BEMAßUNG
 62
     7
100
AcDb2dPolyline
 66
     1
 10
0.0
 20
0.0
 30
0.0
  0
VERTEX
  5
421
330
420
100
AcDbEntity
  8
BEMAßUNG
 62
     7
100
AcDbVertex
100
AcDb2dVertex
 10
-18.27588703970186
 20
230.0178289898046
 30
0.0
  0
VERTEX
  5
422
330
420
100
AcDbEntity
  8
BEMAßUNG
 62
     7
100
AcDbVertex
100
AcDb2dVertex
 10
-18.27588703970186
 20
232.7461723593482
 30
0.0
  0
SEQEND
  5
423
330
420
100
AcDbEntity
  8
BEMAßUNG
  0
POLYLINE
  5
424
330
1F
100
AcDbEntity
  8
BEMAßUNG
 62
     7
100
AcDb2dPolyline
 66
     1
 10
0.0
 20
0.0
 30
0.0
  0
VERTEX
  5
425
330
424
100
AcDbEntity
  8
BEMAßUNG
 62
     7
100
AcDbVertex
100
AcDb2dVertex
 10
-18.3267021981093
 20
230.0178289898046
 30
0.0
  0
VERTEX
  5
426
330
424
100
AcDbEntity
  8
BEMAßUNG
 62
     7
100
AcDbVertex
100
AcDb2dVertex
 10
-18.3267021981093
 20
233.1317646715348
 30
0.0
  0
SEQEND
  5
427
330
424
100
AcDbEntity
  8
BEMAßUNG
  0
POLYLINE
  5
428
330
1F
100
AcDbEntity
  8
BEMAßUNG
 62
     7
100
AcDb2dPolyline
 66
     1
 10
0.0
 20
0.0
 30
0.0
  0
VERTEX
  5
429
330
428
100
AcDbEntity
  8
BEMAßUNG
 62
     7
100
AcDbVertex
100
AcDb2dVertex
 10
-18.37786186606526
 20
230.0178289898046
 30
0.0
  0
VERTEX
  5
42A
330
428
100
AcDbEntity
  8
BEMAßUNG
 62
     7
100
AcDbVertex
100
AcDb2dVertex
 10
-18.37786186606526
 20
233.5180460028184
 30
0.0
  0
SEQEND
  5
42B
330
428
100
AcDbEntity
  8
BEMAßUNG
  0
POLYLINE
  5
42C
330
1F
100
AcDbEntity
  8
BEMAßUNG
 62
     7
100
AcDb2dPolyline
 66
     1
 10
0.0
 20
0.0
 30
0.0
  0
VERTEX
  5
42D
330
42C
100
AcDbEntity
  8
BEMAßUNG
 62
     7
100
AcDbVertex
100
AcDb2dVertex
 10
195.770823790033
 20
210.4813815120498
 30
0.0
  0
VERTEX
  5
42E
330
42C
100
AcDbEntity
  8
BEMAßUNG
 62
     7
100
AcDbVertex
100
AcDb2dVertex
 10
195.770823790033
 20
166.6401298954059
 30
0.0
  0
SEQEND
  5
42F
330
42C
100
AcDbEntity
  8
BEMAßUNG
  0
POLYLINE
  5
430
330
1F
100
AcDbEntity
  8
BEMAßUNG
 62
     7
100
AcDb2dPolyline
 66
     1
 10
0.0
 20
0.0
 30
0.0
  0
VERTEX
  5
431
330
430
100
AcDbEntity
  8
BEMAßUNG
 62
     7
100
AcDbVertex
100
AcDb2dVertex
 10
-8.228955076067761
 20
209.517529922664
 30
0.0
  0
VERTEX
  5
432
330
430
100
AcDbEntity
  8
BEMAßUNG
 62
     7
100
AcDbVertex
100
AcDb2dVertex
 10
-8.228955076067761
 20
166.6401298954059
 30
0.0
  0
SEQEND
  5
433
330
430
100
AcDbEntity
  8
BEMAßUNG
  0
POLYLINE
  5
434
330
1F
100
AcDbEntity
  8
BEMAßUNG
 62
     7
100
AcDb2dPolyline
 66
     1
 10
0.0
 20
0.0
 30
0.0
  0
VERTEX
  5
435
330
434
100
AcDbEntity
  8
BEMAßUNG
 62
     7
100
AcDbVertex
100
AcDb2dVertex
 10
195.770823790033
 20
168.6396633150449
 30
0.0
  0
VERTEX
  5
436
330
434
100
AcDbEntity
  8
BEMAßUNG
 62
     7
100
AcDbVertex
100
AcDb2dVertex
 10
-8.228955076067761
 20
168.6396633150449
 30
0.0
  0
SEQEND
  5
437
330
434
100
AcDbEntity
  8
BEMAßUNG
  0
POLYLINE
  5
438
330
1F
100
AcDbEntity
  8
BEMAßUNG
 62
     7
100
AcDb2dPolyline
 66
     1
 10
0.0
 20
0.0
 30
0.0
  0
VERTEX
  5
439
330
438
100
AcDbEntity
  8
BEMAßUNG
 62
     7
100
AcDbVertex
100
AcDb2dVertex
 10
195.770823790033
 20
168.6396633150449
 30
0.0
  0
VERTEX
  5
43A
330
438
100
AcDbEntity
  8
BEMAßUNG
 62
     7
100
AcDbVertex
100
AcDb2dVertex
 10
192.2706067770192
 20
169.1004448361971
 30
0.0
  0
VERTEX
  5
43B
330
438
100
AcDbEntity
  8
BEMAßUNG
 62
     7
100
AcDbVertex
100
AcDb2dVertex
 10
192.2706067770192
 20
168.1792263034413
 30
0.0
  0
VERTEX
  5
43C
330
438
100
AcDbEntity
  8
BEMAßUNG
 62
     7
100
AcDbVertex
100
AcDb2dVertex
 10
195.770823790033
 20
168.6396633150449
 30
0.0
  0
SEQEND
  5
43D
330
438
100
AcDbEntity
  8
BEMAßUNG
  0
POLYLINE
  5
43E
330
1F
100
AcDbEntity
  8
BEMAßUNG
 62
     7
100
AcDb2dPolyline
 66
     1
 10
0.0
 20
0.0
 30
0.0
  0
VERTEX
  5
43F
330
43E
100
AcDbEntity
  8
BEMAßUNG
 62
     7
100
AcDbVertex
100
AcDb2dVertex
 10
192.2706067770192
 20
169.0968274859376
 30
0.0
  0
VERTEX
  5
440
330
43E
100
AcDbEntity
  8
BEMAßUNG
 62
     7
100
AcDbVertex
100
AcDb2dVertex
 10
192.2978230313526
 20
169.0968274859376
 30
0.0
  0
SEQEND
  5
441
330
43E
100
AcDbEntity
  8
BEMAßUNG
  0
POLYLINE
  5
442
330
1F
100
AcDbEntity
  8
BEMAßUNG
 62
     7
100
AcDb2dPolyline
 66
     1
 10
0.0
 20
0.0
 30
0.0
  0
VERTEX
  5
443
330
442
100
AcDbEntity
  8
BEMAßUNG
 62
     7
100
AcDbVertex
100
AcDb2dVertex
 10
192.2706067770192
 20
169.0968274859376
 30
0.0
  0
VERTEX
  5
444
330
442
100
AcDbEntity
  8
BEMAßUNG
 62
     7
100
AcDbVertex
100
AcDb2dVertex
 10
192.2978230313526
 20
169.0968274859376
 30
0.0
  0
SEQEND
  5
445
330
442
100
AcDbEntity
  8
BEMAßUNG
  0
POLYLINE
  5
446
330
1F
100
AcDbEntity
  8
BEMAßUNG
 62
     7
100
AcDb2dPolyline
 66
     1
 10
0.0
 20
0.0
 30
0.0
  0
VERTEX
  5
447
330
446
100
AcDbEntity
  8
BEMAßUNG
 62
     7
100
AcDbVertex
100
AcDb2dVertex
 10
192.2706067770192
 20
169.0460123275302
 30
0.0
  0
VERTEX
  5
448
330
446
100
AcDbEntity
  8
BEMAßUNG
 62
     7
100
AcDbVertex
100
AcDb2dVertex
 10
192.6840182352491
 20
169.0460123275302
 30
0.0
  0
SEQEND
  5
449
330
446
100
AcDbEntity
  8
BEMAßUNG
  0
POLYLINE
  5
44A
330
1F
100
AcDbEntity
  8
BEMAßUNG
 62
     7
100
AcDb2dPolyline
 66
     1
 10
0.0
 20
0.0
 30
0.0
  0
VERTEX
  5
44B
330
44A
100
AcDbEntity
  8
BEMAßUNG
 62
     7
100
AcDbVertex
100
AcDb2dVertex
 10
192.2706067770192
 20
168.9951971691227
 30
0.0
  0
VERTEX
  5
44C
330
44A
100
AcDbEntity
  8
BEMAßUNG
 62
     7
100
AcDbVertex
100
AcDb2dVertex
 10
193.0696966748229
 20
168.9951971691227
 30
0.0
  0
SEQEND
  5
44D
330
44A
100
AcDbEntity
  8
BEMAßUNG
  0
POLYLINE
  5
44E
330
1F
100
AcDbEntity
  8
BEMAßUNG
 62
     7
100
AcDb2dPolyline
 66
     1
 10
0.0
 20
0.0
 30
0.0
  0
VERTEX
  5
44F
330
44E
100
AcDbEntity
  8
BEMAßUNG
 62
     7
100
AcDbVertex
100
AcDb2dVertex
 10
192.2706067770192
 20
168.9443820107153
 30
0.0
  0
VERTEX
  5
450
330
44E
100
AcDbEntity
  8
BEMAßUNG
 62
     7
100
AcDbVertex
100
AcDb2dVertex
 10
193.4558918787194
 20
168.9443820107153
 30
0.0
  0
SEQEND
  5
451
330
44E
100
AcDbEntity
  8
BEMAßUNG
  0
POLYLINE
  5
452
330
1F
100
AcDbEntity
  8
BEMAßUNG
 62
     7
100
AcDb2dPolyline
 66
     1
 10
0.0
 20
0.0
 30
0.0
  0
VERTEX
  5
453
330
452
100
AcDbEntity
  8
BEMAßUNG
 62
     7
100
AcDbVertex
100
AcDb2dVertex
 10
192.2706067770192
 20
168.8939113618564
 30
0.0
  0
VERTEX
  5
454
330
452
100
AcDbEntity
  8
BEMAßUNG
 62
     7
100
AcDbVertex
100
AcDb2dVertex
 10
193.8412258087446
 20
168.8939113618564
 30
0.0
  0
SEQEND
  5
455
330
452
100
AcDbEntity
  8
BEMAßUNG
  0
POLYLINE
  5
456
330
1F
100
AcDbEntity
  8
BEMAßUNG
 62
     7
100
AcDb2dPolyline
 66
     1
 10
0.0
 20
0.0
 30
0.0
  0
VERTEX
  5
457
330
456
100
AcDbEntity
  8
BEMAßUNG
 62
     7
100
AcDbVertex
100
AcDb2dVertex
 10
192.2706067770192
 20
168.843096203449
 30
0.0
  0
VERTEX
  5
458
330
456
100
AcDbEntity
  8
BEMAßUNG
 62
     7
100
AcDbVertex
100
AcDb2dVertex
 10
194.2274210126411
 20
168.843096203449
 30
0.0
  0
SEQEND
  5
459
330
456
100
AcDbEntity
  8
BEMAßUNG
  0
POLYLINE
  5
45A
330
1F
100
AcDbEntity
  8
BEMAßUNG
 62
     7
100
AcDb2dPolyline
 66
     1
 10
0.0
 20
0.0
 30
0.0
  0
VERTEX
  5
45B
330
45A
100
AcDbEntity
  8
BEMAßUNG
 62
     7
100
AcDbVertex
100
AcDb2dVertex
 10
192.2706067770192
 20
168.7924532998158
 30
0.0
  0
VERTEX
  5
45C
330
45A
100
AcDbEntity
  8
BEMAßUNG
 62
     7
100
AcDbVertex
100
AcDb2dVertex
 10
194.6130994522148
 20
168.7924532998158
 30
0.0
  0
SEQEND
  5
45D
330
45A
100
AcDbEntity
  8
BEMAßUNG
  0
POLYLINE
  5
45E
330
1F
100
AcDbEntity
  8
BEMAßUNG
 62
     7
100
AcDb2dPolyline
 66
     1
 10
0.0
 20
0.0
 30
0.0
  0
VERTEX
  5
45F
330
45E
100
AcDbEntity
  8
BEMAßUNG
 62
     7
100
AcDbVertex
100
AcDb2dVertex
 10
192.2706067770192
 20
168.7416381414083
 30
0.0
  0
VERTEX
  5
460
330
45E
100
AcDbEntity
  8
BEMAßUNG
 62
     7
100
AcDbVertex
100
AcDb2dVertex
 10
194.9992946561113
 20
168.7416381414083
 30
0.0
  0
SEQEND
  5
461
330
45E
100
AcDbEntity
  8
BEMAßUNG
  0
POLYLINE
  5
462
330
1F
100
AcDbEntity
  8
BEMAßUNG
 62
     7
100
AcDb2dPolyline
 66
     1
 10
0.0
 20
0.0
 30
0.0
  0
VERTEX
  5
463
330
462
100
AcDbEntity
  8
BEMAßUNG
 62
     7
100
AcDbVertex
100
AcDb2dVertex
 10
192.2706067770192
 20
168.6908229830009
 30
0.0
  0
VERTEX
  5
464
330
462
100
AcDbEntity
  8
BEMAßUNG
 62
     7
100
AcDbVertex
100
AcDb2dVertex
 10
195.384973095685
 20
168.6908229830009
 30
0.0
  0
SEQEND
  5
465
330
462
100
AcDbEntity
  8
BEMAßUNG
  0
POLYLINE
  5
466
330
1F
100
AcDbEntity
  8
BEMAßUNG
 62
     7
100
AcDb2dPolyline
 66
     1
 10
0.0
 20
0.0
 30
0.0
  0
VERTEX
  5
467
330
466
100
AcDbEntity
  8
BEMAßUNG
 62
     7
100
AcDbVertex
100
AcDb2dVertex
 10
192.2706067770192
 20
168.6396633150449
 30
0.0
  0
VERTEX
  5
468
330
466
100
AcDbEntity
  8
BEMAßUNG
 62
     7
100
AcDbVertex
100
AcDb2dVertex
 10
195.770823790033
 20
168.6396633150449
 30
0.0
  0
SEQEND
  5
469
330
466
100
AcDbEntity
  8
BEMAßUNG
  0
POLYLINE
  5
46A
330
1F
100
AcDbEntity
  8
BEMAßUNG
 62
     7
100
AcDb2dPolyline
 66
     1
 10
0.0
 20
0.0
 30
0.0
  0
VERTEX
  5
46B
330
46A
100
AcDbEntity
  8
BEMAßUNG
 62
     7
100
AcDbVertex
100
AcDb2dVertex
 10
192.2706067770192
 20
168.1828436537008
 30
0.0
  0
VERTEX
  5
46C
330
46A
100
AcDbEntity
  8
BEMAßUNG
 62
     7
100
AcDbVertex
100
AcDb2dVertex
 10
192.2978230313526
 20
168.1828436537008
 30
0.0
  0
SEQEND
  5
46D
330
46A
100
AcDbEntity
  8
BEMAßUNG
  0
POLYLINE
  5
46E
330
1F
100
AcDbEntity
  8
BEMAßUNG
 62
     7
100
AcDb2dPolyline
 66
     1
 10
0.0
 20
0.0
 30
0.0
  0
VERTEX
  5
46F
330
46E
100
AcDbEntity
  8
BEMAßUNG
 62
     7
100
AcDbVertex
100
AcDb2dVertex
 10
192.2706067770192
 20
168.1828436537008
 30
0.0
  0
VERTEX
  5
470
330
46E
100
AcDbEntity
  8
BEMAßUNG
 62
     7
100
AcDbVertex
100
AcDb2dVertex
 10
192.2978230313526
 20
168.1828436537008
 30
0.0
  0
SEQEND
  5
471
330
46E
100
AcDbEntity
  8
BEMAßUNG
  0
POLYLINE
  5
472
330
1F
100
AcDbEntity
  8
BEMAßUNG
 62
     7
100
AcDb2dPolyline
 66
     1
 10
0.0
 20
0.0
 30
0.0
  0
VERTEX
  5
473
330
472
100
AcDbEntity
  8
BEMAßUNG
 62
     7
100
AcDbVertex
100
AcDb2dVertex
 10
192.2706067770192
 20
168.2336588121082
 30
0.0
  0
VERTEX
  5
474
330
472
100
AcDbEntity
  8
BEMAßUNG
 62
     7
100
AcDbVertex
100
AcDb2dVertex
 10
192.6840182352491
 20
168.2336588121082
 30
0.0
  0
SEQEND
  5
475
330
472
100
AcDbEntity
  8
BEMAßUNG
  0
POLYLINE
  5
476
330
1F
100
AcDbEntity
  8
BEMAßUNG
 62
     7
100
AcDb2dPolyline
 66
     1
 10
0.0
 20
0.0
 30
0.0
  0
VERTEX
  5
477
330
476
100
AcDbEntity
  8
BEMAßUNG
 62
     7
100
AcDbVertex
100
AcDb2dVertex
 10
192.2706067770192
 20
168.2843017157414
 30
0.0
  0
VERTEX
  5
478
330
476
100
AcDbEntity
  8
BEMAßUNG
 62
     7
100
AcDbVertex
100
AcDb2dVertex
 10
193.0696966748229
 20
168.2843017157414
 30
0.0
  0
SEQEND
  5
479
330
476
100
AcDbEntity
  8
BEMAßUNG
  0
POLYLINE
  5
47A
330
1F
100
AcDbEntity
  8
BEMAßUNG
 62
     7
100
AcDb2dPolyline
 66
     1
 10
0.0
 20
0.0
 30
0.0
  0
VERTEX
  5
47B
330
47A
100
AcDbEntity
  8
BEMAßUNG
 62
     7
100
AcDbVertex
100
AcDb2dVertex
 10
192.2706067770192
 20
168.3351168741489
 30
0.0
  0
VERTEX
  5
47C
330
47A
100
AcDbEntity
  8
BEMAßUNG
 62
     7
100
AcDbVertex
100
AcDb2dVertex
 10
193.4558918787194
 20
168.3351168741489
 30
0.0
  0
SEQEND
  5
47D
330
47A
100
AcDbEntity
  8
BEMAßUNG
  0
POLYLINE
  5
47E
330
1F
100
AcDbEntity
  8
BEMAßUNG
 62
     7
100
AcDb2dPolyline
 66
     1
 10
0.0
 20
0.0
 30
0.0
  0
VERTEX
  5
47F
330
47E
100
AcDbEntity
  8
BEMAßUNG
 62
     7
100
AcDbVertex
100
AcDb2dVertex
 10
192.2706067770192
 20
168.3859320325563
 30
0.0
  0
VERTEX
  5
480
330
47E
100
AcDbEntity
  8
BEMAßUNG
 62
     7
100
AcDbVertex
100
AcDb2dVertex
 10
193.8412258087446
 20
168.3859320325563
 30
0.0
  0
SEQEND
  5
481
330
47E
100
AcDbEntity
  8
BEMAßUNG
  0
POLYLINE
  5
482
330
1F
100
AcDbEntity
  8
BEMAßUNG
 62
     7
100
AcDb2dPolyline
 66
     1
 10
0.0
 20
0.0
 30
0.0
  0
VERTEX
  5
483
330
482
100
AcDbEntity
  8
BEMAßUNG
 62
     7
100
AcDbVertex
100
AcDb2dVertex
 10
192.2706067770192
 20
168.4364026814152
 30
0.0
  0
VERTEX
  5
484
330
482
100
AcDbEntity
  8
BEMAßUNG
 62
     7
100
AcDbVertex
100
AcDb2dVertex
 10
194.2274210126411
 20
168.4364026814152
 30
0.0
  0
SEQEND
  5
485
330
482
100
AcDbEntity
  8
BEMAßUNG
  0
POLYLINE
  5
486
330
1F
100
AcDbEntity
  8
BEMAßUNG
 62
     7
100
AcDb2dPolyline
 66
     1
 10
0.0
 20
0.0
 30
0.0
  0
VERTEX
  5
487
330
486
100
AcDbEntity
  8
BEMAßUNG
 62
     7
100
AcDbVertex
100
AcDb2dVertex
 10
192.2706067770192
 20
168.4872178398226
 30
0.0
  0
VERTEX
  5
488
330
486
100
AcDbEntity
  8
BEMAßUNG
 62
     7
100
AcDbVertex
100
AcDb2dVertex
 10
194.6130994522148
 20
168.4872178398226
 30
0.0
  0
SEQEND
  5
489
330
486
100
AcDbEntity
  8
BEMAßUNG
  0
POLYLINE
  5
48A
330
1F
100
AcDbEntity
  8
BEMAßUNG
 62
     7
100
AcDb2dPolyline
 66
     1
 10
0.0
 20
0.0
 30
0.0
  0
VERTEX
  5
48B
330
48A
100
AcDbEntity
  8
BEMAßUNG
 62
     7
100
AcDbVertex
100
AcDb2dVertex
 10
192.2706067770192
 20
168.5380329982301
 30
0.0
  0
VERTEX
  5
48C
330
48A
100
AcDbEntity
  8
BEMAßUNG
 62
     7
100
AcDbVertex
100
AcDb2dVertex
 10
194.9992946561113
 20
168.5380329982301
 30
0.0
  0
SEQEND
  5
48D
330
48A
100
AcDbEntity
  8
BEMAßUNG
  0
POLYLINE
  5
48E
330
1F
100
AcDbEntity
  8
BEMAßUNG
 62
     7
100
AcDb2dPolyline
 66
     1
 10
0.0
 20
0.0
 30
0.0
  0
VERTEX
  5
48F
330
48E
100
AcDbEntity
  8
BEMAßUNG
 62
     7
100
AcDbVertex
100
AcDb2dVertex
 10
192.2706067770192
 20
168.5888481566375
 30
0.0
  0
VERTEX
  5
490
330
48E
100
AcDbEntity
  8
BEMAßUNG
 62
     7
100
AcDbVertex
100
AcDb2dVertex
 10
195.384973095685
 20
168.5888481566375
 30
0.0
  0
SEQEND
  5
491
330
48E
100
AcDbEntity
  8
BEMAßUNG
  0
POLYLINE
  5
492
330
1F
100
AcDbEntity
  8
BEMAßUNG
 62
     7
100
AcDb2dPolyline
 66
     1
 10
0.0
 20
0.0
 30
0.0
  0
VERTEX
  5
493
330
492
100
AcDbEntity
  8
BEMAßUNG
 62
     7
100
AcDbVertex
100
AcDb2dVertex
 10
192.2706067770192
 20
168.6396633150449
 30
0.0
  0
VERTEX
  5
494
330
492
100
AcDbEntity
  8
BEMAßUNG
 62
     7
100
AcDbVertex
100
AcDb2dVertex
 10
195.770823790033
 20
168.6396633150449
 30
0.0
  0
SEQEND
  5
495
330
492
100
AcDbEntity
  8
BEMAßUNG
  0
POLYLINE
  5
496
330
1F
100
AcDbEntity
  8
BEMAßUNG
 62
     7
100
AcDb2dPolyline
 66
     1
 10
0.0
 20
0.0
 30
0.0
  0
VERTEX
  5
497
330
496
100
AcDbEntity
  8
BEMAßUNG
 62
     7
100
AcDbVertex
100
AcDb2dVertex
 10
-8.228955076067761
 20
168.6396633150449
 30
0.0
  0
VERTEX
  5
498
330
496
100
AcDbEntity
  8
BEMAßUNG
 62
     7
100
AcDbVertex
100
AcDb2dVertex
 10
-4.729254827376714
 20
168.1792263034413
 30
0.0
  0
VERTEX
  5
499
330
496
100
AcDbEntity
  8
BEMAßUNG
 62
     7
100
AcDbVertex
100
AcDb2dVertex
 10
-4.729254827376714
 20
169.1004448361971
 30
0.0
  0
VERTEX
  5
49A
330
496
100
AcDbEntity
  8
BEMAßUNG
 62
     7
100
AcDbVertex
100
AcDb2dVertex
 10
-8.228955076067761
 20
168.6396633150449
 30
0.0
  0
SEQEND
  5
49B
330
496
100
AcDbEntity
  8
BEMAßUNG
  0
POLYLINE
  5
49C
330
1F
100
AcDbEntity
  8
BEMAßUNG
 62
     7
100
AcDb2dPolyline
 66
     1
 10
0.0
 20
0.0
 30
0.0
  0
VERTEX
  5
49D
330
49C
100
AcDbEntity
  8
BEMAßUNG
 62
     7
100
AcDbVertex
100
AcDb2dVertex
 10
-4.729254827376714
 20
168.1828436537008
 30
0.0
  0
VERTEX
  5
49E
330
49C
100
AcDbEntity
  8
BEMAßUNG
 62
     7
100
AcDbVertex
100
AcDb2dVertex
 10
-4.756126572161663
 20
168.1828436537008
 30
0.0
  0
SEQEND
  5
49F
330
49C
100
AcDbEntity
  8
BEMAßUNG
  0
POLYLINE
  5
4A0
330
1F
100
AcDbEntity
  8
BEMAßUNG
 62
     7
100
AcDb2dPolyline
 66
     1
 10
0.0
 20
0.0
 30
0.0
  0
VERTEX
  5
4A1
330
4A0
100
AcDbEntity
  8
BEMAßUNG
 62
     7
100
AcDbVertex
100
AcDb2dVertex
 10
-4.729254827376714
 20
168.1828436537008
 30
0.0
  0
VERTEX
  5
4A2
330
4A0
100
AcDbEntity
  8
BEMAßUNG
 62
     7
100
AcDbVertex
100
AcDb2dVertex
 10
-4.756126572161663
 20
168.1828436537008
 30
0.0
  0
SEQEND
  5
4A3
330
4A0
100
AcDbEntity
  8
BEMAßUNG
  0
POLYLINE
  5
4A4
330
1F
100
AcDbEntity
  8
BEMAßUNG
 62
     7
100
AcDb2dPolyline
 66
     1
 10
0.0
 20
0.0
 30
0.0
  0
VERTEX
  5
4A5
330
4A4
100
AcDbEntity
  8
BEMAßUNG
 62
     7
100
AcDbVertex
100
AcDb2dVertex
 10
-4.729254827376714
 20
168.2336588121082
 30
0.0
  0
VERTEX
  5
4A6
330
4A4
100
AcDbEntity
  8
BEMAßUNG
 62
     7
100
AcDbVertex
100
AcDb2dVertex
 10
-5.142149521283907
 20
168.2336588121082
 30
0.0
  0
SEQEND
  5
4A7
330
4A4
100
AcDbEntity
  8
BEMAßUNG
  0
POLYLINE
  5
4A8
330
1F
100
AcDbEntity
  8
BEMAßUNG
 62
     7
100
AcDb2dPolyline
 66
     1
 10
0.0
 20
0.0
 30
0.0
  0
VERTEX
  5
4A9
330
4A8
100
AcDbEntity
  8
BEMAßUNG
 62
     7
100
AcDbVertex
100
AcDb2dVertex
 10
-4.729254827376714
 20
168.2843017157414
 30
0.0
  0
VERTEX
  5
4AA
330
4A8
100
AcDbEntity
  8
BEMAßUNG
 62
     7
100
AcDbVertex
100
AcDb2dVertex
 10
-5.528344725180414
 20
168.2843017157414
 30
0.0
  0
SEQEND
  5
4AB
330
4A8
100
AcDbEntity
  8
BEMAßUNG
  0
POLYLINE
  5
4AC
330
1F
100
AcDbEntity
  8
BEMAßUNG
 62
     7
100
AcDb2dPolyline
 66
     1
 10
0.0
 20
0.0
 30
0.0
  0
VERTEX
  5
4AD
330
4AC
100
AcDbEntity
  8
BEMAßUNG
 62
     7
100
AcDbVertex
100
AcDb2dVertex
 10
-4.729254827376714
 20
168.3351168741489
 30
0.0
  0
VERTEX
  5
4AE
330
4AC
100
AcDbEntity
  8
BEMAßUNG
 62
     7
100
AcDbVertex
100
AcDb2dVertex
 10
-5.914023164754133
 20
168.3351168741489
 30
0.0
  0
SEQEND
  5
4AF
330
4AC
100
AcDbEntity
  8
BEMAßUNG
  0
POLYLINE
  5
4B0
330
1F
100
AcDbEntity
  8
BEMAßUNG
 62
     7
100
AcDb2dPolyline
 66
     1
 10
0.0
 20
0.0
 30
0.0
  0
VERTEX
  5
4B1
330
4B0
100
AcDbEntity
  8
BEMAßUNG
 62
     7
100
AcDbVertex
100
AcDb2dVertex
 10
-4.729254827376714
 20
168.3859320325563
 30
0.0
  0
VERTEX
  5
4B2
330
4B0
100
AcDbEntity
  8
BEMAßUNG
 62
     7
100
AcDbVertex
100
AcDb2dVertex
 10
-6.29952934955359
 20
168.3859320325563
 30
0.0
  0
SEQEND
  5
4B3
330
4B0
100
AcDbEntity
  8
BEMAßUNG
  0
POLYLINE
  5
4B4
330
1F
100
AcDbEntity
  8
BEMAßUNG
 62
     7
100
AcDb2dPolyline
 66
     1
 10
0.0
 20
0.0
 30
0.0
  0
VERTEX
  5
4B5
330
4B4
100
AcDbEntity
  8
BEMAßUNG
 62
     7
100
AcDbVertex
100
AcDb2dVertex
 10
-4.729254827376714
 20
168.4364026814152
 30
0.0
  0
VERTEX
  5
4B6
330
4B4
100
AcDbEntity
  8
BEMAßUNG
 62
     7
100
AcDbVertex
100
AcDb2dVertex
 10
-6.685552298675835
 20
168.4364026814152
 30
0.0
  0
SEQEND
  5
4B7
330
4B4
100
AcDbEntity
  8
BEMAßUNG
  0
POLYLINE
  5
4B8
330
1F
100
AcDbEntity
  8
BEMAßUNG
 62
     7
100
AcDb2dPolyline
 66
     1
 10
0.0
 20
0.0
 30
0.0
  0
VERTEX
  5
4B9
330
4B8
100
AcDbEntity
  8
BEMAßUNG
 62
     7
100
AcDbVertex
100
AcDb2dVertex
 10
-4.729254827376714
 20
168.4872178398226
 30
0.0
  0
VERTEX
  5
4BA
330
4B8
100
AcDbEntity
  8
BEMAßUNG
 62
     7
100
AcDbVertex
100
AcDb2dVertex
 10
-7.071747502572341
 20
168.4872178398226
 30
0.0
  0
SEQEND
  5
4BB
330
4B8
100
AcDbEntity
  8
BEMAßUNG
  0
POLYLINE
  5
4BC
330
1F
100
AcDbEntity
  8
BEMAßUNG
 62
     7
100
AcDb2dPolyline
 66
     1
 10
0.0
 20
0.0
 30
0.0
  0
VERTEX
  5
4BD
330
4BC
100
AcDbEntity
  8
BEMAßUNG
 62
     7
100
AcDbVertex
100
AcDb2dVertex
 10
-4.729254827376714
 20
168.5380329982301
 30
0.0
  0
VERTEX
  5
4BE
330
4BC
100
AcDbEntity
  8
BEMAßUNG
 62
     7
100
AcDbVertex
100
AcDb2dVertex
 10
-7.45742594214606
 20
168.5380329982301
 30
0.0
  0
SEQEND
  5
4BF
330
4BC
100
AcDbEntity
  8
BEMAßUNG
  0
POLYLINE
  5
4C0
330
1F
100
AcDbEntity
  8
BEMAßUNG
 62
     7
100
AcDb2dPolyline
 66
     1
 10
0.0
 20
0.0
 30
0.0
  0
VERTEX
  5
4C1
330
4C0
100
AcDbEntity
  8
BEMAßUNG
 62
     7
100
AcDbVertex
100
AcDb2dVertex
 10
-4.729254827376714
 20
168.5888481566375
 30
0.0
  0
VERTEX
  5
4C2
330
4C0
100
AcDbEntity
  8
BEMAßUNG
 62
     7
100
AcDbVertex
100
AcDb2dVertex
 10
-7.843621146042567
 20
168.5888481566375
 30
0.0
  0
SEQEND
  5
4C3
330
4C0
100
AcDbEntity
  8
BEMAßUNG
  0
POLYLINE
  5
4C4
330
1F
100
AcDbEntity
  8
BEMAßUNG
 62
     7
100
AcDb2dPolyline
 66
     1
 10
0.0
 20
0.0
 30
0.0
  0
VERTEX
  5
4C5
330
4C4
100
AcDbEntity
  8
BEMAßUNG
 62
     7
100
AcDbVertex
100
AcDb2dVertex
 10
-4.729254827376714
 20
168.6396633150449
 30
0.0
  0
VERTEX
  5
4C6
330
4C4
100
AcDbEntity
  8
BEMAßUNG
 62
     7
100
AcDbVertex
100
AcDb2dVertex
 10
-8.228955076067761
 20
168.6396633150449
 30
0.0
  0
SEQEND
  5
4C7
330
4C4
100
AcDbEntity
  8
BEMAßUNG
  0
POLYLINE
  5
4C8
330
1F
100
AcDbEntity
  8
BEMAßUNG
 62
     7
100
AcDb2dPolyline
 66
     1
 10
0.0
 20
0.0
 30
0.0
  0
VERTEX
  5
4C9
330
4C8
100
AcDbEntity
  8
BEMAßUNG
 62
     7
100
AcDbVertex
100
AcDb2dVertex
 10
-4.729254827376714
 20
169.0968274859376
 30
0.0
  0
VERTEX
  5
4CA
330
4C8
100
AcDbEntity
  8
BEMAßUNG
 62
     7
100
AcDbVertex
100
AcDb2dVertex
 10
-4.756126572161663
 20
169.0968274859376
 30
0.0
  0
SEQEND
  5
4CB
330
4C8
100
AcDbEntity
  8
BEMAßUNG
  0
POLYLINE
  5
4CC
330
1F
100
AcDbEntity
  8
BEMAßUNG
 62
     7
100
AcDb2dPolyline
 66
     1
 10
0.0
 20
0.0
 30
0.0
  0
VERTEX
  5
4CD
330
4CC
100
AcDbEntity
  8
BEMAßUNG
 62
     7
100
AcDbVertex
100
AcDb2dVertex
 10
-4.729254827376714
 20
169.0968274859376
 30
0.0
  0
VERTEX
  5
4CE
330
4CC
100
AcDbEntity
  8
BEMAßUNG
 62
     7
100
AcDbVertex
100
AcDb2dVertex
 10
-4.756126572161663
 20
169.0968274859376
 30
0.0
  0
SEQEND
  5
4CF
330
4CC
100
AcDbEntity
  8
BEMAßUNG
  0
POLYLINE
  5
4D0
330
1F
100
AcDbEntity
  8
BEMAßUNG
 62
     7
100
AcDb2dPolyline
 66
     1
 10
0.0
 20
0.0
 30
0.0
  0
VERTEX
  5
4D1
330
4D0
100
AcDbEntity
  8
BEMAßUNG
 62
     7
100
AcDbVertex
100
AcDb2dVertex
 10
-4.729254827376714
 20
169.0460123275302
 30
0.0
  0
VERTEX
  5
4D2
330
4D0
100
AcDbEntity
  8
BEMAßUNG
 62
     7
100
AcDbVertex
100
AcDb2dVertex
 10
-5.142149521283907
 20
169.0460123275302
 30
0.0
  0
SEQEND
  5
4D3
330
4D0
100
AcDbEntity
  8
BEMAßUNG
  0
POLYLINE
  5
4D4
330
1F
100
AcDbEntity
  8
BEMAßUNG
 62
     7
100
AcDb2dPolyline
 66
     1
 10
0.0
 20
0.0
 30
0.0
  0
VERTEX
  5
4D5
330
4D4
100
AcDbEntity
  8
BEMAßUNG
 62
     7
100
AcDbVertex
100
AcDb2dVertex
 10
-4.729254827376714
 20
168.9951971691227
 30
0.0
  0
VERTEX
  5
4D6
330
4D4
100
AcDbEntity
  8
BEMAßUNG
 62
     7
100
AcDbVertex
100
AcDb2dVertex
 10
-5.528344725180414
 20
168.9951971691227
 30
0.0
  0
SEQEND
  5
4D7
330
4D4
100
AcDbEntity
  8
BEMAßUNG
  0
POLYLINE
  5
4D8
330
1F
100
AcDbEntity
  8
BEMAßUNG
 62
     7
100
AcDb2dPolyline
 66
     1
 10
0.0
 20
0.0
 30
0.0
  0
VERTEX
  5
4D9
330
4D8
100
AcDbEntity
  8
BEMAßUNG
 62
     7
100
AcDbVertex
100
AcDb2dVertex
 10
-4.729254827376714
 20
168.9443820107153
 30
0.0
  0
VERTEX
  5
4DA
330
4D8
100
AcDbEntity
  8
BEMAßUNG
 62
     7
100
AcDbVertex
100
AcDb2dVertex
 10
-5.914023164754133
 20
168.9443820107153
 30
0.0
  0
SEQEND
  5
4DB
330
4D8
100
AcDbEntity
  8
BEMAßUNG
  0
POLYLINE
  5
4DC
330
1F
100
AcDbEntity
  8
BEMAßUNG
 62
     7
100
AcDb2dPolyline
 66
     1
 10
0.0
 20
0.0
 30
0.0
  0
VERTEX
  5
4DD
330
4DC
100
AcDbEntity
  8
BEMAßUNG
 62
     7
100
AcDbVertex
100
AcDb2dVertex
 10
-4.729254827376714
 20
168.8939113618564
 30
0.0
  0
VERTEX
  5
4DE
330
4DC
100
AcDbEntity
  8
BEMAßUNG
 62
     7
100
AcDbVertex
100
AcDb2dVertex
 10
-6.29952934955359
 20
168.8939113618564
 30
0.0
  0
SEQEND
  5
4DF
330
4DC
100
AcDbEntity
  8
BEMAßUNG
  0
POLYLINE
  5
4E0
330
1F
100
AcDbEntity
  8
BEMAßUNG
 62
     7
100
AcDb2dPolyline
 66
     1
 10
0.0
 20
0.0
 30
0.0
  0
VERTEX
  5
4E1
330
4E0
100
AcDbEntity
  8
BEMAßUNG
 62
     7
100
AcDbVertex
100
AcDb2dVertex
 10
-4.729254827376714
 20
168.843096203449
 30
0.0
  0
VERTEX
  5
4E2
330
4E0
100
AcDbEntity
  8
BEMAßUNG
 62
     7
100
AcDbVertex
100
AcDb2dVertex
 10
-6.685552298675835
 20
168.843096203449
 30
0.0
  0
SEQEND
  5
4E3
330
4E0
100
AcDbEntity
  8
BEMAßUNG
  0
POLYLINE
  5
4E4
330
1F
100
AcDbEntity
  8
BEMAßUNG
 62
     7
100
AcDb2dPolyline
 66
     1
 10
0.0
 20
0.0
 30
0.0
  0
VERTEX
  5
4E5
330
4E4
100
AcDbEntity
  8
BEMAßUNG
 62
     7
100
AcDbVertex
100
AcDb2dVertex
 10
-4.729254827376714
 20
168.7924532998158
 30
0.0
  0
VERTEX
  5
4E6
330
4E4
100
AcDbEntity
  8
BEMAßUNG
 62
     7
100
AcDbVertex
100
AcDb2dVertex
 10
-7.071747502572341
 20
168.7924532998158
 30
0.0
  0
SEQEND
  5
4E7
330
4E4
100
AcDbEntity
  8
BEMAßUNG
  0
POLYLINE
  5
4E8
330
1F
100
AcDbEntity
  8
BEMAßUNG
 62
     7
100
AcDb2dPolyline
 66
     1
 10
0.0
 20
0.0
 30
0.0
  0
VERTEX
  5
4E9
330
4E8
100
AcDbEntity
  8
BEMAßUNG
 62
     7
100
AcDbVertex
100
AcDb2dVertex
 10
-4.729254827376714
 20
168.7416381414083
 30
0.0
  0
VERTEX
  5
4EA
330
4E8
100
AcDbEntity
  8
BEMAßUNG
 62
     7
100
AcDbVertex
100
AcDb2dVertex
 10
-7.45742594214606
 20
168.7416381414083
 30
0.0
  0
SEQEND
  5
4EB
330
4E8
100
AcDbEntity
  8
BEMAßUNG
  0
POLYLINE
  5
4EC
330
1F
100
AcDbEntity
  8
BEMAßUNG
 62
     7
100
AcDb2dPolyline
 66
     1
 10
0.0
 20
0.0
 30
0.0
  0
VERTEX
  5
4ED
330
4EC
100
AcDbEntity
  8
BEMAßUNG
 62
     7
100
AcDbVertex
100
AcDb2dVertex
 10
-4.729254827376714
 20
168.6908229830009
 30
0.0
  0
VERTEX
  5
4EE
330
4EC
100
AcDbEntity
  8
BEMAßUNG
 62
     7
100
AcDbVertex
100
AcDb2dVertex
 10
-7.843621146042567
 20
168.6908229830009
 30
0.0
  0
SEQEND
  5
4EF
330
4EC
100
AcDbEntity
  8
BEMAßUNG
  0
POLYLINE
  5
4F0
330
1F
100
AcDbEntity
  8
BEMAßUNG
 62
     7
100
AcDb2dPolyline
 66
     1
 10
0.0
 20
0.0
 30
0.0
  0
VERTEX
  5
4F1
330
4F0
100
AcDbEntity
  8
BEMAßUNG
 62
     7
100
AcDbVertex
100
AcDb2dVertex
 10
-4.729254827376714
 20
168.6396633150449
 30
0.0
  0
VERTEX
  5
4F2
330
4F0
100
AcDbEntity
  8
BEMAßUNG
 62
     7
100
AcDbVertex
100
AcDb2dVertex
 10
-8.228955076067761
 20
168.6396633150449
 30
0.0
  0
SEQEND
  5
4F3
330
4F0
100
AcDbEntity
  8
BEMAßUNG
  0
POLYLINE
  5
4F4
330
1F
100
AcDbEntity
  8
BEMAßUNG
 62
     7
100
AcDb2dPolyline
 66
     1
 10
0.0
 20
0.0
 30
0.0
  0
VERTEX
  5
4F5
330
4F4
100
AcDbEntity
  8
BEMAßUNG
 62
     7
100
AcDbVertex
100
AcDb2dVertex
 10
151.7705810167449
 20
198.5175984204227
 30
0.0
  0
VERTEX
  5
4F6
330
4F4
100
AcDbEntity
  8
BEMAßUNG
 62
     7
100
AcDbVertex
100
AcDb2dVertex
 10
151.7705810167449
 20
186.2191243024036
 30
0.0
  0
SEQEND
  5
4F7
330
4F4
100
AcDbEntity
  8
BEMAßUNG
  0
POLYLINE
  5
4F8
330
1F
100
AcDbEntity
  8
BEMAßUNG
 62
     7
100
AcDb2dPolyline
 66
     1
 10
0.0
 20
0.0
 30
0.0
  0
VERTEX
  5
4F9
330
4F8
100
AcDbEntity
  8
BEMAßUNG
 62
     7
100
AcDbVertex
100
AcDb2dVertex
 10
176.7706054245573
 20
188.2190022315911
 30
0.0
  0
VERTEX
  5
4FA
330
4F8
100
AcDbEntity
  8
BEMAßUNG
 62
     7
100
AcDbVertex
100
AcDb2dVertex
 10
151.7705810167449
 20
188.2190022315911
 30
0.0
  0
SEQEND
  5
4FB
330
4F8
100
AcDbEntity
  8
BEMAßUNG
  0
POLYLINE
  5
4FC
330
1F
100
AcDbEntity
  8
BEMAßUNG
 62
     7
100
AcDb2dPolyline
 66
     1
 10
0.0
 20
0.0
 30
0.0
  0
VERTEX
  5
4FD
330
4FC
100
AcDbEntity
  8
BEMAßUNG
 62
     7
100
AcDbVertex
100
AcDb2dVertex
 10
176.7706054245573
 20
188.2190022315911
 30
0.0
  0
VERTEX
  5
4FE
330
4FC
100
AcDbEntity
  8
BEMAßUNG
 62
     7
100
AcDbVertex
100
AcDb2dVertex
 10
173.2710774306406
 20
188.6799560075175
 30
0.0
  0
VERTEX
  5
4FF
330
4FC
100
AcDbEntity
  8
BEMAßUNG
 62
     7
100
AcDbVertex
100
AcDb2dVertex
 10
173.2710774306406
 20
187.7578762008904
 30
0.0
  0
VERTEX
  5
500
330
4FC
100
AcDbEntity
  8
BEMAßUNG
 62
     7
100
AcDbVertex
100
AcDb2dVertex
 10
176.7706054245573
 20
188.2190022315911
 30
0.0
  0
SEQEND
  5
501
330
4FC
100
AcDbEntity
  8
BEMAßUNG
  0
POLYLINE
  5
502
330
1F
100
AcDbEntity
  8
BEMAßUNG
 62
     7
100
AcDb2dPolyline
 66
     1
 10
0.0
 20
0.0
 30
0.0
  0
VERTEX
  5
503
330
502
100
AcDbEntity
  8
BEMAßUNG
 62
     7
100
AcDbVertex
100
AcDb2dVertex
 10
173.2710774306406
 20
188.6765109120323
 30
0.0
  0
VERTEX
  5
504
330
502
100
AcDbEntity
  8
BEMAßUNG
 62
     7
100
AcDbVertex
100
AcDb2dVertex
 10
173.2982936849741
 20
188.6765109120323
 30
0.0
  0
SEQEND
  5
505
330
502
100
AcDbEntity
  8
BEMAßUNG
  0
POLYLINE
  5
506
330
1F
100
AcDbEntity
  8
BEMAßUNG
 62
     7
100
AcDb2dPolyline
 66
     1
 10
0.0
 20
0.0
 30
0.0
  0
VERTEX
  5
507
330
506
100
AcDbEntity
  8
BEMAßUNG
 62
     7
100
AcDbVertex
100
AcDb2dVertex
 10
173.2710774306406
 20
188.6765109120323
 30
0.0
  0
VERTEX
  5
508
330
506
100
AcDbEntity
  8
BEMAßUNG
 62
     7
100
AcDbVertex
100
AcDb2dVertex
 10
173.2982936849741
 20
188.6765109120323
 30
0.0
  0
SEQEND
  5
509
330
506
100
AcDbEntity
  8
BEMAßUNG
  0
POLYLINE
  5
50A
330
1F
100
AcDbEntity
  8
BEMAßUNG
 62
     7
100
AcDb2dPolyline
 66
     1
 10
0.0
 20
0.0
 30
0.0
  0
VERTEX
  5
50B
330
50A
100
AcDbEntity
  8
BEMAßUNG
 62
     7
100
AcDbVertex
100
AcDb2dVertex
 10
173.2710774306406
 20
188.6256957536248
 30
0.0
  0
VERTEX
  5
50C
330
50A
100
AcDbEntity
  8
BEMAßUNG
 62
     7
100
AcDbVertex
100
AcDb2dVertex
 10
173.6837998697735
 20
188.6256957536248
 30
0.0
  0
SEQEND
  5
50D
330
50A
100
AcDbEntity
  8
BEMAßUNG
  0
POLYLINE
  5
50E
330
1F
100
AcDbEntity
  8
BEMAßUNG
 62
     7
100
AcDb2dPolyline
 66
     1
 10
0.0
 20
0.0
 30
0.0
  0
VERTEX
  5
50F
330
50E
100
AcDbEntity
  8
BEMAßUNG
 62
     7
100
AcDbVertex
100
AcDb2dVertex
 10
173.2710774306406
 20
188.5748805952174
 30
0.0
  0
VERTEX
  5
510
330
50E
100
AcDbEntity
  8
BEMAßUNG
 62
     7
100
AcDbVertex
100
AcDb2dVertex
 10
174.06999507367
 20
188.5748805952174
 30
0.0
  0
SEQEND
  5
511
330
50E
100
AcDbEntity
  8
BEMAßUNG
  0
POLYLINE
  5
512
330
1F
100
AcDbEntity
  8
BEMAßUNG
 62
     7
100
AcDb2dPolyline
 66
     1
 10
0.0
 20
0.0
 30
0.0
  0
VERTEX
  5
513
330
512
100
AcDbEntity
  8
BEMAßUNG
 62
     7
100
AcDbVertex
100
AcDb2dVertex
 10
173.2710774306406
 20
188.52406543681
 30
0.0
  0
VERTEX
  5
514
330
512
100
AcDbEntity
  8
BEMAßUNG
 62
     7
100
AcDbVertex
100
AcDb2dVertex
 10
174.4553290036952
 20
188.52406543681
 30
0.0
  0
SEQEND
  5
515
330
512
100
AcDbEntity
  8
BEMAßUNG
  0
POLYLINE
  5
516
330
1F
100
AcDbEntity
  8
BEMAßUNG
 62
     7
100
AcDb2dPolyline
 66
     1
 10
0.0
 20
0.0
 30
0.0
  0
VERTEX
  5
517
330
516
100
AcDbEntity
  8
BEMAßUNG
 62
     7
100
AcDbVertex
100
AcDb2dVertex
 10
173.2710774306406
 20
188.472905768854
 30
0.0
  0
VERTEX
  5
518
330
516
100
AcDbEntity
  8
BEMAßUNG
 62
     7
100
AcDbVertex
100
AcDb2dVertex
 10
174.841696462366
 20
188.472905768854
 30
0.0
  0
SEQEND
  5
519
330
516
100
AcDbEntity
  8
BEMAßUNG
  0
POLYLINE
  5
51A
330
1F
100
AcDbEntity
  8
BEMAßUNG
 62
     7
100
AcDb2dPolyline
 66
     1
 10
0.0
 20
0.0
 30
0.0
  0
VERTEX
  5
51B
330
51A
100
AcDbEntity
  8
BEMAßUNG
 62
     7
100
AcDbVertex
100
AcDb2dVertex
 10
173.2710774306406
 20
188.4220906104466
 30
0.0
  0
VERTEX
  5
51C
330
51A
100
AcDbEntity
  8
BEMAßUNG
 62
     7
100
AcDbVertex
100
AcDb2dVertex
 10
175.2272026471654
 20
188.4220906104466
 30
0.0
  0
SEQEND
  5
51D
330
51A
100
AcDbEntity
  8
BEMAßUNG
  0
POLYLINE
  5
51E
330
1F
100
AcDbEntity
  8
BEMAßUNG
 62
     7
100
AcDb2dPolyline
 66
     1
 10
0.0
 20
0.0
 30
0.0
  0
VERTEX
  5
51F
330
51E
100
AcDbEntity
  8
BEMAßUNG
 62
     7
100
AcDbVertex
100
AcDb2dVertex
 10
173.2710774306406
 20
188.3712754520391
 30
0.0
  0
VERTEX
  5
520
330
51E
100
AcDbEntity
  8
BEMAßUNG
 62
     7
100
AcDbVertex
100
AcDb2dVertex
 10
175.6133978510619
 20
188.3712754520391
 30
0.0
  0
SEQEND
  5
521
330
51E
100
AcDbEntity
  8
BEMAßUNG
  0
POLYLINE
  5
522
330
1F
100
AcDbEntity
  8
BEMAßUNG
 62
     7
100
AcDb2dPolyline
 66
     1
 10
0.0
 20
0.0
 30
0.0
  0
VERTEX
  5
523
330
522
100
AcDbEntity
  8
BEMAßUNG
 62
     7
100
AcDbVertex
100
AcDb2dVertex
 10
173.2710774306406
 20
188.320632548406
 30
0.0
  0
VERTEX
  5
524
330
522
100
AcDbEntity
  8
BEMAßUNG
 62
     7
100
AcDbVertex
100
AcDb2dVertex
 10
175.9990762906357
 20
188.320632548406
 30
0.0
  0
SEQEND
  5
525
330
522
100
AcDbEntity
  8
BEMAßUNG
  0
POLYLINE
  5
526
330
1F
100
AcDbEntity
  8
BEMAßUNG
 62
     7
100
AcDb2dPolyline
 66
     1
 10
0.0
 20
0.0
 30
0.0
  0
VERTEX
  5
527
330
526
100
AcDbEntity
  8
BEMAßUNG
 62
     7
100
AcDbVertex
100
AcDb2dVertex
 10
173.2710774306406
 20
188.2698173899985
 30
0.0
  0
VERTEX
  5
528
330
526
100
AcDbEntity
  8
BEMAßUNG
 62
     7
100
AcDbVertex
100
AcDb2dVertex
 10
176.3850992397579
 20
188.2698173899985
 30
0.0
  0
SEQEND
  5
529
330
526
100
AcDbEntity
  8
BEMAßUNG
  0
POLYLINE
  5
52A
330
1F
100
AcDbEntity
  8
BEMAßUNG
 62
     7
100
AcDb2dPolyline
 66
     1
 10
0.0
 20
0.0
 30
0.0
  0
VERTEX
  5
52B
330
52A
100
AcDbEntity
  8
BEMAßUNG
 62
     7
100
AcDbVertex
100
AcDb2dVertex
 10
173.2710774306406
 20
188.2190022315911
 30
0.0
  0
VERTEX
  5
52C
330
52A
100
AcDbEntity
  8
BEMAßUNG
 62
     7
100
AcDbVertex
100
AcDb2dVertex
 10
176.7706054245573
 20
188.2190022315911
 30
0.0
  0
SEQEND
  5
52D
330
52A
100
AcDbEntity
  8
BEMAßUNG
  0
POLYLINE
  5
52E
330
1F
100
AcDbEntity
  8
BEMAßUNG
 62
     7
100
AcDb2dPolyline
 66
     1
 10
0.0
 20
0.0
 30
0.0
  0
VERTEX
  5
52F
330
52E
100
AcDbEntity
  8
BEMAßUNG
 62
     7
100
AcDbVertex
100
AcDb2dVertex
 10
173.2710774306406
 20
187.7621825702469
 30
0.0
  0
VERTEX
  5
530
330
52E
100
AcDbEntity
  8
BEMAßUNG
 62
     7
100
AcDbVertex
100
AcDb2dVertex
 10
173.2982936849741
 20
187.7621825702469
 30
0.0
  0
SEQEND
  5
531
330
52E
100
AcDbEntity
  8
BEMAßUNG
  0
POLYLINE
  5
532
330
1F
100
AcDbEntity
  8
BEMAßUNG
 62
     7
100
AcDb2dPolyline
 66
     1
 10
0.0
 20
0.0
 30
0.0
  0
VERTEX
  5
533
330
532
100
AcDbEntity
  8
BEMAßUNG
 62
     7
100
AcDbVertex
100
AcDb2dVertex
 10
173.2710774306406
 20
187.7621825702469
 30
0.0
  0
VERTEX
  5
534
330
532
100
AcDbEntity
  8
BEMAßUNG
 62
     7
100
AcDbVertex
100
AcDb2dVertex
 10
173.2982936849741
 20
187.7621825702469
 30
0.0
  0
SEQEND
  5
535
330
532
100
AcDbEntity
  8
BEMAßUNG
  0
POLYLINE
  5
536
330
1F
100
AcDbEntity
  8
BEMAßUNG
 62
     7
100
AcDb2dPolyline
 66
     1
 10
0.0
 20
0.0
 30
0.0
  0
VERTEX
  5
537
330
536
100
AcDbEntity
  8
BEMAßUNG
 62
     7
100
AcDbVertex
100
AcDb2dVertex
 10
173.2710774306406
 20
187.8128254738801
 30
0.0
  0
VERTEX
  5
538
330
536
100
AcDbEntity
  8
BEMAßUNG
 62
     7
100
AcDbVertex
100
AcDb2dVertex
 10
173.6837998697735
 20
187.8128254738801
 30
0.0
  0
SEQEND
  5
539
330
536
100
AcDbEntity
  8
BEMAßUNG
  0
POLYLINE
  5
53A
330
1F
100
AcDbEntity
  8
BEMAßUNG
 62
     7
100
AcDb2dPolyline
 66
     1
 10
0.0
 20
0.0
 30
0.0
  0
VERTEX
  5
53B
330
53A
100
AcDbEntity
  8
BEMAßUNG
 62
     7
100
AcDbVertex
100
AcDb2dVertex
 10
173.2710774306406
 20
187.8636406322876
 30
0.0
  0
VERTEX
  5
53C
330
53A
100
AcDbEntity
  8
BEMAßUNG
 62
     7
100
AcDbVertex
100
AcDb2dVertex
 10
174.06999507367
 20
187.8636406322876
 30
0.0
  0
SEQEND
  5
53D
330
53A
100
AcDbEntity
  8
BEMAßUNG
  0
POLYLINE
  5
53E
330
1F
100
AcDbEntity
  8
BEMAßUNG
 62
     7
100
AcDb2dPolyline
 66
     1
 10
0.0
 20
0.0
 30
0.0
  0
VERTEX
  5
53F
330
53E
100
AcDbEntity
  8
BEMAßUNG
 62
     7
100
AcDbVertex
100
AcDb2dVertex
 10
173.2710774306406
 20
187.914455790695
 30
0.0
  0
VERTEX
  5
540
330
53E
100
AcDbEntity
  8
BEMAßUNG
 62
     7
100
AcDbVertex
100
AcDb2dVertex
 10
174.4553290036952
 20
187.914455790695
 30
0.0
  0
SEQEND
  5
541
330
53E
100
AcDbEntity
  8
BEMAßUNG
  0
POLYLINE
  5
542
330
1F
100
AcDbEntity
  8
BEMAßUNG
 62
     7
100
AcDb2dPolyline
 66
     1
 10
0.0
 20
0.0
 30
0.0
  0
VERTEX
  5
543
330
542
100
AcDbEntity
  8
BEMAßUNG
 62
     7
100
AcDbVertex
100
AcDb2dVertex
 10
173.2710774306406
 20
187.9652709491024
 30
0.0
  0
VERTEX
  5
544
330
542
100
AcDbEntity
  8
BEMAßUNG
 62
     7
100
AcDbVertex
100
AcDb2dVertex
 10
174.841696462366
 20
187.9652709491024
 30
0.0
  0
SEQEND
  5
545
330
542
100
AcDbEntity
  8
BEMAßUNG
  0
POLYLINE
  5
546
330
1F
100
AcDbEntity
  8
BEMAßUNG
 62
     7
100
AcDb2dPolyline
 66
     1
 10
0.0
 20
0.0
 30
0.0
  0
VERTEX
  5
547
330
546
100
AcDbEntity
  8
BEMAßUNG
 62
     7
100
AcDbVertex
100
AcDb2dVertex
 10
173.2710774306406
 20
188.0157415979614
 30
0.0
  0
VERTEX
  5
548
330
546
100
AcDbEntity
  8
BEMAßUNG
 62
     7
100
AcDbVertex
100
AcDb2dVertex
 10
175.2272026471654
 20
188.0157415979614
 30
0.0
  0
SEQEND
  5
549
330
546
100
AcDbEntity
  8
BEMAßUNG
  0
POLYLINE
  5
54A
330
1F
100
AcDbEntity
  8
BEMAßUNG
 62
     7
100
AcDb2dPolyline
 66
     1
 10
0.0
 20
0.0
 30
0.0
  0
VERTEX
  5
54B
330
54A
100
AcDbEntity
  8
BEMAßUNG
 62
     7
100
AcDbVertex
100
AcDb2dVertex
 10
173.2710774306406
 20
188.0665567563688
 30
0.0
  0
VERTEX
  5
54C
330
54A
100
AcDbEntity
  8
BEMAßUNG
 62
     7
100
AcDbVertex
100
AcDb2dVertex
 10
175.6133978510619
 20
188.0665567563688
 30
0.0
  0
SEQEND
  5
54D
330
54A
100
AcDbEntity
  8
BEMAßUNG
  0
POLYLINE
  5
54E
330
1F
100
AcDbEntity
  8
BEMAßUNG
 62
     7
100
AcDb2dPolyline
 66
     1
 10
0.0
 20
0.0
 30
0.0
  0
VERTEX
  5
54F
330
54E
100
AcDbEntity
  8
BEMAßUNG
 62
     7
100
AcDbVertex
100
AcDb2dVertex
 10
173.2710774306406
 20
188.1173719147762
 30
0.0
  0
VERTEX
  5
550
330
54E
100
AcDbEntity
  8
BEMAßUNG
 62
     7
100
AcDbVertex
100
AcDb2dVertex
 10
175.9990762906357
 20
188.1173719147762
 30
0.0
  0
SEQEND
  5
551
330
54E
100
AcDbEntity
  8
BEMAßUNG
  0
POLYLINE
  5
552
330
1F
100
AcDbEntity
  8
BEMAßUNG
 62
     7
100
AcDb2dPolyline
 66
     1
 10
0.0
 20
0.0
 30
0.0
  0
VERTEX
  5
553
330
552
100
AcDbEntity
  8
BEMAßUNG
 62
     7
100
AcDbVertex
100
AcDb2dVertex
 10
173.2710774306406
 20
188.1681870731836
 30
0.0
  0
VERTEX
  5
554
330
552
100
AcDbEntity
  8
BEMAßUNG
 62
     7
100
AcDbVertex
100
AcDb2dVertex
 10
176.3850992397579
 20
188.1681870731836
 30
0.0
  0
SEQEND
  5
555
330
552
100
AcDbEntity
  8
BEMAßUNG
  0
POLYLINE
  5
556
330
1F
100
AcDbEntity
  8
BEMAßUNG
 62
     7
100
AcDb2dPolyline
 66
     1
 10
0.0
 20
0.0
 30
0.0
  0
VERTEX
  5
557
330
556
100
AcDbEntity
  8
BEMAßUNG
 62
     7
100
AcDbVertex
100
AcDb2dVertex
 10
173.2710774306406
 20
188.2190022315911
 30
0.0
  0
VERTEX
  5
558
330
556
100
AcDbEntity
  8
BEMAßUNG
 62
     7
100
AcDbVertex
100
AcDb2dVertex
 10
176.7706054245573
 20
188.2190022315911
 30
0.0
  0
SEQEND
  5
559
330
556
100
AcDbEntity
  8
BEMAßUNG
  0
POLYLINE
  5
55A
330
1F
100
AcDbEntity
  8
BEMAßUNG
 62
     7
100
AcDb2dPolyline
 66
     1
 10
0.0
 20
0.0
 30
0.0
  0
VERTEX
  5
55B
330
55A
100
AcDbEntity
  8
BEMAßUNG
 62
     7
100
AcDbVertex
100
AcDb2dVertex
 10
151.7705810167449
 20
188.2190022315911
 30
0.0
  0
VERTEX
  5
55C
330
55A
100
AcDbEntity
  8
BEMAßUNG
 62
     7
100
AcDbVertex
100
AcDb2dVertex
 10
155.270970284533
 20
187.7578762008904
 30
0.0
  0
VERTEX
  5
55D
330
55A
100
AcDbEntity
  8
BEMAßUNG
 62
     7
100
AcDbVertex
100
AcDb2dVertex
 10
155.270970284533
 20
188.6799560075175
 30
0.0
  0
VERTEX
  5
55E
330
55A
100
AcDbEntity
  8
BEMAßUNG
 62
     7
100
AcDbVertex
100
AcDb2dVertex
 10
151.7705810167449
 20
188.2190022315911
 30
0.0
  0
SEQEND
  5
55F
330
55A
100
AcDbEntity
  8
BEMAßUNG
  0
POLYLINE
  5
560
330
1F
100
AcDbEntity
  8
BEMAßUNG
 62
     7
100
AcDb2dPolyline
 66
     1
 10
0.0
 20
0.0
 30
0.0
  0
VERTEX
  5
561
330
560
100
AcDbEntity
  8
BEMAßUNG
 62
     7
100
AcDbVertex
100
AcDb2dVertex
 10
155.270970284533
 20
187.7621825702469
 30
0.0
  0
VERTEX
  5
562
330
560
100
AcDbEntity
  8
BEMAßUNG
 62
     7
100
AcDbVertex
100
AcDb2dVertex
 10
155.2437540301995
 20
187.7621825702469
 30
0.0
  0
SEQEND
  5
563
330
560
100
AcDbEntity
  8
BEMAßUNG
  0
POLYLINE
  5
564
330
1F
100
AcDbEntity
  8
BEMAßUNG
 62
     7
100
AcDb2dPolyline
 66
     1
 10
0.0
 20
0.0
 30
0.0
  0
VERTEX
  5
565
330
564
100
AcDbEntity
  8
BEMAßUNG
 62
     7
100
AcDbVertex
100
AcDb2dVertex
 10
155.270970284533
 20
187.7621825702469
 30
0.0
  0
VERTEX
  5
566
330
564
100
AcDbEntity
  8
BEMAßUNG
 62
     7
100
AcDbVertex
100
AcDb2dVertex
 10
155.2437540301995
 20
187.7621825702469
 30
0.0
  0
SEQEND
  5
567
330
564
100
AcDbEntity
  8
BEMAßUNG
  0
POLYLINE
  5
568
330
1F
100
AcDbEntity
  8
BEMAßUNG
 62
     7
100
AcDb2dPolyline
 66
     1
 10
0.0
 20
0.0
 30
0.0
  0
VERTEX
  5
569
330
568
100
AcDbEntity
  8
BEMAßUNG
 62
     7
100
AcDbVertex
100
AcDb2dVertex
 10
155.270970284533
 20
187.8128254738801
 30
0.0
  0
VERTEX
  5
56A
330
568
100
AcDbEntity
  8
BEMAßUNG
 62
     7
100
AcDbVertex
100
AcDb2dVertex
 10
154.8573865715287
 20
187.8128254738801
 30
0.0
  0
SEQEND
  5
56B
330
568
100
AcDbEntity
  8
BEMAßUNG
  0
POLYLINE
  5
56C
330
1F
100
AcDbEntity
  8
BEMAßUNG
 62
     7
100
AcDb2dPolyline
 66
     1
 10
0.0
 20
0.0
 30
0.0
  0
VERTEX
  5
56D
330
56C
100
AcDbEntity
  8
BEMAßUNG
 62
     7
100
AcDbVertex
100
AcDb2dVertex
 10
155.270970284533
 20
187.8636406322876
 30
0.0
  0
VERTEX
  5
56E
330
56C
100
AcDbEntity
  8
BEMAßUNG
 62
     7
100
AcDbVertex
100
AcDb2dVertex
 10
154.4722248962778
 20
187.8636406322876
 30
0.0
  0
SEQEND
  5
56F
330
56C
100
AcDbEntity
  8
BEMAßUNG
  0
POLYLINE
  5
570
330
1F
100
AcDbEntity
  8
BEMAßUNG
 62
     7
100
AcDb2dPolyline
 66
     1
 10
0.0
 20
0.0
 30
0.0
  0
VERTEX
  5
571
330
570
100
AcDbEntity
  8
BEMAßUNG
 62
     7
100
AcDbVertex
100
AcDb2dVertex
 10
155.270970284533
 20
187.914455790695
 30
0.0
  0
VERTEX
  5
572
330
570
100
AcDbEntity
  8
BEMAßUNG
 62
     7
100
AcDbVertex
100
AcDb2dVertex
 10
154.0860296923813
 20
187.914455790695
 30
0.0
  0
SEQEND
  5
573
330
570
100
AcDbEntity
  8
BEMAßUNG
  0
POLYLINE
  5
574
330
1F
100
AcDbEntity
  8
BEMAßUNG
 62
     7
100
AcDb2dPolyline
 66
     1
 10
0.0
 20
0.0
 30
0.0
  0
VERTEX
  5
575
330
574
100
AcDbEntity
  8
BEMAßUNG
 62
     7
100
AcDbVertex
100
AcDb2dVertex
 10
155.270970284533
 20
187.9652709491024
 30
0.0
  0
VERTEX
  5
576
330
574
100
AcDbEntity
  8
BEMAßUNG
 62
     7
100
AcDbVertex
100
AcDb2dVertex
 10
153.7003512528076
 20
187.9652709491024
 30
0.0
  0
SEQEND
  5
577
330
574
100
AcDbEntity
  8
BEMAßUNG
  0
POLYLINE
  5
578
330
1F
100
AcDbEntity
  8
BEMAßUNG
 62
     7
100
AcDb2dPolyline
 66
     1
 10
0.0
 20
0.0
 30
0.0
  0
VERTEX
  5
579
330
578
100
AcDbEntity
  8
BEMAßUNG
 62
     7
100
AcDbVertex
100
AcDb2dVertex
 10
155.270970284533
 20
188.0157415979614
 30
0.0
  0
VERTEX
  5
57A
330
578
100
AcDbEntity
  8
BEMAßUNG
 62
     7
100
AcDbVertex
100
AcDb2dVertex
 10
153.3139837941368
 20
188.0157415979614
 30
0.0
  0
SEQEND
  5
57B
330
578
100
AcDbEntity
  8
BEMAßUNG
  0
POLYLINE
  5
57C
330
1F
100
AcDbEntity
  8
BEMAßUNG
 62
     7
100
AcDb2dPolyline
 66
     1
 10
0.0
 20
0.0
 30
0.0
  0
VERTEX
  5
57D
330
57C
100
AcDbEntity
  8
BEMAßUNG
 62
     7
100
AcDbVertex
100
AcDb2dVertex
 10
155.270970284533
 20
188.0665567563688
 30
0.0
  0
VERTEX
  5
57E
330
57C
100
AcDbEntity
  8
BEMAßUNG
 62
     7
100
AcDbVertex
100
AcDb2dVertex
 10
152.9284776093373
 20
188.0665567563688
 30
0.0
  0
SEQEND
  5
57F
330
57C
100
AcDbEntity
  8
BEMAßUNG
  0
POLYLINE
  5
580
330
1F
100
AcDbEntity
  8
BEMAßUNG
 62
     7
100
AcDb2dPolyline
 66
     1
 10
0.0
 20
0.0
 30
0.0
  0
VERTEX
  5
581
330
580
100
AcDbEntity
  8
BEMAßUNG
 62
     7
100
AcDbVertex
100
AcDb2dVertex
 10
155.270970284533
 20
188.1173719147762
 30
0.0
  0
VERTEX
  5
582
330
580
100
AcDbEntity
  8
BEMAßUNG
 62
     7
100
AcDbVertex
100
AcDb2dVertex
 10
152.5426269149893
 20
188.1173719147762
 30
0.0
  0
SEQEND
  5
583
330
580
100
AcDbEntity
  8
BEMAßUNG
  0
POLYLINE
  5
584
330
1F
100
AcDbEntity
  8
BEMAßUNG
 62
     7
100
AcDb2dPolyline
 66
     1
 10
0.0
 20
0.0
 30
0.0
  0
VERTEX
  5
585
330
584
100
AcDbEntity
  8
BEMAßUNG
 62
     7
100
AcDbVertex
100
AcDb2dVertex
 10
155.270970284533
 20
188.1681870731836
 30
0.0
  0
VERTEX
  5
586
330
584
100
AcDbEntity
  8
BEMAßUNG
 62
     7
100
AcDbVertex
100
AcDb2dVertex
 10
152.1569484754156
 20
188.1681870731836
 30
0.0
  0
SEQEND
  5
587
330
584
100
AcDbEntity
  8
BEMAßUNG
  0
POLYLINE
  5
588
330
1F
100
AcDbEntity
  8
BEMAßUNG
 62
     7
100
AcDb2dPolyline
 66
     1
 10
0.0
 20
0.0
 30
0.0
  0
VERTEX
  5
589
330
588
100
AcDbEntity
  8
BEMAßUNG
 62
     7
100
AcDbVertex
100
AcDb2dVertex
 10
155.270970284533
 20
188.2190022315911
 30
0.0
  0
VERTEX
  5
58A
330
588
100
AcDbEntity
  8
BEMAßUNG
 62
     7
100
AcDbVertex
100
AcDb2dVertex
 10
151.7705810167449
 20
188.2190022315911
 30
0.0
  0
SEQEND
  5
58B
330
588
100
AcDbEntity
  8
BEMAßUNG
  0
POLYLINE
  5
58C
330
1F
100
AcDbEntity
  8
BEMAßUNG
 62
     7
100
AcDb2dPolyline
 66
     1
 10
0.0
 20
0.0
 30
0.0
  0
VERTEX
  5
58D
330
58C
100
AcDbEntity
  8
BEMAßUNG
 62
     7
100
AcDbVertex
100
AcDb2dVertex
 10
155.270970284533
 20
188.6765109120323
 30
0.0
  0
VERTEX
  5
58E
330
58C
100
AcDbEntity
  8
BEMAßUNG
 62
     7
100
AcDbVertex
100
AcDb2dVertex
 10
155.2437540301995
 20
188.6765109120323
 30
0.0
  0
SEQEND
  5
58F
330
58C
100
AcDbEntity
  8
BEMAßUNG
  0
POLYLINE
  5
590
330
1F
100
AcDbEntity
  8
BEMAßUNG
 62
     7
100
AcDb2dPolyline
 66
     1
 10
0.0
 20
0.0
 30
0.0
  0
VERTEX
  5
591
330
590
100
AcDbEntity
  8
BEMAßUNG
 62
     7
100
AcDbVertex
100
AcDb2dVertex
 10
155.270970284533
 20
188.6765109120323
 30
0.0
  0
VERTEX
  5
592
330
590
100
AcDbEntity
  8
BEMAßUNG
 62
     7
100
AcDbVertex
100
AcDb2dVertex
 10
155.2437540301995
 20
188.6765109120323
 30
0.0
  0
SEQEND
  5
593
330
590
100
AcDbEntity
  8
BEMAßUNG
  0
POLYLINE
  5
594
330
1F
100
AcDbEntity
  8
BEMAßUNG
 62
     7
100
AcDb2dPolyline
 66
     1
 10
0.0
 20
0.0
 30
0.0
  0
VERTEX
  5
595
330
594
100
AcDbEntity
  8
BEMAßUNG
 62
     7
100
AcDbVertex
100
AcDb2dVertex
 10
155.270970284533
 20
188.6256957536248
 30
0.0
  0
VERTEX
  5
596
330
594
100
AcDbEntity
  8
BEMAßUNG
 62
     7
100
AcDbVertex
100
AcDb2dVertex
 10
154.8573865715287
 20
188.6256957536248
 30
0.0
  0
SEQEND
  5
597
330
594
100
AcDbEntity
  8
BEMAßUNG
  0
POLYLINE
  5
598
330
1F
100
AcDbEntity
  8
BEMAßUNG
 62
     7
100
AcDb2dPolyline
 66
     1
 10
0.0
 20
0.0
 30
0.0
  0
VERTEX
  5
599
330
598
100
AcDbEntity
  8
BEMAßUNG
 62
     7
100
AcDbVertex
100
AcDb2dVertex
 10
155.270970284533
 20
188.5748805952174
 30
0.0
  0
VERTEX
  5
59A
330
598
100
AcDbEntity
  8
BEMAßUNG
 62
     7
100
AcDbVertex
100
AcDb2dVertex
 10
154.4722248962778
 20
188.5748805952174
 30
0.0
  0
SEQEND
  5
59B
330
598
100
AcDbEntity
  8
BEMAßUNG
  0
POLYLINE
  5
59C
330
1F
100
AcDbEntity
  8
BEMAßUNG
 62
     7
100
AcDb2dPolyline
 66
     1
 10
0.0
 20
0.0
 30
0.0
  0
VERTEX
  5
59D
330
59C
100
AcDbEntity
  8
BEMAßUNG
 62
     7
100
AcDbVertex
100
AcDb2dVertex
 10
155.270970284533
 20
188.52406543681
 30
0.0
  0
VERTEX
  5
59E
330
59C
100
AcDbEntity
  8
BEMAßUNG
 62
     7
100
AcDbVertex
100
AcDb2dVertex
 10
154.0860296923813
 20
188.52406543681
 30
0.0
  0
SEQEND
  5
59F
330
59C
100
AcDbEntity
  8
BEMAßUNG
  0
POLYLINE
  5
5A0
330
1F
100
AcDbEntity
  8
BEMAßUNG
 62
     7
100
AcDb2dPolyline
 66
     1
 10
0.0
 20
0.0
 30
0.0
  0
VERTEX
  5
5A1
330
5A0
100
AcDbEntity
  8
BEMAßUNG
 62
     7
100
AcDbVertex
100
AcDb2dVertex
 10
155.270970284533
 20
188.472905768854
 30
0.0
  0
VERTEX
  5
5A2
330
5A0
100
AcDbEntity
  8
BEMAßUNG
 62
     7
100
AcDbVertex
100
AcDb2dVertex
 10
153.7003512528076
 20
188.472905768854
 30
0.0
  0
SEQEND
  5
5A3
330
5A0
100
AcDbEntity
  8
BEMAßUNG
  0
POLYLINE
  5
5A4
330
1F
100
AcDbEntity
  8
BEMAßUNG
 62
     7
100
AcDb2dPolyline
 66
     1
 10
0.0
 20
0.0
 30
0.0
  0
VERTEX
  5
5A5
330
5A4
100
AcDbEntity
  8
BEMAßUNG
 62
     7
100
AcDbVertex
100
AcDb2dVertex
 10
155.270970284533
 20
188.4220906104466
 30
0.0
  0
VERTEX
  5
5A6
330
5A4
100
AcDbEntity
  8
BEMAßUNG
 62
     7
100
AcDbVertex
100
AcDb2dVertex
 10
153.3139837941368
 20
188.4220906104466
 30
0.0
  0
SEQEND
  5
5A7
330
5A4
100
AcDbEntity
  8
BEMAßUNG
  0
POLYLINE
  5
5A8
330
1F
100
AcDbEntity
  8
BEMAßUNG
 62
     7
100
AcDb2dPolyline
 66
     1
 10
0.0
 20
0.0
 30
0.0
  0
VERTEX
  5
5A9
330
5A8
100
AcDbEntity
  8
BEMAßUNG
 62
     7
100
AcDbVertex
100
AcDb2dVertex
 10
155.270970284533
 20
188.3712754520391
 30
0.0
  0
VERTEX
  5
5AA
330
5A8
100
AcDbEntity
  8
BEMAßUNG
 62
     7
100
AcDbVertex
100
AcDb2dVertex
 10
152.9284776093373
 20
188.3712754520391
 30
0.0
  0
SEQEND
  5
5AB
330
5A8
100
AcDbEntity
  8
BEMAßUNG
  0
POLYLINE
  5
5AC
330
1F
100
AcDbEntity
  8
BEMAßUNG
 62
     7
100
AcDb2dPolyline
 66
     1
 10
0.0
 20
0.0
 30
0.0
  0
VERTEX
  5
5AD
330
5AC
100
AcDbEntity
  8
BEMAßUNG
 62
     7
100
AcDbVertex
100
AcDb2dVertex
 10
155.270970284533
 20
188.320632548406
 30
0.0
  0
VERTEX
  5
5AE
330
5AC
100
AcDbEntity
  8
BEMAßUNG
 62
     7
100
AcDbVertex
100
AcDb2dVertex
 10
152.5426269149893
 20
188.320632548406
 30
0.0
  0
SEQEND
  5
5AF
330
5AC
100
AcDbEntity
  8
BEMAßUNG
  0
POLYLINE
  5
5B0
330
1F
100
AcDbEntity
  8
BEMAßUNG
 62
     7
100
AcDb2dPolyline
 66
     1
 10
0.0
 20
0.0
 30
0.0
  0
VERTEX
  5
5B1
330
5B0
100
AcDbEntity
  8
BEMAßUNG
 62
     7
100
AcDbVertex
100
AcDb2dVertex
 10
155.270970284533
 20
188.2698173899985
 30
0.0
  0
VERTEX
  5
5B2
330
5B0
100
AcDbEntity
  8
BEMAßUNG
 62
     7
100
AcDbVertex
100
AcDb2dVertex
 10
152.1569484754156
 20
188.2698173899985
 30
0.0
  0
SEQEND
  5
5B3
330
5B0
100
AcDbEntity
  8
BEMAßUNG
  0
POLYLINE
  5
5B4
330
1F
100
AcDbEntity
  8
BEMAßUNG
 62
     7
100
AcDb2dPolyline
 66
     1
 10
0.0
 20
0.0
 30
0.0
  0
VERTEX
  5
5B5
330
5B4
100
AcDbEntity
  8
BEMAßUNG
 62
     7
100
AcDbVertex
100
AcDb2dVertex
 10
155.270970284533
 20
188.2190022315911
 30
0.0
  0
VERTEX
  5
5B6
330
5B4
100
AcDbEntity
  8
BEMAßUNG
 62
     7
100
AcDbVertex
100
AcDb2dVertex
 10
151.7705810167449
 20
188.2190022315911
 30
0.0
  0
SEQEND
  5
5B7
330
5B4
100
AcDbEntity
  8
BEMAßUNG
  0
POLYLINE
  5
5B8
330
1F
100
AcDbEntity
  8
BEMAßUNG
 62
     7
100
AcDb2dPolyline
 66
     1
 10
0.0
 20
0.0
 30
0.0
  0
VERTEX
  5
5B9
330
5B8
100
AcDbEntity
  8
BEMAßUNG
 62
     7
100
AcDbVertex
100
AcDb2dVertex
 10
176.7706054245573
 20
205.5519666369801
 30
0.0
  0
VERTEX
  5
5BA
330
5B8
100
AcDbEntity
  8
BEMAßUNG
 62
     7
100
AcDbVertex
100
AcDb2dVertex
 10
176.7706054245573
 20
176.8116020608318
 30
0.0
  0
SEQEND
  5
5BB
330
5B8
100
AcDbEntity
  8
BEMAßUNG
  0
POLYLINE
  5
5BC
330
1F
100
AcDbEntity
  8
BEMAßUNG
 62
     7
100
AcDb2dPolyline
 66
     1
 10
0.0
 20
0.0
 30
0.0
  0
VERTEX
  5
5BD
330
5BC
100
AcDbEntity
  8
BEMAßUNG
 62
     7
100
AcDbVertex
100
AcDb2dVertex
 10
176.7706054245573
 20
178.8118244995679
 30
0.0
  0
VERTEX
  5
5BE
330
5BC
100
AcDbEntity
  8
BEMAßUNG
 62
     7
100
AcDbVertex
100
AcDb2dVertex
 10
-8.228955076067761
 20
178.8118244995679
 30
0.0
  0
SEQEND
  5
5BF
330
5BC
100
AcDbEntity
  8
BEMAßUNG
  0
POLYLINE
  5
5C0
330
1F
100
AcDbEntity
  8
BEMAßUNG
 62
     7
100
AcDb2dPolyline
 66
     1
 10
0.0
 20
0.0
 30
0.0
  0
VERTEX
  5
5C1
330
5C0
100
AcDbEntity
  8
BEMAßUNG
 62
     7
100
AcDbVertex
100
AcDb2dVertex
 10
176.7706054245573
 20
178.8118244995679
 30
0.0
  0
VERTEX
  5
5C2
330
5C0
100
AcDbEntity
  8
BEMAßUNG
 62
     7
100
AcDbVertex
100
AcDb2dVertex
 10
173.2710774306406
 20
179.2724337659458
 30
0.0
  0
VERTEX
  5
5C3
330
5C0
100
AcDbEntity
  8
BEMAßUNG
 62
     7
100
AcDbVertex
100
AcDb2dVertex
 10
173.2710774306406
 20
178.3510429784157
 30
0.0
  0
VERTEX
  5
5C4
330
5C0
100
AcDbEntity
  8
BEMAßUNG
 62
     7
100
AcDbVertex
100
AcDb2dVertex
 10
176.7706054245573
 20
178.8118244995679
 30
0.0
  0
SEQEND
  5
5C5
330
5C0
100
AcDbEntity
  8
BEMAßUNG
  0
POLYLINE
  5
5C6
330
1F
100
AcDbEntity
  8
BEMAßUNG
 62
     7
100
AcDb2dPolyline
 66
     1
 10
0.0
 20
0.0
 30
0.0
  0
VERTEX
  5
5C7
330
5C6
100
AcDbEntity
  8
BEMAßUNG
 62
     7
100
AcDbVertex
100
AcDb2dVertex
 10
173.2710774306406
 20
179.268644160912
 30
0.0
  0
VERTEX
  5
5C8
330
5C6
100
AcDbEntity
  8
BEMAßUNG
 62
     7
100
AcDbVertex
100
AcDb2dVertex
 10
173.2982936849741
 20
179.268644160912
 30
0.0
  0
SEQEND
  5
5C9
330
5C6
100
AcDbEntity
  8
BEMAßUNG
  0
POLYLINE
  5
5CA
330
1F
100
AcDbEntity
  8
BEMAßUNG
 62
     7
100
AcDb2dPolyline
 66
     1
 10
0.0
 20
0.0
 30
0.0
  0
VERTEX
  5
5CB
330
5CA
100
AcDbEntity
  8
BEMAßUNG
 62
     7
100
AcDbVertex
100
AcDb2dVertex
 10
173.2710774306406
 20
179.268644160912
 30
0.0
  0
VERTEX
  5
5CC
330
5CA
100
AcDbEntity
  8
BEMAßUNG
 62
     7
100
AcDbVertex
100
AcDb2dVertex
 10
173.2982936849741
 20
179.268644160912
 30
0.0
  0
SEQEND
  5
5CD
330
5CA
100
AcDbEntity
  8
BEMAßUNG
  0
POLYLINE
  5
5CE
330
1F
100
AcDbEntity
  8
BEMAßUNG
 62
     7
100
AcDb2dPolyline
 66
     1
 10
0.0
 20
0.0
 30
0.0
  0
VERTEX
  5
5CF
330
5CE
100
AcDbEntity
  8
BEMAßUNG
 62
     7
100
AcDbVertex
100
AcDb2dVertex
 10
173.2710774306406
 20
179.2178290025046
 30
0.0
  0
VERTEX
  5
5D0
330
5CE
100
AcDbEntity
  8
BEMAßUNG
 62
     7
100
AcDbVertex
100
AcDb2dVertex
 10
173.6837998697735
 20
179.2178290025046
 30
0.0
  0
SEQEND
  5
5D1
330
5CE
100
AcDbEntity
  8
BEMAßUNG
  0
POLYLINE
  5
5D2
330
1F
100
AcDbEntity
  8
BEMAßUNG
 62
     7
100
AcDb2dPolyline
 66
     1
 10
0.0
 20
0.0
 30
0.0
  0
VERTEX
  5
5D3
330
5D2
100
AcDbEntity
  8
BEMAßUNG
 62
     7
100
AcDbVertex
100
AcDb2dVertex
 10
173.2710774306406
 20
179.1670138440971
 30
0.0
  0
VERTEX
  5
5D4
330
5D2
100
AcDbEntity
  8
BEMAßUNG
 62
     7
100
AcDbVertex
100
AcDb2dVertex
 10
174.06999507367
 20
179.1670138440971
 30
0.0
  0
SEQEND
  5
5D5
330
5D2
100
AcDbEntity
  8
BEMAßUNG
  0
POLYLINE
  5
5D6
330
1F
100
AcDbEntity
  8
BEMAßUNG
 62
     7
100
AcDb2dPolyline
 66
     1
 10
0.0
 20
0.0
 30
0.0
  0
VERTEX
  5
5D7
330
5D6
100
AcDbEntity
  8
BEMAßUNG
 62
     7
100
AcDbVertex
100
AcDb2dVertex
 10
173.2710774306406
 20
179.1161986856897
 30
0.0
  0
VERTEX
  5
5D8
330
5D6
100
AcDbEntity
  8
BEMAßUNG
 62
     7
100
AcDbVertex
100
AcDb2dVertex
 10
174.4553290036952
 20
179.1161986856897
 30
0.0
  0
SEQEND
  5
5D9
330
5D6
100
AcDbEntity
  8
BEMAßUNG
  0
POLYLINE
  5
5DA
330
1F
100
AcDbEntity
  8
BEMAßUNG
 62
     7
100
AcDb2dPolyline
 66
     1
 10
0.0
 20
0.0
 30
0.0
  0
VERTEX
  5
5DB
330
5DA
100
AcDbEntity
  8
BEMAßUNG
 62
     7
100
AcDbVertex
100
AcDb2dVertex
 10
173.2710774306406
 20
179.0653835272823
 30
0.0
  0
VERTEX
  5
5DC
330
5DA
100
AcDbEntity
  8
BEMAßUNG
 62
     7
100
AcDbVertex
100
AcDb2dVertex
 10
174.841696462366
 20
179.0653835272823
 30
0.0
  0
SEQEND
  5
5DD
330
5DA
100
AcDbEntity
  8
BEMAßUNG
  0
POLYLINE
  5
5DE
330
1F
100
AcDbEntity
  8
BEMAßUNG
 62
     7
100
AcDb2dPolyline
 66
     1
 10
0.0
 20
0.0
 30
0.0
  0
VERTEX
  5
5DF
330
5DE
100
AcDbEntity
  8
BEMAßUNG
 62
     7
100
AcDbVertex
100
AcDb2dVertex
 10
173.2710774306406
 20
179.0145683688748
 30
0.0
  0
VERTEX
  5
5E0
330
5DE
100
AcDbEntity
  8
BEMAßUNG
 62
     7
100
AcDbVertex
100
AcDb2dVertex
 10
175.2272026471654
 20
179.0145683688748
 30
0.0
  0
SEQEND
  5
5E1
330
5DE
100
AcDbEntity
  8
BEMAßUNG
  0
POLYLINE
  5
5E2
330
1F
100
AcDbEntity
  8
BEMAßUNG
 62
     7
100
AcDb2dPolyline
 66
     1
 10
0.0
 20
0.0
 30
0.0
  0
VERTEX
  5
5E3
330
5E2
100
AcDbEntity
  8
BEMAßUNG
 62
     7
100
AcDbVertex
100
AcDb2dVertex
 10
173.2710774306406
 20
178.9637532104674
 30
0.0
  0
VERTEX
  5
5E4
330
5E2
100
AcDbEntity
  8
BEMAßUNG
 62
     7
100
AcDbVertex
100
AcDb2dVertex
 10
175.6133978510619
 20
178.9637532104674
 30
0.0
  0
SEQEND
  5
5E5
330
5E2
100
AcDbEntity
  8
BEMAßUNG
  0
POLYLINE
  5
5E6
330
1F
100
AcDbEntity
  8
BEMAßUNG
 62
     7
100
AcDb2dPolyline
 66
     1
 10
0.0
 20
0.0
 30
0.0
  0
VERTEX
  5
5E7
330
5E6
100
AcDbEntity
  8
BEMAßUNG
 62
     7
100
AcDbVertex
100
AcDb2dVertex
 10
173.2710774306406
 20
178.9131103068342
 30
0.0
  0
VERTEX
  5
5E8
330
5E6
100
AcDbEntity
  8
BEMAßUNG
 62
     7
100
AcDbVertex
100
AcDb2dVertex
 10
175.9990762906357
 20
178.9131103068342
 30
0.0
  0
SEQEND
  5
5E9
330
5E6
100
AcDbEntity
  8
BEMAßUNG
  0
POLYLINE
  5
5EA
330
1F
100
AcDbEntity
  8
BEMAßUNG
 62
     7
100
AcDb2dPolyline
 66
     1
 10
0.0
 20
0.0
 30
0.0
  0
VERTEX
  5
5EB
330
5EA
100
AcDbEntity
  8
BEMAßUNG
 62
     7
100
AcDbVertex
100
AcDb2dVertex
 10
173.2710774306406
 20
178.8622951484268
 30
0.0
  0
VERTEX
  5
5EC
330
5EA
100
AcDbEntity
  8
BEMAßUNG
 62
     7
100
AcDbVertex
100
AcDb2dVertex
 10
176.3850992397579
 20
178.8622951484268
 30
0.0
  0
SEQEND
  5
5ED
330
5EA
100
AcDbEntity
  8
BEMAßUNG
  0
POLYLINE
  5
5EE
330
1F
100
AcDbEntity
  8
BEMAßUNG
 62
     7
100
AcDb2dPolyline
 66
     1
 10
0.0
 20
0.0
 30
0.0
  0
VERTEX
  5
5EF
330
5EE
100
AcDbEntity
  8
BEMAßUNG
 62
     7
100
AcDbVertex
100
AcDb2dVertex
 10
173.2710774306406
 20
178.8118244995679
 30
0.0
  0
VERTEX
  5
5F0
330
5EE
100
AcDbEntity
  8
BEMAßUNG
 62
     7
100
AcDbVertex
100
AcDb2dVertex
 10
176.7706054245573
 20
178.8118244995679
 30
0.0
  0
SEQEND
  5
5F1
330
5EE
100
AcDbEntity
  8
BEMAßUNG
  0
POLYLINE
  5
5F2
330
1F
100
AcDbEntity
  8
BEMAßUNG
 62
     7
100
AcDb2dPolyline
 66
     1
 10
0.0
 20
0.0
 30
0.0
  0
VERTEX
  5
5F3
330
5F2
100
AcDbEntity
  8
BEMAßUNG
 62
     7
100
AcDbVertex
100
AcDb2dVertex
 10
173.2710774306406
 20
178.3546603286752
 30
0.0
  0
VERTEX
  5
5F4
330
5F2
100
AcDbEntity
  8
BEMAßUNG
 62
     7
100
AcDbVertex
100
AcDb2dVertex
 10
173.2982936849741
 20
178.3546603286752
 30
0.0
  0
SEQEND
  5
5F5
330
5F2
100
AcDbEntity
  8
BEMAßUNG
  0
POLYLINE
  5
5F6
330
1F
100
AcDbEntity
  8
BEMAßUNG
 62
     7
100
AcDb2dPolyline
 66
     1
 10
0.0
 20
0.0
 30
0.0
  0
VERTEX
  5
5F7
330
5F6
100
AcDbEntity
  8
BEMAßUNG
 62
     7
100
AcDbVertex
100
AcDb2dVertex
 10
173.2710774306406
 20
178.3546603286752
 30
0.0
  0
VERTEX
  5
5F8
330
5F6
100
AcDbEntity
  8
BEMAßUNG
 62
     7
100
AcDbVertex
100
AcDb2dVertex
 10
173.2982936849741
 20
178.3546603286752
 30
0.0
  0
SEQEND
  5
5F9
330
5F6
100
AcDbEntity
  8
BEMAßUNG
  0
POLYLINE
  5
5FA
330
1F
100
AcDbEntity
  8
BEMAßUNG
 62
     7
100
AcDb2dPolyline
 66
     1
 10
0.0
 20
0.0
 30
0.0
  0
VERTEX
  5
5FB
330
5FA
100
AcDbEntity
  8
BEMAßUNG
 62
     7
100
AcDbVertex
100
AcDb2dVertex
 10
173.2710774306406
 20
178.4053032323084
 30
0.0
  0
VERTEX
  5
5FC
330
5FA
100
AcDbEntity
  8
BEMAßUNG
 62
     7
100
AcDbVertex
100
AcDb2dVertex
 10
173.6837998697735
 20
178.4053032323084
 30
0.0
  0
SEQEND
  5
5FD
330
5FA
100
AcDbEntity
  8
BEMAßUNG
  0
POLYLINE
  5
5FE
330
1F
100
AcDbEntity
  8
BEMAßUNG
 62
     7
100
AcDb2dPolyline
 66
     1
 10
0.0
 20
0.0
 30
0.0
  0
VERTEX
  5
5FF
330
5FE
100
AcDbEntity
  8
BEMAßUNG
 62
     7
100
AcDbVertex
100
AcDb2dVertex
 10
173.2710774306406
 20
178.4561183907158
 30
0.0
  0
VERTEX
  5
600
330
5FE
100
AcDbEntity
  8
BEMAßUNG
 62
     7
100
AcDbVertex
100
AcDb2dVertex
 10
174.06999507367
 20
178.4561183907158
 30
0.0
  0
SEQEND
  5
601
330
5FE
100
AcDbEntity
  8
BEMAßUNG
  0
POLYLINE
  5
602
330
1F
100
AcDbEntity
  8
BEMAßUNG
 62
     7
100
AcDb2dPolyline
 66
     1
 10
0.0
 20
0.0
 30
0.0
  0
VERTEX
  5
603
330
602
100
AcDbEntity
  8
BEMAßUNG
 62
     7
100
AcDbVertex
100
AcDb2dVertex
 10
173.2710774306406
 20
178.5069335491233
 30
0.0
  0
VERTEX
  5
604
330
602
100
AcDbEntity
  8
BEMAßUNG
 62
     7
100
AcDbVertex
100
AcDb2dVertex
 10
174.4553290036952
 20
178.5069335491233
 30
0.0
  0
SEQEND
  5
605
330
602
100
AcDbEntity
  8
BEMAßUNG
  0
POLYLINE
  5
606
330
1F
100
AcDbEntity
  8
BEMAßUNG
 62
     7
100
AcDb2dPolyline
 66
     1
 10
0.0
 20
0.0
 30
0.0
  0
VERTEX
  5
607
330
606
100
AcDbEntity
  8
BEMAßUNG
 62
     7
100
AcDbVertex
100
AcDb2dVertex
 10
173.2710774306406
 20
178.5577487075307
 30
0.0
  0
VERTEX
  5
608
330
606
100
AcDbEntity
  8
BEMAßUNG
 62
     7
100
AcDbVertex
100
AcDb2dVertex
 10
174.841696462366
 20
178.5577487075307
 30
0.0
  0
SEQEND
  5
609
330
606
100
AcDbEntity
  8
BEMAßUNG
  0
POLYLINE
  5
60A
330
1F
100
AcDbEntity
  8
BEMAßUNG
 62
     7
100
AcDb2dPolyline
 66
     1
 10
0.0
 20
0.0
 30
0.0
  0
VERTEX
  5
60B
330
60A
100
AcDbEntity
  8
BEMAßUNG
 62
     7
100
AcDbVertex
100
AcDb2dVertex
 10
173.2710774306406
 20
178.6085638659382
 30
0.0
  0
VERTEX
  5
60C
330
60A
100
AcDbEntity
  8
BEMAßUNG
 62
     7
100
AcDbVertex
100
AcDb2dVertex
 10
175.2272026471654
 20
178.6085638659382
 30
0.0
  0
SEQEND
  5
60D
330
60A
100
AcDbEntity
  8
BEMAßUNG
  0
POLYLINE
  5
60E
330
1F
100
AcDbEntity
  8
BEMAßUNG
 62
     7
100
AcDb2dPolyline
 66
     1
 10
0.0
 20
0.0
 30
0.0
  0
VERTEX
  5
60F
330
60E
100
AcDbEntity
  8
BEMAßUNG
 62
     7
100
AcDbVertex
100
AcDb2dVertex
 10
173.2710774306406
 20
178.6593790243456
 30
0.0
  0
VERTEX
  5
610
330
60E
100
AcDbEntity
  8
BEMAßUNG
 62
     7
100
AcDbVertex
100
AcDb2dVertex
 10
175.6133978510619
 20
178.6593790243456
 30
0.0
  0
SEQEND
  5
611
330
60E
100
AcDbEntity
  8
BEMAßUNG
  0
POLYLINE
  5
612
330
1F
100
AcDbEntity
  8
BEMAßUNG
 62
     7
100
AcDb2dPolyline
 66
     1
 10
0.0
 20
0.0
 30
0.0
  0
VERTEX
  5
613
330
612
100
AcDbEntity
  8
BEMAßUNG
 62
     7
100
AcDbVertex
100
AcDb2dVertex
 10
173.2710774306406
 20
178.710194182753
 30
0.0
  0
VERTEX
  5
614
330
612
100
AcDbEntity
  8
BEMAßUNG
 62
     7
100
AcDbVertex
100
AcDb2dVertex
 10
175.9990762906357
 20
178.710194182753
 30
0.0
  0
SEQEND
  5
615
330
612
100
AcDbEntity
  8
BEMAßUNG
  0
POLYLINE
  5
616
330
1F
100
AcDbEntity
  8
BEMAßUNG
 62
     7
100
AcDb2dPolyline
 66
     1
 10
0.0
 20
0.0
 30
0.0
  0
VERTEX
  5
617
330
616
100
AcDbEntity
  8
BEMAßUNG
 62
     7
100
AcDbVertex
100
AcDb2dVertex
 10
173.2710774306406
 20
178.7610093411604
 30
0.0
  0
VERTEX
  5
618
330
616
100
AcDbEntity
  8
BEMAßUNG
 62
     7
100
AcDbVertex
100
AcDb2dVertex
 10
176.3850992397579
 20
178.7610093411604
 30
0.0
  0
SEQEND
  5
619
330
616
100
AcDbEntity
  8
BEMAßUNG
  0
POLYLINE
  5
61A
330
1F
100
AcDbEntity
  8
BEMAßUNG
 62
     7
100
AcDb2dPolyline
 66
     1
 10
0.0
 20
0.0
 30
0.0
  0
VERTEX
  5
61B
330
61A
100
AcDbEntity
  8
BEMAßUNG
 62
     7
100
AcDbVertex
100
AcDb2dVertex
 10
173.2710774306406
 20
178.8118244995679
 30
0.0
  0
VERTEX
  5
61C
330
61A
100
AcDbEntity
  8
BEMAßUNG
 62
     7
100
AcDbVertex
100
AcDb2dVertex
 10
176.7706054245573
 20
178.8118244995679
 30
0.0
  0
SEQEND
  5
61D
330
61A
100
AcDbEntity
  8
BEMAßUNG
  0
POLYLINE
  5
61E
330
1F
100
AcDbEntity
  8
BEMAßUNG
 62
     7
100
AcDb2dPolyline
 66
     1
 10
0.0
 20
0.0
 30
0.0
  0
VERTEX
  5
61F
330
61E
100
AcDbEntity
  8
BEMAßUNG
 62
     7
100
AcDbVertex
100
AcDb2dVertex
 10
-8.228955076067761
 20
178.8118244995679
 30
0.0
  0
VERTEX
  5
620
330
61E
100
AcDbEntity
  8
BEMAßUNG
 62
     7
100
AcDbVertex
100
AcDb2dVertex
 10
-4.729254827376714
 20
178.3510429784157
 30
0.0
  0
VERTEX
  5
621
330
61E
100
AcDbEntity
  8
BEMAßUNG
 62
     7
100
AcDbVertex
100
AcDb2dVertex
 10
-4.729254827376714
 20
179.2724337659458
 30
0.0
  0
VERTEX
  5
622
330
61E
100
AcDbEntity
  8
BEMAßUNG
 62
     7
100
AcDbVertex
100
AcDb2dVertex
 10
-8.228955076067761
 20
178.8118244995679
 30
0.0
  0
SEQEND
  5
623
330
61E
100
AcDbEntity
  8
BEMAßUNG
  0
POLYLINE
  5
624
330
1F
100
AcDbEntity
  8
BEMAßUNG
 62
     7
100
AcDb2dPolyline
 66
     1
 10
0.0
 20
0.0
 30
0.0
  0
VERTEX
  5
625
330
624
100
AcDbEntity
  8
BEMAßUNG
 62
     7
100
AcDbVertex
100
AcDb2dVertex
 10
-4.729254827376714
 20
178.3546603286752
 30
0.0
  0
VERTEX
  5
626
330
624
100
AcDbEntity
  8
BEMAßUNG
 62
     7
100
AcDbVertex
100
AcDb2dVertex
 10
-4.756126572161663
 20
178.3546603286752
 30
0.0
  0
SEQEND
  5
627
330
624
100
AcDbEntity
  8
BEMAßUNG
  0
POLYLINE
  5
628
330
1F
100
AcDbEntity
  8
BEMAßUNG
 62
     7
100
AcDb2dPolyline
 66
     1
 10
0.0
 20
0.0
 30
0.0
  0
VERTEX
  5
629
330
628
100
AcDbEntity
  8
BEMAßUNG
 62
     7
100
AcDbVertex
100
AcDb2dVertex
 10
-4.729254827376714
 20
178.3546603286752
 30
0.0
  0
VERTEX
  5
62A
330
628
100
AcDbEntity
  8
BEMAßUNG
 62
     7
100
AcDbVertex
100
AcDb2dVertex
 10
-4.756126572161663
 20
178.3546603286752
 30
0.0
  0
SEQEND
  5
62B
330
628
100
AcDbEntity
  8
BEMAßUNG
  0
POLYLINE
  5
62C
330
1F
100
AcDbEntity
  8
BEMAßUNG
 62
     7
100
AcDb2dPolyline
 66
     1
 10
0.0
 20
0.0
 30
0.0
  0
VERTEX
  5
62D
330
62C
100
AcDbEntity
  8
BEMAßUNG
 62
     7
100
AcDbVertex
100
AcDb2dVertex
 10
-4.729254827376714
 20
178.4053032323084
 30
0.0
  0
VERTEX
  5
62E
330
62C
100
AcDbEntity
  8
BEMAßUNG
 62
     7
100
AcDbVertex
100
AcDb2dVertex
 10
-5.142149521283907
 20
178.4053032323084
 30
0.0
  0
SEQEND
  5
62F
330
62C
100
AcDbEntity
  8
BEMAßUNG
  0
POLYLINE
  5
630
330
1F
100
AcDbEntity
  8
BEMAßUNG
 62
     7
100
AcDb2dPolyline
 66
     1
 10
0.0
 20
0.0
 30
0.0
  0
VERTEX
  5
631
330
630
100
AcDbEntity
  8
BEMAßUNG
 62
     7
100
AcDbVertex
100
AcDb2dVertex
 10
-4.729254827376714
 20
178.4561183907158
 30
0.0
  0
VERTEX
  5
632
330
630
100
AcDbEntity
  8
BEMAßUNG
 62
     7
100
AcDbVertex
100
AcDb2dVertex
 10
-5.528344725180414
 20
178.4561183907158
 30
0.0
  0
SEQEND
  5
633
330
630
100
AcDbEntity
  8
BEMAßUNG
  0
POLYLINE
  5
634
330
1F
100
AcDbEntity
  8
BEMAßUNG
 62
     7
100
AcDb2dPolyline
 66
     1
 10
0.0
 20
0.0
 30
0.0
  0
VERTEX
  5
635
330
634
100
AcDbEntity
  8
BEMAßUNG
 62
     7
100
AcDbVertex
100
AcDb2dVertex
 10
-4.729254827376714
 20
178.5069335491233
 30
0.0
  0
VERTEX
  5
636
330
634
100
AcDbEntity
  8
BEMAßUNG
 62
     7
100
AcDbVertex
100
AcDb2dVertex
 10
-5.914023164754133
 20
178.5069335491233
 30
0.0
  0
SEQEND
  5
637
330
634
100
AcDbEntity
  8
BEMAßUNG
  0
POLYLINE
  5
638
330
1F
100
AcDbEntity
  8
BEMAßUNG
 62
     7
100
AcDb2dPolyline
 66
     1
 10
0.0
 20
0.0
 30
0.0
  0
VERTEX
  5
639
330
638
100
AcDbEntity
  8
BEMAßUNG
 62
     7
100
AcDbVertex
100
AcDb2dVertex
 10
-4.729254827376714
 20
178.5577487075307
 30
0.0
  0
VERTEX
  5
63A
330
638
100
AcDbEntity
  8
BEMAßUNG
 62
     7
100
AcDbVertex
100
AcDb2dVertex
 10
-6.29952934955359
 20
178.5577487075307
 30
0.0
  0
SEQEND
  5
63B
330
638
100
AcDbEntity
  8
BEMAßUNG
  0
POLYLINE
  5
63C
330
1F
100
AcDbEntity
  8
BEMAßUNG
 62
     7
100
AcDb2dPolyline
 66
     1
 10
0.0
 20
0.0
 30
0.0
  0
VERTEX
  5
63D
330
63C
100
AcDbEntity
  8
BEMAßUNG
 62
     7
100
AcDbVertex
100
AcDb2dVertex
 10
-4.729254827376714
 20
178.6085638659382
 30
0.0
  0
VERTEX
  5
63E
330
63C
100
AcDbEntity
  8
BEMAßUNG
 62
     7
100
AcDbVertex
100
AcDb2dVertex
 10
-6.685552298675835
 20
178.6085638659382
 30
0.0
  0
SEQEND
  5
63F
330
63C
100
AcDbEntity
  8
BEMAßUNG
  0
POLYLINE
  5
640
330
1F
100
AcDbEntity
  8
BEMAßUNG
 62
     7
100
AcDb2dPolyline
 66
     1
 10
0.0
 20
0.0
 30
0.0
  0
VERTEX
  5
641
330
640
100
AcDbEntity
  8
BEMAßUNG
 62
     7
100
AcDbVertex
100
AcDb2dVertex
 10
-4.729254827376714
 20
178.6593790243456
 30
0.0
  0
VERTEX
  5
642
330
640
100
AcDbEntity
  8
BEMAßUNG
 62
     7
100
AcDbVertex
100
AcDb2dVertex
 10
-7.071747502572341
 20
178.6593790243456
 30
0.0
  0
SEQEND
  5
643
330
640
100
AcDbEntity
  8
BEMAßUNG
  0
POLYLINE
  5
644
330
1F
100
AcDbEntity
  8
BEMAßUNG
 62
     7
100
AcDb2dPolyline
 66
     1
 10
0.0
 20
0.0
 30
0.0
  0
VERTEX
  5
645
330
644
100
AcDbEntity
  8
BEMAßUNG
 62
     7
100
AcDbVertex
100
AcDb2dVertex
 10
-4.729254827376714
 20
178.710194182753
 30
0.0
  0
VERTEX
  5
646
330
644
100
AcDbEntity
  8
BEMAßUNG
 62
     7
100
AcDbVertex
100
AcDb2dVertex
 10
-7.45742594214606
 20
178.710194182753
 30
0.0
  0
SEQEND
  5
647
330
644
100
AcDbEntity
  8
BEMAßUNG
  0
POLYLINE
  5
648
330
1F
100
AcDbEntity
  8
BEMAßUNG
 62
     7
100
AcDb2dPolyline
 66
     1
 10
0.0
 20
0.0
 30
0.0
  0
VERTEX
  5
649
330
648
100
AcDbEntity
  8
BEMAßUNG
 62
     7
100
AcDbVertex
100
AcDb2dVertex
 10
-4.729254827376714
 20
178.7610093411604
 30
0.0
  0
VERTEX
  5
64A
330
648
100
AcDbEntity
  8
BEMAßUNG
 62
     7
100
AcDbVertex
100
AcDb2dVertex
 10
-7.843621146042567
 20
178.7610093411604
 30
0.0
  0
SEQEND
  5
64B
330
648
100
AcDbEntity
  8
BEMAßUNG
  0
POLYLINE
  5
64C
330
1F
100
AcDbEntity
  8
BEMAßUNG
 62
     7
100
AcDb2dPolyline
 66
     1
 10
0.0
 20
0.0
 30
0.0
  0
VERTEX
  5
64D
330
64C
100
AcDbEntity
  8
BEMAßUNG
 62
     7
100
AcDbVertex
100
AcDb2dVertex
 10
-4.729254827376714
 20
178.8118244995679
 30
0.0
  0
VERTEX
  5
64E
330
64C
100
AcDbEntity
  8
BEMAßUNG
 62
     7
100
AcDbVertex
100
AcDb2dVertex
 10
-8.228955076067761
 20
178.8118244995679
 30
0.0
  0
SEQEND
  5
64F
330
64C
100
AcDbEntity
  8
BEMAßUNG
  0
POLYLINE
  5
650
330
1F
100
AcDbEntity
  8
BEMAßUNG
 62
     7
100
AcDb2dPolyline
 66
     1
 10
0.0
 20
0.0
 30
0.0
  0
VERTEX
  5
651
330
650
100
AcDbEntity
  8
BEMAßUNG
 62
     7
100
AcDbVertex
100
AcDb2dVertex
 10
-4.729254827376714
 20
179.268644160912
 30
0.0
  0
VERTEX
  5
652
330
650
100
AcDbEntity
  8
BEMAßUNG
 62
     7
100
AcDbVertex
100
AcDb2dVertex
 10
-4.756126572161663
 20
179.268644160912
 30
0.0
  0
SEQEND
  5
653
330
650
100
AcDbEntity
  8
BEMAßUNG
  0
POLYLINE
  5
654
330
1F
100
AcDbEntity
  8
BEMAßUNG
 62
     7
100
AcDb2dPolyline
 66
     1
 10
0.0
 20
0.0
 30
0.0
  0
VERTEX
  5
655
330
654
100
AcDbEntity
  8
BEMAßUNG
 62
     7
100
AcDbVertex
100
AcDb2dVertex
 10
-4.729254827376714
 20
179.268644160912
 30
0.0
  0
VERTEX
  5
656
330
654
100
AcDbEntity
  8
BEMAßUNG
 62
     7
100
AcDbVertex
100
AcDb2dVertex
 10
-4.756126572161663
 20
179.268644160912
 30
0.0
  0
SEQEND
  5
657
330
654
100
AcDbEntity
  8
BEMAßUNG
  0
POLYLINE
  5
658
330
1F
100
AcDbEntity
  8
BEMAßUNG
 62
     7
100
AcDb2dPolyline
 66
     1
 10
0.0
 20
0.0
 30
0.0
  0
VERTEX
  5
659
330
658
100
AcDbEntity
  8
BEMAßUNG
 62
     7
100
AcDbVertex
100
AcDb2dVertex
 10
-4.729254827376714
 20
179.2178290025046
 30
0.0
  0
VERTEX
  5
65A
330
658
100
AcDbEntity
  8
BEMAßUNG
 62
     7
100
AcDbVertex
100
AcDb2dVertex
 10
-5.142149521283907
 20
179.2178290025046
 30
0.0
  0
SEQEND
  5
65B
330
658
100
AcDbEntity
  8
BEMAßUNG
  0
POLYLINE
  5
65C
330
1F
100
AcDbEntity
  8
BEMAßUNG
 62
     7
100
AcDb2dPolyline
 66
     1
 10
0.0
 20
0.0
 30
0.0
  0
VERTEX
  5
65D
330
65C
100
AcDbEntity
  8
BEMAßUNG
 62
     7
100
AcDbVertex
100
AcDb2dVertex
 10
-4.729254827376714
 20
179.1670138440971
 30
0.0
  0
VERTEX
  5
65E
330
65C
100
AcDbEntity
  8
BEMAßUNG
 62
     7
100
AcDbVertex
100
AcDb2dVertex
 10
-5.528344725180414
 20
179.1670138440971
 30
0.0
  0
SEQEND
  5
65F
330
65C
100
AcDbEntity
  8
BEMAßUNG
  0
POLYLINE
  5
660
330
1F
100
AcDbEntity
  8
BEMAßUNG
 62
     7
100
AcDb2dPolyline
 66
     1
 10
0.0
 20
0.0
 30
0.0
  0
VERTEX
  5
661
330
660
100
AcDbEntity
  8
BEMAßUNG
 62
     7
100
AcDbVertex
100
AcDb2dVertex
 10
-4.729254827376714
 20
179.1161986856897
 30
0.0
  0
VERTEX
  5
662
330
660
100
AcDbEntity
  8
BEMAßUNG
 62
     7
100
AcDbVertex
100
AcDb2dVertex
 10
-5.914023164754133
 20
179.1161986856897
 30
0.0
  0
SEQEND
  5
663
330
660
100
AcDbEntity
  8
BEMAßUNG
  0
POLYLINE
  5
664
330
1F
100
AcDbEntity
  8
BEMAßUNG
 62
     7
100
AcDb2dPolyline
 66
     1
 10
0.0
 20
0.0
 30
0.0
  0
VERTEX
  5
665
330
664
100
AcDbEntity
  8
BEMAßUNG
 62
     7
100
AcDbVertex
100
AcDb2dVertex
 10
-4.729254827376714
 20
179.0653835272823
 30
0.0
  0
VERTEX
  5
666
330
664
100
AcDbEntity
  8
BEMAßUNG
 62
     7
100
AcDbVertex
100
AcDb2dVertex
 10
-6.29952934955359
 20
179.0653835272823
 30
0.0
  0
SEQEND
  5
667
330
664
100
AcDbEntity
  8
BEMAßUNG
  0
POLYLINE
  5
668
330
1F
100
AcDbEntity
  8
BEMAßUNG
 62
     7
100
AcDb2dPolyline
 66
     1
 10
0.0
 20
0.0
 30
0.0
  0
VERTEX
  5
669
330
668
100
AcDbEntity
  8
BEMAßUNG
 62
     7
100
AcDbVertex
100
AcDb2dVertex
 10
-4.729254827376714
 20
179.0145683688748
 30
0.0
  0
VERTEX
  5
66A
330
668
100
AcDbEntity
  8
BEMAßUNG
 62
     7
100
AcDbVertex
100
AcDb2dVertex
 10
-6.685552298675835
 20
179.0145683688748
 30
0.0
  0
SEQEND
  5
66B
330
668
100
AcDbEntity
  8
BEMAßUNG
  0
POLYLINE
  5
66C
330
1F
100
AcDbEntity
  8
BEMAßUNG
 62
     7
100
AcDb2dPolyline
 66
     1
 10
0.0
 20
0.0
 30
0.0
  0
VERTEX
  5
66D
330
66C
100
AcDbEntity
  8
BEMAßUNG
 62
     7
100
AcDbVertex
100
AcDb2dVertex
 10
-4.729254827376714
 20
178.9637532104674
 30
0.0
  0
VERTEX
  5
66E
330
66C
100
AcDbEntity
  8
BEMAßUNG
 62
     7
100
AcDbVertex
100
AcDb2dVertex
 10
-7.071747502572341
 20
178.9637532104674
 30
0.0
  0
SEQEND
  5
66F
330
66C
100
AcDbEntity
  8
BEMAßUNG
  0
POLYLINE
  5
670
330
1F
100
AcDbEntity
  8
BEMAßUNG
 62
     7
100
AcDb2dPolyline
 66
     1
 10
0.0
 20
0.0
 30
0.0
  0
VERTEX
  5
671
330
670
100
AcDbEntity
  8
BEMAßUNG
 62
     7
100
AcDbVertex
100
AcDb2dVertex
 10
-4.729254827376714
 20
178.9131103068342
 30
0.0
  0
VERTEX
  5
672
330
670
100
AcDbEntity
  8
BEMAßUNG
 62
     7
100
AcDbVertex
100
AcDb2dVertex
 10
-7.45742594214606
 20
178.9131103068342
 30
0.0
  0
SEQEND
  5
673
330
670
100
AcDbEntity
  8
BEMAßUNG
  0
POLYLINE
  5
674
330
1F
100
AcDbEntity
  8
BEMAßUNG
 62
     7
100
AcDb2dPolyline
 66
     1
 10
0.0
 20
0.0
 30
0.0
  0
VERTEX
  5
675
330
674
100
AcDbEntity
  8
BEMAßUNG
 62
     7
100
AcDbVertex
100
AcDb2dVertex
 10
-4.729254827376714
 20
178.8622951484268
 30
0.0
  0
VERTEX
  5
676
330
674
100
AcDbEntity
  8
BEMAßUNG
 62
     7
100
AcDbVertex
100
AcDb2dVertex
 10
-7.843621146042567
 20
178.8622951484268
 30
0.0
  0
SEQEND
  5
677
330
674
100
AcDbEntity
  8
BEMAßUNG
  0
POLYLINE
  5
678
330
1F
100
AcDbEntity
  8
BEMAßUNG
 62
     7
100
AcDb2dPolyline
 66
     1
 10
0.0
 20
0.0
 30
0.0
  0
VERTEX
  5
679
330
678
100
AcDbEntity
  8
BEMAßUNG
 62
     7
100
AcDbVertex
100
AcDb2dVertex
 10
-4.729254827376714
 20
178.8118244995679
 30
0.0
  0
VERTEX
  5
67A
330
678
100
AcDbEntity
  8
BEMAßUNG
 62
     7
100
AcDbVertex
100
AcDb2dVertex
 10
-8.228955076067761
 20
178.8118244995679
 30
0.0
  0
SEQEND
  5
67B
330
678
100
AcDbEntity
  8
BEMAßUNG
  0
MTEXT
  5
67D
330
1F
100
AcDbEntity
  8
TEXT
 62
     7
100
AcDbMText
 10
209.5996093226001
 20
217.7681891002889
 30
0.0
 40
3.311186211711877
 41
0.0
 71
     7
 72
     1
  1
\fINDEX Univers 45 Light|b0|i0|c0|p34;\W1;ø45
 11
-4.371139000186241E-8
 21
0.999999999999999
 31
0.0
  0
MTEXT
  5
67E
330
1F
100
AcDbEntity
  8
TEXT
 62
     7
100
AcDbMText
 10
-19.08849893728517
 20
217.3452175020873
 30
0.0
 40
3.311186211711877
 41
0.0
 71
     7
 72
     1
  1
\fINDEX Univers 45 Light|b0|i0|c0|p34;\W1;ø25
 11
-4.371139000186241E-8
 21
0.999999999999999
 31
0.0
  0
MTEXT
  5
67F
330
1F
100
AcDbEntity
  8
TEXT
 62
     7
100
AcDbMText
 10
90.80720483840932
 20
170.2309529196818
 30
0.0
 40
3.311186211711877
 41
0.0
 71
     7
 72
     1
  1
\fINDEX Univers 45 Light|b0|i0|c0|p34;\W1;204
  0
MTEXT
  5
680
330
1F
100
AcDbEntity
  8
TEXT
 62
     7
100
AcDbMText
 10
162.5604478217731
 20
189.8099473266795
 30
0.0
 40
3.311186211711877
 41
0.0
 71
     7
 72
     1
  1
\fINDEX Univers 45 Light|b0|i0|c0|p34;\W1;25
  0
MTEXT
  5
681
330
1F
100
AcDbEntity
  8
TEXT
 62
     7
100
AcDbMText
 10
81.77829859066654
 20
180.4031141042048
 30
0.0
 40
3.311186211711877
 41
0.0
 71
     7
 72
     1
  1
\fINDEX Univers 45 Light|b0|i0|c0|p34;\W1;185
  0
ENDSEC
  0
SECTION
  2
OBJECTS
  0
DICTIONARY
  5
C
330
0
100
AcDbDictionary
  3
ACAD_GROUP
350
D
  3
ACAD_LAYOUT
350
1A
  3
ACAD_MLINESTYLE
350
17
  3
ACAD_PLOTSETTINGS
350
19
  3
ACAD_TABLESTYLE
350
6A2
  3
ACAD_VISUALSTYLE
350
2A
  3
ACDBHEADERROUNDTRIPXREC
350
682
  0
DICTIONARY
  5
D
102
{ACAD_REACTORS
330
C
102
}
330
C
100
AcDbDictionary
  0
DICTIONARY
  5
1A
102
{ACAD_REACTORS
330
C
102
}
330
C
100
AcDbDictionary
  0
DICTIONARY
  5
17
102
{ACAD_REACTORS
330
C
102
}
330
C
100
AcDbDictionary
  3
STANDARD
350
18
  0
DICTIONARY
  5
19
102
{ACAD_REACTORS
330
C
102
}
330
C
100
AcDbDictionary
  0
DICTIONARY
  5
6A2
102
{ACAD_REACTORS
330
C
102
}
330
C
100
AcDbDictionary
  0
DICTIONARY
  5
2A
102
{ACAD_REACTORS
330
C
102
}
330
C
100
AcDbDictionary
  3
2DWIREFRAME
350
2F
  3
3D_HIDDEN
350
31
  3
3DWIREFRAME
350
30
  3
BASIC
350
32
  3
BRIGHTEN
350
36
  3
COLORCHANGE
350
3A
  3
CONCEPTUAL
350
34
  3
DIM
350
35
  3
FACEPATTERN
350
39
  3
FLAT
350
2B
  3
FLATWITHEDGES
350
2C
  3
GOURAUD
350
2D
  3
GOURAUDWITHEDGES
350
2E
  3
LINEPATTERN
350
38
  3
REALISTIC
350
33
  3
THICKEN
350
37
  0
DICTIONARY
  5
682
102
{ACAD_REACTORS
330
C
102
}
330
C
100
AcDbDictionary
  3
CEPSNTYPE
350
68B
  3
DIMSTYLEDATA
350
6A1
  3
FINGERPRINTGUID
350
68C
  3
HYPERLINKBASE
350
685
  3
INSUNITS
350
68A
  3
LAYOUTDICT
350
687
  3
LWETCUNION
350
689
  3
PLOTSETDICT
350
688
  3
PSVPSCALE
350
68E
  3
PUCSBASE
350
691
  3
PUCSORGBACK
350
697
  3
PUCSORGBOTTOM
350
693
  3
PUCSORGFRONT
350
696
  3
PUCSORGLEFT
350
694
  3
PUCSORGRIGHT
350
695
  3
PUCSORGTOP
350
692
  3
PUCSORTHOREF
350
68F
  3
PUCSORTHOVIEW
350
690
  3
STYLESHEET
350
686
  3
TSTACKALIGN
350
683
  3
TSTACKSIZE
350
684
  3
UCSBASE
350
69A
  3
UCSORGBACK
350
6A0
  3
UCSORGBOTTOM
350
69C
  3
UCSORGFRONT
350
69F
  3
UCSORGLEFT
350
69D
  3
UCSORGRIGHT
350
69E
  3
UCSORGTOP
350
69B
  3
UCSORTHOREF
350
698
  3
UCSORTHOVIEW
350
699
  3
VERSIONGUID
350
68D
  0
MLINESTYLE
  5
18
102
{ACAD_REACTORS
330
17
102
}
330
17
100
AcDbMlineStyle
  2
Standard
 70
     0
  3

 62
   256
 51
90.0
 52
90.0
 71
     2
 49
0.5
 62
   256
  6
BYLAYER
 49
-0.5
 62
   256
  6
BYLAYER
  0
VISUALSTYLE
  5
2F
102
{ACAD_REACTORS
330
2A
102
}
330
2A
100
AcDbVisualStyle
  2
2dWireframe
 70
     4
 71
     0
 72
     2
 73
     0
 90
        0
 40
-0.6
 41
-30.0
 62
     5
 63
     7
 74
     1
 91
        4
 64
     7
 65
   257
 75
     1
175
     1
 42
1.0
 92
        0
 66
   257
 43
1.0
 76
     1
 77
     6
 78
     2
 67
     7
 79
     5
170
     0
171
     0
290
     0
174
     0
 93
        1
 44
0.0
173
     0
291
     0
 45
0.0
1001
ACAD
1000
AcDbSavedByObjectVersion
1070
     0
  0
VISUALSTYLE
  5
31
102
{ACAD_REACTORS
330
2A
102
}
330
2A
100
AcDbVisualStyle
  2
3D Hidden
 70
     6
 71
     1
 72
     2
 73
     2
 90
        0
 40
-0.6
 41
-30.0
 62
     5
 63
     7
 74
     2
 91
        2
 64
     7
 65
   257
 75
     2
175
     1
 42
40.0
 92
        0
 66
   257
 43
1.0
 76
     1
 77
     6
 78
     2
 67
     7
 79
     3
170
     0
171
     0
290
     0
174
     0
 93
        1
 44
0.0
173
     0
291
     0
 45
0.0
1001
ACAD
1000
AcDbSavedByObjectVersion
1070
     0
  0
VISUALSTYLE
  5
30
102
{ACAD_REACTORS
330
2A
102
}
330
2A
100
AcDbVisualStyle
  2
3dWireframe
 70
     5
 71
     0
 72
     2
 73
     0
 90
        0
 40
-0.6
 41
-30.0
 62
     5
 63
     7
 74
     1
 91
        4
 64
     7
 65
   257
 75
     1
175
     1
 42
1.0
 92
        0
 66
   257
 43
1.0
 76
     1
 77
     6
 78
     2
 67
     7
 79
     5
170
     0
171
     0
290
     0
174
     0
 93
        1
 44
0.0
173
     0
291
     0
 45
0.0
1001
ACAD
1000
AcDbSavedByObjectVersion
1070
     0
  0
VISUALSTYLE
  5
32
102
{ACAD_REACTORS
330
2A
102
}
330
2A
100
AcDbVisualStyle
  2
Basic
 70
     7
 71
     1
 72
     0
 73
     1
 90
        0
 40
-0.6
 41
-30.0
 62
     5
 63
     7
 74
     0
 91
        4
 64
     7
 65
   257
 75
     1
175
     1
 42
1.0
 92
        8
 66
     7
 43
1.0
 76
     1
 77
     6
 78
     2
 67
     7
 79
     5
170
     0
171
     0
290
     0
174
     0
 93
        1
 44
0.0
173
     0
291
     1
 45
0.0
1001
ACAD
1000
AcDbSavedByObjectVersion
1070
     0
  0
VISUALSTYLE
  5
36
102
{ACAD_REACTORS
330
2A
102
}
330
2A
100
AcDbVisualStyle
  2
Brighten
 70
    12
 71
     2
 72
     2
 73
     0
 90
        0
 40
-0.6
 41
-30.0
 62
     5
 63
     7
 74
     1
 91
        4
 64
     7
 65
   257
 75
     1
175
     1
 42
1.0
 92
        8
 66
     7
 43
1.0
 76
     1
 77
     6
 78
     2
 67
     7
 79
     5
170
     0
171
     0
290
     0
174
     0
 93
        1
 44
50.0
173
     0
291
     1
 45
0.0
1001
ACAD
1000
AcDbSavedByObjectVersion
1070
     0
  0
VISUALSTYLE
  5
3A
102
{ACAD_REACTORS
330
2A
102
}
330
2A
100
AcDbVisualStyle
  2
ColorChange
 70
    16
 71
     2
 72
     2
 73
     3
 90
        0
 40
-0.6
 41
-30.0
 62
     5
 63
     8
 74
     1
 91
        4
 64
     7
 65
   257
 75
     1
175
     1
 42
1.0
 92
        8
 66
     8
 43
1.0
 76
     1
 77
     6
 78
     2
 67
     7
 79
     5
170
     0
171
     0
290
     0
174
     0
 93
        1
 44
0.0
173
     0
291
     1
 45
0.0
1001
ACAD
1000
AcDbSavedByObjectVersion
1070
     0
  0
VISUALSTYLE
  5
34
102
{ACAD_REACTORS
330
2A
102
}
330
2A
100
AcDbVisualStyle
  2
Conceptual
 70
     9
 71
     3
 72
     2
 73
     0
 90
        0
 40
-0.6
 41
-30.0
 62
     5
 63
     7
 74
     2
 91
        2
 64
     7
 65
   257
 75
     1
175
     1
 42
40.0
 92
        8
 66
     7
 43
1.0
 76
     1
 77
     6
 78
     2
 67
     7
 79
     3
170
     0
171
     0
290
     0
174
     0
 93
        1
 44
0.0
173
     0
291
     0
 45
0.0
1001
ACAD
1000
AcDbSavedByObjectVersion
1070
     0
  0
VISUALSTYLE
  5
35
102
{ACAD_REACTORS
330
2A
102
}
330
2A
100
AcDbVisualStyle
  2
Dim
 70
    11
 71
     2
 72
     2
 73
     0
 90
        0
 40
-0.6
 41
-30.0
 62
     5
 63
     7
 74
     1
 91
        4
 64
     7
 65
   257
 75
     1
175
     1
 42
1.0
 92
        8
 66
     7
 43
1.0
 76
     1
 77
     6
 78
     2
 67
     7
 79
     5
170
     0
171
     0
290
     0
174
     0
 93
        1
 44
-50.0
173
     0
291
     1
 45
0.0
1001
ACAD
1000
AcDbSavedByObjectVersion
1070
     0
  0
VISUALSTYLE
  5
39
102
{ACAD_REACTORS
330
2A
102
}
330
2A
100
AcDbVisualStyle
  2
Facepattern
 70
    15
 71
     2
 72
     2
 73
     0
 90
        0
 40
-0.6
 41
-30.0
 62
     5
 63
     7
 74
     1
 91
        4
 64
     7
 65
   257
 75
     1
175
     1
 42
1.0
 92
        8
 66
     7
 43
1.0
 76
     1
 77
     6
 78
     2
 67
     7
 79
     5
170
     0
171
     0
290
     0
174
     0
 93
        1
 44
0.0
173
     0
291
     1
 45
0.0
1001
ACAD
1000
AcDbSavedByObjectVersion
1070
     0
  0
VISUALSTYLE
  5
2B
102
{ACAD_REACTORS
330
2A
102
}
330
2A
100
AcDbVisualStyle
  2
Flat
 70
     0
 71
     2
 72
     1
 73
     1
 90
        2
 40
-0.6
 41
30.0
 62
     5
 63
     7
 74
     0
 91
        4
 64
     7
 65
   257
 75
     1
175
     1
 42
1.0
 92
        8
 66
     7
 43
1.0
 76
     1
 77
     6
 78
     2
 67
     7
 79
     5
170
     0
171
     0
290
     0
174
     0
 93
       13
 44
0.0
173
     0
291
     1
 45
0.0
1001
ACAD
1000
AcDbSavedByObjectVersion
1070
     0
  0
VISUALSTYLE
  5
2C
102
{ACAD_REACTORS
330
2A
102
}
330
2A
100
AcDbVisualStyle
  2
FlatWithEdges
 70
     1
 71
     2
 72
     1
 73
     1
 90
        2
 40
-0.6
 41
30.0
 62
     5
 63
     7
 74
     1
 91
        4
 64
     7
 65
   257
 75
     1
175
     1
 42
1.0
 92
        0
 66
   257
 43
1.0
 76
     1
 77
     6
 78
     2
 67
     7
 79
     5
170
     0
171
     0
290
     0
174
     0
 93
       13
 44
0.0
173
     0
291
     1
 45
0.0
1001
ACAD
1000
AcDbSavedByObjectVersion
1070
     0
  0
VISUALSTYLE
  5
2D
102
{ACAD_REACTORS
330
2A
102
}
330
2A
100
AcDbVisualStyle
  2
Gouraud
 70
     2
 71
     2
 72
     2
 73
     1
 90
        2
 40
-0.6
 41
30.0
 62
     5
 63
     7
 74
     0
 91
        4
 64
     7
 65
   257
 75
     1
175
     1
 42
1.0
 92
        0
 66
     7
 43
1.0
 76
     1
 77
     6
 78
     2
 67
     7
 79
     5
170
     0
171
     0
290
     0
174
     0
 93
       13
 44
0.0
173
     0
291
     1
 45
0.0
1001
ACAD
1000
AcDbSavedByObjectVersion
1070
     0
  0
VISUALSTYLE
  5
2E
102
{ACAD_REACTORS
330
2A
102
}
330
2A
100
AcDbVisualStyle
  2
GouraudWithEdges
 70
     3
 71
     2
 72
     2
 73
     1
 90
        2
 40
-0.6
 41
30.0
 62
     5
 63
     7
 74
     1
 91
        4
 64
     7
 65
   257
 75
     1
175
     1
 42
1.0
 92
        0
 66
   257
 43
1.0
 76
     1
 77
     6
 78
     2
 67
     7
 79
     5
170
     0
171
     0
290
     0
174
     0
 93
       13
 44
0.0
173
     0
291
     1
 45
0.0
1001
ACAD
1000
AcDbSavedByObjectVersion
1070
     0
  0
VISUALSTYLE
  5
38
102
{ACAD_REACTORS
330
2A
102
}
330
2A
100
AcDbVisualStyle
  2
Linepattern
 70
    14
 71
     2
 72
     2
 73
     0
 90
        0
 40
-0.6
 41
-30.0
 62
     5
 63
     7
 74
     1
 91
        4
 64
     7
 65
   257
 75
     7
175
     7
 42
1.0
 92
        8
 66
     7
 43
1.0
 76
     1
 77
     6
 78
     2
 67
     7
 79
     5
170
     0
171
     0
290
     0
174
     0
 93
        1
 44
0.0
173
     0
291
     1
 45
0.0
1001
ACAD
1000
AcDbSavedByObjectVersion
1070
     0
  0
VISUALSTYLE
  5
33
102
{ACAD_REACTORS
330
2A
102
}
330
2A
100
AcDbVisualStyle
  2
Realistic
 70
     8
 71
     2
 72
     2
 73
     0
 90
        0
 40
-0.6
 41
-30.0
 62
     5
 63
     7
 74
     1
 91
        0
 64
     7
 65
   257
 75
     1
175
     1
 42
1.0
 92
        8
 66
     8
 43
1.0
 76
     1
 77
     6
 78
     2
 67
     7
 79
     5
170
     0
171
     0
290
     0
174
     0
 93
       13
 44
0.0
173
     0
291
     0
 45
0.0
1001
ACAD
1000
AcDbSavedByObjectVersion
1070
     0
  0
VISUALSTYLE
  5
37
102
{ACAD_REACTORS
330
2A
102
}
330
2A
100
AcDbVisualStyle
  2
Thicken
 70
    13
 71
     2
 72
     2
 73
     0
 90
        0
 40
-0.6
 41
-30.0
 62
     5
 63
     7
 74
     1
 91
        4
 64
     7
 65
   257
 75
     1
175
     1
 42
1.0
 92
       12
 66
     7
 43
1.0
 76
     1
 77
     6
 78
     2
 67
     7
 79
     5
170
     0
171
     0
290
     0
174
     0
 93
        1
 44
0.0
173
     0
291
     1
 45
0.0
1001
ACAD
1000
AcDbSavedByObjectVersion
1070
     0
  0
XRECORD
  5
68B
102
{ACAD_REACTORS
330
682
102
}
330
682
100
AcDbXrecord
 90
        0
  0
XRECORD
  5
6A1
102
{ACAD_REACTORS
330
682
102
}
330
682
100
AcDbXrecord
1000
DSTYLE
1002
{
1070
   340
340
11
1002
}
  0
XRECORD
  5
68C
102
{ACAD_REACTORS
330
682
102
}
330
682
100
AcDbXrecord
  1
{7B4C3CF6-482E-4473-AC68-9C7AAF1BEE2C}
  0
XRECORD
  5
685
102
{ACAD_REACTORS
330
682
102
}
330
682
100
AcDbXrecord
  1

  0
XRECORD
  5
68A
102
{ACAD_REACTORS
330
682
102
}
330
682
100
AcDbXrecord
 90
        1
  0
XRECORD
  5
687
102
{ACAD_REACTORS
330
682
102
}
330
682
100
AcDbXrecord
340
1A
  0
XRECORD
  5
689
102
{ACAD_REACTORS
330
682
102
}
330
682
100
AcDbXrecord
 90
    10269
  0
XRECORD
  5
688
102
{ACAD_REACTORS
330
682
102
}
330
682
100
AcDbXrecord
340
19
  0
XRECORD
  5
68E
102
{ACAD_REACTORS
330
682
102
}
330
682
100
AcDbXrecord
 40
0.0
  0
XRECORD
  5
691
102
{ACAD_REACTORS
330
682
102
}
330
682
100
AcDbXrecord
340
0
  0
XRECORD
  5
697
102
{ACAD_REACTORS
330
682
102
}
330
682
100
AcDbXrecord
 10
0.0
 20
0.0
 30
0.0
  0
XRECORD
  5
693
102
{ACAD_REACTORS
330
682
102
}
330
682
100
AcDbXrecord
 10
0.0
 20
0.0
 30
0.0
  0
XRECORD
  5
696
102
{ACAD_REACTORS
330
682
102
}
330
682
100
AcDbXrecord
 10
0.0
 20
0.0
 30
0.0
  0
XRECORD
  5
694
102
{ACAD_REACTORS
330
682
102
}
330
682
100
AcDbXrecord
 10
0.0
 20
0.0
 30
0.0
  0
XRECORD
  5
695
102
{ACAD_REACTORS
330
682
102
}
330
682
100
AcDbXrecord
 10
0.0
 20
0.0
 30
0.0
  0
XRECORD
  5
692
102
{ACAD_REACTORS
330
682
102
}
330
682
100
AcDbXrecord
 10
0.0
 20
0.0
 30
0.0
  0
XRECORD
  5
68F
102
{ACAD_REACTORS
330
682
102
}
330
682
100
AcDbXrecord
340
0
  0
XRECORD
  5
690
102
{ACAD_REACTORS
330
682
102
}
330
682
100
AcDbXrecord
 70
     0
  0
XRECORD
  5
686
102
{ACAD_REACTORS
330
682
102
}
330
682
100
AcDbXrecord
  1

  0
XRECORD
  5
683
102
{ACAD_REACTORS
330
682
102
}
330
682
100
AcDbXrecord
 90
        1
  0
XRECORD
  5
684
102
{ACAD_REACTORS
330
682
102
}
330
682
100
AcDbXrecord
 90
       70
  0
XRECORD
  5
69A
102
{ACAD_REACTORS
330
682
102
}
330
682
100
AcDbXrecord
340
0
  0
XRECORD
  5
6A0
102
{ACAD_REACTORS
330
682
102
}
330
682
100
AcDbXrecord
 10
0.0
 20
0.0
 30
0.0
  0
XRECORD
  5
69C
102
{ACAD_REACTORS
330
682
102
}
330
682
100
AcDbXrecord
 10
0.0
 20
0.0
 30
0.0
  0
XRECORD
  5
69F
102
{ACAD_REACTORS
330
682
102
}
330
682
100
AcDbXrecord
 10
0.0
 20
0.0
 30
0.0
  0
XRECORD
  5
69D
102
{ACAD_REACTORS
330
682
102
}
330
682
100
AcDbXrecord
 10
0.0
 20
0.0
 30
0.0
  0
XRECORD
  5
69E
102
{ACAD_REACTORS
330
682
102
}
330
682
100
AcDbXrecord
 10
0.0
 20
0.0
 30
0.0
  0
XRECORD
  5
69B
102
{ACAD_REACTORS
330
682
102
}
330
682
100
AcDbXrecord
 10
0.0
 20
0.0
 30
0.0
  0
XRECORD
  5
698
102
{ACAD_REACTORS
330
682
102
}
330
682
100
AcDbXrecord
340
0
  0
XRECORD
  5
699
102
{ACAD_REACTORS
330
682
102
}
330
682
100
AcDbXrecord
 70
     0
  0
XRECORD
  5
68D
102
{ACAD_REACTORS
330
682
102
}
330
682
100
AcDbXrecord
  1
{FAEB1C32-E019-11D5-929B-00C0DF256EC4}
  0
ENDSEC
  0
EOF
