  0
SECTION
  2
HEADER
  9
$ACADVER
  1
AC1014
  9
$ACADMAINTVER
 70
     9
  9
$DWGCODEPAGE
  3
ANSI_1252
  9
$INSBASE
 10
0.0
 20
0.0
 30
0.0
  9
$EXTMIN
 10
1.000000000000000E+20
 20
1.000000000000000E+20
 30
1.000000000000000E+20
  9
$EXTMAX
 10
-1.000000000000000E+20
 20
-1.000000000000000E+20
 30
-1.000000000000000E+20
  9
$LIMMIN
 10
0.0
 20
0.0
  9
$LIMMAX
 10
12.0
 20
9.0
  9
$ORTHOMODE
 70
     0
  9
$REGENMODE
 70
     1
  9
$FILLMODE
 70
     1
  9
$QTEXTMODE
 70
     0
  9
$MIRRTEXT
 70
     1
  9
$DRAGMODE
 70
     2
  9
$LTSCALE
 40
1.0
  9
$OSMODE
 70
    37
  9
$ATTMODE
 70
     1
  9
$TEXTSIZE
 40
0.2
  9
$TRACEWID
 40
0.05
  9
$TEXTSTYLE
  7
STANDARD
  9
$CLAYER
  8
0
  9
$CELTYPE
  6
BYLAYER
  9
$CECOLOR
 62
   256
  9
$CELTSCALE
 40
1.0
  9
$DELOBJ
 70
     1
  9
$DISPSILH
 70
     0
  9
$DIMSCALE
 40
1.0
  9
$DIMASZ
 40
0.18
  9
$DIMEXO
 40
0.0625
  9
$DIMDLI
 40
0.38
  9
$DIMRND
 40
0.0
  9
$DIMDLE
 40
0.0
  9
$DIMEXE
 40
0.18
  9
$DIMTP
 40
0.0
  9
$DIMTM
 40
0.0
  9
$DIMTXT
 40
0.18
  9
$DIMCEN
 40
0.09
  9
$DIMTSZ
 40
0.0
  9
$DIMTOL
 70
     0
  9
$DIMLIM
 70
     0
  9
$DIMTIH
 70
     1
  9
$DIMTOH
 70
     1
  9
$DIMSE1
 70
     0
  9
$DIMSE2
 70
     0
  9
$DIMTAD
 70
     0
  9
$DIMZIN
 70
     0
  9
$DIMBLK
  1

  9
$DIMASO
 70
     1
  9
$DIMSHO
 70
     1
  9
$DIMPOST
  1

  9
$DIMAPOST
  1

  9
$DIMALT
 70
     0
  9
$DIMALTD
 70
     2
  9
$DIMALTF
 40
25.4
  9
$DIMLFAC
 40
1.0
  9
$DIMTOFL
 70
     0
  9
$DIMTVP
 40
0.0
  9
$DIMTIX
 70
     0
  9
$DIMSOXD
 70
     0
  9
$DIMSAH
 70
     0
  9
$DIMBLK1
  1

  9
$DIMBLK2
  1

  9
$DIMSTYLE
  2
STANDARD
  9
$DIMCLRD
 70
     0
  9
$DIMCLRE
 70
     0
  9
$DIMCLRT
 70
     0
  9
$DIMTFAC
 40
1.0
  9
$DIMGAP
 40
0.09
  9
$DIMJUST
 70
     0
  9
$DIMSD1
 70
     0
  9
$DIMSD2
 70
     0
  9
$DIMTOLJ
 70
     1
  9
$DIMTZIN
 70
     0
  9
$DIMALTZ
 70
     0
  9
$DIMALTTZ
 70
     0
  9
$DIMFIT
 70
     3
  9
$DIMUPT
 70
     0
  9
$DIMUNIT
 70
     2
  9
$DIMDEC
 70
     4
  9
$DIMTDEC
 70
     4
  9
$DIMALTU
 70
     2
  9
$DIMALTTD
 70
     2
  9
$DIMTXSTY
  7
STANDARD
  9
$DIMAUNIT
 70
     0
  9
$LUNITS
 70
     2
  9
$LUPREC
 70
     4
  9
$SKETCHINC
 40
0.1
  9
$FILLETRAD
 40
0.5
  9
$AUNITS
 70
     0
  9
$AUPREC
 70
     0
  9
$MENU
  1
.
  9
$ELEVATION
 40
0.0
  9
$PELEVATION
 40
0.0
  9
$THICKNESS
 40
0.0
  9
$LIMCHECK
 70
     0
  9
$CHAMFERA
 40
0.5
  9
$CHAMFERB
 40
0.5
  9
$CHAMFERC
 40
1.0
  9
$CHAMFERD
 40
0.0
  9
$SKPOLY
 70
     0
  9
$TDCREATE
 40
2458289.434641724
  9
$TDUPDATE
 40
2458289.434641736
  9
$TDINDWG
 40
0.0000000116
  9
$TDUSRTIMER
 40
0.0000000116
  9
$USRTIMER
 70
     1
  9
$ANGBASE
 50
0.0
  9
$ANGDIR
 70
     0
  9
$PDMODE
 70
     0
  9
$PDSIZE
 40
0.0
  9
$PLINEWID
 40
0.0
  9
$COORDS
 70
     1
  9
$SPLFRAME
 70
     0
  9
$SPLINETYPE
 70
     6
  9
$SPLINESEGS
 70
     8
  9
$ATTDIA
 70
     0
  9
$ATTREQ
 70
     1
  9
$HANDLING
 70
     1
  9
$HANDSEED
  5
777
  9
$SURFTAB1
 70
     6
  9
$SURFTAB2
 70
     6
  9
$SURFTYPE
 70
     6
  9
$SURFU
 70
     6
  9
$SURFV
 70
     6
  9
$UCSNAME
  2

  9
$UCSORG
 10
0.0
 20
0.0
 30
0.0
  9
$UCSXDIR
 10
1.0
 20
0.0
 30
0.0
  9
$UCSYDIR
 10
0.0
 20
1.0
 30
0.0
  9
$PUCSNAME
  2

  9
$PUCSORG
 10
0.0
 20
0.0
 30
0.0
  9
$PUCSXDIR
 10
1.0
 20
0.0
 30
0.0
  9
$PUCSYDIR
 10
0.0
 20
1.0
 30
0.0
  9
$USERI1
 70
     0
  9
$USERI2
 70
     0
  9
$USERI3
 70
     0
  9
$USERI4
 70
     0
  9
$USERI5
 70
     0
  9
$USERR1
 40
0.0
  9
$USERR2
 40
0.0
  9
$USERR3
 40
0.0
  9
$USERR4
 40
0.0
  9
$USERR5
 40
0.0
  9
$WORLDVIEW
 70
     1
  9
$SHADEDGE
 70
     3
  9
$SHADEDIF
 70
    70
  9
$TILEMODE
 70
     1
  9
$MAXACTVP
 70
    64
  9
$PINSBASE
 10
0.0
 20
0.0
 30
0.0
  9
$PLIMCHECK
 70
     0
  9
$PEXTMIN
 10
1.000000000000000E+20
 20
1.000000000000000E+20
 30
1.000000000000000E+20
  9
$PEXTMAX
 10
-1.000000000000000E+20
 20
-1.000000000000000E+20
 30
-1.000000000000000E+20
  9
$PLIMMIN
 10
0.0
 20
0.0
  9
$PLIMMAX
 10
12.0
 20
9.0
  9
$UNITMODE
 70
     0
  9
$VISRETAIN
 70
     1
  9
$PLINEGEN
 70
     0
  9
$PSLTSCALE
 70
     1
  9
$TREEDEPTH
 70
  3020
  9
$PICKSTYLE
 70
     1
  9
$CMLSTYLE
  2
STANDARD
  9
$CMLJUST
 70
     0
  9
$CMLSCALE
 40
1.0
  9
$PROXYGRAPHICS
 70
     1
  9
$MEASUREMENT
 70
     0
  0
ENDSEC
  0
SECTION
  2
CLASSES
  0
CLASS
  1
ACDBDICTIONARYWDFLT
  2
AcDbDictionaryWithDefault
  3
ObjectDBX Classes
 90
        0
280
     0
281
     0
  0
CLASS
  1
VISUALSTYLE
  2
AcDbVisualStyle
  3
ObjectDBX Classes
 90
     4095
280
     0
281
     0
  0
CLASS
  1
XRECORD
  2
AcDbXrecord
  3
AutoCAD 2000
 90
        0
280
     0
281
     0
  0
CLASS
  1
LWPOLYLINE
  2
AcDbPolyline
  3
AutoCAD 2000
 90
        0
280
     0
281
     1
  0
CLASS
  1
HATCH
  2
AcDbHatch
  3
AutoCAD 2000
 90
        0
280
     0
281
     1
  0
CLASS
  1
ACDBPLACEHOLDER
  2
AcDbPlaceHolder
  3
ObjectDBX Classes
 90
        0
280
     0
281
     0
  0
CLASS
  1
LAYOUT
  2
AcDbLayout
  3
ObjectDBX Classes
 90
        0
280
     0
281
     0
  0
ENDSEC
  0
SECTION
  2
TABLES
  0
TABLE
  2
VPORT
  5
8
330
0
100
AcDbSymbolTable
 70
     1
  0
VPORT
  5
29
330
8
100
AcDbSymbolTableRecord
100
AcDbViewportTableRecord
  2
*ACTIVE
 70
     0
 10
0.0
 20
0.0
 11
1.0
 21
1.0
 12
0.0
 22
0.0
 13
0.0
 23
0.0
 14
0.5
 24
0.5
 15
0.5
 25
0.5
 16
0.0
 26
0.0
 36
1.0
 17
100.0619370952102
 27
127.0193786303545
 37
0.0
 40
297.0001314904201
 41
0.7070759562020681
 42
50.0
 43
0.0
 44
0.0
 50
0.0
 51
0.0
 71
     0
 72
   100
 73
     1
 74
     3
 75
     0
 76
     0
 77
     0
 78
     0
  0
ENDTAB
  0
TABLE
  2
LTYPE
  5
5
330
0
100
AcDbSymbolTable
 70
    28
  0
LTYPE
  5
14
330
5
100
AcDbSymbolTableRecord
100
AcDbLinetypeTableRecord
  2
BYBLOCK
 70
     0
  3

 72
    65
 73
     0
 40
0.0
  0
LTYPE
  5
15
330
5
100
AcDbSymbolTableRecord
100
AcDbLinetypeTableRecord
  2
BYLAYER
 70
     0
  3

 72
    65
 73
     0
 40
0.0
  0
LTYPE
  5
16
330
5
100
AcDbSymbolTableRecord
100
AcDbLinetypeTableRecord
  2
CONTINUOUS
 70
     0
  3
Solid line
 72
    65
 73
     0
 40
0.0
  0
LTYPE
  5
42
330
5
100
AcDbSymbolTableRecord
100
AcDbLinetypeTableRecord
  2
AI-LINETYPE-1
 70
     0
  3
Adobe Illustrator Linetype No. 1
 72
    65
 73
     4
 40
8.819444442239584
 49
7.055555553791667
 74
     0
 49
-0.7055555553791667
 74
     0
 49
0.3527777776895833
 74
     0
 49
-0.7055555553791667
 74
     0
  0
LTYPE
  5
47
330
5
100
AcDbSymbolTableRecord
100
AcDbLinetypeTableRecord
  2
AI-LINETYPE-2
 70
     0
  3
Adobe Illustrator Linetype No. 2
 72
    65
 73
     4
 40
8.819444442239584
 49
7.055555553791667
 74
     0
 49
-0.7055555553791667
 74
     0
 49
0.3527777776895833
 74
     0
 49
-0.7055555553791667
 74
     0
  0
LTYPE
  5
4C
330
5
100
AcDbSymbolTableRecord
100
AcDbLinetypeTableRecord
  2
AI-LINETYPE-3
 70
     0
  3
Adobe Illustrator Linetype No. 3
 72
    65
 73
     4
 40
8.819444442239584
 49
7.055555553791667
 74
     0
 49
-0.7055555553791667
 74
     0
 49
0.3527777776895833
 74
     0
 49
-0.7055555553791667
 74
     0
  0
LTYPE
  5
51
330
5
100
AcDbSymbolTableRecord
100
AcDbLinetypeTableRecord
  2
AI-LINETYPE-4
 70
     0
  3
Adobe Illustrator Linetype No. 4
 72
    65
 73
     4
 40
8.819444442239584
 49
7.055555553791667
 74
     0
 49
-0.7055555553791667
 74
     0
 49
0.3527777776895833
 74
     0
 49
-0.7055555553791667
 74
     0
  0
LTYPE
  5
2C4
330
5
100
AcDbSymbolTableRecord
100
AcDbLinetypeTableRecord
  2
AI-LINETYPE-5
 70
     0
  3
Adobe Illustrator Linetype No. 5
 72
    65
 73
     4
 40
5.291666665343751
 49
3.527777776895833
 74
     0
 49
-0.7055555553791667
 74
     0
 49
0.3527777776895833
 74
     0
 49
-0.7055555553791667
 74
     0
  0
LTYPE
  5
2C9
330
5
100
AcDbSymbolTableRecord
100
AcDbLinetypeTableRecord
  2
AI-LINETYPE-6
 70
     0
  3
Adobe Illustrator Linetype No. 6
 72
    65
 73
     4
 40
5.291666665343751
 49
3.527777776895833
 74
     0
 49
-0.7055555553791667
 74
     0
 49
0.3527777776895833
 74
     0
 49
-0.7055555553791667
 74
     0
  0
LTYPE
  5
2CE
330
5
100
AcDbSymbolTableRecord
100
AcDbLinetypeTableRecord
  2
AI-LINETYPE-7
 70
     0
  3
Adobe Illustrator Linetype No. 7
 72
    65
 73
     4
 40
5.291666665343751
 49
3.527777776895833
 74
     0
 49
-0.7055555553791667
 74
     0
 49
0.3527777776895833
 74
     0
 49
-0.7055555553791667
 74
     0
  0
LTYPE
  5
2D3
330
5
100
AcDbSymbolTableRecord
100
AcDbLinetypeTableRecord
  2
AI-LINETYPE-8
 70
     0
  3
Adobe Illustrator Linetype No. 8
 72
    65
 73
     4
 40
5.291666665343751
 49
3.527777776895833
 74
     0
 49
-0.7055555553791667
 74
     0
 49
0.3527777776895833
 74
     0
 49
-0.7055555553791667
 74
     0
  0
LTYPE
  5
2D9
330
5
100
AcDbSymbolTableRecord
100
AcDbLinetypeTableRecord
  2
AI-LINETYPE-9
 70
     0
  3
Adobe Illustrator Linetype No. 9
 72
    65
 73
     4
 40
5.291666665343751
 49
3.527777776895833
 74
     0
 49
-0.7055555553791667
 74
     0
 49
0.3527777776895833
 74
     0
 49
-0.7055555553791667
 74
     0
  0
LTYPE
  5
2E1
330
5
100
AcDbSymbolTableRecord
100
AcDbLinetypeTableRecord
  2
AI-LINETYPE-10
 70
     0
  3
Adobe Illustrator Linetype No. 10
 72
    65
 73
     4
 40
5.291666665343751
 49
3.527777776895833
 74
     0
 49
-0.7055555553791667
 74
     0
 49
0.3527777776895833
 74
     0
 49
-0.7055555553791667
 74
     0
  0
LTYPE
  5
2E7
330
5
100
AcDbSymbolTableRecord
100
AcDbLinetypeTableRecord
  2
AI-LINETYPE-11
 70
     0
  3
Adobe Illustrator Linetype No. 11
 72
    65
 73
     4
 40
5.291666665343751
 49
3.527777776895833
 74
     0
 49
-0.7055555553791667
 74
     0
 49
0.3527777776895833
 74
     0
 49
-0.7055555553791667
 74
     0
  0
LTYPE
  5
2ED
330
5
100
AcDbSymbolTableRecord
100
AcDbLinetypeTableRecord
  2
AI-LINETYPE-12
 70
     0
  3
Adobe Illustrator Linetype No. 12
 72
    65
 73
     4
 40
5.291666665343751
 49
3.527777776895833
 74
     0
 49
-0.7055555553791667
 74
     0
 49
0.3527777776895833
 74
     0
 49
-0.7055555553791667
 74
     0
  0
LTYPE
  5
2F2
330
5
100
AcDbSymbolTableRecord
100
AcDbLinetypeTableRecord
  2
AI-LINETYPE-13
 70
     0
  3
Adobe Illustrator Linetype No. 13
 72
    65
 73
     4
 40
5.291666665343751
 49
3.527777776895833
 74
     0
 49
-0.7055555553791667
 74
     0
 49
0.3527777776895833
 74
     0
 49
-0.7055555553791667
 74
     0
  0
LTYPE
  5
2F7
330
5
100
AcDbSymbolTableRecord
100
AcDbLinetypeTableRecord
  2
AI-LINETYPE-14
 70
     0
  3
Adobe Illustrator Linetype No. 14
 72
    65
 73
     4
 40
5.291666665343751
 49
3.527777776895833
 74
     0
 49
-0.7055555553791667
 74
     0
 49
0.3527777776895833
 74
     0
 49
-0.7055555553791667
 74
     0
  0
LTYPE
  5
2FC
330
5
100
AcDbSymbolTableRecord
100
AcDbLinetypeTableRecord
  2
AI-LINETYPE-15
 70
     0
  3
Adobe Illustrator Linetype No. 15
 72
    65
 73
     4
 40
5.291666665343751
 49
3.527777776895833
 74
     0
 49
-0.7055555553791667
 74
     0
 49
0.3527777776895833
 74
     0
 49
-0.7055555553791667
 74
     0
  0
LTYPE
  5
301
330
5
100
AcDbSymbolTableRecord
100
AcDbLinetypeTableRecord
  2
AI-LINETYPE-16
 70
     0
  3
Adobe Illustrator Linetype No. 16
 72
    65
 73
     4
 40
5.291666665343751
 49
3.527777776895833
 74
     0
 49
-0.7055555553791667
 74
     0
 49
0.3527777776895833
 74
     0
 49
-0.7055555553791667
 74
     0
  0
LTYPE
  5
303
330
5
100
AcDbSymbolTableRecord
100
AcDbLinetypeTableRecord
  2
AI-LINETYPE-17
 70
     0
  3
Adobe Illustrator Linetype No. 17
 72
    65
 73
     4
 40
5.291666665343751
 49
3.527777776895833
 74
     0
 49
-0.7055555553791667
 74
     0
 49
0.3527777776895833
 74
     0
 49
-0.7055555553791667
 74
     0
  0
LTYPE
  5
305
330
5
100
AcDbSymbolTableRecord
100
AcDbLinetypeTableRecord
  2
AI-LINETYPE-18
 70
     0
  3
Adobe Illustrator Linetype No. 18
 72
    65
 73
     4
 40
5.291666665343751
 49
3.527777776895833
 74
     0
 49
-0.7055555553791667
 74
     0
 49
0.3527777776895833
 74
     0
 49
-0.7055555553791667
 74
     0
  0
LTYPE
  5
307
330
5
100
AcDbSymbolTableRecord
100
AcDbLinetypeTableRecord
  2
AI-LINETYPE-19
 70
     0
  3
Adobe Illustrator Linetype No. 19
 72
    65
 73
     4
 40
5.291666665343751
 49
3.527777776895833
 74
     0
 49
-0.7055555553791667
 74
     0
 49
0.3527777776895833
 74
     0
 49
-0.7055555553791667
 74
     0
  0
LTYPE
  5
309
330
5
100
AcDbSymbolTableRecord
100
AcDbLinetypeTableRecord
  2
AI-LINETYPE-20
 70
     0
  3
Adobe Illustrator Linetype No. 20
 72
    65
 73
     4
 40
5.291666665343751
 49
3.527777776895833
 74
     0
 49
-0.7055555553791667
 74
     0
 49
0.3527777776895833
 74
     0
 49
-0.7055555553791667
 74
     0
  0
LTYPE
  5
30B
330
5
100
AcDbSymbolTableRecord
100
AcDbLinetypeTableRecord
  2
AI-LINETYPE-21
 70
     0
  3
Adobe Illustrator Linetype No. 21
 72
    65
 73
     4
 40
5.291666665343751
 49
3.527777776895833
 74
     0
 49
-0.7055555553791667
 74
     0
 49
0.3527777776895833
 74
     0
 49
-0.7055555553791667
 74
     0
  0
LTYPE
  5
310
330
5
100
AcDbSymbolTableRecord
100
AcDbLinetypeTableRecord
  2
AI-LINETYPE-22
 70
     0
  3
Adobe Illustrator Linetype No. 22
 72
    65
 73
     4
 40
5.291666665343751
 49
3.527777776895833
 74
     0
 49
-0.7055555553791667
 74
     0
 49
0.3527777776895833
 74
     0
 49
-0.7055555553791667
 74
     0
  0
LTYPE
  5
315
330
5
100
AcDbSymbolTableRecord
100
AcDbLinetypeTableRecord
  2
AI-LINETYPE-23
 70
     0
  3
Adobe Illustrator Linetype No. 23
 72
    65
 73
     4
 40
5.291666665343751
 49
3.527777776895833
 74
     0
 49
-0.7055555553791667
 74
     0
 49
0.3527777776895833
 74
     0
 49
-0.7055555553791667
 74
     0
  0
LTYPE
  5
31A
330
5
100
AcDbSymbolTableRecord
100
AcDbLinetypeTableRecord
  2
AI-LINETYPE-24
 70
     0
  3
Adobe Illustrator Linetype No. 24
 72
    65
 73
     4
 40
5.291666665343751
 49
3.527777776895833
 74
     0
 49
-0.7055555553791667
 74
     0
 49
0.3527777776895833
 74
     0
 49
-0.7055555553791667
 74
     0
  0
LTYPE
  5
320
330
5
100
AcDbSymbolTableRecord
100
AcDbLinetypeTableRecord
  2
AI-LINETYPE-25
 70
     0
  3
Adobe Illustrator Linetype No. 25
 72
    65
 73
     4
 40
5.291666665343751
 49
3.527777776895833
 74
     0
 49
-0.7055555553791667
 74
     0
 49
0.3527777776895833
 74
     0
 49
-0.7055555553791667
 74
     0
  0
LTYPE
  5
326
330
5
100
AcDbSymbolTableRecord
100
AcDbLinetypeTableRecord
  2
AI-LINETYPE-26
 70
     0
  3
Adobe Illustrator Linetype No. 26
 72
    65
 73
     4
 40
5.291666665343751
 49
3.527777776895833
 74
     0
 49
-0.7055555553791667
 74
     0
 49
0.3527777776895833
 74
     0
 49
-0.7055555553791667
 74
     0
  0
LTYPE
  5
32C
330
5
100
AcDbSymbolTableRecord
100
AcDbLinetypeTableRecord
  2
AI-LINETYPE-27
 70
     0
  3
Adobe Illustrator Linetype No. 27
 72
    65
 73
     4
 40
5.291666665343751
 49
3.527777776895833
 74
     0
 49
-0.7055555553791667
 74
     0
 49
0.3527777776895833
 74
     0
 49
-0.7055555553791667
 74
     0
  0
ENDTAB
  0
TABLE
  2
LAYER
  5
2
330
0
100
AcDbSymbolTable
 70
     5
  0
LAYER
  5
10
330
2
100
AcDbSymbolTableRecord
100
AcDbLayerTableRecord
  2
0
 70
     0
 62
     7
  6
CONTINUOUS
  0
LAYER
  5
3B
330
2
100
AcDbSymbolTableRecord
100
AcDbLayerTableRecord
  2
GRAU_10_
 70
     0
 62
     7
  6
CONTINUOUS
  0
LAYER
  5
32D
330
2
100
AcDbSymbolTableRecord
100
AcDbLayerTableRecord
  2
STANDARDEBENE
 70
     0
 62
     7
  6
CONTINUOUS
  0
LAYER
  5
36E
330
2
100
AcDbSymbolTableRecord
100
AcDbLayerTableRecord
  2
BEMAßUNG
 70
     1
 62
     7
  6
CONTINUOUS
  0
LAYER
  5
750
330
2
100
AcDbSymbolTableRecord
100
AcDbLayerTableRecord
  2
TEXT
 70
     1
 62
     7
  6
CONTINUOUS
  0
ENDTAB
  0
TABLE
  2
STYLE
  5
3
330
0
100
AcDbSymbolTable
 70
     1
  0
STYLE
  5
11
330
3
100
AcDbSymbolTableRecord
100
AcDbTextStyleTableRecord
  2
STANDARD
 70
     0
 40
0.0
 41
1.0
 50
0.0
 71
     0
 42
0.2
  3
txt
  4

  0
ENDTAB
  0
TABLE
  2
VIEW
  5
6
330
0
100
AcDbSymbolTable
 70
     0
  0
ENDTAB
  0
TABLE
  2
UCS
  5
7
330
0
100
AcDbSymbolTable
 70
     0
  0
ENDTAB
  0
TABLE
  2
APPID
  5
9
330
0
100
AcDbSymbolTable
 70
     1
  0
APPID
  5
12
330
9
100
AcDbSymbolTableRecord
100
AcDbRegAppTableRecord
  2
ACAD
 70
     0
  0
ENDTAB
  0
TABLE
  2
DIMSTYLE
  5
A
330
0
100
AcDbSymbolTable
 70
     1
  0
DIMSTYLE
105
27
330
A
100
AcDbSymbolTableRecord
100
AcDbDimStyleTableRecord
  2
STANDARD
 70
     0
  3

  4

  5

  6

  7

 40
1.0
 41
0.18
 42
0.0625
 43
0.38
 44
0.18
 45
0.0
 46
0.0
 47
0.0
 48
0.0
140
0.18
141
0.09
142
0.0
143
25.4
144
1.0
145
0.0
146
1.0
147
0.09
 71
     0
 72
     0
 73
     1
 74
     1
 75
     0
 76
     0
 77
     0
 78
     0
170
     0
171
     2
172
     0
173
     0
174
     0
175
     0
176
     0
177
     0
178
     0
270
     2
271
     4
272
     4
273
     2
274
     2
340
11
275
     0
280
     0
281
     0
282
     0
283
     1
284
     0
285
     0
286
     0
287
     3
288
     0
  0
ENDTAB
  0
TABLE
  2
BLOCK_RECORD
  5
1
330
0
100
AcDbSymbolTable
 70
     1
  0
BLOCK_RECORD
  5
1F
330
1
100
AcDbSymbolTableRecord
100
AcDbBlockTableRecord
  2
*MODEL_SPACE
  0
BLOCK_RECORD
  5
1B
330
1
100
AcDbSymbolTableRecord
100
AcDbBlockTableRecord
  2
*PAPER_SPACE
  0
ENDTAB
  0
ENDSEC
  0
SECTION
  2
BLOCKS
  0
BLOCK
  5
20
330
1F
100
AcDbEntity
  8
0
100
AcDbBlockBegin
  2
*MODEL_SPACE
 70
     0
 71
     0
 10
0.0
 20
0.0
 30
0.0
  3
*MODEL_SPACE
  1

  0
ENDBLK
  5
21
330
1F
100
AcDbEntity
  8
0
100
AcDbBlockEnd
  0
BLOCK
  5
1C
330
1B
100
AcDbEntity
 67
     1
  8
0
100
AcDbBlockBegin
  2
*PAPER_SPACE
 70
     0
 71
     0
 10
0.0
 20
0.0
 30
0.0
  3
*PAPER_SPACE
  1

  0
ENDBLK
  5
1D
330
1B
100
AcDbEntity
 67
     1
  8
0
100
AcDbBlockEnd
  0
ENDSEC
  0
SECTION
  2
ENTITIES
  0
POLYLINE
  5
3C
330
1F
100
AcDbEntity
  8
GRAU_10_
  6
AI-LINETYPE-1
 62
   250
100
AcDb2dPolyline
 66
     1
 10
0.0
 20
0.0
 30
0.0
  0
VERTEX
  5
3D
330
3C
100
AcDbEntity
  8
GRAU_10_
  6
AI-LINETYPE-1
 62
   250
100
AcDbVertex
100
AcDb2dVertex
 10
35.99470213943883
 20
207.6784518252505
 30
0.0
  0
VERTEX
  5
3E
330
3C
100
AcDbEntity
  8
GRAU_10_
  6
AI-LINETYPE-1
 62
   250
100
AcDbVertex
100
AcDb2dVertex
 10
61.44327797943085
 20
207.6784518252505
 30
0.0
  0
VERTEX
  5
3F
330
3C
100
AcDbEntity
  8
GRAU_10_
  6
AI-LINETYPE-1
 62
   250
100
AcDbVertex
100
AcDb2dVertex
 10
61.94281682479208
 20
207.6784518252505
 30
0.0
  0
VERTEX
  5
40
330
3C
100
AcDbEntity
  8
GRAU_10_
  6
AI-LINETYPE-1
 62
   250
100
AcDbVertex
100
AcDb2dVertex
 10
80.15496959801682
 20
207.6784518252505
 30
0.0
  0
SEQEND
  5
41
330
3C
100
AcDbEntity
  8
GRAU_10_
  6
AI-LINETYPE-1
  0
POLYLINE
  5
43
330
1F
100
AcDbEntity
  8
GRAU_10_
  6
AI-LINETYPE-2
 62
   250
100
AcDb2dPolyline
 66
     1
 10
0.0
 20
0.0
 30
0.0
  0
VERTEX
  5
44
330
43
100
AcDbEntity
  8
GRAU_10_
  6
AI-LINETYPE-2
 62
   250
100
AcDbVertex
100
AcDb2dVertex
 10
137.8952866951269
 20
183.9326144288432
 30
0.0
  0
VERTEX
  5
45
330
43
100
AcDbEntity
  8
GRAU_10_
  6
AI-LINETYPE-2
 62
   250
100
AcDbVertex
100
AcDb2dVertex
 10
137.8952866951269
 20
225.870106280338
 30
0.0
  0
SEQEND
  5
46
330
43
100
AcDbEntity
  8
GRAU_10_
  6
AI-LINETYPE-2
  0
POLYLINE
  5
48
330
1F
100
AcDbEntity
  8
GRAU_10_
  6
AI-LINETYPE-3
 62
   250
100
AcDb2dPolyline
 66
     1
 10
0.0
 20
0.0
 30
0.0
  0
VERTEX
  5
49
330
48
100
AcDbEntity
  8
GRAU_10_
  6
AI-LINETYPE-3
 62
   250
100
AcDbVertex
100
AcDb2dVertex
 10
156.1761691232824
 20
207.6784518252505
 30
0.0
  0
VERTEX
  5
4A
330
48
100
AcDbEntity
  8
GRAU_10_
  6
AI-LINETYPE-3
 62
   250
100
AcDbVertex
100
AcDb2dVertex
 10
119.7217189913369
 20
207.6784518252505
 30
0.0
  0
SEQEND
  5
4B
330
48
100
AcDbEntity
  8
GRAU_10_
  6
AI-LINETYPE-3
  0
POLYLINE
  5
4D
330
1F
100
AcDbEntity
  8
GRAU_10_
  6
AI-LINETYPE-4
 62
   250
100
AcDb2dPolyline
 66
     1
 10
0.0
 20
0.0
 30
0.0
  0
VERTEX
  5
4E
330
4D
100
AcDbEntity
  8
GRAU_10_
  6
AI-LINETYPE-4
 62
   250
100
AcDbVertex
100
AcDb2dVertex
 10
32.39474961212701
 20
133.5744479375265
 30
0.0
  0
VERTEX
  5
4F
330
4D
100
AcDbEntity
  8
GRAU_10_
  6
AI-LINETYPE-4
 62
   250
100
AcDbVertex
100
AcDb2dVertex
 10
82.9706461381115
 20
133.5744479375265
 30
0.0
  0
SEQEND
  5
50
330
4D
100
AcDbEntity
  8
GRAU_10_
  6
AI-LINETYPE-4
  0
POLYLINE
  5
52
330
1F
100
AcDbEntity
  8
GRAU_10_
 62
     7
100
AcDb2dPolyline
 66
     1
 10
0.0
 20
0.0
 30
0.0
  0
VERTEX
  5
53
330
52
100
AcDbEntity
  8
GRAU_10_
 62
     7
100
AcDbVertex
100
AcDb2dVertex
 10
130.7153631943177
 20
186.1707207108358
 30
0.0
  0
VERTEX
  5
54
330
52
100
AcDbEntity
  8
GRAU_10_
 62
     7
100
AcDbVertex
100
AcDb2dVertex
 10
125.1511894760907
 20
186.1707207108358
 30
0.0
  0
SEQEND
  5
55
330
52
100
AcDbEntity
  8
GRAU_10_
  0
POLYLINE
  5
56
330
1F
100
AcDbEntity
  8
GRAU_10_
 62
     7
100
AcDb2dPolyline
 66
     1
 10
0.0
 20
0.0
 30
0.0
  0
VERTEX
  5
57
330
56
100
AcDbEntity
  8
GRAU_10_
 62
     7
100
AcDbVertex
100
AcDb2dVertex
 10
121.8955742425296
 20
188.4687716542717
 30
0.0
  0
VERTEX
  5
58
330
56
100
AcDbEntity
  8
GRAU_10_
 62
     7
100
AcDbVertex
100
AcDb2dVertex
 10
121.8955742425296
 20
193.2710625059357
 30
0.0
  0
SEQEND
  5
59
330
56
100
AcDbEntity
  8
GRAU_10_
  0
POLYLINE
  5
5A
330
1F
100
AcDbEntity
  8
GRAU_10_
 62
     7
100
AcDb2dPolyline
 66
     1
 10
0.0
 20
0.0
 30
0.0
  0
VERTEX
  5
5B
330
5A
100
AcDbEntity
  8
GRAU_10_
 62
     7
100
AcDbVertex
100
AcDb2dVertex
 10
130.7153631943177
 20
193.2710625059357
 30
0.0
  0
VERTEX
  5
5C
330
5A
100
AcDbEntity
  8
GRAU_10_
 62
     7
100
AcDbVertex
100
AcDb2dVertex
 10
130.7153631943177
 20
186.7432955804843
 30
0.0
  0
SEQEND
  5
5D
330
5A
100
AcDbEntity
  8
GRAU_10_
  0
POLYLINE
  5
5E
330
1F
100
AcDbEntity
  8
GRAU_10_
 62
     7
100
AcDb2dPolyline
 66
     1
 10
0.0
 20
0.0
 30
0.0
  0
VERTEX
  5
5F
330
5E
100
AcDbEntity
  8
GRAU_10_
 62
     7
100
AcDbVertex
100
AcDb2dVertex
 10
130.7153631943177
 20
195.4557698079069
 30
0.0
  0
VERTEX
  5
60
330
5E
100
AcDbEntity
  8
GRAU_10_
 62
     7
100
AcDbVertex
100
AcDb2dVertex
 10
137.8952866951269
 20
195.4557698079069
 30
0.0
  0
SEQEND
  5
61
330
5E
100
AcDbEntity
  8
GRAU_10_
  0
POLYLINE
  5
62
330
1F
100
AcDbEntity
  8
GRAU_10_
 62
     7
100
AcDb2dPolyline
 66
     1
 10
0.0
 20
0.0
 30
0.0
  0
VERTEX
  5
63
330
62
100
AcDbEntity
  8
GRAU_10_
 62
     7
100
AcDbVertex
100
AcDb2dVertex
 10
153.4881333709162
 20
204.0917629155569
 30
0.0
  0
VERTEX
  5
64
330
62
100
AcDbEntity
  8
GRAU_10_
 62
     7
100
AcDbVertex
100
AcDb2dVertex
 10
137.8952866951269
 20
204.0917629155569
 30
0.0
  0
VERTEX
  5
65
330
62
100
AcDbEntity
  8
GRAU_10_
 62
     7
100
AcDbVertex
100
AcDb2dVertex
 10
137.8952866951269
 20
195.9821803980531
 30
0.0
  0
SEQEND
  5
66
330
62
100
AcDbEntity
  8
GRAU_10_
  0
POLYLINE
  5
67
330
1F
100
AcDbEntity
  8
GRAU_10_
 62
     7
100
AcDb2dPolyline
 66
     1
 10
0.0
 20
0.0
 30
0.0
  0
VERTEX
  5
68
330
67
100
AcDbEntity
  8
GRAU_10_
 62
     7
100
AcDbVertex
100
AcDb2dVertex
 10
121.8955742425296
 20
195.9821803980531
 30
0.0
  0
VERTEX
  5
69
330
67
100
AcDbEntity
  8
GRAU_10_
 62
     7
100
AcDbVertex
100
AcDb2dVertex
 10
121.8955742425296
 20
207.6784518252505
 30
0.0
  0
SEQEND
  5
6A
330
67
100
AcDbEntity
  8
GRAU_10_
  0
POLYLINE
  5
6B
330
1F
100
AcDbEntity
  8
GRAU_10_
 62
     7
100
AcDb2dPolyline
 66
     1
 10
0.0
 20
0.0
 30
0.0
  0
VERTEX
  5
6C
330
6B
100
AcDbEntity
  8
GRAU_10_
 62
     7
100
AcDbVertex
100
AcDb2dVertex
 10
130.7153631943177
 20
186.7432955804843
 30
0.0
  0
VERTEX
  5
6D
330
6B
100
AcDbEntity
  8
GRAU_10_
 62
     7
100
AcDbVertex
100
AcDb2dVertex
 10
130.7153631943177
 20
186.4521850119807
 30
0.0
  0
VERTEX
  5
6E
330
6B
100
AcDbEntity
  8
GRAU_10_
 62
     7
100
AcDbVertex
100
AcDb2dVertex
 10
130.7153631943177
 20
186.1707207108358
 30
0.0
  0
SEQEND
  5
6F
330
6B
100
AcDbEntity
  8
GRAU_10_
  0
POLYLINE
  5
70
330
1F
100
AcDbEntity
  8
GRAU_10_
 62
     7
100
AcDb2dPolyline
 66
     1
 10
0.0
 20
0.0
 30
0.0
  0
VERTEX
  5
71
330
70
100
AcDbEntity
  8
GRAU_10_
 62
     7
100
AcDbVertex
100
AcDb2dVertex
 10
137.8952866951269
 20
195.9821803980531
 30
0.0
  0
VERTEX
  5
72
330
70
100
AcDbEntity
  8
GRAU_10_
 62
     7
100
AcDbVertex
100
AcDb2dVertex
 10
137.8952866951269
 20
195.7175970647859
 30
0.0
  0
VERTEX
  5
73
330
70
100
AcDbEntity
  8
GRAU_10_
 62
     7
100
AcDbVertex
100
AcDb2dVertex
 10
137.8952866951269
 20
195.4557698079069
 30
0.0
  0
SEQEND
  5
74
330
70
100
AcDbEntity
  8
GRAU_10_
  0
POLYLINE
  5
75
330
1F
100
AcDbEntity
  8
GRAU_10_
 62
     7
100
AcDb2dPolyline
 66
     1
 10
0.0
 20
0.0
 30
0.0
  0
VERTEX
  5
76
330
75
100
AcDbEntity
  8
GRAU_10_
 62
     7
100
AcDbVertex
100
AcDb2dVertex
 10
121.8955742425296
 20
193.2710625059357
 30
0.0
  0
VERTEX
  5
77
330
75
100
AcDbEntity
  8
GRAU_10_
 62
     7
100
AcDbVertex
100
AcDb2dVertex
 10
121.8955742425296
 20
194.5831271214931
 30
0.0
  0
VERTEX
  5
78
330
75
100
AcDbEntity
  8
GRAU_10_
 62
     7
100
AcDbVertex
100
AcDb2dVertex
 10
121.8955742425296
 20
195.9821803980531
 30
0.0
  0
SEQEND
  5
79
330
75
100
AcDbEntity
  8
GRAU_10_
  0
POLYLINE
  5
7A
330
1F
100
AcDbEntity
  8
GRAU_10_
 62
     7
100
AcDb2dPolyline
 66
     1
 10
0.0
 20
0.0
 30
0.0
  0
VERTEX
  5
7B
330
7A
100
AcDbEntity
  8
GRAU_10_
 62
     7
100
AcDbVertex
100
AcDb2dVertex
 10
130.7153631943177
 20
195.4557698079069
 30
0.0
  0
VERTEX
  5
7C
330
7A
100
AcDbEntity
  8
GRAU_10_
 62
     7
100
AcDbVertex
100
AcDb2dVertex
 10
130.7153631943177
 20
194.3323241701669
 30
0.0
  0
VERTEX
  5
7D
330
7A
100
AcDbEntity
  8
GRAU_10_
 62
     7
100
AcDbVertex
100
AcDb2dVertex
 10
130.7153631943177
 20
193.2710625059357
 30
0.0
  0
SEQEND
  5
7E
330
7A
100
AcDbEntity
  8
GRAU_10_
  0
POLYLINE
  5
7F
330
1F
100
AcDbEntity
  8
GRAU_10_
 62
     7
100
AcDb2dPolyline
 66
     1
 10
0.0
 20
0.0
 30
0.0
  0
VERTEX
  5
80
330
7F
100
AcDbEntity
  8
GRAU_10_
 62
     7
100
AcDbVertex
100
AcDb2dVertex
 10
121.8955742425296
 20
188.4687716542717
 30
0.0
  0
VERTEX
  5
81
330
7F
100
AcDbEntity
  8
GRAU_10_
 62
     7
100
AcDbVertex
100
AcDb2dVertex
 10
124.2308322172062
 20
186.7432955804843
 30
0.0
  0
SEQEND
  5
82
330
7F
100
AcDbEntity
  8
GRAU_10_
  0
POLYLINE
  5
83
330
1F
100
AcDbEntity
  8
GRAU_10_
 62
     7
100
AcDb2dPolyline
 66
     1
 10
0.0
 20
0.0
 30
0.0
  0
VERTEX
  5
84
330
83
100
AcDbEntity
  8
GRAU_10_
 62
     7
100
AcDbVertex
100
AcDb2dVertex
 10
121.8955742425296
 20
207.6784518252505
 30
0.0
  0
VERTEX
  5
85
330
83
100
AcDbEntity
  8
GRAU_10_
 62
     7
100
AcDbVertex
100
AcDb2dVertex
 10
121.9959987759246
 20
209.4705904966775
 30
0.0
  0
VERTEX
  5
86
330
83
100
AcDbEntity
  8
GRAU_10_
 62
     7
100
AcDbVertex
100
AcDb2dVertex
 10
122.2969278665612
 20
211.2405083022246
 30
0.0
  0
VERTEX
  5
87
330
83
100
AcDbEntity
  8
GRAU_10_
 62
     7
100
AcDbVertex
100
AcDb2dVertex
 10
122.7943996546313
 20
212.9656398664634
 30
0.0
  0
VERTEX
  5
88
330
83
100
AcDbEntity
  8
GRAU_10_
 62
     7
100
AcDbVertex
100
AcDb2dVertex
 10
123.4811794396158
 20
214.6239365782885
 30
0.0
  0
VERTEX
  5
89
330
83
100
AcDbEntity
  8
GRAU_10_
 62
     7
100
AcDbVertex
100
AcDb2dVertex
 10
124.3502047757701
 20
216.1949001195624
 30
0.0
  0
VERTEX
  5
8A
330
83
100
AcDbEntity
  8
GRAU_10_
 62
     7
100
AcDbVertex
100
AcDb2dVertex
 10
125.3894178288957
 20
217.6585489364708
 30
0.0
  0
VERTEX
  5
8B
330
83
100
AcDbEntity
  8
GRAU_10_
 62
     7
100
AcDbVertex
100
AcDb2dVertex
 10
126.5864162552458
 20
218.9966240229418
 30
0.0
  0
VERTEX
  5
8C
330
83
100
AcDbEntity
  8
GRAU_10_
 62
     7
100
AcDbVertex
100
AcDb2dVertex
 10
127.9248358512653
 20
220.1922444110978
 30
0.0
  0
VERTEX
  5
8D
330
83
100
AcDbEntity
  8
GRAU_10_
 62
     7
100
AcDbVertex
100
AcDb2dVertex
 10
129.3898627063678
 20
221.2304239355778
 30
0.0
  0
VERTEX
  5
8E
330
83
100
AcDbEntity
  8
GRAU_10_
 62
     7
100
AcDbVertex
100
AcDb2dVertex
 10
130.9611707571903
 20
222.0975544692152
 30
0.0
  0
VERTEX
  5
8F
330
83
100
AcDbEntity
  8
GRAU_10_
 62
     7
100
AcDbVertex
100
AcDb2dVertex
 10
132.6199842333381
 20
222.7841619994255
 30
0.0
  0
VERTEX
  5
90
330
83
100
AcDbEntity
  8
GRAU_10_
 62
     7
100
AcDbVertex
100
AcDb2dVertex
 10
134.345804816674
 20
223.2793944754302
 30
0.0
  0
VERTEX
  5
91
330
83
100
AcDbEntity
  8
GRAU_10_
 62
     7
100
AcDbVertex
100
AcDb2dVertex
 10
136.1152058578983
 20
223.5792900374212
 30
0.0
  0
VERTEX
  5
92
330
83
100
AcDbEntity
  8
GRAU_10_
 62
     7
100
AcDbVertex
100
AcDb2dVertex
 10
137.9076890388738
 20
223.6779920230736
 30
0.0
  0
VERTEX
  5
93
330
83
100
AcDbEntity
  8
GRAU_10_
 62
     7
100
AcDbVertex
100
AcDb2dVertex
 10
139.7001722198493
 20
223.5760171967102
 30
0.0
  0
VERTEX
  5
94
330
83
100
AcDbEntity
  8
GRAU_10_
 62
     7
100
AcDbVertex
100
AcDb2dVertex
 10
141.4694010062993
 20
223.274054577428
 30
0.0
  0
VERTEX
  5
95
330
83
100
AcDbEntity
  8
GRAU_10_
 62
     7
100
AcDbVertex
100
AcDb2dVertex
 10
143.1945325705382
 20
222.7757215154866
 30
0.0
  0
VERTEX
  5
96
330
83
100
AcDbEntity
  8
GRAU_10_
 62
     7
100
AcDbVertex
100
AcDb2dVertex
 10
144.8517957537176
 20
222.0870469279852
 30
0.0
  0
VERTEX
  5
97
330
83
100
AcDbEntity
  8
GRAU_10_
 62
     7
100
AcDbVertex
100
AcDb2dVertex
 10
146.4220702758945
 20
221.2171603179596
 30
0.0
  0
VERTEX
  5
98
330
83
100
AcDbEntity
  8
GRAU_10_
 62
     7
100
AcDbVertex
100
AcDb2dVertex
 10
147.8853745832544
 20
220.1767414814142
 30
0.0
  0
VERTEX
  5
99
330
83
100
AcDbEntity
  8
GRAU_10_
 62
     7
100
AcDbVertex
100
AcDb2dVertex
 10
149.2220716315313
 20
218.9787095264185
 30
0.0
  0
VERTEX
  5
9A
330
83
100
AcDbEntity
  8
GRAU_10_
 62
     7
100
AcDbVertex
100
AcDb2dVertex
 10
150.4171752553645
 20
217.6389118922049
 30
0.0
  0
VERTEX
  5
9B
330
83
100
AcDbEntity
  8
GRAU_10_
 62
     7
100
AcDbVertex
100
AcDb2dVertex
 10
151.4539767416504
 20
216.1733682727796
 30
0.0
  0
VERTEX
  5
9C
330
83
100
AcDbEntity
  8
GRAU_10_
 62
     7
100
AcDbVertex
100
AcDb2dVertex
 10
152.3204182561907
 20
214.6010266933116
 30
0.0
  0
VERTEX
  5
9D
330
83
100
AcDbEntity
  8
GRAU_10_
 62
     7
100
AcDbVertex
100
AcDb2dVertex
 10
153.0047864743356
 20
212.9420409623895
 30
0.0
  0
VERTEX
  5
9E
330
83
100
AcDbEntity
  8
GRAU_10_
 62
     7
100
AcDbVertex
100
AcDb2dVertex
 10
153.4995021860175
 20
211.2158758695051
 30
0.0
  0
VERTEX
  5
9F
330
83
100
AcDbEntity
  8
GRAU_10_
 62
     7
100
AcDbVertex
100
AcDb2dVertex
 10
153.7975029454916
 20
209.445958063958
 30
0.0
  0
VERTEX
  5
A0
330
83
100
AcDbEntity
  8
GRAU_10_
 62
     7
100
AcDbVertex
100
AcDb2dVertex
 10
153.8953436572727
 20
207.6534748829825
 30
0.0
  0
VERTEX
  5
A1
330
83
100
AcDbEntity
  8
GRAU_10_
 62
     7
100
AcDbVertex
100
AcDb2dVertex
 10
153.7914740283924
 20
205.860991702007
 30
0.0
  0
VERTEX
  5
A2
330
83
100
AcDbEntity
  8
GRAU_10_
 62
     7
100
AcDbVertex
100
AcDb2dVertex
 10
153.4881333709162
 20
204.0917629155569
 30
0.0
  0
SEQEND
  5
A3
330
83
100
AcDbEntity
  8
GRAU_10_
  0
POLYLINE
  5
A4
330
1F
100
AcDbEntity
  8
GRAU_10_
 62
     7
100
AcDb2dPolyline
 66
     1
 10
0.0
 20
0.0
 30
0.0
  0
VERTEX
  5
A5
330
A4
100
AcDbEntity
  8
GRAU_10_
 62
     7
100
AcDbVertex
100
AcDb2dVertex
 10
124.2308322172062
 20
186.7432955804843
 30
0.0
  0
VERTEX
  5
A6
330
A4
100
AcDbEntity
  8
GRAU_10_
 62
     7
100
AcDbVertex
100
AcDb2dVertex
 10
124.2862982545187
 20
186.7072943326635
 30
0.0
  0
VERTEX
  5
A7
330
A4
100
AcDbEntity
  8
GRAU_10_
 62
     7
100
AcDbVertex
100
AcDb2dVertex
 10
124.3426255657025
 20
186.6709485752941
 30
0.0
  0
VERTEX
  5
A8
330
A4
100
AcDbEntity
  8
GRAU_10_
 62
     7
100
AcDbVertex
100
AcDb2dVertex
 10
124.3987806221121
 20
186.6346028179247
 30
0.0
  0
VERTEX
  5
A9
330
A4
100
AcDbEntity
  8
GRAU_10_
 62
     7
100
AcDbVertex
100
AcDb2dVertex
 10
124.4563137167158
 20
186.5979125510068
 30
0.0
  0
VERTEX
  5
AA
330
A4
100
AcDbEntity
  8
GRAU_10_
 62
     7
100
AcDbVertex
100
AcDb2dVertex
 10
124.514191320868
 20
186.5608777745404
 30
0.0
  0
VERTEX
  5
AB
330
A4
100
AcDbEntity
  8
GRAU_10_
 62
     7
100
AcDbVertex
100
AcDb2dVertex
 10
124.5720689250202
 20
186.5241875076224
 30
0.0
  0
VERTEX
  5
AC
330
A4
100
AcDbEntity
  8
GRAU_10_
 62
     7
100
AcDbVertex
100
AcDb2dVertex
 10
124.6020412557419
 20
186.5055839920021
 30
0.0
  0
VERTEX
  5
AD
330
A4
100
AcDbEntity
  8
GRAU_10_
 62
     7
100
AcDbVertex
100
AcDb2dVertex
 10
124.630980057818
 20
186.487152731156
 30
0.0
  0
VERTEX
  5
AE
330
A4
100
AcDbEntity
  8
GRAU_10_
 62
     7
100
AcDbVertex
100
AcDb2dVertex
 10
124.6602633694426
 20
186.4692382346327
 30
0.0
  0
VERTEX
  5
AF
330
A4
100
AcDbEntity
  8
GRAU_10_
 62
     7
100
AcDbVertex
100
AcDb2dVertex
 10
124.6898911906157
 20
186.4504624642381
 30
0.0
  0
VERTEX
  5
B0
330
A4
100
AcDbEntity
  8
GRAU_10_
 62
     7
100
AcDbVertex
100
AcDb2dVertex
 10
124.7481133043164
 20
186.4141167068687
 30
0.0
  0
VERTEX
  5
B1
330
A4
100
AcDbEntity
  8
GRAU_10_
 62
     7
100
AcDbVertex
100
AcDb2dVertex
 10
124.8070244371142
 20
186.3784599685964
 30
0.0
  0
VERTEX
  5
B2
330
A4
100
AcDbEntity
  8
GRAU_10_
 62
     7
100
AcDbVertex
100
AcDb2dVertex
 10
124.8652465508149
 20
186.342803230324
 30
0.0
  0
VERTEX
  5
B3
330
A4
100
AcDbEntity
  8
GRAU_10_
 62
     7
100
AcDbVertex
100
AcDb2dVertex
 10
124.9226073906444
 20
186.307318746826
 30
0.0
  0
VERTEX
  5
B4
330
A4
100
AcDbEntity
  8
GRAU_10_
 62
     7
100
AcDbVertex
100
AcDb2dVertex
 10
124.9804849947966
 20
186.2723510276507
 30
0.0
  0
VERTEX
  5
B5
330
A4
100
AcDbEntity
  8
GRAU_10_
 62
     7
100
AcDbVertex
100
AcDb2dVertex
 10
125.0380180894002
 20
186.2377278180239
 30
0.0
  0
VERTEX
  5
B6
330
A4
100
AcDbEntity
  8
GRAU_10_
 62
     7
100
AcDbVertex
100
AcDb2dVertex
 10
125.0952066744554
 20
186.2039658822684
 30
0.0
  0
VERTEX
  5
B7
330
A4
100
AcDbEntity
  8
GRAU_10_
 62
     7
100
AcDbVertex
100
AcDb2dVertex
 10
125.1511894760907
 20
186.1707207108358
 30
0.0
  0
SEQEND
  5
B8
330
A4
100
AcDbEntity
  8
GRAU_10_
  0
POLYLINE
  5
B9
330
1F
100
AcDbEntity
  8
GRAU_10_
 62
     7
100
AcDb2dPolyline
 66
     1
 10
0.0
 20
0.0
 30
0.0
  0
VERTEX
  5
BA
330
B9
100
AcDbEntity
  8
GRAU_10_
 62
     7
100
AcDbVertex
100
AcDb2dVertex
 10
153.4881333709162
 20
204.0917629155569
 30
0.0
  0
VERTEX
  5
BB
330
B9
100
AcDbEntity
  8
GRAU_10_
 62
     7
100
AcDbVertex
100
AcDb2dVertex
 10
153.3837469777131
 20
203.6638820562889
 30
0.0
  0
VERTEX
  5
BC
330
B9
100
AcDbEntity
  8
GRAU_10_
 62
     7
100
AcDbVertex
100
AcDb2dVertex
 10
153.2631686357294
 20
203.2239433628225
 30
0.0
  0
VERTEX
  5
BD
330
B9
100
AcDbEntity
  8
GRAU_10_
 62
     7
100
AcDbVertex
100
AcDb2dVertex
 10
153.1248480519966
 20
202.7741861472231
 30
0.0
  0
VERTEX
  5
BE
330
B9
100
AcDbEntity
  8
GRAU_10_
 62
     7
100
AcDbVertex
100
AcDb2dVertex
 10
152.968957481289
 20
202.3130601165225
 30
0.0
  0
VERTEX
  5
BF
330
B9
100
AcDbEntity
  8
GRAU_10_
 62
     7
100
AcDbVertex
100
AcDb2dVertex
 10
152.7927408472185
 20
201.8428045827858
 30
0.0
  0
VERTEX
  5
C0
330
B9
100
AcDbEntity
  8
GRAU_10_
 62
     7
100
AcDbVertex
100
AcDb2dVertex
 10
152.5960258950107
 20
201.3627305269163
 30
0.0
  0
VERTEX
  5
C1
330
B9
100
AcDbEntity
  8
GRAU_10_
 62
     7
100
AcDbVertex
100
AcDb2dVertex
 10
152.3762288030518
 20
200.8731824584623
 30
0.0
  0
VERTEX
  5
C2
330
B9
100
AcDbEntity
  8
GRAU_10_
 62
     7
100
AcDbVertex
100
AcDb2dVertex
 10
152.1314547688248
 20
200.3760551799407
 30
0.0
  0
VERTEX
  5
C3
330
B9
100
AcDbEntity
  8
GRAU_10_
 62
     7
100
AcDbVertex
100
AcDb2dVertex
 10
151.9998521212882
 20
200.1237019356462
 30
0.0
  0
VERTEX
  5
C4
330
B9
100
AcDbEntity
  8
GRAU_10_
 62
     7
100
AcDbVertex
100
AcDb2dVertex
 10
151.8608425184584
 20
199.8701429079318
 30
0.0
  0
VERTEX
  5
C5
330
B9
100
AcDbEntity
  8
GRAU_10_
 62
     7
100
AcDbVertex
100
AcDb2dVertex
 10
151.7884955132682
 20
199.7428466297518
 30
0.0
  0
VERTEX
  5
C6
330
B9
100
AcDbEntity
  8
GRAU_10_
 62
     7
100
AcDbVertex
100
AcDb2dVertex
 10
151.7147704698838
 20
199.614344568152
 30
0.0
  0
VERTEX
  5
C7
330
B9
100
AcDbEntity
  8
GRAU_10_
 62
     7
100
AcDbVertex
100
AcDb2dVertex
 10
151.6767021647718
 20
199.5502657921263
 30
0.0
  0
VERTEX
  5
C8
330
B9
100
AcDbEntity
  8
GRAU_10_
 62
     7
100
AcDbVertex
100
AcDb2dVertex
 10
151.6388061144341
 20
199.4860147613264
 30
0.0
  0
VERTEX
  5
C9
330
B9
100
AcDbEntity
  8
GRAU_10_
 62
     7
100
AcDbVertex
100
AcDb2dVertex
 10
151.600048790225
 20
199.421419220978
 30
0.0
  0
VERTEX
  5
CA
330
B9
100
AcDbEntity
  8
GRAU_10_
 62
     7
100
AcDbVertex
100
AcDb2dVertex
 10
151.5609469564674
 20
199.3568236806296
 30
0.0
  0
VERTEX
  5
CB
330
B9
100
AcDbEntity
  8
GRAU_10_
 62
     7
100
AcDbVertex
100
AcDb2dVertex
 10
151.2334906305944
 20
198.8410928864876
 30
0.0
  0
VERTEX
  5
CC
330
B9
100
AcDbEntity
  8
GRAU_10_
 62
     7
100
AcDbVertex
100
AcDb2dVertex
 10
150.8779567765166
 20
198.3270846400884
 30
0.0
  0
VERTEX
  5
CD
330
B9
100
AcDbEntity
  8
GRAU_10_
 62
     7
100
AcDbVertex
100
AcDb2dVertex
 10
150.4941731394598
 20
197.8154879605288
 30
0.0
  0
VERTEX
  5
CE
330
B9
100
AcDbEntity
  8
GRAU_10_
 62
     7
100
AcDbVertex
100
AcDb2dVertex
 10
150.07955589781
 20
197.3078531407772
 30
0.0
  0
VERTEX
  5
CF
330
B9
100
AcDbEntity
  8
GRAU_10_
 62
     7
100
AcDbVertex
100
AcDb2dVertex
 10
149.6330715229216
 20
196.8055582190278
 30
0.0
  0
VERTEX
  5
D0
330
B9
100
AcDbEntity
  8
GRAU_10_
 62
     7
100
AcDbVertex
100
AcDb2dVertex
 10
149.1535142313748
 20
196.3094644691518
 30
0.0
  0
VERTEX
  5
D1
330
B9
100
AcDbEntity
  8
GRAU_10_
 62
     7
100
AcDbVertex
100
AcDb2dVertex
 10
149.0275959913889
 20
196.1868190698769
 30
0.0
  0
VERTEX
  5
D2
330
B9
100
AcDbEntity
  8
GRAU_10_
 62
     7
100
AcDbVertex
100
AcDb2dVertex
 10
148.900299713209
 20
196.0643459253763
 30
0.0
  0
VERTEX
  5
D3
330
B9
100
AcDbEntity
  8
GRAU_10_
 62
     7
100
AcDbVertex
100
AcDb2dVertex
 10
148.835359663312
 20
196.0033677352874
 30
0.0
  0
VERTEX
  5
D4
330
B9
100
AcDbEntity
  8
GRAU_10_
 62
     7
100
AcDbVertex
100
AcDb2dVertex
 10
148.770419613415
 20
195.9423895451984
 30
0.0
  0
VERTEX
  5
D5
330
B9
100
AcDbEntity
  8
GRAU_10_
 62
     7
100
AcDbVertex
100
AcDb2dVertex
 10
148.704790544421
 20
195.8815836098838
 30
0.0
  0
VERTEX
  5
D6
330
B9
100
AcDbEntity
  8
GRAU_10_
 62
     7
100
AcDbVertex
100
AcDb2dVertex
 10
148.63847245633
 20
195.8212944388919
 30
0.0
  0
VERTEX
  5
D7
330
B9
100
AcDbEntity
  8
GRAU_10_
 62
     7
100
AcDbVertex
100
AcDb2dVertex
 10
148.3690659893834
 20
195.5828938313126
 30
0.0
  0
VERTEX
  5
D8
330
B9
100
AcDbEntity
  8
GRAU_10_
 62
     7
100
AcDbVertex
100
AcDb2dVertex
 10
148.0924248219179
 20
195.3489718478642
 30
0.0
  0
VERTEX
  5
D9
330
B9
100
AcDbEntity
  8
GRAU_10_
 62
     7
100
AcDbVertex
100
AcDb2dVertex
 10
147.5191609331723
 20
194.8966308106509
 30
0.0
  0
VERTEX
  5
DA
330
B9
100
AcDbEntity
  8
GRAU_10_
 62
     7
100
AcDbVertex
100
AcDb2dVertex
 10
146.9183362805447
 20
194.4653048558976
 30
0.0
  0
VERTEX
  5
DB
330
B9
100
AcDbEntity
  8
GRAU_10_
 62
     7
100
AcDbVertex
100
AcDb2dVertex
 10
146.2890895901639
 20
194.0570610408955
 30
0.0
  0
VERTEX
  5
DC
330
B9
100
AcDbEntity
  8
GRAU_10_
 62
     7
100
AcDbVertex
100
AcDb2dVertex
 10
145.6300428238355
 20
193.6722438751931
 30
0.0
  0
VERTEX
  5
DD
330
B9
100
AcDbEntity
  8
GRAU_10_
 62
     7
100
AcDbVertex
100
AcDb2dVertex
 10
145.2896673898929
 20
193.4898260692491
 30
0.0
  0
VERTEX
  5
DE
330
B9
100
AcDbEntity
  8
GRAU_10_
 62
     7
100
AcDbVertex
100
AcDb2dVertex
 10
144.9413682363341
 20
193.3134371804043
 30
0.0
  0
VERTEX
  5
DF
330
B9
100
AcDbEntity
  8
GRAU_10_
 62
     7
100
AcDbVertex
100
AcDb2dVertex
 10
144.7649793474893
 20
193.2279988123701
 30
0.0
  0
VERTEX
  5
E0
330
B9
100
AcDbEntity
  8
GRAU_10_
 62
     7
100
AcDbVertex
100
AcDb2dVertex
 10
144.5861788918048
 20
193.1447997564013
 30
0.0
  0
VERTEX
  5
E1
330
B9
100
AcDbEntity
  8
GRAU_10_
 62
     7
100
AcDbVertex
100
AcDb2dVertex
 10
144.4954006257685
 20
193.1031141010298
 30
0.0
  0
VERTEX
  5
E2
330
B9
100
AcDbEntity
  8
GRAU_10_
 62
     7
100
AcDbVertex
100
AcDb2dVertex
 10
144.405139124055
 20
193.0626342290781
 30
0.0
  0
VERTEX
  5
E3
330
B9
100
AcDbEntity
  8
GRAU_10_
 62
     7
100
AcDbVertex
100
AcDb2dVertex
 10
144.3138440936958
 20
193.0219821023522
 30
0.0
  0
VERTEX
  5
E4
330
B9
100
AcDbEntity
  8
GRAU_10_
 62
     7
100
AcDbVertex
100
AcDb2dVertex
 10
144.2220322990139
 20
192.9821912494975
 30
0.0
  0
VERTEX
  5
E5
330
B9
100
AcDbEntity
  8
GRAU_10_
 62
     7
100
AcDbVertex
100
AcDb2dVertex
 10
143.481164514911
 20
192.6850517638947
 30
0.0
  0
VERTEX
  5
E6
330
B9
100
AcDbEntity
  8
GRAU_10_
 62
     7
100
AcDbVertex
100
AcDb2dVertex
 10
142.7259995845442
 20
192.4247747999841
 30
0.0
  0
VERTEX
  5
E7
330
B9
100
AcDbEntity
  8
GRAU_10_
 62
     7
100
AcDbVertex
100
AcDb2dVertex
 10
141.9544704506225
 20
192.2018771220884
 30
0.0
  0
VERTEX
  5
E8
330
B9
100
AcDbEntity
  8
GRAU_10_
 62
     7
100
AcDbVertex
100
AcDb2dVertex
 10
141.1681274061142
 20
192.0168754945305
 30
0.0
  0
VERTEX
  5
E9
330
B9
100
AcDbEntity
  8
GRAU_10_
 62
     7
100
AcDbVertex
100
AcDb2dVertex
 10
140.7695298584708
 20
191.9390163365639
 30
0.0
  0
VERTEX
  5
EA
330
B9
100
AcDbEntity
  8
GRAU_10_
 62
     7
100
AcDbVertex
100
AcDb2dVertex
 10
140.3669704510194
 20
191.8701144268589
 30
0.0
  0
VERTEX
  5
EB
330
B9
100
AcDbEntity
  8
GRAU_10_
 62
     7
100
AcDbVertex
100
AcDb2dVertex
 10
140.1640543269382
 20
191.8397975865887
 30
0.0
  0
VERTEX
  5
EC
330
B9
100
AcDbEntity
  8
GRAU_10_
 62
     7
100
AcDbVertex
100
AcDb2dVertex
 10
139.9602769289856
 20
191.8124090774809
 30
0.0
  0
VERTEX
  5
ED
330
B9
100
AcDbEntity
  8
GRAU_10_
 62
     7
100
AcDbVertex
100
AcDb2dVertex
 10
139.8583021026222
 20
191.7989732050885
 30
0.0
  0
VERTEX
  5
EE
330
B9
100
AcDbEntity
  8
GRAU_10_
 62
     7
100
AcDbVertex
100
AcDb2dVertex
 10
139.7559827667103
 20
191.7869153708901
 30
0.0
  0
VERTEX
  5
EF
330
B9
100
AcDbEntity
  8
GRAU_10_
 62
     7
100
AcDbVertex
100
AcDb2dVertex
 10
139.6529744117013
 20
191.7753743010145
 30
0.0
  0
VERTEX
  5
F0
330
B9
100
AcDbEntity
  8
GRAU_10_
 62
     7
100
AcDbVertex
100
AcDb2dVertex
 10
139.5499660566924
 20
191.7643499954617
 30
0.0
  0
VERTEX
  5
F1
330
B9
100
AcDbEntity
  8
GRAU_10_
 62
     7
100
AcDbVertex
100
AcDb2dVertex
 10
138.7240044141037
 20
191.6997544551133
 30
0.0
  0
VERTEX
  5
F2
330
B9
100
AcDbEntity
  8
GRAU_10_
 62
     7
100
AcDbVertex
100
AcDb2dVertex
 10
137.8952866951269
 20
191.678567117879
 30
0.0
  0
SEQEND
  5
F3
330
B9
100
AcDbEntity
  8
GRAU_10_
  0
POLYLINE
  5
F4
330
1F
100
AcDbEntity
  8
GRAU_10_
 62
     7
100
AcDb2dPolyline
 66
     1
 10
0.0
 20
0.0
 30
0.0
  0
VERTEX
  5
F5
330
F4
100
AcDbEntity
  8
GRAU_10_
 62
     7
100
AcDbVertex
100
AcDb2dVertex
 10
58.14304875933577
 20
223.6783365326221
 30
0.0
  0
VERTEX
  5
F6
330
F4
100
AcDbEntity
  8
GRAU_10_
 62
     7
100
AcDbVertex
100
AcDb2dVertex
 10
46.19838594765179
 20
223.6783365326221
 30
0.0
  0
SEQEND
  5
F7
330
F4
100
AcDbEntity
  8
GRAU_10_
  0
POLYLINE
  5
F8
330
1F
100
AcDbEntity
  8
GRAU_10_
 62
     7
100
AcDb2dPolyline
 66
     1
 10
0.0
 20
0.0
 30
0.0
  0
VERTEX
  5
F9
330
F8
100
AcDbEntity
  8
GRAU_10_
 62
     7
100
AcDbVertex
100
AcDb2dVertex
 10
53.80842961979442
 20
191.678567117879
 30
0.0
  0
VERTEX
  5
FA
330
F8
100
AcDbEntity
  8
GRAU_10_
 62
     7
100
AcDbVertex
100
AcDb2dVertex
 10
58.14304875933577
 20
191.678567117879
 30
0.0
  0
SEQEND
  5
FB
330
F8
100
AcDbEntity
  8
GRAU_10_
  0
POLYLINE
  5
FC
330
1F
100
AcDbEntity
  8
GRAU_10_
 62
     7
100
AcDb2dPolyline
 66
     1
 10
0.0
 20
0.0
 30
0.0
  0
VERTEX
  5
FD
330
FC
100
AcDbEntity
  8
GRAU_10_
 62
     7
100
AcDbVertex
100
AcDb2dVertex
 10
53.14318168159268
 20
191.678567117879
 30
0.0
  0
VERTEX
  5
FE
330
FC
100
AcDbEntity
  8
GRAU_10_
 62
     7
100
AcDbVertex
100
AcDb2dVertex
 10
53.80842961979442
 20
191.678567117879
 30
0.0
  0
SEQEND
  5
FF
330
FC
100
AcDbEntity
  8
GRAU_10_
  0
POLYLINE
  5
100
330
1F
100
AcDbEntity
  8
GRAU_10_
 62
     7
100
AcDb2dPolyline
 66
     1
 10
0.0
 20
0.0
 30
0.0
  0
VERTEX
  5
101
330
100
100
AcDbEntity
  8
GRAU_10_
 62
     7
100
AcDbVertex
100
AcDb2dVertex
 10
76.14384492454043
 20
218.223027831729
 30
0.0
  0
VERTEX
  5
102
330
100
100
AcDbEntity
  8
GRAU_10_
 62
     7
100
AcDbVertex
100
AcDb2dVertex
 10
58.14304875933577
 20
218.6750243593937
 30
0.0
  0
SEQEND
  5
103
330
100
100
AcDbEntity
  8
GRAU_10_
  0
POLYLINE
  5
104
330
1F
100
AcDbEntity
  8
GRAU_10_
 62
     7
100
AcDb2dPolyline
 66
     1
 10
0.0
 20
0.0
 30
0.0
  0
VERTEX
  5
105
330
104
100
AcDbEntity
  8
GRAU_10_
 62
     7
100
AcDbVertex
100
AcDb2dVertex
 10
76.14384492454043
 20
197.1340480735464
 30
0.0
  0
VERTEX
  5
106
330
104
100
AcDbEntity
  8
GRAU_10_
 62
     7
100
AcDbVertex
100
AcDb2dVertex
 10
58.14304875933577
 20
196.6820515458816
 30
0.0
  0
SEQEND
  5
107
330
104
100
AcDbEntity
  8
GRAU_10_
  0
POLYLINE
  5
108
330
1F
100
AcDbEntity
  8
GRAU_10_
 62
     7
100
AcDb2dPolyline
 66
     1
 10
0.0
 20
0.0
 30
0.0
  0
VERTEX
  5
109
330
108
100
AcDbEntity
  8
GRAU_10_
 62
     7
100
AcDbVertex
100
AcDb2dVertex
 10
77.14292261526289
 20
217.6113511283229
 30
0.0
  0
VERTEX
  5
10A
330
108
100
AcDbEntity
  8
GRAU_10_
 62
     7
100
AcDbVertex
100
AcDb2dVertex
 10
76.14384492454043
 20
218.223027831729
 30
0.0
  0
SEQEND
  5
10B
330
108
100
AcDbEntity
  8
GRAU_10_
  0
POLYLINE
  5
10C
330
1F
100
AcDbEntity
  8
GRAU_10_
 62
     7
100
AcDb2dPolyline
 66
     1
 10
0.0
 20
0.0
 30
0.0
  0
VERTEX
  5
10D
330
10C
100
AcDbEntity
  8
GRAU_10_
 62
     7
100
AcDbVertex
100
AcDb2dVertex
 10
77.14292261526289
 20
197.7453802674039
 30
0.0
  0
VERTEX
  5
10E
330
10C
100
AcDbEntity
  8
GRAU_10_
 62
     7
100
AcDbVertex
100
AcDb2dVertex
 10
76.14384492454043
 20
197.1340480735464
 30
0.0
  0
SEQEND
  5
10F
330
10C
100
AcDbEntity
  8
GRAU_10_
  0
POLYLINE
  5
110
330
1F
100
AcDbEntity
  8
GRAU_10_
 62
     7
100
AcDb2dPolyline
 66
     1
 10
0.0
 20
0.0
 30
0.0
  0
VERTEX
  5
111
330
110
100
AcDbEntity
  8
GRAU_10_
 62
     7
100
AcDbVertex
100
AcDb2dVertex
 10
51.86746282340467
 20
186.9167561381666
 30
0.0
  0
VERTEX
  5
112
330
110
100
AcDbEntity
  8
GRAU_10_
 62
     7
100
AcDbVertex
100
AcDb2dVertex
 10
53.14318168159268
 20
191.678567117879
 30
0.0
  0
SEQEND
  5
113
330
110
100
AcDbEntity
  8
GRAU_10_
  0
POLYLINE
  5
114
330
1F
100
AcDbEntity
  8
GRAU_10_
 62
     7
100
AcDb2dPolyline
 66
     1
 10
0.0
 20
0.0
 30
0.0
  0
VERTEX
  5
115
330
114
100
AcDbEntity
  8
GRAU_10_
 62
     7
100
AcDbVertex
100
AcDb2dVertex
 10
44.27671168597944
 20
186.5605332649918
 30
0.0
  0
VERTEX
  5
116
330
114
100
AcDbEntity
  8
GRAU_10_
 62
     7
100
AcDbVertex
100
AcDb2dVertex
 10
48.37895913504068
 20
193.1243014382641
 30
0.0
  0
VERTEX
  5
117
330
114
100
AcDbEntity
  8
GRAU_10_
 62
     7
100
AcDbVertex
100
AcDb2dVertex
 10
49.64813231180672
 20
193.8725761776603
 30
0.0
  0
SEQEND
  5
118
330
114
100
AcDbEntity
  8
GRAU_10_
  0
POLYLINE
  5
119
330
1F
100
AcDbEntity
  8
GRAU_10_
 62
     7
100
AcDb2dPolyline
 66
     1
 10
0.0
 20
0.0
 30
0.0
  0
VERTEX
  5
11A
330
119
100
AcDbEntity
  8
GRAU_10_
 62
     7
100
AcDbVertex
100
AcDb2dVertex
 10
48.02428655483421
 20
196.6295138397315
 30
0.0
  0
VERTEX
  5
11B
330
119
100
AcDbEntity
  8
GRAU_10_
 62
     7
100
AcDbVertex
100
AcDb2dVertex
 10
46.75476886851964
 20
195.8815836098838
 30
0.0
  0
VERTEX
  5
11C
330
119
100
AcDbEntity
  8
GRAU_10_
 62
     7
100
AcDbVertex
100
AcDb2dVertex
 10
38.62038166352199
 20
195.4557698079069
 30
0.0
  0
SEQEND
  5
11D
330
119
100
AcDbEntity
  8
GRAU_10_
  0
POLYLINE
  5
11E
330
1F
100
AcDbEntity
  8
GRAU_10_
 62
     7
100
AcDb2dPolyline
 66
     1
 10
0.0
 20
0.0
 30
0.0
  0
VERTEX
  5
11F
330
11E
100
AcDbEntity
  8
GRAU_10_
 62
     7
100
AcDbVertex
100
AcDb2dVertex
 10
44.24828964822613
 20
186.5174695714262
 30
0.0
  0
VERTEX
  5
120
330
11E
100
AcDbEntity
  8
GRAU_10_
 62
     7
100
AcDbVertex
100
AcDb2dVertex
 10
51.86746282340467
 20
186.9167561381666
 30
0.0
  0
SEQEND
  5
121
330
11E
100
AcDbEntity
  8
GRAU_10_
  0
POLYLINE
  5
122
330
1F
100
AcDbEntity
  8
GRAU_10_
 62
     7
100
AcDb2dPolyline
 66
     1
 10
0.0
 20
0.0
 30
0.0
  0
VERTEX
  5
123
330
122
100
AcDbEntity
  8
GRAU_10_
 62
     7
100
AcDbVertex
100
AcDb2dVertex
 10
40.95012748542219
 20
204.0917629155569
 30
0.0
  0
VERTEX
  5
124
330
122
100
AcDbEntity
  8
GRAU_10_
 62
     7
100
AcDbVertex
100
AcDb2dVertex
 10
38.77730576287512
 20
195.9821803980531
 30
0.0
  0
SEQEND
  5
125
330
122
100
AcDbEntity
  8
GRAU_10_
  0
POLYLINE
  5
126
330
1F
100
AcDbEntity
  8
GRAU_10_
 62
     7
100
AcDb2dPolyline
 66
     1
 10
0.0
 20
0.0
 30
0.0
  0
VERTEX
  5
127
330
126
100
AcDbEntity
  8
GRAU_10_
 62
     7
100
AcDbVertex
100
AcDb2dVertex
 10
58.14304875933577
 20
223.6783365326221
 30
0.0
  0
VERTEX
  5
128
330
126
100
AcDbEntity
  8
GRAU_10_
 62
     7
100
AcDbVertex
100
AcDb2dVertex
 10
58.14304875933577
 20
223.5705050439338
 30
0.0
  0
VERTEX
  5
129
330
126
100
AcDbEntity
  8
GRAU_10_
 62
     7
100
AcDbVertex
100
AcDb2dVertex
 10
58.14304875933577
 20
223.2470105778688
 30
0.0
  0
VERTEX
  5
12A
330
126
100
AcDbEntity
  8
GRAU_10_
 62
     7
100
AcDbVertex
100
AcDb2dVertex
 10
58.14304875933577
 20
222.7131930324294
 30
0.0
  0
VERTEX
  5
12B
330
126
100
AcDbEntity
  8
GRAU_10_
 62
     7
100
AcDbVertex
100
AcDb2dVertex
 10
58.14304875933577
 20
221.9766316176829
 30
0.0
  0
VERTEX
  5
12C
330
126
100
AcDbEntity
  8
GRAU_10_
 62
     7
100
AcDbVertex
100
AcDb2dVertex
 10
58.14304875933577
 20
221.0459390723427
 30
0.0
  0
VERTEX
  5
12D
330
126
100
AcDbEntity
  8
GRAU_10_
 62
     7
100
AcDbVertex
100
AcDb2dVertex
 10
58.14304875933577
 20
219.9350680331239
 30
0.0
  0
VERTEX
  5
12E
330
126
100
AcDbEntity
  8
GRAU_10_
 62
     7
100
AcDbVertex
100
AcDb2dVertex
 10
58.14304875933577
 20
218.6579711367418
 30
0.0
  0
VERTEX
  5
12F
330
126
100
AcDbEntity
  8
GRAU_10_
 62
     7
100
AcDbVertex
100
AcDb2dVertex
 10
58.14304875933577
 20
217.2327351344939
 30
0.0
  0
VERTEX
  5
130
330
126
100
AcDbEntity
  8
GRAU_10_
 62
     7
100
AcDbVertex
100
AcDb2dVertex
 10
58.14304875933577
 20
215.6781357967749
 30
0.0
  0
VERTEX
  5
131
330
126
100
AcDbEntity
  8
GRAU_10_
 62
     7
100
AcDbVertex
100
AcDb2dVertex
 10
58.14304875933577
 20
214.0155327155933
 30
0.0
  0
VERTEX
  5
132
330
126
100
AcDbEntity
  8
GRAU_10_
 62
     7
100
AcDbVertex
100
AcDb2dVertex
 10
58.14304875933577
 20
212.267146756829
 30
0.0
  0
VERTEX
  5
133
330
126
100
AcDbEntity
  8
GRAU_10_
 62
     7
100
AcDbVertex
100
AcDb2dVertex
 10
58.14304875933577
 20
210.4570935888788
 30
0.0
  0
VERTEX
  5
134
330
126
100
AcDbEntity
  8
GRAU_10_
 62
     7
100
AcDbVertex
100
AcDb2dVertex
 10
58.14304875933577
 20
208.6084553514937
 30
0.0
  0
VERTEX
  5
135
330
126
100
AcDbEntity
  8
GRAU_10_
 62
     7
100
AcDbVertex
100
AcDb2dVertex
 10
58.14304875933577
 20
206.7479315346846
 30
0.0
  0
VERTEX
  5
136
330
126
100
AcDbEntity
  8
GRAU_10_
 62
     7
100
AcDbVertex
100
AcDb2dVertex
 10
58.14304875933577
 20
204.9003268259451
 30
0.0
  0
VERTEX
  5
137
330
126
100
AcDbEntity
  8
GRAU_10_
 62
     7
100
AcDbVertex
100
AcDb2dVertex
 10
58.14304875933577
 20
203.0895846388977
 30
0.0
  0
VERTEX
  5
138
330
126
100
AcDbEntity
  8
GRAU_10_
 62
     7
100
AcDbVertex
100
AcDb2dVertex
 10
58.14304875933577
 20
201.3408541705849
 30
0.0
  0
VERTEX
  5
139
330
126
100
AcDbEntity
  8
GRAU_10_
 62
     7
100
AcDbVertex
100
AcDb2dVertex
 10
58.14304875933577
 20
199.6785955989519
 30
0.0
  0
VERTEX
  5
13A
330
126
100
AcDbEntity
  8
GRAU_10_
 62
     7
100
AcDbVertex
100
AcDb2dVertex
 10
58.14304875933577
 20
198.1234794969101
 30
0.0
  0
VERTEX
  5
13B
330
126
100
AcDbEntity
  8
GRAU_10_
 62
     7
100
AcDbVertex
100
AcDb2dVertex
 10
58.14304875933577
 20
196.6985880042108
 30
0.0
  0
VERTEX
  5
13C
330
126
100
AcDbEntity
  8
GRAU_10_
 62
     7
100
AcDbVertex
100
AcDb2dVertex
 10
58.14304875933577
 20
195.4216633626029
 30
0.0
  0
VERTEX
  5
13D
330
126
100
AcDbEntity
  8
GRAU_10_
 62
     7
100
AcDbVertex
100
AcDb2dVertex
 10
58.14304875933577
 20
194.3107923233841
 30
0.0
  0
VERTEX
  5
13E
330
126
100
AcDbEntity
  8
GRAU_10_
 62
     7
100
AcDbVertex
100
AcDb2dVertex
 10
58.14304875933577
 20
193.3804442875924
 30
0.0
  0
VERTEX
  5
13F
330
126
100
AcDbEntity
  8
GRAU_10_
 62
     7
100
AcDbVertex
100
AcDb2dVertex
 10
58.14304875933577
 20
192.6435383632975
 30
0.0
  0
VERTEX
  5
140
330
126
100
AcDbEntity
  8
GRAU_10_
 62
     7
100
AcDbVertex
100
AcDb2dVertex
 10
58.14304875933577
 20
192.1093763083095
 30
0.0
  0
VERTEX
  5
141
330
126
100
AcDbEntity
  8
GRAU_10_
 62
     7
100
AcDbVertex
100
AcDb2dVertex
 10
58.14304875933577
 20
191.7869153708901
 30
0.0
  0
VERTEX
  5
142
330
126
100
AcDbEntity
  8
GRAU_10_
 62
     7
100
AcDbVertex
100
AcDb2dVertex
 10
58.14304875933577
 20
191.678567117879
 30
0.0
  0
SEQEND
  5
143
330
126
100
AcDbEntity
  8
GRAU_10_
  0
POLYLINE
  5
144
330
1F
100
AcDbEntity
  8
GRAU_10_
 62
     7
100
AcDb2dPolyline
 66
     1
 10
0.0
 20
0.0
 30
0.0
  0
VERTEX
  5
145
330
144
100
AcDbEntity
  8
GRAU_10_
 62
     7
100
AcDbVertex
100
AcDb2dVertex
 10
76.14384492454043
 20
204.679151695792
 30
0.0
  0
VERTEX
  5
146
330
144
100
AcDbEntity
  8
GRAU_10_
 62
     7
100
AcDbVertex
100
AcDb2dVertex
 10
76.14384492454043
 20
205.8249904541861
 30
0.0
  0
VERTEX
  5
147
330
144
100
AcDbEntity
  8
GRAU_10_
 62
     7
100
AcDbVertex
100
AcDb2dVertex
 10
76.14384492454043
 20
207.0516167017093
 30
0.0
  0
VERTEX
  5
148
330
144
100
AcDbEntity
  8
GRAU_10_
 62
     7
100
AcDbVertex
100
AcDb2dVertex
 10
76.14384492454043
 20
208.3051146940175
 30
0.0
  0
VERTEX
  5
149
330
144
100
AcDbEntity
  8
GRAU_10_
 62
     7
100
AcDbVertex
100
AcDb2dVertex
 10
76.14384492454043
 20
209.5317409415407
 30
0.0
  0
VERTEX
  5
14A
330
144
100
AcDbEntity
  8
GRAU_10_
 62
     7
100
AcDbVertex
100
AcDb2dVertex
 10
76.14384492454043
 20
210.6775796999348
 30
0.0
  0
SEQEND
  5
14B
330
144
100
AcDbEntity
  8
GRAU_10_
  0
POLYLINE
  5
14C
330
1F
100
AcDbEntity
  8
GRAU_10_
 62
     7
100
AcDb2dPolyline
 66
     1
 10
0.0
 20
0.0
 30
0.0
  0
VERTEX
  5
14D
330
14C
100
AcDbEntity
  8
GRAU_10_
 62
     7
100
AcDbVertex
100
AcDb2dVertex
 10
77.14292261526289
 20
210.3719997303931
 30
0.0
  0
VERTEX
  5
14E
330
14C
100
AcDbEntity
  8
GRAU_10_
 62
     7
100
AcDbVertex
100
AcDb2dVertex
 10
77.14292261526289
 20
209.342949708949
 30
0.0
  0
VERTEX
  5
14F
330
14C
100
AcDbEntity
  8
GRAU_10_
 62
     7
100
AcDbVertex
100
AcDb2dVertex
 10
77.14292261526289
 20
208.2415526823146
 30
0.0
  0
VERTEX
  5
150
330
14C
100
AcDbEntity
  8
GRAU_10_
 62
     7
100
AcDbVertex
100
AcDb2dVertex
 10
77.14292261526289
 20
207.1155232229607
 30
0.0
  0
VERTEX
  5
151
330
14C
100
AcDbEntity
  8
GRAU_10_
 62
     7
100
AcDbVertex
100
AcDb2dVertex
 10
77.14292261526289
 20
206.0137816867778
 30
0.0
  0
VERTEX
  5
152
330
14C
100
AcDbEntity
  8
GRAU_10_
 62
     7
100
AcDbVertex
100
AcDb2dVertex
 10
77.14292261526289
 20
204.9854206844307
 30
0.0
  0
SEQEND
  5
153
330
14C
100
AcDbEntity
  8
GRAU_10_
  0
POLYLINE
  5
154
330
1F
100
AcDbEntity
  8
GRAU_10_
 62
     7
100
AcDb2dPolyline
 66
     1
 10
0.0
 20
0.0
 30
0.0
  0
VERTEX
  5
155
330
154
100
AcDbEntity
  8
GRAU_10_
 62
     7
100
AcDbVertex
100
AcDb2dVertex
 10
76.14384492454043
 20
210.6775796999348
 30
0.0
  0
VERTEX
  5
156
330
154
100
AcDbEntity
  8
GRAU_10_
 62
     7
100
AcDbVertex
100
AcDb2dVertex
 10
76.14384492454043
 20
212.1432955741343
 30
0.0
  0
VERTEX
  5
157
330
154
100
AcDbEntity
  8
GRAU_10_
 62
     7
100
AcDbVertex
100
AcDb2dVertex
 10
76.14384492454043
 20
213.4880885968016
 30
0.0
  0
VERTEX
  5
158
330
154
100
AcDbEntity
  8
GRAU_10_
 62
     7
100
AcDbVertex
100
AcDb2dVertex
 10
76.14384492454043
 20
214.6921494688964
 30
0.0
  0
VERTEX
  5
159
330
154
100
AcDbEntity
  8
GRAU_10_
 62
     7
100
AcDbVertex
100
AcDb2dVertex
 10
76.14384492454043
 20
215.7401475155094
 30
0.0
  0
VERTEX
  5
15A
330
154
100
AcDbEntity
  8
GRAU_10_
 62
     7
100
AcDbVertex
100
AcDb2dVertex
 10
76.14384492454043
 20
216.6176133356026
 30
0.0
  0
VERTEX
  5
15B
330
154
100
AcDbEntity
  8
GRAU_10_
 62
     7
100
AcDbVertex
100
AcDb2dVertex
 10
76.14384492454043
 20
217.3124890949775
 30
0.0
  0
VERTEX
  5
15C
330
154
100
AcDbEntity
  8
GRAU_10_
 62
     7
100
AcDbVertex
100
AcDb2dVertex
 10
76.14384492454043
 20
217.8163343096952
 30
0.0
  0
VERTEX
  5
15D
330
154
100
AcDbEntity
  8
GRAU_10_
 62
     7
100
AcDbVertex
100
AcDb2dVertex
 10
76.14384492454043
 20
218.1210530053656
 30
0.0
  0
VERTEX
  5
15E
330
154
100
AcDbEntity
  8
GRAU_10_
 62
     7
100
AcDbVertex
100
AcDb2dVertex
 10
76.14384492454043
 20
218.223027831729
 30
0.0
  0
SEQEND
  5
15F
330
154
100
AcDbEntity
  8
GRAU_10_
  0
POLYLINE
  5
160
330
1F
100
AcDbEntity
  8
GRAU_10_
 62
     7
100
AcDb2dPolyline
 66
     1
 10
0.0
 20
0.0
 30
0.0
  0
VERTEX
  5
161
330
160
100
AcDbEntity
  8
GRAU_10_
 62
     7
100
AcDbVertex
100
AcDb2dVertex
 10
76.14384492454043
 20
197.1340480735464
 30
0.0
  0
VERTEX
  5
162
330
160
100
AcDbEntity
  8
GRAU_10_
 62
     7
100
AcDbVertex
100
AcDb2dVertex
 10
76.14384492454043
 20
197.2363674094583
 30
0.0
  0
VERTEX
  5
163
330
160
100
AcDbEntity
  8
GRAU_10_
 62
     7
100
AcDbVertex
100
AcDb2dVertex
 10
76.14384492454043
 20
197.5410861051286
 30
0.0
  0
VERTEX
  5
164
330
160
100
AcDbEntity
  8
GRAU_10_
 62
     7
100
AcDbVertex
100
AcDb2dVertex
 10
76.14384492454043
 20
198.0437255364266
 30
0.0
  0
VERTEX
  5
165
330
160
100
AcDbEntity
  8
GRAU_10_
 62
     7
100
AcDbVertex
100
AcDb2dVertex
 10
76.14384492454043
 20
198.7391180601243
 30
0.0
  0
VERTEX
  5
166
330
160
100
AcDbEntity
  8
GRAU_10_
 62
     7
100
AcDbVertex
100
AcDb2dVertex
 10
76.14384492454043
 20
199.6164116254431
 30
0.0
  0
VERTEX
  5
167
330
160
100
AcDbEntity
  8
GRAU_10_
 62
     7
100
AcDbVertex
100
AcDb2dVertex
 10
76.14384492454043
 20
200.6645819268304
 30
0.0
  0
VERTEX
  5
168
330
160
100
AcDbEntity
  8
GRAU_10_
 62
     7
100
AcDbVertex
100
AcDb2dVertex
 10
76.14384492454043
 20
201.8686427989252
 30
0.0
  0
VERTEX
  5
169
330
160
100
AcDbEntity
  8
GRAU_10_
 62
     7
100
AcDbVertex
100
AcDb2dVertex
 10
76.14384492454043
 20
203.2134358215925
 30
0.0
  0
VERTEX
  5
16A
330
160
100
AcDbEntity
  8
GRAU_10_
 62
     7
100
AcDbVertex
100
AcDb2dVertex
 10
76.14384492454043
 20
204.679151695792
 30
0.0
  0
SEQEND
  5
16B
330
160
100
AcDbEntity
  8
GRAU_10_
  0
POLYLINE
  5
16C
330
1F
100
AcDbEntity
  8
GRAU_10_
 62
     7
100
AcDb2dPolyline
 66
     1
 10
0.0
 20
0.0
 30
0.0
  0
VERTEX
  5
16D
330
16C
100
AcDbEntity
  8
GRAU_10_
 62
     7
100
AcDbVertex
100
AcDb2dVertex
 10
77.14292261526289
 20
217.6113511283229
 30
0.0
  0
VERTEX
  5
16E
330
16C
100
AcDbEntity
  8
GRAU_10_
 62
     7
100
AcDbVertex
100
AcDb2dVertex
 10
77.14292261526289
 20
217.4874999456281
 30
0.0
  0
VERTEX
  5
16F
330
16C
100
AcDbEntity
  8
GRAU_10_
 62
     7
100
AcDbVertex
100
AcDb2dVertex
 10
77.14292261526289
 20
217.1181857096093
 30
0.0
  0
VERTEX
  5
170
330
16C
100
AcDbEntity
  8
GRAU_10_
 62
     7
100
AcDbVertex
100
AcDb2dVertex
 10
77.14292261526289
 20
216.5092650825914
 30
0.0
  0
VERTEX
  5
171
330
16C
100
AcDbEntity
  8
GRAU_10_
 62
     7
100
AcDbVertex
100
AcDb2dVertex
 10
77.14292261526289
 20
215.6714178605787
 30
0.0
  0
VERTEX
  5
172
330
16C
100
AcDbEntity
  8
GRAU_10_
 62
     7
100
AcDbVertex
100
AcDb2dVertex
 10
77.14292261526289
 20
214.6194579541576
 30
0.0
  0
VERTEX
  5
173
330
16C
100
AcDbEntity
  8
GRAU_10_
 62
     7
100
AcDbVertex
100
AcDb2dVertex
 10
77.14292261526289
 20
213.3709553503031
 30
0.0
  0
VERTEX
  5
174
330
16C
100
AcDbEntity
  8
GRAU_10_
 62
     7
100
AcDbVertex
100
AcDb2dVertex
 10
77.14292261526289
 20
211.9464083671523
 30
0.0
  0
VERTEX
  5
175
330
16C
100
AcDbEntity
  8
GRAU_10_
 62
     7
100
AcDbVertex
100
AcDb2dVertex
 10
77.14292261526289
 20
210.3719997303931
 30
0.0
  0
SEQEND
  5
176
330
16C
100
AcDbEntity
  8
GRAU_10_
  0
POLYLINE
  5
177
330
1F
100
AcDbEntity
  8
GRAU_10_
 62
     7
100
AcDb2dPolyline
 66
     1
 10
0.0
 20
0.0
 30
0.0
  0
VERTEX
  5
178
330
177
100
AcDbEntity
  8
GRAU_10_
 62
     7
100
AcDbVertex
100
AcDb2dVertex
 10
77.14292261526289
 20
204.9854206844307
 30
0.0
  0
VERTEX
  5
179
330
177
100
AcDbEntity
  8
GRAU_10_
 62
     7
100
AcDbVertex
100
AcDb2dVertex
 10
77.14292261526289
 20
203.4103230285745
 30
0.0
  0
VERTEX
  5
17A
330
177
100
AcDbEntity
  8
GRAU_10_
 62
     7
100
AcDbVertex
100
AcDb2dVertex
 10
77.14292261526289
 20
201.9861205549722
 30
0.0
  0
VERTEX
  5
17B
330
177
100
AcDbEntity
  8
GRAU_10_
 62
     7
100
AcDbVertex
100
AcDb2dVertex
 10
77.14292261526289
 20
200.7372734415692
 30
0.0
  0
VERTEX
  5
17C
330
177
100
AcDbEntity
  8
GRAU_10_
 62
     7
100
AcDbVertex
100
AcDb2dVertex
 10
77.14292261526289
 20
199.6853135351481
 30
0.0
  0
VERTEX
  5
17D
330
177
100
AcDbEntity
  8
GRAU_10_
 62
     7
100
AcDbVertex
100
AcDb2dVertex
 10
77.14292261526289
 20
198.8474663131354
 30
0.0
  0
VERTEX
  5
17E
330
177
100
AcDbEntity
  8
GRAU_10_
 62
     7
100
AcDbVertex
100
AcDb2dVertex
 10
77.14292261526289
 20
198.238890195666
 30
0.0
  0
VERTEX
  5
17F
330
177
100
AcDbEntity
  8
GRAU_10_
 62
     7
100
AcDbVertex
100
AcDb2dVertex
 10
77.14292261526289
 20
197.8692314500987
 30
0.0
  0
VERTEX
  5
180
330
177
100
AcDbEntity
  8
GRAU_10_
 62
     7
100
AcDbVertex
100
AcDb2dVertex
 10
77.14292261526289
 20
197.7453802674039
 30
0.0
  0
SEQEND
  5
181
330
177
100
AcDbEntity
  8
GRAU_10_
  0
SPLINE
  5
182
330
1F
100
AcDbEntity
  8
GRAU_10_
 62
     7
100
AcDbSpline
210
0.0
220
0.0
230
1.0
 70
     8
 71
     3
 72
     8
 73
     4
 74
     0
 42
0.0000000001
 43
0.0000000001
 40
0.0
 40
0.0
 40
0.0
 40
0.0
 40
1.0
 40
1.0
 40
1.0
 40
1.0
 10
38.62038166352199
 20
195.4557698079069
 30
0.0
 10
38.68067083451386
 20
195.6388766329479
 30
0.0
 10
38.73493108840655
 20
195.8230169866345
 30
0.0
 10
38.77730576287512
 20
195.9821803980531
 30
0.0
  0
SPLINE
  5
183
330
1F
100
AcDbEntity
  8
GRAU_10_
 62
     7
100
AcDbSpline
210
0.0
220
0.0
230
1.0
 70
     8
 71
     3
 72
     8
 73
     4
 74
     0
 42
0.0000000001
 43
0.0000000001
 40
0.0
 40
0.0
 40
0.0
 40
0.0
 40
1.0
 40
1.0
 40
1.0
 40
1.0
 10
44.24828964822613
 20
186.5174695714262
 30
0.0
 10
44.25914169900466
 20
186.5326279915613
 30
0.0
 10
44.26896022113763
 20
186.5470973925993
 30
0.0
 10
44.27671168597944
 20
186.5605332649918
 30
0.0
  0
SPLINE
  5
184
330
1F
100
AcDbEntity
  8
GRAU_10_
 62
     7
100
AcDbSpline
210
0.0
220
0.0
230
1.0
 70
     8
 71
     3
 72
    11
 73
     7
 74
     0
 42
0.0000000001
 43
0.0000000001
 40
0.0
 40
0.0
 40
0.0
 40
0.0
 40
1.0
 40
1.0
 40
1.0
 40
2.0
 40
2.0
 40
2.0
 40
2.0
 10
50.4367146683804
 20
195.251131136083
 30
0.0
 10
50.4367146683804
 20
196.1349703828239
 30
0.0
 10
49.72013480744844
 20
196.8513779889816
 30
0.0
 10
48.83646781548186
 20
196.8513779889816
 30
0.0
 10
48.53657225349086
 20
196.8513779889816
 30
0.0
 10
48.25648599054005
 20
196.7685234425614
 30
0.0
 10
48.02428655483421
 20
196.6295138397315
 30
0.0
  0
SPLINE
  5
185
330
1F
100
AcDbEntity
  8
GRAU_10_
 62
     7
100
AcDbSpline
210
0.0
220
0.0
230
1.0
 70
     8
 71
     3
 72
     8
 73
     4
 74
     0
 42
0.0000000001
 43
0.0000000001
 40
0.0
 40
0.0
 40
0.0
 40
0.0
 40
1.0
 40
1.0
 40
1.0
 40
1.0
 10
49.64813231180672
 20
193.8725761776603
 30
0.0
 10
50.1519775265245
 20
194.1691988989404
 30
0.0
 10
50.43344182766942
 20
194.6983655654747
 30
0.0
 10
50.4367146683804
 20
195.251131136083
 30
0.0
  0
SPLINE
  5
186
330
1F
100
AcDbEntity
  8
GRAU_10_
 62
     7
100
AcDbSpline
210
0.0
220
0.0
230
1.0
 70
     8
 71
     3
 72
     8
 73
     4
 74
     0
 42
0.0000000001
 43
0.0000000001
 40
0.0
 40
0.0
 40
0.0
 40
0.0
 40
1.0
 40
1.0
 40
1.0
 40
1.0
 10
38.56956650511455
 20
195.3045301161044
 30
0.0
 10
38.58748100163785
 20
195.357412331803
 30
0.0
 10
38.60591226248394
 20
195.4106390570501
 30
0.0
 10
38.62038166352199
 20
195.4557698079069
 30
0.0
  0
POLYLINE
  5
187
330
1F
100
AcDbEntity
  8
GRAU_10_
 62
     7
100
AcDb2dPolyline
 66
     1
 10
0.0
 20
0.0
 30
0.0
  0
VERTEX
  5
188
330
187
100
AcDbEntity
  8
GRAU_10_
 62
     7
100
AcDbVertex
100
AcDb2dVertex
 10
46.19838594765179
 20
223.6783365326221
 30
0.0
  0
VERTEX
  5
189
330
187
100
AcDbEntity
  8
GRAU_10_
 62
     7
100
AcDbVertex
100
AcDb2dVertex
 10
46.17116969331832
 20
223.5779119992271
 30
0.0
  0
VERTEX
  5
18A
330
187
100
AcDbEntity
  8
GRAU_10_
 62
     7
100
AcDbVertex
100
AcDb2dVertex
 10
46.09072671373774
 20
223.2762938894934
 30
0.0
  0
VERTEX
  5
18B
330
187
100
AcDbEntity
  8
GRAU_10_
 62
     7
100
AcDbVertex
100
AcDb2dVertex
 10
45.95740151845857
 20
222.7791666109719
 30
0.0
  0
VERTEX
  5
18C
330
187
100
AcDbEntity
  8
GRAU_10_
 62
     7
100
AcDbVertex
100
AcDb2dVertex
 10
45.77291665522344
 20
222.090836533019
 30
0.0
  0
VERTEX
  5
18D
330
187
100
AcDbEntity
  8
GRAU_10_
 62
     7
100
AcDbVertex
100
AcDb2dVertex
 10
45.53968369087202
 20
221.2216389420904
 30
0.0
  0
VERTEX
  5
18E
330
187
100
AcDbEntity
  8
GRAU_10_
 62
     7
100
AcDbVertex
100
AcDb2dVertex
 10
45.26131997566384
 20
220.1813923603193
 30
0.0
  0
VERTEX
  5
18F
330
187
100
AcDbEntity
  8
GRAU_10_
 62
     7
100
AcDbVertex
100
AcDb2dVertex
 10
44.94006482166429
 20
218.9837049148721
 30
0.0
  0
VERTEX
  5
190
330
187
100
AcDbEntity
  8
GRAU_10_
 62
     7
100
AcDbVertex
100
AcDb2dVertex
 10
44.58125812687552
 20
217.6433905163357
 30
0.0
  0
VERTEX
  5
191
330
187
100
AcDbEntity
  8
GRAU_10_
 62
     7
100
AcDbVertex
100
AcDb2dVertex
 10
44.18851724155704
 20
216.1780191516847
 30
0.0
  0
VERTEX
  5
192
330
187
100
AcDbEntity
  8
GRAU_10_
 62
     7
100
AcDbVertex
100
AcDb2dVertex
 10
43.76700980893672
 20
214.6056775722166
 30
0.0
  0
VERTEX
  5
193
330
187
100
AcDbEntity
  8
GRAU_10_
 62
     7
100
AcDbVertex
100
AcDb2dVertex
 10
43.32224798179097
 20
212.9454860578747
 30
0.0
  0
VERTEX
  5
194
330
187
100
AcDbEntity
  8
GRAU_10_
 62
     7
100
AcDbVertex
100
AcDb2dVertex
 10
42.85974391289618
 20
211.2189764554418
 30
0.0
  0
VERTEX
  5
195
330
187
100
AcDbEntity
  8
GRAU_10_
 62
     7
100
AcDbVertex
100
AcDb2dVertex
 10
42.38552651935154
 20
209.4480251212491
 30
0.0
  0
VERTEX
  5
196
330
187
100
AcDbEntity
  8
GRAU_10_
 62
     7
100
AcDbVertex
100
AcDb2dVertex
 10
41.90510795393345
 20
207.6548529211766
 30
0.0
  0
VERTEX
  5
197
330
187
100
AcDbEntity
  8
GRAU_10_
 62
     7
100
AcDbVertex
100
AcDb2dVertex
 10
41.42417262419257
 20
205.8620252306526
 30
0.0
  0
VERTEX
  5
198
330
187
100
AcDbEntity
  8
GRAU_10_
 62
     7
100
AcDbVertex
100
AcDb2dVertex
 10
40.95012748542219
 20
204.0917629155569
 30
0.0
  0
VERTEX
  5
199
330
187
100
AcDbEntity
  8
GRAU_10_
 62
     7
100
AcDbVertex
100
AcDb2dVertex
 10
41.64431422570004
 20
203.6638820562889
 30
0.0
  0
VERTEX
  5
19A
330
187
100
AcDbEntity
  8
GRAU_10_
 62
     7
100
AcDbVertex
100
AcDb2dVertex
 10
42.32558185790819
 20
203.2239433628225
 30
0.0
  0
VERTEX
  5
19B
330
187
100
AcDbEntity
  8
GRAU_10_
 62
     7
100
AcDbVertex
100
AcDb2dVertex
 10
42.99306910817535
 20
202.7741861472231
 30
0.0
  0
VERTEX
  5
19C
330
187
100
AcDbEntity
  8
GRAU_10_
 62
     7
100
AcDbVertex
100
AcDb2dVertex
 10
43.64780950514708
 20
202.3130601165225
 30
0.0
  0
VERTEX
  5
19D
330
187
100
AcDbEntity
  8
GRAU_10_
 62
     7
100
AcDbVertex
100
AcDb2dVertex
 10
44.28876952017781
 20
201.8428045827858
 30
0.0
  0
VERTEX
  5
19E
330
187
100
AcDbEntity
  8
GRAU_10_
 62
     7
100
AcDbVertex
100
AcDb2dVertex
 10
44.91646591759033
 20
201.3627305269163
 30
0.0
  0
VERTEX
  5
19F
330
187
100
AcDbEntity
  8
GRAU_10_
 62
     7
100
AcDbVertex
100
AcDb2dVertex
 10
45.53020967828759
 20
200.8731824584623
 30
0.0
  0
VERTEX
  5
1A0
330
187
100
AcDbEntity
  8
GRAU_10_
 62
     7
100
AcDbVertex
100
AcDb2dVertex
 10
46.13068982136664
 20
200.3760551799407
 30
0.0
  0
VERTEX
  5
1A1
330
187
100
AcDbEntity
  8
GRAU_10_
 62
     7
100
AcDbVertex
100
AcDb2dVertex
 10
46.42558999490402
 20
200.1237019356462
 30
0.0
  0
VERTEX
  5
1A2
330
187
100
AcDbEntity
  8
GRAU_10_
 62
     7
100
AcDbVertex
100
AcDb2dVertex
 10
46.71652830863337
 20
199.8701429079318
 30
0.0
  0
VERTEX
  5
1A3
330
187
100
AcDbEntity
  8
GRAU_10_
 62
     7
100
AcDbVertex
100
AcDb2dVertex
 10
46.86087780946534
 20
199.7428466297518
 30
0.0
  0
VERTEX
  5
1A4
330
187
100
AcDbEntity
  8
GRAU_10_
 62
     7
100
AcDbVertex
100
AcDb2dVertex
 10
47.00488280074878
 20
199.614344568152
 30
0.0
  0
VERTEX
  5
1A5
330
187
100
AcDbEntity
  8
GRAU_10_
 62
     7
100
AcDbVertex
100
AcDb2dVertex
 10
47.07602402251919
 20
199.5502657921263
 30
0.0
  0
VERTEX
  5
1A6
330
187
100
AcDbEntity
  8
GRAU_10_
 62
     7
100
AcDbVertex
100
AcDb2dVertex
 10
47.14733749906386
 20
199.4860147613264
 30
0.0
  0
VERTEX
  5
1A7
330
187
100
AcDbEntity
  8
GRAU_10_
 62
     7
100
AcDbVertex
100
AcDb2dVertex
 10
47.21796195651148
 20
199.421419220978
 30
0.0
  0
VERTEX
  5
1A8
330
187
100
AcDbEntity
  8
GRAU_10_
 62
     7
100
AcDbVertex
100
AcDb2dVertex
 10
47.28910317828189
 20
199.3568236806296
 30
0.0
  0
VERTEX
  5
1A9
330
187
100
AcDbEntity
  8
GRAU_10_
 62
     7
100
AcDbVertex
100
AcDb2dVertex
 10
47.84273002276154
 20
198.8410928864876
 30
0.0
  0
VERTEX
  5
1AA
330
187
100
AcDbEntity
  8
GRAU_10_
 62
     7
100
AcDbVertex
100
AcDb2dVertex
 10
48.37430825613559
 20
198.3270846400884
 30
0.0
  0
VERTEX
  5
1AB
330
187
100
AcDbEntity
  8
GRAU_10_
 62
     7
100
AcDbVertex
100
AcDb2dVertex
 10
48.88401013317831
 20
197.8154879605288
 30
0.0
  0
VERTEX
  5
1AC
330
187
100
AcDbEntity
  8
GRAU_10_
 62
     7
100
AcDbVertex
100
AcDb2dVertex
 10
49.372696927761
 20
197.3078531407772
 30
0.0
  0
VERTEX
  5
1AD
330
187
100
AcDbEntity
  8
GRAU_10_
 62
     7
100
AcDbVertex
100
AcDb2dVertex
 10
49.83899060168956
 20
196.8055582190278
 30
0.0
  0
VERTEX
  5
1AE
330
187
100
AcDbEntity
  8
GRAU_10_
 62
     7
100
AcDbVertex
100
AcDb2dVertex
 10
50.2842691931581
 20
196.3094644691518
 30
0.0
  0
VERTEX
  5
1AF
330
187
100
AcDbEntity
  8
GRAU_10_
 62
     7
100
AcDbVertex
100
AcDb2dVertex
 10
50.39261744616921
 20
196.1868190698769
 30
0.0
  0
VERTEX
  5
1B0
330
187
100
AcDbEntity
  8
GRAU_10_
 62
     7
100
AcDbVertex
100
AcDb2dVertex
 10
50.49941540621195
 20
196.0643459253763
 30
0.0
  0
VERTEX
  5
1B1
330
187
100
AcDbEntity
  8
GRAU_10_
 62
     7
100
AcDbVertex
100
AcDb2dVertex
 10
50.55195311236201
 20
196.0033677352874
 30
0.0
  0
VERTEX
  5
1B2
330
187
100
AcDbEntity
  8
GRAU_10_
 62
     7
100
AcDbVertex
100
AcDb2dVertex
 10
50.60449081851208
 20
195.9423895451984
 30
0.0
  0
VERTEX
  5
1B3
330
187
100
AcDbEntity
  8
GRAU_10_
 62
     7
100
AcDbVertex
100
AcDb2dVertex
 10
50.65633950556509
 20
195.8815836098838
 30
0.0
  0
VERTEX
  5
1B4
330
187
100
AcDbEntity
  8
GRAU_10_
 62
     7
100
AcDbVertex
100
AcDb2dVertex
 10
50.70836044739236
 20
195.8212944388919
 30
0.0
  0
VERTEX
  5
1B5
330
187
100
AcDbEntity
  8
GRAU_10_
 62
     7
100
AcDbVertex
100
AcDb2dVertex
 10
50.91075980715078
 20
195.5828938313126
 30
0.0
  0
VERTEX
  5
1B6
330
187
100
AcDbEntity
  8
GRAU_10_
 62
     7
100
AcDbVertex
100
AcDb2dVertex
 10
51.10592446639019
 20
195.3489718478642
 30
0.0
  0
VERTEX
  5
1B7
330
187
100
AcDbEntity
  8
GRAU_10_
 62
     7
100
AcDbVertex
100
AcDb2dVertex
 10
51.47489419286045
 20
194.8966308106509
 30
0.0
  0
VERTEX
  5
1B8
330
187
100
AcDbEntity
  8
GRAU_10_
 62
     7
100
AcDbVertex
100
AcDb2dVertex
 10
51.81664766499723
 20
194.4653048558976
 30
0.0
  0
VERTEX
  5
1B9
330
187
100
AcDbEntity
  8
GRAU_10_
 62
     7
100
AcDbVertex
100
AcDb2dVertex
 10
52.13204615667185
 20
194.0570610408955
 30
0.0
  0
VERTEX
  5
1BA
330
187
100
AcDbEntity
  8
GRAU_10_
 62
     7
100
AcDbVertex
100
AcDb2dVertex
 10
52.42108966788431
 20
193.6722438751931
 30
0.0
  0
VERTEX
  5
1BB
330
187
100
AcDbEntity
  8
GRAU_10_
 62
     7
100
AcDbVertex
100
AcDb2dVertex
 10
52.55544839180906
 20
193.4898260692491
 30
0.0
  0
VERTEX
  5
1BC
330
187
100
AcDbEntity
  8
GRAU_10_
 62
     7
100
AcDbVertex
100
AcDb2dVertex
 10
52.68412270818314
 20
193.3134371804043
 30
0.0
  0
VERTEX
  5
1BD
330
187
100
AcDbEntity
  8
GRAU_10_
 62
     7
100
AcDbVertex
100
AcDb2dVertex
 10
52.74596217214337
 20
193.2279988123701
 30
0.0
  0
VERTEX
  5
1BE
330
187
100
AcDbEntity
  8
GRAU_10_
 62
     7
100
AcDbVertex
100
AcDb2dVertex
 10
52.80556232403819
 20
193.1447997564013
 30
0.0
  0
VERTEX
  5
1BF
330
187
100
AcDbEntity
  8
GRAU_10_
 62
     7
100
AcDbVertex
100
AcDb2dVertex
 10
52.83519014521134
 20
193.1031141010298
 30
0.0
  0
VERTEX
  5
1C0
330
187
100
AcDbEntity
  8
GRAU_10_
 62
     7
100
AcDbVertex
100
AcDb2dVertex
 10
52.86412894728744
 20
193.0626342290781
 30
0.0
  0
VERTEX
  5
1C1
330
187
100
AcDbEntity
  8
GRAU_10_
 62
     7
100
AcDbVertex
100
AcDb2dVertex
 10
52.89341225891206
 20
193.0219821023522
 30
0.0
  0
VERTEX
  5
1C2
330
187
100
AcDbEntity
  8
GRAU_10_
 62
     7
100
AcDbVertex
100
AcDb2dVertex
 10
52.92166204189112
 20
192.9821912494975
 30
0.0
  0
VERTEX
  5
1C3
330
187
100
AcDbEntity
  8
GRAU_10_
 62
     7
100
AcDbVertex
100
AcDb2dVertex
 10
53.13009031874873
 20
192.6850517638947
 30
0.0
  0
VERTEX
  5
1C4
330
187
100
AcDbEntity
  8
GRAU_10_
 62
     7
100
AcDbVertex
100
AcDb2dVertex
 10
53.31009655785304
 20
192.4247747999841
 30
0.0
  0
VERTEX
  5
1C5
330
187
100
AcDbEntity
  8
GRAU_10_
 62
     7
100
AcDbVertex
100
AcDb2dVertex
 10
53.46168075920403
 20
192.2018771220884
 30
0.0
  0
VERTEX
  5
1C6
330
187
100
AcDbEntity
  8
GRAU_10_
 62
     7
100
AcDbVertex
100
AcDb2dVertex
 10
53.58553194189876
 20
192.0168754945305
 30
0.0
  0
VERTEX
  5
1C7
330
187
100
AcDbEntity
  8
GRAU_10_
 62
     7
100
AcDbVertex
100
AcDb2dVertex
 10
53.63738062895177
 20
191.9390163365639
 30
0.0
  0
VERTEX
  5
1C8
330
187
100
AcDbEntity
  8
GRAU_10_
 62
     7
100
AcDbVertex
100
AcDb2dVertex
 10
53.68285588935706
 20
191.8701144268589
 30
0.0
  0
VERTEX
  5
1C9
330
187
100
AcDbEntity
  8
GRAU_10_
 62
     7
100
AcDbVertex
100
AcDb2dVertex
 10
53.70266518839725
 20
191.8397975865887
 30
0.0
  0
VERTEX
  5
1CA
330
187
100
AcDbEntity
  8
GRAU_10_
 62
     7
100
AcDbVertex
100
AcDb2dVertex
 10
53.72057968492055
 20
191.8124090774809
 30
0.0
  0
VERTEX
  5
1CB
330
187
100
AcDbEntity
  8
GRAU_10_
 62
     7
100
AcDbVertex
100
AcDb2dVertex
 10
53.72919242363368
 20
191.7989732050885
 30
0.0
  0
VERTEX
  5
1CC
330
187
100
AcDbEntity
  8
GRAU_10_
 62
     7
100
AcDbVertex
100
AcDb2dVertex
 10
53.73728839802401
 20
191.7869153708901
 30
0.0
  0
VERTEX
  5
1CD
330
187
100
AcDbEntity
  8
GRAU_10_
 62
     7
100
AcDbVertex
100
AcDb2dVertex
 10
53.74503986286582
 20
191.7753743010145
 30
0.0
  0
VERTEX
  5
1CE
330
187
100
AcDbEntity
  8
GRAU_10_
 62
     7
100
AcDbVertex
100
AcDb2dVertex
 10
53.75279132770764
 20
191.7643499954617
 30
0.0
  0
VERTEX
  5
1CF
330
187
100
AcDbEntity
  8
GRAU_10_
 62
     7
100
AcDbVertex
100
AcDb2dVertex
 10
53.7943047283049
 20
191.6997544551133
 30
0.0
  0
VERTEX
  5
1D0
330
187
100
AcDbEntity
  8
GRAU_10_
 62
     7
100
AcDbVertex
100
AcDb2dVertex
 10
53.80842961979442
 20
191.678567117879
 30
0.0
  0
SEQEND
  5
1D1
330
187
100
AcDbEntity
  8
GRAU_10_
  0
POLYLINE
  5
1D2
330
1F
100
AcDbEntity
  8
GRAU_10_
 62
     7
100
AcDb2dPolyline
 66
     1
 10
0.0
 20
0.0
 30
0.0
  0
VERTEX
  5
1D3
330
1D2
100
AcDbEntity
  8
GRAU_10_
 62
     7
100
AcDbVertex
100
AcDb2dVertex
 10
58.14304875933577
 20
149.5743326448981
 30
0.0
  0
VERTEX
  5
1D4
330
1D2
100
AcDbEntity
  8
GRAU_10_
 62
     7
100
AcDbVertex
100
AcDb2dVertex
 10
53.14318168159268
 20
149.5743326448981
 30
0.0
  0
SEQEND
  5
1D5
330
1D2
100
AcDbEntity
  8
GRAU_10_
  0
POLYLINE
  5
1D6
330
1F
100
AcDbEntity
  8
GRAU_10_
 62
     7
100
AcDb2dPolyline
 66
     1
 10
0.0
 20
0.0
 30
0.0
  0
VERTEX
  5
1D7
330
1D6
100
AcDbEntity
  8
GRAU_10_
 62
     7
100
AcDbVertex
100
AcDb2dVertex
 10
41.91113687103263
 20
117.5742187206065
 30
0.0
  0
VERTEX
  5
1D8
330
1D6
100
AcDbEntity
  8
GRAU_10_
 62
     7
100
AcDbVertex
100
AcDb2dVertex
 10
58.14304875933577
 20
117.5742187206065
 30
0.0
  0
SEQEND
  5
1D9
330
1D6
100
AcDbEntity
  8
GRAU_10_
  0
POLYLINE
  5
1DA
330
1F
100
AcDbEntity
  8
GRAU_10_
 62
     7
100
AcDb2dPolyline
 66
     1
 10
0.0
 20
0.0
 30
0.0
  0
VERTEX
  5
1DB
330
1DA
100
AcDbEntity
  8
GRAU_10_
 62
     7
100
AcDbVertex
100
AcDb2dVertex
 10
41.91113687103263
 20
149.5743326448981
 30
0.0
  0
VERTEX
  5
1DC
330
1DA
100
AcDbEntity
  8
GRAU_10_
 62
     7
100
AcDbVertex
100
AcDb2dVertex
 10
53.14318168159268
 20
149.5743326448981
 30
0.0
  0
SEQEND
  5
1DD
330
1DA
100
AcDbEntity
  8
GRAU_10_
  0
POLYLINE
  5
1DE
330
1F
100
AcDbEntity
  8
GRAU_10_
 62
     7
100
AcDb2dPolyline
 66
     1
 10
0.0
 20
0.0
 30
0.0
  0
VERTEX
  5
1DF
330
1DE
100
AcDbEntity
  8
GRAU_10_
 62
     7
100
AcDbVertex
100
AcDb2dVertex
 10
38.77730576287512
 20
149.5743326448981
 30
0.0
  0
VERTEX
  5
1E0
330
1DE
100
AcDbEntity
  8
GRAU_10_
 62
     7
100
AcDbVertex
100
AcDb2dVertex
 10
41.91113687103263
 20
149.5743326448981
 30
0.0
  0
SEQEND
  5
1E1
330
1DE
100
AcDbEntity
  8
GRAU_10_
  0
POLYLINE
  5
1E2
330
1F
100
AcDbEntity
  8
GRAU_10_
 62
     7
100
AcDb2dPolyline
 66
     1
 10
0.0
 20
0.0
 30
0.0
  0
VERTEX
  5
1E3
330
1E2
100
AcDbEntity
  8
GRAU_10_
 62
     7
100
AcDbVertex
100
AcDb2dVertex
 10
40.95012748542219
 20
117.9812567521887
 30
0.0
  0
VERTEX
  5
1E4
330
1E2
100
AcDbEntity
  8
GRAU_10_
 62
     7
100
AcDbVertex
100
AcDb2dVertex
 10
40.95012748542219
 20
133.5744479375265
 30
0.0
  0
VERTEX
  5
1E5
330
1E2
100
AcDbEntity
  8
GRAU_10_
 62
     7
100
AcDbVertex
100
AcDb2dVertex
 10
38.77730576287512
 20
133.5744479375265
 30
0.0
  0
SEQEND
  5
1E6
330
1E2
100
AcDbEntity
  8
GRAU_10_
  0
POLYLINE
  5
1E7
330
1F
100
AcDbEntity
  8
GRAU_10_
 62
     7
100
AcDb2dPolyline
 66
     1
 10
0.0
 20
0.0
 30
0.0
  0
VERTEX
  5
1E8
330
1E7
100
AcDbEntity
  8
GRAU_10_
 62
     7
100
AcDbVertex
100
AcDb2dVertex
 10
73.03171791793999
 20
143.4930500943351
 30
0.0
  0
VERTEX
  5
1E9
330
1E7
100
AcDbEntity
  8
GRAU_10_
 62
     7
100
AcDbVertex
100
AcDb2dVertex
 10
58.14304875933577
 20
143.867704228356
 30
0.0
  0
SEQEND
  5
1EA
330
1E7
100
AcDbEntity
  8
GRAU_10_
  0
POLYLINE
  5
1EB
330
1F
100
AcDbEntity
  8
GRAU_10_
 62
     7
100
AcDb2dPolyline
 66
     1
 10
0.0
 20
0.0
 30
0.0
  0
VERTEX
  5
1EC
330
1EB
100
AcDbEntity
  8
GRAU_10_
 62
     7
100
AcDbVertex
100
AcDb2dVertex
 10
58.14304875933577
 20
121.8745591600696
 30
0.0
  0
VERTEX
  5
1ED
330
1EB
100
AcDbEntity
  8
GRAU_10_
 62
     7
100
AcDbVertex
100
AcDb2dVertex
 10
76.14384492454043
 20
122.3263834329601
 30
0.0
  0
VERTEX
  5
1EE
330
1EB
100
AcDbEntity
  8
GRAU_10_
 62
     7
100
AcDbVertex
100
AcDb2dVertex
 10
77.14292261526289
 20
122.9377156268177
 30
0.0
  0
SEQEND
  5
1EF
330
1EB
100
AcDbEntity
  8
GRAU_10_
  0
POLYLINE
  5
1F0
330
1F
100
AcDbEntity
  8
GRAU_10_
 62
     7
100
AcDb2dPolyline
 66
     1
 10
0.0
 20
0.0
 30
0.0
  0
VERTEX
  5
1F1
330
1F0
100
AcDbEntity
  8
GRAU_10_
 62
     7
100
AcDbVertex
100
AcDb2dVertex
 10
38.62038166352199
 20
140.7540269287872
 30
0.0
  0
VERTEX
  5
1F2
330
1F0
100
AcDbEntity
  8
GRAU_10_
 62
     7
100
AcDbVertex
100
AcDb2dVertex
 10
38.62038166352199
 20
133.5744479375265
 30
0.0
  0
SEQEND
  5
1F3
330
1F0
100
AcDbEntity
  8
GRAU_10_
  0
POLYLINE
  5
1F4
330
1F
100
AcDbEntity
  8
GRAU_10_
 62
     7
100
AcDb2dPolyline
 66
     1
 10
0.0
 20
0.0
 30
0.0
  0
VERTEX
  5
1F5
330
1F4
100
AcDbEntity
  8
GRAU_10_
 62
     7
100
AcDbVertex
100
AcDb2dVertex
 10
37.5980495782741
 20
140.7540269287872
 30
0.0
  0
VERTEX
  5
1F6
330
1F4
100
AcDbEntity
  8
GRAU_10_
 62
     7
100
AcDbVertex
100
AcDb2dVertex
 10
33.51957328806108
 20
140.7540269287872
 30
0.0
  0
SEQEND
  5
1F7
330
1F4
100
AcDbEntity
  8
GRAU_10_
  0
POLYLINE
  5
1F8
330
1F
100
AcDbEntity
  8
GRAU_10_
 62
     7
100
AcDb2dPolyline
 66
     1
 10
0.0
 20
0.0
 30
0.0
  0
VERTEX
  5
1F9
330
1F8
100
AcDbEntity
  8
GRAU_10_
 62
     7
100
AcDbVertex
100
AcDb2dVertex
 10
34.59771592017002
 20
149.5743326448981
 30
0.0
  0
VERTEX
  5
1FA
330
1F8
100
AcDbEntity
  8
GRAU_10_
 62
     7
100
AcDbVertex
100
AcDb2dVertex
 10
37.5980495782741
 20
149.5743326448981
 30
0.0
  0
SEQEND
  5
1FB
330
1F8
100
AcDbEntity
  8
GRAU_10_
  0
POLYLINE
  5
1FC
330
1F
100
AcDbEntity
  8
GRAU_10_
 62
     7
100
AcDb2dPolyline
 66
     1
 10
0.0
 20
0.0
 30
0.0
  0
VERTEX
  5
1FD
330
1FC
100
AcDbEntity
  8
GRAU_10_
 62
     7
100
AcDbVertex
100
AcDb2dVertex
 10
33.4432644230628
 20
146.8239406642489
 30
0.0
  0
VERTEX
  5
1FE
330
1FC
100
AcDbEntity
  8
GRAU_10_
 62
     7
100
AcDbVertex
100
AcDb2dVertex
 10
33.4432644230628
 20
140.7540269287872
 30
0.0
  0
SEQEND
  5
1FF
330
1FC
100
AcDbEntity
  8
GRAU_10_
  0
POLYLINE
  5
200
330
1F
100
AcDbEntity
  8
GRAU_10_
 62
     7
100
AcDb2dPolyline
 66
     1
 10
0.0
 20
0.0
 30
0.0
  0
VERTEX
  5
201
330
200
100
AcDbEntity
  8
GRAU_10_
 62
     7
100
AcDbVertex
100
AcDb2dVertex
 10
58.14304875933577
 20
149.5743326448981
 30
0.0
  0
VERTEX
  5
202
330
200
100
AcDbEntity
  8
GRAU_10_
 62
     7
100
AcDbVertex
100
AcDb2dVertex
 10
58.14304875933577
 20
149.4663289014355
 30
0.0
  0
VERTEX
  5
203
330
200
100
AcDbEntity
  8
GRAU_10_
 62
     7
100
AcDbVertex
100
AcDb2dVertex
 10
58.14304875933577
 20
149.1428344353706
 30
0.0
  0
VERTEX
  5
204
330
200
100
AcDbEntity
  8
GRAU_10_
 62
     7
100
AcDbVertex
100
AcDb2dVertex
 10
58.14304875933577
 20
148.6090168899311
 30
0.0
  0
VERTEX
  5
205
330
200
100
AcDbEntity
  8
GRAU_10_
 62
     7
100
AcDbVertex
100
AcDb2dVertex
 10
58.14304875933577
 20
147.8721109656362
 30
0.0
  0
VERTEX
  5
206
330
200
100
AcDbEntity
  8
GRAU_10_
 62
     7
100
AcDbVertex
100
AcDb2dVertex
 10
58.14304875933577
 20
146.9417629298444
 30
0.0
  0
VERTEX
  5
207
330
200
100
AcDbEntity
  8
GRAU_10_
 62
     7
100
AcDbVertex
100
AcDb2dVertex
 10
58.14304875933577
 20
145.8308918906256
 30
0.0
  0
VERTEX
  5
208
330
200
100
AcDbEntity
  8
GRAU_10_
 62
     7
100
AcDbVertex
100
AcDb2dVertex
 10
58.14304875933577
 20
144.5537949942435
 30
0.0
  0
VERTEX
  5
209
330
200
100
AcDbEntity
  8
GRAU_10_
 62
     7
100
AcDbVertex
100
AcDb2dVertex
 10
58.14304875933577
 20
143.1290757563184
 30
0.0
  0
VERTEX
  5
20A
330
200
100
AcDbEntity
  8
GRAU_10_
 62
     7
100
AcDbVertex
100
AcDb2dVertex
 10
58.14304875933577
 20
141.5739596542766
 30
0.0
  0
VERTEX
  5
20B
330
200
100
AcDbEntity
  8
GRAU_10_
 62
     7
100
AcDbVertex
100
AcDb2dVertex
 10
58.14304875933577
 20
139.9117010826436
 30
0.0
  0
VERTEX
  5
20C
330
200
100
AcDbEntity
  8
GRAU_10_
 62
     7
100
AcDbVertex
100
AcDb2dVertex
 10
58.14304875933577
 20
138.1633151238793
 30
0.0
  0
VERTEX
  5
20D
330
200
100
AcDbEntity
  8
GRAU_10_
 62
     7
100
AcDbVertex
100
AcDb2dVertex
 10
58.14304875933577
 20
136.3529174463805
 30
0.0
  0
VERTEX
  5
20E
330
200
100
AcDbEntity
  8
GRAU_10_
 62
     7
100
AcDbVertex
100
AcDb2dVertex
 10
58.14304875933577
 20
134.504623718544
 30
0.0
  0
VERTEX
  5
20F
330
200
100
AcDbEntity
  8
GRAU_10_
 62
     7
100
AcDbVertex
100
AcDb2dVertex
 10
58.14304875933577
 20
132.6440999017348
 30
0.0
  0
VERTEX
  5
210
330
200
100
AcDbEntity
  8
GRAU_10_
 62
     7
100
AcDbVertex
100
AcDb2dVertex
 10
58.14304875933577
 20
130.7954616643497
 30
0.0
  0
VERTEX
  5
211
330
200
100
AcDbEntity
  8
GRAU_10_
 62
     7
100
AcDbVertex
100
AcDb2dVertex
 10
58.14304875933577
 20
128.985063986851
 30
0.0
  0
VERTEX
  5
212
330
200
100
AcDbEntity
  8
GRAU_10_
 62
     7
100
AcDbVertex
100
AcDb2dVertex
 10
58.14304875933577
 20
127.2370225376352
 30
0.0
  0
VERTEX
  5
213
330
200
100
AcDbEntity
  8
GRAU_10_
 62
     7
100
AcDbVertex
100
AcDb2dVertex
 10
58.14304875933577
 20
125.5744194564536
 30
0.0
  0
VERTEX
  5
214
330
200
100
AcDbEntity
  8
GRAU_10_
 62
     7
100
AcDbVertex
100
AcDb2dVertex
 10
58.14304875933577
 20
124.0196478639604
 30
0.0
  0
VERTEX
  5
215
330
200
100
AcDbEntity
  8
GRAU_10_
 62
     7
100
AcDbVertex
100
AcDb2dVertex
 10
58.14304875933577
 20
122.5945841164868
 30
0.0
  0
VERTEX
  5
216
330
200
100
AcDbEntity
  8
GRAU_10_
 62
     7
100
AcDbVertex
100
AcDb2dVertex
 10
58.14304875933577
 20
121.3174872201047
 30
0.0
  0
VERTEX
  5
217
330
200
100
AcDbEntity
  8
GRAU_10_
 62
     7
100
AcDbVertex
100
AcDb2dVertex
 10
58.14304875933577
 20
120.2062716713373
 30
0.0
  0
VERTEX
  5
218
330
200
100
AcDbEntity
  8
GRAU_10_
 62
     7
100
AcDbVertex
100
AcDb2dVertex
 10
58.14304875933577
 20
119.2759236355456
 30
0.0
  0
VERTEX
  5
219
330
200
100
AcDbEntity
  8
GRAU_10_
 62
     7
100
AcDbVertex
100
AcDb2dVertex
 10
58.14304875933577
 20
118.5390177112507
 30
0.0
  0
VERTEX
  5
21A
330
200
100
AcDbEntity
  8
GRAU_10_
 62
     7
100
AcDbVertex
100
AcDb2dVertex
 10
58.14304875933577
 20
118.0055446753597
 30
0.0
  0
VERTEX
  5
21B
330
200
100
AcDbEntity
  8
GRAU_10_
 62
     7
100
AcDbVertex
100
AcDb2dVertex
 10
58.14304875933577
 20
117.6823947188433
 30
0.0
  0
VERTEX
  5
21C
330
200
100
AcDbEntity
  8
GRAU_10_
 62
     7
100
AcDbVertex
100
AcDb2dVertex
 10
58.14304875933577
 20
117.5742187206065
 30
0.0
  0
SEQEND
  5
21D
330
200
100
AcDbEntity
  8
GRAU_10_
  0
POLYLINE
  5
21E
330
1F
100
AcDbEntity
  8
GRAU_10_
 62
     7
100
AcDb2dPolyline
 66
     1
 10
0.0
 20
0.0
 30
0.0
  0
VERTEX
  5
21F
330
21E
100
AcDbEntity
  8
GRAU_10_
 62
     7
100
AcDbVertex
100
AcDb2dVertex
 10
76.14384492454043
 20
136.1990939329641
 30
0.0
  0
VERTEX
  5
220
330
21E
100
AcDbEntity
  8
GRAU_10_
 62
     7
100
AcDbVertex
100
AcDb2dVertex
 10
76.14384492454043
 20
137.4463907533988
 30
0.0
  0
VERTEX
  5
221
330
21E
100
AcDbEntity
  8
GRAU_10_
 62
     7
100
AcDbVertex
100
AcDb2dVertex
 10
76.14384492454043
 20
138.6389105556181
 30
0.0
  0
VERTEX
  5
222
330
21E
100
AcDbEntity
  8
GRAU_10_
 62
     7
100
AcDbVertex
100
AcDb2dVertex
 10
76.14384492454043
 20
139.724287888246
 30
0.0
  0
VERTEX
  5
223
330
21E
100
AcDbEntity
  8
GRAU_10_
 62
     7
100
AcDbVertex
100
AcDb2dVertex
 10
76.14384492454043
 20
140.6563584717804
 30
0.0
  0
VERTEX
  5
224
330
21E
100
AcDbEntity
  8
GRAU_10_
 62
     7
100
AcDbVertex
100
AcDb2dVertex
 10
76.14384492454043
 20
141.3932643960753
 30
0.0
  0
SEQEND
  5
225
330
21E
100
AcDbEntity
  8
GRAU_10_
  0
POLYLINE
  5
226
330
1F
100
AcDbEntity
  8
GRAU_10_
 62
     7
100
AcDb2dPolyline
 66
     1
 10
0.0
 20
0.0
 30
0.0
  0
VERTEX
  5
227
330
226
100
AcDbEntity
  8
GRAU_10_
 62
     7
100
AcDbVertex
100
AcDb2dVertex
 10
76.14384492454043
 20
123.1296074453461
 30
0.0
  0
VERTEX
  5
228
330
226
100
AcDbEntity
  8
GRAU_10_
 62
     7
100
AcDbVertex
100
AcDb2dVertex
 10
76.14384492454043
 20
124.0945786907645
 30
0.0
  0
VERTEX
  5
229
330
226
100
AcDbEntity
  8
GRAU_10_
 62
     7
100
AcDbVertex
100
AcDb2dVertex
 10
76.14384492454043
 20
125.2223306978611
 30
0.0
  0
VERTEX
  5
22A
330
226
100
AcDbEntity
  8
GRAU_10_
 62
     7
100
AcDbVertex
100
AcDb2dVertex
 10
76.14384492454043
 20
126.4987385751461
 30
0.0
  0
VERTEX
  5
22B
330
226
100
AcDbEntity
  8
GRAU_10_
 62
     7
100
AcDbVertex
100
AcDb2dVertex
 10
76.14384492454043
 20
127.906232335645
 30
0.0
  0
VERTEX
  5
22C
330
226
100
AcDbEntity
  8
GRAU_10_
 62
     7
100
AcDbVertex
100
AcDb2dVertex
 10
76.14384492454043
 20
129.426036208963
 30
0.0
  0
VERTEX
  5
22D
330
226
100
AcDbEntity
  8
GRAU_10_
 62
     7
100
AcDbVertex
100
AcDb2dVertex
 10
76.14384492454043
 20
131.0378241317371
 30
0.0
  0
VERTEX
  5
22E
330
226
100
AcDbEntity
  8
GRAU_10_
 62
     7
100
AcDbVertex
100
AcDb2dVertex
 10
76.14384492454043
 20
132.7188584737647
 30
0.0
  0
VERTEX
  5
22F
330
226
100
AcDbEntity
  8
GRAU_10_
 62
     7
100
AcDbVertex
100
AcDb2dVertex
 10
76.14384492454043
 20
134.4470906239403
 30
0.0
  0
VERTEX
  5
230
330
226
100
AcDbEntity
  8
GRAU_10_
 62
     7
100
AcDbVertex
100
AcDb2dVertex
 10
76.14384492454043
 20
136.1990939329641
 30
0.0
  0
SEQEND
  5
231
330
226
100
AcDbEntity
  8
GRAU_10_
  0
POLYLINE
  5
232
330
1F
100
AcDbEntity
  8
GRAU_10_
 62
     7
100
AcDb2dPolyline
 66
     1
 10
0.0
 20
0.0
 30
0.0
  0
VERTEX
  5
233
330
232
100
AcDbEntity
  8
GRAU_10_
 62
     7
100
AcDbVertex
100
AcDb2dVertex
 10
77.14292261526289
 20
136.1990939329641
 30
0.0
  0
VERTEX
  5
234
330
232
100
AcDbEntity
  8
GRAU_10_
 62
     7
100
AcDbVertex
100
AcDb2dVertex
 10
77.14292261526289
 20
134.3087700402075
 30
0.0
  0
VERTEX
  5
235
330
232
100
AcDbEntity
  8
GRAU_10_
 62
     7
100
AcDbVertex
100
AcDb2dVertex
 10
77.14292261526289
 20
132.4518635736579
 30
0.0
  0
VERTEX
  5
236
330
232
100
AcDbEntity
  8
GRAU_10_
 62
     7
100
AcDbVertex
100
AcDb2dVertex
 10
77.14292261526289
 20
130.6583468640368
 30
0.0
  0
VERTEX
  5
237
330
232
100
AcDbEntity
  8
GRAU_10_
 62
     7
100
AcDbVertex
100
AcDb2dVertex
 10
77.14292261526289
 20
128.9590535159373
 30
0.0
  0
VERTEX
  5
238
330
232
100
AcDbEntity
  8
GRAU_10_
 62
     7
100
AcDbVertex
100
AcDb2dVertex
 10
77.14292261526289
 20
127.3841281148554
 30
0.0
  0
VERTEX
  5
239
330
232
100
AcDbEntity
  8
GRAU_10_
 62
     7
100
AcDbVertex
100
AcDb2dVertex
 10
77.14292261526289
 20
125.9604424055759
 30
0.0
  0
VERTEX
  5
23A
330
232
100
AcDbEntity
  8
GRAU_10_
 62
     7
100
AcDbVertex
100
AcDb2dVertex
 10
77.14292261526289
 20
124.7119398017213
 30
0.0
  0
VERTEX
  5
23B
330
232
100
AcDbEntity
  8
GRAU_10_
 62
     7
100
AcDbVertex
100
AcDb2dVertex
 10
77.14292261526289
 20
123.6596353857518
 30
0.0
  0
SEQEND
  5
23C
330
232
100
AcDbEntity
  8
GRAU_10_
  0
POLYLINE
  5
23D
330
1F
100
AcDbEntity
  8
GRAU_10_
 62
     7
100
AcDb2dPolyline
 66
     1
 10
0.0
 20
0.0
 30
0.0
  0
VERTEX
  5
23E
330
23D
100
AcDbEntity
  8
GRAU_10_
 62
     7
100
AcDbVertex
100
AcDb2dVertex
 10
77.14292261526289
 20
140.8640977295409
 30
0.0
  0
VERTEX
  5
23F
330
23D
100
AcDbEntity
  8
GRAU_10_
 62
     7
100
AcDbVertex
100
AcDb2dVertex
 10
77.14292261526289
 20
140.2019503772759
 30
0.0
  0
VERTEX
  5
240
330
23D
100
AcDbEntity
  8
GRAU_10_
 62
     7
100
AcDbVertex
100
AcDb2dVertex
 10
77.14292261526289
 20
139.3654811934572
 30
0.0
  0
VERTEX
  5
241
330
23D
100
AcDbEntity
  8
GRAU_10_
 62
     7
100
AcDbVertex
100
AcDb2dVertex
 10
77.14292261526289
 20
138.3898301520345
 30
0.0
  0
VERTEX
  5
242
330
23D
100
AcDbEntity
  8
GRAU_10_
 62
     7
100
AcDbVertex
100
AcDb2dVertex
 10
77.14292261526289
 20
137.3194389847674
 30
0.0
  0
VERTEX
  5
243
330
23D
100
AcDbEntity
  8
GRAU_10_
 62
     7
100
AcDbVertex
100
AcDb2dVertex
 10
77.14292261526289
 20
136.1990939329641
 30
0.0
  0
SEQEND
  5
244
330
23D
100
AcDbEntity
  8
GRAU_10_
  0
POLYLINE
  5
245
330
1F
100
AcDbEntity
  8
GRAU_10_
 62
     7
100
AcDb2dPolyline
 66
     1
 10
0.0
 20
0.0
 30
0.0
  0
VERTEX
  5
246
330
245
100
AcDbEntity
  8
GRAU_10_
 62
     7
100
AcDbVertex
100
AcDb2dVertex
 10
76.14384492454043
 20
141.3932643960753
 30
0.0
  0
VERTEX
  5
247
330
245
100
AcDbEntity
  8
GRAU_10_
 62
     7
100
AcDbVertex
100
AcDb2dVertex
 10
76.14384492454043
 20
142.2700411970714
 30
0.0
  0
VERTEX
  5
248
330
245
100
AcDbEntity
  8
GRAU_10_
 62
     7
100
AcDbVertex
100
AcDb2dVertex
 10
76.14384492454043
 20
142.9053168045515
 30
0.0
  0
VERTEX
  5
249
330
245
100
AcDbEntity
  8
GRAU_10_
 62
     7
100
AcDbVertex
100
AcDb2dVertex
 10
76.14384492454043
 20
143.2894449511568
 30
0.0
  0
SEQEND
  5
24A
330
245
100
AcDbEntity
  8
GRAU_10_
  0
POLYLINE
  5
24B
330
1F
100
AcDbEntity
  8
GRAU_10_
 62
     7
100
AcDb2dPolyline
 66
     1
 10
0.0
 20
0.0
 30
0.0
  0
VERTEX
  5
24C
330
24B
100
AcDbEntity
  8
GRAU_10_
 62
     7
100
AcDbVertex
100
AcDb2dVertex
 10
77.14292261526289
 20
142.7652736730761
 30
0.0
  0
VERTEX
  5
24D
330
24B
100
AcDbEntity
  8
GRAU_10_
 62
     7
100
AcDbVertex
100
AcDb2dVertex
 10
77.14292261526289
 20
142.4450520477221
 30
0.0
  0
VERTEX
  5
24E
330
24B
100
AcDbEntity
  8
GRAU_10_
 62
     7
100
AcDbVertex
100
AcDb2dVertex
 10
77.14292261526289
 20
141.806503599531
 30
0.0
  0
VERTEX
  5
24F
330
24B
100
AcDbEntity
  8
GRAU_10_
 62
     7
100
AcDbVertex
100
AcDb2dVertex
 10
77.14292261526289
 20
140.8640977295409
 30
0.0
  0
SEQEND
  5
250
330
24B
100
AcDbEntity
  8
GRAU_10_
  0
POLYLINE
  5
251
330
1F
100
AcDbEntity
  8
GRAU_10_
 62
     7
100
AcDb2dPolyline
 66
     1
 10
0.0
 20
0.0
 30
0.0
  0
VERTEX
  5
252
330
251
100
AcDbEntity
  8
GRAU_10_
 62
     7
100
AcDbVertex
100
AcDb2dVertex
 10
76.14384492454043
 20
122.3263834329601
 30
0.0
  0
VERTEX
  5
253
330
251
100
AcDbEntity
  8
GRAU_10_
 62
     7
100
AcDbVertex
100
AcDb2dVertex
 10
76.14384492454043
 20
122.5306775952354
 30
0.0
  0
VERTEX
  5
254
330
251
100
AcDbEntity
  8
GRAU_10_
 62
     7
100
AcDbVertex
100
AcDb2dVertex
 10
76.14384492454043
 20
123.1296074453461
 30
0.0
  0
SEQEND
  5
255
330
251
100
AcDbEntity
  8
GRAU_10_
  0
POLYLINE
  5
256
330
1F
100
AcDbEntity
  8
GRAU_10_
 62
     7
100
AcDb2dPolyline
 66
     1
 10
0.0
 20
0.0
 30
0.0
  0
VERTEX
  5
257
330
256
100
AcDbEntity
  8
GRAU_10_
 62
     7
100
AcDbVertex
100
AcDb2dVertex
 10
77.14292261526289
 20
123.6596353857518
 30
0.0
  0
VERTEX
  5
258
330
256
100
AcDbEntity
  8
GRAU_10_
 62
     7
100
AcDbVertex
100
AcDb2dVertex
 10
77.14292261526289
 20
123.1208224518587
 30
0.0
  0
VERTEX
  5
259
330
256
100
AcDbEntity
  8
GRAU_10_
 62
     7
100
AcDbVertex
100
AcDb2dVertex
 10
77.14292261526289
 20
122.9377156268177
 30
0.0
  0
SEQEND
  5
25A
330
256
100
AcDbEntity
  8
GRAU_10_
  0
POLYLINE
  5
25B
330
1F
100
AcDbEntity
  8
GRAU_10_
 62
     7
100
AcDb2dPolyline
 66
     1
 10
0.0
 20
0.0
 30
0.0
  0
VERTEX
  5
25C
330
25B
100
AcDbEntity
  8
GRAU_10_
 62
     7
100
AcDbVertex
100
AcDb2dVertex
 10
38.62038166352199
 20
140.7540269287872
 30
0.0
  0
VERTEX
  5
25D
330
25B
100
AcDbEntity
  8
GRAU_10_
 62
     7
100
AcDbVertex
100
AcDb2dVertex
 10
38.17510307205345
 20
140.7540269287872
 30
0.0
  0
VERTEX
  5
25E
330
25B
100
AcDbEntity
  8
GRAU_10_
 62
     7
100
AcDbVertex
100
AcDb2dVertex
 10
37.5980495782741
 20
140.7540269287872
 30
0.0
  0
SEQEND
  5
25F
330
25B
100
AcDbEntity
  8
GRAU_10_
  0
POLYLINE
  5
260
330
1F
100
AcDbEntity
  8
GRAU_10_
 62
     7
100
AcDb2dPolyline
 66
     1
 10
0.0
 20
0.0
 30
0.0
  0
VERTEX
  5
261
330
260
100
AcDbEntity
  8
GRAU_10_
 62
     7
100
AcDbVertex
100
AcDb2dVertex
 10
38.77730576287512
 20
133.5744479375265
 30
0.0
  0
VERTEX
  5
262
330
260
100
AcDbEntity
  8
GRAU_10_
 62
     7
100
AcDbVertex
100
AcDb2dVertex
 10
38.70254719084519
 20
133.5744479375265
 30
0.0
  0
VERTEX
  5
263
330
260
100
AcDbEntity
  8
GRAU_10_
 62
     7
100
AcDbVertex
100
AcDb2dVertex
 10
38.62038166352199
 20
133.5744479375265
 30
0.0
  0
SEQEND
  5
264
330
260
100
AcDbEntity
  8
GRAU_10_
  0
POLYLINE
  5
265
330
1F
100
AcDbEntity
  8
GRAU_10_
 62
     7
100
AcDb2dPolyline
 66
     1
 10
0.0
 20
0.0
 30
0.0
  0
VERTEX
  5
266
330
265
100
AcDbEntity
  8
GRAU_10_
 62
     7
100
AcDbVertex
100
AcDb2dVertex
 10
37.5980495782741
 20
149.5743326448981
 30
0.0
  0
VERTEX
  5
267
330
265
100
AcDbEntity
  8
GRAU_10_
 62
     7
100
AcDbVertex
100
AcDb2dVertex
 10
38.2887912230667
 20
149.5743326448981
 30
0.0
  0
VERTEX
  5
268
330
265
100
AcDbEntity
  8
GRAU_10_
 62
     7
100
AcDbVertex
100
AcDb2dVertex
 10
38.77730576287512
 20
149.5743326448981
 30
0.0
  0
SEQEND
  5
269
330
265
100
AcDbEntity
  8
GRAU_10_
  0
POLYLINE
  5
26A
330
1F
100
AcDbEntity
  8
GRAU_10_
 62
     7
100
AcDb2dPolyline
 66
     1
 10
0.0
 20
0.0
 30
0.0
  0
VERTEX
  5
26B
330
26A
100
AcDbEntity
  8
GRAU_10_
 62
     7
100
AcDbVertex
100
AcDb2dVertex
 10
33.51957328806108
 20
140.7540269287872
 30
0.0
  0
VERTEX
  5
26C
330
26A
100
AcDbEntity
  8
GRAU_10_
 62
     7
100
AcDbVertex
100
AcDb2dVertex
 10
33.46272921255446
 20
140.7540269287872
 30
0.0
  0
VERTEX
  5
26D
330
26A
100
AcDbEntity
  8
GRAU_10_
 62
     7
100
AcDbVertex
100
AcDb2dVertex
 10
33.4432644230628
 20
140.7540269287872
 30
0.0
  0
SEQEND
  5
26E
330
26A
100
AcDbEntity
  8
GRAU_10_
  0
POLYLINE
  5
26F
330
1F
100
AcDbEntity
  8
GRAU_10_
 62
     7
100
AcDb2dPolyline
 66
     1
 10
0.0
 20
0.0
 30
0.0
  0
VERTEX
  5
270
330
26F
100
AcDbEntity
  8
GRAU_10_
 62
     7
100
AcDbVertex
100
AcDb2dVertex
 10
41.91113687103263
 20
149.5743326448981
 30
0.0
  0
VERTEX
  5
271
330
26F
100
AcDbEntity
  8
GRAU_10_
 62
     7
100
AcDbVertex
100
AcDb2dVertex
 10
42.39155543645072
 20
149.4733913471803
 30
0.0
  0
VERTEX
  5
272
330
26F
100
AcDbEntity
  8
GRAU_10_
 62
     7
100
AcDbVertex
100
AcDb2dVertex
 10
42.8656005752211
 20
149.1724622565437
 30
0.0
  0
VERTEX
  5
273
330
26F
100
AcDbEntity
  8
GRAU_10_
 62
     7
100
AcDbVertex
100
AcDb2dVertex
 10
43.32776013456737
 20
148.6753349780221
 30
0.0
  0
VERTEX
  5
274
330
26F
100
AcDbEntity
  8
GRAU_10_
 62
     7
100
AcDbVertex
100
AcDb2dVertex
 10
43.77234970693886
 20
147.9882106834891
 30
0.0
  0
VERTEX
  5
275
330
26F
100
AcDbEntity
  8
GRAU_10_
 62
     7
100
AcDbVertex
100
AcDb2dVertex
 10
44.1928236109136
 20
147.1193576021091
 30
0.0
  0
VERTEX
  5
276
330
26F
100
AcDbEntity
  8
GRAU_10_
 62
     7
100
AcDbVertex
100
AcDb2dVertex
 10
44.58539224145782
 20
146.0803168037577
 30
0.0
  0
VERTEX
  5
277
330
26F
100
AcDbEntity
  8
GRAU_10_
 62
     7
100
AcDbVertex
100
AcDb2dVertex
 10
44.94350991714954
 20
144.8836628869562
 30
0.0
  0
VERTEX
  5
278
330
26F
100
AcDbEntity
  8
GRAU_10_
 62
     7
100
AcDbVertex
100
AcDb2dVertex
 10
45.26390379727778
 20
143.5445542718396
 30
0.0
  0
VERTEX
  5
279
330
26F
100
AcDbEntity
  8
GRAU_10_
 62
     7
100
AcDbVertex
100
AcDb2dVertex
 10
45.54226751248596
 20
142.0802164358341
 30
0.0
  0
VERTEX
  5
27A
330
26F
100
AcDbEntity
  8
GRAU_10_
 62
     7
100
AcDbVertex
100
AcDb2dVertex
 10
45.77463920296606
 20
140.5082193659146
 30
0.0
  0
VERTEX
  5
27B
330
26F
100
AcDbEntity
  8
GRAU_10_
 62
     7
100
AcDbVertex
100
AcDb2dVertex
 10
45.95843504710415
 20
138.8490613802183
 30
0.0
  0
VERTEX
  5
27C
330
26F
100
AcDbEntity
  8
GRAU_10_
 62
     7
100
AcDbVertex
100
AcDb2dVertex
 10
46.09141573283479
 20
137.1244465803022
 30
0.0
  0
VERTEX
  5
27D
330
26F
100
AcDbEntity
  8
GRAU_10_
 62
     7
100
AcDbVertex
100
AcDb2dVertex
 10
46.17151420286685
 20
135.3538397556581
 30
0.0
  0
VERTEX
  5
27E
330
26F
100
AcDbEntity
  8
GRAU_10_
 62
     7
100
AcDbVertex
100
AcDb2dVertex
 10
46.19838594765179
 20
133.5617010842311
 30
0.0
  0
VERTEX
  5
27F
330
26F
100
AcDbEntity
  8
GRAU_10_
 62
     7
100
AcDbVertex
100
AcDb2dVertex
 10
46.17116969331832
 20
131.7692179032556
 30
0.0
  0
VERTEX
  5
280
330
26F
100
AcDbEntity
  8
GRAU_10_
 62
     7
100
AcDbVertex
100
AcDb2dVertex
 10
46.09003769464069
 20
129.9999891168056
 30
0.0
  0
VERTEX
  5
281
330
26F
100
AcDbEntity
  8
GRAU_10_
 62
     7
100
AcDbVertex
100
AcDb2dVertex
 10
45.95602348026447
 20
128.2753743168895
 30
0.0
  0
VERTEX
  5
282
330
26F
100
AcDbEntity
  8
GRAU_10_
 62
     7
100
AcDbVertex
100
AcDb2dVertex
 10
45.77188312657786
 20
126.6172498598388
 30
0.0
  0
VERTEX
  5
283
330
26F
100
AcDbEntity
  8
GRAU_10_
 62
     7
100
AcDbVertex
100
AcDb2dVertex
 10
45.53865016222645
 20
125.0469753376619
 30
0.0
  0
VERTEX
  5
284
330
26F
100
AcDbEntity
  8
GRAU_10_
 62
     7
100
AcDbVertex
100
AcDb2dVertex
 10
45.25959742792121
 20
123.5840155398505
 30
0.0
  0
VERTEX
  5
285
330
26F
100
AcDbEntity
  8
GRAU_10_
 62
     7
100
AcDbVertex
100
AcDb2dVertex
 10
44.93937580256724
 20
122.2473184915736
 30
0.0
  0
VERTEX
  5
286
330
26F
100
AcDbEntity
  8
GRAU_10_
 62
     7
100
AcDbVertex
100
AcDb2dVertex
 10
44.58022459822995
 20
121.0525593772889
 30
0.0
  0
VERTEX
  5
287
330
26F
100
AcDbEntity
  8
GRAU_10_
 62
     7
100
AcDbVertex
100
AcDb2dVertex
 10
44.18713920336294
 20
120.0154133814545
 30
0.0
  0
VERTEX
  5
288
330
26F
100
AcDbEntity
  8
GRAU_10_
 62
     7
100
AcDbVertex
100
AcDb2dVertex
 10
43.76632078983967
 20
119.1496608860112
 30
0.0
  0
VERTEX
  5
289
330
26F
100
AcDbEntity
  8
GRAU_10_
 62
     7
100
AcDbVertex
100
AcDb2dVertex
 10
43.32104219837113
 20
118.4646036487693
 30
0.0
  0
VERTEX
  5
28A
330
26F
100
AcDbEntity
  8
GRAU_10_
 62
     7
100
AcDbVertex
100
AcDb2dVertex
 10
42.85905489379913
 20
117.9698879370874
 30
0.0
  0
VERTEX
  5
28B
330
26F
100
AcDbEntity
  8
GRAU_10_
 62
     7
100
AcDbVertex
100
AcDb2dVertex
 10
42.38483750025448
 20
117.6722316871618
 30
0.0
  0
VERTEX
  5
28C
330
26F
100
AcDbEntity
  8
GRAU_10_
 62
     7
100
AcDbVertex
100
AcDb2dVertex
 10
41.90476344438492
 20
117.5742187206065
 30
0.0
  0
VERTEX
  5
28D
330
26F
100
AcDbEntity
  8
GRAU_10_
 62
     7
100
AcDbVertex
100
AcDb2dVertex
 10
41.42417262419257
 20
117.6775715851639
 30
0.0
  0
VERTEX
  5
28E
330
26F
100
AcDbEntity
  8
GRAU_10_
 62
     7
100
AcDbVertex
100
AcDb2dVertex
 10
40.95012748542219
 20
117.9812567521887
 30
0.0
  0
SEQEND
  5
28F
330
26F
100
AcDbEntity
  8
GRAU_10_
  0
POLYLINE
  5
290
330
1F
100
AcDbEntity
  8
GRAU_10_
 62
     7
100
AcDb2dPolyline
 66
     1
 10
0.0
 20
0.0
 30
0.0
  0
VERTEX
  5
291
330
290
100
AcDbEntity
  8
GRAU_10_
 62
     7
100
AcDbVertex
100
AcDb2dVertex
 10
34.59771592017002
 20
149.5743326448981
 30
0.0
  0
VERTEX
  5
292
330
290
100
AcDbEntity
  8
GRAU_10_
 62
     7
100
AcDbVertex
100
AcDb2dVertex
 10
33.51957328806108
 20
147.2389024154472
 30
0.0
  0
SEQEND
  5
293
330
290
100
AcDbEntity
  8
GRAU_10_
  0
POLYLINE
  5
294
330
1F
100
AcDbEntity
  8
GRAU_10_
 62
     7
100
AcDb2dPolyline
 66
     1
 10
0.0
 20
0.0
 30
0.0
  0
VERTEX
  5
295
330
294
100
AcDbEntity
  8
GRAU_10_
 62
     7
100
AcDbVertex
100
AcDb2dVertex
 10
73.02396645309818
 20
143.4937391134321
 30
0.0
  0
VERTEX
  5
296
330
294
100
AcDbEntity
  8
GRAU_10_
 62
     7
100
AcDbVertex
100
AcDb2dVertex
 10
73.04584280942952
 20
143.4906385274954
 30
0.0
  0
VERTEX
  5
297
330
294
100
AcDbEntity
  8
GRAU_10_
 62
     7
100
AcDbVertex
100
AcDb2dVertex
 10
73.05703936975658
 20
143.4889159797528
 30
0.0
  0
VERTEX
  5
298
330
294
100
AcDbEntity
  8
GRAU_10_
 62
     7
100
AcDbVertex
100
AcDb2dVertex
 10
73.07150877079462
 20
143.4863321581389
 30
0.0
  0
VERTEX
  5
299
330
294
100
AcDbEntity
  8
GRAU_10_
 62
     7
100
AcDbVertex
100
AcDb2dVertex
 10
73.08012150950775
 20
143.4852986294933
 30
0.0
  0
VERTEX
  5
29A
330
294
100
AcDbEntity
  8
GRAU_10_
 62
     7
100
AcDbVertex
100
AcDb2dVertex
 10
73.08856199344662
 20
143.4846096103962
 30
0.0
  0
VERTEX
  5
29B
330
294
100
AcDbEntity
  8
GRAU_10_
 62
     7
100
AcDbVertex
100
AcDb2dVertex
 10
73.09769149648253
 20
143.4828870626536
 30
0.0
  0
VERTEX
  5
29C
330
294
100
AcDbEntity
  8
GRAU_10_
 62
     7
100
AcDbVertex
100
AcDb2dVertex
 10
73.10785452816401
 20
143.481853534008
 30
0.0
  0
VERTEX
  5
29D
330
294
100
AcDbEntity
  8
GRAU_10_
 62
     7
100
AcDbVertex
100
AcDb2dVertex
 10
73.1519517503752
 20
143.4751355978118
 30
0.0
  0
VERTEX
  5
29E
330
294
100
AcDbEntity
  8
GRAU_10_
 62
     7
100
AcDbVertex
100
AcDb2dVertex
 10
73.20276690878265
 20
143.4670396234214
 30
0.0
  0
VERTEX
  5
29F
330
294
100
AcDbEntity
  8
GRAU_10_
 62
     7
100
AcDbVertex
100
AcDb2dVertex
 10
73.26064451293485
 20
143.4580823751598
 30
0.0
  0
VERTEX
  5
2A0
330
294
100
AcDbEntity
  8
GRAU_10_
 62
     7
100
AcDbVertex
100
AcDb2dVertex
 10
73.32317299599212
 20
143.4482638530268
 30
0.0
  0
VERTEX
  5
2A1
330
294
100
AcDbEntity
  8
GRAU_10_
 62
     7
100
AcDbVertex
100
AcDb2dVertex
 10
73.38949108408319
 20
143.4377563117968
 30
0.0
  0
VERTEX
  5
2A2
330
294
100
AcDbEntity
  8
GRAU_10_
 62
     7
100
AcDbVertex
100
AcDb2dVertex
 10
73.4606323058536
 20
143.426042987147
 30
0.0
  0
VERTEX
  5
2A3
330
294
100
AcDbEntity
  8
GRAU_10_
 62
     7
100
AcDbVertex
100
AcDb2dVertex
 10
73.53556313265778
 20
143.4132961338515
 30
0.0
  0
VERTEX
  5
2A4
330
294
100
AcDbEntity
  8
GRAU_10_
 62
     7
100
AcDbVertex
100
AcDb2dVertex
 10
73.61238876197885
 20
143.3995157519105
 30
0.0
  0
VERTEX
  5
2A5
330
294
100
AcDbEntity
  8
GRAU_10_
 62
     7
100
AcDbVertex
100
AcDb2dVertex
 10
73.69214272246238
 20
143.3855631151953
 30
0.0
  0
VERTEX
  5
2A6
330
294
100
AcDbEntity
  8
GRAU_10_
 62
     7
100
AcDbVertex
100
AcDb2dVertex
 10
73.77430824978559
 20
143.3698879307374
 30
0.0
  0
VERTEX
  5
2A7
330
294
100
AcDbEntity
  8
GRAU_10_
 62
     7
100
AcDbVertex
100
AcDb2dVertex
 10
73.85819632485142
 20
143.3540404915053
 30
0.0
  0
VERTEX
  5
2A8
330
294
100
AcDbEntity
  8
GRAU_10_
 62
     7
100
AcDbVertex
100
AcDb2dVertex
 10
73.9432901833371
 20
143.3378485427246
 30
0.0
  0
VERTEX
  5
2A9
330
294
100
AcDbEntity
  8
GRAU_10_
 62
     7
100
AcDbVertex
100
AcDb2dVertex
 10
75.04330917177737
 20
143.3139051291021
 30
0.0
  0
VERTEX
  5
2AA
330
294
100
AcDbEntity
  8
GRAU_10_
 62
     7
100
AcDbVertex
100
AcDb2dVertex
 10
76.14384492454043
 20
143.2894449511568
 30
0.0
  0
VERTEX
  5
2AB
330
294
100
AcDbEntity
  8
GRAU_10_
 62
     7
100
AcDbVertex
100
AcDb2dVertex
 10
76.28216550827321
 20
143.2150308886754
 30
0.0
  0
VERTEX
  5
2AC
330
294
100
AcDbEntity
  8
GRAU_10_
 62
     7
100
AcDbVertex
100
AcDb2dVertex
 10
76.41841903471484
 20
143.1435451573565
 30
0.0
  0
VERTEX
  5
2AD
330
294
100
AcDbEntity
  8
GRAU_10_
 62
     7
100
AcDbVertex
100
AcDb2dVertex
 10
76.55071070134844
 20
143.0739542285544
 30
0.0
  0
VERTEX
  5
2AE
330
294
100
AcDbEntity
  8
GRAU_10_
 62
     7
100
AcDbVertex
100
AcDb2dVertex
 10
76.67869599862547
 20
143.0062581022693
 30
0.0
  0
VERTEX
  5
2AF
330
294
100
AcDbEntity
  8
GRAU_10_
 62
     7
100
AcDbVertex
100
AcDb2dVertex
 10
76.80289169086872
 20
142.9416625619209
 30
0.0
  0
VERTEX
  5
2B0
330
294
100
AcDbEntity
  8
GRAU_10_
 62
     7
100
AcDbVertex
100
AcDb2dVertex
 10
76.92209199465837
 20
142.8799953527349
 30
0.0
  0
VERTEX
  5
2B1
330
294
100
AcDbEntity
  8
GRAU_10_
 62
     7
100
AcDbVertex
100
AcDb2dVertex
 10
77.03612465522014
 20
142.8207397103886
 30
0.0
  0
VERTEX
  5
2B2
330
294
100
AcDbEntity
  8
GRAU_10_
 62
     7
100
AcDbVertex
100
AcDb2dVertex
 10
77.14292261526289
 20
142.7652736730761
 30
0.0
  0
SEQEND
  5
2B3
330
294
100
AcDbEntity
  8
GRAU_10_
  0
POLYLINE
  5
2B4
330
1F
100
AcDbEntity
  8
GRAU_10_
 62
     7
100
AcDb2dPolyline
 66
     1
 10
0.0
 20
0.0
 30
0.0
  0
VERTEX
  5
2B5
330
2B4
100
AcDbEntity
  8
GRAU_10_
 62
     7
100
AcDbVertex
100
AcDb2dVertex
 10
33.51957328806108
 20
147.2389024154472
 30
0.0
  0
VERTEX
  5
2B6
330
2B4
100
AcDbEntity
  8
GRAU_10_
 62
     7
100
AcDbVertex
100
AcDb2dVertex
 10
33.49907496992385
 20
147.1834363781347
 30
0.0
  0
VERTEX
  5
2B7
330
2B4
100
AcDbEntity
  8
GRAU_10_
 62
     7
100
AcDbVertex
100
AcDb2dVertex
 10
33.48219400204612
 20
147.1271090669509
 30
0.0
  0
VERTEX
  5
2B8
330
2B4
100
AcDbEntity
  8
GRAU_10_
 62
     7
100
AcDbVertex
100
AcDb2dVertex
 10
33.4680691105566
 20
147.0702649914442
 30
0.0
  0
VERTEX
  5
2B9
330
2B4
100
AcDbEntity
  8
GRAU_10_
 62
     7
100
AcDbVertex
100
AcDb2dVertex
 10
33.45773382410085
 20
147.0130764063891
 30
0.0
  0
VERTEX
  5
2BA
330
2B4
100
AcDbEntity
  8
GRAU_10_
 62
     7
100
AcDbVertex
100
AcDb2dVertex
 10
33.44998235925903
 20
146.9555433117854
 30
0.0
  0
VERTEX
  5
2BB
330
2B4
100
AcDbEntity
  8
GRAU_10_
 62
     7
100
AcDbVertex
100
AcDb2dVertex
 10
33.44515922557969
 20
146.8969766885362
 30
0.0
  0
VERTEX
  5
2BC
330
2B4
100
AcDbEntity
  8
GRAU_10_
 62
     7
100
AcDbVertex
100
AcDb2dVertex
 10
33.44395344215985
 20
146.8680378864601
 30
0.0
  0
VERTEX
  5
2BD
330
2B4
100
AcDbEntity
  8
GRAU_10_
 62
     7
100
AcDbVertex
100
AcDb2dVertex
 10
33.4432644230628
 20
146.8384100652869
 30
0.0
  0
VERTEX
  5
2BE
330
2B4
100
AcDbEntity
  8
GRAU_10_
 62
     7
100
AcDbVertex
100
AcDb2dVertex
 10
33.4432644230628
 20
146.8239406642489
 30
0.0
  0
SEQEND
  5
2BF
330
2B4
100
AcDbEntity
  8
GRAU_10_
  0
POLYLINE
  5
2C0
330
1F
100
AcDbEntity
  8
GRAU_10_
  6
AI-LINETYPE-5
 62
     7
100
AcDb2dPolyline
 66
     1
 10
0.0
 20
0.0
 30
0.0
  0
VERTEX
  5
2C1
330
2C0
100
AcDbEntity
  8
GRAU_10_
  6
AI-LINETYPE-5
 62
     7
100
AcDbVertex
100
AcDb2dVertex
 10
133.8951863272033
 20
186.1696871821902
 30
0.0
  0
VERTEX
  5
2C2
330
2C0
100
AcDbEntity
  8
GRAU_10_
  6
AI-LINETYPE-5
 62
     7
100
AcDbVertex
100
AcDb2dVertex
 10
137.8952866951269
 20
185.6785888207679
 30
0.0
  0
SEQEND
  5
2C3
330
2C0
100
AcDbEntity
  8
GRAU_10_
  6
AI-LINETYPE-5
  0
POLYLINE
  5
2C5
330
1F
100
AcDbEntity
  8
GRAU_10_
  6
AI-LINETYPE-6
 62
     7
100
AcDb2dPolyline
 66
     1
 10
0.0
 20
0.0
 30
0.0
  0
VERTEX
  5
2C6
330
2C5
100
AcDbEntity
  8
GRAU_10_
  6
AI-LINETYPE-6
 62
     7
100
AcDbVertex
100
AcDb2dVertex
 10
133.8951863272033
 20
186.642009773218
 30
0.0
  0
VERTEX
  5
2C7
330
2C5
100
AcDbEntity
  8
GRAU_10_
  6
AI-LINETYPE-6
 62
     7
100
AcDbVertex
100
AcDb2dVertex
 10
133.8951863272033
 20
194.8416815376611
 30
0.0
  0
SEQEND
  5
2C8
330
2C5
100
AcDbEntity
  8
GRAU_10_
  6
AI-LINETYPE-6
  0
POLYLINE
  5
2CA
330
1F
100
AcDbEntity
  8
GRAU_10_
  6
AI-LINETYPE-7
 62
     7
100
AcDb2dPolyline
 66
     1
 10
0.0
 20
0.0
 30
0.0
  0
VERTEX
  5
2CB
330
2CA
100
AcDbEntity
  8
GRAU_10_
  6
AI-LINETYPE-7
 62
     7
100
AcDbVertex
100
AcDb2dVertex
 10
137.8952866951269
 20
186.9024589919029
 30
0.0
  0
VERTEX
  5
2CC
330
2CA
100
AcDbEntity
  8
GRAU_10_
  6
AI-LINETYPE-7
 62
     7
100
AcDbVertex
100
AcDb2dVertex
 10
137.8952866951269
 20
195.1019585015717
 30
0.0
  0
SEQEND
  5
2CD
330
2CA
100
AcDbEntity
  8
GRAU_10_
  6
AI-LINETYPE-7
  0
POLYLINE
  5
2CF
330
1F
100
AcDbEntity
  8
GRAU_10_
  6
AI-LINETYPE-8
 62
     7
100
AcDb2dPolyline
 66
     1
 10
0.0
 20
0.0
 30
0.0
  0
VERTEX
  5
2D0
330
2CF
100
AcDbEntity
  8
GRAU_10_
  6
AI-LINETYPE-8
 62
     7
100
AcDbVertex
100
AcDb2dVertex
 10
133.8951863272033
 20
194.9858587837188
 30
0.0
  0
VERTEX
  5
2D1
330
2CF
100
AcDbEntity
  8
GRAU_10_
  6
AI-LINETYPE-8
 62
     7
100
AcDbVertex
100
AcDb2dVertex
 10
133.8951863272033
 20
195.4557698079069
 30
0.0
  0
SEQEND
  5
2D2
330
2CF
100
AcDbEntity
  8
GRAU_10_
  6
AI-LINETYPE-8
  0
POLYLINE
  5
2D4
330
1F
100
AcDbEntity
  8
GRAU_10_
  6
AI-LINETYPE-9
 62
     7
100
AcDb2dPolyline
 66
     1
 10
0.0
 20
0.0
 30
0.0
  0
VERTEX
  5
2D5
330
2D4
100
AcDbEntity
  8
GRAU_10_
  6
AI-LINETYPE-9
 62
     7
100
AcDbVertex
100
AcDb2dVertex
 10
133.8951863272033
 20
186.1696871821902
 30
0.0
  0
VERTEX
  5
2D6
330
2D4
100
AcDbEntity
  8
GRAU_10_
  6
AI-LINETYPE-9
 62
     7
100
AcDbVertex
100
AcDb2dVertex
 10
133.8951863272033
 20
186.328333829286
 30
0.0
  0
VERTEX
  5
2D7
330
2D4
100
AcDbEntity
  8
GRAU_10_
  6
AI-LINETYPE-9
 62
     7
100
AcDbVertex
100
AcDb2dVertex
 10
133.8951863272033
 20
186.642009773218
 30
0.0
  0
SEQEND
  5
2D8
330
2D4
100
AcDbEntity
  8
GRAU_10_
  6
AI-LINETYPE-9
  0
POLYLINE
  5
2DA
330
1F
100
AcDbEntity
  8
GRAU_10_
  6
AI-LINETYPE-10
 62
     7
100
AcDb2dPolyline
 66
     1
 10
0.0
 20
0.0
 30
0.0
  0
VERTEX
  5
2DB
330
2DA
100
AcDbEntity
  8
GRAU_10_
  6
AI-LINETYPE-10
 62
     7
100
AcDbVertex
100
AcDb2dVertex
 10
137.8952866951269
 20
185.6785888207679
 30
0.0
  0
VERTEX
  5
2DC
330
2DA
100
AcDbEntity
  8
GRAU_10_
  6
AI-LINETYPE-10
 62
     7
100
AcDbVertex
100
AcDb2dVertex
 10
137.8952866951269
 20
185.7890041310701
 30
0.0
  0
VERTEX
  5
2DD
330
2DA
100
AcDbEntity
  8
GRAU_10_
  6
AI-LINETYPE-10
 62
     7
100
AcDbVertex
100
AcDb2dVertex
 10
137.8952866951269
 20
186.0902777312552
 30
0.0
  0
VERTEX
  5
2DE
330
2DA
100
AcDbEntity
  8
GRAU_10_
  6
AI-LINETYPE-10
 62
     7
100
AcDbVertex
100
AcDb2dVertex
 10
137.8952866951269
 20
186.4995550749029
 30
0.0
  0
VERTEX
  5
2DF
330
2DA
100
AcDbEntity
  8
GRAU_10_
  6
AI-LINETYPE-10
 62
     7
100
AcDbVertex
100
AcDb2dVertex
 10
137.8952866951269
 20
186.9024589919029
 30
0.0
  0
SEQEND
  5
2E0
330
2DA
100
AcDbEntity
  8
GRAU_10_
  6
AI-LINETYPE-10
  0
POLYLINE
  5
2E2
330
1F
100
AcDbEntity
  8
GRAU_10_
  6
AI-LINETYPE-11
 62
     7
100
AcDb2dPolyline
 66
     1
 10
0.0
 20
0.0
 30
0.0
  0
VERTEX
  5
2E3
330
2E2
100
AcDbEntity
  8
GRAU_10_
  6
AI-LINETYPE-11
 62
     7
100
AcDbVertex
100
AcDb2dVertex
 10
133.8951863272033
 20
194.8416815376611
 30
0.0
  0
VERTEX
  5
2E4
330
2E2
100
AcDbEntity
  8
GRAU_10_
  6
AI-LINETYPE-11
 62
     7
100
AcDbVertex
100
AcDb2dVertex
 10
133.8951863272033
 20
194.9436563640245
 30
0.0
  0
VERTEX
  5
2E5
330
2E2
100
AcDbEntity
  8
GRAU_10_
  6
AI-LINETYPE-11
 62
     7
100
AcDbVertex
100
AcDb2dVertex
 10
133.8951863272033
 20
194.9858587837188
 30
0.0
  0
SEQEND
  5
2E6
330
2E2
100
AcDbEntity
  8
GRAU_10_
  6
AI-LINETYPE-11
  0
POLYLINE
  5
2E8
330
1F
100
AcDbEntity
  8
GRAU_10_
  6
AI-LINETYPE-12
 62
     7
100
AcDb2dPolyline
 66
     1
 10
0.0
 20
0.0
 30
0.0
  0
VERTEX
  5
2E9
330
2E8
100
AcDbEntity
  8
GRAU_10_
  6
AI-LINETYPE-12
 62
     7
100
AcDbVertex
100
AcDb2dVertex
 10
137.8952866951269
 20
195.1019585015717
 30
0.0
  0
VERTEX
  5
2EA
330
2E8
100
AcDbEntity
  8
GRAU_10_
  6
AI-LINETYPE-12
 62
     7
100
AcDbVertex
100
AcDb2dVertex
 10
137.8952866951269
 20
195.3267509819843
 30
0.0
  0
VERTEX
  5
2EB
330
2E8
100
AcDbEntity
  8
GRAU_10_
  6
AI-LINETYPE-12
 62
     7
100
AcDbVertex
100
AcDb2dVertex
 10
137.8952866951269
 20
195.4557698079069
 30
0.0
  0
SEQEND
  5
2EC
330
2E8
100
AcDbEntity
  8
GRAU_10_
  6
AI-LINETYPE-12
  0
POLYLINE
  5
2EE
330
1F
100
AcDbEntity
  8
GRAU_10_
  6
AI-LINETYPE-13
 62
     7
100
AcDb2dPolyline
 66
     1
 10
0.0
 20
0.0
 30
0.0
  0
VERTEX
  5
2EF
330
2EE
100
AcDbEntity
  8
GRAU_10_
  6
AI-LINETYPE-13
 62
     7
100
AcDbVertex
100
AcDb2dVertex
 10
39.02500812826458
 20
195.4769571451412
 30
0.0
  0
VERTEX
  5
2F0
330
2EE
100
AcDbEntity
  8
GRAU_10_
  6
AI-LINETYPE-13
 62
     7
100
AcDbVertex
100
AcDb2dVertex
 10
48.68057724477431
 20
195.9825249076016
 30
0.0
  0
SEQEND
  5
2F1
330
2EE
100
AcDbEntity
  8
GRAU_10_
  6
AI-LINETYPE-13
  0
POLYLINE
  5
2F3
330
1F
100
AcDbEntity
  8
GRAU_10_
  6
AI-LINETYPE-14
 62
     7
100
AcDb2dPolyline
 66
     1
 10
0.0
 20
0.0
 30
0.0
  0
VERTEX
  5
2F4
330
2F3
100
AcDbEntity
  8
GRAU_10_
  6
AI-LINETYPE-14
 62
     7
100
AcDbVertex
100
AcDb2dVertex
 10
49.40060220119152
 20
194.760205029435
 30
0.0
  0
VERTEX
  5
2F5
330
2F3
100
AcDbEntity
  8
GRAU_10_
  6
AI-LINETYPE-14
 62
     7
100
AcDbVertex
100
AcDb2dVertex
 10
44.27671168597944
 20
186.5605332649918
 30
0.0
  0
SEQEND
  5
2F6
330
2F3
100
AcDbEntity
  8
GRAU_10_
  6
AI-LINETYPE-14
  0
POLYLINE
  5
2F8
330
1F
100
AcDbEntity
  8
GRAU_10_
  6
AI-LINETYPE-15
 62
     7
100
AcDb2dPolyline
 66
     1
 10
0.0
 20
0.0
 30
0.0
  0
VERTEX
  5
2F9
330
2F8
100
AcDbEntity
  8
GRAU_10_
  6
AI-LINETYPE-15
 62
     7
100
AcDbVertex
100
AcDb2dVertex
 10
33.26515298647538
 20
186.9024589919029
 30
0.0
  0
VERTEX
  5
2FA
330
2F8
100
AcDbEntity
  8
GRAU_10_
  6
AI-LINETYPE-15
 62
     7
100
AcDbVertex
100
AcDb2dVertex
 10
38.38818222781615
 20
195.1019585015717
 30
0.0
  0
SEQEND
  5
2FB
330
2F8
100
AcDbEntity
  8
GRAU_10_
  6
AI-LINETYPE-15
  0
POLYLINE
  5
2FD
330
1F
100
AcDbEntity
  8
GRAU_10_
  6
AI-LINETYPE-16
 62
     7
100
AcDb2dPolyline
 66
     1
 10
0.0
 20
0.0
 30
0.0
  0
VERTEX
  5
2FE
330
2FD
100
AcDbEntity
  8
GRAU_10_
  6
AI-LINETYPE-16
 62
     7
100
AcDbVertex
100
AcDb2dVertex
 10
43.64074705940232
 20
186.1858791309709
 30
0.0
  0
VERTEX
  5
2FF
330
2FD
100
AcDbEntity
  8
GRAU_10_
  6
AI-LINETYPE-16
 62
     7
100
AcDbVertex
100
AcDb2dVertex
 10
33.9851779428926
 20
185.6796223494134
 30
0.0
  0
SEQEND
  5
300
330
2FD
100
AcDbEntity
  8
GRAU_10_
  6
AI-LINETYPE-16
  0
SPLINE
  5
302
330
1F
100
AcDbEntity
  8
GRAU_10_
  6
AI-LINETYPE-17
 62
     7
100
AcDbSpline
210
0.0
220
0.0
230
1.0
 70
     8
 71
     3
 72
    11
 73
     7
 74
     0
 42
0.0000000001
 43
0.0000000001
 40
0.0
 40
0.0
 40
0.0
 40
0.0
 40
1.0
 40
1.0
 40
1.0
 40
2.0
 40
2.0
 40
2.0
 40
2.0
 10
49.52186956227231
 20
195.1834350097979
 30
0.0
 10
49.52186956227231
 20
195.6254407605554
 30
0.0
 10
49.16375188658059
 20
195.9839029457957
 30
0.0
 10
48.72209064537157
 20
195.9839029457957
 30
0.0
 10
48.70762124433352
 20
195.9839029457957
 30
0.0
 10
48.69246282419842
 20
195.9832139266987
 30
0.0
 10
48.68057724477431
 20
195.9825249076016
 30
0.0
  0
SPLINE
  5
304
330
1F
100
AcDbEntity
  8
GRAU_10_
  6
AI-LINETYPE-18
 62
     7
100
AcDbSpline
210
0.0
220
0.0
230
1.0
 70
     8
 71
     3
 72
     8
 73
     4
 74
     0
 42
0.0000000001
 43
0.0000000001
 40
0.0
 40
0.0
 40
0.0
 40
0.0
 40
1.0
 40
1.0
 40
1.0
 40
1.0
 10
49.40060220119152
 20
194.760205029435
 30
0.0
 10
49.4838012571603
 20
194.8928412056171
 30
0.0
 10
49.52290309091789
 20
195.0416693305799
 30
0.0
 10
49.52186956227231
 20
195.1834350097979
 30
0.0
  0
SPLINE
  5
306
330
1F
100
AcDbEntity
  8
GRAU_10_
  6
AI-LINETYPE-19
 62
     7
100
AcDbSpline
210
0.0
220
0.0
230
1.0
 70
     8
 71
     3
 72
    14
 73
    10
 74
     0
 42
0.0000000001
 43
0.0000000001
 40
0.0
 40
0.0
 40
0.0
 40
0.0
 40
1.0
 40
1.0
 40
1.0
 40
2.0
 40
2.0
 40
2.0
 40
3.0
 40
3.0
 40
3.0
 40
3.0
 10
33.26515298647538
 20
186.9024589919029
 30
0.0
 10
33.18195393050659
 20
186.769306051398
 30
0.0
 10
33.14250758720048
 20
186.6208224359837
 30
0.0
 10
33.14319660629754
 20
186.4783677376686
 30
0.0
 10
33.14319660629754
 20
186.0367064964596
 30
0.0
 10
33.501142027215
 20
185.6785888207679
 30
0.0
 10
33.94349228752107
 20
185.6785888207679
 30
0.0
 10
33.95796168855912
 20
185.6785888207679
 30
0.0
 10
33.97243108959717
 20
185.6789333303164
 30
0.0
 10
33.9851779428926
 20
185.6796223494134
 30
0.0
  0
SPLINE
  5
308
330
1F
100
AcDbEntity
  8
GRAU_10_
  6
AI-LINETYPE-20
 62
     7
100
AcDbSpline
210
0.0
220
0.0
230
1.0
 70
     8
 71
     3
 72
     8
 73
     4
 74
     0
 42
0.0000000001
 43
0.0000000001
 40
0.0
 40
0.0
 40
0.0
 40
0.0
 40
1.0
 40
1.0
 40
1.0
 40
1.0
 10
39.02500812826458
 20
195.4769571451412
 30
0.0
 10
38.75542940654378
 20
195.4624877441031
 30
0.0
 10
38.52374673516073
 20
195.3164156955285
 30
0.0
 10
38.38818222781615
 20
195.1019585015717
 30
0.0
  0
SPLINE
  5
30A
330
1F
100
AcDbEntity
  8
GRAU_10_
  6
AI-LINETYPE-21
 62
     7
100
AcDbSpline
210
0.0
220
0.0
230
1.0
 70
     8
 71
     3
 72
     8
 73
     4
 74
     0
 42
0.0000000001
 43
0.0000000001
 40
0.0
 40
0.0
 40
0.0
 40
0.0
 40
1.0
 40
1.0
 40
1.0
 40
1.0
 10
43.64074705940232
 20
186.1851901118739
 30
0.0
 10
43.91032578112311
 20
186.1996595129119
 30
0.0
 10
44.14131943340912
 20
186.346076071035
 30
0.0
 10
44.27671168597944
 20
186.5605332649918
 30
0.0
  0
POLYLINE
  5
30C
330
1F
100
AcDbEntity
  8
GRAU_10_
  6
AI-LINETYPE-22
 62
     7
100
AcDb2dPolyline
 66
     1
 10
0.0
 20
0.0
 30
0.0
  0
VERTEX
  5
30D
330
30C
100
AcDbEntity
  8
GRAU_10_
  6
AI-LINETYPE-22
 62
     7
100
AcDbVertex
100
AcDb2dVertex
 10
33.68149277586782
 20
137.5745483054501
 30
0.0
  0
VERTEX
  5
30E
330
30C
100
AcDbEntity
  8
GRAU_10_
  6
AI-LINETYPE-22
 62
     7
100
AcDbVertex
100
AcDb2dVertex
 10
38.62038166352199
 20
137.5745483054501
 30
0.0
  0
SEQEND
  5
30F
330
30C
100
AcDbEntity
  8
GRAU_10_
  6
AI-LINETYPE-22
  0
POLYLINE
  5
311
330
1F
100
AcDbEntity
  8
GRAU_10_
  6
AI-LINETYPE-23
 62
     7
100
AcDb2dPolyline
 66
     1
 10
0.0
 20
0.0
 30
0.0
  0
VERTEX
  5
312
330
311
100
AcDbEntity
  8
GRAU_10_
  6
AI-LINETYPE-23
 62
     7
100
AcDbVertex
100
AcDb2dVertex
 10
33.26515298647538
 20
133.5744479375265
 30
0.0
  0
VERTEX
  5
313
330
311
100
AcDbEntity
  8
GRAU_10_
  6
AI-LINETYPE-23
 62
     7
100
AcDbVertex
100
AcDb2dVertex
 10
38.38818222781615
 20
133.5744479375265
 30
0.0
  0
SEQEND
  5
314
330
311
100
AcDbEntity
  8
GRAU_10_
  6
AI-LINETYPE-23
  0
POLYLINE
  5
316
330
1F
100
AcDbEntity
  8
GRAU_10_
  6
AI-LINETYPE-24
 62
     7
100
AcDb2dPolyline
 66
     1
 10
0.0
 20
0.0
 30
0.0
  0
VERTEX
  5
317
330
316
100
AcDbEntity
  8
GRAU_10_
  6
AI-LINETYPE-24
 62
     7
100
AcDbVertex
100
AcDb2dVertex
 10
33.63412271294564
 20
137.5745483054501
 30
0.0
  0
VERTEX
  5
318
330
316
100
AcDbEntity
  8
GRAU_10_
  6
AI-LINETYPE-24
 62
     7
100
AcDbVertex
100
AcDb2dVertex
 10
33.14319660629754
 20
133.5744479375265
 30
0.0
  0
SEQEND
  5
319
330
316
100
AcDbEntity
  8
GRAU_10_
  6
AI-LINETYPE-24
  0
POLYLINE
  5
31B
330
1F
100
AcDbEntity
  8
GRAU_10_
  6
AI-LINETYPE-25
 62
     7
100
AcDb2dPolyline
 66
     1
 10
0.0
 20
0.0
 30
0.0
  0
VERTEX
  5
31C
330
31B
100
AcDbEntity
  8
GRAU_10_
  6
AI-LINETYPE-25
 62
     7
100
AcDbVertex
100
AcDb2dVertex
 10
38.38818222781615
 20
133.5744479375265
 30
0.0
  0
VERTEX
  5
31D
330
31B
100
AcDbEntity
  8
GRAU_10_
  6
AI-LINETYPE-25
 62
     7
100
AcDbVertex
100
AcDb2dVertex
 10
38.49153509237365
 20
133.5744479375265
 30
0.0
  0
VERTEX
  5
31E
330
31B
100
AcDbEntity
  8
GRAU_10_
  6
AI-LINETYPE-25
 62
     7
100
AcDbVertex
100
AcDb2dVertex
 10
38.62038166352199
 20
133.5744479375265
 30
0.0
  0
SEQEND
  5
31F
330
31B
100
AcDbEntity
  8
GRAU_10_
  6
AI-LINETYPE-25
  0
POLYLINE
  5
321
330
1F
100
AcDbEntity
  8
GRAU_10_
  6
AI-LINETYPE-26
 62
     7
100
AcDb2dPolyline
 66
     1
 10
0.0
 20
0.0
 30
0.0
  0
VERTEX
  5
322
330
321
100
AcDbEntity
  8
GRAU_10_
  6
AI-LINETYPE-26
 62
     7
100
AcDbVertex
100
AcDb2dVertex
 10
33.63412271294564
 20
137.5745483054501
 30
0.0
  0
VERTEX
  5
323
330
321
100
AcDbEntity
  8
GRAU_10_
  6
AI-LINETYPE-26
 62
     7
100
AcDbVertex
100
AcDb2dVertex
 10
33.64618054714401
 20
137.5745483054501
 30
0.0
  0
VERTEX
  5
324
330
321
100
AcDbEntity
  8
GRAU_10_
  6
AI-LINETYPE-26
 62
     7
100
AcDbVertex
100
AcDb2dVertex
 10
33.68149277586782
 20
137.5745483054501
 30
0.0
  0
SEQEND
  5
325
330
321
100
AcDbEntity
  8
GRAU_10_
  6
AI-LINETYPE-26
  0
POLYLINE
  5
327
330
1F
100
AcDbEntity
  8
GRAU_10_
  6
AI-LINETYPE-27
 62
     7
100
AcDb2dPolyline
 66
     1
 10
0.0
 20
0.0
 30
0.0
  0
VERTEX
  5
328
330
327
100
AcDbEntity
  8
GRAU_10_
  6
AI-LINETYPE-27
 62
     7
100
AcDbVertex
100
AcDb2dVertex
 10
33.14319660629754
 20
133.5744479375265
 30
0.0
  0
VERTEX
  5
329
330
327
100
AcDbEntity
  8
GRAU_10_
  6
AI-LINETYPE-27
 62
     7
100
AcDbVertex
100
AcDb2dVertex
 10
33.17454697521331
 20
133.5744479375265
 30
0.0
  0
VERTEX
  5
32A
330
327
100
AcDbEntity
  8
GRAU_10_
  6
AI-LINETYPE-27
 62
     7
100
AcDbVertex
100
AcDb2dVertex
 10
33.26515298647538
 20
133.5744479375265
 30
0.0
  0
SEQEND
  5
32B
330
327
100
AcDbEntity
  8
GRAU_10_
  6
AI-LINETYPE-27
  0
POLYLINE
  5
32E
330
1F
100
AcDbEntity
  8
STANDARDEBENE
 62
     7
100
AcDb2dPolyline
 66
     1
 10
0.0
 20
0.0
 30
0.0
  0
VERTEX
  5
32F
330
32E
100
AcDbEntity
  8
STANDARDEBENE
 62
     7
100
AcDbVertex
100
AcDb2dVertex
 10
130.7153631943177
 20
186.1696871821902
 30
0.0
  0
VERTEX
  5
330
330
32E
100
AcDbEntity
  8
STANDARDEBENE
 62
     7
100
AcDbVertex
100
AcDb2dVertex
 10
133.8951863272033
 20
186.1696871821902
 30
0.0
  0
SEQEND
  5
331
330
32E
100
AcDbEntity
  8
STANDARDEBENE
  0
POLYLINE
  5
332
330
1F
100
AcDbEntity
  8
STANDARDEBENE
 62
     7
100
AcDb2dPolyline
 66
     1
 10
0.0
 20
0.0
 30
0.0
  0
VERTEX
  5
333
330
332
100
AcDbEntity
  8
STANDARDEBENE
 62
     7
100
AcDbVertex
100
AcDb2dVertex
 10
133.8951863272033
 20
186.642009773218
 30
0.0
  0
VERTEX
  5
334
330
332
100
AcDbEntity
  8
STANDARDEBENE
 62
     7
100
AcDbVertex
100
AcDb2dVertex
 10
133.8951863272033
 20
194.8416815376611
 30
0.0
  0
SEQEND
  5
335
330
332
100
AcDbEntity
  8
STANDARDEBENE
  0
POLYLINE
  5
336
330
1F
100
AcDbEntity
  8
STANDARDEBENE
 62
     7
100
AcDb2dPolyline
 66
     1
 10
0.0
 20
0.0
 30
0.0
  0
VERTEX
  5
337
330
336
100
AcDbEntity
  8
STANDARDEBENE
 62
     7
100
AcDbVertex
100
AcDb2dVertex
 10
133.8951863272033
 20
194.9858587837188
 30
0.0
  0
VERTEX
  5
338
330
336
100
AcDbEntity
  8
STANDARDEBENE
 62
     7
100
AcDbVertex
100
AcDb2dVertex
 10
133.8951863272033
 20
195.4557698079069
 30
0.0
  0
SEQEND
  5
339
330
336
100
AcDbEntity
  8
STANDARDEBENE
  0
POLYLINE
  5
33A
330
1F
100
AcDbEntity
  8
STANDARDEBENE
 62
     7
100
AcDb2dPolyline
 66
     1
 10
0.0
 20
0.0
 30
0.0
  0
VERTEX
  5
33B
330
33A
100
AcDbEntity
  8
STANDARDEBENE
 62
     7
100
AcDbVertex
100
AcDb2dVertex
 10
130.7153631943177
 20
194.5383408801849
 30
0.0
  0
VERTEX
  5
33C
330
33A
100
AcDbEntity
  8
STANDARDEBENE
 62
     7
100
AcDbVertex
100
AcDb2dVertex
 10
121.8955742425296
 20
194.5383408801849
 30
0.0
  0
SEQEND
  5
33D
330
33A
100
AcDbEntity
  8
STANDARDEBENE
  0
POLYLINE
  5
33E
330
1F
100
AcDbEntity
  8
STANDARDEBENE
 62
     7
100
AcDb2dPolyline
 66
     1
 10
0.0
 20
0.0
 30
0.0
  0
VERTEX
  5
33F
330
33E
100
AcDbEntity
  8
STANDARDEBENE
 62
     7
100
AcDbVertex
100
AcDb2dVertex
 10
133.8951863272033
 20
194.978107318877
 30
0.0
  0
VERTEX
  5
340
330
33E
100
AcDbEntity
  8
STANDARDEBENE
 62
     7
100
AcDbVertex
100
AcDb2dVertex
 10
137.8952866951269
 20
195.4547362792613
 30
0.0
  0
SEQEND
  5
341
330
33E
100
AcDbEntity
  8
STANDARDEBENE
  0
POLYLINE
  5
342
330
1F
100
AcDbEntity
  8
STANDARDEBENE
 62
     7
100
AcDb2dPolyline
 66
     1
 10
0.0
 20
0.0
 30
0.0
  0
VERTEX
  5
343
330
342
100
AcDbEntity
  8
STANDARDEBENE
 62
     7
100
AcDbVertex
100
AcDb2dVertex
 10
130.7153631943177
 20
194.978107318877
 30
0.0
  0
VERTEX
  5
344
330
342
100
AcDbEntity
  8
STANDARDEBENE
 62
     7
100
AcDbVertex
100
AcDb2dVertex
 10
133.8951863272033
 20
194.978107318877
 30
0.0
  0
SEQEND
  5
345
330
342
100
AcDbEntity
  8
STANDARDEBENE
  0
POLYLINE
  5
346
330
1F
100
AcDbEntity
  8
STANDARDEBENE
 62
     7
100
AcDb2dPolyline
 66
     1
 10
0.0
 20
0.0
 30
0.0
  0
VERTEX
  5
347
330
346
100
AcDbEntity
  8
STANDARDEBENE
 62
     7
100
AcDbVertex
100
AcDb2dVertex
 10
130.7153631943177
 20
186.1696871821902
 30
0.0
  0
VERTEX
  5
348
330
346
100
AcDbEntity
  8
STANDARDEBENE
 62
     7
100
AcDbVertex
100
AcDb2dVertex
 10
130.7153631943177
 20
186.1696871821902
 30
0.0
  0
VERTEX
  5
349
330
346
100
AcDbEntity
  8
STANDARDEBENE
 62
     7
100
AcDbVertex
100
AcDb2dVertex
 10
130.7153631943177
 20
186.1707207108358
 30
0.0
  0
SEQEND
  5
34A
330
346
100
AcDbEntity
  8
STANDARDEBENE
  0
POLYLINE
  5
34B
330
1F
100
AcDbEntity
  8
STANDARDEBENE
 62
     7
100
AcDb2dPolyline
 66
     1
 10
0.0
 20
0.0
 30
0.0
  0
VERTEX
  5
34C
330
34B
100
AcDbEntity
  8
STANDARDEBENE
 62
     7
100
AcDbVertex
100
AcDb2dVertex
 10
133.8951863272033
 20
186.1696871821902
 30
0.0
  0
VERTEX
  5
34D
330
34B
100
AcDbEntity
  8
STANDARDEBENE
 62
     7
100
AcDbVertex
100
AcDb2dVertex
 10
133.8951863272033
 20
186.328333829286
 30
0.0
  0
VERTEX
  5
34E
330
34B
100
AcDbEntity
  8
STANDARDEBENE
 62
     7
100
AcDbVertex
100
AcDb2dVertex
 10
133.8951863272033
 20
186.642009773218
 30
0.0
  0
SEQEND
  5
34F
330
34B
100
AcDbEntity
  8
STANDARDEBENE
  0
POLYLINE
  5
350
330
1F
100
AcDbEntity
  8
STANDARDEBENE
 62
     7
100
AcDb2dPolyline
 66
     1
 10
0.0
 20
0.0
 30
0.0
  0
VERTEX
  5
351
330
350
100
AcDbEntity
  8
STANDARDEBENE
 62
     7
100
AcDbVertex
100
AcDb2dVertex
 10
133.8951863272033
 20
194.8416815376611
 30
0.0
  0
VERTEX
  5
352
330
350
100
AcDbEntity
  8
STANDARDEBENE
 62
     7
100
AcDbVertex
100
AcDb2dVertex
 10
133.8951863272033
 20
194.9436563640245
 30
0.0
  0
VERTEX
  5
353
330
350
100
AcDbEntity
  8
STANDARDEBENE
 62
     7
100
AcDbVertex
100
AcDb2dVertex
 10
133.8951863272033
 20
194.9858587837188
 30
0.0
  0
SEQEND
  5
354
330
350
100
AcDbEntity
  8
STANDARDEBENE
  0
POLYLINE
  5
355
330
1F
100
AcDbEntity
  8
STANDARDEBENE
 62
     7
100
AcDb2dPolyline
 66
     1
 10
0.0
 20
0.0
 30
0.0
  0
VERTEX
  5
356
330
355
100
AcDbEntity
  8
STANDARDEBENE
 62
     7
100
AcDbVertex
100
AcDb2dVertex
 10
77.14292261526289
 20
207.6784518252505
 30
0.0
  0
VERTEX
  5
357
330
355
100
AcDbEntity
  8
STANDARDEBENE
 62
     7
100
AcDbVertex
100
AcDb2dVertex
 10
76.14384492454043
 20
207.6784518252505
 30
0.0
  0
SEQEND
  5
358
330
355
100
AcDbEntity
  8
STANDARDEBENE
  0
POLYLINE
  5
359
330
1F
100
AcDbEntity
  8
STANDARDEBENE
 62
     7
100
AcDb2dPolyline
 66
     1
 10
0.0
 20
0.0
 30
0.0
  0
VERTEX
  5
35A
330
359
100
AcDbEntity
  8
STANDARDEBENE
 62
     7
100
AcDbVertex
100
AcDb2dVertex
 10
33.68149277586782
 20
137.5745483054501
 30
0.0
  0
VERTEX
  5
35B
330
359
100
AcDbEntity
  8
STANDARDEBENE
 62
     7
100
AcDbVertex
100
AcDb2dVertex
 10
38.62038166352199
 20
137.5745483054501
 30
0.0
  0
SEQEND
  5
35C
330
359
100
AcDbEntity
  8
STANDARDEBENE
  0
POLYLINE
  5
35D
330
1F
100
AcDbEntity
  8
STANDARDEBENE
 62
     7
100
AcDb2dPolyline
 66
     1
 10
0.0
 20
0.0
 30
0.0
  0
VERTEX
  5
35E
330
35D
100
AcDbEntity
  8
STANDARDEBENE
 62
     7
100
AcDbVertex
100
AcDb2dVertex
 10
33.63412271294564
 20
140.7540269287872
 30
0.0
  0
VERTEX
  5
35F
330
35D
100
AcDbEntity
  8
STANDARDEBENE
 62
     7
100
AcDbVertex
100
AcDb2dVertex
 10
33.63412271294564
 20
137.5745483054501
 30
0.0
  0
SEQEND
  5
360
330
35D
100
AcDbEntity
  8
STANDARDEBENE
  0
POLYLINE
  5
361
330
1F
100
AcDbEntity
  8
STANDARDEBENE
 62
     7
100
AcDb2dPolyline
 66
     1
 10
0.0
 20
0.0
 30
0.0
  0
VERTEX
  5
362
330
361
100
AcDbEntity
  8
STANDARDEBENE
 62
     7
100
AcDbVertex
100
AcDb2dVertex
 10
77.14292261526289
 20
139.1324204838801
 30
0.0
  0
VERTEX
  5
363
330
361
100
AcDbEntity
  8
STANDARDEBENE
 62
     7
100
AcDbVertex
100
AcDb2dVertex
 10
76.14384492454043
 20
139.4541924022024
 30
0.0
  0
SEQEND
  5
364
330
361
100
AcDbEntity
  8
STANDARDEBENE
  0
POLYLINE
  5
365
330
1F
100
AcDbEntity
  8
STANDARDEBENE
 62
     7
100
AcDb2dPolyline
 66
     1
 10
0.0
 20
0.0
 30
0.0
  0
VERTEX
  5
366
330
365
100
AcDbEntity
  8
STANDARDEBENE
 62
     7
100
AcDbVertex
100
AcDb2dVertex
 10
38.39007703033304
 20
149.5743326448981
 30
0.0
  0
VERTEX
  5
367
330
365
100
AcDbEntity
  8
STANDARDEBENE
 62
     7
100
AcDbVertex
100
AcDb2dVertex
 10
38.39007703033304
 20
140.7540269287872
 30
0.0
  0
SEQEND
  5
368
330
365
100
AcDbEntity
  8
STANDARDEBENE
  0
POLYLINE
  5
369
330
1F
100
AcDbEntity
  8
STANDARDEBENE
 62
     7
100
AcDb2dPolyline
 66
     1
 10
0.0
 20
0.0
 30
0.0
  0
VERTEX
  5
36A
330
369
100
AcDbEntity
  8
STANDARDEBENE
 62
     7
100
AcDbVertex
100
AcDb2dVertex
 10
33.63412271294564
 20
137.5745483054501
 30
0.0
  0
VERTEX
  5
36B
330
369
100
AcDbEntity
  8
STANDARDEBENE
 62
     7
100
AcDbVertex
100
AcDb2dVertex
 10
33.64618054714401
 20
137.5745483054501
 30
0.0
  0
VERTEX
  5
36C
330
369
100
AcDbEntity
  8
STANDARDEBENE
 62
     7
100
AcDbVertex
100
AcDb2dVertex
 10
33.68149277586782
 20
137.5745483054501
 30
0.0
  0
SEQEND
  5
36D
330
369
100
AcDbEntity
  8
STANDARDEBENE
  0
POLYLINE
  5
36F
330
1F
100
AcDbEntity
  8
BEMAßUNG
 62
     7
100
AcDb2dPolyline
 66
     1
 10
0.0
 20
0.0
 30
0.0
  0
VERTEX
  5
370
330
36F
100
AcDbEntity
  8
BEMAßUNG
 62
     7
100
AcDbVertex
100
AcDb2dVertex
 10
33.14319660629754
 20
186.4783677376686
 30
0.0
  0
VERTEX
  5
371
330
36F
100
AcDbEntity
  8
BEMAßUNG
 62
     7
100
AcDbVertex
100
AcDb2dVertex
 10
33.14319660629754
 20
161.6714409318044
 30
0.0
  0
SEQEND
  5
372
330
36F
100
AcDbEntity
  8
BEMAßUNG
  0
POLYLINE
  5
373
330
1F
100
AcDbEntity
  8
BEMAßUNG
 62
     7
100
AcDb2dPolyline
 66
     1
 10
0.0
 20
0.0
 30
0.0
  0
VERTEX
  5
374
330
373
100
AcDbEntity
  8
BEMAßUNG
 62
     7
100
AcDbVertex
100
AcDb2dVertex
 10
58.14304875933577
 20
191.678567117879
 30
0.0
  0
VERTEX
  5
375
330
373
100
AcDbEntity
  8
BEMAßUNG
 62
     7
100
AcDbVertex
100
AcDb2dVertex
 10
58.14304875933577
 20
161.6714409318044
 30
0.0
  0
SEQEND
  5
376
330
373
100
AcDbEntity
  8
BEMAßUNG
  0
POLYLINE
  5
377
330
1F
100
AcDbEntity
  8
BEMAßUNG
 62
     7
100
AcDb2dPolyline
 66
     1
 10
0.0
 20
0.0
 30
0.0
  0
VERTEX
  5
378
330
377
100
AcDbEntity
  8
BEMAßUNG
 62
     7
100
AcDbVertex
100
AcDb2dVertex
 10
33.14319660629754
 20
163.6709743514434
 30
0.0
  0
VERTEX
  5
379
330
377
100
AcDbEntity
  8
BEMAßUNG
 62
     7
100
AcDbVertex
100
AcDb2dVertex
 10
58.14304875933577
 20
163.6709743514434
 30
0.0
  0
SEQEND
  5
37A
330
377
100
AcDbEntity
  8
BEMAßUNG
  0
POLYLINE
  5
37B
330
1F
100
AcDbEntity
  8
BEMAßUNG
 62
     7
100
AcDb2dPolyline
 66
     1
 10
0.0
 20
0.0
 30
0.0
  0
VERTEX
  5
37C
330
37B
100
AcDbEntity
  8
BEMAßUNG
 62
     7
100
AcDbVertex
100
AcDb2dVertex
 10
33.14319660629754
 20
163.6709743514434
 30
0.0
  0
VERTEX
  5
37D
330
37B
100
AcDbEntity
  8
BEMAßUNG
 62
     7
100
AcDbVertex
100
AcDb2dVertex
 10
36.64306910976285
 20
163.2105373398397
 30
0.0
  0
VERTEX
  5
37E
330
37B
100
AcDbEntity
  8
BEMAßUNG
 62
     7
100
AcDbVertex
100
AcDb2dVertex
 10
36.64306910976285
 20
164.1319281273698
 30
0.0
  0
VERTEX
  5
37F
330
37B
100
AcDbEntity
  8
BEMAßUNG
 62
     7
100
AcDbVertex
100
AcDb2dVertex
 10
33.14319660629754
 20
163.6709743514434
 30
0.0
  0
SEQEND
  5
380
330
37B
100
AcDbEntity
  8
BEMAßUNG
  0
POLYLINE
  5
381
330
1F
100
AcDbEntity
  8
BEMAßUNG
 62
     7
100
AcDb2dPolyline
 66
     1
 10
0.0
 20
0.0
 30
0.0
  0
VERTEX
  5
382
330
381
100
AcDbEntity
  8
BEMAßUNG
 62
     7
100
AcDbVertex
100
AcDb2dVertex
 10
36.64306910976285
 20
163.2136379257765
 30
0.0
  0
VERTEX
  5
383
330
381
100
AcDbEntity
  8
BEMAßUNG
 62
     7
100
AcDbVertex
100
AcDb2dVertex
 10
36.61585285542937
 20
163.2136379257765
 30
0.0
  0
SEQEND
  5
384
330
381
100
AcDbEntity
  8
BEMAßUNG
  0
POLYLINE
  5
385
330
1F
100
AcDbEntity
  8
BEMAßUNG
 62
     7
100
AcDb2dPolyline
 66
     1
 10
0.0
 20
0.0
 30
0.0
  0
VERTEX
  5
386
330
385
100
AcDbEntity
  8
BEMAßUNG
 62
     7
100
AcDbVertex
100
AcDb2dVertex
 10
36.64306910976285
 20
163.2136379257765
 30
0.0
  0
VERTEX
  5
387
330
385
100
AcDbEntity
  8
BEMAßUNG
 62
     7
100
AcDbVertex
100
AcDb2dVertex
 10
36.61585285542937
 20
163.2136379257765
 30
0.0
  0
SEQEND
  5
388
330
385
100
AcDbEntity
  8
BEMAßUNG
  0
POLYLINE
  5
389
330
1F
100
AcDbEntity
  8
BEMAßUNG
 62
     7
100
AcDb2dPolyline
 66
     1
 10
0.0
 20
0.0
 30
0.0
  0
VERTEX
  5
38A
330
389
100
AcDbEntity
  8
BEMAßUNG
 62
     7
100
AcDbVertex
100
AcDb2dVertex
 10
36.64306910976285
 20
163.2644530841839
 30
0.0
  0
VERTEX
  5
38B
330
389
100
AcDbEntity
  8
BEMAßUNG
 62
     7
100
AcDbVertex
100
AcDb2dVertex
 10
36.23000216108139
 20
163.2644530841839
 30
0.0
  0
SEQEND
  5
38C
330
389
100
AcDbEntity
  8
BEMAßUNG
  0
POLYLINE
  5
38D
330
1F
100
AcDbEntity
  8
BEMAßUNG
 62
     7
100
AcDb2dPolyline
 66
     1
 10
0.0
 20
0.0
 30
0.0
  0
VERTEX
  5
38E
330
38D
100
AcDbEntity
  8
BEMAßUNG
 62
     7
100
AcDbVertex
100
AcDb2dVertex
 10
36.64306910976285
 20
163.3156127521399
 30
0.0
  0
VERTEX
  5
38F
330
38D
100
AcDbEntity
  8
BEMAßUNG
 62
     7
100
AcDbVertex
100
AcDb2dVertex
 10
35.8446682310562
 20
163.3156127521399
 30
0.0
  0
SEQEND
  5
390
330
38D
100
AcDbEntity
  8
BEMAßUNG
  0
POLYLINE
  5
391
330
1F
100
AcDbEntity
  8
BEMAßUNG
 62
     7
100
AcDb2dPolyline
 66
     1
 10
0.0
 20
0.0
 30
0.0
  0
VERTEX
  5
392
330
391
100
AcDbEntity
  8
BEMAßUNG
 62
     7
100
AcDbVertex
100
AcDb2dVertex
 10
36.64306910976285
 20
163.3664279105473
 30
0.0
  0
VERTEX
  5
393
330
391
100
AcDbEntity
  8
BEMAßUNG
 62
     7
100
AcDbVertex
100
AcDb2dVertex
 10
35.45847302715969
 20
163.3664279105473
 30
0.0
  0
SEQEND
  5
394
330
391
100
AcDbEntity
  8
BEMAßUNG
  0
POLYLINE
  5
395
330
1F
100
AcDbEntity
  8
BEMAßUNG
 62
     7
100
AcDb2dPolyline
 66
     1
 10
0.0
 20
0.0
 30
0.0
  0
VERTEX
  5
396
330
395
100
AcDbEntity
  8
BEMAßUNG
 62
     7
100
AcDbVertex
100
AcDb2dVertex
 10
36.64306910976285
 20
163.4172430689547
 30
0.0
  0
VERTEX
  5
397
330
395
100
AcDbEntity
  8
BEMAßUNG
 62
     7
100
AcDbVertex
100
AcDb2dVertex
 10
35.07245007803744
 20
163.4172430689547
 30
0.0
  0
SEQEND
  5
398
330
395
100
AcDbEntity
  8
BEMAßUNG
  0
POLYLINE
  5
399
330
1F
100
AcDbEntity
  8
BEMAßUNG
 62
     7
100
AcDb2dPolyline
 66
     1
 10
0.0
 20
0.0
 30
0.0
  0
VERTEX
  5
39A
330
399
100
AcDbEntity
  8
BEMAßUNG
 62
     7
100
AcDbVertex
100
AcDb2dVertex
 10
36.64306910976285
 20
163.4680582273621
 30
0.0
  0
VERTEX
  5
39B
330
399
100
AcDbEntity
  8
BEMAßUNG
 62
     7
100
AcDbVertex
100
AcDb2dVertex
 10
34.68659938368946
 20
163.4680582273621
 30
0.0
  0
SEQEND
  5
39C
330
399
100
AcDbEntity
  8
BEMAßUNG
  0
POLYLINE
  5
39D
330
1F
100
AcDbEntity
  8
BEMAßUNG
 62
     7
100
AcDb2dPolyline
 66
     1
 10
0.0
 20
0.0
 30
0.0
  0
VERTEX
  5
39E
330
39D
100
AcDbEntity
  8
BEMAßUNG
 62
     7
100
AcDbVertex
100
AcDb2dVertex
 10
36.64306910976285
 20
163.5188733857696
 30
0.0
  0
VERTEX
  5
39F
330
39D
100
AcDbEntity
  8
BEMAßUNG
 62
     7
100
AcDbVertex
100
AcDb2dVertex
 10
34.30057643456722
 20
163.5188733857696
 30
0.0
  0
SEQEND
  5
3A0
330
39D
100
AcDbEntity
  8
BEMAßUNG
  0
POLYLINE
  5
3A1
330
1F
100
AcDbEntity
  8
BEMAßUNG
 62
     7
100
AcDb2dPolyline
 66
     1
 10
0.0
 20
0.0
 30
0.0
  0
VERTEX
  5
3A2
330
3A1
100
AcDbEntity
  8
BEMAßUNG
 62
     7
100
AcDbVertex
100
AcDb2dVertex
 10
36.64306910976285
 20
163.5693440346285
 30
0.0
  0
VERTEX
  5
3A3
330
3A1
100
AcDbEntity
  8
BEMAßUNG
 62
     7
100
AcDbVertex
100
AcDb2dVertex
 10
33.91507024976776
 20
163.5693440346285
 30
0.0
  0
SEQEND
  5
3A4
330
3A1
100
AcDbEntity
  8
BEMAßUNG
  0
POLYLINE
  5
3A5
330
1F
100
AcDbEntity
  8
BEMAßUNG
 62
     7
100
AcDb2dPolyline
 66
     1
 10
0.0
 20
0.0
 30
0.0
  0
VERTEX
  5
3A6
330
3A5
100
AcDbEntity
  8
BEMAßUNG
 62
     7
100
AcDbVertex
100
AcDb2dVertex
 10
36.64306910976285
 20
163.6201591930359
 30
0.0
  0
VERTEX
  5
3A7
330
3A5
100
AcDbEntity
  8
BEMAßUNG
 62
     7
100
AcDbVertex
100
AcDb2dVertex
 10
33.52904730064552
 20
163.6201591930359
 30
0.0
  0
SEQEND
  5
3A8
330
3A5
100
AcDbEntity
  8
BEMAßUNG
  0
POLYLINE
  5
3A9
330
1F
100
AcDbEntity
  8
BEMAßUNG
 62
     7
100
AcDb2dPolyline
 66
     1
 10
0.0
 20
0.0
 30
0.0
  0
VERTEX
  5
3AA
330
3A9
100
AcDbEntity
  8
BEMAßUNG
 62
     7
100
AcDbVertex
100
AcDb2dVertex
 10
36.64306910976285
 20
163.6709743514434
 30
0.0
  0
VERTEX
  5
3AB
330
3A9
100
AcDbEntity
  8
BEMAßUNG
 62
     7
100
AcDbVertex
100
AcDb2dVertex
 10
33.14319660629754
 20
163.6709743514434
 30
0.0
  0
SEQEND
  5
3AC
330
3A9
100
AcDbEntity
  8
BEMAßUNG
  0
POLYLINE
  5
3AD
330
1F
100
AcDbEntity
  8
BEMAßUNG
 62
     7
100
AcDb2dPolyline
 66
     1
 10
0.0
 20
0.0
 30
0.0
  0
VERTEX
  5
3AE
330
3AD
100
AcDbEntity
  8
BEMAßUNG
 62
     7
100
AcDbVertex
100
AcDb2dVertex
 10
36.64306910976285
 20
164.128138522336
 30
0.0
  0
VERTEX
  5
3AF
330
3AD
100
AcDbEntity
  8
BEMAßUNG
 62
     7
100
AcDbVertex
100
AcDb2dVertex
 10
36.61585285542937
 20
164.128138522336
 30
0.0
  0
SEQEND
  5
3B0
330
3AD
100
AcDbEntity
  8
BEMAßUNG
  0
POLYLINE
  5
3B1
330
1F
100
AcDbEntity
  8
BEMAßUNG
 62
     7
100
AcDb2dPolyline
 66
     1
 10
0.0
 20
0.0
 30
0.0
  0
VERTEX
  5
3B2
330
3B1
100
AcDbEntity
  8
BEMAßUNG
 62
     7
100
AcDbVertex
100
AcDb2dVertex
 10
36.64306910976285
 20
164.128138522336
 30
0.0
  0
VERTEX
  5
3B3
330
3B1
100
AcDbEntity
  8
BEMAßUNG
 62
     7
100
AcDbVertex
100
AcDb2dVertex
 10
36.61585285542937
 20
164.128138522336
 30
0.0
  0
SEQEND
  5
3B4
330
3B1
100
AcDbEntity
  8
BEMAßUNG
  0
POLYLINE
  5
3B5
330
1F
100
AcDbEntity
  8
BEMAßUNG
 62
     7
100
AcDb2dPolyline
 66
     1
 10
0.0
 20
0.0
 30
0.0
  0
VERTEX
  5
3B6
330
3B5
100
AcDbEntity
  8
BEMAßUNG
 62
     7
100
AcDbVertex
100
AcDb2dVertex
 10
36.64306910976285
 20
164.0773233639286
 30
0.0
  0
VERTEX
  5
3B7
330
3B5
100
AcDbEntity
  8
BEMAßUNG
 62
     7
100
AcDbVertex
100
AcDb2dVertex
 10
36.23000216108139
 20
164.0773233639286
 30
0.0
  0
SEQEND
  5
3B8
330
3B5
100
AcDbEntity
  8
BEMAßUNG
  0
POLYLINE
  5
3B9
330
1F
100
AcDbEntity
  8
BEMAßUNG
 62
     7
100
AcDb2dPolyline
 66
     1
 10
0.0
 20
0.0
 30
0.0
  0
VERTEX
  5
3BA
330
3B9
100
AcDbEntity
  8
BEMAßUNG
 62
     7
100
AcDbVertex
100
AcDb2dVertex
 10
36.64306910976285
 20
164.0268527150697
 30
0.0
  0
VERTEX
  5
3BB
330
3B9
100
AcDbEntity
  8
BEMAßUNG
 62
     7
100
AcDbVertex
100
AcDb2dVertex
 10
35.8446682310562
 20
164.0268527150697
 30
0.0
  0
SEQEND
  5
3BC
330
3B9
100
AcDbEntity
  8
BEMAßUNG
  0
POLYLINE
  5
3BD
330
1F
100
AcDbEntity
  8
BEMAßUNG
 62
     7
100
AcDb2dPolyline
 66
     1
 10
0.0
 20
0.0
 30
0.0
  0
VERTEX
  5
3BE
330
3BD
100
AcDbEntity
  8
BEMAßUNG
 62
     7
100
AcDbVertex
100
AcDb2dVertex
 10
36.64306910976285
 20
163.9760375566622
 30
0.0
  0
VERTEX
  5
3BF
330
3BD
100
AcDbEntity
  8
BEMAßUNG
 62
     7
100
AcDbVertex
100
AcDb2dVertex
 10
35.45847302715969
 20
163.9760375566622
 30
0.0
  0
SEQEND
  5
3C0
330
3BD
100
AcDbEntity
  8
BEMAßUNG
  0
POLYLINE
  5
3C1
330
1F
100
AcDbEntity
  8
BEMAßUNG
 62
     7
100
AcDb2dPolyline
 66
     1
 10
0.0
 20
0.0
 30
0.0
  0
VERTEX
  5
3C2
330
3C1
100
AcDbEntity
  8
BEMAßUNG
 62
     7
100
AcDbVertex
100
AcDb2dVertex
 10
36.64306910976285
 20
163.9252223982548
 30
0.0
  0
VERTEX
  5
3C3
330
3C1
100
AcDbEntity
  8
BEMAßUNG
 62
     7
100
AcDbVertex
100
AcDb2dVertex
 10
35.07245007803744
 20
163.9252223982548
 30
0.0
  0
SEQEND
  5
3C4
330
3C1
100
AcDbEntity
  8
BEMAßUNG
  0
POLYLINE
  5
3C5
330
1F
100
AcDbEntity
  8
BEMAßUNG
 62
     7
100
AcDb2dPolyline
 66
     1
 10
0.0
 20
0.0
 30
0.0
  0
VERTEX
  5
3C6
330
3C5
100
AcDbEntity
  8
BEMAßUNG
 62
     7
100
AcDbVertex
100
AcDb2dVertex
 10
36.64306910976285
 20
163.8744072398474
 30
0.0
  0
VERTEX
  5
3C7
330
3C5
100
AcDbEntity
  8
BEMAßUNG
 62
     7
100
AcDbVertex
100
AcDb2dVertex
 10
34.68659938368946
 20
163.8744072398474
 30
0.0
  0
SEQEND
  5
3C8
330
3C5
100
AcDbEntity
  8
BEMAßUNG
  0
POLYLINE
  5
3C9
330
1F
100
AcDbEntity
  8
BEMAßUNG
 62
     7
100
AcDb2dPolyline
 66
     1
 10
0.0
 20
0.0
 30
0.0
  0
VERTEX
  5
3CA
330
3C9
100
AcDbEntity
  8
BEMAßUNG
 62
     7
100
AcDbVertex
100
AcDb2dVertex
 10
36.64306910976285
 20
163.8237643362142
 30
0.0
  0
VERTEX
  5
3CB
330
3C9
100
AcDbEntity
  8
BEMAßUNG
 62
     7
100
AcDbVertex
100
AcDb2dVertex
 10
34.30057643456722
 20
163.8237643362142
 30
0.0
  0
SEQEND
  5
3CC
330
3C9
100
AcDbEntity
  8
BEMAßUNG
  0
POLYLINE
  5
3CD
330
1F
100
AcDbEntity
  8
BEMAßUNG
 62
     7
100
AcDb2dPolyline
 66
     1
 10
0.0
 20
0.0
 30
0.0
  0
VERTEX
  5
3CE
330
3CD
100
AcDbEntity
  8
BEMAßUNG
 62
     7
100
AcDbVertex
100
AcDb2dVertex
 10
36.64306910976285
 20
163.7726046682583
 30
0.0
  0
VERTEX
  5
3CF
330
3CD
100
AcDbEntity
  8
BEMAßUNG
 62
     7
100
AcDbVertex
100
AcDb2dVertex
 10
33.91507024976776
 20
163.7726046682583
 30
0.0
  0
SEQEND
  5
3D0
330
3CD
100
AcDbEntity
  8
BEMAßUNG
  0
POLYLINE
  5
3D1
330
1F
100
AcDbEntity
  8
BEMAßUNG
 62
     7
100
AcDb2dPolyline
 66
     1
 10
0.0
 20
0.0
 30
0.0
  0
VERTEX
  5
3D2
330
3D1
100
AcDbEntity
  8
BEMAßUNG
 62
     7
100
AcDbVertex
100
AcDb2dVertex
 10
36.64306910976285
 20
163.7217895098508
 30
0.0
  0
VERTEX
  5
3D3
330
3D1
100
AcDbEntity
  8
BEMAßUNG
 62
     7
100
AcDbVertex
100
AcDb2dVertex
 10
33.52904730064552
 20
163.7217895098508
 30
0.0
  0
SEQEND
  5
3D4
330
3D1
100
AcDbEntity
  8
BEMAßUNG
  0
POLYLINE
  5
3D5
330
1F
100
AcDbEntity
  8
BEMAßUNG
 62
     7
100
AcDb2dPolyline
 66
     1
 10
0.0
 20
0.0
 30
0.0
  0
VERTEX
  5
3D6
330
3D5
100
AcDbEntity
  8
BEMAßUNG
 62
     7
100
AcDbVertex
100
AcDb2dVertex
 10
36.64306910976285
 20
163.6709743514434
 30
0.0
  0
VERTEX
  5
3D7
330
3D5
100
AcDbEntity
  8
BEMAßUNG
 62
     7
100
AcDbVertex
100
AcDb2dVertex
 10
33.14319660629754
 20
163.6709743514434
 30
0.0
  0
SEQEND
  5
3D8
330
3D5
100
AcDbEntity
  8
BEMAßUNG
  0
POLYLINE
  5
3D9
330
1F
100
AcDbEntity
  8
BEMAßUNG
 62
     7
100
AcDb2dPolyline
 66
     1
 10
0.0
 20
0.0
 30
0.0
  0
VERTEX
  5
3DA
330
3D9
100
AcDbEntity
  8
BEMAßUNG
 62
     7
100
AcDbVertex
100
AcDb2dVertex
 10
58.14304875933577
 20
163.6709743514434
 30
0.0
  0
VERTEX
  5
3DB
330
3D9
100
AcDbEntity
  8
BEMAßUNG
 62
     7
100
AcDbVertex
100
AcDb2dVertex
 10
54.64317625587046
 20
164.1319281273698
 30
0.0
  0
VERTEX
  5
3DC
330
3D9
100
AcDbEntity
  8
BEMAßUNG
 62
     7
100
AcDbVertex
100
AcDb2dVertex
 10
54.64317625587046
 20
163.2105373398397
 30
0.0
  0
VERTEX
  5
3DD
330
3D9
100
AcDbEntity
  8
BEMAßUNG
 62
     7
100
AcDbVertex
100
AcDb2dVertex
 10
58.14304875933577
 20
163.6709743514434
 30
0.0
  0
SEQEND
  5
3DE
330
3D9
100
AcDbEntity
  8
BEMAßUNG
  0
POLYLINE
  5
3DF
330
1F
100
AcDbEntity
  8
BEMAßUNG
 62
     7
100
AcDb2dPolyline
 66
     1
 10
0.0
 20
0.0
 30
0.0
  0
VERTEX
  5
3E0
330
3DF
100
AcDbEntity
  8
BEMAßUNG
 62
     7
100
AcDbVertex
100
AcDb2dVertex
 10
54.64317625587046
 20
164.128138522336
 30
0.0
  0
VERTEX
  5
3E1
330
3DF
100
AcDbEntity
  8
BEMAßUNG
 62
     7
100
AcDbVertex
100
AcDb2dVertex
 10
54.67039251020393
 20
164.128138522336
 30
0.0
  0
SEQEND
  5
3E2
330
3DF
100
AcDbEntity
  8
BEMAßUNG
  0
POLYLINE
  5
3E3
330
1F
100
AcDbEntity
  8
BEMAßUNG
 62
     7
100
AcDb2dPolyline
 66
     1
 10
0.0
 20
0.0
 30
0.0
  0
VERTEX
  5
3E4
330
3E3
100
AcDbEntity
  8
BEMAßUNG
 62
     7
100
AcDbVertex
100
AcDb2dVertex
 10
54.64317625587046
 20
164.128138522336
 30
0.0
  0
VERTEX
  5
3E5
330
3E3
100
AcDbEntity
  8
BEMAßUNG
 62
     7
100
AcDbVertex
100
AcDb2dVertex
 10
54.67039251020393
 20
164.128138522336
 30
0.0
  0
SEQEND
  5
3E6
330
3E3
100
AcDbEntity
  8
BEMAßUNG
  0
POLYLINE
  5
3E7
330
1F
100
AcDbEntity
  8
BEMAßUNG
 62
     7
100
AcDb2dPolyline
 66
     1
 10
0.0
 20
0.0
 30
0.0
  0
VERTEX
  5
3E8
330
3E7
100
AcDbEntity
  8
BEMAßUNG
 62
     7
100
AcDbVertex
100
AcDb2dVertex
 10
54.64317625587046
 20
164.0773233639286
 30
0.0
  0
VERTEX
  5
3E9
330
3E7
100
AcDbEntity
  8
BEMAßUNG
 62
     7
100
AcDbVertex
100
AcDb2dVertex
 10
55.05624320455191
 20
164.0773233639286
 30
0.0
  0
SEQEND
  5
3EA
330
3E7
100
AcDbEntity
  8
BEMAßUNG
  0
POLYLINE
  5
3EB
330
1F
100
AcDbEntity
  8
BEMAßUNG
 62
     7
100
AcDb2dPolyline
 66
     1
 10
0.0
 20
0.0
 30
0.0
  0
VERTEX
  5
3EC
330
3EB
100
AcDbEntity
  8
BEMAßUNG
 62
     7
100
AcDbVertex
100
AcDb2dVertex
 10
54.64317625587046
 20
164.0268527150697
 30
0.0
  0
VERTEX
  5
3ED
330
3EB
100
AcDbEntity
  8
BEMAßUNG
 62
     7
100
AcDbVertex
100
AcDb2dVertex
 10
55.44261066322268
 20
164.0268527150697
 30
0.0
  0
SEQEND
  5
3EE
330
3EB
100
AcDbEntity
  8
BEMAßUNG
  0
POLYLINE
  5
3EF
330
1F
100
AcDbEntity
  8
BEMAßUNG
 62
     7
100
AcDb2dPolyline
 66
     1
 10
0.0
 20
0.0
 30
0.0
  0
VERTEX
  5
3F0
330
3EF
100
AcDbEntity
  8
BEMAßUNG
 62
     7
100
AcDbVertex
100
AcDb2dVertex
 10
54.64317625587046
 20
163.9760375566622
 30
0.0
  0
VERTEX
  5
3F1
330
3EF
100
AcDbEntity
  8
BEMAßUNG
 62
     7
100
AcDbVertex
100
AcDb2dVertex
 10
55.82777233847361
 20
163.9760375566622
 30
0.0
  0
SEQEND
  5
3F2
330
3EF
100
AcDbEntity
  8
BEMAßUNG
  0
POLYLINE
  5
3F3
330
1F
100
AcDbEntity
  8
BEMAßUNG
 62
     7
100
AcDb2dPolyline
 66
     1
 10
0.0
 20
0.0
 30
0.0
  0
VERTEX
  5
3F4
330
3F3
100
AcDbEntity
  8
BEMAßUNG
 62
     7
100
AcDbVertex
100
AcDb2dVertex
 10
54.64317625587046
 20
163.9252223982548
 30
0.0
  0
VERTEX
  5
3F5
330
3F3
100
AcDbEntity
  8
BEMAßUNG
 62
     7
100
AcDbVertex
100
AcDb2dVertex
 10
56.21379528759586
 20
163.9252223982548
 30
0.0
  0
SEQEND
  5
3F6
330
3F3
100
AcDbEntity
  8
BEMAßUNG
  0
POLYLINE
  5
3F7
330
1F
100
AcDbEntity
  8
BEMAßUNG
 62
     7
100
AcDb2dPolyline
 66
     1
 10
0.0
 20
0.0
 30
0.0
  0
VERTEX
  5
3F8
330
3F7
100
AcDbEntity
  8
BEMAßUNG
 62
     7
100
AcDbVertex
100
AcDb2dVertex
 10
54.64317625587046
 20
163.8744072398474
 30
0.0
  0
VERTEX
  5
3F9
330
3F7
100
AcDbEntity
  8
BEMAßUNG
 62
     7
100
AcDbVertex
100
AcDb2dVertex
 10
56.59964598194384
 20
163.8744072398474
 30
0.0
  0
SEQEND
  5
3FA
330
3F7
100
AcDbEntity
  8
BEMAßUNG
  0
POLYLINE
  5
3FB
330
1F
100
AcDbEntity
  8
BEMAßUNG
 62
     7
100
AcDb2dPolyline
 66
     1
 10
0.0
 20
0.0
 30
0.0
  0
VERTEX
  5
3FC
330
3FB
100
AcDbEntity
  8
BEMAßUNG
 62
     7
100
AcDbVertex
100
AcDb2dVertex
 10
54.64317625587046
 20
163.8237643362142
 30
0.0
  0
VERTEX
  5
3FD
330
3FB
100
AcDbEntity
  8
BEMAßUNG
 62
     7
100
AcDbVertex
100
AcDb2dVertex
 10
56.98601344061461
 20
163.8237643362142
 30
0.0
  0
SEQEND
  5
3FE
330
3FB
100
AcDbEntity
  8
BEMAßUNG
  0
POLYLINE
  5
3FF
330
1F
100
AcDbEntity
  8
BEMAßUNG
 62
     7
100
AcDb2dPolyline
 66
     1
 10
0.0
 20
0.0
 30
0.0
  0
VERTEX
  5
400
330
3FF
100
AcDbEntity
  8
BEMAßUNG
 62
     7
100
AcDbVertex
100
AcDb2dVertex
 10
54.64317625587046
 20
163.7726046682583
 30
0.0
  0
VERTEX
  5
401
330
3FF
100
AcDbEntity
  8
BEMAßUNG
 62
     7
100
AcDbVertex
100
AcDb2dVertex
 10
57.37186413496259
 20
163.7726046682583
 30
0.0
  0
SEQEND
  5
402
330
3FF
100
AcDbEntity
  8
BEMAßUNG
  0
POLYLINE
  5
403
330
1F
100
AcDbEntity
  8
BEMAßUNG
 62
     7
100
AcDb2dPolyline
 66
     1
 10
0.0
 20
0.0
 30
0.0
  0
VERTEX
  5
404
330
403
100
AcDbEntity
  8
BEMAßUNG
 62
     7
100
AcDbVertex
100
AcDb2dVertex
 10
54.64317625587046
 20
163.7217895098508
 30
0.0
  0
VERTEX
  5
405
330
403
100
AcDbEntity
  8
BEMAßUNG
 62
     7
100
AcDbVertex
100
AcDb2dVertex
 10
57.75719806498778
 20
163.7217895098508
 30
0.0
  0
SEQEND
  5
406
330
403
100
AcDbEntity
  8
BEMAßUNG
  0
POLYLINE
  5
407
330
1F
100
AcDbEntity
  8
BEMAßUNG
 62
     7
100
AcDb2dPolyline
 66
     1
 10
0.0
 20
0.0
 30
0.0
  0
VERTEX
  5
408
330
407
100
AcDbEntity
  8
BEMAßUNG
 62
     7
100
AcDbVertex
100
AcDb2dVertex
 10
54.64317625587046
 20
163.6709743514434
 30
0.0
  0
VERTEX
  5
409
330
407
100
AcDbEntity
  8
BEMAßUNG
 62
     7
100
AcDbVertex
100
AcDb2dVertex
 10
58.14304875933577
 20
163.6709743514434
 30
0.0
  0
SEQEND
  5
40A
330
407
100
AcDbEntity
  8
BEMAßUNG
  0
POLYLINE
  5
40B
330
1F
100
AcDbEntity
  8
BEMAßUNG
 62
     7
100
AcDb2dPolyline
 66
     1
 10
0.0
 20
0.0
 30
0.0
  0
VERTEX
  5
40C
330
40B
100
AcDbEntity
  8
BEMAßUNG
 62
     7
100
AcDbVertex
100
AcDb2dVertex
 10
54.64317625587046
 20
163.2136379257765
 30
0.0
  0
VERTEX
  5
40D
330
40B
100
AcDbEntity
  8
BEMAßUNG
 62
     7
100
AcDbVertex
100
AcDb2dVertex
 10
54.67039251020393
 20
163.2136379257765
 30
0.0
  0
SEQEND
  5
40E
330
40B
100
AcDbEntity
  8
BEMAßUNG
  0
POLYLINE
  5
40F
330
1F
100
AcDbEntity
  8
BEMAßUNG
 62
     7
100
AcDb2dPolyline
 66
     1
 10
0.0
 20
0.0
 30
0.0
  0
VERTEX
  5
410
330
40F
100
AcDbEntity
  8
BEMAßUNG
 62
     7
100
AcDbVertex
100
AcDb2dVertex
 10
54.64317625587046
 20
163.2136379257765
 30
0.0
  0
VERTEX
  5
411
330
40F
100
AcDbEntity
  8
BEMAßUNG
 62
     7
100
AcDbVertex
100
AcDb2dVertex
 10
54.67039251020393
 20
163.2136379257765
 30
0.0
  0
SEQEND
  5
412
330
40F
100
AcDbEntity
  8
BEMAßUNG
  0
POLYLINE
  5
413
330
1F
100
AcDbEntity
  8
BEMAßUNG
 62
     7
100
AcDb2dPolyline
 66
     1
 10
0.0
 20
0.0
 30
0.0
  0
VERTEX
  5
414
330
413
100
AcDbEntity
  8
BEMAßUNG
 62
     7
100
AcDbVertex
100
AcDb2dVertex
 10
54.64317625587046
 20
163.2644530841839
 30
0.0
  0
VERTEX
  5
415
330
413
100
AcDbEntity
  8
BEMAßUNG
 62
     7
100
AcDbVertex
100
AcDb2dVertex
 10
55.05624320455191
 20
163.2644530841839
 30
0.0
  0
SEQEND
  5
416
330
413
100
AcDbEntity
  8
BEMAßUNG
  0
POLYLINE
  5
417
330
1F
100
AcDbEntity
  8
BEMAßUNG
 62
     7
100
AcDb2dPolyline
 66
     1
 10
0.0
 20
0.0
 30
0.0
  0
VERTEX
  5
418
330
417
100
AcDbEntity
  8
BEMAßUNG
 62
     7
100
AcDbVertex
100
AcDb2dVertex
 10
54.64317625587046
 20
163.3156127521399
 30
0.0
  0
VERTEX
  5
419
330
417
100
AcDbEntity
  8
BEMAßUNG
 62
     7
100
AcDbVertex
100
AcDb2dVertex
 10
55.44261066322268
 20
163.3156127521399
 30
0.0
  0
SEQEND
  5
41A
330
417
100
AcDbEntity
  8
BEMAßUNG
  0
POLYLINE
  5
41B
330
1F
100
AcDbEntity
  8
BEMAßUNG
 62
     7
100
AcDb2dPolyline
 66
     1
 10
0.0
 20
0.0
 30
0.0
  0
VERTEX
  5
41C
330
41B
100
AcDbEntity
  8
BEMAßUNG
 62
     7
100
AcDbVertex
100
AcDb2dVertex
 10
54.64317625587046
 20
163.3664279105473
 30
0.0
  0
VERTEX
  5
41D
330
41B
100
AcDbEntity
  8
BEMAßUNG
 62
     7
100
AcDbVertex
100
AcDb2dVertex
 10
55.82777233847361
 20
163.3664279105473
 30
0.0
  0
SEQEND
  5
41E
330
41B
100
AcDbEntity
  8
BEMAßUNG
  0
POLYLINE
  5
41F
330
1F
100
AcDbEntity
  8
BEMAßUNG
 62
     7
100
AcDb2dPolyline
 66
     1
 10
0.0
 20
0.0
 30
0.0
  0
VERTEX
  5
420
330
41F
100
AcDbEntity
  8
BEMAßUNG
 62
     7
100
AcDbVertex
100
AcDb2dVertex
 10
54.64317625587046
 20
163.4172430689547
 30
0.0
  0
VERTEX
  5
421
330
41F
100
AcDbEntity
  8
BEMAßUNG
 62
     7
100
AcDbVertex
100
AcDb2dVertex
 10
56.21379528759586
 20
163.4172430689547
 30
0.0
  0
SEQEND
  5
422
330
41F
100
AcDbEntity
  8
BEMAßUNG
  0
POLYLINE
  5
423
330
1F
100
AcDbEntity
  8
BEMAßUNG
 62
     7
100
AcDb2dPolyline
 66
     1
 10
0.0
 20
0.0
 30
0.0
  0
VERTEX
  5
424
330
423
100
AcDbEntity
  8
BEMAßUNG
 62
     7
100
AcDbVertex
100
AcDb2dVertex
 10
54.64317625587046
 20
163.4680582273621
 30
0.0
  0
VERTEX
  5
425
330
423
100
AcDbEntity
  8
BEMAßUNG
 62
     7
100
AcDbVertex
100
AcDb2dVertex
 10
56.59964598194384
 20
163.4680582273621
 30
0.0
  0
SEQEND
  5
426
330
423
100
AcDbEntity
  8
BEMAßUNG
  0
POLYLINE
  5
427
330
1F
100
AcDbEntity
  8
BEMAßUNG
 62
     7
100
AcDb2dPolyline
 66
     1
 10
0.0
 20
0.0
 30
0.0
  0
VERTEX
  5
428
330
427
100
AcDbEntity
  8
BEMAßUNG
 62
     7
100
AcDbVertex
100
AcDb2dVertex
 10
54.64317625587046
 20
163.5188733857696
 30
0.0
  0
VERTEX
  5
429
330
427
100
AcDbEntity
  8
BEMAßUNG
 62
     7
100
AcDbVertex
100
AcDb2dVertex
 10
56.98601344061461
 20
163.5188733857696
 30
0.0
  0
SEQEND
  5
42A
330
427
100
AcDbEntity
  8
BEMAßUNG
  0
POLYLINE
  5
42B
330
1F
100
AcDbEntity
  8
BEMAßUNG
 62
     7
100
AcDb2dPolyline
 66
     1
 10
0.0
 20
0.0
 30
0.0
  0
VERTEX
  5
42C
330
42B
100
AcDbEntity
  8
BEMAßUNG
 62
     7
100
AcDbVertex
100
AcDb2dVertex
 10
54.64317625587046
 20
163.5693440346285
 30
0.0
  0
VERTEX
  5
42D
330
42B
100
AcDbEntity
  8
BEMAßUNG
 62
     7
100
AcDbVertex
100
AcDb2dVertex
 10
57.37186413496259
 20
163.5693440346285
 30
0.0
  0
SEQEND
  5
42E
330
42B
100
AcDbEntity
  8
BEMAßUNG
  0
POLYLINE
  5
42F
330
1F
100
AcDbEntity
  8
BEMAßUNG
 62
     7
100
AcDb2dPolyline
 66
     1
 10
0.0
 20
0.0
 30
0.0
  0
VERTEX
  5
430
330
42F
100
AcDbEntity
  8
BEMAßUNG
 62
     7
100
AcDbVertex
100
AcDb2dVertex
 10
54.64317625587046
 20
163.6201591930359
 30
0.0
  0
VERTEX
  5
431
330
42F
100
AcDbEntity
  8
BEMAßUNG
 62
     7
100
AcDbVertex
100
AcDb2dVertex
 10
57.75719806498778
 20
163.6201591930359
 30
0.0
  0
SEQEND
  5
432
330
42F
100
AcDbEntity
  8
BEMAßUNG
  0
POLYLINE
  5
433
330
1F
100
AcDbEntity
  8
BEMAßUNG
 62
     7
100
AcDb2dPolyline
 66
     1
 10
0.0
 20
0.0
 30
0.0
  0
VERTEX
  5
434
330
433
100
AcDbEntity
  8
BEMAßUNG
 62
     7
100
AcDbVertex
100
AcDb2dVertex
 10
54.64317625587046
 20
163.6709743514434
 30
0.0
  0
VERTEX
  5
435
330
433
100
AcDbEntity
  8
BEMAßUNG
 62
     7
100
AcDbVertex
100
AcDb2dVertex
 10
58.14304875933577
 20
163.6709743514434
 30
0.0
  0
SEQEND
  5
436
330
433
100
AcDbEntity
  8
BEMAßUNG
  0
POLYLINE
  5
437
330
1F
100
AcDbEntity
  8
BEMAßUNG
 62
     7
100
AcDb2dPolyline
 66
     1
 10
0.0
 20
0.0
 30
0.0
  0
VERTEX
  5
438
330
437
100
AcDbEntity
  8
BEMAßUNG
 62
     7
100
AcDbVertex
100
AcDb2dVertex
 10
33.94349228752107
 20
185.6785888207679
 30
0.0
  0
VERTEX
  5
439
330
437
100
AcDbEntity
  8
BEMAßUNG
 62
     7
100
AcDbVertex
100
AcDb2dVertex
 10
21.14341226684957
 20
185.6785888207679
 30
0.0
  0
SEQEND
  5
43A
330
437
100
AcDbEntity
  8
BEMAßUNG
  0
POLYLINE
  5
43B
330
1F
100
AcDbEntity
  8
BEMAßUNG
 62
     7
100
AcDb2dPolyline
 66
     1
 10
0.0
 20
0.0
 30
0.0
  0
VERTEX
  5
43C
330
43B
100
AcDbEntity
  8
BEMAßUNG
 62
     7
100
AcDbVertex
100
AcDb2dVertex
 10
39.84666340149667
 20
207.6784518252505
 30
0.0
  0
VERTEX
  5
43D
330
43B
100
AcDbEntity
  8
BEMAßUNG
 62
     7
100
AcDbVertex
100
AcDb2dVertex
 10
21.14341226684957
 20
207.6784518252505
 30
0.0
  0
SEQEND
  5
43E
330
43B
100
AcDbEntity
  8
BEMAßUNG
  0
POLYLINE
  5
43F
330
1F
100
AcDbEntity
  8
BEMAßUNG
 62
     7
100
AcDb2dPolyline
 66
     1
 10
0.0
 20
0.0
 30
0.0
  0
VERTEX
  5
440
330
43F
100
AcDbEntity
  8
BEMAßUNG
 62
     7
100
AcDbVertex
100
AcDb2dVertex
 10
23.1432901960371
 20
185.6785888207679
 30
0.0
  0
VERTEX
  5
441
330
43F
100
AcDbEntity
  8
BEMAßUNG
 62
     7
100
AcDbVertex
100
AcDb2dVertex
 10
23.1432901960371
 20
207.6784518252505
 30
0.0
  0
SEQEND
  5
442
330
43F
100
AcDbEntity
  8
BEMAßUNG
  0
POLYLINE
  5
443
330
1F
100
AcDbEntity
  8
BEMAßUNG
 62
     7
100
AcDb2dPolyline
 66
     1
 10
0.0
 20
0.0
 30
0.0
  0
VERTEX
  5
444
330
443
100
AcDbEntity
  8
BEMAßUNG
 62
     7
100
AcDbVertex
100
AcDb2dVertex
 10
23.1432901960371
 20
185.6785888207679
 30
0.0
  0
VERTEX
  5
445
330
443
100
AcDbEntity
  8
BEMAßUNG
 62
     7
100
AcDbVertex
100
AcDb2dVertex
 10
23.60441622673779
 20
189.1784613242332
 30
0.0
  0
VERTEX
  5
446
330
443
100
AcDbEntity
  8
BEMAßUNG
 62
     7
100
AcDbVertex
100
AcDb2dVertex
 10
22.68250867488493
 20
189.1784613242332
 30
0.0
  0
VERTEX
  5
447
330
443
100
AcDbEntity
  8
BEMAßUNG
 62
     7
100
AcDbVertex
100
AcDb2dVertex
 10
23.1432901960371
 20
185.6785888207679
 30
0.0
  0
SEQEND
  5
448
330
443
100
AcDbEntity
  8
BEMAßUNG
  0
POLYLINE
  5
449
330
1F
100
AcDbEntity
  8
BEMAßUNG
 62
     7
100
AcDb2dPolyline
 66
     1
 10
0.0
 20
0.0
 30
0.0
  0
VERTEX
  5
44A
330
449
100
AcDbEntity
  8
BEMAßUNG
 62
     7
100
AcDbVertex
100
AcDb2dVertex
 10
23.60045436692975
 20
189.1784613242332
 30
0.0
  0
VERTEX
  5
44B
330
449
100
AcDbEntity
  8
BEMAßUNG
 62
     7
100
AcDbVertex
100
AcDb2dVertex
 10
23.60045436692975
 20
189.151417324674
 30
0.0
  0
SEQEND
  5
44C
330
449
100
AcDbEntity
  8
BEMAßUNG
  0
POLYLINE
  5
44D
330
1F
100
AcDbEntity
  8
BEMAßUNG
 62
     7
100
AcDb2dPolyline
 66
     1
 10
0.0
 20
0.0
 30
0.0
  0
VERTEX
  5
44E
330
44D
100
AcDbEntity
  8
BEMAßUNG
 62
     7
100
AcDbVertex
100
AcDb2dVertex
 10
23.60045436692975
 20
189.1784613242332
 30
0.0
  0
VERTEX
  5
44F
330
44D
100
AcDbEntity
  8
BEMAßUNG
 62
     7
100
AcDbVertex
100
AcDb2dVertex
 10
23.60045436692975
 20
189.151417324674
 30
0.0
  0
SEQEND
  5
450
330
44D
100
AcDbEntity
  8
BEMAßUNG
  0
POLYLINE
  5
451
330
1F
100
AcDbEntity
  8
BEMAßUNG
 62
     7
100
AcDb2dPolyline
 66
     1
 10
0.0
 20
0.0
 30
0.0
  0
VERTEX
  5
452
330
451
100
AcDbEntity
  8
BEMAßUNG
 62
     7
100
AcDbVertex
100
AcDb2dVertex
 10
23.54963920852231
 20
189.1784613242332
 30
0.0
  0
VERTEX
  5
453
330
451
100
AcDbEntity
  8
BEMAßUNG
 62
     7
100
AcDbVertex
100
AcDb2dVertex
 10
23.54963920852231
 20
188.7653943755517
 30
0.0
  0
SEQEND
  5
454
330
451
100
AcDbEntity
  8
BEMAßUNG
  0
POLYLINE
  5
455
330
1F
100
AcDbEntity
  8
BEMAßUNG
 62
     7
100
AcDb2dPolyline
 66
     1
 10
0.0
 20
0.0
 30
0.0
  0
VERTEX
  5
456
330
455
100
AcDbEntity
  8
BEMAßUNG
 62
     7
100
AcDbVertex
100
AcDb2dVertex
 10
23.4991685596634
 20
189.1784613242332
 30
0.0
  0
VERTEX
  5
457
330
455
100
AcDbEntity
  8
BEMAßUNG
 62
     7
100
AcDbVertex
100
AcDb2dVertex
 10
23.4991685596634
 20
188.3798881907523
 30
0.0
  0
SEQEND
  5
458
330
455
100
AcDbEntity
  8
BEMAßUNG
  0
POLYLINE
  5
459
330
1F
100
AcDbEntity
  8
BEMAßUNG
 62
     7
100
AcDb2dPolyline
 66
     1
 10
0.0
 20
0.0
 30
0.0
  0
VERTEX
  5
45A
330
459
100
AcDbEntity
  8
BEMAßUNG
 62
     7
100
AcDbVertex
100
AcDb2dVertex
 10
23.44835340125597
 20
189.1784613242332
 30
0.0
  0
VERTEX
  5
45B
330
459
100
AcDbEntity
  8
BEMAßUNG
 62
     7
100
AcDbVertex
100
AcDb2dVertex
 10
23.44835340125597
 20
187.99386524163
 30
0.0
  0
SEQEND
  5
45C
330
459
100
AcDbEntity
  8
BEMAßUNG
  0
POLYLINE
  5
45D
330
1F
100
AcDbEntity
  8
BEMAßUNG
 62
     7
100
AcDb2dPolyline
 66
     1
 10
0.0
 20
0.0
 30
0.0
  0
VERTEX
  5
45E
330
45D
100
AcDbEntity
  8
BEMAßUNG
 62
     7
100
AcDbVertex
100
AcDb2dVertex
 10
23.3977104976228
 20
189.1784613242332
 30
0.0
  0
VERTEX
  5
45F
330
45D
100
AcDbEntity
  8
BEMAßUNG
 62
     7
100
AcDbVertex
100
AcDb2dVertex
 10
23.3977104976228
 20
187.608014547282
 30
0.0
  0
SEQEND
  5
460
330
45D
100
AcDbEntity
  8
BEMAßUNG
  0
POLYLINE
  5
461
330
1F
100
AcDbEntity
  8
BEMAßUNG
 62
     7
100
AcDb2dPolyline
 66
     1
 10
0.0
 20
0.0
 30
0.0
  0
VERTEX
  5
462
330
461
100
AcDbEntity
  8
BEMAßUNG
 62
     7
100
AcDbVertex
100
AcDb2dVertex
 10
23.34689533921536
 20
189.1784613242332
 30
0.0
  0
VERTEX
  5
463
330
461
100
AcDbEntity
  8
BEMAßUNG
 62
     7
100
AcDbVertex
100
AcDb2dVertex
 10
23.34689533921536
 20
187.2219915981598
 30
0.0
  0
SEQEND
  5
464
330
461
100
AcDbEntity
  8
BEMAßUNG
  0
POLYLINE
  5
465
330
1F
100
AcDbEntity
  8
BEMAßUNG
 62
     7
100
AcDb2dPolyline
 66
     1
 10
0.0
 20
0.0
 30
0.0
  0
VERTEX
  5
466
330
465
100
AcDbEntity
  8
BEMAßUNG
 62
     7
100
AcDbVertex
100
AcDb2dVertex
 10
23.29608018080793
 20
189.1784613242332
 30
0.0
  0
VERTEX
  5
467
330
465
100
AcDbEntity
  8
BEMAßUNG
 62
     7
100
AcDbVertex
100
AcDb2dVertex
 10
23.29608018080793
 20
186.8357963942633
 30
0.0
  0
SEQEND
  5
468
330
465
100
AcDbEntity
  8
BEMAßUNG
  0
POLYLINE
  5
469
330
1F
100
AcDbEntity
  8
BEMAßUNG
 62
     7
100
AcDb2dPolyline
 66
     1
 10
0.0
 20
0.0
 30
0.0
  0
VERTEX
  5
46A
330
469
100
AcDbEntity
  8
BEMAßUNG
 62
     7
100
AcDbVertex
100
AcDb2dVertex
 10
23.24492051285197
 20
189.1784613242332
 30
0.0
  0
VERTEX
  5
46B
330
469
100
AcDbEntity
  8
BEMAßUNG
 62
     7
100
AcDbVertex
100
AcDb2dVertex
 10
23.24492051285197
 20
186.4504624642381
 30
0.0
  0
SEQEND
  5
46C
330
469
100
AcDbEntity
  8
BEMAßUNG
  0
POLYLINE
  5
46D
330
1F
100
AcDbEntity
  8
BEMAßUNG
 62
     7
100
AcDb2dPolyline
 66
     1
 10
0.0
 20
0.0
 30
0.0
  0
VERTEX
  5
46E
330
46D
100
AcDbEntity
  8
BEMAßUNG
 62
     7
100
AcDbVertex
100
AcDb2dVertex
 10
23.19410535444453
 20
189.1784613242332
 30
0.0
  0
VERTEX
  5
46F
330
46D
100
AcDbEntity
  8
BEMAßUNG
 62
     7
100
AcDbVertex
100
AcDb2dVertex
 10
23.19410535444453
 20
186.0646117698901
 30
0.0
  0
SEQEND
  5
470
330
46D
100
AcDbEntity
  8
BEMAßUNG
  0
POLYLINE
  5
471
330
1F
100
AcDbEntity
  8
BEMAßUNG
 62
     7
100
AcDb2dPolyline
 66
     1
 10
0.0
 20
0.0
 30
0.0
  0
VERTEX
  5
472
330
471
100
AcDbEntity
  8
BEMAßUNG
 62
     7
100
AcDbVertex
100
AcDb2dVertex
 10
23.1432901960371
 20
189.1784613242332
 30
0.0
  0
VERTEX
  5
473
330
471
100
AcDbEntity
  8
BEMAßUNG
 62
     7
100
AcDbVertex
100
AcDb2dVertex
 10
23.1432901960371
 20
185.6785888207679
 30
0.0
  0
SEQEND
  5
474
330
471
100
AcDbEntity
  8
BEMAßUNG
  0
POLYLINE
  5
475
330
1F
100
AcDbEntity
  8
BEMAßUNG
 62
     7
100
AcDb2dPolyline
 66
     1
 10
0.0
 20
0.0
 30
0.0
  0
VERTEX
  5
476
330
475
100
AcDbEntity
  8
BEMAßUNG
 62
     7
100
AcDbVertex
100
AcDb2dVertex
 10
22.68612602514444
 20
189.1784613242332
 30
0.0
  0
VERTEX
  5
477
330
475
100
AcDbEntity
  8
BEMAßUNG
 62
     7
100
AcDbVertex
100
AcDb2dVertex
 10
22.68612602514444
 20
189.151417324674
 30
0.0
  0
SEQEND
  5
478
330
475
100
AcDbEntity
  8
BEMAßUNG
  0
POLYLINE
  5
479
330
1F
100
AcDbEntity
  8
BEMAßUNG
 62
     7
100
AcDb2dPolyline
 66
     1
 10
0.0
 20
0.0
 30
0.0
  0
VERTEX
  5
47A
330
479
100
AcDbEntity
  8
BEMAßUNG
 62
     7
100
AcDbVertex
100
AcDb2dVertex
 10
22.68612602514444
 20
189.1784613242332
 30
0.0
  0
VERTEX
  5
47B
330
479
100
AcDbEntity
  8
BEMAßUNG
 62
     7
100
AcDbVertex
100
AcDb2dVertex
 10
22.68612602514444
 20
189.151417324674
 30
0.0
  0
SEQEND
  5
47C
330
479
100
AcDbEntity
  8
BEMAßUNG
  0
POLYLINE
  5
47D
330
1F
100
AcDbEntity
  8
BEMAßUNG
 62
     7
100
AcDb2dPolyline
 66
     1
 10
0.0
 20
0.0
 30
0.0
  0
VERTEX
  5
47E
330
47D
100
AcDbEntity
  8
BEMAßUNG
 62
     7
100
AcDbVertex
100
AcDb2dVertex
 10
22.73694118355188
 20
189.1784613242332
 30
0.0
  0
VERTEX
  5
47F
330
47D
100
AcDbEntity
  8
BEMAßUNG
 62
     7
100
AcDbVertex
100
AcDb2dVertex
 10
22.73694118355188
 20
188.7653943755517
 30
0.0
  0
SEQEND
  5
480
330
47D
100
AcDbEntity
  8
BEMAßUNG
  0
POLYLINE
  5
481
330
1F
100
AcDbEntity
  8
BEMAßUNG
 62
     7
100
AcDb2dPolyline
 66
     1
 10
0.0
 20
0.0
 30
0.0
  0
VERTEX
  5
482
330
481
100
AcDbEntity
  8
BEMAßUNG
 62
     7
100
AcDbVertex
100
AcDb2dVertex
 10
22.78810085150784
 20
189.1784613242332
 30
0.0
  0
VERTEX
  5
483
330
481
100
AcDbEntity
  8
BEMAßUNG
 62
     7
100
AcDbVertex
100
AcDb2dVertex
 10
22.78810085150784
 20
188.3798881907523
 30
0.0
  0
SEQEND
  5
484
330
481
100
AcDbEntity
  8
BEMAßUNG
  0
POLYLINE
  5
485
330
1F
100
AcDbEntity
  8
BEMAßUNG
 62
     7
100
AcDb2dPolyline
 66
     1
 10
0.0
 20
0.0
 30
0.0
  0
VERTEX
  5
486
330
485
100
AcDbEntity
  8
BEMAßUNG
 62
     7
100
AcDbVertex
100
AcDb2dVertex
 10
22.83891600991527
 20
189.1784613242332
 30
0.0
  0
VERTEX
  5
487
330
485
100
AcDbEntity
  8
BEMAßUNG
 62
     7
100
AcDbVertex
100
AcDb2dVertex
 10
22.83891600991527
 20
187.99386524163
 30
0.0
  0
SEQEND
  5
488
330
485
100
AcDbEntity
  8
BEMAßUNG
  0
POLYLINE
  5
489
330
1F
100
AcDbEntity
  8
BEMAßUNG
 62
     7
100
AcDb2dPolyline
 66
     1
 10
0.0
 20
0.0
 30
0.0
  0
VERTEX
  5
48A
330
489
100
AcDbEntity
  8
BEMAßUNG
 62
     7
100
AcDbVertex
100
AcDb2dVertex
 10
22.88955891354844
 20
189.1784613242332
 30
0.0
  0
VERTEX
  5
48B
330
489
100
AcDbEntity
  8
BEMAßUNG
 62
     7
100
AcDbVertex
100
AcDb2dVertex
 10
22.88955891354844
 20
187.608014547282
 30
0.0
  0
SEQEND
  5
48C
330
489
100
AcDbEntity
  8
BEMAßUNG
  0
POLYLINE
  5
48D
330
1F
100
AcDbEntity
  8
BEMAßUNG
 62
     7
100
AcDb2dPolyline
 66
     1
 10
0.0
 20
0.0
 30
0.0
  0
VERTEX
  5
48E
330
48D
100
AcDbEntity
  8
BEMAßUNG
 62
     7
100
AcDbVertex
100
AcDb2dVertex
 10
22.94037407195588
 20
189.1784613242332
 30
0.0
  0
VERTEX
  5
48F
330
48D
100
AcDbEntity
  8
BEMAßUNG
 62
     7
100
AcDbVertex
100
AcDb2dVertex
 10
22.94037407195588
 20
187.2219915981598
 30
0.0
  0
SEQEND
  5
490
330
48D
100
AcDbEntity
  8
BEMAßUNG
  0
POLYLINE
  5
491
330
1F
100
AcDbEntity
  8
BEMAßUNG
 62
     7
100
AcDb2dPolyline
 66
     1
 10
0.0
 20
0.0
 30
0.0
  0
VERTEX
  5
492
330
491
100
AcDbEntity
  8
BEMAßUNG
 62
     7
100
AcDbVertex
100
AcDb2dVertex
 10
22.99118923036331
 20
189.1784613242332
 30
0.0
  0
VERTEX
  5
493
330
491
100
AcDbEntity
  8
BEMAßUNG
 62
     7
100
AcDbVertex
100
AcDb2dVertex
 10
22.99118923036331
 20
186.8357963942633
 30
0.0
  0
SEQEND
  5
494
330
491
100
AcDbEntity
  8
BEMAßUNG
  0
POLYLINE
  5
495
330
1F
100
AcDbEntity
  8
BEMAßUNG
 62
     7
100
AcDb2dPolyline
 66
     1
 10
0.0
 20
0.0
 30
0.0
  0
VERTEX
  5
496
330
495
100
AcDbEntity
  8
BEMAßUNG
 62
     7
100
AcDbVertex
100
AcDb2dVertex
 10
23.04165987922223
 20
189.1784613242332
 30
0.0
  0
VERTEX
  5
497
330
495
100
AcDbEntity
  8
BEMAßUNG
 62
     7
100
AcDbVertex
100
AcDb2dVertex
 10
23.04165987922223
 20
186.4504624642381
 30
0.0
  0
SEQEND
  5
498
330
495
100
AcDbEntity
  8
BEMAßUNG
  0
POLYLINE
  5
499
330
1F
100
AcDbEntity
  8
BEMAßUNG
 62
     7
100
AcDb2dPolyline
 66
     1
 10
0.0
 20
0.0
 30
0.0
  0
VERTEX
  5
49A
330
499
100
AcDbEntity
  8
BEMAßUNG
 62
     7
100
AcDbVertex
100
AcDb2dVertex
 10
23.09247503762966
 20
189.1784613242332
 30
0.0
  0
VERTEX
  5
49B
330
499
100
AcDbEntity
  8
BEMAßUNG
 62
     7
100
AcDbVertex
100
AcDb2dVertex
 10
23.09247503762966
 20
186.0646117698901
 30
0.0
  0
SEQEND
  5
49C
330
499
100
AcDbEntity
  8
BEMAßUNG
  0
POLYLINE
  5
49D
330
1F
100
AcDbEntity
  8
BEMAßUNG
 62
     7
100
AcDb2dPolyline
 66
     1
 10
0.0
 20
0.0
 30
0.0
  0
VERTEX
  5
49E
330
49D
100
AcDbEntity
  8
BEMAßUNG
 62
     7
100
AcDbVertex
100
AcDb2dVertex
 10
23.1432901960371
 20
189.1784613242332
 30
0.0
  0
VERTEX
  5
49F
330
49D
100
AcDbEntity
  8
BEMAßUNG
 62
     7
100
AcDbVertex
100
AcDb2dVertex
 10
23.1432901960371
 20
185.6785888207679
 30
0.0
  0
SEQEND
  5
4A0
330
49D
100
AcDbEntity
  8
BEMAßUNG
  0
POLYLINE
  5
4A1
330
1F
100
AcDbEntity
  8
BEMAßUNG
 62
     7
100
AcDb2dPolyline
 66
     1
 10
0.0
 20
0.0
 30
0.0
  0
VERTEX
  5
4A2
330
4A1
100
AcDbEntity
  8
BEMAßUNG
 62
     7
100
AcDbVertex
100
AcDb2dVertex
 10
23.1432901960371
 20
207.6784518252505
 30
0.0
  0
VERTEX
  5
4A3
330
4A1
100
AcDbEntity
  8
BEMAßUNG
 62
     7
100
AcDbVertex
100
AcDb2dVertex
 10
22.68250867488493
 20
204.1785793217852
 30
0.0
  0
VERTEX
  5
4A4
330
4A1
100
AcDbEntity
  8
BEMAßUNG
 62
     7
100
AcDbVertex
100
AcDb2dVertex
 10
23.60441622673779
 20
204.1785793217852
 30
0.0
  0
VERTEX
  5
4A5
330
4A1
100
AcDbEntity
  8
BEMAßUNG
 62
     7
100
AcDbVertex
100
AcDb2dVertex
 10
23.1432901960371
 20
207.6784518252505
 30
0.0
  0
SEQEND
  5
4A6
330
4A1
100
AcDbEntity
  8
BEMAßUNG
  0
POLYLINE
  5
4A7
330
1F
100
AcDbEntity
  8
BEMAßUNG
 62
     7
100
AcDb2dPolyline
 66
     1
 10
0.0
 20
0.0
 30
0.0
  0
VERTEX
  5
4A8
330
4A7
100
AcDbEntity
  8
BEMAßUNG
 62
     7
100
AcDbVertex
100
AcDb2dVertex
 10
22.68612602514444
 20
204.1785793217852
 30
0.0
  0
VERTEX
  5
4A9
330
4A7
100
AcDbEntity
  8
BEMAßUNG
 62
     7
100
AcDbVertex
100
AcDb2dVertex
 10
22.68612602514444
 20
204.2054510665702
 30
0.0
  0
SEQEND
  5
4AA
330
4A7
100
AcDbEntity
  8
BEMAßUNG
  0
POLYLINE
  5
4AB
330
1F
100
AcDbEntity
  8
BEMAßUNG
 62
     7
100
AcDb2dPolyline
 66
     1
 10
0.0
 20
0.0
 30
0.0
  0
VERTEX
  5
4AC
330
4AB
100
AcDbEntity
  8
BEMAßUNG
 62
     7
100
AcDbVertex
100
AcDb2dVertex
 10
22.68612602514444
 20
204.1785793217852
 30
0.0
  0
VERTEX
  5
4AD
330
4AB
100
AcDbEntity
  8
BEMAßUNG
 62
     7
100
AcDbVertex
100
AcDb2dVertex
 10
22.68612602514444
 20
204.2054510665702
 30
0.0
  0
SEQEND
  5
4AE
330
4AB
100
AcDbEntity
  8
BEMAßUNG
  0
POLYLINE
  5
4AF
330
1F
100
AcDbEntity
  8
BEMAßUNG
 62
     7
100
AcDb2dPolyline
 66
     1
 10
0.0
 20
0.0
 30
0.0
  0
VERTEX
  5
4B0
330
4AF
100
AcDbEntity
  8
BEMAßUNG
 62
     7
100
AcDbVertex
100
AcDb2dVertex
 10
22.73694118355188
 20
204.1785793217852
 30
0.0
  0
VERTEX
  5
4B1
330
4AF
100
AcDbEntity
  8
BEMAßUNG
 62
     7
100
AcDbVertex
100
AcDb2dVertex
 10
22.73694118355188
 20
204.5916462704667
 30
0.0
  0
SEQEND
  5
4B2
330
4AF
100
AcDbEntity
  8
BEMAßUNG
  0
POLYLINE
  5
4B3
330
1F
100
AcDbEntity
  8
BEMAßUNG
 62
     7
100
AcDb2dPolyline
 66
     1
 10
0.0
 20
0.0
 30
0.0
  0
VERTEX
  5
4B4
330
4B3
100
AcDbEntity
  8
BEMAßUNG
 62
     7
100
AcDbVertex
100
AcDb2dVertex
 10
22.78810085150784
 20
204.1785793217852
 30
0.0
  0
VERTEX
  5
4B5
330
4B3
100
AcDbEntity
  8
BEMAßUNG
 62
     7
100
AcDbVertex
100
AcDb2dVertex
 10
22.78810085150784
 20
204.9773247100404
 30
0.0
  0
SEQEND
  5
4B6
330
4B3
100
AcDbEntity
  8
BEMAßUNG
  0
POLYLINE
  5
4B7
330
1F
100
AcDbEntity
  8
BEMAßUNG
 62
     7
100
AcDb2dPolyline
 66
     1
 10
0.0
 20
0.0
 30
0.0
  0
VERTEX
  5
4B8
330
4B7
100
AcDbEntity
  8
BEMAßUNG
 62
     7
100
AcDbVertex
100
AcDb2dVertex
 10
22.83891600991527
 20
204.1785793217852
 30
0.0
  0
VERTEX
  5
4B9
330
4B7
100
AcDbEntity
  8
BEMAßUNG
 62
     7
100
AcDbVertex
100
AcDb2dVertex
 10
22.83891600991527
 20
205.3635199139369
 30
0.0
  0
SEQEND
  5
4BA
330
4B7
100
AcDbEntity
  8
BEMAßUNG
  0
POLYLINE
  5
4BB
330
1F
100
AcDbEntity
  8
BEMAßUNG
 62
     7
100
AcDb2dPolyline
 66
     1
 10
0.0
 20
0.0
 30
0.0
  0
VERTEX
  5
4BC
330
4BB
100
AcDbEntity
  8
BEMAßUNG
 62
     7
100
AcDbVertex
100
AcDb2dVertex
 10
22.88955891354844
 20
204.1785793217852
 30
0.0
  0
VERTEX
  5
4BD
330
4BB
100
AcDbEntity
  8
BEMAßUNG
 62
     7
100
AcDbVertex
100
AcDb2dVertex
 10
22.88955891354844
 20
205.7488538439621
 30
0.0
  0
SEQEND
  5
4BE
330
4BB
100
AcDbEntity
  8
BEMAßUNG
  0
POLYLINE
  5
4BF
330
1F
100
AcDbEntity
  8
BEMAßUNG
 62
     7
100
AcDb2dPolyline
 66
     1
 10
0.0
 20
0.0
 30
0.0
  0
VERTEX
  5
4C0
330
4BF
100
AcDbEntity
  8
BEMAßUNG
 62
     7
100
AcDbVertex
100
AcDb2dVertex
 10
22.94037407195588
 20
204.1785793217852
 30
0.0
  0
VERTEX
  5
4C1
330
4BF
100
AcDbEntity
  8
BEMAßUNG
 62
     7
100
AcDbVertex
100
AcDb2dVertex
 10
22.94037407195588
 20
206.1350490478586
 30
0.0
  0
SEQEND
  5
4C2
330
4BF
100
AcDbEntity
  8
BEMAßUNG
  0
POLYLINE
  5
4C3
330
1F
100
AcDbEntity
  8
BEMAßUNG
 62
     7
100
AcDb2dPolyline
 66
     1
 10
0.0
 20
0.0
 30
0.0
  0
VERTEX
  5
4C4
330
4C3
100
AcDbEntity
  8
BEMAßUNG
 62
     7
100
AcDbVertex
100
AcDb2dVertex
 10
22.99118923036331
 20
204.1785793217852
 30
0.0
  0
VERTEX
  5
4C5
330
4C3
100
AcDbEntity
  8
BEMAßUNG
 62
     7
100
AcDbVertex
100
AcDb2dVertex
 10
22.99118923036331
 20
206.5207274874323
 30
0.0
  0
SEQEND
  5
4C6
330
4C3
100
AcDbEntity
  8
BEMAßUNG
  0
POLYLINE
  5
4C7
330
1F
100
AcDbEntity
  8
BEMAßUNG
 62
     7
100
AcDb2dPolyline
 66
     1
 10
0.0
 20
0.0
 30
0.0
  0
VERTEX
  5
4C8
330
4C7
100
AcDbEntity
  8
BEMAßUNG
 62
     7
100
AcDbVertex
100
AcDb2dVertex
 10
23.04165987922223
 20
204.1785793217852
 30
0.0
  0
VERTEX
  5
4C9
330
4C7
100
AcDbEntity
  8
BEMAßUNG
 62
     7
100
AcDbVertex
100
AcDb2dVertex
 10
23.04165987922223
 20
206.9069226913288
 30
0.0
  0
SEQEND
  5
4CA
330
4C7
100
AcDbEntity
  8
BEMAßUNG
  0
POLYLINE
  5
4CB
330
1F
100
AcDbEntity
  8
BEMAßUNG
 62
     7
100
AcDb2dPolyline
 66
     1
 10
0.0
 20
0.0
 30
0.0
  0
VERTEX
  5
4CC
330
4CB
100
AcDbEntity
  8
BEMAßUNG
 62
     7
100
AcDbVertex
100
AcDb2dVertex
 10
23.09247503762966
 20
204.1785793217852
 30
0.0
  0
VERTEX
  5
4CD
330
4CB
100
AcDbEntity
  8
BEMAßUNG
 62
     7
100
AcDbVertex
100
AcDb2dVertex
 10
23.09247503762966
 20
207.292256621354
 30
0.0
  0
SEQEND
  5
4CE
330
4CB
100
AcDbEntity
  8
BEMAßUNG
  0
POLYLINE
  5
4CF
330
1F
100
AcDbEntity
  8
BEMAßUNG
 62
     7
100
AcDb2dPolyline
 66
     1
 10
0.0
 20
0.0
 30
0.0
  0
VERTEX
  5
4D0
330
4CF
100
AcDbEntity
  8
BEMAßUNG
 62
     7
100
AcDbVertex
100
AcDb2dVertex
 10
23.1432901960371
 20
204.1785793217852
 30
0.0
  0
VERTEX
  5
4D1
330
4CF
100
AcDbEntity
  8
BEMAßUNG
 62
     7
100
AcDbVertex
100
AcDb2dVertex
 10
23.1432901960371
 20
207.6784518252505
 30
0.0
  0
SEQEND
  5
4D2
330
4CF
100
AcDbEntity
  8
BEMAßUNG
  0
POLYLINE
  5
4D3
330
1F
100
AcDbEntity
  8
BEMAßUNG
 62
     7
100
AcDb2dPolyline
 66
     1
 10
0.0
 20
0.0
 30
0.0
  0
VERTEX
  5
4D4
330
4D3
100
AcDbEntity
  8
BEMAßUNG
 62
     7
100
AcDbVertex
100
AcDb2dVertex
 10
23.60045436692975
 20
204.1785793217852
 30
0.0
  0
VERTEX
  5
4D5
330
4D3
100
AcDbEntity
  8
BEMAßUNG
 62
     7
100
AcDbVertex
100
AcDb2dVertex
 10
23.60045436692975
 20
204.2054510665702
 30
0.0
  0
SEQEND
  5
4D6
330
4D3
100
AcDbEntity
  8
BEMAßUNG
  0
POLYLINE
  5
4D7
330
1F
100
AcDbEntity
  8
BEMAßUNG
 62
     7
100
AcDb2dPolyline
 66
     1
 10
0.0
 20
0.0
 30
0.0
  0
VERTEX
  5
4D8
330
4D7
100
AcDbEntity
  8
BEMAßUNG
 62
     7
100
AcDbVertex
100
AcDb2dVertex
 10
23.60045436692975
 20
204.1785793217852
 30
0.0
  0
VERTEX
  5
4D9
330
4D7
100
AcDbEntity
  8
BEMAßUNG
 62
     7
100
AcDbVertex
100
AcDb2dVertex
 10
23.60045436692975
 20
204.2054510665702
 30
0.0
  0
SEQEND
  5
4DA
330
4D7
100
AcDbEntity
  8
BEMAßUNG
  0
POLYLINE
  5
4DB
330
1F
100
AcDbEntity
  8
BEMAßUNG
 62
     7
100
AcDb2dPolyline
 66
     1
 10
0.0
 20
0.0
 30
0.0
  0
VERTEX
  5
4DC
330
4DB
100
AcDbEntity
  8
BEMAßUNG
 62
     7
100
AcDbVertex
100
AcDb2dVertex
 10
23.54963920852231
 20
204.1785793217852
 30
0.0
  0
VERTEX
  5
4DD
330
4DB
100
AcDbEntity
  8
BEMAßUNG
 62
     7
100
AcDbVertex
100
AcDb2dVertex
 10
23.54963920852231
 20
204.5916462704667
 30
0.0
  0
SEQEND
  5
4DE
330
4DB
100
AcDbEntity
  8
BEMAßUNG
  0
POLYLINE
  5
4DF
330
1F
100
AcDbEntity
  8
BEMAßUNG
 62
     7
100
AcDb2dPolyline
 66
     1
 10
0.0
 20
0.0
 30
0.0
  0
VERTEX
  5
4E0
330
4DF
100
AcDbEntity
  8
BEMAßUNG
 62
     7
100
AcDbVertex
100
AcDb2dVertex
 10
23.4991685596634
 20
204.1785793217852
 30
0.0
  0
VERTEX
  5
4E1
330
4DF
100
AcDbEntity
  8
BEMAßUNG
 62
     7
100
AcDbVertex
100
AcDb2dVertex
 10
23.4991685596634
 20
204.9773247100404
 30
0.0
  0
SEQEND
  5
4E2
330
4DF
100
AcDbEntity
  8
BEMAßUNG
  0
POLYLINE
  5
4E3
330
1F
100
AcDbEntity
  8
BEMAßUNG
 62
     7
100
AcDb2dPolyline
 66
     1
 10
0.0
 20
0.0
 30
0.0
  0
VERTEX
  5
4E4
330
4E3
100
AcDbEntity
  8
BEMAßUNG
 62
     7
100
AcDbVertex
100
AcDb2dVertex
 10
23.44835340125597
 20
204.1785793217852
 30
0.0
  0
VERTEX
  5
4E5
330
4E3
100
AcDbEntity
  8
BEMAßUNG
 62
     7
100
AcDbVertex
100
AcDb2dVertex
 10
23.44835340125597
 20
205.3635199139369
 30
0.0
  0
SEQEND
  5
4E6
330
4E3
100
AcDbEntity
  8
BEMAßUNG
  0
POLYLINE
  5
4E7
330
1F
100
AcDbEntity
  8
BEMAßUNG
 62
     7
100
AcDb2dPolyline
 66
     1
 10
0.0
 20
0.0
 30
0.0
  0
VERTEX
  5
4E8
330
4E7
100
AcDbEntity
  8
BEMAßUNG
 62
     7
100
AcDbVertex
100
AcDb2dVertex
 10
23.3977104976228
 20
204.1785793217852
 30
0.0
  0
VERTEX
  5
4E9
330
4E7
100
AcDbEntity
  8
BEMAßUNG
 62
     7
100
AcDbVertex
100
AcDb2dVertex
 10
23.3977104976228
 20
205.7488538439621
 30
0.0
  0
SEQEND
  5
4EA
330
4E7
100
AcDbEntity
  8
BEMAßUNG
  0
POLYLINE
  5
4EB
330
1F
100
AcDbEntity
  8
BEMAßUNG
 62
     7
100
AcDb2dPolyline
 66
     1
 10
0.0
 20
0.0
 30
0.0
  0
VERTEX
  5
4EC
330
4EB
100
AcDbEntity
  8
BEMAßUNG
 62
     7
100
AcDbVertex
100
AcDb2dVertex
 10
23.34689533921536
 20
204.1785793217852
 30
0.0
  0
VERTEX
  5
4ED
330
4EB
100
AcDbEntity
  8
BEMAßUNG
 62
     7
100
AcDbVertex
100
AcDb2dVertex
 10
23.34689533921536
 20
206.1350490478586
 30
0.0
  0
SEQEND
  5
4EE
330
4EB
100
AcDbEntity
  8
BEMAßUNG
  0
POLYLINE
  5
4EF
330
1F
100
AcDbEntity
  8
BEMAßUNG
 62
     7
100
AcDb2dPolyline
 66
     1
 10
0.0
 20
0.0
 30
0.0
  0
VERTEX
  5
4F0
330
4EF
100
AcDbEntity
  8
BEMAßUNG
 62
     7
100
AcDbVertex
100
AcDb2dVertex
 10
23.29608018080793
 20
204.1785793217852
 30
0.0
  0
VERTEX
  5
4F1
330
4EF
100
AcDbEntity
  8
BEMAßUNG
 62
     7
100
AcDbVertex
100
AcDb2dVertex
 10
23.29608018080793
 20
206.5207274874323
 30
0.0
  0
SEQEND
  5
4F2
330
4EF
100
AcDbEntity
  8
BEMAßUNG
  0
POLYLINE
  5
4F3
330
1F
100
AcDbEntity
  8
BEMAßUNG
 62
     7
100
AcDb2dPolyline
 66
     1
 10
0.0
 20
0.0
 30
0.0
  0
VERTEX
  5
4F4
330
4F3
100
AcDbEntity
  8
BEMAßUNG
 62
     7
100
AcDbVertex
100
AcDb2dVertex
 10
23.24492051285197
 20
204.1785793217852
 30
0.0
  0
VERTEX
  5
4F5
330
4F3
100
AcDbEntity
  8
BEMAßUNG
 62
     7
100
AcDbVertex
100
AcDb2dVertex
 10
23.24492051285197
 20
206.9069226913288
 30
0.0
  0
SEQEND
  5
4F6
330
4F3
100
AcDbEntity
  8
BEMAßUNG
  0
POLYLINE
  5
4F7
330
1F
100
AcDbEntity
  8
BEMAßUNG
 62
     7
100
AcDb2dPolyline
 66
     1
 10
0.0
 20
0.0
 30
0.0
  0
VERTEX
  5
4F8
330
4F7
100
AcDbEntity
  8
BEMAßUNG
 62
     7
100
AcDbVertex
100
AcDb2dVertex
 10
23.19410535444453
 20
204.1785793217852
 30
0.0
  0
VERTEX
  5
4F9
330
4F7
100
AcDbEntity
  8
BEMAßUNG
 62
     7
100
AcDbVertex
100
AcDb2dVertex
 10
23.19410535444453
 20
207.292256621354
 30
0.0
  0
SEQEND
  5
4FA
330
4F7
100
AcDbEntity
  8
BEMAßUNG
  0
POLYLINE
  5
4FB
330
1F
100
AcDbEntity
  8
BEMAßUNG
 62
     7
100
AcDb2dPolyline
 66
     1
 10
0.0
 20
0.0
 30
0.0
  0
VERTEX
  5
4FC
330
4FB
100
AcDbEntity
  8
BEMAßUNG
 62
     7
100
AcDbVertex
100
AcDb2dVertex
 10
23.1432901960371
 20
204.1785793217852
 30
0.0
  0
VERTEX
  5
4FD
330
4FB
100
AcDbEntity
  8
BEMAßUNG
 62
     7
100
AcDbVertex
100
AcDb2dVertex
 10
23.1432901960371
 20
207.6784518252505
 30
0.0
  0
SEQEND
  5
4FE
330
4FB
100
AcDbEntity
  8
BEMAßUNG
  0
POLYLINE
  5
4FF
330
1F
100
AcDbEntity
  8
BEMAßUNG
 62
     7
100
AcDb2dPolyline
 66
     1
 10
0.0
 20
0.0
 30
0.0
  0
VERTEX
  5
500
330
4FF
100
AcDbEntity
  8
BEMAßUNG
 62
     7
100
AcDbVertex
100
AcDb2dVertex
 10
58.14304875933577
 20
223.6783365326221
 30
0.0
  0
VERTEX
  5
501
330
4FF
100
AcDbEntity
  8
BEMAßUNG
 62
     7
100
AcDbVertex
100
AcDb2dVertex
 10
94.00873207285198
 20
223.6783365326221
 30
0.0
  0
SEQEND
  5
502
330
4FF
100
AcDbEntity
  8
BEMAßUNG
  0
POLYLINE
  5
503
330
1F
100
AcDbEntity
  8
BEMAßUNG
 62
     7
100
AcDb2dPolyline
 66
     1
 10
0.0
 20
0.0
 30
0.0
  0
VERTEX
  5
504
330
503
100
AcDbEntity
  8
BEMAßUNG
 62
     7
100
AcDbVertex
100
AcDb2dVertex
 10
58.14304875933577
 20
191.678567117879
 30
0.0
  0
VERTEX
  5
505
330
503
100
AcDbEntity
  8
BEMAßUNG
 62
     7
100
AcDbVertex
100
AcDb2dVertex
 10
94.00873207285198
 20
191.678567117879
 30
0.0
  0
SEQEND
  5
506
330
503
100
AcDbEntity
  8
BEMAßUNG
  0
POLYLINE
  5
507
330
1F
100
AcDbEntity
  8
BEMAßUNG
 62
     7
100
AcDb2dPolyline
 66
     1
 10
0.0
 20
0.0
 30
0.0
  0
VERTEX
  5
508
330
507
100
AcDbEntity
  8
BEMAßUNG
 62
     7
100
AcDbVertex
100
AcDb2dVertex
 10
92.00850963411594
 20
223.6783365326221
 30
0.0
  0
VERTEX
  5
509
330
507
100
AcDbEntity
  8
BEMAßUNG
 62
     7
100
AcDbVertex
100
AcDb2dVertex
 10
92.00850963411594
 20
191.678567117879
 30
0.0
  0
SEQEND
  5
50A
330
507
100
AcDbEntity
  8
BEMAßUNG
  0
POLYLINE
  5
50B
330
1F
100
AcDbEntity
  8
BEMAßUNG
 62
     7
100
AcDb2dPolyline
 66
     1
 10
0.0
 20
0.0
 30
0.0
  0
VERTEX
  5
50C
330
50B
100
AcDbEntity
  8
BEMAßUNG
 62
     7
100
AcDbVertex
100
AcDb2dVertex
 10
92.00850963411594
 20
223.6783365326221
 30
0.0
  0
VERTEX
  5
50D
330
50B
100
AcDbEntity
  8
BEMAßUNG
 62
     7
100
AcDbVertex
100
AcDb2dVertex
 10
91.54772811296377
 20
220.1784640291568
 30
0.0
  0
VERTEX
  5
50E
330
50B
100
AcDbEntity
  8
BEMAßUNG
 62
     7
100
AcDbVertex
100
AcDb2dVertex
 10
92.46946341004237
 20
220.1784640291568
 30
0.0
  0
VERTEX
  5
50F
330
50B
100
AcDbEntity
  8
BEMAßUNG
 62
     7
100
AcDbVertex
100
AcDb2dVertex
 10
92.00850963411594
 20
223.6783365326221
 30
0.0
  0
SEQEND
  5
510
330
50B
100
AcDbEntity
  8
BEMAßUNG
  0
POLYLINE
  5
511
330
1F
100
AcDbEntity
  8
BEMAßUNG
 62
     7
100
AcDb2dPolyline
 66
     1
 10
0.0
 20
0.0
 30
0.0
  0
VERTEX
  5
512
330
511
100
AcDbEntity
  8
BEMAßUNG
 62
     7
100
AcDbVertex
100
AcDb2dVertex
 10
91.55134546322329
 20
220.1784640291568
 30
0.0
  0
VERTEX
  5
513
330
511
100
AcDbEntity
  8
BEMAßUNG
 62
     7
100
AcDbVertex
100
AcDb2dVertex
 10
91.55134546322329
 20
220.2056802834903
 30
0.0
  0
SEQEND
  5
514
330
511
100
AcDbEntity
  8
BEMAßUNG
  0
POLYLINE
  5
515
330
1F
100
AcDbEntity
  8
BEMAßUNG
 62
     7
100
AcDb2dPolyline
 66
     1
 10
0.0
 20
0.0
 30
0.0
  0
VERTEX
  5
516
330
515
100
AcDbEntity
  8
BEMAßUNG
 62
     7
100
AcDbVertex
100
AcDb2dVertex
 10
91.55134546322329
 20
220.1784640291568
 30
0.0
  0
VERTEX
  5
517
330
515
100
AcDbEntity
  8
BEMAßUNG
 62
     7
100
AcDbVertex
100
AcDb2dVertex
 10
91.55134546322329
 20
220.2056802834903
 30
0.0
  0
SEQEND
  5
518
330
515
100
AcDbEntity
  8
BEMAßUNG
  0
POLYLINE
  5
519
330
1F
100
AcDbEntity
  8
BEMAßUNG
 62
     7
100
AcDb2dPolyline
 66
     1
 10
0.0
 20
0.0
 30
0.0
  0
VERTEX
  5
51A
330
519
100
AcDbEntity
  8
BEMAßUNG
 62
     7
100
AcDbVertex
100
AcDb2dVertex
 10
91.60198836685645
 20
220.1784640291568
 30
0.0
  0
VERTEX
  5
51B
330
519
100
AcDbEntity
  8
BEMAßUNG
 62
     7
100
AcDbVertex
100
AcDb2dVertex
 10
91.60198836685645
 20
220.5911864682897
 30
0.0
  0
SEQEND
  5
51C
330
519
100
AcDbEntity
  8
BEMAßUNG
  0
POLYLINE
  5
51D
330
1F
100
AcDbEntity
  8
BEMAßUNG
 62
     7
100
AcDb2dPolyline
 66
     1
 10
0.0
 20
0.0
 30
0.0
  0
VERTEX
  5
51E
330
51D
100
AcDbEntity
  8
BEMAßUNG
 62
     7
100
AcDbVertex
100
AcDb2dVertex
 10
91.65280352526389
 20
220.1784640291568
 30
0.0
  0
VERTEX
  5
51F
330
51D
100
AcDbEntity
  8
BEMAßUNG
 62
     7
100
AcDbVertex
100
AcDb2dVertex
 10
91.65280352526389
 20
220.9775539269605
 30
0.0
  0
SEQEND
  5
520
330
51D
100
AcDbEntity
  8
BEMAßUNG
  0
POLYLINE
  5
521
330
1F
100
AcDbEntity
  8
BEMAßUNG
 62
     7
100
AcDb2dPolyline
 66
     1
 10
0.0
 20
0.0
 30
0.0
  0
VERTEX
  5
522
330
521
100
AcDbEntity
  8
BEMAßUNG
 62
     7
100
AcDbVertex
100
AcDb2dVertex
 10
91.70361868367132
 20
220.1784640291568
 30
0.0
  0
VERTEX
  5
523
330
521
100
AcDbEntity
  8
BEMAßUNG
 62
     7
100
AcDbVertex
100
AcDb2dVertex
 10
91.70361868367132
 20
221.3630601117599
 30
0.0
  0
SEQEND
  5
524
330
521
100
AcDbEntity
  8
BEMAßUNG
  0
POLYLINE
  5
525
330
1F
100
AcDbEntity
  8
BEMAßUNG
 62
     7
100
AcDb2dPolyline
 66
     1
 10
0.0
 20
0.0
 30
0.0
  0
VERTEX
  5
526
330
525
100
AcDbEntity
  8
BEMAßUNG
 62
     7
100
AcDbVertex
100
AcDb2dVertex
 10
91.75477835162728
 20
220.1784640291568
 30
0.0
  0
VERTEX
  5
527
330
525
100
AcDbEntity
  8
BEMAßUNG
 62
     7
100
AcDbVertex
100
AcDb2dVertex
 10
91.75477835162728
 20
221.7494275704307
 30
0.0
  0
SEQEND
  5
528
330
525
100
AcDbEntity
  8
BEMAßUNG
  0
POLYLINE
  5
529
330
1F
100
AcDbEntity
  8
BEMAßUNG
 62
     7
100
AcDb2dPolyline
 66
     1
 10
0.0
 20
0.0
 30
0.0
  0
VERTEX
  5
52A
330
529
100
AcDbEntity
  8
BEMAßUNG
 62
     7
100
AcDbVertex
100
AcDb2dVertex
 10
91.80559351003471
 20
220.1784640291568
 30
0.0
  0
VERTEX
  5
52B
330
529
100
AcDbEntity
  8
BEMAßUNG
 62
     7
100
AcDbVertex
100
AcDb2dVertex
 10
91.80559351003471
 20
222.1345892456816
 30
0.0
  0
SEQEND
  5
52C
330
529
100
AcDbEntity
  8
BEMAßUNG
  0
POLYLINE
  5
52D
330
1F
100
AcDbEntity
  8
BEMAßUNG
 62
     7
100
AcDb2dPolyline
 66
     1
 10
0.0
 20
0.0
 30
0.0
  0
VERTEX
  5
52E
330
52D
100
AcDbEntity
  8
BEMAßUNG
 62
     7
100
AcDbVertex
100
AcDb2dVertex
 10
91.85640866844216
 20
220.1784640291568
 30
0.0
  0
VERTEX
  5
52F
330
52D
100
AcDbEntity
  8
BEMAßUNG
 62
     7
100
AcDbVertex
100
AcDb2dVertex
 10
91.85640866844216
 20
222.5209567043524
 30
0.0
  0
SEQEND
  5
530
330
52D
100
AcDbEntity
  8
BEMAßUNG
  0
POLYLINE
  5
531
330
1F
100
AcDbEntity
  8
BEMAßUNG
 62
     7
100
AcDb2dPolyline
 66
     1
 10
0.0
 20
0.0
 30
0.0
  0
VERTEX
  5
532
330
531
100
AcDbEntity
  8
BEMAßUNG
 62
     7
100
AcDbVertex
100
AcDb2dVertex
 10
91.90722382684959
 20
220.1784640291568
 30
0.0
  0
VERTEX
  5
533
330
531
100
AcDbEntity
  8
BEMAßUNG
 62
     7
100
AcDbVertex
100
AcDb2dVertex
 10
91.90722382684959
 20
222.9064628891519
 30
0.0
  0
SEQEND
  5
534
330
531
100
AcDbEntity
  8
BEMAßUNG
  0
POLYLINE
  5
535
330
1F
100
AcDbEntity
  8
BEMAßUNG
 62
     7
100
AcDb2dPolyline
 66
     1
 10
0.0
 20
0.0
 30
0.0
  0
VERTEX
  5
536
330
535
100
AcDbEntity
  8
BEMAßUNG
 62
     7
100
AcDbVertex
100
AcDb2dVertex
 10
91.95803898525702
 20
220.1784640291568
 30
0.0
  0
VERTEX
  5
537
330
535
100
AcDbEntity
  8
BEMAßUNG
 62
     7
100
AcDbVertex
100
AcDb2dVertex
 10
91.95803898525702
 20
223.2928303478226
 30
0.0
  0
SEQEND
  5
538
330
535
100
AcDbEntity
  8
BEMAßUNG
  0
POLYLINE
  5
539
330
1F
100
AcDbEntity
  8
BEMAßUNG
 62
     7
100
AcDb2dPolyline
 66
     1
 10
0.0
 20
0.0
 30
0.0
  0
VERTEX
  5
53A
330
539
100
AcDbEntity
  8
BEMAßUNG
 62
     7
100
AcDbVertex
100
AcDb2dVertex
 10
92.00850963411594
 20
220.1784640291568
 30
0.0
  0
VERTEX
  5
53B
330
539
100
AcDbEntity
  8
BEMAßUNG
 62
     7
100
AcDbVertex
100
AcDb2dVertex
 10
92.00850963411594
 20
223.6783365326221
 30
0.0
  0
SEQEND
  5
53C
330
539
100
AcDbEntity
  8
BEMAßUNG
  0
POLYLINE
  5
53D
330
1F
100
AcDbEntity
  8
BEMAßUNG
 62
     7
100
AcDb2dPolyline
 66
     1
 10
0.0
 20
0.0
 30
0.0
  0
VERTEX
  5
53E
330
53D
100
AcDbEntity
  8
BEMAßUNG
 62
     7
100
AcDbVertex
100
AcDb2dVertex
 10
92.4660183145571
 20
220.1784640291568
 30
0.0
  0
VERTEX
  5
53F
330
53D
100
AcDbEntity
  8
BEMAßUNG
 62
     7
100
AcDbVertex
100
AcDb2dVertex
 10
92.4660183145571
 20
220.2056802834903
 30
0.0
  0
SEQEND
  5
540
330
53D
100
AcDbEntity
  8
BEMAßUNG
  0
POLYLINE
  5
541
330
1F
100
AcDbEntity
  8
BEMAßUNG
 62
     7
100
AcDb2dPolyline
 66
     1
 10
0.0
 20
0.0
 30
0.0
  0
VERTEX
  5
542
330
541
100
AcDbEntity
  8
BEMAßUNG
 62
     7
100
AcDbVertex
100
AcDb2dVertex
 10
92.4660183145571
 20
220.1784640291568
 30
0.0
  0
VERTEX
  5
543
330
541
100
AcDbEntity
  8
BEMAßUNG
 62
     7
100
AcDbVertex
100
AcDb2dVertex
 10
92.4660183145571
 20
220.2056802834903
 30
0.0
  0
SEQEND
  5
544
330
541
100
AcDbEntity
  8
BEMAßUNG
  0
POLYLINE
  5
545
330
1F
100
AcDbEntity
  8
BEMAßUNG
 62
     7
100
AcDb2dPolyline
 66
     1
 10
0.0
 20
0.0
 30
0.0
  0
VERTEX
  5
546
330
545
100
AcDbEntity
  8
BEMAßUNG
 62
     7
100
AcDbVertex
100
AcDb2dVertex
 10
92.41520315614967
 20
220.1784640291568
 30
0.0
  0
VERTEX
  5
547
330
545
100
AcDbEntity
  8
BEMAßUNG
 62
     7
100
AcDbVertex
100
AcDb2dVertex
 10
92.41520315614967
 20
220.5911864682897
 30
0.0
  0
SEQEND
  5
548
330
545
100
AcDbEntity
  8
BEMAßUNG
  0
POLYLINE
  5
549
330
1F
100
AcDbEntity
  8
BEMAßUNG
 62
     7
100
AcDb2dPolyline
 66
     1
 10
0.0
 20
0.0
 30
0.0
  0
VERTEX
  5
54A
330
549
100
AcDbEntity
  8
BEMAßUNG
 62
     7
100
AcDbVertex
100
AcDb2dVertex
 10
92.36438799774224
 20
220.1784640291568
 30
0.0
  0
VERTEX
  5
54B
330
549
100
AcDbEntity
  8
BEMAßUNG
 62
     7
100
AcDbVertex
100
AcDb2dVertex
 10
92.36438799774224
 20
220.9775539269605
 30
0.0
  0
SEQEND
  5
54C
330
549
100
AcDbEntity
  8
BEMAßUNG
  0
POLYLINE
  5
54D
330
1F
100
AcDbEntity
  8
BEMAßUNG
 62
     7
100
AcDb2dPolyline
 66
     1
 10
0.0
 20
0.0
 30
0.0
  0
VERTEX
  5
54E
330
54D
100
AcDbEntity
  8
BEMAßUNG
 62
     7
100
AcDbVertex
100
AcDb2dVertex
 10
92.31357283933481
 20
220.1784640291568
 30
0.0
  0
VERTEX
  5
54F
330
54D
100
AcDbEntity
  8
BEMAßUNG
 62
     7
100
AcDbVertex
100
AcDb2dVertex
 10
92.31357283933481
 20
221.3630601117599
 30
0.0
  0
SEQEND
  5
550
330
54D
100
AcDbEntity
  8
BEMAßUNG
  0
POLYLINE
  5
551
330
1F
100
AcDbEntity
  8
BEMAßUNG
 62
     7
100
AcDb2dPolyline
 66
     1
 10
0.0
 20
0.0
 30
0.0
  0
VERTEX
  5
552
330
551
100
AcDbEntity
  8
BEMAßUNG
 62
     7
100
AcDbVertex
100
AcDb2dVertex
 10
92.26275768092736
 20
220.1784640291568
 30
0.0
  0
VERTEX
  5
553
330
551
100
AcDbEntity
  8
BEMAßUNG
 62
     7
100
AcDbVertex
100
AcDb2dVertex
 10
92.26275768092736
 20
221.7494275704307
 30
0.0
  0
SEQEND
  5
554
330
551
100
AcDbEntity
  8
BEMAßUNG
  0
POLYLINE
  5
555
330
1F
100
AcDbEntity
  8
BEMAßUNG
 62
     7
100
AcDb2dPolyline
 66
     1
 10
0.0
 20
0.0
 30
0.0
  0
VERTEX
  5
556
330
555
100
AcDbEntity
  8
BEMAßUNG
 62
     7
100
AcDbVertex
100
AcDb2dVertex
 10
92.21159801297141
 20
220.1784640291568
 30
0.0
  0
VERTEX
  5
557
330
555
100
AcDbEntity
  8
BEMAßUNG
 62
     7
100
AcDbVertex
100
AcDb2dVertex
 10
92.21159801297141
 20
222.1345892456816
 30
0.0
  0
SEQEND
  5
558
330
555
100
AcDbEntity
  8
BEMAßUNG
  0
POLYLINE
  5
559
330
1F
100
AcDbEntity
  8
BEMAßUNG
 62
     7
100
AcDb2dPolyline
 66
     1
 10
0.0
 20
0.0
 30
0.0
  0
VERTEX
  5
55A
330
559
100
AcDbEntity
  8
BEMAßUNG
 62
     7
100
AcDbVertex
100
AcDb2dVertex
 10
92.16078285456398
 20
220.1784640291568
 30
0.0
  0
VERTEX
  5
55B
330
559
100
AcDbEntity
  8
BEMAßUNG
 62
     7
100
AcDbVertex
100
AcDb2dVertex
 10
92.16078285456398
 20
222.5209567043524
 30
0.0
  0
SEQEND
  5
55C
330
559
100
AcDbEntity
  8
BEMAßUNG
  0
POLYLINE
  5
55D
330
1F
100
AcDbEntity
  8
BEMAßUNG
 62
     7
100
AcDb2dPolyline
 66
     1
 10
0.0
 20
0.0
 30
0.0
  0
VERTEX
  5
55E
330
55D
100
AcDbEntity
  8
BEMAßUNG
 62
     7
100
AcDbVertex
100
AcDb2dVertex
 10
92.1101399509308
 20
220.1784640291568
 30
0.0
  0
VERTEX
  5
55F
330
55D
100
AcDbEntity
  8
BEMAßUNG
 62
     7
100
AcDbVertex
100
AcDb2dVertex
 10
92.1101399509308
 20
222.9064628891519
 30
0.0
  0
SEQEND
  5
560
330
55D
100
AcDbEntity
  8
BEMAßUNG
  0
POLYLINE
  5
561
330
1F
100
AcDbEntity
  8
BEMAßUNG
 62
     7
100
AcDb2dPolyline
 66
     1
 10
0.0
 20
0.0
 30
0.0
  0
VERTEX
  5
562
330
561
100
AcDbEntity
  8
BEMAßUNG
 62
     7
100
AcDbVertex
100
AcDb2dVertex
 10
92.05932479252337
 20
220.1784640291568
 30
0.0
  0
VERTEX
  5
563
330
561
100
AcDbEntity
  8
BEMAßUNG
 62
     7
100
AcDbVertex
100
AcDb2dVertex
 10
92.05932479252337
 20
223.2928303478226
 30
0.0
  0
SEQEND
  5
564
330
561
100
AcDbEntity
  8
BEMAßUNG
  0
POLYLINE
  5
565
330
1F
100
AcDbEntity
  8
BEMAßUNG
 62
     7
100
AcDb2dPolyline
 66
     1
 10
0.0
 20
0.0
 30
0.0
  0
VERTEX
  5
566
330
565
100
AcDbEntity
  8
BEMAßUNG
 62
     7
100
AcDbVertex
100
AcDb2dVertex
 10
92.00850963411594
 20
220.1784640291568
 30
0.0
  0
VERTEX
  5
567
330
565
100
AcDbEntity
  8
BEMAßUNG
 62
     7
100
AcDbVertex
100
AcDb2dVertex
 10
92.00850963411594
 20
223.6783365326221
 30
0.0
  0
SEQEND
  5
568
330
565
100
AcDbEntity
  8
BEMAßUNG
  0
POLYLINE
  5
569
330
1F
100
AcDbEntity
  8
BEMAßUNG
 62
     7
100
AcDb2dPolyline
 66
     1
 10
0.0
 20
0.0
 30
0.0
  0
VERTEX
  5
56A
330
569
100
AcDbEntity
  8
BEMAßUNG
 62
     7
100
AcDbVertex
100
AcDb2dVertex
 10
92.00850963411594
 20
191.678567117879
 30
0.0
  0
VERTEX
  5
56B
330
569
100
AcDbEntity
  8
BEMAßUNG
 62
     7
100
AcDbVertex
100
AcDb2dVertex
 10
92.46946341004237
 20
195.1786118761185
 30
0.0
  0
VERTEX
  5
56C
330
569
100
AcDbEntity
  8
BEMAßUNG
 62
     7
100
AcDbVertex
100
AcDb2dVertex
 10
91.54772811296377
 20
195.1786118761185
 30
0.0
  0
VERTEX
  5
56D
330
569
100
AcDbEntity
  8
BEMAßUNG
 62
     7
100
AcDbVertex
100
AcDb2dVertex
 10
92.00850963411594
 20
191.678567117879
 30
0.0
  0
SEQEND
  5
56E
330
569
100
AcDbEntity
  8
BEMAßUNG
  0
POLYLINE
  5
56F
330
1F
100
AcDbEntity
  8
BEMAßUNG
 62
     7
100
AcDb2dPolyline
 66
     1
 10
0.0
 20
0.0
 30
0.0
  0
VERTEX
  5
570
330
56F
100
AcDbEntity
  8
BEMAßUNG
 62
     7
100
AcDbVertex
100
AcDb2dVertex
 10
92.4660183145571
 20
195.1786118761185
 30
0.0
  0
VERTEX
  5
571
330
56F
100
AcDbEntity
  8
BEMAßUNG
 62
     7
100
AcDbVertex
100
AcDb2dVertex
 10
92.4660183145571
 20
195.1513956217851
 30
0.0
  0
SEQEND
  5
572
330
56F
100
AcDbEntity
  8
BEMAßUNG
  0
POLYLINE
  5
573
330
1F
100
AcDbEntity
  8
BEMAßUNG
 62
     7
100
AcDb2dPolyline
 66
     1
 10
0.0
 20
0.0
 30
0.0
  0
VERTEX
  5
574
330
573
100
AcDbEntity
  8
BEMAßUNG
 62
     7
100
AcDbVertex
100
AcDb2dVertex
 10
92.4660183145571
 20
195.1786118761185
 30
0.0
  0
VERTEX
  5
575
330
573
100
AcDbEntity
  8
BEMAßUNG
 62
     7
100
AcDbVertex
100
AcDb2dVertex
 10
92.4660183145571
 20
195.1513956217851
 30
0.0
  0
SEQEND
  5
576
330
573
100
AcDbEntity
  8
BEMAßUNG
  0
POLYLINE
  5
577
330
1F
100
AcDbEntity
  8
BEMAßUNG
 62
     7
100
AcDb2dPolyline
 66
     1
 10
0.0
 20
0.0
 30
0.0
  0
VERTEX
  5
578
330
577
100
AcDbEntity
  8
BEMAßUNG
 62
     7
100
AcDbVertex
100
AcDb2dVertex
 10
92.41520315614967
 20
195.1786118761185
 30
0.0
  0
VERTEX
  5
579
330
577
100
AcDbEntity
  8
BEMAßUNG
 62
     7
100
AcDbVertex
100
AcDb2dVertex
 10
92.41520315614967
 20
194.7653726726628
 30
0.0
  0
SEQEND
  5
57A
330
577
100
AcDbEntity
  8
BEMAßUNG
  0
POLYLINE
  5
57B
330
1F
100
AcDbEntity
  8
BEMAßUNG
 62
     7
100
AcDb2dPolyline
 66
     1
 10
0.0
 20
0.0
 30
0.0
  0
VERTEX
  5
57C
330
57B
100
AcDbEntity
  8
BEMAßUNG
 62
     7
100
AcDbVertex
100
AcDb2dVertex
 10
92.36438799774224
 20
195.1786118761185
 30
0.0
  0
VERTEX
  5
57D
330
57B
100
AcDbEntity
  8
BEMAßUNG
 62
     7
100
AcDbVertex
100
AcDb2dVertex
 10
92.36438799774224
 20
194.3795219783148
 30
0.0
  0
SEQEND
  5
57E
330
57B
100
AcDbEntity
  8
BEMAßUNG
  0
POLYLINE
  5
57F
330
1F
100
AcDbEntity
  8
BEMAßUNG
 62
     7
100
AcDb2dPolyline
 66
     1
 10
0.0
 20
0.0
 30
0.0
  0
VERTEX
  5
580
330
57F
100
AcDbEntity
  8
BEMAßUNG
 62
     7
100
AcDbVertex
100
AcDb2dVertex
 10
92.31357283933481
 20
195.1786118761185
 30
0.0
  0
VERTEX
  5
581
330
57F
100
AcDbEntity
  8
BEMAßUNG
 62
     7
100
AcDbVertex
100
AcDb2dVertex
 10
92.31357283933481
 20
193.9934990291926
 30
0.0
  0
SEQEND
  5
582
330
57F
100
AcDbEntity
  8
BEMAßUNG
  0
POLYLINE
  5
583
330
1F
100
AcDbEntity
  8
BEMAßUNG
 62
     7
100
AcDb2dPolyline
 66
     1
 10
0.0
 20
0.0
 30
0.0
  0
VERTEX
  5
584
330
583
100
AcDbEntity
  8
BEMAßUNG
 62
     7
100
AcDbVertex
100
AcDb2dVertex
 10
92.26275768092736
 20
195.1786118761185
 30
0.0
  0
VERTEX
  5
585
330
583
100
AcDbEntity
  8
BEMAßUNG
 62
     7
100
AcDbVertex
100
AcDb2dVertex
 10
92.26275768092736
 20
193.6079928443932
 30
0.0
  0
SEQEND
  5
586
330
583
100
AcDbEntity
  8
BEMAßUNG
  0
POLYLINE
  5
587
330
1F
100
AcDbEntity
  8
BEMAßUNG
 62
     7
100
AcDb2dPolyline
 66
     1
 10
0.0
 20
0.0
 30
0.0
  0
VERTEX
  5
588
330
587
100
AcDbEntity
  8
BEMAßUNG
 62
     7
100
AcDbVertex
100
AcDb2dVertex
 10
92.21159801297141
 20
195.1786118761185
 30
0.0
  0
VERTEX
  5
589
330
587
100
AcDbEntity
  8
BEMAßUNG
 62
     7
100
AcDbVertex
100
AcDb2dVertex
 10
92.21159801297141
 20
193.2219698952709
 30
0.0
  0
SEQEND
  5
58A
330
587
100
AcDbEntity
  8
BEMAßUNG
  0
POLYLINE
  5
58B
330
1F
100
AcDbEntity
  8
BEMAßUNG
 62
     7
100
AcDb2dPolyline
 66
     1
 10
0.0
 20
0.0
 30
0.0
  0
VERTEX
  5
58C
330
58B
100
AcDbEntity
  8
BEMAßUNG
 62
     7
100
AcDbVertex
100
AcDb2dVertex
 10
92.16078285456398
 20
195.1786118761185
 30
0.0
  0
VERTEX
  5
58D
330
58B
100
AcDbEntity
  8
BEMAßUNG
 62
     7
100
AcDbVertex
100
AcDb2dVertex
 10
92.16078285456398
 20
192.8361192009229
 30
0.0
  0
SEQEND
  5
58E
330
58B
100
AcDbEntity
  8
BEMAßUNG
  0
POLYLINE
  5
58F
330
1F
100
AcDbEntity
  8
BEMAßUNG
 62
     7
100
AcDb2dPolyline
 66
     1
 10
0.0
 20
0.0
 30
0.0
  0
VERTEX
  5
590
330
58F
100
AcDbEntity
  8
BEMAßUNG
 62
     7
100
AcDbVertex
100
AcDb2dVertex
 10
92.1101399509308
 20
195.1786118761185
 30
0.0
  0
VERTEX
  5
591
330
58F
100
AcDbEntity
  8
BEMAßUNG
 62
     7
100
AcDbVertex
100
AcDb2dVertex
 10
92.1101399509308
 20
192.4500962518007
 30
0.0
  0
SEQEND
  5
592
330
58F
100
AcDbEntity
  8
BEMAßUNG
  0
POLYLINE
  5
593
330
1F
100
AcDbEntity
  8
BEMAßUNG
 62
     7
100
AcDb2dPolyline
 66
     1
 10
0.0
 20
0.0
 30
0.0
  0
VERTEX
  5
594
330
593
100
AcDbEntity
  8
BEMAßUNG
 62
     7
100
AcDbVertex
100
AcDb2dVertex
 10
92.05932479252337
 20
195.1786118761185
 30
0.0
  0
VERTEX
  5
595
330
593
100
AcDbEntity
  8
BEMAßUNG
 62
     7
100
AcDbVertex
100
AcDb2dVertex
 10
92.05932479252337
 20
192.0645900670012
 30
0.0
  0
SEQEND
  5
596
330
593
100
AcDbEntity
  8
BEMAßUNG
  0
POLYLINE
  5
597
330
1F
100
AcDbEntity
  8
BEMAßUNG
 62
     7
100
AcDb2dPolyline
 66
     1
 10
0.0
 20
0.0
 30
0.0
  0
VERTEX
  5
598
330
597
100
AcDbEntity
  8
BEMAßUNG
 62
     7
100
AcDbVertex
100
AcDb2dVertex
 10
92.00850963411594
 20
195.1786118761185
 30
0.0
  0
VERTEX
  5
599
330
597
100
AcDbEntity
  8
BEMAßUNG
 62
     7
100
AcDbVertex
100
AcDb2dVertex
 10
92.00850963411594
 20
191.678567117879
 30
0.0
  0
SEQEND
  5
59A
330
597
100
AcDbEntity
  8
BEMAßUNG
  0
POLYLINE
  5
59B
330
1F
100
AcDbEntity
  8
BEMAßUNG
 62
     7
100
AcDb2dPolyline
 66
     1
 10
0.0
 20
0.0
 30
0.0
  0
VERTEX
  5
59C
330
59B
100
AcDbEntity
  8
BEMAßUNG
 62
     7
100
AcDbVertex
100
AcDb2dVertex
 10
91.55134546322329
 20
195.1786118761185
 30
0.0
  0
VERTEX
  5
59D
330
59B
100
AcDbEntity
  8
BEMAßUNG
 62
     7
100
AcDbVertex
100
AcDb2dVertex
 10
91.55134546322329
 20
195.1513956217851
 30
0.0
  0
SEQEND
  5
59E
330
59B
100
AcDbEntity
  8
BEMAßUNG
  0
POLYLINE
  5
59F
330
1F
100
AcDbEntity
  8
BEMAßUNG
 62
     7
100
AcDb2dPolyline
 66
     1
 10
0.0
 20
0.0
 30
0.0
  0
VERTEX
  5
5A0
330
59F
100
AcDbEntity
  8
BEMAßUNG
 62
     7
100
AcDbVertex
100
AcDb2dVertex
 10
91.55134546322329
 20
195.1786118761185
 30
0.0
  0
VERTEX
  5
5A1
330
59F
100
AcDbEntity
  8
BEMAßUNG
 62
     7
100
AcDbVertex
100
AcDb2dVertex
 10
91.55134546322329
 20
195.1513956217851
 30
0.0
  0
SEQEND
  5
5A2
330
59F
100
AcDbEntity
  8
BEMAßUNG
  0
POLYLINE
  5
5A3
330
1F
100
AcDbEntity
  8
BEMAßUNG
 62
     7
100
AcDb2dPolyline
 66
     1
 10
0.0
 20
0.0
 30
0.0
  0
VERTEX
  5
5A4
330
5A3
100
AcDbEntity
  8
BEMAßUNG
 62
     7
100
AcDbVertex
100
AcDb2dVertex
 10
91.60198836685645
 20
195.1786118761185
 30
0.0
  0
VERTEX
  5
5A5
330
5A3
100
AcDbEntity
  8
BEMAßUNG
 62
     7
100
AcDbVertex
100
AcDb2dVertex
 10
91.60198836685645
 20
194.7653726726628
 30
0.0
  0
SEQEND
  5
5A6
330
5A3
100
AcDbEntity
  8
BEMAßUNG
  0
POLYLINE
  5
5A7
330
1F
100
AcDbEntity
  8
BEMAßUNG
 62
     7
100
AcDb2dPolyline
 66
     1
 10
0.0
 20
0.0
 30
0.0
  0
VERTEX
  5
5A8
330
5A7
100
AcDbEntity
  8
BEMAßUNG
 62
     7
100
AcDbVertex
100
AcDb2dVertex
 10
91.65280352526389
 20
195.1786118761185
 30
0.0
  0
VERTEX
  5
5A9
330
5A7
100
AcDbEntity
  8
BEMAßUNG
 62
     7
100
AcDbVertex
100
AcDb2dVertex
 10
91.65280352526389
 20
194.3795219783148
 30
0.0
  0
SEQEND
  5
5AA
330
5A7
100
AcDbEntity
  8
BEMAßUNG
  0
POLYLINE
  5
5AB
330
1F
100
AcDbEntity
  8
BEMAßUNG
 62
     7
100
AcDb2dPolyline
 66
     1
 10
0.0
 20
0.0
 30
0.0
  0
VERTEX
  5
5AC
330
5AB
100
AcDbEntity
  8
BEMAßUNG
 62
     7
100
AcDbVertex
100
AcDb2dVertex
 10
91.70361868367132
 20
195.1786118761185
 30
0.0
  0
VERTEX
  5
5AD
330
5AB
100
AcDbEntity
  8
BEMAßUNG
 62
     7
100
AcDbVertex
100
AcDb2dVertex
 10
91.70361868367132
 20
193.9934990291926
 30
0.0
  0
SEQEND
  5
5AE
330
5AB
100
AcDbEntity
  8
BEMAßUNG
  0
POLYLINE
  5
5AF
330
1F
100
AcDbEntity
  8
BEMAßUNG
 62
     7
100
AcDb2dPolyline
 66
     1
 10
0.0
 20
0.0
 30
0.0
  0
VERTEX
  5
5B0
330
5AF
100
AcDbEntity
  8
BEMAßUNG
 62
     7
100
AcDbVertex
100
AcDb2dVertex
 10
91.75477835162728
 20
195.1786118761185
 30
0.0
  0
VERTEX
  5
5B1
330
5AF
100
AcDbEntity
  8
BEMAßUNG
 62
     7
100
AcDbVertex
100
AcDb2dVertex
 10
91.75477835162728
 20
193.6079928443932
 30
0.0
  0
SEQEND
  5
5B2
330
5AF
100
AcDbEntity
  8
BEMAßUNG
  0
POLYLINE
  5
5B3
330
1F
100
AcDbEntity
  8
BEMAßUNG
 62
     7
100
AcDb2dPolyline
 66
     1
 10
0.0
 20
0.0
 30
0.0
  0
VERTEX
  5
5B4
330
5B3
100
AcDbEntity
  8
BEMAßUNG
 62
     7
100
AcDbVertex
100
AcDb2dVertex
 10
91.80559351003471
 20
195.1786118761185
 30
0.0
  0
VERTEX
  5
5B5
330
5B3
100
AcDbEntity
  8
BEMAßUNG
 62
     7
100
AcDbVertex
100
AcDb2dVertex
 10
91.80559351003471
 20
193.2219698952709
 30
0.0
  0
SEQEND
  5
5B6
330
5B3
100
AcDbEntity
  8
BEMAßUNG
  0
POLYLINE
  5
5B7
330
1F
100
AcDbEntity
  8
BEMAßUNG
 62
     7
100
AcDb2dPolyline
 66
     1
 10
0.0
 20
0.0
 30
0.0
  0
VERTEX
  5
5B8
330
5B7
100
AcDbEntity
  8
BEMAßUNG
 62
     7
100
AcDbVertex
100
AcDb2dVertex
 10
91.85640866844216
 20
195.1786118761185
 30
0.0
  0
VERTEX
  5
5B9
330
5B7
100
AcDbEntity
  8
BEMAßUNG
 62
     7
100
AcDbVertex
100
AcDb2dVertex
 10
91.85640866844216
 20
192.8361192009229
 30
0.0
  0
SEQEND
  5
5BA
330
5B7
100
AcDbEntity
  8
BEMAßUNG
  0
POLYLINE
  5
5BB
330
1F
100
AcDbEntity
  8
BEMAßUNG
 62
     7
100
AcDb2dPolyline
 66
     1
 10
0.0
 20
0.0
 30
0.0
  0
VERTEX
  5
5BC
330
5BB
100
AcDbEntity
  8
BEMAßUNG
 62
     7
100
AcDbVertex
100
AcDb2dVertex
 10
91.90722382684959
 20
195.1786118761185
 30
0.0
  0
VERTEX
  5
5BD
330
5BB
100
AcDbEntity
  8
BEMAßUNG
 62
     7
100
AcDbVertex
100
AcDb2dVertex
 10
91.90722382684959
 20
192.4500962518007
 30
0.0
  0
SEQEND
  5
5BE
330
5BB
100
AcDbEntity
  8
BEMAßUNG
  0
POLYLINE
  5
5BF
330
1F
100
AcDbEntity
  8
BEMAßUNG
 62
     7
100
AcDb2dPolyline
 66
     1
 10
0.0
 20
0.0
 30
0.0
  0
VERTEX
  5
5C0
330
5BF
100
AcDbEntity
  8
BEMAßUNG
 62
     7
100
AcDbVertex
100
AcDb2dVertex
 10
91.95803898525702
 20
195.1786118761185
 30
0.0
  0
VERTEX
  5
5C1
330
5BF
100
AcDbEntity
  8
BEMAßUNG
 62
     7
100
AcDbVertex
100
AcDb2dVertex
 10
91.95803898525702
 20
192.0645900670012
 30
0.0
  0
SEQEND
  5
5C2
330
5BF
100
AcDbEntity
  8
BEMAßUNG
  0
POLYLINE
  5
5C3
330
1F
100
AcDbEntity
  8
BEMAßUNG
 62
     7
100
AcDb2dPolyline
 66
     1
 10
0.0
 20
0.0
 30
0.0
  0
VERTEX
  5
5C4
330
5C3
100
AcDbEntity
  8
BEMAßUNG
 62
     7
100
AcDbVertex
100
AcDb2dVertex
 10
92.00850963411594
 20
195.1786118761185
 30
0.0
  0
VERTEX
  5
5C5
330
5C3
100
AcDbEntity
  8
BEMAßUNG
 62
     7
100
AcDbVertex
100
AcDb2dVertex
 10
92.00850963411594
 20
191.678567117879
 30
0.0
  0
SEQEND
  5
5C6
330
5C3
100
AcDbEntity
  8
BEMAßUNG
  0
POLYLINE
  5
5C7
330
1F
100
AcDbEntity
  8
BEMAßUNG
 62
     7
100
AcDb2dPolyline
 66
     1
 10
0.0
 20
0.0
 30
0.0
  0
VERTEX
  5
5C8
330
5C7
100
AcDbEntity
  8
BEMAßUNG
 62
     7
100
AcDbVertex
100
AcDb2dVertex
 10
115.6985364836622
 20
196.1754502547756
 30
0.0
  0
VERTEX
  5
5C9
330
5C7
100
AcDbEntity
  8
BEMAßUNG
 62
     7
100
AcDbVertex
100
AcDb2dVertex
 10
170.6006116652491
 20
224.6274603388084
 30
0.0
  0
SEQEND
  5
5CA
330
5C7
100
AcDbEntity
  8
BEMAßUNG
  0
SPLINE
  5
5CB
330
1F
100
AcDbEntity
  8
BEMAßUNG
 62
     7
100
AcDbSpline
210
0.0
220
0.0
230
1.0
 70
     8
 71
     3
 72
     8
 73
     4
 74
     0
 42
0.0000000001
 43
0.0000000001
 40
0.0
 40
0.0
 40
0.0
 40
0.0
 40
1.0
 40
1.0
 40
1.0
 40
1.0
 10
162.8956556124879
 20
207.6784518252505
 30
0.0
 10
162.8956556124879
 20
212.5825452485037
 30
0.0
 10
161.4828219539869
 20
217.1569430338184
 30
0.0
 10
159.1036390118734
 20
220.9146809343547
 30
0.0
  0
SPLINE
  5
5CC
330
1F
100
AcDbEntity
  8
BEMAßUNG
 62
     7
100
AcDbSpline
210
0.0
220
0.0
230
1.0
 70
     8
 71
     3
 72
     8
 73
     4
 74
     0
 42
0.0000000001
 43
0.0000000001
 40
0.0
 40
0.0
 40
0.0
 40
0.0
 40
1.0
 40
1.0
 40
1.0
 40
1.0
 10
114.851904268162
 20
197.9820583272406
 30
0.0
 10
116.4817789422337
 20
194.1095987470455
 30
0.0
 10
118.9730997423922
 20
190.8619072331005
 30
0.0
 10
121.8955742425296
 20
188.4687716542717
 30
0.0
  0
SPLINE
  5
5CD
330
1F
100
AcDbEntity
  8
BEMAßUNG
 62
     7
100
AcDbSpline
210
0.0
220
0.0
230
1.0
 70
     8
 71
     3
 72
    11
 73
     7
 74
     0
 42
0.0000000001
 43
0.0000000001
 40
0.0
 40
0.0
 40
0.0
 40
0.0
 40
1.0
 40
1.0
 40
1.0
 40
2.0
 40
2.0
 40
2.0
 40
2.0
 10
124.2308322172062
 20
186.7432955804843
 30
0.0
 10
128.4867309249096
 20
183.9648260716303
 30
0.0
 10
133.2761026685039
 20
182.6506943987818
 30
0.0
 10
137.8952866951269
 20
182.6785996722123
 30
0.0
 10
151.7020236165884
 20
182.6785996722123
 30
0.0
 10
162.8956556124879
 20
193.8715426490148
 30
0.0
 10
162.8956556124879
 20
207.6784518252505
 30
0.0
  0
POLYLINE
  5
5CE
330
1F
100
AcDbEntity
  8
BEMAßUNG
 62
     7
100
AcDb2dPolyline
 66
     1
 10
0.0
 20
0.0
 30
0.0
  0
VERTEX
  5
5CF
330
5CE
100
AcDbEntity
  8
BEMAßUNG
 62
     7
100
AcDbVertex
100
AcDb2dVertex
 10
160.0922091613658
 20
219.1814533957255
 30
0.0
  0
VERTEX
  5
5D0
330
5CE
100
AcDbEntity
  8
BEMAßUNG
 62
     7
100
AcDbVertex
100
AcDb2dVertex
 10
156.7725151517791
 20
217.9796318356961
 30
0.0
  0
VERTEX
  5
5D1
330
5CE
100
AcDbEntity
  8
BEMAßUNG
 62
     7
100
AcDbVertex
100
AcDb2dVertex
 10
157.1966064060134
 20
217.1615939127235
 30
0.0
  0
VERTEX
  5
5D2
330
5CE
100
AcDbEntity
  8
BEMAßUNG
 62
     7
100
AcDbVertex
100
AcDb2dVertex
 10
160.0922091613658
 20
219.1814533957255
 30
0.0
  0
SEQEND
  5
5D3
330
5CE
100
AcDbEntity
  8
BEMAßUNG
  0
POLYLINE
  5
5D4
330
1F
100
AcDbEntity
  8
BEMAßUNG
 62
     7
100
AcDb2dPolyline
 66
     1
 10
0.0
 20
0.0
 30
0.0
  0
VERTEX
  5
5D5
330
5D4
100
AcDbEntity
  8
BEMAßUNG
 62
     7
100
AcDbVertex
100
AcDb2dVertex
 10
156.7742376995217
 20
217.9772202688564
 30
0.0
  0
VERTEX
  5
5D6
330
5D4
100
AcDbEntity
  8
BEMAßUNG
 62
     7
100
AcDbVertex
100
AcDb2dVertex
 10
156.7981811131442
 20
217.989450357829
 30
0.0
  0
SEQEND
  5
5D7
330
5D4
100
AcDbEntity
  8
BEMAßUNG
  0
POLYLINE
  5
5D8
330
1F
100
AcDbEntity
  8
BEMAßUNG
 62
     7
100
AcDb2dPolyline
 66
     1
 10
0.0
 20
0.0
 30
0.0
  0
VERTEX
  5
5D9
330
5D8
100
AcDbEntity
  8
BEMAßUNG
 62
     7
100
AcDbVertex
100
AcDb2dVertex
 10
156.7742376995217
 20
217.9772202688564
 30
0.0
  0
VERTEX
  5
5DA
330
5D8
100
AcDbEntity
  8
BEMAßUNG
 62
     7
100
AcDbVertex
100
AcDb2dVertex
 10
156.7981811131442
 20
217.989450357829
 30
0.0
  0
SEQEND
  5
5DB
330
5D8
100
AcDbEntity
  8
BEMAßUNG
  0
POLYLINE
  5
5DC
330
1F
100
AcDbEntity
  8
BEMAßUNG
 62
     7
100
AcDb2dPolyline
 66
     1
 10
0.0
 20
0.0
 30
0.0
  0
VERTEX
  5
5DD
330
5DC
100
AcDbEntity
  8
BEMAßUNG
 62
     7
100
AcDbVertex
100
AcDb2dVertex
 10
156.7971475844986
 20
217.9315727536768
 30
0.0
  0
VERTEX
  5
5DE
330
5DC
100
AcDbEntity
  8
BEMAßUNG
 62
     7
100
AcDbVertex
100
AcDb2dVertex
 10
157.1643947632263
 20
218.1217420244626
 30
0.0
  0
SEQEND
  5
5DF
330
5DC
100
AcDbEntity
  8
BEMAßUNG
  0
POLYLINE
  5
5E0
330
1F
100
AcDbEntity
  8
BEMAßUNG
 62
     7
100
AcDb2dPolyline
 66
     1
 10
0.0
 20
0.0
 30
0.0
  0
VERTEX
  5
5E1
330
5E0
100
AcDbEntity
  8
BEMAßUNG
 62
     7
100
AcDbVertex
100
AcDb2dVertex
 10
156.8205742337983
 20
217.8864420028201
 30
0.0
  0
VERTEX
  5
5E2
330
5E0
100
AcDbEntity
  8
BEMAßUNG
 62
     7
100
AcDbVertex
100
AcDb2dVertex
 10
157.5299193942113
 20
218.2540336910962
 30
0.0
  0
SEQEND
  5
5E3
330
5E0
100
AcDbEntity
  8
BEMAßUNG
  0
POLYLINE
  5
5E4
330
1F
100
AcDbEntity
  8
BEMAßUNG
 62
     7
100
AcDb2dPolyline
 66
     1
 10
0.0
 20
0.0
 30
0.0
  0
VERTEX
  5
5E5
330
5E4
100
AcDbEntity
  8
BEMAßUNG
 62
     7
100
AcDbVertex
100
AcDb2dVertex
 10
156.8441731378723
 20
217.8416557615118
 30
0.0
  0
VERTEX
  5
5E6
330
5E4
100
AcDbEntity
  8
BEMAßUNG
 62
     7
100
AcDbVertex
100
AcDb2dVertex
 10
157.8957885347448
 20
218.3863253577298
 30
0.0
  0
SEQEND
  5
5E7
330
5E4
100
AcDbEntity
  8
BEMAßUNG
  0
POLYLINE
  5
5E8
330
1F
100
AcDbEntity
  8
BEMAßUNG
 62
     7
100
AcDb2dPolyline
 66
     1
 10
0.0
 20
0.0
 30
0.0
  0
VERTEX
  5
5E9
330
5E8
100
AcDbEntity
  8
BEMAßUNG
 62
     7
100
AcDbVertex
100
AcDb2dVertex
 10
156.8677720419463
 20
217.7961805011065
 30
0.0
  0
VERTEX
  5
5EA
330
5E8
100
AcDbEntity
  8
BEMAßUNG
 62
     7
100
AcDbVertex
100
AcDb2dVertex
 10
158.2620021848269
 20
218.5189615339119
 30
0.0
  0
SEQEND
  5
5EB
330
5E8
100
AcDbEntity
  8
BEMAßUNG
  0
POLYLINE
  5
5EC
330
1F
100
AcDbEntity
  8
BEMAßUNG
 62
     7
100
AcDb2dPolyline
 66
     1
 10
0.0
 20
0.0
 30
0.0
  0
VERTEX
  5
5ED
330
5EC
100
AcDbEntity
  8
BEMAßUNG
 62
     7
100
AcDbVertex
100
AcDb2dVertex
 10
156.8910264364717
 20
217.7513942597983
 30
0.0
  0
VERTEX
  5
5EE
330
5EC
100
AcDbEntity
  8
BEMAßUNG
 62
     7
100
AcDbVertex
100
AcDb2dVertex
 10
158.6282158349089
 20
218.6512532005455
 30
0.0
  0
SEQEND
  5
5EF
330
5EC
100
AcDbEntity
  8
BEMAßUNG
  0
POLYLINE
  5
5F0
330
1F
100
AcDbEntity
  8
BEMAßUNG
 62
     7
100
AcDb2dPolyline
 66
     1
 10
0.0
 20
0.0
 30
0.0
  0
VERTEX
  5
5F1
330
5F0
100
AcDbEntity
  8
BEMAßUNG
 62
     7
100
AcDbVertex
100
AcDb2dVertex
 10
156.9139363214486
 20
217.7062635089415
 30
0.0
  0
VERTEX
  5
5F2
330
5F0
100
AcDbEntity
  8
BEMAßUNG
 62
     7
100
AcDbVertex
100
AcDb2dVertex
 10
158.9935682111197
 20
218.7835448671791
 30
0.0
  0
SEQEND
  5
5F3
330
5F0
100
AcDbEntity
  8
BEMAßUNG
  0
POLYLINE
  5
5F4
330
1F
100
AcDbEntity
  8
BEMAßUNG
 62
     7
100
AcDb2dPolyline
 66
     1
 10
0.0
 20
0.0
 30
0.0
  0
VERTEX
  5
5F5
330
5F4
100
AcDbEntity
  8
BEMAßUNG
 62
     7
100
AcDbVertex
100
AcDb2dVertex
 10
156.9371907159741
 20
217.6607882485362
 30
0.0
  0
VERTEX
  5
5F6
330
5F4
100
AcDbEntity
  8
BEMAßUNG
 62
     7
100
AcDbVertex
100
AcDb2dVertex
 10
159.3597818612017
 20
218.9165255529098
 30
0.0
  0
SEQEND
  5
5F7
330
5F4
100
AcDbEntity
  8
BEMAßUNG
  0
POLYLINE
  5
5F8
330
1F
100
AcDbEntity
  8
BEMAßUNG
 62
     7
100
AcDb2dPolyline
 66
     1
 10
0.0
 20
0.0
 30
0.0
  0
VERTEX
  5
5F9
330
5F8
100
AcDbEntity
  8
BEMAßUNG
 62
     7
100
AcDbVertex
100
AcDb2dVertex
 10
156.9613063843708
 20
217.6163465167765
 30
0.0
  0
VERTEX
  5
5FA
330
5F8
100
AcDbEntity
  8
BEMAßUNG
 62
     7
100
AcDbVertex
100
AcDb2dVertex
 10
159.7256510017353
 20
219.0488172195434
 30
0.0
  0
SEQEND
  5
5FB
330
5F8
100
AcDbEntity
  8
BEMAßUNG
  0
POLYLINE
  5
5FC
330
1F
100
AcDbEntity
  8
BEMAßUNG
 62
     7
100
AcDb2dPolyline
 66
     1
 10
0.0
 20
0.0
 30
0.0
  0
VERTEX
  5
5FD
330
5FC
100
AcDbEntity
  8
BEMAßUNG
 62
     7
100
AcDbVertex
100
AcDb2dVertex
 10
156.9845607788962
 20
217.5706990015969
 30
0.0
  0
VERTEX
  5
5FE
330
5FC
100
AcDbEntity
  8
BEMAßUNG
 62
     7
100
AcDbVertex
100
AcDb2dVertex
 10
160.0922091613658
 20
219.1814533957255
 30
0.0
  0
SEQEND
  5
5FF
330
5FC
100
AcDbEntity
  8
BEMAßUNG
  0
POLYLINE
  5
600
330
1F
100
AcDbEntity
  8
BEMAßUNG
 62
     7
100
AcDb2dPolyline
 66
     1
 10
0.0
 20
0.0
 30
0.0
  0
VERTEX
  5
601
330
600
100
AcDbEntity
  8
BEMAßUNG
 62
     7
100
AcDbVertex
100
AcDb2dVertex
 10
157.1947116034965
 20
217.1650390082087
 30
0.0
  0
VERTEX
  5
602
330
600
100
AcDbEntity
  8
BEMAßUNG
 62
     7
100
AcDbVertex
100
AcDb2dVertex
 10
157.2188272718932
 20
217.1774413519557
 30
0.0
  0
SEQEND
  5
603
330
600
100
AcDbEntity
  8
BEMAßUNG
  0
POLYLINE
  5
604
330
1F
100
AcDbEntity
  8
BEMAßUNG
 62
     7
100
AcDb2dPolyline
 66
     1
 10
0.0
 20
0.0
 30
0.0
  0
VERTEX
  5
605
330
604
100
AcDbEntity
  8
BEMAßUNG
 62
     7
100
AcDbVertex
100
AcDb2dVertex
 10
157.1947116034965
 20
217.1650390082087
 30
0.0
  0
VERTEX
  5
606
330
604
100
AcDbEntity
  8
BEMAßUNG
 62
     7
100
AcDbVertex
100
AcDb2dVertex
 10
157.2188272718932
 20
217.1774413519557
 30
0.0
  0
SEQEND
  5
607
330
604
100
AcDbEntity
  8
BEMAßUNG
  0
POLYLINE
  5
608
330
1F
100
AcDbEntity
  8
BEMAßUNG
 62
     7
100
AcDb2dPolyline
 66
     1
 10
0.0
 20
0.0
 30
0.0
  0
VERTEX
  5
609
330
608
100
AcDbEntity
  8
BEMAßUNG
 62
     7
100
AcDbVertex
100
AcDb2dVertex
 10
157.171457208971
 20
217.2101697590655
 30
0.0
  0
VERTEX
  5
60A
330
608
100
AcDbEntity
  8
BEMAßUNG
 62
     7
100
AcDbVertex
100
AcDb2dVertex
 10
157.5380153686016
 20
217.4003390298513
 30
0.0
  0
SEQEND
  5
60B
330
608
100
AcDbEntity
  8
BEMAßUNG
  0
POLYLINE
  5
60C
330
1F
100
AcDbEntity
  8
BEMAßUNG
 62
     7
100
AcDb2dPolyline
 66
     1
 10
0.0
 20
0.0
 30
0.0
  0
VERTEX
  5
60D
330
60C
100
AcDbEntity
  8
BEMAßUNG
 62
     7
100
AcDbVertex
100
AcDb2dVertex
 10
157.1478583048971
 20
217.2549560003738
 30
0.0
  0
VERTEX
  5
60E
330
60C
100
AcDbEntity
  8
BEMAßUNG
 62
     7
100
AcDbVertex
100
AcDb2dVertex
 10
157.8573757200843
 20
217.6228921981985
 30
0.0
  0
SEQEND
  5
60F
330
60C
100
AcDbEntity
  8
BEMAßUNG
  0
POLYLINE
  5
610
330
1F
100
AcDbEntity
  8
BEMAßUNG
 62
     7
100
AcDb2dPolyline
 66
     1
 10
0.0
 20
0.0
 30
0.0
  0
VERTEX
  5
611
330
610
100
AcDbEntity
  8
BEMAßUNG
 62
     7
100
AcDbVertex
100
AcDb2dVertex
 10
157.1242594008231
 20
217.3004312607791
 30
0.0
  0
VERTEX
  5
612
330
610
100
AcDbEntity
  8
BEMAßUNG
 62
     7
100
AcDbVertex
100
AcDb2dVertex
 10
158.1765638167927
 20
217.8452731117713
 30
0.0
  0
SEQEND
  5
613
330
610
100
AcDbEntity
  8
BEMAßUNG
  0
POLYLINE
  5
614
330
1F
100
AcDbEntity
  8
BEMAßUNG
 62
     7
100
AcDb2dPolyline
 66
     1
 10
0.0
 20
0.0
 30
0.0
  0
VERTEX
  5
615
330
614
100
AcDbEntity
  8
BEMAßUNG
 62
     7
100
AcDbVertex
100
AcDb2dVertex
 10
157.1013495158462
 20
217.3453897568616
 30
0.0
  0
VERTEX
  5
616
330
614
100
AcDbEntity
  8
BEMAßUNG
 62
     7
100
AcDbVertex
100
AcDb2dVertex
 10
158.4959241682753
 20
218.0678262801185
 30
0.0
  0
SEQEND
  5
617
330
614
100
AcDbEntity
  8
BEMAßUNG
  0
POLYLINE
  5
618
330
1F
100
AcDbEntity
  8
BEMAßUNG
 62
     7
100
AcDb2dPolyline
 66
     1
 10
0.0
 20
0.0
 30
0.0
  0
VERTEX
  5
619
330
618
100
AcDbEntity
  8
BEMAßUNG
 62
     7
100
AcDbVertex
100
AcDb2dVertex
 10
157.0780951213208
 20
217.3905205077183
 30
0.0
  0
VERTEX
  5
61A
330
618
100
AcDbEntity
  8
BEMAßUNG
 62
     7
100
AcDbVertex
100
AcDb2dVertex
 10
158.8147677554352
 20
218.2907239580141
 30
0.0
  0
SEQEND
  5
61B
330
618
100
AcDbEntity
  8
BEMAßUNG
  0
POLYLINE
  5
61C
330
1F
100
AcDbEntity
  8
BEMAßUNG
 62
     7
100
AcDb2dPolyline
 66
     1
 10
0.0
 20
0.0
 30
0.0
  0
VERTEX
  5
61D
330
61C
100
AcDbEntity
  8
BEMAßUNG
 62
     7
100
AcDbVertex
100
AcDb2dVertex
 10
157.0543239624725
 20
217.4353067490266
 30
0.0
  0
VERTEX
  5
61E
330
61C
100
AcDbEntity
  8
BEMAßUNG
 62
     7
100
AcDbVertex
100
AcDb2dVertex
 10
159.1339558521436
 20
218.5134493811355
 30
0.0
  0
SEQEND
  5
61F
330
61C
100
AcDbEntity
  8
BEMAßUNG
  0
POLYLINE
  5
620
330
1F
100
AcDbEntity
  8
BEMAßUNG
 62
     7
100
AcDb2dPolyline
 66
     1
 10
0.0
 20
0.0
 30
0.0
  0
VERTEX
  5
621
330
620
100
AcDbEntity
  8
BEMAßUNG
 62
     7
100
AcDbVertex
100
AcDb2dVertex
 10
157.0307250583986
 20
217.4804374998834
 30
0.0
  0
VERTEX
  5
622
330
620
100
AcDbEntity
  8
BEMAßUNG
 62
     7
100
AcDbVertex
100
AcDb2dVertex
 10
159.4533162036263
 20
218.7356580399342
 30
0.0
  0
SEQEND
  5
623
330
620
100
AcDbEntity
  8
BEMAßUNG
  0
POLYLINE
  5
624
330
1F
100
AcDbEntity
  8
BEMAßUNG
 62
     7
100
AcDb2dPolyline
 66
     1
 10
0.0
 20
0.0
 30
0.0
  0
VERTEX
  5
625
330
624
100
AcDbEntity
  8
BEMAßUNG
 62
     7
100
AcDbVertex
100
AcDb2dVertex
 10
157.0074706638731
 20
217.5259127602887
 30
0.0
  0
VERTEX
  5
626
330
624
100
AcDbEntity
  8
BEMAßUNG
 62
     7
100
AcDbVertex
100
AcDb2dVertex
 10
159.7728488098832
 20
218.9589002273783
 30
0.0
  0
SEQEND
  5
627
330
624
100
AcDbEntity
  8
BEMAßUNG
  0
POLYLINE
  5
628
330
1F
100
AcDbEntity
  8
BEMAßUNG
 62
     7
100
AcDb2dPolyline
 66
     1
 10
0.0
 20
0.0
 30
0.0
  0
VERTEX
  5
629
330
628
100
AcDbEntity
  8
BEMAßUNG
 62
     7
100
AcDbVertex
100
AcDb2dVertex
 10
156.9845607788962
 20
217.5706990015969
 30
0.0
  0
VERTEX
  5
62A
330
628
100
AcDbEntity
  8
BEMAßUNG
 62
     7
100
AcDbVertex
100
AcDb2dVertex
 10
160.0922091613658
 20
219.1814533957255
 30
0.0
  0
SEQEND
  5
62B
330
628
100
AcDbEntity
  8
BEMAßUNG
  0
POLYLINE
  5
62C
330
1F
100
AcDbEntity
  8
BEMAßUNG
 62
     7
100
AcDb2dPolyline
 66
     1
 10
0.0
 20
0.0
 30
0.0
  0
VERTEX
  5
62D
330
62C
100
AcDbEntity
  8
BEMAßUNG
 62
     7
100
AcDbVertex
100
AcDb2dVertex
 10
115.6985364836622
 20
196.1754502547756
 30
0.0
  0
VERTEX
  5
62E
330
62C
100
AcDbEntity
  8
BEMAßUNG
 62
     7
100
AcDbVertex
100
AcDb2dVertex
 10
119.0185750027974
 20
197.3770995600307
 30
0.0
  0
VERTEX
  5
62F
330
62C
100
AcDbEntity
  8
BEMAßUNG
 62
     7
100
AcDbVertex
100
AcDb2dVertex
 10
118.5944837485632
 20
198.1947929734548
 30
0.0
  0
VERTEX
  5
630
330
62C
100
AcDbEntity
  8
BEMAßUNG
 62
     7
100
AcDbVertex
100
AcDb2dVertex
 10
115.6985364836622
 20
196.1754502547756
 30
0.0
  0
SEQEND
  5
631
330
62C
100
AcDbEntity
  8
BEMAßUNG
  0
POLYLINE
  5
632
330
1F
100
AcDbEntity
  8
BEMAßUNG
 62
     7
100
AcDb2dPolyline
 66
     1
 10
0.0
 20
0.0
 30
0.0
  0
VERTEX
  5
633
330
632
100
AcDbEntity
  8
BEMAßUNG
 62
     7
100
AcDbVertex
100
AcDb2dVertex
 10
119.0168524550548
 20
197.3798556364189
 30
0.0
  0
VERTEX
  5
634
330
632
100
AcDbEntity
  8
BEMAßUNG
 62
     7
100
AcDbVertex
100
AcDb2dVertex
 10
118.9929090414323
 20
197.3671087831235
 30
0.0
  0
SEQEND
  5
635
330
632
100
AcDbEntity
  8
BEMAßUNG
  0
POLYLINE
  5
636
330
1F
100
AcDbEntity
  8
BEMAßUNG
 62
     7
100
AcDb2dPolyline
 66
     1
 10
0.0
 20
0.0
 30
0.0
  0
VERTEX
  5
637
330
636
100
AcDbEntity
  8
BEMAßUNG
 62
     7
100
AcDbVertex
100
AcDb2dVertex
 10
119.0168524550548
 20
197.3798556364189
 30
0.0
  0
VERTEX
  5
638
330
636
100
AcDbEntity
  8
BEMAßUNG
 62
     7
100
AcDbVertex
100
AcDb2dVertex
 10
118.9929090414323
 20
197.3671087831235
 30
0.0
  0
SEQEND
  5
639
330
636
100
AcDbEntity
  8
BEMAßUNG
  0
POLYLINE
  5
63A
330
1F
100
AcDbEntity
  8
BEMAßUNG
 62
     7
100
AcDb2dPolyline
 66
     1
 10
0.0
 20
0.0
 30
0.0
  0
VERTEX
  5
63B
330
63A
100
AcDbEntity
  8
BEMAßUNG
 62
     7
100
AcDbVertex
100
AcDb2dVertex
 10
118.9935980605294
 20
197.4249863872757
 30
0.0
  0
VERTEX
  5
63C
330
63A
100
AcDbEntity
  8
BEMAßUNG
 62
     7
100
AcDbVertex
100
AcDb2dVertex
 10
118.6266953913503
 20
197.2348171164899
 30
0.0
  0
SEQEND
  5
63D
330
63A
100
AcDbEntity
  8
BEMAßUNG
  0
POLYLINE
  5
63E
330
1F
100
AcDbEntity
  8
BEMAßUNG
 62
     7
100
AcDb2dPolyline
 66
     1
 10
0.0
 20
0.0
 30
0.0
  0
VERTEX
  5
63F
330
63E
100
AcDbEntity
  8
BEMAßUNG
 62
     7
100
AcDbVertex
100
AcDb2dVertex
 10
118.9699991564554
 20
197.470461647681
 30
0.0
  0
VERTEX
  5
640
330
63E
100
AcDbEntity
  8
BEMAßUNG
 62
     7
100
AcDbVertex
100
AcDb2dVertex
 10
118.2608262508167
 20
197.1025254498563
 30
0.0
  0
SEQEND
  5
641
330
63E
100
AcDbEntity
  8
BEMAßUNG
  0
POLYLINE
  5
642
330
1F
100
AcDbEntity
  8
BEMAßUNG
 62
     7
100
AcDb2dPolyline
 66
     1
 10
0.0
 20
0.0
 30
0.0
  0
VERTEX
  5
643
330
642
100
AcDbEntity
  8
BEMAßUNG
 62
     7
100
AcDbVertex
100
AcDb2dVertex
 10
118.9462279976072
 20
197.515764653312
 30
0.0
  0
VERTEX
  5
644
330
642
100
AcDbEntity
  8
BEMAßUNG
 62
     7
100
AcDbVertex
100
AcDb2dVertex
 10
117.8946126007347
 20
196.9702337832227
 30
0.0
  0
SEQEND
  5
645
330
642
100
AcDbEntity
  8
BEMAßUNG
  0
POLYLINE
  5
646
330
1F
100
AcDbEntity
  8
BEMAßUNG
 62
     7
100
AcDb2dPolyline
 66
     1
 10
0.0
 20
0.0
 30
0.0
  0
VERTEX
  5
647
330
646
100
AcDbEntity
  8
BEMAßUNG
 62
     7
100
AcDbVertex
100
AcDb2dVertex
 10
118.9233181126303
 20
197.5605508946203
 30
0.0
  0
VERTEX
  5
648
330
646
100
AcDbEntity
  8
BEMAßUNG
 62
     7
100
AcDbVertex
100
AcDb2dVertex
 10
117.5283989506526
 20
196.8379421165891
 30
0.0
  0
SEQEND
  5
649
330
646
100
AcDbEntity
  8
BEMAßUNG
  0
POLYLINE
  5
64A
330
1F
100
AcDbEntity
  8
BEMAßUNG
 62
     7
100
AcDb2dPolyline
 66
     1
 10
0.0
 20
0.0
 30
0.0
  0
VERTEX
  5
64B
330
64A
100
AcDbEntity
  8
BEMAßUNG
 62
     7
100
AcDbVertex
100
AcDb2dVertex
 10
118.9000637181048
 20
197.6053371359285
 30
0.0
  0
VERTEX
  5
64C
330
64A
100
AcDbEntity
  8
BEMAßUNG
 62
     7
100
AcDbVertex
100
AcDb2dVertex
 10
117.1630465744419
 20
196.7049614308585
 30
0.0
  0
SEQEND
  5
64D
330
64A
100
AcDbEntity
  8
BEMAßUNG
  0
POLYLINE
  5
64E
330
1F
100
AcDbEntity
  8
BEMAßUNG
 62
     7
100
AcDb2dPolyline
 66
     1
 10
0.0
 20
0.0
 30
0.0
  0
VERTEX
  5
64F
330
64E
100
AcDbEntity
  8
BEMAßUNG
 62
     7
100
AcDbVertex
100
AcDb2dVertex
 10
118.8764648140309
 20
197.6504678867853
 30
0.0
  0
VERTEX
  5
650
330
64E
100
AcDbEntity
  8
BEMAßUNG
 62
     7
100
AcDbVertex
100
AcDb2dVertex
 10
116.7968329243598
 20
196.5726697642249
 30
0.0
  0
SEQEND
  5
651
330
64E
100
AcDbEntity
  8
BEMAßUNG
  0
POLYLINE
  5
652
330
1F
100
AcDbEntity
  8
BEMAßUNG
 62
     7
100
AcDb2dPolyline
 66
     1
 10
0.0
 20
0.0
 30
0.0
  0
VERTEX
  5
653
330
652
100
AcDbEntity
  8
BEMAßUNG
 62
     7
100
AcDbVertex
100
AcDb2dVertex
 10
118.8528659099569
 20
197.6959431471906
 30
0.0
  0
VERTEX
  5
654
330
652
100
AcDbEntity
  8
BEMAßUNG
 62
     7
100
AcDbVertex
100
AcDb2dVertex
 10
116.4306192742778
 20
196.4403780975913
 30
0.0
  0
SEQEND
  5
655
330
652
100
AcDbEntity
  8
BEMAßUNG
  0
POLYLINE
  5
656
330
1F
100
AcDbEntity
  8
BEMAßUNG
 62
     7
100
AcDb2dPolyline
 66
     1
 10
0.0
 20
0.0
 30
0.0
  0
VERTEX
  5
657
330
656
100
AcDbEntity
  8
BEMAßUNG
 62
     7
100
AcDbVertex
100
AcDb2dVertex
 10
118.8294392606572
 20
197.7410738980474
 30
0.0
  0
VERTEX
  5
658
330
656
100
AcDbEntity
  8
BEMAßUNG
 62
     7
100
AcDbVertex
100
AcDb2dVertex
 10
116.0647501337442
 20
196.3077419214092
 30
0.0
  0
SEQEND
  5
659
330
656
100
AcDbEntity
  8
BEMAßUNG
  0
POLYLINE
  5
65A
330
1F
100
AcDbEntity
  8
BEMAßUNG
 62
     7
100
AcDb2dPolyline
 66
     1
 10
0.0
 20
0.0
 30
0.0
  0
VERTEX
  5
65B
330
65A
100
AcDbEntity
  8
BEMAßUNG
 62
     7
100
AcDbVertex
100
AcDb2dVertex
 10
118.8065293756803
 20
197.7858601393556
 30
0.0
  0
VERTEX
  5
65C
330
65A
100
AcDbEntity
  8
BEMAßUNG
 62
     7
100
AcDbVertex
100
AcDb2dVertex
 10
115.6985364836622
 20
196.1754502547756
 30
0.0
  0
SEQEND
  5
65D
330
65A
100
AcDbEntity
  8
BEMAßUNG
  0
POLYLINE
  5
65E
330
1F
100
AcDbEntity
  8
BEMAßUNG
 62
     7
100
AcDb2dPolyline
 66
     1
 10
0.0
 20
0.0
 30
0.0
  0
VERTEX
  5
65F
330
65E
100
AcDbEntity
  8
BEMAßUNG
 62
     7
100
AcDbVertex
100
AcDb2dVertex
 10
118.5963785510801
 20
198.1916923875181
 30
0.0
  0
VERTEX
  5
660
330
65E
100
AcDbEntity
  8
BEMAßUNG
 62
     7
100
AcDbVertex
100
AcDb2dVertex
 10
118.5715738635863
 20
198.1796345533197
 30
0.0
  0
SEQEND
  5
661
330
65E
100
AcDbEntity
  8
BEMAßUNG
  0
POLYLINE
  5
662
330
1F
100
AcDbEntity
  8
BEMAßUNG
 62
     7
100
AcDb2dPolyline
 66
     1
 10
0.0
 20
0.0
 30
0.0
  0
VERTEX
  5
663
330
662
100
AcDbEntity
  8
BEMAßUNG
 62
     7
100
AcDbVertex
100
AcDb2dVertex
 10
118.5963785510801
 20
198.1916923875181
 30
0.0
  0
VERTEX
  5
664
330
662
100
AcDbEntity
  8
BEMAßUNG
 62
     7
100
AcDbVertex
100
AcDb2dVertex
 10
118.5715738635863
 20
198.1796345533197
 30
0.0
  0
SEQEND
  5
665
330
662
100
AcDbEntity
  8
BEMAßUNG
  0
POLYLINE
  5
666
330
1F
100
AcDbEntity
  8
BEMAßUNG
 62
     7
100
AcDb2dPolyline
 66
     1
 10
0.0
 20
0.0
 30
0.0
  0
VERTEX
  5
667
330
666
100
AcDbEntity
  8
BEMAßUNG
 62
     7
100
AcDbVertex
100
AcDb2dVertex
 10
118.619288436057
 20
198.146389381887
 30
0.0
  0
VERTEX
  5
668
330
666
100
AcDbEntity
  8
BEMAßUNG
 62
     7
100
AcDbVertex
100
AcDb2dVertex
 10
118.2523857668779
 20
197.956736875424
 30
0.0
  0
SEQEND
  5
669
330
666
100
AcDbEntity
  8
BEMAßUNG
  0
POLYLINE
  5
66A
330
1F
100
AcDbEntity
  8
BEMAßUNG
 62
     7
100
AcDb2dPolyline
 66
     1
 10
0.0
 20
0.0
 30
0.0
  0
VERTEX
  5
66B
330
66A
100
AcDbEntity
  8
BEMAßUNG
 62
     7
100
AcDbVertex
100
AcDb2dVertex
 10
118.6425428305824
 20
198.1016031405788
 30
0.0
  0
VERTEX
  5
66C
330
66A
100
AcDbEntity
  8
BEMAßUNG
 62
     7
100
AcDbVertex
100
AcDb2dVertex
 10
117.9333699249437
 20
197.7343559618512
 30
0.0
  0
SEQEND
  5
66D
330
66A
100
AcDbEntity
  8
BEMAßUNG
  0
POLYLINE
  5
66E
330
1F
100
AcDbEntity
  8
BEMAßUNG
 62
     7
100
AcDb2dPolyline
 66
     1
 10
0.0
 20
0.0
 30
0.0
  0
VERTEX
  5
66F
330
66E
100
AcDbEntity
  8
BEMAßUNG
 62
     7
100
AcDbVertex
100
AcDb2dVertex
 10
118.6661417346564
 20
198.056472389722
 30
0.0
  0
VERTEX
  5
670
330
66E
100
AcDbEntity
  8
BEMAßUNG
 62
     7
100
AcDbVertex
100
AcDb2dVertex
 10
117.6141818282353
 20
197.5114582839555
 30
0.0
  0
SEQEND
  5
671
330
66E
100
AcDbEntity
  8
BEMAßUNG
  0
POLYLINE
  5
672
330
1F
100
AcDbEntity
  8
BEMAßUNG
 62
     7
100
AcDb2dPolyline
 66
     1
 10
0.0
 20
0.0
 30
0.0
  0
VERTEX
  5
673
330
672
100
AcDbEntity
  8
BEMAßUNG
 62
     7
100
AcDbVertex
100
AcDb2dVertex
 10
118.6897406387303
 20
198.0116861484138
 30
0.0
  0
VERTEX
  5
674
330
672
100
AcDbEntity
  8
BEMAßUNG
 62
     7
100
AcDbVertex
100
AcDb2dVertex
 10
117.2953382410755
 20
197.2889051156083
 30
0.0
  0
SEQEND
  5
675
330
672
100
AcDbEntity
  8
BEMAßUNG
  0
POLYLINE
  5
676
330
1F
100
AcDbEntity
  8
BEMAßUNG
 62
     7
100
AcDb2dPolyline
 66
     1
 10
0.0
 20
0.0
 30
0.0
  0
VERTEX
  5
677
330
676
100
AcDbEntity
  8
BEMAßUNG
 62
     7
100
AcDbVertex
100
AcDb2dVertex
 10
118.7129950332558
 20
197.966555397557
 30
0.0
  0
VERTEX
  5
678
330
676
100
AcDbEntity
  8
BEMAßUNG
 62
     7
100
AcDbVertex
100
AcDb2dVertex
 10
116.9756333800443
 20
197.0658351829384
 30
0.0
  0
SEQEND
  5
679
330
676
100
AcDbEntity
  8
BEMAßUNG
  0
POLYLINE
  5
67A
330
1F
100
AcDbEntity
  8
BEMAßUNG
 62
     7
100
AcDb2dPolyline
 66
     1
 10
0.0
 20
0.0
 30
0.0
  0
VERTEX
  5
67B
330
67A
100
AcDbEntity
  8
BEMAßUNG
 62
     7
100
AcDbVertex
100
AcDb2dVertex
 10
118.736077173007
 20
197.9210801371517
 30
0.0
  0
VERTEX
  5
67C
330
67A
100
AcDbEntity
  8
BEMAßUNG
 62
     7
100
AcDbVertex
100
AcDb2dVertex
 10
116.6564452833359
 20
196.8436265241398
 30
0.0
  0
SEQEND
  5
67D
330
67A
100
AcDbEntity
  8
BEMAßUNG
  0
POLYLINE
  5
67E
330
1F
100
AcDbEntity
  8
BEMAßUNG
 62
     7
100
AcDb2dPolyline
 66
     1
 10
0.0
 20
0.0
 30
0.0
  0
VERTEX
  5
67F
330
67E
100
AcDbEntity
  8
BEMAßUNG
 62
     7
100
AcDbVertex
100
AcDb2dVertex
 10
118.7593315675324
 20
197.8759493862949
 30
0.0
  0
VERTEX
  5
680
330
67E
100
AcDbEntity
  8
BEMAßUNG
 62
     7
100
AcDbVertex
100
AcDb2dVertex
 10
116.3374294414018
 20
196.6207288462441
 30
0.0
  0
SEQEND
  5
681
330
67E
100
AcDbEntity
  8
BEMAßUNG
  0
POLYLINE
  5
682
330
1F
100
AcDbEntity
  8
BEMAßUNG
 62
     7
100
AcDb2dPolyline
 66
     1
 10
0.0
 20
0.0
 30
0.0
  0
VERTEX
  5
683
330
682
100
AcDbEntity
  8
BEMAßUNG
 62
     7
100
AcDbVertex
100
AcDb2dVertex
 10
118.7832749811549
 20
197.8311631449867
 30
0.0
  0
VERTEX
  5
684
330
682
100
AcDbEntity
  8
BEMAßUNG
 62
     7
100
AcDbVertex
100
AcDb2dVertex
 10
116.0182413446934
 20
196.3985201874455
 30
0.0
  0
SEQEND
  5
685
330
682
100
AcDbEntity
  8
BEMAßUNG
  0
POLYLINE
  5
686
330
1F
100
AcDbEntity
  8
BEMAßUNG
 62
     7
100
AcDb2dPolyline
 66
     1
 10
0.0
 20
0.0
 30
0.0
  0
VERTEX
  5
687
330
686
100
AcDbEntity
  8
BEMAßUNG
 62
     7
100
AcDbVertex
100
AcDb2dVertex
 10
118.8065293756803
 20
197.7858601393556
 30
0.0
  0
VERTEX
  5
688
330
686
100
AcDbEntity
  8
BEMAßUNG
 62
     7
100
AcDbVertex
100
AcDb2dVertex
 10
115.6985364836622
 20
196.1754502547756
 30
0.0
  0
SEQEND
  5
689
330
686
100
AcDbEntity
  8
BEMAßUNG
  0
POLYLINE
  5
68A
330
1F
100
AcDbEntity
  8
BEMAßUNG
 62
     7
100
AcDb2dPolyline
 66
     1
 10
0.0
 20
0.0
 30
0.0
  0
VERTEX
  5
68B
330
68A
100
AcDbEntity
  8
BEMAßUNG
 62
     7
100
AcDbVertex
100
AcDb2dVertex
 10
33.14319660629754
 20
186.4783677376686
 30
0.0
  0
VERTEX
  5
68C
330
68A
100
AcDbEntity
  8
BEMAßUNG
 62
     7
100
AcDbVertex
100
AcDb2dVertex
 10
33.14319660629754
 20
169.0694389768299
 30
0.0
  0
SEQEND
  5
68D
330
68A
100
AcDbEntity
  8
BEMAßUNG
  0
POLYLINE
  5
68E
330
1F
100
AcDbEntity
  8
BEMAßUNG
 62
     7
100
AcDb2dPolyline
 66
     1
 10
0.0
 20
0.0
 30
0.0
  0
VERTEX
  5
68F
330
68E
100
AcDbEntity
  8
BEMAßUNG
 62
     7
100
AcDbVertex
100
AcDb2dVertex
 10
43.64074705940232
 20
186.1858791309709
 30
0.0
  0
VERTEX
  5
690
330
68E
100
AcDbEntity
  8
BEMAßUNG
 62
     7
100
AcDbVertex
100
AcDb2dVertex
 10
49.68620061691873
 20
186.5023111512911
 30
0.0
  0
SEQEND
  5
691
330
68E
100
AcDbEntity
  8
BEMAßUNG
  0
SPLINE
  5
692
330
1F
100
AcDbEntity
  8
BEMAßUNG
 62
     7
100
AcDbSpline
210
0.0
220
0.0
230
1.0
 70
     8
 71
     3
 72
     8
 73
     4
 74
     0
 42
0.0000000001
 43
0.0000000001
 40
0.0
 40
0.0
 40
0.0
 40
0.0
 40
1.0
 40
1.0
 40
1.0
 40
1.0
 10
47.70854355361106
 20
185.6355251272022
 30
0.0
 10
47.70854355361106
 20
185.9037258107289
 30
0.0
 10
47.70182561741483
 20
186.1696871821902
 30
0.0
 10
47.68925101889366
 20
186.397924758088
 30
0.0
  0
SPLINE
  5
693
330
1F
100
AcDbEntity
  8
BEMAßUNG
 62
     7
100
AcDbSpline
210
0.0
220
0.0
230
1.0
 70
     8
 71
     3
 72
     8
 73
     4
 74
     0
 42
0.0000000001
 43
0.0000000001
 40
0.0
 40
0.0
 40
0.0
 40
0.0
 40
1.0
 40
1.0
 40
1.0
 40
1.0
 10
33.14319660629754
 20
171.0700059251145
 30
0.0
 10
41.18749456435591
 20
171.0700059251145
 30
0.0
 10
47.70854355361106
 20
177.5912271691439
 30
0.0
 10
47.70854355361106
 20
185.6355251272022
 30
0.0
  0
POLYLINE
  5
694
330
1F
100
AcDbEntity
  8
BEMAßUNG
 62
     7
100
AcDb2dPolyline
 66
     1
 10
0.0
 20
0.0
 30
0.0
  0
VERTEX
  5
695
330
694
100
AcDbEntity
  8
BEMAßUNG
 62
     7
100
AcDbVertex
100
AcDb2dVertex
 10
33.14319660629754
 20
171.0700059251145
 30
0.0
  0
VERTEX
  5
696
330
694
100
AcDbEntity
  8
BEMAßUNG
 62
     7
100
AcDbVertex
100
AcDb2dVertex
 10
36.66494546609418
 20
170.8188584642397
 30
0.0
  0
VERTEX
  5
697
330
694
100
AcDbEntity
  8
BEMAßUNG
 62
     7
100
AcDbVertex
100
AcDb2dVertex
 10
36.60982393833019
 20
171.7388712135757
 30
0.0
  0
VERTEX
  5
698
330
694
100
AcDbEntity
  8
BEMAßUNG
 62
     7
100
AcDbVertex
100
AcDb2dVertex
 10
33.14319660629754
 20
171.0700059251145
 30
0.0
  0
SEQEND
  5
699
330
694
100
AcDbEntity
  8
BEMAßUNG
  0
POLYLINE
  5
69A
330
1F
100
AcDbEntity
  8
BEMAßUNG
 62
     7
100
AcDb2dPolyline
 66
     1
 10
0.0
 20
0.0
 30
0.0
  0
VERTEX
  5
69B
330
69A
100
AcDbEntity
  8
BEMAßUNG
 62
     7
100
AcDbVertex
100
AcDb2dVertex
 10
36.66425644699713
 20
170.8224758144993
 30
0.0
  0
VERTEX
  5
69C
330
69A
100
AcDbEntity
  8
BEMAßUNG
 62
     7
100
AcDbVertex
100
AcDb2dVertex
 10
36.63704019266366
 20
170.8205810119824
 30
0.0
  0
SEQEND
  5
69D
330
69A
100
AcDbEntity
  8
BEMAßUNG
  0
POLYLINE
  5
69E
330
1F
100
AcDbEntity
  8
BEMAßUNG
 62
     7
100
AcDb2dPolyline
 66
     1
 10
0.0
 20
0.0
 30
0.0
  0
VERTEX
  5
69F
330
69E
100
AcDbEntity
  8
BEMAßUNG
 62
     7
100
AcDbVertex
100
AcDb2dVertex
 10
36.66425644699713
 20
170.8224758144993
 30
0.0
  0
VERTEX
  5
6A0
330
69E
100
AcDbEntity
  8
BEMAßUNG
 62
     7
100
AcDbVertex
100
AcDb2dVertex
 10
36.63704019266366
 20
170.8205810119824
 30
0.0
  0
SEQEND
  5
6A1
330
69E
100
AcDbEntity
  8
BEMAßUNG
  0
POLYLINE
  5
6A2
330
1F
100
AcDbEntity
  8
BEMAßUNG
 62
     7
100
AcDb2dPolyline
 66
     1
 10
0.0
 20
0.0
 30
0.0
  0
VERTEX
  5
6A3
330
6A2
100
AcDbEntity
  8
BEMAßUNG
 62
     7
100
AcDbVertex
100
AcDb2dVertex
 10
36.66132811583467
 20
170.8732909729067
 30
0.0
  0
VERTEX
  5
6A4
330
6A2
100
AcDbEntity
  8
BEMAßUNG
 62
     7
100
AcDbVertex
100
AcDb2dVertex
 10
36.24929469579879
 20
170.8484862854129
 30
0.0
  0
SEQEND
  5
6A5
330
6A2
100
AcDbEntity
  8
BEMAßUNG
  0
POLYLINE
  5
6A6
330
1F
100
AcDbEntity
  8
BEMAßUNG
 62
     7
100
AcDb2dPolyline
 66
     1
 10
0.0
 20
0.0
 30
0.0
  0
VERTEX
  5
6A7
330
6A6
100
AcDbEntity
  8
BEMAßUNG
 62
     7
100
AcDbVertex
100
AcDb2dVertex
 10
36.65822752989794
 20
170.9239338765398
 30
0.0
  0
VERTEX
  5
6A8
330
6A6
100
AcDbEntity
  8
BEMAßUNG
 62
     7
100
AcDbVertex
100
AcDb2dVertex
 10
35.86086017983687
 20
170.8763915588434
 30
0.0
  0
SEQEND
  5
6A9
330
6A6
100
AcDbEntity
  8
BEMAßUNG
  0
POLYLINE
  5
6AA
330
1F
100
AcDbEntity
  8
BEMAßUNG
 62
     7
100
AcDb2dPolyline
 66
     1
 10
0.0
 20
0.0
 30
0.0
  0
VERTEX
  5
6AB
330
6AA
100
AcDbEntity
  8
BEMAßUNG
 62
     7
100
AcDbVertex
100
AcDb2dVertex
 10
36.65495468918696
 20
170.9747490349473
 30
0.0
  0
VERTEX
  5
6AC
330
6AA
100
AcDbEntity
  8
BEMAßUNG
 62
     7
100
AcDbVertex
100
AcDb2dVertex
 10
35.47242566387495
 20
170.9036078131769
 30
0.0
  0
SEQEND
  5
6AD
330
6AA
100
AcDbEntity
  8
BEMAßUNG
  0
POLYLINE
  5
6AE
330
1F
100
AcDbEntity
  8
BEMAßUNG
 62
     7
100
AcDb2dPolyline
 66
     1
 10
0.0
 20
0.0
 30
0.0
  0
VERTEX
  5
6AF
330
6AE
100
AcDbEntity
  8
BEMAßUNG
 62
     7
100
AcDbVertex
100
AcDb2dVertex
 10
36.65219861279876
 20
171.0255641933547
 30
0.0
  0
VERTEX
  5
6B0
330
6AE
100
AcDbEntity
  8
BEMAßUNG
 62
     7
100
AcDbVertex
100
AcDb2dVertex
 10
35.0841634026873
 20
170.9318575961559
 30
0.0
  0
SEQEND
  5
6B1
330
6AE
100
AcDbEntity
  8
BEMAßUNG
  0
POLYLINE
  5
6B2
330
1F
100
AcDbEntity
  8
BEMAßUNG
 62
     7
100
AcDb2dPolyline
 66
     1
 10
0.0
 20
0.0
 30
0.0
  0
VERTEX
  5
6B3
330
6B2
100
AcDbEntity
  8
BEMAßUNG
 62
     7
100
AcDbVertex
100
AcDb2dVertex
 10
36.64909802686203
 20
171.0756903326651
 30
0.0
  0
VERTEX
  5
6B4
330
6B2
100
AcDbEntity
  8
BEMAßUNG
 62
     7
100
AcDbVertex
100
AcDb2dVertex
 10
34.6960733962739
 20
170.9589015957151
 30
0.0
  0
SEQEND
  5
6B5
330
6B2
100
AcDbEntity
  8
BEMAßUNG
  0
POLYLINE
  5
6B6
330
1F
100
AcDbEntity
  8
BEMAßUNG
 62
     7
100
AcDb2dPolyline
 66
     1
 10
0.0
 20
0.0
 30
0.0
  0
VERTEX
  5
6B7
330
6B6
100
AcDbEntity
  8
BEMAßUNG
 62
     7
100
AcDbVertex
100
AcDb2dVertex
 10
36.64616969569957
 20
171.1268500006211
 30
0.0
  0
VERTEX
  5
6B8
330
6B6
100
AcDbEntity
  8
BEMAßUNG
 62
     7
100
AcDbVertex
100
AcDb2dVertex
 10
34.30763888031198
 20
170.9868068691457
 30
0.0
  0
SEQEND
  5
6B9
330
6B6
100
AcDbEntity
  8
BEMAßUNG
  0
POLYLINE
  5
6BA
330
1F
100
AcDbEntity
  8
BEMAßUNG
 62
     7
100
AcDb2dPolyline
 66
     1
 10
0.0
 20
0.0
 30
0.0
  0
VERTEX
  5
6BB
330
6BA
100
AcDbEntity
  8
BEMAßUNG
 62
     7
100
AcDbVertex
100
AcDb2dVertex
 10
36.64306910976285
 20
171.1776651590285
 30
0.0
  0
VERTEX
  5
6BC
330
6BA
100
AcDbEntity
  8
BEMAßUNG
 62
     7
100
AcDbVertex
100
AcDb2dVertex
 10
33.91989338344711
 20
171.0147121425762
 30
0.0
  0
SEQEND
  5
6BD
330
6BA
100
AcDbEntity
  8
BEMAßUNG
  0
POLYLINE
  5
6BE
330
1F
100
AcDbEntity
  8
BEMAßUNG
 62
     7
100
AcDb2dPolyline
 66
     1
 10
0.0
 20
0.0
 30
0.0
  0
VERTEX
  5
6BF
330
6BE
100
AcDbEntity
  8
BEMAßUNG
 62
     7
100
AcDbVertex
100
AcDb2dVertex
 10
36.64014077860038
 20
171.228480317436
 30
0.0
  0
VERTEX
  5
6C0
330
6BE
100
AcDbEntity
  8
BEMAßUNG
 62
     7
100
AcDbVertex
100
AcDb2dVertex
 10
33.53145886748519
 20
171.0417561421354
 30
0.0
  0
SEQEND
  5
6C1
330
6BE
100
AcDbEntity
  8
BEMAßUNG
  0
POLYLINE
  5
6C2
330
1F
100
AcDbEntity
  8
BEMAßUNG
 62
     7
100
AcDb2dPolyline
 66
     1
 10
0.0
 20
0.0
 30
0.0
  0
VERTEX
  5
6C3
330
6C2
100
AcDbEntity
  8
BEMAßUNG
 62
     7
100
AcDbVertex
100
AcDb2dVertex
 10
36.63704019266366
 20
171.2786064567463
 30
0.0
  0
VERTEX
  5
6C4
330
6C2
100
AcDbEntity
  8
BEMAßUNG
 62
     7
100
AcDbVertex
100
AcDb2dVertex
 10
33.14319660629754
 20
171.0700059251145
 30
0.0
  0
SEQEND
  5
6C5
330
6C2
100
AcDbEntity
  8
BEMAßUNG
  0
POLYLINE
  5
6C6
330
1F
100
AcDbEntity
  8
BEMAßUNG
 62
     7
100
AcDb2dPolyline
 66
     1
 10
0.0
 20
0.0
 30
0.0
  0
VERTEX
  5
6C7
330
6C6
100
AcDbEntity
  8
BEMAßUNG
 62
     7
100
AcDbVertex
100
AcDb2dVertex
 10
36.60982393833019
 20
171.7354261180905
 30
0.0
  0
VERTEX
  5
6C8
330
6C6
100
AcDbEntity
  8
BEMAßUNG
 62
     7
100
AcDbVertex
100
AcDb2dVertex
 10
36.58277993877098
 20
171.7340480798964
 30
0.0
  0
SEQEND
  5
6C9
330
6C6
100
AcDbEntity
  8
BEMAßUNG
  0
POLYLINE
  5
6CA
330
1F
100
AcDbEntity
  8
BEMAßUNG
 62
     7
100
AcDb2dPolyline
 66
     1
 10
0.0
 20
0.0
 30
0.0
  0
VERTEX
  5
6CB
330
6CA
100
AcDbEntity
  8
BEMAßUNG
 62
     7
100
AcDbVertex
100
AcDb2dVertex
 10
36.60982393833019
 20
171.7354261180905
 30
0.0
  0
VERTEX
  5
6CC
330
6CA
100
AcDbEntity
  8
BEMAßUNG
 62
     7
100
AcDbVertex
100
AcDb2dVertex
 10
36.58277993877098
 20
171.7340480798964
 30
0.0
  0
SEQEND
  5
6CD
330
6CA
100
AcDbEntity
  8
BEMAßUNG
  0
POLYLINE
  5
6CE
330
1F
100
AcDbEntity
  8
BEMAßUNG
 62
     7
100
AcDb2dPolyline
 66
     1
 10
0.0
 20
0.0
 30
0.0
  0
VERTEX
  5
6CF
330
6CE
100
AcDbEntity
  8
BEMAßUNG
 62
     7
100
AcDbVertex
100
AcDb2dVertex
 10
36.61309677904117
 20
171.684610959683
 30
0.0
  0
VERTEX
  5
6D0
330
6CE
100
AcDbEntity
  8
BEMAßUNG
 62
     7
100
AcDbVertex
100
AcDb2dVertex
 10
36.20037433990824
 20
171.6599785269635
 30
0.0
  0
SEQEND
  5
6D1
330
6CE
100
AcDbEntity
  8
BEMAßUNG
  0
POLYLINE
  5
6D2
330
1F
100
AcDbEntity
  8
BEMAßUNG
 62
     7
100
AcDb2dPolyline
 66
     1
 10
0.0
 20
0.0
 30
0.0
  0
VERTEX
  5
6D3
330
6D2
100
AcDbEntity
  8
BEMAßUNG
 62
     7
100
AcDbVertex
100
AcDb2dVertex
 10
36.61585285542937
 20
171.6337958012756
 30
0.0
  0
VERTEX
  5
6D4
330
6D2
100
AcDbEntity
  8
BEMAßUNG
 62
     7
100
AcDbVertex
100
AcDb2dVertex
 10
35.81865776014256
 20
171.5862534835791
 30
0.0
  0
SEQEND
  5
6D5
330
6D2
100
AcDbEntity
  8
BEMAßUNG
  0
POLYLINE
  5
6D6
330
1F
100
AcDbEntity
  8
BEMAßUNG
 62
     7
100
AcDb2dPolyline
 66
     1
 10
0.0
 20
0.0
 30
0.0
  0
VERTEX
  5
6D7
330
6D6
100
AcDbEntity
  8
BEMAßUNG
 62
     7
100
AcDbVertex
100
AcDb2dVertex
 10
36.6189534413661
 20
171.5829806428682
 30
0.0
  0
VERTEX
  5
6D8
330
6D6
100
AcDbEntity
  8
BEMAßUNG
 62
     7
100
AcDbVertex
100
AcDb2dVertex
 10
35.43625216127982
 20
171.5125284401948
 30
0.0
  0
SEQEND
  5
6D9
330
6D6
100
AcDbEntity
  8
BEMAßUNG
  0
POLYLINE
  5
6DA
330
1F
100
AcDbEntity
  8
BEMAßUNG
 62
     7
100
AcDb2dPolyline
 66
     1
 10
0.0
 20
0.0
 30
0.0
  0
VERTEX
  5
6DB
330
6DA
100
AcDbEntity
  8
BEMAßUNG
 62
     7
100
AcDbVertex
100
AcDb2dVertex
 10
36.62188177252856
 20
171.5321654844607
 30
0.0
  0
VERTEX
  5
6DC
330
6DA
100
AcDbEntity
  8
BEMAßUNG
 62
     7
100
AcDbVertex
100
AcDb2dVertex
 10
35.05384656241709
 20
171.4386311420362
 30
0.0
  0
SEQEND
  5
6DD
330
6DA
100
AcDbEntity
  8
BEMAßUNG
  0
POLYLINE
  5
6DE
330
1F
100
AcDbEntity
  8
BEMAßUNG
 62
     7
100
AcDb2dPolyline
 66
     1
 10
0.0
 20
0.0
 30
0.0
  0
VERTEX
  5
6DF
330
6DE
100
AcDbEntity
  8
BEMAßUNG
 62
     7
100
AcDbVertex
100
AcDb2dVertex
 10
36.62498235846528
 20
171.4813503260533
 30
0.0
  0
VERTEX
  5
6E0
330
6DE
100
AcDbEntity
  8
BEMAßUNG
 62
     7
100
AcDbVertex
100
AcDb2dVertex
 10
34.67212998265141
 20
171.3649060986518
 30
0.0
  0
SEQEND
  5
6E1
330
6DE
100
AcDbEntity
  8
BEMAßUNG
  0
POLYLINE
  5
6E2
330
1F
100
AcDbEntity
  8
BEMAßUNG
 62
     7
100
AcDb2dPolyline
 66
     1
 10
0.0
 20
0.0
 30
0.0
  0
VERTEX
  5
6E3
330
6E2
100
AcDbEntity
  8
BEMAßUNG
 62
     7
100
AcDbVertex
100
AcDb2dVertex
 10
36.62791068962775
 20
171.4313964415172
 30
0.0
  0
VERTEX
  5
6E4
330
6E2
100
AcDbEntity
  8
BEMAßUNG
 62
     7
100
AcDbVertex
100
AcDb2dVertex
 10
34.28972438378868
 20
171.2911810552675
 30
0.0
  0
SEQEND
  5
6E5
330
6E2
100
AcDbEntity
  8
BEMAßUNG
  0
POLYLINE
  5
6E6
330
1F
100
AcDbEntity
  8
BEMAßUNG
 62
     7
100
AcDb2dPolyline
 66
     1
 10
0.0
 20
0.0
 30
0.0
  0
VERTEX
  5
6E7
330
6E6
100
AcDbEntity
  8
BEMAßUNG
 62
     7
100
AcDbVertex
100
AcDb2dVertex
 10
36.63101127556447
 20
171.3802367735612
 30
0.0
  0
VERTEX
  5
6E8
330
6E6
100
AcDbEntity
  8
BEMAßUNG
 62
     7
100
AcDbVertex
100
AcDb2dVertex
 10
33.908007804023
 20
171.2174560118831
 30
0.0
  0
SEQEND
  5
6E9
330
6E6
100
AcDbEntity
  8
BEMAßUNG
  0
POLYLINE
  5
6EA
330
1F
100
AcDbEntity
  8
BEMAßUNG
 62
     7
100
AcDb2dPolyline
 66
     1
 10
0.0
 20
0.0
 30
0.0
  0
VERTEX
  5
6EB
330
6EA
100
AcDbEntity
  8
BEMAßUNG
 62
     7
100
AcDbVertex
100
AcDb2dVertex
 10
36.63428411627546
 20
171.3294216151538
 30
0.0
  0
VERTEX
  5
6EC
330
6EA
100
AcDbEntity
  8
BEMAßUNG
 62
     7
100
AcDbVertex
100
AcDb2dVertex
 10
33.52560220516027
 20
171.1437309684988
 30
0.0
  0
SEQEND
  5
6ED
330
6EA
100
AcDbEntity
  8
BEMAßUNG
  0
POLYLINE
  5
6EE
330
1F
100
AcDbEntity
  8
BEMAßUNG
 62
     7
100
AcDb2dPolyline
 66
     1
 10
0.0
 20
0.0
 30
0.0
  0
VERTEX
  5
6EF
330
6EE
100
AcDbEntity
  8
BEMAßUNG
 62
     7
100
AcDbVertex
100
AcDb2dVertex
 10
36.63704019266366
 20
171.2786064567463
 30
0.0
  0
VERTEX
  5
6F0
330
6EE
100
AcDbEntity
  8
BEMAßUNG
 62
     7
100
AcDbVertex
100
AcDb2dVertex
 10
33.14319660629754
 20
171.0700059251145
 30
0.0
  0
SEQEND
  5
6F1
330
6EE
100
AcDbEntity
  8
BEMAßUNG
  0
POLYLINE
  5
6F2
330
1F
100
AcDbEntity
  8
BEMAßUNG
 62
     7
100
AcDb2dPolyline
 66
     1
 10
0.0
 20
0.0
 30
0.0
  0
VERTEX
  5
6F3
330
6F2
100
AcDbEntity
  8
BEMAßUNG
 62
     7
100
AcDbVertex
100
AcDb2dVertex
 10
47.68925101889366
 20
186.397924758088
 30
0.0
  0
VERTEX
  5
6F4
330
6F2
100
AcDbEntity
  8
BEMAßUNG
 62
     7
100
AcDbVertex
100
AcDb2dVertex
 10
47.2022867720536
 20
182.901497350108
 30
0.0
  0
VERTEX
  5
6F5
330
6F2
100
AcDbEntity
  8
BEMAßUNG
 62
     7
100
AcDbVertex
100
AcDb2dVertex
 10
48.12350530480941
 20
182.8940903948147
 30
0.0
  0
VERTEX
  5
6F6
330
6F2
100
AcDbEntity
  8
BEMAßUNG
 62
     7
100
AcDbVertex
100
AcDb2dVertex
 10
47.68925101889366
 20
186.397924758088
 30
0.0
  0
SEQEND
  5
6F7
330
6F2
100
AcDbEntity
  8
BEMAßUNG
  0
POLYLINE
  5
6F8
330
1F
100
AcDbEntity
  8
BEMAßUNG
 62
     7
100
AcDb2dPolyline
 66
     1
 10
0.0
 20
0.0
 30
0.0
  0
VERTEX
  5
6F9
330
6F8
100
AcDbEntity
  8
BEMAßUNG
 62
     7
100
AcDbVertex
100
AcDb2dVertex
 10
47.20590412231311
 20
182.901497350108
 30
0.0
  0
VERTEX
  5
6FA
330
6F8
100
AcDbEntity
  8
BEMAßUNG
 62
     7
100
AcDbVertex
100
AcDb2dVertex
 10
47.20590412231311
 20
182.9287136044414
 30
0.0
  0
SEQEND
  5
6FB
330
6F8
100
AcDbEntity
  8
BEMAßUNG
  0
POLYLINE
  5
6FC
330
1F
100
AcDbEntity
  8
BEMAßUNG
 62
     7
100
AcDb2dPolyline
 66
     1
 10
0.0
 20
0.0
 30
0.0
  0
VERTEX
  5
6FD
330
6FC
100
AcDbEntity
  8
BEMAßUNG
 62
     7
100
AcDbVertex
100
AcDb2dVertex
 10
47.20590412231311
 20
182.901497350108
 30
0.0
  0
VERTEX
  5
6FE
330
6FC
100
AcDbEntity
  8
BEMAßUNG
 62
     7
100
AcDbVertex
100
AcDb2dVertex
 10
47.20590412231311
 20
182.9287136044414
 30
0.0
  0
SEQEND
  5
6FF
330
6FC
100
AcDbEntity
  8
BEMAßUNG
  0
POLYLINE
  5
700
330
1F
100
AcDbEntity
  8
BEMAßUNG
 62
     7
100
AcDb2dPolyline
 66
     1
 10
0.0
 20
0.0
 30
0.0
  0
VERTEX
  5
701
330
700
100
AcDbEntity
  8
BEMAßUNG
 62
     7
100
AcDbVertex
100
AcDb2dVertex
 10
47.25671928072055
 20
182.9008083310109
 30
0.0
  0
VERTEX
  5
702
330
700
100
AcDbEntity
  8
BEMAßUNG
 62
     7
100
AcDbVertex
100
AcDb2dVertex
 10
47.25947535710874
 20
183.3135307701438
 30
0.0
  0
SEQEND
  5
703
330
700
100
AcDbEntity
  8
BEMAßUNG
  0
POLYLINE
  5
704
330
1F
100
AcDbEntity
  8
BEMAßUNG
 62
     7
100
AcDb2dPolyline
 66
     1
 10
0.0
 20
0.0
 30
0.0
  0
VERTEX
  5
705
330
704
100
AcDbEntity
  8
BEMAßUNG
 62
     7
100
AcDbVertex
100
AcDb2dVertex
 10
47.30753443912798
 20
182.9004638214624
 30
0.0
  0
VERTEX
  5
706
330
704
100
AcDbEntity
  8
BEMAßUNG
 62
     7
100
AcDbVertex
100
AcDb2dVertex
 10
47.31356335622716
 20
183.6995537192661
 30
0.0
  0
SEQEND
  5
707
330
704
100
AcDbEntity
  8
BEMAßUNG
  0
POLYLINE
  5
708
330
1F
100
AcDbEntity
  8
BEMAßUNG
 62
     7
100
AcDb2dPolyline
 66
     1
 10
0.0
 20
0.0
 30
0.0
  0
VERTEX
  5
709
330
708
100
AcDbEntity
  8
BEMAßUNG
 62
     7
100
AcDbVertex
100
AcDb2dVertex
 10
47.35834959753542
 20
182.8997748023653
 30
0.0
  0
VERTEX
  5
70A
330
708
100
AcDbEntity
  8
BEMAßUNG
 62
     7
100
AcDbVertex
100
AcDb2dVertex
 10
47.3671345910228
 20
184.084715394517
 30
0.0
  0
SEQEND
  5
70B
330
708
100
AcDbEntity
  8
BEMAßUNG
  0
POLYLINE
  5
70C
330
1F
100
AcDbEntity
  8
BEMAßUNG
 62
     7
100
AcDb2dPolyline
 66
     1
 10
0.0
 20
0.0
 30
0.0
  0
VERTEX
  5
70D
330
70C
100
AcDbEntity
  8
BEMAßUNG
 62
     7
100
AcDbVertex
100
AcDb2dVertex
 10
47.40882024639433
 20
182.8997748023653
 30
0.0
  0
VERTEX
  5
70E
330
70C
100
AcDbEntity
  8
BEMAßUNG
 62
     7
100
AcDbVertex
100
AcDb2dVertex
 10
47.42036131626991
 20
184.4703938340907
 30
0.0
  0
SEQEND
  5
70F
330
70C
100
AcDbEntity
  8
BEMAßUNG
  0
POLYLINE
  5
710
330
1F
100
AcDbEntity
  8
BEMAßUNG
 62
     7
100
AcDb2dPolyline
 66
     1
 10
0.0
 20
0.0
 30
0.0
  0
VERTEX
  5
711
330
710
100
AcDbEntity
  8
BEMAßUNG
 62
     7
100
AcDbVertex
100
AcDb2dVertex
 10
47.45963540480176
 20
182.8990857832683
 30
0.0
  0
VERTEX
  5
712
330
710
100
AcDbEntity
  8
BEMAßUNG
 62
     7
100
AcDbVertex
100
AcDb2dVertex
 10
47.47410480583981
 20
184.8555555093417
 30
0.0
  0
SEQEND
  5
713
330
710
100
AcDbEntity
  8
BEMAßUNG
  0
POLYLINE
  5
714
330
1F
100
AcDbEntity
  8
BEMAßUNG
 62
     7
100
AcDb2dPolyline
 66
     1
 10
0.0
 20
0.0
 30
0.0
  0
VERTEX
  5
715
330
714
100
AcDbEntity
  8
BEMAßUNG
 62
     7
100
AcDbVertex
100
AcDb2dVertex
 10
47.51027830843493
 20
182.8990857832683
 30
0.0
  0
VERTEX
  5
716
330
714
100
AcDbEntity
  8
BEMAßUNG
 62
     7
100
AcDbVertex
100
AcDb2dVertex
 10
47.52802055018397
 20
185.2410616941411
 30
0.0
  0
SEQEND
  5
717
330
714
100
AcDbEntity
  8
BEMAßUNG
  0
POLYLINE
  5
718
330
1F
100
AcDbEntity
  8
BEMAßUNG
 62
     7
100
AcDb2dPolyline
 66
     1
 10
0.0
 20
0.0
 30
0.0
  0
VERTEX
  5
719
330
718
100
AcDbEntity
  8
BEMAßUNG
 62
     7
100
AcDbVertex
100
AcDb2dVertex
 10
47.56109346684237
 20
182.8983967641713
 30
0.0
  0
VERTEX
  5
71A
330
718
100
AcDbEntity
  8
BEMAßUNG
 62
     7
100
AcDbVertex
100
AcDb2dVertex
 10
47.5815917849796
 20
185.6270846432634
 30
0.0
  0
SEQEND
  5
71B
330
718
100
AcDbEntity
  8
BEMAßUNG
  0
POLYLINE
  5
71C
330
1F
100
AcDbEntity
  8
BEMAßUNG
 62
     7
100
AcDb2dPolyline
 66
     1
 10
0.0
 20
0.0
 30
0.0
  0
VERTEX
  5
71D
330
71C
100
AcDbEntity
  8
BEMAßUNG
 62
     7
100
AcDbVertex
100
AcDb2dVertex
 10
47.6119086252498
 20
182.8980522546227
 30
0.0
  0
VERTEX
  5
71E
330
71C
100
AcDbEntity
  8
BEMAßUNG
 62
     7
100
AcDbVertex
100
AcDb2dVertex
 10
47.63516301977524
 20
186.0119018089658
 30
0.0
  0
SEQEND
  5
71F
330
71C
100
AcDbEntity
  8
BEMAßUNG
  0
POLYLINE
  5
720
330
1F
100
AcDbEntity
  8
BEMAßUNG
 62
     7
100
AcDb2dPolyline
 66
     1
 10
0.0
 20
0.0
 30
0.0
  0
VERTEX
  5
721
330
720
100
AcDbEntity
  8
BEMAßUNG
 62
     7
100
AcDbVertex
100
AcDb2dVertex
 10
47.66306829320576
 20
182.8980522546227
 30
0.0
  0
VERTEX
  5
722
330
720
100
AcDbEntity
  8
BEMAßUNG
 62
     7
100
AcDbVertex
100
AcDb2dVertex
 10
47.68925101889366
 20
186.397924758088
 30
0.0
  0
SEQEND
  5
723
330
720
100
AcDbEntity
  8
BEMAßUNG
  0
POLYLINE
  5
724
330
1F
100
AcDbEntity
  8
BEMAßUNG
 62
     7
100
AcDb2dPolyline
 66
     1
 10
0.0
 20
0.0
 30
0.0
  0
VERTEX
  5
725
330
724
100
AcDbEntity
  8
BEMAßUNG
 62
     7
100
AcDbVertex
100
AcDb2dVertex
 10
48.11988795454989
 20
182.8940903948147
 30
0.0
  0
VERTEX
  5
726
330
724
100
AcDbEntity
  8
BEMAßUNG
 62
     7
100
AcDbVertex
100
AcDb2dVertex
 10
48.12023246409841
 20
182.9213066491482
 30
0.0
  0
SEQEND
  5
727
330
724
100
AcDbEntity
  8
BEMAßUNG
  0
POLYLINE
  5
728
330
1F
100
AcDbEntity
  8
BEMAßUNG
 62
     7
100
AcDb2dPolyline
 66
     1
 10
0.0
 20
0.0
 30
0.0
  0
VERTEX
  5
729
330
728
100
AcDbEntity
  8
BEMAßUNG
 62
     7
100
AcDbVertex
100
AcDb2dVertex
 10
48.11988795454989
 20
182.8940903948147
 30
0.0
  0
VERTEX
  5
72A
330
728
100
AcDbEntity
  8
BEMAßUNG
 62
     7
100
AcDbVertex
100
AcDb2dVertex
 10
48.12023246409841
 20
182.9213066491482
 30
0.0
  0
SEQEND
  5
72B
330
728
100
AcDbEntity
  8
BEMAßUNG
  0
POLYLINE
  5
72C
330
1F
100
AcDbEntity
  8
BEMAßUNG
 62
     7
100
AcDb2dPolyline
 66
     1
 10
0.0
 20
0.0
 30
0.0
  0
VERTEX
  5
72D
330
72C
100
AcDbEntity
  8
BEMAßUNG
 62
     7
100
AcDbVertex
100
AcDb2dVertex
 10
48.06907279614246
 20
182.8947794139117
 30
0.0
  0
VERTEX
  5
72E
330
72C
100
AcDbEntity
  8
BEMAßUNG
 62
     7
100
AcDbVertex
100
AcDb2dVertex
 10
48.07269014640197
 20
183.3075018530447
 30
0.0
  0
SEQEND
  5
72F
330
72C
100
AcDbEntity
  8
BEMAßUNG
  0
POLYLINE
  5
730
330
1F
100
AcDbEntity
  8
BEMAßUNG
 62
     7
100
AcDb2dPolyline
 66
     1
 10
0.0
 20
0.0
 30
0.0
  0
VERTEX
  5
731
330
730
100
AcDbEntity
  8
BEMAßUNG
 62
     7
100
AcDbVertex
100
AcDb2dVertex
 10
48.01842989250928
 20
182.8947794139117
 30
0.0
  0
VERTEX
  5
732
330
730
100
AcDbEntity
  8
BEMAßUNG
 62
     7
100
AcDbVertex
100
AcDb2dVertex
 10
48.02428655483421
 20
183.694213821264
 30
0.0
  0
SEQEND
  5
733
330
730
100
AcDbEntity
  8
BEMAßUNG
  0
POLYLINE
  5
734
330
1F
100
AcDbEntity
  8
BEMAßUNG
 62
     7
100
AcDb2dPolyline
 66
     1
 10
0.0
 20
0.0
 30
0.0
  0
VERTEX
  5
735
330
734
100
AcDbEntity
  8
BEMAßUNG
 62
     7
100
AcDbVertex
100
AcDb2dVertex
 10
47.96761473410185
 20
182.8954684330088
 30
0.0
  0
VERTEX
  5
736
330
734
100
AcDbEntity
  8
BEMAßUNG
 62
     7
100
AcDbVertex
100
AcDb2dVertex
 10
47.97674423713776
 20
184.0802367703862
 30
0.0
  0
SEQEND
  5
737
330
734
100
AcDbEntity
  8
BEMAßUNG
  0
POLYLINE
  5
738
330
1F
100
AcDbEntity
  8
BEMAßUNG
 62
     7
100
AcDb2dPolyline
 66
     1
 10
0.0
 20
0.0
 30
0.0
  0
VERTEX
  5
739
330
738
100
AcDbEntity
  8
BEMAßUNG
 62
     7
100
AcDbVertex
100
AcDb2dVertex
 10
47.91679957569441
 20
182.8961574521058
 30
0.0
  0
VERTEX
  5
73A
330
738
100
AcDbEntity
  8
BEMAßUNG
 62
     7
100
AcDbVertex
100
AcDb2dVertex
 10
47.92834064557
 20
184.4667764838312
 30
0.0
  0
SEQEND
  5
73B
330
738
100
AcDbEntity
  8
BEMAßUNG
  0
POLYLINE
  5
73C
330
1F
100
AcDbEntity
  8
BEMAßUNG
 62
     7
100
AcDb2dPolyline
 66
     1
 10
0.0
 20
0.0
 30
0.0
  0
VERTEX
  5
73D
330
73C
100
AcDbEntity
  8
BEMAßUNG
 62
     7
100
AcDbVertex
100
AcDb2dVertex
 10
47.8663289268355
 20
182.8966742164286
 30
0.0
  0
VERTEX
  5
73E
330
73C
100
AcDbEntity
  8
BEMAßUNG
 62
     7
100
AcDbVertex
100
AcDb2dVertex
 10
47.88079832787355
 20
184.8527994329535
 30
0.0
  0
SEQEND
  5
73F
330
73C
100
AcDbEntity
  8
BEMAßUNG
  0
POLYLINE
  5
740
330
1F
100
AcDbEntity
  8
BEMAßUNG
 62
     7
100
AcDb2dPolyline
 66
     1
 10
0.0
 20
0.0
 30
0.0
  0
VERTEX
  5
741
330
740
100
AcDbEntity
  8
BEMAßUNG
 62
     7
100
AcDbVertex
100
AcDb2dVertex
 10
47.81551376842807
 20
182.8966742164286
 30
0.0
  0
VERTEX
  5
742
330
740
100
AcDbEntity
  8
BEMAßUNG
 62
     7
100
AcDbVertex
100
AcDb2dVertex
 10
47.83239473630579
 20
185.2386501273015
 30
0.0
  0
SEQEND
  5
743
330
740
100
AcDbEntity
  8
BEMAßUNG
  0
POLYLINE
  5
744
330
1F
100
AcDbEntity
  8
BEMAßUNG
 62
     7
100
AcDb2dPolyline
 66
     1
 10
0.0
 20
0.0
 30
0.0
  0
VERTEX
  5
745
330
744
100
AcDbEntity
  8
BEMAßUNG
 62
     7
100
AcDbVertex
100
AcDb2dVertex
 10
47.76469861002063
 20
182.8973632355257
 30
0.0
  0
VERTEX
  5
746
330
744
100
AcDbEntity
  8
BEMAßUNG
 62
     7
100
AcDbVertex
100
AcDb2dVertex
 10
47.78519692815787
 20
185.6253620955208
 30
0.0
  0
SEQEND
  5
747
330
744
100
AcDbEntity
  8
BEMAßUNG
  0
POLYLINE
  5
748
330
1F
100
AcDbEntity
  8
BEMAßUNG
 62
     7
100
AcDb2dPolyline
 66
     1
 10
0.0
 20
0.0
 30
0.0
  0
VERTEX
  5
749
330
748
100
AcDbEntity
  8
BEMAßUNG
 62
     7
100
AcDbVertex
100
AcDb2dVertex
 10
47.7138834516132
 20
182.8973632355257
 30
0.0
  0
VERTEX
  5
74A
330
748
100
AcDbEntity
  8
BEMAßUNG
 62
     7
100
AcDbVertex
100
AcDb2dVertex
 10
47.73679333659011
 20
186.0112127898687
 30
0.0
  0
SEQEND
  5
74B
330
748
100
AcDbEntity
  8
BEMAßUNG
  0
POLYLINE
  5
74C
330
1F
100
AcDbEntity
  8
BEMAßUNG
 62
     7
100
AcDb2dPolyline
 66
     1
 10
0.0
 20
0.0
 30
0.0
  0
VERTEX
  5
74D
330
74C
100
AcDbEntity
  8
BEMAßUNG
 62
     7
100
AcDbVertex
100
AcDb2dVertex
 10
47.66306829320576
 20
182.8980522546227
 30
0.0
  0
VERTEX
  5
74E
330
74C
100
AcDbEntity
  8
BEMAßUNG
 62
     7
100
AcDbVertex
100
AcDb2dVertex
 10
47.68925101889366
 20
186.397924758088
 30
0.0
  0
SEQEND
  5
74F
330
74C
100
AcDbEntity
  8
BEMAßUNG
  0
MTEXT
  5
751
330
1F
100
AcDbEntity
  8
TEXT
 62
     7
100
AcDbMText
 10
42.69851344418648
 20
164.8972560894181
 30
0.0
 40
3.311186211711877
 41
0.0
 71
     7
 72
     1
  1
\fINDEX Univers 45 Light|b0|i0|c0|p34;\W1;25
  0
MTEXT
  5
752
330
1F
100
AcDbEntity
  8
TEXT
 62
     7
100
AcDbMText
 10
22.269786235752
 20
194.6153387642802
 30
0.0
 40
3.311186211711877
 41
0.0
 71
     7
 72
     1
  1
\fINDEX Univers 45 Light|b0|i0|c0|p34;\W1;22
 11
-4.371139000186241E-8
 21
0.999999999999999
 31
0.0
  0
MTEXT
  5
753
330
1F
100
AcDbEntity
  8
TEXT
 62
     7
100
AcDbMText
 10
91.30415986215661
 20
203.9782470193179
 30
0.0
 40
3.311186211711877
 41
0.0
 71
     7
 72
     1
  1
\fINDEX Univers 45 Light|b0|i0|c0|p34;\W1;ø32
 11
-4.371139000186241E-8
 21
0.999999999999999
 31
0.0
  0
MTEXT
  5
754
330
1F
100
AcDbEntity
  8
TEXT
 62
     7
100
AcDbMText
 10
161.4630126549468
 20
220.794791611468
 30
0.0
 40
3.311186211711877
 41
0.0
 71
     7
 72
     1
  1
\fINDEX Univers 45 Light|b0|i0|c0|p34;\W1;ø50
 11
0.8878858656403066
 21
0.4600637886164956
 31
0.0
  0
MTEXT
  5
755
330
1F
100
AcDbEntity
  8
TEXT
 62
     7
100
AcDbMText
 10
36.63876274040629
 20
172.8690347875119
 30
0.0
 40
3.311185525384261
 41
0.0
 71
     7
 72
     1
  1
\fINDEX Univers 45 Light|b0|i0|c0|p34;\W1;93°
 11
0.846460736090741
 21
0.5324511454177941
 31
0.0
  0
ENDSEC
  0
SECTION
  2
OBJECTS
  0
DICTIONARY
  5
C
330
0
100
AcDbDictionary
  3
ACAD_GROUP
350
D
  3
ACAD_LAYOUT
350
1A
  3
ACAD_MLINESTYLE
350
17
  3
ACAD_PLOTSETTINGS
350
19
  3
ACAD_TABLESTYLE
350
776
  3
ACAD_VISUALSTYLE
350
2A
  3
ACDBHEADERROUNDTRIPXREC
350
756
  0
DICTIONARY
  5
D
102
{ACAD_REACTORS
330
C
102
}
330
C
100
AcDbDictionary
  0
DICTIONARY
  5
1A
102
{ACAD_REACTORS
330
C
102
}
330
C
100
AcDbDictionary
  0
DICTIONARY
  5
17
102
{ACAD_REACTORS
330
C
102
}
330
C
100
AcDbDictionary
  3
STANDARD
350
18
  0
DICTIONARY
  5
19
102
{ACAD_REACTORS
330
C
102
}
330
C
100
AcDbDictionary
  0
DICTIONARY
  5
776
102
{ACAD_REACTORS
330
C
102
}
330
C
100
AcDbDictionary
  0
DICTIONARY
  5
2A
102
{ACAD_REACTORS
330
C
102
}
330
C
100
AcDbDictionary
  3
2DWIREFRAME
350
2F
  3
3D_HIDDEN
350
31
  3
3DWIREFRAME
350
30
  3
BASIC
350
32
  3
BRIGHTEN
350
36
  3
COLORCHANGE
350
3A
  3
CONCEPTUAL
350
34
  3
DIM
350
35
  3
FACEPATTERN
350
39
  3
FLAT
350
2B
  3
FLATWITHEDGES
350
2C
  3
GOURAUD
350
2D
  3
GOURAUDWITHEDGES
350
2E
  3
LINEPATTERN
350
38
  3
REALISTIC
350
33
  3
THICKEN
350
37
  0
DICTIONARY
  5
756
102
{ACAD_REACTORS
330
C
102
}
330
C
100
AcDbDictionary
  3
CEPSNTYPE
350
75F
  3
DIMSTYLEDATA
350
775
  3
FINGERPRINTGUID
350
760
  3
HYPERLINKBASE
350
759
  3
INSUNITS
350
75E
  3
LAYOUTDICT
350
75B
  3
LWETCUNION
350
75D
  3
PLOTSETDICT
350
75C
  3
PSVPSCALE
350
762
  3
PUCSBASE
350
765
  3
PUCSORGBACK
350
76B
  3
PUCSORGBOTTOM
350
767
  3
PUCSORGFRONT
350
76A
  3
PUCSORGLEFT
350
768
  3
PUCSORGRIGHT
350
769
  3
PUCSORGTOP
350
766
  3
PUCSORTHOREF
350
763
  3
PUCSORTHOVIEW
350
764
  3
STYLESHEET
350
75A
  3
TSTACKALIGN
350
757
  3
TSTACKSIZE
350
758
  3
UCSBASE
350
76E
  3
UCSORGBACK
350
774
  3
UCSORGBOTTOM
350
770
  3
UCSORGFRONT
350
773
  3
UCSORGLEFT
350
771
  3
UCSORGRIGHT
350
772
  3
UCSORGTOP
350
76F
  3
UCSORTHOREF
350
76C
  3
UCSORTHOVIEW
350
76D
  3
VERSIONGUID
350
761
  0
MLINESTYLE
  5
18
102
{ACAD_REACTORS
330
17
102
}
330
17
100
AcDbMlineStyle
  2
Standard
 70
     0
  3

 62
   256
 51
90.0
 52
90.0
 71
     2
 49
0.5
 62
   256
  6
BYLAYER
 49
-0.5
 62
   256
  6
BYLAYER
  0
VISUALSTYLE
  5
2F
102
{ACAD_REACTORS
330
2A
102
}
330
2A
100
AcDbVisualStyle
  2
2dWireframe
 70
     4
 71
     0
 72
     2
 73
     0
 90
        0
 40
-0.6
 41
-30.0
 62
     5
 63
     7
 74
     1
 91
        4
 64
     7
 65
   257
 75
     1
175
     1
 42
1.0
 92
        0
 66
   257
 43
1.0
 76
     1
 77
     6
 78
     2
 67
     7
 79
     5
170
     0
171
     0
290
     0
174
     0
 93
        1
 44
0.0
173
     0
291
     0
 45
0.0
1001
ACAD
1000
AcDbSavedByObjectVersion
1070
     0
  0
VISUALSTYLE
  5
31
102
{ACAD_REACTORS
330
2A
102
}
330
2A
100
AcDbVisualStyle
  2
3D Hidden
 70
     6
 71
     1
 72
     2
 73
     2
 90
        0
 40
-0.6
 41
-30.0
 62
     5
 63
     7
 74
     2
 91
        2
 64
     7
 65
   257
 75
     2
175
     1
 42
40.0
 92
        0
 66
   257
 43
1.0
 76
     1
 77
     6
 78
     2
 67
     7
 79
     3
170
     0
171
     0
290
     0
174
     0
 93
        1
 44
0.0
173
     0
291
     0
 45
0.0
1001
ACAD
1000
AcDbSavedByObjectVersion
1070
     0
  0
VISUALSTYLE
  5
30
102
{ACAD_REACTORS
330
2A
102
}
330
2A
100
AcDbVisualStyle
  2
3dWireframe
 70
     5
 71
     0
 72
     2
 73
     0
 90
        0
 40
-0.6
 41
-30.0
 62
     5
 63
     7
 74
     1
 91
        4
 64
     7
 65
   257
 75
     1
175
     1
 42
1.0
 92
        0
 66
   257
 43
1.0
 76
     1
 77
     6
 78
     2
 67
     7
 79
     5
170
     0
171
     0
290
     0
174
     0
 93
        1
 44
0.0
173
     0
291
     0
 45
0.0
1001
ACAD
1000
AcDbSavedByObjectVersion
1070
     0
  0
VISUALSTYLE
  5
32
102
{ACAD_REACTORS
330
2A
102
}
330
2A
100
AcDbVisualStyle
  2
Basic
 70
     7
 71
     1
 72
     0
 73
     1
 90
        0
 40
-0.6
 41
-30.0
 62
     5
 63
     7
 74
     0
 91
        4
 64
     7
 65
   257
 75
     1
175
     1
 42
1.0
 92
        8
 66
     7
 43
1.0
 76
     1
 77
     6
 78
     2
 67
     7
 79
     5
170
     0
171
     0
290
     0
174
     0
 93
        1
 44
0.0
173
     0
291
     1
 45
0.0
1001
ACAD
1000
AcDbSavedByObjectVersion
1070
     0
  0
VISUALSTYLE
  5
36
102
{ACAD_REACTORS
330
2A
102
}
330
2A
100
AcDbVisualStyle
  2
Brighten
 70
    12
 71
     2
 72
     2
 73
     0
 90
        0
 40
-0.6
 41
-30.0
 62
     5
 63
     7
 74
     1
 91
        4
 64
     7
 65
   257
 75
     1
175
     1
 42
1.0
 92
        8
 66
     7
 43
1.0
 76
     1
 77
     6
 78
     2
 67
     7
 79
     5
170
     0
171
     0
290
     0
174
     0
 93
        1
 44
50.0
173
     0
291
     1
 45
0.0
1001
ACAD
1000
AcDbSavedByObjectVersion
1070
     0
  0
VISUALSTYLE
  5
3A
102
{ACAD_REACTORS
330
2A
102
}
330
2A
100
AcDbVisualStyle
  2
ColorChange
 70
    16
 71
     2
 72
     2
 73
     3
 90
        0
 40
-0.6
 41
-30.0
 62
     5
 63
     8
 74
     1
 91
        4
 64
     7
 65
   257
 75
     1
175
     1
 42
1.0
 92
        8
 66
     8
 43
1.0
 76
     1
 77
     6
 78
     2
 67
     7
 79
     5
170
     0
171
     0
290
     0
174
     0
 93
        1
 44
0.0
173
     0
291
     1
 45
0.0
1001
ACAD
1000
AcDbSavedByObjectVersion
1070
     0
  0
VISUALSTYLE
  5
34
102
{ACAD_REACTORS
330
2A
102
}
330
2A
100
AcDbVisualStyle
  2
Conceptual
 70
     9
 71
     3
 72
     2
 73
     0
 90
        0
 40
-0.6
 41
-30.0
 62
     5
 63
     7
 74
     2
 91
        2
 64
     7
 65
   257
 75
     1
175
     1
 42
40.0
 92
        8
 66
     7
 43
1.0
 76
     1
 77
     6
 78
     2
 67
     7
 79
     3
170
     0
171
     0
290
     0
174
     0
 93
        1
 44
0.0
173
     0
291
     0
 45
0.0
1001
ACAD
1000
AcDbSavedByObjectVersion
1070
     0
  0
VISUALSTYLE
  5
35
102
{ACAD_REACTORS
330
2A
102
}
330
2A
100
AcDbVisualStyle
  2
Dim
 70
    11
 71
     2
 72
     2
 73
     0
 90
        0
 40
-0.6
 41
-30.0
 62
     5
 63
     7
 74
     1
 91
        4
 64
     7
 65
   257
 75
     1
175
     1
 42
1.0
 92
        8
 66
     7
 43
1.0
 76
     1
 77
     6
 78
     2
 67
     7
 79
     5
170
     0
171
     0
290
     0
174
     0
 93
        1
 44
-50.0
173
     0
291
     1
 45
0.0
1001
ACAD
1000
AcDbSavedByObjectVersion
1070
     0
  0
VISUALSTYLE
  5
39
102
{ACAD_REACTORS
330
2A
102
}
330
2A
100
AcDbVisualStyle
  2
Facepattern
 70
    15
 71
     2
 72
     2
 73
     0
 90
        0
 40
-0.6
 41
-30.0
 62
     5
 63
     7
 74
     1
 91
        4
 64
     7
 65
   257
 75
     1
175
     1
 42
1.0
 92
        8
 66
     7
 43
1.0
 76
     1
 77
     6
 78
     2
 67
     7
 79
     5
170
     0
171
     0
290
     0
174
     0
 93
        1
 44
0.0
173
     0
291
     1
 45
0.0
1001
ACAD
1000
AcDbSavedByObjectVersion
1070
     0
  0
VISUALSTYLE
  5
2B
102
{ACAD_REACTORS
330
2A
102
}
330
2A
100
AcDbVisualStyle
  2
Flat
 70
     0
 71
     2
 72
     1
 73
     1
 90
        2
 40
-0.6
 41
30.0
 62
     5
 63
     7
 74
     0
 91
        4
 64
     7
 65
   257
 75
     1
175
     1
 42
1.0
 92
        8
 66
     7
 43
1.0
 76
     1
 77
     6
 78
     2
 67
     7
 79
     5
170
     0
171
     0
290
     0
174
     0
 93
       13
 44
0.0
173
     0
291
     1
 45
0.0
1001
ACAD
1000
AcDbSavedByObjectVersion
1070
     0
  0
VISUALSTYLE
  5
2C
102
{ACAD_REACTORS
330
2A
102
}
330
2A
100
AcDbVisualStyle
  2
FlatWithEdges
 70
     1
 71
     2
 72
     1
 73
     1
 90
        2
 40
-0.6
 41
30.0
 62
     5
 63
     7
 74
     1
 91
        4
 64
     7
 65
   257
 75
     1
175
     1
 42
1.0
 92
        0
 66
   257
 43
1.0
 76
     1
 77
     6
 78
     2
 67
     7
 79
     5
170
     0
171
     0
290
     0
174
     0
 93
       13
 44
0.0
173
     0
291
     1
 45
0.0
1001
ACAD
1000
AcDbSavedByObjectVersion
1070
     0
  0
VISUALSTYLE
  5
2D
102
{ACAD_REACTORS
330
2A
102
}
330
2A
100
AcDbVisualStyle
  2
Gouraud
 70
     2
 71
     2
 72
     2
 73
     1
 90
        2
 40
-0.6
 41
30.0
 62
     5
 63
     7
 74
     0
 91
        4
 64
     7
 65
   257
 75
     1
175
     1
 42
1.0
 92
        0
 66
     7
 43
1.0
 76
     1
 77
     6
 78
     2
 67
     7
 79
     5
170
     0
171
     0
290
     0
174
     0
 93
       13
 44
0.0
173
     0
291
     1
 45
0.0
1001
ACAD
1000
AcDbSavedByObjectVersion
1070
     0
  0
VISUALSTYLE
  5
2E
102
{ACAD_REACTORS
330
2A
102
}
330
2A
100
AcDbVisualStyle
  2
GouraudWithEdges
 70
     3
 71
     2
 72
     2
 73
     1
 90
        2
 40
-0.6
 41
30.0
 62
     5
 63
     7
 74
     1
 91
        4
 64
     7
 65
   257
 75
     1
175
     1
 42
1.0
 92
        0
 66
   257
 43
1.0
 76
     1
 77
     6
 78
     2
 67
     7
 79
     5
170
     0
171
     0
290
     0
174
     0
 93
       13
 44
0.0
173
     0
291
     1
 45
0.0
1001
ACAD
1000
AcDbSavedByObjectVersion
1070
     0
  0
VISUALSTYLE
  5
38
102
{ACAD_REACTORS
330
2A
102
}
330
2A
100
AcDbVisualStyle
  2
Linepattern
 70
    14
 71
     2
 72
     2
 73
     0
 90
        0
 40
-0.6
 41
-30.0
 62
     5
 63
     7
 74
     1
 91
        4
 64
     7
 65
   257
 75
     7
175
     7
 42
1.0
 92
        8
 66
     7
 43
1.0
 76
     1
 77
     6
 78
     2
 67
     7
 79
     5
170
     0
171
     0
290
     0
174
     0
 93
        1
 44
0.0
173
     0
291
     1
 45
0.0
1001
ACAD
1000
AcDbSavedByObjectVersion
1070
     0
  0
VISUALSTYLE
  5
33
102
{ACAD_REACTORS
330
2A
102
}
330
2A
100
AcDbVisualStyle
  2
Realistic
 70
     8
 71
     2
 72
     2
 73
     0
 90
        0
 40
-0.6
 41
-30.0
 62
     5
 63
     7
 74
     1
 91
        0
 64
     7
 65
   257
 75
     1
175
     1
 42
1.0
 92
        8
 66
     8
 43
1.0
 76
     1
 77
     6
 78
     2
 67
     7
 79
     5
170
     0
171
     0
290
     0
174
     0
 93
       13
 44
0.0
173
     0
291
     0
 45
0.0
1001
ACAD
1000
AcDbSavedByObjectVersion
1070
     0
  0
VISUALSTYLE
  5
37
102
{ACAD_REACTORS
330
2A
102
}
330
2A
100
AcDbVisualStyle
  2
Thicken
 70
    13
 71
     2
 72
     2
 73
     0
 90
        0
 40
-0.6
 41
-30.0
 62
     5
 63
     7
 74
     1
 91
        4
 64
     7
 65
   257
 75
     1
175
     1
 42
1.0
 92
       12
 66
     7
 43
1.0
 76
     1
 77
     6
 78
     2
 67
     7
 79
     5
170
     0
171
     0
290
     0
174
     0
 93
        1
 44
0.0
173
     0
291
     1
 45
0.0
1001
ACAD
1000
AcDbSavedByObjectVersion
1070
     0
  0
XRECORD
  5
75F
102
{ACAD_REACTORS
330
756
102
}
330
756
100
AcDbXrecord
 90
        0
  0
XRECORD
  5
775
102
{ACAD_REACTORS
330
756
102
}
330
756
100
AcDbXrecord
1000
DSTYLE
1002
{
1070
   340
340
11
1002
}
  0
XRECORD
  5
760
102
{ACAD_REACTORS
330
756
102
}
330
756
100
AcDbXrecord
  1
{6368C043-033A-434E-9E75-E0F1325D9F48}
  0
XRECORD
  5
759
102
{ACAD_REACTORS
330
756
102
}
330
756
100
AcDbXrecord
  1

  0
XRECORD
  5
75E
102
{ACAD_REACTORS
330
756
102
}
330
756
100
AcDbXrecord
 90
        1
  0
XRECORD
  5
75B
102
{ACAD_REACTORS
330
756
102
}
330
756
100
AcDbXrecord
340
1A
  0
XRECORD
  5
75D
102
{ACAD_REACTORS
330
756
102
}
330
756
100
AcDbXrecord
 90
    10269
  0
XRECORD
  5
75C
102
{ACAD_REACTORS
330
756
102
}
330
756
100
AcDbXrecord
340
19
  0
XRECORD
  5
762
102
{ACAD_REACTORS
330
756
102
}
330
756
100
AcDbXrecord
 40
0.0
  0
XRECORD
  5
765
102
{ACAD_REACTORS
330
756
102
}
330
756
100
AcDbXrecord
340
0
  0
XRECORD
  5
76B
102
{ACAD_REACTORS
330
756
102
}
330
756
100
AcDbXrecord
 10
0.0
 20
0.0
 30
0.0
  0
XRECORD
  5
767
102
{ACAD_REACTORS
330
756
102
}
330
756
100
AcDbXrecord
 10
0.0
 20
0.0
 30
0.0
  0
XRECORD
  5
76A
102
{ACAD_REACTORS
330
756
102
}
330
756
100
AcDbXrecord
 10
0.0
 20
0.0
 30
0.0
  0
XRECORD
  5
768
102
{ACAD_REACTORS
330
756
102
}
330
756
100
AcDbXrecord
 10
0.0
 20
0.0
 30
0.0
  0
XRECORD
  5
769
102
{ACAD_REACTORS
330
756
102
}
330
756
100
AcDbXrecord
 10
0.0
 20
0.0
 30
0.0
  0
XRECORD
  5
766
102
{ACAD_REACTORS
330
756
102
}
330
756
100
AcDbXrecord
 10
0.0
 20
0.0
 30
0.0
  0
XRECORD
  5
763
102
{ACAD_REACTORS
330
756
102
}
330
756
100
AcDbXrecord
340
0
  0
XRECORD
  5
764
102
{ACAD_REACTORS
330
756
102
}
330
756
100
AcDbXrecord
 70
     0
  0
XRECORD
  5
75A
102
{ACAD_REACTORS
330
756
102
}
330
756
100
AcDbXrecord
  1

  0
XRECORD
  5
757
102
{ACAD_REACTORS
330
756
102
}
330
756
100
AcDbXrecord
 90
        1
  0
XRECORD
  5
758
102
{ACAD_REACTORS
330
756
102
}
330
756
100
AcDbXrecord
 90
       70
  0
XRECORD
  5
76E
102
{ACAD_REACTORS
330
756
102
}
330
756
100
AcDbXrecord
340
0
  0
XRECORD
  5
774
102
{ACAD_REACTORS
330
756
102
}
330
756
100
AcDbXrecord
 10
0.0
 20
0.0
 30
0.0
  0
XRECORD
  5
770
102
{ACAD_REACTORS
330
756
102
}
330
756
100
AcDbXrecord
 10
0.0
 20
0.0
 30
0.0
  0
XRECORD
  5
773
102
{ACAD_REACTORS
330
756
102
}
330
756
100
AcDbXrecord
 10
0.0
 20
0.0
 30
0.0
  0
XRECORD
  5
771
102
{ACAD_REACTORS
330
756
102
}
330
756
100
AcDbXrecord
 10
0.0
 20
0.0
 30
0.0
  0
XRECORD
  5
772
102
{ACAD_REACTORS
330
756
102
}
330
756
100
AcDbXrecord
 10
0.0
 20
0.0
 30
0.0
  0
XRECORD
  5
76F
102
{ACAD_REACTORS
330
756
102
}
330
756
100
AcDbXrecord
 10
0.0
 20
0.0
 30
0.0
  0
XRECORD
  5
76C
102
{ACAD_REACTORS
330
756
102
}
330
756
100
AcDbXrecord
340
0
  0
XRECORD
  5
76D
102
{ACAD_REACTORS
330
756
102
}
330
756
100
AcDbXrecord
 70
     0
  0
XRECORD
  5
761
102
{ACAD_REACTORS
330
756
102
}
330
756
100
AcDbXrecord
  1
{FAEB1C32-E019-11D5-929B-00C0DF256EC4}
  0
ENDSEC
  0
EOF
