ISO-10303-21;
HEADER;
/* Generated by software containing ST-Developer
 * from STEP Tools, Inc. (www.steptools.com) 
 */
/* OPTION: using custom schema-name function */

FILE_DESCRIPTION(
/* description */ (''),
/* implementation_level */ '2;1');

FILE_NAME(
/* name */ '836261_stp.stp',
/* time_stamp */ '2017-05-12T08:25:17+02:00',
/* author */ (''),
/* organization */ (''),
/* preprocessor_version */ 'ST-DEVELOPER v15',
/* originating_system */ 'SIEMENS PLM Software NX 9.0',
/* authorisation */ '');

FILE_SCHEMA (('AUTOMOTIVE_DESIGN { 1 0 10303 214 3 1 1 1 }'));
ENDSEC;

DATA;
#10=PROPERTY_DEFINITION_REPRESENTATION(#14,#12);
#11=PROPERTY_DEFINITION_REPRESENTATION(#15,#13);
#12=REPRESENTATION('',(#16),#333);
#13=REPRESENTATION('',(#17),#333);
#14=PROPERTY_DEFINITION('pmi validation property','',#21);
#15=PROPERTY_DEFINITION('pmi validation property','',#21);
#16=VALUE_REPRESENTATION_ITEM('number of annotations',COUNT_MEASURE(0.));
#17=VALUE_REPRESENTATION_ITEM('number of views',COUNT_MEASURE(0.));
#18=SHAPE_REPRESENTATION_RELATIONSHIP('None',
'relationship between reic0AD8C65Btqb8-None and reic0AD8C65Btqb8-None',
#30,#19);
#19=ADVANCED_BREP_SHAPE_REPRESENTATION('reic0AD8C65Btqb8-None',(#40),#333);
#20=SHAPE_DEFINITION_REPRESENTATION(#21,#30);
#21=PRODUCT_DEFINITION_SHAPE('','',#22);
#22=PRODUCT_DEFINITION(' ','',#24,#23);
#23=PRODUCT_DEFINITION_CONTEXT('part definition',#29,'design');
#24=PRODUCT_DEFINITION_FORMATION_WITH_SPECIFIED_SOURCE(' ',' ',#26,
 .NOT_KNOWN.);
#25=PRODUCT_RELATED_PRODUCT_CATEGORY('part','',(#26));
#26=PRODUCT('reic0AD8C65Btqb8','reic0AD8C65Btqb8',' ',(#27));
#27=PRODUCT_CONTEXT(' ',#29,'mechanical');
#28=APPLICATION_PROTOCOL_DEFINITION('international standard',
'automotive_design',2010,#29);
#29=APPLICATION_CONTEXT(
'core data for automotive mechanical design processes');
#30=SHAPE_REPRESENTATION('reic0AD8C65Btqb8-None',(#198),#333);
#31=PRESENTATION_LAYER_ASSIGNMENT('10','Layer 10',(#40));
#32=STYLED_ITEM('',(#33),#40);
#33=PRESENTATION_STYLE_ASSIGNMENT((#34));
#34=SURFACE_STYLE_USAGE(.BOTH.,#35);
#35=SURFACE_SIDE_STYLE('',(#36));
#36=SURFACE_STYLE_FILL_AREA(#37);
#37=FILL_AREA_STYLE('',(#38));
#38=FILL_AREA_STYLE_COLOUR('',#39);
#39=COLOUR_RGB('RAL 7035',0.8,0.8,0.8);
#40=MANIFOLD_SOLID_BREP('',#41);
#41=CLOSED_SHELL('',(#78,#79,#80,#81,#82,#83,#84,#85,#86,#87,#88,#89,#90,
#91,#92));
#42=TOROIDAL_SURFACE('',#217,3.82639776547009,2.);
#43=TOROIDAL_SURFACE('',#223,8.49999999999971,2.);
#44=CONICAL_SURFACE('',#204,10.0723145172501,8.00000000000004);
#45=CONICAL_SURFACE('',#219,5.8252067265834,1.97745749819644);
#46=CONICAL_SURFACE('',#224,7.98025676165607,74.9375553803317);
#47=CYLINDRICAL_SURFACE('',#202,8.);
#48=CYLINDRICAL_SURFACE('',#208,16.);
#49=CYLINDRICAL_SURFACE('',#211,25.);
#50=CYLINDRICAL_SURFACE('',#221,6.49999999999971);
#51=CYLINDRICAL_SURFACE('',#227,2.);
#52=FACE_BOUND('',#101,.T.);
#53=FACE_BOUND('',#102,.T.);
#54=FACE_BOUND('',#103,.T.);
#55=FACE_BOUND('',#104,.T.);
#56=FACE_BOUND('',#105,.T.);
#57=FACE_BOUND('',#106,.T.);
#58=FACE_BOUND('',#107,.T.);
#59=FACE_BOUND('',#108,.T.);
#60=FACE_BOUND('',#109,.T.);
#61=FACE_BOUND('',#110,.T.);
#62=FACE_BOUND('',#111,.T.);
#63=FACE_BOUND('',#112,.T.);
#64=FACE_BOUND('',#113,.T.);
#65=FACE_BOUND('',#114,.T.);
#66=FACE_BOUND('',#115,.T.);
#67=FACE_BOUND('',#116,.T.);
#68=FACE_BOUND('',#117,.T.);
#69=FACE_BOUND('',#118,.T.);
#70=FACE_BOUND('',#119,.T.);
#71=FACE_BOUND('',#120,.T.);
#72=FACE_BOUND('',#121,.T.);
#73=FACE_BOUND('',#122,.T.);
#74=FACE_BOUND('',#123,.T.);
#75=FACE_BOUND('',#124,.T.);
#76=FACE_BOUND('',#126,.T.);
#77=FACE_BOUND('',#127,.T.);
#78=ADVANCED_FACE('',(#98),#93,.F.);
#79=ADVANCED_FACE('',(#52,#53),#47,.T.);
#80=ADVANCED_FACE('',(#54,#55),#44,.T.);
#81=ADVANCED_FACE('',(#56,#57),#94,.F.);
#82=ADVANCED_FACE('',(#58,#59),#48,.T.);
#83=ADVANCED_FACE('',(#60,#61),#49,.T.);
#84=ADVANCED_FACE('',(#62,#63),#95,.F.);
#85=ADVANCED_FACE('',(#64,#65),#96,.F.);
#86=ADVANCED_FACE('',(#66,#67),#42,.T.);
#87=ADVANCED_FACE('',(#68,#69),#45,.T.);
#88=ADVANCED_FACE('',(#70,#71),#50,.T.);
#89=ADVANCED_FACE('',(#72,#73),#43,.F.);
#90=ADVANCED_FACE('',(#74,#75),#46,.T.);
#91=ADVANCED_FACE('',(#99),#97,.F.);
#92=ADVANCED_FACE('',(#76,#77),#51,.F.);
#93=PLANE('',#200);
#94=PLANE('',#206);
#95=PLANE('',#212);
#96=PLANE('',#215);
#97=PLANE('',#226);
#98=FACE_OUTER_BOUND('',#100,.T.);
#99=FACE_OUTER_BOUND('',#125,.T.);
#100=EDGE_LOOP('',(#128));
#101=EDGE_LOOP('',(#129));
#102=EDGE_LOOP('',(#130));
#103=EDGE_LOOP('',(#131));
#104=EDGE_LOOP('',(#132));
#105=EDGE_LOOP('',(#133));
#106=EDGE_LOOP('',(#134));
#107=EDGE_LOOP('',(#135));
#108=EDGE_LOOP('',(#136));
#109=EDGE_LOOP('',(#137));
#110=EDGE_LOOP('',(#138));
#111=EDGE_LOOP('',(#139));
#112=EDGE_LOOP('',(#140));
#113=EDGE_LOOP('',(#141));
#114=EDGE_LOOP('',(#142));
#115=EDGE_LOOP('',(#143));
#116=EDGE_LOOP('',(#144));
#117=EDGE_LOOP('',(#145));
#118=EDGE_LOOP('',(#146));
#119=EDGE_LOOP('',(#147));
#120=EDGE_LOOP('',(#148));
#121=EDGE_LOOP('',(#149));
#122=EDGE_LOOP('',(#150));
#123=EDGE_LOOP('',(#151));
#124=EDGE_LOOP('',(#152));
#125=EDGE_LOOP('',(#153));
#126=EDGE_LOOP('',(#154));
#127=EDGE_LOOP('',(#155));
#128=ORIENTED_EDGE('',*,*,#170,.F.);
#129=ORIENTED_EDGE('',*,*,#171,.T.);
#130=ORIENTED_EDGE('',*,*,#170,.T.);
#131=ORIENTED_EDGE('',*,*,#171,.F.);
#132=ORIENTED_EDGE('',*,*,#172,.F.);
#133=ORIENTED_EDGE('',*,*,#173,.F.);
#134=ORIENTED_EDGE('',*,*,#172,.T.);
#135=ORIENTED_EDGE('',*,*,#173,.T.);
#136=ORIENTED_EDGE('',*,*,#174,.F.);
#137=ORIENTED_EDGE('',*,*,#175,.F.);
#138=ORIENTED_EDGE('',*,*,#176,.T.);
#139=ORIENTED_EDGE('',*,*,#174,.T.);
#140=ORIENTED_EDGE('',*,*,#175,.T.);
#141=ORIENTED_EDGE('',*,*,#177,.T.);
#142=ORIENTED_EDGE('',*,*,#178,.F.);
#143=ORIENTED_EDGE('',*,*,#179,.F.);
#144=ORIENTED_EDGE('',*,*,#178,.T.);
#145=ORIENTED_EDGE('',*,*,#180,.F.);
#146=ORIENTED_EDGE('',*,*,#179,.T.);
#147=ORIENTED_EDGE('',*,*,#181,.F.);
#148=ORIENTED_EDGE('',*,*,#180,.T.);
#149=ORIENTED_EDGE('',*,*,#182,.F.);
#150=ORIENTED_EDGE('',*,*,#181,.T.);
#151=ORIENTED_EDGE('',*,*,#176,.F.);
#152=ORIENTED_EDGE('',*,*,#182,.T.);
#153=ORIENTED_EDGE('',*,*,#183,.T.);
#154=ORIENTED_EDGE('',*,*,#183,.F.);
#155=ORIENTED_EDGE('',*,*,#177,.F.);
#156=VERTEX_POINT('',#290);
#157=VERTEX_POINT('',#293);
#158=VERTEX_POINT('',#296);
#159=VERTEX_POINT('',#299);
#160=VERTEX_POINT('',#302);
#161=VERTEX_POINT('',#305);
#162=VERTEX_POINT('',#307);
#163=VERTEX_POINT('',#311);
#164=VERTEX_POINT('',#313);
#165=VERTEX_POINT('',#316);
#166=VERTEX_POINT('',#319);
#167=VERTEX_POINT('',#322);
#168=VERTEX_POINT('',#325);
#169=VERTEX_POINT('',#329);
#170=EDGE_CURVE('',#156,#156,#184,.T.);
#171=EDGE_CURVE('',#157,#157,#185,.T.);
#172=EDGE_CURVE('',#158,#158,#186,.T.);
#173=EDGE_CURVE('',#159,#159,#187,.T.);
#174=EDGE_CURVE('',#160,#160,#188,.T.);
#175=EDGE_CURVE('',#161,#161,#189,.T.);
#176=EDGE_CURVE('',#162,#162,#190,.T.);
#177=EDGE_CURVE('',#163,#163,#191,.T.);
#178=EDGE_CURVE('',#164,#164,#192,.T.);
#179=EDGE_CURVE('',#165,#165,#193,.T.);
#180=EDGE_CURVE('',#166,#166,#194,.T.);
#181=EDGE_CURVE('',#167,#167,#195,.T.);
#182=EDGE_CURVE('',#168,#168,#196,.T.);
#183=EDGE_CURVE('',#169,#169,#197,.T.);
#184=CIRCLE('',#199,8.);
#185=CIRCLE('',#201,8.);
#186=CIRCLE('',#203,10.0723145172501);
#187=CIRCLE('',#205,16.);
#188=CIRCLE('',#207,16.);
#189=CIRCLE('',#209,25.);
#190=CIRCLE('',#210,25.);
#191=CIRCLE('',#213,2.);
#192=CIRCLE('',#214,3.82639776547009);
#193=CIRCLE('',#216,5.8252067265834);
#194=CIRCLE('',#218,6.49999999999971);
#195=CIRCLE('',#220,6.49999999999971);
#196=CIRCLE('',#222,7.98025676165607);
#197=CIRCLE('',#225,2.);
#198=AXIS2_PLACEMENT_3D('',#288,#228,#229);
#199=AXIS2_PLACEMENT_3D('',#289,#230,#231);
#200=AXIS2_PLACEMENT_3D('',#291,#232,#233);
#201=AXIS2_PLACEMENT_3D('',#292,#234,#235);
#202=AXIS2_PLACEMENT_3D('',#294,#236,#237);
#203=AXIS2_PLACEMENT_3D('',#295,#238,#239);
#204=AXIS2_PLACEMENT_3D('',#297,#240,#241);
#205=AXIS2_PLACEMENT_3D('',#298,#242,#243);
#206=AXIS2_PLACEMENT_3D('',#300,#244,#245);
#207=AXIS2_PLACEMENT_3D('',#301,#246,#247);
#208=AXIS2_PLACEMENT_3D('',#303,#248,#249);
#209=AXIS2_PLACEMENT_3D('',#304,#250,#251);
#210=AXIS2_PLACEMENT_3D('',#306,#252,#253);
#211=AXIS2_PLACEMENT_3D('',#308,#254,#255);
#212=AXIS2_PLACEMENT_3D('',#309,#256,#257);
#213=AXIS2_PLACEMENT_3D('',#310,#258,#259);
#214=AXIS2_PLACEMENT_3D('',#312,#260,#261);
#215=AXIS2_PLACEMENT_3D('',#314,#262,#263);
#216=AXIS2_PLACEMENT_3D('',#315,#264,#265);
#217=AXIS2_PLACEMENT_3D('',#317,#266,#267);
#218=AXIS2_PLACEMENT_3D('',#318,#268,#269);
#219=AXIS2_PLACEMENT_3D('',#320,#270,#271);
#220=AXIS2_PLACEMENT_3D('',#321,#272,#273);
#221=AXIS2_PLACEMENT_3D('',#323,#274,#275);
#222=AXIS2_PLACEMENT_3D('',#324,#276,#277);
#223=AXIS2_PLACEMENT_3D('',#326,#278,#279);
#224=AXIS2_PLACEMENT_3D('',#327,#280,#281);
#225=AXIS2_PLACEMENT_3D('',#328,#282,#283);
#226=AXIS2_PLACEMENT_3D('',#330,#284,#285);
#227=AXIS2_PLACEMENT_3D('',#331,#286,#287);
#228=DIRECTION('',(0.,0.,1.));
#229=DIRECTION('',(1.,0.,0.));
#230=DIRECTION('',(0.,0.,1.));
#231=DIRECTION('',(1.,0.,0.));
#232=DIRECTION('',(0.,0.,1.));
#233=DIRECTION('',(-1.,0.,0.));
#234=DIRECTION('',(0.,0.,-1.));
#235=DIRECTION('',(1.,0.,0.));
#236=DIRECTION('',(0.,0.,-1.));
#237=DIRECTION('',(1.,0.,0.));
#238=DIRECTION('',(0.,0.,1.));
#239=DIRECTION('',(1.,0.,0.));
#240=DIRECTION('',(0.,0.,1.));
#241=DIRECTION('',(-1.,0.,2.53390335898458E-016));
#242=DIRECTION('',(0.,0.,1.));
#243=DIRECTION('',(1.,0.,0.));
#244=DIRECTION('',(0.,0.,1.));
#245=DIRECTION('',(-1.,0.,0.));
#246=DIRECTION('',(0.,0.,1.));
#247=DIRECTION('',(1.,0.,0.));
#248=DIRECTION('',(0.,0.,-1.));
#249=DIRECTION('',(1.,0.,0.));
#250=DIRECTION('',(0.,1.3883738032282E-016,-1.));
#251=DIRECTION('',(0.,1.,1.3883738032282E-016));
#252=DIRECTION('',(0.,1.3883738032282E-016,-1.));
#253=DIRECTION('',(0.,1.,1.38777878078145E-016));
#254=DIRECTION('',(0.,1.3883738032282E-016,-1.));
#255=DIRECTION('',(0.,1.,2.77555756156289E-016));
#256=DIRECTION('',(0.,-1.3883738032282E-016,1.));
#257=DIRECTION('',(0.,-1.,-1.3883738032282E-016));
#258=DIRECTION('',(0.,1.3883738032282E-016,-1.));
#259=DIRECTION('',(0.,1.,0.));
#260=DIRECTION('',(0.,1.3883738032282E-016,-1.));
#261=DIRECTION('',(0.,1.,0.));
#262=DIRECTION('',(0.,1.3883738032282E-016,-1.));
#263=DIRECTION('',(0.,1.,1.38777878078145E-016));
#264=DIRECTION('',(0.,1.3883738032282E-016,-1.));
#265=DIRECTION('',(0.,1.,0.));
#266=DIRECTION('',(0.,1.3883738032282E-016,-1.));
#267=DIRECTION('',(0.,1.,0.));
#268=DIRECTION('',(0.,1.3883738032282E-016,-1.));
#269=DIRECTION('',(0.,1.,2.66880534765674E-016));
#270=DIRECTION('',(0.,1.3883738032282E-016,-1.));
#271=DIRECTION('',(0.,1.,5.15876543190815E-016));
#272=DIRECTION('',(0.,1.3883738032282E-016,-1.));
#273=DIRECTION('',(0.,1.,2.66880534765674E-016));
#274=DIRECTION('',(0.,1.3883738032282E-016,-1.));
#275=DIRECTION('',(0.,1.,0.));
#276=DIRECTION('',(0.,1.3883738032282E-016,-1.));
#277=DIRECTION('',(0.,1.,2.17376899990473E-016));
#278=DIRECTION('',(0.,1.3883738032282E-016,-1.));
#279=DIRECTION('',(0.,1.,1.65211759616843E-016));
#280=DIRECTION('',(0.,1.3883738032282E-016,-1.));
#281=DIRECTION('',(0.,1.,1.60250418578936E-016));
#282=DIRECTION('',(0.,-1.3883738032282E-016,1.));
#283=DIRECTION('',(0.,1.,0.));
#284=DIRECTION('',(0.,1.3883738032282E-016,-1.));
#285=DIRECTION('',(0.,1.,1.38777878078145E-016));
#286=DIRECTION('',(0.,1.3883738032282E-016,-1.));
#287=DIRECTION('',(0.,1.,0.));
#288=CARTESIAN_POINT('',(0.,0.,0.));
#289=CARTESIAN_POINT('',(0.,0.,-41.));
#290=CARTESIAN_POINT('',(8.,0.,-41.));
#291=CARTESIAN_POINT('',(0.,0.,-41.));
#292=CARTESIAN_POINT('',(0.,0.,-33.2452839712988));
#293=CARTESIAN_POINT('',(8.,0.,-33.2452839712988));
#294=CARTESIAN_POINT('',(0.,0.,-41.));
#295=CARTESIAN_POINT('',(0.,0.,-18.5));
#296=CARTESIAN_POINT('',(10.0723145172501,0.,-18.5));
#297=CARTESIAN_POINT('',(0.,0.,-18.5));
#298=CARTESIAN_POINT('',(0.,0.,-18.5));
#299=CARTESIAN_POINT('',(16.,0.,-18.5));
#300=CARTESIAN_POINT('',(0.,16.,-18.5));
#301=CARTESIAN_POINT('',(0.,0.,0.));
#302=CARTESIAN_POINT('',(16.,0.,0.));
#303=CARTESIAN_POINT('',(0.,0.,-41.));
#304=CARTESIAN_POINT('',(0.,3.5527136788005E-015,-6.93889390390723E-015));
#305=CARTESIAN_POINT('',(0.,25.,-3.46795939583672E-015));
#306=CARTESIAN_POINT('',(0.,2.85852677718639E-015,5.00000000000009));
#307=CARTESIAN_POINT('',(0.,25.,5.00000000000009));
#308=CARTESIAN_POINT('',(0.,-1.58426939314385E-015,37.));
#309=CARTESIAN_POINT('',(0.,25.,1.73546725403525E-015));
#310=CARTESIAN_POINT('',(0.,-1.58426939314385E-015,35.));
#311=CARTESIAN_POINT('',(0.,2.,35.));
#312=CARTESIAN_POINT('',(0.,-1.58426939314385E-015,35.));
#313=CARTESIAN_POINT('',(0.,3.82639776547009,35.));
#314=CARTESIAN_POINT('',(0.,-1.77635683940025E-015,35.));
#315=CARTESIAN_POINT('',(0.,-1.31617615909415E-015,33.0690125856139));
#316=CARTESIAN_POINT('',(0.,5.8252067265834,33.0690125856139));
#317=CARTESIAN_POINT('',(0.,-1.30104260698261E-015,33.));
#318=CARTESIAN_POINT('',(0.,1.39726334928869E-015,13.5250000000002));
#319=CARTESIAN_POINT('',(0.,6.49999999999972,13.5250000000002));
#320=CARTESIAN_POINT('',(0.,-1.31617615909415E-015,33.0690125856139));
#321=CARTESIAN_POINT('',(0.,1.95447334645899E-015,11.5115996039779));
#322=CARTESIAN_POINT('',(0.,6.49999999999972,11.5115996039779));
#323=CARTESIAN_POINT('',(0.,-1.58426939314385E-015,37.));
#324=CARTESIAN_POINT('',(0.,2.22260808396418E-015,9.58031325384852));
#325=CARTESIAN_POINT('',(0.,7.98025676165607,9.58031325384852));
#326=CARTESIAN_POINT('',(0.,1.73472347597681E-015,11.5115996039779));
#327=CARTESIAN_POINT('',(0.,2.22260808396418E-015,9.58031325384852));
#328=CARTESIAN_POINT('',(0.,2.30317725589511E-015,9.));
#329=CARTESIAN_POINT('',(0.,2.,9.));
#330=CARTESIAN_POINT('',(0.,2.30317725589511E-015,9.));
#331=CARTESIAN_POINT('',(0.,-1.58426939314385E-015,37.));
#332=MECHANICAL_DESIGN_GEOMETRIC_PRESENTATION_REPRESENTATION('',(#32),#333);
#333=(
GEOMETRIC_REPRESENTATION_CONTEXT(3)
GLOBAL_UNCERTAINTY_ASSIGNED_CONTEXT((#334))
GLOBAL_UNIT_ASSIGNED_CONTEXT((#340,#336,#335))
REPRESENTATION_CONTEXT('836261_stp','TOP_LEVEL_ASSEMBLY_PART')
);
#334=UNCERTAINTY_MEASURE_WITH_UNIT(LENGTH_MEASURE(2.E-005),#340,
'DISTANCE_ACCURACY_VALUE','Maximum Tolerance applied to model');
#335=(
NAMED_UNIT(*)
SI_UNIT($,.STERADIAN.)
SOLID_ANGLE_UNIT()
);
#336=(
CONVERSION_BASED_UNIT('DEGREE',#338)
NAMED_UNIT(#337)
PLANE_ANGLE_UNIT()
);
#337=DIMENSIONAL_EXPONENTS(0.,0.,0.,0.,0.,0.,0.);
#338=PLANE_ANGLE_MEASURE_WITH_UNIT(PLANE_ANGLE_MEASURE(0.0174532925),#339);
#339=(
NAMED_UNIT(*)
PLANE_ANGLE_UNIT()
SI_UNIT($,.RADIAN.)
);
#340=(
LENGTH_UNIT()
NAMED_UNIT(*)
SI_UNIT(.MILLI.,.METRE.)
);
ENDSEC;
END-ISO-10303-21;
