  0
SECTION
  2
HEADER
  9
$ACADVER
  1
AC1014
  9
$ACADMAINTVER
 70
     9
  9
$DWGCODEPAGE
  3
ASCII
  9
$INSBASE
 10
0.0
 20
0.0
 30
0.0
  9
$EXTMIN
 10
1.000000000000000E+20
 20
1.000000000000000E+20
 30
1.000000000000000E+20
  9
$EXTMAX
 10
-1.000000000000000E+20
 20
-1.000000000000000E+20
 30
-1.000000000000000E+20
  9
$LIMMIN
 10
0.0
 20
0.0
  9
$LIMMAX
 10
12.0
 20
9.0
  9
$ORTHOMODE
 70
     0
  9
$REGENMODE
 70
     1
  9
$FILLMODE
 70
     1
  9
$QTEXTMODE
 70
     0
  9
$MIRRTEXT
 70
     1
  9
$DRAGMODE
 70
     2
  9
$LTSCALE
 40
1.0
  9
$OSMODE
 70
    37
  9
$ATTMODE
 70
     1
  9
$TEXTSIZE
 40
0.2
  9
$TRACEWID
 40
0.05
  9
$TEXTSTYLE
  7
STANDARD
  9
$CLAYER
  8
0
  9
$CELTYPE
  6
BYLAYER
  9
$CECOLOR
 62
   256
  9
$CELTSCALE
 40
1.0
  9
$DELOBJ
 70
     1
  9
$DISPSILH
 70
     0
  9
$DIMSCALE
 40
1.0
  9
$DIMASZ
 40
0.18
  9
$DIMEXO
 40
0.0625
  9
$DIMDLI
 40
0.38
  9
$DIMRND
 40
0.0
  9
$DIMDLE
 40
0.0
  9
$DIMEXE
 40
0.18
  9
$DIMTP
 40
0.0
  9
$DIMTM
 40
0.0
  9
$DIMTXT
 40
0.18
  9
$DIMCEN
 40
0.09
  9
$DIMTSZ
 40
0.0
  9
$DIMTOL
 70
     0
  9
$DIMLIM
 70
     0
  9
$DIMTIH
 70
     1
  9
$DIMTOH
 70
     1
  9
$DIMSE1
 70
     0
  9
$DIMSE2
 70
     0
  9
$DIMTAD
 70
     0
  9
$DIMZIN
 70
     0
  9
$DIMBLK
  1

  9
$DIMASO
 70
     1
  9
$DIMSHO
 70
     1
  9
$DIMPOST
  1

  9
$DIMAPOST
  1

  9
$DIMALT
 70
     0
  9
$DIMALTD
 70
     2
  9
$DIMALTF
 40
25.4
  9
$DIMLFAC
 40
1.0
  9
$DIMTOFL
 70
     0
  9
$DIMTVP
 40
0.0
  9
$DIMTIX
 70
     0
  9
$DIMSOXD
 70
     0
  9
$DIMSAH
 70
     0
  9
$DIMBLK1
  1

  9
$DIMBLK2
  1

  9
$DIMSTYLE
  2
STANDARD
  9
$DIMCLRD
 70
     0
  9
$DIMCLRE
 70
     0
  9
$DIMCLRT
 70
     0
  9
$DIMTFAC
 40
1.0
  9
$DIMGAP
 40
0.09
  9
$DIMJUST
 70
     0
  9
$DIMSD1
 70
     0
  9
$DIMSD2
 70
     0
  9
$DIMTOLJ
 70
     1
  9
$DIMTZIN
 70
     0
  9
$DIMALTZ
 70
     0
  9
$DIMALTTZ
 70
     0
  9
$DIMFIT
 70
     3
  9
$DIMUPT
 70
     0
  9
$DIMUNIT
 70
     2
  9
$DIMDEC
 70
     4
  9
$DIMTDEC
 70
     4
  9
$DIMALTU
 70
     2
  9
$DIMALTTD
 70
     2
  9
$DIMTXSTY
  7
STANDARD
  9
$DIMAUNIT
 70
     0
  9
$LUNITS
 70
     2
  9
$LUPREC
 70
     4
  9
$SKETCHINC
 40
0.1
  9
$FILLETRAD
 40
0.5
  9
$AUNITS
 70
     0
  9
$AUPREC
 70
     0
  9
$MENU
  1
.
  9
$ELEVATION
 40
0.0
  9
$PELEVATION
 40
0.0
  9
$THICKNESS
 40
0.0
  9
$LIMCHECK
 70
     0
  9
$CHAMFERA
 40
0.5
  9
$CHAMFERB
 40
0.5
  9
$CHAMFERC
 40
1.0
  9
$CHAMFERD
 40
0.0
  9
$SKPOLY
 70
     0
  9
$TDCREATE
 40
2455880.500106667
  9
$TDUPDATE
 40
2455880.500106678
  9
$TDINDWG
 40
0.0000000116
  9
$TDUSRTIMER
 40
0.0000000116
  9
$USRTIMER
 70
     1
  9
$ANGBASE
 50
0.0
  9
$ANGDIR
 70
     0
  9
$PDMODE
 70
     0
  9
$PDSIZE
 40
0.0
  9
$PLINEWID
 40
0.0
  9
$COORDS
 70
     1
  9
$SPLFRAME
 70
     0
  9
$SPLINETYPE
 70
     6
  9
$SPLINESEGS
 70
     8
  9
$ATTDIA
 70
     0
  9
$ATTREQ
 70
     1
  9
$HANDLING
 70
     1
  9
$HANDSEED
  5
983
  9
$SURFTAB1
 70
     6
  9
$SURFTAB2
 70
     6
  9
$SURFTYPE
 70
     6
  9
$SURFU
 70
     6
  9
$SURFV
 70
     6
  9
$UCSNAME
  2

  9
$UCSORG
 10
0.0
 20
0.0
 30
0.0
  9
$UCSXDIR
 10
1.0
 20
0.0
 30
0.0
  9
$UCSYDIR
 10
0.0
 20
1.0
 30
0.0
  9
$PUCSNAME
  2

  9
$PUCSORG
 10
0.0
 20
0.0
 30
0.0
  9
$PUCSXDIR
 10
1.0
 20
0.0
 30
0.0
  9
$PUCSYDIR
 10
0.0
 20
1.0
 30
0.0
  9
$USERI1
 70
     0
  9
$USERI2
 70
     0
  9
$USERI3
 70
     0
  9
$USERI4
 70
     0
  9
$USERI5
 70
     0
  9
$USERR1
 40
0.0
  9
$USERR2
 40
0.0
  9
$USERR3
 40
0.0
  9
$USERR4
 40
0.0
  9
$USERR5
 40
0.0
  9
$WORLDVIEW
 70
     1
  9
$SHADEDGE
 70
     3
  9
$SHADEDIF
 70
    70
  9
$TILEMODE
 70
     1
  9
$MAXACTVP
 70
    64
  9
$PINSBASE
 10
0.0
 20
0.0
 30
0.0
  9
$PLIMCHECK
 70
     0
  9
$PEXTMIN
 10
1.000000000000000E+20
 20
1.000000000000000E+20
 30
1.000000000000000E+20
  9
$PEXTMAX
 10
-1.000000000000000E+20
 20
-1.000000000000000E+20
 30
-1.000000000000000E+20
  9
$PLIMMIN
 10
0.0
 20
0.0
  9
$PLIMMAX
 10
12.0
 20
9.0
  9
$UNITMODE
 70
     0
  9
$VISRETAIN
 70
     1
  9
$PLINEGEN
 70
     0
  9
$PSLTSCALE
 70
     1
  9
$TREEDEPTH
 70
  3020
  9
$PICKSTYLE
 70
     1
  9
$CMLSTYLE
  2
STANDARD
  9
$CMLJUST
 70
     0
  9
$CMLSCALE
 40
1.0
  9
$PROXYGRAPHICS
 70
     1
  9
$MEASUREMENT
 70
     0
  0
ENDSEC
  0
SECTION
  2
CLASSES
  0
CLASS
  1
ACDBDICTIONARYWDFLT
  2
AcDbDictionaryWithDefault
  3
ObjectDBX Classes
 90
        0
280
     0
281
     0
  0
CLASS
  1
VISUALSTYLE
  2
AcDbVisualStyle
  3
ObjectDBX Classes
 90
     4095
280
     0
281
     0
  0
CLASS
  1
XRECORD
  2
AcDbXrecord
  3
AutoCAD 2000
 90
        0
280
     0
281
     0
  0
CLASS
  1
LWPOLYLINE
  2
AcDbPolyline
  3
AutoCAD 2000
 90
        0
280
     0
281
     1
  0
CLASS
  1
HATCH
  2
AcDbHatch
  3
AutoCAD 2000
 90
        0
280
     0
281
     1
  0
CLASS
  1
ACDBPLACEHOLDER
  2
AcDbPlaceHolder
  3
ObjectDBX Classes
 90
        0
280
     0
281
     0
  0
CLASS
  1
LAYOUT
  2
AcDbLayout
  3
ObjectDBX Classes
 90
        0
280
     0
281
     0
  0
ENDSEC
  0
SECTION
  2
TABLES
  0
TABLE
  2
VPORT
  5
8
330
0
100
AcDbSymbolTable
 70
     1
  0
VPORT
  5
29
330
8
100
AcDbSymbolTableRecord
100
AcDbViewportTableRecord
  2
*ACTIVE
 70
     0
 10
0.0
 20
0.0
 11
1.0
 21
1.0
 12
0.0
 22
0.0
 13
0.0
 23
0.0
 14
0.5
 24
0.5
 15
0.5
 25
0.5
 16
0.0
 26
0.0
 36
1.0
 17
21.85389150018602
 27
-124.4635443977564
 37
0.0
 40
197.0097584163397
 41
0.7803591415206659
 42
50.0
 43
0.0
 44
0.0
 50
0.0
 51
0.0
 71
     0
 72
   100
 73
     1
 74
     3
 75
     0
 76
     0
 77
     0
 78
     0
  0
ENDTAB
  0
TABLE
  2
LTYPE
  5
5
330
0
100
AcDbSymbolTable
 70
    17
  0
LTYPE
  5
14
330
5
100
AcDbSymbolTableRecord
100
AcDbLinetypeTableRecord
  2
BYBLOCK
 70
     0
  3

 72
    65
 73
     0
 40
0.0
  0
LTYPE
  5
15
330
5
100
AcDbSymbolTableRecord
100
AcDbLinetypeTableRecord
  2
BYLAYER
 70
     0
  3

 72
    65
 73
     0
 40
0.0
  0
LTYPE
  5
16
330
5
100
AcDbSymbolTableRecord
100
AcDbLinetypeTableRecord
  2
CONTINUOUS
 70
     0
  3
Solid line
 72
    65
 73
     0
 40
0.0
  0
LTYPE
  5
B7
330
5
100
AcDbSymbolTableRecord
100
AcDbLinetypeTableRecord
  2
AI-LINETYPE-1
 70
     0
  3
Adobe Illustrator Linetype No. 1
 72
    65
 73
     4
 40
8.819450260381924
 49
7.055560208305538
 74
     0
 49
-0.7055560208305538
 74
     0
 49
0.3527780104152769
 74
     0
 49
-0.7055560208305538
 74
     0
  0
LTYPE
  5
BC
330
5
100
AcDbSymbolTableRecord
100
AcDbLinetypeTableRecord
  2
AI-LINETYPE-2
 70
     0
  3
Adobe Illustrator Linetype No. 2
 72
    65
 73
     4
 40
8.819450260381924
 49
7.055560208305538
 74
     0
 49
-0.7055560208305538
 74
     0
 49
0.3527780104152769
 74
     0
 49
-0.7055560208305538
 74
     0
  0
LTYPE
  5
C1
330
5
100
AcDbSymbolTableRecord
100
AcDbLinetypeTableRecord
  2
AI-LINETYPE-3
 70
     0
  3
Adobe Illustrator Linetype No. 3
 72
    65
 73
     4
 40
8.819450260381924
 49
7.055560208305538
 74
     0
 49
-0.7055560208305538
 74
     0
 49
0.3527780104152769
 74
     0
 49
-0.7055560208305538
 74
     0
  0
LTYPE
  5
C6
330
5
100
AcDbSymbolTableRecord
100
AcDbLinetypeTableRecord
  2
AI-LINETYPE-4
 70
     0
  3
Adobe Illustrator Linetype No. 4
 72
    65
 73
     4
 40
8.819450260381924
 49
7.055560208305538
 74
     0
 49
-0.7055560208305538
 74
     0
 49
0.3527780104152769
 74
     0
 49
-0.7055560208305538
 74
     0
  0
LTYPE
  5
371
330
5
100
AcDbSymbolTableRecord
100
AcDbLinetypeTableRecord
  2
AI-LINETYPE-5
 70
     0
  3
Adobe Illustrator Linetype No. 5
 72
    65
 73
     4
 40
4.938892145813877
 49
1.763890052076384
 74
     0
 49
-0.7055560208305538
 74
     0
 49
1.763890052076384
 74
     0
 49
-0.7055560208305538
 74
     0
  0
LTYPE
  5
376
330
5
100
AcDbSymbolTableRecord
100
AcDbLinetypeTableRecord
  2
AI-LINETYPE-6
 70
     0
  3
Adobe Illustrator Linetype No. 6
 72
    65
 73
     4
 40
4.938892145813877
 49
1.763890052076384
 74
     0
 49
-0.7055560208305538
 74
     0
 49
1.763890052076384
 74
     0
 49
-0.7055560208305538
 74
     0
  0
LTYPE
  5
37B
330
5
100
AcDbSymbolTableRecord
100
AcDbLinetypeTableRecord
  2
AI-LINETYPE-7
 70
     0
  3
Adobe Illustrator Linetype No. 7
 72
    65
 73
     4
 40
4.938892145813877
 49
1.763890052076384
 74
     0
 49
-0.7055560208305538
 74
     0
 49
1.763890052076384
 74
     0
 49
-0.7055560208305538
 74
     0
  0
LTYPE
  5
380
330
5
100
AcDbSymbolTableRecord
100
AcDbLinetypeTableRecord
  2
AI-LINETYPE-8
 70
     0
  3
Adobe Illustrator Linetype No. 8
 72
    65
 73
     4
 40
4.938892145813877
 49
1.763890052076384
 74
     0
 49
-0.7055560208305538
 74
     0
 49
1.763890052076384
 74
     0
 49
-0.7055560208305538
 74
     0
  0
LTYPE
  5
386
330
5
100
AcDbSymbolTableRecord
100
AcDbLinetypeTableRecord
  2
AI-LINETYPE-9
 70
     0
  3
Adobe Illustrator Linetype No. 9
 72
    65
 73
     4
 40
4.938892145813877
 49
1.763890052076384
 74
     0
 49
-0.7055560208305538
 74
     0
 49
1.763890052076384
 74
     0
 49
-0.7055560208305538
 74
     0
  0
LTYPE
  5
390
330
5
100
AcDbSymbolTableRecord
100
AcDbLinetypeTableRecord
  2
AI-LINETYPE-10
 70
     0
  3
Adobe Illustrator Linetype No. 10
 72
    65
 73
     4
 40
4.938892145813877
 49
1.763890052076384
 74
     0
 49
-0.7055560208305538
 74
     0
 49
1.763890052076384
 74
     0
 49
-0.7055560208305538
 74
     0
  0
LTYPE
  5
395
330
5
100
AcDbSymbolTableRecord
100
AcDbLinetypeTableRecord
  2
AI-LINETYPE-11
 70
     0
  3
Adobe Illustrator Linetype No. 11
 72
    65
 73
     4
 40
4.938892145813877
 49
1.763890052076384
 74
     0
 49
-0.7055560208305538
 74
     0
 49
1.763890052076384
 74
     0
 49
-0.7055560208305538
 74
     0
  0
LTYPE
  5
39E
330
5
100
AcDbSymbolTableRecord
100
AcDbLinetypeTableRecord
  2
AI-LINETYPE-12
 70
     0
  3
Adobe Illustrator Linetype No. 12
 72
    65
 73
     4
 40
8.819450260381924
 49
7.055560208305538
 74
     0
 49
-0.7055560208305538
 74
     0
 49
0.3527780104152769
 74
     0
 49
-0.7055560208305538
 74
     0
  0
LTYPE
  5
3A3
330
5
100
AcDbSymbolTableRecord
100
AcDbLinetypeTableRecord
  2
AI-LINETYPE-13
 70
     0
  3
Adobe Illustrator Linetype No. 13
 72
    65
 73
     4
 40
8.819450260381924
 49
7.055560208305538
 74
     0
 49
-0.7055560208305538
 74
     0
 49
0.3527780104152769
 74
     0
 49
-0.7055560208305538
 74
     0
  0
LTYPE
  5
3A8
330
5
100
AcDbSymbolTableRecord
100
AcDbLinetypeTableRecord
  2
AI-LINETYPE-14
 70
     0
  3
Adobe Illustrator Linetype No. 14
 72
    65
 73
     4
 40
4.938892145813877
 49
1.763890052076384
 74
     0
 49
-0.7055560208305538
 74
     0
 49
1.763890052076384
 74
     0
 49
-0.7055560208305538
 74
     0
  0
LTYPE
  5
94B
330
5
100
AcDbSymbolTableRecord
100
AcDbLinetypeTableRecord
  2
AI-LINETYPE-15
 70
     0
  3
Adobe Illustrator Linetype No. 15
 72
    65
 73
     4
 40
8.819450260381924
 49
7.055560208305538
 74
     0
 49
-0.7055560208305538
 74
     0
 49
0.3527780104152769
 74
     0
 49
-0.7055560208305538
 74
     0
  0
LTYPE
  5
95C
330
5
100
AcDbSymbolTableRecord
100
AcDbLinetypeTableRecord
  2
AI-LINETYPE-16
 70
     0
  3
Adobe Illustrator Linetype No. 16
 72
    65
 73
     4
 40
8.819450260381924
 49
7.055560208305538
 74
     0
 49
-0.7055560208305538
 74
     0
 49
0.3527780104152769
 74
     0
 49
-0.7055560208305538
 74
     0
  0
ENDTAB
  0
TABLE
  2
LAYER
  5
2
330
0
100
AcDbSymbolTable
 70
     5
  0
LAYER
  5
10
330
2
100
AcDbSymbolTableRecord
100
AcDbLayerTableRecord
  2
0
 70
     0
 62
     7
  6
CONTINUOUS
  0
LAYER
  5
3B
330
2
100
AcDbSymbolTableRecord
100
AcDbLayerTableRecord
  2
GRAU_10_
 70
     1
 62
     7
  6
CONTINUOUS
  0
LAYER
  5
64
330
2
100
AcDbSymbolTableRecord
100
AcDbLayerTableRecord
  2
STANDARDEBENE
 70
     0
 62
     7
  6
CONTINUOUS
  0
LAYER
  5
3D3
330
2
100
AcDbSymbolTableRecord
100
AcDbLayerTableRecord
  2
BEMA_UNG
 70
     1
 62
     7
  6
CONTINUOUS
  0
LAYER
  5
4A0
330
2
100
AcDbSymbolTableRecord
100
AcDbLayerTableRecord
  2
TEXT
 70
     1
 62
     7
  6
CONTINUOUS
  0
ENDTAB
  0
TABLE
  2
STYLE
  5
3
330
0
100
AcDbSymbolTable
 70
     1
  0
STYLE
  5
11
330
3
100
AcDbSymbolTableRecord
100
AcDbTextStyleTableRecord
  2
STANDARD
 70
     0
 40
0.0
 41
1.0
 50
0.0
 71
     0
 42
0.2
  3
txt
  4

  0
ENDTAB
  0
TABLE
  2
VIEW
  5
6
330
0
100
AcDbSymbolTable
 70
     0
  0
ENDTAB
  0
TABLE
  2
UCS
  5
7
330
0
100
AcDbSymbolTable
 70
     0
  0
ENDTAB
  0
TABLE
  2
APPID
  5
9
330
0
100
AcDbSymbolTable
 70
     1
  0
APPID
  5
12
330
9
100
AcDbSymbolTableRecord
100
AcDbRegAppTableRecord
  2
ACAD
 70
     0
  0
ENDTAB
  0
TABLE
  2
DIMSTYLE
  5
A
330
0
100
AcDbSymbolTable
 70
     1
  0
DIMSTYLE
105
27
330
A
100
AcDbSymbolTableRecord
100
AcDbDimStyleTableRecord
  2
STANDARD
 70
     0
  3

  4

  5

  6

  7

 40
1.0
 41
0.18
 42
0.0625
 43
0.38
 44
0.18
 45
0.0
 46
0.0
 47
0.0
 48
0.0
140
0.18
141
0.09
142
0.0
143
25.4
144
1.0
145
0.0
146
1.0
147
0.09
 71
     0
 72
     0
 73
     1
 74
     1
 75
     0
 76
     0
 77
     0
 78
     0
170
     0
171
     2
172
     0
173
     0
174
     0
175
     0
176
     0
177
     0
178
     0
270
     2
271
     4
272
     4
273
     2
274
     2
340
11
275
     0
280
     0
281
     0
282
     0
283
     1
284
     0
285
     0
286
     0
287
     3
288
     0
  0
ENDTAB
  0
TABLE
  2
BLOCK_RECORD
  5
1
330
0
100
AcDbSymbolTable
 70
     1
  0
BLOCK_RECORD
  5
1F
330
1
100
AcDbSymbolTableRecord
100
AcDbBlockTableRecord
  2
*MODEL_SPACE
  0
BLOCK_RECORD
  5
1B
330
1
100
AcDbSymbolTableRecord
100
AcDbBlockTableRecord
  2
*PAPER_SPACE
  0
ENDTAB
  0
ENDSEC
  0
SECTION
  2
BLOCKS
  0
BLOCK
  5
20
330
1F
100
AcDbEntity
  8
0
100
AcDbBlockBegin
  2
*MODEL_SPACE
 70
     0
 71
     0
 10
0.0
 20
0.0
 30
0.0
  3
*MODEL_SPACE
  1

  0
ENDBLK
  5
21
330
1F
100
AcDbEntity
  8
0
100
AcDbBlockEnd
  0
BLOCK
  5
1C
330
1B
100
AcDbEntity
 67
     1
  8
0
100
AcDbBlockBegin
  2
*PAPER_SPACE
 70
     0
 71
     0
 10
0.0
 20
0.0
 30
0.0
  3
*PAPER_SPACE
  1

  0
ENDBLK
  5
1D
330
1B
100
AcDbEntity
 67
     1
  8
0
100
AcDbBlockEnd
  0
ENDSEC
  0
SECTION
  2
ENTITIES
  0
SPLINE
  5
3C
330
1F
100
AcDbEntity
  8
GRAU_10_
100
AcDbSpline
210
0.0
220
0.0
230
1.0
 70
    11
 71
     3
 72
   116
 73
   112
 74
     0
 42
0.0000000001
 43
0.0000000001
 40
0.0
 40
0.0
 40
0.0
 40
0.0
 40
1.0
 40
1.0
 40
1.0
 40
2.0
 40
2.0
 40
2.0
 40
3.0
 40
3.0
 40
3.0
 40
4.0
 40
4.0
 40
4.0
 40
5.0
 40
5.0
 40
5.0
 40
6.0
 40
6.0
 40
6.0
 40
7.0
 40
7.0
 40
7.0
 40
8.0
 40
8.0
 40
8.0
 40
9.0
 40
9.0
 40
9.0
 40
10.0
 40
10.0
 40
10.0
 40
11.0
 40
11.0
 40
11.0
 40
12.0
 40
12.0
 40
12.0
 40
13.0
 40
13.0
 40
13.0
 40
14.0
 40
14.0
 40
14.0
 40
15.0
 40
15.0
 40
15.0
 40
16.0
 40
16.0
 40
16.0
 40
17.0
 40
17.0
 40
17.0
 40
18.0
 40
18.0
 40
18.0
 40
19.0
 40
19.0
 40
19.0
 40
20.0
 40
20.0
 40
20.0
 40
21.0
 40
21.0
 40
21.0
 40
22.0
 40
22.0
 40
22.0
 40
23.0
 40
23.0
 40
23.0
 40
24.0
 40
24.0
 40
24.0
 40
25.0
 40
25.0
 40
25.0
 40
26.0
 40
26.0
 40
26.0
 40
27.0
 40
27.0
 40
27.0
 40
28.0
 40
28.0
 40
28.0
 40
29.0
 40
29.0
 40
29.0
 40
30.0
 40
30.0
 40
30.0
 40
31.0
 40
31.0
 40
31.0
 40
32.0
 40
32.0
 40
32.0
 40
33.0
 40
33.0
 40
33.0
 40
34.0
 40
34.0
 40
34.0
 40
35.0
 40
35.0
 40
35.0
 40
36.0
 40
36.0
 40
36.0
 40
37.0
 40
37.0
 40
37.0
 40
37.0
 10
9.39237001753095
 20
-156.5746977076097
 30
0.0
 10
9.39237001753095
 20
-156.5746977076097
 30
0.0
 10
12.97527168581111
 20
-156.5526490819587
 30
0.0
 10
12.97527168581111
 20
-156.5526490819587
 30
0.0
 10
12.97527168581111
 20
-156.5526490819587
 30
0.0
 10
12.9311744345092
 20
-167.8415454152476
 30
0.0
 10
12.9311744345092
 20
-167.8415454152476
 30
0.0
 10
12.9311744345092
 20
-167.8415454152476
 30
0.0
 10
-9.87812880140355
 20
-167.8525697280731
 30
0.0
 10
-9.87812880140355
 20
-167.8525697280731
 30
0.0
 10
-9.87812880140355
 20
-167.8525697280731
 30
0.0
 10
-9.767885673148776
 20
-160.6316448273854
 30
0.0
 10
-9.767885673148776
 20
-160.6316448273854
 30
0.0
 10
-9.767885673148776
 20
-160.6316448273854
 30
0.0
 10
-6.151911066392187
 20
-160.5214016991306
 30
0.0
 10
-6.151911066392187
 20
-160.5214016991306
 30
0.0
 10
-6.151911066392187
 20
-160.5214016991306
 30
0.0
 10
-6.173959692043142
 20
-160.630611298058
 30
0.0
 10
-6.14088675356671
 20
-160.630611298058
 30
0.0
 10
-6.107813815090277
 20
-160.630611298058
 30
0.0
 10
-5.600695425118317
 20
-160.4983195441523
 30
0.0
 10
-5.567622486641885
 20
-160.4983195441523
 30
0.0
 10
-5.534549548165453
 20
-160.4983195441523
 30
0.0
 10
-4.895139404287763
 20
-160.4983195441523
 30
0.0
 10
-4.895139404287763
 20
-160.4983195441523
 30
0.0
 10
-4.895139404287763
 20
-160.4983195441523
 30
0.0
 10
-4.321875137362938
 20
-160.5865140467561
 30
0.0
 10
-4.321875137362938
 20
-160.5865140467561
 30
0.0
 10
-4.321875137362938
 20
-160.5865140467561
 30
0.0
 10
-4.002170065424093
 20
-160.5975383595816
 30
0.0
 10
-4.002170065424093
 20
-160.5975383595816
 30
0.0
 10
-4.002170065424093
 20
-160.5975383595816
 30
0.0
 10
-3.913975562820274
 20
-160.554474637607
 30
0.0
 10
-3.913975562820274
 20
-160.554474637607
 30
0.0
 10
-3.913975562820274
 20
-160.554474637607
 30
0.0
 10
-3.924999875645752
 20
-160.554474637607
 30
0.0
 10
-3.924999875645752
 20
-160.554474637607
 30
0.0
 10
-3.924999875645752
 20
-160.554474637607
 30
0.0
 10
-1.521699679691678
 20
-160.5654989504325
 30
0.0
 10
-1.521699679691678
 20
-160.5654989504325
 30
0.0
 10
-1.521699679691678
 20
-160.5654989504325
 30
0.0
 10
-1.5106753668662
 20
-152.4957019621831
 30
0.0
 10
-1.5106753668662
 20
-152.4957019621831
 30
0.0
 10
-1.5106753668662
 20
-152.4957019621831
 30
0.0
 10
-9.824729786155142
 20
-152.4750313756353
 30
0.0
 10
-9.824729786155142
 20
-152.4750313756353
 30
0.0
 10
-9.824729786155142
 20
-152.4750313756353
 30
0.0
 10
-9.791484592790813
 20
-145.2789111788049
 30
0.0
 10
-9.791484592790813
 20
-145.2789111788049
 30
0.0
 10
-9.791484592790813
 20
-145.2789111788049
 30
0.0
 10
-8.625319001720781
 20
-145.2789111788049
 30
0.0
 10
-8.625319001720781
 20
-145.2789111788049
 30
0.0
 10
-8.625319001720781
 20
-145.2789111788049
 30
0.0
 10
-8.55521126234626
 20
-145.3030268631106
 30
0.0
 10
-8.55521126234626
 20
-145.3030268631106
 30
0.0
 10
-8.55521126234626
 20
-145.3030268631106
 30
0.0
 10
-8.197265605294042
 20
-145.1962288326138
 30
0.0
 10
-8.197265605294042
 20
-145.1962288326138
 30
0.0
 10
-8.197265605294042
 20
-145.1962288326138
 30
0.0
 10
-3.688321659673784
 20
-145.1900276566495
 30
0.0
 10
-3.688321659673784
 20
-145.1900276566495
 30
0.0
 10
-3.688321659673784
 20
-145.1900276566495
 30
0.0
 10
-3.374473253923474
 20
-145.309228039075
 30
0.0
 10
-3.374473253923474
 20
-145.309228039075
 30
0.0
 10
-3.374473253923474
 20
-145.309228039075
 30
0.0
 10
-3.386875605852136
 20
-145.309228039075
 30
0.0
 10
-3.386875605852136
 20
-145.309228039075
 30
0.0
 10
-3.386875605852136
 20
-145.309228039075
 30
0.0
 10
12.96424737298563
 20
-145.2858013743208
 30
0.0
 10
12.96424737298563
 20
-145.2858013743208
 30
0.0
 10
12.96424737298563
 20
-145.2858013743208
 30
0.0
 10
12.96424737298563
 20
-152.9917960393295
 30
0.0
 10
12.96424737298563
 20
-152.9917960393295
 30
0.0
 10
12.96424737298563
 20
-152.9917960393295
 30
0.0
 10
8.708862622351353
 20
-152.9917960393295
 30
0.0
 10
8.708862622351353
 20
-152.9917960393295
 30
0.0
 10
8.708862622351353
 20
-152.9917960393295
 30
0.0
 10
8.775008499304217
 20
-153.9839841936225
 30
0.0
 10
8.775008499304217
 20
-153.9839841936225
 30
0.0
 10
8.775008499304217
 20
-153.9839841936225
 30
0.0
 10
9.337248453403564
 20
-153.995008506448
 30
0.0
 10
9.337248453403564
 20
-153.995008506448
 30
0.0
 10
9.337248453403564
 20
-153.995008506448
 30
0.0
 10
9.386685606230314
 20
-156.3101141997982
 30
0.0
 10
9.386685606230314
 20
-156.3101141997982
 30
0.0
 10
9.386685606230314
 20
-156.3101141997982
 30
0.0
 10
8.67217233122906
 20
-156.310458709574
 30
0.0
 10
8.67217233122906
 20
-156.310458709574
 30
0.0
 10
8.67217233122906
 20
-156.310458709574
 30
0.0
 10
8.613433414455814
 20
-161.5139343631994
 30
0.0
 10
8.613433414455814
 20
-161.5139343631994
 30
0.0
 10
8.613433414455814
 20
-161.5139343631994
 30
0.0
 10
9.377728352059615
 20
-161.5139343631994
 30
0.0
 10
9.377728352059615
 20
-161.5139343631994
 30
0.0
 10
9.377728352059615
 20
-161.5139343631994
 30
0.0
 10
9.407183937890187
 20
-160.4556003319535
 30
0.0
 10
9.407183937890187
 20
-160.4556003319535
 30
0.0
 10
9.407183937890187
 20
-160.4556003319535
 30
0.0
 10
8.701627917059632
 20
-160.3377779886312
 30
0.0
 10
8.701627917059632
 20
-160.3377779886312
 30
0.0
 10
8.701627917059632
 20
-160.3377779886312
 30
0.0
 10
8.76036683383288
 20
-158.3682156004045
 30
0.0
 10
8.76036683383288
 20
-158.3682156004045
 30
0.0
 10
8.76036683383288
 20
-158.3682156004045
 30
0.0
 10
8.76036683383288
 20
-158.1329154235358
 30
0.0
 10
8.76036683383288
 20
-158.1329154235358
 30
0.0
 10
8.76036683383288
 20
-158.1329154235358
 30
0.0
 10
9.289533849455795
 20
-158.1329154235358
 30
0.0
 10
9.289533849455795
 20
-158.1329154235358
 30
0.0
 10
9.289533849455795
 20
-158.1329154235358
 30
0.0
 10
9.39237001753095
 20
-156.5746977076097
 30
0.0
 10
9.39237001753095
 20
-156.5746977076097
 30
0.0
  0
HATCH
  5
3D
330
1F
100
AcDbEntity
  8
GRAU_10_
 62
   255
100
AcDbHatch
 10
0.0
 20
0.0
 30
0.0
210
0.0
220
0.0
230
1.0
  2
SOLID
 70
     1
 71
     0
 91
        1
 92
        1
 93
        1
 72
     4
 94
        3
 73
     0
 74
     1
 95
      116
 96
      112
 40
0.0
 40
0.0
 40
0.0
 40
0.0
 40
1.0
 40
1.0
 40
1.0
 40
2.0
 40
2.0
 40
2.0
 40
3.0
 40
3.0
 40
3.0
 40
4.0
 40
4.0
 40
4.0
 40
5.0
 40
5.0
 40
5.0
 40
6.0
 40
6.0
 40
6.0
 40
7.0
 40
7.0
 40
7.0
 40
8.0
 40
8.0
 40
8.0
 40
9.0
 40
9.0
 40
9.0
 40
10.0
 40
10.0
 40
10.0
 40
11.0
 40
11.0
 40
11.0
 40
12.0
 40
12.0
 40
12.0
 40
13.0
 40
13.0
 40
13.0
 40
14.0
 40
14.0
 40
14.0
 40
15.0
 40
15.0
 40
15.0
 40
16.0
 40
16.0
 40
16.0
 40
17.0
 40
17.0
 40
17.0
 40
18.0
 40
18.0
 40
18.0
 40
19.0
 40
19.0
 40
19.0
 40
20.0
 40
20.0
 40
20.0
 40
21.0
 40
21.0
 40
21.0
 40
22.0
 40
22.0
 40
22.0
 40
23.0
 40
23.0
 40
23.0
 40
24.0
 40
24.0
 40
24.0
 40
25.0
 40
25.0
 40
25.0
 40
26.0
 40
26.0
 40
26.0
 40
27.0
 40
27.0
 40
27.0
 40
28.0
 40
28.0
 40
28.0
 40
29.0
 40
29.0
 40
29.0
 40
30.0
 40
30.0
 40
30.0
 40
31.0
 40
31.0
 40
31.0
 40
32.0
 40
32.0
 40
32.0
 40
33.0
 40
33.0
 40
33.0
 40
34.0
 40
34.0
 40
34.0
 40
35.0
 40
35.0
 40
35.0
 40
36.0
 40
36.0
 40
36.0
 40
37.0
 40
37.0
 40
37.0
 40
37.0
 10
9.39237001753095
 20
-156.5746977076097
 10
9.39237001753095
 20
-156.5746977076097
 10
12.97527168581111
 20
-156.5526490819587
 10
12.97527168581111
 20
-156.5526490819587
 10
12.97527168581111
 20
-156.5526490819587
 10
12.9311744345092
 20
-167.8415454152476
 10
12.9311744345092
 20
-167.8415454152476
 10
12.9311744345092
 20
-167.8415454152476
 10
-9.87812880140355
 20
-167.8525697280731
 10
-9.87812880140355
 20
-167.8525697280731
 10
-9.87812880140355
 20
-167.8525697280731
 10
-9.767885673148776
 20
-160.6316448273854
 10
-9.767885673148776
 20
-160.6316448273854
 10
-9.767885673148776
 20
-160.6316448273854
 10
-6.151911066392187
 20
-160.5214016991306
 10
-6.151911066392187
 20
-160.5214016991306
 10
-6.151911066392187
 20
-160.5214016991306
 10
-6.173959692043142
 20
-160.630611298058
 10
-6.14088675356671
 20
-160.630611298058
 10
-6.107813815090277
 20
-160.630611298058
 10
-5.600695425118317
 20
-160.4983195441523
 10
-5.567622486641885
 20
-160.4983195441523
 10
-5.534549548165453
 20
-160.4983195441523
 10
-4.895139404287763
 20
-160.4983195441523
 10
-4.895139404287763
 20
-160.4983195441523
 10
-4.895139404287763
 20
-160.4983195441523
 10
-4.321875137362938
 20
-160.5865140467561
 10
-4.321875137362938
 20
-160.5865140467561
 10
-4.321875137362938
 20
-160.5865140467561
 10
-4.002170065424093
 20
-160.5975383595816
 10
-4.002170065424093
 20
-160.5975383595816
 10
-4.002170065424093
 20
-160.5975383595816
 10
-3.913975562820274
 20
-160.554474637607
 10
-3.913975562820274
 20
-160.554474637607
 10
-3.913975562820274
 20
-160.554474637607
 10
-3.924999875645752
 20
-160.554474637607
 10
-3.924999875645752
 20
-160.554474637607
 10
-3.924999875645752
 20
-160.554474637607
 10
-1.521699679691678
 20
-160.5654989504325
 10
-1.521699679691678
 20
-160.5654989504325
 10
-1.521699679691678
 20
-160.5654989504325
 10
-1.5106753668662
 20
-152.4957019621831
 10
-1.5106753668662
 20
-152.4957019621831
 10
-1.5106753668662
 20
-152.4957019621831
 10
-9.824729786155142
 20
-152.4750313756353
 10
-9.824729786155142
 20
-152.4750313756353
 10
-9.824729786155142
 20
-152.4750313756353
 10
-9.791484592790813
 20
-145.2789111788049
 10
-9.791484592790813
 20
-145.2789111788049
 10
-9.791484592790813
 20
-145.2789111788049
 10
-8.625319001720781
 20
-145.2789111788049
 10
-8.625319001720781
 20
-145.2789111788049
 10
-8.625319001720781
 20
-145.2789111788049
 10
-8.55521126234626
 20
-145.3030268631106
 10
-8.55521126234626
 20
-145.3030268631106
 10
-8.55521126234626
 20
-145.3030268631106
 10
-8.197265605294042
 20
-145.1962288326138
 10
-8.197265605294042
 20
-145.1962288326138
 10
-8.197265605294042
 20
-145.1962288326138
 10
-3.688321659673784
 20
-145.1900276566495
 10
-3.688321659673784
 20
-145.1900276566495
 10
-3.688321659673784
 20
-145.1900276566495
 10
-3.374473253923474
 20
-145.309228039075
 10
-3.374473253923474
 20
-145.309228039075
 10
-3.374473253923474
 20
-145.309228039075
 10
-3.386875605852136
 20
-145.309228039075
 10
-3.386875605852136
 20
-145.309228039075
 10
-3.386875605852136
 20
-145.309228039075
 10
12.96424737298563
 20
-145.2858013743208
 10
12.96424737298563
 20
-145.2858013743208
 10
12.96424737298563
 20
-145.2858013743208
 10
12.96424737298563
 20
-152.9917960393295
 10
12.96424737298563
 20
-152.9917960393295
 10
12.96424737298563
 20
-152.9917960393295
 10
8.708862622351353
 20
-152.9917960393295
 10
8.708862622351353
 20
-152.9917960393295
 10
8.708862622351353
 20
-152.9917960393295
 10
8.775008499304217
 20
-153.9839841936225
 10
8.775008499304217
 20
-153.9839841936225
 10
8.775008499304217
 20
-153.9839841936225
 10
9.337248453403564
 20
-153.995008506448
 10
9.337248453403564
 20
-153.995008506448
 10
9.337248453403564
 20
-153.995008506448
 10
9.386685606230314
 20
-156.3101141997982
 10
9.386685606230314
 20
-156.3101141997982
 10
9.386685606230314
 20
-156.3101141997982
 10
8.67217233122906
 20
-156.310458709574
 10
8.67217233122906
 20
-156.310458709574
 10
8.67217233122906
 20
-156.310458709574
 10
8.613433414455814
 20
-161.5139343631994
 10
8.613433414455814
 20
-161.5139343631994
 10
8.613433414455814
 20
-161.5139343631994
 10
9.377728352059615
 20
-161.5139343631994
 10
9.377728352059615
 20
-161.5139343631994
 10
9.377728352059615
 20
-161.5139343631994
 10
9.407183937890187
 20
-160.4556003319535
 10
9.407183937890187
 20
-160.4556003319535
 10
9.407183937890187
 20
-160.4556003319535
 10
8.701627917059632
 20
-160.3377779886312
 10
8.701627917059632
 20
-160.3377779886312
 10
8.701627917059632
 20
-160.3377779886312
 10
8.76036683383288
 20
-158.3682156004045
 10
8.76036683383288
 20
-158.3682156004045
 10
8.76036683383288
 20
-158.3682156004045
 10
8.76036683383288
 20
-158.1329154235358
 10
8.76036683383288
 20
-158.1329154235358
 10
8.76036683383288
 20
-158.1329154235358
 10
9.289533849455795
 20
-158.1329154235358
 10
9.289533849455795
 20
-158.1329154235358
 10
9.289533849455795
 20
-158.1329154235358
 10
9.39237001753095
 20
-156.5746977076097
 10
9.39237001753095
 20
-156.5746977076097
 97
        0
 75
     0
 76
     1
 98
        0
  0
POLYLINE
  5
3E
330
1F
100
AcDbEntity
  8
GRAU_10_
100
AcDb2dPolyline
 66
     1
 10
0.0
 20
0.0
 30
0.0
  0
VERTEX
  5
3F
330
3E
100
AcDbEntity
  8
GRAU_10_
100
AcDbVertex
100
AcDb2dVertex
 10
12.90240786823022
 20
-124.7061654073609
 30
0.0
  0
VERTEX
  5
40
330
3E
100
AcDbEntity
  8
GRAU_10_
100
AcDbVertex
100
AcDb2dVertex
 10
11.23928692557421
 20
-126.2936664542296
 30
0.0
  0
VERTEX
  5
41
330
3E
100
AcDbEntity
  8
GRAU_10_
100
AcDbVertex
100
AcDb2dVertex
 10
4.152204072783325
 20
-126.2368223412233
 30
0.0
  0
VERTEX
  5
42
330
3E
100
AcDbEntity
  8
GRAU_10_
100
AcDbVertex
100
AcDb2dVertex
 10
2.999302108081446
 20
-127.3330524478067
 30
0.0
  0
VERTEX
  5
43
330
3E
100
AcDbEntity
  8
GRAU_10_
100
AcDbVertex
100
AcDb2dVertex
 10
-1.101742262996148
 20
-127.3706040133685
 30
0.0
  0
VERTEX
  5
44
330
3E
100
AcDbEntity
  8
GRAU_10_
100
AcDbVertex
100
AcDb2dVertex
 10
-1.498617524713334
 20
-127.0116248269889
 30
0.0
  0
VERTEX
  5
45
330
3E
100
AcDbEntity
  8
GRAU_10_
100
AcDbVertex
100
AcDb2dVertex
 10
-1.479669487044545
 20
-123.1562159260539
 30
0.0
  0
VERTEX
  5
46
330
3E
100
AcDbEntity
  8
GRAU_10_
100
AcDbVertex
100
AcDb2dVertex
 10
-0.6859189636101721
 20
-122.4572055909635
 30
0.0
  0
VERTEX
  5
47
330
3E
100
AcDbEntity
  8
GRAU_10_
100
AcDbVertex
100
AcDb2dVertex
 10
1.978864152173194
 20
-123.7987266579138
 30
0.0
  0
VERTEX
  5
48
330
3E
100
AcDbEntity
  8
GRAU_10_
100
AcDbVertex
100
AcDb2dVertex
 10
2.583651063583368
 20
-123.7801231300208
 30
0.0
  0
VERTEX
  5
49
330
3E
100
AcDbEntity
  8
GRAU_10_
100
AcDbVertex
100
AcDb2dVertex
 10
2.753666637938778
 20
-123.4397474715342
 30
0.0
  0
VERTEX
  5
4A
330
3E
100
AcDbEntity
  8
GRAU_10_
100
AcDbVertex
100
AcDb2dVertex
 10
2.753666637938778
 20
-117.108691321728
 30
0.0
  0
VERTEX
  5
4B
330
3E
100
AcDbEntity
  8
GRAU_10_
100
AcDbVertex
100
AcDb2dVertex
 10
2.772614675607567
 20
-107.603149842848
 30
0.0
  0
VERTEX
  5
4C
330
3E
100
AcDbEntity
  8
GRAU_10_
100
AcDbVertex
100
AcDb2dVertex
 10
2.583651063583368
 20
-107.395238193155
 30
0.0
  0
VERTEX
  5
4D
330
3E
100
AcDbEntity
  8
GRAU_10_
100
AcDbVertex
100
AcDb2dVertex
 10
2.319067555771911
 20
-107.4331342684926
 30
0.0
  0
VERTEX
  5
4E
330
3E
100
AcDbEntity
  8
GRAU_10_
100
AcDbVertex
100
AcDb2dVertex
 10
0.3536392848547673
 20
-108.6237600536441
 30
0.0
  0
VERTEX
  5
4F
330
3E
100
AcDbEntity
  8
GRAU_10_
100
AcDbVertex
100
AcDb2dVertex
 10
-9.832653510998455
 20
-108.6807764215384
 30
0.0
  0
VERTEX
  5
50
330
3E
100
AcDbEntity
  8
GRAU_10_
100
AcDbVertex
100
AcDb2dVertex
 10
-9.813705473329666
 20
-101.1024226284622
 30
0.0
  0
VERTEX
  5
51
330
3E
100
AcDbEntity
  8
GRAU_10_
100
AcDbVertex
100
AcDb2dVertex
 10
-0.7422463119528457
 20
-101.1024226284622
 30
0.0
  0
VERTEX
  5
52
330
3E
100
AcDbEntity
  8
GRAU_10_
100
AcDbVertex
100
AcDb2dVertex
 10
1.639005258350273
 20
-100.9701308745564
 30
0.0
  0
VERTEX
  5
53
330
3E
100
AcDbEntity
  8
GRAU_10_
100
AcDbVertex
100
AcDb2dVertex
 10
2.508203422684007
 20
-100.8945109787692
 30
0.0
  0
VERTEX
  5
54
330
3E
100
AcDbEntity
  8
GRAU_10_
100
AcDbVertex
100
AcDb2dVertex
 10
3.453193737692899
 20
-100.8755629411004
 30
0.0
  0
VERTEX
  5
55
330
3E
100
AcDbEntity
  8
GRAU_10_
100
AcDbVertex
100
AcDb2dVertex
 10
3.906740857528555
 20
-100.6487032537386
 30
0.0
  0
VERTEX
  5
56
330
3E
100
AcDbEntity
  8
GRAU_10_
100
AcDbVertex
100
AcDb2dVertex
 10
4.171324365340013
 20
-100.1384842757845
 30
0.0
  0
VERTEX
  5
57
330
3E
100
AcDbEntity
  8
GRAU_10_
100
AcDbVertex
100
AcDb2dVertex
 10
4.114307997445747
 20
-94.90383048744961
 30
0.0
  0
VERTEX
  5
58
330
3E
100
AcDbEntity
  8
GRAU_10_
100
AcDbVertex
100
AcDb2dVertex
 10
4.473459438713252
 20
-94.54467904618211
 30
0.0
  0
VERTEX
  5
59
330
3E
100
AcDbEntity
  8
GRAU_10_
100
AcDbVertex
100
AcDb2dVertex
 10
7.213690195395979
 20
-94.54467904618211
 30
0.0
  0
VERTEX
  5
5A
330
3E
100
AcDbEntity
  8
GRAU_10_
100
AcDbVertex
100
AcDb2dVertex
 10
8.21552462341124
 20
-89.13983742860391
 30
0.0
  0
VERTEX
  5
5B
330
3E
100
AcDbEntity
  8
GRAU_10_
100
AcDbVertex
100
AcDb2dVertex
 10
8.725743601365364
 20
-89.13983742860391
 30
0.0
  0
VERTEX
  5
5C
330
3E
100
AcDbEntity
  8
GRAU_10_
100
AcDbVertex
100
AcDb2dVertex
 10
8.933655251058353
 20
-89.23440536205996
 30
0.0
  0
VERTEX
  5
5D
330
3E
100
AcDbEntity
  8
GRAU_10_
100
AcDbVertex
100
AcDb2dVertex
 10
9.406150408562798
 20
-89.38547289874658
 30
0.0
  0
VERTEX
  5
5E
330
3E
100
AcDbEntity
  8
GRAU_10_
100
AcDbVertex
100
AcDb2dVertex
 10
12.92135590589901
 20
-89.5367126903211
 30
0.0
  0
VERTEX
  5
5F
330
3E
100
AcDbEntity
  8
GRAU_10_
100
AcDbVertex
100
AcDb2dVertex
 10
12.90240786823022
 20
-124.7061654073609
 30
0.0
  0
SEQEND
  5
60
330
3E
100
AcDbEntity
  8
GRAU_10_
  0
HATCH
  5
61
330
1F
100
AcDbEntity
  8
GRAU_10_
 62
   255
100
AcDbHatch
 10
0.0
 20
0.0
 30
0.0
210
0.0
220
0.0
230
1.0
  2
SOLID
 70
     1
 71
     0
 91
        1
 92
        1
 93
       32
 72
     1
 10
12.90240786823022
 20
-124.7061654073609
 11
11.23928692557421
 21
-126.2936664542296
 72
     1
 10
11.23928692557421
 20
-126.2936664542296
 11
4.152204072783325
 21
-126.2368223412233
 72
     1
 10
4.152204072783325
 20
-126.2368223412233
 11
2.999302108081446
 21
-127.3330524478067
 72
     1
 10
2.999302108081446
 20
-127.3330524478067
 11
-1.101742262996148
 21
-127.3706040133685
 72
     1
 10
-1.101742262996148
 20
-127.3706040133685
 11
-1.498617524713334
 21
-127.0116248269889
 72
     1
 10
-1.498617524713334
 20
-127.0116248269889
 11
-1.479669487044545
 21
-123.1562159260539
 72
     1
 10
-1.479669487044545
 20
-123.1562159260539
 11
-0.6859189636101721
 21
-122.4572055909635
 72
     1
 10
-0.6859189636101721
 20
-122.4572055909635
 11
1.978864152173194
 21
-123.7987266579138
 72
     1
 10
1.978864152173194
 20
-123.7987266579138
 11
2.583651063583368
 21
-123.7801231300208
 72
     1
 10
2.583651063583368
 20
-123.7801231300208
 11
2.753666637938778
 21
-123.4397474715342
 72
     1
 10
2.753666637938778
 20
-123.4397474715342
 11
2.753666637938778
 21
-117.108691321728
 72
     1
 10
2.753666637938778
 20
-117.108691321728
 11
2.772614675607567
 21
-107.603149842848
 72
     1
 10
2.772614675607567
 20
-107.603149842848
 11
2.583651063583368
 21
-107.395238193155
 72
     1
 10
2.583651063583368
 20
-107.395238193155
 11
2.319067555771911
 21
-107.4331342684926
 72
     1
 10
2.319067555771911
 20
-107.4331342684926
 11
0.3536392848547674
 21
-108.6237600536441
 72
     1
 10
0.3536392848547673
 20
-108.6237600536441
 11
-9.832653510998455
 21
-108.6807764215384
 72
     1
 10
-9.832653510998455
 20
-108.6807764215384
 11
-9.813705473329666
 21
-101.1024226284622
 72
     1
 10
-9.813705473329666
 20
-101.1024226284622
 11
-0.7422463119528455
 21
-101.1024226284622
 72
     1
 10
-0.7422463119528457
 20
-101.1024226284622
 11
1.639005258350273
 21
-100.9701308745564
 72
     1
 10
1.639005258350273
 20
-100.9701308745564
 11
2.508203422684007
 21
-100.8945109787692
 72
     1
 10
2.508203422684007
 20
-100.8945109787692
 11
3.453193737692899
 21
-100.8755629411004
 72
     1
 10
3.453193737692899
 20
-100.8755629411004
 11
3.906740857528555
 21
-100.6487032537386
 72
     1
 10
3.906740857528555
 20
-100.6487032537386
 11
4.171324365340013
 21
-100.1384842757845
 72
     1
 10
4.171324365340013
 20
-100.1384842757845
 11
4.114307997445747
 21
-94.90383048744961
 72
     1
 10
4.114307997445747
 20
-94.90383048744961
 11
4.473459438713252
 21
-94.54467904618211
 72
     1
 10
4.473459438713252
 20
-94.54467904618211
 11
7.213690195395979
 21
-94.54467904618211
 72
     1
 10
7.213690195395979
 20
-94.54467904618211
 11
8.21552462341124
 21
-89.13983742860391
 72
     1
 10
8.21552462341124
 20
-89.13983742860391
 11
8.725743601365364
 21
-89.13983742860391
 72
     1
 10
8.725743601365364
 20
-89.13983742860391
 11
8.933655251058353
 21
-89.23440536205996
 72
     1
 10
8.933655251058353
 20
-89.23440536205996
 11
9.406150408562798
 21
-89.38547289874658
 72
     1
 10
9.406150408562798
 20
-89.38547289874658
 11
12.92135590589901
 21
-89.5367126903211
 72
     1
 10
12.92135590589901
 20
-89.5367126903211
 11
12.90240786823022
 21
-124.7061654073609
 97
        0
 75
     0
 76
     1
 98
        0
  0
SPLINE
  5
62
330
1F
100
AcDbEntity
  8
GRAU_10_
100
AcDbSpline
210
0.0
220
0.0
230
1.0
 70
    11
 71
     3
 72
    38
 73
    34
 74
     0
 42
0.0000000001
 43
0.0000000001
 40
0.0
 40
0.0
 40
0.0
 40
0.0
 40
1.0
 40
1.0
 40
1.0
 40
2.0
 40
2.0
 40
2.0
 40
3.0
 40
3.0
 40
3.0
 40
4.0
 40
4.0
 40
4.0
 40
5.0
 40
5.0
 40
5.0
 40
6.0
 40
6.0
 40
6.0
 40
7.0
 40
7.0
 40
7.0
 40
8.0
 40
8.0
 40
8.0
 40
9.0
 40
9.0
 40
9.0
 40
10.0
 40
10.0
 40
10.0
 40
11.0
 40
11.0
 40
11.0
 40
11.0
 10
50.45276764579734
 20
-127.427103616599
 30
0.0
 10
50.45276764579734
 20
-127.427103616599
 30
0.0
 10
45.14249396167519
 20
-124.2710495605303
 30
0.0
 10
38.4331660780448
 20
-127.3137599003621
 30
0.0
 10
38.4331660780448
 20
-127.3137599003621
 30
0.0
 10
33.16044395948444
 20
-118.2800245594349
 30
0.0
 10
33.16044395948444
 20
-118.2800245594349
 30
0.0
 10
33.16044395948444
 20
-118.2800245594349
 30
0.0
 10
33.16044395948444
 20
-107.6029775879601
 30
0.0
 10
33.16044395948444
 20
-107.6029775879601
 30
0.0
 10
33.16044395948444
 20
-107.6029775879601
 30
0.0
 10
33.16044395948444
 20
-107.6029775879601
 30
0.0
 10
33.16044395948444
 20
-107.6029775879601
 30
0.0
 10
33.16044395948444
 20
-107.6029775879601
 30
0.0
 10
33.2362361101596
 20
-103.1050579551653
 30
0.0
 10
33.2362361101596
 20
-103.1050579551653
 30
0.0
 10
33.2362361101596
 20
-103.1050579551653
 30
0.0
 10
33.17939199715322
 20
-103.0861099174965
 30
0.0
 10
33.17939199715322
 20
-103.0861099174965
 30
0.0
 10
33.17939199715322
 20
-103.0861099174965
 30
0.0
 10
33.21694356271501
 20
-90.44346242021662
 30
0.0
 10
33.21694356271501
 20
-90.44346242021662
 30
0.0
 10
33.21694356271501
 20
-90.44346242021662
 30
0.0
 10
38.73564566119384
 20
-89.02666596725487
 30
0.0
 10
44.42419107914018
 20
-89.10228586304213
 30
0.0
 10
44.42419107914018
 20
-89.10228586304213
 30
0.0
 10
52.58803923618199
 20
-89.36669711596569
 30
0.0
 10
55.70654172668891
 20
-90.4439791848803
 30
0.0
 10
55.70654172668891
 20
-90.4439791848803
 30
0.0
 10
55.7068862364647
 20
-118.3000061264311
 30
0.0
 10
55.7068862364647
 20
-118.3000061264311
 30
0.0
 10
55.7068862364647
 20
-118.3000061264311
 30
0.0
 10
50.45276764579734
 20
-127.427103616599
 30
0.0
 10
50.45276764579734
 20
-127.427103616599
 30
0.0
  0
HATCH
  5
63
330
1F
100
AcDbEntity
  8
GRAU_10_
 62
   255
100
AcDbHatch
 10
0.0
 20
0.0
 30
0.0
210
0.0
220
0.0
230
1.0
  2
SOLID
 70
     1
 71
     0
 91
        1
 92
        1
 93
        1
 72
     4
 94
        3
 73
     0
 74
     1
 95
       38
 96
       34
 40
0.0
 40
0.0
 40
0.0
 40
0.0
 40
1.0
 40
1.0
 40
1.0
 40
2.0
 40
2.0
 40
2.0
 40
3.0
 40
3.0
 40
3.0
 40
4.0
 40
4.0
 40
4.0
 40
5.0
 40
5.0
 40
5.0
 40
6.0
 40
6.0
 40
6.0
 40
7.0
 40
7.0
 40
7.0
 40
8.0
 40
8.0
 40
8.0
 40
9.0
 40
9.0
 40
9.0
 40
10.0
 40
10.0
 40
10.0
 40
11.0
 40
11.0
 40
11.0
 40
11.0
 10
50.45276764579734
 20
-127.427103616599
 10
50.45276764579734
 20
-127.427103616599
 10
45.14249396167519
 20
-124.2710495605303
 10
38.4331660780448
 20
-127.3137599003621
 10
38.4331660780448
 20
-127.3137599003621
 10
33.16044395948444
 20
-118.2800245594349
 10
33.16044395948444
 20
-118.2800245594349
 10
33.16044395948444
 20
-118.2800245594349
 10
33.16044395948444
 20
-107.6029775879601
 10
33.16044395948444
 20
-107.6029775879601
 10
33.16044395948444
 20
-107.6029775879601
 10
33.16044395948444
 20
-107.6029775879601
 10
33.16044395948444
 20
-107.6029775879601
 10
33.16044395948444
 20
-107.6029775879601
 10
33.2362361101596
 20
-103.1050579551653
 10
33.2362361101596
 20
-103.1050579551653
 10
33.2362361101596
 20
-103.1050579551653
 10
33.17939199715322
 20
-103.0861099174965
 10
33.17939199715322
 20
-103.0861099174965
 10
33.17939199715322
 20
-103.0861099174965
 10
33.21694356271501
 20
-90.44346242021662
 10
33.21694356271501
 20
-90.44346242021662
 10
33.21694356271501
 20
-90.44346242021662
 10
38.73564566119384
 20
-89.02666596725487
 10
44.42419107914018
 20
-89.10228586304213
 10
44.42419107914018
 20
-89.10228586304213
 10
52.58803923618199
 20
-89.36669711596569
 10
55.70654172668891
 20
-90.4439791848803
 10
55.70654172668891
 20
-90.4439791848803
 10
55.7068862364647
 20
-118.3000061264311
 10
55.7068862364647
 20
-118.3000061264311
 10
55.7068862364647
 20
-118.3000061264311
 10
50.45276764579734
 20
-127.427103616599
 10
50.45276764579734
 20
-127.427103616599
 97
        0
 75
     0
 76
     1
 98
        0
  0
POLYLINE
  5
65
330
1F
100
AcDbEntity
  8
STANDARDEBENE
 62
     7
100
AcDb2dPolyline
 66
     1
 10
0.0
 20
0.0
 30
0.0
  0
VERTEX
  5
66
330
65
100
AcDbEntity
  8
STANDARDEBENE
 62
     7
100
AcDbVertex
100
AcDb2dVertex
 10
46.83231441195539
 20
-82.05430486980411
 30
0.0
  0
VERTEX
  5
67
330
65
100
AcDbEntity
  8
STANDARDEBENE
 62
     7
100
AcDbVertex
100
AcDb2dVertex
 10
46.98389871330571
 20
-80.80924654007676
 30
0.0
  0
VERTEX
  5
68
330
65
100
AcDbEntity
  8
STANDARDEBENE
 62
     7
100
AcDbVertex
100
AcDb2dVertex
 10
47.03970929698469
 20
-79.5543696817392
 30
0.0
  0
SEQEND
  5
69
330
65
100
AcDbEntity
  8
STANDARDEBENE
  0
POLYLINE
  5
6A
330
1F
100
AcDbEntity
  8
STANDARDEBENE
 62
     7
100
AcDb2dPolyline
 66
     1
 10
0.0
 20
0.0
 30
0.0
  0
VERTEX
  5
6B
330
6A
100
AcDbEntity
  8
STANDARDEBENE
 62
     7
100
AcDbVertex
100
AcDb2dVertex
 10
47.03970929698469
 20
-84.55406780298111
 30
0.0
  0
VERTEX
  5
6C
330
6A
100
AcDbEntity
  8
STANDARDEBENE
 62
     7
100
AcDbVertex
100
AcDb2dVertex
 10
46.98458773285731
 20
-83.3041863363926
 30
0.0
  0
VERTEX
  5
6D
330
6A
100
AcDbEntity
  8
STANDARDEBENE
 62
     7
100
AcDbVertex
100
AcDb2dVertex
 10
46.83231441195539
 20
-82.05430486980411
 30
0.0
  0
SEQEND
  5
6E
330
6A
100
AcDbEntity
  8
STANDARDEBENE
  0
POLYLINE
  5
6F
330
1F
100
AcDbEntity
  8
STANDARDEBENE
 62
     7
100
AcDb2dPolyline
 66
     1
 10
0.0
 20
0.0
 30
0.0
  0
VERTEX
  5
70
330
6F
100
AcDbEntity
  8
STANDARDEBENE
 62
     7
100
AcDbVertex
100
AcDb2dVertex
 10
46.83231441195539
 20
-87.054002991046
 30
0.0
  0
VERTEX
  5
71
330
6F
100
AcDbEntity
  8
STANDARDEBENE
 62
     7
100
AcDbVertex
100
AcDb2dVertex
 10
46.98389871330571
 20
-85.80946142598235
 30
0.0
  0
VERTEX
  5
72
330
6F
100
AcDbEntity
  8
STANDARDEBENE
 62
     7
100
AcDbVertex
100
AcDb2dVertex
 10
47.03970929698469
 20
-84.55406780298111
 30
0.0
  0
SEQEND
  5
73
330
6F
100
AcDbEntity
  8
STANDARDEBENE
  0
POLYLINE
  5
74
330
1F
100
AcDbEntity
  8
STANDARDEBENE
 62
     7
100
AcDb2dPolyline
 66
     1
 10
0.0
 20
0.0
 30
0.0
  0
VERTEX
  5
75
330
74
100
AcDbEntity
  8
STANDARDEBENE
 62
     7
100
AcDbVertex
100
AcDb2dVertex
 10
46.83231441195539
 20
-87.054002991046
 30
0.0
  0
VERTEX
  5
76
330
74
100
AcDbEntity
  8
STANDARDEBENE
 62
     7
100
AcDbVertex
100
AcDb2dVertex
 10
46.98389871330571
 20
-87.054002991046
 30
0.0
  0
VERTEX
  5
77
330
74
100
AcDbEntity
  8
STANDARDEBENE
 62
     7
100
AcDbVertex
100
AcDb2dVertex
 10
47.03970929698469
 20
-87.054002991046
 30
0.0
  0
SEQEND
  5
78
330
74
100
AcDbEntity
  8
STANDARDEBENE
  0
POLYLINE
  5
79
330
1F
100
AcDbEntity
  8
STANDARDEBENE
 62
     7
100
AcDb2dPolyline
 66
     1
 10
0.0
 20
0.0
 30
0.0
  0
VERTEX
  5
7A
330
79
100
AcDbEntity
  8
STANDARDEBENE
 62
     7
100
AcDbVertex
100
AcDb2dVertex
 10
47.03970929698469
 20
-79.5543696817392
 30
0.0
  0
VERTEX
  5
7B
330
79
100
AcDbEntity
  8
STANDARDEBENE
 62
     7
100
AcDbVertex
100
AcDb2dVertex
 10
46.98458773285731
 20
-78.30414370537491
 30
0.0
  0
VERTEX
  5
7C
330
79
100
AcDbEntity
  8
STANDARDEBENE
 62
     7
100
AcDbVertex
100
AcDb2dVertex
 10
46.83231441195539
 20
-77.05443449367431
 30
0.0
  0
VERTEX
  5
7D
330
79
100
AcDbEntity
  8
STANDARDEBENE
 62
     7
100
AcDbVertex
100
AcDb2dVertex
 10
46.88433538810062
 20
-77.05443449367431
 30
0.0
  0
VERTEX
  5
7E
330
79
100
AcDbEntity
  8
STANDARDEBENE
 62
     7
100
AcDbVertex
100
AcDb2dVertex
 10
47.03970929698469
 20
-77.05443449367431
 30
0.0
  0
SEQEND
  5
7F
330
79
100
AcDbEntity
  8
STANDARDEBENE
  0
POLYLINE
  5
80
330
1F
100
AcDbEntity
  8
STANDARDEBENE
 62
     7
100
AcDb2dPolyline
 66
     1
 10
0.0
 20
0.0
 30
0.0
  0
VERTEX
  5
81
330
80
100
AcDbEntity
  8
STANDARDEBENE
 62
     7
100
AcDbVertex
100
AcDb2dVertex
 10
-45.70645646465352
 20
-170.6534342052959
 30
0.0
  0
VERTEX
  5
82
330
80
100
AcDbEntity
  8
STANDARDEBENE
 62
     7
100
AcDbVertex
100
AcDb2dVertex
 10
-44.93320427287902
 20
-170.8601400707736
 30
0.0
  0
SEQEND
  5
83
330
80
100
AcDbEntity
  8
STANDARDEBENE
  0
POLYLINE
  5
84
330
1F
100
AcDbEntity
  8
STANDARDEBENE
 62
     7
100
AcDb2dPolyline
 66
     1
 10
0.0
 20
0.0
 30
0.0
  0
VERTEX
  5
85
330
84
100
AcDbEntity
  8
STANDARDEBENE
 62
     7
100
AcDbVertex
100
AcDb2dVertex
 10
-34.93363577550732
 20
-170.8601400707736
 30
0.0
  0
VERTEX
  5
86
330
84
100
AcDbEntity
  8
STANDARDEBENE
 62
     7
100
AcDbVertex
100
AcDb2dVertex
 10
-34.15952230929332
 20
-170.6534342052959
 30
0.0
  0
SEQEND
  5
87
330
84
100
AcDbEntity
  8
STANDARDEBENE
  0
POLYLINE
  5
88
330
1F
100
AcDbEntity
  8
STANDARDEBENE
 62
     7
100
AcDb2dPolyline
 66
     1
 10
0.0
 20
0.0
 30
0.0
  0
VERTEX
  5
89
330
88
100
AcDbEntity
  8
STANDARDEBENE
 62
     7
100
AcDbVertex
100
AcDb2dVertex
 10
-7.432970667690241
 20
-204.3602706691931
 30
0.0
  0
VERTEX
  5
8A
330
88
100
AcDbEntity
  8
STANDARDEBENE
 62
     7
100
AcDbVertex
100
AcDb2dVertex
 10
-5.933491868537416
 20
-204.3602706691931
 30
0.0
  0
SEQEND
  5
8B
330
88
100
AcDbEntity
  8
STANDARDEBENE
  0
POLYLINE
  5
8C
330
1F
100
AcDbEntity
  8
STANDARDEBENE
 62
     7
100
AcDb2dPolyline
 66
     1
 10
0.0
 20
0.0
 30
0.0
  0
VERTEX
  5
8D
330
8C
100
AcDbEntity
  8
STANDARDEBENE
 62
     7
100
AcDbVertex
100
AcDb2dVertex
 10
-5.933491868537416
 20
-199.3600557832875
 30
0.0
  0
VERTEX
  5
8E
330
8C
100
AcDbEntity
  8
STANDARDEBENE
 62
     7
100
AcDbVertex
100
AcDb2dVertex
 10
-7.432970667690241
 20
-199.3600557832875
 30
0.0
  0
SEQEND
  5
8F
330
8C
100
AcDbEntity
  8
STANDARDEBENE
  0
POLYLINE
  5
90
330
1F
100
AcDbEntity
  8
STANDARDEBENE
 62
     7
100
AcDb2dPolyline
 66
     1
 10
0.0
 20
0.0
 30
0.0
  0
VERTEX
  5
91
330
90
100
AcDbEntity
  8
STANDARDEBENE
 62
     7
100
AcDbVertex
100
AcDb2dVertex
 10
-7.432970667690241
 20
-199.8516712333486
 30
0.0
  0
VERTEX
  5
92
330
90
100
AcDbEntity
  8
STANDARDEBENE
 62
     7
100
AcDbVertex
100
AcDb2dVertex
 10
-5.933491868537416
 20
-199.8516712333486
 30
0.0
  0
SEQEND
  5
93
330
90
100
AcDbEntity
  8
STANDARDEBENE
  0
POLYLINE
  5
94
330
1F
100
AcDbEntity
  8
STANDARDEBENE
 62
     7
100
AcDb2dPolyline
 66
     1
 10
0.0
 20
0.0
 30
0.0
  0
VERTEX
  5
95
330
94
100
AcDbEntity
  8
STANDARDEBENE
 62
     7
100
AcDbVertex
100
AcDb2dVertex
 10
-7.432970667690241
 20
-203.8693442386835
 30
0.0
  0
VERTEX
  5
96
330
94
100
AcDbEntity
  8
STANDARDEBENE
 62
     7
100
AcDbVertex
100
AcDb2dVertex
 10
-5.933491868537416
 20
-203.8693442386835
 30
0.0
  0
SEQEND
  5
97
330
94
100
AcDbEntity
  8
STANDARDEBENE
  0
POLYLINE
  5
98
330
1F
100
AcDbEntity
  8
STANDARDEBENE
 62
     7
100
AcDb2dPolyline
 66
     1
 10
0.0
 20
0.0
 30
0.0
  0
VERTEX
  5
99
330
98
100
AcDbEntity
  8
STANDARDEBENE
 62
     7
100
AcDbVertex
100
AcDb2dVertex
 10
-45.70645646465352
 20
-170.6534342052959
 30
0.0
  0
VERTEX
  5
9A
330
98
100
AcDbEntity
  8
STANDARDEBENE
 62
     7
100
AcDbVertex
100
AcDb2dVertex
 10
-44.9883258370064
 20
-170.8050185066462
 30
0.0
  0
VERTEX
  5
9B
330
98
100
AcDbEntity
  8
STANDARDEBENE
 62
     7
100
AcDbVertex
100
AcDb2dVertex
 10
-44.26330501384336
 20
-170.8601400707736
 30
0.0
  0
SEQEND
  5
9C
330
98
100
AcDbEntity
  8
STANDARDEBENE
  0
POLYLINE
  5
9D
330
1F
100
AcDbEntity
  8
STANDARDEBENE
 62
     7
100
AcDb2dPolyline
 66
     1
 10
0.0
 20
0.0
 30
0.0
  0
VERTEX
  5
9E
330
9D
100
AcDbEntity
  8
STANDARDEBENE
 62
     7
100
AcDbVertex
100
AcDb2dVertex
 10
-44.26330501384336
 20
-170.8601400707736
 30
0.0
  0
VERTEX
  5
9F
330
9D
100
AcDbEntity
  8
STANDARDEBENE
 62
     7
100
AcDbVertex
100
AcDb2dVertex
 10
-43.54172928843829
 20
-170.8057075261978
 30
0.0
  0
VERTEX
  5
A0
330
9D
100
AcDbEntity
  8
STANDARDEBENE
 62
     7
100
AcDbVertex
100
AcDb2dVertex
 10
-42.81980905325742
 20
-170.6534342052959
 30
0.0
  0
VERTEX
  5
A1
330
9D
100
AcDbEntity
  8
STANDARDEBENE
 62
     7
100
AcDbVertex
100
AcDb2dVertex
 10
-42.40450251853514
 20
-170.7061442009928
 30
0.0
  0
VERTEX
  5
A2
330
9D
100
AcDbEntity
  8
STANDARDEBENE
 62
     7
100
AcDbVertex
100
AcDb2dVertex
 10
-39.93316164186132
 20
-170.8601400707736
 30
0.0
  0
SEQEND
  5
A3
330
9D
100
AcDbEntity
  8
STANDARDEBENE
  0
POLYLINE
  5
A4
330
1F
100
AcDbEntity
  8
STANDARDEBENE
 62
     7
100
AcDb2dPolyline
 66
     1
 10
0.0
 20
0.0
 30
0.0
  0
VERTEX
  5
A5
330
A4
100
AcDbEntity
  8
STANDARDEBENE
 62
     7
100
AcDbVertex
100
AcDb2dVertex
 10
-34.15952230929332
 20
-170.6534342052959
 30
0.0
  0
VERTEX
  5
A6
330
A4
100
AcDbEntity
  8
STANDARDEBENE
 62
     7
100
AcDbVertex
100
AcDb2dVertex
 10
-34.87799744671624
 20
-170.8050185066462
 30
0.0
  0
VERTEX
  5
A7
330
A4
100
AcDbEntity
  8
STANDARDEBENE
 62
     7
100
AcDbVertex
100
AcDb2dVertex
 10
-35.60336277965507
 20
-170.8601400707736
 30
0.0
  0
SEQEND
  5
A8
330
A4
100
AcDbEntity
  8
STANDARDEBENE
  0
POLYLINE
  5
A9
330
1F
100
AcDbEntity
  8
STANDARDEBENE
 62
     7
100
AcDb2dPolyline
 66
     1
 10
0.0
 20
0.0
 30
0.0
  0
VERTEX
  5
AA
330
A9
100
AcDbEntity
  8
STANDARDEBENE
 62
     7
100
AcDbVertex
100
AcDb2dVertex
 10
-35.60336277965507
 20
-170.8601400707736
 30
0.0
  0
VERTEX
  5
AB
330
A9
100
AcDbEntity
  8
STANDARDEBENE
 62
     7
100
AcDbVertex
100
AcDb2dVertex
 10
-36.32459399528435
 20
-170.8057075261978
 30
0.0
  0
VERTEX
  5
AC
330
A9
100
AcDbEntity
  8
STANDARDEBENE
 62
     7
100
AcDbVertex
100
AcDb2dVertex
 10
-37.04651423046522
 20
-170.6534342052959
 30
0.0
  0
SEQEND
  5
AD
330
A9
100
AcDbEntity
  8
STANDARDEBENE
  0
POLYLINE
  5
AE
330
1F
100
AcDbEntity
  8
STANDARDEBENE
 62
     7
100
AcDb2dPolyline
 66
     1
 10
0.0
 20
0.0
 30
0.0
  0
VERTEX
  5
AF
330
AE
100
AcDbEntity
  8
STANDARDEBENE
 62
     7
100
AcDbVertex
100
AcDb2dVertex
 10
-39.93316164186132
 20
-170.8601400707736
 30
0.0
  0
VERTEX
  5
B0
330
AE
100
AcDbEntity
  8
STANDARDEBENE
 62
     7
100
AcDbVertex
100
AcDb2dVertex
 10
-38.48966568127537
 20
-170.8057075261978
 30
0.0
  0
VERTEX
  5
B1
330
AE
100
AcDbEntity
  8
STANDARDEBENE
 62
     7
100
AcDbVertex
100
AcDb2dVertex
 10
-37.04651423046522
 20
-170.6534342052959
 30
0.0
  0
SEQEND
  5
B2
330
AE
100
AcDbEntity
  8
STANDARDEBENE
  0
POLYLINE
  5
B3
330
1F
100
AcDbEntity
  8
STANDARDEBENE
  6
AI-LINETYPE-1
 62
     7
100
AcDb2dPolyline
 66
     1
 10
0.0
 20
0.0
 30
0.0
  0
VERTEX
  5
B4
330
B3
100
AcDbEntity
  8
STANDARDEBENE
  6
AI-LINETYPE-1
 62
     7
100
AcDbVertex
100
AcDb2dVertex
 10
72.03975019718527
 20
-163.7525588863229
 30
0.0
  0
VERTEX
  5
B5
330
B3
100
AcDbEntity
  8
STANDARDEBENE
  6
AI-LINETYPE-1
 62
     7
100
AcDbVertex
100
AcDb2dVertex
 10
72.03975019718527
 20
-43.33760724627906
 30
0.0
  0
SEQEND
  5
B6
330
B3
100
AcDbEntity
  8
STANDARDEBENE
  6
AI-LINETYPE-1
  0
POLYLINE
  5
B8
330
1F
100
AcDbEntity
  8
STANDARDEBENE
  6
AI-LINETYPE-2
 62
     7
100
AcDb2dPolyline
 66
     1
 10
0.0
 20
0.0
 30
0.0
  0
VERTEX
  5
B9
330
B8
100
AcDbEntity
  8
STANDARDEBENE
  6
AI-LINETYPE-2
 62
     7
100
AcDbVertex
100
AcDb2dVertex
 10
3.043571614271254
 20
-195.8608699905258
 30
0.0
  0
VERTEX
  5
BA
330
B8
100
AcDbEntity
  8
STANDARDEBENE
  6
AI-LINETYPE-2
 62
     7
100
AcDbVertex
100
AcDb2dVertex
 10
-51.17606592008139
 20
-195.8608699905258
 30
0.0
  0
SEQEND
  5
BB
330
B8
100
AcDbEntity
  8
STANDARDEBENE
  6
AI-LINETYPE-2
  0
POLYLINE
  5
BD
330
1F
100
AcDbEntity
  8
STANDARDEBENE
  6
AI-LINETYPE-3
 62
     7
100
AcDb2dPolyline
 66
     1
 10
0.0
 20
0.0
 30
0.0
  0
VERTEX
  5
BE
330
BD
100
AcDbEntity
  8
STANDARDEBENE
  6
AI-LINETYPE-3
 62
     7
100
AcDbVertex
100
AcDb2dVertex
 10
85.80015966203585
 20
-130.2203888787544
 30
0.0
  0
VERTEX
  5
BF
330
BD
100
AcDbEntity
  8
STANDARDEBENE
  6
AI-LINETYPE-3
 62
     7
100
AcDbVertex
100
AcDb2dVertex
 10
71.28940790550122
 20
-155.3527215328607
 30
0.0
  0
SEQEND
  5
C0
330
BD
100
AcDbEntity
  8
STANDARDEBENE
  6
AI-LINETYPE-3
  0
POLYLINE
  5
C2
330
1F
100
AcDbEntity
  8
STANDARDEBENE
  6
AI-LINETYPE-4
 62
     7
100
AcDb2dPolyline
 66
     1
 10
0.0
 20
0.0
 30
0.0
  0
VERTEX
  5
C3
330
C2
100
AcDbEntity
  8
STANDARDEBENE
  6
AI-LINETYPE-4
 62
     7
100
AcDbVertex
100
AcDb2dVertex
 10
58.27830720300731
 20
-130.2203888787544
 30
0.0
  0
VERTEX
  5
C4
330
C2
100
AcDbEntity
  8
STANDARDEBENE
  6
AI-LINETYPE-4
 62
     7
100
AcDbVertex
100
AcDb2dVertex
 10
72.78905895954195
 20
-155.3527215328607
 30
0.0
  0
SEQEND
  5
C5
330
C2
100
AcDbEntity
  8
STANDARDEBENE
  6
AI-LINETYPE-4
  0
POLYLINE
  5
C7
330
1F
100
AcDbEntity
  8
STANDARDEBENE
 62
     7
100
AcDb2dPolyline
 66
     1
 10
0.0
 20
0.0
 30
0.0
  0
VERTEX
  5
C8
330
C7
100
AcDbEntity
  8
STANDARDEBENE
 62
     7
100
AcDbVertex
100
AcDb2dVertex
 10
-16.43294405058936
 20
-58.05385908407611
 30
0.0
  0
VERTEX
  5
C9
330
C7
100
AcDbEntity
  8
STANDARDEBENE
 62
     7
100
AcDbVertex
100
AcDb2dVertex
 10
-17.43288367483774
 20
-59.05414321810029
 30
0.0
  0
SEQEND
  5
CA
330
C7
100
AcDbEntity
  8
STANDARDEBENE
  0
POLYLINE
  5
CB
330
1F
100
AcDbEntity
  8
STANDARDEBENE
 62
     7
100
AcDb2dPolyline
 66
     1
 10
0.0
 20
0.0
 30
0.0
  0
VERTEX
  5
CC
330
CB
100
AcDbEntity
  8
STANDARDEBENE
 62
     7
100
AcDbVertex
100
AcDb2dVertex
 10
-8.433599311490214
 20
-46.05389457354396
 30
0.0
  0
VERTEX
  5
CD
330
CB
100
AcDbEntity
  8
STANDARDEBENE
 62
     7
100
AcDbVertex
100
AcDb2dVertex
 10
-10.54923384465449
 20
-58.05385908407611
 30
0.0
  0
SEQEND
  5
CE
330
CB
100
AcDbEntity
  8
STANDARDEBENE
  0
POLYLINE
  5
CF
330
1F
100
AcDbEntity
  8
STANDARDEBENE
 62
     7
100
AcDb2dPolyline
 66
     1
 10
0.0
 20
0.0
 30
0.0
  0
VERTEX
  5
D0
330
CF
100
AcDbEntity
  8
STANDARDEBENE
 62
     7
100
AcDbVertex
100
AcDb2dVertex
 10
-7.432970667690241
 20
-46.05389457354396
 30
0.0
  0
VERTEX
  5
D1
330
CF
100
AcDbEntity
  8
STANDARDEBENE
 62
     7
100
AcDbVertex
100
AcDb2dVertex
 10
-8.433599311490214
 20
-46.05389457354396
 30
0.0
  0
SEQEND
  5
D2
330
CF
100
AcDbEntity
  8
STANDARDEBENE
  0
POLYLINE
  5
D3
330
1F
100
AcDbEntity
  8
STANDARDEBENE
 62
     7
100
AcDb2dPolyline
 66
     1
 10
0.0
 20
0.0
 30
0.0
  0
VERTEX
  5
D4
330
D3
100
AcDbEntity
  8
STANDARDEBENE
 62
     7
100
AcDbVertex
100
AcDb2dVertex
 10
-20.4668090153867
 20
-88.30767406516827
 30
0.0
  0
VERTEX
  5
D5
330
D3
100
AcDbEntity
  8
STANDARDEBENE
 62
     7
100
AcDbVertex
100
AcDb2dVertex
 10
-20.66628017557268
 20
-89.05405449443067
 30
0.0
  0
SEQEND
  5
D6
330
D3
100
AcDbEntity
  8
STANDARDEBENE
  0
POLYLINE
  5
D7
330
1F
100
AcDbEntity
  8
STANDARDEBENE
 62
     7
100
AcDb2dPolyline
 66
     1
 10
0.0
 20
0.0
 30
0.0
  0
VERTEX
  5
D8
330
D7
100
AcDbEntity
  8
STANDARDEBENE
 62
     7
100
AcDbVertex
100
AcDb2dVertex
 10
-19.43327968799819
 20
-72.05404735288081
 30
0.0
  0
VERTEX
  5
D9
330
D7
100
AcDbEntity
  8
STANDARDEBENE
 62
     7
100
AcDbVertex
100
AcDb2dVertex
 10
-21.46244226743762
 20
-72.05404735288081
 30
0.0
  0
SEQEND
  5
DA
330
D7
100
AcDbEntity
  8
STANDARDEBENE
  0
POLYLINE
  5
DB
330
1F
100
AcDbEntity
  8
STANDARDEBENE
 62
     7
100
AcDb2dPolyline
 66
     1
 10
0.0
 20
0.0
 30
0.0
  0
VERTEX
  5
DC
330
DB
100
AcDbEntity
  8
STANDARDEBENE
 62
     7
100
AcDbVertex
100
AcDb2dVertex
 10
-10.54923384465449
 20
-58.05385908407611
 30
0.0
  0
VERTEX
  5
DD
330
DB
100
AcDbEntity
  8
STANDARDEBENE
 62
     7
100
AcDbVertex
100
AcDb2dVertex
 10
-16.43294405058936
 20
-58.05385908407611
 30
0.0
  0
SEQEND
  5
DE
330
DB
100
AcDbEntity
  8
STANDARDEBENE
  0
POLYLINE
  5
DF
330
1F
100
AcDbEntity
  8
STANDARDEBENE
 62
     7
100
AcDb2dPolyline
 66
     1
 10
0.0
 20
0.0
 30
0.0
  0
VERTEX
  5
E0
330
DF
100
AcDbEntity
  8
STANDARDEBENE
 62
     7
100
AcDbVertex
100
AcDb2dVertex
 10
-20.4668090153867
 20
-108.054457649141
 30
0.0
  0
VERTEX
  5
E1
330
DF
100
AcDbEntity
  8
STANDARDEBENE
 62
     7
100
AcDbVertex
100
AcDb2dVertex
 10
-20.66628017557268
 20
-108.054457649141
 30
0.0
  0
SEQEND
  5
E2
330
DF
100
AcDbEntity
  8
STANDARDEBENE
  0
POLYLINE
  5
E3
330
1F
100
AcDbEntity
  8
STANDARDEBENE
 62
     7
100
AcDb2dPolyline
 66
     1
 10
0.0
 20
0.0
 30
0.0
  0
VERTEX
  5
E4
330
E3
100
AcDbEntity
  8
STANDARDEBENE
 62
     7
100
AcDbVertex
100
AcDb2dVertex
 10
-22.71645785133568
 20
-122.9601898636259
 30
0.0
  0
VERTEX
  5
E5
330
E3
100
AcDbEntity
  8
STANDARDEBENE
 62
     7
100
AcDbVertex
100
AcDb2dVertex
 10
-28.18313897366929
 20
-119.804480317333
 30
0.0
  0
VERTEX
  5
E6
330
E3
100
AcDbEntity
  8
STANDARDEBENE
 62
     7
100
AcDbVertex
100
AcDb2dVertex
 10
-29.93324863471382
 20
-121.5539009588259
 30
0.0
  0
SEQEND
  5
E7
330
E3
100
AcDbEntity
  8
STANDARDEBENE
  0
SPLINE
  5
E8
330
1F
100
AcDbEntity
  8
STANDARDEBENE
 62
     7
100
AcDbSpline
210
0.0
220
0.0
230
1.0
 70
     8
 71
     3
 72
     8
 73
     4
 74
     0
 42
0.0000000001
 43
0.0000000001
 40
0.0
 40
0.0
 40
0.0
 40
0.0
 40
1.0
 40
1.0
 40
1.0
 40
1.0
 10
-19.43327968799819
 20
-72.05404735288081
 30
0.0
 10
-18.32895360168357
 20
-72.05404735288081
 30
0.0
 10
-17.43288367483774
 20
-71.15866644558658
 30
0.0
 10
-17.43288367483774
 20
-70.05434035927195
 30
0.0
  0
SPLINE
  5
E9
330
1F
100
AcDbEntity
  8
STANDARDEBENE
 62
     7
100
AcDbSpline
210
0.0
220
0.0
230
1.0
 70
     8
 71
     3
 72
    11
 73
     7
 74
     0
 42
0.0000000001
 43
0.0000000001
 40
0.0
 40
0.0
 40
0.0
 40
0.0
 40
1.0
 40
1.0
 40
1.0
 40
2.0
 40
2.0
 40
2.0
 40
2.0
 10
-22.71645785133568
 20
-122.9601898636259
 30
0.0
 10
-22.47771257670894
 20
-123.0990273032718
 30
0.0
 10
-22.21622965687964
 20
-123.1631061215699
 30
0.0
 10
-21.96628781453952
 20
-123.1610390629151
 30
0.0
 10
-21.41386638905037
 20
-123.1610390629151
 30
0.0
 10
-20.93034691872044
 20
-122.8616600677482
 30
0.0
 10
-20.66628017557268
 20
-122.4100077516794
 30
0.0
  0
POLYLINE
  5
EA
330
1F
100
AcDbEntity
  8
STANDARDEBENE
 62
     7
100
AcDb2dPolyline
 66
     1
 10
0.0
 20
0.0
 30
0.0
  0
VERTEX
  5
EB
330
EA
100
AcDbEntity
  8
STANDARDEBENE
 62
     7
100
AcDbVertex
100
AcDb2dVertex
 10
-7.432970667690241
 20
-46.34069896189426
 30
0.0
  0
VERTEX
  5
EC
330
EA
100
AcDbEntity
  8
STANDARDEBENE
 62
     7
100
AcDbVertex
100
AcDb2dVertex
 10
-5.933491868537416
 20
-46.34069896189426
 30
0.0
  0
SEQEND
  5
ED
330
EA
100
AcDbEntity
  8
STANDARDEBENE
  0
POLYLINE
  5
EE
330
1F
100
AcDbEntity
  8
STANDARDEBENE
 62
     7
100
AcDb2dPolyline
 66
     1
 10
0.0
 20
0.0
 30
0.0
  0
VERTEX
  5
EF
330
EE
100
AcDbEntity
  8
STANDARDEBENE
 62
     7
100
AcDbVertex
100
AcDb2dVertex
 10
2.067058654777013
 20
-122.8744069294527
 30
0.0
  0
VERTEX
  5
F0
330
EE
100
AcDbEntity
  8
STANDARDEBENE
 62
     7
100
AcDbVertex
100
AcDb2dVertex
 10
2.067058654777013
 20
-125.0579098884488
 30
0.0
  0
VERTEX
  5
F1
330
EE
100
AcDbEntity
  8
STANDARDEBENE
 62
     7
100
AcDbVertex
100
AcDb2dVertex
 10
0.0954292078955388
 20
-126.7684009252768
 30
0.0
  0
VERTEX
  5
F2
330
EE
100
AcDbEntity
  8
STANDARDEBENE
 62
     7
100
AcDbVertex
100
AcDb2dVertex
 10
-1.933044351992303
 20
-128.527467840492
 30
0.0
  0
SEQEND
  5
F3
330
EE
100
AcDbEntity
  8
STANDARDEBENE
  0
POLYLINE
  5
F4
330
1F
100
AcDbEntity
  8
STANDARDEBENE
 62
     7
100
AcDb2dPolyline
 66
     1
 10
0.0
 20
0.0
 30
0.0
  0
VERTEX
  5
F5
330
F4
100
AcDbEntity
  8
STANDARDEBENE
 62
     7
100
AcDbVertex
100
AcDb2dVertex
 10
2.067058654777013
 20
-46.93273901159998
 30
0.0
  0
VERTEX
  5
F6
330
F4
100
AcDbEntity
  8
STANDARDEBENE
 62
     7
100
AcDbVertex
100
AcDb2dVertex
 10
2.067058654777013
 20
-47.76886423745728
 30
0.0
  0
VERTEX
  5
F7
330
F4
100
AcDbEntity
  8
STANDARDEBENE
 62
     7
100
AcDbVertex
100
AcDb2dVertex
 10
2.067058654777013
 20
-48.87973600951203
 30
0.0
  0
VERTEX
  5
F8
330
F4
100
AcDbEntity
  8
STANDARDEBENE
 62
     7
100
AcDbVertex
100
AcDb2dVertex
 10
2.067058654777013
 20
-110.7531749778403
 30
0.0
  0
VERTEX
  5
F9
330
F4
100
AcDbEntity
  8
STANDARDEBENE
 62
     7
100
AcDbVertex
100
AcDb2dVertex
 10
2.067058654777013
 20
-122.8744069294527
 30
0.0
  0
SEQEND
  5
FA
330
F4
100
AcDbEntity
  8
STANDARDEBENE
  0
POLYLINE
  5
FB
330
1F
100
AcDbEntity
  8
STANDARDEBENE
 62
     7
100
AcDb2dPolyline
 66
     1
 10
0.0
 20
0.0
 30
0.0
  0
VERTEX
  5
FC
330
FB
100
AcDbEntity
  8
STANDARDEBENE
 62
     7
100
AcDbVertex
100
AcDb2dVertex
 10
-25.93349013772031
 20
-89.46815524493766
 30
0.0
  0
VERTEX
  5
FD
330
FB
100
AcDbEntity
  8
STANDARDEBENE
 62
     7
100
AcDbVertex
100
AcDb2dVertex
 10
-23.20755653673312
 20
-87.79590479322306
 30
0.0
  0
VERTEX
  5
FE
330
FB
100
AcDbEntity
  8
STANDARDEBENE
 62
     7
100
AcDbVertex
100
AcDb2dVertex
 10
-21.36684080465419
 20
-86.66849655193009
 30
0.0
  0
SEQEND
  5
FF
330
FB
100
AcDbEntity
  8
STANDARDEBENE
  0
POLYLINE
  5
100
330
1F
100
AcDbEntity
  8
STANDARDEBENE
 62
     7
100
AcDb2dPolyline
 66
     1
 10
0.0
 20
0.0
 30
0.0
  0
VERTEX
  5
101
330
100
100
AcDbEntity
  8
STANDARDEBENE
 62
     7
100
AcDbVertex
100
AcDb2dVertex
 10
-48.4325623205286
 20
-89.46815524493766
 30
0.0
  0
VERTEX
  5
102
330
100
100
AcDbEntity
  8
STANDARDEBENE
 62
     7
100
AcDbVertex
100
AcDb2dVertex
 10
-25.93349013772031
 20
-89.46815524493766
 30
0.0
  0
SEQEND
  5
103
330
100
100
AcDbEntity
  8
STANDARDEBENE
  0
POLYLINE
  5
104
330
1F
100
AcDbEntity
  8
STANDARDEBENE
 62
     7
100
AcDb2dPolyline
 66
     1
 10
0.0
 20
0.0
 30
0.0
  0
VERTEX
  5
105
330
104
100
AcDbEntity
  8
STANDARDEBENE
 62
     7
100
AcDbVertex
100
AcDb2dVertex
 10
-30.43313231939407
 20
-72.52637025549737
 30
0.0
  0
VERTEX
  5
106
330
104
100
AcDbEntity
  8
STANDARDEBENE
 62
     7
100
AcDbVertex
100
AcDb2dVertex
 10
-28.92641881494952
 20
-72.51258986446551
 30
0.0
  0
VERTEX
  5
107
330
104
100
AcDbEntity
  8
STANDARDEBENE
 62
     7
100
AcDbVertex
100
AcDb2dVertex
 10
-27.46311354225529
 20
-72.47503829890374
 30
0.0
  0
VERTEX
  5
108
330
104
100
AcDbEntity
  8
STANDARDEBENE
 62
     7
100
AcDbVertex
100
AcDb2dVertex
 10
-26.08507443907062
 20
-72.415438107691
 30
0.0
  0
VERTEX
  5
109
330
104
100
AcDbEntity
  8
STANDARDEBENE
 62
     7
100
AcDbVertex
100
AcDb2dVertex
 10
-24.82830277696619
 20
-72.34274654499801
 30
0.0
  0
VERTEX
  5
10A
330
104
100
AcDbEntity
  8
STANDARDEBENE
 62
     7
100
AcDbVertex
100
AcDb2dVertex
 10
-23.72742178840954
 20
-72.26385380634068
 30
0.0
  0
VERTEX
  5
10B
330
104
100
AcDbEntity
  8
STANDARDEBENE
 62
     7
100
AcDbVertex
100
AcDb2dVertex
 10
-22.81533215698918
 20
-72.18771714588974
 30
0.0
  0
VERTEX
  5
10C
330
104
100
AcDbEntity
  8
STANDARDEBENE
 62
     7
100
AcDbVertex
100
AcDb2dVertex
 10
-22.11856113544143
 20
-72.12260479826425
 30
0.0
  0
VERTEX
  5
10D
330
104
100
AcDbEntity
  8
STANDARDEBENE
 62
     7
100
AcDbVertex
100
AcDb2dVertex
 10
-21.65726254565036
 20
-72.07695725297125
 30
0.0
  0
VERTEX
  5
10E
330
104
100
AcDbEntity
  8
STANDARDEBENE
 62
     7
100
AcDbVertex
100
AcDb2dVertex
 10
-21.46175324788603
 20
-72.05749245063878
 30
0.0
  0
SEQEND
  5
10F
330
104
100
AcDbEntity
  8
STANDARDEBENE
  0
POLYLINE
  5
110
330
1F
100
AcDbEntity
  8
STANDARDEBENE
 62
     7
100
AcDb2dPolyline
 66
     1
 10
0.0
 20
0.0
 30
0.0
  0
VERTEX
  5
111
330
110
100
AcDbEntity
  8
STANDARDEBENE
 62
     7
100
AcDbVertex
100
AcDb2dVertex
 10
-48.4325623205286
 20
-72.52637025549737
 30
0.0
  0
VERTEX
  5
112
330
110
100
AcDbEntity
  8
STANDARDEBENE
 62
     7
100
AcDbVertex
100
AcDb2dVertex
 10
-30.43313231939407
 20
-72.52637025549737
 30
0.0
  0
SEQEND
  5
113
330
110
100
AcDbEntity
  8
STANDARDEBENE
  0
POLYLINE
  5
114
330
1F
100
AcDbEntity
  8
STANDARDEBENE
 62
     7
100
AcDb2dPolyline
 66
     1
 10
0.0
 20
0.0
 30
0.0
  0
VERTEX
  5
115
330
114
100
AcDbEntity
  8
STANDARDEBENE
 62
     7
100
AcDbVertex
100
AcDb2dVertex
 10
-48.4325623205286
 20
-72.52637025549737
 30
0.0
  0
VERTEX
  5
116
330
114
100
AcDbEntity
  8
STANDARDEBENE
 62
     7
100
AcDbVertex
100
AcDb2dVertex
 10
-48.4325623205286
 20
-73.26792754789862
 30
0.0
  0
VERTEX
  5
117
330
114
100
AcDbEntity
  8
STANDARDEBENE
 62
     7
100
AcDbVertex
100
AcDb2dVertex
 10
-48.4325623205286
 20
-74.34968824389858
 30
0.0
  0
VERTEX
  5
118
330
114
100
AcDbEntity
  8
STANDARDEBENE
 62
     7
100
AcDbVertex
100
AcDb2dVertex
 10
-48.4325623205286
 20
-75.76786273596352
 30
0.0
  0
SEQEND
  5
119
330
114
100
AcDbEntity
  8
STANDARDEBENE
  0
POLYLINE
  5
11A
330
1F
100
AcDbEntity
  8
STANDARDEBENE
 62
     7
100
AcDb2dPolyline
 66
     1
 10
0.0
 20
0.0
 30
0.0
  0
VERTEX
  5
11B
330
11A
100
AcDbEntity
  8
STANDARDEBENE
 62
     7
100
AcDbVertex
100
AcDb2dVertex
 10
-19.43327968799819
 20
-75.76786273596352
 30
0.0
  0
VERTEX
  5
11C
330
11A
100
AcDbEntity
  8
STANDARDEBENE
 62
     7
100
AcDbVertex
100
AcDb2dVertex
 10
-48.4325623205286
 20
-75.76786273596352
 30
0.0
  0
VERTEX
  5
11D
330
11A
100
AcDbEntity
  8
STANDARDEBENE
 62
     7
100
AcDbVertex
100
AcDb2dVertex
 10
-48.4325623205286
 20
-89.46815524493766
 30
0.0
  0
SEQEND
  5
11E
330
11A
100
AcDbEntity
  8
STANDARDEBENE
  0
POLYLINE
  5
11F
330
1F
100
AcDbEntity
  8
STANDARDEBENE
 62
     7
100
AcDb2dPolyline
 66
     1
 10
0.0
 20
0.0
 30
0.0
  0
VERTEX
  5
120
330
11F
100
AcDbEntity
  8
STANDARDEBENE
 62
     7
100
AcDbVertex
100
AcDb2dVertex
 10
-20.4668090153867
 20
-98.05385562244189
 30
0.0
  0
VERTEX
  5
121
330
11F
100
AcDbEntity
  8
STANDARDEBENE
 62
     7
100
AcDbVertex
100
AcDb2dVertex
 10
-20.4668090153867
 20
-110.7531749778403
 30
0.0
  0
SEQEND
  5
122
330
11F
100
AcDbEntity
  8
STANDARDEBENE
  0
POLYLINE
  5
123
330
1F
100
AcDbEntity
  8
STANDARDEBENE
 62
     7
100
AcDb2dPolyline
 66
     1
 10
0.0
 20
0.0
 30
0.0
  0
VERTEX
  5
124
330
123
100
AcDbEntity
  8
STANDARDEBENE
 62
     7
100
AcDbVertex
100
AcDb2dVertex
 10
-20.4668090153867
 20
-113.7871003183892
 30
0.0
  0
VERTEX
  5
125
330
123
100
AcDbEntity
  8
STANDARDEBENE
 62
     7
100
AcDbVertex
100
AcDb2dVertex
 10
-20.4668090153867
 20
-110.7531749778403
 30
0.0
  0
SEQEND
  5
126
330
123
100
AcDbEntity
  8
STANDARDEBENE
  0
POLYLINE
  5
127
330
1F
100
AcDbEntity
  8
STANDARDEBENE
 62
     7
100
AcDb2dPolyline
 66
     1
 10
0.0
 20
0.0
 30
0.0
  0
VERTEX
  5
128
330
127
100
AcDbEntity
  8
STANDARDEBENE
 62
     7
100
AcDbVertex
100
AcDb2dVertex
 10
-20.66628017557268
 20
-98.05385562244189
 30
0.0
  0
VERTEX
  5
129
330
127
100
AcDbEntity
  8
STANDARDEBENE
 62
     7
100
AcDbVertex
100
AcDb2dVertex
 10
-20.4668090153867
 20
-98.05385562244189
 30
0.0
  0
SEQEND
  5
12A
330
127
100
AcDbEntity
  8
STANDARDEBENE
  0
POLYLINE
  5
12B
330
1F
100
AcDbEntity
  8
STANDARDEBENE
 62
     7
100
AcDb2dPolyline
 66
     1
 10
0.0
 20
0.0
 30
0.0
  0
VERTEX
  5
12C
330
12B
100
AcDbEntity
  8
STANDARDEBENE
 62
     7
100
AcDbVertex
100
AcDb2dVertex
 10
-20.66628017557268
 20
-93.74214352346493
 30
0.0
  0
VERTEX
  5
12D
330
12B
100
AcDbEntity
  8
STANDARDEBENE
 62
     7
100
AcDbVertex
100
AcDb2dVertex
 10
-20.66628017557268
 20
-98.05385562244189
 30
0.0
  0
SEQEND
  5
12E
330
12B
100
AcDbEntity
  8
STANDARDEBENE
  0
POLYLINE
  5
12F
330
1F
100
AcDbEntity
  8
STANDARDEBENE
 62
     7
100
AcDb2dPolyline
 66
     1
 10
0.0
 20
0.0
 30
0.0
  0
VERTEX
  5
130
330
12F
100
AcDbEntity
  8
STANDARDEBENE
 62
     7
100
AcDbVertex
100
AcDb2dVertex
 10
-20.66628017557268
 20
-89.05405449443067
 30
0.0
  0
VERTEX
  5
131
330
12F
100
AcDbEntity
  8
STANDARDEBENE
 62
     7
100
AcDbVertex
100
AcDb2dVertex
 10
-20.66628017557268
 20
-89.1856572287848
 30
0.0
  0
VERTEX
  5
132
330
12F
100
AcDbEntity
  8
STANDARDEBENE
 62
     7
100
AcDbVertex
100
AcDb2dVertex
 10
-20.66628017557268
 20
-89.58046543184722
 30
0.0
  0
VERTEX
  5
133
330
12F
100
AcDbEntity
  8
STANDARDEBENE
 62
     7
100
AcDbVertex
100
AcDb2dVertex
 10
-20.66628017557268
 20
-90.23641204496312
 30
0.0
  0
VERTEX
  5
134
330
12F
100
AcDbEntity
  8
STANDARDEBENE
 62
     7
100
AcDbVertex
100
AcDb2dVertex
 10
-20.66628017557268
 20
-91.15143000947774
 30
0.0
  0
VERTEX
  5
135
330
12F
100
AcDbEntity
  8
STANDARDEBENE
 62
     7
100
AcDbVertex
100
AcDb2dVertex
 10
-20.66628017557268
 20
-92.32121295319364
 30
0.0
  0
VERTEX
  5
136
330
12F
100
AcDbEntity
  8
STANDARDEBENE
 62
     7
100
AcDbVertex
100
AcDb2dVertex
 10
-20.66628017557268
 20
-93.74214352346493
 30
0.0
  0
SEQEND
  5
137
330
12F
100
AcDbEntity
  8
STANDARDEBENE
  0
POLYLINE
  5
138
330
1F
100
AcDbEntity
  8
STANDARDEBENE
 62
     7
100
AcDb2dPolyline
 66
     1
 10
0.0
 20
0.0
 30
0.0
  0
VERTEX
  5
139
330
138
100
AcDbEntity
  8
STANDARDEBENE
 62
     7
100
AcDbVertex
100
AcDb2dVertex
 10
-20.4668090153867
 20
-92.94236407895413
 30
0.0
  0
VERTEX
  5
13A
330
138
100
AcDbEntity
  8
STANDARDEBENE
 62
     7
100
AcDbVertex
100
AcDb2dVertex
 10
-20.66628017557268
 20
-93.74214352346493
 30
0.0
  0
SEQEND
  5
13B
330
138
100
AcDbEntity
  8
STANDARDEBENE
  0
POLYLINE
  5
13C
330
1F
100
AcDbEntity
  8
STANDARDEBENE
 62
     7
100
AcDb2dPolyline
 66
     1
 10
0.0
 20
0.0
 30
0.0
  0
VERTEX
  5
13D
330
13C
100
AcDbEntity
  8
STANDARDEBENE
 62
     7
100
AcDbVertex
100
AcDb2dVertex
 10
-20.4668090153867
 20
-87.21902317365237
 30
0.0
  0
VERTEX
  5
13E
330
13C
100
AcDbEntity
  8
STANDARDEBENE
 62
     7
100
AcDbVertex
100
AcDb2dVertex
 10
-20.4668090153867
 20
-92.94236407895413
 30
0.0
  0
SEQEND
  5
13F
330
13C
100
AcDbEntity
  8
STANDARDEBENE
  0
POLYLINE
  5
140
330
1F
100
AcDbEntity
  8
STANDARDEBENE
 62
     7
100
AcDb2dPolyline
 66
     1
 10
0.0
 20
0.0
 30
0.0
  0
VERTEX
  5
141
330
140
100
AcDbEntity
  8
STANDARDEBENE
 62
     7
100
AcDbVertex
100
AcDb2dVertex
 10
-21.36684080465419
 20
-86.66849655193009
 30
0.0
  0
VERTEX
  5
142
330
140
100
AcDbEntity
  8
STANDARDEBENE
 62
     7
100
AcDbVertex
100
AcDb2dVertex
 10
-21.25952600949368
 20
-86.61716459533646
 30
0.0
  0
VERTEX
  5
143
330
140
100
AcDbEntity
  8
STANDARDEBENE
 62
     7
100
AcDbVertex
100
AcDb2dVertex
 10
-21.06401671172936
 20
-86.58323038242054
 30
0.0
  0
VERTEX
  5
144
330
140
100
AcDbEntity
  8
STANDARDEBENE
 62
     7
100
AcDbVertex
100
AcDb2dVertex
 10
-20.87488084481726
 20
-86.61647557578488
 30
0.0
  0
VERTEX
  5
145
330
140
100
AcDbEntity
  8
STANDARDEBENE
 62
     7
100
AcDbVertex
100
AcDb2dVertex
 10
-20.78306898956758
 20
-86.6590225330957
 30
0.0
  0
VERTEX
  5
146
330
140
100
AcDbEntity
  8
STANDARDEBENE
 62
     7
100
AcDbVertex
100
AcDb2dVertex
 10
-20.62373321826185
 20
-86.78993624789824
 30
0.0
  0
VERTEX
  5
147
330
140
100
AcDbEntity
  8
STANDARDEBENE
 62
     7
100
AcDbVertex
100
AcDb2dVertex
 10
-20.51624616821345
 20
-86.96598074333009
 30
0.0
  0
VERTEX
  5
148
330
140
100
AcDbEntity
  8
STANDARDEBENE
 62
     7
100
AcDbVertex
100
AcDb2dVertex
 10
-20.46767028982619
 20
-87.17492592235047
 30
0.0
  0
VERTEX
  5
149
330
140
100
AcDbEntity
  8
STANDARDEBENE
 62
     7
100
AcDbVertex
100
AcDb2dVertex
 10
-20.4668090153867
 20
-87.21902317365237
 30
0.0
  0
SEQEND
  5
14A
330
140
100
AcDbEntity
  8
STANDARDEBENE
  0
POLYLINE
  5
14B
330
1F
100
AcDbEntity
  8
STANDARDEBENE
 62
     7
100
AcDb2dPolyline
 66
     1
 10
0.0
 20
0.0
 30
0.0
  0
VERTEX
  5
14C
330
14B
100
AcDbEntity
  8
STANDARDEBENE
 62
     7
100
AcDbVertex
100
AcDb2dVertex
 10
-17.43288367483774
 20
-73.67944447508714
 30
0.0
  0
VERTEX
  5
14D
330
14B
100
AcDbEntity
  8
STANDARDEBENE
 62
     7
100
AcDbVertex
100
AcDb2dVertex
 10
-17.51332670748614
 20
-74.26304403528584
 30
0.0
  0
VERTEX
  5
14E
330
14B
100
AcDbEntity
  8
STANDARDEBENE
 62
     7
100
AcDbVertex
100
AcDb2dVertex
 10
-17.82596932902116
 20
-74.92226349127182
 30
0.0
  0
VERTEX
  5
14F
330
14B
100
AcDbEntity
  8
STANDARDEBENE
 62
     7
100
AcDbVertex
100
AcDb2dVertex
 10
-18.33429350320841
 20
-75.42455874438264
 30
0.0
  0
VERTEX
  5
150
330
14B
100
AcDbEntity
  8
STANDARDEBENE
 62
     7
100
AcDbVertex
100
AcDb2dVertex
 10
-18.95906198161476
 20
-75.70809028986288
 30
0.0
  0
VERTEX
  5
151
330
14B
100
AcDbEntity
  8
STANDARDEBENE
 62
     7
100
AcDbVertex
100
AcDb2dVertex
 10
-19.43327968799819
 20
-75.76786273596352
 30
0.0
  0
SEQEND
  5
152
330
14B
100
AcDbEntity
  8
STANDARDEBENE
  0
POLYLINE
  5
153
330
1F
100
AcDbEntity
  8
STANDARDEBENE
 62
     7
100
AcDb2dPolyline
 66
     1
 10
0.0
 20
0.0
 30
0.0
  0
VERTEX
  5
154
330
153
100
AcDbEntity
  8
STANDARDEBENE
 62
     7
100
AcDbVertex
100
AcDb2dVertex
 10
-17.43288367483774
 20
-62.2627350149779
 30
0.0
  0
VERTEX
  5
155
330
153
100
AcDbEntity
  8
STANDARDEBENE
 62
     7
100
AcDbVertex
100
AcDb2dVertex
 10
-17.43288367483774
 20
-73.67944447508714
 30
0.0
  0
SEQEND
  5
156
330
153
100
AcDbEntity
  8
STANDARDEBENE
  0
POLYLINE
  5
157
330
1F
100
AcDbEntity
  8
STANDARDEBENE
 62
     7
100
AcDb2dPolyline
 66
     1
 10
0.0
 20
0.0
 30
0.0
  0
VERTEX
  5
158
330
157
100
AcDbEntity
  8
STANDARDEBENE
 62
     7
100
AcDbVertex
100
AcDb2dVertex
 10
-17.43288367483774
 20
-59.05414321810029
 30
0.0
  0
VERTEX
  5
159
330
157
100
AcDbEntity
  8
STANDARDEBENE
 62
     7
100
AcDbVertex
100
AcDb2dVertex
 10
-17.43288367483774
 20
-59.18316212913595
 30
0.0
  0
VERTEX
  5
15A
330
157
100
AcDbEntity
  8
STANDARDEBENE
 62
     7
100
AcDbVertex
100
AcDb2dVertex
 10
-17.43288367483774
 20
-59.56970209757925
 30
0.0
  0
VERTEX
  5
15B
330
157
100
AcDbEntity
  8
STANDARDEBENE
 62
     7
100
AcDbVertex
100
AcDb2dVertex
 10
-17.43288367483774
 20
-60.21324635876649
 30
0.0
  0
VERTEX
  5
15C
330
157
100
AcDbEntity
  8
STANDARDEBENE
 62
     7
100
AcDbVertex
100
AcDb2dVertex
 10
-17.43288367483774
 20
-61.1117278540429
 30
0.0
  0
VERTEX
  5
15D
330
157
100
AcDbEntity
  8
STANDARDEBENE
 62
     7
100
AcDbVertex
100
AcDb2dVertex
 10
-17.43288367483774
 20
-62.2627350149779
 30
0.0
  0
SEQEND
  5
15E
330
157
100
AcDbEntity
  8
STANDARDEBENE
  0
POLYLINE
  5
15F
330
1F
100
AcDbEntity
  8
STANDARDEBENE
 62
     7
100
AcDb2dPolyline
 66
     1
 10
0.0
 20
0.0
 30
0.0
  0
VERTEX
  5
160
330
15F
100
AcDbEntity
  8
STANDARDEBENE
 62
     7
100
AcDbVertex
100
AcDb2dVertex
 10
-16.43294405058936
 20
-61.22989470714099
 30
0.0
  0
VERTEX
  5
161
330
15F
100
AcDbEntity
  8
STANDARDEBENE
 62
     7
100
AcDbVertex
100
AcDb2dVertex
 10
-17.43288367483774
 20
-62.2627350149779
 30
0.0
  0
SEQEND
  5
162
330
15F
100
AcDbEntity
  8
STANDARDEBENE
  0
POLYLINE
  5
163
330
1F
100
AcDbEntity
  8
STANDARDEBENE
 62
     7
100
AcDb2dPolyline
 66
     1
 10
0.0
 20
0.0
 30
0.0
  0
VERTEX
  5
164
330
163
100
AcDbEntity
  8
STANDARDEBENE
 62
     7
100
AcDbVertex
100
AcDb2dVertex
 10
-16.43294405058936
 20
-58.05385908407611
 30
0.0
  0
VERTEX
  5
165
330
163
100
AcDbEntity
  8
STANDARDEBENE
 62
     7
100
AcDbVertex
100
AcDb2dVertex
 10
-16.43294405058936
 20
-58.18184446578438
 30
0.0
  0
VERTEX
  5
166
330
163
100
AcDbEntity
  8
STANDARDEBENE
 62
     7
100
AcDbVertex
100
AcDb2dVertex
 10
-16.43294405058936
 20
-58.56425031691813
 30
0.0
  0
VERTEX
  5
167
330
163
100
AcDbEntity
  8
STANDARDEBENE
 62
     7
100
AcDbVertex
100
AcDb2dVertex
 10
-16.43294405058936
 20
-59.20159340214104
 30
0.0
  0
VERTEX
  5
168
330
163
100
AcDbEntity
  8
STANDARDEBENE
 62
     7
100
AcDbVertex
100
AcDb2dVertex
 10
-16.43294405058936
 20
-60.09042862369516
 30
0.0
  0
VERTEX
  5
169
330
163
100
AcDbEntity
  8
STANDARDEBENE
 62
     7
100
AcDbVertex
100
AcDb2dVertex
 10
-16.43294405058936
 20
-61.22989470714099
 30
0.0
  0
SEQEND
  5
16A
330
163
100
AcDbEntity
  8
STANDARDEBENE
  0
POLYLINE
  5
16B
330
1F
100
AcDbEntity
  8
STANDARDEBENE
 62
     7
100
AcDb2dPolyline
 66
     1
 10
0.0
 20
0.0
 30
0.0
  0
VERTEX
  5
16C
330
16B
100
AcDbEntity
  8
STANDARDEBENE
 62
     7
100
AcDbVertex
100
AcDb2dVertex
 10
-10.54923384465449
 20
-61.22989470714099
 30
0.0
  0
VERTEX
  5
16D
330
16B
100
AcDbEntity
  8
STANDARDEBENE
 62
     7
100
AcDbVertex
100
AcDb2dVertex
 10
-16.43294405058936
 20
-61.22989470714099
 30
0.0
  0
SEQEND
  5
16E
330
16B
100
AcDbEntity
  8
STANDARDEBENE
  0
POLYLINE
  5
16F
330
1F
100
AcDbEntity
  8
STANDARDEBENE
 62
     7
100
AcDb2dPolyline
 66
     1
 10
0.0
 20
0.0
 30
0.0
  0
VERTEX
  5
170
330
16F
100
AcDbEntity
  8
STANDARDEBENE
 62
     7
100
AcDbVertex
100
AcDb2dVertex
 10
-10.54923384465449
 20
-58.05385908407611
 30
0.0
  0
VERTEX
  5
171
330
16F
100
AcDbEntity
  8
STANDARDEBENE
 62
     7
100
AcDbVertex
100
AcDb2dVertex
 10
-10.54923384465449
 20
-58.18184446578438
 30
0.0
  0
VERTEX
  5
172
330
16F
100
AcDbEntity
  8
STANDARDEBENE
 62
     7
100
AcDbVertex
100
AcDb2dVertex
 10
-10.54923384465449
 20
-58.56425031691813
 30
0.0
  0
VERTEX
  5
173
330
16F
100
AcDbEntity
  8
STANDARDEBENE
 62
     7
100
AcDbVertex
100
AcDb2dVertex
 10
-10.54923384465449
 20
-59.20159340214104
 30
0.0
  0
VERTEX
  5
174
330
16F
100
AcDbEntity
  8
STANDARDEBENE
 62
     7
100
AcDbVertex
100
AcDb2dVertex
 10
-10.54923384465449
 20
-60.09042862369516
 30
0.0
  0
VERTEX
  5
175
330
16F
100
AcDbEntity
  8
STANDARDEBENE
 62
     7
100
AcDbVertex
100
AcDb2dVertex
 10
-10.54923384465449
 20
-61.22989470714099
 30
0.0
  0
SEQEND
  5
176
330
16F
100
AcDbEntity
  8
STANDARDEBENE
  0
POLYLINE
  5
177
330
1F
100
AcDbEntity
  8
STANDARDEBENE
 62
     7
100
AcDb2dPolyline
 66
     1
 10
0.0
 20
0.0
 30
0.0
  0
VERTEX
  5
178
330
177
100
AcDbEntity
  8
STANDARDEBENE
 62
     7
100
AcDbVertex
100
AcDb2dVertex
 10
-8.433599311490214
 20
-48.87973600951203
 30
0.0
  0
VERTEX
  5
179
330
177
100
AcDbEntity
  8
STANDARDEBENE
 62
     7
100
AcDbVertex
100
AcDb2dVertex
 10
-8.521621559206135
 20
-49.3949503792152
 30
0.0
  0
VERTEX
  5
17A
330
177
100
AcDbEntity
  8
STANDARDEBENE
 62
     7
100
AcDbVertex
100
AcDb2dVertex
 10
-10.54923384465449
 20
-61.22989470714099
 30
0.0
  0
SEQEND
  5
17B
330
177
100
AcDbEntity
  8
STANDARDEBENE
  0
POLYLINE
  5
17C
330
1F
100
AcDbEntity
  8
STANDARDEBENE
 62
     7
100
AcDb2dPolyline
 66
     1
 10
0.0
 20
0.0
 30
0.0
  0
VERTEX
  5
17D
330
17C
100
AcDbEntity
  8
STANDARDEBENE
 62
     7
100
AcDbVertex
100
AcDb2dVertex
 10
-8.433599311490214
 20
-46.05389457354396
 30
0.0
  0
VERTEX
  5
17E
330
17C
100
AcDbEntity
  8
STANDARDEBENE
 62
     7
100
AcDbVertex
100
AcDb2dVertex
 10
-8.433599311490214
 20
-46.16758279955669
 30
0.0
  0
VERTEX
  5
17F
330
17C
100
AcDbEntity
  8
STANDARDEBENE
 62
     7
100
AcDbVertex
100
AcDb2dVertex
 10
-8.433599311490214
 20
-46.5079584580433
 30
0.0
  0
VERTEX
  5
180
330
17C
100
AcDbEntity
  8
STANDARDEBENE
 62
     7
100
AcDbVertex
100
AcDb2dVertex
 10
-8.433599311490214
 20
-47.07398801967641
 30
0.0
  0
VERTEX
  5
181
330
17C
100
AcDbEntity
  8
STANDARDEBENE
 62
     7
100
AcDbVertex
100
AcDb2dVertex
 10
-8.433599311490214
 20
-47.86532697468021
 30
0.0
  0
VERTEX
  5
182
330
17C
100
AcDbEntity
  8
STANDARDEBENE
 62
     7
100
AcDbVertex
100
AcDb2dVertex
 10
-8.433599311490214
 20
-48.87973600951203
 30
0.0
  0
SEQEND
  5
183
330
17C
100
AcDbEntity
  8
STANDARDEBENE
  0
POLYLINE
  5
184
330
1F
100
AcDbEntity
  8
STANDARDEBENE
 62
     7
100
AcDb2dPolyline
 66
     1
 10
0.0
 20
0.0
 30
0.0
  0
VERTEX
  5
185
330
184
100
AcDbEntity
  8
STANDARDEBENE
 62
     7
100
AcDbVertex
100
AcDb2dVertex
 10
2.067058654777013
 20
-46.93273901159998
 30
0.0
  0
VERTEX
  5
186
330
184
100
AcDbEntity
  8
STANDARDEBENE
 62
     7
100
AcDbVertex
100
AcDb2dVertex
 10
-6.175509986034225
 20
-46.59563619598343
 30
0.0
  0
VERTEX
  5
187
330
184
100
AcDbEntity
  8
STANDARDEBENE
 62
     7
100
AcDbVertex
100
AcDb2dVertex
 10
-7.432970667690241
 20
-46.59563619598343
 30
0.0
  0
VERTEX
  5
188
330
184
100
AcDbEntity
  8
STANDARDEBENE
 62
     7
100
AcDbVertex
100
AcDb2dVertex
 10
-7.432970667690241
 20
-46.18980368009554
 30
0.0
  0
VERTEX
  5
189
330
184
100
AcDbEntity
  8
STANDARDEBENE
 62
     7
100
AcDbVertex
100
AcDb2dVertex
 10
-7.432970667690241
 20
-46.05389457354396
 30
0.0
  0
SEQEND
  5
18A
330
184
100
AcDbEntity
  8
STANDARDEBENE
  0
POLYLINE
  5
18B
330
1F
100
AcDbEntity
  8
STANDARDEBENE
 62
     7
100
AcDb2dPolyline
 66
     1
 10
0.0
 20
0.0
 30
0.0
  0
VERTEX
  5
18C
330
18B
100
AcDbEntity
  8
STANDARDEBENE
 62
     7
100
AcDbVertex
100
AcDb2dVertex
 10
2.067058654777013
 20
-48.87973600951203
 30
0.0
  0
VERTEX
  5
18D
330
18B
100
AcDbEntity
  8
STANDARDEBENE
 62
     7
100
AcDbVertex
100
AcDb2dVertex
 10
-8.433599311490214
 20
-48.87973600951203
 30
0.0
  0
SEQEND
  5
18E
330
18B
100
AcDbEntity
  8
STANDARDEBENE
  0
POLYLINE
  5
18F
330
1F
100
AcDbEntity
  8
STANDARDEBENE
 62
     7
100
AcDb2dPolyline
 66
     1
 10
0.0
 20
0.0
 30
0.0
  0
VERTEX
  5
190
330
18F
100
AcDbEntity
  8
STANDARDEBENE
 62
     7
100
AcDbVertex
100
AcDb2dVertex
 10
2.067058654777013
 20
-110.7531749778403
 30
0.0
  0
VERTEX
  5
191
330
18F
100
AcDbEntity
  8
STANDARDEBENE
 62
     7
100
AcDbVertex
100
AcDb2dVertex
 10
-20.4668090153867
 20
-110.7531749778403
 30
0.0
  0
SEQEND
  5
192
330
18F
100
AcDbEntity
  8
STANDARDEBENE
  0
POLYLINE
  5
193
330
1F
100
AcDbEntity
  8
STANDARDEBENE
 62
     7
100
AcDb2dPolyline
 66
     1
 10
0.0
 20
0.0
 30
0.0
  0
VERTEX
  5
194
330
193
100
AcDbEntity
  8
STANDARDEBENE
 62
     7
100
AcDbVertex
100
AcDb2dVertex
 10
-20.66628017557268
 20
-113.7871003183892
 30
0.0
  0
VERTEX
  5
195
330
193
100
AcDbEntity
  8
STANDARDEBENE
 62
     7
100
AcDbVertex
100
AcDb2dVertex
 10
-20.4668090153867
 20
-113.7871003183892
 30
0.0
  0
SEQEND
  5
196
330
193
100
AcDbEntity
  8
STANDARDEBENE
  0
POLYLINE
  5
197
330
1F
100
AcDbEntity
  8
STANDARDEBENE
 62
     7
100
AcDb2dPolyline
 66
     1
 10
0.0
 20
0.0
 30
0.0
  0
VERTEX
  5
198
330
197
100
AcDbEntity
  8
STANDARDEBENE
 62
     7
100
AcDbVertex
100
AcDb2dVertex
 10
-20.66628017557268
 20
-122.4558275518603
 30
0.0
  0
VERTEX
  5
199
330
197
100
AcDbEntity
  8
STANDARDEBENE
 62
     7
100
AcDbVertex
100
AcDb2dVertex
 10
-20.66628017557268
 20
-113.7871003183892
 30
0.0
  0
SEQEND
  5
19A
330
197
100
AcDbEntity
  8
STANDARDEBENE
  0
POLYLINE
  5
19B
330
1F
100
AcDbEntity
  8
STANDARDEBENE
 62
     7
100
AcDb2dPolyline
 66
     1
 10
0.0
 20
0.0
 30
0.0
  0
VERTEX
  5
19C
330
19B
100
AcDbEntity
  8
STANDARDEBENE
 62
     7
100
AcDbVertex
100
AcDb2dVertex
 10
-20.4668090153867
 20
-123.1035059303571
 30
0.0
  0
VERTEX
  5
19D
330
19B
100
AcDbEntity
  8
STANDARDEBENE
 62
     7
100
AcDbVertex
100
AcDb2dVertex
 10
-20.57894694740835
 20
-122.7390145875648
 30
0.0
  0
VERTEX
  5
19E
330
19B
100
AcDbEntity
  8
STANDARDEBENE
 62
     7
100
AcDbVertex
100
AcDb2dVertex
 10
-20.66628017557268
 20
-122.4558275518603
 30
0.0
  0
SEQEND
  5
19F
330
19B
100
AcDbEntity
  8
STANDARDEBENE
  0
POLYLINE
  5
1A0
330
1F
100
AcDbEntity
  8
STANDARDEBENE
 62
     7
100
AcDb2dPolyline
 66
     1
 10
0.0
 20
0.0
 30
0.0
  0
VERTEX
  5
1A1
330
1A0
100
AcDbEntity
  8
STANDARDEBENE
 62
     7
100
AcDbVertex
100
AcDb2dVertex
 10
-20.4668090153867
 20
-125.5846653356411
 30
0.0
  0
VERTEX
  5
1A2
330
1A0
100
AcDbEntity
  8
STANDARDEBENE
 62
     7
100
AcDbVertex
100
AcDb2dVertex
 10
-20.4668090153867
 20
-123.1035059303571
 30
0.0
  0
SEQEND
  5
1A3
330
1A0
100
AcDbEntity
  8
STANDARDEBENE
  0
POLYLINE
  5
1A4
330
1F
100
AcDbEntity
  8
STANDARDEBENE
 62
     7
100
AcDb2dPolyline
 66
     1
 10
0.0
 20
0.0
 30
0.0
  0
VERTEX
  5
1A5
330
1A4
100
AcDbEntity
  8
STANDARDEBENE
 62
     7
100
AcDbVertex
100
AcDb2dVertex
 10
-22.71645785133568
 20
-126.7115568122704
 30
0.0
  0
VERTEX
  5
1A6
330
1A4
100
AcDbEntity
  8
STANDARDEBENE
 62
     7
100
AcDbVertex
100
AcDb2dVertex
 10
-22.46737728343505
 20
-126.8111201374755
 30
0.0
  0
VERTEX
  5
1A7
330
1A4
100
AcDbEntity
  8
STANDARDEBENE
 62
     7
100
AcDbVertex
100
AcDb2dVertex
 10
-21.97042193184907
 20
-126.8855342490475
 30
0.0
  0
VERTEX
  5
1A8
330
1A4
100
AcDbEntity
  8
STANDARDEBENE
 62
     7
100
AcDbVertex
100
AcDb2dVertex
 10
-21.47467236447839
 20
-126.8135317059061
 30
0.0
  0
VERTEX
  5
1A9
330
1A4
100
AcDbEntity
  8
STANDARDEBENE
 62
     7
100
AcDbVertex
100
AcDb2dVertex
 10
-21.19114081899814
 20
-126.6977764212385
 30
0.0
  0
VERTEX
  5
1AA
330
1A4
100
AcDbEntity
  8
STANDARDEBENE
 62
     7
100
AcDbVertex
100
AcDb2dVertex
 10
-20.80942398741599
 20
-126.4128668366551
 30
0.0
  0
VERTEX
  5
1AB
330
1A4
100
AcDbEntity
  8
STANDARDEBENE
 62
     7
100
AcDbVertex
100
AcDb2dVertex
 10
-20.55913763530007
 20
-126.0339060832793
 30
0.0
  0
VERTEX
  5
1AC
330
1A4
100
AcDbEntity
  8
STANDARDEBENE
 62
     7
100
AcDbVertex
100
AcDb2dVertex
 10
-20.4668090153867
 20
-125.6046469026373
 30
0.0
  0
VERTEX
  5
1AD
330
1A4
100
AcDbEntity
  8
STANDARDEBENE
 62
     7
100
AcDbVertex
100
AcDb2dVertex
 10
-20.4668090153867
 20
-125.5846653356411
 30
0.0
  0
SEQEND
  5
1AE
330
1A4
100
AcDbEntity
  8
STANDARDEBENE
  0
POLYLINE
  5
1AF
330
1F
100
AcDbEntity
  8
STANDARDEBENE
 62
     7
100
AcDb2dPolyline
 66
     1
 10
0.0
 20
0.0
 30
0.0
  0
VERTEX
  5
1B0
330
1AF
100
AcDbEntity
  8
STANDARDEBENE
 62
     7
100
AcDbVertex
100
AcDb2dVertex
 10
-28.18313897366929
 20
-123.9737376240182
 30
0.0
  0
VERTEX
  5
1B1
330
1AF
100
AcDbEntity
  8
STANDARDEBENE
 62
     7
100
AcDbVertex
100
AcDb2dVertex
 10
-25.47374184192032
 20
-125.3304171211036
 30
0.0
  0
VERTEX
  5
1B2
330
1AF
100
AcDbEntity
  8
STANDARDEBENE
 62
     7
100
AcDbVertex
100
AcDb2dVertex
 10
-22.71645785133568
 20
-126.7115568122704
 30
0.0
  0
SEQEND
  5
1B3
330
1AF
100
AcDbEntity
  8
STANDARDEBENE
  0
POLYLINE
  5
1B4
330
1F
100
AcDbEntity
  8
STANDARDEBENE
 62
     7
100
AcDb2dPolyline
 66
     1
 10
0.0
 20
0.0
 30
0.0
  0
VERTEX
  5
1B5
330
1B4
100
AcDbEntity
  8
STANDARDEBENE
 62
     7
100
AcDbVertex
100
AcDb2dVertex
 10
-29.93324863471382
 20
-125.491992205952
 30
0.0
  0
VERTEX
  5
1B6
330
1B4
100
AcDbEntity
  8
STANDARDEBENE
 62
     7
100
AcDbVertex
100
AcDb2dVertex
 10
-29.03132204167946
 20
-124.7096105051189
 30
0.0
  0
VERTEX
  5
1B7
330
1B4
100
AcDbEntity
  8
STANDARDEBENE
 62
     7
100
AcDbVertex
100
AcDb2dVertex
 10
-28.18313897366929
 20
-123.9737376240182
 30
0.0
  0
SEQEND
  5
1B8
330
1B4
100
AcDbEntity
  8
STANDARDEBENE
  0
POLYLINE
  5
1B9
330
1F
100
AcDbEntity
  8
STANDARDEBENE
 62
     7
100
AcDb2dPolyline
 66
     1
 10
0.0
 20
0.0
 30
0.0
  0
VERTEX
  5
1BA
330
1B9
100
AcDbEntity
  8
STANDARDEBENE
 62
     7
100
AcDbVertex
100
AcDb2dVertex
 10
-29.93324863471382
 20
-130.2203888787544
 30
0.0
  0
VERTEX
  5
1BB
330
1B9
100
AcDbEntity
  8
STANDARDEBENE
 62
     7
100
AcDbVertex
100
AcDb2dVertex
 10
-29.93324863471382
 20
-125.491992205952
 30
0.0
  0
SEQEND
  5
1BC
330
1B9
100
AcDbEntity
  8
STANDARDEBENE
  0
POLYLINE
  5
1BD
330
1F
100
AcDbEntity
  8
STANDARDEBENE
 62
     7
100
AcDb2dPolyline
 66
     1
 10
0.0
 20
0.0
 30
0.0
  0
VERTEX
  5
1BE
330
1BD
100
AcDbEntity
  8
STANDARDEBENE
 62
     7
100
AcDbVertex
100
AcDb2dVertex
 10
-29.13278017065143
 20
-130.913887057432
 30
0.0
  0
VERTEX
  5
1BF
330
1BD
100
AcDbEntity
  8
STANDARDEBENE
 62
     7
100
AcDbVertex
100
AcDb2dVertex
 10
-29.56531219416352
 20
-130.53871591159
 30
0.0
  0
VERTEX
  5
1C0
330
1BD
100
AcDbEntity
  8
STANDARDEBENE
 62
     7
100
AcDbVertex
100
AcDb2dVertex
 10
-29.93324863471382
 20
-130.2203888787544
 30
0.0
  0
SEQEND
  5
1C1
330
1BD
100
AcDbEntity
  8
STANDARDEBENE
  0
POLYLINE
  5
1C2
330
1F
100
AcDbEntity
  8
STANDARDEBENE
 62
     7
100
AcDb2dPolyline
 66
     1
 10
0.0
 20
0.0
 30
0.0
  0
VERTEX
  5
1C3
330
1C2
100
AcDbEntity
  8
STANDARDEBENE
 62
     7
100
AcDbVertex
100
AcDb2dVertex
 10
-20.18362197968225
 20
-130.913887057432
 30
0.0
  0
VERTEX
  5
1C4
330
1C2
100
AcDbEntity
  8
STANDARDEBENE
 62
     7
100
AcDbVertex
100
AcDb2dVertex
 10
-29.13278017065143
 20
-130.913887057432
 30
0.0
  0
SEQEND
  5
1C5
330
1C2
100
AcDbEntity
  8
STANDARDEBENE
  0
POLYLINE
  5
1C6
330
1F
100
AcDbEntity
  8
STANDARDEBENE
 62
     7
100
AcDb2dPolyline
 66
     1
 10
0.0
 20
0.0
 30
0.0
  0
VERTEX
  5
1C7
330
1C6
100
AcDbEntity
  8
STANDARDEBENE
 62
     7
100
AcDbVertex
100
AcDb2dVertex
 10
-17.43288367483774
 20
-128.527467840492
 30
0.0
  0
VERTEX
  5
1C8
330
1C6
100
AcDbEntity
  8
STANDARDEBENE
 62
     7
100
AcDbVertex
100
AcDb2dVertex
 10
-18.7764718004428
 20
-129.6925999022346
 30
0.0
  0
VERTEX
  5
1C9
330
1C6
100
AcDbEntity
  8
STANDARDEBENE
 62
     7
100
AcDbVertex
100
AcDb2dVertex
 10
-20.18362197968225
 20
-130.913887057432
 30
0.0
  0
SEQEND
  5
1CA
330
1C6
100
AcDbEntity
  8
STANDARDEBENE
  0
POLYLINE
  5
1CB
330
1F
100
AcDbEntity
  8
STANDARDEBENE
 62
     7
100
AcDb2dPolyline
 66
     1
 10
0.0
 20
0.0
 30
0.0
  0
VERTEX
  5
1CC
330
1CB
100
AcDbEntity
  8
STANDARDEBENE
 62
     7
100
AcDbVertex
100
AcDb2dVertex
 10
-1.933044351992303
 20
-128.527467840492
 30
0.0
  0
VERTEX
  5
1CD
330
1CB
100
AcDbEntity
  8
STANDARDEBENE
 62
     7
100
AcDbVertex
100
AcDb2dVertex
 10
-17.43288367483774
 20
-128.527467840492
 30
0.0
  0
SEQEND
  5
1CE
330
1CB
100
AcDbEntity
  8
STANDARDEBENE
  0
POLYLINE
  5
1CF
330
1F
100
AcDbEntity
  8
STANDARDEBENE
 62
     7
100
AcDb2dPolyline
 66
     1
 10
0.0
 20
0.0
 30
0.0
  0
VERTEX
  5
1D0
330
1CF
100
AcDbEntity
  8
STANDARDEBENE
 62
     7
100
AcDbVertex
100
AcDb2dVertex
 10
-20.66628017557268
 20
-108.054457649141
 30
0.0
  0
VERTEX
  5
1D1
330
1CF
100
AcDbEntity
  8
STANDARDEBENE
 62
     7
100
AcDbVertex
100
AcDb2dVertex
 10
-20.66628017557268
 20
-108.1731412669027
 30
0.0
  0
VERTEX
  5
1D2
330
1CF
100
AcDbEntity
  8
STANDARDEBENE
 62
     7
100
AcDbVertex
100
AcDb2dVertex
 10
-20.66628017557268
 20
-108.5298811397397
 30
0.0
  0
VERTEX
  5
1D3
330
1CF
100
AcDbEntity
  8
STANDARDEBENE
 62
     7
100
AcDbVertex
100
AcDb2dVertex
 10
-20.66628017557268
 20
-109.1239882481002
 30
0.0
  0
VERTEX
  5
1D4
330
1CF
100
AcDbEntity
  8
STANDARDEBENE
 62
     7
100
AcDbVertex
100
AcDb2dVertex
 10
-20.66628017557268
 20
-109.950811710011
 30
0.0
  0
VERTEX
  5
1D5
330
1CF
100
AcDbEntity
  8
STANDARDEBENE
 62
     7
100
AcDbVertex
100
AcDb2dVertex
 10
-20.66628017557268
 20
-111.0074231923778
 30
0.0
  0
VERTEX
  5
1D6
330
1CF
100
AcDbEntity
  8
STANDARDEBENE
 62
     7
100
AcDbVertex
100
AcDb2dVertex
 10
-20.66628017557268
 20
-112.2881382839001
 30
0.0
  0
VERTEX
  5
1D7
330
1CF
100
AcDbEntity
  8
STANDARDEBENE
 62
     7
100
AcDbVertex
100
AcDb2dVertex
 10
-20.66628017557268
 20
-113.7871003183892
 30
0.0
  0
SEQEND
  5
1D8
330
1CF
100
AcDbEntity
  8
STANDARDEBENE
  0
POLYLINE
  5
1D9
330
1F
100
AcDbEntity
  8
STANDARDEBENE
 62
     7
100
AcDb2dPolyline
 66
     1
 10
0.0
 20
0.0
 30
0.0
  0
VERTEX
  5
1DA
330
1D9
100
AcDbEntity
  8
STANDARDEBENE
 62
     7
100
AcDbVertex
100
AcDb2dVertex
 10
-29.93324863471382
 20
-121.5539009588259
 30
0.0
  0
VERTEX
  5
1DB
330
1D9
100
AcDbEntity
  8
STANDARDEBENE
 62
     7
100
AcDbVertex
100
AcDb2dVertex
 10
-29.93324863471382
 20
-121.6658666359597
 30
0.0
  0
VERTEX
  5
1DC
330
1D9
100
AcDbEntity
  8
STANDARDEBENE
 62
     7
100
AcDbVertex
100
AcDb2dVertex
 10
-29.93324863471382
 20
-121.9986630793788
 30
0.0
  0
VERTEX
  5
1DD
330
1D9
100
AcDbEntity
  8
STANDARDEBENE
 62
     7
100
AcDbVertex
100
AcDb2dVertex
 10
-29.93324863471382
 20
-122.5522902890832
 30
0.0
  0
VERTEX
  5
1DE
330
1D9
100
AcDbEntity
  8
STANDARDEBENE
 62
     7
100
AcDbVertex
100
AcDb2dVertex
 10
-29.93324863471382
 20
-123.3222696379877
 30
0.0
  0
VERTEX
  5
1DF
330
1D9
100
AcDbEntity
  8
STANDARDEBENE
 62
     7
100
AcDbVertex
100
AcDb2dVertex
 10
-29.93324863471382
 20
-124.303777989231
 30
0.0
  0
VERTEX
  5
1E0
330
1D9
100
AcDbEntity
  8
STANDARDEBENE
 62
     7
100
AcDbVertex
100
AcDb2dVertex
 10
-29.93324863471382
 20
-125.491992205952
 30
0.0
  0
SEQEND
  5
1E1
330
1D9
100
AcDbEntity
  8
STANDARDEBENE
  0
POLYLINE
  5
1E2
330
1F
100
AcDbEntity
  8
STANDARDEBENE
 62
     7
100
AcDb2dPolyline
 66
     1
 10
0.0
 20
0.0
 30
0.0
  0
VERTEX
  5
1E3
330
1E2
100
AcDbEntity
  8
STANDARDEBENE
 62
     7
100
AcDbVertex
100
AcDb2dVertex
 10
-28.18313897366929
 20
-119.804480317333
 30
0.0
  0
VERTEX
  5
1E4
330
1E2
100
AcDbEntity
  8
STANDARDEBENE
 62
     7
100
AcDbVertex
100
AcDb2dVertex
 10
-28.18313897366929
 20
-119.9226471704311
 30
0.0
  0
VERTEX
  5
1E5
330
1E2
100
AcDbEntity
  8
STANDARDEBENE
 62
     7
100
AcDbVertex
100
AcDb2dVertex
 10
-28.18313897366929
 20
-120.2747361612948
 30
0.0
  0
VERTEX
  5
1E6
330
1E2
100
AcDbEntity
  8
STANDARDEBENE
 62
     7
100
AcDbVertex
100
AcDb2dVertex
 10
-28.18313897366929
 20
-120.8610917996998
 30
0.0
  0
VERTEX
  5
1E7
330
1E2
100
AcDbEntity
  8
STANDARDEBENE
 62
     7
100
AcDbVertex
100
AcDb2dVertex
 10
-28.18313897366929
 20
-121.6765464390094
 30
0.0
  0
VERTEX
  5
1E8
330
1E2
100
AcDbEntity
  8
STANDARDEBENE
 62
     7
100
AcDbVertex
100
AcDb2dVertex
 10
-28.18313897366929
 20
-122.7169659619138
 30
0.0
  0
VERTEX
  5
1E9
330
1E2
100
AcDbEntity
  8
STANDARDEBENE
 62
     7
100
AcDbVertex
100
AcDb2dVertex
 10
-28.18313897366929
 20
-123.9737376240182
 30
0.0
  0
SEQEND
  5
1EA
330
1E2
100
AcDbEntity
  8
STANDARDEBENE
  0
SPLINE
  5
1EB
330
1F
100
AcDbEntity
  8
STANDARDEBENE
 62
     7
100
AcDbSpline
210
0.0
220
0.0
230
1.0
 70
     8
 71
     3
 72
     8
 73
     4
 74
     0
 42
0.0000000001
 43
0.0000000001
 40
0.0
 40
0.0
 40
0.0
 40
0.0
 40
1.0
 40
1.0
 40
1.0
 40
1.0
 10
63.03943230451036
 20
-85.61085154023586
 30
0.0
 10
57.28474100961116
 20
-86.3262260896766
 30
0.0
 10
51.77017302844188
 20
-87.6925518604842
 30
0.0
 10
47.03970929698469
 20
-89.46815524493766
 30
0.0
  0
SPLINE
  5
1EC
330
1F
100
AcDbEntity
  8
STANDARDEBENE
 62
     7
100
AcDbSpline
210
0.0
220
0.0
230
1.0
 70
     8
 71
     3
 72
     8
 73
     4
 74
     0
 42
0.0000000001
 43
0.0000000001
 40
0.0
 40
0.0
 40
0.0
 40
0.0
 40
1.0
 40
1.0
 40
1.0
 40
1.0
 10
97.03944658761006
 20
-89.46815524493766
 30
0.0
 10
91.59171350294524
 20
-87.48188413258485
 30
0.0
 10
86.05888650365877
 20
-86.18618286581545
 30
0.0
 10
81.0390345605328
 20
-85.61085154023586
 30
0.0
  0
POLYLINE
  5
1ED
330
1F
100
AcDbEntity
  8
STANDARDEBENE
 62
     7
100
AcDb2dPolyline
 66
     1
 10
0.0
 20
0.0
 30
0.0
  0
VERTEX
  5
1EE
330
1ED
100
AcDbEntity
  8
STANDARDEBENE
 62
     7
100
AcDbVertex
100
AcDb2dVertex
 10
81.0390345605328
 20
-72.52637025549737
 30
0.0
  0
VERTEX
  5
1EF
330
1ED
100
AcDbEntity
  8
STANDARDEBENE
 62
     7
100
AcDbVertex
100
AcDb2dVertex
 10
80.91191045326401
 20
-72.51258986446551
 30
0.0
  0
VERTEX
  5
1F0
330
1ED
100
AcDbEntity
  8
STANDARDEBENE
 62
     7
100
AcDbVertex
100
AcDb2dVertex
 10
80.5353612683188
 20
-72.47503829890374
 30
0.0
  0
VERTEX
  5
1F1
330
1ED
100
AcDbEntity
  8
STANDARDEBENE
 62
     7
100
AcDbVertex
100
AcDb2dVertex
 10
79.91834425986787
 20
-72.415438107691
 30
0.0
  0
VERTEX
  5
1F2
330
1ED
100
AcDbEntity
  8
STANDARDEBENE
 62
     7
100
AcDbVertex
100
AcDb2dVertex
 10
79.08153001445896
 20
-72.34274654499801
 30
0.0
  0
VERTEX
  5
1F3
330
1ED
100
AcDbEntity
  8
STANDARDEBENE
 62
     7
100
AcDbVertex
100
AcDb2dVertex
 10
78.04111049155453
 20
-72.26385380634068
 30
0.0
  0
VERTEX
  5
1F4
330
1ED
100
AcDbEntity
  8
STANDARDEBENE
 62
     7
100
AcDbVertex
100
AcDb2dVertex
 10
76.83222568828577
 20
-72.18771714588974
 30
0.0
  0
VERTEX
  5
1F5
330
1ED
100
AcDbEntity
  8
STANDARDEBENE
 62
     7
100
AcDbVertex
100
AcDb2dVertex
 10
75.48243638671639
 20
-72.12260479826425
 30
0.0
  0
VERTEX
  5
1F6
330
1ED
100
AcDbEntity
  8
STANDARDEBENE
 62
     7
100
AcDbVertex
100
AcDb2dVertex
 10
74.03480630882089
 20
-72.07695725297125
 30
0.0
  0
VERTEX
  5
1F7
330
1ED
100
AcDbEntity
  8
STANDARDEBENE
 62
     7
100
AcDbVertex
100
AcDb2dVertex
 10
72.53515525478016
 20
-72.05594215664769
 30
0.0
  0
VERTEX
  5
1F8
330
1ED
100
AcDbEntity
  8
STANDARDEBENE
 62
     7
100
AcDbVertex
100
AcDb2dVertex
 10
71.02069028038021
 20
-72.05973176418145
 30
0.0
  0
VERTEX
  5
1F9
330
1ED
100
AcDbEntity
  8
STANDARDEBENE
 62
     7
100
AcDbVertex
100
AcDb2dVertex
 10
69.54239883243885
 20
-72.09039313422731
 30
0.0
  0
VERTEX
  5
1FA
330
1ED
100
AcDbEntity
  8
STANDARDEBENE
 62
     7
100
AcDbVertex
100
AcDb2dVertex
 10
68.13369835920831
 20
-72.14241411037253
 30
0.0
  0
VERTEX
  5
1FB
330
1ED
100
AcDbEntity
  8
STANDARDEBENE
 62
     7
100
AcDbVertex
100
AcDb2dVertex
 10
66.83386297512936
 20
-72.21217733997126
 30
0.0
  0
VERTEX
  5
1FC
330
1ED
100
AcDbEntity
  8
STANDARDEBENE
 62
     7
100
AcDbVertex
100
AcDb2dVertex
 10
65.67941071643641
 20
-72.28986429441329
 30
0.0
  0
VERTEX
  5
1FD
330
1ED
100
AcDbEntity
  8
STANDARDEBENE
 62
     7
100
AcDbVertex
100
AcDb2dVertex
 10
64.70100295317529
 20
-72.36824026840692
 30
0.0
  0
VERTEX
  5
1FE
330
1ED
100
AcDbEntity
  8
STANDARDEBENE
 62
     7
100
AcDbVertex
100
AcDb2dVertex
 10
63.92930105539187
 20
-72.43765898822986
 30
0.0
  0
VERTEX
  5
1FF
330
1ED
100
AcDbEntity
  8
STANDARDEBENE
 62
     7
100
AcDbVertex
100
AcDb2dVertex
 10
63.39014325627086
 20
-72.49002447415087
 30
0.0
  0
VERTEX
  5
200
330
1ED
100
AcDbEntity
  8
STANDARDEBENE
 62
     7
100
AcDbVertex
100
AcDb2dVertex
 10
63.09455386863775
 20
-72.52103035397252
 30
0.0
  0
VERTEX
  5
201
330
1ED
100
AcDbEntity
  8
STANDARDEBENE
 62
     7
100
AcDbVertex
100
AcDb2dVertex
 10
63.03943230451036
 20
-72.52637025549737
 30
0.0
  0
SEQEND
  5
202
330
1ED
100
AcDbEntity
  8
STANDARDEBENE
  0
SPLINE
  5
203
330
1F
100
AcDbEntity
  8
STANDARDEBENE
 62
     7
100
AcDbSpline
210
0.0
220
0.0
230
1.0
 70
     8
 71
     3
 72
     8
 73
     4
 74
     0
 42
0.0000000001
 43
0.0000000001
 40
0.0
 40
0.0
 40
0.0
 40
0.0
 40
1.0
 40
1.0
 40
1.0
 40
1.0
 10
97.03944658761006
 20
-75.76786273596352
 30
0.0
 10
91.53900350724844
 20
-74.0966458135763
 30
0.0
 10
86.00135337110082
 20
-73.00420531452664
 30
0.0
 10
81.0390345605328
 20
-72.52637025549737
 30
0.0
  0
SPLINE
  5
204
330
1F
100
AcDbEntity
  8
STANDARDEBENE
 62
     7
100
AcDbSpline
210
0.0
220
0.0
230
1.0
 70
     8
 71
     3
 72
     8
 73
     4
 74
     0
 42
0.0000000001
 43
0.0000000001
 40
0.0
 40
0.0
 40
0.0
 40
0.0
 40
1.0
 40
1.0
 40
1.0
 40
1.0
 10
63.03943230451036
 20
-72.52637025549737
 30
0.0
 10
57.32298159472453
 20
-73.12822883381327
 30
0.0
 10
51.7963557714024
 20
-74.2761354067661
 30
0.0
 10
47.03970929698469
 20
-75.76786273596352
 30
0.0
  0
POLYLINE
  5
205
330
1F
100
AcDbEntity
  8
STANDARDEBENE
 62
     7
100
AcDb2dPolyline
 66
     1
 10
0.0
 20
0.0
 30
0.0
  0
VERTEX
  5
206
330
205
100
AcDbEntity
  8
STANDARDEBENE
 62
     7
100
AcDbVertex
100
AcDb2dVertex
 10
63.03943230451036
 20
-72.52637025549737
 30
0.0
  0
VERTEX
  5
207
330
205
100
AcDbEntity
  8
STANDARDEBENE
 62
     7
100
AcDbVertex
100
AcDb2dVertex
 10
63.03943230451036
 20
-85.61085154023586
 30
0.0
  0
SEQEND
  5
208
330
205
100
AcDbEntity
  8
STANDARDEBENE
  0
POLYLINE
  5
209
330
1F
100
AcDbEntity
  8
STANDARDEBENE
 62
     7
100
AcDb2dPolyline
 66
     1
 10
0.0
 20
0.0
 30
0.0
  0
VERTEX
  5
20A
330
209
100
AcDbEntity
  8
STANDARDEBENE
 62
     7
100
AcDbVertex
100
AcDb2dVertex
 10
47.03970929698469
 20
-75.76786273596352
 30
0.0
  0
VERTEX
  5
20B
330
209
100
AcDbEntity
  8
STANDARDEBENE
 62
     7
100
AcDbVertex
100
AcDb2dVertex
 10
47.03970929698469
 20
-89.46815524493766
 30
0.0
  0
SEQEND
  5
20C
330
209
100
AcDbEntity
  8
STANDARDEBENE
  0
POLYLINE
  5
20D
330
1F
100
AcDbEntity
  8
STANDARDEBENE
 62
     7
100
AcDb2dPolyline
 66
     1
 10
0.0
 20
0.0
 30
0.0
  0
VERTEX
  5
20E
330
20D
100
AcDbEntity
  8
STANDARDEBENE
 62
     7
100
AcDbVertex
100
AcDb2dVertex
 10
81.0390345605328
 20
-72.52637025549737
 30
0.0
  0
VERTEX
  5
20F
330
20D
100
AcDbEntity
  8
STANDARDEBENE
 62
     7
100
AcDbVertex
100
AcDb2dVertex
 10
81.0390345605328
 20
-85.61085154023586
 30
0.0
  0
SEQEND
  5
210
330
20D
100
AcDbEntity
  8
STANDARDEBENE
  0
POLYLINE
  5
211
330
1F
100
AcDbEntity
  8
STANDARDEBENE
 62
     7
100
AcDb2dPolyline
 66
     1
 10
0.0
 20
0.0
 30
0.0
  0
VERTEX
  5
212
330
211
100
AcDbEntity
  8
STANDARDEBENE
 62
     7
100
AcDbVertex
100
AcDb2dVertex
 10
97.03944658761006
 20
-75.76786273596352
 30
0.0
  0
VERTEX
  5
213
330
211
100
AcDbEntity
  8
STANDARDEBENE
 62
     7
100
AcDbVertex
100
AcDb2dVertex
 10
97.03944658761006
 20
-89.46815524493766
 30
0.0
  0
SEQEND
  5
214
330
211
100
AcDbEntity
  8
STANDARDEBENE
  0
POLYLINE
  5
215
330
1F
100
AcDbEntity
  8
STANDARDEBENE
 62
     7
100
AcDb2dPolyline
 66
     1
 10
0.0
 20
0.0
 30
0.0
  0
VERTEX
  5
216
330
215
100
AcDbEntity
  8
STANDARDEBENE
 62
     7
100
AcDbVertex
100
AcDb2dVertex
 10
97.03944658761006
 20
-98.05385562244189
 30
0.0
  0
VERTEX
  5
217
330
215
100
AcDbEntity
  8
STANDARDEBENE
 62
     7
100
AcDbVertex
100
AcDb2dVertex
 10
97.03944658761006
 20
-110.7531749778403
 30
0.0
  0
SEQEND
  5
218
330
215
100
AcDbEntity
  8
STANDARDEBENE
  0
POLYLINE
  5
219
330
1F
100
AcDbEntity
  8
STANDARDEBENE
 62
     7
100
AcDb2dPolyline
 66
     1
 10
0.0
 20
0.0
 30
0.0
  0
VERTEX
  5
21A
330
219
100
AcDbEntity
  8
STANDARDEBENE
 62
     7
100
AcDbVertex
100
AcDb2dVertex
 10
47.03970929698469
 20
-110.7531749778403
 30
0.0
  0
VERTEX
  5
21B
330
219
100
AcDbEntity
  8
STANDARDEBENE
 62
     7
100
AcDbVertex
100
AcDb2dVertex
 10
47.03970929698469
 20
-98.05385562244189
 30
0.0
  0
SEQEND
  5
21C
330
219
100
AcDbEntity
  8
STANDARDEBENE
  0
POLYLINE
  5
21D
330
1F
100
AcDbEntity
  8
STANDARDEBENE
 62
     7
100
AcDb2dPolyline
 66
     1
 10
0.0
 20
0.0
 30
0.0
  0
VERTEX
  5
21E
330
21D
100
AcDbEntity
  8
STANDARDEBENE
 62
     7
100
AcDbVertex
100
AcDb2dVertex
 10
47.03970929698469
 20
-110.7531749778403
 30
0.0
  0
VERTEX
  5
21F
330
21D
100
AcDbEntity
  8
STANDARDEBENE
 62
     7
100
AcDbVertex
100
AcDb2dVertex
 10
48.79154150690821
 20
-113.7871003183892
 30
0.0
  0
SEQEND
  5
220
330
21D
100
AcDbEntity
  8
STANDARDEBENE
  0
POLYLINE
  5
221
330
1F
100
AcDbEntity
  8
STANDARDEBENE
 62
     7
100
AcDb2dPolyline
 66
     1
 10
0.0
 20
0.0
 30
0.0
  0
VERTEX
  5
222
330
221
100
AcDbEntity
  8
STANDARDEBENE
 62
     7
100
AcDbVertex
100
AcDb2dVertex
 10
95.28726986791075
 20
-113.7871003183892
 30
0.0
  0
VERTEX
  5
223
330
221
100
AcDbEntity
  8
STANDARDEBENE
 62
     7
100
AcDbVertex
100
AcDb2dVertex
 10
97.03944658761006
 20
-110.7531749778403
 30
0.0
  0
SEQEND
  5
224
330
221
100
AcDbEntity
  8
STANDARDEBENE
  0
SPLINE
  5
225
330
1F
100
AcDbEntity
  8
STANDARDEBENE
 62
     7
100
AcDbSpline
210
0.0
220
0.0
230
1.0
 70
     8
 71
     3
 72
     8
 73
     4
 74
     0
 42
0.0000000001
 43
0.0000000001
 40
0.0
 40
0.0
 40
0.0
 40
0.0
 40
1.0
 40
1.0
 40
1.0
 40
1.0
 10
97.03944658761006
 20
-98.05385562244189
 30
0.0
 10
80.38205441808951
 20
-91.11353393414016
 30
0.0
 10
62.48304901659955
 20
-91.62134134366372
 30
0.0
 10
47.03970929698469
 20
-98.05385562244189
 30
0.0
  0
POLYLINE
  5
226
330
1F
100
AcDbEntity
  8
STANDARDEBENE
 62
     7
100
AcDb2dPolyline
 66
     1
 10
0.0
 20
0.0
 30
0.0
  0
VERTEX
  5
227
330
226
100
AcDbEntity
  8
STANDARDEBENE
 62
     7
100
AcDbVertex
100
AcDb2dVertex
 10
97.03944658761006
 20
-93.74214352346493
 30
0.0
  0
VERTEX
  5
228
330
226
100
AcDbEntity
  8
STANDARDEBENE
 62
     7
100
AcDbVertex
100
AcDb2dVertex
 10
97.03944658761006
 20
-98.05385562244189
 30
0.0
  0
SEQEND
  5
229
330
226
100
AcDbEntity
  8
STANDARDEBENE
  0
POLYLINE
  5
22A
330
1F
100
AcDbEntity
  8
STANDARDEBENE
 62
     7
100
AcDb2dPolyline
 66
     1
 10
0.0
 20
0.0
 30
0.0
  0
VERTEX
  5
22B
330
22A
100
AcDbEntity
  8
STANDARDEBENE
 62
     7
100
AcDbVertex
100
AcDb2dVertex
 10
47.03970929698469
 20
-98.05385562244189
 30
0.0
  0
VERTEX
  5
22C
330
22A
100
AcDbEntity
  8
STANDARDEBENE
 62
     7
100
AcDbVertex
100
AcDb2dVertex
 10
47.03970929698469
 20
-93.74214352346493
 30
0.0
  0
SEQEND
  5
22D
330
22A
100
AcDbEntity
  8
STANDARDEBENE
  0
POLYLINE
  5
22E
330
1F
100
AcDbEntity
  8
STANDARDEBENE
 62
     7
100
AcDb2dPolyline
 66
     1
 10
0.0
 20
0.0
 30
0.0
  0
VERTEX
  5
22F
330
22E
100
AcDbEntity
  8
STANDARDEBENE
 62
     7
100
AcDbVertex
100
AcDb2dVertex
 10
97.03944658761006
 20
-92.94236407895413
 30
0.0
  0
VERTEX
  5
230
330
22E
100
AcDbEntity
  8
STANDARDEBENE
 62
     7
100
AcDbVertex
100
AcDb2dVertex
 10
97.03944658761006
 20
-93.74214352346493
 30
0.0
  0
SEQEND
  5
231
330
22E
100
AcDbEntity
  8
STANDARDEBENE
  0
POLYLINE
  5
232
330
1F
100
AcDbEntity
  8
STANDARDEBENE
 62
     7
100
AcDb2dPolyline
 66
     1
 10
0.0
 20
0.0
 30
0.0
  0
VERTEX
  5
233
330
232
100
AcDbEntity
  8
STANDARDEBENE
 62
     7
100
AcDbVertex
100
AcDb2dVertex
 10
47.03970929698469
 20
-93.74214352346493
 30
0.0
  0
VERTEX
  5
234
330
232
100
AcDbEntity
  8
STANDARDEBENE
 62
     7
100
AcDbVertex
100
AcDb2dVertex
 10
47.03970929698469
 20
-92.94236407895413
 30
0.0
  0
SEQEND
  5
235
330
232
100
AcDbEntity
  8
STANDARDEBENE
  0
POLYLINE
  5
236
330
1F
100
AcDbEntity
  8
STANDARDEBENE
 62
     7
100
AcDb2dPolyline
 66
     1
 10
0.0
 20
0.0
 30
0.0
  0
VERTEX
  5
237
330
236
100
AcDbEntity
  8
STANDARDEBENE
 62
     7
100
AcDbVertex
100
AcDb2dVertex
 10
97.03944658761006
 20
-89.46815524493766
 30
0.0
  0
VERTEX
  5
238
330
236
100
AcDbEntity
  8
STANDARDEBENE
 62
     7
100
AcDbVertex
100
AcDb2dVertex
 10
97.03944658761006
 20
-92.94236407895413
 30
0.0
  0
SEQEND
  5
239
330
236
100
AcDbEntity
  8
STANDARDEBENE
  0
POLYLINE
  5
23A
330
1F
100
AcDbEntity
  8
STANDARDEBENE
 62
     7
100
AcDb2dPolyline
 66
     1
 10
0.0
 20
0.0
 30
0.0
  0
VERTEX
  5
23B
330
23A
100
AcDbEntity
  8
STANDARDEBENE
 62
     7
100
AcDbVertex
100
AcDb2dVertex
 10
47.03970929698469
 20
-92.94236407895413
 30
0.0
  0
VERTEX
  5
23C
330
23A
100
AcDbEntity
  8
STANDARDEBENE
 62
     7
100
AcDbVertex
100
AcDb2dVertex
 10
47.03970929698469
 20
-89.46815524493766
 30
0.0
  0
SEQEND
  5
23D
330
23A
100
AcDbEntity
  8
STANDARDEBENE
  0
POLYLINE
  5
23E
330
1F
100
AcDbEntity
  8
STANDARDEBENE
 62
     7
100
AcDb2dPolyline
 66
     1
 10
0.0
 20
0.0
 30
0.0
  0
VERTEX
  5
23F
330
23E
100
AcDbEntity
  8
STANDARDEBENE
 62
     7
100
AcDbVertex
100
AcDb2dVertex
 10
97.03944658761006
 20
-73.67944447508714
 30
0.0
  0
VERTEX
  5
240
330
23E
100
AcDbEntity
  8
STANDARDEBENE
 62
     7
100
AcDbVertex
100
AcDb2dVertex
 10
97.03944658761006
 20
-74.26304403528584
 30
0.0
  0
VERTEX
  5
241
330
23E
100
AcDbEntity
  8
STANDARDEBENE
 62
     7
100
AcDbVertex
100
AcDb2dVertex
 10
97.03944658761006
 20
-74.92226349127182
 30
0.0
  0
VERTEX
  5
242
330
23E
100
AcDbEntity
  8
STANDARDEBENE
 62
     7
100
AcDbVertex
100
AcDb2dVertex
 10
97.03944658761006
 20
-75.42455874438264
 30
0.0
  0
VERTEX
  5
243
330
23E
100
AcDbEntity
  8
STANDARDEBENE
 62
     7
100
AcDbVertex
100
AcDb2dVertex
 10
97.03944658761006
 20
-75.70809028986288
 30
0.0
  0
VERTEX
  5
244
330
23E
100
AcDbEntity
  8
STANDARDEBENE
 62
     7
100
AcDbVertex
100
AcDb2dVertex
 10
97.03944658761006
 20
-75.76786273596352
 30
0.0
  0
SEQEND
  5
245
330
23E
100
AcDbEntity
  8
STANDARDEBENE
  0
POLYLINE
  5
246
330
1F
100
AcDbEntity
  8
STANDARDEBENE
 62
     7
100
AcDb2dPolyline
 66
     1
 10
0.0
 20
0.0
 30
0.0
  0
VERTEX
  5
247
330
246
100
AcDbEntity
  8
STANDARDEBENE
 62
     7
100
AcDbVertex
100
AcDb2dVertex
 10
47.03970929698469
 20
-75.76786273596352
 30
0.0
  0
VERTEX
  5
248
330
246
100
AcDbEntity
  8
STANDARDEBENE
 62
     7
100
AcDbVertex
100
AcDb2dVertex
 10
47.03970929698469
 20
-75.76562342242084
 30
0.0
  0
VERTEX
  5
249
330
246
100
AcDbEntity
  8
STANDARDEBENE
 62
     7
100
AcDbVertex
100
AcDb2dVertex
 10
47.03970929698469
 20
-75.62661372788709
 30
0.0
  0
VERTEX
  5
24A
330
246
100
AcDbEntity
  8
STANDARDEBENE
 62
     7
100
AcDbVertex
100
AcDb2dVertex
 10
47.03970929698469
 20
-75.28864963783104
 30
0.0
  0
VERTEX
  5
24B
330
246
100
AcDbEntity
  8
STANDARDEBENE
 62
     7
100
AcDbVertex
100
AcDb2dVertex
 10
47.03970929698469
 20
-74.77843065987692
 30
0.0
  0
VERTEX
  5
24C
330
246
100
AcDbEntity
  8
STANDARDEBENE
 62
     7
100
AcDbVertex
100
AcDb2dVertex
 10
47.03970929698469
 20
-74.132647085147
 30
0.0
  0
VERTEX
  5
24D
330
246
100
AcDbEntity
  8
STANDARDEBENE
 62
     7
100
AcDbVertex
100
AcDb2dVertex
 10
47.03970929698469
 20
-73.67944447508714
 30
0.0
  0
SEQEND
  5
24E
330
246
100
AcDbEntity
  8
STANDARDEBENE
  0
POLYLINE
  5
24F
330
1F
100
AcDbEntity
  8
STANDARDEBENE
 62
     7
100
AcDb2dPolyline
 66
     1
 10
0.0
 20
0.0
 30
0.0
  0
VERTEX
  5
250
330
24F
100
AcDbEntity
  8
STANDARDEBENE
 62
     7
100
AcDbVertex
100
AcDb2dVertex
 10
97.03944658761006
 20
-62.2627350149779
 30
0.0
  0
VERTEX
  5
251
330
24F
100
AcDbEntity
  8
STANDARDEBENE
 62
     7
100
AcDbVertex
100
AcDb2dVertex
 10
97.03944658761006
 20
-73.67944447508714
 30
0.0
  0
SEQEND
  5
252
330
24F
100
AcDbEntity
  8
STANDARDEBENE
  0
SPLINE
  5
253
330
1F
100
AcDbEntity
  8
STANDARDEBENE
 62
     7
100
AcDbSpline
210
0.0
220
0.0
230
1.0
 70
     8
 71
     3
 72
     8
 73
     4
 74
     0
 42
0.0000000001
 43
0.0000000001
 40
0.0
 40
0.0
 40
0.0
 40
0.0
 40
1.0
 40
1.0
 40
1.0
 40
1.0
 10
97.03944658761006
 20
-62.2627350149779
 30
0.0
 10
79.8432411287443
 20
-57.77497842056911
 30
0.0
 10
62.52266764081611
 20
-58.09416672784426
 30
0.0
 10
47.03970929698469
 20
-62.2627350149779
 30
0.0
  0
POLYLINE
  5
254
330
1F
100
AcDbEntity
  8
STANDARDEBENE
 62
     7
100
AcDb2dPolyline
 66
     1
 10
0.0
 20
0.0
 30
0.0
  0
VERTEX
  5
255
330
254
100
AcDbEntity
  8
STANDARDEBENE
 62
     7
100
AcDbVertex
100
AcDb2dVertex
 10
47.03970929698469
 20
-73.67944447508714
 30
0.0
  0
VERTEX
  5
256
330
254
100
AcDbEntity
  8
STANDARDEBENE
 62
     7
100
AcDbVertex
100
AcDb2dVertex
 10
47.03970929698469
 20
-62.2627350149779
 30
0.0
  0
SEQEND
  5
257
330
254
100
AcDbEntity
  8
STANDARDEBENE
  0
POLYLINE
  5
258
330
1F
100
AcDbEntity
  8
STANDARDEBENE
 62
     7
100
AcDb2dPolyline
 66
     1
 10
0.0
 20
0.0
 30
0.0
  0
VERTEX
  5
259
330
258
100
AcDbEntity
  8
STANDARDEBENE
 62
     7
100
AcDbVertex
100
AcDb2dVertex
 10
97.03944658761006
 20
-61.22989470714099
 30
0.0
  0
VERTEX
  5
25A
330
258
100
AcDbEntity
  8
STANDARDEBENE
 62
     7
100
AcDbVertex
100
AcDb2dVertex
 10
97.03944658761006
 20
-62.2627350149779
 30
0.0
  0
SEQEND
  5
25B
330
258
100
AcDbEntity
  8
STANDARDEBENE
  0
SPLINE
  5
25C
330
1F
100
AcDbEntity
  8
STANDARDEBENE
 62
     7
100
AcDbSpline
210
0.0
220
0.0
230
1.0
 70
     8
 71
     3
 72
     8
 73
     4
 74
     0
 42
0.0000000001
 43
0.0000000001
 40
0.0
 40
0.0
 40
0.0
 40
0.0
 40
1.0
 40
1.0
 40
1.0
 40
1.0
 10
97.03944658761006
 20
-61.22989470714099
 30
0.0
 10
79.83566191367677
 20
-56.78726889336149
 30
0.0
 10
62.52128960171293
 20
-57.10352886754237
 30
0.0
 10
47.03970929698469
 20
-61.22989470714099
 30
0.0
  0
POLYLINE
  5
25D
330
1F
100
AcDbEntity
  8
STANDARDEBENE
 62
     7
100
AcDb2dPolyline
 66
     1
 10
0.0
 20
0.0
 30
0.0
  0
VERTEX
  5
25E
330
25D
100
AcDbEntity
  8
STANDARDEBENE
 62
     7
100
AcDbVertex
100
AcDb2dVertex
 10
47.03970929698469
 20
-62.2627350149779
 30
0.0
  0
VERTEX
  5
25F
330
25D
100
AcDbEntity
  8
STANDARDEBENE
 62
     7
100
AcDbVertex
100
AcDb2dVertex
 10
47.03970929698469
 20
-61.22989470714099
 30
0.0
  0
SEQEND
  5
260
330
25D
100
AcDbEntity
  8
STANDARDEBENE
  0
POLYLINE
  5
261
330
1F
100
AcDbEntity
  8
STANDARDEBENE
 62
     7
100
AcDb2dPolyline
 66
     1
 10
0.0
 20
0.0
 30
0.0
  0
VERTEX
  5
262
330
261
100
AcDbEntity
  8
STANDARDEBENE
 62
     7
100
AcDbVertex
100
AcDb2dVertex
 10
97.03944658761006
 20
-48.87973600951203
 30
0.0
  0
VERTEX
  5
263
330
261
100
AcDbEntity
  8
STANDARDEBENE
 62
     7
100
AcDbVertex
100
AcDb2dVertex
 10
97.03944658761006
 20
-49.3949503792152
 30
0.0
  0
VERTEX
  5
264
330
261
100
AcDbEntity
  8
STANDARDEBENE
 62
     7
100
AcDbVertex
100
AcDb2dVertex
 10
97.03944658761006
 20
-61.22989470714099
 30
0.0
  0
SEQEND
  5
265
330
261
100
AcDbEntity
  8
STANDARDEBENE
  0
SPLINE
  5
266
330
1F
100
AcDbEntity
  8
STANDARDEBENE
 62
     7
100
AcDbSpline
210
0.0
220
0.0
230
1.0
 70
     8
 71
     3
 72
     8
 73
     4
 74
     0
 42
0.0000000001
 43
0.0000000001
 40
0.0
 40
0.0
 40
0.0
 40
0.0
 40
1.0
 40
1.0
 40
1.0
 40
1.0
 10
97.03944658761006
 20
-48.87973600951203
 30
0.0
 10
79.75814721412264
 20
-44.92269672471723
 30
0.0
 10
62.49441783920083
 20
-45.19572072203569
 30
0.0
 10
47.03970929698469
 20
-48.87973600951203
 30
0.0
  0
POLYLINE
  5
267
330
1F
100
AcDbEntity
  8
STANDARDEBENE
 62
     7
100
AcDb2dPolyline
 66
     1
 10
0.0
 20
0.0
 30
0.0
  0
VERTEX
  5
268
330
267
100
AcDbEntity
  8
STANDARDEBENE
 62
     7
100
AcDbVertex
100
AcDb2dVertex
 10
47.03970929698469
 20
-61.22989470714099
 30
0.0
  0
VERTEX
  5
269
330
267
100
AcDbEntity
  8
STANDARDEBENE
 62
     7
100
AcDbVertex
100
AcDb2dVertex
 10
47.03970929698469
 20
-49.3949503792152
 30
0.0
  0
VERTEX
  5
26A
330
267
100
AcDbEntity
  8
STANDARDEBENE
 62
     7
100
AcDbVertex
100
AcDb2dVertex
 10
47.03970929698469
 20
-48.87973600951203
 30
0.0
  0
SEQEND
  5
26B
330
267
100
AcDbEntity
  8
STANDARDEBENE
  0
POLYLINE
  5
26C
330
1F
100
AcDbEntity
  8
STANDARDEBENE
 62
     7
100
AcDb2dPolyline
 66
     1
 10
0.0
 20
0.0
 30
0.0
  0
VERTEX
  5
26D
330
26C
100
AcDbEntity
  8
STANDARDEBENE
 62
     7
100
AcDbVertex
100
AcDb2dVertex
 10
90.2825763549198
 20
-122.4558275518603
 30
0.0
  0
VERTEX
  5
26E
330
26C
100
AcDbEntity
  8
STANDARDEBENE
 62
     7
100
AcDbVertex
100
AcDb2dVertex
 10
95.28726986791075
 20
-113.7871003183892
 30
0.0
  0
SEQEND
  5
26F
330
26C
100
AcDbEntity
  8
STANDARDEBENE
  0
POLYLINE
  5
270
330
1F
100
AcDbEntity
  8
STANDARDEBENE
 62
     7
100
AcDb2dPolyline
 66
     1
 10
0.0
 20
0.0
 30
0.0
  0
VERTEX
  5
271
330
270
100
AcDbEntity
  8
STANDARDEBENE
 62
     7
100
AcDbVertex
100
AcDb2dVertex
 10
89.90912775795675
 20
-123.1035059303571
 30
0.0
  0
VERTEX
  5
272
330
270
100
AcDbEntity
  8
STANDARDEBENE
 62
     7
100
AcDbVertex
100
AcDb2dVertex
 10
90.11858970164083
 20
-122.7390145875648
 30
0.0
  0
VERTEX
  5
273
330
270
100
AcDbEntity
  8
STANDARDEBENE
 62
     7
100
AcDbVertex
100
AcDb2dVertex
 10
90.2825763549198
 20
-122.4558275518603
 30
0.0
  0
SEQEND
  5
274
330
270
100
AcDbEntity
  8
STANDARDEBENE
  0
POLYLINE
  5
275
330
1F
100
AcDbEntity
  8
STANDARDEBENE
 62
     7
100
AcDb2dPolyline
 66
     1
 10
0.0
 20
0.0
 30
0.0
  0
VERTEX
  5
276
330
275
100
AcDbEntity
  8
STANDARDEBENE
 62
     7
100
AcDbVertex
100
AcDb2dVertex
 10
89.4199238763262
 20
-123.9503109592641
 30
0.0
  0
VERTEX
  5
277
330
275
100
AcDbEntity
  8
STANDARDEBENE
 62
     7
100
AcDbVertex
100
AcDb2dVertex
 10
89.90912775795675
 20
-123.1035059303571
 30
0.0
  0
SEQEND
  5
278
330
275
100
AcDbEntity
  8
STANDARDEBENE
  0
POLYLINE
  5
279
330
1F
100
AcDbEntity
  8
STANDARDEBENE
 62
     7
100
AcDb2dPolyline
 66
     1
 10
0.0
 20
0.0
 30
0.0
  0
VERTEX
  5
27A
330
279
100
AcDbEntity
  8
STANDARDEBENE
 62
     7
100
AcDbVertex
100
AcDb2dVertex
 10
88.53005512544469
 20
-125.491992205952
 30
0.0
  0
VERTEX
  5
27B
330
279
100
AcDbEntity
  8
STANDARDEBENE
 62
     7
100
AcDbVertex
100
AcDb2dVertex
 10
88.98101842196188
 20
-124.7096105051189
 30
0.0
  0
VERTEX
  5
27C
330
279
100
AcDbEntity
  8
STANDARDEBENE
 62
     7
100
AcDbVertex
100
AcDb2dVertex
 10
89.40614348529435
 20
-123.9737376240182
 30
0.0
  0
SEQEND
  5
27D
330
279
100
AcDbEntity
  8
STANDARDEBENE
  0
POLYLINE
  5
27E
330
1F
100
AcDbEntity
  8
STANDARDEBENE
 62
     7
100
AcDb2dPolyline
 66
     1
 10
0.0
 20
0.0
 30
0.0
  0
VERTEX
  5
27F
330
27E
100
AcDbEntity
  8
STANDARDEBENE
 62
     7
100
AcDbVertex
100
AcDb2dVertex
 10
85.80015966203585
 20
-130.2203888787544
 30
0.0
  0
VERTEX
  5
280
330
27E
100
AcDbEntity
  8
STANDARDEBENE
 62
     7
100
AcDbVertex
100
AcDb2dVertex
 10
88.53005512544469
 20
-125.491992205952
 30
0.0
  0
SEQEND
  5
281
330
27E
100
AcDbEntity
  8
STANDARDEBENE
  0
POLYLINE
  5
282
330
1F
100
AcDbEntity
  8
STANDARDEBENE
 62
     7
100
AcDb2dPolyline
 66
     1
 10
0.0
 20
0.0
 30
0.0
  0
VERTEX
  5
283
330
282
100
AcDbEntity
  8
STANDARDEBENE
 62
     7
100
AcDbVertex
100
AcDb2dVertex
 10
85.3991502830091
 20
-130.913887057432
 30
0.0
  0
VERTEX
  5
284
330
282
100
AcDbEntity
  8
STANDARDEBENE
 62
     7
100
AcDbVertex
100
AcDb2dVertex
 10
85.61653595153649
 20
-130.53871591159
 30
0.0
  0
VERTEX
  5
285
330
282
100
AcDbEntity
  8
STANDARDEBENE
 62
     7
100
AcDbVertex
100
AcDb2dVertex
 10
85.80015966203585
 20
-130.2203888787544
 30
0.0
  0
SEQEND
  5
286
330
282
100
AcDbEntity
  8
STANDARDEBENE
  0
POLYLINE
  5
287
330
1F
100
AcDbEntity
  8
STANDARDEBENE
 62
     7
100
AcDb2dPolyline
 66
     1
 10
0.0
 20
0.0
 30
0.0
  0
VERTEX
  5
288
330
287
100
AcDbEntity
  8
STANDARDEBENE
 62
     7
100
AcDbVertex
100
AcDb2dVertex
 10
58.67966109180985
 20
-130.913887057432
 30
0.0
  0
VERTEX
  5
289
330
287
100
AcDbEntity
  8
STANDARDEBENE
 62
     7
100
AcDbVertex
100
AcDb2dVertex
 10
58.46296444283406
 20
-130.53871591159
 30
0.0
  0
VERTEX
  5
28A
330
287
100
AcDbEntity
  8
STANDARDEBENE
 62
     7
100
AcDbVertex
100
AcDb2dVertex
 10
58.27830720300731
 20
-130.2203888787544
 30
0.0
  0
VERTEX
  5
28B
330
287
100
AcDbEntity
  8
STANDARDEBENE
 62
     7
100
AcDbVertex
100
AcDb2dVertex
 10
55.54910075915006
 20
-125.491992205952
 30
0.0
  0
VERTEX
  5
28C
330
287
100
AcDbEntity
  8
STANDARDEBENE
 62
     7
100
AcDbVertex
100
AcDb2dVertex
 10
55.09744844308128
 20
-124.7096105051189
 30
0.0
  0
VERTEX
  5
28D
330
287
100
AcDbEntity
  8
STANDARDEBENE
 62
     7
100
AcDbVertex
100
AcDb2dVertex
 10
54.67266788952461
 20
-123.9737376240182
 30
0.0
  0
SEQEND
  5
28E
330
287
100
AcDbEntity
  8
STANDARDEBENE
  0
POLYLINE
  5
28F
330
1F
100
AcDbEntity
  8
STANDARDEBENE
 62
     7
100
AcDb2dPolyline
 66
     1
 10
0.0
 20
0.0
 30
0.0
  0
VERTEX
  5
290
330
28F
100
AcDbEntity
  8
STANDARDEBENE
 62
     7
100
AcDbVertex
100
AcDb2dVertex
 10
54.65888749849276
 20
-123.9503109592641
 30
0.0
  0
VERTEX
  5
291
330
28F
100
AcDbEntity
  8
STANDARDEBENE
 62
     7
100
AcDbVertex
100
AcDb2dVertex
 10
54.17037263641379
 20
-123.1035059303571
 30
0.0
  0
VERTEX
  5
292
330
28F
100
AcDbEntity
  8
STANDARDEBENE
 62
     7
100
AcDbVertex
100
AcDb2dVertex
 10
53.95987716340233
 20
-122.7390145875648
 30
0.0
  0
VERTEX
  5
293
330
28F
100
AcDbEntity
  8
STANDARDEBENE
 62
     7
100
AcDbVertex
100
AcDb2dVertex
 10
53.79589051012336
 20
-122.4558275518603
 30
0.0
  0
VERTEX
  5
294
330
28F
100
AcDbEntity
  8
STANDARDEBENE
 62
     7
100
AcDbVertex
100
AcDb2dVertex
 10
48.79154150690821
 20
-113.7871003183892
 30
0.0
  0
SEQEND
  5
295
330
28F
100
AcDbEntity
  8
STANDARDEBENE
  0
SPLINE
  5
296
330
1F
100
AcDbEntity
  8
STANDARDEBENE
 62
     7
100
AcDbSpline
210
0.0
220
0.0
230
1.0
 70
     8
 71
     3
 72
     8
 73
     4
 74
     0
 42
0.0000000001
 43
0.0000000001
 40
0.0
 40
0.0
 40
0.0
 40
0.0
 40
1.0
 40
1.0
 40
1.0
 40
1.0
 10
95.28726986791075
 20
-113.7871003183892
 30
0.0
 10
80.23529325360033
 20
-105.8818067480824
 30
0.0
 10
62.98982289679572
 20
-106.4116627832569
 30
0.0
 10
48.79154150690821
 20
-113.7871003183892
 30
0.0
  0
SPLINE
  5
297
330
1F
100
AcDbEntity
  8
STANDARDEBENE
 62
     7
100
AcDbSpline
210
0.0
220
0.0
230
1.0
 70
     8
 71
     3
 72
     8
 73
     4
 74
     0
 42
0.0000000001
 43
0.0000000001
 40
0.0
 40
0.0
 40
0.0
 40
0.0
 40
1.0
 40
1.0
 40
1.0
 40
1.0
 10
85.3991502830091
 20
-130.913887057432
 30
0.0
 10
76.6692725643342
 20
-126.6168166239264
 30
0.0
 10
66.87348159934592
 20
-126.9151620897659
 30
0.0
 10
58.67966109180985
 20
-130.913887057432
 30
0.0
  0
SPLINE
  5
298
330
1F
100
AcDbEntity
  8
STANDARDEBENE
 62
     7
100
AcDbSpline
210
0.0
220
0.0
230
1.0
 70
     8
 71
     3
 72
     8
 73
     4
 74
     0
 42
0.0000000001
 43
0.0000000001
 40
0.0
 40
0.0
 40
0.0
 40
0.0
 40
1.0
 40
1.0
 40
1.0
 40
1.0
 10
85.80015966203585
 20
-130.2203888787544
 30
0.0
 10
76.81396667016858
 20
-125.7769017905354
 30
0.0
 10
66.71569612203128
 20
-126.085238039873
 30
0.0
 10
58.27830720300731
 20
-130.2203888787544
 30
0.0
  0
SPLINE
  5
299
330
1F
100
AcDbEntity
  8
STANDARDEBENE
 62
     7
100
AcDbSpline
210
0.0
220
0.0
230
1.0
 70
     8
 71
     3
 72
     8
 73
     4
 74
     0
 42
0.0000000001
 43
0.0000000001
 40
0.0
 40
0.0
 40
0.0
 40
0.0
 40
1.0
 40
1.0
 40
1.0
 40
1.0
 10
88.5293661058931
 20
-125.491992205952
 30
0.0
 10
77.79616404096346
 20
-120.0556279438884
 30
0.0
 10
65.64495973885678
 20
-120.4276985017483
 30
0.0
 10
55.54910075915006
 20
-125.491992205952
 30
0.0
  0
SPLINE
  5
29A
330
1F
100
AcDbEntity
  8
STANDARDEBENE
 62
     7
100
AcDbSpline
210
0.0
220
0.0
230
1.0
 70
     8
 71
     3
 72
     8
 73
     4
 74
     0
 42
0.0000000001
 43
0.0000000001
 40
0.0
 40
0.0
 40
0.0
 40
0.0
 40
1.0
 40
1.0
 40
1.0
 40
1.0
 10
89.40614348529435
 20
-123.9737376240182
 30
0.0
 10
78.11139048581695
 20
-118.2183573095674
 30
0.0
 10
65.30113898261222
 20
-118.6110984539751
 30
0.0
 10
54.67266788952461
 20
-123.9737376240182
 30
0.0
  0
POLYLINE
  5
29B
330
1F
100
AcDbEntity
  8
STANDARDEBENE
 62
     7
100
AcDb2dPolyline
 66
     1
 10
0.0
 20
0.0
 30
0.0
  0
VERTEX
  5
29C
330
29B
100
AcDbEntity
  8
STANDARDEBENE
 62
     7
100
AcDbVertex
100
AcDb2dVertex
 10
-5.933491868537416
 20
-190.36077141994
 30
0.0
  0
VERTEX
  5
29D
330
29B
100
AcDbEntity
  8
STANDARDEBENE
 62
     7
100
AcDbVertex
100
AcDb2dVertex
 10
-7.432970667690241
 20
-190.36077141994
 30
0.0
  0
SEQEND
  5
29E
330
29B
100
AcDbEntity
  8
STANDARDEBENE
  0
POLYLINE
  5
29F
330
1F
100
AcDbEntity
  8
STANDARDEBENE
 62
     7
100
AcDb2dPolyline
 66
     1
 10
0.0
 20
0.0
 30
0.0
  0
VERTEX
  5
2A0
330
29F
100
AcDbEntity
  8
STANDARDEBENE
 62
     7
100
AcDbVertex
100
AcDb2dVertex
 10
-7.432970667690241
 20
-195.3599527765182
 30
0.0
  0
VERTEX
  5
2A1
330
29F
100
AcDbEntity
  8
STANDARDEBENE
 62
     7
100
AcDbVertex
100
AcDb2dVertex
 10
-5.933491868537416
 20
-195.3599527765182
 30
0.0
  0
SEQEND
  5
2A2
330
29F
100
AcDbEntity
  8
STANDARDEBENE
  0
POLYLINE
  5
2A3
330
1F
100
AcDbEntity
  8
STANDARDEBENE
 62
     7
100
AcDb2dPolyline
 66
     1
 10
0.0
 20
0.0
 30
0.0
  0
VERTEX
  5
2A4
330
2A3
100
AcDbEntity
  8
STANDARDEBENE
 62
     7
100
AcDbVertex
100
AcDb2dVertex
 10
-7.432970667690241
 20
-187.8606639769872
 30
0.0
  0
VERTEX
  5
2A5
330
2A3
100
AcDbEntity
  8
STANDARDEBENE
 62
     7
100
AcDbVertex
100
AcDb2dVertex
 10
2.031574147870008
 20
-187.8606639769872
 30
0.0
  0
SEQEND
  5
2A6
330
2A3
100
AcDbEntity
  8
STANDARDEBENE
  0
POLYLINE
  5
2A7
330
1F
100
AcDbEntity
  8
STANDARDEBENE
 62
     7
100
AcDb2dPolyline
 66
     1
 10
0.0
 20
0.0
 30
0.0
  0
VERTEX
  5
2A8
330
2A7
100
AcDbEntity
  8
STANDARDEBENE
 62
     7
100
AcDbVertex
100
AcDb2dVertex
 10
2.067058654777013
 20
-209.8607137495547
 30
0.0
  0
VERTEX
  5
2A9
330
2A7
100
AcDbEntity
  8
STANDARDEBENE
 62
     7
100
AcDbVertex
100
AcDb2dVertex
 10
2.067058654777013
 20
-215.3845834946705
 30
0.0
  0
VERTEX
  5
2AA
330
2A7
100
AcDbEntity
  8
STANDARDEBENE
 62
     7
100
AcDbVertex
100
AcDb2dVertex
 10
2.067058654777013
 20
-220.8605663809506
 30
0.0
  0
SEQEND
  5
2AB
330
2A7
100
AcDbEntity
  8
STANDARDEBENE
  0
POLYLINE
  5
2AC
330
1F
100
AcDbEntity
  8
STANDARDEBENE
 62
     7
100
AcDb2dPolyline
 66
     1
 10
0.0
 20
0.0
 30
0.0
  0
VERTEX
  5
2AD
330
2AC
100
AcDbEntity
  8
STANDARDEBENE
 62
     7
100
AcDbVertex
100
AcDb2dVertex
 10
-30.43313231939407
 20
-186.8605520978509
 30
0.0
  0
VERTEX
  5
2AE
330
2AC
100
AcDbEntity
  8
STANDARDEBENE
 62
     7
100
AcDbVertex
100
AcDb2dVertex
 10
-48.4325623205286
 20
-186.8605520978509
 30
0.0
  0
SEQEND
  5
2AF
330
2AC
100
AcDbEntity
  8
STANDARDEBENE
  0
POLYLINE
  5
2B0
330
1F
100
AcDbEntity
  8
STANDARDEBENE
 62
     7
100
AcDb2dPolyline
 66
     1
 10
0.0
 20
0.0
 30
0.0
  0
VERTEX
  5
2B1
330
2B0
100
AcDbEntity
  8
STANDARDEBENE
 62
     7
100
AcDbVertex
100
AcDb2dVertex
 10
-30.43313231939407
 20
-204.8601543538733
 30
0.0
  0
VERTEX
  5
2B2
330
2B0
100
AcDbEntity
  8
STANDARDEBENE
 62
     7
100
AcDbVertex
100
AcDb2dVertex
 10
-28.92641881494952
 20
-204.7330302466046
 30
0.0
  0
VERTEX
  5
2B3
330
2B0
100
AcDbEntity
  8
STANDARDEBENE
 62
     7
100
AcDbVertex
100
AcDb2dVertex
 10
-27.46311354225529
 20
-204.3564810616593
 30
0.0
  0
VERTEX
  5
2B4
330
2B0
100
AcDbEntity
  8
STANDARDEBENE
 62
     7
100
AcDbVertex
100
AcDb2dVertex
 10
-26.08507443907062
 20
-203.7394640532084
 30
0.0
  0
VERTEX
  5
2B5
330
2B0
100
AcDbEntity
  8
STANDARDEBENE
 62
     7
100
AcDbVertex
100
AcDb2dVertex
 10
-24.82830277696619
 20
-202.9016162784721
 30
0.0
  0
VERTEX
  5
2B6
330
2B0
100
AcDbEntity
  8
STANDARDEBENE
 62
     7
100
AcDbVertex
100
AcDb2dVertex
 10
-23.72742178840954
 20
-201.8622302848951
 30
0.0
  0
VERTEX
  5
2B7
330
2B0
100
AcDbEntity
  8
STANDARDEBENE
 62
     7
100
AcDbVertex
100
AcDb2dVertex
 10
-22.81533215698918
 20
-200.6526564620747
 30
0.0
  0
VERTEX
  5
2B8
330
2B0
100
AcDbEntity
  8
STANDARDEBENE
 62
     7
100
AcDbVertex
100
AcDb2dVertex
 10
-22.11856113544143
 20
-199.3028671605053
 30
0.0
  0
VERTEX
  5
2B9
330
2B0
100
AcDbEntity
  8
STANDARDEBENE
 62
     7
100
AcDbVertex
100
AcDb2dVertex
 10
-21.65726254565036
 20
-197.8552370826098
 30
0.0
  0
VERTEX
  5
2BA
330
2B0
100
AcDbEntity
  8
STANDARDEBENE
 62
     7
100
AcDbVertex
100
AcDb2dVertex
 10
-21.44797285685419
 20
-196.3562750481207
 30
0.0
  0
VERTEX
  5
2BB
330
2B0
100
AcDbEntity
  8
STANDARDEBENE
 62
     7
100
AcDbVertex
100
AcDb2dVertex
 10
-21.49120883371661
 20
-194.8424990932723
 30
0.0
  0
VERTEX
  5
2BC
330
2B0
100
AcDbEntity
  8
STANDARDEBENE
 62
     7
100
AcDbVertex
100
AcDb2dVertex
 10
-21.78714273112551
 20
-193.3635186257794
 30
0.0
  0
VERTEX
  5
2BD
330
2B0
100
AcDbEntity
  8
STANDARDEBENE
 62
     7
100
AcDbVertex
100
AcDb2dVertex
 10
-22.32492249114333
 20
-191.9548181525489
 30
0.0
  0
VERTEX
  5
2BE
330
2B0
100
AcDbEntity
  8
STANDARDEBENE
 62
     7
100
AcDbVertex
100
AcDb2dVertex
 10
-23.0923180167293
 20
-190.6539492391425
 30
0.0
  0
VERTEX
  5
2BF
330
2B0
100
AcDbEntity
  8
STANDARDEBENE
 62
     7
100
AcDbVertex
100
AcDb2dVertex
 10
-24.06590264312927
 20
-189.500530509777
 30
0.0
  0
VERTEX
  5
2C0
330
2B0
100
AcDbEntity
  8
STANDARDEBENE
 62
     7
100
AcDbVertex
100
AcDb2dVertex
 10
-25.22448901913179
 20
-188.5221227465158
 30
0.0
  0
VERTEX
  5
2C1
330
2B0
100
AcDbEntity
  8
STANDARDEBENE
 62
     7
100
AcDbVertex
100
AcDb2dVertex
 10
-26.53104234383876
 20
-187.7504208487324
 30
0.0
  0
VERTEX
  5
2C2
330
2B0
100
AcDbEntity
  8
STANDARDEBENE
 62
     7
100
AcDbVertex
100
AcDb2dVertex
 10
-27.94956134567948
 20
-187.2112630496114
 30
0.0
  0
VERTEX
  5
2C3
330
2B0
100
AcDbEntity
  8
STANDARDEBENE
 62
     7
100
AcDbVertex
100
AcDb2dVertex
 10
-29.43973838088581
 20
-186.9156736619783
 30
0.0
  0
VERTEX
  5
2C4
330
2B0
100
AcDbEntity
  8
STANDARDEBENE
 62
     7
100
AcDbVertex
100
AcDb2dVertex
 10
-30.43313231939407
 20
-186.8605520978509
 30
0.0
  0
SEQEND
  5
2C5
330
2B0
100
AcDbEntity
  8
STANDARDEBENE
  0
POLYLINE
  5
2C6
330
1F
100
AcDbEntity
  8
STANDARDEBENE
 62
     7
100
AcDb2dPolyline
 66
     1
 10
0.0
 20
0.0
 30
0.0
  0
VERTEX
  5
2C7
330
2C6
100
AcDbEntity
  8
STANDARDEBENE
 62
     7
100
AcDbVertex
100
AcDb2dVertex
 10
-48.4325623205286
 20
-204.8601543538733
 30
0.0
  0
VERTEX
  5
2C8
330
2C6
100
AcDbEntity
  8
STANDARDEBENE
 62
     7
100
AcDbVertex
100
AcDb2dVertex
 10
-30.43313231939407
 20
-204.8601543538733
 30
0.0
  0
SEQEND
  5
2C9
330
2C6
100
AcDbEntity
  8
STANDARDEBENE
  0
POLYLINE
  5
2CA
330
1F
100
AcDbEntity
  8
STANDARDEBENE
 62
     7
100
AcDb2dPolyline
 66
     1
 10
0.0
 20
0.0
 30
0.0
  0
VERTEX
  5
2CB
330
2CA
100
AcDbEntity
  8
STANDARDEBENE
 62
     7
100
AcDbVertex
100
AcDb2dVertex
 10
-48.4325623205286
 20
-204.8601543538733
 30
0.0
  0
VERTEX
  5
2CC
330
2CA
100
AcDbEntity
  8
STANDARDEBENE
 62
     7
100
AcDbVertex
100
AcDb2dVertex
 10
-48.4325623205286
 20
-210.2589670503751
 30
0.0
  0
VERTEX
  5
2CD
330
2CA
100
AcDbEntity
  8
STANDARDEBENE
 62
     7
100
AcDbVertex
100
AcDb2dVertex
 10
-48.4325623205286
 20
-215.5995575947673
 30
0.0
  0
VERTEX
  5
2CE
330
2CA
100
AcDbEntity
  8
STANDARDEBENE
 62
     7
100
AcDbVertex
100
AcDb2dVertex
 10
-48.4325623205286
 20
-220.8605663809506
 30
0.0
  0
SEQEND
  5
2CF
330
2CA
100
AcDbEntity
  8
STANDARDEBENE
  0
POLYLINE
  5
2D0
330
1F
100
AcDbEntity
  8
STANDARDEBENE
 62
     7
100
AcDb2dPolyline
 66
     1
 10
0.0
 20
0.0
 30
0.0
  0
VERTEX
  5
2D1
330
2D0
100
AcDbEntity
  8
STANDARDEBENE
 62
     7
100
AcDbVertex
100
AcDb2dVertex
 10
-19.43327968799819
 20
-220.8605663809506
 30
0.0
  0
VERTEX
  5
2D2
330
2D0
100
AcDbEntity
  8
STANDARDEBENE
 62
     7
100
AcDbVertex
100
AcDb2dVertex
 10
-48.4325623205286
 20
-220.8605663809506
 30
0.0
  0
SEQEND
  5
2D3
330
2D0
100
AcDbEntity
  8
STANDARDEBENE
  0
POLYLINE
  5
2D4
330
1F
100
AcDbEntity
  8
STANDARDEBENE
 62
     7
100
AcDb2dPolyline
 66
     1
 10
0.0
 20
0.0
 30
0.0
  0
VERTEX
  5
2D5
330
2D4
100
AcDbEntity
  8
STANDARDEBENE
 62
     7
100
AcDbVertex
100
AcDb2dVertex
 10
-48.4325623205286
 20
-170.8601400707736
 30
0.0
  0
VERTEX
  5
2D6
330
2D4
100
AcDbEntity
  8
STANDARDEBENE
 62
     7
100
AcDbVertex
100
AcDb2dVertex
 10
-19.43327968799819
 20
-170.8601400707736
 30
0.0
  0
SEQEND
  5
2D7
330
2D4
100
AcDbEntity
  8
STANDARDEBENE
  0
POLYLINE
  5
2D8
330
1F
100
AcDbEntity
  8
STANDARDEBENE
 62
     7
100
AcDb2dPolyline
 66
     1
 10
0.0
 20
0.0
 30
0.0
  0
VERTEX
  5
2D9
330
2D8
100
AcDbEntity
  8
STANDARDEBENE
 62
     7
100
AcDbVertex
100
AcDb2dVertex
 10
-48.4325623205286
 20
-170.8601400707736
 30
0.0
  0
VERTEX
  5
2DA
330
2D8
100
AcDbEntity
  8
STANDARDEBENE
 62
     7
100
AcDbVertex
100
AcDb2dVertex
 10
-48.4325623205286
 20
-176.1211488569569
 30
0.0
  0
VERTEX
  5
2DB
330
2D8
100
AcDbEntity
  8
STANDARDEBENE
 62
     7
100
AcDbVertex
100
AcDb2dVertex
 10
-48.4325623205286
 20
-181.4624284209007
 30
0.0
  0
VERTEX
  5
2DC
330
2D8
100
AcDbEntity
  8
STANDARDEBENE
 62
     7
100
AcDbVertex
100
AcDb2dVertex
 10
-48.4325623205286
 20
-186.8605520978509
 30
0.0
  0
SEQEND
  5
2DD
330
2D8
100
AcDbEntity
  8
STANDARDEBENE
  0
POLYLINE
  5
2DE
330
1F
100
AcDbEntity
  8
STANDARDEBENE
 62
     7
100
AcDb2dPolyline
 66
     1
 10
0.0
 20
0.0
 30
0.0
  0
VERTEX
  5
2DF
330
2DE
100
AcDbEntity
  8
STANDARDEBENE
 62
     7
100
AcDbVertex
100
AcDb2dVertex
 10
-17.43288367483774
 20
-220.8605663809506
 30
0.0
  0
VERTEX
  5
2E0
330
2DE
100
AcDbEntity
  8
STANDARDEBENE
 62
     7
100
AcDbVertex
100
AcDb2dVertex
 10
-17.51332670748614
 20
-220.8605663809506
 30
0.0
  0
VERTEX
  5
2E1
330
2DE
100
AcDbEntity
  8
STANDARDEBENE
 62
     7
100
AcDbVertex
100
AcDb2dVertex
 10
-17.82596932902116
 20
-220.8605663809506
 30
0.0
  0
VERTEX
  5
2E2
330
2DE
100
AcDbEntity
  8
STANDARDEBENE
 62
     7
100
AcDbVertex
100
AcDb2dVertex
 10
-18.33429350320841
 20
-220.8605663809506
 30
0.0
  0
VERTEX
  5
2E3
330
2DE
100
AcDbEntity
  8
STANDARDEBENE
 62
     7
100
AcDbVertex
100
AcDb2dVertex
 10
-18.95906198161476
 20
-220.8605663809506
 30
0.0
  0
VERTEX
  5
2E4
330
2DE
100
AcDbEntity
  8
STANDARDEBENE
 62
     7
100
AcDbVertex
100
AcDb2dVertex
 10
-19.43327968799819
 20
-220.8605663809506
 30
0.0
  0
SEQEND
  5
2E5
330
2DE
100
AcDbEntity
  8
STANDARDEBENE
  0
POLYLINE
  5
2E6
330
1F
100
AcDbEntity
  8
STANDARDEBENE
 62
     7
100
AcDb2dPolyline
 66
     1
 10
0.0
 20
0.0
 30
0.0
  0
VERTEX
  5
2E7
330
2E6
100
AcDbEntity
  8
STANDARDEBENE
 62
     7
100
AcDbVertex
100
AcDb2dVertex
 10
-19.43327968799819
 20
-170.8601400707736
 30
0.0
  0
VERTEX
  5
2E8
330
2E6
100
AcDbEntity
  8
STANDARDEBENE
 62
     7
100
AcDbVertex
100
AcDb2dVertex
 10
-19.33991753875743
 20
-170.8601400707736
 30
0.0
  0
VERTEX
  5
2E9
330
2E6
100
AcDbEntity
  8
STANDARDEBENE
 62
     7
100
AcDbVertex
100
AcDb2dVertex
 10
-18.71067043326573
 20
-170.8601400707736
 30
0.0
  0
VERTEX
  5
2EA
330
2E6
100
AcDbEntity
  8
STANDARDEBENE
 62
     7
100
AcDbVertex
100
AcDb2dVertex
 10
-18.15893802732816
 20
-170.8601400707736
 30
0.0
  0
VERTEX
  5
2EB
330
2E6
100
AcDbEntity
  8
STANDARDEBENE
 62
     7
100
AcDbVertex
100
AcDb2dVertex
 10
-17.7326071797804
 20
-170.8601400707736
 30
0.0
  0
VERTEX
  5
2EC
330
2E6
100
AcDbEntity
  8
STANDARDEBENE
 62
     7
100
AcDbVertex
100
AcDb2dVertex
 10
-17.4807705336734
 20
-170.8601400707736
 30
0.0
  0
VERTEX
  5
2ED
330
2E6
100
AcDbEntity
  8
STANDARDEBENE
 62
     7
100
AcDbVertex
100
AcDb2dVertex
 10
-17.43288367483774
 20
-170.8601400707736
 30
0.0
  0
VERTEX
  5
2EE
330
2E6
100
AcDbEntity
  8
STANDARDEBENE
 62
     7
100
AcDbVertex
100
AcDb2dVertex
 10
-17.43288367483774
 20
-175.3318769606079
 30
0.0
  0
VERTEX
  5
2EF
330
2E6
100
AcDbEntity
  8
STANDARDEBENE
 62
     7
100
AcDbVertex
100
AcDb2dVertex
 10
-17.43288367483774
 20
-179.8480556115199
 30
0.0
  0
VERTEX
  5
2F0
330
2E6
100
AcDbEntity
  8
STANDARDEBENE
 62
     7
100
AcDbVertex
100
AcDb2dVertex
 10
-17.43288367483774
 20
-184.3976517106841
 30
0.0
  0
VERTEX
  5
2F1
330
2E6
100
AcDbEntity
  8
STANDARDEBENE
 62
     7
100
AcDbVertex
100
AcDb2dVertex
 10
-17.43288367483774
 20
-188.9727415332572
 30
0.0
  0
VERTEX
  5
2F2
330
2E6
100
AcDbEntity
  8
STANDARDEBENE
 62
     7
100
AcDbVertex
100
AcDb2dVertex
 10
-17.43288367483774
 20
-193.5626452761896
 30
0.0
  0
VERTEX
  5
2F3
330
2E6
100
AcDbEntity
  8
STANDARDEBENE
 62
     7
100
AcDbVertex
100
AcDb2dVertex
 10
-17.43288367483774
 20
-198.1573721559831
 30
0.0
  0
VERTEX
  5
2F4
330
2E6
100
AcDbEntity
  8
STANDARDEBENE
 62
     7
100
AcDbVertex
100
AcDb2dVertex
 10
-17.43288367483774
 20
-202.747964918467
 30
0.0
  0
VERTEX
  5
2F5
330
2E6
100
AcDbEntity
  8
STANDARDEBENE
 62
     7
100
AcDbVertex
100
AcDb2dVertex
 10
-17.43288367483774
 20
-207.3230547410402
 30
0.0
  0
VERTEX
  5
2F6
330
2E6
100
AcDbEntity
  8
STANDARDEBENE
 62
     7
100
AcDbVertex
100
AcDb2dVertex
 10
-17.43288367483774
 20
-211.8736843695317
 30
0.0
  0
VERTEX
  5
2F7
330
2E6
100
AcDbEntity
  8
STANDARDEBENE
 62
     7
100
AcDbVertex
100
AcDb2dVertex
 10
-17.43288367483774
 20
-216.3888294911163
 30
0.0
  0
VERTEX
  5
2F8
330
2E6
100
AcDbEntity
  8
STANDARDEBENE
 62
     7
100
AcDbVertex
100
AcDb2dVertex
 10
-17.43288367483774
 20
-220.8605663809506
 30
0.0
  0
SEQEND
  5
2F9
330
2E6
100
AcDbEntity
  8
STANDARDEBENE
  0
POLYLINE
  5
2FA
330
1F
100
AcDbEntity
  8
STANDARDEBENE
 62
     7
100
AcDb2dPolyline
 66
     1
 10
0.0
 20
0.0
 30
0.0
  0
VERTEX
  5
2FB
330
2FA
100
AcDbEntity
  8
STANDARDEBENE
 62
     7
100
AcDbVertex
100
AcDb2dVertex
 10
-16.43294405058936
 20
-220.8605663809506
 30
0.0
  0
VERTEX
  5
2FC
330
2FA
100
AcDbEntity
  8
STANDARDEBENE
 62
     7
100
AcDbVertex
100
AcDb2dVertex
 10
-17.43288367483774
 20
-220.8605663809506
 30
0.0
  0
SEQEND
  5
2FD
330
2FA
100
AcDbEntity
  8
STANDARDEBENE
  0
POLYLINE
  5
2FE
330
1F
100
AcDbEntity
  8
STANDARDEBENE
 62
     7
100
AcDb2dPolyline
 66
     1
 10
0.0
 20
0.0
 30
0.0
  0
VERTEX
  5
2FF
330
2FE
100
AcDbEntity
  8
STANDARDEBENE
 62
     7
100
AcDbVertex
100
AcDb2dVertex
 10
-16.43294405058936
 20
-170.8601400707736
 30
0.0
  0
VERTEX
  5
300
330
2FE
100
AcDbEntity
  8
STANDARDEBENE
 62
     7
100
AcDbVertex
100
AcDb2dVertex
 10
-16.43294405058936
 20
-175.3332549997111
 30
0.0
  0
VERTEX
  5
301
330
2FE
100
AcDbEntity
  8
STANDARDEBENE
 62
     7
100
AcDbVertex
100
AcDb2dVertex
 10
-16.43294405058936
 20
-179.8501226701747
 30
0.0
  0
VERTEX
  5
302
330
2FE
100
AcDbEntity
  8
STANDARDEBENE
 62
     7
100
AcDbVertex
100
AcDb2dVertex
 10
-16.43294405058936
 20
-184.4000632791147
 30
0.0
  0
VERTEX
  5
303
330
2FE
100
AcDbEntity
  8
STANDARDEBENE
 62
     7
100
AcDbVertex
100
AcDb2dVertex
 10
-16.43294405058936
 20
-188.9751531016878
 30
0.0
  0
VERTEX
  5
304
330
2FE
100
AcDbEntity
  8
STANDARDEBENE
 62
     7
100
AcDbVertex
100
AcDb2dVertex
 10
-16.43294405058936
 20
-193.5633342957412
 30
0.0
  0
VERTEX
  5
305
330
2FE
100
AcDbEntity
  8
STANDARDEBENE
 62
     7
100
AcDbVertex
100
AcDb2dVertex
 10
-16.43294405058936
 20
-198.1573721559831
 30
0.0
  0
VERTEX
  5
306
330
2FE
100
AcDbEntity
  8
STANDARDEBENE
 62
     7
100
AcDbVertex
100
AcDb2dVertex
 10
-16.43294405058936
 20
-202.746242369588
 30
0.0
  0
VERTEX
  5
307
330
2FE
100
AcDbEntity
  8
STANDARDEBENE
 62
     7
100
AcDbVertex
100
AcDb2dVertex
 10
-16.43294405058936
 20
-207.3206431726096
 30
0.0
  0
VERTEX
  5
308
330
2FE
100
AcDbEntity
  8
STANDARDEBENE
 62
     7
100
AcDbVertex
100
AcDb2dVertex
 10
-16.43294405058936
 20
-211.8705837815496
 30
0.0
  0
VERTEX
  5
309
330
2FE
100
AcDbEntity
  8
STANDARDEBENE
 62
     7
100
AcDbVertex
100
AcDb2dVertex
 10
-16.43294405058936
 20
-216.3874514520132
 30
0.0
  0
VERTEX
  5
30A
330
2FE
100
AcDbEntity
  8
STANDARDEBENE
 62
     7
100
AcDbVertex
100
AcDb2dVertex
 10
-16.43294405058936
 20
-220.8605663809506
 30
0.0
  0
SEQEND
  5
30B
330
2FE
100
AcDbEntity
  8
STANDARDEBENE
  0
POLYLINE
  5
30C
330
1F
100
AcDbEntity
  8
STANDARDEBENE
 62
     7
100
AcDb2dPolyline
 66
     1
 10
0.0
 20
0.0
 30
0.0
  0
VERTEX
  5
30D
330
30C
100
AcDbEntity
  8
STANDARDEBENE
 62
     7
100
AcDbVertex
100
AcDb2dVertex
 10
-17.43288367483774
 20
-170.8601400707736
 30
0.0
  0
VERTEX
  5
30E
330
30C
100
AcDbEntity
  8
STANDARDEBENE
 62
     7
100
AcDbVertex
100
AcDb2dVertex
 10
-16.43294405058936
 20
-170.8601400707736
 30
0.0
  0
SEQEND
  5
30F
330
30C
100
AcDbEntity
  8
STANDARDEBENE
  0
POLYLINE
  5
310
330
1F
100
AcDbEntity
  8
STANDARDEBENE
 62
     7
100
AcDb2dPolyline
 66
     1
 10
0.0
 20
0.0
 30
0.0
  0
VERTEX
  5
311
330
310
100
AcDbEntity
  8
STANDARDEBENE
 62
     7
100
AcDbVertex
100
AcDb2dVertex
 10
-10.54923384465449
 20
-220.8605663809506
 30
0.0
  0
VERTEX
  5
312
330
310
100
AcDbEntity
  8
STANDARDEBENE
 62
     7
100
AcDbVertex
100
AcDb2dVertex
 10
-16.43294405058936
 20
-220.8605663809506
 30
0.0
  0
SEQEND
  5
313
330
310
100
AcDbEntity
  8
STANDARDEBENE
  0
POLYLINE
  5
314
330
1F
100
AcDbEntity
  8
STANDARDEBENE
 62
     7
100
AcDb2dPolyline
 66
     1
 10
0.0
 20
0.0
 30
0.0
  0
VERTEX
  5
315
330
314
100
AcDbEntity
  8
STANDARDEBENE
 62
     7
100
AcDbVertex
100
AcDb2dVertex
 10
-10.54923384465449
 20
-170.8601400707736
 30
0.0
  0
VERTEX
  5
316
330
314
100
AcDbEntity
  8
STANDARDEBENE
 62
     7
100
AcDbVertex
100
AcDb2dVertex
 10
-10.54923384465449
 20
-175.3332549997111
 30
0.0
  0
VERTEX
  5
317
330
314
100
AcDbEntity
  8
STANDARDEBENE
 62
     7
100
AcDbVertex
100
AcDb2dVertex
 10
-10.54923384465449
 20
-179.8501226701747
 30
0.0
  0
VERTEX
  5
318
330
314
100
AcDbEntity
  8
STANDARDEBENE
 62
     7
100
AcDbVertex
100
AcDb2dVertex
 10
-10.54923384465449
 20
-184.4000632791147
 30
0.0
  0
VERTEX
  5
319
330
314
100
AcDbEntity
  8
STANDARDEBENE
 62
     7
100
AcDbVertex
100
AcDb2dVertex
 10
-10.54923384465449
 20
-188.9751531016878
 30
0.0
  0
VERTEX
  5
31A
330
314
100
AcDbEntity
  8
STANDARDEBENE
 62
     7
100
AcDbVertex
100
AcDb2dVertex
 10
-10.54923384465449
 20
-193.5633342957412
 30
0.0
  0
VERTEX
  5
31B
330
314
100
AcDbEntity
  8
STANDARDEBENE
 62
     7
100
AcDbVertex
100
AcDb2dVertex
 10
-10.54923384465449
 20
-198.1573721559831
 30
0.0
  0
VERTEX
  5
31C
330
314
100
AcDbEntity
  8
STANDARDEBENE
 62
     7
100
AcDbVertex
100
AcDb2dVertex
 10
-10.54923384465449
 20
-202.746242369588
 30
0.0
  0
VERTEX
  5
31D
330
314
100
AcDbEntity
  8
STANDARDEBENE
 62
     7
100
AcDbVertex
100
AcDb2dVertex
 10
-10.54923384465449
 20
-207.3206431726096
 30
0.0
  0
VERTEX
  5
31E
330
314
100
AcDbEntity
  8
STANDARDEBENE
 62
     7
100
AcDbVertex
100
AcDb2dVertex
 10
-10.54923384465449
 20
-211.8705837815496
 30
0.0
  0
VERTEX
  5
31F
330
314
100
AcDbEntity
  8
STANDARDEBENE
 62
     7
100
AcDbVertex
100
AcDb2dVertex
 10
-10.54923384465449
 20
-216.3874514520132
 30
0.0
  0
VERTEX
  5
320
330
314
100
AcDbEntity
  8
STANDARDEBENE
 62
     7
100
AcDbVertex
100
AcDb2dVertex
 10
-10.54923384465449
 20
-220.8605663809506
 30
0.0
  0
SEQEND
  5
321
330
314
100
AcDbEntity
  8
STANDARDEBENE
  0
POLYLINE
  5
322
330
1F
100
AcDbEntity
  8
STANDARDEBENE
 62
     7
100
AcDb2dPolyline
 66
     1
 10
0.0
 20
0.0
 30
0.0
  0
VERTEX
  5
323
330
322
100
AcDbEntity
  8
STANDARDEBENE
 62
     7
100
AcDbVertex
100
AcDb2dVertex
 10
-16.43294405058936
 20
-170.8601400707736
 30
0.0
  0
VERTEX
  5
324
330
322
100
AcDbEntity
  8
STANDARDEBENE
 62
     7
100
AcDbVertex
100
AcDb2dVertex
 10
-10.54923384465449
 20
-170.8601400707736
 30
0.0
  0
SEQEND
  5
325
330
322
100
AcDbEntity
  8
STANDARDEBENE
  0
POLYLINE
  5
326
330
1F
100
AcDbEntity
  8
STANDARDEBENE
 62
     7
100
AcDb2dPolyline
 66
     1
 10
0.0
 20
0.0
 30
0.0
  0
VERTEX
  5
327
330
326
100
AcDbEntity
  8
STANDARDEBENE
 62
     7
100
AcDbVertex
100
AcDb2dVertex
 10
-8.433599311490214
 20
-220.8605663809506
 30
0.0
  0
VERTEX
  5
328
330
326
100
AcDbEntity
  8
STANDARDEBENE
 62
     7
100
AcDbVertex
100
AcDb2dVertex
 10
-8.521621559206135
 20
-220.8605663809506
 30
0.0
  0
VERTEX
  5
329
330
326
100
AcDbEntity
  8
STANDARDEBENE
 62
     7
100
AcDbVertex
100
AcDb2dVertex
 10
-10.54923384465449
 20
-220.8605663809506
 30
0.0
  0
SEQEND
  5
32A
330
326
100
AcDbEntity
  8
STANDARDEBENE
  0
POLYLINE
  5
32B
330
1F
100
AcDbEntity
  8
STANDARDEBENE
 62
     7
100
AcDb2dPolyline
 66
     1
 10
0.0
 20
0.0
 30
0.0
  0
VERTEX
  5
32C
330
32B
100
AcDbEntity
  8
STANDARDEBENE
 62
     7
100
AcDbVertex
100
AcDb2dVertex
 10
-8.433599311490214
 20
-170.8601400707736
 30
0.0
  0
VERTEX
  5
32D
330
32B
100
AcDbEntity
  8
STANDARDEBENE
 62
     7
100
AcDbVertex
100
AcDb2dVertex
 10
-8.433599311490214
 20
-175.7986877068117
 30
0.0
  0
VERTEX
  5
32E
330
32B
100
AcDbEntity
  8
STANDARDEBENE
 62
     7
100
AcDbVertex
100
AcDb2dVertex
 10
-8.433599311490214
 20
-180.7789210257211
 30
0.0
  0
VERTEX
  5
32F
330
32B
100
AcDbEntity
  8
STANDARDEBENE
 62
     7
100
AcDbVertex
100
AcDb2dVertex
 10
-8.433599311490214
 20
-185.788782185349
 30
0.0
  0
VERTEX
  5
330
330
32B
100
AcDbEntity
  8
STANDARDEBENE
 62
     7
100
AcDbVertex
100
AcDb2dVertex
 10
-8.433599311490214
 20
-190.8193139315247
 30
0.0
  0
VERTEX
  5
331
330
32B
100
AcDbEntity
  8
STANDARDEBENE
 62
     7
100
AcDbVertex
100
AcDb2dVertex
 10
-8.433599311490214
 20
-195.8608699905258
 30
0.0
  0
VERTEX
  5
332
330
32B
100
AcDbEntity
  8
STANDARDEBENE
 62
     7
100
AcDbVertex
100
AcDb2dVertex
 10
-8.433599311490214
 20
-200.9013925201996
 30
0.0
  0
VERTEX
  5
333
330
32B
100
AcDbEntity
  8
STANDARDEBENE
 62
     7
100
AcDbVertex
100
AcDb2dVertex
 10
-8.433599311490214
 20
-205.9319242663752
 30
0.0
  0
VERTEX
  5
334
330
32B
100
AcDbEntity
  8
STANDARDEBENE
 62
     7
100
AcDbVertex
100
AcDb2dVertex
 10
-8.433599311490214
 20
-210.9417854260031
 30
0.0
  0
VERTEX
  5
335
330
32B
100
AcDbEntity
  8
STANDARDEBENE
 62
     7
100
AcDbVertex
100
AcDb2dVertex
 10
-8.433599311490214
 20
-215.9220187449125
 30
0.0
  0
VERTEX
  5
336
330
32B
100
AcDbEntity
  8
STANDARDEBENE
 62
     7
100
AcDbVertex
100
AcDb2dVertex
 10
-8.433599311490214
 20
-220.8605663809506
 30
0.0
  0
SEQEND
  5
337
330
32B
100
AcDbEntity
  8
STANDARDEBENE
  0
POLYLINE
  5
338
330
1F
100
AcDbEntity
  8
STANDARDEBENE
 62
     7
100
AcDb2dPolyline
 66
     1
 10
0.0
 20
0.0
 30
0.0
  0
VERTEX
  5
339
330
338
100
AcDbEntity
  8
STANDARDEBENE
 62
     7
100
AcDbVertex
100
AcDb2dVertex
 10
-10.54923384465449
 20
-170.8601400707736
 30
0.0
  0
VERTEX
  5
33A
330
338
100
AcDbEntity
  8
STANDARDEBENE
 62
     7
100
AcDbVertex
100
AcDb2dVertex
 10
-8.521621559206135
 20
-170.8601400707736
 30
0.0
  0
VERTEX
  5
33B
330
338
100
AcDbEntity
  8
STANDARDEBENE
 62
     7
100
AcDbVertex
100
AcDb2dVertex
 10
-8.433599311490214
 20
-170.8601400707736
 30
0.0
  0
SEQEND
  5
33C
330
338
100
AcDbEntity
  8
STANDARDEBENE
  0
POLYLINE
  5
33D
330
1F
100
AcDbEntity
  8
STANDARDEBENE
 62
     7
100
AcDb2dPolyline
 66
     1
 10
0.0
 20
0.0
 30
0.0
  0
VERTEX
  5
33E
330
33D
100
AcDbEntity
  8
STANDARDEBENE
 62
     7
100
AcDbVertex
100
AcDb2dVertex
 10
2.067058654777013
 20
-209.8607137495547
 30
0.0
  0
VERTEX
  5
33F
330
33D
100
AcDbEntity
  8
STANDARDEBENE
 62
     7
100
AcDbVertex
100
AcDb2dVertex
 10
-6.175509986034225
 20
-206.8596890925943
 30
0.0
  0
VERTEX
  5
340
330
33D
100
AcDbEntity
  8
STANDARDEBENE
 62
     7
100
AcDbVertex
100
AcDb2dVertex
 10
-7.432970667690241
 20
-206.8596890925943
 30
0.0
  0
VERTEX
  5
341
330
33D
100
AcDbEntity
  8
STANDARDEBENE
 62
     7
100
AcDbVertex
100
AcDb2dVertex
 10
-7.432970667690241
 20
-200.5344896089766
 30
0.0
  0
VERTEX
  5
342
330
33D
100
AcDbEntity
  8
STANDARDEBENE
 62
     7
100
AcDbVertex
100
AcDb2dVertex
 10
-7.432970667690241
 20
-194.1955097343271
 30
0.0
  0
VERTEX
  5
343
330
33D
100
AcDbEntity
  8
STANDARDEBENE
 62
     7
100
AcDbVertex
100
AcDb2dVertex
 10
-7.432970667690241
 20
-187.8606639769872
 30
0.0
  0
SEQEND
  5
344
330
33D
100
AcDbEntity
  8
STANDARDEBENE
  0
POLYLINE
  5
345
330
1F
100
AcDbEntity
  8
STANDARDEBENE
 62
     7
100
AcDb2dPolyline
 66
     1
 10
0.0
 20
0.0
 30
0.0
  0
VERTEX
  5
346
330
345
100
AcDbEntity
  8
STANDARDEBENE
 62
     7
100
AcDbVertex
100
AcDb2dVertex
 10
2.067058654777013
 20
-170.8601400707736
 30
0.0
  0
VERTEX
  5
347
330
345
100
AcDbEntity
  8
STANDARDEBENE
 62
     7
100
AcDbVertex
100
AcDb2dVertex
 10
2.067058654777013
 20
-176.4818505922155
 30
0.0
  0
VERTEX
  5
348
330
345
100
AcDbEntity
  8
STANDARDEBENE
 62
     7
100
AcDbVertex
100
AcDb2dVertex
 10
2.067058654777013
 20
-182.1531705213721
 30
0.0
  0
VERTEX
  5
349
330
345
100
AcDbEntity
  8
STANDARDEBENE
 62
     7
100
AcDbVertex
100
AcDb2dVertex
 10
2.067058654777013
 20
-187.8606639769872
 30
0.0
  0
SEQEND
  5
34A
330
345
100
AcDbEntity
  8
STANDARDEBENE
  0
POLYLINE
  5
34B
330
1F
100
AcDbEntity
  8
STANDARDEBENE
 62
     7
100
AcDb2dPolyline
 66
     1
 10
0.0
 20
0.0
 30
0.0
  0
VERTEX
  5
34C
330
34B
100
AcDbEntity
  8
STANDARDEBENE
 62
     7
100
AcDbVertex
100
AcDb2dVertex
 10
-8.433599311490214
 20
-170.8601400707736
 30
0.0
  0
VERTEX
  5
34D
330
34B
100
AcDbEntity
  8
STANDARDEBENE
 62
     7
100
AcDbVertex
100
AcDb2dVertex
 10
2.067058654777013
 20
-170.8601400707736
 30
0.0
  0
SEQEND
  5
34E
330
34B
100
AcDbEntity
  8
STANDARDEBENE
  0
POLYLINE
  5
34F
330
1F
100
AcDbEntity
  8
STANDARDEBENE
 62
     7
100
AcDb2dPolyline
 66
     1
 10
0.0
 20
0.0
 30
0.0
  0
VERTEX
  5
350
330
34F
100
AcDbEntity
  8
STANDARDEBENE
 62
     7
100
AcDbVertex
100
AcDb2dVertex
 10
2.067058654777013
 20
-220.8605663809506
 30
0.0
  0
VERTEX
  5
351
330
34F
100
AcDbEntity
  8
STANDARDEBENE
 62
     7
100
AcDbVertex
100
AcDb2dVertex
 10
-8.433599311490214
 20
-220.8605663809506
 30
0.0
  0
SEQEND
  5
352
330
34F
100
AcDbEntity
  8
STANDARDEBENE
  0
POLYLINE
  5
353
330
1F
100
AcDbEntity
  8
STANDARDEBENE
 62
     7
100
AcDb2dPolyline
 66
     1
 10
0.0
 20
0.0
 30
0.0
  0
VERTEX
  5
354
330
353
100
AcDbEntity
  8
STANDARDEBENE
 62
     7
100
AcDbVertex
100
AcDb2dVertex
 10
-29.93324863471382
 20
-186.8798446452955
 30
0.0
  0
VERTEX
  5
355
330
353
100
AcDbEntity
  8
STANDARDEBENE
 62
     7
100
AcDbVertex
100
AcDb2dVertex
 10
-29.93324863471382
 20
-189.8371165607298
 30
0.0
  0
VERTEX
  5
356
330
353
100
AcDbEntity
  8
STANDARDEBENE
 62
     7
100
AcDbVertex
100
AcDb2dVertex
 10
-29.93324863471382
 20
-192.8353851394839
 30
0.0
  0
VERTEX
  5
357
330
353
100
AcDbEntity
  8
STANDARDEBENE
 62
     7
100
AcDbVertex
100
AcDb2dVertex
 10
-29.93324863471382
 20
-195.8546688145615
 30
0.0
  0
VERTEX
  5
358
330
353
100
AcDbEntity
  8
STANDARDEBENE
 62
     7
100
AcDbVertex
100
AcDb2dVertex
 10
-29.93324863471382
 20
-198.8739524896391
 30
0.0
  0
VERTEX
  5
359
330
353
100
AcDbEntity
  8
STANDARDEBENE
 62
     7
100
AcDbVertex
100
AcDb2dVertex
 10
-29.93324863471382
 20
-201.8711875390658
 30
0.0
  0
VERTEX
  5
35A
330
353
100
AcDbEntity
  8
STANDARDEBENE
 62
     7
100
AcDbVertex
100
AcDb2dVertex
 10
-29.93324863471382
 20
-204.8294929838275
 30
0.0
  0
SEQEND
  5
35B
330
353
100
AcDbEntity
  8
STANDARDEBENE
  0
POLYLINE
  5
35C
330
1F
100
AcDbEntity
  8
STANDARDEBENE
 62
     7
100
AcDb2dPolyline
 66
     1
 10
0.0
 20
0.0
 30
0.0
  0
VERTEX
  5
35D
330
35C
100
AcDbEntity
  8
STANDARDEBENE
 62
     7
100
AcDbVertex
100
AcDb2dVertex
 10
-28.18313897366929
 20
-187.156141485484
 30
0.0
  0
VERTEX
  5
35E
330
35C
100
AcDbEntity
  8
STANDARDEBENE
 62
     7
100
AcDbVertex
100
AcDb2dVertex
 10
-28.18313897366929
 20
-190.0262524276419
 30
0.0
  0
VERTEX
  5
35F
330
35C
100
AcDbEntity
  8
STANDARDEBENE
 62
     7
100
AcDbVertex
100
AcDb2dVertex
 10
-28.18313897366929
 20
-192.9318478767068
 30
0.0
  0
VERTEX
  5
360
330
35C
100
AcDbEntity
  8
STANDARDEBENE
 62
     7
100
AcDbVertex
100
AcDb2dVertex
 10
-28.18313897366929
 20
-195.8532907754583
 30
0.0
  0
VERTEX
  5
361
330
35C
100
AcDbEntity
  8
STANDARDEBENE
 62
     7
100
AcDbVertex
100
AcDb2dVertex
 10
-28.18313897366929
 20
-198.774389164434
 30
0.0
  0
VERTEX
  5
362
330
35C
100
AcDbEntity
  8
STANDARDEBENE
 62
     7
100
AcDbVertex
100
AcDb2dVertex
 10
-28.18313897366929
 20
-201.6799846134989
 30
0.0
  0
VERTEX
  5
363
330
35C
100
AcDbEntity
  8
STANDARDEBENE
 62
     7
100
AcDbVertex
100
AcDb2dVertex
 10
-28.18313897366929
 20
-204.5500955556568
 30
0.0
  0
SEQEND
  5
364
330
35C
100
AcDbEntity
  8
STANDARDEBENE
  0
POLYLINE
  5
365
330
1F
100
AcDbEntity
  8
STANDARDEBENE
 62
     7
100
AcDb2dPolyline
 66
     1
 10
0.0
 20
0.0
 30
0.0
  0
VERTEX
  5
366
330
365
100
AcDbEntity
  8
STANDARDEBENE
 62
     7
100
AcDbVertex
100
AcDb2dVertex
 10
2.067058654777013
 20
-209.8607137495547
 30
0.0
  0
VERTEX
  5
367
330
365
100
AcDbEntity
  8
STANDARDEBENE
 62
     7
100
AcDbVertex
100
AcDb2dVertex
 10
2.067058654777013
 20
-195.8608699905258
 30
0.0
  0
SEQEND
  5
368
330
365
100
AcDbEntity
  8
STANDARDEBENE
  0
POLYLINE
  5
369
330
1F
100
AcDbEntity
  8
STANDARDEBENE
 62
     7
100
AcDb2dPolyline
 66
     1
 10
0.0
 20
0.0
 30
0.0
  0
VERTEX
  5
36A
330
369
100
AcDbEntity
  8
STANDARDEBENE
 62
     7
100
AcDbVertex
100
AcDb2dVertex
 10
-5.933491868537416
 20
-195.8608699905258
 30
0.0
  0
VERTEX
  5
36B
330
369
100
AcDbEntity
  8
STANDARDEBENE
 62
     7
100
AcDbVertex
100
AcDb2dVertex
 10
-5.933491868537416
 20
-206.9485726147497
 30
0.0
  0
SEQEND
  5
36C
330
369
100
AcDbEntity
  8
STANDARDEBENE
  0
POLYLINE
  5
36D
330
1F
100
AcDbEntity
  8
STANDARDEBENE
  6
AI-LINETYPE-5
 62
     7
100
AcDb2dPolyline
 66
     1
 10
0.0
 20
0.0
 30
0.0
  0
VERTEX
  5
36E
330
36D
100
AcDbEntity
  8
STANDARDEBENE
  6
AI-LINETYPE-5
 62
     7
100
AcDbVertex
100
AcDb2dVertex
 10
2.067058654777013
 20
-27.93423066065656
 30
0.0
  0
VERTEX
  5
36F
330
36D
100
AcDbEntity
  8
STANDARDEBENE
  6
AI-LINETYPE-5
 62
     7
100
AcDbVertex
100
AcDb2dVertex
 10
2.067058654777013
 20
-46.91396322881909
 30
0.0
  0
SEQEND
  5
370
330
36D
100
AcDbEntity
  8
STANDARDEBENE
  6
AI-LINETYPE-5
  0
POLYLINE
  5
372
330
1F
100
AcDbEntity
  8
STANDARDEBENE
  6
AI-LINETYPE-6
 62
     7
100
AcDb2dPolyline
 66
     1
 10
0.0
 20
0.0
 30
0.0
  0
VERTEX
  5
373
330
372
100
AcDbEntity
  8
STANDARDEBENE
  6
AI-LINETYPE-6
 62
     7
100
AcDbVertex
100
AcDb2dVertex
 10
-5.933491868537416
 20
-27.93423066065656
 30
0.0
  0
VERTEX
  5
374
330
372
100
AcDbEntity
  8
STANDARDEBENE
  6
AI-LINETYPE-6
 62
     7
100
AcDbVertex
100
AcDb2dVertex
 10
2.067058654777013
 20
-27.93423066065656
 30
0.0
  0
SEQEND
  5
375
330
372
100
AcDbEntity
  8
STANDARDEBENE
  6
AI-LINETYPE-6
  0
POLYLINE
  5
377
330
1F
100
AcDbEntity
  8
STANDARDEBENE
  6
AI-LINETYPE-7
 62
     7
100
AcDb2dPolyline
 66
     1
 10
0.0
 20
0.0
 30
0.0
  0
VERTEX
  5
378
330
377
100
AcDbEntity
  8
STANDARDEBENE
  6
AI-LINETYPE-7
 62
     7
100
AcDbVertex
100
AcDb2dVertex
 10
-5.933491868537416
 20
-27.93423066065656
 30
0.0
  0
VERTEX
  5
379
330
377
100
AcDbEntity
  8
STANDARDEBENE
  6
AI-LINETYPE-7
 62
     7
100
AcDbVertex
100
AcDb2dVertex
 10
-5.933491868537416
 20
-122.9226382980641
 30
0.0
  0
SEQEND
  5
37A
330
377
100
AcDbEntity
  8
STANDARDEBENE
  6
AI-LINETYPE-7
  0
POLYLINE
  5
37C
330
1F
100
AcDbEntity
  8
STANDARDEBENE
  6
AI-LINETYPE-8
 62
     7
100
AcDb2dPolyline
 66
     1
 10
0.0
 20
0.0
 30
0.0
  0
VERTEX
  5
37D
330
37C
100
AcDbEntity
  8
STANDARDEBENE
  6
AI-LINETYPE-8
 62
     7
100
AcDbVertex
100
AcDb2dVertex
 10
72.03975019718527
 20
-27.95421222765273
 30
0.0
  0
VERTEX
  5
37E
330
37C
100
AcDbEntity
  8
STANDARDEBENE
  6
AI-LINETYPE-8
 62
     7
100
AcDbVertex
100
AcDb2dVertex
 10
72.03975019718527
 20
-46.05389457354396
 30
0.0
  0
SEQEND
  5
37F
330
37C
100
AcDbEntity
  8
STANDARDEBENE
  6
AI-LINETYPE-8
  0
POLYLINE
  5
381
330
1F
100
AcDbEntity
  8
STANDARDEBENE
  6
AI-LINETYPE-9
 62
     7
100
AcDb2dPolyline
 66
     1
 10
0.0
 20
0.0
 30
0.0
  0
VERTEX
  5
382
330
381
100
AcDbEntity
  8
STANDARDEBENE
  6
AI-LINETYPE-9
 62
     7
100
AcDbVertex
100
AcDb2dVertex
 10
64.03954418364664
 20
-46.34069896189426
 30
0.0
  0
VERTEX
  5
383
330
381
100
AcDbEntity
  8
STANDARDEBENE
  6
AI-LINETYPE-9
 62
     7
100
AcDbVertex
100
AcDb2dVertex
 10
64.03954418364664
 20
-30.86566434290615
 30
0.0
  0
VERTEX
  5
384
330
381
100
AcDbEntity
  8
STANDARDEBENE
  6
AI-LINETYPE-9
 62
     7
100
AcDbVertex
100
AcDb2dVertex
 10
72.03975019718527
 20
-27.95421222765273
 30
0.0
  0
SEQEND
  5
385
330
381
100
AcDbEntity
  8
STANDARDEBENE
  6
AI-LINETYPE-9
  0
POLYLINE
  5
387
330
1F
100
AcDbEntity
  8
STANDARDEBENE
 62
     7
100
AcDb2dPolyline
 66
     1
 10
0.0
 20
0.0
 30
0.0
  0
VERTEX
  5
388
330
387
100
AcDbEntity
  8
STANDARDEBENE
 62
     7
100
AcDbVertex
100
AcDb2dVertex
 10
-5.933491868537416
 20
-195.8608699905258
 30
0.0
  0
VERTEX
  5
389
330
387
100
AcDbEntity
  8
STANDARDEBENE
 62
     7
100
AcDbVertex
100
AcDb2dVertex
 10
2.067058654777013
 20
-195.8608699905258
 30
0.0
  0
SEQEND
  5
38A
330
387
100
AcDbEntity
  8
STANDARDEBENE
  0
POLYLINE
  5
38B
330
1F
100
AcDbEntity
  8
STANDARDEBENE
  6
AI-LINETYPE-10
 62
     7
100
AcDb2dPolyline
 66
     1
 10
0.0
 20
0.0
 30
0.0
  0
VERTEX
  5
38C
330
38B
100
AcDbEntity
  8
STANDARDEBENE
  6
AI-LINETYPE-10
 62
     7
100
AcDbVertex
100
AcDb2dVertex
 10
-5.933491868537416
 20
-187.8606639769872
 30
0.0
  0
VERTEX
  5
38D
330
38B
100
AcDbEntity
  8
STANDARDEBENE
  6
AI-LINETYPE-10
 62
     7
100
AcDbVertex
100
AcDb2dVertex
 10
2.067058654777013
 20
-187.8606639769872
 30
0.0
  0
VERTEX
  5
38E
330
38B
100
AcDbEntity
  8
STANDARDEBENE
  6
AI-LINETYPE-10
 62
     7
100
AcDbVertex
100
AcDb2dVertex
 10
2.067058654777013
 20
-195.8608699905258
 30
0.0
  0
SEQEND
  5
38F
330
38B
100
AcDbEntity
  8
STANDARDEBENE
  6
AI-LINETYPE-10
  0
POLYLINE
  5
391
330
1F
100
AcDbEntity
  8
STANDARDEBENE
  6
AI-LINETYPE-11
 62
     7
100
AcDb2dPolyline
 66
     1
 10
0.0
 20
0.0
 30
0.0
  0
VERTEX
  5
392
330
391
100
AcDbEntity
  8
STANDARDEBENE
  6
AI-LINETYPE-11
 62
     7
100
AcDbVertex
100
AcDb2dVertex
 10
-5.933491868537416
 20
-187.8606639769872
 30
0.0
  0
VERTEX
  5
393
330
391
100
AcDbEntity
  8
STANDARDEBENE
  6
AI-LINETYPE-11
 62
     7
100
AcDbVertex
100
AcDb2dVertex
 10
-5.933491868537416
 20
-195.8608699905258
 30
0.0
  0
SEQEND
  5
394
330
391
100
AcDbEntity
  8
STANDARDEBENE
  6
AI-LINETYPE-11
  0
POLYLINE
  5
396
330
1F
100
AcDbEntity
  8
STANDARDEBENE
 62
     7
100
AcDb2dPolyline
 66
     1
 10
0.0
 20
0.0
 30
0.0
  0
VERTEX
  5
397
330
396
100
AcDbEntity
  8
STANDARDEBENE
 62
     7
100
AcDbVertex
100
AcDb2dVertex
 10
-5.933491868537416
 20
-190.36077141994
 30
0.0
  0
VERTEX
  5
398
330
396
100
AcDbEntity
  8
STANDARDEBENE
 62
     7
100
AcDbVertex
100
AcDb2dVertex
 10
-5.933491868537416
 20
-195.3599527765182
 30
0.0
  0
SEQEND
  5
399
330
396
100
AcDbEntity
  8
STANDARDEBENE
  0
POLYLINE
  5
39A
330
1F
100
AcDbEntity
  8
STANDARDEBENE
  6
AI-LINETYPE-12
 62
     7
100
AcDb2dPolyline
 66
     1
 10
0.0
 20
0.0
 30
0.0
  0
VERTEX
  5
39B
330
39A
100
AcDbEntity
  8
STANDARDEBENE
  6
AI-LINETYPE-12
 62
     7
100
AcDbVertex
100
AcDb2dVertex
 10
2.121146689577011
 20
-158.0343856276581
 30
0.0
  0
VERTEX
  5
39C
330
39A
100
AcDbEntity
  8
STANDARDEBENE
  6
AI-LINETYPE-12
 62
     7
100
AcDbVertex
100
AcDb2dVertex
 10
-53.46395534114375
 20
-158.0343856276581
 30
0.0
  0
SEQEND
  5
39D
330
39A
100
AcDbEntity
  8
STANDARDEBENE
  6
AI-LINETYPE-12
  0
POLYLINE
  5
39F
330
1F
100
AcDbEntity
  8
STANDARDEBENE
  6
AI-LINETYPE-13
 62
     7
100
AcDb2dPolyline
 66
     1
 10
0.0
 20
0.0
 30
0.0
  0
VERTEX
  5
3A0
330
39F
100
AcDbEntity
  8
STANDARDEBENE
  6
AI-LINETYPE-13
 62
     7
100
AcDbVertex
100
AcDb2dVertex
 10
97.11523873828521
 20
-158.0343856276581
 30
0.0
  0
VERTEX
  5
3A1
330
39F
100
AcDbEntity
  8
STANDARDEBENE
  6
AI-LINETYPE-13
 62
     7
100
AcDbVertex
100
AcDb2dVertex
 10
46.98252067420253
 20
-158.0343856276581
 30
0.0
  0
SEQEND
  5
3A2
330
39F
100
AcDbEntity
  8
STANDARDEBENE
  6
AI-LINETYPE-13
  0
POLYLINE
  5
3A4
330
1F
100
AcDbEntity
  8
STANDARDEBENE
  6
AI-LINETYPE-14
 62
     7
100
AcDb2dPolyline
 66
     1
 10
0.0
 20
0.0
 30
0.0
  0
VERTEX
  5
3A5
330
3A4
100
AcDbEntity
  8
STANDARDEBENE
  6
AI-LINETYPE-14
 62
     7
100
AcDbVertex
100
AcDb2dVertex
 10
-5.877681284858436
 20
-122.9226382980641
 30
0.0
  0
VERTEX
  5
3A6
330
3A4
100
AcDbEntity
  8
STANDARDEBENE
  6
AI-LINETYPE-14
 62
     7
100
AcDbVertex
100
AcDb2dVertex
 10
2.038119833610135
 20
-122.9226382980641
 30
0.0
  0
SEQEND
  5
3A7
330
3A4
100
AcDbEntity
  8
STANDARDEBENE
  6
AI-LINETYPE-14
  0
POLYLINE
  5
3A9
330
1F
100
AcDbEntity
  8
STANDARDEBENE
 62
     7
100
AcDb2dPolyline
 66
     1
 10
0.0
 20
0.0
 30
0.0
  0
VERTEX
  5
3AA
330
3A9
100
AcDbEntity
  8
STANDARDEBENE
 62
     7
100
AcDbVertex
100
AcDb2dVertex
 10
80.30557324786275
 20
-85.54039929108554
 30
0.0
  0
VERTEX
  5
3AB
330
3A9
100
AcDbEntity
  8
STANDARDEBENE
 62
     7
100
AcDbVertex
100
AcDb2dVertex
 10
80.65180557253791
 20
-85.58019017019
 30
0.0
  0
VERTEX
  5
3AC
330
3A9
100
AcDbEntity
  8
STANDARDEBENE
 62
     7
100
AcDbVertex
100
AcDb2dVertex
 10
80.88745025918249
 20
-85.60861222669318
 30
0.0
  0
VERTEX
  5
3AD
330
3A9
100
AcDbEntity
  8
STANDARDEBENE
 62
     7
100
AcDbVertex
100
AcDb2dVertex
 10
81.02904377703472
 20
-85.62549320570719
 30
0.0
  0
SEQEND
  5
3AE
330
3A9
100
AcDbEntity
  8
STANDARDEBENE
  0
POLYLINE
  5
3AF
330
1F
100
AcDbEntity
  8
STANDARDEBENE
 62
     7
100
AcDb2dPolyline
 66
     1
 10
0.0
 20
0.0
 30
0.0
  0
VERTEX
  5
3B0
330
3AF
100
AcDbEntity
  8
STANDARDEBENE
 62
     7
100
AcDbVertex
100
AcDb2dVertex
 10
63.75291205018423
 20
-85.54039929108554
 30
0.0
  0
VERTEX
  5
3B1
330
3AF
100
AcDbEntity
  8
STANDARDEBENE
 62
     7
100
AcDbVertex
100
AcDb2dVertex
 10
64.385431998546
 20
-84.76559680531996
 30
0.0
  0
VERTEX
  5
3B2
330
3AF
100
AcDbEntity
  8
STANDARDEBENE
 62
     7
100
AcDbVertex
100
AcDb2dVertex
 10
65.20915487247464
 20
-84.03230774753781
 30
0.0
  0
VERTEX
  5
3B3
330
3AF
100
AcDbEntity
  8
STANDARDEBENE
 62
     7
100
AcDbVertex
100
AcDb2dVertex
 10
66.22201361331537
 20
-83.36619809603592
 30
0.0
  0
VERTEX
  5
3B4
330
3AF
100
AcDbEntity
  8
STANDARDEBENE
 62
     7
100
AcDbVertex
100
AcDb2dVertex
 10
67.41401743757011
 20
-82.79121128023212
 30
0.0
  0
VERTEX
  5
3B5
330
3AF
100
AcDbEntity
  8
STANDARDEBENE
 62
     7
100
AcDbVertex
100
AcDb2dVertex
 10
68.83339771385033
 20
-82.31957739716715
 30
0.0
  0
VERTEX
  5
3B6
330
3AF
100
AcDbEntity
  8
STANDARDEBENE
 62
     7
100
AcDbVertex
100
AcDb2dVertex
 10
70.39299346887958
 20
-82.01795908845762
 30
0.0
  0
VERTEX
  5
3B7
330
3AF
100
AcDbEntity
  8
STANDARDEBENE
 62
     7
100
AcDbVertex
100
AcDb2dVertex
 10
72.02907039413559
 20
-81.91391713616717
 30
0.0
  0
SEQEND
  5
3B8
330
3AF
100
AcDbEntity
  8
STANDARDEBENE
  0
POLYLINE
  5
3B9
330
1F
100
AcDbEntity
  8
STANDARDEBENE
 62
     7
100
AcDb2dPolyline
 66
     1
 10
0.0
 20
0.0
 30
0.0
  0
VERTEX
  5
3BA
330
3B9
100
AcDbEntity
  8
STANDARDEBENE
 62
     7
100
AcDbVertex
100
AcDb2dVertex
 10
63.02875250146068
 20
-85.62549320570719
 30
0.0
  0
VERTEX
  5
3BB
330
3B9
100
AcDbEntity
  8
STANDARDEBENE
 62
     7
100
AcDbVertex
100
AcDb2dVertex
 10
63.08628563401864
 20
-85.61860301019126
 30
0.0
  0
VERTEX
  5
3BC
330
3B9
100
AcDbEntity
  8
STANDARDEBENE
 62
     7
100
AcDbVertex
100
AcDb2dVertex
 10
63.25854052191673
 20
-85.5979324236435
 30
0.0
  0
VERTEX
  5
3BD
330
3B9
100
AcDbEntity
  8
STANDARDEBENE
 62
     7
100
AcDbVertex
100
AcDb2dVertex
 10
63.75291205018423
 20
-85.54039929108554
 30
0.0
  0
SEQEND
  5
3BE
330
3B9
100
AcDbEntity
  8
STANDARDEBENE
  0
POLYLINE
  5
3BF
330
1F
100
AcDbEntity
  8
STANDARDEBENE
 62
     7
100
AcDb2dPolyline
 66
     1
 10
0.0
 20
0.0
 30
0.0
  0
VERTEX
  5
3C0
330
3BF
100
AcDbEntity
  8
STANDARDEBENE
 62
     7
100
AcDbVertex
100
AcDb2dVertex
 10
47.02902949393501
 20
-89.4831414201848
 30
0.0
  0
VERTEX
  5
3C1
330
3BF
100
AcDbEntity
  8
STANDARDEBENE
 62
     7
100
AcDbVertex
100
AcDb2dVertex
 10
47.02902949393501
 20
-89.77563021983575
 30
0.0
  0
SEQEND
  5
3C2
330
3BF
100
AcDbEntity
  8
STANDARDEBENE
  0
SPLINE
  5
3C3
330
1F
100
AcDbEntity
  8
STANDARDEBENE
 62
     7
100
AcDbSpline
210
0.0
220
0.0
230
1.0
 70
     8
 71
     3
 72
     8
 73
     4
 74
     0
 42
0.0000000001
 43
0.0000000001
 40
0.0
 40
0.0
 40
0.0
 40
0.0
 40
1.0
 40
1.0
 40
1.0
 40
1.0
 10
97.02876678456039
 20
-89.77563021983575
 30
0.0
 10
80.17707110149078
 20
-83.60666591954164
 30
0.0
 10
62.51577744530019
 20
-84.06365813713526
 30
0.0
 10
47.02902949393501
 20
-89.77563021983575
 30
0.0
  0
POLYLINE
  5
3C4
330
1F
100
AcDbEntity
  8
STANDARDEBENE
 62
     7
100
AcDb2dPolyline
 66
     1
 10
0.0
 20
0.0
 30
0.0
  0
VERTEX
  5
3C5
330
3C4
100
AcDbEntity
  8
STANDARDEBENE
 62
     7
100
AcDbVertex
100
AcDb2dVertex
 10
97.02876678456039
 20
-89.4831414201848
 30
0.0
  0
VERTEX
  5
3C6
330
3C4
100
AcDbEntity
  8
STANDARDEBENE
 62
     7
100
AcDbVertex
100
AcDb2dVertex
 10
97.02876678456039
 20
-89.77563021983575
 30
0.0
  0
SEQEND
  5
3C7
330
3C4
100
AcDbEntity
  8
STANDARDEBENE
  0
POLYLINE
  5
3C8
330
1F
100
AcDbEntity
  8
STANDARDEBENE
 62
     7
100
AcDb2dPolyline
 66
     1
 10
0.0
 20
0.0
 30
0.0
  0
VERTEX
  5
3C9
330
3C8
100
AcDbEntity
  8
STANDARDEBENE
 62
     7
100
AcDbVertex
100
AcDb2dVertex
 10
72.02907039413559
 20
-81.91391713616717
 30
0.0
  0
VERTEX
  5
3CA
330
3C8
100
AcDbEntity
  8
STANDARDEBENE
 62
     7
100
AcDbVertex
100
AcDb2dVertex
 10
73.59142222737123
 20
-82.0095185989506
 30
0.0
  0
VERTEX
  5
3CB
330
3C8
100
AcDbEntity
  8
STANDARDEBENE
 62
     7
100
AcDbVertex
100
AcDb2dVertex
 10
75.08659465432659
 20
-82.28512641958754
 30
0.0
  0
VERTEX
  5
3CC
330
3C8
100
AcDbEntity
  8
STANDARDEBENE
 62
     7
100
AcDbVertex
100
AcDb2dVertex
 10
76.4608441499775
 20
-82.71851971753912
 30
0.0
  0
VERTEX
  5
3CD
330
3C8
100
AcDbEntity
  8
STANDARDEBENE
 62
     7
100
AcDbVertex
100
AcDb2dVertex
 10
77.67661914876219
 20
-83.2773145738805
 30
0.0
  0
VERTEX
  5
3CE
330
3C8
100
AcDbEntity
  8
STANDARDEBENE
 62
     7
100
AcDbVertex
100
AcDb2dVertex
 10
78.76079141319273
 20
-83.96633412547284
 30
0.0
  0
VERTEX
  5
3CF
330
3C8
100
AcDbEntity
  8
STANDARDEBENE
 62
     7
100
AcDbVertex
100
AcDb2dVertex
 10
79.63791330236978
 20
-84.72976778863716
 30
0.0
  0
VERTEX
  5
3D0
330
3C8
100
AcDbEntity
  8
STANDARDEBENE
 62
     7
100
AcDbVertex
100
AcDb2dVertex
 10
80.30557324786275
 20
-85.54039929108554
 30
0.0
  0
SEQEND
  5
3D1
330
3C8
100
AcDbEntity
  8
STANDARDEBENE
  0
SPLINE
  5
3D2
330
1F
100
AcDbEntity
  8
STANDARDEBENE
 62
     7
100
AcDbSpline
210
0.0
220
0.0
230
1.0
 70
     8
 71
     3
 72
     8
 73
     4
 74
     0
 42
0.0000000001
 43
0.0000000001
 40
0.0
 40
0.0
 40
0.0
 40
0.0
 40
1.0
 40
1.0
 40
1.0
 40
1.0
 10
75.8675983160565
 20
-82.48804267753148
 30
0.0
 10
73.16354108583238
 20
-82.3511000416525
 30
0.0
 10
70.48394404968978
 20
-82.35712896272894
 30
0.0
 10
68.16814933678793
 20
-82.48890395197097
 30
0.0
  0
POLYLINE
  5
3D4
330
1F
100
AcDbEntity
  8
BEMA_UNG
 62
     7
100
AcDb2dPolyline
 66
     1
 10
0.0
 20
0.0
 30
0.0
  0
VERTEX
  5
3D5
330
3D4
100
AcDbEntity
  8
BEMA_UNG
 62
     7
100
AcDbVertex
100
AcDb2dVertex
 10
9.333803355645603
 20
-154.2578694653805
 30
0.0
  0
VERTEX
  5
3D6
330
3D4
100
AcDbEntity
  8
BEMA_UNG
 62
     7
100
AcDbVertex
100
AcDb2dVertex
 10
9.333803355645603
 20
-172.8207452048296
 30
0.0
  0
SEQEND
  5
3D7
330
3D4
100
AcDbEntity
  8
BEMA_UNG
  0
POLYLINE
  5
3D8
330
1F
100
AcDbEntity
  8
BEMA_UNG
 62
     7
100
AcDb2dPolyline
 66
     1
 10
0.0
 20
0.0
 30
0.0
  0
VERTEX
  5
3D9
330
3D8
100
AcDbEntity
  8
BEMA_UNG
 62
     7
100
AcDbVertex
100
AcDb2dVertex
 10
12.93410276760346
 20
-172.2378346641825
 30
0.0
  0
VERTEX
  5
3DA
330
3D8
100
AcDbEntity
  8
BEMA_UNG
 62
     7
100
AcDbVertex
100
AcDb2dVertex
 10
9.333803355645603
 20
-172.2378346641825
 30
0.0
  0
SEQEND
  5
3DB
330
3D8
100
AcDbEntity
  8
BEMA_UNG
  0
POLYLINE
  5
3DC
330
1F
100
AcDbEntity
  8
BEMA_UNG
 62
     7
100
AcDb2dPolyline
 66
     1
 10
0.0
 20
0.0
 30
0.0
  0
VERTEX
  5
3DD
330
3DC
100
AcDbEntity
  8
BEMA_UNG
 62
     7
100
AcDbVertex
100
AcDb2dVertex
 10
12.93410276760346
 20
-172.2378346641825
 30
0.0
  0
VERTEX
  5
3DE
330
3DC
100
AcDbEntity
  8
BEMA_UNG
 62
     7
100
AcDbVertex
100
AcDb2dVertex
 10
11.35917632755128
 20
-172.0300952693774
 30
0.0
  0
VERTEX
  5
3DF
330
3DC
100
AcDbEntity
  8
BEMA_UNG
 62
     7
100
AcDbVertex
100
AcDb2dVertex
 10
11.35917632755128
 20
-172.444885039436
 30
0.0
  0
VERTEX
  5
3E0
330
3DC
100
AcDbEntity
  8
BEMA_UNG
 62
     7
100
AcDbVertex
100
AcDb2dVertex
 10
12.93410276760346
 20
-172.2378346641825
 30
0.0
  0
SEQEND
  5
3E1
330
3DC
100
AcDbEntity
  8
BEMA_UNG
  0
POLYLINE
  5
3E2
330
1F
100
AcDbEntity
  8
BEMA_UNG
 62
     7
100
AcDb2dPolyline
 66
     1
 10
0.0
 20
0.0
 30
0.0
  0
VERTEX
  5
3E3
330
3E2
100
AcDbEntity
  8
BEMA_UNG
 62
     7
100
AcDbVertex
100
AcDb2dVertex
 10
11.35917632755128
 20
-172.0318178182564
 30
0.0
  0
VERTEX
  5
3E4
330
3E2
100
AcDbEntity
  8
BEMA_UNG
 62
     7
100
AcDbVertex
100
AcDb2dVertex
 10
11.37123416970415
 20
-172.0318178182564
 30
0.0
  0
SEQEND
  5
3E5
330
3E2
100
AcDbEntity
  8
BEMA_UNG
  0
POLYLINE
  5
3E6
330
1F
100
AcDbEntity
  8
BEMA_UNG
 62
     7
100
AcDb2dPolyline
 66
     1
 10
0.0
 20
0.0
 30
0.0
  0
VERTEX
  5
3E7
330
3E6
100
AcDbEntity
  8
BEMA_UNG
 62
     7
100
AcDbVertex
100
AcDb2dVertex
 10
11.35917632755128
 20
-172.0318178182564
 30
0.0
  0
VERTEX
  5
3E8
330
3E6
100
AcDbEntity
  8
BEMA_UNG
 62
     7
100
AcDbVertex
100
AcDb2dVertex
 10
11.37123416970415
 20
-172.0318178182564
 30
0.0
  0
SEQEND
  5
3E9
330
3E6
100
AcDbEntity
  8
BEMA_UNG
  0
POLYLINE
  5
3EA
330
1F
100
AcDbEntity
  8
BEMA_UNG
 62
     7
100
AcDb2dPolyline
 66
     1
 10
0.0
 20
0.0
 30
0.0
  0
VERTEX
  5
3EB
330
3EA
100
AcDbEntity
  8
BEMA_UNG
 62
     7
100
AcDbVertex
100
AcDb2dVertex
 10
11.35917632755128
 20
-172.0545554634589
 30
0.0
  0
VERTEX
  5
3EC
330
3EA
100
AcDbEntity
  8
BEMA_UNG
 62
     7
100
AcDbVertex
100
AcDb2dVertex
 10
11.54503935159331
 20
-172.0545554634589
 30
0.0
  0
SEQEND
  5
3ED
330
3EA
100
AcDbEntity
  8
BEMA_UNG
  0
POLYLINE
  5
3EE
330
1F
100
AcDbEntity
  8
BEMA_UNG
 62
     7
100
AcDb2dPolyline
 66
     1
 10
0.0
 20
0.0
 30
0.0
  0
VERTEX
  5
3EF
330
3EE
100
AcDbEntity
  8
BEMA_UNG
 62
     7
100
AcDbVertex
100
AcDb2dVertex
 10
11.35917632755128
 20
-172.0772931086615
 30
0.0
  0
VERTEX
  5
3F0
330
3EE
100
AcDbEntity
  8
BEMA_UNG
 62
     7
100
AcDbVertex
100
AcDb2dVertex
 10
11.71850002370668
 20
-172.0772931086615
 30
0.0
  0
SEQEND
  5
3F1
330
3EE
100
AcDbEntity
  8
BEMA_UNG
  0
POLYLINE
  5
3F2
330
1F
100
AcDbEntity
  8
BEMA_UNG
 62
     7
100
AcDb2dPolyline
 66
     1
 10
0.0
 20
0.0
 30
0.0
  0
VERTEX
  5
3F3
330
3F2
100
AcDbEntity
  8
BEMA_UNG
 62
     7
100
AcDbVertex
100
AcDb2dVertex
 10
11.35917632755128
 20
-172.1003752636398
 30
0.0
  0
VERTEX
  5
3F4
330
3F2
100
AcDbEntity
  8
BEMA_UNG
 62
     7
100
AcDbVertex
100
AcDb2dVertex
 10
11.89213295070795
 20
-172.1003752636398
 30
0.0
  0
SEQEND
  5
3F5
330
3F2
100
AcDbEntity
  8
BEMA_UNG
  0
POLYLINE
  5
3F6
330
1F
100
AcDbEntity
  8
BEMA_UNG
 62
     7
100
AcDb2dPolyline
 66
     1
 10
0.0
 20
0.0
 30
0.0
  0
VERTEX
  5
3F7
330
3F6
100
AcDbEntity
  8
BEMA_UNG
 62
     7
100
AcDbVertex
100
AcDb2dVertex
 10
11.35917632755128
 20
-172.1231129088424
 30
0.0
  0
VERTEX
  5
3F8
330
3F6
100
AcDbEntity
  8
BEMA_UNG
 62
     7
100
AcDbVertex
100
AcDb2dVertex
 10
12.06576587770922
 20
-172.1231129088424
 30
0.0
  0
SEQEND
  5
3F9
330
3F6
100
AcDbEntity
  8
BEMA_UNG
  0
POLYLINE
  5
3FA
330
1F
100
AcDbEntity
  8
BEMA_UNG
 62
     7
100
AcDb2dPolyline
 66
     1
 10
0.0
 20
0.0
 30
0.0
  0
VERTEX
  5
3FB
330
3FA
100
AcDbEntity
  8
BEMA_UNG
 62
     7
100
AcDbVertex
100
AcDb2dVertex
 10
11.35917632755128
 20
-172.1461950638207
 30
0.0
  0
VERTEX
  5
3FC
330
3FA
100
AcDbEntity
  8
BEMA_UNG
 62
     7
100
AcDbVertex
100
AcDb2dVertex
 10
12.23957105959839
 20
-172.1461950638207
 30
0.0
  0
SEQEND
  5
3FD
330
3FA
100
AcDbEntity
  8
BEMA_UNG
  0
POLYLINE
  5
3FE
330
1F
100
AcDbEntity
  8
BEMA_UNG
 62
     7
100
AcDb2dPolyline
 66
     1
 10
0.0
 20
0.0
 30
0.0
  0
VERTEX
  5
3FF
330
3FE
100
AcDbEntity
  8
BEMA_UNG
 62
     7
100
AcDbVertex
100
AcDb2dVertex
 10
11.35917632755128
 20
-172.1692772187991
 30
0.0
  0
VERTEX
  5
400
330
3FE
100
AcDbEntity
  8
BEMA_UNG
 62
     7
100
AcDbVertex
100
AcDb2dVertex
 10
12.41303173171176
 20
-172.1692772187991
 30
0.0
  0
SEQEND
  5
401
330
3FE
100
AcDbEntity
  8
BEMA_UNG
  0
POLYLINE
  5
402
330
1F
100
AcDbEntity
  8
BEMA_UNG
 62
     7
100
AcDb2dPolyline
 66
     1
 10
0.0
 20
0.0
 30
0.0
  0
VERTEX
  5
403
330
402
100
AcDbEntity
  8
BEMA_UNG
 62
     7
100
AcDbVertex
100
AcDb2dVertex
 10
11.35917632755128
 20
-172.1920148640016
 30
0.0
  0
VERTEX
  5
404
330
402
100
AcDbEntity
  8
BEMA_UNG
 62
     7
100
AcDbVertex
100
AcDb2dVertex
 10
12.58666465871303
 20
-172.1920148640016
 30
0.0
  0
SEQEND
  5
405
330
402
100
AcDbEntity
  8
BEMA_UNG
  0
POLYLINE
  5
406
330
1F
100
AcDbEntity
  8
BEMA_UNG
 62
     7
100
AcDb2dPolyline
 66
     1
 10
0.0
 20
0.0
 30
0.0
  0
VERTEX
  5
407
330
406
100
AcDbEntity
  8
BEMA_UNG
 62
     7
100
AcDbVertex
100
AcDb2dVertex
 10
11.35917632755128
 20
-172.2147525092042
 30
0.0
  0
VERTEX
  5
408
330
406
100
AcDbEntity
  8
BEMA_UNG
 62
     7
100
AcDbVertex
100
AcDb2dVertex
 10
12.7602975857143
 20
-172.2147525092042
 30
0.0
  0
SEQEND
  5
409
330
406
100
AcDbEntity
  8
BEMA_UNG
  0
POLYLINE
  5
40A
330
1F
100
AcDbEntity
  8
BEMA_UNG
 62
     7
100
AcDb2dPolyline
 66
     1
 10
0.0
 20
0.0
 30
0.0
  0
VERTEX
  5
40B
330
40A
100
AcDbEntity
  8
BEMA_UNG
 62
     7
100
AcDbVertex
100
AcDb2dVertex
 10
11.35917632755128
 20
-172.2378346641825
 30
0.0
  0
VERTEX
  5
40C
330
40A
100
AcDbEntity
  8
BEMA_UNG
 62
     7
100
AcDbVertex
100
AcDb2dVertex
 10
12.93410276760346
 20
-172.2378346641825
 30
0.0
  0
SEQEND
  5
40D
330
40A
100
AcDbEntity
  8
BEMA_UNG
  0
POLYLINE
  5
40E
330
1F
100
AcDbEntity
  8
BEMA_UNG
 62
     7
100
AcDb2dPolyline
 66
     1
 10
0.0
 20
0.0
 30
0.0
  0
VERTEX
  5
40F
330
40E
100
AcDbEntity
  8
BEMA_UNG
 62
     7
100
AcDbVertex
100
AcDb2dVertex
 10
11.35917632755128
 20
-172.443162490557
 30
0.0
  0
VERTEX
  5
410
330
40E
100
AcDbEntity
  8
BEMA_UNG
 62
     7
100
AcDbVertex
100
AcDb2dVertex
 10
11.37123416970415
 20
-172.443162490557
 30
0.0
  0
SEQEND
  5
411
330
40E
100
AcDbEntity
  8
BEMA_UNG
  0
POLYLINE
  5
412
330
1F
100
AcDbEntity
  8
BEMA_UNG
 62
     7
100
AcDb2dPolyline
 66
     1
 10
0.0
 20
0.0
 30
0.0
  0
VERTEX
  5
413
330
412
100
AcDbEntity
  8
BEMA_UNG
 62
     7
100
AcDbVertex
100
AcDb2dVertex
 10
11.35917632755128
 20
-172.443162490557
 30
0.0
  0
VERTEX
  5
414
330
412
100
AcDbEntity
  8
BEMA_UNG
 62
     7
100
AcDbVertex
100
AcDb2dVertex
 10
11.37123416970415
 20
-172.443162490557
 30
0.0
  0
SEQEND
  5
415
330
412
100
AcDbEntity
  8
BEMA_UNG
  0
POLYLINE
  5
416
330
1F
100
AcDbEntity
  8
BEMA_UNG
 62
     7
100
AcDb2dPolyline
 66
     1
 10
0.0
 20
0.0
 30
0.0
  0
VERTEX
  5
417
330
416
100
AcDbEntity
  8
BEMA_UNG
 62
     7
100
AcDbVertex
100
AcDb2dVertex
 10
11.35917632755128
 20
-172.4204248453545
 30
0.0
  0
VERTEX
  5
418
330
416
100
AcDbEntity
  8
BEMA_UNG
 62
     7
100
AcDbVertex
100
AcDb2dVertex
 10
11.54503935159331
 20
-172.4204248453545
 30
0.0
  0
SEQEND
  5
419
330
416
100
AcDbEntity
  8
BEMA_UNG
  0
POLYLINE
  5
41A
330
1F
100
AcDbEntity
  8
BEMA_UNG
 62
     7
100
AcDb2dPolyline
 66
     1
 10
0.0
 20
0.0
 30
0.0
  0
VERTEX
  5
41B
330
41A
100
AcDbEntity
  8
BEMA_UNG
 62
     7
100
AcDbVertex
100
AcDb2dVertex
 10
11.35917632755128
 20
-172.3976872001519
 30
0.0
  0
VERTEX
  5
41C
330
41A
100
AcDbEntity
  8
BEMA_UNG
 62
     7
100
AcDbVertex
100
AcDb2dVertex
 10
11.71850002370668
 20
-172.3976872001519
 30
0.0
  0
SEQEND
  5
41D
330
41A
100
AcDbEntity
  8
BEMA_UNG
  0
POLYLINE
  5
41E
330
1F
100
AcDbEntity
  8
BEMA_UNG
 62
     7
100
AcDb2dPolyline
 66
     1
 10
0.0
 20
0.0
 30
0.0
  0
VERTEX
  5
41F
330
41E
100
AcDbEntity
  8
BEMA_UNG
 62
     7
100
AcDbVertex
100
AcDb2dVertex
 10
11.35917632755128
 20
-172.3746050451736
 30
0.0
  0
VERTEX
  5
420
330
41E
100
AcDbEntity
  8
BEMA_UNG
 62
     7
100
AcDbVertex
100
AcDb2dVertex
 10
11.89213295070795
 20
-172.3746050451736
 30
0.0
  0
SEQEND
  5
421
330
41E
100
AcDbEntity
  8
BEMA_UNG
  0
POLYLINE
  5
422
330
1F
100
AcDbEntity
  8
BEMA_UNG
 62
     7
100
AcDb2dPolyline
 66
     1
 10
0.0
 20
0.0
 30
0.0
  0
VERTEX
  5
423
330
422
100
AcDbEntity
  8
BEMA_UNG
 62
     7
100
AcDbVertex
100
AcDb2dVertex
 10
11.35917632755128
 20
-172.351867399971
 30
0.0
  0
VERTEX
  5
424
330
422
100
AcDbEntity
  8
BEMA_UNG
 62
     7
100
AcDbVertex
100
AcDb2dVertex
 10
12.06576587770922
 20
-172.351867399971
 30
0.0
  0
SEQEND
  5
425
330
422
100
AcDbEntity
  8
BEMA_UNG
  0
POLYLINE
  5
426
330
1F
100
AcDbEntity
  8
BEMA_UNG
 62
     7
100
AcDb2dPolyline
 66
     1
 10
0.0
 20
0.0
 30
0.0
  0
VERTEX
  5
427
330
426
100
AcDbEntity
  8
BEMA_UNG
 62
     7
100
AcDbVertex
100
AcDb2dVertex
 10
11.35917632755128
 20
-172.3291297547685
 30
0.0
  0
VERTEX
  5
428
330
426
100
AcDbEntity
  8
BEMA_UNG
 62
     7
100
AcDbVertex
100
AcDb2dVertex
 10
12.23957105959839
 20
-172.3291297547685
 30
0.0
  0
SEQEND
  5
429
330
426
100
AcDbEntity
  8
BEMA_UNG
  0
POLYLINE
  5
42A
330
1F
100
AcDbEntity
  8
BEMA_UNG
 62
     7
100
AcDb2dPolyline
 66
     1
 10
0.0
 20
0.0
 30
0.0
  0
VERTEX
  5
42B
330
42A
100
AcDbEntity
  8
BEMA_UNG
 62
     7
100
AcDbVertex
100
AcDb2dVertex
 10
11.35917632755128
 20
-172.3060475997902
 30
0.0
  0
VERTEX
  5
42C
330
42A
100
AcDbEntity
  8
BEMA_UNG
 62
     7
100
AcDbVertex
100
AcDb2dVertex
 10
12.41303173171176
 20
-172.3060475997902
 30
0.0
  0
SEQEND
  5
42D
330
42A
100
AcDbEntity
  8
BEMA_UNG
  0
POLYLINE
  5
42E
330
1F
100
AcDbEntity
  8
BEMA_UNG
 62
     7
100
AcDb2dPolyline
 66
     1
 10
0.0
 20
0.0
 30
0.0
  0
VERTEX
  5
42F
330
42E
100
AcDbEntity
  8
BEMA_UNG
 62
     7
100
AcDbVertex
100
AcDb2dVertex
 10
11.35917632755128
 20
-172.2833099545876
 30
0.0
  0
VERTEX
  5
430
330
42E
100
AcDbEntity
  8
BEMA_UNG
 62
     7
100
AcDbVertex
100
AcDb2dVertex
 10
12.58666465871303
 20
-172.2833099545876
 30
0.0
  0
SEQEND
  5
431
330
42E
100
AcDbEntity
  8
BEMA_UNG
  0
POLYLINE
  5
432
330
1F
100
AcDbEntity
  8
BEMA_UNG
 62
     7
100
AcDb2dPolyline
 66
     1
 10
0.0
 20
0.0
 30
0.0
  0
VERTEX
  5
433
330
432
100
AcDbEntity
  8
BEMA_UNG
 62
     7
100
AcDbVertex
100
AcDb2dVertex
 10
11.35917632755128
 20
-172.2605723093851
 30
0.0
  0
VERTEX
  5
434
330
432
100
AcDbEntity
  8
BEMA_UNG
 62
     7
100
AcDbVertex
100
AcDb2dVertex
 10
12.7602975857143
 20
-172.2605723093851
 30
0.0
  0
SEQEND
  5
435
330
432
100
AcDbEntity
  8
BEMA_UNG
  0
POLYLINE
  5
436
330
1F
100
AcDbEntity
  8
BEMA_UNG
 62
     7
100
AcDb2dPolyline
 66
     1
 10
0.0
 20
0.0
 30
0.0
  0
VERTEX
  5
437
330
436
100
AcDbEntity
  8
BEMA_UNG
 62
     7
100
AcDbVertex
100
AcDb2dVertex
 10
11.35917632755128
 20
-172.2378346641825
 30
0.0
  0
VERTEX
  5
438
330
436
100
AcDbEntity
  8
BEMA_UNG
 62
     7
100
AcDbVertex
100
AcDb2dVertex
 10
12.93410276760346
 20
-172.2378346641825
 30
0.0
  0
SEQEND
  5
439
330
436
100
AcDbEntity
  8
BEMA_UNG
  0
POLYLINE
  5
43A
330
1F
100
AcDbEntity
  8
BEMA_UNG
 62
     7
100
AcDb2dPolyline
 66
     1
 10
0.0
 20
0.0
 30
0.0
  0
VERTEX
  5
43B
330
43A
100
AcDbEntity
  8
BEMA_UNG
 62
     7
100
AcDbVertex
100
AcDb2dVertex
 10
9.333803355645603
 20
-172.2378346641825
 30
0.0
  0
VERTEX
  5
43C
330
43A
100
AcDbEntity
  8
BEMA_UNG
 62
     7
100
AcDbVertex
100
AcDb2dVertex
 10
10.90890205058569
 20
-172.444885039436
 30
0.0
  0
VERTEX
  5
43D
330
43A
100
AcDbEntity
  8
BEMA_UNG
 62
     7
100
AcDbVertex
100
AcDb2dVertex
 10
10.90890205058569
 20
-172.0300952693774
 30
0.0
  0
VERTEX
  5
43E
330
43A
100
AcDbEntity
  8
BEMA_UNG
 62
     7
100
AcDbVertex
100
AcDb2dVertex
 10
9.333803355645603
 20
-172.2378346641825
 30
0.0
  0
SEQEND
  5
43F
330
43A
100
AcDbEntity
  8
BEMA_UNG
  0
POLYLINE
  5
440
330
1F
100
AcDbEntity
  8
BEMA_UNG
 62
     7
100
AcDb2dPolyline
 66
     1
 10
0.0
 20
0.0
 30
0.0
  0
VERTEX
  5
441
330
440
100
AcDbEntity
  8
BEMA_UNG
 62
     7
100
AcDbVertex
100
AcDb2dVertex
 10
10.90890205058569
 20
-172.443162490557
 30
0.0
  0
VERTEX
  5
442
330
440
100
AcDbEntity
  8
BEMA_UNG
 62
     7
100
AcDbVertex
100
AcDb2dVertex
 10
10.89667195354492
 20
-172.443162490557
 30
0.0
  0
SEQEND
  5
443
330
440
100
AcDbEntity
  8
BEMA_UNG
  0
POLYLINE
  5
444
330
1F
100
AcDbEntity
  8
BEMA_UNG
 62
     7
100
AcDb2dPolyline
 66
     1
 10
0.0
 20
0.0
 30
0.0
  0
VERTEX
  5
445
330
444
100
AcDbEntity
  8
BEMA_UNG
 62
     7
100
AcDbVertex
100
AcDb2dVertex
 10
10.90890205058569
 20
-172.443162490557
 30
0.0
  0
VERTEX
  5
446
330
444
100
AcDbEntity
  8
BEMA_UNG
 62
     7
100
AcDbVertex
100
AcDb2dVertex
 10
10.89667195354492
 20
-172.443162490557
 30
0.0
  0
SEQEND
  5
447
330
444
100
AcDbEntity
  8
BEMA_UNG
  0
POLYLINE
  5
448
330
1F
100
AcDbEntity
  8
BEMA_UNG
 62
     7
100
AcDb2dPolyline
 66
     1
 10
0.0
 20
0.0
 30
0.0
  0
VERTEX
  5
449
330
448
100
AcDbEntity
  8
BEMA_UNG
 62
     7
100
AcDbVertex
100
AcDb2dVertex
 10
10.90890205058569
 20
-172.4204248453545
 30
0.0
  0
VERTEX
  5
44A
330
448
100
AcDbEntity
  8
BEMA_UNG
 62
     7
100
AcDbVertex
100
AcDb2dVertex
 10
10.72286677165576
 20
-172.4204248453545
 30
0.0
  0
SEQEND
  5
44B
330
448
100
AcDbEntity
  8
BEMA_UNG
  0
POLYLINE
  5
44C
330
1F
100
AcDbEntity
  8
BEMA_UNG
 62
     7
100
AcDb2dPolyline
 66
     1
 10
0.0
 20
0.0
 30
0.0
  0
VERTEX
  5
44D
330
44C
100
AcDbEntity
  8
BEMA_UNG
 62
     7
100
AcDbVertex
100
AcDb2dVertex
 10
10.90890205058569
 20
-172.3976872001519
 30
0.0
  0
VERTEX
  5
44E
330
44C
100
AcDbEntity
  8
BEMA_UNG
 62
     7
100
AcDbVertex
100
AcDb2dVertex
 10
10.54957835443028
 20
-172.3976872001519
 30
0.0
  0
SEQEND
  5
44F
330
44C
100
AcDbEntity
  8
BEMA_UNG
  0
POLYLINE
  5
450
330
1F
100
AcDbEntity
  8
BEMA_UNG
 62
     7
100
AcDb2dPolyline
 66
     1
 10
0.0
 20
0.0
 30
0.0
  0
VERTEX
  5
451
330
450
100
AcDbEntity
  8
BEMA_UNG
 62
     7
100
AcDbVertex
100
AcDb2dVertex
 10
10.90890205058569
 20
-172.3746050451736
 30
0.0
  0
VERTEX
  5
452
330
450
100
AcDbEntity
  8
BEMA_UNG
 62
     7
100
AcDbVertex
100
AcDb2dVertex
 10
10.37594542742901
 20
-172.3746050451736
 30
0.0
  0
SEQEND
  5
453
330
450
100
AcDbEntity
  8
BEMA_UNG
  0
POLYLINE
  5
454
330
1F
100
AcDbEntity
  8
BEMA_UNG
 62
     7
100
AcDb2dPolyline
 66
     1
 10
0.0
 20
0.0
 30
0.0
  0
VERTEX
  5
455
330
454
100
AcDbEntity
  8
BEMA_UNG
 62
     7
100
AcDbVertex
100
AcDb2dVertex
 10
10.90890205058569
 20
-172.351867399971
 30
0.0
  0
VERTEX
  5
456
330
454
100
AcDbEntity
  8
BEMA_UNG
 62
     7
100
AcDbVertex
100
AcDb2dVertex
 10
10.20214024553985
 20
-172.351867399971
 30
0.0
  0
SEQEND
  5
457
330
454
100
AcDbEntity
  8
BEMA_UNG
  0
POLYLINE
  5
458
330
1F
100
AcDbEntity
  8
BEMA_UNG
 62
     7
100
AcDb2dPolyline
 66
     1
 10
0.0
 20
0.0
 30
0.0
  0
VERTEX
  5
459
330
458
100
AcDbEntity
  8
BEMA_UNG
 62
     7
100
AcDbVertex
100
AcDb2dVertex
 10
10.90890205058569
 20
-172.3291297547685
 30
0.0
  0
VERTEX
  5
45A
330
458
100
AcDbEntity
  8
BEMA_UNG
 62
     7
100
AcDbVertex
100
AcDb2dVertex
 10
10.02833506365068
 20
-172.3291297547685
 30
0.0
  0
SEQEND
  5
45B
330
458
100
AcDbEntity
  8
BEMA_UNG
  0
POLYLINE
  5
45C
330
1F
100
AcDbEntity
  8
BEMA_UNG
 62
     7
100
AcDb2dPolyline
 66
     1
 10
0.0
 20
0.0
 30
0.0
  0
VERTEX
  5
45D
330
45C
100
AcDbEntity
  8
BEMA_UNG
 62
     7
100
AcDbVertex
100
AcDb2dVertex
 10
10.90890205058569
 20
-172.3060475997902
 30
0.0
  0
VERTEX
  5
45E
330
45C
100
AcDbEntity
  8
BEMA_UNG
 62
     7
100
AcDbVertex
100
AcDb2dVertex
 10
9.85470213664941
 20
-172.3060475997902
 30
0.0
  0
SEQEND
  5
45F
330
45C
100
AcDbEntity
  8
BEMA_UNG
  0
POLYLINE
  5
460
330
1F
100
AcDbEntity
  8
BEMA_UNG
 62
     7
100
AcDb2dPolyline
 66
     1
 10
0.0
 20
0.0
 30
0.0
  0
VERTEX
  5
461
330
460
100
AcDbEntity
  8
BEMA_UNG
 62
     7
100
AcDbVertex
100
AcDb2dVertex
 10
10.90890205058569
 20
-172.2833099545876
 30
0.0
  0
VERTEX
  5
462
330
460
100
AcDbEntity
  8
BEMA_UNG
 62
     7
100
AcDbVertex
100
AcDb2dVertex
 10
9.681413719423936
 20
-172.2833099545876
 30
0.0
  0
SEQEND
  5
463
330
460
100
AcDbEntity
  8
BEMA_UNG
  0
POLYLINE
  5
464
330
1F
100
AcDbEntity
  8
BEMA_UNG
 62
     7
100
AcDb2dPolyline
 66
     1
 10
0.0
 20
0.0
 30
0.0
  0
VERTEX
  5
465
330
464
100
AcDbEntity
  8
BEMA_UNG
 62
     7
100
AcDbVertex
100
AcDb2dVertex
 10
10.90890205058569
 20
-172.2605723093851
 30
0.0
  0
VERTEX
  5
466
330
464
100
AcDbEntity
  8
BEMA_UNG
 62
     7
100
AcDbVertex
100
AcDb2dVertex
 10
9.50760853753477
 20
-172.2605723093851
 30
0.0
  0
SEQEND
  5
467
330
464
100
AcDbEntity
  8
BEMA_UNG
  0
POLYLINE
  5
468
330
1F
100
AcDbEntity
  8
BEMA_UNG
 62
     7
100
AcDb2dPolyline
 66
     1
 10
0.0
 20
0.0
 30
0.0
  0
VERTEX
  5
469
330
468
100
AcDbEntity
  8
BEMA_UNG
 62
     7
100
AcDbVertex
100
AcDb2dVertex
 10
10.90890205058569
 20
-172.2378346641825
 30
0.0
  0
VERTEX
  5
46A
330
468
100
AcDbEntity
  8
BEMA_UNG
 62
     7
100
AcDbVertex
100
AcDb2dVertex
 10
9.333803355645603
 20
-172.2378346641825
 30
0.0
  0
SEQEND
  5
46B
330
468
100
AcDbEntity
  8
BEMA_UNG
  0
POLYLINE
  5
46C
330
1F
100
AcDbEntity
  8
BEMA_UNG
 62
     7
100
AcDb2dPolyline
 66
     1
 10
0.0
 20
0.0
 30
0.0
  0
VERTEX
  5
46D
330
46C
100
AcDbEntity
  8
BEMA_UNG
 62
     7
100
AcDbVertex
100
AcDb2dVertex
 10
10.90890205058569
 20
-172.0318178182564
 30
0.0
  0
VERTEX
  5
46E
330
46C
100
AcDbEntity
  8
BEMA_UNG
 62
     7
100
AcDbVertex
100
AcDb2dVertex
 10
10.89667195354492
 20
-172.0318178182564
 30
0.0
  0
SEQEND
  5
46F
330
46C
100
AcDbEntity
  8
BEMA_UNG
  0
POLYLINE
  5
470
330
1F
100
AcDbEntity
  8
BEMA_UNG
 62
     7
100
AcDb2dPolyline
 66
     1
 10
0.0
 20
0.0
 30
0.0
  0
VERTEX
  5
471
330
470
100
AcDbEntity
  8
BEMA_UNG
 62
     7
100
AcDbVertex
100
AcDb2dVertex
 10
10.90890205058569
 20
-172.0318178182564
 30
0.0
  0
VERTEX
  5
472
330
470
100
AcDbEntity
  8
BEMA_UNG
 62
     7
100
AcDbVertex
100
AcDb2dVertex
 10
10.89667195354492
 20
-172.0318178182564
 30
0.0
  0
SEQEND
  5
473
330
470
100
AcDbEntity
  8
BEMA_UNG
  0
POLYLINE
  5
474
330
1F
100
AcDbEntity
  8
BEMA_UNG
 62
     7
100
AcDb2dPolyline
 66
     1
 10
0.0
 20
0.0
 30
0.0
  0
VERTEX
  5
475
330
474
100
AcDbEntity
  8
BEMA_UNG
 62
     7
100
AcDbVertex
100
AcDb2dVertex
 10
10.90890205058569
 20
-172.0545554634589
 30
0.0
  0
VERTEX
  5
476
330
474
100
AcDbEntity
  8
BEMA_UNG
 62
     7
100
AcDbVertex
100
AcDb2dVertex
 10
10.72286677165576
 20
-172.0545554634589
 30
0.0
  0
SEQEND
  5
477
330
474
100
AcDbEntity
  8
BEMA_UNG
  0
POLYLINE
  5
478
330
1F
100
AcDbEntity
  8
BEMA_UNG
 62
     7
100
AcDb2dPolyline
 66
     1
 10
0.0
 20
0.0
 30
0.0
  0
VERTEX
  5
479
330
478
100
AcDbEntity
  8
BEMA_UNG
 62
     7
100
AcDbVertex
100
AcDb2dVertex
 10
10.90890205058569
 20
-172.0772931086615
 30
0.0
  0
VERTEX
  5
47A
330
478
100
AcDbEntity
  8
BEMA_UNG
 62
     7
100
AcDbVertex
100
AcDb2dVertex
 10
10.54957835443028
 20
-172.0772931086615
 30
0.0
  0
SEQEND
  5
47B
330
478
100
AcDbEntity
  8
BEMA_UNG
  0
POLYLINE
  5
47C
330
1F
100
AcDbEntity
  8
BEMA_UNG
 62
     7
100
AcDb2dPolyline
 66
     1
 10
0.0
 20
0.0
 30
0.0
  0
VERTEX
  5
47D
330
47C
100
AcDbEntity
  8
BEMA_UNG
 62
     7
100
AcDbVertex
100
AcDb2dVertex
 10
10.90890205058569
 20
-172.1003752636398
 30
0.0
  0
VERTEX
  5
47E
330
47C
100
AcDbEntity
  8
BEMA_UNG
 62
     7
100
AcDbVertex
100
AcDb2dVertex
 10
10.37594542742901
 20
-172.1003752636398
 30
0.0
  0
SEQEND
  5
47F
330
47C
100
AcDbEntity
  8
BEMA_UNG
  0
POLYLINE
  5
480
330
1F
100
AcDbEntity
  8
BEMA_UNG
 62
     7
100
AcDb2dPolyline
 66
     1
 10
0.0
 20
0.0
 30
0.0
  0
VERTEX
  5
481
330
480
100
AcDbEntity
  8
BEMA_UNG
 62
     7
100
AcDbVertex
100
AcDb2dVertex
 10
10.90890205058569
 20
-172.1231129088424
 30
0.0
  0
VERTEX
  5
482
330
480
100
AcDbEntity
  8
BEMA_UNG
 62
     7
100
AcDbVertex
100
AcDb2dVertex
 10
10.20214024553985
 20
-172.1231129088424
 30
0.0
  0
SEQEND
  5
483
330
480
100
AcDbEntity
  8
BEMA_UNG
  0
POLYLINE
  5
484
330
1F
100
AcDbEntity
  8
BEMA_UNG
 62
     7
100
AcDb2dPolyline
 66
     1
 10
0.0
 20
0.0
 30
0.0
  0
VERTEX
  5
485
330
484
100
AcDbEntity
  8
BEMA_UNG
 62
     7
100
AcDbVertex
100
AcDb2dVertex
 10
10.90890205058569
 20
-172.1461950638207
 30
0.0
  0
VERTEX
  5
486
330
484
100
AcDbEntity
  8
BEMA_UNG
 62
     7
100
AcDbVertex
100
AcDb2dVertex
 10
10.02833506365068
 20
-172.1461950638207
 30
0.0
  0
SEQEND
  5
487
330
484
100
AcDbEntity
  8
BEMA_UNG
  0
POLYLINE
  5
488
330
1F
100
AcDbEntity
  8
BEMA_UNG
 62
     7
100
AcDb2dPolyline
 66
     1
 10
0.0
 20
0.0
 30
0.0
  0
VERTEX
  5
489
330
488
100
AcDbEntity
  8
BEMA_UNG
 62
     7
100
AcDbVertex
100
AcDb2dVertex
 10
10.90890205058569
 20
-172.1692772187991
 30
0.0
  0
VERTEX
  5
48A
330
488
100
AcDbEntity
  8
BEMA_UNG
 62
     7
100
AcDbVertex
100
AcDb2dVertex
 10
9.85470213664941
 20
-172.1692772187991
 30
0.0
  0
SEQEND
  5
48B
330
488
100
AcDbEntity
  8
BEMA_UNG
  0
POLYLINE
  5
48C
330
1F
100
AcDbEntity
  8
BEMA_UNG
 62
     7
100
AcDb2dPolyline
 66
     1
 10
0.0
 20
0.0
 30
0.0
  0
VERTEX
  5
48D
330
48C
100
AcDbEntity
  8
BEMA_UNG
 62
     7
100
AcDbVertex
100
AcDb2dVertex
 10
10.90890205058569
 20
-172.1920148640016
 30
0.0
  0
VERTEX
  5
48E
330
48C
100
AcDbEntity
  8
BEMA_UNG
 62
     7
100
AcDbVertex
100
AcDb2dVertex
 10
9.681413719423936
 20
-172.1920148640016
 30
0.0
  0
SEQEND
  5
48F
330
48C
100
AcDbEntity
  8
BEMA_UNG
  0
POLYLINE
  5
490
330
1F
100
AcDbEntity
  8
BEMA_UNG
 62
     7
100
AcDb2dPolyline
 66
     1
 10
0.0
 20
0.0
 30
0.0
  0
VERTEX
  5
491
330
490
100
AcDbEntity
  8
BEMA_UNG
 62
     7
100
AcDbVertex
100
AcDb2dVertex
 10
10.90890205058569
 20
-172.2147525092042
 30
0.0
  0
VERTEX
  5
492
330
490
100
AcDbEntity
  8
BEMA_UNG
 62
     7
100
AcDbVertex
100
AcDb2dVertex
 10
9.50760853753477
 20
-172.2147525092042
 30
0.0
  0
SEQEND
  5
493
330
490
100
AcDbEntity
  8
BEMA_UNG
  0
POLYLINE
  5
494
330
1F
100
AcDbEntity
  8
BEMA_UNG
 62
     7
100
AcDb2dPolyline
 66
     1
 10
0.0
 20
0.0
 30
0.0
  0
VERTEX
  5
495
330
494
100
AcDbEntity
  8
BEMA_UNG
 62
     7
100
AcDbVertex
100
AcDb2dVertex
 10
10.90890205058569
 20
-172.2378346641825
 30
0.0
  0
VERTEX
  5
496
330
494
100
AcDbEntity
  8
BEMA_UNG
 62
     7
100
AcDbVertex
100
AcDb2dVertex
 10
9.333803355645603
 20
-172.2378346641825
 30
0.0
  0
SEQEND
  5
497
330
494
100
AcDbEntity
  8
BEMA_UNG
  0
POLYLINE
  5
498
330
1F
100
AcDbEntity
  8
BEMA_UNG
 62
     7
100
AcDb2dPolyline
 66
     1
 10
0.0
 20
0.0
 30
0.0
  0
VERTEX
  5
499
330
498
100
AcDbEntity
  8
BEMA_UNG
 62
     7
100
AcDbVertex
100
AcDb2dVertex
 10
2.793802026819031
 20
-123.8149186173762
 30
0.0
  0
VERTEX
  5
49A
330
498
100
AcDbEntity
  8
BEMA_UNG
 62
     7
100
AcDbVertex
100
AcDb2dVertex
 10
2.793802026819031
 20
-117.8159698914375
 30
0.0
  0
SEQEND
  5
49B
330
498
100
AcDbEntity
  8
BEMA_UNG
  0
POLYLINE
  5
49C
330
1F
100
AcDbEntity
  8
BEMA_UNG
 62
     7
100
AcDb2dPolyline
 66
     1
 10
0.0
 20
0.0
 30
0.0
  0
VERTEX
  5
49D
330
49C
100
AcDbEntity
  8
BEMA_UNG
 62
     7
100
AcDbVertex
100
AcDb2dVertex
 10
12.93410276760346
 20
-156.6845963260887
 30
0.0
  0
VERTEX
  5
49E
330
49C
100
AcDbEntity
  8
BEMA_UNG
 62
     7
100
AcDbVertex
100
AcDb2dVertex
 10
12.93410276760346
 20
-172.8207452048296
 30
0.0
  0
SEQEND
  5
49F
330
49C
100
AcDbEntity
  8
BEMA_UNG
  0
MTEXT
  5
4A1
330
1F
100
AcDbEntity
  8
TEXT
 62
     7
100
AcDbMText
 10
10.51064874976531
 20
-171.4864588431711
 30
0.0
 40
2.398890470823883
 41
0.0
 71
     7
 72
     1
  1
\fINDEX Univers 45 Light|b0|i0|c0|p34;\W1;8
  0
POLYLINE
  5
4A2
330
1F
100
AcDbEntity
  8
TEXT
 62
     7
100
AcDb2dPolyline
 66
     1
 10
0.0
 20
0.0
 30
0.0
  0
VERTEX
  5
4A3
330
4A2
100
AcDbEntity
  8
TEXT
 62
     7
100
AcDbVertex
100
AcDb2dVertex
 10
12.5708172090264
 20
-152.945287219597
 30
0.0
  0
VERTEX
  5
4A4
330
4A2
100
AcDbEntity
  8
TEXT
 62
     7
100
AcDbVertex
100
AcDb2dVertex
 10
20.53726126453701
 20
-152.945287219597
 30
0.0
  0
SEQEND
  5
4A5
330
4A2
100
AcDbEntity
  8
TEXT
  0
POLYLINE
  5
4A6
330
1F
100
AcDbEntity
  8
TEXT
 62
     7
100
AcDb2dPolyline
 66
     1
 10
0.0
 20
0.0
 30
0.0
  0
VERTEX
  5
4A7
330
4A6
100
AcDbEntity
  8
TEXT
 62
     7
100
AcDbVertex
100
AcDb2dVertex
 10
19.63740173015742
 20
-156.545414376667
 30
0.0
  0
VERTEX
  5
4A8
330
4A6
100
AcDbEntity
  8
TEXT
 62
     7
100
AcDbVertex
100
AcDb2dVertex
 10
19.63740173015742
 20
-152.945287219597
 30
0.0
  0
SEQEND
  5
4A9
330
4A6
100
AcDbEntity
  8
TEXT
  0
POLYLINE
  5
4AA
330
1F
100
AcDbEntity
  8
TEXT
 62
     7
100
AcDb2dPolyline
 66
     1
 10
0.0
 20
0.0
 30
0.0
  0
VERTEX
  5
4AB
330
4AA
100
AcDbEntity
  8
TEXT
 62
     7
100
AcDbVertex
100
AcDb2dVertex
 10
19.63740173015742
 20
-156.545414376667
 30
0.0
  0
VERTEX
  5
4AC
330
4AA
100
AcDbEntity
  8
TEXT
 62
     7
100
AcDbVertex
100
AcDb2dVertex
 10
19.84479661518671
 20
-154.9703156817269
 30
0.0
  0
VERTEX
  5
4AD
330
4AA
100
AcDbEntity
  8
TEXT
 62
     7
100
AcDbVertex
100
AcDb2dVertex
 10
19.43017910001603
 20
-154.9703156817269
 30
0.0
  0
VERTEX
  5
4AE
330
4AA
100
AcDbEntity
  8
TEXT
 62
     7
100
AcDbVertex
100
AcDb2dVertex
 10
19.63740173015742
 20
-156.545414376667
 30
0.0
  0
SEQEND
  5
4AF
330
4AA
100
AcDbEntity
  8
TEXT
  0
POLYLINE
  5
4B0
330
1F
100
AcDbEntity
  8
TEXT
 62
     7
100
AcDb2dPolyline
 66
     1
 10
0.0
 20
0.0
 30
0.0
  0
VERTEX
  5
4B1
330
4B0
100
AcDbEntity
  8
TEXT
 62
     7
100
AcDbVertex
100
AcDb2dVertex
 10
19.84324632119563
 20
-154.9703156817269
 30
0.0
  0
VERTEX
  5
4B2
330
4B0
100
AcDbEntity
  8
TEXT
 62
     7
100
AcDbVertex
100
AcDb2dVertex
 10
19.84324632119563
 20
-154.9827180336556
 30
0.0
  0
SEQEND
  5
4B3
330
4B0
100
AcDbEntity
  8
TEXT
  0
POLYLINE
  5
4B4
330
1F
100
AcDbEntity
  8
TEXT
 62
     7
100
AcDb2dPolyline
 66
     1
 10
0.0
 20
0.0
 30
0.0
  0
VERTEX
  5
4B5
330
4B4
100
AcDbEntity
  8
TEXT
 62
     7
100
AcDbVertex
100
AcDb2dVertex
 10
19.84324632119563
 20
-154.9703156817269
 30
0.0
  0
VERTEX
  5
4B6
330
4B4
100
AcDbEntity
  8
TEXT
 62
     7
100
AcDbVertex
100
AcDb2dVertex
 10
19.84324632119563
 20
-154.9827180336556
 30
0.0
  0
SEQEND
  5
4B7
330
4B4
100
AcDbEntity
  8
TEXT
  0
POLYLINE
  5
4B8
330
1F
100
AcDbEntity
  8
TEXT
 62
     7
100
AcDb2dPolyline
 66
     1
 10
0.0
 20
0.0
 30
0.0
  0
VERTEX
  5
4B9
330
4B8
100
AcDbEntity
  8
TEXT
 62
     7
100
AcDbVertex
100
AcDb2dVertex
 10
19.82050867599309
 20
-154.9703156817269
 30
0.0
  0
VERTEX
  5
4BA
330
4B8
100
AcDbEntity
  8
TEXT
 62
     7
100
AcDbVertex
100
AcDb2dVertex
 10
19.82050867599309
 20
-155.1563509606569
 30
0.0
  0
SEQEND
  5
4BB
330
4B8
100
AcDbEntity
  8
TEXT
  0
POLYLINE
  5
4BC
330
1F
100
AcDbEntity
  8
TEXT
 62
     7
100
AcDb2dPolyline
 66
     1
 10
0.0
 20
0.0
 30
0.0
  0
VERTEX
  5
4BD
330
4BC
100
AcDbEntity
  8
TEXT
 62
     7
100
AcDbVertex
100
AcDb2dVertex
 10
19.79759877590264
 20
-154.9703156817269
 30
0.0
  0
VERTEX
  5
4BE
330
4BC
100
AcDbEntity
  8
TEXT
 62
     7
100
AcDbVertex
100
AcDb2dVertex
 10
19.79759877590264
 20
-155.3296393778823
 30
0.0
  0
SEQEND
  5
4BF
330
4BC
100
AcDbEntity
  8
TEXT
  0
POLYLINE
  5
4C0
330
1F
100
AcDbEntity
  8
TEXT
 62
     7
100
AcDb2dPolyline
 66
     1
 10
0.0
 20
0.0
 30
0.0
  0
VERTEX
  5
4C1
330
4C0
100
AcDbEntity
  8
TEXT
 62
     7
100
AcDbVertex
100
AcDb2dVertex
 10
19.7746888758122
 20
-154.9703156817269
 30
0.0
  0
VERTEX
  5
4C2
330
4C0
100
AcDbEntity
  8
TEXT
 62
     7
100
AcDbVertex
100
AcDb2dVertex
 10
19.7746888758122
 20
-155.5036168146594
 30
0.0
  0
SEQEND
  5
4C3
330
4C0
100
AcDbEntity
  8
TEXT
  0
POLYLINE
  5
4C4
330
1F
100
AcDbEntity
  8
TEXT
 62
     7
100
AcDb2dPolyline
 66
     1
 10
0.0
 20
0.0
 30
0.0
  0
VERTEX
  5
4C5
330
4C4
100
AcDbEntity
  8
TEXT
 62
     7
100
AcDbVertex
100
AcDb2dVertex
 10
19.75177897572175
 20
-154.9703156817269
 30
0.0
  0
VERTEX
  5
4C6
330
4C4
100
AcDbEntity
  8
TEXT
 62
     7
100
AcDbVertex
100
AcDb2dVertex
 10
19.75177897572175
 20
-155.6772497416607
 30
0.0
  0
SEQEND
  5
4C7
330
4C4
100
AcDbEntity
  8
TEXT
  0
POLYLINE
  5
4C8
330
1F
100
AcDbEntity
  8
TEXT
 62
     7
100
AcDb2dPolyline
 66
     1
 10
0.0
 20
0.0
 30
0.0
  0
VERTEX
  5
4C9
330
4C8
100
AcDbEntity
  8
TEXT
 62
     7
100
AcDbVertex
100
AcDb2dVertex
 10
19.7288690756313
 20
-154.9703156817269
 30
0.0
  0
VERTEX
  5
4CA
330
4C8
100
AcDbEntity
  8
TEXT
 62
     7
100
AcDbVertex
100
AcDb2dVertex
 10
19.7288690756313
 20
-155.8508826686619
 30
0.0
  0
SEQEND
  5
4CB
330
4C8
100
AcDbEntity
  8
TEXT
  0
POLYLINE
  5
4CC
330
1F
100
AcDbEntity
  8
TEXT
 62
     7
100
AcDb2dPolyline
 66
     1
 10
0.0
 20
0.0
 30
0.0
  0
VERTEX
  5
4CD
330
4CC
100
AcDbEntity
  8
TEXT
 62
     7
100
AcDbVertex
100
AcDb2dVertex
 10
19.70595917554086
 20
-154.9703156817269
 30
0.0
  0
VERTEX
  5
4CE
330
4CC
100
AcDbEntity
  8
TEXT
 62
     7
100
AcDbVertex
100
AcDb2dVertex
 10
19.70595917554086
 20
-156.0241710858874
 30
0.0
  0
SEQEND
  5
4CF
330
4CC
100
AcDbEntity
  8
TEXT
  0
POLYLINE
  5
4D0
330
1F
100
AcDbEntity
  8
TEXT
 62
     7
100
AcDb2dPolyline
 66
     1
 10
0.0
 20
0.0
 30
0.0
  0
VERTEX
  5
4D1
330
4D0
100
AcDbEntity
  8
TEXT
 62
     7
100
AcDbVertex
100
AcDb2dVertex
 10
19.68304927545041
 20
-154.9703156817269
 30
0.0
  0
VERTEX
  5
4D2
330
4D0
100
AcDbEntity
  8
TEXT
 62
     7
100
AcDbVertex
100
AcDb2dVertex
 10
19.68304927545041
 20
-156.1981485226645
 30
0.0
  0
SEQEND
  5
4D3
330
4D0
100
AcDbEntity
  8
TEXT
  0
POLYLINE
  5
4D4
330
1F
100
AcDbEntity
  8
TEXT
 62
     7
100
AcDb2dPolyline
 66
     1
 10
0.0
 20
0.0
 30
0.0
  0
VERTEX
  5
4D5
330
4D4
100
AcDbEntity
  8
TEXT
 62
     7
100
AcDbVertex
100
AcDb2dVertex
 10
19.66031163024786
 20
-154.9703156817269
 30
0.0
  0
VERTEX
  5
4D6
330
4D4
100
AcDbEntity
  8
TEXT
 62
     7
100
AcDbVertex
100
AcDb2dVertex
 10
19.66031163024786
 20
-156.3717814496657
 30
0.0
  0
SEQEND
  5
4D7
330
4D4
100
AcDbEntity
  8
TEXT
  0
POLYLINE
  5
4D8
330
1F
100
AcDbEntity
  8
TEXT
 62
     7
100
AcDb2dPolyline
 66
     1
 10
0.0
 20
0.0
 30
0.0
  0
VERTEX
  5
4D9
330
4D8
100
AcDbEntity
  8
TEXT
 62
     7
100
AcDbVertex
100
AcDb2dVertex
 10
19.63740173015742
 20
-154.9703156817269
 30
0.0
  0
VERTEX
  5
4DA
330
4D8
100
AcDbEntity
  8
TEXT
 62
     7
100
AcDbVertex
100
AcDb2dVertex
 10
19.63740173015742
 20
-156.545414376667
 30
0.0
  0
SEQEND
  5
4DB
330
4D8
100
AcDbEntity
  8
TEXT
  0
POLYLINE
  5
4DC
330
1F
100
AcDbEntity
  8
TEXT
 62
     7
100
AcDb2dPolyline
 66
     1
 10
0.0
 20
0.0
 30
0.0
  0
VERTEX
  5
4DD
330
4DC
100
AcDbEntity
  8
TEXT
 62
     7
100
AcDbVertex
100
AcDb2dVertex
 10
19.43172939400711
 20
-154.9703156817269
 30
0.0
  0
VERTEX
  5
4DE
330
4DC
100
AcDbEntity
  8
TEXT
 62
     7
100
AcDbVertex
100
AcDb2dVertex
 10
19.43172939400711
 20
-154.9827180336556
 30
0.0
  0
SEQEND
  5
4DF
330
4DC
100
AcDbEntity
  8
TEXT
  0
POLYLINE
  5
4E0
330
1F
100
AcDbEntity
  8
TEXT
 62
     7
100
AcDb2dPolyline
 66
     1
 10
0.0
 20
0.0
 30
0.0
  0
VERTEX
  5
4E1
330
4E0
100
AcDbEntity
  8
TEXT
 62
     7
100
AcDbVertex
100
AcDb2dVertex
 10
19.43172939400711
 20
-154.9703156817269
 30
0.0
  0
VERTEX
  5
4E2
330
4E0
100
AcDbEntity
  8
TEXT
 62
     7
100
AcDbVertex
100
AcDb2dVertex
 10
19.43172939400711
 20
-154.9827180336556
 30
0.0
  0
SEQEND
  5
4E3
330
4E0
100
AcDbEntity
  8
TEXT
  0
POLYLINE
  5
4E4
330
1F
100
AcDbEntity
  8
TEXT
 62
     7
100
AcDb2dPolyline
 66
     1
 10
0.0
 20
0.0
 30
0.0
  0
VERTEX
  5
4E5
330
4E4
100
AcDbEntity
  8
TEXT
 62
     7
100
AcDbVertex
100
AcDb2dVertex
 10
19.45481154898545
 20
-154.9703156817269
 30
0.0
  0
VERTEX
  5
4E6
330
4E4
100
AcDbEntity
  8
TEXT
 62
     7
100
AcDbVertex
100
AcDb2dVertex
 10
19.45481154898545
 20
-155.1563509606569
 30
0.0
  0
SEQEND
  5
4E7
330
4E4
100
AcDbEntity
  8
TEXT
  0
POLYLINE
  5
4E8
330
1F
100
AcDbEntity
  8
TEXT
 62
     7
100
AcDb2dPolyline
 66
     1
 10
0.0
 20
0.0
 30
0.0
  0
VERTEX
  5
4E9
330
4E8
100
AcDbEntity
  8
TEXT
 62
     7
100
AcDbVertex
100
AcDb2dVertex
 10
19.477549194188
 20
-154.9703156817269
 30
0.0
  0
VERTEX
  5
4EA
330
4E8
100
AcDbEntity
  8
TEXT
 62
     7
100
AcDbVertex
100
AcDb2dVertex
 10
19.477549194188
 20
-155.3296393778823
 30
0.0
  0
SEQEND
  5
4EB
330
4E8
100
AcDbEntity
  8
TEXT
  0
POLYLINE
  5
4EC
330
1F
100
AcDbEntity
  8
TEXT
 62
     7
100
AcDb2dPolyline
 66
     1
 10
0.0
 20
0.0
 30
0.0
  0
VERTEX
  5
4ED
330
4EC
100
AcDbEntity
  8
TEXT
 62
     7
100
AcDbVertex
100
AcDb2dVertex
 10
19.50028683939054
 20
-154.9703156817269
 30
0.0
  0
VERTEX
  5
4EE
330
4EC
100
AcDbEntity
  8
TEXT
 62
     7
100
AcDbVertex
100
AcDb2dVertex
 10
19.50028683939054
 20
-155.5036168146594
 30
0.0
  0
SEQEND
  5
4EF
330
4EC
100
AcDbEntity
  8
TEXT
  0
POLYLINE
  5
4F0
330
1F
100
AcDbEntity
  8
TEXT
 62
     7
100
AcDb2dPolyline
 66
     1
 10
0.0
 20
0.0
 30
0.0
  0
VERTEX
  5
4F1
330
4F0
100
AcDbEntity
  8
TEXT
 62
     7
100
AcDbVertex
100
AcDb2dVertex
 10
19.52302448459309
 20
-154.9703156817269
 30
0.0
  0
VERTEX
  5
4F2
330
4F0
100
AcDbEntity
  8
TEXT
 62
     7
100
AcDbVertex
100
AcDb2dVertex
 10
19.52302448459309
 20
-155.6772497416607
 30
0.0
  0
SEQEND
  5
4F3
330
4F0
100
AcDbEntity
  8
TEXT
  0
POLYLINE
  5
4F4
330
1F
100
AcDbEntity
  8
TEXT
 62
     7
100
AcDb2dPolyline
 66
     1
 10
0.0
 20
0.0
 30
0.0
  0
VERTEX
  5
4F5
330
4F4
100
AcDbEntity
  8
TEXT
 62
     7
100
AcDbVertex
100
AcDb2dVertex
 10
19.54593438468354
 20
-154.9703156817269
 30
0.0
  0
VERTEX
  5
4F6
330
4F4
100
AcDbEntity
  8
TEXT
 62
     7
100
AcDbVertex
100
AcDb2dVertex
 10
19.54593438468354
 20
-155.8508826686619
 30
0.0
  0
SEQEND
  5
4F7
330
4F4
100
AcDbEntity
  8
TEXT
  0
POLYLINE
  5
4F8
330
1F
100
AcDbEntity
  8
TEXT
 62
     7
100
AcDb2dPolyline
 66
     1
 10
0.0
 20
0.0
 30
0.0
  0
VERTEX
  5
4F9
330
4F8
100
AcDbEntity
  8
TEXT
 62
     7
100
AcDbVertex
100
AcDb2dVertex
 10
19.56884428477398
 20
-154.9703156817269
 30
0.0
  0
VERTEX
  5
4FA
330
4F8
100
AcDbEntity
  8
TEXT
 62
     7
100
AcDbVertex
100
AcDb2dVertex
 10
19.56884428477398
 20
-156.0241710858874
 30
0.0
  0
SEQEND
  5
4FB
330
4F8
100
AcDbEntity
  8
TEXT
  0
POLYLINE
  5
4FC
330
1F
100
AcDbEntity
  8
TEXT
 62
     7
100
AcDb2dPolyline
 66
     1
 10
0.0
 20
0.0
 30
0.0
  0
VERTEX
  5
4FD
330
4FC
100
AcDbEntity
  8
TEXT
 62
     7
100
AcDbVertex
100
AcDb2dVertex
 10
19.59158192997653
 20
-154.9703156817269
 30
0.0
  0
VERTEX
  5
4FE
330
4FC
100
AcDbEntity
  8
TEXT
 62
     7
100
AcDbVertex
100
AcDb2dVertex
 10
19.59158192997653
 20
-156.1981485226645
 30
0.0
  0
SEQEND
  5
4FF
330
4FC
100
AcDbEntity
  8
TEXT
  0
POLYLINE
  5
500
330
1F
100
AcDbEntity
  8
TEXT
 62
     7
100
AcDb2dPolyline
 66
     1
 10
0.0
 20
0.0
 30
0.0
  0
VERTEX
  5
501
330
500
100
AcDbEntity
  8
TEXT
 62
     7
100
AcDbVertex
100
AcDb2dVertex
 10
19.61449183006697
 20
-154.9703156817269
 30
0.0
  0
VERTEX
  5
502
330
500
100
AcDbEntity
  8
TEXT
 62
     7
100
AcDbVertex
100
AcDb2dVertex
 10
19.61449183006697
 20
-156.3717814496657
 30
0.0
  0
SEQEND
  5
503
330
500
100
AcDbEntity
  8
TEXT
  0
POLYLINE
  5
504
330
1F
100
AcDbEntity
  8
TEXT
 62
     7
100
AcDb2dPolyline
 66
     1
 10
0.0
 20
0.0
 30
0.0
  0
VERTEX
  5
505
330
504
100
AcDbEntity
  8
TEXT
 62
     7
100
AcDbVertex
100
AcDb2dVertex
 10
19.63740173015742
 20
-154.9703156817269
 30
0.0
  0
VERTEX
  5
506
330
504
100
AcDbEntity
  8
TEXT
 62
     7
100
AcDbVertex
100
AcDb2dVertex
 10
19.63740173015742
 20
-156.545414376667
 30
0.0
  0
SEQEND
  5
507
330
504
100
AcDbEntity
  8
TEXT
  0
POLYLINE
  5
508
330
1F
100
AcDbEntity
  8
TEXT
 62
     7
100
AcDb2dPolyline
 66
     1
 10
0.0
 20
0.0
 30
0.0
  0
VERTEX
  5
509
330
508
100
AcDbEntity
  8
TEXT
 62
     7
100
AcDbVertex
100
AcDb2dVertex
 10
19.63740173015742
 20
-152.945287219597
 30
0.0
  0
VERTEX
  5
50A
330
508
100
AcDbEntity
  8
TEXT
 62
     7
100
AcDbVertex
100
AcDb2dVertex
 10
19.43017910001603
 20
-154.5200414047613
 30
0.0
  0
VERTEX
  5
50B
330
508
100
AcDbEntity
  8
TEXT
 62
     7
100
AcDbVertex
100
AcDb2dVertex
 10
19.84479661518671
 20
-154.5200414047613
 30
0.0
  0
VERTEX
  5
50C
330
508
100
AcDbEntity
  8
TEXT
 62
     7
100
AcDbVertex
100
AcDb2dVertex
 10
19.63740173015742
 20
-152.945287219597
 30
0.0
  0
SEQEND
  5
50D
330
508
100
AcDbEntity
  8
TEXT
  0
POLYLINE
  5
50E
330
1F
100
AcDbEntity
  8
TEXT
 62
     7
100
AcDb2dPolyline
 66
     1
 10
0.0
 20
0.0
 30
0.0
  0
VERTEX
  5
50F
330
50E
100
AcDbEntity
  8
TEXT
 62
     7
100
AcDbVertex
100
AcDb2dVertex
 10
19.43172939400711
 20
-154.5200414047613
 30
0.0
  0
VERTEX
  5
510
330
50E
100
AcDbEntity
  8
TEXT
 62
     7
100
AcDbVertex
100
AcDb2dVertex
 10
19.43172939400711
 20
-154.5079835626085
 30
0.0
  0
SEQEND
  5
511
330
50E
100
AcDbEntity
  8
TEXT
  0
POLYLINE
  5
512
330
1F
100
AcDbEntity
  8
TEXT
 62
     7
100
AcDb2dPolyline
 66
     1
 10
0.0
 20
0.0
 30
0.0
  0
VERTEX
  5
513
330
512
100
AcDbEntity
  8
TEXT
 62
     7
100
AcDbVertex
100
AcDb2dVertex
 10
19.43172939400711
 20
-154.5200414047613
 30
0.0
  0
VERTEX
  5
514
330
512
100
AcDbEntity
  8
TEXT
 62
     7
100
AcDbVertex
100
AcDb2dVertex
 10
19.43172939400711
 20
-154.5079835626085
 30
0.0
  0
SEQEND
  5
515
330
512
100
AcDbEntity
  8
TEXT
  0
POLYLINE
  5
516
330
1F
100
AcDbEntity
  8
TEXT
 62
     7
100
AcDb2dPolyline
 66
     1
 10
0.0
 20
0.0
 30
0.0
  0
VERTEX
  5
517
330
516
100
AcDbEntity
  8
TEXT
 62
     7
100
AcDbVertex
100
AcDb2dVertex
 10
19.45481154898545
 20
-154.5200414047613
 30
0.0
  0
VERTEX
  5
518
330
516
100
AcDbEntity
  8
TEXT
 62
     7
100
AcDbVertex
100
AcDb2dVertex
 10
19.45481154898545
 20
-154.3343506356072
 30
0.0
  0
SEQEND
  5
519
330
516
100
AcDbEntity
  8
TEXT
  0
POLYLINE
  5
51A
330
1F
100
AcDbEntity
  8
TEXT
 62
     7
100
AcDb2dPolyline
 66
     1
 10
0.0
 20
0.0
 30
0.0
  0
VERTEX
  5
51B
330
51A
100
AcDbEntity
  8
TEXT
 62
     7
100
AcDbVertex
100
AcDb2dVertex
 10
19.477549194188
 20
-154.5200414047613
 30
0.0
  0
VERTEX
  5
51C
330
51A
100
AcDbEntity
  8
TEXT
 62
     7
100
AcDbVertex
100
AcDb2dVertex
 10
19.477549194188
 20
-154.1610622183817
 30
0.0
  0
SEQEND
  5
51D
330
51A
100
AcDbEntity
  8
TEXT
  0
POLYLINE
  5
51E
330
1F
100
AcDbEntity
  8
TEXT
 62
     7
100
AcDb2dPolyline
 66
     1
 10
0.0
 20
0.0
 30
0.0
  0
VERTEX
  5
51F
330
51E
100
AcDbEntity
  8
TEXT
 62
     7
100
AcDbVertex
100
AcDb2dVertex
 10
19.50028683939054
 20
-154.5200414047613
 30
0.0
  0
VERTEX
  5
520
330
51E
100
AcDbEntity
  8
TEXT
 62
     7
100
AcDbVertex
100
AcDb2dVertex
 10
19.50028683939054
 20
-153.9870847816047
 30
0.0
  0
SEQEND
  5
521
330
51E
100
AcDbEntity
  8
TEXT
  0
POLYLINE
  5
522
330
1F
100
AcDbEntity
  8
TEXT
 62
     7
100
AcDb2dPolyline
 66
     1
 10
0.0
 20
0.0
 30
0.0
  0
VERTEX
  5
523
330
522
100
AcDbEntity
  8
TEXT
 62
     7
100
AcDbVertex
100
AcDb2dVertex
 10
19.52302448459309
 20
-154.5200414047613
 30
0.0
  0
VERTEX
  5
524
330
522
100
AcDbEntity
  8
TEXT
 62
     7
100
AcDbVertex
100
AcDb2dVertex
 10
19.52302448459309
 20
-153.8134518546034
 30
0.0
  0
SEQEND
  5
525
330
522
100
AcDbEntity
  8
TEXT
  0
POLYLINE
  5
526
330
1F
100
AcDbEntity
  8
TEXT
 62
     7
100
AcDb2dPolyline
 66
     1
 10
0.0
 20
0.0
 30
0.0
  0
VERTEX
  5
527
330
526
100
AcDbEntity
  8
TEXT
 62
     7
100
AcDbVertex
100
AcDb2dVertex
 10
19.54593438468354
 20
-154.5200414047613
 30
0.0
  0
VERTEX
  5
528
330
526
100
AcDbEntity
  8
TEXT
 62
     7
100
AcDbVertex
100
AcDb2dVertex
 10
19.54593438468354
 20
-153.6398189276021
 30
0.0
  0
SEQEND
  5
529
330
526
100
AcDbEntity
  8
TEXT
  0
POLYLINE
  5
52A
330
1F
100
AcDbEntity
  8
TEXT
 62
     7
100
AcDb2dPolyline
 66
     1
 10
0.0
 20
0.0
 30
0.0
  0
VERTEX
  5
52B
330
52A
100
AcDbEntity
  8
TEXT
 62
     7
100
AcDbVertex
100
AcDb2dVertex
 10
19.56884428477398
 20
-154.5200414047613
 30
0.0
  0
VERTEX
  5
52C
330
52A
100
AcDbEntity
  8
TEXT
 62
     7
100
AcDbVertex
100
AcDb2dVertex
 10
19.56884428477398
 20
-153.4661860006009
 30
0.0
  0
SEQEND
  5
52D
330
52A
100
AcDbEntity
  8
TEXT
  0
POLYLINE
  5
52E
330
1F
100
AcDbEntity
  8
TEXT
 62
     7
100
AcDb2dPolyline
 66
     1
 10
0.0
 20
0.0
 30
0.0
  0
VERTEX
  5
52F
330
52E
100
AcDbEntity
  8
TEXT
 62
     7
100
AcDbVertex
100
AcDb2dVertex
 10
19.59158192997653
 20
-154.5200414047613
 30
0.0
  0
VERTEX
  5
530
330
52E
100
AcDbEntity
  8
TEXT
 62
     7
100
AcDbVertex
100
AcDb2dVertex
 10
19.59158192997653
 20
-153.2925530735996
 30
0.0
  0
SEQEND
  5
531
330
52E
100
AcDbEntity
  8
TEXT
  0
POLYLINE
  5
532
330
1F
100
AcDbEntity
  8
TEXT
 62
     7
100
AcDb2dPolyline
 66
     1
 10
0.0
 20
0.0
 30
0.0
  0
VERTEX
  5
533
330
532
100
AcDbEntity
  8
TEXT
 62
     7
100
AcDbVertex
100
AcDb2dVertex
 10
19.61449183006697
 20
-154.5200414047613
 30
0.0
  0
VERTEX
  5
534
330
532
100
AcDbEntity
  8
TEXT
 62
     7
100
AcDbVertex
100
AcDb2dVertex
 10
19.61449183006697
 20
-153.1189201465983
 30
0.0
  0
SEQEND
  5
535
330
532
100
AcDbEntity
  8
TEXT
  0
POLYLINE
  5
536
330
1F
100
AcDbEntity
  8
TEXT
 62
     7
100
AcDb2dPolyline
 66
     1
 10
0.0
 20
0.0
 30
0.0
  0
VERTEX
  5
537
330
536
100
AcDbEntity
  8
TEXT
 62
     7
100
AcDbVertex
100
AcDb2dVertex
 10
19.63740173015742
 20
-154.5200414047613
 30
0.0
  0
VERTEX
  5
538
330
536
100
AcDbEntity
  8
TEXT
 62
     7
100
AcDbVertex
100
AcDb2dVertex
 10
19.63740173015742
 20
-152.945287219597
 30
0.0
  0
SEQEND
  5
539
330
536
100
AcDbEntity
  8
TEXT
  0
POLYLINE
  5
53A
330
1F
100
AcDbEntity
  8
TEXT
 62
     7
100
AcDb2dPolyline
 66
     1
 10
0.0
 20
0.0
 30
0.0
  0
VERTEX
  5
53B
330
53A
100
AcDbEntity
  8
TEXT
 62
     7
100
AcDbVertex
100
AcDb2dVertex
 10
19.84324632119563
 20
-154.5200414047613
 30
0.0
  0
VERTEX
  5
53C
330
53A
100
AcDbEntity
  8
TEXT
 62
     7
100
AcDbVertex
100
AcDb2dVertex
 10
19.84324632119563
 20
-154.5079835626085
 30
0.0
  0
SEQEND
  5
53D
330
53A
100
AcDbEntity
  8
TEXT
  0
POLYLINE
  5
53E
330
1F
100
AcDbEntity
  8
TEXT
 62
     7
100
AcDb2dPolyline
 66
     1
 10
0.0
 20
0.0
 30
0.0
  0
VERTEX
  5
53F
330
53E
100
AcDbEntity
  8
TEXT
 62
     7
100
AcDbVertex
100
AcDb2dVertex
 10
19.84324632119563
 20
-154.5200414047613
 30
0.0
  0
VERTEX
  5
540
330
53E
100
AcDbEntity
  8
TEXT
 62
     7
100
AcDbVertex
100
AcDb2dVertex
 10
19.84324632119563
 20
-154.5079835626085
 30
0.0
  0
SEQEND
  5
541
330
53E
100
AcDbEntity
  8
TEXT
  0
POLYLINE
  5
542
330
1F
100
AcDbEntity
  8
TEXT
 62
     7
100
AcDb2dPolyline
 66
     1
 10
0.0
 20
0.0
 30
0.0
  0
VERTEX
  5
543
330
542
100
AcDbEntity
  8
TEXT
 62
     7
100
AcDbVertex
100
AcDb2dVertex
 10
19.82050867599309
 20
-154.5200414047613
 30
0.0
  0
VERTEX
  5
544
330
542
100
AcDbEntity
  8
TEXT
 62
     7
100
AcDbVertex
100
AcDb2dVertex
 10
19.82050867599309
 20
-154.3343506356072
 30
0.0
  0
SEQEND
  5
545
330
542
100
AcDbEntity
  8
TEXT
  0
POLYLINE
  5
546
330
1F
100
AcDbEntity
  8
TEXT
 62
     7
100
AcDb2dPolyline
 66
     1
 10
0.0
 20
0.0
 30
0.0
  0
VERTEX
  5
547
330
546
100
AcDbEntity
  8
TEXT
 62
     7
100
AcDbVertex
100
AcDb2dVertex
 10
19.79759877590264
 20
-154.5200414047613
 30
0.0
  0
VERTEX
  5
548
330
546
100
AcDbEntity
  8
TEXT
 62
     7
100
AcDbVertex
100
AcDb2dVertex
 10
19.79759877590264
 20
-154.1610622183817
 30
0.0
  0
SEQEND
  5
549
330
546
100
AcDbEntity
  8
TEXT
  0
POLYLINE
  5
54A
330
1F
100
AcDbEntity
  8
TEXT
 62
     7
100
AcDb2dPolyline
 66
     1
 10
0.0
 20
0.0
 30
0.0
  0
VERTEX
  5
54B
330
54A
100
AcDbEntity
  8
TEXT
 62
     7
100
AcDbVertex
100
AcDb2dVertex
 10
19.7746888758122
 20
-154.5200414047613
 30
0.0
  0
VERTEX
  5
54C
330
54A
100
AcDbEntity
  8
TEXT
 62
     7
100
AcDbVertex
100
AcDb2dVertex
 10
19.7746888758122
 20
-153.9870847816047
 30
0.0
  0
SEQEND
  5
54D
330
54A
100
AcDbEntity
  8
TEXT
  0
POLYLINE
  5
54E
330
1F
100
AcDbEntity
  8
TEXT
 62
     7
100
AcDb2dPolyline
 66
     1
 10
0.0
 20
0.0
 30
0.0
  0
VERTEX
  5
54F
330
54E
100
AcDbEntity
  8
TEXT
 62
     7
100
AcDbVertex
100
AcDb2dVertex
 10
19.75177897572175
 20
-154.5200414047613
 30
0.0
  0
VERTEX
  5
550
330
54E
100
AcDbEntity
  8
TEXT
 62
     7
100
AcDbVertex
100
AcDb2dVertex
 10
19.75177897572175
 20
-153.8134518546034
 30
0.0
  0
SEQEND
  5
551
330
54E
100
AcDbEntity
  8
TEXT
  0
POLYLINE
  5
552
330
1F
100
AcDbEntity
  8
TEXT
 62
     7
100
AcDb2dPolyline
 66
     1
 10
0.0
 20
0.0
 30
0.0
  0
VERTEX
  5
553
330
552
100
AcDbEntity
  8
TEXT
 62
     7
100
AcDbVertex
100
AcDb2dVertex
 10
19.7288690756313
 20
-154.5200414047613
 30
0.0
  0
VERTEX
  5
554
330
552
100
AcDbEntity
  8
TEXT
 62
     7
100
AcDbVertex
100
AcDb2dVertex
 10
19.7288690756313
 20
-153.6398189276021
 30
0.0
  0
SEQEND
  5
555
330
552
100
AcDbEntity
  8
TEXT
  0
POLYLINE
  5
556
330
1F
100
AcDbEntity
  8
TEXT
 62
     7
100
AcDb2dPolyline
 66
     1
 10
0.0
 20
0.0
 30
0.0
  0
VERTEX
  5
557
330
556
100
AcDbEntity
  8
TEXT
 62
     7
100
AcDbVertex
100
AcDb2dVertex
 10
19.70595917554086
 20
-154.5200414047613
 30
0.0
  0
VERTEX
  5
558
330
556
100
AcDbEntity
  8
TEXT
 62
     7
100
AcDbVertex
100
AcDb2dVertex
 10
19.70595917554086
 20
-153.4661860006009
 30
0.0
  0
SEQEND
  5
559
330
556
100
AcDbEntity
  8
TEXT
  0
POLYLINE
  5
55A
330
1F
100
AcDbEntity
  8
TEXT
 62
     7
100
AcDb2dPolyline
 66
     1
 10
0.0
 20
0.0
 30
0.0
  0
VERTEX
  5
55B
330
55A
100
AcDbEntity
  8
TEXT
 62
     7
100
AcDbVertex
100
AcDb2dVertex
 10
19.68304927545041
 20
-154.5200414047613
 30
0.0
  0
VERTEX
  5
55C
330
55A
100
AcDbEntity
  8
TEXT
 62
     7
100
AcDbVertex
100
AcDb2dVertex
 10
19.68304927545041
 20
-153.2925530735996
 30
0.0
  0
SEQEND
  5
55D
330
55A
100
AcDbEntity
  8
TEXT
  0
POLYLINE
  5
55E
330
1F
100
AcDbEntity
  8
TEXT
 62
     7
100
AcDb2dPolyline
 66
     1
 10
0.0
 20
0.0
 30
0.0
  0
VERTEX
  5
55F
330
55E
100
AcDbEntity
  8
TEXT
 62
     7
100
AcDbVertex
100
AcDb2dVertex
 10
19.66031163024786
 20
-154.5200414047613
 30
0.0
  0
VERTEX
  5
560
330
55E
100
AcDbEntity
  8
TEXT
 62
     7
100
AcDbVertex
100
AcDb2dVertex
 10
19.66031163024786
 20
-153.1189201465983
 30
0.0
  0
SEQEND
  5
561
330
55E
100
AcDbEntity
  8
TEXT
  0
POLYLINE
  5
562
330
1F
100
AcDbEntity
  8
TEXT
 62
     7
100
AcDb2dPolyline
 66
     1
 10
0.0
 20
0.0
 30
0.0
  0
VERTEX
  5
563
330
562
100
AcDbEntity
  8
TEXT
 62
     7
100
AcDbVertex
100
AcDb2dVertex
 10
19.63740173015742
 20
-154.5200414047613
 30
0.0
  0
VERTEX
  5
564
330
562
100
AcDbEntity
  8
TEXT
 62
     7
100
AcDbVertex
100
AcDb2dVertex
 10
19.63740173015742
 20
-152.945287219597
 30
0.0
  0
SEQEND
  5
565
330
562
100
AcDbEntity
  8
TEXT
  0
POLYLINE
  5
566
330
1F
100
AcDbEntity
  8
TEXT
 62
     7
100
AcDb2dPolyline
 66
     1
 10
0.0
 20
0.0
 30
0.0
  0
VERTEX
  5
567
330
566
100
AcDbEntity
  8
TEXT
 62
     7
100
AcDbVertex
100
AcDb2dVertex
 10
11.95276667124808
 20
-156.545414376667
 30
0.0
  0
VERTEX
  5
568
330
566
100
AcDbEntity
  8
TEXT
 62
     7
100
AcDbVertex
100
AcDb2dVertex
 10
20.53760577431281
 20
-156.545414376667
 30
0.0
  0
SEQEND
  5
569
330
566
100
AcDbEntity
  8
TEXT
  0
MTEXT
  5
56A
330
1F
100
AcDbEntity
  8
TEXT
 62
     7
100
AcDbMText
 10
18.91410345587336
 20
-155.5687291622849
 30
0.0
 40
2.398890470823883
 41
0.0
 71
     7
 72
     1
  1
\fINDEX Univers 45 Light|b0|i0|c0|p34;\W1;8
 11
-4.371139000186241E-8
 21
0.999999999999999
 31
0.0
  0
POLYLINE
  5
56B
330
1F
100
AcDbEntity
  8
TEXT
 62
     7
100
AcDb2dPolyline
 66
     1
 10
0.0
 20
0.0
 30
0.0
  0
VERTEX
  5
56C
330
56B
100
AcDbEntity
  8
TEXT
 62
     7
100
AcDbVertex
100
AcDb2dVertex
 10
-15.67140519119192
 20
-80.98339623174172
 30
0.0
  0
VERTEX
  5
56D
330
56B
100
AcDbEntity
  8
TEXT
 62
     7
100
AcDbVertex
100
AcDb2dVertex
 10
9.367220803897832
 20
-80.98339623174172
 30
0.0
  0
SEQEND
  5
56E
330
56B
100
AcDbEntity
  8
TEXT
  0
POLYLINE
  5
56F
330
1F
100
AcDbEntity
  8
TEXT
 62
     7
100
AcDb2dPolyline
 66
     1
 10
0.0
 20
0.0
 30
0.0
  0
VERTEX
  5
570
330
56F
100
AcDbEntity
  8
TEXT
 62
     7
100
AcDbVertex
100
AcDb2dVertex
 10
-15.07299171063398
 20
-80.98339623174172
 30
0.0
  0
VERTEX
  5
571
330
56F
100
AcDbEntity
  8
TEXT
 62
     7
100
AcDbVertex
100
AcDb2dVertex
 10
-15.07299171063398
 20
-105.7546826408136
 30
0.0
  0
SEQEND
  5
572
330
56F
100
AcDbEntity
  8
TEXT
  0
POLYLINE
  5
573
330
1F
100
AcDbEntity
  8
TEXT
 62
     7
100
AcDb2dPolyline
 66
     1
 10
0.0
 20
0.0
 30
0.0
  0
VERTEX
  5
574
330
573
100
AcDbEntity
  8
TEXT
 62
     7
100
AcDbVertex
100
AcDb2dVertex
 10
-15.07299171063398
 20
-80.98339623174172
 30
0.0
  0
VERTEX
  5
575
330
573
100
AcDbEntity
  8
TEXT
 62
     7
100
AcDbVertex
100
AcDb2dVertex
 10
-15.28021434077537
 20
-82.558150416906
 30
0.0
  0
VERTEX
  5
576
330
573
100
AcDbEntity
  8
TEXT
 62
     7
100
AcDbVertex
100
AcDb2dVertex
 10
-14.86559682560469
 20
-82.558150416906
 30
0.0
  0
VERTEX
  5
577
330
573
100
AcDbEntity
  8
TEXT
 62
     7
100
AcDbVertex
100
AcDb2dVertex
 10
-15.07299171063398
 20
-80.98339623174172
 30
0.0
  0
SEQEND
  5
578
330
573
100
AcDbEntity
  8
TEXT
  0
POLYLINE
  5
579
330
1F
100
AcDbEntity
  8
TEXT
 62
     7
100
AcDb2dPolyline
 66
     1
 10
0.0
 20
0.0
 30
0.0
  0
VERTEX
  5
57A
330
579
100
AcDbEntity
  8
TEXT
 62
     7
100
AcDbVertex
100
AcDb2dVertex
 10
-15.27866404678429
 20
-82.558150416906
 30
0.0
  0
VERTEX
  5
57B
330
579
100
AcDbEntity
  8
TEXT
 62
     7
100
AcDbVertex
100
AcDb2dVertex
 10
-15.27866404678429
 20
-82.54592031986525
 30
0.0
  0
SEQEND
  5
57C
330
579
100
AcDbEntity
  8
TEXT
  0
POLYLINE
  5
57D
330
1F
100
AcDbEntity
  8
TEXT
 62
     7
100
AcDb2dPolyline
 66
     1
 10
0.0
 20
0.0
 30
0.0
  0
VERTEX
  5
57E
330
57D
100
AcDbEntity
  8
TEXT
 62
     7
100
AcDbVertex
100
AcDb2dVertex
 10
-15.27866404678429
 20
-82.558150416906
 30
0.0
  0
VERTEX
  5
57F
330
57D
100
AcDbEntity
  8
TEXT
 62
     7
100
AcDbVertex
100
AcDb2dVertex
 10
-15.27866404678429
 20
-82.54592031986525
 30
0.0
  0
SEQEND
  5
580
330
57D
100
AcDbEntity
  8
TEXT
  0
POLYLINE
  5
581
330
1F
100
AcDbEntity
  8
TEXT
 62
     7
100
AcDb2dPolyline
 66
     1
 10
0.0
 20
0.0
 30
0.0
  0
VERTEX
  5
582
330
581
100
AcDbEntity
  8
TEXT
 62
     7
100
AcDbVertex
100
AcDb2dVertex
 10
-15.25592640158174
 20
-82.558150416906
 30
0.0
  0
VERTEX
  5
583
330
581
100
AcDbEntity
  8
TEXT
 62
     7
100
AcDbVertex
100
AcDb2dVertex
 10
-15.25592640158174
 20
-82.37245964775187
 30
0.0
  0
SEQEND
  5
584
330
581
100
AcDbEntity
  8
TEXT
  0
POLYLINE
  5
585
330
1F
100
AcDbEntity
  8
TEXT
 62
     7
100
AcDb2dPolyline
 66
     1
 10
0.0
 20
0.0
 30
0.0
  0
VERTEX
  5
586
330
585
100
AcDbEntity
  8
TEXT
 62
     7
100
AcDbVertex
100
AcDb2dVertex
 10
-15.2330165014913
 20
-82.558150416906
 30
0.0
  0
VERTEX
  5
587
330
585
100
AcDbEntity
  8
TEXT
 62
     7
100
AcDbVertex
100
AcDb2dVertex
 10
-15.2330165014913
 20
-82.1986544658627
 30
0.0
  0
SEQEND
  5
588
330
585
100
AcDbEntity
  8
TEXT
  0
POLYLINE
  5
589
330
1F
100
AcDbEntity
  8
TEXT
 62
     7
100
AcDb2dPolyline
 66
     1
 10
0.0
 20
0.0
 30
0.0
  0
VERTEX
  5
58A
330
589
100
AcDbEntity
  8
TEXT
 62
     7
100
AcDbVertex
100
AcDb2dVertex
 10
-15.21010660140085
 20
-82.558150416906
 30
0.0
  0
VERTEX
  5
58B
330
589
100
AcDbEntity
  8
TEXT
 62
     7
100
AcDbVertex
100
AcDb2dVertex
 10
-15.21010660140085
 20
-82.02519379374934
 30
0.0
  0
SEQEND
  5
58C
330
589
100
AcDbEntity
  8
TEXT
  0
POLYLINE
  5
58D
330
1F
100
AcDbEntity
  8
TEXT
 62
     7
100
AcDb2dPolyline
 66
     1
 10
0.0
 20
0.0
 30
0.0
  0
VERTEX
  5
58E
330
58D
100
AcDbEntity
  8
TEXT
 62
     7
100
AcDbVertex
100
AcDb2dVertex
 10
-15.18719670131041
 20
-82.558150416906
 30
0.0
  0
VERTEX
  5
58F
330
58D
100
AcDbEntity
  8
TEXT
 62
     7
100
AcDbVertex
100
AcDb2dVertex
 10
-15.18719670131041
 20
-81.85121635697226
 30
0.0
  0
SEQEND
  5
590
330
58D
100
AcDbEntity
  8
TEXT
  0
POLYLINE
  5
591
330
1F
100
AcDbEntity
  8
TEXT
 62
     7
100
AcDb2dPolyline
 66
     1
 10
0.0
 20
0.0
 30
0.0
  0
VERTEX
  5
592
330
591
100
AcDbEntity
  8
TEXT
 62
     7
100
AcDbVertex
100
AcDb2dVertex
 10
-15.16445905610786
 20
-82.558150416906
 30
0.0
  0
VERTEX
  5
593
330
591
100
AcDbEntity
  8
TEXT
 62
     7
100
AcDbVertex
100
AcDb2dVertex
 10
-15.16445905610786
 20
-81.6779279397468
 30
0.0
  0
SEQEND
  5
594
330
591
100
AcDbEntity
  8
TEXT
  0
POLYLINE
  5
595
330
1F
100
AcDbEntity
  8
TEXT
 62
     7
100
AcDb2dPolyline
 66
     1
 10
0.0
 20
0.0
 30
0.0
  0
VERTEX
  5
596
330
595
100
AcDbEntity
  8
TEXT
 62
     7
100
AcDbVertex
100
AcDb2dVertex
 10
-15.14154915601742
 20
-82.558150416906
 30
0.0
  0
VERTEX
  5
597
330
595
100
AcDbEntity
  8
TEXT
 62
     7
100
AcDbVertex
100
AcDb2dVertex
 10
-15.14154915601742
 20
-81.50412275785763
 30
0.0
  0
SEQEND
  5
598
330
595
100
AcDbEntity
  8
TEXT
  0
POLYLINE
  5
599
330
1F
100
AcDbEntity
  8
TEXT
 62
     7
100
AcDb2dPolyline
 66
     1
 10
0.0
 20
0.0
 30
0.0
  0
VERTEX
  5
59A
330
599
100
AcDbEntity
  8
TEXT
 62
     7
100
AcDbVertex
100
AcDb2dVertex
 10
-15.11898376570277
 20
-82.558150416906
 30
0.0
  0
VERTEX
  5
59B
330
599
100
AcDbEntity
  8
TEXT
 62
     7
100
AcDbVertex
100
AcDb2dVertex
 10
-15.11898376570277
 20
-81.33066208574425
 30
0.0
  0
SEQEND
  5
59C
330
599
100
AcDbEntity
  8
TEXT
  0
POLYLINE
  5
59D
330
1F
100
AcDbEntity
  8
TEXT
 62
     7
100
AcDb2dPolyline
 66
     1
 10
0.0
 20
0.0
 30
0.0
  0
VERTEX
  5
59E
330
59D
100
AcDbEntity
  8
TEXT
 62
     7
100
AcDbVertex
100
AcDb2dVertex
 10
-15.09590161072443
 20
-82.558150416906
 30
0.0
  0
VERTEX
  5
59F
330
59D
100
AcDbEntity
  8
TEXT
 62
     7
100
AcDbVertex
100
AcDb2dVertex
 10
-15.09590161072443
 20
-81.15668464896719
 30
0.0
  0
SEQEND
  5
5A0
330
59D
100
AcDbEntity
  8
TEXT
  0
POLYLINE
  5
5A1
330
1F
100
AcDbEntity
  8
TEXT
 62
     7
100
AcDb2dPolyline
 66
     1
 10
0.0
 20
0.0
 30
0.0
  0
VERTEX
  5
5A2
330
5A1
100
AcDbEntity
  8
TEXT
 62
     7
100
AcDbVertex
100
AcDb2dVertex
 10
-15.07299171063398
 20
-82.558150416906
 30
0.0
  0
VERTEX
  5
5A3
330
5A1
100
AcDbEntity
  8
TEXT
 62
     7
100
AcDbVertex
100
AcDb2dVertex
 10
-15.07299171063398
 20
-80.98339623174172
 30
0.0
  0
SEQEND
  5
5A4
330
5A1
100
AcDbEntity
  8
TEXT
  0
POLYLINE
  5
5A5
330
1F
100
AcDbEntity
  8
TEXT
 62
     7
100
AcDb2dPolyline
 66
     1
 10
0.0
 20
0.0
 30
0.0
  0
VERTEX
  5
5A6
330
5A5
100
AcDbEntity
  8
TEXT
 62
     7
100
AcDbVertex
100
AcDb2dVertex
 10
-14.86714711959577
 20
-82.558150416906
 30
0.0
  0
VERTEX
  5
5A7
330
5A5
100
AcDbEntity
  8
TEXT
 62
     7
100
AcDbVertex
100
AcDb2dVertex
 10
-14.86714711959577
 20
-82.54592031986525
 30
0.0
  0
SEQEND
  5
5A8
330
5A5
100
AcDbEntity
  8
TEXT
  0
POLYLINE
  5
5A9
330
1F
100
AcDbEntity
  8
TEXT
 62
     7
100
AcDb2dPolyline
 66
     1
 10
0.0
 20
0.0
 30
0.0
  0
VERTEX
  5
5AA
330
5A9
100
AcDbEntity
  8
TEXT
 62
     7
100
AcDbVertex
100
AcDb2dVertex
 10
-14.86714711959577
 20
-82.558150416906
 30
0.0
  0
VERTEX
  5
5AB
330
5A9
100
AcDbEntity
  8
TEXT
 62
     7
100
AcDbVertex
100
AcDb2dVertex
 10
-14.86714711959577
 20
-82.54592031986525
 30
0.0
  0
SEQEND
  5
5AC
330
5A9
100
AcDbEntity
  8
TEXT
  0
POLYLINE
  5
5AD
330
1F
100
AcDbEntity
  8
TEXT
 62
     7
100
AcDb2dPolyline
 66
     1
 10
0.0
 20
0.0
 30
0.0
  0
VERTEX
  5
5AE
330
5AD
100
AcDbEntity
  8
TEXT
 62
     7
100
AcDbVertex
100
AcDb2dVertex
 10
-14.88988476479832
 20
-82.558150416906
 30
0.0
  0
VERTEX
  5
5AF
330
5AD
100
AcDbEntity
  8
TEXT
 62
     7
100
AcDbVertex
100
AcDb2dVertex
 10
-14.88988476479832
 20
-82.37245964775187
 30
0.0
  0
SEQEND
  5
5B0
330
5AD
100
AcDbEntity
  8
TEXT
  0
POLYLINE
  5
5B1
330
1F
100
AcDbEntity
  8
TEXT
 62
     7
100
AcDb2dPolyline
 66
     1
 10
0.0
 20
0.0
 30
0.0
  0
VERTEX
  5
5B2
330
5B1
100
AcDbEntity
  8
TEXT
 62
     7
100
AcDbVertex
100
AcDb2dVertex
 10
-14.91296691977666
 20
-82.558150416906
 30
0.0
  0
VERTEX
  5
5B3
330
5B1
100
AcDbEntity
  8
TEXT
 62
     7
100
AcDbVertex
100
AcDb2dVertex
 10
-14.91296691977666
 20
-82.1986544658627
 30
0.0
  0
SEQEND
  5
5B4
330
5B1
100
AcDbEntity
  8
TEXT
  0
POLYLINE
  5
5B5
330
1F
100
AcDbEntity
  8
TEXT
 62
     7
100
AcDb2dPolyline
 66
     1
 10
0.0
 20
0.0
 30
0.0
  0
VERTEX
  5
5B6
330
5B5
100
AcDbEntity
  8
TEXT
 62
     7
100
AcDbVertex
100
AcDb2dVertex
 10
-14.9358768198671
 20
-82.558150416906
 30
0.0
  0
VERTEX
  5
5B7
330
5B5
100
AcDbEntity
  8
TEXT
 62
     7
100
AcDbVertex
100
AcDb2dVertex
 10
-14.9358768198671
 20
-82.02519379374934
 30
0.0
  0
SEQEND
  5
5B8
330
5B5
100
AcDbEntity
  8
TEXT
  0
POLYLINE
  5
5B9
330
1F
100
AcDbEntity
  8
TEXT
 62
     7
100
AcDb2dPolyline
 66
     1
 10
0.0
 20
0.0
 30
0.0
  0
VERTEX
  5
5BA
330
5B9
100
AcDbEntity
  8
TEXT
 62
     7
100
AcDbVertex
100
AcDb2dVertex
 10
-14.95861446506965
 20
-82.558150416906
 30
0.0
  0
VERTEX
  5
5BB
330
5B9
100
AcDbEntity
  8
TEXT
 62
     7
100
AcDbVertex
100
AcDb2dVertex
 10
-14.95861446506965
 20
-81.85121635697226
 30
0.0
  0
SEQEND
  5
5BC
330
5B9
100
AcDbEntity
  8
TEXT
  0
POLYLINE
  5
5BD
330
1F
100
AcDbEntity
  8
TEXT
 62
     7
100
AcDb2dPolyline
 66
     1
 10
0.0
 20
0.0
 30
0.0
  0
VERTEX
  5
5BE
330
5BD
100
AcDbEntity
  8
TEXT
 62
     7
100
AcDbVertex
100
AcDb2dVertex
 10
-14.9815243651601
 20
-82.558150416906
 30
0.0
  0
VERTEX
  5
5BF
330
5BD
100
AcDbEntity
  8
TEXT
 62
     7
100
AcDbVertex
100
AcDb2dVertex
 10
-14.9815243651601
 20
-81.6779279397468
 30
0.0
  0
SEQEND
  5
5C0
330
5BD
100
AcDbEntity
  8
TEXT
  0
POLYLINE
  5
5C1
330
1F
100
AcDbEntity
  8
TEXT
 62
     7
100
AcDb2dPolyline
 66
     1
 10
0.0
 20
0.0
 30
0.0
  0
VERTEX
  5
5C2
330
5C1
100
AcDbEntity
  8
TEXT
 62
     7
100
AcDbVertex
100
AcDb2dVertex
 10
-15.00443426525054
 20
-82.558150416906
 30
0.0
  0
VERTEX
  5
5C3
330
5C1
100
AcDbEntity
  8
TEXT
 62
     7
100
AcDbVertex
100
AcDb2dVertex
 10
-15.00443426525054
 20
-81.50412275785763
 30
0.0
  0
SEQEND
  5
5C4
330
5C1
100
AcDbEntity
  8
TEXT
  0
POLYLINE
  5
5C5
330
1F
100
AcDbEntity
  8
TEXT
 62
     7
100
AcDb2dPolyline
 66
     1
 10
0.0
 20
0.0
 30
0.0
  0
VERTEX
  5
5C6
330
5C5
100
AcDbEntity
  8
TEXT
 62
     7
100
AcDbVertex
100
AcDb2dVertex
 10
-15.02751642022888
 20
-82.558150416906
 30
0.0
  0
VERTEX
  5
5C7
330
5C5
100
AcDbEntity
  8
TEXT
 62
     7
100
AcDbVertex
100
AcDb2dVertex
 10
-15.02751642022888
 20
-81.33066208574425
 30
0.0
  0
SEQEND
  5
5C8
330
5C5
100
AcDbEntity
  8
TEXT
  0
POLYLINE
  5
5C9
330
1F
100
AcDbEntity
  8
TEXT
 62
     7
100
AcDb2dPolyline
 66
     1
 10
0.0
 20
0.0
 30
0.0
  0
VERTEX
  5
5CA
330
5C9
100
AcDbEntity
  8
TEXT
 62
     7
100
AcDbVertex
100
AcDb2dVertex
 10
-15.05025406543143
 20
-82.558150416906
 30
0.0
  0
VERTEX
  5
5CB
330
5C9
100
AcDbEntity
  8
TEXT
 62
     7
100
AcDbVertex
100
AcDb2dVertex
 10
-15.05025406543143
 20
-81.15668464896719
 30
0.0
  0
SEQEND
  5
5CC
330
5C9
100
AcDbEntity
  8
TEXT
  0
POLYLINE
  5
5CD
330
1F
100
AcDbEntity
  8
TEXT
 62
     7
100
AcDb2dPolyline
 66
     1
 10
0.0
 20
0.0
 30
0.0
  0
VERTEX
  5
5CE
330
5CD
100
AcDbEntity
  8
TEXT
 62
     7
100
AcDbVertex
100
AcDb2dVertex
 10
-15.07299171063398
 20
-82.558150416906
 30
0.0
  0
VERTEX
  5
5CF
330
5CD
100
AcDbEntity
  8
TEXT
 62
     7
100
AcDbVertex
100
AcDb2dVertex
 10
-15.07299171063398
 20
-80.98339623174172
 30
0.0
  0
SEQEND
  5
5D0
330
5CD
100
AcDbEntity
  8
TEXT
  0
POLYLINE
  5
5D1
330
1F
100
AcDbEntity
  8
TEXT
 62
     7
100
AcDb2dPolyline
 66
     1
 10
0.0
 20
0.0
 30
0.0
  0
VERTEX
  5
5D2
330
5D1
100
AcDbEntity
  8
TEXT
 62
     7
100
AcDbVertex
100
AcDb2dVertex
 10
-15.04835926166455
 20
-105.7298779369563
 30
0.0
  0
VERTEX
  5
5D3
330
5D1
100
AcDbEntity
  8
TEXT
 62
     7
100
AcDbVertex
100
AcDb2dVertex
 10
-14.84079212174736
 20
-104.1547792420162
 30
0.0
  0
VERTEX
  5
5D4
330
5D1
100
AcDbEntity
  8
TEXT
 62
     7
100
AcDbVertex
100
AcDb2dVertex
 10
-15.25558189180595
 20
-104.1547792420162
 30
0.0
  0
VERTEX
  5
5D5
330
5D1
100
AcDbEntity
  8
TEXT
 62
     7
100
AcDbVertex
100
AcDb2dVertex
 10
-15.04835926166455
 20
-105.7298779369563
 30
0.0
  0
SEQEND
  5
5D6
330
5D1
100
AcDbEntity
  8
TEXT
  0
POLYLINE
  5
5D7
330
1F
100
AcDbEntity
  8
TEXT
 62
     7
100
AcDb2dPolyline
 66
     1
 10
0.0
 20
0.0
 30
0.0
  0
VERTEX
  5
5D8
330
5D7
100
AcDbEntity
  8
TEXT
 62
     7
100
AcDbVertex
100
AcDb2dVertex
 10
-14.84234241573844
 20
-104.1547792420162
 30
0.0
  0
VERTEX
  5
5D9
330
5D7
100
AcDbEntity
  8
TEXT
 62
     7
100
AcDbVertex
100
AcDb2dVertex
 10
-14.84234241573844
 20
-104.167009339057
 30
0.0
  0
SEQEND
  5
5DA
330
5D7
100
AcDbEntity
  8
TEXT
  0
POLYLINE
  5
5DB
330
1F
100
AcDbEntity
  8
TEXT
 62
     7
100
AcDb2dPolyline
 66
     1
 10
0.0
 20
0.0
 30
0.0
  0
VERTEX
  5
5DC
330
5DB
100
AcDbEntity
  8
TEXT
 62
     7
100
AcDbVertex
100
AcDb2dVertex
 10
-14.84234241573844
 20
-104.1547792420162
 30
0.0
  0
VERTEX
  5
5DD
330
5DB
100
AcDbEntity
  8
TEXT
 62
     7
100
AcDbVertex
100
AcDb2dVertex
 10
-14.84234241573844
 20
-104.167009339057
 30
0.0
  0
SEQEND
  5
5DE
330
5DB
100
AcDbEntity
  8
TEXT
  0
POLYLINE
  5
5DF
330
1F
100
AcDbEntity
  8
TEXT
 62
     7
100
AcDb2dPolyline
 66
     1
 10
0.0
 20
0.0
 30
0.0
  0
VERTEX
  5
5E0
330
5DF
100
AcDbEntity
  8
TEXT
 62
     7
100
AcDbVertex
100
AcDb2dVertex
 10
-14.86525231582889
 20
-104.1547792420162
 30
0.0
  0
VERTEX
  5
5E1
330
5DF
100
AcDbEntity
  8
TEXT
 62
     7
100
AcDbVertex
100
AcDb2dVertex
 10
-14.86525231582889
 20
-104.3406422660583
 30
0.0
  0
SEQEND
  5
5E2
330
5DF
100
AcDbEntity
  8
TEXT
  0
POLYLINE
  5
5E3
330
1F
100
AcDbEntity
  8
TEXT
 62
     7
100
AcDb2dPolyline
 66
     1
 10
0.0
 20
0.0
 30
0.0
  0
VERTEX
  5
5E4
330
5E3
100
AcDbEntity
  8
TEXT
 62
     7
100
AcDbVertex
100
AcDb2dVertex
 10
-14.88833447080723
 20
-104.1547792420162
 30
0.0
  0
VERTEX
  5
5E5
330
5E3
100
AcDbEntity
  8
TEXT
 62
     7
100
AcDbVertex
100
AcDb2dVertex
 10
-14.88833447080723
 20
-104.5142751930595
 30
0.0
  0
SEQEND
  5
5E6
330
5E3
100
AcDbEntity
  8
TEXT
  0
POLYLINE
  5
5E7
330
1F
100
AcDbEntity
  8
TEXT
 62
     7
100
AcDb2dPolyline
 66
     1
 10
0.0
 20
0.0
 30
0.0
  0
VERTEX
  5
5E8
330
5E7
100
AcDbEntity
  8
TEXT
 62
     7
100
AcDbVertex
100
AcDb2dVertex
 10
-14.91107211600978
 20
-104.1547792420162
 30
0.0
  0
VERTEX
  5
5E9
330
5E7
100
AcDbEntity
  8
TEXT
 62
     7
100
AcDbVertex
100
AcDb2dVertex
 10
-14.91107211600978
 20
-104.6880803749487
 30
0.0
  0
SEQEND
  5
5EA
330
5E7
100
AcDbEntity
  8
TEXT
  0
POLYLINE
  5
5EB
330
1F
100
AcDbEntity
  8
TEXT
 62
     7
100
AcDb2dPolyline
 66
     1
 10
0.0
 20
0.0
 30
0.0
  0
VERTEX
  5
5EC
330
5EB
100
AcDbEntity
  8
TEXT
 62
     7
100
AcDbVertex
100
AcDb2dVertex
 10
-14.93380976121233
 20
-104.1547792420162
 30
0.0
  0
VERTEX
  5
5ED
330
5EB
100
AcDbEntity
  8
TEXT
 62
     7
100
AcDbVertex
100
AcDb2dVertex
 10
-14.93380976121233
 20
-104.86171330195
 30
0.0
  0
SEQEND
  5
5EE
330
5EB
100
AcDbEntity
  8
TEXT
  0
POLYLINE
  5
5EF
330
1F
100
AcDbEntity
  8
TEXT
 62
     7
100
AcDb2dPolyline
 66
     1
 10
0.0
 20
0.0
 30
0.0
  0
VERTEX
  5
5F0
330
5EF
100
AcDbEntity
  8
TEXT
 62
     7
100
AcDbVertex
100
AcDb2dVertex
 10
-14.95689191619067
 20
-104.1547792420162
 30
0.0
  0
VERTEX
  5
5F1
330
5EF
100
AcDbEntity
  8
TEXT
 62
     7
100
AcDbVertex
100
AcDb2dVertex
 10
-14.95689191619067
 20
-105.0353462289512
 30
0.0
  0
SEQEND
  5
5F2
330
5EF
100
AcDbEntity
  8
TEXT
  0
POLYLINE
  5
5F3
330
1F
100
AcDbEntity
  8
TEXT
 62
     7
100
AcDb2dPolyline
 66
     1
 10
0.0
 20
0.0
 30
0.0
  0
VERTEX
  5
5F4
330
5F3
100
AcDbEntity
  8
TEXT
 62
     7
100
AcDbVertex
100
AcDb2dVertex
 10
-14.97980181628112
 20
-104.1547792420162
 30
0.0
  0
VERTEX
  5
5F5
330
5F3
100
AcDbEntity
  8
TEXT
 62
     7
100
AcDbVertex
100
AcDb2dVertex
 10
-14.97980181628112
 20
-105.2088069010646
 30
0.0
  0
SEQEND
  5
5F6
330
5F3
100
AcDbEntity
  8
TEXT
  0
POLYLINE
  5
5F7
330
1F
100
AcDbEntity
  8
TEXT
 62
     7
100
AcDb2dPolyline
 66
     1
 10
0.0
 20
0.0
 30
0.0
  0
VERTEX
  5
5F8
330
5F7
100
AcDbEntity
  8
TEXT
 62
     7
100
AcDbVertex
100
AcDb2dVertex
 10
-15.00271171637156
 20
-104.1547792420162
 30
0.0
  0
VERTEX
  5
5F9
330
5F7
100
AcDbEntity
  8
TEXT
 62
     7
100
AcDbVertex
100
AcDb2dVertex
 10
-15.00271171637156
 20
-105.3826120829538
 30
0.0
  0
SEQEND
  5
5FA
330
5F7
100
AcDbEntity
  8
TEXT
  0
POLYLINE
  5
5FB
330
1F
100
AcDbEntity
  8
TEXT
 62
     7
100
AcDb2dPolyline
 66
     1
 10
0.0
 20
0.0
 30
0.0
  0
VERTEX
  5
5FC
330
5FB
100
AcDbEntity
  8
TEXT
 62
     7
100
AcDbVertex
100
AcDb2dVertex
 10
-15.02544936157411
 20
-104.1547792420162
 30
0.0
  0
VERTEX
  5
5FD
330
5FB
100
AcDbEntity
  8
TEXT
 62
     7
100
AcDbVertex
100
AcDb2dVertex
 10
-15.02544936157411
 20
-105.5560727550671
 30
0.0
  0
SEQEND
  5
5FE
330
5FB
100
AcDbEntity
  8
TEXT
  0
POLYLINE
  5
5FF
330
1F
100
AcDbEntity
  8
TEXT
 62
     7
100
AcDb2dPolyline
 66
     1
 10
0.0
 20
0.0
 30
0.0
  0
VERTEX
  5
600
330
5FF
100
AcDbEntity
  8
TEXT
 62
     7
100
AcDbVertex
100
AcDb2dVertex
 10
-15.04835926166455
 20
-104.1547792420162
 30
0.0
  0
VERTEX
  5
601
330
5FF
100
AcDbEntity
  8
TEXT
 62
     7
100
AcDbVertex
100
AcDb2dVertex
 10
-15.04835926166455
 20
-105.7298779369563
 30
0.0
  0
SEQEND
  5
602
330
5FF
100
AcDbEntity
  8
TEXT
  0
POLYLINE
  5
603
330
1F
100
AcDbEntity
  8
TEXT
 62
     7
100
AcDb2dPolyline
 66
     1
 10
0.0
 20
0.0
 30
0.0
  0
VERTEX
  5
604
330
603
100
AcDbEntity
  8
TEXT
 62
     7
100
AcDbVertex
100
AcDb2dVertex
 10
-15.25385934292697
 20
-104.1547792420162
 30
0.0
  0
VERTEX
  5
605
330
603
100
AcDbEntity
  8
TEXT
 62
     7
100
AcDbVertex
100
AcDb2dVertex
 10
-15.25385934292697
 20
-104.167009339057
 30
0.0
  0
SEQEND
  5
606
330
603
100
AcDbEntity
  8
TEXT
  0
POLYLINE
  5
607
330
1F
100
AcDbEntity
  8
TEXT
 62
     7
100
AcDb2dPolyline
 66
     1
 10
0.0
 20
0.0
 30
0.0
  0
VERTEX
  5
608
330
607
100
AcDbEntity
  8
TEXT
 62
     7
100
AcDbVertex
100
AcDb2dVertex
 10
-15.25385934292697
 20
-104.1547792420162
 30
0.0
  0
VERTEX
  5
609
330
607
100
AcDbEntity
  8
TEXT
 62
     7
100
AcDbVertex
100
AcDb2dVertex
 10
-15.25385934292697
 20
-104.167009339057
 30
0.0
  0
SEQEND
  5
60A
330
607
100
AcDbEntity
  8
TEXT
  0
POLYLINE
  5
60B
330
1F
100
AcDbEntity
  8
TEXT
 62
     7
100
AcDb2dPolyline
 66
     1
 10
0.0
 20
0.0
 30
0.0
  0
VERTEX
  5
60C
330
60B
100
AcDbEntity
  8
TEXT
 62
     7
100
AcDbVertex
100
AcDb2dVertex
 10
-15.23129395261232
 20
-104.1547792420162
 30
0.0
  0
VERTEX
  5
60D
330
60B
100
AcDbEntity
  8
TEXT
 62
     7
100
AcDbVertex
100
AcDb2dVertex
 10
-15.23129395261232
 20
-104.3406422660583
 30
0.0
  0
SEQEND
  5
60E
330
60B
100
AcDbEntity
  8
TEXT
  0
POLYLINE
  5
60F
330
1F
100
AcDbEntity
  8
TEXT
 62
     7
100
AcDb2dPolyline
 66
     1
 10
0.0
 20
0.0
 30
0.0
  0
VERTEX
  5
610
330
60F
100
AcDbEntity
  8
TEXT
 62
     7
100
AcDbVertex
100
AcDb2dVertex
 10
-15.20821179763398
 20
-104.1547792420162
 30
0.0
  0
VERTEX
  5
611
330
60F
100
AcDbEntity
  8
TEXT
 62
     7
100
AcDbVertex
100
AcDb2dVertex
 10
-15.20821179763398
 20
-104.5142751930595
 30
0.0
  0
SEQEND
  5
612
330
60F
100
AcDbEntity
  8
TEXT
  0
POLYLINE
  5
613
330
1F
100
AcDbEntity
  8
TEXT
 62
     7
100
AcDb2dPolyline
 66
     1
 10
0.0
 20
0.0
 30
0.0
  0
VERTEX
  5
614
330
613
100
AcDbEntity
  8
TEXT
 62
     7
100
AcDbVertex
100
AcDb2dVertex
 10
-15.18530189754353
 20
-104.1547792420162
 30
0.0
  0
VERTEX
  5
615
330
613
100
AcDbEntity
  8
TEXT
 62
     7
100
AcDbVertex
100
AcDb2dVertex
 10
-15.18530189754353
 20
-104.6880803749487
 30
0.0
  0
SEQEND
  5
616
330
613
100
AcDbEntity
  8
TEXT
  0
POLYLINE
  5
617
330
1F
100
AcDbEntity
  8
TEXT
 62
     7
100
AcDb2dPolyline
 66
     1
 10
0.0
 20
0.0
 30
0.0
  0
VERTEX
  5
618
330
617
100
AcDbEntity
  8
TEXT
 62
     7
100
AcDbVertex
100
AcDb2dVertex
 10
-15.16239199745308
 20
-104.1547792420162
 30
0.0
  0
VERTEX
  5
619
330
617
100
AcDbEntity
  8
TEXT
 62
     7
100
AcDbVertex
100
AcDb2dVertex
 10
-15.16239199745308
 20
-104.86171330195
 30
0.0
  0
SEQEND
  5
61A
330
617
100
AcDbEntity
  8
TEXT
  0
POLYLINE
  5
61B
330
1F
100
AcDbEntity
  8
TEXT
 62
     7
100
AcDb2dPolyline
 66
     1
 10
0.0
 20
0.0
 30
0.0
  0
VERTEX
  5
61C
330
61B
100
AcDbEntity
  8
TEXT
 62
     7
100
AcDbVertex
100
AcDb2dVertex
 10
-15.13982660713844
 20
-104.1547792420162
 30
0.0
  0
VERTEX
  5
61D
330
61B
100
AcDbEntity
  8
TEXT
 62
     7
100
AcDbVertex
100
AcDb2dVertex
 10
-15.13982660713844
 20
-105.0353462289512
 30
0.0
  0
SEQEND
  5
61E
330
61B
100
AcDbEntity
  8
TEXT
  0
POLYLINE
  5
61F
330
1F
100
AcDbEntity
  8
TEXT
 62
     7
100
AcDb2dPolyline
 66
     1
 10
0.0
 20
0.0
 30
0.0
  0
VERTEX
  5
620
330
61F
100
AcDbEntity
  8
TEXT
 62
     7
100
AcDbVertex
100
AcDb2dVertex
 10
-15.11674445216009
 20
-104.1547792420162
 30
0.0
  0
VERTEX
  5
621
330
61F
100
AcDbEntity
  8
TEXT
 62
     7
100
AcDbVertex
100
AcDb2dVertex
 10
-15.11674445216009
 20
-105.2088069010646
 30
0.0
  0
SEQEND
  5
622
330
61F
100
AcDbEntity
  8
TEXT
  0
POLYLINE
  5
623
330
1F
100
AcDbEntity
  8
TEXT
 62
     7
100
AcDb2dPolyline
 66
     1
 10
0.0
 20
0.0
 30
0.0
  0
VERTEX
  5
624
330
623
100
AcDbEntity
  8
TEXT
 62
     7
100
AcDbVertex
100
AcDb2dVertex
 10
-15.09417906184544
 20
-104.1547792420162
 30
0.0
  0
VERTEX
  5
625
330
623
100
AcDbEntity
  8
TEXT
 62
     7
100
AcDbVertex
100
AcDb2dVertex
 10
-15.09417906184544
 20
-105.3826120829538
 30
0.0
  0
SEQEND
  5
626
330
623
100
AcDbEntity
  8
TEXT
  0
POLYLINE
  5
627
330
1F
100
AcDbEntity
  8
TEXT
 62
     7
100
AcDb2dPolyline
 66
     1
 10
0.0
 20
0.0
 30
0.0
  0
VERTEX
  5
628
330
627
100
AcDbEntity
  8
TEXT
 62
     7
100
AcDbVertex
100
AcDb2dVertex
 10
-15.071269161755
 20
-104.1547792420162
 30
0.0
  0
VERTEX
  5
629
330
627
100
AcDbEntity
  8
TEXT
 62
     7
100
AcDbVertex
100
AcDb2dVertex
 10
-15.071269161755
 20
-105.5560727550671
 30
0.0
  0
SEQEND
  5
62A
330
627
100
AcDbEntity
  8
TEXT
  0
POLYLINE
  5
62B
330
1F
100
AcDbEntity
  8
TEXT
 62
     7
100
AcDb2dPolyline
 66
     1
 10
0.0
 20
0.0
 30
0.0
  0
VERTEX
  5
62C
330
62B
100
AcDbEntity
  8
TEXT
 62
     7
100
AcDbVertex
100
AcDb2dVertex
 10
-15.04835926166455
 20
-104.1547792420162
 30
0.0
  0
VERTEX
  5
62D
330
62B
100
AcDbEntity
  8
TEXT
 62
     7
100
AcDbVertex
100
AcDb2dVertex
 10
-15.04835926166455
 20
-105.7298779369563
 30
0.0
  0
SEQEND
  5
62E
330
62B
100
AcDbEntity
  8
TEXT
  0
MTEXT
  5
62F
330
1F
100
AcDbEntity
  8
TEXT
 62
     7
100
AcDbMText
 10
-15.82987968805816
 20
-95.36151172459482
 30
0.0
 40
2.398890470823883
 41
0.0
 71
     7
 72
     1
  1
\fINDEX Univers 45 Light|b0|i0|c0|p34;\W1;55
 11
-4.371139000186241E-8
 21
0.999999999999999
 31
0.0
  0
POLYLINE
  5
630
330
1F
100
AcDbEntity
  8
TEXT
 62
     7
100
AcDb2dPolyline
 66
     1
 10
0.0
 20
0.0
 30
0.0
  0
VERTEX
  5
631
330
630
100
AcDbEntity
  8
TEXT
 62
     7
100
AcDbVertex
100
AcDb2dVertex
 10
-15.07299171063398
 20
-105.7686352867334
 30
0.0
  0
VERTEX
  5
632
330
630
100
AcDbEntity
  8
TEXT
 62
     7
100
AcDbVertex
100
AcDb2dVertex
 10
-15.07299171063398
 20
-139.4990706702726
 30
0.0
  0
SEQEND
  5
633
330
630
100
AcDbEntity
  8
TEXT
  0
POLYLINE
  5
634
330
1F
100
AcDbEntity
  8
TEXT
 62
     7
100
AcDb2dPolyline
 66
     1
 10
0.0
 20
0.0
 30
0.0
  0
VERTEX
  5
635
330
634
100
AcDbEntity
  8
TEXT
 62
     7
100
AcDbVertex
100
AcDb2dVertex
 10
-15.07299171063398
 20
-105.7686352867334
 30
0.0
  0
VERTEX
  5
636
330
634
100
AcDbEntity
  8
TEXT
 62
     7
100
AcDbVertex
100
AcDb2dVertex
 10
-15.28021434077537
 20
-107.3433894718977
 30
0.0
  0
VERTEX
  5
637
330
634
100
AcDbEntity
  8
TEXT
 62
     7
100
AcDbVertex
100
AcDb2dVertex
 10
-14.86559682560469
 20
-107.3433894718977
 30
0.0
  0
VERTEX
  5
638
330
634
100
AcDbEntity
  8
TEXT
 62
     7
100
AcDbVertex
100
AcDb2dVertex
 10
-15.07299171063398
 20
-105.7686352867334
 30
0.0
  0
SEQEND
  5
639
330
634
100
AcDbEntity
  8
TEXT
  0
POLYLINE
  5
63A
330
1F
100
AcDbEntity
  8
TEXT
 62
     7
100
AcDb2dPolyline
 66
     1
 10
0.0
 20
0.0
 30
0.0
  0
VERTEX
  5
63B
330
63A
100
AcDbEntity
  8
TEXT
 62
     7
100
AcDbVertex
100
AcDb2dVertex
 10
-15.27866404678429
 20
-107.3433894718977
 30
0.0
  0
VERTEX
  5
63C
330
63A
100
AcDbEntity
  8
TEXT
 62
     7
100
AcDbVertex
100
AcDb2dVertex
 10
-15.27866404678429
 20
-107.3311593748569
 30
0.0
  0
SEQEND
  5
63D
330
63A
100
AcDbEntity
  8
TEXT
  0
POLYLINE
  5
63E
330
1F
100
AcDbEntity
  8
TEXT
 62
     7
100
AcDb2dPolyline
 66
     1
 10
0.0
 20
0.0
 30
0.0
  0
VERTEX
  5
63F
330
63E
100
AcDbEntity
  8
TEXT
 62
     7
100
AcDbVertex
100
AcDb2dVertex
 10
-15.27866404678429
 20
-107.3433894718977
 30
0.0
  0
VERTEX
  5
640
330
63E
100
AcDbEntity
  8
TEXT
 62
     7
100
AcDbVertex
100
AcDb2dVertex
 10
-15.27866404678429
 20
-107.3311593748569
 30
0.0
  0
SEQEND
  5
641
330
63E
100
AcDbEntity
  8
TEXT
  0
POLYLINE
  5
642
330
1F
100
AcDbEntity
  8
TEXT
 62
     7
100
AcDb2dPolyline
 66
     1
 10
0.0
 20
0.0
 30
0.0
  0
VERTEX
  5
643
330
642
100
AcDbEntity
  8
TEXT
 62
     7
100
AcDbVertex
100
AcDb2dVertex
 10
-15.25592640158174
 20
-107.3433894718977
 30
0.0
  0
VERTEX
  5
644
330
642
100
AcDbEntity
  8
TEXT
 62
     7
100
AcDbVertex
100
AcDb2dVertex
 10
-15.25592640158174
 20
-107.1576987027435
 30
0.0
  0
SEQEND
  5
645
330
642
100
AcDbEntity
  8
TEXT
  0
POLYLINE
  5
646
330
1F
100
AcDbEntity
  8
TEXT
 62
     7
100
AcDb2dPolyline
 66
     1
 10
0.0
 20
0.0
 30
0.0
  0
VERTEX
  5
647
330
646
100
AcDbEntity
  8
TEXT
 62
     7
100
AcDbVertex
100
AcDb2dVertex
 10
-15.2330165014913
 20
-107.3433894718977
 30
0.0
  0
VERTEX
  5
648
330
646
100
AcDbEntity
  8
TEXT
 62
     7
100
AcDbVertex
100
AcDb2dVertex
 10
-15.2330165014913
 20
-106.9838935208544
 30
0.0
  0
SEQEND
  5
649
330
646
100
AcDbEntity
  8
TEXT
  0
POLYLINE
  5
64A
330
1F
100
AcDbEntity
  8
TEXT
 62
     7
100
AcDb2dPolyline
 66
     1
 10
0.0
 20
0.0
 30
0.0
  0
VERTEX
  5
64B
330
64A
100
AcDbEntity
  8
TEXT
 62
     7
100
AcDbVertex
100
AcDb2dVertex
 10
-15.21010660140085
 20
-107.3433894718977
 30
0.0
  0
VERTEX
  5
64C
330
64A
100
AcDbEntity
  8
TEXT
 62
     7
100
AcDbVertex
100
AcDb2dVertex
 10
-15.21010660140085
 20
-106.810432848741
 30
0.0
  0
SEQEND
  5
64D
330
64A
100
AcDbEntity
  8
TEXT
  0
POLYLINE
  5
64E
330
1F
100
AcDbEntity
  8
TEXT
 62
     7
100
AcDb2dPolyline
 66
     1
 10
0.0
 20
0.0
 30
0.0
  0
VERTEX
  5
64F
330
64E
100
AcDbEntity
  8
TEXT
 62
     7
100
AcDbVertex
100
AcDb2dVertex
 10
-15.18719670131041
 20
-107.3433894718977
 30
0.0
  0
VERTEX
  5
650
330
64E
100
AcDbEntity
  8
TEXT
 62
     7
100
AcDbVertex
100
AcDb2dVertex
 10
-15.18719670131041
 20
-106.6364554119639
 30
0.0
  0
SEQEND
  5
651
330
64E
100
AcDbEntity
  8
TEXT
  0
POLYLINE
  5
652
330
1F
100
AcDbEntity
  8
TEXT
 62
     7
100
AcDb2dPolyline
 66
     1
 10
0.0
 20
0.0
 30
0.0
  0
VERTEX
  5
653
330
652
100
AcDbEntity
  8
TEXT
 62
     7
100
AcDbVertex
100
AcDb2dVertex
 10
-15.16445905610786
 20
-107.3433894718977
 30
0.0
  0
VERTEX
  5
654
330
652
100
AcDbEntity
  8
TEXT
 62
     7
100
AcDbVertex
100
AcDb2dVertex
 10
-15.16445905610786
 20
-106.4631669947385
 30
0.0
  0
SEQEND
  5
655
330
652
100
AcDbEntity
  8
TEXT
  0
POLYLINE
  5
656
330
1F
100
AcDbEntity
  8
TEXT
 62
     7
100
AcDb2dPolyline
 66
     1
 10
0.0
 20
0.0
 30
0.0
  0
VERTEX
  5
657
330
656
100
AcDbEntity
  8
TEXT
 62
     7
100
AcDbVertex
100
AcDb2dVertex
 10
-15.14154915601742
 20
-107.3433894718977
 30
0.0
  0
VERTEX
  5
658
330
656
100
AcDbEntity
  8
TEXT
 62
     7
100
AcDbVertex
100
AcDb2dVertex
 10
-15.14154915601742
 20
-106.2893618128493
 30
0.0
  0
SEQEND
  5
659
330
656
100
AcDbEntity
  8
TEXT
  0
POLYLINE
  5
65A
330
1F
100
AcDbEntity
  8
TEXT
 62
     7
100
AcDb2dPolyline
 66
     1
 10
0.0
 20
0.0
 30
0.0
  0
VERTEX
  5
65B
330
65A
100
AcDbEntity
  8
TEXT
 62
     7
100
AcDbVertex
100
AcDb2dVertex
 10
-15.11898376570277
 20
-107.3433894718977
 30
0.0
  0
VERTEX
  5
65C
330
65A
100
AcDbEntity
  8
TEXT
 62
     7
100
AcDbVertex
100
AcDb2dVertex
 10
-15.11898376570277
 20
-106.1159011407359
 30
0.0
  0
SEQEND
  5
65D
330
65A
100
AcDbEntity
  8
TEXT
  0
POLYLINE
  5
65E
330
1F
100
AcDbEntity
  8
TEXT
 62
     7
100
AcDb2dPolyline
 66
     1
 10
0.0
 20
0.0
 30
0.0
  0
VERTEX
  5
65F
330
65E
100
AcDbEntity
  8
TEXT
 62
     7
100
AcDbVertex
100
AcDb2dVertex
 10
-15.09590161072443
 20
-107.3433894718977
 30
0.0
  0
VERTEX
  5
660
330
65E
100
AcDbEntity
  8
TEXT
 62
     7
100
AcDbVertex
100
AcDb2dVertex
 10
-15.09590161072443
 20
-105.9419237039589
 30
0.0
  0
SEQEND
  5
661
330
65E
100
AcDbEntity
  8
TEXT
  0
POLYLINE
  5
662
330
1F
100
AcDbEntity
  8
TEXT
 62
     7
100
AcDb2dPolyline
 66
     1
 10
0.0
 20
0.0
 30
0.0
  0
VERTEX
  5
663
330
662
100
AcDbEntity
  8
TEXT
 62
     7
100
AcDbVertex
100
AcDb2dVertex
 10
-15.07299171063398
 20
-107.3433894718977
 30
0.0
  0
VERTEX
  5
664
330
662
100
AcDbEntity
  8
TEXT
 62
     7
100
AcDbVertex
100
AcDb2dVertex
 10
-15.07299171063398
 20
-105.7686352867334
 30
0.0
  0
SEQEND
  5
665
330
662
100
AcDbEntity
  8
TEXT
  0
POLYLINE
  5
666
330
1F
100
AcDbEntity
  8
TEXT
 62
     7
100
AcDb2dPolyline
 66
     1
 10
0.0
 20
0.0
 30
0.0
  0
VERTEX
  5
667
330
666
100
AcDbEntity
  8
TEXT
 62
     7
100
AcDbVertex
100
AcDb2dVertex
 10
-14.86714711959577
 20
-107.3433894718977
 30
0.0
  0
VERTEX
  5
668
330
666
100
AcDbEntity
  8
TEXT
 62
     7
100
AcDbVertex
100
AcDb2dVertex
 10
-14.86714711959577
 20
-107.3311593748569
 30
0.0
  0
SEQEND
  5
669
330
666
100
AcDbEntity
  8
TEXT
  0
POLYLINE
  5
66A
330
1F
100
AcDbEntity
  8
TEXT
 62
     7
100
AcDb2dPolyline
 66
     1
 10
0.0
 20
0.0
 30
0.0
  0
VERTEX
  5
66B
330
66A
100
AcDbEntity
  8
TEXT
 62
     7
100
AcDbVertex
100
AcDb2dVertex
 10
-14.86714711959577
 20
-107.3433894718977
 30
0.0
  0
VERTEX
  5
66C
330
66A
100
AcDbEntity
  8
TEXT
 62
     7
100
AcDbVertex
100
AcDb2dVertex
 10
-14.86714711959577
 20
-107.3311593748569
 30
0.0
  0
SEQEND
  5
66D
330
66A
100
AcDbEntity
  8
TEXT
  0
POLYLINE
  5
66E
330
1F
100
AcDbEntity
  8
TEXT
 62
     7
100
AcDb2dPolyline
 66
     1
 10
0.0
 20
0.0
 30
0.0
  0
VERTEX
  5
66F
330
66E
100
AcDbEntity
  8
TEXT
 62
     7
100
AcDbVertex
100
AcDb2dVertex
 10
-14.88988476479832
 20
-107.3433894718977
 30
0.0
  0
VERTEX
  5
670
330
66E
100
AcDbEntity
  8
TEXT
 62
     7
100
AcDbVertex
100
AcDb2dVertex
 10
-14.88988476479832
 20
-107.1576987027435
 30
0.0
  0
SEQEND
  5
671
330
66E
100
AcDbEntity
  8
TEXT
  0
POLYLINE
  5
672
330
1F
100
AcDbEntity
  8
TEXT
 62
     7
100
AcDb2dPolyline
 66
     1
 10
0.0
 20
0.0
 30
0.0
  0
VERTEX
  5
673
330
672
100
AcDbEntity
  8
TEXT
 62
     7
100
AcDbVertex
100
AcDb2dVertex
 10
-14.91296691977666
 20
-107.3433894718977
 30
0.0
  0
VERTEX
  5
674
330
672
100
AcDbEntity
  8
TEXT
 62
     7
100
AcDbVertex
100
AcDb2dVertex
 10
-14.91296691977666
 20
-106.9838935208544
 30
0.0
  0
SEQEND
  5
675
330
672
100
AcDbEntity
  8
TEXT
  0
POLYLINE
  5
676
330
1F
100
AcDbEntity
  8
TEXT
 62
     7
100
AcDb2dPolyline
 66
     1
 10
0.0
 20
0.0
 30
0.0
  0
VERTEX
  5
677
330
676
100
AcDbEntity
  8
TEXT
 62
     7
100
AcDbVertex
100
AcDb2dVertex
 10
-14.9358768198671
 20
-107.3433894718977
 30
0.0
  0
VERTEX
  5
678
330
676
100
AcDbEntity
  8
TEXT
 62
     7
100
AcDbVertex
100
AcDb2dVertex
 10
-14.9358768198671
 20
-106.810432848741
 30
0.0
  0
SEQEND
  5
679
330
676
100
AcDbEntity
  8
TEXT
  0
POLYLINE
  5
67A
330
1F
100
AcDbEntity
  8
TEXT
 62
     7
100
AcDb2dPolyline
 66
     1
 10
0.0
 20
0.0
 30
0.0
  0
VERTEX
  5
67B
330
67A
100
AcDbEntity
  8
TEXT
 62
     7
100
AcDbVertex
100
AcDb2dVertex
 10
-14.95861446506965
 20
-107.3433894718977
 30
0.0
  0
VERTEX
  5
67C
330
67A
100
AcDbEntity
  8
TEXT
 62
     7
100
AcDbVertex
100
AcDb2dVertex
 10
-14.95861446506965
 20
-106.6364554119639
 30
0.0
  0
SEQEND
  5
67D
330
67A
100
AcDbEntity
  8
TEXT
  0
POLYLINE
  5
67E
330
1F
100
AcDbEntity
  8
TEXT
 62
     7
100
AcDb2dPolyline
 66
     1
 10
0.0
 20
0.0
 30
0.0
  0
VERTEX
  5
67F
330
67E
100
AcDbEntity
  8
TEXT
 62
     7
100
AcDbVertex
100
AcDb2dVertex
 10
-14.9815243651601
 20
-107.3433894718977
 30
0.0
  0
VERTEX
  5
680
330
67E
100
AcDbEntity
  8
TEXT
 62
     7
100
AcDbVertex
100
AcDb2dVertex
 10
-14.9815243651601
 20
-106.4631669947385
 30
0.0
  0
SEQEND
  5
681
330
67E
100
AcDbEntity
  8
TEXT
  0
POLYLINE
  5
682
330
1F
100
AcDbEntity
  8
TEXT
 62
     7
100
AcDb2dPolyline
 66
     1
 10
0.0
 20
0.0
 30
0.0
  0
VERTEX
  5
683
330
682
100
AcDbEntity
  8
TEXT
 62
     7
100
AcDbVertex
100
AcDb2dVertex
 10
-15.00443426525054
 20
-107.3433894718977
 30
0.0
  0
VERTEX
  5
684
330
682
100
AcDbEntity
  8
TEXT
 62
     7
100
AcDbVertex
100
AcDb2dVertex
 10
-15.00443426525054
 20
-106.2893618128493
 30
0.0
  0
SEQEND
  5
685
330
682
100
AcDbEntity
  8
TEXT
  0
POLYLINE
  5
686
330
1F
100
AcDbEntity
  8
TEXT
 62
     7
100
AcDb2dPolyline
 66
     1
 10
0.0
 20
0.0
 30
0.0
  0
VERTEX
  5
687
330
686
100
AcDbEntity
  8
TEXT
 62
     7
100
AcDbVertex
100
AcDb2dVertex
 10
-15.02751642022888
 20
-107.3433894718977
 30
0.0
  0
VERTEX
  5
688
330
686
100
AcDbEntity
  8
TEXT
 62
     7
100
AcDbVertex
100
AcDb2dVertex
 10
-15.02751642022888
 20
-106.1159011407359
 30
0.0
  0
SEQEND
  5
689
330
686
100
AcDbEntity
  8
TEXT
  0
POLYLINE
  5
68A
330
1F
100
AcDbEntity
  8
TEXT
 62
     7
100
AcDb2dPolyline
 66
     1
 10
0.0
 20
0.0
 30
0.0
  0
VERTEX
  5
68B
330
68A
100
AcDbEntity
  8
TEXT
 62
     7
100
AcDbVertex
100
AcDb2dVertex
 10
-15.05025406543143
 20
-107.3433894718977
 30
0.0
  0
VERTEX
  5
68C
330
68A
100
AcDbEntity
  8
TEXT
 62
     7
100
AcDbVertex
100
AcDb2dVertex
 10
-15.05025406543143
 20
-105.9419237039589
 30
0.0
  0
SEQEND
  5
68D
330
68A
100
AcDbEntity
  8
TEXT
  0
POLYLINE
  5
68E
330
1F
100
AcDbEntity
  8
TEXT
 62
     7
100
AcDb2dPolyline
 66
     1
 10
0.0
 20
0.0
 30
0.0
  0
VERTEX
  5
68F
330
68E
100
AcDbEntity
  8
TEXT
 62
     7
100
AcDbVertex
100
AcDb2dVertex
 10
-15.07299171063398
 20
-107.3433894718977
 30
0.0
  0
VERTEX
  5
690
330
68E
100
AcDbEntity
  8
TEXT
 62
     7
100
AcDbVertex
100
AcDb2dVertex
 10
-15.07299171063398
 20
-105.7686352867334
 30
0.0
  0
SEQEND
  5
691
330
68E
100
AcDbEntity
  8
TEXT
  0
POLYLINE
  5
692
330
1F
100
AcDbEntity
  8
TEXT
 62
     7
100
AcDb2dPolyline
 66
     1
 10
0.0
 20
0.0
 30
0.0
  0
VERTEX
  5
693
330
692
100
AcDbEntity
  8
TEXT
 62
     7
100
AcDbVertex
100
AcDb2dVertex
 10
-15.04835926166455
 20
-139.4742659664153
 30
0.0
  0
VERTEX
  5
694
330
692
100
AcDbEntity
  8
TEXT
 62
     7
100
AcDbVertex
100
AcDb2dVertex
 10
-14.84079212174736
 20
-137.8991672714752
 30
0.0
  0
VERTEX
  5
695
330
692
100
AcDbEntity
  8
TEXT
 62
     7
100
AcDbVertex
100
AcDb2dVertex
 10
-15.25558189180595
 20
-137.8991672714752
 30
0.0
  0
VERTEX
  5
696
330
692
100
AcDbEntity
  8
TEXT
 62
     7
100
AcDbVertex
100
AcDb2dVertex
 10
-15.04835926166455
 20
-139.4742659664153
 30
0.0
  0
SEQEND
  5
697
330
692
100
AcDbEntity
  8
TEXT
  0
POLYLINE
  5
698
330
1F
100
AcDbEntity
  8
TEXT
 62
     7
100
AcDb2dPolyline
 66
     1
 10
0.0
 20
0.0
 30
0.0
  0
VERTEX
  5
699
330
698
100
AcDbEntity
  8
TEXT
 62
     7
100
AcDbVertex
100
AcDb2dVertex
 10
-14.84234241573844
 20
-137.8991672714752
 30
0.0
  0
VERTEX
  5
69A
330
698
100
AcDbEntity
  8
TEXT
 62
     7
100
AcDbVertex
100
AcDb2dVertex
 10
-14.84234241573844
 20
-137.9115696234038
 30
0.0
  0
SEQEND
  5
69B
330
698
100
AcDbEntity
  8
TEXT
  0
POLYLINE
  5
69C
330
1F
100
AcDbEntity
  8
TEXT
 62
     7
100
AcDb2dPolyline
 66
     1
 10
0.0
 20
0.0
 30
0.0
  0
VERTEX
  5
69D
330
69C
100
AcDbEntity
  8
TEXT
 62
     7
100
AcDbVertex
100
AcDb2dVertex
 10
-14.84234241573844
 20
-137.8991672714752
 30
0.0
  0
VERTEX
  5
69E
330
69C
100
AcDbEntity
  8
TEXT
 62
     7
100
AcDbVertex
100
AcDb2dVertex
 10
-14.84234241573844
 20
-137.9115696234038
 30
0.0
  0
SEQEND
  5
69F
330
69C
100
AcDbEntity
  8
TEXT
  0
POLYLINE
  5
6A0
330
1F
100
AcDbEntity
  8
TEXT
 62
     7
100
AcDb2dPolyline
 66
     1
 10
0.0
 20
0.0
 30
0.0
  0
VERTEX
  5
6A1
330
6A0
100
AcDbEntity
  8
TEXT
 62
     7
100
AcDbVertex
100
AcDb2dVertex
 10
-14.86525231582889
 20
-137.8991672714752
 30
0.0
  0
VERTEX
  5
6A2
330
6A0
100
AcDbEntity
  8
TEXT
 62
     7
100
AcDbVertex
100
AcDb2dVertex
 10
-14.86525231582889
 20
-138.0852025504051
 30
0.0
  0
SEQEND
  5
6A3
330
6A0
100
AcDbEntity
  8
TEXT
  0
POLYLINE
  5
6A4
330
1F
100
AcDbEntity
  8
TEXT
 62
     7
100
AcDb2dPolyline
 66
     1
 10
0.0
 20
0.0
 30
0.0
  0
VERTEX
  5
6A5
330
6A4
100
AcDbEntity
  8
TEXT
 62
     7
100
AcDbVertex
100
AcDb2dVertex
 10
-14.88833447080723
 20
-137.8991672714752
 30
0.0
  0
VERTEX
  5
6A6
330
6A4
100
AcDbEntity
  8
TEXT
 62
     7
100
AcDbVertex
100
AcDb2dVertex
 10
-14.88833447080723
 20
-138.2588354774064
 30
0.0
  0
SEQEND
  5
6A7
330
6A4
100
AcDbEntity
  8
TEXT
  0
POLYLINE
  5
6A8
330
1F
100
AcDbEntity
  8
TEXT
 62
     7
100
AcDb2dPolyline
 66
     1
 10
0.0
 20
0.0
 30
0.0
  0
VERTEX
  5
6A9
330
6A8
100
AcDbEntity
  8
TEXT
 62
     7
100
AcDbVertex
100
AcDb2dVertex
 10
-14.91107211600978
 20
-137.8991672714752
 30
0.0
  0
VERTEX
  5
6AA
330
6A8
100
AcDbEntity
  8
TEXT
 62
     7
100
AcDbVertex
100
AcDb2dVertex
 10
-14.91107211600978
 20
-138.4324684044076
 30
0.0
  0
SEQEND
  5
6AB
330
6A8
100
AcDbEntity
  8
TEXT
  0
POLYLINE
  5
6AC
330
1F
100
AcDbEntity
  8
TEXT
 62
     7
100
AcDb2dPolyline
 66
     1
 10
0.0
 20
0.0
 30
0.0
  0
VERTEX
  5
6AD
330
6AC
100
AcDbEntity
  8
TEXT
 62
     7
100
AcDbVertex
100
AcDb2dVertex
 10
-14.93380976121233
 20
-137.8991672714752
 30
0.0
  0
VERTEX
  5
6AE
330
6AC
100
AcDbEntity
  8
TEXT
 62
     7
100
AcDbVertex
100
AcDb2dVertex
 10
-14.93380976121233
 20
-138.6061013314089
 30
0.0
  0
SEQEND
  5
6AF
330
6AC
100
AcDbEntity
  8
TEXT
  0
POLYLINE
  5
6B0
330
1F
100
AcDbEntity
  8
TEXT
 62
     7
100
AcDb2dPolyline
 66
     1
 10
0.0
 20
0.0
 30
0.0
  0
VERTEX
  5
6B1
330
6B0
100
AcDbEntity
  8
TEXT
 62
     7
100
AcDbVertex
100
AcDb2dVertex
 10
-14.95689191619067
 20
-137.8991672714752
 30
0.0
  0
VERTEX
  5
6B2
330
6B0
100
AcDbEntity
  8
TEXT
 62
     7
100
AcDbVertex
100
AcDb2dVertex
 10
-14.95689191619067
 20
-138.7797342584102
 30
0.0
  0
SEQEND
  5
6B3
330
6B0
100
AcDbEntity
  8
TEXT
  0
POLYLINE
  5
6B4
330
1F
100
AcDbEntity
  8
TEXT
 62
     7
100
AcDb2dPolyline
 66
     1
 10
0.0
 20
0.0
 30
0.0
  0
VERTEX
  5
6B5
330
6B4
100
AcDbEntity
  8
TEXT
 62
     7
100
AcDbVertex
100
AcDb2dVertex
 10
-14.97980181628112
 20
-137.8991672714752
 30
0.0
  0
VERTEX
  5
6B6
330
6B4
100
AcDbEntity
  8
TEXT
 62
     7
100
AcDbVertex
100
AcDb2dVertex
 10
-14.97980181628112
 20
-138.9533671854115
 30
0.0
  0
SEQEND
  5
6B7
330
6B4
100
AcDbEntity
  8
TEXT
  0
POLYLINE
  5
6B8
330
1F
100
AcDbEntity
  8
TEXT
 62
     7
100
AcDb2dPolyline
 66
     1
 10
0.0
 20
0.0
 30
0.0
  0
VERTEX
  5
6B9
330
6B8
100
AcDbEntity
  8
TEXT
 62
     7
100
AcDbVertex
100
AcDb2dVertex
 10
-15.00271171637156
 20
-137.8991672714752
 30
0.0
  0
VERTEX
  5
6BA
330
6B8
100
AcDbEntity
  8
TEXT
 62
     7
100
AcDbVertex
100
AcDb2dVertex
 10
-15.00271171637156
 20
-139.1270001124127
 30
0.0
  0
SEQEND
  5
6BB
330
6B8
100
AcDbEntity
  8
TEXT
  0
POLYLINE
  5
6BC
330
1F
100
AcDbEntity
  8
TEXT
 62
     7
100
AcDb2dPolyline
 66
     1
 10
0.0
 20
0.0
 30
0.0
  0
VERTEX
  5
6BD
330
6BC
100
AcDbEntity
  8
TEXT
 62
     7
100
AcDbVertex
100
AcDb2dVertex
 10
-15.02544936157411
 20
-137.8991672714752
 30
0.0
  0
VERTEX
  5
6BE
330
6BC
100
AcDbEntity
  8
TEXT
 62
     7
100
AcDbVertex
100
AcDb2dVertex
 10
-15.02544936157411
 20
-139.300633039414
 30
0.0
  0
SEQEND
  5
6BF
330
6BC
100
AcDbEntity
  8
TEXT
  0
POLYLINE
  5
6C0
330
1F
100
AcDbEntity
  8
TEXT
 62
     7
100
AcDb2dPolyline
 66
     1
 10
0.0
 20
0.0
 30
0.0
  0
VERTEX
  5
6C1
330
6C0
100
AcDbEntity
  8
TEXT
 62
     7
100
AcDbVertex
100
AcDb2dVertex
 10
-15.04835926166455
 20
-137.8991672714752
 30
0.0
  0
VERTEX
  5
6C2
330
6C0
100
AcDbEntity
  8
TEXT
 62
     7
100
AcDbVertex
100
AcDb2dVertex
 10
-15.04835926166455
 20
-139.4742659664153
 30
0.0
  0
SEQEND
  5
6C3
330
6C0
100
AcDbEntity
  8
TEXT
  0
POLYLINE
  5
6C4
330
1F
100
AcDbEntity
  8
TEXT
 62
     7
100
AcDb2dPolyline
 66
     1
 10
0.0
 20
0.0
 30
0.0
  0
VERTEX
  5
6C5
330
6C4
100
AcDbEntity
  8
TEXT
 62
     7
100
AcDbVertex
100
AcDb2dVertex
 10
-15.25385934292697
 20
-137.8991672714752
 30
0.0
  0
VERTEX
  5
6C6
330
6C4
100
AcDbEntity
  8
TEXT
 62
     7
100
AcDbVertex
100
AcDb2dVertex
 10
-15.25385934292697
 20
-137.9115696234038
 30
0.0
  0
SEQEND
  5
6C7
330
6C4
100
AcDbEntity
  8
TEXT
  0
POLYLINE
  5
6C8
330
1F
100
AcDbEntity
  8
TEXT
 62
     7
100
AcDb2dPolyline
 66
     1
 10
0.0
 20
0.0
 30
0.0
  0
VERTEX
  5
6C9
330
6C8
100
AcDbEntity
  8
TEXT
 62
     7
100
AcDbVertex
100
AcDb2dVertex
 10
-15.25385934292697
 20
-137.8991672714752
 30
0.0
  0
VERTEX
  5
6CA
330
6C8
100
AcDbEntity
  8
TEXT
 62
     7
100
AcDbVertex
100
AcDb2dVertex
 10
-15.25385934292697
 20
-137.9115696234038
 30
0.0
  0
SEQEND
  5
6CB
330
6C8
100
AcDbEntity
  8
TEXT
  0
POLYLINE
  5
6CC
330
1F
100
AcDbEntity
  8
TEXT
 62
     7
100
AcDb2dPolyline
 66
     1
 10
0.0
 20
0.0
 30
0.0
  0
VERTEX
  5
6CD
330
6CC
100
AcDbEntity
  8
TEXT
 62
     7
100
AcDbVertex
100
AcDb2dVertex
 10
-15.23129395261232
 20
-137.8991672714752
 30
0.0
  0
VERTEX
  5
6CE
330
6CC
100
AcDbEntity
  8
TEXT
 62
     7
100
AcDbVertex
100
AcDb2dVertex
 10
-15.23129395261232
 20
-138.0852025504051
 30
0.0
  0
SEQEND
  5
6CF
330
6CC
100
AcDbEntity
  8
TEXT
  0
POLYLINE
  5
6D0
330
1F
100
AcDbEntity
  8
TEXT
 62
     7
100
AcDb2dPolyline
 66
     1
 10
0.0
 20
0.0
 30
0.0
  0
VERTEX
  5
6D1
330
6D0
100
AcDbEntity
  8
TEXT
 62
     7
100
AcDbVertex
100
AcDb2dVertex
 10
-15.20821179763398
 20
-137.8991672714752
 30
0.0
  0
VERTEX
  5
6D2
330
6D0
100
AcDbEntity
  8
TEXT
 62
     7
100
AcDbVertex
100
AcDb2dVertex
 10
-15.20821179763398
 20
-138.2588354774064
 30
0.0
  0
SEQEND
  5
6D3
330
6D0
100
AcDbEntity
  8
TEXT
  0
POLYLINE
  5
6D4
330
1F
100
AcDbEntity
  8
TEXT
 62
     7
100
AcDb2dPolyline
 66
     1
 10
0.0
 20
0.0
 30
0.0
  0
VERTEX
  5
6D5
330
6D4
100
AcDbEntity
  8
TEXT
 62
     7
100
AcDbVertex
100
AcDb2dVertex
 10
-15.18530189754353
 20
-137.8991672714752
 30
0.0
  0
VERTEX
  5
6D6
330
6D4
100
AcDbEntity
  8
TEXT
 62
     7
100
AcDbVertex
100
AcDb2dVertex
 10
-15.18530189754353
 20
-138.4324684044076
 30
0.0
  0
SEQEND
  5
6D7
330
6D4
100
AcDbEntity
  8
TEXT
  0
POLYLINE
  5
6D8
330
1F
100
AcDbEntity
  8
TEXT
 62
     7
100
AcDb2dPolyline
 66
     1
 10
0.0
 20
0.0
 30
0.0
  0
VERTEX
  5
6D9
330
6D8
100
AcDbEntity
  8
TEXT
 62
     7
100
AcDbVertex
100
AcDb2dVertex
 10
-15.16239199745308
 20
-137.8991672714752
 30
0.0
  0
VERTEX
  5
6DA
330
6D8
100
AcDbEntity
  8
TEXT
 62
     7
100
AcDbVertex
100
AcDb2dVertex
 10
-15.16239199745308
 20
-138.6061013314089
 30
0.0
  0
SEQEND
  5
6DB
330
6D8
100
AcDbEntity
  8
TEXT
  0
POLYLINE
  5
6DC
330
1F
100
AcDbEntity
  8
TEXT
 62
     7
100
AcDb2dPolyline
 66
     1
 10
0.0
 20
0.0
 30
0.0
  0
VERTEX
  5
6DD
330
6DC
100
AcDbEntity
  8
TEXT
 62
     7
100
AcDbVertex
100
AcDb2dVertex
 10
-15.13982660713844
 20
-137.8991672714752
 30
0.0
  0
VERTEX
  5
6DE
330
6DC
100
AcDbEntity
  8
TEXT
 62
     7
100
AcDbVertex
100
AcDb2dVertex
 10
-15.13982660713844
 20
-138.7797342584102
 30
0.0
  0
SEQEND
  5
6DF
330
6DC
100
AcDbEntity
  8
TEXT
  0
POLYLINE
  5
6E0
330
1F
100
AcDbEntity
  8
TEXT
 62
     7
100
AcDb2dPolyline
 66
     1
 10
0.0
 20
0.0
 30
0.0
  0
VERTEX
  5
6E1
330
6E0
100
AcDbEntity
  8
TEXT
 62
     7
100
AcDbVertex
100
AcDb2dVertex
 10
-15.11674445216009
 20
-137.8991672714752
 30
0.0
  0
VERTEX
  5
6E2
330
6E0
100
AcDbEntity
  8
TEXT
 62
     7
100
AcDbVertex
100
AcDb2dVertex
 10
-15.11674445216009
 20
-138.9533671854115
 30
0.0
  0
SEQEND
  5
6E3
330
6E0
100
AcDbEntity
  8
TEXT
  0
POLYLINE
  5
6E4
330
1F
100
AcDbEntity
  8
TEXT
 62
     7
100
AcDb2dPolyline
 66
     1
 10
0.0
 20
0.0
 30
0.0
  0
VERTEX
  5
6E5
330
6E4
100
AcDbEntity
  8
TEXT
 62
     7
100
AcDbVertex
100
AcDb2dVertex
 10
-15.09417906184544
 20
-137.8991672714752
 30
0.0
  0
VERTEX
  5
6E6
330
6E4
100
AcDbEntity
  8
TEXT
 62
     7
100
AcDbVertex
100
AcDb2dVertex
 10
-15.09417906184544
 20
-139.1270001124127
 30
0.0
  0
SEQEND
  5
6E7
330
6E4
100
AcDbEntity
  8
TEXT
  0
POLYLINE
  5
6E8
330
1F
100
AcDbEntity
  8
TEXT
 62
     7
100
AcDb2dPolyline
 66
     1
 10
0.0
 20
0.0
 30
0.0
  0
VERTEX
  5
6E9
330
6E8
100
AcDbEntity
  8
TEXT
 62
     7
100
AcDbVertex
100
AcDb2dVertex
 10
-15.071269161755
 20
-137.8991672714752
 30
0.0
  0
VERTEX
  5
6EA
330
6E8
100
AcDbEntity
  8
TEXT
 62
     7
100
AcDbVertex
100
AcDb2dVertex
 10
-15.071269161755
 20
-139.300633039414
 30
0.0
  0
SEQEND
  5
6EB
330
6E8
100
AcDbEntity
  8
TEXT
  0
POLYLINE
  5
6EC
330
1F
100
AcDbEntity
  8
TEXT
 62
     7
100
AcDb2dPolyline
 66
     1
 10
0.0
 20
0.0
 30
0.0
  0
VERTEX
  5
6ED
330
6EC
100
AcDbEntity
  8
TEXT
 62
     7
100
AcDbVertex
100
AcDb2dVertex
 10
-15.04835926166455
 20
-137.8991672714752
 30
0.0
  0
VERTEX
  5
6EE
330
6EC
100
AcDbEntity
  8
TEXT
 62
     7
100
AcDbVertex
100
AcDb2dVertex
 10
-15.04835926166455
 20
-139.4742659664153
 30
0.0
  0
SEQEND
  5
6EF
330
6EC
100
AcDbEntity
  8
TEXT
  0
MTEXT
  5
6F0
330
1F
100
AcDbEntity
  8
TEXT
 62
     7
100
AcDbMText
 10
-15.76907371263014
 20
-124.854649120729
 30
0.0
 40
2.398890470823883
 41
0.0
 71
     7
 72
     1
  1
\fINDEX Univers 45 Light|b0|i0|c0|p34;\W1;75
 11
-4.371139000186241E-8
 21
0.999999999999999
 31
0.0
  0
POLYLINE
  5
6F1
330
1F
100
AcDbEntity
  8
TEXT
 62
     7
100
AcDb2dPolyline
 66
     1
 10
0.0
 20
0.0
 30
0.0
  0
VERTEX
  5
6F2
330
6F1
100
AcDbEntity
  8
TEXT
 62
     7
100
AcDbVertex
100
AcDb2dVertex
 10
19.64033006325169
 20
-80.98339623174172
 30
0.0
  0
VERTEX
  5
6F3
330
6F1
100
AcDbEntity
  8
TEXT
 62
     7
100
AcDbVertex
100
AcDb2dVertex
 10
19.64033006325169
 20
-123.6781482363851
 30
0.0
  0
SEQEND
  5
6F4
330
6F1
100
AcDbEntity
  8
TEXT
  0
POLYLINE
  5
6F5
330
1F
100
AcDbEntity
  8
TEXT
 62
     7
100
AcDb2dPolyline
 66
     1
 10
0.0
 20
0.0
 30
0.0
  0
VERTEX
  5
6F6
330
6F5
100
AcDbEntity
  8
TEXT
 62
     7
100
AcDbVertex
100
AcDb2dVertex
 10
19.64033006325169
 20
-80.98339623174172
 30
0.0
  0
VERTEX
  5
6F7
330
6F5
100
AcDbEntity
  8
TEXT
 62
     7
100
AcDbVertex
100
AcDb2dVertex
 10
19.43310743311029
 20
-82.558150416906
 30
0.0
  0
VERTEX
  5
6F8
330
6F5
100
AcDbEntity
  8
TEXT
 62
     7
100
AcDbVertex
100
AcDb2dVertex
 10
19.84789720316888
 20
-82.558150416906
 30
0.0
  0
VERTEX
  5
6F9
330
6F5
100
AcDbEntity
  8
TEXT
 62
     7
100
AcDbVertex
100
AcDb2dVertex
 10
19.64033006325169
 20
-80.98339623174172
 30
0.0
  0
SEQEND
  5
6FA
330
6F5
100
AcDbEntity
  8
TEXT
  0
POLYLINE
  5
6FB
330
1F
100
AcDbEntity
  8
TEXT
 62
     7
100
AcDb2dPolyline
 66
     1
 10
0.0
 20
0.0
 30
0.0
  0
VERTEX
  5
6FC
330
6FB
100
AcDbEntity
  8
TEXT
 62
     7
100
AcDbVertex
100
AcDb2dVertex
 10
19.43482998198927
 20
-82.558150416906
 30
0.0
  0
VERTEX
  5
6FD
330
6FB
100
AcDbEntity
  8
TEXT
 62
     7
100
AcDbVertex
100
AcDb2dVertex
 10
19.43482998198927
 20
-82.54592031986525
 30
0.0
  0
SEQEND
  5
6FE
330
6FB
100
AcDbEntity
  8
TEXT
  0
POLYLINE
  5
6FF
330
1F
100
AcDbEntity
  8
TEXT
 62
     7
100
AcDb2dPolyline
 66
     1
 10
0.0
 20
0.0
 30
0.0
  0
VERTEX
  5
700
330
6FF
100
AcDbEntity
  8
TEXT
 62
     7
100
AcDbVertex
100
AcDb2dVertex
 10
19.43482998198927
 20
-82.558150416906
 30
0.0
  0
VERTEX
  5
701
330
6FF
100
AcDbEntity
  8
TEXT
 62
     7
100
AcDbVertex
100
AcDb2dVertex
 10
19.43482998198927
 20
-82.54592031986525
 30
0.0
  0
SEQEND
  5
702
330
6FF
100
AcDbEntity
  8
TEXT
  0
POLYLINE
  5
703
330
1F
100
AcDbEntity
  8
TEXT
 62
     7
100
AcDb2dPolyline
 66
     1
 10
0.0
 20
0.0
 30
0.0
  0
VERTEX
  5
704
330
703
100
AcDbEntity
  8
TEXT
 62
     7
100
AcDbVertex
100
AcDb2dVertex
 10
19.45739537230392
 20
-82.558150416906
 30
0.0
  0
VERTEX
  5
705
330
703
100
AcDbEntity
  8
TEXT
 62
     7
100
AcDbVertex
100
AcDb2dVertex
 10
19.45739537230392
 20
-82.37245964775187
 30
0.0
  0
SEQEND
  5
706
330
703
100
AcDbEntity
  8
TEXT
  0
POLYLINE
  5
707
330
1F
100
AcDbEntity
  8
TEXT
 62
     7
100
AcDb2dPolyline
 66
     1
 10
0.0
 20
0.0
 30
0.0
  0
VERTEX
  5
708
330
707
100
AcDbEntity
  8
TEXT
 62
     7
100
AcDbVertex
100
AcDb2dVertex
 10
19.48047752728226
 20
-82.558150416906
 30
0.0
  0
VERTEX
  5
709
330
707
100
AcDbEntity
  8
TEXT
 62
     7
100
AcDbVertex
100
AcDb2dVertex
 10
19.48047752728226
 20
-82.1986544658627
 30
0.0
  0
SEQEND
  5
70A
330
707
100
AcDbEntity
  8
TEXT
  0
POLYLINE
  5
70B
330
1F
100
AcDbEntity
  8
TEXT
 62
     7
100
AcDb2dPolyline
 66
     1
 10
0.0
 20
0.0
 30
0.0
  0
VERTEX
  5
70C
330
70B
100
AcDbEntity
  8
TEXT
 62
     7
100
AcDbVertex
100
AcDb2dVertex
 10
19.50338742737271
 20
-82.558150416906
 30
0.0
  0
VERTEX
  5
70D
330
70B
100
AcDbEntity
  8
TEXT
 62
     7
100
AcDbVertex
100
AcDb2dVertex
 10
19.50338742737271
 20
-82.02519379374934
 30
0.0
  0
SEQEND
  5
70E
330
70B
100
AcDbEntity
  8
TEXT
  0
POLYLINE
  5
70F
330
1F
100
AcDbEntity
  8
TEXT
 62
     7
100
AcDb2dPolyline
 66
     1
 10
0.0
 20
0.0
 30
0.0
  0
VERTEX
  5
710
330
70F
100
AcDbEntity
  8
TEXT
 62
     7
100
AcDbVertex
100
AcDb2dVertex
 10
19.52629732746315
 20
-82.558150416906
 30
0.0
  0
VERTEX
  5
711
330
70F
100
AcDbEntity
  8
TEXT
 62
     7
100
AcDbVertex
100
AcDb2dVertex
 10
19.52629732746315
 20
-81.85121635697226
 30
0.0
  0
SEQEND
  5
712
330
70F
100
AcDbEntity
  8
TEXT
  0
POLYLINE
  5
713
330
1F
100
AcDbEntity
  8
TEXT
 62
     7
100
AcDb2dPolyline
 66
     1
 10
0.0
 20
0.0
 30
0.0
  0
VERTEX
  5
714
330
713
100
AcDbEntity
  8
TEXT
 62
     7
100
AcDbVertex
100
AcDb2dVertex
 10
19.5488627177778
 20
-82.558150416906
 30
0.0
  0
VERTEX
  5
715
330
713
100
AcDbEntity
  8
TEXT
 62
     7
100
AcDbVertex
100
AcDb2dVertex
 10
19.5488627177778
 20
-81.6779279397468
 30
0.0
  0
SEQEND
  5
716
330
713
100
AcDbEntity
  8
TEXT
  0
POLYLINE
  5
717
330
1F
100
AcDbEntity
  8
TEXT
 62
     7
100
AcDb2dPolyline
 66
     1
 10
0.0
 20
0.0
 30
0.0
  0
VERTEX
  5
718
330
717
100
AcDbEntity
  8
TEXT
 62
     7
100
AcDbVertex
100
AcDb2dVertex
 10
19.57194487275615
 20
-82.558150416906
 30
0.0
  0
VERTEX
  5
719
330
717
100
AcDbEntity
  8
TEXT
 62
     7
100
AcDbVertex
100
AcDb2dVertex
 10
19.57194487275615
 20
-81.50412275785763
 30
0.0
  0
SEQEND
  5
71A
330
717
100
AcDbEntity
  8
TEXT
  0
POLYLINE
  5
71B
330
1F
100
AcDbEntity
  8
TEXT
 62
     7
100
AcDb2dPolyline
 66
     1
 10
0.0
 20
0.0
 30
0.0
  0
VERTEX
  5
71C
330
71B
100
AcDbEntity
  8
TEXT
 62
     7
100
AcDbVertex
100
AcDb2dVertex
 10
19.5945102630708
 20
-82.558150416906
 30
0.0
  0
VERTEX
  5
71D
330
71B
100
AcDbEntity
  8
TEXT
 62
     7
100
AcDbVertex
100
AcDb2dVertex
 10
19.5945102630708
 20
-81.33066208574425
 30
0.0
  0
SEQEND
  5
71E
330
71B
100
AcDbEntity
  8
TEXT
  0
POLYLINE
  5
71F
330
1F
100
AcDbEntity
  8
TEXT
 62
     7
100
AcDb2dPolyline
 66
     1
 10
0.0
 20
0.0
 30
0.0
  0
VERTEX
  5
720
330
71F
100
AcDbEntity
  8
TEXT
 62
     7
100
AcDbVertex
100
AcDb2dVertex
 10
19.61742016316124
 20
-82.558150416906
 30
0.0
  0
VERTEX
  5
721
330
71F
100
AcDbEntity
  8
TEXT
 62
     7
100
AcDbVertex
100
AcDb2dVertex
 10
19.61742016316124
 20
-81.15668464896719
 30
0.0
  0
SEQEND
  5
722
330
71F
100
AcDbEntity
  8
TEXT
  0
POLYLINE
  5
723
330
1F
100
AcDbEntity
  8
TEXT
 62
     7
100
AcDb2dPolyline
 66
     1
 10
0.0
 20
0.0
 30
0.0
  0
VERTEX
  5
724
330
723
100
AcDbEntity
  8
TEXT
 62
     7
100
AcDbVertex
100
AcDb2dVertex
 10
19.64033006325169
 20
-82.558150416906
 30
0.0
  0
VERTEX
  5
725
330
723
100
AcDbEntity
  8
TEXT
 62
     7
100
AcDbVertex
100
AcDb2dVertex
 10
19.64033006325169
 20
-80.98339623174172
 30
0.0
  0
SEQEND
  5
726
330
723
100
AcDbEntity
  8
TEXT
  0
POLYLINE
  5
727
330
1F
100
AcDbEntity
  8
TEXT
 62
     7
100
AcDb2dPolyline
 66
     1
 10
0.0
 20
0.0
 30
0.0
  0
VERTEX
  5
728
330
727
100
AcDbEntity
  8
TEXT
 62
     7
100
AcDbVertex
100
AcDb2dVertex
 10
19.8463469091778
 20
-82.558150416906
 30
0.0
  0
VERTEX
  5
729
330
727
100
AcDbEntity
  8
TEXT
 62
     7
100
AcDbVertex
100
AcDb2dVertex
 10
19.8463469091778
 20
-82.54592031986525
 30
0.0
  0
SEQEND
  5
72A
330
727
100
AcDbEntity
  8
TEXT
  0
POLYLINE
  5
72B
330
1F
100
AcDbEntity
  8
TEXT
 62
     7
100
AcDb2dPolyline
 66
     1
 10
0.0
 20
0.0
 30
0.0
  0
VERTEX
  5
72C
330
72B
100
AcDbEntity
  8
TEXT
 62
     7
100
AcDbVertex
100
AcDb2dVertex
 10
19.8463469091778
 20
-82.558150416906
 30
0.0
  0
VERTEX
  5
72D
330
72B
100
AcDbEntity
  8
TEXT
 62
     7
100
AcDbVertex
100
AcDb2dVertex
 10
19.8463469091778
 20
-82.54592031986525
 30
0.0
  0
SEQEND
  5
72E
330
72B
100
AcDbEntity
  8
TEXT
  0
POLYLINE
  5
72F
330
1F
100
AcDbEntity
  8
TEXT
 62
     7
100
AcDb2dPolyline
 66
     1
 10
0.0
 20
0.0
 30
0.0
  0
VERTEX
  5
730
330
72F
100
AcDbEntity
  8
TEXT
 62
     7
100
AcDbVertex
100
AcDb2dVertex
 10
19.82343700908735
 20
-82.558150416906
 30
0.0
  0
VERTEX
  5
731
330
72F
100
AcDbEntity
  8
TEXT
 62
     7
100
AcDbVertex
100
AcDb2dVertex
 10
19.82343700908735
 20
-82.37245964775187
 30
0.0
  0
SEQEND
  5
732
330
72F
100
AcDbEntity
  8
TEXT
  0
POLYLINE
  5
733
330
1F
100
AcDbEntity
  8
TEXT
 62
     7
100
AcDb2dPolyline
 66
     1
 10
0.0
 20
0.0
 30
0.0
  0
VERTEX
  5
734
330
733
100
AcDbEntity
  8
TEXT
 62
     7
100
AcDbVertex
100
AcDb2dVertex
 10
19.80035485410901
 20
-82.558150416906
 30
0.0
  0
VERTEX
  5
735
330
733
100
AcDbEntity
  8
TEXT
 62
     7
100
AcDbVertex
100
AcDb2dVertex
 10
19.80035485410901
 20
-82.1986544658627
 30
0.0
  0
SEQEND
  5
736
330
733
100
AcDbEntity
  8
TEXT
  0
POLYLINE
  5
737
330
1F
100
AcDbEntity
  8
TEXT
 62
     7
100
AcDb2dPolyline
 66
     1
 10
0.0
 20
0.0
 30
0.0
  0
VERTEX
  5
738
330
737
100
AcDbEntity
  8
TEXT
 62
     7
100
AcDbVertex
100
AcDb2dVertex
 10
19.77761720890646
 20
-82.558150416906
 30
0.0
  0
VERTEX
  5
739
330
737
100
AcDbEntity
  8
TEXT
 62
     7
100
AcDbVertex
100
AcDb2dVertex
 10
19.77761720890646
 20
-82.02519379374934
 30
0.0
  0
SEQEND
  5
73A
330
737
100
AcDbEntity
  8
TEXT
  0
POLYLINE
  5
73B
330
1F
100
AcDbEntity
  8
TEXT
 62
     7
100
AcDb2dPolyline
 66
     1
 10
0.0
 20
0.0
 30
0.0
  0
VERTEX
  5
73C
330
73B
100
AcDbEntity
  8
TEXT
 62
     7
100
AcDbVertex
100
AcDb2dVertex
 10
19.75487956370391
 20
-82.558150416906
 30
0.0
  0
VERTEX
  5
73D
330
73B
100
AcDbEntity
  8
TEXT
 62
     7
100
AcDbVertex
100
AcDb2dVertex
 10
19.75487956370391
 20
-81.85121635697226
 30
0.0
  0
SEQEND
  5
73E
330
73B
100
AcDbEntity
  8
TEXT
  0
POLYLINE
  5
73F
330
1F
100
AcDbEntity
  8
TEXT
 62
     7
100
AcDb2dPolyline
 66
     1
 10
0.0
 20
0.0
 30
0.0
  0
VERTEX
  5
740
330
73F
100
AcDbEntity
  8
TEXT
 62
     7
100
AcDbVertex
100
AcDb2dVertex
 10
19.73179740872557
 20
-82.558150416906
 30
0.0
  0
VERTEX
  5
741
330
73F
100
AcDbEntity
  8
TEXT
 62
     7
100
AcDbVertex
100
AcDb2dVertex
 10
19.73179740872557
 20
-81.6779279397468
 30
0.0
  0
SEQEND
  5
742
330
73F
100
AcDbEntity
  8
TEXT
  0
POLYLINE
  5
743
330
1F
100
AcDbEntity
  8
TEXT
 62
     7
100
AcDb2dPolyline
 66
     1
 10
0.0
 20
0.0
 30
0.0
  0
VERTEX
  5
744
330
743
100
AcDbEntity
  8
TEXT
 62
     7
100
AcDbVertex
100
AcDb2dVertex
 10
19.70888750863513
 20
-82.558150416906
 30
0.0
  0
VERTEX
  5
745
330
743
100
AcDbEntity
  8
TEXT
 62
     7
100
AcDbVertex
100
AcDb2dVertex
 10
19.70888750863513
 20
-81.50412275785763
 30
0.0
  0
SEQEND
  5
746
330
743
100
AcDbEntity
  8
TEXT
  0
POLYLINE
  5
747
330
1F
100
AcDbEntity
  8
TEXT
 62
     7
100
AcDb2dPolyline
 66
     1
 10
0.0
 20
0.0
 30
0.0
  0
VERTEX
  5
748
330
747
100
AcDbEntity
  8
TEXT
 62
     7
100
AcDbVertex
100
AcDb2dVertex
 10
19.68597760854468
 20
-82.558150416906
 30
0.0
  0
VERTEX
  5
749
330
747
100
AcDbEntity
  8
TEXT
 62
     7
100
AcDbVertex
100
AcDb2dVertex
 10
19.68597760854468
 20
-81.33066208574425
 30
0.0
  0
SEQEND
  5
74A
330
747
100
AcDbEntity
  8
TEXT
  0
POLYLINE
  5
74B
330
1F
100
AcDbEntity
  8
TEXT
 62
     7
100
AcDb2dPolyline
 66
     1
 10
0.0
 20
0.0
 30
0.0
  0
VERTEX
  5
74C
330
74B
100
AcDbEntity
  8
TEXT
 62
     7
100
AcDbVertex
100
AcDb2dVertex
 10
19.66323996334213
 20
-82.558150416906
 30
0.0
  0
VERTEX
  5
74D
330
74B
100
AcDbEntity
  8
TEXT
 62
     7
100
AcDbVertex
100
AcDb2dVertex
 10
19.66323996334213
 20
-81.15668464896719
 30
0.0
  0
SEQEND
  5
74E
330
74B
100
AcDbEntity
  8
TEXT
  0
POLYLINE
  5
74F
330
1F
100
AcDbEntity
  8
TEXT
 62
     7
100
AcDb2dPolyline
 66
     1
 10
0.0
 20
0.0
 30
0.0
  0
VERTEX
  5
750
330
74F
100
AcDbEntity
  8
TEXT
 62
     7
100
AcDbVertex
100
AcDb2dVertex
 10
19.64033006325169
 20
-82.558150416906
 30
0.0
  0
VERTEX
  5
751
330
74F
100
AcDbEntity
  8
TEXT
 62
     7
100
AcDbVertex
100
AcDb2dVertex
 10
19.64033006325169
 20
-80.98339623174172
 30
0.0
  0
SEQEND
  5
752
330
74F
100
AcDbEntity
  8
TEXT
  0
POLYLINE
  5
753
330
1F
100
AcDbEntity
  8
TEXT
 62
     7
100
AcDb2dPolyline
 66
     1
 10
0.0
 20
0.0
 30
0.0
  0
VERTEX
  5
754
330
753
100
AcDbEntity
  8
TEXT
 62
     7
100
AcDbVertex
100
AcDb2dVertex
 10
19.63809074970901
 20
-123.6981298033813
 30
0.0
  0
VERTEX
  5
755
330
753
100
AcDbEntity
  8
TEXT
 62
     7
100
AcDbVertex
100
AcDb2dVertex
 10
19.84548563473831
 20
-122.1230311084412
 30
0.0
  0
VERTEX
  5
756
330
753
100
AcDbEntity
  8
TEXT
 62
     7
100
AcDbVertex
100
AcDb2dVertex
 10
19.43086811956762
 20
-122.1230311084412
 30
0.0
  0
VERTEX
  5
757
330
753
100
AcDbEntity
  8
TEXT
 62
     7
100
AcDbVertex
100
AcDb2dVertex
 10
19.63809074970901
 20
-123.6981298033813
 30
0.0
  0
SEQEND
  5
758
330
753
100
AcDbEntity
  8
TEXT
  0
POLYLINE
  5
759
330
1F
100
AcDbEntity
  8
TEXT
 62
     7
100
AcDb2dPolyline
 66
     1
 10
0.0
 20
0.0
 30
0.0
  0
VERTEX
  5
75A
330
759
100
AcDbEntity
  8
TEXT
 62
     7
100
AcDbVertex
100
AcDb2dVertex
 10
19.84393534074722
 20
-122.1230311084412
 30
0.0
  0
VERTEX
  5
75B
330
759
100
AcDbEntity
  8
TEXT
 62
     7
100
AcDbVertex
100
AcDb2dVertex
 10
19.84393534074722
 20
-122.1354334603699
 30
0.0
  0
SEQEND
  5
75C
330
759
100
AcDbEntity
  8
TEXT
  0
POLYLINE
  5
75D
330
1F
100
AcDbEntity
  8
TEXT
 62
     7
100
AcDb2dPolyline
 66
     1
 10
0.0
 20
0.0
 30
0.0
  0
VERTEX
  5
75E
330
75D
100
AcDbEntity
  8
TEXT
 62
     7
100
AcDbVertex
100
AcDb2dVertex
 10
19.84393534074722
 20
-122.1230311084412
 30
0.0
  0
VERTEX
  5
75F
330
75D
100
AcDbEntity
  8
TEXT
 62
     7
100
AcDbVertex
100
AcDb2dVertex
 10
19.84393534074722
 20
-122.1354334603699
 30
0.0
  0
SEQEND
  5
760
330
75D
100
AcDbEntity
  8
TEXT
  0
POLYLINE
  5
761
330
1F
100
AcDbEntity
  8
TEXT
 62
     7
100
AcDb2dPolyline
 66
     1
 10
0.0
 20
0.0
 30
0.0
  0
VERTEX
  5
762
330
761
100
AcDbEntity
  8
TEXT
 62
     7
100
AcDbVertex
100
AcDb2dVertex
 10
19.82119769554468
 20
-122.1230311084412
 30
0.0
  0
VERTEX
  5
763
330
761
100
AcDbEntity
  8
TEXT
 62
     7
100
AcDbVertex
100
AcDb2dVertex
 10
19.82119769554468
 20
-122.3090663873711
 30
0.0
  0
SEQEND
  5
764
330
761
100
AcDbEntity
  8
TEXT
  0
POLYLINE
  5
765
330
1F
100
AcDbEntity
  8
TEXT
 62
     7
100
AcDb2dPolyline
 66
     1
 10
0.0
 20
0.0
 30
0.0
  0
VERTEX
  5
766
330
765
100
AcDbEntity
  8
TEXT
 62
     7
100
AcDbVertex
100
AcDb2dVertex
 10
19.79811554056633
 20
-122.1230311084412
 30
0.0
  0
VERTEX
  5
767
330
765
100
AcDbEntity
  8
TEXT
 62
     7
100
AcDbVertex
100
AcDb2dVertex
 10
19.79811554056633
 20
-122.4826993143724
 30
0.0
  0
SEQEND
  5
768
330
765
100
AcDbEntity
  8
TEXT
  0
POLYLINE
  5
769
330
1F
100
AcDbEntity
  8
TEXT
 62
     7
100
AcDb2dPolyline
 66
     1
 10
0.0
 20
0.0
 30
0.0
  0
VERTEX
  5
76A
330
769
100
AcDbEntity
  8
TEXT
 62
     7
100
AcDbVertex
100
AcDb2dVertex
 10
19.77537789536379
 20
-122.1230311084412
 30
0.0
  0
VERTEX
  5
76B
330
769
100
AcDbEntity
  8
TEXT
 62
     7
100
AcDbVertex
100
AcDb2dVertex
 10
19.77537789536379
 20
-122.6563322413737
 30
0.0
  0
SEQEND
  5
76C
330
769
100
AcDbEntity
  8
TEXT
  0
POLYLINE
  5
76D
330
1F
100
AcDbEntity
  8
TEXT
 62
     7
100
AcDb2dPolyline
 66
     1
 10
0.0
 20
0.0
 30
0.0
  0
VERTEX
  5
76E
330
76D
100
AcDbEntity
  8
TEXT
 62
     7
100
AcDbVertex
100
AcDb2dVertex
 10
19.75246799527334
 20
-122.1230311084412
 30
0.0
  0
VERTEX
  5
76F
330
76D
100
AcDbEntity
  8
TEXT
 62
     7
100
AcDbVertex
100
AcDb2dVertex
 10
19.75246799527334
 20
-122.829965168375
 30
0.0
  0
SEQEND
  5
770
330
76D
100
AcDbEntity
  8
TEXT
  0
POLYLINE
  5
771
330
1F
100
AcDbEntity
  8
TEXT
 62
     7
100
AcDb2dPolyline
 66
     1
 10
0.0
 20
0.0
 30
0.0
  0
VERTEX
  5
772
330
771
100
AcDbEntity
  8
TEXT
 62
     7
100
AcDbVertex
100
AcDb2dVertex
 10
19.7295580951829
 20
-122.1230311084412
 30
0.0
  0
VERTEX
  5
773
330
771
100
AcDbEntity
  8
TEXT
 62
     7
100
AcDbVertex
100
AcDb2dVertex
 10
19.7295580951829
 20
-123.0035980953762
 30
0.0
  0
SEQEND
  5
774
330
771
100
AcDbEntity
  8
TEXT
  0
POLYLINE
  5
775
330
1F
100
AcDbEntity
  8
TEXT
 62
     7
100
AcDb2dPolyline
 66
     1
 10
0.0
 20
0.0
 30
0.0
  0
VERTEX
  5
776
330
775
100
AcDbEntity
  8
TEXT
 62
     7
100
AcDbVertex
100
AcDb2dVertex
 10
19.70664819509245
 20
-122.1230311084412
 30
0.0
  0
VERTEX
  5
777
330
775
100
AcDbEntity
  8
TEXT
 62
     7
100
AcDbVertex
100
AcDb2dVertex
 10
19.70664819509245
 20
-123.1772310223775
 30
0.0
  0
SEQEND
  5
778
330
775
100
AcDbEntity
  8
TEXT
  0
POLYLINE
  5
779
330
1F
100
AcDbEntity
  8
TEXT
 62
     7
100
AcDb2dPolyline
 66
     1
 10
0.0
 20
0.0
 30
0.0
  0
VERTEX
  5
77A
330
779
100
AcDbEntity
  8
TEXT
 62
     7
100
AcDbVertex
100
AcDb2dVertex
 10
19.68373829500201
 20
-122.1230311084412
 30
0.0
  0
VERTEX
  5
77B
330
779
100
AcDbEntity
  8
TEXT
 62
     7
100
AcDbVertex
100
AcDb2dVertex
 10
19.68373829500201
 20
-123.3508639493788
 30
0.0
  0
SEQEND
  5
77C
330
779
100
AcDbEntity
  8
TEXT
  0
POLYLINE
  5
77D
330
1F
100
AcDbEntity
  8
TEXT
 62
     7
100
AcDb2dPolyline
 66
     1
 10
0.0
 20
0.0
 30
0.0
  0
VERTEX
  5
77E
330
77D
100
AcDbEntity
  8
TEXT
 62
     7
100
AcDbVertex
100
AcDb2dVertex
 10
19.66100064979946
 20
-122.1230311084412
 30
0.0
  0
VERTEX
  5
77F
330
77D
100
AcDbEntity
  8
TEXT
 62
     7
100
AcDbVertex
100
AcDb2dVertex
 10
19.66100064979946
 20
-123.52449687638
 30
0.0
  0
SEQEND
  5
780
330
77D
100
AcDbEntity
  8
TEXT
  0
POLYLINE
  5
781
330
1F
100
AcDbEntity
  8
TEXT
 62
     7
100
AcDb2dPolyline
 66
     1
 10
0.0
 20
0.0
 30
0.0
  0
VERTEX
  5
782
330
781
100
AcDbEntity
  8
TEXT
 62
     7
100
AcDbVertex
100
AcDb2dVertex
 10
19.63809074970901
 20
-122.1230311084412
 30
0.0
  0
VERTEX
  5
783
330
781
100
AcDbEntity
  8
TEXT
 62
     7
100
AcDbVertex
100
AcDb2dVertex
 10
19.63809074970901
 20
-123.6981298033813
 30
0.0
  0
SEQEND
  5
784
330
781
100
AcDbEntity
  8
TEXT
  0
POLYLINE
  5
785
330
1F
100
AcDbEntity
  8
TEXT
 62
     7
100
AcDb2dPolyline
 66
     1
 10
0.0
 20
0.0
 30
0.0
  0
VERTEX
  5
786
330
785
100
AcDbEntity
  8
TEXT
 62
     7
100
AcDbVertex
100
AcDb2dVertex
 10
19.4325906684466
 20
-122.1230311084412
 30
0.0
  0
VERTEX
  5
787
330
785
100
AcDbEntity
  8
TEXT
 62
     7
100
AcDbVertex
100
AcDb2dVertex
 10
19.4325906684466
 20
-122.1354334603699
 30
0.0
  0
SEQEND
  5
788
330
785
100
AcDbEntity
  8
TEXT
  0
POLYLINE
  5
789
330
1F
100
AcDbEntity
  8
TEXT
 62
     7
100
AcDb2dPolyline
 66
     1
 10
0.0
 20
0.0
 30
0.0
  0
VERTEX
  5
78A
330
789
100
AcDbEntity
  8
TEXT
 62
     7
100
AcDbVertex
100
AcDb2dVertex
 10
19.4325906684466
 20
-122.1230311084412
 30
0.0
  0
VERTEX
  5
78B
330
789
100
AcDbEntity
  8
TEXT
 62
     7
100
AcDbVertex
100
AcDb2dVertex
 10
19.4325906684466
 20
-122.1354334603699
 30
0.0
  0
SEQEND
  5
78C
330
789
100
AcDbEntity
  8
TEXT
  0
POLYLINE
  5
78D
330
1F
100
AcDbEntity
  8
TEXT
 62
     7
100
AcDb2dPolyline
 66
     1
 10
0.0
 20
0.0
 30
0.0
  0
VERTEX
  5
78E
330
78D
100
AcDbEntity
  8
TEXT
 62
     7
100
AcDbVertex
100
AcDb2dVertex
 10
19.45515605876125
 20
-122.1230311084412
 30
0.0
  0
VERTEX
  5
78F
330
78D
100
AcDbEntity
  8
TEXT
 62
     7
100
AcDbVertex
100
AcDb2dVertex
 10
19.45515605876125
 20
-122.3090663873711
 30
0.0
  0
SEQEND
  5
790
330
78D
100
AcDbEntity
  8
TEXT
  0
POLYLINE
  5
791
330
1F
100
AcDbEntity
  8
TEXT
 62
     7
100
AcDb2dPolyline
 66
     1
 10
0.0
 20
0.0
 30
0.0
  0
VERTEX
  5
792
330
791
100
AcDbEntity
  8
TEXT
 62
     7
100
AcDbVertex
100
AcDb2dVertex
 10
19.47806595885169
 20
-122.1230311084412
 30
0.0
  0
VERTEX
  5
793
330
791
100
AcDbEntity
  8
TEXT
 62
     7
100
AcDbVertex
100
AcDb2dVertex
 10
19.47806595885169
 20
-122.4826993143724
 30
0.0
  0
SEQEND
  5
794
330
791
100
AcDbEntity
  8
TEXT
  0
POLYLINE
  5
795
330
1F
100
AcDbEntity
  8
TEXT
 62
     7
100
AcDb2dPolyline
 66
     1
 10
0.0
 20
0.0
 30
0.0
  0
VERTEX
  5
796
330
795
100
AcDbEntity
  8
TEXT
 62
     7
100
AcDbVertex
100
AcDb2dVertex
 10
19.50114811383003
 20
-122.1230311084412
 30
0.0
  0
VERTEX
  5
797
330
795
100
AcDbEntity
  8
TEXT
 62
     7
100
AcDbVertex
100
AcDb2dVertex
 10
19.50114811383003
 20
-122.6563322413737
 30
0.0
  0
SEQEND
  5
798
330
795
100
AcDbEntity
  8
TEXT
  0
POLYLINE
  5
799
330
1F
100
AcDbEntity
  8
TEXT
 62
     7
100
AcDb2dPolyline
 66
     1
 10
0.0
 20
0.0
 30
0.0
  0
VERTEX
  5
79A
330
799
100
AcDbEntity
  8
TEXT
 62
     7
100
AcDbVertex
100
AcDb2dVertex
 10
19.52405801392048
 20
-122.1230311084412
 30
0.0
  0
VERTEX
  5
79B
330
799
100
AcDbEntity
  8
TEXT
 62
     7
100
AcDbVertex
100
AcDb2dVertex
 10
19.52405801392048
 20
-122.829965168375
 30
0.0
  0
SEQEND
  5
79C
330
799
100
AcDbEntity
  8
TEXT
  0
POLYLINE
  5
79D
330
1F
100
AcDbEntity
  8
TEXT
 62
     7
100
AcDb2dPolyline
 66
     1
 10
0.0
 20
0.0
 30
0.0
  0
VERTEX
  5
79E
330
79D
100
AcDbEntity
  8
TEXT
 62
     7
100
AcDbVertex
100
AcDb2dVertex
 10
19.54662340423513
 20
-122.1230311084412
 30
0.0
  0
VERTEX
  5
79F
330
79D
100
AcDbEntity
  8
TEXT
 62
     7
100
AcDbVertex
100
AcDb2dVertex
 10
19.54662340423513
 20
-123.0035980953762
 30
0.0
  0
SEQEND
  5
7A0
330
79D
100
AcDbEntity
  8
TEXT
  0
POLYLINE
  5
7A1
330
1F
100
AcDbEntity
  8
TEXT
 62
     7
100
AcDb2dPolyline
 66
     1
 10
0.0
 20
0.0
 30
0.0
  0
VERTEX
  5
7A2
330
7A1
100
AcDbEntity
  8
TEXT
 62
     7
100
AcDbVertex
100
AcDb2dVertex
 10
19.56953330432557
 20
-122.1230311084412
 30
0.0
  0
VERTEX
  5
7A3
330
7A1
100
AcDbEntity
  8
TEXT
 62
     7
100
AcDbVertex
100
AcDb2dVertex
 10
19.56953330432557
 20
-123.1772310223775
 30
0.0
  0
SEQEND
  5
7A4
330
7A1
100
AcDbEntity
  8
TEXT
  0
POLYLINE
  5
7A5
330
1F
100
AcDbEntity
  8
TEXT
 62
     7
100
AcDb2dPolyline
 66
     1
 10
0.0
 20
0.0
 30
0.0
  0
VERTEX
  5
7A6
330
7A5
100
AcDbEntity
  8
TEXT
 62
     7
100
AcDbVertex
100
AcDb2dVertex
 10
19.59227094952812
 20
-122.1230311084412
 30
0.0
  0
VERTEX
  5
7A7
330
7A5
100
AcDbEntity
  8
TEXT
 62
     7
100
AcDbVertex
100
AcDb2dVertex
 10
19.59227094952812
 20
-123.3508639493788
 30
0.0
  0
SEQEND
  5
7A8
330
7A5
100
AcDbEntity
  8
TEXT
  0
POLYLINE
  5
7A9
330
1F
100
AcDbEntity
  8
TEXT
 62
     7
100
AcDb2dPolyline
 66
     1
 10
0.0
 20
0.0
 30
0.0
  0
VERTEX
  5
7AA
330
7A9
100
AcDbEntity
  8
TEXT
 62
     7
100
AcDbVertex
100
AcDb2dVertex
 10
19.61518084961857
 20
-122.1230311084412
 30
0.0
  0
VERTEX
  5
7AB
330
7A9
100
AcDbEntity
  8
TEXT
 62
     7
100
AcDbVertex
100
AcDb2dVertex
 10
19.61518084961857
 20
-123.52449687638
 30
0.0
  0
SEQEND
  5
7AC
330
7A9
100
AcDbEntity
  8
TEXT
  0
POLYLINE
  5
7AD
330
1F
100
AcDbEntity
  8
TEXT
 62
     7
100
AcDb2dPolyline
 66
     1
 10
0.0
 20
0.0
 30
0.0
  0
VERTEX
  5
7AE
330
7AD
100
AcDbEntity
  8
TEXT
 62
     7
100
AcDbVertex
100
AcDb2dVertex
 10
19.63809074970901
 20
-122.1230311084412
 30
0.0
  0
VERTEX
  5
7AF
330
7AD
100
AcDbEntity
  8
TEXT
 62
     7
100
AcDbVertex
100
AcDb2dVertex
 10
19.63809074970901
 20
-123.6981298033813
 30
0.0
  0
SEQEND
  5
7B0
330
7AD
100
AcDbEntity
  8
TEXT
  0
MTEXT
  5
7B1
330
1F
100
AcDbEntity
  8
TEXT
 62
     7
100
AcDbMText
 10
18.80144875918802
 20
-104.4203962791551
 30
0.0
 40
2.398890470823883
 41
0.0
 71
     7
 72
     1
  1
\fINDEX Univers 45 Light|b0|i0|c0|p34;\W1;95
 11
-4.371139000186241E-8
 21
0.999999999999999
 31
0.0
  0
POLYLINE
  5
7B2
330
1F
100
AcDbEntity
  8
TEXT
 62
     7
100
AcDb2dPolyline
 66
     1
 10
0.0
 20
0.0
 30
0.0
  0
VERTEX
  5
7B3
330
7B2
100
AcDbEntity
  8
TEXT
 62
     7
100
AcDbVertex
100
AcDb2dVertex
 10
12.92101139612321
 20
-123.7336143102883
 30
0.0
  0
VERTEX
  5
7B4
330
7B2
100
AcDbEntity
  8
TEXT
 62
     7
100
AcDbVertex
100
AcDb2dVertex
 10
20.77996840158541
 20
-123.7336143102883
 30
0.0
  0
SEQEND
  5
7B5
330
7B2
100
AcDbEntity
  8
TEXT
  0
POLYLINE
  5
7B6
330
1F
100
AcDbEntity
  8
TEXT
 62
     7
100
AcDb2dPolyline
 66
     1
 10
0.0
 20
0.0
 30
0.0
  0
VERTEX
  5
7B7
330
7B6
100
AcDbEntity
  8
TEXT
 62
     7
100
AcDbVertex
100
AcDb2dVertex
 10
44.50997401331342
 20
-80.98339623174172
 30
0.0
  0
VERTEX
  5
7B8
330
7B6
100
AcDbEntity
  8
TEXT
 62
     7
100
AcDbVertex
100
AcDb2dVertex
 10
62.676663510597
 20
-80.98339623174172
 30
0.0
  0
SEQEND
  5
7B9
330
7B6
100
AcDbEntity
  8
TEXT
  0
POLYLINE
  5
7BA
330
1F
100
AcDbEntity
  8
TEXT
 62
     7
100
AcDb2dPolyline
 66
     1
 10
0.0
 20
0.0
 30
0.0
  0
VERTEX
  5
7BB
330
7BA
100
AcDbEntity
  8
TEXT
 62
     7
100
AcDbVertex
100
AcDb2dVertex
 10
61.8942818097639
 20
-80.98339623174172
 30
0.0
  0
VERTEX
  5
7BC
330
7BA
100
AcDbEntity
  8
TEXT
 62
     7
100
AcDbVertex
100
AcDb2dVertex
 10
61.8942818097639
 20
-139.4790891032764
 30
0.0
  0
SEQEND
  5
7BD
330
7BA
100
AcDbEntity
  8
TEXT
  0
POLYLINE
  5
7BE
330
1F
100
AcDbEntity
  8
TEXT
 62
     7
100
AcDb2dPolyline
 66
     1
 10
0.0
 20
0.0
 30
0.0
  0
VERTEX
  5
7BF
330
7BE
100
AcDbEntity
  8
TEXT
 62
     7
100
AcDbVertex
100
AcDb2dVertex
 10
61.8942818097639
 20
-80.98339623174172
 30
0.0
  0
VERTEX
  5
7C0
330
7BE
100
AcDbEntity
  8
TEXT
 62
     7
100
AcDbVertex
100
AcDb2dVertex
 10
61.68688692473461
 20
-82.558150416906
 30
0.0
  0
VERTEX
  5
7C1
330
7BE
100
AcDbEntity
  8
TEXT
 62
     7
100
AcDbVertex
100
AcDb2dVertex
 10
62.10167669479319
 20
-82.558150416906
 30
0.0
  0
VERTEX
  5
7C2
330
7BE
100
AcDbEntity
  8
TEXT
 62
     7
100
AcDbVertex
100
AcDb2dVertex
 10
61.8942818097639
 20
-80.98339623174172
 30
0.0
  0
SEQEND
  5
7C3
330
7BE
100
AcDbEntity
  8
TEXT
  0
POLYLINE
  5
7C4
330
1F
100
AcDbEntity
  8
TEXT
 62
     7
100
AcDb2dPolyline
 66
     1
 10
0.0
 20
0.0
 30
0.0
  0
VERTEX
  5
7C5
330
7C4
100
AcDbEntity
  8
TEXT
 62
     7
100
AcDbVertex
100
AcDb2dVertex
 10
61.68895398338938
 20
-82.558150416906
 30
0.0
  0
VERTEX
  5
7C6
330
7C4
100
AcDbEntity
  8
TEXT
 62
     7
100
AcDbVertex
100
AcDb2dVertex
 10
61.68895398338938
 20
-82.54592031986525
 30
0.0
  0
SEQEND
  5
7C7
330
7C4
100
AcDbEntity
  8
TEXT
  0
POLYLINE
  5
7C8
330
1F
100
AcDbEntity
  8
TEXT
 62
     7
100
AcDb2dPolyline
 66
     1
 10
0.0
 20
0.0
 30
0.0
  0
VERTEX
  5
7C9
330
7C8
100
AcDbEntity
  8
TEXT
 62
     7
100
AcDbVertex
100
AcDb2dVertex
 10
61.68895398338938
 20
-82.558150416906
 30
0.0
  0
VERTEX
  5
7CA
330
7C8
100
AcDbEntity
  8
TEXT
 62
     7
100
AcDbVertex
100
AcDb2dVertex
 10
61.68895398338938
 20
-82.54592031986525
 30
0.0
  0
SEQEND
  5
7CB
330
7C8
100
AcDbEntity
  8
TEXT
  0
POLYLINE
  5
7CC
330
1F
100
AcDbEntity
  8
TEXT
 62
     7
100
AcDb2dPolyline
 66
     1
 10
0.0
 20
0.0
 30
0.0
  0
VERTEX
  5
7CD
330
7CC
100
AcDbEntity
  8
TEXT
 62
     7
100
AcDbVertex
100
AcDb2dVertex
 10
61.71134711881614
 20
-82.558150416906
 30
0.0
  0
VERTEX
  5
7CE
330
7CC
100
AcDbEntity
  8
TEXT
 62
     7
100
AcDbVertex
100
AcDb2dVertex
 10
61.71134711881614
 20
-82.37245964775187
 30
0.0
  0
SEQEND
  5
7CF
330
7CC
100
AcDbEntity
  8
TEXT
  0
POLYLINE
  5
7D0
330
1F
100
AcDbEntity
  8
TEXT
 62
     7
100
AcDb2dPolyline
 66
     1
 10
0.0
 20
0.0
 30
0.0
  0
VERTEX
  5
7D1
330
7D0
100
AcDbEntity
  8
TEXT
 62
     7
100
AcDbVertex
100
AcDb2dVertex
 10
61.73442927379448
 20
-82.558150416906
 30
0.0
  0
VERTEX
  5
7D2
330
7D0
100
AcDbEntity
  8
TEXT
 62
     7
100
AcDbVertex
100
AcDb2dVertex
 10
61.73442927379448
 20
-82.1986544658627
 30
0.0
  0
SEQEND
  5
7D3
330
7D0
100
AcDbEntity
  8
TEXT
  0
POLYLINE
  5
7D4
330
1F
100
AcDbEntity
  8
TEXT
 62
     7
100
AcDb2dPolyline
 66
     1
 10
0.0
 20
0.0
 30
0.0
  0
VERTEX
  5
7D5
330
7D4
100
AcDbEntity
  8
TEXT
 62
     7
100
AcDbVertex
100
AcDb2dVertex
 10
61.75751142877282
 20
-82.558150416906
 30
0.0
  0
VERTEX
  5
7D6
330
7D4
100
AcDbEntity
  8
TEXT
 62
     7
100
AcDbVertex
100
AcDb2dVertex
 10
61.75751142877282
 20
-82.02519379374934
 30
0.0
  0
SEQEND
  5
7D7
330
7D4
100
AcDbEntity
  8
TEXT
  0
POLYLINE
  5
7D8
330
1F
100
AcDbEntity
  8
TEXT
 62
     7
100
AcDb2dPolyline
 66
     1
 10
0.0
 20
0.0
 30
0.0
  0
VERTEX
  5
7D9
330
7D8
100
AcDbEntity
  8
TEXT
 62
     7
100
AcDbVertex
100
AcDb2dVertex
 10
61.78024907397537
 20
-82.558150416906
 30
0.0
  0
VERTEX
  5
7DA
330
7D8
100
AcDbEntity
  8
TEXT
 62
     7
100
AcDbVertex
100
AcDb2dVertex
 10
61.78024907397537
 20
-81.85121635697226
 30
0.0
  0
SEQEND
  5
7DB
330
7D8
100
AcDbEntity
  8
TEXT
  0
POLYLINE
  5
7DC
330
1F
100
AcDbEntity
  8
TEXT
 62
     7
100
AcDb2dPolyline
 66
     1
 10
0.0
 20
0.0
 30
0.0
  0
VERTEX
  5
7DD
330
7DC
100
AcDbEntity
  8
TEXT
 62
     7
100
AcDbVertex
100
AcDb2dVertex
 10
61.80298671917792
 20
-82.558150416906
 30
0.0
  0
VERTEX
  5
7DE
330
7DC
100
AcDbEntity
  8
TEXT
 62
     7
100
AcDbVertex
100
AcDb2dVertex
 10
61.80298671917792
 20
-81.6779279397468
 30
0.0
  0
SEQEND
  5
7DF
330
7DC
100
AcDbEntity
  8
TEXT
  0
POLYLINE
  5
7E0
330
1F
100
AcDbEntity
  8
TEXT
 62
     7
100
AcDb2dPolyline
 66
     1
 10
0.0
 20
0.0
 30
0.0
  0
VERTEX
  5
7E1
330
7E0
100
AcDbEntity
  8
TEXT
 62
     7
100
AcDbVertex
100
AcDb2dVertex
 10
61.82572436438046
 20
-82.558150416906
 30
0.0
  0
VERTEX
  5
7E2
330
7E0
100
AcDbEntity
  8
TEXT
 62
     7
100
AcDbVertex
100
AcDb2dVertex
 10
61.82572436438046
 20
-81.50412275785763
 30
0.0
  0
SEQEND
  5
7E3
330
7E0
100
AcDbEntity
  8
TEXT
  0
POLYLINE
  5
7E4
330
1F
100
AcDbEntity
  8
TEXT
 62
     7
100
AcDb2dPolyline
 66
     1
 10
0.0
 20
0.0
 30
0.0
  0
VERTEX
  5
7E5
330
7E4
100
AcDbEntity
  8
TEXT
 62
     7
100
AcDbVertex
100
AcDb2dVertex
 10
61.84846200958301
 20
-82.558150416906
 30
0.0
  0
VERTEX
  5
7E6
330
7E4
100
AcDbEntity
  8
TEXT
 62
     7
100
AcDbVertex
100
AcDb2dVertex
 10
61.84846200958301
 20
-81.33066208574425
 30
0.0
  0
SEQEND
  5
7E7
330
7E4
100
AcDbEntity
  8
TEXT
  0
POLYLINE
  5
7E8
330
1F
100
AcDbEntity
  8
TEXT
 62
     7
100
AcDb2dPolyline
 66
     1
 10
0.0
 20
0.0
 30
0.0
  0
VERTEX
  5
7E9
330
7E8
100
AcDbEntity
  8
TEXT
 62
     7
100
AcDbVertex
100
AcDb2dVertex
 10
61.87154416456135
 20
-82.558150416906
 30
0.0
  0
VERTEX
  5
7EA
330
7E8
100
AcDbEntity
  8
TEXT
 62
     7
100
AcDbVertex
100
AcDb2dVertex
 10
61.87154416456135
 20
-81.15668464896719
 30
0.0
  0
SEQEND
  5
7EB
330
7E8
100
AcDbEntity
  8
TEXT
  0
POLYLINE
  5
7EC
330
1F
100
AcDbEntity
  8
TEXT
 62
     7
100
AcDb2dPolyline
 66
     1
 10
0.0
 20
0.0
 30
0.0
  0
VERTEX
  5
7ED
330
7EC
100
AcDbEntity
  8
TEXT
 62
     7
100
AcDbVertex
100
AcDb2dVertex
 10
61.8942818097639
 20
-82.558150416906
 30
0.0
  0
VERTEX
  5
7EE
330
7EC
100
AcDbEntity
  8
TEXT
 62
     7
100
AcDbVertex
100
AcDb2dVertex
 10
61.8942818097639
 20
-80.98339623174172
 30
0.0
  0
SEQEND
  5
7EF
330
7EC
100
AcDbEntity
  8
TEXT
  0
POLYLINE
  5
7F0
330
1F
100
AcDbEntity
  8
TEXT
 62
     7
100
AcDb2dPolyline
 66
     1
 10
0.0
 20
0.0
 30
0.0
  0
VERTEX
  5
7F1
330
7F0
100
AcDbEntity
  8
TEXT
 62
     7
100
AcDbVertex
100
AcDb2dVertex
 10
62.10029865569001
 20
-82.558150416906
 30
0.0
  0
VERTEX
  5
7F2
330
7F0
100
AcDbEntity
  8
TEXT
 62
     7
100
AcDbVertex
100
AcDb2dVertex
 10
62.10029865569001
 20
-82.54592031986525
 30
0.0
  0
SEQEND
  5
7F3
330
7F0
100
AcDbEntity
  8
TEXT
  0
POLYLINE
  5
7F4
330
1F
100
AcDbEntity
  8
TEXT
 62
     7
100
AcDb2dPolyline
 66
     1
 10
0.0
 20
0.0
 30
0.0
  0
VERTEX
  5
7F5
330
7F4
100
AcDbEntity
  8
TEXT
 62
     7
100
AcDbVertex
100
AcDb2dVertex
 10
62.10029865569001
 20
-82.558150416906
 30
0.0
  0
VERTEX
  5
7F6
330
7F4
100
AcDbEntity
  8
TEXT
 62
     7
100
AcDbVertex
100
AcDb2dVertex
 10
62.10029865569001
 20
-82.54592031986525
 30
0.0
  0
SEQEND
  5
7F7
330
7F4
100
AcDbEntity
  8
TEXT
  0
POLYLINE
  5
7F8
330
1F
100
AcDbEntity
  8
TEXT
 62
     7
100
AcDb2dPolyline
 66
     1
 10
0.0
 20
0.0
 30
0.0
  0
VERTEX
  5
7F9
330
7F8
100
AcDbEntity
  8
TEXT
 62
     7
100
AcDbVertex
100
AcDb2dVertex
 10
62.07721650071166
 20
-82.558150416906
 30
0.0
  0
VERTEX
  5
7FA
330
7F8
100
AcDbEntity
  8
TEXT
 62
     7
100
AcDbVertex
100
AcDb2dVertex
 10
62.07721650071166
 20
-82.37245964775187
 30
0.0
  0
SEQEND
  5
7FB
330
7F8
100
AcDbEntity
  8
TEXT
  0
POLYLINE
  5
7FC
330
1F
100
AcDbEntity
  8
TEXT
 62
     7
100
AcDb2dPolyline
 66
     1
 10
0.0
 20
0.0
 30
0.0
  0
VERTEX
  5
7FD
330
7FC
100
AcDbEntity
  8
TEXT
 62
     7
100
AcDbVertex
100
AcDb2dVertex
 10
62.05447885550912
 20
-82.558150416906
 30
0.0
  0
VERTEX
  5
7FE
330
7FC
100
AcDbEntity
  8
TEXT
 62
     7
100
AcDbVertex
100
AcDb2dVertex
 10
62.05447885550912
 20
-82.1986544658627
 30
0.0
  0
SEQEND
  5
7FF
330
7FC
100
AcDbEntity
  8
TEXT
  0
POLYLINE
  5
800
330
1F
100
AcDbEntity
  8
TEXT
 62
     7
100
AcDb2dPolyline
 66
     1
 10
0.0
 20
0.0
 30
0.0
  0
VERTEX
  5
801
330
800
100
AcDbEntity
  8
TEXT
 62
     7
100
AcDbVertex
100
AcDb2dVertex
 10
62.03139670053078
 20
-82.558150416906
 30
0.0
  0
VERTEX
  5
802
330
800
100
AcDbEntity
  8
TEXT
 62
     7
100
AcDbVertex
100
AcDb2dVertex
 10
62.03139670053078
 20
-82.02519379374934
 30
0.0
  0
SEQEND
  5
803
330
800
100
AcDbEntity
  8
TEXT
  0
POLYLINE
  5
804
330
1F
100
AcDbEntity
  8
TEXT
 62
     7
100
AcDb2dPolyline
 66
     1
 10
0.0
 20
0.0
 30
0.0
  0
VERTEX
  5
805
330
804
100
AcDbEntity
  8
TEXT
 62
     7
100
AcDbVertex
100
AcDb2dVertex
 10
62.00865905532822
 20
-82.558150416906
 30
0.0
  0
VERTEX
  5
806
330
804
100
AcDbEntity
  8
TEXT
 62
     7
100
AcDbVertex
100
AcDb2dVertex
 10
62.00865905532822
 20
-81.85121635697226
 30
0.0
  0
SEQEND
  5
807
330
804
100
AcDbEntity
  8
TEXT
  0
POLYLINE
  5
808
330
1F
100
AcDbEntity
  8
TEXT
 62
     7
100
AcDb2dPolyline
 66
     1
 10
0.0
 20
0.0
 30
0.0
  0
VERTEX
  5
809
330
808
100
AcDbEntity
  8
TEXT
 62
     7
100
AcDbVertex
100
AcDb2dVertex
 10
61.98592141012568
 20
-82.558150416906
 30
0.0
  0
VERTEX
  5
80A
330
808
100
AcDbEntity
  8
TEXT
 62
     7
100
AcDbVertex
100
AcDb2dVertex
 10
61.98592141012568
 20
-81.6779279397468
 30
0.0
  0
SEQEND
  5
80B
330
808
100
AcDbEntity
  8
TEXT
  0
POLYLINE
  5
80C
330
1F
100
AcDbEntity
  8
TEXT
 62
     7
100
AcDb2dPolyline
 66
     1
 10
0.0
 20
0.0
 30
0.0
  0
VERTEX
  5
80D
330
80C
100
AcDbEntity
  8
TEXT
 62
     7
100
AcDbVertex
100
AcDb2dVertex
 10
61.96283925514734
 20
-82.558150416906
 30
0.0
  0
VERTEX
  5
80E
330
80C
100
AcDbEntity
  8
TEXT
 62
     7
100
AcDbVertex
100
AcDb2dVertex
 10
61.96283925514734
 20
-81.50412275785763
 30
0.0
  0
SEQEND
  5
80F
330
80C
100
AcDbEntity
  8
TEXT
  0
POLYLINE
  5
810
330
1F
100
AcDbEntity
  8
TEXT
 62
     7
100
AcDb2dPolyline
 66
     1
 10
0.0
 20
0.0
 30
0.0
  0
VERTEX
  5
811
330
810
100
AcDbEntity
  8
TEXT
 62
     7
100
AcDbVertex
100
AcDb2dVertex
 10
61.94010160994479
 20
-82.558150416906
 30
0.0
  0
VERTEX
  5
812
330
810
100
AcDbEntity
  8
TEXT
 62
     7
100
AcDbVertex
100
AcDb2dVertex
 10
61.94010160994479
 20
-81.33066208574425
 30
0.0
  0
SEQEND
  5
813
330
810
100
AcDbEntity
  8
TEXT
  0
POLYLINE
  5
814
330
1F
100
AcDbEntity
  8
TEXT
 62
     7
100
AcDb2dPolyline
 66
     1
 10
0.0
 20
0.0
 30
0.0
  0
VERTEX
  5
815
330
814
100
AcDbEntity
  8
TEXT
 62
     7
100
AcDbVertex
100
AcDb2dVertex
 10
61.91701945496644
 20
-82.558150416906
 30
0.0
  0
VERTEX
  5
816
330
814
100
AcDbEntity
  8
TEXT
 62
     7
100
AcDbVertex
100
AcDb2dVertex
 10
61.91701945496644
 20
-81.15668464896719
 30
0.0
  0
SEQEND
  5
817
330
814
100
AcDbEntity
  8
TEXT
  0
POLYLINE
  5
818
330
1F
100
AcDbEntity
  8
TEXT
 62
     7
100
AcDb2dPolyline
 66
     1
 10
0.0
 20
0.0
 30
0.0
  0
VERTEX
  5
819
330
818
100
AcDbEntity
  8
TEXT
 62
     7
100
AcDbVertex
100
AcDb2dVertex
 10
61.8942818097639
 20
-82.558150416906
 30
0.0
  0
VERTEX
  5
81A
330
818
100
AcDbEntity
  8
TEXT
 62
     7
100
AcDbVertex
100
AcDb2dVertex
 10
61.8942818097639
 20
-80.98339623174172
 30
0.0
  0
SEQEND
  5
81B
330
818
100
AcDbEntity
  8
TEXT
  0
POLYLINE
  5
81C
330
1F
100
AcDbEntity
  8
TEXT
 62
     7
100
AcDb2dPolyline
 66
     1
 10
0.0
 20
0.0
 30
0.0
  0
VERTEX
  5
81D
330
81C
100
AcDbEntity
  8
TEXT
 62
     7
100
AcDbVertex
100
AcDb2dVertex
 10
61.89221475110912
 20
-139.4990706702726
 30
0.0
  0
VERTEX
  5
81E
330
81C
100
AcDbEntity
  8
TEXT
 62
     7
100
AcDbVertex
100
AcDb2dVertex
 10
62.09960963613842
 20
-137.9239719753325
 30
0.0
  0
VERTEX
  5
81F
330
81C
100
AcDbEntity
  8
TEXT
 62
     7
100
AcDbVertex
100
AcDb2dVertex
 10
61.68481986607983
 20
-137.9239719753325
 30
0.0
  0
VERTEX
  5
820
330
81C
100
AcDbEntity
  8
TEXT
 62
     7
100
AcDbVertex
100
AcDb2dVertex
 10
61.89221475110912
 20
-139.4990706702726
 30
0.0
  0
SEQEND
  5
821
330
81C
100
AcDbEntity
  8
TEXT
  0
POLYLINE
  5
822
330
1F
100
AcDbEntity
  8
TEXT
 62
     7
100
AcDb2dPolyline
 66
     1
 10
0.0
 20
0.0
 30
0.0
  0
VERTEX
  5
823
330
822
100
AcDbEntity
  8
TEXT
 62
     7
100
AcDbVertex
100
AcDb2dVertex
 10
62.09788708725944
 20
-137.9239719753325
 30
0.0
  0
VERTEX
  5
824
330
822
100
AcDbEntity
  8
TEXT
 62
     7
100
AcDbVertex
100
AcDb2dVertex
 10
62.09788708725944
 20
-137.9363743272612
 30
0.0
  0
SEQEND
  5
825
330
822
100
AcDbEntity
  8
TEXT
  0
POLYLINE
  5
826
330
1F
100
AcDbEntity
  8
TEXT
 62
     7
100
AcDb2dPolyline
 66
     1
 10
0.0
 20
0.0
 30
0.0
  0
VERTEX
  5
827
330
826
100
AcDbEntity
  8
TEXT
 62
     7
100
AcDbVertex
100
AcDb2dVertex
 10
62.09788708725944
 20
-137.9239719753325
 30
0.0
  0
VERTEX
  5
828
330
826
100
AcDbEntity
  8
TEXT
 62
     7
100
AcDbVertex
100
AcDb2dVertex
 10
62.09788708725944
 20
-137.9363743272612
 30
0.0
  0
SEQEND
  5
829
330
826
100
AcDbEntity
  8
TEXT
  0
POLYLINE
  5
82A
330
1F
100
AcDbEntity
  8
TEXT
 62
     7
100
AcDb2dPolyline
 66
     1
 10
0.0
 20
0.0
 30
0.0
  0
VERTEX
  5
82B
330
82A
100
AcDbEntity
  8
TEXT
 62
     7
100
AcDbVertex
100
AcDb2dVertex
 10
62.07514944205689
 20
-137.9239719753325
 30
0.0
  0
VERTEX
  5
82C
330
82A
100
AcDbEntity
  8
TEXT
 62
     7
100
AcDbVertex
100
AcDb2dVertex
 10
62.07514944205689
 20
-138.1100072542624
 30
0.0
  0
SEQEND
  5
82D
330
82A
100
AcDbEntity
  8
TEXT
  0
POLYLINE
  5
82E
330
1F
100
AcDbEntity
  8
TEXT
 62
     7
100
AcDb2dPolyline
 66
     1
 10
0.0
 20
0.0
 30
0.0
  0
VERTEX
  5
82F
330
82E
100
AcDbEntity
  8
TEXT
 62
     7
100
AcDbVertex
100
AcDb2dVertex
 10
62.05206728707854
 20
-137.9239719753325
 30
0.0
  0
VERTEX
  5
830
330
82E
100
AcDbEntity
  8
TEXT
 62
     7
100
AcDbVertex
100
AcDb2dVertex
 10
62.05206728707854
 20
-138.2836401812637
 30
0.0
  0
SEQEND
  5
831
330
82E
100
AcDbEntity
  8
TEXT
  0
POLYLINE
  5
832
330
1F
100
AcDbEntity
  8
TEXT
 62
     7
100
AcDb2dPolyline
 66
     1
 10
0.0
 20
0.0
 30
0.0
  0
VERTEX
  5
833
330
832
100
AcDbEntity
  8
TEXT
 62
     7
100
AcDbVertex
100
AcDb2dVertex
 10
62.029329641876
 20
-137.9239719753325
 30
0.0
  0
VERTEX
  5
834
330
832
100
AcDbEntity
  8
TEXT
 62
     7
100
AcDbVertex
100
AcDb2dVertex
 10
62.029329641876
 20
-138.457273108265
 30
0.0
  0
SEQEND
  5
835
330
832
100
AcDbEntity
  8
TEXT
  0
POLYLINE
  5
836
330
1F
100
AcDbEntity
  8
TEXT
 62
     7
100
AcDb2dPolyline
 66
     1
 10
0.0
 20
0.0
 30
0.0
  0
VERTEX
  5
837
330
836
100
AcDbEntity
  8
TEXT
 62
     7
100
AcDbVertex
100
AcDb2dVertex
 10
62.00659199667345
 20
-137.9239719753325
 30
0.0
  0
VERTEX
  5
838
330
836
100
AcDbEntity
  8
TEXT
 62
     7
100
AcDbVertex
100
AcDb2dVertex
 10
62.00659199667345
 20
-138.6309060352662
 30
0.0
  0
SEQEND
  5
839
330
836
100
AcDbEntity
  8
TEXT
  0
POLYLINE
  5
83A
330
1F
100
AcDbEntity
  8
TEXT
 62
     7
100
AcDb2dPolyline
 66
     1
 10
0.0
 20
0.0
 30
0.0
  0
VERTEX
  5
83B
330
83A
100
AcDbEntity
  8
TEXT
 62
     7
100
AcDbVertex
100
AcDb2dVertex
 10
61.98350984169511
 20
-137.9239719753325
 30
0.0
  0
VERTEX
  5
83C
330
83A
100
AcDbEntity
  8
TEXT
 62
     7
100
AcDbVertex
100
AcDb2dVertex
 10
61.98350984169511
 20
-138.8045389622675
 30
0.0
  0
SEQEND
  5
83D
330
83A
100
AcDbEntity
  8
TEXT
  0
POLYLINE
  5
83E
330
1F
100
AcDbEntity
  8
TEXT
 62
     7
100
AcDb2dPolyline
 66
     1
 10
0.0
 20
0.0
 30
0.0
  0
VERTEX
  5
83F
330
83E
100
AcDbEntity
  8
TEXT
 62
     7
100
AcDbVertex
100
AcDb2dVertex
 10
61.96077219649256
 20
-137.9239719753325
 30
0.0
  0
VERTEX
  5
840
330
83E
100
AcDbEntity
  8
TEXT
 62
     7
100
AcDbVertex
100
AcDb2dVertex
 10
61.96077219649256
 20
-138.9781718892688
 30
0.0
  0
SEQEND
  5
841
330
83E
100
AcDbEntity
  8
TEXT
  0
POLYLINE
  5
842
330
1F
100
AcDbEntity
  8
TEXT
 62
     7
100
AcDb2dPolyline
 66
     1
 10
0.0
 20
0.0
 30
0.0
  0
VERTEX
  5
843
330
842
100
AcDbEntity
  8
TEXT
 62
     7
100
AcDbVertex
100
AcDb2dVertex
 10
61.93769004151422
 20
-137.9239719753325
 30
0.0
  0
VERTEX
  5
844
330
842
100
AcDbEntity
  8
TEXT
 62
     7
100
AcDbVertex
100
AcDb2dVertex
 10
61.93769004151422
 20
-139.15180481627
 30
0.0
  0
SEQEND
  5
845
330
842
100
AcDbEntity
  8
TEXT
  0
POLYLINE
  5
846
330
1F
100
AcDbEntity
  8
TEXT
 62
     7
100
AcDb2dPolyline
 66
     1
 10
0.0
 20
0.0
 30
0.0
  0
VERTEX
  5
847
330
846
100
AcDbEntity
  8
TEXT
 62
     7
100
AcDbVertex
100
AcDb2dVertex
 10
61.91495239631167
 20
-137.9239719753325
 30
0.0
  0
VERTEX
  5
848
330
846
100
AcDbEntity
  8
TEXT
 62
     7
100
AcDbVertex
100
AcDb2dVertex
 10
61.91495239631167
 20
-139.3254377432713
 30
0.0
  0
SEQEND
  5
849
330
846
100
AcDbEntity
  8
TEXT
  0
POLYLINE
  5
84A
330
1F
100
AcDbEntity
  8
TEXT
 62
     7
100
AcDb2dPolyline
 66
     1
 10
0.0
 20
0.0
 30
0.0
  0
VERTEX
  5
84B
330
84A
100
AcDbEntity
  8
TEXT
 62
     7
100
AcDbVertex
100
AcDb2dVertex
 10
61.89221475110912
 20
-137.9239719753325
 30
0.0
  0
VERTEX
  5
84C
330
84A
100
AcDbEntity
  8
TEXT
 62
     7
100
AcDbVertex
100
AcDb2dVertex
 10
61.89221475110912
 20
-139.4990706702726
 30
0.0
  0
SEQEND
  5
84D
330
84A
100
AcDbEntity
  8
TEXT
  0
POLYLINE
  5
84E
330
1F
100
AcDbEntity
  8
TEXT
 62
     7
100
AcDb2dPolyline
 66
     1
 10
0.0
 20
0.0
 30
0.0
  0
VERTEX
  5
84F
330
84E
100
AcDbEntity
  8
TEXT
 62
     7
100
AcDbVertex
100
AcDb2dVertex
 10
61.68654241495881
 20
-137.9239719753325
 30
0.0
  0
VERTEX
  5
850
330
84E
100
AcDbEntity
  8
TEXT
 62
     7
100
AcDbVertex
100
AcDb2dVertex
 10
61.68654241495881
 20
-137.9363743272612
 30
0.0
  0
SEQEND
  5
851
330
84E
100
AcDbEntity
  8
TEXT
  0
POLYLINE
  5
852
330
1F
100
AcDbEntity
  8
TEXT
 62
     7
100
AcDb2dPolyline
 66
     1
 10
0.0
 20
0.0
 30
0.0
  0
VERTEX
  5
853
330
852
100
AcDbEntity
  8
TEXT
 62
     7
100
AcDbVertex
100
AcDb2dVertex
 10
61.68654241495881
 20
-137.9239719753325
 30
0.0
  0
VERTEX
  5
854
330
852
100
AcDbEntity
  8
TEXT
 62
     7
100
AcDbVertex
100
AcDb2dVertex
 10
61.68654241495881
 20
-137.9363743272612
 30
0.0
  0
SEQEND
  5
855
330
852
100
AcDbEntity
  8
TEXT
  0
POLYLINE
  5
856
330
1F
100
AcDbEntity
  8
TEXT
 62
     7
100
AcDb2dPolyline
 66
     1
 10
0.0
 20
0.0
 30
0.0
  0
VERTEX
  5
857
330
856
100
AcDbEntity
  8
TEXT
 62
     7
100
AcDbVertex
100
AcDb2dVertex
 10
61.70928006016135
 20
-137.9239719753325
 30
0.0
  0
VERTEX
  5
858
330
856
100
AcDbEntity
  8
TEXT
 62
     7
100
AcDbVertex
100
AcDb2dVertex
 10
61.70928006016135
 20
-138.1100072542624
 30
0.0
  0
SEQEND
  5
859
330
856
100
AcDbEntity
  8
TEXT
  0
POLYLINE
  5
85A
330
1F
100
AcDbEntity
  8
TEXT
 62
     7
100
AcDb2dPolyline
 66
     1
 10
0.0
 20
0.0
 30
0.0
  0
VERTEX
  5
85B
330
85A
100
AcDbEntity
  8
TEXT
 62
     7
100
AcDbVertex
100
AcDb2dVertex
 10
61.7320177053639
 20
-137.9239719753325
 30
0.0
  0
VERTEX
  5
85C
330
85A
100
AcDbEntity
  8
TEXT
 62
     7
100
AcDbVertex
100
AcDb2dVertex
 10
61.7320177053639
 20
-138.2836401812637
 30
0.0
  0
SEQEND
  5
85D
330
85A
100
AcDbEntity
  8
TEXT
  0
POLYLINE
  5
85E
330
1F
100
AcDbEntity
  8
TEXT
 62
     7
100
AcDb2dPolyline
 66
     1
 10
0.0
 20
0.0
 30
0.0
  0
VERTEX
  5
85F
330
85E
100
AcDbEntity
  8
TEXT
 62
     7
100
AcDbVertex
100
AcDb2dVertex
 10
61.75509986034225
 20
-137.9239719753325
 30
0.0
  0
VERTEX
  5
860
330
85E
100
AcDbEntity
  8
TEXT
 62
     7
100
AcDbVertex
100
AcDb2dVertex
 10
61.75509986034225
 20
-138.457273108265
 30
0.0
  0
SEQEND
  5
861
330
85E
100
AcDbEntity
  8
TEXT
  0
POLYLINE
  5
862
330
1F
100
AcDbEntity
  8
TEXT
 62
     7
100
AcDb2dPolyline
 66
     1
 10
0.0
 20
0.0
 30
0.0
  0
VERTEX
  5
863
330
862
100
AcDbEntity
  8
TEXT
 62
     7
100
AcDbVertex
100
AcDb2dVertex
 10
61.7778375055448
 20
-137.9239719753325
 30
0.0
  0
VERTEX
  5
864
330
862
100
AcDbEntity
  8
TEXT
 62
     7
100
AcDbVertex
100
AcDb2dVertex
 10
61.7778375055448
 20
-138.6309060352662
 30
0.0
  0
SEQEND
  5
865
330
862
100
AcDbEntity
  8
TEXT
  0
POLYLINE
  5
866
330
1F
100
AcDbEntity
  8
TEXT
 62
     7
100
AcDb2dPolyline
 66
     1
 10
0.0
 20
0.0
 30
0.0
  0
VERTEX
  5
867
330
866
100
AcDbEntity
  8
TEXT
 62
     7
100
AcDbVertex
100
AcDb2dVertex
 10
61.80057515074734
 20
-137.9239719753325
 30
0.0
  0
VERTEX
  5
868
330
866
100
AcDbEntity
  8
TEXT
 62
     7
100
AcDbVertex
100
AcDb2dVertex
 10
61.80057515074734
 20
-138.8045389622675
 30
0.0
  0
SEQEND
  5
869
330
866
100
AcDbEntity
  8
TEXT
  0
POLYLINE
  5
86A
330
1F
100
AcDbEntity
  8
TEXT
 62
     7
100
AcDb2dPolyline
 66
     1
 10
0.0
 20
0.0
 30
0.0
  0
VERTEX
  5
86B
330
86A
100
AcDbEntity
  8
TEXT
 62
     7
100
AcDbVertex
100
AcDb2dVertex
 10
61.82365730572568
 20
-137.9239719753325
 30
0.0
  0
VERTEX
  5
86C
330
86A
100
AcDbEntity
  8
TEXT
 62
     7
100
AcDbVertex
100
AcDb2dVertex
 10
61.82365730572568
 20
-138.9781718892688
 30
0.0
  0
SEQEND
  5
86D
330
86A
100
AcDbEntity
  8
TEXT
  0
POLYLINE
  5
86E
330
1F
100
AcDbEntity
  8
TEXT
 62
     7
100
AcDb2dPolyline
 66
     1
 10
0.0
 20
0.0
 30
0.0
  0
VERTEX
  5
86F
330
86E
100
AcDbEntity
  8
TEXT
 62
     7
100
AcDbVertex
100
AcDb2dVertex
 10
61.84605044115244
 20
-137.9239719753325
 30
0.0
  0
VERTEX
  5
870
330
86E
100
AcDbEntity
  8
TEXT
 62
     7
100
AcDbVertex
100
AcDb2dVertex
 10
61.84605044115244
 20
-139.15180481627
 30
0.0
  0
SEQEND
  5
871
330
86E
100
AcDbEntity
  8
TEXT
  0
POLYLINE
  5
872
330
1F
100
AcDbEntity
  8
TEXT
 62
     7
100
AcDb2dPolyline
 66
     1
 10
0.0
 20
0.0
 30
0.0
  0
VERTEX
  5
873
330
872
100
AcDbEntity
  8
TEXT
 62
     7
100
AcDbVertex
100
AcDb2dVertex
 10
61.86913259613078
 20
-137.9239719753325
 30
0.0
  0
VERTEX
  5
874
330
872
100
AcDbEntity
  8
TEXT
 62
     7
100
AcDbVertex
100
AcDb2dVertex
 10
61.86913259613078
 20
-139.3254377432713
 30
0.0
  0
SEQEND
  5
875
330
872
100
AcDbEntity
  8
TEXT
  0
POLYLINE
  5
876
330
1F
100
AcDbEntity
  8
TEXT
 62
     7
100
AcDb2dPolyline
 66
     1
 10
0.0
 20
0.0
 30
0.0
  0
VERTEX
  5
877
330
876
100
AcDbEntity
  8
TEXT
 62
     7
100
AcDbVertex
100
AcDb2dVertex
 10
61.89221475110912
 20
-137.9239719753325
 30
0.0
  0
VERTEX
  5
878
330
876
100
AcDbEntity
  8
TEXT
 62
     7
100
AcDbVertex
100
AcDb2dVertex
 10
61.89221475110912
 20
-139.4990706702726
 30
0.0
  0
SEQEND
  5
879
330
876
100
AcDbEntity
  8
TEXT
  0
MTEXT
  5
87A
330
1F
100
AcDbEntity
  8
TEXT
 62
     7
100
AcDbMText
 10
61.14600657673462
 20
-110.2810243301116
 30
0.0
 40
2.398890470823883
 41
0.0
 71
     7
 72
     1
  1
\fINDEX Univers 45 Light|b0|i0|c0|p34;\W1;130
 11
-4.371139000186241E-8
 21
0.999999999999999
 31
0.0
  0
POLYLINE
  5
87B
330
1F
100
AcDbEntity
  8
TEXT
 62
     7
100
AcDb2dPolyline
 66
     1
 10
0.0
 20
0.0
 30
0.0
  0
VERTEX
  5
87C
330
87B
100
AcDbEntity
  8
TEXT
 62
     7
100
AcDbVertex
100
AcDb2dVertex
 10
55.70240760937936
 20
-139.5345551771796
 30
0.0
  0
VERTEX
  5
87D
330
87B
100
AcDbEntity
  8
TEXT
 62
     7
100
AcDbVertex
100
AcDb2dVertex
 10
63.03392014809763
 20
-139.5345551771796
 30
0.0
  0
SEQEND
  5
87E
330
87B
100
AcDbEntity
  8
TEXT
  0
POLYLINE
  5
87F
330
1F
100
AcDbEntity
  8
TEXT
 62
     7
100
AcDb2dPolyline
 66
     1
 10
0.0
 20
0.0
 30
0.0
  0
VERTEX
  5
880
330
87F
100
AcDbEntity
  8
TEXT
 62
     7
100
AcDbVertex
100
AcDb2dVertex
 10
-16.09308515676643
 20
-139.5345551771796
 30
0.0
  0
VERTEX
  5
881
330
87F
100
AcDbEntity
  8
TEXT
 62
     7
100
AcDbVertex
100
AcDb2dVertex
 10
-9.7926903770061
 20
-139.5345551771796
 30
0.0
  0
SEQEND
  5
882
330
87F
100
AcDbEntity
  8
TEXT
  0
POLYLINE
  5
883
330
1F
100
AcDbEntity
  8
TEXT
 62
     7
100
AcDb2dPolyline
 66
     1
 10
0.0
 20
0.0
 30
0.0
  0
VERTEX
  5
884
330
883
100
AcDbEntity
  8
TEXT
 62
     7
100
AcDbVertex
100
AcDb2dVertex
 10
2.706124288878906
 20
-134.2222144344027
 30
0.0
  0
VERTEX
  5
885
330
883
100
AcDbEntity
  8
TEXT
 62
     7
100
AcDbVertex
100
AcDb2dVertex
 10
2.706124288878906
 20
-118.5856047305662
 30
0.0
  0
SEQEND
  5
886
330
883
100
AcDbEntity
  8
TEXT
  0
POLYLINE
  5
887
330
1F
100
AcDbEntity
  8
TEXT
 62
     7
100
AcDb2dPolyline
 66
     1
 10
0.0
 20
0.0
 30
0.0
  0
VERTEX
  5
888
330
887
100
AcDbEntity
  8
TEXT
 62
     7
100
AcDbVertex
100
AcDb2dVertex
 10
8.238606778389581
 20
-133.4098603830753
 30
0.0
  0
VERTEX
  5
889
330
887
100
AcDbEntity
  8
TEXT
 62
     7
100
AcDbVertex
100
AcDb2dVertex
 10
2.706124288878906
 20
-133.4098603830753
 30
0.0
  0
SEQEND
  5
88A
330
887
100
AcDbEntity
  8
TEXT
  0
POLYLINE
  5
88B
330
1F
100
AcDbEntity
  8
TEXT
 62
     7
100
AcDb2dPolyline
 66
     1
 10
0.0
 20
0.0
 30
0.0
  0
VERTEX
  5
88C
330
88B
100
AcDbEntity
  8
TEXT
 62
     7
100
AcDbVertex
100
AcDb2dVertex
 10
9.203406405506753
 20
-133.4098603830753
 30
0.0
  0
VERTEX
  5
88D
330
88B
100
AcDbEntity
  8
TEXT
 62
     7
100
AcDbVertex
100
AcDb2dVertex
 10
7.628479965454567
 20
-133.202465498046
 30
0.0
  0
VERTEX
  5
88E
330
88B
100
AcDbEntity
  8
TEXT
 62
     7
100
AcDbVertex
100
AcDb2dVertex
 10
7.628479965454567
 20
-133.6169107583288
 30
0.0
  0
VERTEX
  5
88F
330
88B
100
AcDbEntity
  8
TEXT
 62
     7
100
AcDbVertex
100
AcDb2dVertex
 10
9.203406405506753
 20
-133.4098603830753
 30
0.0
  0
SEQEND
  5
890
330
88B
100
AcDbEntity
  8
TEXT
  0
POLYLINE
  5
891
330
1F
100
AcDbEntity
  8
TEXT
 62
     7
100
AcDb2dPolyline
 66
     1
 10
0.0
 20
0.0
 30
0.0
  0
VERTEX
  5
892
330
891
100
AcDbEntity
  8
TEXT
 62
     7
100
AcDbVertex
100
AcDb2dVertex
 10
7.628479965454567
 20
-133.204188046925
 30
0.0
  0
VERTEX
  5
893
330
891
100
AcDbEntity
  8
TEXT
 62
     7
100
AcDbVertex
100
AcDb2dVertex
 10
7.640710062495331
 20
-133.204188046925
 30
0.0
  0
SEQEND
  5
894
330
891
100
AcDbEntity
  8
TEXT
  0
POLYLINE
  5
895
330
1F
100
AcDbEntity
  8
TEXT
 62
     7
100
AcDb2dPolyline
 66
     1
 10
0.0
 20
0.0
 30
0.0
  0
VERTEX
  5
896
330
895
100
AcDbEntity
  8
TEXT
 62
     7
100
AcDbVertex
100
AcDb2dVertex
 10
7.628479965454567
 20
-133.204188046925
 30
0.0
  0
VERTEX
  5
897
330
895
100
AcDbEntity
  8
TEXT
 62
     7
100
AcDbVertex
100
AcDb2dVertex
 10
7.640710062495331
 20
-133.204188046925
 30
0.0
  0
SEQEND
  5
898
330
895
100
AcDbEntity
  8
TEXT
  0
POLYLINE
  5
899
330
1F
100
AcDbEntity
  8
TEXT
 62
     7
100
AcDb2dPolyline
 66
     1
 10
0.0
 20
0.0
 30
0.0
  0
VERTEX
  5
89A
330
899
100
AcDbEntity
  8
TEXT
 62
     7
100
AcDbVertex
100
AcDb2dVertex
 10
7.628479965454567
 20
-133.2269256921275
 30
0.0
  0
VERTEX
  5
89B
330
899
100
AcDbEntity
  8
TEXT
 62
     7
100
AcDbVertex
100
AcDb2dVertex
 10
7.8143429894966
 20
-133.2269256921275
 30
0.0
  0
SEQEND
  5
89C
330
899
100
AcDbEntity
  8
TEXT
  0
POLYLINE
  5
89D
330
1F
100
AcDbEntity
  8
TEXT
 62
     7
100
AcDb2dPolyline
 66
     1
 10
0.0
 20
0.0
 30
0.0
  0
VERTEX
  5
89E
330
89D
100
AcDbEntity
  8
TEXT
 62
     7
100
AcDbVertex
100
AcDb2dVertex
 10
7.628479965454567
 20
-133.2496633373301
 30
0.0
  0
VERTEX
  5
89F
330
89D
100
AcDbEntity
  8
TEXT
 62
     7
100
AcDbVertex
100
AcDb2dVertex
 10
7.987975916497869
 20
-133.2496633373301
 30
0.0
  0
SEQEND
  5
8A0
330
89D
100
AcDbEntity
  8
TEXT
  0
POLYLINE
  5
8A1
330
1F
100
AcDbEntity
  8
TEXT
 62
     7
100
AcDb2dPolyline
 66
     1
 10
0.0
 20
0.0
 30
0.0
  0
VERTEX
  5
8A2
330
8A1
100
AcDbEntity
  8
TEXT
 62
     7
100
AcDbVertex
100
AcDb2dVertex
 10
7.628479965454567
 20
-133.2727454923084
 30
0.0
  0
VERTEX
  5
8A3
330
8A1
100
AcDbEntity
  8
TEXT
 62
     7
100
AcDbVertex
100
AcDb2dVertex
 10
8.161608843499138
 20
-133.2727454923084
 30
0.0
  0
SEQEND
  5
8A4
330
8A1
100
AcDbEntity
  8
TEXT
  0
POLYLINE
  5
8A5
330
1F
100
AcDbEntity
  8
TEXT
 62
     7
100
AcDb2dPolyline
 66
     1
 10
0.0
 20
0.0
 30
0.0
  0
VERTEX
  5
8A6
330
8A5
100
AcDbEntity
  8
TEXT
 62
     7
100
AcDbVertex
100
AcDb2dVertex
 10
7.628479965454567
 20
-133.295483137511
 30
0.0
  0
VERTEX
  5
8A7
330
8A5
100
AcDbEntity
  8
TEXT
 62
     7
100
AcDbVertex
100
AcDb2dVertex
 10
8.335241770500406
 20
-133.295483137511
 30
0.0
  0
SEQEND
  5
8A8
330
8A5
100
AcDbEntity
  8
TEXT
  0
POLYLINE
  5
8A9
330
1F
100
AcDbEntity
  8
TEXT
 62
     7
100
AcDb2dPolyline
 66
     1
 10
0.0
 20
0.0
 30
0.0
  0
VERTEX
  5
8AA
330
8A9
100
AcDbEntity
  8
TEXT
 62
     7
100
AcDbVertex
100
AcDb2dVertex
 10
7.628479965454567
 20
-133.3185652924893
 30
0.0
  0
VERTEX
  5
8AB
330
8A9
100
AcDbEntity
  8
TEXT
 62
     7
100
AcDbVertex
100
AcDb2dVertex
 10
8.508874697501676
 20
-133.3185652924893
 30
0.0
  0
SEQEND
  5
8AC
330
8A9
100
AcDbEntity
  8
TEXT
  0
POLYLINE
  5
8AD
330
1F
100
AcDbEntity
  8
TEXT
 62
     7
100
AcDb2dPolyline
 66
     1
 10
0.0
 20
0.0
 30
0.0
  0
VERTEX
  5
8AE
330
8AD
100
AcDbEntity
  8
TEXT
 62
     7
100
AcDbVertex
100
AcDb2dVertex
 10
7.628479965454567
 20
-133.3413029376919
 30
0.0
  0
VERTEX
  5
8AF
330
8AD
100
AcDbEntity
  8
TEXT
 62
     7
100
AcDbVertex
100
AcDb2dVertex
 10
8.682507624502945
 20
-133.3413029376919
 30
0.0
  0
SEQEND
  5
8B0
330
8AD
100
AcDbEntity
  8
TEXT
  0
POLYLINE
  5
8B1
330
1F
100
AcDbEntity
  8
TEXT
 62
     7
100
AcDb2dPolyline
 66
     1
 10
0.0
 20
0.0
 30
0.0
  0
VERTEX
  5
8B2
330
8B1
100
AcDbEntity
  8
TEXT
 62
     7
100
AcDbVertex
100
AcDb2dVertex
 10
7.628479965454567
 20
-133.3643850926702
 30
0.0
  0
VERTEX
  5
8B3
330
8B1
100
AcDbEntity
  8
TEXT
 62
     7
100
AcDbVertex
100
AcDb2dVertex
 10
8.856140551504215
 20
-133.3643850926702
 30
0.0
  0
SEQEND
  5
8B4
330
8B1
100
AcDbEntity
  8
TEXT
  0
POLYLINE
  5
8B5
330
1F
100
AcDbEntity
  8
TEXT
 62
     7
100
AcDb2dPolyline
 66
     1
 10
0.0
 20
0.0
 30
0.0
  0
VERTEX
  5
8B6
330
8B5
100
AcDbEntity
  8
TEXT
 62
     7
100
AcDbVertex
100
AcDb2dVertex
 10
7.628479965454567
 20
-133.3871227378727
 30
0.0
  0
VERTEX
  5
8B7
330
8B5
100
AcDbEntity
  8
TEXT
 62
     7
100
AcDbVertex
100
AcDb2dVertex
 10
9.029773478505483
 20
-133.3871227378727
 30
0.0
  0
SEQEND
  5
8B8
330
8B5
100
AcDbEntity
  8
TEXT
  0
POLYLINE
  5
8B9
330
1F
100
AcDbEntity
  8
TEXT
 62
     7
100
AcDb2dPolyline
 66
     1
 10
0.0
 20
0.0
 30
0.0
  0
VERTEX
  5
8BA
330
8B9
100
AcDbEntity
  8
TEXT
 62
     7
100
AcDbVertex
100
AcDb2dVertex
 10
7.628479965454567
 20
-133.4098603830753
 30
0.0
  0
VERTEX
  5
8BB
330
8B9
100
AcDbEntity
  8
TEXT
 62
     7
100
AcDbVertex
100
AcDb2dVertex
 10
9.203406405506753
 20
-133.4098603830753
 30
0.0
  0
SEQEND
  5
8BC
330
8B9
100
AcDbEntity
  8
TEXT
  0
POLYLINE
  5
8BD
330
1F
100
AcDbEntity
  8
TEXT
 62
     7
100
AcDb2dPolyline
 66
     1
 10
0.0
 20
0.0
 30
0.0
  0
VERTEX
  5
8BE
330
8BD
100
AcDbEntity
  8
TEXT
 62
     7
100
AcDbVertex
100
AcDb2dVertex
 10
7.628479965454567
 20
-133.6155327192256
 30
0.0
  0
VERTEX
  5
8BF
330
8BD
100
AcDbEntity
  8
TEXT
 62
     7
100
AcDbVertex
100
AcDb2dVertex
 10
7.640710062495331
 20
-133.6155327192256
 30
0.0
  0
SEQEND
  5
8C0
330
8BD
100
AcDbEntity
  8
TEXT
  0
POLYLINE
  5
8C1
330
1F
100
AcDbEntity
  8
TEXT
 62
     7
100
AcDb2dPolyline
 66
     1
 10
0.0
 20
0.0
 30
0.0
  0
VERTEX
  5
8C2
330
8C1
100
AcDbEntity
  8
TEXT
 62
     7
100
AcDbVertex
100
AcDb2dVertex
 10
7.628479965454567
 20
-133.6155327192256
 30
0.0
  0
VERTEX
  5
8C3
330
8C1
100
AcDbEntity
  8
TEXT
 62
     7
100
AcDbVertex
100
AcDb2dVertex
 10
7.640710062495331
 20
-133.6155327192256
 30
0.0
  0
SEQEND
  5
8C4
330
8C1
100
AcDbEntity
  8
TEXT
  0
POLYLINE
  5
8C5
330
1F
100
AcDbEntity
  8
TEXT
 62
     7
100
AcDb2dPolyline
 66
     1
 10
0.0
 20
0.0
 30
0.0
  0
VERTEX
  5
8C6
330
8C5
100
AcDbEntity
  8
TEXT
 62
     7
100
AcDbVertex
100
AcDb2dVertex
 10
7.628479965454567
 20
-133.5924505642473
 30
0.0
  0
VERTEX
  5
8C7
330
8C5
100
AcDbEntity
  8
TEXT
 62
     7
100
AcDbVertex
100
AcDb2dVertex
 10
7.8143429894966
 20
-133.5924505642473
 30
0.0
  0
SEQEND
  5
8C8
330
8C5
100
AcDbEntity
  8
TEXT
  0
POLYLINE
  5
8C9
330
1F
100
AcDbEntity
  8
TEXT
 62
     7
100
AcDb2dPolyline
 66
     1
 10
0.0
 20
0.0
 30
0.0
  0
VERTEX
  5
8CA
330
8C9
100
AcDbEntity
  8
TEXT
 62
     7
100
AcDbVertex
100
AcDb2dVertex
 10
7.628479965454567
 20
-133.5697129190447
 30
0.0
  0
VERTEX
  5
8CB
330
8C9
100
AcDbEntity
  8
TEXT
 62
     7
100
AcDbVertex
100
AcDb2dVertex
 10
7.987975916497869
 20
-133.5697129190447
 30
0.0
  0
SEQEND
  5
8CC
330
8C9
100
AcDbEntity
  8
TEXT
  0
POLYLINE
  5
8CD
330
1F
100
AcDbEntity
  8
TEXT
 62
     7
100
AcDb2dPolyline
 66
     1
 10
0.0
 20
0.0
 30
0.0
  0
VERTEX
  5
8CE
330
8CD
100
AcDbEntity
  8
TEXT
 62
     7
100
AcDbVertex
100
AcDb2dVertex
 10
7.628479965454567
 20
-133.5469752738422
 30
0.0
  0
VERTEX
  5
8CF
330
8CD
100
AcDbEntity
  8
TEXT
 62
     7
100
AcDbVertex
100
AcDb2dVertex
 10
8.161608843499138
 20
-133.5469752738422
 30
0.0
  0
SEQEND
  5
8D0
330
8CD
100
AcDbEntity
  8
TEXT
  0
POLYLINE
  5
8D1
330
1F
100
AcDbEntity
  8
TEXT
 62
     7
100
AcDb2dPolyline
 66
     1
 10
0.0
 20
0.0
 30
0.0
  0
VERTEX
  5
8D2
330
8D1
100
AcDbEntity
  8
TEXT
 62
     7
100
AcDbVertex
100
AcDb2dVertex
 10
7.628479965454567
 20
-133.5242376286396
 30
0.0
  0
VERTEX
  5
8D3
330
8D1
100
AcDbEntity
  8
TEXT
 62
     7
100
AcDbVertex
100
AcDb2dVertex
 10
8.335241770500406
 20
-133.5242376286396
 30
0.0
  0
SEQEND
  5
8D4
330
8D1
100
AcDbEntity
  8
TEXT
  0
POLYLINE
  5
8D5
330
1F
100
AcDbEntity
  8
TEXT
 62
     7
100
AcDb2dPolyline
 66
     1
 10
0.0
 20
0.0
 30
0.0
  0
VERTEX
  5
8D6
330
8D5
100
AcDbEntity
  8
TEXT
 62
     7
100
AcDbVertex
100
AcDb2dVertex
 10
7.628479965454567
 20
-133.5014999834371
 30
0.0
  0
VERTEX
  5
8D7
330
8D5
100
AcDbEntity
  8
TEXT
 62
     7
100
AcDbVertex
100
AcDb2dVertex
 10
8.508874697501676
 20
-133.5014999834371
 30
0.0
  0
SEQEND
  5
8D8
330
8D5
100
AcDbEntity
  8
TEXT
  0
POLYLINE
  5
8D9
330
1F
100
AcDbEntity
  8
TEXT
 62
     7
100
AcDb2dPolyline
 66
     1
 10
0.0
 20
0.0
 30
0.0
  0
VERTEX
  5
8DA
330
8D9
100
AcDbEntity
  8
TEXT
 62
     7
100
AcDbVertex
100
AcDb2dVertex
 10
7.628479965454567
 20
-133.4784178284587
 30
0.0
  0
VERTEX
  5
8DB
330
8D9
100
AcDbEntity
  8
TEXT
 62
     7
100
AcDbVertex
100
AcDb2dVertex
 10
8.682507624502945
 20
-133.4784178284587
 30
0.0
  0
SEQEND
  5
8DC
330
8D9
100
AcDbEntity
  8
TEXT
  0
POLYLINE
  5
8DD
330
1F
100
AcDbEntity
  8
TEXT
 62
     7
100
AcDb2dPolyline
 66
     1
 10
0.0
 20
0.0
 30
0.0
  0
VERTEX
  5
8DE
330
8DD
100
AcDbEntity
  8
TEXT
 62
     7
100
AcDbVertex
100
AcDb2dVertex
 10
7.628479965454567
 20
-133.4556801832562
 30
0.0
  0
VERTEX
  5
8DF
330
8DD
100
AcDbEntity
  8
TEXT
 62
     7
100
AcDbVertex
100
AcDb2dVertex
 10
8.856140551504215
 20
-133.4556801832562
 30
0.0
  0
SEQEND
  5
8E0
330
8DD
100
AcDbEntity
  8
TEXT
  0
POLYLINE
  5
8E1
330
1F
100
AcDbEntity
  8
TEXT
 62
     7
100
AcDb2dPolyline
 66
     1
 10
0.0
 20
0.0
 30
0.0
  0
VERTEX
  5
8E2
330
8E1
100
AcDbEntity
  8
TEXT
 62
     7
100
AcDbVertex
100
AcDb2dVertex
 10
7.628479965454567
 20
-133.4325980282779
 30
0.0
  0
VERTEX
  5
8E3
330
8E1
100
AcDbEntity
  8
TEXT
 62
     7
100
AcDbVertex
100
AcDb2dVertex
 10
9.029773478505483
 20
-133.4325980282779
 30
0.0
  0
SEQEND
  5
8E4
330
8E1
100
AcDbEntity
  8
TEXT
  0
POLYLINE
  5
8E5
330
1F
100
AcDbEntity
  8
TEXT
 62
     7
100
AcDb2dPolyline
 66
     1
 10
0.0
 20
0.0
 30
0.0
  0
VERTEX
  5
8E6
330
8E5
100
AcDbEntity
  8
TEXT
 62
     7
100
AcDbVertex
100
AcDb2dVertex
 10
7.628479965454567
 20
-133.4098603830753
 30
0.0
  0
VERTEX
  5
8E7
330
8E5
100
AcDbEntity
  8
TEXT
 62
     7
100
AcDbVertex
100
AcDb2dVertex
 10
9.203406405506753
 20
-133.4098603830753
 30
0.0
  0
SEQEND
  5
8E8
330
8E5
100
AcDbEntity
  8
TEXT
  0
POLYLINE
  5
8E9
330
1F
100
AcDbEntity
  8
TEXT
 62
     7
100
AcDb2dPolyline
 66
     1
 10
0.0
 20
0.0
 30
0.0
  0
VERTEX
  5
8EA
330
8E9
100
AcDbEntity
  8
TEXT
 62
     7
100
AcDbVertex
100
AcDb2dVertex
 10
2.706124288878906
 20
-133.4098603830753
 30
0.0
  0
VERTEX
  5
8EB
330
8E9
100
AcDbEntity
  8
TEXT
 62
     7
100
AcDbVertex
100
AcDb2dVertex
 10
4.281050728931092
 20
-133.6169107583288
 30
0.0
  0
VERTEX
  5
8EC
330
8E9
100
AcDbEntity
  8
TEXT
 62
     7
100
AcDbVertex
100
AcDb2dVertex
 10
4.281050728931092
 20
-133.202465498046
 30
0.0
  0
VERTEX
  5
8ED
330
8E9
100
AcDbEntity
  8
TEXT
 62
     7
100
AcDbVertex
100
AcDb2dVertex
 10
2.706124288878906
 20
-133.4098603830753
 30
0.0
  0
SEQEND
  5
8EE
330
8E9
100
AcDbEntity
  8
TEXT
  0
POLYLINE
  5
8EF
330
1F
100
AcDbEntity
  8
TEXT
 62
     7
100
AcDb2dPolyline
 66
     1
 10
0.0
 20
0.0
 30
0.0
  0
VERTEX
  5
8F0
330
8EF
100
AcDbEntity
  8
TEXT
 62
     7
100
AcDbVertex
100
AcDb2dVertex
 10
4.281050728931092
 20
-133.6155327192256
 30
0.0
  0
VERTEX
  5
8F1
330
8EF
100
AcDbEntity
  8
TEXT
 62
     7
100
AcDbVertex
100
AcDb2dVertex
 10
4.268820631890328
 20
-133.6155327192256
 30
0.0
  0
SEQEND
  5
8F2
330
8EF
100
AcDbEntity
  8
TEXT
  0
POLYLINE
  5
8F3
330
1F
100
AcDbEntity
  8
TEXT
 62
     7
100
AcDb2dPolyline
 66
     1
 10
0.0
 20
0.0
 30
0.0
  0
VERTEX
  5
8F4
330
8F3
100
AcDbEntity
  8
TEXT
 62
     7
100
AcDbVertex
100
AcDb2dVertex
 10
4.281050728931092
 20
-133.6155327192256
 30
0.0
  0
VERTEX
  5
8F5
330
8F3
100
AcDbEntity
  8
TEXT
 62
     7
100
AcDbVertex
100
AcDb2dVertex
 10
4.268820631890328
 20
-133.6155327192256
 30
0.0
  0
SEQEND
  5
8F6
330
8F3
100
AcDbEntity
  8
TEXT
  0
POLYLINE
  5
8F7
330
1F
100
AcDbEntity
  8
TEXT
 62
     7
100
AcDb2dPolyline
 66
     1
 10
0.0
 20
0.0
 30
0.0
  0
VERTEX
  5
8F8
330
8F7
100
AcDbEntity
  8
TEXT
 62
     7
100
AcDbVertex
100
AcDb2dVertex
 10
4.281050728931092
 20
-133.5924505642473
 30
0.0
  0
VERTEX
  5
8F9
330
8F7
100
AcDbEntity
  8
TEXT
 62
     7
100
AcDbVertex
100
AcDb2dVertex
 10
4.095187704889059
 20
-133.5924505642473
 30
0.0
  0
SEQEND
  5
8FA
330
8F7
100
AcDbEntity
  8
TEXT
  0
POLYLINE
  5
8FB
330
1F
100
AcDbEntity
  8
TEXT
 62
     7
100
AcDb2dPolyline
 66
     1
 10
0.0
 20
0.0
 30
0.0
  0
VERTEX
  5
8FC
330
8FB
100
AcDbEntity
  8
TEXT
 62
     7
100
AcDbVertex
100
AcDb2dVertex
 10
4.281050728931092
 20
-133.5697129190447
 30
0.0
  0
VERTEX
  5
8FD
330
8FB
100
AcDbEntity
  8
TEXT
 62
     7
100
AcDbVertex
100
AcDb2dVertex
 10
3.921727032775688
 20
-133.5697129190447
 30
0.0
  0
SEQEND
  5
8FE
330
8FB
100
AcDbEntity
  8
TEXT
  0
POLYLINE
  5
8FF
330
1F
100
AcDbEntity
  8
TEXT
 62
     7
100
AcDb2dPolyline
 66
     1
 10
0.0
 20
0.0
 30
0.0
  0
VERTEX
  5
900
330
8FF
100
AcDbEntity
  8
TEXT
 62
     7
100
AcDbVertex
100
AcDb2dVertex
 10
4.281050728931092
 20
-133.5469752738422
 30
0.0
  0
VERTEX
  5
901
330
8FF
100
AcDbEntity
  8
TEXT
 62
     7
100
AcDbVertex
100
AcDb2dVertex
 10
3.748094105774419
 20
-133.5469752738422
 30
0.0
  0
SEQEND
  5
902
330
8FF
100
AcDbEntity
  8
TEXT
  0
POLYLINE
  5
903
330
1F
100
AcDbEntity
  8
TEXT
 62
     7
100
AcDb2dPolyline
 66
     1
 10
0.0
 20
0.0
 30
0.0
  0
VERTEX
  5
904
330
903
100
AcDbEntity
  8
TEXT
 62
     7
100
AcDbVertex
100
AcDb2dVertex
 10
4.281050728931092
 20
-133.5242376286396
 30
0.0
  0
VERTEX
  5
905
330
903
100
AcDbEntity
  8
TEXT
 62
     7
100
AcDbVertex
100
AcDb2dVertex
 10
3.574288923885252
 20
-133.5242376286396
 30
0.0
  0
SEQEND
  5
906
330
903
100
AcDbEntity
  8
TEXT
  0
POLYLINE
  5
907
330
1F
100
AcDbEntity
  8
TEXT
 62
     7
100
AcDb2dPolyline
 66
     1
 10
0.0
 20
0.0
 30
0.0
  0
VERTEX
  5
908
330
907
100
AcDbEntity
  8
TEXT
 62
     7
100
AcDbVertex
100
AcDb2dVertex
 10
4.281050728931092
 20
-133.5014999834371
 30
0.0
  0
VERTEX
  5
909
330
907
100
AcDbEntity
  8
TEXT
 62
     7
100
AcDbVertex
100
AcDb2dVertex
 10
3.400655996883983
 20
-133.5014999834371
 30
0.0
  0
SEQEND
  5
90A
330
907
100
AcDbEntity
  8
TEXT
  0
POLYLINE
  5
90B
330
1F
100
AcDbEntity
  8
TEXT
 62
     7
100
AcDb2dPolyline
 66
     1
 10
0.0
 20
0.0
 30
0.0
  0
VERTEX
  5
90C
330
90B
100
AcDbEntity
  8
TEXT
 62
     7
100
AcDbVertex
100
AcDb2dVertex
 10
4.281050728931092
 20
-133.4784178284587
 30
0.0
  0
VERTEX
  5
90D
330
90B
100
AcDbEntity
  8
TEXT
 62
     7
100
AcDbVertex
100
AcDb2dVertex
 10
3.227023069882713
 20
-133.4784178284587
 30
0.0
  0
SEQEND
  5
90E
330
90B
100
AcDbEntity
  8
TEXT
  0
POLYLINE
  5
90F
330
1F
100
AcDbEntity
  8
TEXT
 62
     7
100
AcDb2dPolyline
 66
     1
 10
0.0
 20
0.0
 30
0.0
  0
VERTEX
  5
910
330
90F
100
AcDbEntity
  8
TEXT
 62
     7
100
AcDbVertex
100
AcDb2dVertex
 10
4.281050728931092
 20
-133.4556801832562
 30
0.0
  0
VERTEX
  5
911
330
90F
100
AcDbEntity
  8
TEXT
 62
     7
100
AcDbVertex
100
AcDb2dVertex
 10
3.053562397769343
 20
-133.4556801832562
 30
0.0
  0
SEQEND
  5
912
330
90F
100
AcDbEntity
  8
TEXT
  0
POLYLINE
  5
913
330
1F
100
AcDbEntity
  8
TEXT
 62
     7
100
AcDb2dPolyline
 66
     1
 10
0.0
 20
0.0
 30
0.0
  0
VERTEX
  5
914
330
913
100
AcDbEntity
  8
TEXT
 62
     7
100
AcDbVertex
100
AcDb2dVertex
 10
4.281050728931092
 20
-133.4325980282779
 30
0.0
  0
VERTEX
  5
915
330
913
100
AcDbEntity
  8
TEXT
 62
     7
100
AcDbVertex
100
AcDb2dVertex
 10
2.879757215880175
 20
-133.4325980282779
 30
0.0
  0
SEQEND
  5
916
330
913
100
AcDbEntity
  8
TEXT
  0
POLYLINE
  5
917
330
1F
100
AcDbEntity
  8
TEXT
 62
     7
100
AcDb2dPolyline
 66
     1
 10
0.0
 20
0.0
 30
0.0
  0
VERTEX
  5
918
330
917
100
AcDbEntity
  8
TEXT
 62
     7
100
AcDbVertex
100
AcDb2dVertex
 10
4.281050728931092
 20
-133.4098603830753
 30
0.0
  0
VERTEX
  5
919
330
917
100
AcDbEntity
  8
TEXT
 62
     7
100
AcDbVertex
100
AcDb2dVertex
 10
2.706124288878906
 20
-133.4098603830753
 30
0.0
  0
SEQEND
  5
91A
330
917
100
AcDbEntity
  8
TEXT
  0
POLYLINE
  5
91B
330
1F
100
AcDbEntity
  8
TEXT
 62
     7
100
AcDb2dPolyline
 66
     1
 10
0.0
 20
0.0
 30
0.0
  0
VERTEX
  5
91C
330
91B
100
AcDbEntity
  8
TEXT
 62
     7
100
AcDbVertex
100
AcDb2dVertex
 10
4.281050728931092
 20
-133.204188046925
 30
0.0
  0
VERTEX
  5
91D
330
91B
100
AcDbEntity
  8
TEXT
 62
     7
100
AcDbVertex
100
AcDb2dVertex
 10
4.268820631890328
 20
-133.204188046925
 30
0.0
  0
SEQEND
  5
91E
330
91B
100
AcDbEntity
  8
TEXT
  0
POLYLINE
  5
91F
330
1F
100
AcDbEntity
  8
TEXT
 62
     7
100
AcDb2dPolyline
 66
     1
 10
0.0
 20
0.0
 30
0.0
  0
VERTEX
  5
920
330
91F
100
AcDbEntity
  8
TEXT
 62
     7
100
AcDbVertex
100
AcDb2dVertex
 10
4.281050728931092
 20
-133.204188046925
 30
0.0
  0
VERTEX
  5
921
330
91F
100
AcDbEntity
  8
TEXT
 62
     7
100
AcDbVertex
100
AcDb2dVertex
 10
4.268820631890328
 20
-133.204188046925
 30
0.0
  0
SEQEND
  5
922
330
91F
100
AcDbEntity
  8
TEXT
  0
POLYLINE
  5
923
330
1F
100
AcDbEntity
  8
TEXT
 62
     7
100
AcDb2dPolyline
 66
     1
 10
0.0
 20
0.0
 30
0.0
  0
VERTEX
  5
924
330
923
100
AcDbEntity
  8
TEXT
 62
     7
100
AcDbVertex
100
AcDb2dVertex
 10
4.281050728931092
 20
-133.2269256921275
 30
0.0
  0
VERTEX
  5
925
330
923
100
AcDbEntity
  8
TEXT
 62
     7
100
AcDbVertex
100
AcDb2dVertex
 10
4.095187704889059
 20
-133.2269256921275
 30
0.0
  0
SEQEND
  5
926
330
923
100
AcDbEntity
  8
TEXT
  0
POLYLINE
  5
927
330
1F
100
AcDbEntity
  8
TEXT
 62
     7
100
AcDb2dPolyline
 66
     1
 10
0.0
 20
0.0
 30
0.0
  0
VERTEX
  5
928
330
927
100
AcDbEntity
  8
TEXT
 62
     7
100
AcDbVertex
100
AcDb2dVertex
 10
4.281050728931092
 20
-133.2496633373301
 30
0.0
  0
VERTEX
  5
929
330
927
100
AcDbEntity
  8
TEXT
 62
     7
100
AcDbVertex
100
AcDb2dVertex
 10
3.921727032775688
 20
-133.2496633373301
 30
0.0
  0
SEQEND
  5
92A
330
927
100
AcDbEntity
  8
TEXT
  0
POLYLINE
  5
92B
330
1F
100
AcDbEntity
  8
TEXT
 62
     7
100
AcDb2dPolyline
 66
     1
 10
0.0
 20
0.0
 30
0.0
  0
VERTEX
  5
92C
330
92B
100
AcDbEntity
  8
TEXT
 62
     7
100
AcDbVertex
100
AcDb2dVertex
 10
4.281050728931092
 20
-133.2727454923084
 30
0.0
  0
VERTEX
  5
92D
330
92B
100
AcDbEntity
  8
TEXT
 62
     7
100
AcDbVertex
100
AcDb2dVertex
 10
3.748094105774419
 20
-133.2727454923084
 30
0.0
  0
SEQEND
  5
92E
330
92B
100
AcDbEntity
  8
TEXT
  0
POLYLINE
  5
92F
330
1F
100
AcDbEntity
  8
TEXT
 62
     7
100
AcDb2dPolyline
 66
     1
 10
0.0
 20
0.0
 30
0.0
  0
VERTEX
  5
930
330
92F
100
AcDbEntity
  8
TEXT
 62
     7
100
AcDbVertex
100
AcDb2dVertex
 10
4.281050728931092
 20
-133.295483137511
 30
0.0
  0
VERTEX
  5
931
330
92F
100
AcDbEntity
  8
TEXT
 62
     7
100
AcDbVertex
100
AcDb2dVertex
 10
3.574288923885252
 20
-133.295483137511
 30
0.0
  0
SEQEND
  5
932
330
92F
100
AcDbEntity
  8
TEXT
  0
POLYLINE
  5
933
330
1F
100
AcDbEntity
  8
TEXT
 62
     7
100
AcDb2dPolyline
 66
     1
 10
0.0
 20
0.0
 30
0.0
  0
VERTEX
  5
934
330
933
100
AcDbEntity
  8
TEXT
 62
     7
100
AcDbVertex
100
AcDb2dVertex
 10
4.281050728931092
 20
-133.3185652924893
 30
0.0
  0
VERTEX
  5
935
330
933
100
AcDbEntity
  8
TEXT
 62
     7
100
AcDbVertex
100
AcDb2dVertex
 10
3.400655996883983
 20
-133.3185652924893
 30
0.0
  0
SEQEND
  5
936
330
933
100
AcDbEntity
  8
TEXT
  0
POLYLINE
  5
937
330
1F
100
AcDbEntity
  8
TEXT
 62
     7
100
AcDb2dPolyline
 66
     1
 10
0.0
 20
0.0
 30
0.0
  0
VERTEX
  5
938
330
937
100
AcDbEntity
  8
TEXT
 62
     7
100
AcDbVertex
100
AcDb2dVertex
 10
4.281050728931092
 20
-133.3413029376919
 30
0.0
  0
VERTEX
  5
939
330
937
100
AcDbEntity
  8
TEXT
 62
     7
100
AcDbVertex
100
AcDb2dVertex
 10
3.227023069882713
 20
-133.3413029376919
 30
0.0
  0
SEQEND
  5
93A
330
937
100
AcDbEntity
  8
TEXT
  0
POLYLINE
  5
93B
330
1F
100
AcDbEntity
  8
TEXT
 62
     7
100
AcDb2dPolyline
 66
     1
 10
0.0
 20
0.0
 30
0.0
  0
VERTEX
  5
93C
330
93B
100
AcDbEntity
  8
TEXT
 62
     7
100
AcDbVertex
100
AcDb2dVertex
 10
4.281050728931092
 20
-133.3643850926702
 30
0.0
  0
VERTEX
  5
93D
330
93B
100
AcDbEntity
  8
TEXT
 62
     7
100
AcDbVertex
100
AcDb2dVertex
 10
3.053562397769343
 20
-133.3643850926702
 30
0.0
  0
SEQEND
  5
93E
330
93B
100
AcDbEntity
  8
TEXT
  0
POLYLINE
  5
93F
330
1F
100
AcDbEntity
  8
TEXT
 62
     7
100
AcDb2dPolyline
 66
     1
 10
0.0
 20
0.0
 30
0.0
  0
VERTEX
  5
940
330
93F
100
AcDbEntity
  8
TEXT
 62
     7
100
AcDbVertex
100
AcDb2dVertex
 10
4.281050728931092
 20
-133.3871227378727
 30
0.0
  0
VERTEX
  5
941
330
93F
100
AcDbEntity
  8
TEXT
 62
     7
100
AcDbVertex
100
AcDb2dVertex
 10
2.879757215880175
 20
-133.3871227378727
 30
0.0
  0
SEQEND
  5
942
330
93F
100
AcDbEntity
  8
TEXT
  0
POLYLINE
  5
943
330
1F
100
AcDbEntity
  8
TEXT
 62
     7
100
AcDb2dPolyline
 66
     1
 10
0.0
 20
0.0
 30
0.0
  0
VERTEX
  5
944
330
943
100
AcDbEntity
  8
TEXT
 62
     7
100
AcDbVertex
100
AcDb2dVertex
 10
4.281050728931092
 20
-133.4098603830753
 30
0.0
  0
VERTEX
  5
945
330
943
100
AcDbEntity
  8
TEXT
 62
     7
100
AcDbVertex
100
AcDb2dVertex
 10
2.706124288878906
 20
-133.4098603830753
 30
0.0
  0
SEQEND
  5
946
330
943
100
AcDbEntity
  8
TEXT
  0
POLYLINE
  5
947
330
1F
100
AcDbEntity
  8
TEXT
  6
AI-LINETYPE-15
 62
     7
100
AcDb2dPolyline
 66
     1
 10
0.0
 20
0.0
 30
0.0
  0
VERTEX
  5
948
330
947
100
AcDbEntity
  8
TEXT
  6
AI-LINETYPE-15
 62
     7
100
AcDbVertex
100
AcDb2dVertex
 10
9.203406405506753
 20
-126.3642909582679
 30
0.0
  0
VERTEX
  5
949
330
947
100
AcDbEntity
  8
TEXT
  6
AI-LINETYPE-15
 62
     7
100
AcDbVertex
100
AcDb2dVertex
 10
9.203406405506753
 20
-103.6629915370672
 30
0.0
  0
SEQEND
  5
94A
330
947
100
AcDbEntity
  8
TEXT
  6
AI-LINETYPE-15
  0
POLYLINE
  5
94C
330
1F
100
AcDbEntity
  8
TEXT
 62
     7
100
AcDb2dPolyline
 66
     1
 10
0.0
 20
0.0
 30
0.0
  0
VERTEX
  5
94D
330
94C
100
AcDbEntity
  8
TEXT
 62
     7
100
AcDbVertex
100
AcDb2dVertex
 10
9.203406405506753
 20
-134.2222144344027
 30
0.0
  0
VERTEX
  5
94E
330
94C
100
AcDbEntity
  8
TEXT
 62
     7
100
AcDbVertex
100
AcDb2dVertex
 10
9.203406405506753
 20
-126.3642909582679
 30
0.0
  0
SEQEND
  5
94F
330
94C
100
AcDbEntity
  8
TEXT
  0
MTEXT
  5
950
330
1F
100
AcDbEntity
  8
TEXT
 62
     7
100
AcDbMText
 10
2.593297337305661
 20
-132.5255037886065
 30
0.0
 40
2.398890470823883
 41
0.0
 71
     7
 72
     1
  1
\fINDEX Univers 45 Light|b0|i0|c0|p34;\W1;14,5
  0
SPLINE
  5
951
330
1F
100
AcDbEntity
  8
TEXT
 62
     7
100
AcDbSpline
210
0.0
220
0.0
230
1.0
 70
    11
 71
     3
 72
    20
 73
    16
 74
     0
 42
0.0000000001
 43
0.0000000001
 40
0.0
 40
0.0
 40
0.0
 40
0.0
 40
1.0
 40
1.0
 40
1.0
 40
2.0
 40
2.0
 40
2.0
 40
3.0
 40
3.0
 40
3.0
 40
4.0
 40
4.0
 40
4.0
 40
5.0
 40
5.0
 40
5.0
 40
5.0
 10
10.50410306402519
 20
-105.7508930332799
 30
0.0
 10
10.50410306402519
 20
-106.4738467977881
 30
0.0
 10
9.918091935395905
 20
-107.0598579264174
 30
0.0
 10
9.195138170887645
 20
-107.0598579264174
 30
0.0
 10
8.472356661267282
 20
-107.0598579264174
 30
0.0
 10
7.886345532637999
 20
-106.4738467977881
 30
0.0
 10
7.886345532637999
 20
-105.7508930332799
 30
0.0
 10
7.886345532637999
 20
-105.0294895627627
 30
0.0
 10
8.470289602612505
 20
-104.444167453685
 30
0.0
 10
9.19117630846599
 20
-104.4421003950302
 30
0.0
 10
9.192554347569173
 20
-104.4421003950302
 30
0.0
 10
9.19376013178446
 20
-104.4421003950302
 30
0.0
 10
9.195138170887645
 20
-104.4421003950302
 30
0.0
 10
9.918091935395905
 20
-104.4421003950302
 30
0.0
 10
10.50410306402519
 20
-105.0281115236595
 30
0.0
 10
10.50410306402519
 20
-105.7508930332799
 30
0.0
  0
SPLINE
  5
952
330
1F
100
AcDbEntity
  8
TEXT
100
AcDbSpline
210
0.0
220
0.0
230
1.0
 70
     8
 71
     3
 72
    11
 73
     7
 74
     0
 42
0.0000000001
 43
0.0000000001
 40
0.0
 40
0.0
 40
0.0
 40
0.0
 40
1.0
 40
1.0
 40
1.0
 40
2.0
 40
2.0
 40
2.0
 40
2.0
 10
9.195138170887645
 20
-105.7508930332799
 30
0.0
 10
9.195138170887645
 20
-105.7508930332799
 30
0.0
 10
10.50410306402519
 20
-105.7508930332799
 30
0.0
 10
10.50410306402519
 20
-105.7508930332799
 30
0.0
 10
10.50410306402519
 20
-105.7508930332799
 30
0.0
 10
10.55491825595512
 20
-104.5509654841818
 30
0.0
 10
9.19117630846599
 20
-104.4421003950302
 30
0.0
  0
HATCH
  5
953
330
1F
100
AcDbEntity
  8
TEXT
 62
     7
100
AcDbHatch
 10
0.0
 20
0.0
 30
0.0
210
0.0
220
0.0
230
1.0
  2
SOLID
 70
     1
 71
     0
 91
        1
 92
        1
 93
        2
 72
     4
 94
        3
 73
     0
 74
     0
 95
       11
 96
        7
 40
0.0
 40
0.0
 40
0.0
 40
0.0
 40
0.3527780104152769
 40
0.3527780104152769
 40
0.3527780104152769
 40
0.7055560208305538
 40
0.7055560208305538
 40
0.7055560208305538
 40
0.7055560208305538
 10
9.195138170887645
 20
-105.7508930332799
 10
9.195138170887645
 20
-105.7508930332799
 10
10.50410306402519
 20
-105.7508930332799
 10
10.50410306402519
 20
-105.7508930332799
 10
10.50410306402519
 20
-105.7508930332799
 10
10.55491825595512
 20
-104.5509654841818
 10
9.19117630846599
 20
-104.4421003950302
 72
     1
 10
9.19117630846599
 20
-104.4421003950302
 11
9.195138170887645
 21
-105.7508930332799
 97
        0
 75
     0
 76
     1
 98
        0
  0
POLYLINE
  5
954
330
1F
100
AcDbEntity
  8
TEXT
 62
     7
100
AcDb2dPolyline
 66
     1
 10
0.0
 20
0.0
 30
0.0
  0
VERTEX
  5
955
330
954
100
AcDbEntity
  8
TEXT
 62
     7
100
AcDbVertex
100
AcDb2dVertex
 10
12.95305080527226
 20
-80.98339623174172
 30
0.0
  0
VERTEX
  5
956
330
954
100
AcDbEntity
  8
TEXT
 62
     7
100
AcDbVertex
100
AcDb2dVertex
 10
20.55758734130899
 20
-80.98339623174172
 30
0.0
  0
SEQEND
  5
957
330
954
100
AcDbEntity
  8
TEXT
  0
POLYLINE
  5
958
330
1F
100
AcDbEntity
  8
TEXT
  6
AI-LINETYPE-16
 62
     7
100
AcDb2dPolyline
 66
     1
 10
0.0
 20
0.0
 30
0.0
  0
VERTEX
  5
959
330
958
100
AcDbEntity
  8
TEXT
  6
AI-LINETYPE-16
 62
     7
100
AcDbVertex
100
AcDb2dVertex
 10
13.90062494359962
 20
-105.7527878370468
 30
0.0
  0
VERTEX
  5
95A
330
958
100
AcDbEntity
  8
TEXT
  6
AI-LINETYPE-16
 62
     7
100
AcDbVertex
100
AcDb2dVertex
 10
-10.62623177954493
 20
-105.7527878370468
 30
0.0
  0
SEQEND
  5
95B
330
958
100
AcDbEntity
  8
TEXT
  6
AI-LINETYPE-16
  0
POLYLINE
  5
95D
330
1F
100
AcDbEntity
  8
TEXT
 62
     7
100
AcDb2dPolyline
 66
     1
 10
0.0
 20
0.0
 30
0.0
  0
VERTEX
  5
95E
330
95D
100
AcDbEntity
  8
TEXT
 62
     7
100
AcDbVertex
100
AcDb2dVertex
 10
-9.753416262565336
 20
-105.7527878370468
 30
0.0
  0
VERTEX
  5
95F
330
95D
100
AcDbEntity
  8
TEXT
 62
     7
100
AcDbVertex
100
AcDb2dVertex
 10
-15.82522880608491
 20
-105.7527878370468
 30
0.0
  0
SEQEND
  5
960
330
95D
100
AcDbEntity
  8
TEXT
  0
MTEXT
  5
961
330
1F
100
AcDbEntity
  8
TEXT
 62
     7
100
AcDbMText
 10
10.32134062796532
 20
-104.6040199896544
 30
0.0
 40
2.398890470823883
 41
0.0
 71
     7
 72
     1
  1
\fINDEX Univers 45 Light|b0|i0|c0|p34;\W1;T
  0
ENDSEC
  0
SECTION
  2
OBJECTS
  0
DICTIONARY
  5
C
330
0
100
AcDbDictionary
  3
ACAD_GROUP
350
D
  3
ACAD_LAYOUT
350
1A
  3
ACAD_MLINESTYLE
350
17
  3
ACAD_PLOTSETTINGS
350
19
  3
ACAD_TABLESTYLE
350
982
  3
ACAD_VISUALSTYLE
350
2A
  3
ACDBHEADERROUNDTRIPXREC
350
962
  0
DICTIONARY
  5
D
102
{ACAD_REACTORS
330
C
102
}
330
C
100
AcDbDictionary
  0
DICTIONARY
  5
1A
102
{ACAD_REACTORS
330
C
102
}
330
C
100
AcDbDictionary
  0
DICTIONARY
  5
17
102
{ACAD_REACTORS
330
C
102
}
330
C
100
AcDbDictionary
  3
STANDARD
350
18
  0
DICTIONARY
  5
19
102
{ACAD_REACTORS
330
C
102
}
330
C
100
AcDbDictionary
  0
DICTIONARY
  5
982
102
{ACAD_REACTORS
330
C
102
}
330
C
100
AcDbDictionary
  0
DICTIONARY
  5
2A
102
{ACAD_REACTORS
330
C
102
}
330
C
100
AcDbDictionary
  3
2DWIREFRAME
350
2F
  3
3D_HIDDEN
350
31
  3
3DWIREFRAME
350
30
  3
BASIC
350
32
  3
BRIGHTEN
350
36
  3
COLORCHANGE
350
3A
  3
CONCEPTUAL
350
34
  3
DIM
350
35
  3
FACEPATTERN
350
39
  3
FLAT
350
2B
  3
FLATWITHEDGES
350
2C
  3
GOURAUD
350
2D
  3
GOURAUDWITHEDGES
350
2E
  3
LINEPATTERN
350
38
  3
REALISTIC
350
33
  3
THICKEN
350
37
  0
DICTIONARY
  5
962
102
{ACAD_REACTORS
330
C
102
}
330
C
100
AcDbDictionary
  3
CEPSNTYPE
350
96B
  3
DIMSTYLEDATA
350
981
  3
FINGERPRINTGUID
350
96C
  3
HYPERLINKBASE
350
965
  3
INSUNITS
350
96A
  3
LAYOUTDICT
350
967
  3
LWETCUNION
350
969
  3
PLOTSETDICT
350
968
  3
PSVPSCALE
350
96E
  3
PUCSBASE
350
971
  3
PUCSORGBACK
350
977
  3
PUCSORGBOTTOM
350
973
  3
PUCSORGFRONT
350
976
  3
PUCSORGLEFT
350
974
  3
PUCSORGRIGHT
350
975
  3
PUCSORGTOP
350
972
  3
PUCSORTHOREF
350
96F
  3
PUCSORTHOVIEW
350
970
  3
STYLESHEET
350
966
  3
TSTACKALIGN
350
963
  3
TSTACKSIZE
350
964
  3
UCSBASE
350
97A
  3
UCSORGBACK
350
980
  3
UCSORGBOTTOM
350
97C
  3
UCSORGFRONT
350
97F
  3
UCSORGLEFT
350
97D
  3
UCSORGRIGHT
350
97E
  3
UCSORGTOP
350
97B
  3
UCSORTHOREF
350
978
  3
UCSORTHOVIEW
350
979
  3
VERSIONGUID
350
96D
  0
MLINESTYLE
  5
18
102
{ACAD_REACTORS
330
17
102
}
330
17
100
AcDbMlineStyle
  2
Standard
 70
     0
  3

 62
   256
 51
90.0
 52
90.0
 71
     2
 49
0.5
 62
   256
  6
BYLAYER
 49
-0.5
 62
   256
  6
BYLAYER
  0
VISUALSTYLE
  5
2F
102
{ACAD_REACTORS
330
2A
102
}
330
2A
100
AcDbVisualStyle
  2
2dWireframe
 70
     4
 71
     0
 72
     2
 73
     0
 90
        0
 40
-0.6
 41
-30.0
 62
     5
 63
     7
 74
     1
 91
        4
 64
     7
 65
   257
 75
     1
175
     1
 42
1.0
 92
        0
 66
   257
 43
1.0
 76
     1
 77
     6
 78
     2
 67
     7
 79
     5
170
     0
171
     0
290
     0
174
     0
 93
        1
 44
0.0
173
     0
291
     0
 45
0.0
1001
ACAD
1000
AcDbSavedByObjectVersion
1070
     0
  0
VISUALSTYLE
  5
31
102
{ACAD_REACTORS
330
2A
102
}
330
2A
100
AcDbVisualStyle
  2
3D Hidden
 70
     6
 71
     1
 72
     2
 73
     2
 90
        0
 40
-0.6
 41
-30.0
 62
     5
 63
     7
 74
     2
 91
        2
 64
     7
 65
   257
 75
     2
175
     1
 42
40.0
 92
        0
 66
   257
 43
1.0
 76
     1
 77
     6
 78
     2
 67
     7
 79
     3
170
     0
171
     0
290
     0
174
     0
 93
        1
 44
0.0
173
     0
291
     0
 45
0.0
1001
ACAD
1000
AcDbSavedByObjectVersion
1070
     0
  0
VISUALSTYLE
  5
30
102
{ACAD_REACTORS
330
2A
102
}
330
2A
100
AcDbVisualStyle
  2
3dWireframe
 70
     5
 71
     0
 72
     2
 73
     0
 90
        0
 40
-0.6
 41
-30.0
 62
     5
 63
     7
 74
     1
 91
        4
 64
     7
 65
   257
 75
     1
175
     1
 42
1.0
 92
        0
 66
   257
 43
1.0
 76
     1
 77
     6
 78
     2
 67
     7
 79
     5
170
     0
171
     0
290
     0
174
     0
 93
        1
 44
0.0
173
     0
291
     0
 45
0.0
1001
ACAD
1000
AcDbSavedByObjectVersion
1070
     0
  0
VISUALSTYLE
  5
32
102
{ACAD_REACTORS
330
2A
102
}
330
2A
100
AcDbVisualStyle
  2
Basic
 70
     7
 71
     1
 72
     0
 73
     1
 90
        0
 40
-0.6
 41
-30.0
 62
     5
 63
     7
 74
     0
 91
        4
 64
     7
 65
   257
 75
     1
175
     1
 42
1.0
 92
        8
 66
     7
 43
1.0
 76
     1
 77
     6
 78
     2
 67
     7
 79
     5
170
     0
171
     0
290
     0
174
     0
 93
        1
 44
0.0
173
     0
291
     1
 45
0.0
1001
ACAD
1000
AcDbSavedByObjectVersion
1070
     0
  0
VISUALSTYLE
  5
36
102
{ACAD_REACTORS
330
2A
102
}
330
2A
100
AcDbVisualStyle
  2
Brighten
 70
    12
 71
     2
 72
     2
 73
     0
 90
        0
 40
-0.6
 41
-30.0
 62
     5
 63
     7
 74
     1
 91
        4
 64
     7
 65
   257
 75
     1
175
     1
 42
1.0
 92
        8
 66
     7
 43
1.0
 76
     1
 77
     6
 78
     2
 67
     7
 79
     5
170
     0
171
     0
290
     0
174
     0
 93
        1
 44
50.0
173
     0
291
     1
 45
0.0
1001
ACAD
1000
AcDbSavedByObjectVersion
1070
     0
  0
VISUALSTYLE
  5
3A
102
{ACAD_REACTORS
330
2A
102
}
330
2A
100
AcDbVisualStyle
  2
ColorChange
 70
    16
 71
     2
 72
     2
 73
     3
 90
        0
 40
-0.6
 41
-30.0
 62
     5
 63
     8
 74
     1
 91
        4
 64
     7
 65
   257
 75
     1
175
     1
 42
1.0
 92
        8
 66
     8
 43
1.0
 76
     1
 77
     6
 78
     2
 67
     7
 79
     5
170
     0
171
     0
290
     0
174
     0
 93
        1
 44
0.0
173
     0
291
     1
 45
0.0
1001
ACAD
1000
AcDbSavedByObjectVersion
1070
     0
  0
VISUALSTYLE
  5
34
102
{ACAD_REACTORS
330
2A
102
}
330
2A
100
AcDbVisualStyle
  2
Conceptual
 70
     9
 71
     3
 72
     2
 73
     0
 90
        0
 40
-0.6
 41
-30.0
 62
     5
 63
     7
 74
     2
 91
        2
 64
     7
 65
   257
 75
     1
175
     1
 42
40.0
 92
        8
 66
     7
 43
1.0
 76
     1
 77
     6
 78
     2
 67
     7
 79
     3
170
     0
171
     0
290
     0
174
     0
 93
        1
 44
0.0
173
     0
291
     0
 45
0.0
1001
ACAD
1000
AcDbSavedByObjectVersion
1070
     0
  0
VISUALSTYLE
  5
35
102
{ACAD_REACTORS
330
2A
102
}
330
2A
100
AcDbVisualStyle
  2
Dim
 70
    11
 71
     2
 72
     2
 73
     0
 90
        0
 40
-0.6
 41
-30.0
 62
     5
 63
     7
 74
     1
 91
        4
 64
     7
 65
   257
 75
     1
175
     1
 42
1.0
 92
        8
 66
     7
 43
1.0
 76
     1
 77
     6
 78
     2
 67
     7
 79
     5
170
     0
171
     0
290
     0
174
     0
 93
        1
 44
-50.0
173
     0
291
     1
 45
0.0
1001
ACAD
1000
AcDbSavedByObjectVersion
1070
     0
  0
VISUALSTYLE
  5
39
102
{ACAD_REACTORS
330
2A
102
}
330
2A
100
AcDbVisualStyle
  2
Facepattern
 70
    15
 71
     2
 72
     2
 73
     0
 90
        0
 40
-0.6
 41
-30.0
 62
     5
 63
     7
 74
     1
 91
        4
 64
     7
 65
   257
 75
     1
175
     1
 42
1.0
 92
        8
 66
     7
 43
1.0
 76
     1
 77
     6
 78
     2
 67
     7
 79
     5
170
     0
171
     0
290
     0
174
     0
 93
        1
 44
0.0
173
     0
291
     1
 45
0.0
1001
ACAD
1000
AcDbSavedByObjectVersion
1070
     0
  0
VISUALSTYLE
  5
2B
102
{ACAD_REACTORS
330
2A
102
}
330
2A
100
AcDbVisualStyle
  2
Flat
 70
     0
 71
     2
 72
     1
 73
     1
 90
        2
 40
-0.6
 41
30.0
 62
     5
 63
     7
 74
     0
 91
        4
 64
     7
 65
   257
 75
     1
175
     1
 42
1.0
 92
        8
 66
     7
 43
1.0
 76
     1
 77
     6
 78
     2
 67
     7
 79
     5
170
     0
171
     0
290
     0
174
     0
 93
       13
 44
0.0
173
     0
291
     1
 45
0.0
1001
ACAD
1000
AcDbSavedByObjectVersion
1070
     0
  0
VISUALSTYLE
  5
2C
102
{ACAD_REACTORS
330
2A
102
}
330
2A
100
AcDbVisualStyle
  2
FlatWithEdges
 70
     1
 71
     2
 72
     1
 73
     1
 90
        2
 40
-0.6
 41
30.0
 62
     5
 63
     7
 74
     1
 91
        4
 64
     7
 65
   257
 75
     1
175
     1
 42
1.0
 92
        0
 66
   257
 43
1.0
 76
     1
 77
     6
 78
     2
 67
     7
 79
     5
170
     0
171
     0
290
     0
174
     0
 93
       13
 44
0.0
173
     0
291
     1
 45
0.0
1001
ACAD
1000
AcDbSavedByObjectVersion
1070
     0
  0
VISUALSTYLE
  5
2D
102
{ACAD_REACTORS
330
2A
102
}
330
2A
100
AcDbVisualStyle
  2
Gouraud
 70
     2
 71
     2
 72
     2
 73
     1
 90
        2
 40
-0.6
 41
30.0
 62
     5
 63
     7
 74
     0
 91
        4
 64
     7
 65
   257
 75
     1
175
     1
 42
1.0
 92
        0
 66
     7
 43
1.0
 76
     1
 77
     6
 78
     2
 67
     7
 79
     5
170
     0
171
     0
290
     0
174
     0
 93
       13
 44
0.0
173
     0
291
     1
 45
0.0
1001
ACAD
1000
AcDbSavedByObjectVersion
1070
     0
  0
VISUALSTYLE
  5
2E
102
{ACAD_REACTORS
330
2A
102
}
330
2A
100
AcDbVisualStyle
  2
GouraudWithEdges
 70
     3
 71
     2
 72
     2
 73
     1
 90
        2
 40
-0.6
 41
30.0
 62
     5
 63
     7
 74
     1
 91
        4
 64
     7
 65
   257
 75
     1
175
     1
 42
1.0
 92
        0
 66
   257
 43
1.0
 76
     1
 77
     6
 78
     2
 67
     7
 79
     5
170
     0
171
     0
290
     0
174
     0
 93
       13
 44
0.0
173
     0
291
     1
 45
0.0
1001
ACAD
1000
AcDbSavedByObjectVersion
1070
     0
  0
VISUALSTYLE
  5
38
102
{ACAD_REACTORS
330
2A
102
}
330
2A
100
AcDbVisualStyle
  2
Linepattern
 70
    14
 71
     2
 72
     2
 73
     0
 90
        0
 40
-0.6
 41
-30.0
 62
     5
 63
     7
 74
     1
 91
        4
 64
     7
 65
   257
 75
     7
175
     7
 42
1.0
 92
        8
 66
     7
 43
1.0
 76
     1
 77
     6
 78
     2
 67
     7
 79
     5
170
     0
171
     0
290
     0
174
     0
 93
        1
 44
0.0
173
     0
291
     1
 45
0.0
1001
ACAD
1000
AcDbSavedByObjectVersion
1070
     0
  0
VISUALSTYLE
  5
33
102
{ACAD_REACTORS
330
2A
102
}
330
2A
100
AcDbVisualStyle
  2
Realistic
 70
     8
 71
     2
 72
     2
 73
     0
 90
        0
 40
-0.6
 41
-30.0
 62
     5
 63
     7
 74
     1
 91
        0
 64
     7
 65
   257
 75
     1
175
     1
 42
1.0
 92
        8
 66
     8
 43
1.0
 76
     1
 77
     6
 78
     2
 67
     7
 79
     5
170
     0
171
     0
290
     0
174
     0
 93
       13
 44
0.0
173
     0
291
     0
 45
0.0
1001
ACAD
1000
AcDbSavedByObjectVersion
1070
     0
  0
VISUALSTYLE
  5
37
102
{ACAD_REACTORS
330
2A
102
}
330
2A
100
AcDbVisualStyle
  2
Thicken
 70
    13
 71
     2
 72
     2
 73
     0
 90
        0
 40
-0.6
 41
-30.0
 62
     5
 63
     7
 74
     1
 91
        4
 64
     7
 65
   257
 75
     1
175
     1
 42
1.0
 92
       12
 66
     7
 43
1.0
 76
     1
 77
     6
 78
     2
 67
     7
 79
     5
170
     0
171
     0
290
     0
174
     0
 93
        1
 44
0.0
173
     0
291
     1
 45
0.0
1001
ACAD
1000
AcDbSavedByObjectVersion
1070
     0
  0
XRECORD
  5
96B
102
{ACAD_REACTORS
330
962
102
}
330
962
100
AcDbXrecord
 90
        0
  0
XRECORD
  5
981
102
{ACAD_REACTORS
330
962
102
}
330
962
100
AcDbXrecord
1000
DSTYLE
1002
{
1070
   340
340
11
1002
}
  0
XRECORD
  5
96C
102
{ACAD_REACTORS
330
962
102
}
330
962
100
AcDbXrecord
  1
{FEC3B499-3CCE-41E8-870C-08238169D38D}
  0
XRECORD
  5
965
102
{ACAD_REACTORS
330
962
102
}
330
962
100
AcDbXrecord
  1

  0
XRECORD
  5
96A
102
{ACAD_REACTORS
330
962
102
}
330
962
100
AcDbXrecord
 90
        1
  0
XRECORD
  5
967
102
{ACAD_REACTORS
330
962
102
}
330
962
100
AcDbXrecord
340
1A
  0
XRECORD
  5
969
102
{ACAD_REACTORS
330
962
102
}
330
962
100
AcDbXrecord
 90
    10269
  0
XRECORD
  5
968
102
{ACAD_REACTORS
330
962
102
}
330
962
100
AcDbXrecord
340
19
  0
XRECORD
  5
96E
102
{ACAD_REACTORS
330
962
102
}
330
962
100
AcDbXrecord
 40
0.0
  0
XRECORD
  5
971
102
{ACAD_REACTORS
330
962
102
}
330
962
100
AcDbXrecord
340
0
  0
XRECORD
  5
977
102
{ACAD_REACTORS
330
962
102
}
330
962
100
AcDbXrecord
 10
0.0
 20
0.0
 30
0.0
  0
XRECORD
  5
973
102
{ACAD_REACTORS
330
962
102
}
330
962
100
AcDbXrecord
 10
0.0
 20
0.0
 30
0.0
  0
XRECORD
  5
976
102
{ACAD_REACTORS
330
962
102
}
330
962
100
AcDbXrecord
 10
0.0
 20
0.0
 30
0.0
  0
XRECORD
  5
974
102
{ACAD_REACTORS
330
962
102
}
330
962
100
AcDbXrecord
 10
0.0
 20
0.0
 30
0.0
  0
XRECORD
  5
975
102
{ACAD_REACTORS
330
962
102
}
330
962
100
AcDbXrecord
 10
0.0
 20
0.0
 30
0.0
  0
XRECORD
  5
972
102
{ACAD_REACTORS
330
962
102
}
330
962
100
AcDbXrecord
 10
0.0
 20
0.0
 30
0.0
  0
XRECORD
  5
96F
102
{ACAD_REACTORS
330
962
102
}
330
962
100
AcDbXrecord
340
0
  0
XRECORD
  5
970
102
{ACAD_REACTORS
330
962
102
}
330
962
100
AcDbXrecord
 70
     0
  0
XRECORD
  5
966
102
{ACAD_REACTORS
330
962
102
}
330
962
100
AcDbXrecord
  1

  0
XRECORD
  5
963
102
{ACAD_REACTORS
330
962
102
}
330
962
100
AcDbXrecord
 90
        1
  0
XRECORD
  5
964
102
{ACAD_REACTORS
330
962
102
}
330
962
100
AcDbXrecord
 90
       70
  0
XRECORD
  5
97A
102
{ACAD_REACTORS
330
962
102
}
330
962
100
AcDbXrecord
340
0
  0
XRECORD
  5
980
102
{ACAD_REACTORS
330
962
102
}
330
962
100
AcDbXrecord
 10
0.0
 20
0.0
 30
0.0
  0
XRECORD
  5
97C
102
{ACAD_REACTORS
330
962
102
}
330
962
100
AcDbXrecord
 10
0.0
 20
0.0
 30
0.0
  0
XRECORD
  5
97F
102
{ACAD_REACTORS
330
962
102
}
330
962
100
AcDbXrecord
 10
0.0
 20
0.0
 30
0.0
  0
XRECORD
  5
97D
102
{ACAD_REACTORS
330
962
102
}
330
962
100
AcDbXrecord
 10
0.0
 20
0.0
 30
0.0
  0
XRECORD
  5
97E
102
{ACAD_REACTORS
330
962
102
}
330
962
100
AcDbXrecord
 10
0.0
 20
0.0
 30
0.0
  0
XRECORD
  5
97B
102
{ACAD_REACTORS
330
962
102
}
330
962
100
AcDbXrecord
 10
0.0
 20
0.0
 30
0.0
  0
XRECORD
  5
978
102
{ACAD_REACTORS
330
962
102
}
330
962
100
AcDbXrecord
340
0
  0
XRECORD
  5
979
102
{ACAD_REACTORS
330
962
102
}
330
962
100
AcDbXrecord
 70
     0
  0
XRECORD
  5
96D
102
{ACAD_REACTORS
330
962
102
}
330
962
100
AcDbXrecord
  1
{FAEB1C32-E019-11D5-929B-00C0DF256EC4}
  0
ENDSEC
  0
EOF
