ISO-10303-21;
HEADER;
/* Generated by software containing ST-Developer
 * from STEP Tools, Inc. (www.steptools.com) 
 */
/* OPTION: using custom schema-name function */

FILE_DESCRIPTION(
/* description */ (''),
/* implementation_level */ '2;1');

FILE_NAME(
/* name */ 'W9990504_stp.stp',
/* time_stamp */ '2017-05-15T10:43:06+02:00',
/* author */ (''),
/* organization */ (''),
/* preprocessor_version */ 'ST-DEVELOPER v15',
/* originating_system */ 'SIEMENS PLM Software NX 9.0',
/* authorisation */ '');

FILE_SCHEMA (('AUTOMOTIVE_DESIGN { 1 0 10303 214 3 1 1 1 }'));
ENDSEC;

DATA;
#10=PROPERTY_DEFINITION_REPRESENTATION(#14,#12);
#11=PROPERTY_DEFINITION_REPRESENTATION(#15,#13);
#12=REPRESENTATION('',(#16),#433);
#13=REPRESENTATION('',(#17),#433);
#14=PROPERTY_DEFINITION('pmi validation property','',#21);
#15=PROPERTY_DEFINITION('pmi validation property','',#21);
#16=VALUE_REPRESENTATION_ITEM('number of annotations',COUNT_MEASURE(0.));
#17=VALUE_REPRESENTATION_ITEM('number of views',COUNT_MEASURE(0.));
#18=SHAPE_REPRESENTATION_RELATIONSHIP('None',
'relationship between reic1F4CA23Dza52-None and reic1F4CA23Dza52-None',
#30,#19);
#19=ADVANCED_BREP_SHAPE_REPRESENTATION('reic1F4CA23Dza52-None',(#76),#433);
#20=SHAPE_DEFINITION_REPRESENTATION(#21,#30);
#21=PRODUCT_DEFINITION_SHAPE('','',#22);
#22=PRODUCT_DEFINITION(' ','',#24,#23);
#23=PRODUCT_DEFINITION_CONTEXT('part definition',#29,'design');
#24=PRODUCT_DEFINITION_FORMATION_WITH_SPECIFIED_SOURCE(' ',' ',#26,
 .NOT_KNOWN.);
#25=PRODUCT_RELATED_PRODUCT_CATEGORY('part','',(#26));
#26=PRODUCT('reic1F4CA23Dza52','reic1F4CA23Dza52',' ',(#27));
#27=PRODUCT_CONTEXT(' ',#29,'mechanical');
#28=APPLICATION_PROTOCOL_DEFINITION('international standard',
'automotive_design',2010,#29);
#29=APPLICATION_CONTEXT(
'core data for automotive mechanical design processes');
#30=SHAPE_REPRESENTATION('reic1F4CA23Dza52-None',(#256),#433);
#31=OVER_RIDING_STYLED_ITEM('',(#39),#101,#37);
#32=OVER_RIDING_STYLED_ITEM('',(#40),#102,#37);
#33=OVER_RIDING_STYLED_ITEM('',(#41),#103,#37);
#34=OVER_RIDING_STYLED_ITEM('',(#42),#104,#37);
#35=OVER_RIDING_STYLED_ITEM('',(#43),#105,#37);
#36=PRESENTATION_LAYER_ASSIGNMENT('210','Layer 210',(#76));
#37=STYLED_ITEM('',(#38),#76);
#38=PRESENTATION_STYLE_ASSIGNMENT((#44));
#39=PRESENTATION_STYLE_ASSIGNMENT((#45));
#40=PRESENTATION_STYLE_ASSIGNMENT((#46));
#41=PRESENTATION_STYLE_ASSIGNMENT((#47));
#42=PRESENTATION_STYLE_ASSIGNMENT((#48));
#43=PRESENTATION_STYLE_ASSIGNMENT((#49));
#44=SURFACE_STYLE_USAGE(.BOTH.,#50);
#45=SURFACE_STYLE_USAGE(.BOTH.,#51);
#46=SURFACE_STYLE_USAGE(.BOTH.,#52);
#47=SURFACE_STYLE_USAGE(.BOTH.,#53);
#48=SURFACE_STYLE_USAGE(.BOTH.,#54);
#49=SURFACE_STYLE_USAGE(.BOTH.,#55);
#50=SURFACE_SIDE_STYLE('',(#56));
#51=SURFACE_SIDE_STYLE('',(#57));
#52=SURFACE_SIDE_STYLE('',(#58));
#53=SURFACE_SIDE_STYLE('',(#59));
#54=SURFACE_SIDE_STYLE('',(#60));
#55=SURFACE_SIDE_STYLE('',(#61));
#56=SURFACE_STYLE_FILL_AREA(#62);
#57=SURFACE_STYLE_FILL_AREA(#63);
#58=SURFACE_STYLE_FILL_AREA(#64);
#59=SURFACE_STYLE_FILL_AREA(#65);
#60=SURFACE_STYLE_FILL_AREA(#66);
#61=SURFACE_STYLE_FILL_AREA(#67);
#62=FILL_AREA_STYLE('',(#68));
#63=FILL_AREA_STYLE('',(#69));
#64=FILL_AREA_STYLE('',(#70));
#65=FILL_AREA_STYLE('',(#71));
#66=FILL_AREA_STYLE('',(#72));
#67=FILL_AREA_STYLE('',(#73));
#68=FILL_AREA_STYLE_COLOUR('',#74);
#69=FILL_AREA_STYLE_COLOUR('',#75);
#70=FILL_AREA_STYLE_COLOUR('',#75);
#71=FILL_AREA_STYLE_COLOUR('',#75);
#72=FILL_AREA_STYLE_COLOUR('',#75);
#73=FILL_AREA_STYLE_COLOUR('',#75);
#74=COLOUR_RGB('Orange',1.,0.499992370489052,0.);
#75=COLOUR_RGB('RAL 7035',0.8,0.8,0.8);
#76=MANIFOLD_SOLID_BREP('',#77);
#77=CLOSED_SHELL('',(#91,#92,#93,#94,#95,#96,#97,#98,#99,#100,#101,#102,
#103,#104,#105,#106,#107));
#78=FACE_OUTER_BOUND('',#164,.T.);
#79=FACE_OUTER_BOUND('',#173,.T.);
#80=TOROIDAL_SURFACE('',#273,18.,3.);
#81=TOROIDAL_SURFACE('',#274,12.5756095083418,1.);
#82=CONICAL_SURFACE('',#265,13.7669334932512,4.50000000000033);
#83=CONICAL_SURFACE('',#270,25.,45.);
#84=CONICAL_SURFACE('',#282,10.0723145172501,8.00000000000004);
#85=(
BOUNDED_SURFACE()
B_SPLINE_SURFACE(3,3,((#368,#369,#370,#371,#372,#373,#374),(#375,#376,#377,
#378,#379,#380,#381),(#382,#383,#384,#385,#386,#387,#388),(#389,#390,#391,
#392,#393,#394,#395)),.UNSPECIFIED.,.F.,.T.,.F.)
B_SPLINE_SURFACE_WITH_KNOTS((4,4),(1,3,3,3,1),(0.,1.),(-0.5,0.,0.5,1.,1.5),
 .UNSPECIFIED.)
GEOMETRIC_REPRESENTATION_ITEM()
RATIONAL_B_SPLINE_SURFACE(((1.,0.333333333333333,0.333333333333333,1.,0.333333333333333,
0.333333333333333,1.),(0.999486024160482,0.333162008053494,0.333162008053494,
0.999486024160482,0.333162008053494,0.333162008053494,0.999486024160482),
(0.999486024160482,0.333162008053494,0.333162008053494,0.999486024160482,
0.333162008053494,0.333162008053494,0.999486024160482),(1.,0.333333333333333,
0.333333333333333,1.,0.333333333333333,0.333333333333333,1.)))
REPRESENTATION_ITEM('')
SURFACE()
);
#86=CYLINDRICAL_SURFACE('',#262,15.);
#87=CYLINDRICAL_SURFACE('',#268,25.);
#88=CYLINDRICAL_SURFACE('',#280,8.);
#89=CYLINDRICAL_SURFACE('',#285,16.);
#90=CYLINDRICAL_SURFACE('',#288,7.);
#91=ADVANCED_FACE('',(#114,#115),#108,.T.);
#92=ADVANCED_FACE('',(#116,#117),#86,.T.);
#93=ADVANCED_FACE('',(#118,#119),#85,.T.);
#94=ADVANCED_FACE('',(#120,#121),#82,.T.);
#95=ADVANCED_FACE('',(#122,#123),#87,.T.);
#96=ADVANCED_FACE('',(#124,#125),#83,.T.);
#97=ADVANCED_FACE('',(#126,#127),#109,.T.);
#98=ADVANCED_FACE('',(#128,#129),#80,.F.);
#99=ADVANCED_FACE('',(#130,#131),#81,.T.);
#100=ADVANCED_FACE('',(#132,#133),#110,.T.);
#101=ADVANCED_FACE('',(#78),#111,.F.);
#102=ADVANCED_FACE('',(#134,#135),#88,.T.);
#103=ADVANCED_FACE('',(#136,#137),#84,.T.);
#104=ADVANCED_FACE('',(#138,#139),#112,.F.);
#105=ADVANCED_FACE('',(#140,#141),#89,.T.);
#106=ADVANCED_FACE('',(#79),#113,.T.);
#107=ADVANCED_FACE('',(#142,#143),#90,.F.);
#108=PLANE('',#259);
#109=PLANE('',#272);
#110=PLANE('',#276);
#111=PLANE('',#278);
#112=PLANE('',#284);
#113=PLANE('',#287);
#114=FACE_BOUND('',#144,.T.);
#115=FACE_BOUND('',#145,.T.);
#116=FACE_BOUND('',#146,.T.);
#117=FACE_BOUND('',#147,.T.);
#118=FACE_BOUND('',#148,.T.);
#119=FACE_BOUND('',#149,.T.);
#120=FACE_BOUND('',#150,.T.);
#121=FACE_BOUND('',#151,.T.);
#122=FACE_BOUND('',#152,.T.);
#123=FACE_BOUND('',#153,.T.);
#124=FACE_BOUND('',#154,.T.);
#125=FACE_BOUND('',#155,.T.);
#126=FACE_BOUND('',#156,.T.);
#127=FACE_BOUND('',#157,.T.);
#128=FACE_BOUND('',#158,.T.);
#129=FACE_BOUND('',#159,.T.);
#130=FACE_BOUND('',#160,.T.);
#131=FACE_BOUND('',#161,.T.);
#132=FACE_BOUND('',#162,.T.);
#133=FACE_BOUND('',#163,.T.);
#134=FACE_BOUND('',#165,.T.);
#135=FACE_BOUND('',#166,.T.);
#136=FACE_BOUND('',#167,.T.);
#137=FACE_BOUND('',#168,.T.);
#138=FACE_BOUND('',#169,.T.);
#139=FACE_BOUND('',#170,.T.);
#140=FACE_BOUND('',#171,.T.);
#141=FACE_BOUND('',#172,.T.);
#142=FACE_BOUND('',#174,.T.);
#143=FACE_BOUND('',#175,.T.);
#144=EDGE_LOOP('',(#176));
#145=EDGE_LOOP('',(#177));
#146=EDGE_LOOP('',(#178));
#147=EDGE_LOOP('',(#179));
#148=EDGE_LOOP('',(#180));
#149=EDGE_LOOP('',(#181));
#150=EDGE_LOOP('',(#182));
#151=EDGE_LOOP('',(#183));
#152=EDGE_LOOP('',(#184));
#153=EDGE_LOOP('',(#185));
#154=EDGE_LOOP('',(#186));
#155=EDGE_LOOP('',(#187));
#156=EDGE_LOOP('',(#188));
#157=EDGE_LOOP('',(#189));
#158=EDGE_LOOP('',(#190));
#159=EDGE_LOOP('',(#191));
#160=EDGE_LOOP('',(#192));
#161=EDGE_LOOP('',(#193));
#162=EDGE_LOOP('',(#194));
#163=EDGE_LOOP('',(#195));
#164=EDGE_LOOP('',(#196));
#165=EDGE_LOOP('',(#197));
#166=EDGE_LOOP('',(#198));
#167=EDGE_LOOP('',(#199));
#168=EDGE_LOOP('',(#200));
#169=EDGE_LOOP('',(#201));
#170=EDGE_LOOP('',(#202));
#171=EDGE_LOOP('',(#203));
#172=EDGE_LOOP('',(#204));
#173=EDGE_LOOP('',(#205));
#174=EDGE_LOOP('',(#206));
#175=EDGE_LOOP('',(#207));
#176=ORIENTED_EDGE('',*,*,#224,.T.);
#177=ORIENTED_EDGE('',*,*,#225,.T.);
#178=ORIENTED_EDGE('',*,*,#226,.T.);
#179=ORIENTED_EDGE('',*,*,#227,.F.);
#180=ORIENTED_EDGE('',*,*,#228,.T.);
#181=ORIENTED_EDGE('',*,*,#226,.F.);
#182=ORIENTED_EDGE('',*,*,#229,.T.);
#183=ORIENTED_EDGE('',*,*,#228,.F.);
#184=ORIENTED_EDGE('',*,*,#230,.T.);
#185=ORIENTED_EDGE('',*,*,#231,.F.);
#186=ORIENTED_EDGE('',*,*,#232,.T.);
#187=ORIENTED_EDGE('',*,*,#230,.F.);
#188=ORIENTED_EDGE('',*,*,#233,.T.);
#189=ORIENTED_EDGE('',*,*,#232,.F.);
#190=ORIENTED_EDGE('',*,*,#227,.T.);
#191=ORIENTED_EDGE('',*,*,#233,.F.);
#192=ORIENTED_EDGE('',*,*,#224,.F.);
#193=ORIENTED_EDGE('',*,*,#229,.F.);
#194=ORIENTED_EDGE('',*,*,#231,.T.);
#195=ORIENTED_EDGE('',*,*,#234,.T.);
#196=ORIENTED_EDGE('',*,*,#235,.F.);
#197=ORIENTED_EDGE('',*,*,#236,.T.);
#198=ORIENTED_EDGE('',*,*,#235,.T.);
#199=ORIENTED_EDGE('',*,*,#236,.F.);
#200=ORIENTED_EDGE('',*,*,#237,.F.);
#201=ORIENTED_EDGE('',*,*,#238,.F.);
#202=ORIENTED_EDGE('',*,*,#237,.T.);
#203=ORIENTED_EDGE('',*,*,#238,.T.);
#204=ORIENTED_EDGE('',*,*,#234,.F.);
#205=ORIENTED_EDGE('',*,*,#239,.F.);
#206=ORIENTED_EDGE('',*,*,#239,.T.);
#207=ORIENTED_EDGE('',*,*,#225,.F.);
#208=VERTEX_POINT('',#357);
#209=VERTEX_POINT('',#359);
#210=VERTEX_POINT('',#362);
#211=VERTEX_POINT('',#364);
#212=VERTEX_POINT('',#367);
#213=VERTEX_POINT('',#397);
#214=VERTEX_POINT('',#400);
#215=VERTEX_POINT('',#402);
#216=VERTEX_POINT('',#405);
#217=VERTEX_POINT('',#408);
#218=VERTEX_POINT('',#413);
#219=VERTEX_POINT('',#416);
#220=VERTEX_POINT('',#419);
#221=VERTEX_POINT('',#422);
#222=VERTEX_POINT('',#425);
#223=VERTEX_POINT('',#429);
#224=EDGE_CURVE('',#208,#208,#240,.T.);
#225=EDGE_CURVE('',#209,#209,#241,.T.);
#226=EDGE_CURVE('',#210,#210,#242,.T.);
#227=EDGE_CURVE('',#211,#211,#243,.T.);
#228=EDGE_CURVE('',#212,#212,#244,.T.);
#229=EDGE_CURVE('',#213,#213,#245,.T.);
#230=EDGE_CURVE('',#214,#214,#246,.T.);
#231=EDGE_CURVE('',#215,#215,#247,.T.);
#232=EDGE_CURVE('',#216,#216,#248,.T.);
#233=EDGE_CURVE('',#217,#217,#249,.T.);
#234=EDGE_CURVE('',#218,#218,#250,.T.);
#235=EDGE_CURVE('',#219,#219,#251,.T.);
#236=EDGE_CURVE('',#220,#220,#252,.T.);
#237=EDGE_CURVE('',#221,#221,#253,.T.);
#238=EDGE_CURVE('',#222,#222,#254,.T.);
#239=EDGE_CURVE('',#223,#223,#255,.T.);
#240=CIRCLE('',#257,12.5756095083418);
#241=CIRCLE('',#258,7.);
#242=CIRCLE('',#260,15.);
#243=CIRCLE('',#261,15.);
#244=CIRCLE('',#263,13.7669334932512);
#245=CIRCLE('',#264,13.5725268420749);
#246=CIRCLE('',#266,25.);
#247=CIRCLE('',#267,25.);
#248=CIRCLE('',#269,23.);
#249=CIRCLE('',#271,18.);
#250=CIRCLE('',#275,16.);
#251=CIRCLE('',#277,8.);
#252=CIRCLE('',#279,8.);
#253=CIRCLE('',#281,10.0723145172501);
#254=CIRCLE('',#283,16.);
#255=CIRCLE('',#286,7.);
#256=AXIS2_PLACEMENT_3D('',#355,#289,#290);
#257=AXIS2_PLACEMENT_3D('',#356,#291,#292);
#258=AXIS2_PLACEMENT_3D('',#358,#293,#294);
#259=AXIS2_PLACEMENT_3D('',#360,#295,#296);
#260=AXIS2_PLACEMENT_3D('',#361,#297,#298);
#261=AXIS2_PLACEMENT_3D('',#363,#299,#300);
#262=AXIS2_PLACEMENT_3D('',#365,#301,#302);
#263=AXIS2_PLACEMENT_3D('',#366,#303,#304);
#264=AXIS2_PLACEMENT_3D('',#396,#305,#306);
#265=AXIS2_PLACEMENT_3D('',#398,#307,#308);
#266=AXIS2_PLACEMENT_3D('',#399,#309,#310);
#267=AXIS2_PLACEMENT_3D('',#401,#311,#312);
#268=AXIS2_PLACEMENT_3D('',#403,#313,#314);
#269=AXIS2_PLACEMENT_3D('',#404,#315,#316);
#270=AXIS2_PLACEMENT_3D('',#406,#317,#318);
#271=AXIS2_PLACEMENT_3D('',#407,#319,#320);
#272=AXIS2_PLACEMENT_3D('',#409,#321,#322);
#273=AXIS2_PLACEMENT_3D('',#410,#323,#324);
#274=AXIS2_PLACEMENT_3D('',#411,#325,#326);
#275=AXIS2_PLACEMENT_3D('',#412,#327,#328);
#276=AXIS2_PLACEMENT_3D('',#414,#329,#330);
#277=AXIS2_PLACEMENT_3D('',#415,#331,#332);
#278=AXIS2_PLACEMENT_3D('',#417,#333,#334);
#279=AXIS2_PLACEMENT_3D('',#418,#335,#336);
#280=AXIS2_PLACEMENT_3D('',#420,#337,#338);
#281=AXIS2_PLACEMENT_3D('',#421,#339,#340);
#282=AXIS2_PLACEMENT_3D('',#423,#341,#342);
#283=AXIS2_PLACEMENT_3D('',#424,#343,#344);
#284=AXIS2_PLACEMENT_3D('',#426,#345,#346);
#285=AXIS2_PLACEMENT_3D('',#427,#347,#348);
#286=AXIS2_PLACEMENT_3D('',#428,#349,#350);
#287=AXIS2_PLACEMENT_3D('',#430,#351,#352);
#288=AXIS2_PLACEMENT_3D('',#431,#353,#354);
#289=DIRECTION('',(0.,0.,1.));
#290=DIRECTION('',(1.,0.,0.));
#291=DIRECTION('',(0.,0.,1.));
#292=DIRECTION('',(1.,0.,0.));
#293=DIRECTION('',(0.,0.,-1.));
#294=DIRECTION('',(1.,0.,0.));
#295=DIRECTION('',(0.,0.,1.));
#296=DIRECTION('',(1.,0.,0.));
#297=DIRECTION('',(0.,0.,-1.));
#298=DIRECTION('',(-1.,0.,0.));
#299=DIRECTION('',(0.,0.,-1.));
#300=DIRECTION('',(-1.,0.,0.));
#301=DIRECTION('',(0.,0.,-1.));
#302=DIRECTION('',(-1.,0.,0.));
#303=DIRECTION('',(0.,0.,-1.));
#304=DIRECTION('',(-1.,0.,0.));
#305=DIRECTION('',(0.,0.,-1.));
#306=DIRECTION('',(1.,0.,0.));
#307=DIRECTION('',(0.,0.,-1.));
#308=DIRECTION('',(-1.,0.,7.50405097344753E-017));
#309=DIRECTION('',(0.,0.,-1.));
#310=DIRECTION('',(-1.,0.,0.));
#311=DIRECTION('',(0.,0.,-1.));
#312=DIRECTION('',(-1.,0.,0.));
#313=DIRECTION('',(0.,0.,-1.));
#314=DIRECTION('',(-1.,0.,0.));
#315=DIRECTION('',(0.,0.,-1.));
#316=DIRECTION('',(-1.,0.,0.));
#317=DIRECTION('',(0.,0.,-1.));
#318=DIRECTION('',(-1.,0.,6.76965258917778E-018));
#319=DIRECTION('',(0.,0.,-1.));
#320=DIRECTION('',(-1.,0.,0.));
#321=DIRECTION('',(0.,0.,1.));
#322=DIRECTION('',(1.,0.,0.));
#323=DIRECTION('',(0.,0.,-1.));
#324=DIRECTION('',(-1.,0.,0.));
#325=DIRECTION('',(0.,0.,1.));
#326=DIRECTION('',(1.,0.,0.));
#327=DIRECTION('',(0.,0.,1.));
#328=DIRECTION('',(1.,0.,0.));
#329=DIRECTION('',(0.,0.,-1.));
#330=DIRECTION('',(-1.,0.,0.));
#331=DIRECTION('',(0.,0.,1.));
#332=DIRECTION('',(1.,0.,0.));
#333=DIRECTION('',(0.,0.,1.));
#334=DIRECTION('',(-1.,0.,0.));
#335=DIRECTION('',(0.,0.,-1.));
#336=DIRECTION('',(1.,0.,0.));
#337=DIRECTION('',(0.,0.,-1.));
#338=DIRECTION('',(1.,0.,0.));
#339=DIRECTION('',(0.,0.,1.));
#340=DIRECTION('',(1.,0.,0.));
#341=DIRECTION('',(0.,0.,1.));
#342=DIRECTION('',(-1.,0.,2.53390335898458E-016));
#343=DIRECTION('',(0.,0.,1.));
#344=DIRECTION('',(1.,0.,0.));
#345=DIRECTION('',(0.,0.,1.));
#346=DIRECTION('',(-1.,0.,0.));
#347=DIRECTION('',(0.,0.,-1.));
#348=DIRECTION('',(1.,0.,0.));
#349=DIRECTION('',(0.,0.,-1.));
#350=DIRECTION('',(1.,0.,0.));
#351=DIRECTION('',(0.,0.,1.));
#352=DIRECTION('',(1.,0.,0.));
#353=DIRECTION('',(0.,0.,-1.));
#354=DIRECTION('',(-1.,0.,0.));
#355=CARTESIAN_POINT('',(0.,0.,0.));
#356=CARTESIAN_POINT('',(0.,0.,60.));
#357=CARTESIAN_POINT('',(12.5756095083418,0.,60.));
#358=CARTESIAN_POINT('',(0.,0.,60.));
#359=CARTESIAN_POINT('',(7.,0.,60.));
#360=CARTESIAN_POINT('',(0.,13.5,60.));
#361=CARTESIAN_POINT('',(0.,0.,25.2246500926705));
#362=CARTESIAN_POINT('',(-15.,0.,25.2246500926705));
#363=CARTESIAN_POINT('',(0.,0.,11.));
#364=CARTESIAN_POINT('',(-15.,0.,11.));
#365=CARTESIAN_POINT('',(0.,0.,-131.524399022487));
#366=CARTESIAN_POINT('',(0.,0.,56.6082883838087));
#367=CARTESIAN_POINT('',(-13.7669334932512,0.,56.6082883838087));
#368=CARTESIAN_POINT('',(-15.,-1.04083408558608E-014,25.2246500926707));
#369=CARTESIAN_POINT('',(-15.,29.9999999999999,25.2246500926707));
#370=CARTESIAN_POINT('',(15.,29.9999999999999,25.2246500926707));
#371=CARTESIAN_POINT('',(15.,-1.04083408558608E-014,25.2246500926707));
#372=CARTESIAN_POINT('',(15.,-29.9999999999999,25.2246500926707));
#373=CARTESIAN_POINT('',(-15.,-29.9999999999999,25.2246500926707));
#374=CARTESIAN_POINT('',(-15.,-1.04083408558608E-014,25.2246500926707));
#375=CARTESIAN_POINT('',(-15.,-1.04083408558608E-014,35.6993180213314));
#376=CARTESIAN_POINT('',(-15.,29.9999999999999,35.6993180213314));
#377=CARTESIAN_POINT('',(15.,29.9999999999999,35.6993180213314));
#378=CARTESIAN_POINT('',(15.,-1.04083408558608E-014,35.6993180213314));
#379=CARTESIAN_POINT('',(15.,-29.9999999999999,35.6993180213314));
#380=CARTESIAN_POINT('',(-15.,-29.9999999999999,35.6993180213314));
#381=CARTESIAN_POINT('',(-15.,-1.04083408558608E-014,35.6993180213314));
#382=CARTESIAN_POINT('',(-14.5887664669833,-1.04083408558608E-014,46.1659103606286));
#383=CARTESIAN_POINT('',(-14.5887664669833,29.1775329339666,46.1659103606286));
#384=CARTESIAN_POINT('',(14.5887664669833,29.1775329339666,46.1659103606286));
#385=CARTESIAN_POINT('',(14.5887664669833,-1.04083408558608E-014,46.1659103606286));
#386=CARTESIAN_POINT('',(14.5887664669833,-29.1775329339667,46.1659103606286));
#387=CARTESIAN_POINT('',(-14.5887664669833,-29.1775329339667,46.1659103606286));
#388=CARTESIAN_POINT('',(-14.5887664669833,-1.04083408558608E-014,46.1659103606286));
#389=CARTESIAN_POINT('',(-13.7669334932511,-1.04083408558608E-014,56.6082883838089));
#390=CARTESIAN_POINT('',(-13.7669334932511,27.5338669865023,56.6082883838089));
#391=CARTESIAN_POINT('',(13.7669334932511,27.5338669865023,56.6082883838089));
#392=CARTESIAN_POINT('',(13.7669334932511,-1.04083408558608E-014,56.6082883838089));
#393=CARTESIAN_POINT('',(13.7669334932511,-27.5338669865023,56.6082883838089));
#394=CARTESIAN_POINT('',(-13.7669334932511,-27.5338669865023,56.6082883838089));
#395=CARTESIAN_POINT('',(-13.7669334932511,-1.04083408558608E-014,56.6082883838089));
#396=CARTESIAN_POINT('',(0.,0.,59.0784590957279));
#397=CARTESIAN_POINT('',(13.5725268420749,0.,59.0784590957279));
#398=CARTESIAN_POINT('',(0.,0.,56.6082883838087));
#399=CARTESIAN_POINT('',(0.,0.,6.));
#400=CARTESIAN_POINT('',(-25.,0.,6.));
#401=CARTESIAN_POINT('',(0.,0.,-6.93889390390723E-015));
#402=CARTESIAN_POINT('',(-25.,0.,-6.93889390390723E-015));
#403=CARTESIAN_POINT('',(0.,0.,-131.524399022487));
#404=CARTESIAN_POINT('',(0.,0.,8.));
#405=CARTESIAN_POINT('',(-23.,0.,8.));
#406=CARTESIAN_POINT('',(0.,0.,6.));
#407=CARTESIAN_POINT('',(0.,0.,8.));
#408=CARTESIAN_POINT('',(-18.,0.,8.));
#409=CARTESIAN_POINT('',(0.,23.,8.));
#410=CARTESIAN_POINT('',(0.,-3.46944695195361E-015,11.));
#411=CARTESIAN_POINT('',(0.,0.,59.));
#412=CARTESIAN_POINT('',(0.,0.,0.));
#413=CARTESIAN_POINT('',(16.,0.,0.));
#414=CARTESIAN_POINT('',(0.,17.,0.));
#415=CARTESIAN_POINT('',(0.,0.,-41.));
#416=CARTESIAN_POINT('',(8.,0.,-41.));
#417=CARTESIAN_POINT('',(0.,0.,-41.));
#418=CARTESIAN_POINT('',(0.,0.,-33.2452839712988));
#419=CARTESIAN_POINT('',(8.,0.,-33.2452839712988));
#420=CARTESIAN_POINT('',(0.,0.,-41.));
#421=CARTESIAN_POINT('',(0.,0.,-18.5));
#422=CARTESIAN_POINT('',(10.0723145172501,0.,-18.5));
#423=CARTESIAN_POINT('',(0.,0.,-18.5));
#424=CARTESIAN_POINT('',(0.,0.,-18.5));
#425=CARTESIAN_POINT('',(16.,0.,-18.5));
#426=CARTESIAN_POINT('',(0.,16.,-18.5));
#427=CARTESIAN_POINT('',(0.,0.,-41.));
#428=CARTESIAN_POINT('',(0.,0.,13.));
#429=CARTESIAN_POINT('',(7.,0.,13.));
#430=CARTESIAN_POINT('',(0.,7.25,13.));
#431=CARTESIAN_POINT('',(0.,0.,-131.524399022487));
#432=MECHANICAL_DESIGN_GEOMETRIC_PRESENTATION_REPRESENTATION('',(#37,#31,
#32,#33,#34,#35),#433);
#433=(
GEOMETRIC_REPRESENTATION_CONTEXT(3)
GLOBAL_UNCERTAINTY_ASSIGNED_CONTEXT((#434))
GLOBAL_UNIT_ASSIGNED_CONTEXT((#440,#436,#435))
REPRESENTATION_CONTEXT('W9990504_stp','TOP_LEVEL_ASSEMBLY_PART')
);
#434=UNCERTAINTY_MEASURE_WITH_UNIT(LENGTH_MEASURE(0.0254),#440,
'DISTANCE_ACCURACY_VALUE','Maximum Tolerance applied to model');
#435=(
NAMED_UNIT(*)
SI_UNIT($,.STERADIAN.)
SOLID_ANGLE_UNIT()
);
#436=(
CONVERSION_BASED_UNIT('DEGREE',#438)
NAMED_UNIT(#437)
PLANE_ANGLE_UNIT()
);
#437=DIMENSIONAL_EXPONENTS(0.,0.,0.,0.,0.,0.,0.);
#438=PLANE_ANGLE_MEASURE_WITH_UNIT(PLANE_ANGLE_MEASURE(0.0174532925),#439);
#439=(
NAMED_UNIT(*)
PLANE_ANGLE_UNIT()
SI_UNIT($,.RADIAN.)
);
#440=(
LENGTH_UNIT()
NAMED_UNIT(*)
SI_UNIT(.MILLI.,.METRE.)
);
ENDSEC;
END-ISO-10303-21;
