  0
SECTION
  2
HEADER
  9
$ACADVER
  1
AC1014
  9
$ACADMAINTVER
 70
     9
  9
$DWGCODEPAGE
  3
ANSI_1252
  9
$INSBASE
 10
0.0
 20
0.0
 30
0.0
  9
$EXTMIN
 10
1.000000000000000E+20
 20
1.000000000000000E+20
 30
1.000000000000000E+20
  9
$EXTMAX
 10
-1.000000000000000E+20
 20
-1.000000000000000E+20
 30
-1.000000000000000E+20
  9
$LIMMIN
 10
0.0
 20
0.0
  9
$LIMMAX
 10
12.0
 20
9.0
  9
$ORTHOMODE
 70
     0
  9
$REGENMODE
 70
     1
  9
$FILLMODE
 70
     1
  9
$QTEXTMODE
 70
     0
  9
$MIRRTEXT
 70
     1
  9
$DRAGMODE
 70
     2
  9
$LTSCALE
 40
1.0
  9
$OSMODE
 70
    37
  9
$ATTMODE
 70
     1
  9
$TEXTSIZE
 40
0.2
  9
$TRACEWID
 40
0.05
  9
$TEXTSTYLE
  7
STANDARD
  9
$CLAYER
  8
0
  9
$CELTYPE
  6
BYLAYER
  9
$CECOLOR
 62
   256
  9
$CELTSCALE
 40
1.0
  9
$DELOBJ
 70
     1
  9
$DISPSILH
 70
     0
  9
$DIMSCALE
 40
1.0
  9
$DIMASZ
 40
0.18
  9
$DIMEXO
 40
0.0625
  9
$DIMDLI
 40
0.38
  9
$DIMRND
 40
0.0
  9
$DIMDLE
 40
0.0
  9
$DIMEXE
 40
0.18
  9
$DIMTP
 40
0.0
  9
$DIMTM
 40
0.0
  9
$DIMTXT
 40
0.18
  9
$DIMCEN
 40
0.09
  9
$DIMTSZ
 40
0.0
  9
$DIMTOL
 70
     0
  9
$DIMLIM
 70
     0
  9
$DIMTIH
 70
     1
  9
$DIMTOH
 70
     1
  9
$DIMSE1
 70
     0
  9
$DIMSE2
 70
     0
  9
$DIMTAD
 70
     0
  9
$DIMZIN
 70
     0
  9
$DIMBLK
  1

  9
$DIMASO
 70
     1
  9
$DIMSHO
 70
     1
  9
$DIMPOST
  1

  9
$DIMAPOST
  1

  9
$DIMALT
 70
     0
  9
$DIMALTD
 70
     2
  9
$DIMALTF
 40
25.4
  9
$DIMLFAC
 40
1.0
  9
$DIMTOFL
 70
     0
  9
$DIMTVP
 40
0.0
  9
$DIMTIX
 70
     0
  9
$DIMSOXD
 70
     0
  9
$DIMSAH
 70
     0
  9
$DIMBLK1
  1

  9
$DIMBLK2
  1

  9
$DIMSTYLE
  2
STANDARD
  9
$DIMCLRD
 70
     0
  9
$DIMCLRE
 70
     0
  9
$DIMCLRT
 70
     0
  9
$DIMTFAC
 40
1.0
  9
$DIMGAP
 40
0.09
  9
$DIMJUST
 70
     0
  9
$DIMSD1
 70
     0
  9
$DIMSD2
 70
     0
  9
$DIMTOLJ
 70
     1
  9
$DIMTZIN
 70
     0
  9
$DIMALTZ
 70
     0
  9
$DIMALTTZ
 70
     0
  9
$DIMFIT
 70
     3
  9
$DIMUPT
 70
     0
  9
$DIMUNIT
 70
     2
  9
$DIMDEC
 70
     4
  9
$DIMTDEC
 70
     4
  9
$DIMALTU
 70
     2
  9
$DIMALTTD
 70
     2
  9
$DIMTXSTY
  7
STANDARD
  9
$DIMAUNIT
 70
     0
  9
$LUNITS
 70
     2
  9
$LUPREC
 70
     4
  9
$SKETCHINC
 40
0.1
  9
$FILLETRAD
 40
0.5
  9
$AUNITS
 70
     0
  9
$AUPREC
 70
     0
  9
$MENU
  1
.
  9
$ELEVATION
 40
0.0
  9
$PELEVATION
 40
0.0
  9
$THICKNESS
 40
0.0
  9
$LIMCHECK
 70
     0
  9
$CHAMFERA
 40
0.5
  9
$CHAMFERB
 40
0.5
  9
$CHAMFERC
 40
1.0
  9
$CHAMFERD
 40
0.0
  9
$SKPOLY
 70
     0
  9
$TDCREATE
 40
2458333.494759757
  9
$TDUPDATE
 40
2458333.494759769
  9
$TDINDWG
 40
0.0000000116
  9
$TDUSRTIMER
 40
0.0000000116
  9
$USRTIMER
 70
     1
  9
$ANGBASE
 50
0.0
  9
$ANGDIR
 70
     0
  9
$PDMODE
 70
     0
  9
$PDSIZE
 40
0.0
  9
$PLINEWID
 40
0.0
  9
$COORDS
 70
     1
  9
$SPLFRAME
 70
     0
  9
$SPLINETYPE
 70
     6
  9
$SPLINESEGS
 70
     8
  9
$ATTDIA
 70
     0
  9
$ATTREQ
 70
     1
  9
$HANDLING
 70
     1
  9
$HANDSEED
  5
81D
  9
$SURFTAB1
 70
     6
  9
$SURFTAB2
 70
     6
  9
$SURFTYPE
 70
     6
  9
$SURFU
 70
     6
  9
$SURFV
 70
     6
  9
$UCSNAME
  2

  9
$UCSORG
 10
0.0
 20
0.0
 30
0.0
  9
$UCSXDIR
 10
1.0
 20
0.0
 30
0.0
  9
$UCSYDIR
 10
0.0
 20
1.0
 30
0.0
  9
$PUCSNAME
  2

  9
$PUCSORG
 10
0.0
 20
0.0
 30
0.0
  9
$PUCSXDIR
 10
1.0
 20
0.0
 30
0.0
  9
$PUCSYDIR
 10
0.0
 20
1.0
 30
0.0
  9
$USERI1
 70
     0
  9
$USERI2
 70
     0
  9
$USERI3
 70
     0
  9
$USERI4
 70
     0
  9
$USERI5
 70
     0
  9
$USERR1
 40
0.0
  9
$USERR2
 40
0.0
  9
$USERR3
 40
0.0
  9
$USERR4
 40
0.0
  9
$USERR5
 40
0.0
  9
$WORLDVIEW
 70
     1
  9
$SHADEDGE
 70
     3
  9
$SHADEDIF
 70
    70
  9
$TILEMODE
 70
     1
  9
$MAXACTVP
 70
    64
  9
$PINSBASE
 10
0.0
 20
0.0
 30
0.0
  9
$PLIMCHECK
 70
     0
  9
$PEXTMIN
 10
1.000000000000000E+20
 20
1.000000000000000E+20
 30
1.000000000000000E+20
  9
$PEXTMAX
 10
-1.000000000000000E+20
 20
-1.000000000000000E+20
 30
-1.000000000000000E+20
  9
$PLIMMIN
 10
0.0
 20
0.0
  9
$PLIMMAX
 10
12.0
 20
9.0
  9
$UNITMODE
 70
     0
  9
$VISRETAIN
 70
     1
  9
$PLINEGEN
 70
     0
  9
$PSLTSCALE
 70
     1
  9
$TREEDEPTH
 70
  3020
  9
$PICKSTYLE
 70
     1
  9
$CMLSTYLE
  2
STANDARD
  9
$CMLJUST
 70
     0
  9
$CMLSCALE
 40
1.0
  9
$PROXYGRAPHICS
 70
     1
  9
$MEASUREMENT
 70
     0
  0
ENDSEC
  0
SECTION
  2
CLASSES
  0
CLASS
  1
ACDBDICTIONARYWDFLT
  2
AcDbDictionaryWithDefault
  3
ObjectDBX Classes
 90
        0
280
     0
281
     0
  0
CLASS
  1
VISUALSTYLE
  2
AcDbVisualStyle
  3
ObjectDBX Classes
 90
     4095
280
     0
281
     0
  0
CLASS
  1
XRECORD
  2
AcDbXrecord
  3
AutoCAD 2000
 90
        0
280
     0
281
     0
  0
CLASS
  1
LWPOLYLINE
  2
AcDbPolyline
  3
AutoCAD 2000
 90
        0
280
     0
281
     1
  0
CLASS
  1
HATCH
  2
AcDbHatch
  3
AutoCAD 2000
 90
        0
280
     0
281
     1
  0
CLASS
  1
ACDBPLACEHOLDER
  2
AcDbPlaceHolder
  3
ObjectDBX Classes
 90
        0
280
     0
281
     0
  0
CLASS
  1
LAYOUT
  2
AcDbLayout
  3
ObjectDBX Classes
 90
        0
280
     0
281
     0
  0
ENDSEC
  0
SECTION
  2
TABLES
  0
TABLE
  2
VPORT
  5
8
330
0
100
AcDbSymbolTable
 70
     1
  0
VPORT
  5
29
330
8
100
AcDbSymbolTableRecord
100
AcDbViewportTableRecord
  2
*ACTIVE
 70
     0
 10
0.0
 20
0.0
 11
1.0
 21
1.0
 12
0.0
 22
0.0
 13
0.0
 23
0.0
 14
0.5
 24
0.5
 15
0.5
 25
0.5
 16
0.0
 26
0.0
 36
1.0
 17
-28.70350205445607
 27
-11.11491156406155
 37
0.0
 40
218.7222221675417
 41
1.188709677419355
 42
50.0
 43
0.0
 44
0.0
 50
0.0
 51
0.0
 71
     0
 72
   100
 73
     1
 74
     3
 75
     0
 76
     0
 77
     0
 78
     0
  0
ENDTAB
  0
TABLE
  2
LTYPE
  5
5
330
0
100
AcDbSymbolTable
 70
     2
  0
LTYPE
  5
14
330
5
100
AcDbSymbolTableRecord
100
AcDbLinetypeTableRecord
  2
BYBLOCK
 70
     0
  3

 72
    65
 73
     0
 40
0.0
  0
LTYPE
  5
15
330
5
100
AcDbSymbolTableRecord
100
AcDbLinetypeTableRecord
  2
BYLAYER
 70
     0
  3

 72
    65
 73
     0
 40
0.0
  0
LTYPE
  5
16
330
5
100
AcDbSymbolTableRecord
100
AcDbLinetypeTableRecord
  2
CONTINUOUS
 70
     0
  3
Solid line
 72
    65
 73
     0
 40
0.0
  0
LTYPE
  5
2B3
330
5
100
AcDbSymbolTableRecord
100
AcDbLinetypeTableRecord
  2
AI-LINETYPE-1
 70
     0
  3
Adobe Illustrator Linetype No. 1
 72
    65
 73
     4
 40
8.819444442239584
 49
7.055555553791667
 74
     0
 49
-0.7055555553791667
 74
     0
 49
0.3527777776895833
 74
     0
 49
-0.7055555553791667
 74
     0
  0
ENDTAB
  0
TABLE
  2
LAYER
  5
2
330
0
100
AcDbSymbolTable
 70
     6
  0
LAYER
  5
10
330
2
100
AcDbSymbolTableRecord
100
AcDbLayerTableRecord
  2
0
 70
     0
 62
     7
  6
CONTINUOUS
  0
LAYER
  5
3B
330
2
100
AcDbSymbolTableRecord
100
AcDbLayerTableRecord
  2
EBENE_5
 70
     5
 62
     7
  6
CONTINUOUS
  0
LAYER
  5
18F
330
2
100
AcDbSymbolTableRecord
100
AcDbLayerTableRecord
  2
GRAU_10_
 70
     0
 62
     7
  6
CONTINUOUS
  0
LAYER
  5
1A2
330
2
100
AcDbSymbolTableRecord
100
AcDbLayerTableRecord
  2
STANDARDEBENE
 70
     0
 62
     7
  6
CONTINUOUS
  0
LAYER
  5
3D3
330
2
100
AcDbSymbolTableRecord
100
AcDbLayerTableRecord
  2
BEMAßUNG
 70
     1
 62
     7
  6
CONTINUOUS
  0
LAYER
  5
7F4
330
2
100
AcDbSymbolTableRecord
100
AcDbLayerTableRecord
  2
TEXT
 70
     1
 62
     7
  6
CONTINUOUS
  0
ENDTAB
  0
TABLE
  2
STYLE
  5
3
330
0
100
AcDbSymbolTable
 70
     1
  0
STYLE
  5
11
330
3
100
AcDbSymbolTableRecord
100
AcDbTextStyleTableRecord
  2
STANDARD
 70
     0
 40
0.0
 41
1.0
 50
0.0
 71
     0
 42
0.2
  3
txt
  4

  0
ENDTAB
  0
TABLE
  2
VIEW
  5
6
330
0
100
AcDbSymbolTable
 70
     0
  0
ENDTAB
  0
TABLE
  2
UCS
  5
7
330
0
100
AcDbSymbolTable
 70
     0
  0
ENDTAB
  0
TABLE
  2
APPID
  5
9
330
0
100
AcDbSymbolTable
 70
     1
  0
APPID
  5
12
330
9
100
AcDbSymbolTableRecord
100
AcDbRegAppTableRecord
  2
ACAD
 70
     0
  0
ENDTAB
  0
TABLE
  2
DIMSTYLE
  5
A
330
0
100
AcDbSymbolTable
 70
     1
  0
DIMSTYLE
105
27
330
A
100
AcDbSymbolTableRecord
100
AcDbDimStyleTableRecord
  2
STANDARD
 70
     0
  3

  4

  5

  6

  7

 40
1.0
 41
0.18
 42
0.0625
 43
0.38
 44
0.18
 45
0.0
 46
0.0
 47
0.0
 48
0.0
140
0.18
141
0.09
142
0.0
143
25.4
144
1.0
145
0.0
146
1.0
147
0.09
 71
     0
 72
     0
 73
     1
 74
     1
 75
     0
 76
     0
 77
     0
 78
     0
170
     0
171
     2
172
     0
173
     0
174
     0
175
     0
176
     0
177
     0
178
     0
270
     2
271
     4
272
     4
273
     2
274
     2
340
11
275
     0
280
     0
281
     0
282
     0
283
     1
284
     0
285
     0
286
     0
287
     3
288
     0
  0
ENDTAB
  0
TABLE
  2
BLOCK_RECORD
  5
1
330
0
100
AcDbSymbolTable
 70
     1
  0
BLOCK_RECORD
  5
1F
330
1
100
AcDbSymbolTableRecord
100
AcDbBlockTableRecord
  2
*MODEL_SPACE
  0
BLOCK_RECORD
  5
1B
330
1
100
AcDbSymbolTableRecord
100
AcDbBlockTableRecord
  2
*PAPER_SPACE
  0
ENDTAB
  0
ENDSEC
  0
SECTION
  2
BLOCKS
  0
BLOCK
  5
20
330
1F
100
AcDbEntity
  8
0
100
AcDbBlockBegin
  2
*MODEL_SPACE
 70
     0
 71
     0
 10
0.0
 20
0.0
 30
0.0
  3
*MODEL_SPACE
  1

  0
ENDBLK
  5
21
330
1F
100
AcDbEntity
  8
0
100
AcDbBlockEnd
  0
BLOCK
  5
1C
330
1B
100
AcDbEntity
 67
     1
  8
0
100
AcDbBlockBegin
  2
*PAPER_SPACE
 70
     0
 71
     0
 10
0.0
 20
0.0
 30
0.0
  3
*PAPER_SPACE
  1

  0
ENDBLK
  5
1D
330
1B
100
AcDbEntity
 67
     1
  8
0
100
AcDbBlockEnd
  0
ENDSEC
  0
SECTION
  2
ENTITIES
  0
POLYLINE
  5
3C
330
1F
100
AcDbEntity
  8
EBENE_5
 62
     7
100
AcDb2dPolyline
 66
     1
 10
0.0
 20
0.0
 30
0.0
  0
VERTEX
  5
3D
330
3C
100
AcDbEntity
  8
EBENE_5
 62
     7
100
AcDbVertex
100
AcDb2dVertex
 10
-72.98245305250092
 20
-43.34515786676788
 30
0.0
  0
VERTEX
  5
3E
330
3C
100
AcDbEntity
  8
EBENE_5
 62
     7
100
AcDbVertex
100
AcDb2dVertex
 10
-22.98257649165019
 20
-43.34515786676788
 30
0.0
  0
SEQEND
  5
3F
330
3C
100
AcDbEntity
  8
EBENE_5
  0
POLYLINE
  5
40
330
1F
100
AcDbEntity
  8
EBENE_5
 62
     7
100
AcDb2dPolyline
 66
     1
 10
0.0
 20
0.0
 30
0.0
  0
VERTEX
  5
41
330
40
100
AcDbEntity
  8
EBENE_5
 62
     7
100
AcDbVertex
100
AcDb2dVertex
 10
-22.98257649165019
 20
-43.34515786676788
 30
0.0
  0
VERTEX
  5
42
330
40
100
AcDbEntity
  8
EBENE_5
 62
     7
100
AcDbVertex
100
AcDb2dVertex
 10
2.01710340661378
 20
-43.34515786676788
 30
0.0
  0
SEQEND
  5
43
330
40
100
AcDbEntity
  8
EBENE_5
  0
SPLINE
  5
44
330
1F
100
AcDbEntity
  8
EBENE_5
 62
     7
100
AcDbSpline
210
0.0
220
0.0
230
1.0
 70
    11
 71
     3
 72
    17
 73
    13
 74
     0
 42
0.0000000001
 43
0.0000000001
 40
0.0
 40
0.0
 40
0.0
 40
0.0
 40
1.0
 40
1.0
 40
1.0
 40
2.0
 40
2.0
 40
2.0
 40
3.0
 40
3.0
 40
3.0
 40
4.0
 40
4.0
 40
4.0
 40
4.0
 10
-12.09573024871218
 20
-38.97005885527485
 30
0.0
 10
-12.09573024871218
 20
-38.00336506211374
 30
0.0
 10
-12.87914496205799
 20
-37.21995034876793
 30
0.0
 10
-13.8458387552191
 20
-37.21995034876793
 30
0.0
 10
-14.81218803883168
 20
-37.21995034876793
 30
0.0
 10
-15.59594726172601
 20
-38.00336506211374
 30
0.0
 10
-15.59594726172601
 20
-38.97005885527485
 30
0.0
 10
-15.59594726172601
 20
-39.93623588411317
 30
0.0
 10
-14.81218803883168
 20
-40.71982285223324
 30
0.0
 10
-13.8458387552191
 20
-40.71982285223324
 30
0.0
 10
-12.87914496205799
 20
-40.71982285223324
 30
0.0
 10
-12.09573024871218
 20
-39.93623588411317
 30
0.0
 10
-12.09573024871218
 20
-38.97005885527485
 30
0.0
  0
POLYLINE
  5
45
330
1F
100
AcDbEntity
  8
EBENE_5
 62
     7
100
AcDb2dPolyline
 66
     1
 10
0.0
 20
0.0
 30
0.0
  0
VERTEX
  5
46
330
45
100
AcDbEntity
  8
EBENE_5
 62
     7
100
AcDbVertex
100
AcDb2dVertex
 10
-15.36168076872903
 20
-41.64345295182872
 30
0.0
  0
VERTEX
  5
47
330
45
100
AcDbEntity
  8
EBENE_5
 62
     7
100
AcDbVertex
100
AcDb2dVertex
 10
-12.38511826947317
 20
-36.35178628648497
 30
0.0
  0
SEQEND
  5
48
330
45
100
AcDbEntity
  8
EBENE_5
  0
POLYLINE
  5
49
330
1F
100
AcDbEntity
  8
EBENE_5
 62
     7
100
AcDb2dPolyline
 66
     1
 10
0.0
 20
0.0
 30
0.0
  0
VERTEX
  5
4A
330
49
100
AcDbEntity
  8
EBENE_5
 62
     7
100
AcDbVertex
100
AcDb2dVertex
 10
-72.98245305250092
 20
-52.09535588975394
 30
0.0
  0
VERTEX
  5
4B
330
49
100
AcDbEntity
  8
EBENE_5
 62
     7
100
AcDbVertex
100
AcDb2dVertex
 10
-22.98257649165019
 20
-52.09535588975394
 30
0.0
  0
SEQEND
  5
4C
330
49
100
AcDbEntity
  8
EBENE_5
  0
POLYLINE
  5
4D
330
1F
100
AcDbEntity
  8
EBENE_5
 62
     7
100
AcDb2dPolyline
 66
     1
 10
0.0
 20
0.0
 30
0.0
  0
VERTEX
  5
4E
330
4D
100
AcDbEntity
  8
EBENE_5
 62
     7
100
AcDbVertex
100
AcDb2dVertex
 10
-22.98257649165019
 20
-52.09535588975394
 30
0.0
  0
VERTEX
  5
4F
330
4D
100
AcDbEntity
  8
EBENE_5
 62
     7
100
AcDbVertex
100
AcDb2dVertex
 10
2.01710340661378
 20
-52.09535588975394
 30
0.0
  0
SEQEND
  5
50
330
4D
100
AcDbEntity
  8
EBENE_5
  0
SPLINE
  5
51
330
1F
100
AcDbEntity
  8
EBENE_5
 62
     7
100
AcDbSpline
210
0.0
220
0.0
230
1.0
 70
    11
 71
     3
 72
    17
 73
    13
 74
     0
 42
0.0000000001
 43
0.0000000001
 40
0.0
 40
0.0
 40
0.0
 40
0.0
 40
1.0
 40
1.0
 40
1.0
 40
2.0
 40
2.0
 40
2.0
 40
3.0
 40
3.0
 40
3.0
 40
4.0
 40
4.0
 40
4.0
 40
4.0
 10
-12.09573024871218
 20
-47.72008462348665
 30
0.0
 10
-12.09573024871218
 20
-46.75339083032554
 30
0.0
 10
-12.87914496205799
 20
-45.96980386220547
 30
0.0
 10
-13.8458387552191
 20
-45.96980386220547
 30
0.0
 10
-14.81218803883168
 20
-45.96980386220547
 30
0.0
 10
-15.59594726172601
 20
-46.75339083032554
 30
0.0
 10
-15.59594726172601
 20
-47.72008462348665
 30
0.0
 10
-15.59594726172601
 20
-48.68626165232497
 30
0.0
 10
-14.81218803883168
 20
-49.46984862044504
 30
0.0
 10
-13.8458387552191
 20
-49.46984862044504
 30
0.0
 10
-12.87914496205799
 20
-49.46984862044504
 30
0.0
 10
-12.09573024871218
 20
-48.68626165232497
 30
0.0
 10
-12.09573024871218
 20
-47.72008462348665
 30
0.0
  0
POLYLINE
  5
52
330
1F
100
AcDbEntity
  8
EBENE_5
 62
     7
100
AcDb2dPolyline
 66
     1
 10
0.0
 20
0.0
 30
0.0
  0
VERTEX
  5
53
330
52
100
AcDbEntity
  8
EBENE_5
 62
     7
100
AcDbVertex
100
AcDb2dVertex
 10
-15.36168076872903
 20
-50.39296195571774
 30
0.0
  0
VERTEX
  5
54
330
52
100
AcDbEntity
  8
EBENE_5
 62
     7
100
AcDbVertex
100
AcDb2dVertex
 10
-12.38511826947317
 20
-45.10163979992251
 30
0.0
  0
SEQEND
  5
55
330
52
100
AcDbEntity
  8
EBENE_5
  0
POLYLINE
  5
56
330
1F
100
AcDbEntity
  8
EBENE_5
 62
     7
100
AcDb2dPolyline
 66
     1
 10
0.0
 20
0.0
 30
0.0
  0
VERTEX
  5
57
330
56
100
AcDbEntity
  8
EBENE_5
 62
     7
100
AcDbVertex
100
AcDb2dVertex
 10
-72.98245305250092
 20
-60.84486489364296
 30
0.0
  0
VERTEX
  5
58
330
56
100
AcDbEntity
  8
EBENE_5
 62
     7
100
AcDbVertex
100
AcDb2dVertex
 10
-22.98257649165019
 20
-60.84486489364296
 30
0.0
  0
SEQEND
  5
59
330
56
100
AcDbEntity
  8
EBENE_5
  0
POLYLINE
  5
5A
330
1F
100
AcDbEntity
  8
EBENE_5
 62
     7
100
AcDb2dPolyline
 66
     1
 10
0.0
 20
0.0
 30
0.0
  0
VERTEX
  5
5B
330
5A
100
AcDbEntity
  8
EBENE_5
 62
     7
100
AcDbVertex
100
AcDb2dVertex
 10
-22.98257649165019
 20
-60.84486489364296
 30
0.0
  0
VERTEX
  5
5C
330
5A
100
AcDbEntity
  8
EBENE_5
 62
     7
100
AcDbVertex
100
AcDb2dVertex
 10
2.01710340661378
 20
-60.84486489364296
 30
0.0
  0
SEQEND
  5
5D
330
5A
100
AcDbEntity
  8
EBENE_5
  0
SPLINE
  5
5E
330
1F
100
AcDbEntity
  8
EBENE_5
 62
     7
100
AcDbSpline
210
0.0
220
0.0
230
1.0
 70
    11
 71
     3
 72
    17
 73
    13
 74
     0
 42
0.0000000001
 43
0.0000000001
 40
0.0
 40
0.0
 40
0.0
 40
0.0
 40
1.0
 40
1.0
 40
1.0
 40
2.0
 40
2.0
 40
2.0
 40
3.0
 40
3.0
 40
3.0
 40
4.0
 40
4.0
 40
4.0
 40
4.0
 10
-12.86191948463174
 20
-56.47028264647271
 30
0.0
 10
-12.86191948463174
 20
-55.50324434376308
 30
0.0
 10
-13.64533419797756
 20
-54.71948512086874
 30
0.0
 10
-14.61168348159014
 20
-54.71948512086874
 30
0.0
 10
-15.57872178429976
 20
-54.71948512086874
 30
0.0
 10
-16.36213649764558
 20
-55.50324434376308
 30
0.0
 10
-16.36213649764558
 20
-56.47028264647271
 30
0.0
 10
-16.36213649764558
 20
-57.43594291098824
 30
0.0
 10
-15.57872178429976
 20
-58.21935762433405
 30
0.0
 10
-14.61168348159014
 20
-58.21935762433405
 30
0.0
 10
-13.64533419797756
 20
-58.21935762433405
 30
0.0
 10
-12.86191948463174
 20
-57.43594291098824
 30
0.0
 10
-12.86191948463174
 20
-56.47028264647271
 30
0.0
  0
POLYLINE
  5
5F
330
1F
100
AcDbEntity
  8
EBENE_5
 62
     7
100
AcDb2dPolyline
 66
     1
 10
0.0
 20
0.0
 30
0.0
  0
VERTEX
  5
60
330
5F
100
AcDbEntity
  8
EBENE_5
 62
     7
100
AcDbVertex
100
AcDb2dVertex
 10
-16.12752549510006
 20
-59.14264321438101
 30
0.0
  0
VERTEX
  5
61
330
5F
100
AcDbEntity
  8
EBENE_5
 62
     7
100
AcDbVertex
100
AcDb2dVertex
 10
-13.15130750539273
 20
-53.85132105858578
 30
0.0
  0
SEQEND
  5
62
330
5F
100
AcDbEntity
  8
EBENE_5
  0
POLYLINE
  5
63
330
1F
100
AcDbEntity
  8
EBENE_5
 62
     7
100
AcDb2dPolyline
 66
     1
 10
0.0
 20
0.0
 30
0.0
  0
VERTEX
  5
64
330
63
100
AcDbEntity
  8
EBENE_5
 62
     7
100
AcDbVertex
100
AcDb2dVertex
 10
-72.98245305250092
 20
-69.59506291662902
 30
0.0
  0
VERTEX
  5
65
330
63
100
AcDbEntity
  8
EBENE_5
 62
     7
100
AcDbVertex
100
AcDb2dVertex
 10
-22.98257649165019
 20
-69.59506291662902
 30
0.0
  0
SEQEND
  5
66
330
63
100
AcDbEntity
  8
EBENE_5
  0
POLYLINE
  5
67
330
1F
100
AcDbEntity
  8
EBENE_5
 62
     7
100
AcDb2dPolyline
 66
     1
 10
0.0
 20
0.0
 30
0.0
  0
VERTEX
  5
68
330
67
100
AcDbEntity
  8
EBENE_5
 62
     7
100
AcDbVertex
100
AcDb2dVertex
 10
-22.98257649165019
 20
-69.59506291662902
 30
0.0
  0
VERTEX
  5
69
330
67
100
AcDbEntity
  8
EBENE_5
 62
     7
100
AcDbVertex
100
AcDb2dVertex
 10
2.01710340661378
 20
-69.59506291662902
 30
0.0
  0
SEQEND
  5
6A
330
67
100
AcDbEntity
  8
EBENE_5
  0
SPLINE
  5
6B
330
1F
100
AcDbEntity
  8
EBENE_5
 62
     7
100
AcDbSpline
210
0.0
220
0.0
230
1.0
 70
    11
 71
     3
 72
    17
 73
    13
 74
     0
 42
0.0000000001
 43
0.0000000001
 40
0.0
 40
0.0
 40
0.0
 40
0.0
 40
1.0
 40
1.0
 40
1.0
 40
2.0
 40
2.0
 40
2.0
 40
3.0
 40
3.0
 40
3.0
 40
4.0
 40
4.0
 40
4.0
 40
4.0
 10
-12.86191948463174
 20
-65.22013615991024
 30
0.0
 10
-12.86191948463174
 20
-64.25344236674914
 30
0.0
 10
-13.64533419797756
 20
-63.47002765340333
 30
0.0
 10
-14.61168348159014
 20
-63.47002765340333
 30
0.0
 10
-15.57872178429976
 20
-63.47002765340333
 30
0.0
 10
-16.36213649764558
 20
-64.25344236674914
 30
0.0
 10
-16.36213649764558
 20
-65.22013615991024
 30
0.0
 10
-16.36213649764558
 20
-66.1861409339743
 30
0.0
 10
-15.57872178429976
 20
-66.96955564732012
 30
0.0
 10
-14.61168348159014
 20
-66.96955564732012
 30
0.0
 10
-13.64533419797756
 20
-66.96955564732012
 30
0.0
 10
-12.86191948463174
 20
-66.1861409339743
 30
0.0
 10
-12.86191948463174
 20
-65.22013615991024
 30
0.0
  0
POLYLINE
  5
6C
330
1F
100
AcDbEntity
  8
EBENE_5
 62
     7
100
AcDb2dPolyline
 66
     1
 10
0.0
 20
0.0
 30
0.0
  0
VERTEX
  5
6D
330
6C
100
AcDbEntity
  8
EBENE_5
 62
     7
100
AcDbVertex
100
AcDb2dVertex
 10
-16.12752549510006
 20
-67.89284123736707
 30
0.0
  0
VERTEX
  5
6E
330
6C
100
AcDbEntity
  8
EBENE_5
 62
     7
100
AcDbVertex
100
AcDb2dVertex
 10
-13.15130750539273
 20
-62.60186359112037
 30
0.0
  0
SEQEND
  5
6F
330
6C
100
AcDbEntity
  8
EBENE_5
  0
POLYLINE
  5
70
330
1F
100
AcDbEntity
  8
EBENE_5
 62
     7
100
AcDb2dPolyline
 66
     1
 10
0.0
 20
0.0
 30
0.0
  0
VERTEX
  5
71
330
70
100
AcDbEntity
  8
EBENE_5
 62
     7
100
AcDbVertex
100
AcDb2dVertex
 10
-72.98245305250092
 20
-78.34526093961507
 30
0.0
  0
VERTEX
  5
72
330
70
100
AcDbEntity
  8
EBENE_5
 62
     7
100
AcDbVertex
100
AcDb2dVertex
 10
-22.98257649165019
 20
-78.34526093961507
 30
0.0
  0
SEQEND
  5
73
330
70
100
AcDbEntity
  8
EBENE_5
  0
POLYLINE
  5
74
330
1F
100
AcDbEntity
  8
EBENE_5
 62
     7
100
AcDb2dPolyline
 66
     1
 10
0.0
 20
0.0
 30
0.0
  0
VERTEX
  5
75
330
74
100
AcDbEntity
  8
EBENE_5
 62
     7
100
AcDbVertex
100
AcDb2dVertex
 10
-22.98257649165019
 20
-78.34526093961507
 30
0.0
  0
VERTEX
  5
76
330
74
100
AcDbEntity
  8
EBENE_5
 62
     7
100
AcDbVertex
100
AcDb2dVertex
 10
2.01710340661378
 20
-78.34526093961507
 30
0.0
  0
SEQEND
  5
77
330
74
100
AcDbEntity
  8
EBENE_5
  0
SPLINE
  5
78
330
1F
100
AcDbEntity
  8
EBENE_5
 62
     7
100
AcDbSpline
210
0.0
220
0.0
230
1.0
 70
    11
 71
     3
 72
    17
 73
    13
 74
     0
 42
0.0000000001
 43
0.0000000001
 40
0.0
 40
0.0
 40
0.0
 40
0.0
 40
1.0
 40
1.0
 40
1.0
 40
2.0
 40
2.0
 40
2.0
 40
3.0
 40
3.0
 40
3.0
 40
4.0
 40
4.0
 40
4.0
 40
4.0
 10
-12.86191948463174
 20
-73.96964516379926
 30
0.0
 10
-12.86191948463174
 20
-73.00364038973521
 30
0.0
 10
-13.64533419797756
 20
-72.21988116684086
 30
0.0
 10
-14.61168348159014
 20
-72.21988116684086
 30
0.0
 10
-15.57872178429976
 20
-72.21988116684086
 30
0.0
 10
-16.36213649764558
 20
-73.00364038973521
 30
0.0
 10
-16.36213649764558
 20
-73.96964516379926
 30
0.0
 10
-16.36213649764558
 20
-74.93668346650888
 30
0.0
 10
-15.57872178429976
 20
-75.71975367030618
 30
0.0
 10
-14.61168348159014
 20
-75.71975367030618
 30
0.0
 10
-13.64533419797756
 20
-75.71975367030618
 30
0.0
 10
-12.86191948463174
 20
-74.93668346650888
 30
0.0
 10
-12.86191948463174
 20
-73.96964516379926
 30
0.0
  0
POLYLINE
  5
79
330
1F
100
AcDbEntity
  8
EBENE_5
 62
     7
100
AcDb2dPolyline
 66
     1
 10
0.0
 20
0.0
 30
0.0
  0
VERTEX
  5
7A
330
79
100
AcDbEntity
  8
EBENE_5
 62
     7
100
AcDbVertex
100
AcDb2dVertex
 10
-16.12752549510006
 20
-76.64303926035313
 30
0.0
  0
VERTEX
  5
7B
330
79
100
AcDbEntity
  8
EBENE_5
 62
     7
100
AcDbVertex
100
AcDb2dVertex
 10
-13.15130750539273
 20
-71.3517171045579
 30
0.0
  0
SEQEND
  5
7C
330
79
100
AcDbEntity
  8
EBENE_5
  0
POLYLINE
  5
7D
330
1F
100
AcDbEntity
  8
EBENE_5
 62
     7
100
AcDb2dPolyline
 66
     1
 10
0.0
 20
0.0
 30
0.0
  0
VERTEX
  5
7E
330
7D
100
AcDbEntity
  8
EBENE_5
 62
     7
100
AcDbVertex
100
AcDb2dVertex
 10
-72.98245305250092
 20
-87.09442543395556
 30
0.0
  0
VERTEX
  5
7F
330
7D
100
AcDbEntity
  8
EBENE_5
 62
     7
100
AcDbVertex
100
AcDb2dVertex
 10
-22.98257649165019
 20
-87.09442543395556
 30
0.0
  0
SEQEND
  5
80
330
7D
100
AcDbEntity
  8
EBENE_5
  0
POLYLINE
  5
81
330
1F
100
AcDbEntity
  8
EBENE_5
 62
     7
100
AcDb2dPolyline
 66
     1
 10
0.0
 20
0.0
 30
0.0
  0
VERTEX
  5
82
330
81
100
AcDbEntity
  8
EBENE_5
 62
     7
100
AcDbVertex
100
AcDb2dVertex
 10
-22.98257649165019
 20
-87.09442543395556
 30
0.0
  0
VERTEX
  5
83
330
81
100
AcDbEntity
  8
EBENE_5
 62
     7
100
AcDbVertex
100
AcDb2dVertex
 10
2.01710340661378
 20
-87.09442543395556
 30
0.0
  0
SEQEND
  5
84
330
81
100
AcDbEntity
  8
EBENE_5
  0
SPLINE
  5
85
330
1F
100
AcDbEntity
  8
EBENE_5
 62
     7
100
AcDbSpline
210
0.0
220
0.0
230
1.0
 70
    11
 71
     3
 72
    17
 73
    13
 74
     0
 42
0.0000000001
 43
0.0000000001
 40
0.0
 40
0.0
 40
0.0
 40
0.0
 40
1.0
 40
1.0
 40
1.0
 40
2.0
 40
2.0
 40
2.0
 40
3.0
 40
3.0
 40
3.0
 40
4.0
 40
4.0
 40
4.0
 40
4.0
 10
-13.02556152018111
 20
-82.71984318678533
 30
0.0
 10
-13.02556152018111
 20
-81.75280488407569
 30
0.0
 10
-13.80932074307545
 20
-80.96939017072988
 30
0.0
 10
-14.7753255171395
 20
-80.96939017072988
 30
0.0
 10
-15.74201931030061
 20
-80.96939017072988
 30
0.0
 10
-16.52543402364642
 20
-81.75280488407569
 30
0.0
 10
-16.52543402364642
 20
-82.71984318678533
 30
0.0
 10
-16.52543402364642
 20
-83.68653697994642
 30
0.0
 10
-15.74201931030061
 20
-84.47029620284076
 30
0.0
 10
-14.7753255171395
 20
-84.47029620284076
 30
0.0
 10
-13.80932074307545
 20
-84.47029620284076
 30
0.0
 10
-13.02556152018111
 20
-83.68653697994642
 30
0.0
 10
-13.02556152018111
 20
-82.71984318678533
 30
0.0
  0
POLYLINE
  5
86
330
1F
100
AcDbEntity
  8
EBENE_5
 62
     7
100
AcDb2dPolyline
 66
     1
 10
0.0
 20
0.0
 30
0.0
  0
VERTEX
  5
87
330
86
100
AcDbEntity
  8
EBENE_5
 62
     7
100
AcDbVertex
100
AcDb2dVertex
 10
-16.29151204019795
 20
-85.39358179288772
 30
0.0
  0
VERTEX
  5
88
330
86
100
AcDbEntity
  8
EBENE_5
 62
     7
100
AcDbVertex
100
AcDb2dVertex
 10
-13.31529405049062
 20
-80.10191512754398
 30
0.0
  0
SEQEND
  5
89
330
86
100
AcDbEntity
  8
EBENE_5
  0
POLYLINE
  5
8A
330
1F
100
AcDbEntity
  8
EBENE_5
 62
     7
100
AcDb2dPolyline
 66
     1
 10
0.0
 20
0.0
 30
0.0
  0
VERTEX
  5
8B
330
8A
100
AcDbEntity
  8
EBENE_5
 62
     7
100
AcDbVertex
100
AcDb2dVertex
 10
-72.98245305250092
 20
-95.84462345694163
 30
0.0
  0
VERTEX
  5
8C
330
8A
100
AcDbEntity
  8
EBENE_5
 62
     7
100
AcDbVertex
100
AcDb2dVertex
 10
-22.98257649165019
 20
-95.84462345694163
 30
0.0
  0
SEQEND
  5
8D
330
8A
100
AcDbEntity
  8
EBENE_5
  0
POLYLINE
  5
8E
330
1F
100
AcDbEntity
  8
EBENE_5
 62
     7
100
AcDb2dPolyline
 66
     1
 10
0.0
 20
0.0
 30
0.0
  0
VERTEX
  5
8F
330
8E
100
AcDbEntity
  8
EBENE_5
 62
     7
100
AcDbVertex
100
AcDb2dVertex
 10
-22.98257649165019
 20
-95.84462345694163
 30
0.0
  0
VERTEX
  5
90
330
8E
100
AcDbEntity
  8
EBENE_5
 62
     7
100
AcDbVertex
100
AcDb2dVertex
 10
2.01710340661378
 20
-95.84462345694163
 30
0.0
  0
SEQEND
  5
91
330
8E
100
AcDbEntity
  8
EBENE_5
  0
SPLINE
  5
92
330
1F
100
AcDbEntity
  8
EBENE_5
 62
     7
100
AcDbSpline
210
0.0
220
0.0
230
1.0
 70
    11
 71
     3
 72
    17
 73
    13
 74
     0
 42
0.0000000001
 43
0.0000000001
 40
0.0
 40
0.0
 40
0.0
 40
0.0
 40
1.0
 40
1.0
 40
1.0
 40
2.0
 40
2.0
 40
2.0
 40
3.0
 40
3.0
 40
3.0
 40
4.0
 40
4.0
 40
4.0
 40
4.0
 10
-12.86191948463174
 20
-91.47004120977138
 30
0.0
 10
-12.86191948463174
 20
-90.50300290706176
 30
0.0
 10
-13.64533419797756
 20
-89.71958819371594
 30
0.0
 10
-14.61168348159014
 20
-89.71958819371594
 30
0.0
 10
-15.57872178429976
 20
-89.71958819371594
 30
0.0
 10
-16.36213649764558
 20
-90.50300290706176
 30
0.0
 10
-16.36213649764558
 20
-91.47004120977138
 30
0.0
 10
-16.36213649764558
 20
-92.43604598383544
 30
0.0
 10
-15.57872178429976
 20
-93.21946069718125
 30
0.0
 10
-14.61168348159014
 20
-93.21946069718125
 30
0.0
 10
-13.64533419797756
 20
-93.21946069718125
 30
0.0
 10
-12.86191948463174
 20
-92.43604598383544
 30
0.0
 10
-12.86191948463174
 20
-91.47004120977138
 30
0.0
  0
POLYLINE
  5
93
330
1F
100
AcDbEntity
  8
EBENE_5
 62
     7
100
AcDb2dPolyline
 66
     1
 10
0.0
 20
0.0
 30
0.0
  0
VERTEX
  5
94
330
93
100
AcDbEntity
  8
EBENE_5
 62
     7
100
AcDbVertex
100
AcDb2dVertex
 10
-16.12752549510006
 20
-94.14309079677673
 30
0.0
  0
VERTEX
  5
95
330
93
100
AcDbEntity
  8
EBENE_5
 62
     7
100
AcDbVertex
100
AcDb2dVertex
 10
-13.15130750539273
 20
-88.85211315053003
 30
0.0
  0
SEQEND
  5
96
330
93
100
AcDbEntity
  8
EBENE_5
  0
POLYLINE
  5
97
330
1F
100
AcDbEntity
  8
EBENE_5
 62
     7
100
AcDb2dPolyline
 66
     1
 10
0.0
 20
0.0
 30
0.0
  0
VERTEX
  5
98
330
97
100
AcDbEntity
  8
EBENE_5
 62
     7
100
AcDbVertex
100
AcDb2dVertex
 10
-72.98245305250092
 20
-104.5948214799277
 30
0.0
  0
VERTEX
  5
99
330
97
100
AcDbEntity
  8
EBENE_5
 62
     7
100
AcDbVertex
100
AcDb2dVertex
 10
-22.98257649165019
 20
-104.5948214799277
 30
0.0
  0
SEQEND
  5
9A
330
97
100
AcDbEntity
  8
EBENE_5
  0
POLYLINE
  5
9B
330
1F
100
AcDbEntity
  8
EBENE_5
 62
     7
100
AcDb2dPolyline
 66
     1
 10
0.0
 20
0.0
 30
0.0
  0
VERTEX
  5
9C
330
9B
100
AcDbEntity
  8
EBENE_5
 62
     7
100
AcDbVertex
100
AcDb2dVertex
 10
-22.98257649165019
 20
-104.5948214799277
 30
0.0
  0
VERTEX
  5
9D
330
9B
100
AcDbEntity
  8
EBENE_5
 62
     7
100
AcDbVertex
100
AcDb2dVertex
 10
2.01710340661378
 20
-104.5948214799277
 30
0.0
  0
SEQEND
  5
9E
330
9B
100
AcDbEntity
  8
EBENE_5
  0
SPLINE
  5
9F
330
1F
100
AcDbEntity
  8
EBENE_5
 62
     7
100
AcDbSpline
210
0.0
220
0.0
230
1.0
 70
    11
 71
     3
 72
    17
 73
    13
 74
     0
 42
0.0000000001
 43
0.0000000001
 40
0.0
 40
0.0
 40
0.0
 40
0.0
 40
1.0
 40
1.0
 40
1.0
 40
2.0
 40
2.0
 40
2.0
 40
3.0
 40
3.0
 40
3.0
 40
4.0
 40
4.0
 40
4.0
 40
4.0
 10
-12.86191948463174
 20
-100.2195502136604
 30
0.0
 10
-12.86191948463174
 20
-99.25354543959634
 30
0.0
 10
-13.64533419797756
 20
-98.47013072625053
 30
0.0
 10
-14.61168348159014
 20
-98.47013072625053
 30
0.0
 10
-15.57872178429976
 20
-98.47013072625053
 30
0.0
 10
-16.36213649764558
 20
-99.25354543959634
 30
0.0
 10
-16.36213649764558
 20
-100.2195502136604
 30
0.0
 10
-16.36213649764558
 20
-101.1862440068215
 30
0.0
 10
-15.57872178429976
 20
-101.9696587201673
 30
0.0
 10
-14.61168348159014
 20
-101.9696587201673
 30
0.0
 10
-13.64533419797756
 20
-101.9696587201673
 30
0.0
 10
-12.86191948463174
 20
-101.1862440068215
 30
0.0
 10
-12.86191948463174
 20
-100.2195502136604
 30
0.0
  0
POLYLINE
  5
A0
330
1F
100
AcDbEntity
  8
EBENE_5
 62
     7
100
AcDb2dPolyline
 66
     1
 10
0.0
 20
0.0
 30
0.0
  0
VERTEX
  5
A1
330
A0
100
AcDbEntity
  8
EBENE_5
 62
     7
100
AcDbVertex
100
AcDb2dVertex
 10
-16.12752549510006
 20
-102.8936333293113
 30
0.0
  0
VERTEX
  5
A2
330
A0
100
AcDbEntity
  8
EBENE_5
 62
     7
100
AcDbVertex
100
AcDb2dVertex
 10
-13.15130750539273
 20
-97.60196666396757
 30
0.0
  0
SEQEND
  5
A3
330
A0
100
AcDbEntity
  8
EBENE_5
  0
POLYLINE
  5
A4
330
1F
100
AcDbEntity
  8
EBENE_5
 62
     7
100
AcDb2dPolyline
 66
     1
 10
0.0
 20
0.0
 30
0.0
  0
VERTEX
  5
A5
330
A4
100
AcDbEntity
  8
EBENE_5
 62
     7
100
AcDbVertex
100
AcDb2dVertex
 10
-72.98245305250092
 20
-113.3446749933652
 30
0.0
  0
VERTEX
  5
A6
330
A4
100
AcDbEntity
  8
EBENE_5
 62
     7
100
AcDbVertex
100
AcDb2dVertex
 10
-22.98257649165019
 20
-113.3446749933652
 30
0.0
  0
SEQEND
  5
A7
330
A4
100
AcDbEntity
  8
EBENE_5
  0
POLYLINE
  5
A8
330
1F
100
AcDbEntity
  8
EBENE_5
 62
     7
100
AcDb2dPolyline
 66
     1
 10
0.0
 20
0.0
 30
0.0
  0
VERTEX
  5
A9
330
A8
100
AcDbEntity
  8
EBENE_5
 62
     7
100
AcDbVertex
100
AcDb2dVertex
 10
-22.98257649165019
 20
-113.3446749933652
 30
0.0
  0
VERTEX
  5
AA
330
A8
100
AcDbEntity
  8
EBENE_5
 62
     7
100
AcDbVertex
100
AcDb2dVertex
 10
2.01710340661378
 20
-113.3446749933652
 30
0.0
  0
SEQEND
  5
AB
330
A8
100
AcDbEntity
  8
EBENE_5
  0
SPLINE
  5
AC
330
1F
100
AcDbEntity
  8
EBENE_5
 62
     7
100
AcDbSpline
210
0.0
220
0.0
230
1.0
 70
    11
 71
     3
 72
    17
 73
    13
 74
     0
 42
0.0000000001
 43
0.0000000001
 40
0.0
 40
0.0
 40
0.0
 40
0.0
 40
1.0
 40
1.0
 40
1.0
 40
2.0
 40
2.0
 40
2.0
 40
3.0
 40
3.0
 40
3.0
 40
4.0
 40
4.0
 40
4.0
 40
4.0
 10
-12.86191948463174
 20
-108.9697482366465
 30
0.0
 10
-12.86191948463174
 20
-108.0037434625824
 30
0.0
 10
-13.64533419797756
 20
-107.2203287492366
 30
0.0
 10
-14.61168348159014
 20
-107.2203287492366
 30
0.0
 10
-15.57872178429976
 20
-107.2203287492366
 30
0.0
 10
-16.36213649764558
 20
-108.0037434625824
 30
0.0
 10
-16.36213649764558
 20
-108.9697482366465
 30
0.0
 10
-16.36213649764558
 20
-109.9364420298076
 30
0.0
 10
-15.57872178429976
 20
-110.7198567431534
 30
0.0
 10
-14.61168348159014
 20
-110.7198567431534
 30
0.0
 10
-13.64533419797756
 20
-110.7198567431534
 30
0.0
 10
-12.86191948463174
 20
-109.9364420298076
 30
0.0
 10
-12.86191948463174
 20
-108.9697482366465
 30
0.0
  0
POLYLINE
  5
AD
330
1F
100
AcDbEntity
  8
EBENE_5
 62
     7
100
AcDb2dPolyline
 66
     1
 10
0.0
 20
0.0
 30
0.0
  0
VERTEX
  5
AE
330
AD
100
AcDbEntity
  8
EBENE_5
 62
     7
100
AcDbVertex
100
AcDb2dVertex
 10
-16.12752549510006
 20
-111.6431423332003
 30
0.0
  0
VERTEX
  5
AF
330
AD
100
AcDbEntity
  8
EBENE_5
 62
     7
100
AcDbVertex
100
AcDb2dVertex
 10
-13.15130750539273
 20
-106.3514756678566
 30
0.0
  0
SEQEND
  5
B0
330
AD
100
AcDbEntity
  8
EBENE_5
  0
POLYLINE
  5
B1
330
1F
100
AcDbEntity
  8
EBENE_5
 62
     7
100
AcDb2dPolyline
 66
     1
 10
0.0
 20
0.0
 30
0.0
  0
VERTEX
  5
B2
330
B1
100
AcDbEntity
  8
EBENE_5
 62
     7
100
AcDbVertex
100
AcDb2dVertex
 10
-72.98245305250092
 20
-122.0945285068028
 30
0.0
  0
VERTEX
  5
B3
330
B1
100
AcDbEntity
  8
EBENE_5
 62
     7
100
AcDbVertex
100
AcDb2dVertex
 10
-22.98257649165019
 20
-122.0945285068028
 30
0.0
  0
SEQEND
  5
B4
330
B1
100
AcDbEntity
  8
EBENE_5
  0
POLYLINE
  5
B5
330
1F
100
AcDbEntity
  8
EBENE_5
 62
     7
100
AcDb2dPolyline
 66
     1
 10
0.0
 20
0.0
 30
0.0
  0
VERTEX
  5
B6
330
B5
100
AcDbEntity
  8
EBENE_5
 62
     7
100
AcDbVertex
100
AcDb2dVertex
 10
-22.98257649165019
 20
-122.0945285068028
 30
0.0
  0
VERTEX
  5
B7
330
B5
100
AcDbEntity
  8
EBENE_5
 62
     7
100
AcDbVertex
100
AcDb2dVertex
 10
2.01710340661378
 20
-122.0945285068028
 30
0.0
  0
SEQEND
  5
B8
330
B5
100
AcDbEntity
  8
EBENE_5
  0
SPLINE
  5
B9
330
1F
100
AcDbEntity
  8
EBENE_5
 62
     7
100
AcDbSpline
210
0.0
220
0.0
230
1.0
 70
    11
 71
     3
 72
    17
 73
    13
 74
     0
 42
0.0000000001
 43
0.0000000001
 40
0.0
 40
0.0
 40
0.0
 40
0.0
 40
1.0
 40
1.0
 40
1.0
 40
2.0
 40
2.0
 40
2.0
 40
3.0
 40
3.0
 40
3.0
 40
4.0
 40
4.0
 40
4.0
 40
4.0
 10
-12.86191948463174
 20
-117.7199462596325
 30
0.0
 10
-12.86191948463174
 20
-116.7532524664714
 30
0.0
 10
-13.64533419797756
 20
-115.9698377531256
 30
0.0
 10
-14.61168348159014
 20
-115.9698377531256
 30
0.0
 10
-15.57872178429976
 20
-115.9698377531256
 30
0.0
 10
-16.36213649764558
 20
-116.7532524664714
 30
0.0
 10
-16.36213649764558
 20
-117.7199462596325
 30
0.0
 10
-16.36213649764558
 20
-118.6859510336966
 30
0.0
 10
-15.57872178429976
 20
-119.4693657470424
 30
0.0
 10
-14.61168348159014
 20
-119.4693657470424
 30
0.0
 10
-13.64533419797756
 20
-119.4693657470424
 30
0.0
 10
-12.86191948463174
 20
-118.6859510336966
 30
0.0
 10
-12.86191948463174
 20
-117.7199462596325
 30
0.0
  0
POLYLINE
  5
BA
330
1F
100
AcDbEntity
  8
EBENE_5
 62
     7
100
AcDb2dPolyline
 66
     1
 10
0.0
 20
0.0
 30
0.0
  0
VERTEX
  5
BB
330
BA
100
AcDbEntity
  8
EBENE_5
 62
     7
100
AcDbVertex
100
AcDb2dVertex
 10
-16.12752549510006
 20
-120.3933403561864
 30
0.0
  0
VERTEX
  5
BC
330
BA
100
AcDbEntity
  8
EBENE_5
 62
     7
100
AcDbVertex
100
AcDb2dVertex
 10
-13.15130750539273
 20
-115.1016736908426
 30
0.0
  0
SEQEND
  5
BD
330
BA
100
AcDbEntity
  8
EBENE_5
  0
POLYLINE
  5
BE
330
1F
100
AcDbEntity
  8
EBENE_5
 62
     7
100
AcDb2dPolyline
 66
     1
 10
0.0
 20
0.0
 30
0.0
  0
VERTEX
  5
BF
330
BE
100
AcDbEntity
  8
EBENE_5
 62
     7
100
AcDbVertex
100
AcDb2dVertex
 10
-72.98245305250092
 20
-130.8443820202403
 30
0.0
  0
VERTEX
  5
C0
330
BE
100
AcDbEntity
  8
EBENE_5
 62
     7
100
AcDbVertex
100
AcDb2dVertex
 10
-22.98257649165019
 20
-130.8443820202403
 30
0.0
  0
SEQEND
  5
C1
330
BE
100
AcDbEntity
  8
EBENE_5
  0
POLYLINE
  5
C2
330
1F
100
AcDbEntity
  8
EBENE_5
 62
     7
100
AcDb2dPolyline
 66
     1
 10
0.0
 20
0.0
 30
0.0
  0
VERTEX
  5
C3
330
C2
100
AcDbEntity
  8
EBENE_5
 62
     7
100
AcDbVertex
100
AcDb2dVertex
 10
-22.98257649165019
 20
-130.8443820202403
 30
0.0
  0
VERTEX
  5
C4
330
C2
100
AcDbEntity
  8
EBENE_5
 62
     7
100
AcDbVertex
100
AcDb2dVertex
 10
2.01710340661378
 20
-130.8443820202403
 30
0.0
  0
SEQEND
  5
C5
330
C2
100
AcDbEntity
  8
EBENE_5
  0
SPLINE
  5
C6
330
1F
100
AcDbEntity
  8
EBENE_5
 62
     7
100
AcDbSpline
210
0.0
220
0.0
230
1.0
 70
    11
 71
     3
 72
    17
 73
    13
 74
     0
 42
0.0000000001
 43
0.0000000001
 40
0.0
 40
0.0
 40
0.0
 40
0.0
 40
1.0
 40
1.0
 40
1.0
 40
2.0
 40
2.0
 40
2.0
 40
3.0
 40
3.0
 40
3.0
 40
4.0
 40
4.0
 40
4.0
 40
4.0
 10
-15.15842013509928
 20
-126.4701442826186
 30
0.0
 10
-15.15842013509928
 20
-125.503105979909
 30
0.0
 10
-15.9418348484451
 20
-124.7193467570146
 30
0.0
 10
-16.9085286416062
 20
-124.7193467570146
 30
0.0
 10
-17.87487792521878
 20
-124.7193467570146
 30
0.0
 10
-18.65863714811312
 20
-125.503105979909
 30
0.0
 10
-18.65863714811312
 20
-126.4701442826186
 30
0.0
 10
-18.65863714811312
 20
-127.4364935662312
 30
0.0
 10
-17.87487792521878
 20
-128.2195637700285
 30
0.0
 10
-16.9085286416062
 20
-128.2195637700285
 30
0.0
 10
-15.9418348484451
 20
-128.2195637700285
 30
0.0
 10
-15.15842013509928
 20
-127.4364935662312
 30
0.0
 10
-15.15842013509928
 20
-126.4701442826186
 30
0.0
  0
POLYLINE
  5
C7
330
1F
100
AcDbEntity
  8
EBENE_5
 62
     7
100
AcDb2dPolyline
 66
     1
 10
0.0
 20
0.0
 30
0.0
  0
VERTEX
  5
C8
330
C7
100
AcDbEntity
  8
EBENE_5
 62
     7
100
AcDbVertex
100
AcDb2dVertex
 10
-18.42437065511613
 20
-129.1431938696239
 30
0.0
  0
VERTEX
  5
C9
330
C7
100
AcDbEntity
  8
EBENE_5
 62
     7
100
AcDbVertex
100
AcDb2dVertex
 10
-15.4481526654088
 20
-123.8522162233772
 30
0.0
  0
SEQEND
  5
CA
330
C7
100
AcDbEntity
  8
EBENE_5
  0
POLYLINE
  5
CB
330
1F
100
AcDbEntity
  8
EBENE_5
 62
     7
100
AcDb2dPolyline
 66
     1
 10
0.0
 20
0.0
 30
0.0
  0
VERTEX
  5
CC
330
CB
100
AcDbEntity
  8
EBENE_5
 62
     7
100
AcDbVertex
100
AcDb2dVertex
 10
-72.98245305250092
 20
-139.5949245527749
 30
0.0
  0
VERTEX
  5
CD
330
CB
100
AcDbEntity
  8
EBENE_5
 62
     7
100
AcDbVertex
100
AcDb2dVertex
 10
-22.98257649165019
 20
-139.5949245527749
 30
0.0
  0
SEQEND
  5
CE
330
CB
100
AcDbEntity
  8
EBENE_5
  0
POLYLINE
  5
CF
330
1F
100
AcDbEntity
  8
EBENE_5
 62
     7
100
AcDb2dPolyline
 66
     1
 10
0.0
 20
0.0
 30
0.0
  0
VERTEX
  5
D0
330
CF
100
AcDbEntity
  8
EBENE_5
 62
     7
100
AcDbVertex
100
AcDb2dVertex
 10
-22.98257649165019
 20
-139.5949245527749
 30
0.0
  0
VERTEX
  5
D1
330
CF
100
AcDbEntity
  8
EBENE_5
 62
     7
100
AcDbVertex
100
AcDb2dVertex
 10
2.01710340661378
 20
-139.5949245527749
 30
0.0
  0
SEQEND
  5
D2
330
CF
100
AcDbEntity
  8
EBENE_5
  0
SPLINE
  5
D3
330
1F
100
AcDbEntity
  8
EBENE_5
 62
     7
100
AcDbSpline
210
0.0
220
0.0
230
1.0
 70
    11
 71
     3
 72
    17
 73
    13
 74
     0
 42
0.0000000001
 43
0.0000000001
 40
0.0
 40
0.0
 40
0.0
 40
0.0
 40
1.0
 40
1.0
 40
1.0
 40
2.0
 40
2.0
 40
2.0
 40
3.0
 40
3.0
 40
3.0
 40
4.0
 40
4.0
 40
4.0
 40
4.0
 10
-13.16233181094553
 20
-135.2203423056046
 30
0.0
 10
-13.16233181094553
 20
-134.253304002895
 30
0.0
 10
-13.94574652429134
 20
-133.4698892895492
 30
0.0
 10
-14.91244031745245
 20
-133.4698892895492
 30
0.0
 10
-15.87878960106502
 20
-133.4698892895492
 30
0.0
 10
-16.66254882395936
 20
-134.253304002895
 30
0.0
 10
-16.66254882395936
 20
-135.2203423056046
 30
0.0
 10
-16.66254882395936
 20
-136.1863470796687
 30
0.0
 10
-15.87878960106502
 20
-136.9697617930145
 30
0.0
 10
-14.91244031745245
 20
-136.9697617930145
 30
0.0
 10
-13.94574652429134
 20
-136.9697617930145
 30
0.0
 10
-13.16233181094553
 20
-136.1863470796687
 30
0.0
 10
-13.16233181094553
 20
-135.2203423056046
 30
0.0
  0
POLYLINE
  5
D4
330
1F
100
AcDbEntity
  8
EBENE_5
 62
     7
100
AcDb2dPolyline
 66
     1
 10
0.0
 20
0.0
 30
0.0
  0
VERTEX
  5
D5
330
D4
100
AcDbEntity
  8
EBENE_5
 62
     7
100
AcDbVertex
100
AcDb2dVertex
 10
-16.42828233096238
 20
-137.8930473830615
 30
0.0
  0
VERTEX
  5
D6
330
D4
100
AcDbEntity
  8
EBENE_5
 62
     7
100
AcDbVertex
100
AcDb2dVertex
 10
-13.45171983170652
 20
-132.6020697368148
 30
0.0
  0
SEQEND
  5
D7
330
D4
100
AcDbEntity
  8
EBENE_5
  0
SPLINE
  5
D8
330
1F
100
AcDbEntity
  8
EBENE_5
 62
     7
100
AcDbSpline
210
0.0
220
0.0
230
1.0
 70
    11
 71
     3
 72
    17
 73
    13
 74
     0
 42
0.0000000001
 43
0.0000000001
 40
0.0
 40
0.0
 40
0.0
 40
0.0
 40
1.0
 40
1.0
 40
1.0
 40
2.0
 40
2.0
 40
2.0
 40
3.0
 40
3.0
 40
3.0
 40
4.0
 40
4.0
 40
4.0
 40
4.0
 10
-13.16233181094553
 20
-143.9705403285907
 30
0.0
 10
-13.16233181094553
 20
-143.002813006784
 30
0.0
 10
-13.94574652429134
 20
-142.2193982934382
 30
0.0
 10
-14.91244031745245
 20
-142.2193982934382
 30
0.0
 10
-15.87878960106502
 20
-142.2193982934382
 30
0.0
 10
-16.66254882395936
 20
-143.002813006784
 30
0.0
 10
-16.66254882395936
 20
-143.9705403285907
 30
0.0
 10
-16.66254882395936
 20
-144.9365451026547
 30
0.0
 10
-15.87878960106502
 20
-145.7199598160006
 30
0.0
 10
-14.91244031745245
 20
-145.7199598160006
 30
0.0
 10
-13.94574652429134
 20
-145.7199598160006
 30
0.0
 10
-13.16233181094553
 20
-144.9365451026547
 30
0.0
 10
-13.16233181094553
 20
-143.9705403285907
 30
0.0
  0
POLYLINE
  5
D9
330
1F
100
AcDbEntity
  8
EBENE_5
 62
     7
100
AcDb2dPolyline
 66
     1
 10
0.0
 20
0.0
 30
0.0
  0
VERTEX
  5
DA
330
D9
100
AcDbEntity
  8
EBENE_5
 62
     7
100
AcDbVertex
100
AcDb2dVertex
 10
-16.42828233096238
 20
-146.6432454060475
 30
0.0
  0
VERTEX
  5
DB
330
D9
100
AcDbEntity
  8
EBENE_5
 62
     7
100
AcDbVertex
100
AcDb2dVertex
 10
-13.45171983170652
 20
-141.3519232502523
 30
0.0
  0
SEQEND
  5
DC
330
D9
100
AcDbEntity
  8
EBENE_5
  0
POLYLINE
  5
DD
330
1F
100
AcDbEntity
  8
EBENE_5
 62
   112
100
AcDb2dPolyline
 66
     1
 10
0.0
 20
0.0
 30
0.0
  0
VERTEX
  5
DE
330
DD
100
AcDbEntity
  8
EBENE_5
 62
   112
100
AcDbVertex
100
AcDb2dVertex
 10
-72.98245305250092
 20
-27.59469807252841
 30
0.0
  0
VERTEX
  5
DF
330
DD
100
AcDbEntity
  8
EBENE_5
 62
   112
100
AcDbVertex
100
AcDb2dVertex
 10
-72.98245305250092
 20
-34.59530435333034
 30
0.0
  0
VERTEX
  5
E0
330
DD
100
AcDbEntity
  8
EBENE_5
 62
   112
100
AcDbVertex
100
AcDb2dVertex
 10
-72.98245305250092
 20
-43.34515786676788
 30
0.0
  0
VERTEX
  5
E1
330
DD
100
AcDbEntity
  8
EBENE_5
 62
   112
100
AcDbVertex
100
AcDb2dVertex
 10
-72.98245305250092
 20
-52.09535588975394
 30
0.0
  0
VERTEX
  5
E2
330
DD
100
AcDbEntity
  8
EBENE_5
 62
   112
100
AcDbVertex
100
AcDb2dVertex
 10
-72.98245305250092
 20
-60.84486489364296
 30
0.0
  0
VERTEX
  5
E3
330
DD
100
AcDbEntity
  8
EBENE_5
 62
   112
100
AcDbVertex
100
AcDb2dVertex
 10
-72.98245305250092
 20
-69.59506291662902
 30
0.0
  0
VERTEX
  5
E4
330
DD
100
AcDbEntity
  8
EBENE_5
 62
   112
100
AcDbVertex
100
AcDb2dVertex
 10
-72.98245305250092
 20
-78.34526093961507
 30
0.0
  0
VERTEX
  5
E5
330
DD
100
AcDbEntity
  8
EBENE_5
 62
   112
100
AcDbVertex
100
AcDb2dVertex
 10
-72.98245305250092
 20
-87.09442543395556
 30
0.0
  0
VERTEX
  5
E6
330
DD
100
AcDbEntity
  8
EBENE_5
 62
   112
100
AcDbVertex
100
AcDb2dVertex
 10
-72.98245305250092
 20
-95.84462345694163
 30
0.0
  0
VERTEX
  5
E7
330
DD
100
AcDbEntity
  8
EBENE_5
 62
   112
100
AcDbVertex
100
AcDb2dVertex
 10
-72.98245305250092
 20
-104.5948214799277
 30
0.0
  0
VERTEX
  5
E8
330
DD
100
AcDbEntity
  8
EBENE_5
 62
   112
100
AcDbVertex
100
AcDb2dVertex
 10
-72.98245305250092
 20
-113.3446749933652
 30
0.0
  0
VERTEX
  5
E9
330
DD
100
AcDbEntity
  8
EBENE_5
 62
   112
100
AcDbVertex
100
AcDb2dVertex
 10
-72.98245305250092
 20
-122.0945285068028
 30
0.0
  0
VERTEX
  5
EA
330
DD
100
AcDbEntity
  8
EBENE_5
 62
   112
100
AcDbVertex
100
AcDb2dVertex
 10
-72.98245305250092
 20
-130.8443820202403
 30
0.0
  0
VERTEX
  5
EB
330
DD
100
AcDbEntity
  8
EBENE_5
 62
   112
100
AcDbVertex
100
AcDb2dVertex
 10
-72.98245305250092
 20
-139.5949245527749
 30
0.0
  0
VERTEX
  5
EC
330
DD
100
AcDbEntity
  8
EBENE_5
 62
   112
100
AcDbVertex
100
AcDb2dVertex
 10
-72.98245305250092
 20
-148.3451225757609
 30
0.0
  0
SEQEND
  5
ED
330
DD
100
AcDbEntity
  8
EBENE_5
  0
POLYLINE
  5
EE
330
1F
100
AcDbEntity
  8
EBENE_5
 62
   112
100
AcDb2dPolyline
 66
     1
 10
0.0
 20
0.0
 30
0.0
  0
VERTEX
  5
EF
330
EE
100
AcDbEntity
  8
EBENE_5
 62
   112
100
AcDbVertex
100
AcDb2dVertex
 10
-72.98245305250092
 20
-27.59469807252841
 30
0.0
  0
VERTEX
  5
F0
330
EE
100
AcDbEntity
  8
EBENE_5
 62
   112
100
AcDbVertex
100
AcDb2dVertex
 10
-22.98257649165019
 20
-27.59469807252841
 30
0.0
  0
VERTEX
  5
F1
330
EE
100
AcDbEntity
  8
EBENE_5
 62
   112
100
AcDbVertex
100
AcDb2dVertex
 10
2.01710340661378
 20
-27.59469807252841
 30
0.0
  0
SEQEND
  5
F2
330
EE
100
AcDbEntity
  8
EBENE_5
  0
POLYLINE
  5
F3
330
1F
100
AcDbEntity
  8
EBENE_5
 62
   112
100
AcDb2dPolyline
 66
     1
 10
0.0
 20
0.0
 30
0.0
  0
VERTEX
  5
F4
330
F3
100
AcDbEntity
  8
EBENE_5
 62
   112
100
AcDbVertex
100
AcDb2dVertex
 10
-72.98245305250092
 20
-34.59530435333034
 30
0.0
  0
VERTEX
  5
F5
330
F3
100
AcDbEntity
  8
EBENE_5
 62
   112
100
AcDbVertex
100
AcDb2dVertex
 10
-22.98257649165019
 20
-34.59530435333034
 30
0.0
  0
SEQEND
  5
F6
330
F3
100
AcDbEntity
  8
EBENE_5
  0
POLYLINE
  5
F7
330
1F
100
AcDbEntity
  8
EBENE_5
 62
   112
100
AcDb2dPolyline
 66
     1
 10
0.0
 20
0.0
 30
0.0
  0
VERTEX
  5
F8
330
F7
100
AcDbEntity
  8
EBENE_5
 62
   112
100
AcDbVertex
100
AcDb2dVertex
 10
-22.98257649165019
 20
-27.59469807252841
 30
0.0
  0
VERTEX
  5
F9
330
F7
100
AcDbEntity
  8
EBENE_5
 62
   112
100
AcDbVertex
100
AcDb2dVertex
 10
-22.98257649165019
 20
-34.59530435333034
 30
0.0
  0
SEQEND
  5
FA
330
F7
100
AcDbEntity
  8
EBENE_5
  0
MTEXT
  5
FB
330
1F
100
AcDbEntity
  8
EBENE_5
 62
   112
100
AcDbMText
 10
-60.91600611541336
 20
-33.00987141101837
 30
0.0
 40
3.311186440487749
 41
0.0
 71
     7
 72
     1
  1
\fArial|b0|i0|c0|p34;\W0.8;Artikelnummer
  0
POLYLINE
  5
FC
330
1F
100
AcDbEntity
  8
EBENE_5
 62
   112
100
AcDb2dPolyline
 66
     1
 10
0.0
 20
0.0
 30
0.0
  0
VERTEX
  5
FD
330
FC
100
AcDbEntity
  8
EBENE_5
 62
   112
100
AcDbVertex
100
AcDb2dVertex
 10
-22.98257649165019
 20
-34.59530435333034
 30
0.0
  0
VERTEX
  5
FE
330
FC
100
AcDbEntity
  8
EBENE_5
 62
   112
100
AcDbVertex
100
AcDb2dVertex
 10
2.01710340661378
 20
-34.59530435333034
 30
0.0
  0
SEQEND
  5
FF
330
FC
100
AcDbEntity
  8
EBENE_5
  0
POLYLINE
  5
100
330
1F
100
AcDbEntity
  8
EBENE_5
 62
   112
100
AcDb2dPolyline
 66
     1
 10
0.0
 20
0.0
 30
0.0
  0
VERTEX
  5
101
330
100
100
AcDbEntity
  8
EBENE_5
 62
   112
100
AcDbVertex
100
AcDb2dVertex
 10
2.01710340661378
 20
-27.59469807252841
 30
0.0
  0
VERTEX
  5
102
330
100
100
AcDbEntity
  8
EBENE_5
 62
   112
100
AcDbVertex
100
AcDb2dVertex
 10
2.01710340661378
 20
-34.59530435333034
 30
0.0
  0
SEQEND
  5
103
330
100
100
AcDbEntity
  8
EBENE_5
  0
MTEXT
  5
104
330
1F
100
AcDbEntity
  8
EBENE_5
 62
   112
100
AcDbMText
 10
-11.22136501455577
 20
-33.00987141101837
 30
0.0
 40
3.311186440487749
 41
0.0
 71
     7
 72
     1
  1
\fArial|b0|i0|c0|p34;\W0.8;D
  0
POLYLINE
  5
105
330
1F
100
AcDbEntity
  8
EBENE_5
 62
   112
100
AcDb2dPolyline
 66
     1
 10
0.0
 20
0.0
 30
0.0
  0
VERTEX
  5
106
330
105
100
AcDbEntity
  8
EBENE_5
 62
   112
100
AcDbVertex
100
AcDb2dVertex
 10
-22.98257649165019
 20
-34.59530435333034
 30
0.0
  0
VERTEX
  5
107
330
105
100
AcDbEntity
  8
EBENE_5
 62
   112
100
AcDbVertex
100
AcDb2dVertex
 10
-22.98257649165019
 20
-43.34515786676788
 30
0.0
  0
SEQEND
  5
108
330
105
100
AcDbEntity
  8
EBENE_5
  0
MTEXT
  5
109
330
1F
100
AcDbEntity
  8
EBENE_5
 62
   112
100
AcDbMText
 10
-59.6313300089637
 20
-40.88449841642818
 30
0.0
 40
3.311186440487749
 41
0.0
 71
     7
 72
     1
  1
\fArial|b0|i0|c0|p34;\W0.8;W63221.4006
  0
POLYLINE
  5
10A
330
1F
100
AcDbEntity
  8
EBENE_5
 62
   112
100
AcDb2dPolyline
 66
     1
 10
0.0
 20
0.0
 30
0.0
  0
VERTEX
  5
10B
330
10A
100
AcDbEntity
  8
EBENE_5
 62
   112
100
AcDbVertex
100
AcDb2dVertex
 10
2.01710340661378
 20
-34.59530435333034
 30
0.0
  0
VERTEX
  5
10C
330
10A
100
AcDbEntity
  8
EBENE_5
 62
   112
100
AcDbVertex
100
AcDb2dVertex
 10
2.01710340661378
 20
-43.34515786676788
 30
0.0
  0
SEQEND
  5
10D
330
10A
100
AcDbEntity
  8
EBENE_5
  0
MTEXT
  5
10E
330
1F
100
AcDbEntity
  8
EBENE_5
 62
   112
100
AcDbMText
 10
-9.401321069698282
 20
-40.88449841642818
 30
0.0
 40
3.311186440487749
 41
0.0
 71
     7
 72
     1
  1
\fArial|b0|i0|c0|p34;\W0.8;6H7
  0
POLYLINE
  5
10F
330
1F
100
AcDbEntity
  8
EBENE_5
 62
   112
100
AcDb2dPolyline
 66
     1
 10
0.0
 20
0.0
 30
0.0
  0
VERTEX
  5
110
330
10F
100
AcDbEntity
  8
EBENE_5
 62
   112
100
AcDbVertex
100
AcDb2dVertex
 10
-22.98257649165019
 20
-43.34515786676788
 30
0.0
  0
VERTEX
  5
111
330
10F
100
AcDbEntity
  8
EBENE_5
 62
   112
100
AcDbVertex
100
AcDb2dVertex
 10
-22.98257649165019
 20
-52.09535588975394
 30
0.0
  0
SEQEND
  5
112
330
10F
100
AcDbEntity
  8
EBENE_5
  0
MTEXT
  5
113
330
1F
100
AcDbEntity
  8
EBENE_5
 62
   112
100
AcDbMText
 10
-59.6313300089637
 20
-48.75998669570931
 30
0.0
 40
3.311186440487749
 41
0.0
 71
     7
 72
     1
  1
\fArial|b0|i0|c0|p34;\W0.8;W63221.4008
  0
POLYLINE
  5
114
330
1F
100
AcDbEntity
  8
EBENE_5
 62
   112
100
AcDb2dPolyline
 66
     1
 10
0.0
 20
0.0
 30
0.0
  0
VERTEX
  5
115
330
114
100
AcDbEntity
  8
EBENE_5
 62
   112
100
AcDbVertex
100
AcDb2dVertex
 10
2.01710340661378
 20
-43.34515786676788
 30
0.0
  0
VERTEX
  5
116
330
114
100
AcDbEntity
  8
EBENE_5
 62
   112
100
AcDbVertex
100
AcDb2dVertex
 10
2.01710340661378
 20
-52.09535588975394
 30
0.0
  0
SEQEND
  5
117
330
114
100
AcDbEntity
  8
EBENE_5
  0
MTEXT
  5
118
330
1F
100
AcDbEntity
  8
EBENE_5
 62
   112
100
AcDbMText
 10
-9.401321069698282
 20
-49.63452418463999
 30
0.0
 40
3.311186440487749
 41
0.0
 71
     7
 72
     1
  1
\fArial|b0|i0|c0|p34;\W0.8;8H7
  0
POLYLINE
  5
119
330
1F
100
AcDbEntity
  8
EBENE_5
 62
   112
100
AcDb2dPolyline
 66
     1
 10
0.0
 20
0.0
 30
0.0
  0
VERTEX
  5
11A
330
119
100
AcDbEntity
  8
EBENE_5
 62
   112
100
AcDbVertex
100
AcDb2dVertex
 10
-22.98257649165019
 20
-52.09535588975394
 30
0.0
  0
VERTEX
  5
11B
330
119
100
AcDbEntity
  8
EBENE_5
 62
   112
100
AcDbVertex
100
AcDb2dVertex
 10
-22.98257649165019
 20
-60.84486489364296
 30
0.0
  0
SEQEND
  5
11C
330
119
100
AcDbEntity
  8
EBENE_5
  0
MTEXT
  5
11D
330
1F
100
AcDbEntity
  8
EBENE_5
 62
   112
100
AcDbMText
 10
-59.30284015444513
 20
-57.51001246392111
 30
0.0
 40
3.311186440487749
 41
0.0
 71
     7
 72
     1
  1
\fArial|b0|i0|c0|p34;\W0.8;W63221.4010
  0
POLYLINE
  5
11E
330
1F
100
AcDbEntity
  8
EBENE_5
 62
   112
100
AcDb2dPolyline
 66
     1
 10
0.0
 20
0.0
 30
0.0
  0
VERTEX
  5
11F
330
11E
100
AcDbEntity
  8
EBENE_5
 62
   112
100
AcDbVertex
100
AcDb2dVertex
 10
2.01710340661378
 20
-52.09535588975394
 30
0.0
  0
VERTEX
  5
120
330
11E
100
AcDbEntity
  8
EBENE_5
 62
   112
100
AcDbVertex
100
AcDb2dVertex
 10
2.01710340661378
 20
-60.84486489364296
 30
0.0
  0
SEQEND
  5
121
330
11E
100
AcDbEntity
  8
EBENE_5
  0
MTEXT
  5
122
330
1F
100
AcDbEntity
  8
EBENE_5
 62
   112
100
AcDbMText
 10
-10.1668212865208
 20
-58.38437769807752
 30
0.0
 40
3.311186440487749
 41
0.0
 71
     7
 72
     1
  1
\fArial|b0|i0|c0|p34;\W0.8;10H7
  0
POLYLINE
  5
123
330
1F
100
AcDbEntity
  8
EBENE_5
 62
   112
100
AcDb2dPolyline
 66
     1
 10
0.0
 20
0.0
 30
0.0
  0
VERTEX
  5
124
330
123
100
AcDbEntity
  8
EBENE_5
 62
   112
100
AcDbVertex
100
AcDb2dVertex
 10
-22.98257649165019
 20
-60.84486489364296
 30
0.0
  0
VERTEX
  5
125
330
123
100
AcDbEntity
  8
EBENE_5
 62
   112
100
AcDbVertex
100
AcDb2dVertex
 10
-22.98257649165019
 20
-69.59506291662902
 30
0.0
  0
SEQEND
  5
126
330
123
100
AcDbEntity
  8
EBENE_5
  0
MTEXT
  5
127
330
1F
100
AcDbEntity
  8
EBENE_5
 62
   112
100
AcDbMText
 10
-59.30284015444513
 20
-66.25986597735864
 30
0.0
 40
3.311186440487749
 41
0.0
 71
     7
 72
     1
  1
\fArial|b0|i0|c0|p34;\W0.8;W63221.4012
  0
POLYLINE
  5
128
330
1F
100
AcDbEntity
  8
EBENE_5
 62
   112
100
AcDb2dPolyline
 66
     1
 10
0.0
 20
0.0
 30
0.0
  0
VERTEX
  5
129
330
128
100
AcDbEntity
  8
EBENE_5
 62
   112
100
AcDbVertex
100
AcDb2dVertex
 10
2.01710340661378
 20
-60.84486489364296
 30
0.0
  0
VERTEX
  5
12A
330
128
100
AcDbEntity
  8
EBENE_5
 62
   112
100
AcDbVertex
100
AcDb2dVertex
 10
2.01710340661378
 20
-69.59506291662902
 30
0.0
  0
SEQEND
  5
12B
330
128
100
AcDbEntity
  8
EBENE_5
  0
MTEXT
  5
12C
330
1F
100
AcDbEntity
  8
EBENE_5
 62
   112
100
AcDbMText
 10
-10.1668212865208
 20
-67.13423121151506
 30
0.0
 40
3.311186440487749
 41
0.0
 71
     7
 72
     1
  1
\fArial|b0|i0|c0|p34;\W0.8;12H7
  0
POLYLINE
  5
12D
330
1F
100
AcDbEntity
  8
EBENE_5
 62
   112
100
AcDb2dPolyline
 66
     1
 10
0.0
 20
0.0
 30
0.0
  0
VERTEX
  5
12E
330
12D
100
AcDbEntity
  8
EBENE_5
 62
   112
100
AcDbVertex
100
AcDb2dVertex
 10
-22.98257649165019
 20
-69.59506291662902
 30
0.0
  0
VERTEX
  5
12F
330
12D
100
AcDbEntity
  8
EBENE_5
 62
   112
100
AcDbVertex
100
AcDb2dVertex
 10
-22.98257649165019
 20
-78.34526093961507
 30
0.0
  0
SEQEND
  5
130
330
12D
100
AcDbEntity
  8
EBENE_5
  0
MTEXT
  5
131
330
1F
100
AcDbEntity
  8
EBENE_5
 62
   112
100
AcDbMText
 10
-59.30284015444513
 20
-75.00971949079619
 30
0.0
 40
3.311186440487749
 41
0.0
 71
     7
 72
     1
  1
\fArial|b0|i0|c0|p34;\W0.8;W63221.4013
  0
POLYLINE
  5
132
330
1F
100
AcDbEntity
  8
EBENE_5
 62
   112
100
AcDb2dPolyline
 66
     1
 10
0.0
 20
0.0
 30
0.0
  0
VERTEX
  5
133
330
132
100
AcDbEntity
  8
EBENE_5
 62
   112
100
AcDbVertex
100
AcDb2dVertex
 10
2.01710340661378
 20
-69.59506291662902
 30
0.0
  0
VERTEX
  5
134
330
132
100
AcDbEntity
  8
EBENE_5
 62
   112
100
AcDbVertex
100
AcDb2dVertex
 10
2.01710340661378
 20
-78.34526093961507
 30
0.0
  0
SEQEND
  5
135
330
132
100
AcDbEntity
  8
EBENE_5
  0
MTEXT
  5
136
330
1F
100
AcDbEntity
  8
EBENE_5
 62
   112
100
AcDbMText
 10
-10.1668212865208
 20
-75.88511825359816
 30
0.0
 40
3.311186440487749
 41
0.0
 71
     7
 72
     1
  1
\fArial|b0|i0|c0|p34;\W0.8;13H7
  0
POLYLINE
  5
137
330
1F
100
AcDbEntity
  8
EBENE_5
 62
   112
100
AcDb2dPolyline
 66
     1
 10
0.0
 20
0.0
 30
0.0
  0
VERTEX
  5
138
330
137
100
AcDbEntity
  8
EBENE_5
 62
   112
100
AcDbVertex
100
AcDb2dVertex
 10
-22.98257649165019
 20
-78.34526093961507
 30
0.0
  0
VERTEX
  5
139
330
137
100
AcDbEntity
  8
EBENE_5
 62
   112
100
AcDbVertex
100
AcDb2dVertex
 10
-22.98257649165019
 20
-87.09442543395556
 30
0.0
  0
SEQEND
  5
13A
330
137
100
AcDbEntity
  8
EBENE_5
  0
MTEXT
  5
13B
330
1F
100
AcDbEntity
  8
EBENE_5
 62
   112
100
AcDbMText
 10
-59.46682669954302
 20
-83.75957300423372
 30
0.0
 40
3.311186440487749
 41
0.0
 71
     7
 72
     1
  1
\fArial|b0|i0|c0|p34;\W0.8;W63221.4014
  0
POLYLINE
  5
13C
330
1F
100
AcDbEntity
  8
EBENE_5
 62
   112
100
AcDb2dPolyline
 66
     1
 10
0.0
 20
0.0
 30
0.0
  0
VERTEX
  5
13D
330
13C
100
AcDbEntity
  8
EBENE_5
 62
   112
100
AcDbVertex
100
AcDb2dVertex
 10
2.01710340661378
 20
-78.34526093961507
 30
0.0
  0
VERTEX
  5
13E
330
13C
100
AcDbEntity
  8
EBENE_5
 62
   112
100
AcDbVertex
100
AcDb2dVertex
 10
2.01710340661378
 20
-87.09442543395556
 30
0.0
  0
SEQEND
  5
13F
330
13C
100
AcDbEntity
  8
EBENE_5
  0
MTEXT
  5
140
330
1F
100
AcDbEntity
  8
EBENE_5
 62
   112
100
AcDbMText
 10
-10.33115234116721
 20
-84.63497176703571
 30
0.0
 40
3.311186440487749
 41
0.0
 71
     7
 72
     1
  1
\fArial|b0|i0|c0|p34;\W0.8;14H7
  0
POLYLINE
  5
141
330
1F
100
AcDbEntity
  8
EBENE_5
 62
   112
100
AcDb2dPolyline
 66
     1
 10
0.0
 20
0.0
 30
0.0
  0
VERTEX
  5
142
330
141
100
AcDbEntity
  8
EBENE_5
 62
   112
100
AcDbVertex
100
AcDb2dVertex
 10
-22.98257649165019
 20
-87.09442543395556
 30
0.0
  0
VERTEX
  5
143
330
141
100
AcDbEntity
  8
EBENE_5
 62
   112
100
AcDbVertex
100
AcDb2dVertex
 10
-22.98257649165019
 20
-95.84462345694163
 30
0.0
  0
SEQEND
  5
144
330
141
100
AcDbEntity
  8
EBENE_5
  0
MTEXT
  5
145
330
1F
100
AcDbEntity
  8
EBENE_5
 62
   112
100
AcDbMText
 10
-59.30284015444513
 20
-92.50977102721978
 30
0.0
 40
3.311186440487749
 41
0.0
 71
     7
 72
     1
  1
\fArial|b0|i0|c0|p34;\W0.8;W63221.4015
  0
POLYLINE
  5
146
330
1F
100
AcDbEntity
  8
EBENE_5
 62
   112
100
AcDb2dPolyline
 66
     1
 10
0.0
 20
0.0
 30
0.0
  0
VERTEX
  5
147
330
146
100
AcDbEntity
  8
EBENE_5
 62
   112
100
AcDbVertex
100
AcDb2dVertex
 10
2.01710340661378
 20
-87.09442543395556
 30
0.0
  0
VERTEX
  5
148
330
146
100
AcDbEntity
  8
EBENE_5
 62
   112
100
AcDbVertex
100
AcDb2dVertex
 10
2.01710340661378
 20
-95.84462345694163
 30
0.0
  0
SEQEND
  5
149
330
146
100
AcDbEntity
  8
EBENE_5
  0
MTEXT
  5
14A
330
1F
100
AcDbEntity
  8
EBENE_5
 62
   112
100
AcDbMText
 10
-10.1668212865208
 20
-93.38516979002176
 30
0.0
 40
3.311186440487749
 41
0.0
 71
     7
 72
     1
  1
\fArial|b0|i0|c0|p34;\W0.8;15H7
  0
POLYLINE
  5
14B
330
1F
100
AcDbEntity
  8
EBENE_5
 62
   112
100
AcDb2dPolyline
 66
     1
 10
0.0
 20
0.0
 30
0.0
  0
VERTEX
  5
14C
330
14B
100
AcDbEntity
  8
EBENE_5
 62
   112
100
AcDbVertex
100
AcDb2dVertex
 10
-22.98257649165019
 20
-95.84462345694163
 30
0.0
  0
VERTEX
  5
14D
330
14B
100
AcDbEntity
  8
EBENE_5
 62
   112
100
AcDbVertex
100
AcDb2dVertex
 10
-22.98257649165019
 20
-104.5948214799277
 30
0.0
  0
SEQEND
  5
14E
330
14B
100
AcDbEntity
  8
EBENE_5
  0
MTEXT
  5
14F
330
1F
100
AcDbEntity
  8
EBENE_5
 62
   112
100
AcDbMText
 10
-59.30284015444513
 20
-101.2596245406573
 30
0.0
 40
3.311186440487749
 41
0.0
 71
     7
 72
     1
  1
\fArial|b0|i0|c0|p34;\W0.8;W63221.4016
  0
POLYLINE
  5
150
330
1F
100
AcDbEntity
  8
EBENE_5
 62
   112
100
AcDb2dPolyline
 66
     1
 10
0.0
 20
0.0
 30
0.0
  0
VERTEX
  5
151
330
150
100
AcDbEntity
  8
EBENE_5
 62
   112
100
AcDbVertex
100
AcDb2dVertex
 10
2.01710340661378
 20
-95.84462345694163
 30
0.0
  0
VERTEX
  5
152
330
150
100
AcDbEntity
  8
EBENE_5
 62
   112
100
AcDbVertex
100
AcDb2dVertex
 10
2.01710340661378
 20
-104.5948214799277
 30
0.0
  0
SEQEND
  5
153
330
150
100
AcDbEntity
  8
EBENE_5
  0
MTEXT
  5
154
330
1F
100
AcDbEntity
  8
EBENE_5
 62
   112
100
AcDbMText
 10
-10.1668212865208
 20
-102.1350233034593
 30
0.0
 40
3.311186440487749
 41
0.0
 71
     7
 72
     1
  1
\fArial|b0|i0|c0|p34;\W0.8;16H7
  0
POLYLINE
  5
155
330
1F
100
AcDbEntity
  8
EBENE_5
 62
   112
100
AcDb2dPolyline
 66
     1
 10
0.0
 20
0.0
 30
0.0
  0
VERTEX
  5
156
330
155
100
AcDbEntity
  8
EBENE_5
 62
   112
100
AcDbVertex
100
AcDb2dVertex
 10
-22.98257649165019
 20
-104.5948214799277
 30
0.0
  0
VERTEX
  5
157
330
155
100
AcDbEntity
  8
EBENE_5
 62
   112
100
AcDbVertex
100
AcDb2dVertex
 10
-22.98257649165019
 20
-113.3446749933652
 30
0.0
  0
SEQEND
  5
158
330
155
100
AcDbEntity
  8
EBENE_5
  0
MTEXT
  5
159
330
1F
100
AcDbEntity
  8
EBENE_5
 62
   112
100
AcDbMText
 10
-59.30284015444513
 20
-110.0098225636434
 30
0.0
 40
3.311186440487749
 41
0.0
 71
     7
 72
     1
  1
\fArial|b0|i0|c0|p34;\W0.8;W63221.4018
  0
POLYLINE
  5
15A
330
1F
100
AcDbEntity
  8
EBENE_5
 62
   112
100
AcDb2dPolyline
 66
     1
 10
0.0
 20
0.0
 30
0.0
  0
VERTEX
  5
15B
330
15A
100
AcDbEntity
  8
EBENE_5
 62
   112
100
AcDbVertex
100
AcDb2dVertex
 10
2.01710340661378
 20
-104.5948214799277
 30
0.0
  0
VERTEX
  5
15C
330
15A
100
AcDbEntity
  8
EBENE_5
 62
   112
100
AcDbVertex
100
AcDb2dVertex
 10
2.01710340661378
 20
-113.3446749933652
 30
0.0
  0
SEQEND
  5
15D
330
15A
100
AcDbEntity
  8
EBENE_5
  0
MTEXT
  5
15E
330
1F
100
AcDbEntity
  8
EBENE_5
 62
   112
100
AcDbMText
 10
-10.1668212865208
 20
-110.8848768168968
 30
0.0
 40
3.311186440487749
 41
0.0
 71
     7
 72
     1
  1
\fArial|b0|i0|c0|p34;\W0.8;18H7
  0
POLYLINE
  5
15F
330
1F
100
AcDbEntity
  8
EBENE_5
 62
   112
100
AcDb2dPolyline
 66
     1
 10
0.0
 20
0.0
 30
0.0
  0
VERTEX
  5
160
330
15F
100
AcDbEntity
  8
EBENE_5
 62
   112
100
AcDbVertex
100
AcDb2dVertex
 10
-22.98257649165019
 20
-113.3446749933652
 30
0.0
  0
VERTEX
  5
161
330
15F
100
AcDbEntity
  8
EBENE_5
 62
   112
100
AcDbVertex
100
AcDb2dVertex
 10
-22.98257649165019
 20
-122.0945285068028
 30
0.0
  0
SEQEND
  5
162
330
15F
100
AcDbEntity
  8
EBENE_5
  0
MTEXT
  5
163
330
1F
100
AcDbEntity
  8
EBENE_5
 62
   112
100
AcDbMText
 10
-59.30284015444513
 20
-118.7596760770809
 30
0.0
 40
3.311186440487749
 41
0.0
 71
     7
 72
     1
  1
\fArial|b0|i0|c0|p34;\W0.8;W63221.4019
  0
POLYLINE
  5
164
330
1F
100
AcDbEntity
  8
EBENE_5
 62
   112
100
AcDb2dPolyline
 66
     1
 10
0.0
 20
0.0
 30
0.0
  0
VERTEX
  5
165
330
164
100
AcDbEntity
  8
EBENE_5
 62
   112
100
AcDbVertex
100
AcDb2dVertex
 10
2.01710340661378
 20
-113.3446749933652
 30
0.0
  0
VERTEX
  5
166
330
164
100
AcDbEntity
  8
EBENE_5
 62
   112
100
AcDbVertex
100
AcDb2dVertex
 10
2.01710340661378
 20
-122.0945285068028
 30
0.0
  0
SEQEND
  5
167
330
164
100
AcDbEntity
  8
EBENE_5
  0
MTEXT
  5
168
330
1F
100
AcDbEntity
  8
EBENE_5
 62
   112
100
AcDbMText
 10
-10.1668212865208
 20
-119.6343858207859
 30
0.0
 40
3.311186440487749
 41
0.0
 71
     7
 72
     1
  1
\fArial|b0|i0|c0|p34;\W0.8;19H7
  0
POLYLINE
  5
169
330
1F
100
AcDbEntity
  8
EBENE_5
 62
   112
100
AcDb2dPolyline
 66
     1
 10
0.0
 20
0.0
 30
0.0
  0
VERTEX
  5
16A
330
169
100
AcDbEntity
  8
EBENE_5
 62
   112
100
AcDbVertex
100
AcDb2dVertex
 10
-22.98257649165019
 20
-122.0945285068028
 30
0.0
  0
VERTEX
  5
16B
330
169
100
AcDbEntity
  8
EBENE_5
 62
   112
100
AcDbVertex
100
AcDb2dVertex
 10
-22.98257649165019
 20
-130.8443820202403
 30
0.0
  0
SEQEND
  5
16C
330
169
100
AcDbEntity
  8
EBENE_5
  0
MTEXT
  5
16D
330
1F
100
AcDbEntity
  8
EBENE_5
 62
   112
100
AcDbMText
 10
-59.79497204451307
 20
-127.509874100067
 30
0.0
 40
3.311186440487749
 41
0.0
 71
     7
 72
     1
  1
\fArial|b0|i0|c0|p34;\W0.8;W63221.4034
  0
POLYLINE
  5
16E
330
1F
100
AcDbEntity
  8
EBENE_5
 62
   112
100
AcDb2dPolyline
 66
     1
 10
0.0
 20
0.0
 30
0.0
  0
VERTEX
  5
16F
330
16E
100
AcDbEntity
  8
EBENE_5
 62
   112
100
AcDbVertex
100
AcDb2dVertex
 10
2.01710340661378
 20
-122.0945285068028
 30
0.0
  0
VERTEX
  5
170
330
16E
100
AcDbEntity
  8
EBENE_5
 62
   112
100
AcDbVertex
100
AcDb2dVertex
 10
2.01710340661378
 20
-130.8443820202403
 30
0.0
  0
SEQEND
  5
171
330
16E
100
AcDbEntity
  8
EBENE_5
  0
MTEXT
  5
172
330
1F
100
AcDbEntity
  8
EBENE_5
 62
   112
100
AcDbMText
 10
-12.46366644653686
 20
-128.3845838437719
 30
0.0
 40
3.311186440487749
 41
0.0
 71
     7
 72
     1
  1
\fArial|b0|i0|c0|p34;\W0.8;3/4''H7
  0
POLYLINE
  5
173
330
1F
100
AcDbEntity
  8
EBENE_5
 62
   112
100
AcDb2dPolyline
 66
     1
 10
0.0
 20
0.0
 30
0.0
  0
VERTEX
  5
174
330
173
100
AcDbEntity
  8
EBENE_5
 62
   112
100
AcDbVertex
100
AcDb2dVertex
 10
-22.98257649165019
 20
-130.8443820202403
 30
0.0
  0
VERTEX
  5
175
330
173
100
AcDbEntity
  8
EBENE_5
 62
   112
100
AcDbVertex
100
AcDb2dVertex
 10
-22.98257649165019
 20
-139.5949245527749
 30
0.0
  0
SEQEND
  5
176
330
173
100
AcDbEntity
  8
EBENE_5
  0
MTEXT
  5
177
330
1F
100
AcDbEntity
  8
EBENE_5
 62
   112
100
AcDbMText
 10
-59.6313300089637
 20
-136.260072123053
 30
0.0
 40
3.311186440487749
 41
0.0
 71
     7
 72
     1
  1
\fArial|b0|i0|c0|p34;\W0.8;W63221.4020
  0
POLYLINE
  5
178
330
1F
100
AcDbEntity
  8
EBENE_5
 62
   112
100
AcDb2dPolyline
 66
     1
 10
0.0
 20
0.0
 30
0.0
  0
VERTEX
  5
179
330
178
100
AcDbEntity
  8
EBENE_5
 62
   112
100
AcDbVertex
100
AcDb2dVertex
 10
2.01710340661378
 20
-130.8443820202403
 30
0.0
  0
VERTEX
  5
17A
330
178
100
AcDbEntity
  8
EBENE_5
 62
   112
100
AcDbVertex
100
AcDb2dVertex
 10
2.01710340661378
 20
-139.5949245527749
 30
0.0
  0
SEQEND
  5
17B
330
178
100
AcDbEntity
  8
EBENE_5
  0
MTEXT
  5
17C
330
1F
100
AcDbEntity
  8
EBENE_5
 62
   112
100
AcDbMText
 10
-10.46757812238311
 20
-137.134781866758
 30
0.0
 40
3.311186440487749
 41
0.0
 71
     7
 72
     1
  1
\fArial|b0|i0|c0|p34;\W0.8;20H7
  0
POLYLINE
  5
17D
330
1F
100
AcDbEntity
  8
EBENE_5
 62
   112
100
AcDb2dPolyline
 66
     1
 10
0.0
 20
0.0
 30
0.0
  0
VERTEX
  5
17E
330
17D
100
AcDbEntity
  8
EBENE_5
 62
   112
100
AcDbVertex
100
AcDb2dVertex
 10
-72.98245305250092
 20
-148.3451225757609
 30
0.0
  0
VERTEX
  5
17F
330
17D
100
AcDbEntity
  8
EBENE_5
 62
   112
100
AcDbVertex
100
AcDb2dVertex
 10
-22.98257649165019
 20
-148.3451225757609
 30
0.0
  0
SEQEND
  5
180
330
17D
100
AcDbEntity
  8
EBENE_5
  0
POLYLINE
  5
181
330
1F
100
AcDbEntity
  8
EBENE_5
 62
   112
100
AcDb2dPolyline
 66
     1
 10
0.0
 20
0.0
 30
0.0
  0
VERTEX
  5
182
330
181
100
AcDbEntity
  8
EBENE_5
 62
   112
100
AcDbVertex
100
AcDb2dVertex
 10
-22.98257649165019
 20
-139.5949245527749
 30
0.0
  0
VERTEX
  5
183
330
181
100
AcDbEntity
  8
EBENE_5
 62
   112
100
AcDbVertex
100
AcDb2dVertex
 10
-22.98257649165019
 20
-148.3451225757609
 30
0.0
  0
SEQEND
  5
184
330
181
100
AcDbEntity
  8
EBENE_5
  0
MTEXT
  5
185
330
1F
100
AcDbEntity
  8
EBENE_5
 62
   112
100
AcDbMText
 10
-59.6313300089637
 20
-145.0099256364906
 30
0.0
 40
3.311186440487749
 41
0.0
 71
     7
 72
     1
  1
\fArial|b0|i0|c0|p34;\W0.8;W63221.4025
  0
POLYLINE
  5
186
330
1F
100
AcDbEntity
  8
EBENE_5
 62
   112
100
AcDb2dPolyline
 66
     1
 10
0.0
 20
0.0
 30
0.0
  0
VERTEX
  5
187
330
186
100
AcDbEntity
  8
EBENE_5
 62
   112
100
AcDbVertex
100
AcDb2dVertex
 10
-22.98257649165019
 20
-148.3451225757609
 30
0.0
  0
VERTEX
  5
188
330
186
100
AcDbEntity
  8
EBENE_5
 62
   112
100
AcDbVertex
100
AcDb2dVertex
 10
2.01710340661378
 20
-148.3451225757609
 30
0.0
  0
SEQEND
  5
189
330
186
100
AcDbEntity
  8
EBENE_5
  0
POLYLINE
  5
18A
330
1F
100
AcDbEntity
  8
EBENE_5
 62
   112
100
AcDb2dPolyline
 66
     1
 10
0.0
 20
0.0
 30
0.0
  0
VERTEX
  5
18B
330
18A
100
AcDbEntity
  8
EBENE_5
 62
   112
100
AcDbVertex
100
AcDb2dVertex
 10
2.01710340661378
 20
-139.5949245527749
 30
0.0
  0
VERTEX
  5
18C
330
18A
100
AcDbEntity
  8
EBENE_5
 62
   112
100
AcDbVertex
100
AcDb2dVertex
 10
2.01710340661378
 20
-148.3451225757609
 30
0.0
  0
SEQEND
  5
18D
330
18A
100
AcDbEntity
  8
EBENE_5
  0
MTEXT
  5
18E
330
1F
100
AcDbEntity
  8
EBENE_5
 62
   112
100
AcDbMText
 10
-10.46757812238311
 20
-145.8846353801955
 30
0.0
 40
3.311186440487749
 41
0.0
 71
     7
 72
     1
  1
\fArial|b0|i0|c0|p34;\W0.8;25H7
  0
POLYLINE
  5
190
330
1F
100
AcDbEntity
  8
GRAU_10_
100
AcDb2dPolyline
 66
     1
 10
0.0
 20
0.0
 30
0.0
  0
VERTEX
  5
191
330
190
100
AcDbEntity
  8
GRAU_10_
100
AcDbVertex
100
AcDb2dVertex
 10
-49.24798447119495
 20
44.37644720027742
 30
0.0
  0
VERTEX
  5
192
330
190
100
AcDbEntity
  8
GRAU_10_
100
AcDbVertex
100
AcDb2dVertex
 10
-48.23994953221085
 20
43.31570230036899
 30
0.0
  0
VERTEX
  5
193
330
190
100
AcDbEntity
  8
GRAU_10_
100
AcDbVertex
100
AcDb2dVertex
 10
-48.08147513988936
 20
13.61174451699637
 30
0.0
  0
VERTEX
  5
194
330
190
100
AcDbEntity
  8
GRAU_10_
100
AcDbVertex
100
AcDb2dVertex
 10
-49.1425645493463
 20
12.44454616659372
 30
0.0
  0
VERTEX
  5
195
330
190
100
AcDbEntity
  8
GRAU_10_
100
AcDbVertex
100
AcDb2dVertex
 10
-103.2457220879039
 20
12.39149169612088
 30
0.0
  0
VERTEX
  5
196
330
190
100
AcDbEntity
  8
GRAU_10_
100
AcDbVertex
100
AcDb2dVertex
 10
-104.2003580468666
 20
12.70981851895796
 30
0.0
  0
VERTEX
  5
197
330
190
100
AcDbEntity
  8
GRAU_10_
100
AcDbVertex
100
AcDb2dVertex
 10
-106.0572645134162
 20
12.70981851895796
 30
0.0
  0
VERTEX
  5
198
330
190
100
AcDbEntity
  8
GRAU_10_
100
AcDbVertex
100
AcDb2dVertex
 10
-106.2160834152863
 20
8.30698648880867
 30
0.0
  0
VERTEX
  5
199
330
190
100
AcDbEntity
  8
GRAU_10_
100
AcDbVertex
100
AcDb2dVertex
 10
-111.2552245815612
 20
8.41343993930289
 30
0.0
  0
VERTEX
  5
19A
330
190
100
AcDbEntity
  8
GRAU_10_
100
AcDbVertex
100
AcDb2dVertex
 10
-110.989952229197
 20
48.30178899617108
 30
0.0
  0
VERTEX
  5
19B
330
190
100
AcDbEntity
  8
GRAU_10_
100
AcDbVertex
100
AcDb2dVertex
 10
-106.1630289448134
 20
48.35484346664393
 30
0.0
  0
VERTEX
  5
19C
330
190
100
AcDbEntity
  8
GRAU_10_
100
AcDbVertex
100
AcDb2dVertex
 10
-106.0572645134162
 20
44.05846488698886
 30
0.0
  0
VERTEX
  5
19D
330
190
100
AcDbEntity
  8
GRAU_10_
100
AcDbVertex
100
AcDb2dVertex
 10
-104.3068114973608
 20
44.05846488698886
 30
0.0
  0
VERTEX
  5
19E
330
190
100
AcDbEntity
  8
GRAU_10_
100
AcDbVertex
100
AcDb2dVertex
 10
-102.9804497355396
 20
44.37644720027742
 30
0.0
  0
VERTEX
  5
19F
330
190
100
AcDbEntity
  8
GRAU_10_
100
AcDbVertex
100
AcDb2dVertex
 10
-49.24798447119495
 20
44.37644720027742
 30
0.0
  0
SEQEND
  5
1A0
330
190
100
AcDbEntity
  8
GRAU_10_
  0
HATCH
  5
1A1
330
1F
100
AcDbEntity
  8
GRAU_10_
 62
   255
100
AcDbHatch
 10
0.0
 20
0.0
 30
0.0
210
0.0
220
0.0
230
1.0
  2
SOLID
 70
     1
 71
     0
 91
        1
 92
        1
 93
       14
 72
     1
 10
-49.24798447119495
 20
44.37644720027742
 11
-48.23994953221085
 21
43.31570230036899
 72
     1
 10
-48.23994953221085
 20
43.31570230036899
 11
-48.08147513988936
 21
13.61174451699637
 72
     1
 10
-48.08147513988936
 20
13.61174451699637
 11
-49.1425645493463
 21
12.44454616659372
 72
     1
 10
-49.1425645493463
 20
12.44454616659372
 11
-103.2457220879039
 21
12.39149169612088
 72
     1
 10
-103.2457220879039
 20
12.39149169612088
 11
-104.2003580468666
 21
12.70981851895796
 72
     1
 10
-104.2003580468666
 20
12.70981851895796
 11
-106.0572645134162
 21
12.70981851895796
 72
     1
 10
-106.0572645134162
 20
12.70981851895796
 11
-106.2160834152863
 21
8.30698648880867
 72
     1
 10
-106.2160834152863
 20
8.30698648880867
 11
-111.2552245815612
 21
8.41343993930289
 72
     1
 10
-111.2552245815612
 20
8.41343993930289
 11
-110.989952229197
 21
48.30178899617108
 72
     1
 10
-110.989952229197
 20
48.30178899617108
 11
-106.1630289448134
 21
48.35484346664393
 72
     1
 10
-106.1630289448134
 20
48.35484346664393
 11
-106.0572645134162
 21
44.05846488698886
 72
     1
 10
-106.0572645134162
 20
44.05846488698886
 11
-104.3068114973608
 21
44.05846488698886
 72
     1
 10
-104.3068114973608
 20
44.05846488698886
 11
-102.9804497355396
 21
44.37644720027742
 72
     1
 10
-102.9804497355396
 20
44.37644720027742
 11
-49.24798447119495
 21
44.37644720027742
 97
        0
 75
     0
 76
     1
 98
        0
  0
POLYLINE
  5
1A3
330
1F
100
AcDbEntity
  8
STANDARDEBENE
 62
     7
100
AcDb2dPolyline
 66
     1
 10
0.0
 20
0.0
 30
0.0
  0
VERTEX
  5
1A4
330
1A3
100
AcDbEntity
  8
STANDARDEBENE
 62
     7
100
AcDbVertex
100
AcDb2dVertex
 10
-111.1783989522401
 20
34.40220675138209
 30
0.0
  0
VERTEX
  5
1A5
330
1A3
100
AcDbEntity
  8
STANDARDEBENE
 62
     7
100
AcDbVertex
100
AcDb2dVertex
 10
-110.6857502978494
 20
34.40220675138209
 30
0.0
  0
SEQEND
  5
1A6
330
1A3
100
AcDbEntity
  8
STANDARDEBENE
  0
POLYLINE
  5
1A7
330
1F
100
AcDbEntity
  8
STANDARDEBENE
 62
     7
100
AcDb2dPolyline
 66
     1
 10
0.0
 20
0.0
 30
0.0
  0
VERTEX
  5
1A8
330
1A7
100
AcDbEntity
  8
STANDARDEBENE
 62
     7
100
AcDbVertex
100
AcDb2dVertex
 10
-109.7021755368106
 20
34.40220675138209
 30
0.0
  0
VERTEX
  5
1A9
330
1A7
100
AcDbEntity
  8
STANDARDEBENE
 62
     7
100
AcDbVertex
100
AcDb2dVertex
 10
-108.7172227375776
 20
34.40220675138209
 30
0.0
  0
SEQEND
  5
1AA
330
1A7
100
AcDbEntity
  8
STANDARDEBENE
  0
POLYLINE
  5
1AB
330
1F
100
AcDbEntity
  8
STANDARDEBENE
 62
     7
100
AcDb2dPolyline
 66
     1
 10
0.0
 20
0.0
 30
0.0
  0
VERTEX
  5
1AC
330
1AB
100
AcDbEntity
  8
STANDARDEBENE
 62
     7
100
AcDbVertex
100
AcDb2dVertex
 10
-107.7326144478932
 20
34.40220675138209
 30
0.0
  0
VERTEX
  5
1AD
330
1AB
100
AcDbEntity
  8
STANDARDEBENE
 62
     7
100
AcDbVertex
100
AcDb2dVertex
 10
-106.7486951773059
 20
34.40220675138209
 30
0.0
  0
SEQEND
  5
1AE
330
1AB
100
AcDbEntity
  8
STANDARDEBENE
  0
POLYLINE
  5
1AF
330
1F
100
AcDbEntity
  8
STANDARDEBENE
 62
     7
100
AcDb2dPolyline
 66
     1
 10
0.0
 20
0.0
 30
0.0
  0
VERTEX
  5
1B0
330
1AF
100
AcDbEntity
  8
STANDARDEBENE
 62
     7
100
AcDbVertex
100
AcDb2dVertex
 10
-105.76443139717
 20
34.40220675138209
 30
0.0
  0
VERTEX
  5
1B1
330
1AF
100
AcDbEntity
  8
STANDARDEBENE
 62
     7
100
AcDbVertex
100
AcDb2dVertex
 10
-104.7798231074856
 20
34.40220675138209
 30
0.0
  0
SEQEND
  5
1B2
330
1AF
100
AcDbEntity
  8
STANDARDEBENE
  0
POLYLINE
  5
1B3
330
1F
100
AcDbEntity
  8
STANDARDEBENE
 62
     7
100
AcDb2dPolyline
 66
     1
 10
0.0
 20
0.0
 30
0.0
  0
VERTEX
  5
1B4
330
1B3
100
AcDbEntity
  8
STANDARDEBENE
 62
     7
100
AcDbVertex
100
AcDb2dVertex
 10
-103.7955593273497
 20
34.40220675138209
 30
0.0
  0
VERTEX
  5
1B5
330
1B3
100
AcDbEntity
  8
STANDARDEBENE
 62
     7
100
AcDbVertex
100
AcDb2dVertex
 10
-102.8112955472138
 20
34.40220675138209
 30
0.0
  0
SEQEND
  5
1B6
330
1B3
100
AcDbEntity
  8
STANDARDEBENE
  0
POLYLINE
  5
1B7
330
1F
100
AcDbEntity
  8
STANDARDEBENE
 62
     7
100
AcDb2dPolyline
 66
     1
 10
0.0
 20
0.0
 30
0.0
  0
VERTEX
  5
1B8
330
1B7
100
AcDbEntity
  8
STANDARDEBENE
 62
     7
100
AcDbVertex
100
AcDb2dVertex
 10
-101.8266872575294
 20
34.40220675138209
 30
0.0
  0
VERTEX
  5
1B9
330
1B7
100
AcDbEntity
  8
STANDARDEBENE
 62
     7
100
AcDbVertex
100
AcDb2dVertex
 10
-100.842078967845
 20
34.40220675138209
 30
0.0
  0
SEQEND
  5
1BA
330
1B7
100
AcDbEntity
  8
STANDARDEBENE
  0
POLYLINE
  5
1BB
330
1F
100
AcDbEntity
  8
STANDARDEBENE
 62
     7
100
AcDb2dPolyline
 66
     1
 10
0.0
 20
0.0
 30
0.0
  0
VERTEX
  5
1BC
330
1BB
100
AcDbEntity
  8
STANDARDEBENE
 62
     7
100
AcDbVertex
100
AcDb2dVertex
 10
-99.85781518770916
 20
34.40220675138209
 30
0.0
  0
VERTEX
  5
1BD
330
1BB
100
AcDbEntity
  8
STANDARDEBENE
 62
     7
100
AcDbVertex
100
AcDb2dVertex
 10
-98.87389591712181
 20
34.40220675138209
 30
0.0
  0
SEQEND
  5
1BE
330
1BB
100
AcDbEntity
  8
STANDARDEBENE
  0
POLYLINE
  5
1BF
330
1F
100
AcDbEntity
  8
STANDARDEBENE
 62
     7
100
AcDb2dPolyline
 66
     1
 10
0.0
 20
0.0
 30
0.0
  0
VERTEX
  5
1C0
330
1BF
100
AcDbEntity
  8
STANDARDEBENE
 62
     7
100
AcDbVertex
100
AcDb2dVertex
 10
-97.88894311788889
 20
34.40220675138209
 30
0.0
  0
VERTEX
  5
1C1
330
1BF
100
AcDbEntity
  8
STANDARDEBENE
 62
     7
100
AcDbVertex
100
AcDb2dVertex
 10
-96.90502384730152
 20
34.40220675138209
 30
0.0
  0
SEQEND
  5
1C2
330
1BF
100
AcDbEntity
  8
STANDARDEBENE
  0
POLYLINE
  5
1C3
330
1F
100
AcDbEntity
  8
STANDARDEBENE
 62
     7
100
AcDb2dPolyline
 66
     1
 10
0.0
 20
0.0
 30
0.0
  0
VERTEX
  5
1C4
330
1C3
100
AcDbEntity
  8
STANDARDEBENE
 62
     7
100
AcDbVertex
100
AcDb2dVertex
 10
-95.92041555761712
 20
34.40220675138209
 30
0.0
  0
VERTEX
  5
1C5
330
1C3
100
AcDbEntity
  8
STANDARDEBENE
 62
     7
100
AcDbVertex
100
AcDb2dVertex
 10
-94.93615177748124
 20
34.40220675138209
 30
0.0
  0
SEQEND
  5
1C6
330
1C3
100
AcDbEntity
  8
STANDARDEBENE
  0
POLYLINE
  5
1C7
330
1F
100
AcDbEntity
  8
STANDARDEBENE
 62
     7
100
AcDb2dPolyline
 66
     1
 10
0.0
 20
0.0
 30
0.0
  0
VERTEX
  5
1C8
330
1C7
100
AcDbEntity
  8
STANDARDEBENE
 62
     7
100
AcDbVertex
100
AcDb2dVertex
 10
-93.95188799734537
 20
34.40220675138209
 30
0.0
  0
VERTEX
  5
1C9
330
1C7
100
AcDbEntity
  8
STANDARDEBENE
 62
     7
100
AcDbVertex
100
AcDb2dVertex
 10
-92.96727970766096
 20
34.40220675138209
 30
0.0
  0
SEQEND
  5
1CA
330
1C7
100
AcDbEntity
  8
STANDARDEBENE
  0
POLYLINE
  5
1CB
330
1F
100
AcDbEntity
  8
STANDARDEBENE
 62
     7
100
AcDb2dPolyline
 66
     1
 10
0.0
 20
0.0
 30
0.0
  0
VERTEX
  5
1CC
330
1CB
100
AcDbEntity
  8
STANDARDEBENE
 62
     7
100
AcDbVertex
100
AcDb2dVertex
 10
-91.98336043707361
 20
34.40220675138209
 30
0.0
  0
VERTEX
  5
1CD
330
1CB
100
AcDbEntity
  8
STANDARDEBENE
 62
     7
100
AcDbVertex
100
AcDb2dVertex
 10
-90.99840763784069
 20
34.40220675138209
 30
0.0
  0
SEQEND
  5
1CE
330
1CB
100
AcDbEntity
  8
STANDARDEBENE
  0
POLYLINE
  5
1CF
330
1F
100
AcDbEntity
  8
STANDARDEBENE
 62
     7
100
AcDb2dPolyline
 66
     1
 10
0.0
 20
0.0
 30
0.0
  0
VERTEX
  5
1D0
330
1CF
100
AcDbEntity
  8
STANDARDEBENE
 62
     7
100
AcDbVertex
100
AcDb2dVertex
 10
-90.0141438577048
 20
34.40220675138209
 30
0.0
  0
VERTEX
  5
1D1
330
1CF
100
AcDbEntity
  8
STANDARDEBENE
 62
     7
100
AcDbVertex
100
AcDb2dVertex
 10
-89.03022458711744
 20
34.40220675138209
 30
0.0
  0
SEQEND
  5
1D2
330
1CF
100
AcDbEntity
  8
STANDARDEBENE
  0
POLYLINE
  5
1D3
330
1F
100
AcDbEntity
  8
STANDARDEBENE
 62
     7
100
AcDb2dPolyline
 66
     1
 10
0.0
 20
0.0
 30
0.0
  0
VERTEX
  5
1D4
330
1D3
100
AcDbEntity
  8
STANDARDEBENE
 62
     7
100
AcDbVertex
100
AcDb2dVertex
 10
-88.04527178788452
 20
34.40220675138209
 30
0.0
  0
VERTEX
  5
1D5
330
1D3
100
AcDbEntity
  8
STANDARDEBENE
 62
     7
100
AcDbVertex
100
AcDb2dVertex
 10
-87.06135251729717
 20
34.40220675138209
 30
0.0
  0
SEQEND
  5
1D6
330
1D3
100
AcDbEntity
  8
STANDARDEBENE
  0
POLYLINE
  5
1D7
330
1F
100
AcDbEntity
  8
STANDARDEBENE
 62
     7
100
AcDb2dPolyline
 66
     1
 10
0.0
 20
0.0
 30
0.0
  0
VERTEX
  5
1D8
330
1D7
100
AcDbEntity
  8
STANDARDEBENE
 62
     7
100
AcDbVertex
100
AcDb2dVertex
 10
-86.07708873716129
 20
34.40220675138209
 30
0.0
  0
VERTEX
  5
1D9
330
1D7
100
AcDbEntity
  8
STANDARDEBENE
 62
     7
100
AcDbVertex
100
AcDb2dVertex
 10
-85.09213593792836
 20
34.40220675138209
 30
0.0
  0
SEQEND
  5
1DA
330
1D7
100
AcDbEntity
  8
STANDARDEBENE
  0
POLYLINE
  5
1DB
330
1F
100
AcDbEntity
  8
STANDARDEBENE
 62
     7
100
AcDb2dPolyline
 66
     1
 10
0.0
 20
0.0
 30
0.0
  0
VERTEX
  5
1DC
330
1DB
100
AcDbEntity
  8
STANDARDEBENE
 62
     7
100
AcDbVertex
100
AcDb2dVertex
 10
-84.10856117688952
 20
34.40220675138209
 30
0.0
  0
VERTEX
  5
1DD
330
1DB
100
AcDbEntity
  8
STANDARDEBENE
 62
     7
100
AcDbVertex
100
AcDb2dVertex
 10
-83.1236083776566
 20
34.40220675138209
 30
0.0
  0
SEQEND
  5
1DE
330
1DB
100
AcDbEntity
  8
STANDARDEBENE
  0
POLYLINE
  5
1DF
330
1F
100
AcDbEntity
  8
STANDARDEBENE
 62
     7
100
AcDb2dPolyline
 66
     1
 10
0.0
 20
0.0
 30
0.0
  0
VERTEX
  5
1E0
330
1DF
100
AcDbEntity
  8
STANDARDEBENE
 62
     7
100
AcDbVertex
100
AcDb2dVertex
 10
-82.13934459752072
 20
34.40220675138209
 30
0.0
  0
VERTEX
  5
1E1
330
1DF
100
AcDbEntity
  8
STANDARDEBENE
 62
     7
100
AcDbVertex
100
AcDb2dVertex
 10
-81.15542532693337
 20
34.40220675138209
 30
0.0
  0
SEQEND
  5
1E2
330
1DF
100
AcDbEntity
  8
STANDARDEBENE
  0
POLYLINE
  5
1E3
330
1F
100
AcDbEntity
  8
STANDARDEBENE
 62
     7
100
AcDb2dPolyline
 66
     1
 10
0.0
 20
0.0
 30
0.0
  0
VERTEX
  5
1E4
330
1E3
100
AcDbEntity
  8
STANDARDEBENE
 62
     7
100
AcDbVertex
100
AcDb2dVertex
 10
-80.17047252770044
 20
34.40220675138209
 30
0.0
  0
VERTEX
  5
1E5
330
1E3
100
AcDbEntity
  8
STANDARDEBENE
 62
     7
100
AcDbVertex
100
AcDb2dVertex
 10
-79.18620874756456
 20
34.40220675138209
 30
0.0
  0
SEQEND
  5
1E6
330
1E3
100
AcDbEntity
  8
STANDARDEBENE
  0
POLYLINE
  5
1E7
330
1F
100
AcDbEntity
  8
STANDARDEBENE
 62
     7
100
AcDb2dPolyline
 66
     1
 10
0.0
 20
0.0
 30
0.0
  0
VERTEX
  5
1E8
330
1E7
100
AcDbEntity
  8
STANDARDEBENE
 62
     7
100
AcDbVertex
100
AcDb2dVertex
 10
-78.20160045788016
 20
34.40220675138209
 30
0.0
  0
VERTEX
  5
1E9
330
1E7
100
AcDbEntity
  8
STANDARDEBENE
 62
     7
100
AcDbVertex
100
AcDb2dVertex
 10
-77.21768118729281
 20
34.40220675138209
 30
0.0
  0
SEQEND
  5
1EA
330
1E7
100
AcDbEntity
  8
STANDARDEBENE
  0
POLYLINE
  5
1EB
330
1F
100
AcDbEntity
  8
STANDARDEBENE
 62
     7
100
AcDb2dPolyline
 66
     1
 10
0.0
 20
0.0
 30
0.0
  0
VERTEX
  5
1EC
330
1EB
100
AcDbEntity
  8
STANDARDEBENE
 62
     7
100
AcDbVertex
100
AcDb2dVertex
 10
-76.23341740715692
 20
34.40220675138209
 30
0.0
  0
VERTEX
  5
1ED
330
1EB
100
AcDbEntity
  8
STANDARDEBENE
 62
     7
100
AcDbVertex
100
AcDb2dVertex
 10
-75.24846460792399
 20
34.40220675138209
 30
0.0
  0
SEQEND
  5
1EE
330
1EB
100
AcDbEntity
  8
STANDARDEBENE
  0
POLYLINE
  5
1EF
330
1F
100
AcDbEntity
  8
STANDARDEBENE
 62
     7
100
AcDb2dPolyline
 66
     1
 10
0.0
 20
0.0
 30
0.0
  0
VERTEX
  5
1F0
330
1EF
100
AcDbEntity
  8
STANDARDEBENE
 62
     7
100
AcDbVertex
100
AcDb2dVertex
 10
-74.26420082778812
 20
34.40220675138209
 30
0.0
  0
VERTEX
  5
1F1
330
1EF
100
AcDbEntity
  8
STANDARDEBENE
 62
     7
100
AcDbVertex
100
AcDb2dVertex
 10
-73.27993704765224
 20
34.40220675138209
 30
0.0
  0
SEQEND
  5
1F2
330
1EF
100
AcDbEntity
  8
STANDARDEBENE
  0
POLYLINE
  5
1F3
330
1F
100
AcDbEntity
  8
STANDARDEBENE
 62
     7
100
AcDb2dPolyline
 66
     1
 10
0.0
 20
0.0
 30
0.0
  0
VERTEX
  5
1F4
330
1F3
100
AcDbEntity
  8
STANDARDEBENE
 62
     7
100
AcDbVertex
100
AcDb2dVertex
 10
-72.29567326751636
 20
34.40220675138209
 30
0.0
  0
VERTEX
  5
1F5
330
1F3
100
AcDbEntity
  8
STANDARDEBENE
 62
     7
100
AcDbVertex
100
AcDb2dVertex
 10
-71.31106497783196
 20
34.40220675138209
 30
0.0
  0
SEQEND
  5
1F6
330
1F3
100
AcDbEntity
  8
STANDARDEBENE
  0
POLYLINE
  5
1F7
330
1F
100
AcDbEntity
  8
STANDARDEBENE
 62
     7
100
AcDb2dPolyline
 66
     1
 10
0.0
 20
0.0
 30
0.0
  0
VERTEX
  5
1F8
330
1F7
100
AcDbEntity
  8
STANDARDEBENE
 62
     7
100
AcDbVertex
100
AcDb2dVertex
 10
-70.32611217859903
 20
34.40220675138209
 30
0.0
  0
VERTEX
  5
1F9
330
1F7
100
AcDbEntity
  8
STANDARDEBENE
 62
     7
100
AcDbVertex
100
AcDb2dVertex
 10
-69.34219290801168
 20
34.40220675138209
 30
0.0
  0
SEQEND
  5
1FA
330
1F7
100
AcDbEntity
  8
STANDARDEBENE
  0
POLYLINE
  5
1FB
330
1F
100
AcDbEntity
  8
STANDARDEBENE
 62
     7
100
AcDb2dPolyline
 66
     1
 10
0.0
 20
0.0
 30
0.0
  0
VERTEX
  5
1FC
330
1FB
100
AcDbEntity
  8
STANDARDEBENE
 62
     7
100
AcDbVertex
100
AcDb2dVertex
 10
-68.35792912787579
 20
34.40220675138209
 30
0.0
  0
VERTEX
  5
1FD
330
1FB
100
AcDbEntity
  8
STANDARDEBENE
 62
     7
100
AcDbVertex
100
AcDb2dVertex
 10
-67.37332083819139
 20
34.40220675138209
 30
0.0
  0
SEQEND
  5
1FE
330
1FB
100
AcDbEntity
  8
STANDARDEBENE
  0
POLYLINE
  5
1FF
330
1F
100
AcDbEntity
  8
STANDARDEBENE
 62
     7
100
AcDb2dPolyline
 66
     1
 10
0.0
 20
0.0
 30
0.0
  0
VERTEX
  5
200
330
1FF
100
AcDbEntity
  8
STANDARDEBENE
 62
     7
100
AcDbVertex
100
AcDb2dVertex
 10
-66.38871254850699
 20
34.40220675138209
 30
0.0
  0
VERTEX
  5
201
330
1FF
100
AcDbEntity
  8
STANDARDEBENE
 62
     7
100
AcDbVertex
100
AcDb2dVertex
 10
-65.40479327791964
 20
34.40220675138209
 30
0.0
  0
SEQEND
  5
202
330
1FF
100
AcDbEntity
  8
STANDARDEBENE
  0
POLYLINE
  5
203
330
1F
100
AcDbEntity
  8
STANDARDEBENE
 62
     7
100
AcDb2dPolyline
 66
     1
 10
0.0
 20
0.0
 30
0.0
  0
VERTEX
  5
204
330
203
100
AcDbEntity
  8
STANDARDEBENE
 62
     7
100
AcDbVertex
100
AcDb2dVertex
 10
-64.42121851688081
 20
34.40220675138209
 30
0.0
  0
VERTEX
  5
205
330
203
100
AcDbEntity
  8
STANDARDEBENE
 62
     7
100
AcDbVertex
100
AcDb2dVertex
 10
-63.43592120809936
 20
34.40220675138209
 30
0.0
  0
SEQEND
  5
206
330
203
100
AcDbEntity
  8
STANDARDEBENE
  0
POLYLINE
  5
207
330
1F
100
AcDbEntity
  8
STANDARDEBENE
 62
     7
100
AcDb2dPolyline
 66
     1
 10
0.0
 20
0.0
 30
0.0
  0
VERTEX
  5
208
330
207
100
AcDbEntity
  8
STANDARDEBENE
 62
     7
100
AcDbVertex
100
AcDb2dVertex
 10
-62.452001937512
 20
34.40220675138209
 30
0.0
  0
VERTEX
  5
209
330
207
100
AcDbEntity
  8
STANDARDEBENE
 62
     7
100
AcDbVertex
100
AcDb2dVertex
 10
-61.46773815737613
 20
34.40220675138209
 30
0.0
  0
SEQEND
  5
20A
330
207
100
AcDbEntity
  8
STANDARDEBENE
  0
POLYLINE
  5
20B
330
1F
100
AcDbEntity
  8
STANDARDEBENE
 62
     7
100
AcDb2dPolyline
 66
     1
 10
0.0
 20
0.0
 30
0.0
  0
VERTEX
  5
20C
330
20B
100
AcDbEntity
  8
STANDARDEBENE
 62
     7
100
AcDbVertex
100
AcDb2dVertex
 10
-60.48244084859467
 20
34.40220675138209
 30
0.0
  0
VERTEX
  5
20D
330
20B
100
AcDbEntity
  8
STANDARDEBENE
 62
     7
100
AcDbVertex
100
AcDb2dVertex
 10
-59.49921059710437
 20
34.40220675138209
 30
0.0
  0
SEQEND
  5
20E
330
20B
100
AcDbEntity
  8
STANDARDEBENE
  0
POLYLINE
  5
20F
330
1F
100
AcDbEntity
  8
STANDARDEBENE
 62
     7
100
AcDb2dPolyline
 66
     1
 10
0.0
 20
0.0
 30
0.0
  0
VERTEX
  5
210
330
20F
100
AcDbEntity
  8
STANDARDEBENE
 62
     7
100
AcDbVertex
100
AcDb2dVertex
 10
-58.51460230741996
 20
34.40220675138209
 30
0.0
  0
VERTEX
  5
211
330
20F
100
AcDbEntity
  8
STANDARDEBENE
 62
     7
100
AcDbVertex
100
AcDb2dVertex
 10
-57.52999401773556
 20
34.40220675138209
 30
0.0
  0
SEQEND
  5
212
330
20F
100
AcDbEntity
  8
STANDARDEBENE
  0
POLYLINE
  5
213
330
1F
100
AcDbEntity
  8
STANDARDEBENE
 62
     7
100
AcDb2dPolyline
 66
     1
 10
0.0
 20
0.0
 30
0.0
  0
VERTEX
  5
214
330
213
100
AcDbEntity
  8
STANDARDEBENE
 62
     7
100
AcDbVertex
100
AcDb2dVertex
 10
-56.54573023759968
 20
34.40220675138209
 30
0.0
  0
VERTEX
  5
215
330
213
100
AcDbEntity
  8
STANDARDEBENE
 62
     7
100
AcDbVertex
100
AcDb2dVertex
 10
-55.56112194791528
 20
34.40220675138209
 30
0.0
  0
SEQEND
  5
216
330
213
100
AcDbEntity
  8
STANDARDEBENE
  0
POLYLINE
  5
217
330
1F
100
AcDbEntity
  8
STANDARDEBENE
 62
     7
100
AcDb2dPolyline
 66
     1
 10
0.0
 20
0.0
 30
0.0
  0
VERTEX
  5
218
330
217
100
AcDbEntity
  8
STANDARDEBENE
 62
     7
100
AcDbVertex
100
AcDb2dVertex
 10
-54.57651365823087
 20
34.40220675138209
 30
0.0
  0
VERTEX
  5
219
330
217
100
AcDbEntity
  8
STANDARDEBENE
 62
     7
100
AcDbVertex
100
AcDb2dVertex
 10
-53.59293889719205
 20
34.40220675138209
 30
0.0
  0
SEQEND
  5
21A
330
217
100
AcDbEntity
  8
STANDARDEBENE
  0
POLYLINE
  5
21B
330
1F
100
AcDbEntity
  8
STANDARDEBENE
 62
     7
100
AcDb2dPolyline
 66
     1
 10
0.0
 20
0.0
 30
0.0
  0
VERTEX
  5
21C
330
21B
100
AcDbEntity
  8
STANDARDEBENE
 62
     7
100
AcDbVertex
100
AcDb2dVertex
 10
-52.60764158841059
 20
34.40220675138209
 30
0.0
  0
VERTEX
  5
21D
330
21B
100
AcDbEntity
  8
STANDARDEBENE
 62
     7
100
AcDbVertex
100
AcDb2dVertex
 10
-51.62372231782324
 20
34.40220675138209
 30
0.0
  0
SEQEND
  5
21E
330
21B
100
AcDbEntity
  8
STANDARDEBENE
  0
POLYLINE
  5
21F
330
1F
100
AcDbEntity
  8
STANDARDEBENE
 62
     7
100
AcDb2dPolyline
 66
     1
 10
0.0
 20
0.0
 30
0.0
  0
VERTEX
  5
220
330
21F
100
AcDbEntity
  8
STANDARDEBENE
 62
     7
100
AcDbVertex
100
AcDb2dVertex
 10
-50.63980304723589
 20
34.40220675138209
 30
0.0
  0
VERTEX
  5
221
330
21F
100
AcDbEntity
  8
STANDARDEBENE
 62
     7
100
AcDbVertex
100
AcDb2dVertex
 10
-49.65485024800296
 20
34.40220675138209
 30
0.0
  0
SEQEND
  5
222
330
21F
100
AcDbEntity
  8
STANDARDEBENE
  0
POLYLINE
  5
223
330
1F
100
AcDbEntity
  8
STANDARDEBENE
 62
     7
100
AcDb2dPolyline
 66
     1
 10
0.0
 20
0.0
 30
0.0
  0
VERTEX
  5
224
330
223
100
AcDbEntity
  8
STANDARDEBENE
 62
     7
100
AcDbVertex
100
AcDb2dVertex
 10
-48.67024195831856
 20
34.40220675138209
 30
0.0
  0
VERTEX
  5
225
330
223
100
AcDbEntity
  8
STANDARDEBENE
 62
     7
100
AcDbVertex
100
AcDb2dVertex
 10
-48.1786268325734
 20
34.40220675138209
 30
0.0
  0
SEQEND
  5
226
330
223
100
AcDbEntity
  8
STANDARDEBENE
  0
POLYLINE
  5
227
330
1F
100
AcDbEntity
  8
STANDARDEBENE
 62
     7
100
AcDb2dPolyline
 66
     1
 10
0.0
 20
0.0
 30
0.0
  0
VERTEX
  5
228
330
227
100
AcDbEntity
  8
STANDARDEBENE
 62
     7
100
AcDbVertex
100
AcDb2dVertex
 10
-48.1786268325734
 20
22.40156113806281
 30
0.0
  0
VERTEX
  5
229
330
227
100
AcDbEntity
  8
STANDARDEBENE
 62
     7
100
AcDbVertex
100
AcDb2dVertex
 10
-48.67024195831856
 20
22.40156113806281
 30
0.0
  0
SEQEND
  5
22A
330
227
100
AcDbEntity
  8
STANDARDEBENE
  0
POLYLINE
  5
22B
330
1F
100
AcDbEntity
  8
STANDARDEBENE
 62
     7
100
AcDb2dPolyline
 66
     1
 10
0.0
 20
0.0
 30
0.0
  0
VERTEX
  5
22C
330
22B
100
AcDbEntity
  8
STANDARDEBENE
 62
     7
100
AcDbVertex
100
AcDb2dVertex
 10
-49.65485024800296
 20
22.40156113806281
 30
0.0
  0
VERTEX
  5
22D
330
22B
100
AcDbEntity
  8
STANDARDEBENE
 62
     7
100
AcDbVertex
100
AcDb2dVertex
 10
-50.63980304723589
 20
22.40156113806281
 30
0.0
  0
SEQEND
  5
22E
330
22B
100
AcDbEntity
  8
STANDARDEBENE
  0
POLYLINE
  5
22F
330
1F
100
AcDbEntity
  8
STANDARDEBENE
 62
     7
100
AcDb2dPolyline
 66
     1
 10
0.0
 20
0.0
 30
0.0
  0
VERTEX
  5
230
330
22F
100
AcDbEntity
  8
STANDARDEBENE
 62
     7
100
AcDbVertex
100
AcDb2dVertex
 10
-51.62372231782324
 20
22.40156113806281
 30
0.0
  0
VERTEX
  5
231
330
22F
100
AcDbEntity
  8
STANDARDEBENE
 62
     7
100
AcDbVertex
100
AcDb2dVertex
 10
-52.60764158841059
 20
22.40156113806281
 30
0.0
  0
SEQEND
  5
232
330
22F
100
AcDbEntity
  8
STANDARDEBENE
  0
POLYLINE
  5
233
330
1F
100
AcDbEntity
  8
STANDARDEBENE
 62
     7
100
AcDb2dPolyline
 66
     1
 10
0.0
 20
0.0
 30
0.0
  0
VERTEX
  5
234
330
233
100
AcDbEntity
  8
STANDARDEBENE
 62
     7
100
AcDbVertex
100
AcDb2dVertex
 10
-53.59293889719205
 20
22.40156113806281
 30
0.0
  0
VERTEX
  5
235
330
233
100
AcDbEntity
  8
STANDARDEBENE
 62
     7
100
AcDbVertex
100
AcDb2dVertex
 10
-54.57651365823087
 20
22.40156113806281
 30
0.0
  0
SEQEND
  5
236
330
233
100
AcDbEntity
  8
STANDARDEBENE
  0
POLYLINE
  5
237
330
1F
100
AcDbEntity
  8
STANDARDEBENE
 62
     7
100
AcDb2dPolyline
 66
     1
 10
0.0
 20
0.0
 30
0.0
  0
VERTEX
  5
238
330
237
100
AcDbEntity
  8
STANDARDEBENE
 62
     7
100
AcDbVertex
100
AcDb2dVertex
 10
-55.56112194791528
 20
22.40156113806281
 30
0.0
  0
VERTEX
  5
239
330
237
100
AcDbEntity
  8
STANDARDEBENE
 62
     7
100
AcDbVertex
100
AcDb2dVertex
 10
-56.54573023759968
 20
22.40156113806281
 30
0.0
  0
SEQEND
  5
23A
330
237
100
AcDbEntity
  8
STANDARDEBENE
  0
POLYLINE
  5
23B
330
1F
100
AcDbEntity
  8
STANDARDEBENE
 62
     7
100
AcDb2dPolyline
 66
     1
 10
0.0
 20
0.0
 30
0.0
  0
VERTEX
  5
23C
330
23B
100
AcDbEntity
  8
STANDARDEBENE
 62
     7
100
AcDbVertex
100
AcDb2dVertex
 10
-57.52999401773556
 20
22.40156113806281
 30
0.0
  0
VERTEX
  5
23D
330
23B
100
AcDbEntity
  8
STANDARDEBENE
 62
     7
100
AcDbVertex
100
AcDb2dVertex
 10
-58.51460230741996
 20
22.40156113806281
 30
0.0
  0
SEQEND
  5
23E
330
23B
100
AcDbEntity
  8
STANDARDEBENE
  0
POLYLINE
  5
23F
330
1F
100
AcDbEntity
  8
STANDARDEBENE
 62
     7
100
AcDb2dPolyline
 66
     1
 10
0.0
 20
0.0
 30
0.0
  0
VERTEX
  5
240
330
23F
100
AcDbEntity
  8
STANDARDEBENE
 62
     7
100
AcDbVertex
100
AcDb2dVertex
 10
-59.49921059710437
 20
22.40156113806281
 30
0.0
  0
VERTEX
  5
241
330
23F
100
AcDbEntity
  8
STANDARDEBENE
 62
     7
100
AcDbVertex
100
AcDb2dVertex
 10
-60.48244084859467
 20
22.40156113806281
 30
0.0
  0
SEQEND
  5
242
330
23F
100
AcDbEntity
  8
STANDARDEBENE
  0
POLYLINE
  5
243
330
1F
100
AcDbEntity
  8
STANDARDEBENE
 62
     7
100
AcDb2dPolyline
 66
     1
 10
0.0
 20
0.0
 30
0.0
  0
VERTEX
  5
244
330
243
100
AcDbEntity
  8
STANDARDEBENE
 62
     7
100
AcDbVertex
100
AcDb2dVertex
 10
-61.46773815737613
 20
22.40156113806281
 30
0.0
  0
VERTEX
  5
245
330
243
100
AcDbEntity
  8
STANDARDEBENE
 62
     7
100
AcDbVertex
100
AcDb2dVertex
 10
-62.452001937512
 20
22.40156113806281
 30
0.0
  0
SEQEND
  5
246
330
243
100
AcDbEntity
  8
STANDARDEBENE
  0
POLYLINE
  5
247
330
1F
100
AcDbEntity
  8
STANDARDEBENE
 62
     7
100
AcDb2dPolyline
 66
     1
 10
0.0
 20
0.0
 30
0.0
  0
VERTEX
  5
248
330
247
100
AcDbEntity
  8
STANDARDEBENE
 62
     7
100
AcDbVertex
100
AcDb2dVertex
 10
-63.43592120809936
 20
22.40156113806281
 30
0.0
  0
VERTEX
  5
249
330
247
100
AcDbEntity
  8
STANDARDEBENE
 62
     7
100
AcDbVertex
100
AcDb2dVertex
 10
-64.42121851688081
 20
22.40156113806281
 30
0.0
  0
SEQEND
  5
24A
330
247
100
AcDbEntity
  8
STANDARDEBENE
  0
POLYLINE
  5
24B
330
1F
100
AcDbEntity
  8
STANDARDEBENE
 62
     7
100
AcDb2dPolyline
 66
     1
 10
0.0
 20
0.0
 30
0.0
  0
VERTEX
  5
24C
330
24B
100
AcDbEntity
  8
STANDARDEBENE
 62
     7
100
AcDbVertex
100
AcDb2dVertex
 10
-65.40479327791964
 20
22.40156113806281
 30
0.0
  0
VERTEX
  5
24D
330
24B
100
AcDbEntity
  8
STANDARDEBENE
 62
     7
100
AcDbVertex
100
AcDb2dVertex
 10
-66.38871254850699
 20
22.40156113806281
 30
0.0
  0
SEQEND
  5
24E
330
24B
100
AcDbEntity
  8
STANDARDEBENE
  0
POLYLINE
  5
24F
330
1F
100
AcDbEntity
  8
STANDARDEBENE
 62
     7
100
AcDb2dPolyline
 66
     1
 10
0.0
 20
0.0
 30
0.0
  0
VERTEX
  5
250
330
24F
100
AcDbEntity
  8
STANDARDEBENE
 62
     7
100
AcDbVertex
100
AcDb2dVertex
 10
-67.37332083819139
 20
22.40156113806281
 30
0.0
  0
VERTEX
  5
251
330
24F
100
AcDbEntity
  8
STANDARDEBENE
 62
     7
100
AcDbVertex
100
AcDb2dVertex
 10
-68.35792912787579
 20
22.40156113806281
 30
0.0
  0
SEQEND
  5
252
330
24F
100
AcDbEntity
  8
STANDARDEBENE
  0
POLYLINE
  5
253
330
1F
100
AcDbEntity
  8
STANDARDEBENE
 62
     7
100
AcDb2dPolyline
 66
     1
 10
0.0
 20
0.0
 30
0.0
  0
VERTEX
  5
254
330
253
100
AcDbEntity
  8
STANDARDEBENE
 62
     7
100
AcDbVertex
100
AcDb2dVertex
 10
-69.34219290801168
 20
22.40156113806281
 30
0.0
  0
VERTEX
  5
255
330
253
100
AcDbEntity
  8
STANDARDEBENE
 62
     7
100
AcDbVertex
100
AcDb2dVertex
 10
-70.32611217859903
 20
22.40156113806281
 30
0.0
  0
SEQEND
  5
256
330
253
100
AcDbEntity
  8
STANDARDEBENE
  0
POLYLINE
  5
257
330
1F
100
AcDbEntity
  8
STANDARDEBENE
 62
     7
100
AcDb2dPolyline
 66
     1
 10
0.0
 20
0.0
 30
0.0
  0
VERTEX
  5
258
330
257
100
AcDbEntity
  8
STANDARDEBENE
 62
     7
100
AcDbVertex
100
AcDb2dVertex
 10
-71.31106497783196
 20
22.40156113806281
 30
0.0
  0
VERTEX
  5
259
330
257
100
AcDbEntity
  8
STANDARDEBENE
 62
     7
100
AcDbVertex
100
AcDb2dVertex
 10
-72.29567326751636
 20
22.40156113806281
 30
0.0
  0
SEQEND
  5
25A
330
257
100
AcDbEntity
  8
STANDARDEBENE
  0
POLYLINE
  5
25B
330
1F
100
AcDbEntity
  8
STANDARDEBENE
 62
     7
100
AcDb2dPolyline
 66
     1
 10
0.0
 20
0.0
 30
0.0
  0
VERTEX
  5
25C
330
25B
100
AcDbEntity
  8
STANDARDEBENE
 62
     7
100
AcDbVertex
100
AcDb2dVertex
 10
-73.27993704765224
 20
22.40156113806281
 30
0.0
  0
VERTEX
  5
25D
330
25B
100
AcDbEntity
  8
STANDARDEBENE
 62
     7
100
AcDbVertex
100
AcDb2dVertex
 10
-74.26420082778812
 20
22.40156113806281
 30
0.0
  0
SEQEND
  5
25E
330
25B
100
AcDbEntity
  8
STANDARDEBENE
  0
POLYLINE
  5
25F
330
1F
100
AcDbEntity
  8
STANDARDEBENE
 62
     7
100
AcDb2dPolyline
 66
     1
 10
0.0
 20
0.0
 30
0.0
  0
VERTEX
  5
260
330
25F
100
AcDbEntity
  8
STANDARDEBENE
 62
     7
100
AcDbVertex
100
AcDb2dVertex
 10
-75.24846460792399
 20
22.40156113806281
 30
0.0
  0
VERTEX
  5
261
330
25F
100
AcDbEntity
  8
STANDARDEBENE
 62
     7
100
AcDbVertex
100
AcDb2dVertex
 10
-76.23341740715692
 20
22.40156113806281
 30
0.0
  0
SEQEND
  5
262
330
25F
100
AcDbEntity
  8
STANDARDEBENE
  0
POLYLINE
  5
263
330
1F
100
AcDbEntity
  8
STANDARDEBENE
 62
     7
100
AcDb2dPolyline
 66
     1
 10
0.0
 20
0.0
 30
0.0
  0
VERTEX
  5
264
330
263
100
AcDbEntity
  8
STANDARDEBENE
 62
     7
100
AcDbVertex
100
AcDb2dVertex
 10
-77.21768118729281
 20
22.40156113806281
 30
0.0
  0
VERTEX
  5
265
330
263
100
AcDbEntity
  8
STANDARDEBENE
 62
     7
100
AcDbVertex
100
AcDb2dVertex
 10
-78.20160045788016
 20
22.40156113806281
 30
0.0
  0
SEQEND
  5
266
330
263
100
AcDbEntity
  8
STANDARDEBENE
  0
POLYLINE
  5
267
330
1F
100
AcDbEntity
  8
STANDARDEBENE
 62
     7
100
AcDb2dPolyline
 66
     1
 10
0.0
 20
0.0
 30
0.0
  0
VERTEX
  5
268
330
267
100
AcDbEntity
  8
STANDARDEBENE
 62
     7
100
AcDbVertex
100
AcDb2dVertex
 10
-79.18620874756456
 20
22.40156113806281
 30
0.0
  0
VERTEX
  5
269
330
267
100
AcDbEntity
  8
STANDARDEBENE
 62
     7
100
AcDbVertex
100
AcDb2dVertex
 10
-80.17047252770044
 20
22.40156113806281
 30
0.0
  0
SEQEND
  5
26A
330
267
100
AcDbEntity
  8
STANDARDEBENE
  0
POLYLINE
  5
26B
330
1F
100
AcDbEntity
  8
STANDARDEBENE
 62
     7
100
AcDb2dPolyline
 66
     1
 10
0.0
 20
0.0
 30
0.0
  0
VERTEX
  5
26C
330
26B
100
AcDbEntity
  8
STANDARDEBENE
 62
     7
100
AcDbVertex
100
AcDb2dVertex
 10
-81.15542532693337
 20
22.40156113806281
 30
0.0
  0
VERTEX
  5
26D
330
26B
100
AcDbEntity
  8
STANDARDEBENE
 62
     7
100
AcDbVertex
100
AcDb2dVertex
 10
-82.13934459752072
 20
22.40156113806281
 30
0.0
  0
SEQEND
  5
26E
330
26B
100
AcDbEntity
  8
STANDARDEBENE
  0
POLYLINE
  5
26F
330
1F
100
AcDbEntity
  8
STANDARDEBENE
 62
     7
100
AcDb2dPolyline
 66
     1
 10
0.0
 20
0.0
 30
0.0
  0
VERTEX
  5
270
330
26F
100
AcDbEntity
  8
STANDARDEBENE
 62
     7
100
AcDbVertex
100
AcDb2dVertex
 10
-83.1236083776566
 20
22.40156113806281
 30
0.0
  0
VERTEX
  5
271
330
26F
100
AcDbEntity
  8
STANDARDEBENE
 62
     7
100
AcDbVertex
100
AcDb2dVertex
 10
-84.10856117688952
 20
22.40156113806281
 30
0.0
  0
SEQEND
  5
272
330
26F
100
AcDbEntity
  8
STANDARDEBENE
  0
POLYLINE
  5
273
330
1F
100
AcDbEntity
  8
STANDARDEBENE
 62
     7
100
AcDb2dPolyline
 66
     1
 10
0.0
 20
0.0
 30
0.0
  0
VERTEX
  5
274
330
273
100
AcDbEntity
  8
STANDARDEBENE
 62
     7
100
AcDbVertex
100
AcDb2dVertex
 10
-85.09213593792836
 20
22.40156113806281
 30
0.0
  0
VERTEX
  5
275
330
273
100
AcDbEntity
  8
STANDARDEBENE
 62
     7
100
AcDbVertex
100
AcDb2dVertex
 10
-86.07708873716129
 20
22.40156113806281
 30
0.0
  0
SEQEND
  5
276
330
273
100
AcDbEntity
  8
STANDARDEBENE
  0
POLYLINE
  5
277
330
1F
100
AcDbEntity
  8
STANDARDEBENE
 62
     7
100
AcDb2dPolyline
 66
     1
 10
0.0
 20
0.0
 30
0.0
  0
VERTEX
  5
278
330
277
100
AcDbEntity
  8
STANDARDEBENE
 62
     7
100
AcDbVertex
100
AcDb2dVertex
 10
-87.06135251729717
 20
22.40156113806281
 30
0.0
  0
VERTEX
  5
279
330
277
100
AcDbEntity
  8
STANDARDEBENE
 62
     7
100
AcDbVertex
100
AcDb2dVertex
 10
-88.04527178788452
 20
22.40156113806281
 30
0.0
  0
SEQEND
  5
27A
330
277
100
AcDbEntity
  8
STANDARDEBENE
  0
POLYLINE
  5
27B
330
1F
100
AcDbEntity
  8
STANDARDEBENE
 62
     7
100
AcDb2dPolyline
 66
     1
 10
0.0
 20
0.0
 30
0.0
  0
VERTEX
  5
27C
330
27B
100
AcDbEntity
  8
STANDARDEBENE
 62
     7
100
AcDbVertex
100
AcDb2dVertex
 10
-89.03022458711744
 20
22.40156113806281
 30
0.0
  0
VERTEX
  5
27D
330
27B
100
AcDbEntity
  8
STANDARDEBENE
 62
     7
100
AcDbVertex
100
AcDb2dVertex
 10
-90.0141438577048
 20
22.40156113806281
 30
0.0
  0
SEQEND
  5
27E
330
27B
100
AcDbEntity
  8
STANDARDEBENE
  0
POLYLINE
  5
27F
330
1F
100
AcDbEntity
  8
STANDARDEBENE
 62
     7
100
AcDb2dPolyline
 66
     1
 10
0.0
 20
0.0
 30
0.0
  0
VERTEX
  5
280
330
27F
100
AcDbEntity
  8
STANDARDEBENE
 62
     7
100
AcDbVertex
100
AcDb2dVertex
 10
-90.99840763784069
 20
22.40156113806281
 30
0.0
  0
VERTEX
  5
281
330
27F
100
AcDbEntity
  8
STANDARDEBENE
 62
     7
100
AcDbVertex
100
AcDb2dVertex
 10
-91.98336043707361
 20
22.40156113806281
 30
0.0
  0
SEQEND
  5
282
330
27F
100
AcDbEntity
  8
STANDARDEBENE
  0
POLYLINE
  5
283
330
1F
100
AcDbEntity
  8
STANDARDEBENE
 62
     7
100
AcDb2dPolyline
 66
     1
 10
0.0
 20
0.0
 30
0.0
  0
VERTEX
  5
284
330
283
100
AcDbEntity
  8
STANDARDEBENE
 62
     7
100
AcDbVertex
100
AcDb2dVertex
 10
-92.96727970766096
 20
22.40156113806281
 30
0.0
  0
VERTEX
  5
285
330
283
100
AcDbEntity
  8
STANDARDEBENE
 62
     7
100
AcDbVertex
100
AcDb2dVertex
 10
-93.95188799734537
 20
22.40156113806281
 30
0.0
  0
SEQEND
  5
286
330
283
100
AcDbEntity
  8
STANDARDEBENE
  0
POLYLINE
  5
287
330
1F
100
AcDbEntity
  8
STANDARDEBENE
 62
     7
100
AcDb2dPolyline
 66
     1
 10
0.0
 20
0.0
 30
0.0
  0
VERTEX
  5
288
330
287
100
AcDbEntity
  8
STANDARDEBENE
 62
     7
100
AcDbVertex
100
AcDb2dVertex
 10
-94.93615177748124
 20
22.40156113806281
 30
0.0
  0
VERTEX
  5
289
330
287
100
AcDbEntity
  8
STANDARDEBENE
 62
     7
100
AcDbVertex
100
AcDb2dVertex
 10
-95.92041555761712
 20
22.40156113806281
 30
0.0
  0
SEQEND
  5
28A
330
287
100
AcDbEntity
  8
STANDARDEBENE
  0
POLYLINE
  5
28B
330
1F
100
AcDbEntity
  8
STANDARDEBENE
 62
     7
100
AcDb2dPolyline
 66
     1
 10
0.0
 20
0.0
 30
0.0
  0
VERTEX
  5
28C
330
28B
100
AcDbEntity
  8
STANDARDEBENE
 62
     7
100
AcDbVertex
100
AcDb2dVertex
 10
-96.90502384730152
 20
22.40156113806281
 30
0.0
  0
VERTEX
  5
28D
330
28B
100
AcDbEntity
  8
STANDARDEBENE
 62
     7
100
AcDbVertex
100
AcDb2dVertex
 10
-97.88894311788889
 20
22.40156113806281
 30
0.0
  0
SEQEND
  5
28E
330
28B
100
AcDbEntity
  8
STANDARDEBENE
  0
POLYLINE
  5
28F
330
1F
100
AcDbEntity
  8
STANDARDEBENE
 62
     7
100
AcDb2dPolyline
 66
     1
 10
0.0
 20
0.0
 30
0.0
  0
VERTEX
  5
290
330
28F
100
AcDbEntity
  8
STANDARDEBENE
 62
     7
100
AcDbVertex
100
AcDb2dVertex
 10
-98.87389591712181
 20
22.40156113806281
 30
0.0
  0
VERTEX
  5
291
330
28F
100
AcDbEntity
  8
STANDARDEBENE
 62
     7
100
AcDbVertex
100
AcDb2dVertex
 10
-99.85781518770916
 20
22.40156113806281
 30
0.0
  0
SEQEND
  5
292
330
28F
100
AcDbEntity
  8
STANDARDEBENE
  0
POLYLINE
  5
293
330
1F
100
AcDbEntity
  8
STANDARDEBENE
 62
     7
100
AcDb2dPolyline
 66
     1
 10
0.0
 20
0.0
 30
0.0
  0
VERTEX
  5
294
330
293
100
AcDbEntity
  8
STANDARDEBENE
 62
     7
100
AcDbVertex
100
AcDb2dVertex
 10
-100.842078967845
 20
22.40156113806281
 30
0.0
  0
VERTEX
  5
295
330
293
100
AcDbEntity
  8
STANDARDEBENE
 62
     7
100
AcDbVertex
100
AcDb2dVertex
 10
-101.8266872575294
 20
22.40156113806281
 30
0.0
  0
SEQEND
  5
296
330
293
100
AcDbEntity
  8
STANDARDEBENE
  0
POLYLINE
  5
297
330
1F
100
AcDbEntity
  8
STANDARDEBENE
 62
     7
100
AcDb2dPolyline
 66
     1
 10
0.0
 20
0.0
 30
0.0
  0
VERTEX
  5
298
330
297
100
AcDbEntity
  8
STANDARDEBENE
 62
     7
100
AcDbVertex
100
AcDb2dVertex
 10
-102.8112955472138
 20
22.40156113806281
 30
0.0
  0
VERTEX
  5
299
330
297
100
AcDbEntity
  8
STANDARDEBENE
 62
     7
100
AcDbVertex
100
AcDb2dVertex
 10
-103.7955593273497
 20
22.40156113806281
 30
0.0
  0
SEQEND
  5
29A
330
297
100
AcDbEntity
  8
STANDARDEBENE
  0
POLYLINE
  5
29B
330
1F
100
AcDbEntity
  8
STANDARDEBENE
 62
     7
100
AcDb2dPolyline
 66
     1
 10
0.0
 20
0.0
 30
0.0
  0
VERTEX
  5
29C
330
29B
100
AcDbEntity
  8
STANDARDEBENE
 62
     7
100
AcDbVertex
100
AcDb2dVertex
 10
-104.7798231074856
 20
22.40156113806281
 30
0.0
  0
VERTEX
  5
29D
330
29B
100
AcDbEntity
  8
STANDARDEBENE
 62
     7
100
AcDbVertex
100
AcDb2dVertex
 10
-105.76443139717
 20
22.40156113806281
 30
0.0
  0
SEQEND
  5
29E
330
29B
100
AcDbEntity
  8
STANDARDEBENE
  0
POLYLINE
  5
29F
330
1F
100
AcDbEntity
  8
STANDARDEBENE
 62
     7
100
AcDb2dPolyline
 66
     1
 10
0.0
 20
0.0
 30
0.0
  0
VERTEX
  5
2A0
330
29F
100
AcDbEntity
  8
STANDARDEBENE
 62
     7
100
AcDbVertex
100
AcDb2dVertex
 10
-106.7486951773059
 20
22.40156113806281
 30
0.0
  0
VERTEX
  5
2A1
330
29F
100
AcDbEntity
  8
STANDARDEBENE
 62
     7
100
AcDbVertex
100
AcDb2dVertex
 10
-107.7326144478932
 20
22.40156113806281
 30
0.0
  0
SEQEND
  5
2A2
330
29F
100
AcDbEntity
  8
STANDARDEBENE
  0
POLYLINE
  5
2A3
330
1F
100
AcDbEntity
  8
STANDARDEBENE
 62
     7
100
AcDb2dPolyline
 66
     1
 10
0.0
 20
0.0
 30
0.0
  0
VERTEX
  5
2A4
330
2A3
100
AcDbEntity
  8
STANDARDEBENE
 62
     7
100
AcDbVertex
100
AcDb2dVertex
 10
-108.7172227375776
 20
22.40156113806281
 30
0.0
  0
VERTEX
  5
2A5
330
2A3
100
AcDbEntity
  8
STANDARDEBENE
 62
     7
100
AcDbVertex
100
AcDb2dVertex
 10
-109.7021755368106
 20
22.40156113806281
 30
0.0
  0
SEQEND
  5
2A6
330
2A3
100
AcDbEntity
  8
STANDARDEBENE
  0
POLYLINE
  5
2A7
330
1F
100
AcDbEntity
  8
STANDARDEBENE
 62
     7
100
AcDb2dPolyline
 66
     1
 10
0.0
 20
0.0
 30
0.0
  0
VERTEX
  5
2A8
330
2A7
100
AcDbEntity
  8
STANDARDEBENE
 62
     7
100
AcDbVertex
100
AcDb2dVertex
 10
-110.6857502978494
 20
22.40156113806281
 30
0.0
  0
VERTEX
  5
2A9
330
2A7
100
AcDbEntity
  8
STANDARDEBENE
 62
     7
100
AcDbVertex
100
AcDb2dVertex
 10
-111.1783989522401
 20
22.40156113806281
 30
0.0
  0
SEQEND
  5
2AA
330
2A7
100
AcDbEntity
  8
STANDARDEBENE
  0
POLYLINE
  5
2AB
330
1F
100
AcDbEntity
  8
STANDARDEBENE
 62
     7
100
AcDb2dPolyline
 66
     1
 10
0.0
 20
0.0
 30
0.0
  0
VERTEX
  5
2AC
330
2AB
100
AcDbEntity
  8
STANDARDEBENE
 62
     7
100
AcDbVertex
100
AcDb2dVertex
 10
-104.2978542490991
 20
41.10670707522679
 30
0.0
  0
VERTEX
  5
2AD
330
2AB
100
AcDbEntity
  8
STANDARDEBENE
 62
     7
100
AcDbVertex
100
AcDb2dVertex
 10
-104.2978542490991
 20
15.69637179512105
 30
0.0
  0
SEQEND
  5
2AE
330
2AB
100
AcDbEntity
  8
STANDARDEBENE
  0
POLYLINE
  5
2AF
330
1F
100
AcDbEntity
  8
STANDARDEBENE
  6
AI-LINETYPE-1
 62
   252
100
AcDb2dPolyline
 66
     1
 10
0.0
 20
0.0
 30
0.0
  0
VERTEX
  5
2B0
330
2AF
100
AcDbEntity
  8
STANDARDEBENE
  6
AI-LINETYPE-1
 62
   252
100
AcDbVertex
100
AcDb2dVertex
 10
-113.3246934395508
 20
28.40153943517392
 30
0.0
  0
VERTEX
  5
2B1
330
2AF
100
AcDbEntity
  8
STANDARDEBENE
  6
AI-LINETYPE-1
 62
   252
100
AcDbVertex
100
AcDb2dVertex
 10
-45.35812715879936
 20
28.40153943517392
 30
0.0
  0
SEQEND
  5
2B2
330
2AF
100
AcDbEntity
  8
STANDARDEBENE
  6
AI-LINETYPE-1
  0
POLYLINE
  5
2B4
330
1F
100
AcDbEntity
  8
STANDARDEBENE
 62
     7
100
AcDb2dPolyline
 66
     1
 10
0.0
 20
0.0
 30
0.0
  0
VERTEX
  5
2B5
330
2B4
100
AcDbEntity
  8
STANDARDEBENE
 62
     7
100
AcDbVertex
100
AcDb2dVertex
 10
-111.1783989522401
 20
8.401726614653041
 30
0.0
  0
VERTEX
  5
2B6
330
2B4
100
AcDbEntity
  8
STANDARDEBENE
 62
     7
100
AcDbVertex
100
AcDb2dVertex
 10
-106.1781873649485
 20
8.401726614653041
 30
0.0
  0
SEQEND
  5
2B7
330
2B4
100
AcDbEntity
  8
STANDARDEBENE
  0
POLYLINE
  5
2B8
330
1F
100
AcDbEntity
  8
STANDARDEBENE
 62
     7
100
AcDb2dPolyline
 66
     1
 10
0.0
 20
0.0
 30
0.0
  0
VERTEX
  5
2B9
330
2B8
100
AcDbEntity
  8
STANDARDEBENE
 62
     7
100
AcDbVertex
100
AcDb2dVertex
 10
-106.1781873649485
 20
48.40169676524333
 30
0.0
  0
VERTEX
  5
2BA
330
2B8
100
AcDbEntity
  8
STANDARDEBENE
 62
     7
100
AcDbVertex
100
AcDb2dVertex
 10
-111.1783989522401
 20
48.40169676524333
 30
0.0
  0
SEQEND
  5
2BB
330
2B8
100
AcDbEntity
  8
STANDARDEBENE
  0
POLYLINE
  5
2BC
330
1F
100
AcDbEntity
  8
STANDARDEBENE
 62
     7
100
AcDb2dPolyline
 66
     1
 10
0.0
 20
0.0
 30
0.0
  0
VERTEX
  5
2BD
330
2BC
100
AcDbEntity
  8
STANDARDEBENE
 62
     7
100
AcDbVertex
100
AcDb2dVertex
 10
-103.178198216393
 20
12.4014824730281
 30
0.0
  0
VERTEX
  5
2BE
330
2BC
100
AcDbEntity
  8
STANDARDEBENE
 62
     7
100
AcDbVertex
100
AcDb2dVertex
 10
-49.1783935423929
 20
12.4014824730281
 30
0.0
  0
SEQEND
  5
2BF
330
2BC
100
AcDbEntity
  8
STANDARDEBENE
  0
POLYLINE
  5
2C0
330
1F
100
AcDbEntity
  8
STANDARDEBENE
 62
     7
100
AcDb2dPolyline
 66
     1
 10
0.0
 20
0.0
 30
0.0
  0
VERTEX
  5
2C1
330
2C0
100
AcDbEntity
  8
STANDARDEBENE
 62
     7
100
AcDbVertex
100
AcDb2dVertex
 10
-49.1783935423929
 20
44.40194090686827
 30
0.0
  0
VERTEX
  5
2C2
330
2C0
100
AcDbEntity
  8
STANDARDEBENE
 62
     7
100
AcDbVertex
100
AcDb2dVertex
 10
-103.178198216393
 20
44.40194090686827
 30
0.0
  0
SEQEND
  5
2C3
330
2C0
100
AcDbEntity
  8
STANDARDEBENE
  0
POLYLINE
  5
2C4
330
1F
100
AcDbEntity
  8
STANDARDEBENE
 62
     7
100
AcDb2dPolyline
 66
     1
 10
0.0
 20
0.0
 30
0.0
  0
VERTEX
  5
2C5
330
2C4
100
AcDbEntity
  8
STANDARDEBENE
 62
     7
100
AcDbVertex
100
AcDb2dVertex
 10
-49.1783935423929
 20
12.4014824730281
 30
0.0
  0
VERTEX
  5
2C6
330
2C4
100
AcDbEntity
  8
STANDARDEBENE
 62
     7
100
AcDbVertex
100
AcDb2dVertex
 10
-48.1786268325734
 20
13.40193820194465
 30
0.0
  0
SEQEND
  5
2C7
330
2C4
100
AcDbEntity
  8
STANDARDEBENE
  0
POLYLINE
  5
2C8
330
1F
100
AcDbEntity
  8
STANDARDEBENE
 62
     7
100
AcDb2dPolyline
 66
     1
 10
0.0
 20
0.0
 30
0.0
  0
VERTEX
  5
2C9
330
2C8
100
AcDbEntity
  8
STANDARDEBENE
 62
     7
100
AcDbVertex
100
AcDb2dVertex
 10
-48.1786268325734
 20
43.40148517795171
 30
0.0
  0
VERTEX
  5
2CA
330
2C8
100
AcDbEntity
  8
STANDARDEBENE
 62
     7
100
AcDbVertex
100
AcDb2dVertex
 10
-49.1783935423929
 20
44.40194090686827
 30
0.0
  0
SEQEND
  5
2CB
330
2C8
100
AcDbEntity
  8
STANDARDEBENE
  0
POLYLINE
  5
2CC
330
1F
100
AcDbEntity
  8
STANDARDEBENE
 62
     7
100
AcDb2dPolyline
 66
     1
 10
0.0
 20
0.0
 30
0.0
  0
VERTEX
  5
2CD
330
2CC
100
AcDbEntity
  8
STANDARDEBENE
 62
     7
100
AcDbVertex
100
AcDb2dVertex
 10
-103.178198216393
 20
44.40194090686827
 30
0.0
  0
VERTEX
  5
2CE
330
2CC
100
AcDbEntity
  8
STANDARDEBENE
 62
     7
100
AcDbVertex
100
AcDb2dVertex
 10
-104.2217176388751
 20
44.12219915346598
 30
0.0
  0
SEQEND
  5
2CF
330
2CC
100
AcDbEntity
  8
STANDARDEBENE
  0
POLYLINE
  5
2D0
330
1F
100
AcDbEntity
  8
STANDARDEBENE
 62
     7
100
AcDb2dPolyline
 66
     1
 10
0.0
 20
0.0
 30
0.0
  0
VERTEX
  5
2D1
330
2D0
100
AcDbEntity
  8
STANDARDEBENE
 62
     7
100
AcDbVertex
100
AcDb2dVertex
 10
-104.2217176388751
 20
12.68122422643039
 30
0.0
  0
VERTEX
  5
2D2
330
2D0
100
AcDbEntity
  8
STANDARDEBENE
 62
     7
100
AcDbVertex
100
AcDb2dVertex
 10
-103.178198216393
 20
12.4014824730281
 30
0.0
  0
SEQEND
  5
2D3
330
2D0
100
AcDbEntity
  8
STANDARDEBENE
  0
POLYLINE
  5
2D4
330
1F
100
AcDbEntity
  8
STANDARDEBENE
 62
     7
100
AcDb2dPolyline
 66
     1
 10
0.0
 20
0.0
 30
0.0
  0
VERTEX
  5
2D5
330
2D4
100
AcDbEntity
  8
STANDARDEBENE
 62
     7
100
AcDbVertex
100
AcDb2dVertex
 10
-105.9325520568502
 20
12.70189479934189
 30
0.0
  0
VERTEX
  5
2D6
330
2D4
100
AcDbEntity
  8
STANDARDEBENE
 62
     7
100
AcDbVertex
100
AcDb2dVertex
 10
-104.3770914452599
 20
12.70189479934189
 30
0.0
  0
SEQEND
  5
2D7
330
2D4
100
AcDbEntity
  8
STANDARDEBENE
  0
POLYLINE
  5
2D8
330
1F
100
AcDbEntity
  8
STANDARDEBENE
 62
     7
100
AcDb2dPolyline
 66
     1
 10
0.0
 20
0.0
 30
0.0
  0
VERTEX
  5
2D9
330
2D8
100
AcDbEntity
  8
STANDARDEBENE
 62
     7
100
AcDbVertex
100
AcDb2dVertex
 10
-104.3770914452599
 20
44.10187309010301
 30
0.0
  0
VERTEX
  5
2DA
330
2D8
100
AcDbEntity
  8
STANDARDEBENE
 62
     7
100
AcDbVertex
100
AcDb2dVertex
 10
-105.9325520568502
 20
44.10187309010301
 30
0.0
  0
SEQEND
  5
2DB
330
2D8
100
AcDbEntity
  8
STANDARDEBENE
  0
SPLINE
  5
2DC
330
1F
100
AcDbEntity
  8
STANDARDEBENE
 62
     7
100
AcDbSpline
210
0.0
220
0.0
230
1.0
 70
     8
 71
     3
 72
     8
 73
     4
 74
     0
 42
0.0000000001
 43
0.0000000001
 40
0.0
 40
0.0
 40
0.0
 40
0.0
 40
1.0
 40
1.0
 40
1.0
 40
1.0
 10
-106.1781873649485
 20
44.15458305102733
 30
0.0
 10
-106.0968831114966
 20
44.11806503888368
 30
0.0
 10
-106.012478272108
 20
44.10083956145743
 30
0.0
 10
-105.9325520568502
 20
44.10187309010301
 30
0.0
  0
SPLINE
  5
2DD
330
1F
100
AcDbEntity
  8
STANDARDEBENE
 62
     7
100
AcDbSpline
210
0.0
220
0.0
230
1.0
 70
     8
 71
     3
 72
     8
 73
     4
 74
     0
 42
0.0000000001
 43
0.0000000001
 40
0.0
 40
0.0
 40
0.0
 40
0.0
 40
1.0
 40
1.0
 40
1.0
 40
1.0
 10
-105.9325520568502
 20
12.70189479934189
 30
0.0
 10
-106.0214355203696
 20
12.70189479934189
 30
0.0
 10
-106.1061848693068
 20
12.68260226462449
 30
0.0
 10
-106.1781873649485
 20
12.64884032886904
 30
0.0
  0
SPLINE
  5
2DE
330
1F
100
AcDbEntity
  8
STANDARDEBENE
 62
     7
100
AcDbSpline
210
0.0
220
0.0
230
1.0
 70
     8
 71
     3
 72
     8
 73
     4
 74
     0
 42
0.0000000001
 43
0.0000000001
 40
0.0
 40
0.0
 40
0.0
 40
0.0
 40
1.0
 40
1.0
 40
1.0
 40
1.0
 10
-104.3770914452599
 20
44.10187309010301
 30
0.0
 10
-104.3216254079474
 20
44.10187309010301
 30
0.0
 10
-104.268226427926
 20
44.10910779062203
 30
0.0
 10
-104.2217176388751
 20
44.12219915346598
 30
0.0
  0
SPLINE
  5
2DF
330
1F
100
AcDbEntity
  8
STANDARDEBENE
 62
     7
100
AcDbSpline
210
0.0
220
0.0
230
1.0
 70
     8
 71
     3
 72
     8
 73
     4
 74
     0
 42
0.0000000001
 43
0.0000000001
 40
0.0
 40
0.0
 40
0.0
 40
0.0
 40
1.0
 40
1.0
 40
1.0
 40
1.0
 10
-104.2217176388751
 20
12.68122422643039
 30
0.0
 10
-104.2751166188965
 20
12.69569362746844
 30
0.0
 10
-104.3288601084664
 20
12.70258381843894
 30
0.0
 10
-104.3770914452599
 20
12.70189479934189
 30
0.0
  0
POLYLINE
  5
2E0
330
1F
100
AcDbEntity
  8
STANDARDEBENE
 62
     7
100
AcDb2dPolyline
 66
     1
 10
0.0
 20
0.0
 30
0.0
  0
VERTEX
  5
2E1
330
2E0
100
AcDbEntity
  8
STANDARDEBENE
 62
     7
100
AcDbVertex
100
AcDb2dVertex
 10
-92.17835284153875
 20
21.4017944282433
 30
0.0
  0
VERTEX
  5
2E2
330
2E0
100
AcDbEntity
  8
STANDARDEBENE
 62
     7
100
AcDbVertex
100
AcDb2dVertex
 10
-61.17800562706661
 20
21.4017944282433
 30
0.0
  0
VERTEX
  5
2E3
330
2E0
100
AcDbEntity
  8
STANDARDEBENE
 62
     7
100
AcDbVertex
100
AcDb2dVertex
 10
-60.44867891283922
 20
21.43969047858105
 30
0.0
  0
VERTEX
  5
2E4
330
2E0
100
AcDbEntity
  8
STANDARDEBENE
 62
     7
100
AcDbVertex
100
AcDb2dVertex
 10
-60.08487682959684
 20
21.48792181537455
 30
0.0
  0
VERTEX
  5
2E5
330
2E0
100
AcDbEntity
  8
STANDARDEBENE
 62
     7
100
AcDbVertex
100
AcDb2dVertex
 10
-59.72899846597053
 20
21.55303412004577
 30
0.0
  0
VERTEX
  5
2E6
330
2E0
100
AcDbEntity
  8
STANDARDEBENE
 62
     7
100
AcDbVertex
100
AcDb2dVertex
 10
-58.99071450348149
 20
21.75250514864173
 30
0.0
  0
VERTEX
  5
2E7
330
2E0
100
AcDbEntity
  8
STANDARDEBENE
 62
     7
100
AcDbVertex
100
AcDb2dVertex
 10
-57.99198132230757
 20
22.16901719280844
 30
0.0
  0
VERTEX
  5
2E8
330
2E0
100
AcDbEntity
  8
STANDARDEBENE
 62
     7
100
AcDbVertex
100
AcDb2dVertex
 10
-57.05388182167403
 20
22.74641519613632
 30
0.0
  0
VERTEX
  5
2E9
330
2E0
100
AcDbEntity
  8
STANDARDEBENE
 62
     7
100
AcDbVertex
100
AcDb2dVertex
 10
-56.19260795036157
 20
23.4881442541106
 30
0.0
  0
VERTEX
  5
2EA
330
2E0
100
AcDbEntity
  8
STANDARDEBENE
 62
     7
100
AcDbVertex
100
AcDb2dVertex
 10
-55.44536673961088
 20
24.38524711846966
 30
0.0
  0
VERTEX
  5
2EB
330
2E0
100
AcDbEntity
  8
STANDARDEBENE
 62
     7
100
AcDbVertex
100
AcDb2dVertex
 10
-55.02609861905598
 20
25.0615193622242
 30
0.0
  0
VERTEX
  5
2EC
330
2E0
100
AcDbEntity
  8
STANDARDEBENE
 62
     7
100
AcDbVertex
100
AcDb2dVertex
 10
-54.84523110608036
 20
25.42049831178724
 30
0.0
  0
VERTEX
  5
2ED
330
2E0
100
AcDbEntity
  8
STANDARDEBENE
 62
     7
100
AcDbVertex
100
AcDb2dVertex
 10
-54.68606769466182
 20
25.78430039502962
 30
0.0
  0
VERTEX
  5
2EE
330
2E0
100
AcDbEntity
  8
STANDARDEBENE
 62
     7
100
AcDbVertex
100
AcDb2dVertex
 10
-54.41597220861823
 20
26.59045273857808
 30
0.0
  0
VERTEX
  5
2EF
330
2E0
100
AcDbEntity
  8
STANDARDEBENE
 62
     7
100
AcDbVertex
100
AcDb2dVertex
 10
-54.26025389268494
 20
27.3352823824891
 30
0.0
  0
VERTEX
  5
2F0
330
2E0
100
AcDbEntity
  8
STANDARDEBENE
 62
     7
100
AcDbVertex
100
AcDb2dVertex
 10
-54.21236706543996
 20
27.71768798135183
 30
0.0
  0
VERTEX
  5
2F1
330
2E0
100
AcDbEntity
  8
STANDARDEBENE
 62
     7
100
AcDbVertex
100
AcDb2dVertex
 10
-54.18549532065501
 20
28.09492593698669
 30
0.0
  0
VERTEX
  5
2F2
330
2E0
100
AcDbEntity
  8
STANDARDEBENE
 62
     7
100
AcDbVertex
100
AcDb2dVertex
 10
-54.19686413575634
 20
28.90417886647187
 30
0.0
  0
VERTEX
  5
2F3
330
2E0
100
AcDbEntity
  8
STANDARDEBENE
 62
     7
100
AcDbVertex
100
AcDb2dVertex
 10
-54.35464950898078
 20
29.9649237663803
 30
0.0
  0
VERTEX
  5
2F4
330
2E0
100
AcDbEntity
  8
STANDARDEBENE
 62
     7
100
AcDbVertex
100
AcDb2dVertex
 10
-54.68227808962804
 20
31.01051024615363
 30
0.0
  0
VERTEX
  5
2F5
330
2E0
100
AcDbEntity
  8
STANDARDEBENE
 62
     7
100
AcDbVertex
100
AcDb2dVertex
 10
-55.15907930478662
 20
31.97513698202358
 30
0.0
  0
VERTEX
  5
2F6
330
2E0
100
AcDbEntity
  8
STANDARDEBENE
 62
     7
100
AcDbVertex
100
AcDb2dVertex
 10
-55.79022079768439
 20
32.87051729864001
 30
0.0
  0
VERTEX
  5
2F7
330
2E0
100
AcDbEntity
  8
STANDARDEBENE
 62
     7
100
AcDbVertex
100
AcDb2dVertex
 10
-56.30836315866597
 20
33.43068982454164
 30
0.0
  0
VERTEX
  5
2F8
330
2E0
100
AcDbEntity
  8
STANDARDEBENE
 62
     7
100
AcDbVertex
100
AcDb2dVertex
 10
-56.59223902665055
 20
33.68976100503242
 30
0.0
  0
VERTEX
  5
2F9
330
2E0
100
AcDbEntity
  8
STANDARDEBENE
 62
     7
100
AcDbVertex
100
AcDb2dVertex
 10
-56.88541665244531
 20
33.93057317945139
 30
0.0
  0
VERTEX
  5
2FA
330
2E0
100
AcDbEntity
  8
STANDARDEBENE
 62
     7
100
AcDbVertex
100
AcDb2dVertex
 10
-57.54480792832214
 20
34.38498127395584
 30
0.0
  0
VERTEX
  5
2FB
330
2E0
100
AcDbEntity
  8
STANDARDEBENE
 62
     7
100
AcDbVertex
100
AcDb2dVertex
 10
-58.24588485957047
 20
34.75842962455692
 30
0.0
  0
VERTEX
  5
2FC
330
2E0
100
AcDbEntity
  8
STANDARDEBENE
 62
     7
100
AcDbVertex
100
AcDb2dVertex
 10
-58.61726615288041
 20
34.91621499778137
 30
0.0
  0
VERTEX
  5
2FD
330
2E0
100
AcDbEntity
  8
STANDARDEBENE
 62
     7
100
AcDbVertex
100
AcDb2dVertex
 10
-58.99071450348149
 20
35.05126274080316
 30
0.0
  0
VERTEX
  5
2FE
330
2E0
100
AcDbEntity
  8
STANDARDEBENE
 62
     7
100
AcDbVertex
100
AcDb2dVertex
 10
-59.8140923244562
 20
35.26761473727685
 30
0.0
  0
VERTEX
  5
2FF
330
2E0
100
AcDbEntity
  8
STANDARDEBENE
 62
     7
100
AcDbVertex
100
AcDb2dVertex
 10
-60.48829751091959
 20
35.36752250634909
 30
0.0
  0
VERTEX
  5
300
330
2E0
100
AcDbEntity
  8
STANDARDEBENE
 62
     7
100
AcDbVertex
100
AcDb2dVertex
 10
-61.17800562706661
 20
35.40162895165307
 30
0.0
  0
VERTEX
  5
301
330
2E0
100
AcDbEntity
  8
STANDARDEBENE
 62
     7
100
AcDbVertex
100
AcDb2dVertex
 10
-92.17835284153875
 20
35.40162895165307
 30
0.0
  0
VERTEX
  5
302
330
2E0
100
AcDbEntity
  8
STANDARDEBENE
 62
     7
100
AcDbVertex
100
AcDb2dVertex
 10
-92.90767955576614
 20
35.36373290131532
 30
0.0
  0
VERTEX
  5
303
330
2E0
100
AcDbEntity
  8
STANDARDEBENE
 62
     7
100
AcDbVertex
100
AcDb2dVertex
 10
-93.27251516765409
 20
35.31584607407034
 30
0.0
  0
VERTEX
  5
304
330
2E0
100
AcDbEntity
  8
STANDARDEBENE
 62
     7
100
AcDbVertex
100
AcDb2dVertex
 10
-93.6270154930863
 20
35.2503892598506
 30
0.0
  0
VERTEX
  5
305
330
2E0
100
AcDbEntity
  8
STANDARDEBENE
 62
     7
100
AcDbVertex
100
AcDb2dVertex
 10
-94.36633298422092
 20
35.05126274080316
 30
0.0
  0
VERTEX
  5
306
330
2E0
100
AcDbEntity
  8
STANDARDEBENE
 62
     7
100
AcDbVertex
100
AcDb2dVertex
 10
-95.36506616539485
 20
34.63440618708793
 30
0.0
  0
VERTEX
  5
307
330
2E0
100
AcDbEntity
  8
STANDARDEBENE
 62
     7
100
AcDbVertex
100
AcDb2dVertex
 10
-96.30316566602838
 20
34.05735269330858
 30
0.0
  0
VERTEX
  5
308
330
2E0
100
AcDbEntity
  8
STANDARDEBENE
 62
     7
100
AcDbVertex
100
AcDb2dVertex
 10
-97.16443953734084
 20
33.31527912578576
 30
0.0
  0
VERTEX
  5
309
330
2E0
100
AcDbEntity
  8
STANDARDEBENE
 62
     7
100
AcDbVertex
100
AcDb2dVertex
 10
-97.911336238543
 20
32.41783175187818
 30
0.0
  0
VERTEX
  5
30A
330
2E0
100
AcDbEntity
  8
STANDARDEBENE
 62
     7
100
AcDbVertex
100
AcDb2dVertex
 10
-98.32991534000085
 20
31.74224852722069
 30
0.0
  0
VERTEX
  5
30B
330
2E0
100
AcDbEntity
  8
STANDARDEBENE
 62
     7
100
AcDbVertex
100
AcDb2dVertex
 10
-98.51147187207353
 20
31.38292506810913
 30
0.0
  0
VERTEX
  5
30C
330
2E0
100
AcDbEntity
  8
STANDARDEBENE
 62
     7
100
AcDbVertex
100
AcDb2dVertex
 10
-98.67097979304059
 20
31.01877847531822
 30
0.0
  0
VERTEX
  5
30D
330
2E0
100
AcDbEntity
  8
STANDARDEBENE
 62
     7
100
AcDbVertex
100
AcDb2dVertex
 10
-98.94004175043861
 20
30.21297064131829
 30
0.0
  0
VERTEX
  5
30E
330
2E0
100
AcDbEntity
  8
STANDARDEBENE
 62
     7
100
AcDbVertex
100
AcDb2dVertex
 10
-99.09644908546895
 20
29.46814099740727
 30
0.0
  0
VERTEX
  5
30F
330
2E0
100
AcDbEntity
  8
STANDARDEBENE
 62
     7
100
AcDbVertex
100
AcDb2dVertex
 10
-99.14502493181097
 20
29.08573539854454
 30
0.0
  0
VERTEX
  5
310
330
2E0
100
AcDbEntity
  8
STANDARDEBENE
 62
     7
100
AcDbVertex
100
AcDb2dVertex
 10
-99.1715521670474
 20
28.70815293336116
 30
0.0
  0
VERTEX
  5
311
330
2E0
100
AcDbEntity
  8
STANDARDEBENE
 62
     7
100
AcDbVertex
100
AcDb2dVertex
 10
-99.1605278614946
 20
27.8992445134245
 30
0.0
  0
VERTEX
  5
312
330
2E0
100
AcDbEntity
  8
STANDARDEBENE
 62
     7
100
AcDbVertex
100
AcDb2dVertex
 10
-99.00170895962458
 20
26.83918863261312
 30
0.0
  0
VERTEX
  5
313
330
2E0
100
AcDbEntity
  8
STANDARDEBENE
 62
     7
100
AcDbVertex
100
AcDb2dVertex
 10
-98.67408037897732
 20
25.79325764329127
 30
0.0
  0
VERTEX
  5
314
330
2E0
100
AcDbEntity
  8
STANDARDEBENE
 62
     7
100
AcDbVertex
100
AcDb2dVertex
 10
-98.19727916381873
 20
24.82828639787279
 30
0.0
  0
VERTEX
  5
315
330
2E0
100
AcDbEntity
  8
STANDARDEBENE
 62
     7
100
AcDbVertex
100
AcDb2dVertex
 10
-97.56648218046949
 20
23.93290608125636
 30
0.0
  0
VERTEX
  5
316
330
2E0
100
AcDbEntity
  8
STANDARDEBENE
 62
     7
100
AcDbVertex
100
AcDb2dVertex
 10
-97.0479953099394
 20
23.37273355535473
 30
0.0
  0
VERTEX
  5
317
330
2E0
100
AcDbEntity
  8
STANDARDEBENE
 62
     7
100
AcDbVertex
100
AcDb2dVertex
 10
-96.76480846105186
 20
23.11331786531542
 30
0.0
  0
VERTEX
  5
318
330
2E0
100
AcDbEntity
  8
STANDARDEBENE
 62
     7
100
AcDbVertex
100
AcDb2dVertex
 10
-96.47197534480563
 20
22.87285020044498
 30
0.0
  0
VERTEX
  5
319
330
2E0
100
AcDbEntity
  8
STANDARDEBENE
 62
     7
100
AcDbVertex
100
AcDb2dVertex
 10
-95.8125840689288
 20
22.41913112503758
 30
0.0
  0
VERTEX
  5
31A
330
2E0
100
AcDbEntity
  8
STANDARDEBENE
 62
     7
100
AcDbVertex
100
AcDb2dVertex
 10
-95.11047360903488
 20
22.04533826488797
 30
0.0
  0
VERTEX
  5
31B
330
2E0
100
AcDbEntity
  8
STANDARDEBENE
 62
     7
100
AcDbVertex
100
AcDb2dVertex
 10
-94.74012584437052
 20
21.88686387256648
 30
0.0
  0
VERTEX
  5
31C
330
2E0
100
AcDbEntity
  8
STANDARDEBENE
 62
     7
100
AcDbVertex
100
AcDb2dVertex
 10
-94.36633298422092
 20
21.75250514864173
 30
0.0
  0
VERTEX
  5
31D
330
2E0
100
AcDbEntity
  8
STANDARDEBENE
 62
     7
100
AcDbVertex
100
AcDb2dVertex
 10
-93.54226614414917
 20
21.53580864261952
 30
0.0
  0
VERTEX
  5
31E
330
2E0
100
AcDbEntity
  8
STANDARDEBENE
 62
     7
100
AcDbVertex
100
AcDb2dVertex
 10
-92.86909448633133
 20
21.43590087354728
 30
0.0
  0
VERTEX
  5
31F
330
2E0
100
AcDbEntity
  8
STANDARDEBENE
 62
     7
100
AcDbVertex
100
AcDb2dVertex
 10
-92.17835284153875
 20
21.4017944282433
 30
0.0
  0
SEQEND
  5
320
330
2E0
100
AcDbEntity
  8
STANDARDEBENE
  0
POLYLINE
  5
321
330
1F
100
AcDbEntity
  8
STANDARDEBENE
 62
     7
100
AcDb2dPolyline
 66
     1
 10
0.0
 20
0.0
 30
0.0
  0
VERTEX
  5
322
330
321
100
AcDbEntity
  8
STANDARDEBENE
 62
     7
100
AcDbVertex
100
AcDb2dVertex
 10
-49.1783935423929
 20
12.4014824730281
 30
0.0
  0
VERTEX
  5
323
330
321
100
AcDbEntity
  8
STANDARDEBENE
 62
     7
100
AcDbVertex
100
AcDb2dVertex
 10
-49.1783935423929
 20
12.50965847126495
 30
0.0
  0
VERTEX
  5
324
330
321
100
AcDbEntity
  8
STANDARDEBENE
 62
     7
100
AcDbVertex
100
AcDb2dVertex
 10
-49.1783935423929
 20
12.83349744687843
 30
0.0
  0
VERTEX
  5
325
330
321
100
AcDbEntity
  8
STANDARDEBENE
 62
     7
100
AcDbVertex
100
AcDb2dVertex
 10
-49.1783935423929
 20
13.36679822799511
 30
0.0
  0
VERTEX
  5
326
330
321
100
AcDbEntity
  8
STANDARDEBENE
 62
     7
100
AcDbVertex
100
AcDb2dVertex
 10
-49.1783935423929
 20
14.10404866183857
 30
0.0
  0
VERTEX
  5
327
330
321
100
AcDbEntity
  8
STANDARDEBENE
 62
     7
100
AcDbVertex
100
AcDb2dVertex
 10
-49.1783935423929
 20
15.0338799333075
 30
0.0
  0
VERTEX
  5
328
330
321
100
AcDbEntity
  8
STANDARDEBENE
 62
     7
100
AcDbVertex
100
AcDb2dVertex
 10
-49.1783935423929
 20
16.14457871775205
 30
0.0
  0
VERTEX
  5
329
330
321
100
AcDbEntity
  8
STANDARDEBENE
 62
     7
100
AcDbVertex
100
AcDb2dVertex
 10
-49.1783935423929
 20
17.42202012368269
 30
0.0
  0
VERTEX
  5
32A
330
321
100
AcDbEntity
  8
STANDARDEBENE
 62
     7
100
AcDbVertex
100
AcDb2dVertex
 10
-49.1783935423929
 20
18.84760063547907
 30
0.0
  0
VERTEX
  5
32B
330
321
100
AcDbEntity
  8
STANDARDEBENE
 62
     7
100
AcDbVertex
100
AcDb2dVertex
 10
-49.1783935423929
 20
20.40133869932675
 30
0.0
  0
VERTEX
  5
32C
330
321
100
AcDbEntity
  8
STANDARDEBENE
 62
     7
100
AcDbVertex
100
AcDb2dVertex
 10
-49.1783935423929
 20
22.0649753091539
 30
0.0
  0
VERTEX
  5
32D
330
321
100
AcDbEntity
  8
STANDARDEBENE
 62
     7
100
AcDbVertex
100
AcDb2dVertex
 10
-49.1783935423929
 20
23.81267224882114
 30
0.0
  0
VERTEX
  5
32E
330
321
100
AcDbEntity
  8
STANDARDEBENE
 62
     7
100
AcDbVertex
100
AcDb2dVertex
 10
-49.1783935423929
 20
25.62375894541698
 30
0.0
  0
VERTEX
  5
32F
330
321
100
AcDbEntity
  8
STANDARDEBENE
 62
     7
100
AcDbVertex
100
AcDb2dVertex
 10
-49.1783935423929
 20
27.47136365415647
 30
0.0
  0
VERTEX
  5
330
330
321
100
AcDbEntity
  8
STANDARDEBENE
 62
     7
100
AcDbVertex
100
AcDb2dVertex
 10
-49.1783935423929
 20
29.33240423528843
 30
0.0
  0
VERTEX
  5
331
330
321
100
AcDbEntity
  8
STANDARDEBENE
 62
     7
100
AcDbVertex
100
AcDb2dVertex
 10
-49.1783935423929
 20
31.17966443447939
 30
0.0
  0
VERTEX
  5
332
330
321
100
AcDbEntity
  8
STANDARDEBENE
 62
     7
100
AcDbVertex
100
AcDb2dVertex
 10
-49.1783935423929
 20
32.9904066215267
 30
0.0
  0
VERTEX
  5
333
330
321
100
AcDbEntity
  8
STANDARDEBENE
 62
     7
100
AcDbVertex
100
AcDb2dVertex
 10
-49.1783935423929
 20
34.73948159938805
 30
0.0
  0
VERTEX
  5
334
330
321
100
AcDbEntity
  8
STANDARDEBENE
 62
     7
100
AcDbVertex
100
AcDb2dVertex
 10
-49.1783935423929
 20
36.40208468056962
 30
0.0
  0
VERTEX
  5
335
330
321
100
AcDbEntity
  8
STANDARDEBENE
 62
     7
100
AcDbVertex
100
AcDb2dVertex
 10
-49.1783935423929
 20
37.9558227444173
 30
0.0
  0
VERTEX
  5
336
330
321
100
AcDbEntity
  8
STANDARDEBENE
 62
     7
100
AcDbVertex
100
AcDb2dVertex
 10
-49.1783935423929
 20
39.38174776576221
 30
0.0
  0
VERTEX
  5
337
330
321
100
AcDbEntity
  8
STANDARDEBENE
 62
     7
100
AcDbVertex
100
AcDb2dVertex
 10
-49.1783935423929
 20
40.65850015259579
 30
0.0
  0
VERTEX
  5
338
330
321
100
AcDbEntity
  8
STANDARDEBENE
 62
     7
100
AcDbVertex
100
AcDb2dVertex
 10
-49.1783935423929
 20
41.76988795613739
 30
0.0
  0
VERTEX
  5
339
330
321
100
AcDbEntity
  8
STANDARDEBENE
 62
     7
100
AcDbVertex
100
AcDb2dVertex
 10
-49.1783935423929
 20
42.69971922760632
 30
0.0
  0
VERTEX
  5
33A
330
321
100
AcDbEntity
  8
STANDARDEBENE
 62
     7
100
AcDbVertex
100
AcDb2dVertex
 10
-49.1783935423929
 20
43.43696966144979
 30
0.0
  0
VERTEX
  5
33B
330
321
100
AcDbEntity
  8
STANDARDEBENE
 62
     7
100
AcDbVertex
100
AcDb2dVertex
 10
-49.1783935423929
 20
43.96992593301794
 30
0.0
  0
VERTEX
  5
33C
330
321
100
AcDbEntity
  8
STANDARDEBENE
 62
     7
100
AcDbVertex
100
AcDb2dVertex
 10
-49.1783935423929
 20
44.29376490863142
 30
0.0
  0
VERTEX
  5
33D
330
321
100
AcDbEntity
  8
STANDARDEBENE
 62
     7
100
AcDbVertex
100
AcDb2dVertex
 10
-49.1783935423929
 20
44.40194090686827
 30
0.0
  0
SEQEND
  5
33E
330
321
100
AcDbEntity
  8
STANDARDEBENE
  0
POLYLINE
  5
33F
330
1F
100
AcDbEntity
  8
STANDARDEBENE
 62
     7
100
AcDb2dPolyline
 66
     1
 10
0.0
 20
0.0
 30
0.0
  0
VERTEX
  5
340
330
33F
100
AcDbEntity
  8
STANDARDEBENE
 62
     7
100
AcDbVertex
100
AcDb2dVertex
 10
-103.178198216393
 20
12.4014824730281
 30
0.0
  0
VERTEX
  5
341
330
33F
100
AcDbEntity
  8
STANDARDEBENE
 62
     7
100
AcDbVertex
100
AcDb2dVertex
 10
-103.178198216393
 20
12.50965847126495
 30
0.0
  0
VERTEX
  5
342
330
33F
100
AcDbEntity
  8
STANDARDEBENE
 62
     7
100
AcDbVertex
100
AcDb2dVertex
 10
-103.178198216393
 20
12.83349744687843
 30
0.0
  0
VERTEX
  5
343
330
33F
100
AcDbEntity
  8
STANDARDEBENE
 62
     7
100
AcDbVertex
100
AcDb2dVertex
 10
-103.178198216393
 20
13.36679822799511
 30
0.0
  0
VERTEX
  5
344
330
33F
100
AcDbEntity
  8
STANDARDEBENE
 62
     7
100
AcDbVertex
100
AcDb2dVertex
 10
-103.178198216393
 20
14.10404866183857
 30
0.0
  0
VERTEX
  5
345
330
33F
100
AcDbEntity
  8
STANDARDEBENE
 62
     7
100
AcDbVertex
100
AcDb2dVertex
 10
-103.178198216393
 20
15.0338799333075
 30
0.0
  0
VERTEX
  5
346
330
33F
100
AcDbEntity
  8
STANDARDEBENE
 62
     7
100
AcDbVertex
100
AcDb2dVertex
 10
-103.178198216393
 20
16.14457871775205
 30
0.0
  0
VERTEX
  5
347
330
33F
100
AcDbEntity
  8
STANDARDEBENE
 62
     7
100
AcDbVertex
100
AcDb2dVertex
 10
-103.178198216393
 20
17.42202012368269
 30
0.0
  0
VERTEX
  5
348
330
33F
100
AcDbEntity
  8
STANDARDEBENE
 62
     7
100
AcDbVertex
100
AcDb2dVertex
 10
-103.178198216393
 20
18.84760063547907
 30
0.0
  0
VERTEX
  5
349
330
33F
100
AcDbEntity
  8
STANDARDEBENE
 62
     7
100
AcDbVertex
100
AcDb2dVertex
 10
-103.178198216393
 20
20.40133869932675
 30
0.0
  0
VERTEX
  5
34A
330
33F
100
AcDbEntity
  8
STANDARDEBENE
 62
     7
100
AcDbVertex
100
AcDb2dVertex
 10
-103.178198216393
 20
22.0649753091539
 30
0.0
  0
VERTEX
  5
34B
330
33F
100
AcDbEntity
  8
STANDARDEBENE
 62
     7
100
AcDbVertex
100
AcDb2dVertex
 10
-103.178198216393
 20
23.81267224882114
 30
0.0
  0
VERTEX
  5
34C
330
33F
100
AcDbEntity
  8
STANDARDEBENE
 62
     7
100
AcDbVertex
100
AcDb2dVertex
 10
-103.178198216393
 20
25.62375894541698
 30
0.0
  0
VERTEX
  5
34D
330
33F
100
AcDbEntity
  8
STANDARDEBENE
 62
     7
100
AcDbVertex
100
AcDb2dVertex
 10
-103.178198216393
 20
27.47136365415647
 30
0.0
  0
VERTEX
  5
34E
330
33F
100
AcDbEntity
  8
STANDARDEBENE
 62
     7
100
AcDbVertex
100
AcDb2dVertex
 10
-103.178198216393
 20
29.33240423528843
 30
0.0
  0
VERTEX
  5
34F
330
33F
100
AcDbEntity
  8
STANDARDEBENE
 62
     7
100
AcDbVertex
100
AcDb2dVertex
 10
-103.178198216393
 20
31.17966443447939
 30
0.0
  0
VERTEX
  5
350
330
33F
100
AcDbEntity
  8
STANDARDEBENE
 62
     7
100
AcDbVertex
100
AcDb2dVertex
 10
-103.178198216393
 20
32.9904066215267
 30
0.0
  0
VERTEX
  5
351
330
33F
100
AcDbEntity
  8
STANDARDEBENE
 62
     7
100
AcDbVertex
100
AcDb2dVertex
 10
-103.178198216393
 20
34.73948159938805
 30
0.0
  0
VERTEX
  5
352
330
33F
100
AcDbEntity
  8
STANDARDEBENE
 62
     7
100
AcDbVertex
100
AcDb2dVertex
 10
-103.178198216393
 20
36.40208468056962
 30
0.0
  0
VERTEX
  5
353
330
33F
100
AcDbEntity
  8
STANDARDEBENE
 62
     7
100
AcDbVertex
100
AcDb2dVertex
 10
-103.178198216393
 20
37.9558227444173
 30
0.0
  0
VERTEX
  5
354
330
33F
100
AcDbEntity
  8
STANDARDEBENE
 62
     7
100
AcDbVertex
100
AcDb2dVertex
 10
-103.178198216393
 20
39.38174776576221
 30
0.0
  0
VERTEX
  5
355
330
33F
100
AcDbEntity
  8
STANDARDEBENE
 62
     7
100
AcDbVertex
100
AcDb2dVertex
 10
-103.178198216393
 20
40.65850015259579
 30
0.0
  0
VERTEX
  5
356
330
33F
100
AcDbEntity
  8
STANDARDEBENE
 62
     7
100
AcDbVertex
100
AcDb2dVertex
 10
-103.178198216393
 20
41.76988795613739
 30
0.0
  0
VERTEX
  5
357
330
33F
100
AcDbEntity
  8
STANDARDEBENE
 62
     7
100
AcDbVertex
100
AcDb2dVertex
 10
-103.178198216393
 20
42.69971922760632
 30
0.0
  0
VERTEX
  5
358
330
33F
100
AcDbEntity
  8
STANDARDEBENE
 62
     7
100
AcDbVertex
100
AcDb2dVertex
 10
-103.178198216393
 20
43.43696966144979
 30
0.0
  0
VERTEX
  5
359
330
33F
100
AcDbEntity
  8
STANDARDEBENE
 62
     7
100
AcDbVertex
100
AcDb2dVertex
 10
-103.178198216393
 20
43.96992593301794
 30
0.0
  0
VERTEX
  5
35A
330
33F
100
AcDbEntity
  8
STANDARDEBENE
 62
     7
100
AcDbVertex
100
AcDb2dVertex
 10
-103.178198216393
 20
44.29376490863142
 30
0.0
  0
VERTEX
  5
35B
330
33F
100
AcDbEntity
  8
STANDARDEBENE
 62
     7
100
AcDbVertex
100
AcDb2dVertex
 10
-103.178198216393
 20
44.40194090686827
 30
0.0
  0
SEQEND
  5
35C
330
33F
100
AcDbEntity
  8
STANDARDEBENE
  0
POLYLINE
  5
35D
330
1F
100
AcDbEntity
  8
STANDARDEBENE
 62
     7
100
AcDb2dPolyline
 66
     1
 10
0.0
 20
0.0
 30
0.0
  0
VERTEX
  5
35E
330
35D
100
AcDbEntity
  8
STANDARDEBENE
 62
     7
100
AcDbVertex
100
AcDb2dVertex
 10
-106.1781873649485
 20
8.401726614653041
 30
0.0
  0
VERTEX
  5
35F
330
35D
100
AcDbEntity
  8
STANDARDEBENE
 62
     7
100
AcDbVertex
100
AcDb2dVertex
 10
-106.1781873649485
 20
8.50473496966201
 30
0.0
  0
VERTEX
  5
360
330
35D
100
AcDbEntity
  8
STANDARDEBENE
 62
     7
100
AcDbVertex
100
AcDb2dVertex
 10
-106.1781873649485
 20
8.810659448752197
 30
0.0
  0
VERTEX
  5
361
330
35D
100
AcDbEntity
  8
STANDARDEBENE
 62
     7
100
AcDbVertex
100
AcDb2dVertex
 10
-106.1781873649485
 20
9.319155542375073
 30
0.0
  0
VERTEX
  5
362
330
35D
100
AcDbEntity
  8
STANDARDEBENE
 62
     7
100
AcDbVertex
100
AcDb2dVertex
 10
-106.1781873649485
 20
10.02264404046309
 30
0.0
  0
VERTEX
  5
363
330
35D
100
AcDbEntity
  8
STANDARDEBENE
 62
     7
100
AcDbVertex
100
AcDb2dVertex
 10
-106.1781873649485
 20
10.9149237711428
 30
0.0
  0
VERTEX
  5
364
330
35D
100
AcDbEntity
  8
STANDARDEBENE
 62
     7
100
AcDbVertex
100
AcDb2dVertex
 10
-106.1781873649485
 20
11.98669297660402
 30
0.0
  0
VERTEX
  5
365
330
35D
100
AcDbEntity
  8
STANDARDEBENE
 62
     7
100
AcDbVertex
100
AcDb2dVertex
 10
-106.1781873649485
 20
13.22658284174544
 30
0.0
  0
VERTEX
  5
366
330
35D
100
AcDbEntity
  8
STANDARDEBENE
 62
     7
100
AcDbVertex
100
AcDb2dVertex
 10
-106.1781873649485
 20
14.62253553236867
 30
0.0
  0
VERTEX
  5
367
330
35D
100
AcDbEntity
  8
STANDARDEBENE
 62
     7
100
AcDbVertex
100
AcDb2dVertex
 10
-106.1781873649485
 20
16.15939262833863
 30
0.0
  0
VERTEX
  5
368
330
35D
100
AcDbEntity
  8
STANDARDEBENE
 62
     7
100
AcDbVertex
100
AcDb2dVertex
 10
-106.1781873649485
 20
17.82234021906872
 30
0.0
  0
VERTEX
  5
369
330
35D
100
AcDbEntity
  8
STANDARDEBENE
 62
     7
100
AcDbVertex
100
AcDb2dVertex
 10
-106.1781873649485
 20
19.59380831758419
 30
0.0
  0
VERTEX
  5
36A
330
35D
100
AcDbEntity
  8
STANDARDEBENE
 62
     7
100
AcDbVertex
100
AcDb2dVertex
 10
-106.1781873649485
 20
21.45588242736173
 30
0.0
  0
VERTEX
  5
36B
330
35D
100
AcDbEntity
  8
STANDARDEBENE
 62
     7
100
AcDbVertex
100
AcDb2dVertex
 10
-106.1781873649485
 20
23.38858099458688
 30
0.0
  0
VERTEX
  5
36C
330
35D
100
AcDbEntity
  8
STANDARDEBENE
 62
     7
100
AcDbVertex
100
AcDb2dVertex
 10
-106.1781873649485
 20
25.37330050363931
 30
0.0
  0
VERTEX
  5
36D
330
35D
100
AcDbEntity
  8
STANDARDEBENE
 62
     7
100
AcDbVertex
100
AcDb2dVertex
 10
-106.1781873649485
 20
27.38868136251047
 30
0.0
  0
VERTEX
  5
36E
330
35D
100
AcDbEntity
  8
STANDARDEBENE
 62
     7
100
AcDbVertex
100
AcDb2dVertex
 10
-106.1781873649485
 20
29.41439750783737
 30
0.0
  0
VERTEX
  5
36F
330
35D
100
AcDbEntity
  8
STANDARDEBENE
 62
     7
100
AcDbVertex
100
AcDb2dVertex
 10
-106.1781873649485
 20
31.43012287625706
 30
0.0
  0
VERTEX
  5
370
330
35D
100
AcDbEntity
  8
STANDARDEBENE
 62
     7
100
AcDbVertex
100
AcDb2dVertex
 10
-106.1781873649485
 20
33.41484238530948
 30
0.0
  0
VERTEX
  5
371
330
35D
100
AcDbEntity
  8
STANDARDEBENE
 62
     7
100
AcDbVertex
100
AcDb2dVertex
 10
-106.1781873649485
 20
35.34754095253464
 30
0.0
  0
VERTEX
  5
372
330
35D
100
AcDbEntity
  8
STANDARDEBENE
 62
     7
100
AcDbVertex
100
AcDb2dVertex
 10
-106.1781873649485
 20
37.20961506231218
 30
0.0
  0
VERTEX
  5
373
330
35D
100
AcDbEntity
  8
STANDARDEBENE
 62
     7
100
AcDbVertex
100
AcDb2dVertex
 10
-106.1781873649485
 20
38.98142767037617
 30
0.0
  0
VERTEX
  5
374
330
35D
100
AcDbEntity
  8
STANDARDEBENE
 62
     7
100
AcDbVertex
100
AcDb2dVertex
 10
-106.1781873649485
 20
40.64368624200922
 30
0.0
  0
VERTEX
  5
375
330
35D
100
AcDbEntity
  8
STANDARDEBENE
 62
     7
100
AcDbVertex
100
AcDb2dVertex
 10
-106.1781873649485
 20
42.1808878475277
 30
0.0
  0
VERTEX
  5
376
330
35D
100
AcDbEntity
  8
STANDARDEBENE
 62
     7
100
AcDbVertex
100
AcDb2dVertex
 10
-106.1781873649485
 20
43.57684053815093
 30
0.0
  0
VERTEX
  5
377
330
35D
100
AcDbEntity
  8
STANDARDEBENE
 62
     7
100
AcDbVertex
100
AcDb2dVertex
 10
-106.1781873649485
 20
44.8174194223894
 30
0.0
  0
VERTEX
  5
378
330
35D
100
AcDbEntity
  8
STANDARDEBENE
 62
     7
100
AcDbVertex
100
AcDb2dVertex
 10
-106.1781873649485
 20
45.8888441183021
 30
0.0
  0
VERTEX
  5
379
330
35D
100
AcDbEntity
  8
STANDARDEBENE
 62
     7
100
AcDbVertex
100
AcDb2dVertex
 10
-106.1781873649485
 20
46.78112384898181
 30
0.0
  0
VERTEX
  5
37A
330
35D
100
AcDbEntity
  8
STANDARDEBENE
 62
     7
100
AcDbVertex
100
AcDb2dVertex
 10
-106.1781873649485
 20
47.48461234706982
 30
0.0
  0
VERTEX
  5
37B
330
35D
100
AcDbEntity
  8
STANDARDEBENE
 62
     7
100
AcDbVertex
100
AcDb2dVertex
 10
-106.1781873649485
 20
47.99241942159565
 30
0.0
  0
VERTEX
  5
37C
330
35D
100
AcDbEntity
  8
STANDARDEBENE
 62
     7
100
AcDbVertex
100
AcDb2dVertex
 10
-106.1781873649485
 20
48.29937742933141
 30
0.0
  0
VERTEX
  5
37D
330
35D
100
AcDbEntity
  8
STANDARDEBENE
 62
     7
100
AcDbVertex
100
AcDb2dVertex
 10
-106.1781873649485
 20
48.40169676524333
 30
0.0
  0
SEQEND
  5
37E
330
35D
100
AcDbEntity
  8
STANDARDEBENE
  0
POLYLINE
  5
37F
330
1F
100
AcDbEntity
  8
STANDARDEBENE
 62
     7
100
AcDb2dPolyline
 66
     1
 10
0.0
 20
0.0
 30
0.0
  0
VERTEX
  5
380
330
37F
100
AcDbEntity
  8
STANDARDEBENE
 62
     7
100
AcDbVertex
100
AcDb2dVertex
 10
-48.1786268325734
 20
43.40148517795171
 30
0.0
  0
VERTEX
  5
381
330
37F
100
AcDbEntity
  8
STANDARDEBENE
 62
     7
100
AcDbVertex
100
AcDb2dVertex
 10
-48.1786268325734
 20
43.2922756510693
 30
0.0
  0
VERTEX
  5
382
330
37F
100
AcDbEntity
  8
STANDARDEBENE
 62
     7
100
AcDbVertex
100
AcDb2dVertex
 10
-48.1786268325734
 20
42.96568059906761
 30
0.0
  0
VERTEX
  5
383
330
37F
100
AcDbEntity
  8
STANDARDEBENE
 62
     7
100
AcDbVertex
100
AcDb2dVertex
 10
-48.1786268325734
 20
42.42652315562601
 30
0.0
  0
VERTEX
  5
384
330
37F
100
AcDbEntity
  8
STANDARDEBENE
 62
     7
100
AcDbVertex
100
AcDb2dVertex
 10
-48.1786268325734
 20
41.68341605945762
 30
0.0
  0
VERTEX
  5
385
330
37F
100
AcDbEntity
  8
STANDARDEBENE
 62
     7
100
AcDbVertex
100
AcDb2dVertex
 10
-48.1786268325734
 20
40.74669459701819
 30
0.0
  0
VERTEX
  5
386
330
37F
100
AcDbEntity
  8
STANDARDEBENE
 62
     7
100
AcDbVertex
100
AcDb2dVertex
 10
-48.1786268325734
 20
39.62945013115166
 30
0.0
  0
VERTEX
  5
387
330
37F
100
AcDbEntity
  8
STANDARDEBENE
 62
     7
100
AcDbVertex
100
AcDb2dVertex
 10
-48.1786268325734
 20
38.34856362973578
 30
0.0
  0
VERTEX
  5
388
330
37F
100
AcDbEntity
  8
STANDARDEBENE
 62
     7
100
AcDbVertex
100
AcDb2dVertex
 10
-48.1786268325734
 20
36.92263860839087
 30
0.0
  0
VERTEX
  5
389
330
37F
100
AcDbEntity
  8
STANDARDEBENE
 62
     7
100
AcDbVertex
100
AcDb2dVertex
 10
-48.1786268325734
 20
35.37269014957697
 30
0.0
  0
VERTEX
  5
38A
330
37F
100
AcDbEntity
  8
STANDARDEBENE
 62
     7
100
AcDbVertex
100
AcDb2dVertex
 10
-48.1786268325734
 20
33.72042235485115
 30
0.0
  0
VERTEX
  5
38B
330
37F
100
AcDbEntity
  8
STANDARDEBENE
 62
     7
100
AcDbVertex
100
AcDb2dVertex
 10
-48.1786268325734
 20
31.99132893080425
 30
0.0
  0
VERTEX
  5
38C
330
37F
100
AcDbEntity
  8
STANDARDEBENE
 62
     7
100
AcDbVertex
100
AcDb2dVertex
 10
-48.1786268325734
 20
30.20987005538156
 30
0.0
  0
VERTEX
  5
38D
330
37F
100
AcDbEntity
  8
STANDARDEBENE
 62
     7
100
AcDbVertex
100
AcDb2dVertex
 10
-48.1786268325734
 20
28.40153943517392
 30
0.0
  0
VERTEX
  5
38E
330
37F
100
AcDbEntity
  8
STANDARDEBENE
 62
     7
100
AcDbVertex
100
AcDb2dVertex
 10
-48.1786268325734
 20
26.59355332451481
 30
0.0
  0
VERTEX
  5
38F
330
37F
100
AcDbEntity
  8
STANDARDEBENE
 62
     7
100
AcDbVertex
100
AcDb2dVertex
 10
-48.1786268325734
 20
24.81174993954359
 30
0.0
  0
VERTEX
  5
390
330
37F
100
AcDbEntity
  8
STANDARDEBENE
 62
     7
100
AcDbVertex
100
AcDb2dVertex
 10
-48.1786268325734
 20
23.0826565154967
 30
0.0
  0
VERTEX
  5
391
330
37F
100
AcDbEntity
  8
STANDARDEBENE
 62
     7
100
AcDbVertex
100
AcDb2dVertex
 10
-48.1786268325734
 20
21.4307332303194
 30
0.0
  0
VERTEX
  5
392
330
37F
100
AcDbEntity
  8
STANDARDEBENE
 62
     7
100
AcDbVertex
100
AcDb2dVertex
 10
-48.1786268325734
 20
19.8807847715055
 30
0.0
  0
VERTEX
  5
393
330
37F
100
AcDbEntity
  8
STANDARDEBENE
 62
     7
100
AcDbVertex
100
AcDb2dVertex
 10
-48.1786268325734
 20
18.45485975016059
 30
0.0
  0
VERTEX
  5
394
330
37F
100
AcDbEntity
  8
STANDARDEBENE
 62
     7
100
AcDbVertex
100
AcDb2dVertex
 10
-48.1786268325734
 20
17.1739732487447
 30
0.0
  0
VERTEX
  5
395
330
37F
100
AcDbEntity
  8
STANDARDEBENE
 62
     7
100
AcDbVertex
100
AcDb2dVertex
 10
-48.1786268325734
 20
16.05741780197523
 30
0.0
  0
VERTEX
  5
396
330
37F
100
AcDbEntity
  8
STANDARDEBENE
 62
     7
100
AcDbVertex
100
AcDb2dVertex
 10
-48.1786268325734
 20
15.12000732043875
 30
0.0
  0
VERTEX
  5
397
330
37F
100
AcDbEntity
  8
STANDARDEBENE
 62
     7
100
AcDbVertex
100
AcDb2dVertex
 10
-48.1786268325734
 20
14.37690022427036
 30
0.0
  0
VERTEX
  5
398
330
37F
100
AcDbEntity
  8
STANDARDEBENE
 62
     7
100
AcDbVertex
100
AcDb2dVertex
 10
-48.1786268325734
 20
13.83739827128023
 30
0.0
  0
VERTEX
  5
399
330
37F
100
AcDbEntity
  8
STANDARDEBENE
 62
     7
100
AcDbVertex
100
AcDb2dVertex
 10
-48.1786268325734
 20
13.51114772882707
 30
0.0
  0
VERTEX
  5
39A
330
37F
100
AcDbEntity
  8
STANDARDEBENE
 62
     7
100
AcDbVertex
100
AcDb2dVertex
 10
-48.1786268325734
 20
13.40193820194465
 30
0.0
  0
SEQEND
  5
39B
330
37F
100
AcDbEntity
  8
STANDARDEBENE
  0
POLYLINE
  5
39C
330
1F
100
AcDbEntity
  8
STANDARDEBENE
 62
     7
100
AcDb2dPolyline
 66
     1
 10
0.0
 20
0.0
 30
0.0
  0
VERTEX
  5
39D
330
39C
100
AcDbEntity
  8
STANDARDEBENE
 62
     7
100
AcDbVertex
100
AcDb2dVertex
 10
-111.1783989522401
 20
8.401726614653041
 30
0.0
  0
VERTEX
  5
39E
330
39C
100
AcDbEntity
  8
STANDARDEBENE
 62
     7
100
AcDbVertex
100
AcDb2dVertex
 10
-111.1783989522401
 20
8.50473496966201
 30
0.0
  0
VERTEX
  5
39F
330
39C
100
AcDbEntity
  8
STANDARDEBENE
 62
     7
100
AcDbVertex
100
AcDb2dVertex
 10
-111.1783989522401
 20
8.810659448752197
 30
0.0
  0
VERTEX
  5
3A0
330
39C
100
AcDbEntity
  8
STANDARDEBENE
 62
     7
100
AcDbVertex
100
AcDb2dVertex
 10
-111.1783989522401
 20
9.319155542375073
 30
0.0
  0
VERTEX
  5
3A1
330
39C
100
AcDbEntity
  8
STANDARDEBENE
 62
     7
100
AcDbVertex
100
AcDb2dVertex
 10
-111.1783989522401
 20
10.02264404046309
 30
0.0
  0
VERTEX
  5
3A2
330
39C
100
AcDbEntity
  8
STANDARDEBENE
 62
     7
100
AcDbVertex
100
AcDb2dVertex
 10
-111.1783989522401
 20
10.9149237711428
 30
0.0
  0
VERTEX
  5
3A3
330
39C
100
AcDbEntity
  8
STANDARDEBENE
 62
     7
100
AcDbVertex
100
AcDb2dVertex
 10
-111.1783989522401
 20
11.98669297660402
 30
0.0
  0
VERTEX
  5
3A4
330
39C
100
AcDbEntity
  8
STANDARDEBENE
 62
     7
100
AcDbVertex
100
AcDb2dVertex
 10
-111.1783989522401
 20
13.22658284174544
 30
0.0
  0
VERTEX
  5
3A5
330
39C
100
AcDbEntity
  8
STANDARDEBENE
 62
     7
100
AcDbVertex
100
AcDb2dVertex
 10
-111.1783989522401
 20
14.62253553236867
 30
0.0
  0
VERTEX
  5
3A6
330
39C
100
AcDbEntity
  8
STANDARDEBENE
 62
     7
100
AcDbVertex
100
AcDb2dVertex
 10
-111.1783989522401
 20
16.15939262833863
 30
0.0
  0
VERTEX
  5
3A7
330
39C
100
AcDbEntity
  8
STANDARDEBENE
 62
     7
100
AcDbVertex
100
AcDb2dVertex
 10
-111.1783989522401
 20
17.82234021906872
 30
0.0
  0
VERTEX
  5
3A8
330
39C
100
AcDbEntity
  8
STANDARDEBENE
 62
     7
100
AcDbVertex
100
AcDb2dVertex
 10
-111.1783989522401
 20
19.59380831758419
 30
0.0
  0
VERTEX
  5
3A9
330
39C
100
AcDbEntity
  8
STANDARDEBENE
 62
     7
100
AcDbVertex
100
AcDb2dVertex
 10
-111.1783989522401
 20
21.45588242736173
 30
0.0
  0
VERTEX
  5
3AA
330
39C
100
AcDbEntity
  8
STANDARDEBENE
 62
     7
100
AcDbVertex
100
AcDb2dVertex
 10
-111.1783989522401
 20
23.38858099458688
 30
0.0
  0
VERTEX
  5
3AB
330
39C
100
AcDbEntity
  8
STANDARDEBENE
 62
     7
100
AcDbVertex
100
AcDb2dVertex
 10
-111.1783989522401
 20
25.37330050363931
 30
0.0
  0
VERTEX
  5
3AC
330
39C
100
AcDbEntity
  8
STANDARDEBENE
 62
     7
100
AcDbVertex
100
AcDb2dVertex
 10
-111.1783989522401
 20
27.38868136251047
 30
0.0
  0
VERTEX
  5
3AD
330
39C
100
AcDbEntity
  8
STANDARDEBENE
 62
     7
100
AcDbVertex
100
AcDb2dVertex
 10
-111.1783989522401
 20
29.41439750783737
 30
0.0
  0
VERTEX
  5
3AE
330
39C
100
AcDbEntity
  8
STANDARDEBENE
 62
     7
100
AcDbVertex
100
AcDb2dVertex
 10
-111.1783989522401
 20
31.43012287625706
 30
0.0
  0
VERTEX
  5
3AF
330
39C
100
AcDbEntity
  8
STANDARDEBENE
 62
     7
100
AcDbVertex
100
AcDb2dVertex
 10
-111.1783989522401
 20
33.41484238530948
 30
0.0
  0
VERTEX
  5
3B0
330
39C
100
AcDbEntity
  8
STANDARDEBENE
 62
     7
100
AcDbVertex
100
AcDb2dVertex
 10
-111.1783989522401
 20
35.34754095253464
 30
0.0
  0
VERTEX
  5
3B1
330
39C
100
AcDbEntity
  8
STANDARDEBENE
 62
     7
100
AcDbVertex
100
AcDb2dVertex
 10
-111.1783989522401
 20
37.20961506231218
 30
0.0
  0
VERTEX
  5
3B2
330
39C
100
AcDbEntity
  8
STANDARDEBENE
 62
     7
100
AcDbVertex
100
AcDb2dVertex
 10
-111.1783989522401
 20
38.98142767037617
 30
0.0
  0
VERTEX
  5
3B3
330
39C
100
AcDbEntity
  8
STANDARDEBENE
 62
     7
100
AcDbVertex
100
AcDb2dVertex
 10
-111.1783989522401
 20
40.64368624200922
 30
0.0
  0
VERTEX
  5
3B4
330
39C
100
AcDbEntity
  8
STANDARDEBENE
 62
     7
100
AcDbVertex
100
AcDb2dVertex
 10
-111.1783989522401
 20
42.1808878475277
 30
0.0
  0
VERTEX
  5
3B5
330
39C
100
AcDbEntity
  8
STANDARDEBENE
 62
     7
100
AcDbVertex
100
AcDb2dVertex
 10
-111.1783989522401
 20
43.57684053815093
 30
0.0
  0
VERTEX
  5
3B6
330
39C
100
AcDbEntity
  8
STANDARDEBENE
 62
     7
100
AcDbVertex
100
AcDb2dVertex
 10
-111.1783989522401
 20
44.8174194223894
 30
0.0
  0
VERTEX
  5
3B7
330
39C
100
AcDbEntity
  8
STANDARDEBENE
 62
     7
100
AcDbVertex
100
AcDb2dVertex
 10
-111.1783989522401
 20
45.8888441183021
 30
0.0
  0
VERTEX
  5
3B8
330
39C
100
AcDbEntity
  8
STANDARDEBENE
 62
     7
100
AcDbVertex
100
AcDb2dVertex
 10
-111.1783989522401
 20
46.78112384898181
 30
0.0
  0
VERTEX
  5
3B9
330
39C
100
AcDbEntity
  8
STANDARDEBENE
 62
     7
100
AcDbVertex
100
AcDb2dVertex
 10
-111.1783989522401
 20
47.48461234706982
 30
0.0
  0
VERTEX
  5
3BA
330
39C
100
AcDbEntity
  8
STANDARDEBENE
 62
     7
100
AcDbVertex
100
AcDb2dVertex
 10
-111.1783989522401
 20
47.99241942159565
 30
0.0
  0
VERTEX
  5
3BB
330
39C
100
AcDbEntity
  8
STANDARDEBENE
 62
     7
100
AcDbVertex
100
AcDb2dVertex
 10
-111.1783989522401
 20
48.29937742933141
 30
0.0
  0
VERTEX
  5
3BC
330
39C
100
AcDbEntity
  8
STANDARDEBENE
 62
     7
100
AcDbVertex
100
AcDb2dVertex
 10
-111.1783989522401
 20
48.40169676524333
 30
0.0
  0
SEQEND
  5
3BD
330
39C
100
AcDbEntity
  8
STANDARDEBENE
  0
POLYLINE
  5
3BE
330
1F
100
AcDbEntity
  8
STANDARDEBENE
 62
     7
100
AcDb2dPolyline
 66
     1
 10
0.0
 20
0.0
 30
0.0
  0
VERTEX
  5
3BF
330
3BE
100
AcDbEntity
  8
STANDARDEBENE
 62
     7
100
AcDbVertex
100
AcDb2dVertex
 10
-56.08339842347915
 20
23.60079887647827
 30
0.0
  0
VERTEX
  5
3C0
330
3BE
100
AcDbEntity
  8
STANDARDEBENE
 62
     7
100
AcDbVertex
100
AcDb2dVertex
 10
-56.08339842347915
 20
24.34666204903486
 30
0.0
  0
VERTEX
  5
3C1
330
3BE
100
AcDbEntity
  8
STANDARDEBENE
 62
     7
100
AcDbVertex
100
AcDb2dVertex
 10
-56.08339842347915
 20
25.23205158874407
 30
0.0
  0
VERTEX
  5
3C2
330
3BE
100
AcDbEntity
  8
STANDARDEBENE
 62
     7
100
AcDbVertex
100
AcDb2dVertex
 10
-56.08339842347915
 20
26.22699516488423
 30
0.0
  0
VERTEX
  5
3C3
330
3BE
100
AcDbEntity
  8
STANDARDEBENE
 62
     7
100
AcDbVertex
100
AcDb2dVertex
 10
-56.08339842347915
 20
27.2953192748602
 30
0.0
  0
VERTEX
  5
3C4
330
3BE
100
AcDbEntity
  8
STANDARDEBENE
 62
     7
100
AcDbVertex
100
AcDb2dVertex
 10
-56.08339842347915
 20
28.40153943517392
 30
0.0
  0
VERTEX
  5
3C5
330
3BE
100
AcDbEntity
  8
STANDARDEBENE
 62
     7
100
AcDbVertex
100
AcDb2dVertex
 10
-56.08339842347915
 20
29.50879312413322
 30
0.0
  0
VERTEX
  5
3C6
330
3BE
100
AcDbEntity
  8
STANDARDEBENE
 62
     7
100
AcDbVertex
100
AcDb2dVertex
 10
-56.08339842347915
 20
30.5771172341092
 30
0.0
  0
VERTEX
  5
3C7
330
3BE
100
AcDbEntity
  8
STANDARDEBENE
 62
     7
100
AcDbVertex
100
AcDb2dVertex
 10
-56.08339842347915
 20
31.57102728160377
 30
0.0
  0
VERTEX
  5
3C8
330
3BE
100
AcDbEntity
  8
STANDARDEBENE
 62
     7
100
AcDbVertex
100
AcDb2dVertex
 10
-56.08339842347915
 20
32.45641682131298
 30
0.0
  0
VERTEX
  5
3C9
330
3BE
100
AcDbEntity
  8
STANDARDEBENE
 62
     7
100
AcDbVertex
100
AcDb2dVertex
 10
-56.08339842347915
 20
33.20262450341809
 30
0.0
  0
SEQEND
  5
3CA
330
3BE
100
AcDbEntity
  8
STANDARDEBENE
  0
POLYLINE
  5
3CB
330
1F
100
AcDbEntity
  8
STANDARDEBENE
 62
     7
100
AcDb2dPolyline
 66
     1
 10
0.0
 20
0.0
 30
0.0
  0
VERTEX
  5
3CC
330
3CB
100
AcDbEntity
  8
STANDARDEBENE
 62
     7
100
AcDbVertex
100
AcDb2dVertex
 10
-57.0549153503196
 20
34.05838622195415
 30
0.0
  0
VERTEX
  5
3CD
330
3CB
100
AcDbEntity
  8
STANDARDEBENE
 62
     7
100
AcDbVertex
100
AcDb2dVertex
 10
-96.30109860873723
 20
34.05838622195415
 30
0.0
  0
SEQEND
  5
3CE
330
3CB
100
AcDbEntity
  8
STANDARDEBENE
  0
POLYLINE
  5
3CF
330
1F
100
AcDbEntity
  8
STANDARDEBENE
 62
     7
100
AcDb2dPolyline
 66
     1
 10
0.0
 20
0.0
 30
0.0
  0
VERTEX
  5
3D0
330
3CF
100
AcDbEntity
  8
STANDARDEBENE
 62
     7
100
AcDbVertex
100
AcDb2dVertex
 10
-96.30109860873723
 20
22.74469264839369
 30
0.0
  0
VERTEX
  5
3D1
330
3CF
100
AcDbEntity
  8
STANDARDEBENE
 62
     7
100
AcDbVertex
100
AcDb2dVertex
 10
-57.0549153503196
 20
22.74469264839369
 30
0.0
  0
SEQEND
  5
3D2
330
3CF
100
AcDbEntity
  8
STANDARDEBENE
  0
POLYLINE
  5
3D4
330
1F
100
AcDbEntity
  8
BEMAßUNG
 62
     7
100
AcDb2dPolyline
 66
     1
 10
0.0
 20
0.0
 30
0.0
  0
VERTEX
  5
3D5
330
3D4
100
AcDbEntity
  8
BEMAßUNG
 62
     7
100
AcDbVertex
100
AcDb2dVertex
 10
-49.1783935423929
 20
44.40194090686827
 30
0.0
  0
VERTEX
  5
3D6
330
3D4
100
AcDbEntity
  8
BEMAßUNG
 62
     7
100
AcDbVertex
100
AcDb2dVertex
 10
-21.65380316298933
 20
44.40194090686827
 30
0.0
  0
SEQEND
  5
3D7
330
3D4
100
AcDbEntity
  8
BEMAßUNG
  0
POLYLINE
  5
3D8
330
1F
100
AcDbEntity
  8
BEMAßUNG
 62
     7
100
AcDb2dPolyline
 66
     1
 10
0.0
 20
0.0
 30
0.0
  0
VERTEX
  5
3D9
330
3D8
100
AcDbEntity
  8
BEMAßUNG
 62
     7
100
AcDbVertex
100
AcDb2dVertex
 10
-49.1783935423929
 20
12.4014824730281
 30
0.0
  0
VERTEX
  5
3DA
330
3D8
100
AcDbEntity
  8
BEMAßUNG
 62
     7
100
AcDbVertex
100
AcDb2dVertex
 10
-21.65380316298933
 20
12.4014824730281
 30
0.0
  0
SEQEND
  5
3DB
330
3D8
100
AcDbEntity
  8
BEMAßUNG
  0
POLYLINE
  5
3DC
330
1F
100
AcDbEntity
  8
BEMAßUNG
 62
     7
100
AcDb2dPolyline
 66
     1
 10
0.0
 20
0.0
 30
0.0
  0
VERTEX
  5
3DD
330
3DC
100
AcDbEntity
  8
BEMAßUNG
 62
     7
100
AcDbVertex
100
AcDb2dVertex
 10
-23.65471462082243
 20
44.40194090686827
 30
0.0
  0
VERTEX
  5
3DE
330
3DC
100
AcDbEntity
  8
BEMAßUNG
 62
     7
100
AcDbVertex
100
AcDb2dVertex
 10
-23.65471462082243
 20
12.4014824730281
 30
0.0
  0
SEQEND
  5
3DF
330
3DC
100
AcDbEntity
  8
BEMAßUNG
  0
POLYLINE
  5
3E0
330
1F
100
AcDbEntity
  8
BEMAßUNG
 62
     7
100
AcDb2dPolyline
 66
     1
 10
0.0
 20
0.0
 30
0.0
  0
VERTEX
  5
3E1
330
3E0
100
AcDbEntity
  8
BEMAßUNG
 62
     7
100
AcDbVertex
100
AcDb2dVertex
 10
-23.65471462082243
 20
44.40194090686827
 30
0.0
  0
VERTEX
  5
3E2
330
3E0
100
AcDbEntity
  8
BEMAßUNG
 62
     7
100
AcDbVertex
100
AcDb2dVertex
 10
-23.98337673011527
 20
41.90183511322246
 30
0.0
  0
VERTEX
  5
3E3
330
3E0
100
AcDbEntity
  8
BEMAßUNG
 62
     7
100
AcDbVertex
100
AcDb2dVertex
 10
-23.32501898288402
 20
41.90183511322246
 30
0.0
  0
VERTEX
  5
3E4
330
3E0
100
AcDbEntity
  8
BEMAßUNG
 62
     7
100
AcDbVertex
100
AcDb2dVertex
 10
-23.65471462082243
 20
44.40194090686827
 30
0.0
  0
SEQEND
  5
3E5
330
3E0
100
AcDbEntity
  8
BEMAßUNG
  0
POLYLINE
  5
3E6
330
1F
100
AcDbEntity
  8
BEMAßUNG
 62
     7
100
AcDb2dPolyline
 66
     1
 10
0.0
 20
0.0
 30
0.0
  0
VERTEX
  5
3E7
330
3E6
100
AcDbEntity
  8
BEMAßUNG
 62
     7
100
AcDbVertex
100
AcDb2dVertex
 10
-23.95960557126704
 20
41.90183511322246
 30
0.0
  0
VERTEX
  5
3E8
330
3E6
100
AcDbEntity
  8
BEMAßUNG
 62
     7
100
AcDbVertex
100
AcDb2dVertex
 10
-23.95960557126704
 20
42.08649223123185
 30
0.0
  0
SEQEND
  5
3E9
330
3E6
100
AcDbEntity
  8
BEMAßUNG
  0
POLYLINE
  5
3EA
330
1F
100
AcDbEntity
  8
BEMAßUNG
 62
     7
100
AcDb2dPolyline
 66
     1
 10
0.0
 20
0.0
 30
0.0
  0
VERTEX
  5
3EB
330
3EA
100
AcDbEntity
  8
BEMAßUNG
 62
     7
100
AcDbVertex
100
AcDb2dVertex
 10
-23.95960557126704
 20
41.90183511322246
 30
0.0
  0
VERTEX
  5
3EC
330
3EA
100
AcDbEntity
  8
BEMAßUNG
 62
     7
100
AcDbVertex
100
AcDb2dVertex
 10
-23.95960557126704
 20
42.08649223123185
 30
0.0
  0
SEQEND
  5
3ED
330
3EA
100
AcDbEntity
  8
BEMAßUNG
  0
POLYLINE
  5
3EE
330
1F
100
AcDbEntity
  8
BEMAßUNG
 62
     7
100
AcDb2dPolyline
 66
     1
 10
0.0
 20
0.0
 30
0.0
  0
VERTEX
  5
3EF
330
3EE
100
AcDbEntity
  8
BEMAßUNG
 62
     7
100
AcDbVertex
100
AcDb2dVertex
 10
-23.90827364853682
 20
41.90183511322246
 30
0.0
  0
VERTEX
  5
3F0
330
3EE
100
AcDbEntity
  8
BEMAßUNG
 62
     7
100
AcDbVertex
100
AcDb2dVertex
 10
-23.90827364853682
 20
42.4719984160313
 30
0.0
  0
SEQEND
  5
3F1
330
3EE
100
AcDbEntity
  8
BEMAßUNG
  0
POLYLINE
  5
3F2
330
1F
100
AcDbEntity
  8
BEMAßUNG
 62
     7
100
AcDb2dPolyline
 66
     1
 10
0.0
 20
0.0
 30
0.0
  0
VERTEX
  5
3F3
330
3F2
100
AcDbEntity
  8
BEMAßUNG
 62
     7
100
AcDbVertex
100
AcDb2dVertex
 10
-23.85763074490365
 20
41.90183511322246
 30
0.0
  0
VERTEX
  5
3F4
330
3F2
100
AcDbEntity
  8
BEMAßUNG
 62
     7
100
AcDbVertex
100
AcDb2dVertex
 10
-23.85763074490365
 20
42.85853812947634
 30
0.0
  0
SEQEND
  5
3F5
330
3F2
100
AcDbEntity
  8
BEMAßUNG
  0
POLYLINE
  5
3F6
330
1F
100
AcDbEntity
  8
BEMAßUNG
 62
     7
100
AcDb2dPolyline
 66
     1
 10
0.0
 20
0.0
 30
0.0
  0
VERTEX
  5
3F7
330
3F6
100
AcDbEntity
  8
BEMAßUNG
 62
     7
100
AcDbVertex
100
AcDb2dVertex
 10
-23.80664333172195
 20
41.90183511322246
 30
0.0
  0
VERTEX
  5
3F8
330
3F6
100
AcDbEntity
  8
BEMAßUNG
 62
     7
100
AcDbVertex
100
AcDb2dVertex
 10
-23.80664333172195
 20
43.2440443142758
 30
0.0
  0
SEQEND
  5
3F9
330
3F6
100
AcDbEntity
  8
BEMAßUNG
  0
POLYLINE
  5
3FA
330
1F
100
AcDbEntity
  8
BEMAßUNG
 62
     7
100
AcDb2dPolyline
 66
     1
 10
0.0
 20
0.0
 30
0.0
  0
VERTEX
  5
3FB
330
3FA
100
AcDbEntity
  8
BEMAßUNG
 62
     7
100
AcDbVertex
100
AcDb2dVertex
 10
-23.75531140899173
 20
41.90183511322246
 30
0.0
  0
VERTEX
  5
3FC
330
3FA
100
AcDbEntity
  8
BEMAßUNG
 62
     7
100
AcDbVertex
100
AcDb2dVertex
 10
-23.75531140899173
 20
43.62989500862378
 30
0.0
  0
SEQEND
  5
3FD
330
3FA
100
AcDbEntity
  8
BEMAßUNG
  0
POLYLINE
  5
3FE
330
1F
100
AcDbEntity
  8
BEMAßUNG
 62
     7
100
AcDb2dPolyline
 66
     1
 10
0.0
 20
0.0
 30
0.0
  0
VERTEX
  5
3FF
330
3FE
100
AcDbEntity
  8
BEMAßUNG
 62
     7
100
AcDbVertex
100
AcDb2dVertex
 10
-23.70466850535855
 20
41.90183511322246
 30
0.0
  0
VERTEX
  5
400
330
3FE
100
AcDbEntity
  8
BEMAßUNG
 62
     7
100
AcDbVertex
100
AcDb2dVertex
 10
-23.70466850535855
 20
44.01540119342324
 30
0.0
  0
SEQEND
  5
401
330
3FE
100
AcDbEntity
  8
BEMAßUNG
  0
POLYLINE
  5
402
330
1F
100
AcDbEntity
  8
BEMAßUNG
 62
     7
100
AcDb2dPolyline
 66
     1
 10
0.0
 20
0.0
 30
0.0
  0
VERTEX
  5
403
330
402
100
AcDbEntity
  8
BEMAßUNG
 62
     7
100
AcDbVertex
100
AcDb2dVertex
 10
-23.65471462082243
 20
41.90183511322246
 30
0.0
  0
VERTEX
  5
404
330
402
100
AcDbEntity
  8
BEMAßUNG
 62
     7
100
AcDbVertex
100
AcDb2dVertex
 10
-23.65471462082243
 20
44.40194090686827
 30
0.0
  0
SEQEND
  5
405
330
402
100
AcDbEntity
  8
BEMAßUNG
  0
POLYLINE
  5
406
330
1F
100
AcDbEntity
  8
BEMAßUNG
 62
     7
100
AcDb2dPolyline
 66
     1
 10
0.0
 20
0.0
 30
0.0
  0
VERTEX
  5
407
330
406
100
AcDbEntity
  8
BEMAßUNG
 62
     7
100
AcDbVertex
100
AcDb2dVertex
 10
-23.35016817992635
 20
41.90183511322246
 30
0.0
  0
VERTEX
  5
408
330
406
100
AcDbEntity
  8
BEMAßUNG
 62
     7
100
AcDbVertex
100
AcDb2dVertex
 10
-23.35016817992635
 20
42.08649223123185
 30
0.0
  0
SEQEND
  5
409
330
406
100
AcDbEntity
  8
BEMAßUNG
  0
POLYLINE
  5
40A
330
1F
100
AcDbEntity
  8
BEMAßUNG
 62
     7
100
AcDb2dPolyline
 66
     1
 10
0.0
 20
0.0
 30
0.0
  0
VERTEX
  5
40B
330
40A
100
AcDbEntity
  8
BEMAßUNG
 62
     7
100
AcDbVertex
100
AcDb2dVertex
 10
-23.35016817992635
 20
41.90183511322246
 30
0.0
  0
VERTEX
  5
40C
330
40A
100
AcDbEntity
  8
BEMAßUNG
 62
     7
100
AcDbVertex
100
AcDb2dVertex
 10
-23.35016817992635
 20
42.08649223123185
 30
0.0
  0
SEQEND
  5
40D
330
40A
100
AcDbEntity
  8
BEMAßUNG
  0
POLYLINE
  5
40E
330
1F
100
AcDbEntity
  8
BEMAßUNG
 62
     7
100
AcDb2dPolyline
 66
     1
 10
0.0
 20
0.0
 30
0.0
  0
VERTEX
  5
40F
330
40E
100
AcDbEntity
  8
BEMAßUNG
 62
     7
100
AcDbVertex
100
AcDb2dVertex
 10
-23.40012206446247
 20
41.90183511322246
 30
0.0
  0
VERTEX
  5
410
330
40E
100
AcDbEntity
  8
BEMAßUNG
 62
     7
100
AcDbVertex
100
AcDb2dVertex
 10
-23.40012206446247
 20
42.4719984160313
 30
0.0
  0
SEQEND
  5
411
330
40E
100
AcDbEntity
  8
BEMAßUNG
  0
POLYLINE
  5
412
330
1F
100
AcDbEntity
  8
BEMAßUNG
 62
     7
100
AcDb2dPolyline
 66
     1
 10
0.0
 20
0.0
 30
0.0
  0
VERTEX
  5
413
330
412
100
AcDbEntity
  8
BEMAßUNG
 62
     7
100
AcDbVertex
100
AcDb2dVertex
 10
-23.45110947764417
 20
41.90183511322246
 30
0.0
  0
VERTEX
  5
414
330
412
100
AcDbEntity
  8
BEMAßUNG
 62
     7
100
AcDbVertex
100
AcDb2dVertex
 10
-23.45110947764417
 20
42.85853812947634
 30
0.0
  0
SEQEND
  5
415
330
412
100
AcDbEntity
  8
BEMAßUNG
  0
POLYLINE
  5
416
330
1F
100
AcDbEntity
  8
BEMAßUNG
 62
     7
100
AcDb2dPolyline
 66
     1
 10
0.0
 20
0.0
 30
0.0
  0
VERTEX
  5
417
330
416
100
AcDbEntity
  8
BEMAßUNG
 62
     7
100
AcDbVertex
100
AcDb2dVertex
 10
-23.50175238127734
 20
41.90183511322246
 30
0.0
  0
VERTEX
  5
418
330
416
100
AcDbEntity
  8
BEMAßUNG
 62
     7
100
AcDbVertex
100
AcDb2dVertex
 10
-23.50175238127734
 20
43.2440443142758
 30
0.0
  0
SEQEND
  5
419
330
416
100
AcDbEntity
  8
BEMAßUNG
  0
POLYLINE
  5
41A
330
1F
100
AcDbEntity
  8
BEMAßUNG
 62
     7
100
AcDb2dPolyline
 66
     1
 10
0.0
 20
0.0
 30
0.0
  0
VERTEX
  5
41B
330
41A
100
AcDbEntity
  8
BEMAßUNG
 62
     7
100
AcDbVertex
100
AcDb2dVertex
 10
-23.55308430400756
 20
41.90183511322246
 30
0.0
  0
VERTEX
  5
41C
330
41A
100
AcDbEntity
  8
BEMAßUNG
 62
     7
100
AcDbVertex
100
AcDb2dVertex
 10
-23.55308430400756
 20
43.62989500862378
 30
0.0
  0
SEQEND
  5
41D
330
41A
100
AcDbEntity
  8
BEMAßUNG
  0
POLYLINE
  5
41E
330
1F
100
AcDbEntity
  8
BEMAßUNG
 62
     7
100
AcDb2dPolyline
 66
     1
 10
0.0
 20
0.0
 30
0.0
  0
VERTEX
  5
41F
330
41E
100
AcDbEntity
  8
BEMAßUNG
 62
     7
100
AcDbVertex
100
AcDb2dVertex
 10
-23.60372720764074
 20
41.90183511322246
 30
0.0
  0
VERTEX
  5
420
330
41E
100
AcDbEntity
  8
BEMAßUNG
 62
     7
100
AcDbVertex
100
AcDb2dVertex
 10
-23.60372720764074
 20
44.01540119342324
 30
0.0
  0
SEQEND
  5
421
330
41E
100
AcDbEntity
  8
BEMAßUNG
  0
POLYLINE
  5
422
330
1F
100
AcDbEntity
  8
BEMAßUNG
 62
     7
100
AcDb2dPolyline
 66
     1
 10
0.0
 20
0.0
 30
0.0
  0
VERTEX
  5
423
330
422
100
AcDbEntity
  8
BEMAßUNG
 62
     7
100
AcDbVertex
100
AcDb2dVertex
 10
-23.65471462082243
 20
41.90183511322246
 30
0.0
  0
VERTEX
  5
424
330
422
100
AcDbEntity
  8
BEMAßUNG
 62
     7
100
AcDbVertex
100
AcDb2dVertex
 10
-23.65471462082243
 20
44.40194090686827
 30
0.0
  0
SEQEND
  5
425
330
422
100
AcDbEntity
  8
BEMAßUNG
  0
POLYLINE
  5
426
330
1F
100
AcDbEntity
  8
BEMAßUNG
 62
     7
100
AcDb2dPolyline
 66
     1
 10
0.0
 20
0.0
 30
0.0
  0
VERTEX
  5
427
330
426
100
AcDbEntity
  8
BEMAßUNG
 62
     7
100
AcDbVertex
100
AcDb2dVertex
 10
-23.65471462082243
 20
12.4014824730281
 30
0.0
  0
VERTEX
  5
428
330
426
100
AcDbEntity
  8
BEMAßUNG
 62
     7
100
AcDbVertex
100
AcDb2dVertex
 10
-23.32501898288402
 20
14.90158826667391
 30
0.0
  0
VERTEX
  5
429
330
426
100
AcDbEntity
  8
BEMAßUNG
 62
     7
100
AcDbVertex
100
AcDb2dVertex
 10
-23.98337673011527
 20
14.90158826667391
 30
0.0
  0
VERTEX
  5
42A
330
426
100
AcDbEntity
  8
BEMAßUNG
 62
     7
100
AcDbVertex
100
AcDb2dVertex
 10
-23.65471462082243
 20
12.4014824730281
 30
0.0
  0
SEQEND
  5
42B
330
426
100
AcDbEntity
  8
BEMAßUNG
  0
POLYLINE
  5
42C
330
1F
100
AcDbEntity
  8
BEMAßUNG
 62
     7
100
AcDb2dPolyline
 66
     1
 10
0.0
 20
0.0
 30
0.0
  0
VERTEX
  5
42D
330
42C
100
AcDbEntity
  8
BEMAßUNG
 62
     7
100
AcDbVertex
100
AcDb2dVertex
 10
-23.35016817992635
 20
14.90158826667391
 30
0.0
  0
VERTEX
  5
42E
330
42C
100
AcDbEntity
  8
BEMAßUNG
 62
     7
100
AcDbVertex
100
AcDb2dVertex
 10
-23.35016817992635
 20
14.71693114866452
 30
0.0
  0
SEQEND
  5
42F
330
42C
100
AcDbEntity
  8
BEMAßUNG
  0
POLYLINE
  5
430
330
1F
100
AcDbEntity
  8
BEMAßUNG
 62
     7
100
AcDb2dPolyline
 66
     1
 10
0.0
 20
0.0
 30
0.0
  0
VERTEX
  5
431
330
430
100
AcDbEntity
  8
BEMAßUNG
 62
     7
100
AcDbVertex
100
AcDb2dVertex
 10
-23.35016817992635
 20
14.90158826667391
 30
0.0
  0
VERTEX
  5
432
330
430
100
AcDbEntity
  8
BEMAßUNG
 62
     7
100
AcDbVertex
100
AcDb2dVertex
 10
-23.35016817992635
 20
14.71693114866452
 30
0.0
  0
SEQEND
  5
433
330
430
100
AcDbEntity
  8
BEMAßUNG
  0
POLYLINE
  5
434
330
1F
100
AcDbEntity
  8
BEMAßUNG
 62
     7
100
AcDb2dPolyline
 66
     1
 10
0.0
 20
0.0
 30
0.0
  0
VERTEX
  5
435
330
434
100
AcDbEntity
  8
BEMAßUNG
 62
     7
100
AcDbVertex
100
AcDb2dVertex
 10
-23.40012206446247
 20
14.90158826667391
 30
0.0
  0
VERTEX
  5
436
330
434
100
AcDbEntity
  8
BEMAßUNG
 62
     7
100
AcDbVertex
100
AcDb2dVertex
 10
-23.40012206446247
 20
14.33108045431654
 30
0.0
  0
SEQEND
  5
437
330
434
100
AcDbEntity
  8
BEMAßUNG
  0
POLYLINE
  5
438
330
1F
100
AcDbEntity
  8
BEMAßUNG
 62
     7
100
AcDb2dPolyline
 66
     1
 10
0.0
 20
0.0
 30
0.0
  0
VERTEX
  5
439
330
438
100
AcDbEntity
  8
BEMAßUNG
 62
     7
100
AcDbVertex
100
AcDb2dVertex
 10
-23.45110947764417
 20
14.90158826667391
 30
0.0
  0
VERTEX
  5
43A
330
438
100
AcDbEntity
  8
BEMAßUNG
 62
     7
100
AcDbVertex
100
AcDb2dVertex
 10
-23.45110947764417
 20
13.94488525042003
 30
0.0
  0
SEQEND
  5
43B
330
438
100
AcDbEntity
  8
BEMAßUNG
  0
POLYLINE
  5
43C
330
1F
100
AcDbEntity
  8
BEMAßUNG
 62
     7
100
AcDb2dPolyline
 66
     1
 10
0.0
 20
0.0
 30
0.0
  0
VERTEX
  5
43D
330
43C
100
AcDbEntity
  8
BEMAßUNG
 62
     7
100
AcDbVertex
100
AcDb2dVertex
 10
-23.50175238127734
 20
14.90158826667391
 30
0.0
  0
VERTEX
  5
43E
330
43C
100
AcDbEntity
  8
BEMAßUNG
 62
     7
100
AcDbVertex
100
AcDb2dVertex
 10
-23.50175238127734
 20
13.5597235751691
 30
0.0
  0
SEQEND
  5
43F
330
43C
100
AcDbEntity
  8
BEMAßUNG
  0
POLYLINE
  5
440
330
1F
100
AcDbEntity
  8
BEMAßUNG
 62
     7
100
AcDb2dPolyline
 66
     1
 10
0.0
 20
0.0
 30
0.0
  0
VERTEX
  5
441
330
440
100
AcDbEntity
  8
BEMAßUNG
 62
     7
100
AcDbVertex
100
AcDb2dVertex
 10
-23.55308430400756
 20
14.90158826667391
 30
0.0
  0
VERTEX
  5
442
330
440
100
AcDbEntity
  8
BEMAßUNG
 62
     7
100
AcDbVertex
100
AcDb2dVertex
 10
-23.55308430400756
 20
13.17352837127259
 30
0.0
  0
SEQEND
  5
443
330
440
100
AcDbEntity
  8
BEMAßUNG
  0
POLYLINE
  5
444
330
1F
100
AcDbEntity
  8
BEMAßUNG
 62
     7
100
AcDb2dPolyline
 66
     1
 10
0.0
 20
0.0
 30
0.0
  0
VERTEX
  5
445
330
444
100
AcDbEntity
  8
BEMAßUNG
 62
     7
100
AcDbVertex
100
AcDb2dVertex
 10
-23.60372720764074
 20
14.90158826667391
 30
0.0
  0
VERTEX
  5
446
330
444
100
AcDbEntity
  8
BEMAßUNG
 62
     7
100
AcDbVertex
100
AcDb2dVertex
 10
-23.60372720764074
 20
12.78767767692461
 30
0.0
  0
SEQEND
  5
447
330
444
100
AcDbEntity
  8
BEMAßUNG
  0
POLYLINE
  5
448
330
1F
100
AcDbEntity
  8
BEMAßUNG
 62
     7
100
AcDb2dPolyline
 66
     1
 10
0.0
 20
0.0
 30
0.0
  0
VERTEX
  5
449
330
448
100
AcDbEntity
  8
BEMAßUNG
 62
     7
100
AcDbVertex
100
AcDb2dVertex
 10
-23.65471462082243
 20
14.90158826667391
 30
0.0
  0
VERTEX
  5
44A
330
448
100
AcDbEntity
  8
BEMAßUNG
 62
     7
100
AcDbVertex
100
AcDb2dVertex
 10
-23.65471462082243
 20
12.4014824730281
 30
0.0
  0
SEQEND
  5
44B
330
448
100
AcDbEntity
  8
BEMAßUNG
  0
POLYLINE
  5
44C
330
1F
100
AcDbEntity
  8
BEMAßUNG
 62
     7
100
AcDb2dPolyline
 66
     1
 10
0.0
 20
0.0
 30
0.0
  0
VERTEX
  5
44D
330
44C
100
AcDbEntity
  8
BEMAßUNG
 62
     7
100
AcDbVertex
100
AcDb2dVertex
 10
-23.95960557126704
 20
14.90158826667391
 30
0.0
  0
VERTEX
  5
44E
330
44C
100
AcDbEntity
  8
BEMAßUNG
 62
     7
100
AcDbVertex
100
AcDb2dVertex
 10
-23.95960557126704
 20
14.71693114866452
 30
0.0
  0
SEQEND
  5
44F
330
44C
100
AcDbEntity
  8
BEMAßUNG
  0
POLYLINE
  5
450
330
1F
100
AcDbEntity
  8
BEMAßUNG
 62
     7
100
AcDb2dPolyline
 66
     1
 10
0.0
 20
0.0
 30
0.0
  0
VERTEX
  5
451
330
450
100
AcDbEntity
  8
BEMAßUNG
 62
     7
100
AcDbVertex
100
AcDb2dVertex
 10
-23.95960557126704
 20
14.90158826667391
 30
0.0
  0
VERTEX
  5
452
330
450
100
AcDbEntity
  8
BEMAßUNG
 62
     7
100
AcDbVertex
100
AcDb2dVertex
 10
-23.95960557126704
 20
14.71693114866452
 30
0.0
  0
SEQEND
  5
453
330
450
100
AcDbEntity
  8
BEMAßUNG
  0
POLYLINE
  5
454
330
1F
100
AcDbEntity
  8
BEMAßUNG
 62
     7
100
AcDb2dPolyline
 66
     1
 10
0.0
 20
0.0
 30
0.0
  0
VERTEX
  5
455
330
454
100
AcDbEntity
  8
BEMAßUNG
 62
     7
100
AcDbVertex
100
AcDb2dVertex
 10
-23.90827364853682
 20
14.90158826667391
 30
0.0
  0
VERTEX
  5
456
330
454
100
AcDbEntity
  8
BEMAßUNG
 62
     7
100
AcDbVertex
100
AcDb2dVertex
 10
-23.90827364853682
 20
14.33108045431654
 30
0.0
  0
SEQEND
  5
457
330
454
100
AcDbEntity
  8
BEMAßUNG
  0
POLYLINE
  5
458
330
1F
100
AcDbEntity
  8
BEMAßUNG
 62
     7
100
AcDb2dPolyline
 66
     1
 10
0.0
 20
0.0
 30
0.0
  0
VERTEX
  5
459
330
458
100
AcDbEntity
  8
BEMAßUNG
 62
     7
100
AcDbVertex
100
AcDb2dVertex
 10
-23.85763074490365
 20
14.90158826667391
 30
0.0
  0
VERTEX
  5
45A
330
458
100
AcDbEntity
  8
BEMAßUNG
 62
     7
100
AcDbVertex
100
AcDb2dVertex
 10
-23.85763074490365
 20
13.94488525042003
 30
0.0
  0
SEQEND
  5
45B
330
458
100
AcDbEntity
  8
BEMAßUNG
  0
POLYLINE
  5
45C
330
1F
100
AcDbEntity
  8
BEMAßUNG
 62
     7
100
AcDb2dPolyline
 66
     1
 10
0.0
 20
0.0
 30
0.0
  0
VERTEX
  5
45D
330
45C
100
AcDbEntity
  8
BEMAßUNG
 62
     7
100
AcDbVertex
100
AcDb2dVertex
 10
-23.80664333172195
 20
14.90158826667391
 30
0.0
  0
VERTEX
  5
45E
330
45C
100
AcDbEntity
  8
BEMAßUNG
 62
     7
100
AcDbVertex
100
AcDb2dVertex
 10
-23.80664333172195
 20
13.5597235751691
 30
0.0
  0
SEQEND
  5
45F
330
45C
100
AcDbEntity
  8
BEMAßUNG
  0
POLYLINE
  5
460
330
1F
100
AcDbEntity
  8
BEMAßUNG
 62
     7
100
AcDb2dPolyline
 66
     1
 10
0.0
 20
0.0
 30
0.0
  0
VERTEX
  5
461
330
460
100
AcDbEntity
  8
BEMAßUNG
 62
     7
100
AcDbVertex
100
AcDb2dVertex
 10
-23.75531140899173
 20
14.90158826667391
 30
0.0
  0
VERTEX
  5
462
330
460
100
AcDbEntity
  8
BEMAßUNG
 62
     7
100
AcDbVertex
100
AcDb2dVertex
 10
-23.75531140899173
 20
13.17352837127259
 30
0.0
  0
SEQEND
  5
463
330
460
100
AcDbEntity
  8
BEMAßUNG
  0
POLYLINE
  5
464
330
1F
100
AcDbEntity
  8
BEMAßUNG
 62
     7
100
AcDb2dPolyline
 66
     1
 10
0.0
 20
0.0
 30
0.0
  0
VERTEX
  5
465
330
464
100
AcDbEntity
  8
BEMAßUNG
 62
     7
100
AcDbVertex
100
AcDb2dVertex
 10
-23.70466850535855
 20
14.90158826667391
 30
0.0
  0
VERTEX
  5
466
330
464
100
AcDbEntity
  8
BEMAßUNG
 62
     7
100
AcDbVertex
100
AcDb2dVertex
 10
-23.70466850535855
 20
12.78767767692461
 30
0.0
  0
SEQEND
  5
467
330
464
100
AcDbEntity
  8
BEMAßUNG
  0
POLYLINE
  5
468
330
1F
100
AcDbEntity
  8
BEMAßUNG
 62
     7
100
AcDb2dPolyline
 66
     1
 10
0.0
 20
0.0
 30
0.0
  0
VERTEX
  5
469
330
468
100
AcDbEntity
  8
BEMAßUNG
 62
     7
100
AcDbVertex
100
AcDb2dVertex
 10
-23.65471462082243
 20
14.90158826667391
 30
0.0
  0
VERTEX
  5
46A
330
468
100
AcDbEntity
  8
BEMAßUNG
 62
     7
100
AcDbVertex
100
AcDb2dVertex
 10
-23.65471462082243
 20
12.4014824730281
 30
0.0
  0
SEQEND
  5
46B
330
468
100
AcDbEntity
  8
BEMAßUNG
  0
POLYLINE
  5
46C
330
1F
100
AcDbEntity
  8
BEMAßUNG
 62
     7
100
AcDb2dPolyline
 66
     1
 10
0.0
 20
0.0
 30
0.0
  0
VERTEX
  5
46D
330
46C
100
AcDbEntity
  8
BEMAßUNG
 62
     7
100
AcDbVertex
100
AcDb2dVertex
 10
-111.1783989522401
 20
34.40220675138209
 30
0.0
  0
VERTEX
  5
46E
330
46C
100
AcDbEntity
  8
BEMAßUNG
 62
     7
100
AcDbVertex
100
AcDb2dVertex
 10
-123.3616346262776
 20
34.40220675138209
 30
0.0
  0
SEQEND
  5
46F
330
46C
100
AcDbEntity
  8
BEMAßUNG
  0
POLYLINE
  5
470
330
1F
100
AcDbEntity
  8
BEMAßUNG
 62
     7
100
AcDb2dPolyline
 66
     1
 10
0.0
 20
0.0
 30
0.0
  0
VERTEX
  5
471
330
470
100
AcDbEntity
  8
BEMAßUNG
 62
     7
100
AcDbVertex
100
AcDb2dVertex
 10
-111.1783989522401
 20
22.40156113806281
 30
0.0
  0
VERTEX
  5
472
330
470
100
AcDbEntity
  8
BEMAßUNG
 62
     7
100
AcDbVertex
100
AcDb2dVertex
 10
-123.3616346262776
 20
22.40156113806281
 30
0.0
  0
SEQEND
  5
473
330
470
100
AcDbEntity
  8
BEMAßUNG
  0
POLYLINE
  5
474
330
1F
100
AcDbEntity
  8
BEMAßUNG
 62
     7
100
AcDb2dPolyline
 66
     1
 10
0.0
 20
0.0
 30
0.0
  0
VERTEX
  5
475
330
474
100
AcDbEntity
  8
BEMAßUNG
 62
     7
100
AcDbVertex
100
AcDb2dVertex
 10
-121.3617566970901
 20
34.40220675138209
 30
0.0
  0
VERTEX
  5
476
330
474
100
AcDbEntity
  8
BEMAßUNG
 62
     7
100
AcDbVertex
100
AcDb2dVertex
 10
-121.3617566970901
 20
22.40156113806281
 30
0.0
  0
SEQEND
  5
477
330
474
100
AcDbEntity
  8
BEMAßUNG
  0
POLYLINE
  5
478
330
1F
100
AcDbEntity
  8
BEMAßUNG
 62
     7
100
AcDb2dPolyline
 66
     1
 10
0.0
 20
0.0
 30
0.0
  0
VERTEX
  5
479
330
478
100
AcDbEntity
  8
BEMAßUNG
 62
     7
100
AcDbVertex
100
AcDb2dVertex
 10
-121.3617566970901
 20
34.40220675138209
 30
0.0
  0
VERTEX
  5
47A
330
478
100
AcDbEntity
  8
BEMAßUNG
 62
     7
100
AcDbVertex
100
AcDb2dVertex
 10
-121.6907633159315
 20
31.90175644818776
 30
0.0
  0
VERTEX
  5
47B
330
478
100
AcDbEntity
  8
BEMAßUNG
 62
     7
100
AcDbVertex
100
AcDb2dVertex
 10
-121.0327500782488
 20
31.90175644818776
 30
0.0
  0
VERTEX
  5
47C
330
478
100
AcDbEntity
  8
BEMAßUNG
 62
     7
100
AcDbVertex
100
AcDb2dVertex
 10
-121.3617566970901
 20
34.40220675138209
 30
0.0
  0
SEQEND
  5
47D
330
478
100
AcDbEntity
  8
BEMAßUNG
  0
POLYLINE
  5
47E
330
1F
100
AcDbEntity
  8
BEMAßUNG
 62
     7
100
AcDb2dPolyline
 66
     1
 10
0.0
 20
0.0
 30
0.0
  0
VERTEX
  5
47F
330
47E
100
AcDbEntity
  8
BEMAßUNG
 62
     7
100
AcDbVertex
100
AcDb2dVertex
 10
-121.6663031379862
 20
31.90175644818776
 30
0.0
  0
VERTEX
  5
480
330
47E
100
AcDbEntity
  8
BEMAßUNG
 62
     7
100
AcDbVertex
100
AcDb2dVertex
 10
-121.6663031379862
 20
32.08675807574567
 30
0.0
  0
SEQEND
  5
481
330
47E
100
AcDbEntity
  8
BEMAßUNG
  0
POLYLINE
  5
482
330
1F
100
AcDbEntity
  8
BEMAßUNG
 62
     7
100
AcDb2dPolyline
 66
     1
 10
0.0
 20
0.0
 30
0.0
  0
VERTEX
  5
483
330
482
100
AcDbEntity
  8
BEMAßUNG
 62
     7
100
AcDbVertex
100
AcDb2dVertex
 10
-121.6663031379862
 20
31.90175644818776
 30
0.0
  0
VERTEX
  5
484
330
482
100
AcDbEntity
  8
BEMAßUNG
 62
     7
100
AcDbVertex
100
AcDb2dVertex
 10
-121.6663031379862
 20
32.08675807574567
 30
0.0
  0
SEQEND
  5
485
330
482
100
AcDbEntity
  8
BEMAßUNG
  0
POLYLINE
  5
486
330
1F
100
AcDbEntity
  8
BEMAßUNG
 62
     7
100
AcDb2dPolyline
 66
     1
 10
0.0
 20
0.0
 30
0.0
  0
VERTEX
  5
487
330
486
100
AcDbEntity
  8
BEMAßUNG
 62
     7
100
AcDbVertex
100
AcDb2dVertex
 10
-121.6153157248045
 20
31.90175644818776
 30
0.0
  0
VERTEX
  5
488
330
486
100
AcDbEntity
  8
BEMAßUNG
 62
     7
100
AcDbVertex
100
AcDb2dVertex
 10
-121.6153157248045
 20
32.47260877009366
 30
0.0
  0
SEQEND
  5
489
330
486
100
AcDbEntity
  8
BEMAßUNG
  0
POLYLINE
  5
48A
330
1F
100
AcDbEntity
  8
BEMAßUNG
 62
     7
100
AcDb2dPolyline
 66
     1
 10
0.0
 20
0.0
 30
0.0
  0
VERTEX
  5
48B
330
48A
100
AcDbEntity
  8
BEMAßUNG
 62
     7
100
AcDbVertex
100
AcDb2dVertex
 10
-121.5646728211713
 20
31.90175644818776
 30
0.0
  0
VERTEX
  5
48C
330
48A
100
AcDbEntity
  8
BEMAßUNG
 62
     7
100
AcDbVertex
100
AcDb2dVertex
 10
-121.5646728211713
 20
32.85845946444164
 30
0.0
  0
SEQEND
  5
48D
330
48A
100
AcDbEntity
  8
BEMAßUNG
  0
POLYLINE
  5
48E
330
1F
100
AcDbEntity
  8
BEMAßUNG
 62
     7
100
AcDb2dPolyline
 66
     1
 10
0.0
 20
0.0
 30
0.0
  0
VERTEX
  5
48F
330
48E
100
AcDbEntity
  8
BEMAßUNG
 62
     7
100
AcDbVertex
100
AcDb2dVertex
 10
-121.5136854079896
 20
31.90175644818776
 30
0.0
  0
VERTEX
  5
490
330
48E
100
AcDbEntity
  8
BEMAßUNG
 62
     7
100
AcDbVertex
100
AcDb2dVertex
 10
-121.5136854079896
 20
33.24396564924109
 30
0.0
  0
SEQEND
  5
491
330
48E
100
AcDbEntity
  8
BEMAßUNG
  0
POLYLINE
  5
492
330
1F
100
AcDbEntity
  8
BEMAßUNG
 62
     7
100
AcDb2dPolyline
 66
     1
 10
0.0
 20
0.0
 30
0.0
  0
VERTEX
  5
493
330
492
100
AcDbEntity
  8
BEMAßUNG
 62
     7
100
AcDbVertex
100
AcDb2dVertex
 10
-121.463387013905
 20
31.90175644818776
 30
0.0
  0
VERTEX
  5
494
330
492
100
AcDbEntity
  8
BEMAßUNG
 62
     7
100
AcDbVertex
100
AcDb2dVertex
 10
-121.463387013905
 20
33.6301608531376
 30
0.0
  0
SEQEND
  5
495
330
492
100
AcDbEntity
  8
BEMAßUNG
  0
POLYLINE
  5
496
330
1F
100
AcDbEntity
  8
BEMAßUNG
 62
     7
100
AcDb2dPolyline
 66
     1
 10
0.0
 20
0.0
 30
0.0
  0
VERTEX
  5
497
330
496
100
AcDbEntity
  8
BEMAßUNG
 62
     7
100
AcDbVertex
100
AcDb2dVertex
 10
-121.4123996007233
 20
31.90175644818776
 30
0.0
  0
VERTEX
  5
498
330
496
100
AcDbEntity
  8
BEMAßUNG
 62
     7
100
AcDbVertex
100
AcDb2dVertex
 10
-121.4123996007233
 20
34.01601154748558
 30
0.0
  0
SEQEND
  5
499
330
496
100
AcDbEntity
  8
BEMAßUNG
  0
POLYLINE
  5
49A
330
1F
100
AcDbEntity
  8
BEMAßUNG
 62
     7
100
AcDb2dPolyline
 66
     1
 10
0.0
 20
0.0
 30
0.0
  0
VERTEX
  5
49B
330
49A
100
AcDbEntity
  8
BEMAßUNG
 62
     7
100
AcDbVertex
100
AcDb2dVertex
 10
-121.3617566970901
 20
31.90175644818776
 30
0.0
  0
VERTEX
  5
49C
330
49A
100
AcDbEntity
  8
BEMAßUNG
 62
     7
100
AcDbVertex
100
AcDb2dVertex
 10
-121.3617566970901
 20
34.40220675138209
 30
0.0
  0
SEQEND
  5
49D
330
49A
100
AcDbEntity
  8
BEMAßUNG
  0
POLYLINE
  5
49E
330
1F
100
AcDbEntity
  8
BEMAßUNG
 62
     7
100
AcDb2dPolyline
 66
     1
 10
0.0
 20
0.0
 30
0.0
  0
VERTEX
  5
49F
330
49E
100
AcDbEntity
  8
BEMAßUNG
 62
     7
100
AcDbVertex
100
AcDb2dVertex
 10
-121.0568657466455
 20
31.90175644818776
 30
0.0
  0
VERTEX
  5
4A0
330
49E
100
AcDbEntity
  8
BEMAßUNG
 62
     7
100
AcDbVertex
100
AcDb2dVertex
 10
-121.0568657466455
 20
32.08675807574567
 30
0.0
  0
SEQEND
  5
4A1
330
49E
100
AcDbEntity
  8
BEMAßUNG
  0
POLYLINE
  5
4A2
330
1F
100
AcDbEntity
  8
BEMAßUNG
 62
     7
100
AcDb2dPolyline
 66
     1
 10
0.0
 20
0.0
 30
0.0
  0
VERTEX
  5
4A3
330
4A2
100
AcDbEntity
  8
BEMAßUNG
 62
     7
100
AcDbVertex
100
AcDb2dVertex
 10
-121.0568657466455
 20
31.90175644818776
 30
0.0
  0
VERTEX
  5
4A4
330
4A2
100
AcDbEntity
  8
BEMAßUNG
 62
     7
100
AcDbVertex
100
AcDb2dVertex
 10
-121.0568657466455
 20
32.08675807574567
 30
0.0
  0
SEQEND
  5
4A5
330
4A2
100
AcDbEntity
  8
BEMAßUNG
  0
POLYLINE
  5
4A6
330
1F
100
AcDbEntity
  8
BEMAßUNG
 62
     7
100
AcDb2dPolyline
 66
     1
 10
0.0
 20
0.0
 30
0.0
  0
VERTEX
  5
4A7
330
4A6
100
AcDbEntity
  8
BEMAßUNG
 62
     7
100
AcDbVertex
100
AcDb2dVertex
 10
-121.1075086502787
 20
31.90175644818776
 30
0.0
  0
VERTEX
  5
4A8
330
4A6
100
AcDbEntity
  8
BEMAßUNG
 62
     7
100
AcDbVertex
100
AcDb2dVertex
 10
-121.1075086502787
 20
32.47260877009366
 30
0.0
  0
SEQEND
  5
4A9
330
4A6
100
AcDbEntity
  8
BEMAßUNG
  0
POLYLINE
  5
4AA
330
1F
100
AcDbEntity
  8
BEMAßUNG
 62
     7
100
AcDb2dPolyline
 66
     1
 10
0.0
 20
0.0
 30
0.0
  0
VERTEX
  5
4AB
330
4AA
100
AcDbEntity
  8
BEMAßUNG
 62
     7
100
AcDbVertex
100
AcDb2dVertex
 10
-121.1581515539118
 20
31.90175644818776
 30
0.0
  0
VERTEX
  5
4AC
330
4AA
100
AcDbEntity
  8
BEMAßUNG
 62
     7
100
AcDbVertex
100
AcDb2dVertex
 10
-121.1581515539118
 20
32.85845946444164
 30
0.0
  0
SEQEND
  5
4AD
330
4AA
100
AcDbEntity
  8
BEMAßUNG
  0
POLYLINE
  5
4AE
330
1F
100
AcDbEntity
  8
BEMAßUNG
 62
     7
100
AcDb2dPolyline
 66
     1
 10
0.0
 20
0.0
 30
0.0
  0
VERTEX
  5
4AF
330
4AE
100
AcDbEntity
  8
BEMAßUNG
 62
     7
100
AcDbVertex
100
AcDb2dVertex
 10
-121.2091389670936
 20
31.90175644818776
 30
0.0
  0
VERTEX
  5
4B0
330
4AE
100
AcDbEntity
  8
BEMAßUNG
 62
     7
100
AcDbVertex
100
AcDb2dVertex
 10
-121.2091389670936
 20
33.24396564924109
 30
0.0
  0
SEQEND
  5
4B1
330
4AE
100
AcDbEntity
  8
BEMAßUNG
  0
POLYLINE
  5
4B2
330
1F
100
AcDbEntity
  8
BEMAßUNG
 62
     7
100
AcDb2dPolyline
 66
     1
 10
0.0
 20
0.0
 30
0.0
  0
VERTEX
  5
4B3
330
4B2
100
AcDbEntity
  8
BEMAßUNG
 62
     7
100
AcDbVertex
100
AcDb2dVertex
 10
-121.2601263802753
 20
31.90175644818776
 30
0.0
  0
VERTEX
  5
4B4
330
4B2
100
AcDbEntity
  8
BEMAßUNG
 62
     7
100
AcDbVertex
100
AcDb2dVertex
 10
-121.2601263802753
 20
33.6301608531376
 30
0.0
  0
SEQEND
  5
4B5
330
4B2
100
AcDbEntity
  8
BEMAßUNG
  0
POLYLINE
  5
4B6
330
1F
100
AcDbEntity
  8
BEMAßUNG
 62
     7
100
AcDb2dPolyline
 66
     1
 10
0.0
 20
0.0
 30
0.0
  0
VERTEX
  5
4B7
330
4B6
100
AcDbEntity
  8
BEMAßUNG
 62
     7
100
AcDbVertex
100
AcDb2dVertex
 10
-121.311113793457
 20
31.90175644818776
 30
0.0
  0
VERTEX
  5
4B8
330
4B6
100
AcDbEntity
  8
BEMAßUNG
 62
     7
100
AcDbVertex
100
AcDb2dVertex
 10
-121.311113793457
 20
34.01601154748558
 30
0.0
  0
SEQEND
  5
4B9
330
4B6
100
AcDbEntity
  8
BEMAßUNG
  0
POLYLINE
  5
4BA
330
1F
100
AcDbEntity
  8
BEMAßUNG
 62
     7
100
AcDb2dPolyline
 66
     1
 10
0.0
 20
0.0
 30
0.0
  0
VERTEX
  5
4BB
330
4BA
100
AcDbEntity
  8
BEMAßUNG
 62
     7
100
AcDbVertex
100
AcDb2dVertex
 10
-121.3617566970901
 20
31.90175644818776
 30
0.0
  0
VERTEX
  5
4BC
330
4BA
100
AcDbEntity
  8
BEMAßUNG
 62
     7
100
AcDbVertex
100
AcDb2dVertex
 10
-121.3617566970901
 20
34.40220675138209
 30
0.0
  0
SEQEND
  5
4BD
330
4BA
100
AcDbEntity
  8
BEMAßUNG
  0
POLYLINE
  5
4BE
330
1F
100
AcDbEntity
  8
BEMAßUNG
 62
     7
100
AcDb2dPolyline
 66
     1
 10
0.0
 20
0.0
 30
0.0
  0
VERTEX
  5
4BF
330
4BE
100
AcDbEntity
  8
BEMAßUNG
 62
     7
100
AcDbVertex
100
AcDb2dVertex
 10
-121.3617566970901
 20
22.40156113806281
 30
0.0
  0
VERTEX
  5
4C0
330
4BE
100
AcDbEntity
  8
BEMAßUNG
 62
     7
100
AcDbVertex
100
AcDb2dVertex
 10
-121.0327500782488
 20
24.90132242216009
 30
0.0
  0
VERTEX
  5
4C1
330
4BE
100
AcDbEntity
  8
BEMAßUNG
 62
     7
100
AcDbVertex
100
AcDb2dVertex
 10
-121.6907633159315
 20
24.90132242216009
 30
0.0
  0
VERTEX
  5
4C2
330
4BE
100
AcDbEntity
  8
BEMAßUNG
 62
     7
100
AcDbVertex
100
AcDb2dVertex
 10
-121.3617566970901
 20
22.40156113806281
 30
0.0
  0
SEQEND
  5
4C3
330
4BE
100
AcDbEntity
  8
BEMAßUNG
  0
POLYLINE
  5
4C4
330
1F
100
AcDbEntity
  8
BEMAßUNG
 62
     7
100
AcDb2dPolyline
 66
     1
 10
0.0
 20
0.0
 30
0.0
  0
VERTEX
  5
4C5
330
4C4
100
AcDbEntity
  8
BEMAßUNG
 62
     7
100
AcDbVertex
100
AcDb2dVertex
 10
-121.0568657466455
 20
24.90132242216009
 30
0.0
  0
VERTEX
  5
4C6
330
4C4
100
AcDbEntity
  8
BEMAßUNG
 62
     7
100
AcDbVertex
100
AcDb2dVertex
 10
-121.0568657466455
 20
24.71666530415069
 30
0.0
  0
SEQEND
  5
4C7
330
4C4
100
AcDbEntity
  8
BEMAßUNG
  0
POLYLINE
  5
4C8
330
1F
100
AcDbEntity
  8
BEMAßUNG
 62
     7
100
AcDb2dPolyline
 66
     1
 10
0.0
 20
0.0
 30
0.0
  0
VERTEX
  5
4C9
330
4C8
100
AcDbEntity
  8
BEMAßUNG
 62
     7
100
AcDbVertex
100
AcDb2dVertex
 10
-121.0568657466455
 20
24.90132242216009
 30
0.0
  0
VERTEX
  5
4CA
330
4C8
100
AcDbEntity
  8
BEMAßUNG
 62
     7
100
AcDbVertex
100
AcDb2dVertex
 10
-121.0568657466455
 20
24.71666530415069
 30
0.0
  0
SEQEND
  5
4CB
330
4C8
100
AcDbEntity
  8
BEMAßUNG
  0
POLYLINE
  5
4CC
330
1F
100
AcDbEntity
  8
BEMAßUNG
 62
     7
100
AcDb2dPolyline
 66
     1
 10
0.0
 20
0.0
 30
0.0
  0
VERTEX
  5
4CD
330
4CC
100
AcDbEntity
  8
BEMAßUNG
 62
     7
100
AcDbVertex
100
AcDb2dVertex
 10
-121.1075086502787
 20
24.90132242216009
 30
0.0
  0
VERTEX
  5
4CE
330
4CC
100
AcDbEntity
  8
BEMAßUNG
 62
     7
100
AcDbVertex
100
AcDb2dVertex
 10
-121.1075086502787
 20
24.33081460980272
 30
0.0
  0
SEQEND
  5
4CF
330
4CC
100
AcDbEntity
  8
BEMAßUNG
  0
POLYLINE
  5
4D0
330
1F
100
AcDbEntity
  8
BEMAßUNG
 62
     7
100
AcDb2dPolyline
 66
     1
 10
0.0
 20
0.0
 30
0.0
  0
VERTEX
  5
4D1
330
4D0
100
AcDbEntity
  8
BEMAßUNG
 62
     7
100
AcDbVertex
100
AcDb2dVertex
 10
-121.1581515539118
 20
24.90132242216009
 30
0.0
  0
VERTEX
  5
4D2
330
4D0
100
AcDbEntity
  8
BEMAßUNG
 62
     7
100
AcDbVertex
100
AcDb2dVertex
 10
-121.1581515539118
 20
23.94496391545473
 30
0.0
  0
SEQEND
  5
4D3
330
4D0
100
AcDbEntity
  8
BEMAßUNG
  0
POLYLINE
  5
4D4
330
1F
100
AcDbEntity
  8
BEMAßUNG
 62
     7
100
AcDb2dPolyline
 66
     1
 10
0.0
 20
0.0
 30
0.0
  0
VERTEX
  5
4D5
330
4D4
100
AcDbEntity
  8
BEMAßUNG
 62
     7
100
AcDbVertex
100
AcDb2dVertex
 10
-121.2091389670936
 20
24.90132242216009
 30
0.0
  0
VERTEX
  5
4D6
330
4D4
100
AcDbEntity
  8
BEMAßUNG
 62
     7
100
AcDbVertex
100
AcDb2dVertex
 10
-121.2091389670936
 20
23.55945773065528
 30
0.0
  0
SEQEND
  5
4D7
330
4D4
100
AcDbEntity
  8
BEMAßUNG
  0
POLYLINE
  5
4D8
330
1F
100
AcDbEntity
  8
BEMAßUNG
 62
     7
100
AcDb2dPolyline
 66
     1
 10
0.0
 20
0.0
 30
0.0
  0
VERTEX
  5
4D9
330
4D8
100
AcDbEntity
  8
BEMAßUNG
 62
     7
100
AcDbVertex
100
AcDb2dVertex
 10
-121.2601263802753
 20
24.90132242216009
 30
0.0
  0
VERTEX
  5
4DA
330
4D8
100
AcDbEntity
  8
BEMAßUNG
 62
     7
100
AcDbVertex
100
AcDb2dVertex
 10
-121.2601263802753
 20
23.17326252675877
 30
0.0
  0
SEQEND
  5
4DB
330
4D8
100
AcDbEntity
  8
BEMAßUNG
  0
POLYLINE
  5
4DC
330
1F
100
AcDbEntity
  8
BEMAßUNG
 62
     7
100
AcDb2dPolyline
 66
     1
 10
0.0
 20
0.0
 30
0.0
  0
VERTEX
  5
4DD
330
4DC
100
AcDbEntity
  8
BEMAßUNG
 62
     7
100
AcDbVertex
100
AcDb2dVertex
 10
-121.311113793457
 20
24.90132242216009
 30
0.0
  0
VERTEX
  5
4DE
330
4DC
100
AcDbEntity
  8
BEMAßUNG
 62
     7
100
AcDbVertex
100
AcDb2dVertex
 10
-121.311113793457
 20
22.78741183241079
 30
0.0
  0
SEQEND
  5
4DF
330
4DC
100
AcDbEntity
  8
BEMAßUNG
  0
POLYLINE
  5
4E0
330
1F
100
AcDbEntity
  8
BEMAßUNG
 62
     7
100
AcDb2dPolyline
 66
     1
 10
0.0
 20
0.0
 30
0.0
  0
VERTEX
  5
4E1
330
4E0
100
AcDbEntity
  8
BEMAßUNG
 62
     7
100
AcDbVertex
100
AcDb2dVertex
 10
-121.3617566970901
 20
24.90132242216009
 30
0.0
  0
VERTEX
  5
4E2
330
4E0
100
AcDbEntity
  8
BEMAßUNG
 62
     7
100
AcDbVertex
100
AcDb2dVertex
 10
-121.3617566970901
 20
22.40156113806281
 30
0.0
  0
SEQEND
  5
4E3
330
4E0
100
AcDbEntity
  8
BEMAßUNG
  0
POLYLINE
  5
4E4
330
1F
100
AcDbEntity
  8
BEMAßUNG
 62
     7
100
AcDb2dPolyline
 66
     1
 10
0.0
 20
0.0
 30
0.0
  0
VERTEX
  5
4E5
330
4E4
100
AcDbEntity
  8
BEMAßUNG
 62
     7
100
AcDbVertex
100
AcDb2dVertex
 10
-121.6663031379862
 20
24.90132242216009
 30
0.0
  0
VERTEX
  5
4E6
330
4E4
100
AcDbEntity
  8
BEMAßUNG
 62
     7
100
AcDbVertex
100
AcDb2dVertex
 10
-121.6663031379862
 20
24.71666530415069
 30
0.0
  0
SEQEND
  5
4E7
330
4E4
100
AcDbEntity
  8
BEMAßUNG
  0
POLYLINE
  5
4E8
330
1F
100
AcDbEntity
  8
BEMAßUNG
 62
     7
100
AcDb2dPolyline
 66
     1
 10
0.0
 20
0.0
 30
0.0
  0
VERTEX
  5
4E9
330
4E8
100
AcDbEntity
  8
BEMAßUNG
 62
     7
100
AcDbVertex
100
AcDb2dVertex
 10
-121.6663031379862
 20
24.90132242216009
 30
0.0
  0
VERTEX
  5
4EA
330
4E8
100
AcDbEntity
  8
BEMAßUNG
 62
     7
100
AcDbVertex
100
AcDb2dVertex
 10
-121.6663031379862
 20
24.71666530415069
 30
0.0
  0
SEQEND
  5
4EB
330
4E8
100
AcDbEntity
  8
BEMAßUNG
  0
POLYLINE
  5
4EC
330
1F
100
AcDbEntity
  8
BEMAßUNG
 62
     7
100
AcDb2dPolyline
 66
     1
 10
0.0
 20
0.0
 30
0.0
  0
VERTEX
  5
4ED
330
4EC
100
AcDbEntity
  8
BEMAßUNG
 62
     7
100
AcDbVertex
100
AcDb2dVertex
 10
-121.6153157248045
 20
24.90132242216009
 30
0.0
  0
VERTEX
  5
4EE
330
4EC
100
AcDbEntity
  8
BEMAßUNG
 62
     7
100
AcDbVertex
100
AcDb2dVertex
 10
-121.6153157248045
 20
24.33081460980272
 30
0.0
  0
SEQEND
  5
4EF
330
4EC
100
AcDbEntity
  8
BEMAßUNG
  0
POLYLINE
  5
4F0
330
1F
100
AcDbEntity
  8
BEMAßUNG
 62
     7
100
AcDb2dPolyline
 66
     1
 10
0.0
 20
0.0
 30
0.0
  0
VERTEX
  5
4F1
330
4F0
100
AcDbEntity
  8
BEMAßUNG
 62
     7
100
AcDbVertex
100
AcDb2dVertex
 10
-121.5646728211713
 20
24.90132242216009
 30
0.0
  0
VERTEX
  5
4F2
330
4F0
100
AcDbEntity
  8
BEMAßUNG
 62
     7
100
AcDbVertex
100
AcDb2dVertex
 10
-121.5646728211713
 20
23.94496391545473
 30
0.0
  0
SEQEND
  5
4F3
330
4F0
100
AcDbEntity
  8
BEMAßUNG
  0
POLYLINE
  5
4F4
330
1F
100
AcDbEntity
  8
BEMAßUNG
 62
     7
100
AcDb2dPolyline
 66
     1
 10
0.0
 20
0.0
 30
0.0
  0
VERTEX
  5
4F5
330
4F4
100
AcDbEntity
  8
BEMAßUNG
 62
     7
100
AcDbVertex
100
AcDb2dVertex
 10
-121.5136854079896
 20
24.90132242216009
 30
0.0
  0
VERTEX
  5
4F6
330
4F4
100
AcDbEntity
  8
BEMAßUNG
 62
     7
100
AcDbVertex
100
AcDb2dVertex
 10
-121.5136854079896
 20
23.55945773065528
 30
0.0
  0
SEQEND
  5
4F7
330
4F4
100
AcDbEntity
  8
BEMAßUNG
  0
POLYLINE
  5
4F8
330
1F
100
AcDbEntity
  8
BEMAßUNG
 62
     7
100
AcDb2dPolyline
 66
     1
 10
0.0
 20
0.0
 30
0.0
  0
VERTEX
  5
4F9
330
4F8
100
AcDbEntity
  8
BEMAßUNG
 62
     7
100
AcDbVertex
100
AcDb2dVertex
 10
-121.463387013905
 20
24.90132242216009
 30
0.0
  0
VERTEX
  5
4FA
330
4F8
100
AcDbEntity
  8
BEMAßUNG
 62
     7
100
AcDbVertex
100
AcDb2dVertex
 10
-121.463387013905
 20
23.17326252675877
 30
0.0
  0
SEQEND
  5
4FB
330
4F8
100
AcDbEntity
  8
BEMAßUNG
  0
POLYLINE
  5
4FC
330
1F
100
AcDbEntity
  8
BEMAßUNG
 62
     7
100
AcDb2dPolyline
 66
     1
 10
0.0
 20
0.0
 30
0.0
  0
VERTEX
  5
4FD
330
4FC
100
AcDbEntity
  8
BEMAßUNG
 62
     7
100
AcDbVertex
100
AcDb2dVertex
 10
-121.4123996007233
 20
24.90132242216009
 30
0.0
  0
VERTEX
  5
4FE
330
4FC
100
AcDbEntity
  8
BEMAßUNG
 62
     7
100
AcDbVertex
100
AcDb2dVertex
 10
-121.4123996007233
 20
22.78741183241079
 30
0.0
  0
SEQEND
  5
4FF
330
4FC
100
AcDbEntity
  8
BEMAßUNG
  0
POLYLINE
  5
500
330
1F
100
AcDbEntity
  8
BEMAßUNG
 62
     7
100
AcDb2dPolyline
 66
     1
 10
0.0
 20
0.0
 30
0.0
  0
VERTEX
  5
501
330
500
100
AcDbEntity
  8
BEMAßUNG
 62
     7
100
AcDbVertex
100
AcDb2dVertex
 10
-121.3617566970901
 20
24.90132242216009
 30
0.0
  0
VERTEX
  5
502
330
500
100
AcDbEntity
  8
BEMAßUNG
 62
     7
100
AcDbVertex
100
AcDb2dVertex
 10
-121.3617566970901
 20
22.40156113806281
 30
0.0
  0
SEQEND
  5
503
330
500
100
AcDbEntity
  8
BEMAßUNG
  0
POLYLINE
  5
504
330
1F
100
AcDbEntity
  8
BEMAßUNG
 62
     7
100
AcDb2dPolyline
 66
     1
 10
0.0
 20
0.0
 30
0.0
  0
VERTEX
  5
505
330
504
100
AcDbEntity
  8
BEMAßUNG
 62
     7
100
AcDbVertex
100
AcDb2dVertex
 10
-111.1783989522401
 20
8.401726614653041
 30
0.0
  0
VERTEX
  5
506
330
504
100
AcDbEntity
  8
BEMAßUNG
 62
     7
100
AcDbVertex
100
AcDb2dVertex
 10
-111.1783989522401
 20
-13.45430365332045
 30
0.0
  0
SEQEND
  5
507
330
504
100
AcDbEntity
  8
BEMAßUNG
  0
POLYLINE
  5
508
330
1F
100
AcDbEntity
  8
BEMAßUNG
 62
     7
100
AcDb2dPolyline
 66
     1
 10
0.0
 20
0.0
 30
0.0
  0
VERTEX
  5
509
330
508
100
AcDbEntity
  8
BEMAßUNG
 62
     7
100
AcDbVertex
100
AcDb2dVertex
 10
-48.1786268325734
 20
13.40193820194465
 30
0.0
  0
VERTEX
  5
50A
330
508
100
AcDbEntity
  8
BEMAßUNG
 62
     7
100
AcDbVertex
100
AcDb2dVertex
 10
-48.1786268325734
 20
-13.45430365332045
 30
0.0
  0
SEQEND
  5
50B
330
508
100
AcDbEntity
  8
BEMAßUNG
  0
POLYLINE
  5
50C
330
1F
100
AcDbEntity
  8
BEMAßUNG
 62
     7
100
AcDb2dPolyline
 66
     1
 10
0.0
 20
0.0
 30
0.0
  0
VERTEX
  5
50D
330
50C
100
AcDbEntity
  8
BEMAßUNG
 62
     7
100
AcDbVertex
100
AcDb2dVertex
 10
-111.1783989522401
 20
-11.4540812145844
 30
0.0
  0
VERTEX
  5
50E
330
50C
100
AcDbEntity
  8
BEMAßUNG
 62
     7
100
AcDbVertex
100
AcDb2dVertex
 10
-48.1786268325734
 20
-11.4540812145844
 30
0.0
  0
SEQEND
  5
50F
330
50C
100
AcDbEntity
  8
BEMAßUNG
  0
POLYLINE
  5
510
330
1F
100
AcDbEntity
  8
BEMAßUNG
 62
     7
100
AcDb2dPolyline
 66
     1
 10
0.0
 20
0.0
 30
0.0
  0
VERTEX
  5
511
330
510
100
AcDbEntity
  8
BEMAßUNG
 62
     7
100
AcDbVertex
100
AcDb2dVertex
 10
-111.1783989522401
 20
-11.4540812145844
 30
0.0
  0
VERTEX
  5
512
330
510
100
AcDbEntity
  8
BEMAßUNG
 62
     7
100
AcDbVertex
100
AcDb2dVertex
 10
-108.6786376681428
 20
-11.78343234297428
 30
0.0
  0
VERTEX
  5
513
330
510
100
AcDbEntity
  8
BEMAßUNG
 62
     7
100
AcDbVertex
100
AcDb2dVertex
 10
-108.6786376681428
 20
-11.12473008619451
 30
0.0
  0
VERTEX
  5
514
330
510
100
AcDbEntity
  8
BEMAßUNG
 62
     7
100
AcDbVertex
100
AcDb2dVertex
 10
-111.1783989522401
 20
-11.4540812145844
 30
0.0
  0
SEQEND
  5
515
330
510
100
AcDbEntity
  8
BEMAßUNG
  0
POLYLINE
  5
516
330
1F
100
AcDbEntity
  8
BEMAßUNG
 62
     7
100
AcDb2dPolyline
 66
     1
 10
0.0
 20
0.0
 30
0.0
  0
VERTEX
  5
517
330
516
100
AcDbEntity
  8
BEMAßUNG
 62
     7
100
AcDbVertex
100
AcDb2dVertex
 10
-108.6786376681428
 20
-11.75862765548048
 30
0.0
  0
VERTEX
  5
518
330
516
100
AcDbEntity
  8
BEMAßUNG
 62
     7
100
AcDbVertex
100
AcDb2dVertex
 10
-108.8632947861522
 20
-11.75862765548048
 30
0.0
  0
SEQEND
  5
519
330
516
100
AcDbEntity
  8
BEMAßUNG
  0
POLYLINE
  5
51A
330
1F
100
AcDbEntity
  8
BEMAßUNG
 62
     7
100
AcDb2dPolyline
 66
     1
 10
0.0
 20
0.0
 30
0.0
  0
VERTEX
  5
51B
330
51A
100
AcDbEntity
  8
BEMAßUNG
 62
     7
100
AcDbVertex
100
AcDb2dVertex
 10
-108.6786376681428
 20
-11.75862765548048
 30
0.0
  0
VERTEX
  5
51C
330
51A
100
AcDbEntity
  8
BEMAßUNG
 62
     7
100
AcDbVertex
100
AcDb2dVertex
 10
-108.8632947861522
 20
-11.75862765548048
 30
0.0
  0
SEQEND
  5
51D
330
51A
100
AcDbEntity
  8
BEMAßUNG
  0
POLYLINE
  5
51E
330
1F
100
AcDbEntity
  8
BEMAßUNG
 62
     7
100
AcDb2dPolyline
 66
     1
 10
0.0
 20
0.0
 30
0.0
  0
VERTEX
  5
51F
330
51E
100
AcDbEntity
  8
BEMAßUNG
 62
     7
100
AcDbVertex
100
AcDb2dVertex
 10
-108.6786376681428
 20
-11.70798475184731
 30
0.0
  0
VERTEX
  5
520
330
51E
100
AcDbEntity
  8
BEMAßUNG
 62
     7
100
AcDbVertex
100
AcDb2dVertex
 10
-109.2488009709517
 20
-11.70798475184731
 30
0.0
  0
SEQEND
  5
521
330
51E
100
AcDbEntity
  8
BEMAßUNG
  0
POLYLINE
  5
522
330
1F
100
AcDbEntity
  8
BEMAßUNG
 62
     7
100
AcDb2dPolyline
 66
     1
 10
0.0
 20
0.0
 30
0.0
  0
VERTEX
  5
523
330
522
100
AcDbEntity
  8
BEMAßUNG
 62
     7
100
AcDbVertex
100
AcDb2dVertex
 10
-108.6786376681428
 20
-11.65734184821414
 30
0.0
  0
VERTEX
  5
524
330
522
100
AcDbEntity
  8
BEMAßUNG
 62
     7
100
AcDbVertex
100
AcDb2dVertex
 10
-109.6349961748482
 20
-11.65734184821414
 30
0.0
  0
SEQEND
  5
525
330
522
100
AcDbEntity
  8
BEMAßUNG
  0
POLYLINE
  5
526
330
1F
100
AcDbEntity
  8
BEMAßUNG
 62
     7
100
AcDb2dPolyline
 66
     1
 10
0.0
 20
0.0
 30
0.0
  0
VERTEX
  5
527
330
526
100
AcDbEntity
  8
BEMAßUNG
 62
     7
100
AcDbVertex
100
AcDb2dVertex
 10
-108.6786376681428
 20
-11.60635443503244
 30
0.0
  0
VERTEX
  5
528
330
526
100
AcDbEntity
  8
BEMAßUNG
 62
     7
100
AcDbVertex
100
AcDb2dVertex
 10
-110.0208468691962
 20
-11.60635443503244
 30
0.0
  0
SEQEND
  5
529
330
526
100
AcDbEntity
  8
BEMAßUNG
  0
POLYLINE
  5
52A
330
1F
100
AcDbEntity
  8
BEMAßUNG
 62
     7
100
AcDb2dPolyline
 66
     1
 10
0.0
 20
0.0
 30
0.0
  0
VERTEX
  5
52B
330
52A
100
AcDbEntity
  8
BEMAßUNG
 62
     7
100
AcDbVertex
100
AcDb2dVertex
 10
-108.6786376681428
 20
-11.55536702185074
 30
0.0
  0
VERTEX
  5
52C
330
52A
100
AcDbEntity
  8
BEMAßUNG
 62
     7
100
AcDbVertex
100
AcDb2dVertex
 10
-110.4066975635442
 20
-11.55536702185074
 30
0.0
  0
SEQEND
  5
52D
330
52A
100
AcDbEntity
  8
BEMAßUNG
  0
POLYLINE
  5
52E
330
1F
100
AcDbEntity
  8
BEMAßUNG
 62
     7
100
AcDb2dPolyline
 66
     1
 10
0.0
 20
0.0
 30
0.0
  0
VERTEX
  5
52F
330
52E
100
AcDbEntity
  8
BEMAßUNG
 62
     7
100
AcDbVertex
100
AcDb2dVertex
 10
-108.6786376681428
 20
-11.50472411821757
 30
0.0
  0
VERTEX
  5
530
330
52E
100
AcDbEntity
  8
BEMAßUNG
 62
     7
100
AcDbVertex
100
AcDb2dVertex
 10
-110.7922037483436
 20
-11.50472411821757
 30
0.0
  0
SEQEND
  5
531
330
52E
100
AcDbEntity
  8
BEMAßUNG
  0
POLYLINE
  5
532
330
1F
100
AcDbEntity
  8
BEMAßUNG
 62
     7
100
AcDb2dPolyline
 66
     1
 10
0.0
 20
0.0
 30
0.0
  0
VERTEX
  5
533
330
532
100
AcDbEntity
  8
BEMAßUNG
 62
     7
100
AcDbVertex
100
AcDb2dVertex
 10
-108.6786376681428
 20
-11.4540812145844
 30
0.0
  0
VERTEX
  5
534
330
532
100
AcDbEntity
  8
BEMAßUNG
 62
     7
100
AcDbVertex
100
AcDb2dVertex
 10
-111.1783989522401
 20
-11.4540812145844
 30
0.0
  0
SEQEND
  5
535
330
532
100
AcDbEntity
  8
BEMAßUNG
  0
POLYLINE
  5
536
330
1F
100
AcDbEntity
  8
BEMAßUNG
 62
     7
100
AcDb2dPolyline
 66
     1
 10
0.0
 20
0.0
 30
0.0
  0
VERTEX
  5
537
330
536
100
AcDbEntity
  8
BEMAßUNG
 62
     7
100
AcDbVertex
100
AcDb2dVertex
 10
-108.6786376681428
 20
-11.14919026413979
 30
0.0
  0
VERTEX
  5
538
330
536
100
AcDbEntity
  8
BEMAßUNG
 62
     7
100
AcDbVertex
100
AcDb2dVertex
 10
-108.8632947861522
 20
-11.14919026413979
 30
0.0
  0
SEQEND
  5
539
330
536
100
AcDbEntity
  8
BEMAßUNG
  0
POLYLINE
  5
53A
330
1F
100
AcDbEntity
  8
BEMAßUNG
 62
     7
100
AcDb2dPolyline
 66
     1
 10
0.0
 20
0.0
 30
0.0
  0
VERTEX
  5
53B
330
53A
100
AcDbEntity
  8
BEMAßUNG
 62
     7
100
AcDbVertex
100
AcDb2dVertex
 10
-108.6786376681428
 20
-11.14919026413979
 30
0.0
  0
VERTEX
  5
53C
330
53A
100
AcDbEntity
  8
BEMAßUNG
 62
     7
100
AcDbVertex
100
AcDb2dVertex
 10
-108.8632947861522
 20
-11.14919026413979
 30
0.0
  0
SEQEND
  5
53D
330
53A
100
AcDbEntity
  8
BEMAßUNG
  0
POLYLINE
  5
53E
330
1F
100
AcDbEntity
  8
BEMAßUNG
 62
     7
100
AcDb2dPolyline
 66
     1
 10
0.0
 20
0.0
 30
0.0
  0
VERTEX
  5
53F
330
53E
100
AcDbEntity
  8
BEMAßUNG
 62
     7
100
AcDbVertex
100
AcDb2dVertex
 10
-108.6786376681428
 20
-11.19983316777296
 30
0.0
  0
VERTEX
  5
540
330
53E
100
AcDbEntity
  8
BEMAßUNG
 62
     7
100
AcDbVertex
100
AcDb2dVertex
 10
-109.2488009709517
 20
-11.19983316777296
 30
0.0
  0
SEQEND
  5
541
330
53E
100
AcDbEntity
  8
BEMAßUNG
  0
POLYLINE
  5
542
330
1F
100
AcDbEntity
  8
BEMAßUNG
 62
     7
100
AcDb2dPolyline
 66
     1
 10
0.0
 20
0.0
 30
0.0
  0
VERTEX
  5
543
330
542
100
AcDbEntity
  8
BEMAßUNG
 62
     7
100
AcDbVertex
100
AcDb2dVertex
 10
-108.6786376681428
 20
-11.25116509050318
 30
0.0
  0
VERTEX
  5
544
330
542
100
AcDbEntity
  8
BEMAßUNG
 62
     7
100
AcDbVertex
100
AcDb2dVertex
 10
-109.6349961748482
 20
-11.25116509050318
 30
0.0
  0
SEQEND
  5
545
330
542
100
AcDbEntity
  8
BEMAßUNG
  0
POLYLINE
  5
546
330
1F
100
AcDbEntity
  8
BEMAßUNG
 62
     7
100
AcDb2dPolyline
 66
     1
 10
0.0
 20
0.0
 30
0.0
  0
VERTEX
  5
547
330
546
100
AcDbEntity
  8
BEMAßUNG
 62
     7
100
AcDbVertex
100
AcDb2dVertex
 10
-108.6786376681428
 20
-11.30215250368488
 30
0.0
  0
VERTEX
  5
548
330
546
100
AcDbEntity
  8
BEMAßUNG
 62
     7
100
AcDbVertex
100
AcDb2dVertex
 10
-110.0208468691962
 20
-11.30215250368488
 30
0.0
  0
SEQEND
  5
549
330
546
100
AcDbEntity
  8
BEMAßUNG
  0
POLYLINE
  5
54A
330
1F
100
AcDbEntity
  8
BEMAßUNG
 62
     7
100
AcDb2dPolyline
 66
     1
 10
0.0
 20
0.0
 30
0.0
  0
VERTEX
  5
54B
330
54A
100
AcDbEntity
  8
BEMAßUNG
 62
     7
100
AcDbVertex
100
AcDb2dVertex
 10
-108.6786376681428
 20
-11.35279540731805
 30
0.0
  0
VERTEX
  5
54C
330
54A
100
AcDbEntity
  8
BEMAßUNG
 62
     7
100
AcDbVertex
100
AcDb2dVertex
 10
-110.4066975635442
 20
-11.35279540731805
 30
0.0
  0
SEQEND
  5
54D
330
54A
100
AcDbEntity
  8
BEMAßUNG
  0
POLYLINE
  5
54E
330
1F
100
AcDbEntity
  8
BEMAßUNG
 62
     7
100
AcDb2dPolyline
 66
     1
 10
0.0
 20
0.0
 30
0.0
  0
VERTEX
  5
54F
330
54E
100
AcDbEntity
  8
BEMAßUNG
 62
     7
100
AcDbVertex
100
AcDb2dVertex
 10
-108.6786376681428
 20
-11.40343831095122
 30
0.0
  0
VERTEX
  5
550
330
54E
100
AcDbEntity
  8
BEMAßUNG
 62
     7
100
AcDbVertex
100
AcDb2dVertex
 10
-110.7922037483436
 20
-11.40343831095122
 30
0.0
  0
SEQEND
  5
551
330
54E
100
AcDbEntity
  8
BEMAßUNG
  0
POLYLINE
  5
552
330
1F
100
AcDbEntity
  8
BEMAßUNG
 62
     7
100
AcDb2dPolyline
 66
     1
 10
0.0
 20
0.0
 30
0.0
  0
VERTEX
  5
553
330
552
100
AcDbEntity
  8
BEMAßUNG
 62
     7
100
AcDbVertex
100
AcDb2dVertex
 10
-108.6786376681428
 20
-11.4540812145844
 30
0.0
  0
VERTEX
  5
554
330
552
100
AcDbEntity
  8
BEMAßUNG
 62
     7
100
AcDbVertex
100
AcDb2dVertex
 10
-111.1783989522401
 20
-11.4540812145844
 30
0.0
  0
SEQEND
  5
555
330
552
100
AcDbEntity
  8
BEMAßUNG
  0
POLYLINE
  5
556
330
1F
100
AcDbEntity
  8
BEMAßUNG
 62
     7
100
AcDb2dPolyline
 66
     1
 10
0.0
 20
0.0
 30
0.0
  0
VERTEX
  5
557
330
556
100
AcDbEntity
  8
BEMAßUNG
 62
     7
100
AcDbVertex
100
AcDb2dVertex
 10
-48.1786268325734
 20
-11.4540812145844
 30
0.0
  0
VERTEX
  5
558
330
556
100
AcDbEntity
  8
BEMAßUNG
 62
     7
100
AcDbVertex
100
AcDb2dVertex
 10
-50.67804360712216
 20
-11.12473008619451
 30
0.0
  0
VERTEX
  5
559
330
556
100
AcDbEntity
  8
BEMAßUNG
 62
     7
100
AcDbVertex
100
AcDb2dVertex
 10
-50.67804360712216
 20
-11.78343234297428
 30
0.0
  0
VERTEX
  5
55A
330
556
100
AcDbEntity
  8
BEMAßUNG
 62
     7
100
AcDbVertex
100
AcDb2dVertex
 10
-48.1786268325734
 20
-11.4540812145844
 30
0.0
  0
SEQEND
  5
55B
330
556
100
AcDbEntity
  8
BEMAßUNG
  0
POLYLINE
  5
55C
330
1F
100
AcDbEntity
  8
BEMAßUNG
 62
     7
100
AcDb2dPolyline
 66
     1
 10
0.0
 20
0.0
 30
0.0
  0
VERTEX
  5
55D
330
55C
100
AcDbEntity
  8
BEMAßUNG
 62
     7
100
AcDbVertex
100
AcDb2dVertex
 10
-50.67804360712216
 20
-11.14919026413979
 30
0.0
  0
VERTEX
  5
55E
330
55C
100
AcDbEntity
  8
BEMAßUNG
 62
     7
100
AcDbVertex
100
AcDb2dVertex
 10
-50.49373099866129
 20
-11.14919026413979
 30
0.0
  0
SEQEND
  5
55F
330
55C
100
AcDbEntity
  8
BEMAßUNG
  0
POLYLINE
  5
560
330
1F
100
AcDbEntity
  8
BEMAßUNG
 62
     7
100
AcDb2dPolyline
 66
     1
 10
0.0
 20
0.0
 30
0.0
  0
VERTEX
  5
561
330
560
100
AcDbEntity
  8
BEMAßUNG
 62
     7
100
AcDbVertex
100
AcDb2dVertex
 10
-50.67804360712216
 20
-11.14919026413979
 30
0.0
  0
VERTEX
  5
562
330
560
100
AcDbEntity
  8
BEMAßUNG
 62
     7
100
AcDbVertex
100
AcDb2dVertex
 10
-50.49373099866129
 20
-11.14919026413979
 30
0.0
  0
SEQEND
  5
563
330
560
100
AcDbEntity
  8
BEMAßUNG
  0
POLYLINE
  5
564
330
1F
100
AcDbEntity
  8
BEMAßUNG
 62
     7
100
AcDb2dPolyline
 66
     1
 10
0.0
 20
0.0
 30
0.0
  0
VERTEX
  5
565
330
564
100
AcDbEntity
  8
BEMAßUNG
 62
     7
100
AcDbVertex
100
AcDb2dVertex
 10
-50.67804360712216
 20
-11.19983316777296
 30
0.0
  0
VERTEX
  5
566
330
564
100
AcDbEntity
  8
BEMAßUNG
 62
     7
100
AcDbVertex
100
AcDb2dVertex
 10
-50.10788030431331
 20
-11.19983316777296
 30
0.0
  0
SEQEND
  5
567
330
564
100
AcDbEntity
  8
BEMAßUNG
  0
POLYLINE
  5
568
330
1F
100
AcDbEntity
  8
BEMAßUNG
 62
     7
100
AcDb2dPolyline
 66
     1
 10
0.0
 20
0.0
 30
0.0
  0
VERTEX
  5
569
330
568
100
AcDbEntity
  8
BEMAßUNG
 62
     7
100
AcDbVertex
100
AcDb2dVertex
 10
-50.67804360712216
 20
-11.25116509050318
 30
0.0
  0
VERTEX
  5
56A
330
568
100
AcDbEntity
  8
BEMAßUNG
 62
     7
100
AcDbVertex
100
AcDb2dVertex
 10
-49.72134059086828
 20
-11.25116509050318
 30
0.0
  0
SEQEND
  5
56B
330
568
100
AcDbEntity
  8
BEMAßUNG
  0
POLYLINE
  5
56C
330
1F
100
AcDbEntity
  8
BEMAßUNG
 62
     7
100
AcDb2dPolyline
 66
     1
 10
0.0
 20
0.0
 30
0.0
  0
VERTEX
  5
56D
330
56C
100
AcDbEntity
  8
BEMAßUNG
 62
     7
100
AcDbVertex
100
AcDb2dVertex
 10
-50.67804360712216
 20
-11.30215250368488
 30
0.0
  0
VERTEX
  5
56E
330
56C
100
AcDbEntity
  8
BEMAßUNG
 62
     7
100
AcDbVertex
100
AcDb2dVertex
 10
-49.33617891561735
 20
-11.30215250368488
 30
0.0
  0
SEQEND
  5
56F
330
56C
100
AcDbEntity
  8
BEMAßUNG
  0
POLYLINE
  5
570
330
1F
100
AcDbEntity
  8
BEMAßUNG
 62
     7
100
AcDb2dPolyline
 66
     1
 10
0.0
 20
0.0
 30
0.0
  0
VERTEX
  5
571
330
570
100
AcDbEntity
  8
BEMAßUNG
 62
     7
100
AcDbVertex
100
AcDb2dVertex
 10
-50.67804360712216
 20
-11.35279540731805
 30
0.0
  0
VERTEX
  5
572
330
570
100
AcDbEntity
  8
BEMAßUNG
 62
     7
100
AcDbVertex
100
AcDb2dVertex
 10
-48.94963920217231
 20
-11.35279540731805
 30
0.0
  0
SEQEND
  5
573
330
570
100
AcDbEntity
  8
BEMAßUNG
  0
POLYLINE
  5
574
330
1F
100
AcDbEntity
  8
BEMAßUNG
 62
     7
100
AcDb2dPolyline
 66
     1
 10
0.0
 20
0.0
 30
0.0
  0
VERTEX
  5
575
330
574
100
AcDbEntity
  8
BEMAßUNG
 62
     7
100
AcDbVertex
100
AcDb2dVertex
 10
-50.67804360712216
 20
-11.40343831095122
 30
0.0
  0
VERTEX
  5
576
330
574
100
AcDbEntity
  8
BEMAßUNG
 62
     7
100
AcDbVertex
100
AcDb2dVertex
 10
-48.56447752692138
 20
-11.40343831095122
 30
0.0
  0
SEQEND
  5
577
330
574
100
AcDbEntity
  8
BEMAßUNG
  0
POLYLINE
  5
578
330
1F
100
AcDbEntity
  8
BEMAßUNG
 62
     7
100
AcDb2dPolyline
 66
     1
 10
0.0
 20
0.0
 30
0.0
  0
VERTEX
  5
579
330
578
100
AcDbEntity
  8
BEMAßUNG
 62
     7
100
AcDbVertex
100
AcDb2dVertex
 10
-50.67804360712216
 20
-11.4540812145844
 30
0.0
  0
VERTEX
  5
57A
330
578
100
AcDbEntity
  8
BEMAßUNG
 62
     7
100
AcDbVertex
100
AcDb2dVertex
 10
-48.1786268325734
 20
-11.4540812145844
 30
0.0
  0
SEQEND
  5
57B
330
578
100
AcDbEntity
  8
BEMAßUNG
  0
POLYLINE
  5
57C
330
1F
100
AcDbEntity
  8
BEMAßUNG
 62
     7
100
AcDb2dPolyline
 66
     1
 10
0.0
 20
0.0
 30
0.0
  0
VERTEX
  5
57D
330
57C
100
AcDbEntity
  8
BEMAßUNG
 62
     7
100
AcDbVertex
100
AcDb2dVertex
 10
-50.67804360712216
 20
-11.75862765548048
 30
0.0
  0
VERTEX
  5
57E
330
57C
100
AcDbEntity
  8
BEMAßUNG
 62
     7
100
AcDbVertex
100
AcDb2dVertex
 10
-50.49373099866129
 20
-11.75862765548048
 30
0.0
  0
SEQEND
  5
57F
330
57C
100
AcDbEntity
  8
BEMAßUNG
  0
POLYLINE
  5
580
330
1F
100
AcDbEntity
  8
BEMAßUNG
 62
     7
100
AcDb2dPolyline
 66
     1
 10
0.0
 20
0.0
 30
0.0
  0
VERTEX
  5
581
330
580
100
AcDbEntity
  8
BEMAßUNG
 62
     7
100
AcDbVertex
100
AcDb2dVertex
 10
-50.67804360712216
 20
-11.75862765548048
 30
0.0
  0
VERTEX
  5
582
330
580
100
AcDbEntity
  8
BEMAßUNG
 62
     7
100
AcDbVertex
100
AcDb2dVertex
 10
-50.49373099866129
 20
-11.75862765548048
 30
0.0
  0
SEQEND
  5
583
330
580
100
AcDbEntity
  8
BEMAßUNG
  0
POLYLINE
  5
584
330
1F
100
AcDbEntity
  8
BEMAßUNG
 62
     7
100
AcDb2dPolyline
 66
     1
 10
0.0
 20
0.0
 30
0.0
  0
VERTEX
  5
585
330
584
100
AcDbEntity
  8
BEMAßUNG
 62
     7
100
AcDbVertex
100
AcDb2dVertex
 10
-50.67804360712216
 20
-11.70798475184731
 30
0.0
  0
VERTEX
  5
586
330
584
100
AcDbEntity
  8
BEMAßUNG
 62
     7
100
AcDbVertex
100
AcDb2dVertex
 10
-50.10788030431331
 20
-11.70798475184731
 30
0.0
  0
SEQEND
  5
587
330
584
100
AcDbEntity
  8
BEMAßUNG
  0
POLYLINE
  5
588
330
1F
100
AcDbEntity
  8
BEMAßUNG
 62
     7
100
AcDb2dPolyline
 66
     1
 10
0.0
 20
0.0
 30
0.0
  0
VERTEX
  5
589
330
588
100
AcDbEntity
  8
BEMAßUNG
 62
     7
100
AcDbVertex
100
AcDb2dVertex
 10
-50.67804360712216
 20
-11.65734184821414
 30
0.0
  0
VERTEX
  5
58A
330
588
100
AcDbEntity
  8
BEMAßUNG
 62
     7
100
AcDbVertex
100
AcDb2dVertex
 10
-49.72134059086828
 20
-11.65734184821414
 30
0.0
  0
SEQEND
  5
58B
330
588
100
AcDbEntity
  8
BEMAßUNG
  0
POLYLINE
  5
58C
330
1F
100
AcDbEntity
  8
BEMAßUNG
 62
     7
100
AcDb2dPolyline
 66
     1
 10
0.0
 20
0.0
 30
0.0
  0
VERTEX
  5
58D
330
58C
100
AcDbEntity
  8
BEMAßUNG
 62
     7
100
AcDbVertex
100
AcDb2dVertex
 10
-50.67804360712216
 20
-11.60635443503244
 30
0.0
  0
VERTEX
  5
58E
330
58C
100
AcDbEntity
  8
BEMAßUNG
 62
     7
100
AcDbVertex
100
AcDb2dVertex
 10
-49.33617891561735
 20
-11.60635443503244
 30
0.0
  0
SEQEND
  5
58F
330
58C
100
AcDbEntity
  8
BEMAßUNG
  0
POLYLINE
  5
590
330
1F
100
AcDbEntity
  8
BEMAßUNG
 62
     7
100
AcDb2dPolyline
 66
     1
 10
0.0
 20
0.0
 30
0.0
  0
VERTEX
  5
591
330
590
100
AcDbEntity
  8
BEMAßUNG
 62
     7
100
AcDbVertex
100
AcDb2dVertex
 10
-50.67804360712216
 20
-11.55536702185074
 30
0.0
  0
VERTEX
  5
592
330
590
100
AcDbEntity
  8
BEMAßUNG
 62
     7
100
AcDbVertex
100
AcDb2dVertex
 10
-48.94963920217231
 20
-11.55536702185074
 30
0.0
  0
SEQEND
  5
593
330
590
100
AcDbEntity
  8
BEMAßUNG
  0
POLYLINE
  5
594
330
1F
100
AcDbEntity
  8
BEMAßUNG
 62
     7
100
AcDb2dPolyline
 66
     1
 10
0.0
 20
0.0
 30
0.0
  0
VERTEX
  5
595
330
594
100
AcDbEntity
  8
BEMAßUNG
 62
     7
100
AcDbVertex
100
AcDb2dVertex
 10
-50.67804360712216
 20
-11.50472411821757
 30
0.0
  0
VERTEX
  5
596
330
594
100
AcDbEntity
  8
BEMAßUNG
 62
     7
100
AcDbVertex
100
AcDb2dVertex
 10
-48.56447752692138
 20
-11.50472411821757
 30
0.0
  0
SEQEND
  5
597
330
594
100
AcDbEntity
  8
BEMAßUNG
  0
POLYLINE
  5
598
330
1F
100
AcDbEntity
  8
BEMAßUNG
 62
     7
100
AcDb2dPolyline
 66
     1
 10
0.0
 20
0.0
 30
0.0
  0
VERTEX
  5
599
330
598
100
AcDbEntity
  8
BEMAßUNG
 62
     7
100
AcDbVertex
100
AcDb2dVertex
 10
-50.67804360712216
 20
-11.4540812145844
 30
0.0
  0
VERTEX
  5
59A
330
598
100
AcDbEntity
  8
BEMAßUNG
 62
     7
100
AcDbVertex
100
AcDb2dVertex
 10
-48.1786268325734
 20
-11.4540812145844
 30
0.0
  0
SEQEND
  5
59B
330
598
100
AcDbEntity
  8
BEMAßUNG
  0
POLYLINE
  5
59C
330
1F
100
AcDbEntity
  8
BEMAßUNG
 62
     7
100
AcDb2dPolyline
 66
     1
 10
0.0
 20
0.0
 30
0.0
  0
VERTEX
  5
59D
330
59C
100
AcDbEntity
  8
BEMAßUNG
 62
     7
100
AcDbVertex
100
AcDb2dVertex
 10
-106.1781873649485
 20
8.401726614653041
 30
0.0
  0
VERTEX
  5
59E
330
59C
100
AcDbEntity
  8
BEMAßUNG
 62
     7
100
AcDbVertex
100
AcDb2dVertex
 10
-106.1781873649485
 20
-3.54827609503307
 30
0.0
  0
SEQEND
  5
59F
330
59C
100
AcDbEntity
  8
BEMAßUNG
  0
POLYLINE
  5
5A0
330
1F
100
AcDbEntity
  8
BEMAßUNG
 62
     7
100
AcDb2dPolyline
 66
     1
 10
0.0
 20
0.0
 30
0.0
  0
VERTEX
  5
5A1
330
5A0
100
AcDbEntity
  8
BEMAßUNG
 62
     7
100
AcDbVertex
100
AcDb2dVertex
 10
-106.1781873649485
 20
-1.547709146748489
 30
0.0
  0
VERTEX
  5
5A2
330
5A0
100
AcDbEntity
  8
BEMAßUNG
 62
     7
100
AcDbVertex
100
AcDb2dVertex
 10
-48.1786268325734
 20
-1.547709146748489
 30
0.0
  0
SEQEND
  5
5A3
330
5A0
100
AcDbEntity
  8
BEMAßUNG
  0
POLYLINE
  5
5A4
330
1F
100
AcDbEntity
  8
BEMAßUNG
 62
     7
100
AcDb2dPolyline
 66
     1
 10
0.0
 20
0.0
 30
0.0
  0
VERTEX
  5
5A5
330
5A4
100
AcDbEntity
  8
BEMAßUNG
 62
     7
100
AcDbVertex
100
AcDb2dVertex
 10
-106.1781873649485
 20
-1.547709146748489
 30
0.0
  0
VERTEX
  5
5A6
330
5A4
100
AcDbEntity
  8
BEMAßUNG
 62
     7
100
AcDbVertex
100
AcDb2dVertex
 10
-103.6784260808512
 20
-1.877060275138374
 30
0.0
  0
VERTEX
  5
5A7
330
5A4
100
AcDbEntity
  8
BEMAßUNG
 62
     7
100
AcDbVertex
100
AcDb2dVertex
 10
-103.6784260808512
 20
-1.21870252790713
 30
0.0
  0
VERTEX
  5
5A8
330
5A4
100
AcDbEntity
  8
BEMAßUNG
 62
     7
100
AcDbVertex
100
AcDb2dVertex
 10
-106.1781873649485
 20
-1.547709146748489
 30
0.0
  0
SEQEND
  5
5A9
330
5A4
100
AcDbEntity
  8
BEMAßUNG
  0
POLYLINE
  5
5AA
330
1F
100
AcDbEntity
  8
BEMAßUNG
 62
     7
100
AcDb2dPolyline
 66
     1
 10
0.0
 20
0.0
 30
0.0
  0
VERTEX
  5
5AB
330
5AA
100
AcDbEntity
  8
BEMAßUNG
 62
     7
100
AcDbVertex
100
AcDb2dVertex
 10
-103.6784260808512
 20
-1.8526000971931
 30
0.0
  0
VERTEX
  5
5AC
330
5AA
100
AcDbEntity
  8
BEMAßUNG
 62
     7
100
AcDbVertex
100
AcDb2dVertex
 10
-103.8634277084091
 20
-1.8526000971931
 30
0.0
  0
SEQEND
  5
5AD
330
5AA
100
AcDbEntity
  8
BEMAßUNG
  0
POLYLINE
  5
5AE
330
1F
100
AcDbEntity
  8
BEMAßUNG
 62
     7
100
AcDb2dPolyline
 66
     1
 10
0.0
 20
0.0
 30
0.0
  0
VERTEX
  5
5AF
330
5AE
100
AcDbEntity
  8
BEMAßUNG
 62
     7
100
AcDbVertex
100
AcDb2dVertex
 10
-103.6784260808512
 20
-1.8526000971931
 30
0.0
  0
VERTEX
  5
5B0
330
5AE
100
AcDbEntity
  8
BEMAßUNG
 62
     7
100
AcDbVertex
100
AcDb2dVertex
 10
-103.8634277084091
 20
-1.8526000971931
 30
0.0
  0
SEQEND
  5
5B1
330
5AE
100
AcDbEntity
  8
BEMAßUNG
  0
POLYLINE
  5
5B2
330
1F
100
AcDbEntity
  8
BEMAßUNG
 62
     7
100
AcDb2dPolyline
 66
     1
 10
0.0
 20
0.0
 30
0.0
  0
VERTEX
  5
5B3
330
5B2
100
AcDbEntity
  8
BEMAßUNG
 62
     7
100
AcDbVertex
100
AcDb2dVertex
 10
-103.6784260808512
 20
-1.801957193559927
 30
0.0
  0
VERTEX
  5
5B4
330
5B2
100
AcDbEntity
  8
BEMAßUNG
 62
     7
100
AcDbVertex
100
AcDb2dVertex
 10
-104.2489338932086
 20
-1.801957193559927
 30
0.0
  0
SEQEND
  5
5B5
330
5B2
100
AcDbEntity
  8
BEMAßUNG
  0
POLYLINE
  5
5B6
330
1F
100
AcDbEntity
  8
BEMAßUNG
 62
     7
100
AcDb2dPolyline
 66
     1
 10
0.0
 20
0.0
 30
0.0
  0
VERTEX
  5
5B7
330
5B6
100
AcDbEntity
  8
BEMAßUNG
 62
     7
100
AcDbVertex
100
AcDb2dVertex
 10
-103.6784260808512
 20
-1.75096978037823
 30
0.0
  0
VERTEX
  5
5B8
330
5B6
100
AcDbEntity
  8
BEMAßUNG
 62
     7
100
AcDbVertex
100
AcDb2dVertex
 10
-104.6347845875566
 20
-1.75096978037823
 30
0.0
  0
SEQEND
  5
5B9
330
5B6
100
AcDbEntity
  8
BEMAßUNG
  0
POLYLINE
  5
5BA
330
1F
100
AcDbEntity
  8
BEMAßUNG
 62
     7
100
AcDb2dPolyline
 66
     1
 10
0.0
 20
0.0
 30
0.0
  0
VERTEX
  5
5BB
330
5BA
100
AcDbEntity
  8
BEMAßUNG
 62
     7
100
AcDbVertex
100
AcDb2dVertex
 10
-103.6784260808512
 20
-1.700326876745057
 30
0.0
  0
VERTEX
  5
5BC
330
5BA
100
AcDbEntity
  8
BEMAßUNG
 62
     7
100
AcDbVertex
100
AcDb2dVertex
 10
-105.0209797914531
 20
-1.700326876745057
 30
0.0
  0
SEQEND
  5
5BD
330
5BA
100
AcDbEntity
  8
BEMAßUNG
  0
POLYLINE
  5
5BE
330
1F
100
AcDbEntity
  8
BEMAßUNG
 62
     7
100
AcDb2dPolyline
 66
     1
 10
0.0
 20
0.0
 30
0.0
  0
VERTEX
  5
5BF
330
5BE
100
AcDbEntity
  8
BEMAßUNG
 62
     7
100
AcDbVertex
100
AcDb2dVertex
 10
-103.6784260808512
 20
-1.649683973111885
 30
0.0
  0
VERTEX
  5
5C0
330
5BE
100
AcDbEntity
  8
BEMAßUNG
 62
     7
100
AcDbVertex
100
AcDb2dVertex
 10
-105.4064859762526
 20
-1.649683973111885
 30
0.0
  0
SEQEND
  5
5C1
330
5BE
100
AcDbEntity
  8
BEMAßUNG
  0
POLYLINE
  5
5C2
330
1F
100
AcDbEntity
  8
BEMAßUNG
 62
     7
100
AcDb2dPolyline
 66
     1
 10
0.0
 20
0.0
 30
0.0
  0
VERTEX
  5
5C3
330
5C2
100
AcDbEntity
  8
BEMAßUNG
 62
     7
100
AcDbVertex
100
AcDb2dVertex
 10
-103.6784260808512
 20
-1.598696559930187
 30
0.0
  0
VERTEX
  5
5C4
330
5C2
100
AcDbEntity
  8
BEMAßUNG
 62
     7
100
AcDbVertex
100
AcDb2dVertex
 10
-105.7923366706005
 20
-1.598696559930187
 30
0.0
  0
SEQEND
  5
5C5
330
5C2
100
AcDbEntity
  8
BEMAßUNG
  0
POLYLINE
  5
5C6
330
1F
100
AcDbEntity
  8
BEMAßUNG
 62
     7
100
AcDb2dPolyline
 66
     1
 10
0.0
 20
0.0
 30
0.0
  0
VERTEX
  5
5C7
330
5C6
100
AcDbEntity
  8
BEMAßUNG
 62
     7
100
AcDbVertex
100
AcDb2dVertex
 10
-103.6784260808512
 20
-1.547709146748489
 30
0.0
  0
VERTEX
  5
5C8
330
5C6
100
AcDbEntity
  8
BEMAßUNG
 62
     7
100
AcDbVertex
100
AcDb2dVertex
 10
-106.1781873649485
 20
-1.547709146748489
 30
0.0
  0
SEQEND
  5
5C9
330
5C6
100
AcDbEntity
  8
BEMAßUNG
  0
POLYLINE
  5
5CA
330
1F
100
AcDbEntity
  8
BEMAßUNG
 62
     7
100
AcDb2dPolyline
 66
     1
 10
0.0
 20
0.0
 30
0.0
  0
VERTEX
  5
5CB
330
5CA
100
AcDbEntity
  8
BEMAßUNG
 62
     7
100
AcDbVertex
100
AcDb2dVertex
 10
-103.6784260808512
 20
-1.243507215400929
 30
0.0
  0
VERTEX
  5
5CC
330
5CA
100
AcDbEntity
  8
BEMAßUNG
 62
     7
100
AcDbVertex
100
AcDb2dVertex
 10
-103.8634277084091
 20
-1.243507215400929
 30
0.0
  0
SEQEND
  5
5CD
330
5CA
100
AcDbEntity
  8
BEMAßUNG
  0
POLYLINE
  5
5CE
330
1F
100
AcDbEntity
  8
BEMAßUNG
 62
     7
100
AcDb2dPolyline
 66
     1
 10
0.0
 20
0.0
 30
0.0
  0
VERTEX
  5
5CF
330
5CE
100
AcDbEntity
  8
BEMAßUNG
 62
     7
100
AcDbVertex
100
AcDb2dVertex
 10
-103.6784260808512
 20
-1.243507215400929
 30
0.0
  0
VERTEX
  5
5D0
330
5CE
100
AcDbEntity
  8
BEMAßUNG
 62
     7
100
AcDbVertex
100
AcDb2dVertex
 10
-103.8634277084091
 20
-1.243507215400929
 30
0.0
  0
SEQEND
  5
5D1
330
5CE
100
AcDbEntity
  8
BEMAßUNG
  0
POLYLINE
  5
5D2
330
1F
100
AcDbEntity
  8
BEMAßUNG
 62
     7
100
AcDb2dPolyline
 66
     1
 10
0.0
 20
0.0
 30
0.0
  0
VERTEX
  5
5D3
330
5D2
100
AcDbEntity
  8
BEMAßUNG
 62
     7
100
AcDbVertex
100
AcDb2dVertex
 10
-103.6784260808512
 20
-1.294494628582626
 30
0.0
  0
VERTEX
  5
5D4
330
5D2
100
AcDbEntity
  8
BEMAßUNG
 62
     7
100
AcDbVertex
100
AcDb2dVertex
 10
-104.2489338932086
 20
-1.294494628582626
 30
0.0
  0
SEQEND
  5
5D5
330
5D2
100
AcDbEntity
  8
BEMAßUNG
  0
POLYLINE
  5
5D6
330
1F
100
AcDbEntity
  8
BEMAßUNG
 62
     7
100
AcDb2dPolyline
 66
     1
 10
0.0
 20
0.0
 30
0.0
  0
VERTEX
  5
5D7
330
5D6
100
AcDbEntity
  8
BEMAßUNG
 62
     7
100
AcDbVertex
100
AcDb2dVertex
 10
-103.6784260808512
 20
-1.345137532215799
 30
0.0
  0
VERTEX
  5
5D8
330
5D6
100
AcDbEntity
  8
BEMAßUNG
 62
     7
100
AcDbVertex
100
AcDb2dVertex
 10
-104.6347845875566
 20
-1.345137532215799
 30
0.0
  0
SEQEND
  5
5D9
330
5D6
100
AcDbEntity
  8
BEMAßUNG
  0
POLYLINE
  5
5DA
330
1F
100
AcDbEntity
  8
BEMAßUNG
 62
     7
100
AcDb2dPolyline
 66
     1
 10
0.0
 20
0.0
 30
0.0
  0
VERTEX
  5
5DB
330
5DA
100
AcDbEntity
  8
BEMAßUNG
 62
     7
100
AcDbVertex
100
AcDb2dVertex
 10
-103.6784260808512
 20
-1.395435926300447
 30
0.0
  0
VERTEX
  5
5DC
330
5DA
100
AcDbEntity
  8
BEMAßUNG
 62
     7
100
AcDbVertex
100
AcDb2dVertex
 10
-105.0209797914531
 20
-1.395435926300447
 30
0.0
  0
SEQEND
  5
5DD
330
5DA
100
AcDbEntity
  8
BEMAßUNG
  0
POLYLINE
  5
5DE
330
1F
100
AcDbEntity
  8
BEMAßUNG
 62
     7
100
AcDb2dPolyline
 66
     1
 10
0.0
 20
0.0
 30
0.0
  0
VERTEX
  5
5DF
330
5DE
100
AcDbEntity
  8
BEMAßUNG
 62
     7
100
AcDbVertex
100
AcDb2dVertex
 10
-103.6784260808512
 20
-1.446423339482144
 30
0.0
  0
VERTEX
  5
5E0
330
5DE
100
AcDbEntity
  8
BEMAßUNG
 62
     7
100
AcDbVertex
100
AcDb2dVertex
 10
-105.4064859762526
 20
-1.446423339482144
 30
0.0
  0
SEQEND
  5
5E1
330
5DE
100
AcDbEntity
  8
BEMAßUNG
  0
POLYLINE
  5
5E2
330
1F
100
AcDbEntity
  8
BEMAßUNG
 62
     7
100
AcDb2dPolyline
 66
     1
 10
0.0
 20
0.0
 30
0.0
  0
VERTEX
  5
5E3
330
5E2
100
AcDbEntity
  8
BEMAßUNG
 62
     7
100
AcDbVertex
100
AcDb2dVertex
 10
-103.6784260808512
 20
-1.497066243115317
 30
0.0
  0
VERTEX
  5
5E4
330
5E2
100
AcDbEntity
  8
BEMAßUNG
 62
     7
100
AcDbVertex
100
AcDb2dVertex
 10
-105.7923366706005
 20
-1.497066243115317
 30
0.0
  0
SEQEND
  5
5E5
330
5E2
100
AcDbEntity
  8
BEMAßUNG
  0
POLYLINE
  5
5E6
330
1F
100
AcDbEntity
  8
BEMAßUNG
 62
     7
100
AcDb2dPolyline
 66
     1
 10
0.0
 20
0.0
 30
0.0
  0
VERTEX
  5
5E7
330
5E6
100
AcDbEntity
  8
BEMAßUNG
 62
     7
100
AcDbVertex
100
AcDb2dVertex
 10
-103.6784260808512
 20
-1.547709146748489
 30
0.0
  0
VERTEX
  5
5E8
330
5E6
100
AcDbEntity
  8
BEMAßUNG
 62
     7
100
AcDbVertex
100
AcDb2dVertex
 10
-106.1781873649485
 20
-1.547709146748489
 30
0.0
  0
SEQEND
  5
5E9
330
5E6
100
AcDbEntity
  8
BEMAßUNG
  0
POLYLINE
  5
5EA
330
1F
100
AcDbEntity
  8
BEMAßUNG
 62
     7
100
AcDb2dPolyline
 66
     1
 10
0.0
 20
0.0
 30
0.0
  0
VERTEX
  5
5EB
330
5EA
100
AcDbEntity
  8
BEMAßUNG
 62
     7
100
AcDbVertex
100
AcDb2dVertex
 10
-48.1786268325734
 20
-1.547709146748489
 30
0.0
  0
VERTEX
  5
5EC
330
5EA
100
AcDbEntity
  8
BEMAßUNG
 62
     7
100
AcDbVertex
100
AcDb2dVertex
 10
-50.67804360712216
 20
-1.21870252790713
 30
0.0
  0
VERTEX
  5
5ED
330
5EA
100
AcDbEntity
  8
BEMAßUNG
 62
     7
100
AcDbVertex
100
AcDb2dVertex
 10
-50.67804360712216
 20
-1.877060275138374
 30
0.0
  0
VERTEX
  5
5EE
330
5EA
100
AcDbEntity
  8
BEMAßUNG
 62
     7
100
AcDbVertex
100
AcDb2dVertex
 10
-48.1786268325734
 20
-1.547709146748489
 30
0.0
  0
SEQEND
  5
5EF
330
5EA
100
AcDbEntity
  8
BEMAßUNG
  0
POLYLINE
  5
5F0
330
1F
100
AcDbEntity
  8
BEMAßUNG
 62
     7
100
AcDb2dPolyline
 66
     1
 10
0.0
 20
0.0
 30
0.0
  0
VERTEX
  5
5F1
330
5F0
100
AcDbEntity
  8
BEMAßUNG
 62
     7
100
AcDbVertex
100
AcDb2dVertex
 10
-50.67804360712216
 20
-1.243507215400929
 30
0.0
  0
VERTEX
  5
5F2
330
5F0
100
AcDbEntity
  8
BEMAßUNG
 62
     7
100
AcDbVertex
100
AcDb2dVertex
 10
-50.49373099866129
 20
-1.243507215400929
 30
0.0
  0
SEQEND
  5
5F3
330
5F0
100
AcDbEntity
  8
BEMAßUNG
  0
POLYLINE
  5
5F4
330
1F
100
AcDbEntity
  8
BEMAßUNG
 62
     7
100
AcDb2dPolyline
 66
     1
 10
0.0
 20
0.0
 30
0.0
  0
VERTEX
  5
5F5
330
5F4
100
AcDbEntity
  8
BEMAßUNG
 62
     7
100
AcDbVertex
100
AcDb2dVertex
 10
-50.67804360712216
 20
-1.243507215400929
 30
0.0
  0
VERTEX
  5
5F6
330
5F4
100
AcDbEntity
  8
BEMAßUNG
 62
     7
100
AcDbVertex
100
AcDb2dVertex
 10
-50.49373099866129
 20
-1.243507215400929
 30
0.0
  0
SEQEND
  5
5F7
330
5F4
100
AcDbEntity
  8
BEMAßUNG
  0
POLYLINE
  5
5F8
330
1F
100
AcDbEntity
  8
BEMAßUNG
 62
     7
100
AcDb2dPolyline
 66
     1
 10
0.0
 20
0.0
 30
0.0
  0
VERTEX
  5
5F9
330
5F8
100
AcDbEntity
  8
BEMAßUNG
 62
     7
100
AcDbVertex
100
AcDb2dVertex
 10
-50.67804360712216
 20
-1.294494628582626
 30
0.0
  0
VERTEX
  5
5FA
330
5F8
100
AcDbEntity
  8
BEMAßUNG
 62
     7
100
AcDbVertex
100
AcDb2dVertex
 10
-50.10788030431331
 20
-1.294494628582626
 30
0.0
  0
SEQEND
  5
5FB
330
5F8
100
AcDbEntity
  8
BEMAßUNG
  0
POLYLINE
  5
5FC
330
1F
100
AcDbEntity
  8
BEMAßUNG
 62
     7
100
AcDb2dPolyline
 66
     1
 10
0.0
 20
0.0
 30
0.0
  0
VERTEX
  5
5FD
330
5FC
100
AcDbEntity
  8
BEMAßUNG
 62
     7
100
AcDbVertex
100
AcDb2dVertex
 10
-50.67804360712216
 20
-1.345137532215799
 30
0.0
  0
VERTEX
  5
5FE
330
5FC
100
AcDbEntity
  8
BEMAßUNG
 62
     7
100
AcDbVertex
100
AcDb2dVertex
 10
-49.72134059086828
 20
-1.345137532215799
 30
0.0
  0
SEQEND
  5
5FF
330
5FC
100
AcDbEntity
  8
BEMAßUNG
  0
POLYLINE
  5
600
330
1F
100
AcDbEntity
  8
BEMAßUNG
 62
     7
100
AcDb2dPolyline
 66
     1
 10
0.0
 20
0.0
 30
0.0
  0
VERTEX
  5
601
330
600
100
AcDbEntity
  8
BEMAßUNG
 62
     7
100
AcDbVertex
100
AcDb2dVertex
 10
-50.67804360712216
 20
-1.395435926300447
 30
0.0
  0
VERTEX
  5
602
330
600
100
AcDbEntity
  8
BEMAßUNG
 62
     7
100
AcDbVertex
100
AcDb2dVertex
 10
-49.33617891561735
 20
-1.395435926300447
 30
0.0
  0
SEQEND
  5
603
330
600
100
AcDbEntity
  8
BEMAßUNG
  0
POLYLINE
  5
604
330
1F
100
AcDbEntity
  8
BEMAßUNG
 62
     7
100
AcDb2dPolyline
 66
     1
 10
0.0
 20
0.0
 30
0.0
  0
VERTEX
  5
605
330
604
100
AcDbEntity
  8
BEMAßUNG
 62
     7
100
AcDbVertex
100
AcDb2dVertex
 10
-50.67804360712216
 20
-1.446423339482144
 30
0.0
  0
VERTEX
  5
606
330
604
100
AcDbEntity
  8
BEMAßUNG
 62
     7
100
AcDbVertex
100
AcDb2dVertex
 10
-48.94963920217231
 20
-1.446423339482144
 30
0.0
  0
SEQEND
  5
607
330
604
100
AcDbEntity
  8
BEMAßUNG
  0
POLYLINE
  5
608
330
1F
100
AcDbEntity
  8
BEMAßUNG
 62
     7
100
AcDb2dPolyline
 66
     1
 10
0.0
 20
0.0
 30
0.0
  0
VERTEX
  5
609
330
608
100
AcDbEntity
  8
BEMAßUNG
 62
     7
100
AcDbVertex
100
AcDb2dVertex
 10
-50.67804360712216
 20
-1.497066243115317
 30
0.0
  0
VERTEX
  5
60A
330
608
100
AcDbEntity
  8
BEMAßUNG
 62
     7
100
AcDbVertex
100
AcDb2dVertex
 10
-48.56447752692138
 20
-1.497066243115317
 30
0.0
  0
SEQEND
  5
60B
330
608
100
AcDbEntity
  8
BEMAßUNG
  0
POLYLINE
  5
60C
330
1F
100
AcDbEntity
  8
BEMAßUNG
 62
     7
100
AcDb2dPolyline
 66
     1
 10
0.0
 20
0.0
 30
0.0
  0
VERTEX
  5
60D
330
60C
100
AcDbEntity
  8
BEMAßUNG
 62
     7
100
AcDbVertex
100
AcDb2dVertex
 10
-50.67804360712216
 20
-1.547709146748489
 30
0.0
  0
VERTEX
  5
60E
330
60C
100
AcDbEntity
  8
BEMAßUNG
 62
     7
100
AcDbVertex
100
AcDb2dVertex
 10
-48.1786268325734
 20
-1.547709146748489
 30
0.0
  0
SEQEND
  5
60F
330
60C
100
AcDbEntity
  8
BEMAßUNG
  0
POLYLINE
  5
610
330
1F
100
AcDbEntity
  8
BEMAßUNG
 62
     7
100
AcDb2dPolyline
 66
     1
 10
0.0
 20
0.0
 30
0.0
  0
VERTEX
  5
611
330
610
100
AcDbEntity
  8
BEMAßUNG
 62
     7
100
AcDbVertex
100
AcDb2dVertex
 10
-50.67804360712216
 20
-1.8526000971931
 30
0.0
  0
VERTEX
  5
612
330
610
100
AcDbEntity
  8
BEMAßUNG
 62
     7
100
AcDbVertex
100
AcDb2dVertex
 10
-50.49373099866129
 20
-1.8526000971931
 30
0.0
  0
SEQEND
  5
613
330
610
100
AcDbEntity
  8
BEMAßUNG
  0
POLYLINE
  5
614
330
1F
100
AcDbEntity
  8
BEMAßUNG
 62
     7
100
AcDb2dPolyline
 66
     1
 10
0.0
 20
0.0
 30
0.0
  0
VERTEX
  5
615
330
614
100
AcDbEntity
  8
BEMAßUNG
 62
     7
100
AcDbVertex
100
AcDb2dVertex
 10
-50.67804360712216
 20
-1.8526000971931
 30
0.0
  0
VERTEX
  5
616
330
614
100
AcDbEntity
  8
BEMAßUNG
 62
     7
100
AcDbVertex
100
AcDb2dVertex
 10
-50.49373099866129
 20
-1.8526000971931
 30
0.0
  0
SEQEND
  5
617
330
614
100
AcDbEntity
  8
BEMAßUNG
  0
POLYLINE
  5
618
330
1F
100
AcDbEntity
  8
BEMAßUNG
 62
     7
100
AcDb2dPolyline
 66
     1
 10
0.0
 20
0.0
 30
0.0
  0
VERTEX
  5
619
330
618
100
AcDbEntity
  8
BEMAßUNG
 62
     7
100
AcDbVertex
100
AcDb2dVertex
 10
-50.67804360712216
 20
-1.801957193559927
 30
0.0
  0
VERTEX
  5
61A
330
618
100
AcDbEntity
  8
BEMAßUNG
 62
     7
100
AcDbVertex
100
AcDb2dVertex
 10
-50.10788030431331
 20
-1.801957193559927
 30
0.0
  0
SEQEND
  5
61B
330
618
100
AcDbEntity
  8
BEMAßUNG
  0
POLYLINE
  5
61C
330
1F
100
AcDbEntity
  8
BEMAßUNG
 62
     7
100
AcDb2dPolyline
 66
     1
 10
0.0
 20
0.0
 30
0.0
  0
VERTEX
  5
61D
330
61C
100
AcDbEntity
  8
BEMAßUNG
 62
     7
100
AcDbVertex
100
AcDb2dVertex
 10
-50.67804360712216
 20
-1.75096978037823
 30
0.0
  0
VERTEX
  5
61E
330
61C
100
AcDbEntity
  8
BEMAßUNG
 62
     7
100
AcDbVertex
100
AcDb2dVertex
 10
-49.72134059086828
 20
-1.75096978037823
 30
0.0
  0
SEQEND
  5
61F
330
61C
100
AcDbEntity
  8
BEMAßUNG
  0
POLYLINE
  5
620
330
1F
100
AcDbEntity
  8
BEMAßUNG
 62
     7
100
AcDb2dPolyline
 66
     1
 10
0.0
 20
0.0
 30
0.0
  0
VERTEX
  5
621
330
620
100
AcDbEntity
  8
BEMAßUNG
 62
     7
100
AcDbVertex
100
AcDb2dVertex
 10
-50.67804360712216
 20
-1.700326876745057
 30
0.0
  0
VERTEX
  5
622
330
620
100
AcDbEntity
  8
BEMAßUNG
 62
     7
100
AcDbVertex
100
AcDb2dVertex
 10
-49.33617891561735
 20
-1.700326876745057
 30
0.0
  0
SEQEND
  5
623
330
620
100
AcDbEntity
  8
BEMAßUNG
  0
POLYLINE
  5
624
330
1F
100
AcDbEntity
  8
BEMAßUNG
 62
     7
100
AcDb2dPolyline
 66
     1
 10
0.0
 20
0.0
 30
0.0
  0
VERTEX
  5
625
330
624
100
AcDbEntity
  8
BEMAßUNG
 62
     7
100
AcDbVertex
100
AcDb2dVertex
 10
-50.67804360712216
 20
-1.649683973111885
 30
0.0
  0
VERTEX
  5
626
330
624
100
AcDbEntity
  8
BEMAßUNG
 62
     7
100
AcDbVertex
100
AcDb2dVertex
 10
-48.94963920217231
 20
-1.649683973111885
 30
0.0
  0
SEQEND
  5
627
330
624
100
AcDbEntity
  8
BEMAßUNG
  0
POLYLINE
  5
628
330
1F
100
AcDbEntity
  8
BEMAßUNG
 62
     7
100
AcDb2dPolyline
 66
     1
 10
0.0
 20
0.0
 30
0.0
  0
VERTEX
  5
629
330
628
100
AcDbEntity
  8
BEMAßUNG
 62
     7
100
AcDbVertex
100
AcDb2dVertex
 10
-50.67804360712216
 20
-1.598696559930187
 30
0.0
  0
VERTEX
  5
62A
330
628
100
AcDbEntity
  8
BEMAßUNG
 62
     7
100
AcDbVertex
100
AcDb2dVertex
 10
-48.56447752692138
 20
-1.598696559930187
 30
0.0
  0
SEQEND
  5
62B
330
628
100
AcDbEntity
  8
BEMAßUNG
  0
POLYLINE
  5
62C
330
1F
100
AcDbEntity
  8
BEMAßUNG
 62
     7
100
AcDb2dPolyline
 66
     1
 10
0.0
 20
0.0
 30
0.0
  0
VERTEX
  5
62D
330
62C
100
AcDbEntity
  8
BEMAßUNG
 62
     7
100
AcDbVertex
100
AcDb2dVertex
 10
-50.67804360712216
 20
-1.547709146748489
 30
0.0
  0
VERTEX
  5
62E
330
62C
100
AcDbEntity
  8
BEMAßUNG
 62
     7
100
AcDbVertex
100
AcDb2dVertex
 10
-48.1786268325734
 20
-1.547709146748489
 30
0.0
  0
SEQEND
  5
62F
330
62C
100
AcDbEntity
  8
BEMAßUNG
  0
POLYLINE
  5
630
330
1F
100
AcDbEntity
  8
BEMAßUNG
 62
     7
100
AcDb2dPolyline
 66
     1
 10
0.0
 20
0.0
 30
0.0
  0
VERTEX
  5
631
330
630
100
AcDbEntity
  8
BEMAßUNG
 62
     7
100
AcDbVertex
100
AcDb2dVertex
 10
-106.1781873649485
 20
48.40169676524333
 30
0.0
  0
VERTEX
  5
632
330
630
100
AcDbEntity
  8
BEMAßUNG
 62
     7
100
AcDbVertex
100
AcDb2dVertex
 10
-106.1781873649485
 20
60.27694090289952
 30
0.0
  0
SEQEND
  5
633
330
630
100
AcDbEntity
  8
BEMAßUNG
  0
POLYLINE
  5
634
330
1F
100
AcDbEntity
  8
BEMAßUNG
 62
     7
100
AcDb2dPolyline
 66
     1
 10
0.0
 20
0.0
 30
0.0
  0
VERTEX
  5
635
330
634
100
AcDbEntity
  8
BEMAßUNG
 62
     7
100
AcDbVertex
100
AcDb2dVertex
 10
-99.17809784846936
 20
28.40153943517392
 30
0.0
  0
VERTEX
  5
636
330
634
100
AcDbEntity
  8
BEMAßUNG
 62
     7
100
AcDbVertex
100
AcDb2dVertex
 10
-99.17809784846936
 20
60.27694090289952
 30
0.0
  0
SEQEND
  5
637
330
634
100
AcDbEntity
  8
BEMAßUNG
  0
POLYLINE
  5
638
330
1F
100
AcDbEntity
  8
BEMAßUNG
 62
     7
100
AcDb2dPolyline
 66
     1
 10
0.0
 20
0.0
 30
0.0
  0
VERTEX
  5
639
330
638
100
AcDbEntity
  8
BEMAßUNG
 62
     7
100
AcDbVertex
100
AcDb2dVertex
 10
-106.1781873649485
 20
58.27637395461494
 30
0.0
  0
VERTEX
  5
63A
330
638
100
AcDbEntity
  8
BEMAßUNG
 62
     7
100
AcDbVertex
100
AcDb2dVertex
 10
-99.17809784846936
 20
58.27637395461494
 30
0.0
  0
SEQEND
  5
63B
330
638
100
AcDbEntity
  8
BEMAßUNG
  0
POLYLINE
  5
63C
330
1F
100
AcDbEntity
  8
BEMAßUNG
 62
     7
100
AcDb2dPolyline
 66
     1
 10
0.0
 20
0.0
 30
0.0
  0
VERTEX
  5
63D
330
63C
100
AcDbEntity
  8
BEMAßUNG
 62
     7
100
AcDbVertex
100
AcDb2dVertex
 10
-106.1781873649485
 20
58.27637395461494
 30
0.0
  0
VERTEX
  5
63E
330
63C
100
AcDbEntity
  8
BEMAßUNG
 62
     7
100
AcDbVertex
100
AcDb2dVertex
 10
-103.6784260808512
 20
57.94702282622505
 30
0.0
  0
VERTEX
  5
63F
330
63C
100
AcDbEntity
  8
BEMAßUNG
 62
     7
100
AcDbVertex
100
AcDb2dVertex
 10
-103.6784260808512
 20
58.60538057345629
 30
0.0
  0
VERTEX
  5
640
330
63C
100
AcDbEntity
  8
BEMAßUNG
 62
     7
100
AcDbVertex
100
AcDb2dVertex
 10
-106.1781873649485
 20
58.27637395461494
 30
0.0
  0
SEQEND
  5
641
330
63C
100
AcDbEntity
  8
BEMAßUNG
  0
POLYLINE
  5
642
330
1F
100
AcDbEntity
  8
BEMAßUNG
 62
     7
100
AcDb2dPolyline
 66
     1
 10
0.0
 20
0.0
 30
0.0
  0
VERTEX
  5
643
330
642
100
AcDbEntity
  8
BEMAßUNG
 62
     7
100
AcDbVertex
100
AcDb2dVertex
 10
-103.6784260808512
 20
57.97148300417032
 30
0.0
  0
VERTEX
  5
644
330
642
100
AcDbEntity
  8
BEMAßUNG
 62
     7
100
AcDbVertex
100
AcDb2dVertex
 10
-103.8634277084091
 20
57.97148300417032
 30
0.0
  0
SEQEND
  5
645
330
642
100
AcDbEntity
  8
BEMAßUNG
  0
POLYLINE
  5
646
330
1F
100
AcDbEntity
  8
BEMAßUNG
 62
     7
100
AcDb2dPolyline
 66
     1
 10
0.0
 20
0.0
 30
0.0
  0
VERTEX
  5
647
330
646
100
AcDbEntity
  8
BEMAßUNG
 62
     7
100
AcDbVertex
100
AcDb2dVertex
 10
-103.6784260808512
 20
57.97148300417032
 30
0.0
  0
VERTEX
  5
648
330
646
100
AcDbEntity
  8
BEMAßUNG
 62
     7
100
AcDbVertex
100
AcDb2dVertex
 10
-103.8634277084091
 20
57.97148300417032
 30
0.0
  0
SEQEND
  5
649
330
646
100
AcDbEntity
  8
BEMAßUNG
  0
POLYLINE
  5
64A
330
1F
100
AcDbEntity
  8
BEMAßUNG
 62
     7
100
AcDb2dPolyline
 66
     1
 10
0.0
 20
0.0
 30
0.0
  0
VERTEX
  5
64B
330
64A
100
AcDbEntity
  8
BEMAßUNG
 62
     7
100
AcDbVertex
100
AcDb2dVertex
 10
-103.6784260808512
 20
58.0221259078035
 30
0.0
  0
VERTEX
  5
64C
330
64A
100
AcDbEntity
  8
BEMAßUNG
 62
     7
100
AcDbVertex
100
AcDb2dVertex
 10
-104.2489338932086
 20
58.0221259078035
 30
0.0
  0
SEQEND
  5
64D
330
64A
100
AcDbEntity
  8
BEMAßUNG
  0
POLYLINE
  5
64E
330
1F
100
AcDbEntity
  8
BEMAßUNG
 62
     7
100
AcDb2dPolyline
 66
     1
 10
0.0
 20
0.0
 30
0.0
  0
VERTEX
  5
64F
330
64E
100
AcDbEntity
  8
BEMAßUNG
 62
     7
100
AcDbVertex
100
AcDb2dVertex
 10
-103.6784260808512
 20
58.07345783053372
 30
0.0
  0
VERTEX
  5
650
330
64E
100
AcDbEntity
  8
BEMAßUNG
 62
     7
100
AcDbVertex
100
AcDb2dVertex
 10
-104.6347845875566
 20
58.07345783053372
 30
0.0
  0
SEQEND
  5
651
330
64E
100
AcDbEntity
  8
BEMAßUNG
  0
POLYLINE
  5
652
330
1F
100
AcDbEntity
  8
BEMAßUNG
 62
     7
100
AcDb2dPolyline
 66
     1
 10
0.0
 20
0.0
 30
0.0
  0
VERTEX
  5
653
330
652
100
AcDbEntity
  8
BEMAßUNG
 62
     7
100
AcDbVertex
100
AcDb2dVertex
 10
-103.6784260808512
 20
58.12410073416689
 30
0.0
  0
VERTEX
  5
654
330
652
100
AcDbEntity
  8
BEMAßUNG
 62
     7
100
AcDbVertex
100
AcDb2dVertex
 10
-105.0209797914531
 20
58.12410073416689
 30
0.0
  0
SEQEND
  5
655
330
652
100
AcDbEntity
  8
BEMAßUNG
  0
POLYLINE
  5
656
330
1F
100
AcDbEntity
  8
BEMAßUNG
 62
     7
100
AcDb2dPolyline
 66
     1
 10
0.0
 20
0.0
 30
0.0
  0
VERTEX
  5
657
330
656
100
AcDbEntity
  8
BEMAßUNG
 62
     7
100
AcDbVertex
100
AcDb2dVertex
 10
-103.6784260808512
 20
58.17474363780007
 30
0.0
  0
VERTEX
  5
658
330
656
100
AcDbEntity
  8
BEMAßUNG
 62
     7
100
AcDbVertex
100
AcDb2dVertex
 10
-105.4064859762526
 20
58.17474363780007
 30
0.0
  0
SEQEND
  5
659
330
656
100
AcDbEntity
  8
BEMAßUNG
  0
POLYLINE
  5
65A
330
1F
100
AcDbEntity
  8
BEMAßUNG
 62
     7
100
AcDb2dPolyline
 66
     1
 10
0.0
 20
0.0
 30
0.0
  0
VERTEX
  5
65B
330
65A
100
AcDbEntity
  8
BEMAßUNG
 62
     7
100
AcDbVertex
100
AcDb2dVertex
 10
-103.6784260808512
 20
58.22538654143324
 30
0.0
  0
VERTEX
  5
65C
330
65A
100
AcDbEntity
  8
BEMAßUNG
 62
     7
100
AcDbVertex
100
AcDb2dVertex
 10
-105.7923366706005
 20
58.22538654143324
 30
0.0
  0
SEQEND
  5
65D
330
65A
100
AcDbEntity
  8
BEMAßUNG
  0
POLYLINE
  5
65E
330
1F
100
AcDbEntity
  8
BEMAßUNG
 62
     7
100
AcDb2dPolyline
 66
     1
 10
0.0
 20
0.0
 30
0.0
  0
VERTEX
  5
65F
330
65E
100
AcDbEntity
  8
BEMAßUNG
 62
     7
100
AcDbVertex
100
AcDb2dVertex
 10
-103.6784260808512
 20
58.27637395461494
 30
0.0
  0
VERTEX
  5
660
330
65E
100
AcDbEntity
  8
BEMAßUNG
 62
     7
100
AcDbVertex
100
AcDb2dVertex
 10
-106.1781873649485
 20
58.27637395461494
 30
0.0
  0
SEQEND
  5
661
330
65E
100
AcDbEntity
  8
BEMAßUNG
  0
POLYLINE
  5
662
330
1F
100
AcDbEntity
  8
BEMAßUNG
 62
     7
100
AcDb2dPolyline
 66
     1
 10
0.0
 20
0.0
 30
0.0
  0
VERTEX
  5
663
330
662
100
AcDbEntity
  8
BEMAßUNG
 62
     7
100
AcDbVertex
100
AcDb2dVertex
 10
-103.6784260808512
 20
58.58160941460807
 30
0.0
  0
VERTEX
  5
664
330
662
100
AcDbEntity
  8
BEMAßUNG
 62
     7
100
AcDbVertex
100
AcDb2dVertex
 10
-103.8634277084091
 20
58.58160941460807
 30
0.0
  0
SEQEND
  5
665
330
662
100
AcDbEntity
  8
BEMAßUNG
  0
POLYLINE
  5
666
330
1F
100
AcDbEntity
  8
BEMAßUNG
 62
     7
100
AcDb2dPolyline
 66
     1
 10
0.0
 20
0.0
 30
0.0
  0
VERTEX
  5
667
330
666
100
AcDbEntity
  8
BEMAßUNG
 62
     7
100
AcDbVertex
100
AcDb2dVertex
 10
-103.6784260808512
 20
58.58160941460807
 30
0.0
  0
VERTEX
  5
668
330
666
100
AcDbEntity
  8
BEMAßUNG
 62
     7
100
AcDbVertex
100
AcDb2dVertex
 10
-103.8634277084091
 20
58.58160941460807
 30
0.0
  0
SEQEND
  5
669
330
666
100
AcDbEntity
  8
BEMAßUNG
  0
POLYLINE
  5
66A
330
1F
100
AcDbEntity
  8
BEMAßUNG
 62
     7
100
AcDb2dPolyline
 66
     1
 10
0.0
 20
0.0
 30
0.0
  0
VERTEX
  5
66B
330
66A
100
AcDbEntity
  8
BEMAßUNG
 62
     7
100
AcDbVertex
100
AcDb2dVertex
 10
-103.6784260808512
 20
58.53062200142637
 30
0.0
  0
VERTEX
  5
66C
330
66A
100
AcDbEntity
  8
BEMAßUNG
 62
     7
100
AcDbVertex
100
AcDb2dVertex
 10
-104.2489338932086
 20
58.53062200142637
 30
0.0
  0
SEQEND
  5
66D
330
66A
100
AcDbEntity
  8
BEMAßUNG
  0
POLYLINE
  5
66E
330
1F
100
AcDbEntity
  8
BEMAßUNG
 62
     7
100
AcDb2dPolyline
 66
     1
 10
0.0
 20
0.0
 30
0.0
  0
VERTEX
  5
66F
330
66E
100
AcDbEntity
  8
BEMAßUNG
 62
     7
100
AcDbVertex
100
AcDb2dVertex
 10
-103.6784260808512
 20
58.47963458824468
 30
0.0
  0
VERTEX
  5
670
330
66E
100
AcDbEntity
  8
BEMAßUNG
 62
     7
100
AcDbVertex
100
AcDb2dVertex
 10
-104.6347845875566
 20
58.47963458824468
 30
0.0
  0
SEQEND
  5
671
330
66E
100
AcDbEntity
  8
BEMAßUNG
  0
POLYLINE
  5
672
330
1F
100
AcDbEntity
  8
BEMAßUNG
 62
     7
100
AcDb2dPolyline
 66
     1
 10
0.0
 20
0.0
 30
0.0
  0
VERTEX
  5
673
330
672
100
AcDbEntity
  8
BEMAßUNG
 62
     7
100
AcDbVertex
100
AcDb2dVertex
 10
-103.6784260808512
 20
58.42864717506298
 30
0.0
  0
VERTEX
  5
674
330
672
100
AcDbEntity
  8
BEMAßUNG
 62
     7
100
AcDbVertex
100
AcDb2dVertex
 10
-105.0209797914531
 20
58.42864717506298
 30
0.0
  0
SEQEND
  5
675
330
672
100
AcDbEntity
  8
BEMAßUNG
  0
POLYLINE
  5
676
330
1F
100
AcDbEntity
  8
BEMAßUNG
 62
     7
100
AcDb2dPolyline
 66
     1
 10
0.0
 20
0.0
 30
0.0
  0
VERTEX
  5
677
330
676
100
AcDbEntity
  8
BEMAßUNG
 62
     7
100
AcDbVertex
100
AcDb2dVertex
 10
-103.6784260808512
 20
58.37800427142981
 30
0.0
  0
VERTEX
  5
678
330
676
100
AcDbEntity
  8
BEMAßUNG
 62
     7
100
AcDbVertex
100
AcDb2dVertex
 10
-105.4064859762526
 20
58.37800427142981
 30
0.0
  0
SEQEND
  5
679
330
676
100
AcDbEntity
  8
BEMAßUNG
  0
POLYLINE
  5
67A
330
1F
100
AcDbEntity
  8
BEMAßUNG
 62
     7
100
AcDb2dPolyline
 66
     1
 10
0.0
 20
0.0
 30
0.0
  0
VERTEX
  5
67B
330
67A
100
AcDbEntity
  8
BEMAßUNG
 62
     7
100
AcDbVertex
100
AcDb2dVertex
 10
-103.6784260808512
 20
58.32736136779663
 30
0.0
  0
VERTEX
  5
67C
330
67A
100
AcDbEntity
  8
BEMAßUNG
 62
     7
100
AcDbVertex
100
AcDb2dVertex
 10
-105.7923366706005
 20
58.32736136779663
 30
0.0
  0
SEQEND
  5
67D
330
67A
100
AcDbEntity
  8
BEMAßUNG
  0
POLYLINE
  5
67E
330
1F
100
AcDbEntity
  8
BEMAßUNG
 62
     7
100
AcDb2dPolyline
 66
     1
 10
0.0
 20
0.0
 30
0.0
  0
VERTEX
  5
67F
330
67E
100
AcDbEntity
  8
BEMAßUNG
 62
     7
100
AcDbVertex
100
AcDb2dVertex
 10
-103.6784260808512
 20
58.27637395461494
 30
0.0
  0
VERTEX
  5
680
330
67E
100
AcDbEntity
  8
BEMAßUNG
 62
     7
100
AcDbVertex
100
AcDb2dVertex
 10
-106.1781873649485
 20
58.27637395461494
 30
0.0
  0
SEQEND
  5
681
330
67E
100
AcDbEntity
  8
BEMAßUNG
  0
POLYLINE
  5
682
330
1F
100
AcDbEntity
  8
BEMAßUNG
 62
     7
100
AcDb2dPolyline
 66
     1
 10
0.0
 20
0.0
 30
0.0
  0
VERTEX
  5
683
330
682
100
AcDbEntity
  8
BEMAßUNG
 62
     7
100
AcDbVertex
100
AcDb2dVertex
 10
-99.17809784846936
 20
58.27637395461494
 30
0.0
  0
VERTEX
  5
684
330
682
100
AcDbEntity
  8
BEMAßUNG
 62
     7
100
AcDbVertex
100
AcDb2dVertex
 10
-101.6782036421152
 20
58.60538057345629
 30
0.0
  0
VERTEX
  5
685
330
682
100
AcDbEntity
  8
BEMAßUNG
 62
     7
100
AcDbVertex
100
AcDb2dVertex
 10
-101.6782036421152
 20
57.94702282622505
 30
0.0
  0
VERTEX
  5
686
330
682
100
AcDbEntity
  8
BEMAßUNG
 62
     7
100
AcDbVertex
100
AcDb2dVertex
 10
-99.17809784846936
 20
58.27637395461494
 30
0.0
  0
SEQEND
  5
687
330
682
100
AcDbEntity
  8
BEMAßUNG
  0
POLYLINE
  5
688
330
1F
100
AcDbEntity
  8
BEMAßUNG
 62
     7
100
AcDb2dPolyline
 66
     1
 10
0.0
 20
0.0
 30
0.0
  0
VERTEX
  5
689
330
688
100
AcDbEntity
  8
BEMAßUNG
 62
     7
100
AcDbVertex
100
AcDb2dVertex
 10
-101.6782036421152
 20
58.58160941460807
 30
0.0
  0
VERTEX
  5
68A
330
688
100
AcDbEntity
  8
BEMAßUNG
 62
     7
100
AcDbVertex
100
AcDb2dVertex
 10
-101.4935465241058
 20
58.58160941460807
 30
0.0
  0
SEQEND
  5
68B
330
688
100
AcDbEntity
  8
BEMAßUNG
  0
POLYLINE
  5
68C
330
1F
100
AcDbEntity
  8
BEMAßUNG
 62
     7
100
AcDb2dPolyline
 66
     1
 10
0.0
 20
0.0
 30
0.0
  0
VERTEX
  5
68D
330
68C
100
AcDbEntity
  8
BEMAßUNG
 62
     7
100
AcDbVertex
100
AcDb2dVertex
 10
-101.6782036421152
 20
58.58160941460807
 30
0.0
  0
VERTEX
  5
68E
330
68C
100
AcDbEntity
  8
BEMAßUNG
 62
     7
100
AcDbVertex
100
AcDb2dVertex
 10
-101.4935465241058
 20
58.58160941460807
 30
0.0
  0
SEQEND
  5
68F
330
68C
100
AcDbEntity
  8
BEMAßUNG
  0
POLYLINE
  5
690
330
1F
100
AcDbEntity
  8
BEMAßUNG
 62
     7
100
AcDb2dPolyline
 66
     1
 10
0.0
 20
0.0
 30
0.0
  0
VERTEX
  5
691
330
690
100
AcDbEntity
  8
BEMAßUNG
 62
     7
100
AcDbVertex
100
AcDb2dVertex
 10
-101.6782036421152
 20
58.53062200142637
 30
0.0
  0
VERTEX
  5
692
330
690
100
AcDbEntity
  8
BEMAßUNG
 62
     7
100
AcDbVertex
100
AcDb2dVertex
 10
-101.1076958297578
 20
58.53062200142637
 30
0.0
  0
SEQEND
  5
693
330
690
100
AcDbEntity
  8
BEMAßUNG
  0
POLYLINE
  5
694
330
1F
100
AcDbEntity
  8
BEMAßUNG
 62
     7
100
AcDb2dPolyline
 66
     1
 10
0.0
 20
0.0
 30
0.0
  0
VERTEX
  5
695
330
694
100
AcDbEntity
  8
BEMAßUNG
 62
     7
100
AcDbVertex
100
AcDb2dVertex
 10
-101.6782036421152
 20
58.47963458824468
 30
0.0
  0
VERTEX
  5
696
330
694
100
AcDbEntity
  8
BEMAßUNG
 62
     7
100
AcDbVertex
100
AcDb2dVertex
 10
-100.7215006258613
 20
58.47963458824468
 30
0.0
  0
SEQEND
  5
697
330
694
100
AcDbEntity
  8
BEMAßUNG
  0
POLYLINE
  5
698
330
1F
100
AcDbEntity
  8
BEMAßUNG
 62
     7
100
AcDb2dPolyline
 66
     1
 10
0.0
 20
0.0
 30
0.0
  0
VERTEX
  5
699
330
698
100
AcDbEntity
  8
BEMAßUNG
 62
     7
100
AcDbVertex
100
AcDb2dVertex
 10
-101.6782036421152
 20
58.42864717506298
 30
0.0
  0
VERTEX
  5
69A
330
698
100
AcDbEntity
  8
BEMAßUNG
 62
     7
100
AcDbVertex
100
AcDb2dVertex
 10
-100.3359944410618
 20
58.42864717506298
 30
0.0
  0
SEQEND
  5
69B
330
698
100
AcDbEntity
  8
BEMAßUNG
  0
POLYLINE
  5
69C
330
1F
100
AcDbEntity
  8
BEMAßUNG
 62
     7
100
AcDb2dPolyline
 66
     1
 10
0.0
 20
0.0
 30
0.0
  0
VERTEX
  5
69D
330
69C
100
AcDbEntity
  8
BEMAßUNG
 62
     7
100
AcDbVertex
100
AcDb2dVertex
 10
-101.6782036421152
 20
58.37800427142981
 30
0.0
  0
VERTEX
  5
69E
330
69C
100
AcDbEntity
  8
BEMAßUNG
 62
     7
100
AcDbVertex
100
AcDb2dVertex
 10
-99.94979923716534
 20
58.37800427142981
 30
0.0
  0
SEQEND
  5
69F
330
69C
100
AcDbEntity
  8
BEMAßUNG
  0
POLYLINE
  5
6A0
330
1F
100
AcDbEntity
  8
BEMAßUNG
 62
     7
100
AcDb2dPolyline
 66
     1
 10
0.0
 20
0.0
 30
0.0
  0
VERTEX
  5
6A1
330
6A0
100
AcDbEntity
  8
BEMAßUNG
 62
     7
100
AcDbVertex
100
AcDb2dVertex
 10
-101.6782036421152
 20
58.32736136779663
 30
0.0
  0
VERTEX
  5
6A2
330
6A0
100
AcDbEntity
  8
BEMAßUNG
 62
     7
100
AcDbVertex
100
AcDb2dVertex
 10
-99.56429305236587
 20
58.32736136779663
 30
0.0
  0
SEQEND
  5
6A3
330
6A0
100
AcDbEntity
  8
BEMAßUNG
  0
POLYLINE
  5
6A4
330
1F
100
AcDbEntity
  8
BEMAßUNG
 62
     7
100
AcDb2dPolyline
 66
     1
 10
0.0
 20
0.0
 30
0.0
  0
VERTEX
  5
6A5
330
6A4
100
AcDbEntity
  8
BEMAßUNG
 62
     7
100
AcDbVertex
100
AcDb2dVertex
 10
-101.6782036421152
 20
58.27637395461494
 30
0.0
  0
VERTEX
  5
6A6
330
6A4
100
AcDbEntity
  8
BEMAßUNG
 62
     7
100
AcDbVertex
100
AcDb2dVertex
 10
-99.17809784846936
 20
58.27637395461494
 30
0.0
  0
SEQEND
  5
6A7
330
6A4
100
AcDbEntity
  8
BEMAßUNG
  0
POLYLINE
  5
6A8
330
1F
100
AcDbEntity
  8
BEMAßUNG
 62
     7
100
AcDb2dPolyline
 66
     1
 10
0.0
 20
0.0
 30
0.0
  0
VERTEX
  5
6A9
330
6A8
100
AcDbEntity
  8
BEMAßUNG
 62
     7
100
AcDbVertex
100
AcDb2dVertex
 10
-101.6782036421152
 20
57.97148300417032
 30
0.0
  0
VERTEX
  5
6AA
330
6A8
100
AcDbEntity
  8
BEMAßUNG
 62
     7
100
AcDbVertex
100
AcDb2dVertex
 10
-101.4935465241058
 20
57.97148300417032
 30
0.0
  0
SEQEND
  5
6AB
330
6A8
100
AcDbEntity
  8
BEMAßUNG
  0
POLYLINE
  5
6AC
330
1F
100
AcDbEntity
  8
BEMAßUNG
 62
     7
100
AcDb2dPolyline
 66
     1
 10
0.0
 20
0.0
 30
0.0
  0
VERTEX
  5
6AD
330
6AC
100
AcDbEntity
  8
BEMAßUNG
 62
     7
100
AcDbVertex
100
AcDb2dVertex
 10
-101.6782036421152
 20
57.97148300417032
 30
0.0
  0
VERTEX
  5
6AE
330
6AC
100
AcDbEntity
  8
BEMAßUNG
 62
     7
100
AcDbVertex
100
AcDb2dVertex
 10
-101.4935465241058
 20
57.97148300417032
 30
0.0
  0
SEQEND
  5
6AF
330
6AC
100
AcDbEntity
  8
BEMAßUNG
  0
POLYLINE
  5
6B0
330
1F
100
AcDbEntity
  8
BEMAßUNG
 62
     7
100
AcDb2dPolyline
 66
     1
 10
0.0
 20
0.0
 30
0.0
  0
VERTEX
  5
6B1
330
6B0
100
AcDbEntity
  8
BEMAßUNG
 62
     7
100
AcDbVertex
100
AcDb2dVertex
 10
-101.6782036421152
 20
58.0221259078035
 30
0.0
  0
VERTEX
  5
6B2
330
6B0
100
AcDbEntity
  8
BEMAßUNG
 62
     7
100
AcDbVertex
100
AcDb2dVertex
 10
-101.1076958297578
 20
58.0221259078035
 30
0.0
  0
SEQEND
  5
6B3
330
6B0
100
AcDbEntity
  8
BEMAßUNG
  0
POLYLINE
  5
6B4
330
1F
100
AcDbEntity
  8
BEMAßUNG
 62
     7
100
AcDb2dPolyline
 66
     1
 10
0.0
 20
0.0
 30
0.0
  0
VERTEX
  5
6B5
330
6B4
100
AcDbEntity
  8
BEMAßUNG
 62
     7
100
AcDbVertex
100
AcDb2dVertex
 10
-101.6782036421152
 20
58.07345783053372
 30
0.0
  0
VERTEX
  5
6B6
330
6B4
100
AcDbEntity
  8
BEMAßUNG
 62
     7
100
AcDbVertex
100
AcDb2dVertex
 10
-100.7215006258613
 20
58.07345783053372
 30
0.0
  0
SEQEND
  5
6B7
330
6B4
100
AcDbEntity
  8
BEMAßUNG
  0
POLYLINE
  5
6B8
330
1F
100
AcDbEntity
  8
BEMAßUNG
 62
     7
100
AcDb2dPolyline
 66
     1
 10
0.0
 20
0.0
 30
0.0
  0
VERTEX
  5
6B9
330
6B8
100
AcDbEntity
  8
BEMAßUNG
 62
     7
100
AcDbVertex
100
AcDb2dVertex
 10
-101.6782036421152
 20
58.12410073416689
 30
0.0
  0
VERTEX
  5
6BA
330
6B8
100
AcDbEntity
  8
BEMAßUNG
 62
     7
100
AcDbVertex
100
AcDb2dVertex
 10
-100.3359944410618
 20
58.12410073416689
 30
0.0
  0
SEQEND
  5
6BB
330
6B8
100
AcDbEntity
  8
BEMAßUNG
  0
POLYLINE
  5
6BC
330
1F
100
AcDbEntity
  8
BEMAßUNG
 62
     7
100
AcDb2dPolyline
 66
     1
 10
0.0
 20
0.0
 30
0.0
  0
VERTEX
  5
6BD
330
6BC
100
AcDbEntity
  8
BEMAßUNG
 62
     7
100
AcDbVertex
100
AcDb2dVertex
 10
-101.6782036421152
 20
58.17474363780007
 30
0.0
  0
VERTEX
  5
6BE
330
6BC
100
AcDbEntity
  8
BEMAßUNG
 62
     7
100
AcDbVertex
100
AcDb2dVertex
 10
-99.94979923716534
 20
58.17474363780007
 30
0.0
  0
SEQEND
  5
6BF
330
6BC
100
AcDbEntity
  8
BEMAßUNG
  0
POLYLINE
  5
6C0
330
1F
100
AcDbEntity
  8
BEMAßUNG
 62
     7
100
AcDb2dPolyline
 66
     1
 10
0.0
 20
0.0
 30
0.0
  0
VERTEX
  5
6C1
330
6C0
100
AcDbEntity
  8
BEMAßUNG
 62
     7
100
AcDbVertex
100
AcDb2dVertex
 10
-101.6782036421152
 20
58.22538654143324
 30
0.0
  0
VERTEX
  5
6C2
330
6C0
100
AcDbEntity
  8
BEMAßUNG
 62
     7
100
AcDbVertex
100
AcDb2dVertex
 10
-99.56429305236587
 20
58.22538654143324
 30
0.0
  0
SEQEND
  5
6C3
330
6C0
100
AcDbEntity
  8
BEMAßUNG
  0
POLYLINE
  5
6C4
330
1F
100
AcDbEntity
  8
BEMAßUNG
 62
     7
100
AcDb2dPolyline
 66
     1
 10
0.0
 20
0.0
 30
0.0
  0
VERTEX
  5
6C5
330
6C4
100
AcDbEntity
  8
BEMAßUNG
 62
     7
100
AcDbVertex
100
AcDb2dVertex
 10
-101.6782036421152
 20
58.27637395461494
 30
0.0
  0
VERTEX
  5
6C6
330
6C4
100
AcDbEntity
  8
BEMAßUNG
 62
     7
100
AcDbVertex
100
AcDb2dVertex
 10
-99.17809784846936
 20
58.27637395461494
 30
0.0
  0
SEQEND
  5
6C7
330
6C4
100
AcDbEntity
  8
BEMAßUNG
  0
POLYLINE
  5
6C8
330
1F
100
AcDbEntity
  8
BEMAßUNG
 62
     7
100
AcDb2dPolyline
 66
     1
 10
0.0
 20
0.0
 30
0.0
  0
VERTEX
  5
6C9
330
6C8
100
AcDbEntity
  8
BEMAßUNG
 62
     7
100
AcDbVertex
100
AcDb2dVertex
 10
-54.17860512968452
 20
28.40153943517392
 30
0.0
  0
VERTEX
  5
6CA
330
6C8
100
AcDbEntity
  8
BEMAßUNG
 62
     7
100
AcDbVertex
100
AcDb2dVertex
 10
-54.17860512968452
 20
60.27694090289952
 30
0.0
  0
SEQEND
  5
6CB
330
6C8
100
AcDbEntity
  8
BEMAßUNG
  0
POLYLINE
  5
6CC
330
1F
100
AcDbEntity
  8
BEMAßUNG
 62
     7
100
AcDb2dPolyline
 66
     1
 10
0.0
 20
0.0
 30
0.0
  0
VERTEX
  5
6CD
330
6CC
100
AcDbEntity
  8
BEMAßUNG
 62
     7
100
AcDbVertex
100
AcDb2dVertex
 10
-99.17809784846936
 20
58.27637395461494
 30
0.0
  0
VERTEX
  5
6CE
330
6CC
100
AcDbEntity
  8
BEMAßUNG
 62
     7
100
AcDbVertex
100
AcDb2dVertex
 10
-54.17860512968452
 20
58.27637395461494
 30
0.0
  0
SEQEND
  5
6CF
330
6CC
100
AcDbEntity
  8
BEMAßUNG
  0
POLYLINE
  5
6D0
330
1F
100
AcDbEntity
  8
BEMAßUNG
 62
     7
100
AcDb2dPolyline
 66
     1
 10
0.0
 20
0.0
 30
0.0
  0
VERTEX
  5
6D1
330
6D0
100
AcDbEntity
  8
BEMAßUNG
 62
     7
100
AcDbVertex
100
AcDb2dVertex
 10
-99.17809784846936
 20
58.27637395461494
 30
0.0
  0
VERTEX
  5
6D2
330
6D0
100
AcDbEntity
  8
BEMAßUNG
 62
     7
100
AcDbVertex
100
AcDb2dVertex
 10
-96.67799205482356
 20
57.94702282622505
 30
0.0
  0
VERTEX
  5
6D3
330
6D0
100
AcDbEntity
  8
BEMAßUNG
 62
     7
100
AcDbVertex
100
AcDb2dVertex
 10
-96.67799205482356
 20
58.60538057345629
 30
0.0
  0
VERTEX
  5
6D4
330
6D0
100
AcDbEntity
  8
BEMAßUNG
 62
     7
100
AcDbVertex
100
AcDb2dVertex
 10
-99.17809784846936
 20
58.27637395461494
 30
0.0
  0
SEQEND
  5
6D5
330
6D0
100
AcDbEntity
  8
BEMAßUNG
  0
POLYLINE
  5
6D6
330
1F
100
AcDbEntity
  8
BEMAßUNG
 62
     7
100
AcDb2dPolyline
 66
     1
 10
0.0
 20
0.0
 30
0.0
  0
VERTEX
  5
6D7
330
6D6
100
AcDbEntity
  8
BEMAßUNG
 62
     7
100
AcDbVertex
100
AcDb2dVertex
 10
-96.67799205482356
 20
57.97148300417032
 30
0.0
  0
VERTEX
  5
6D8
330
6D6
100
AcDbEntity
  8
BEMAßUNG
 62
     7
100
AcDbVertex
100
AcDb2dVertex
 10
-96.86299368238147
 20
57.97148300417032
 30
0.0
  0
SEQEND
  5
6D9
330
6D6
100
AcDbEntity
  8
BEMAßUNG
  0
POLYLINE
  5
6DA
330
1F
100
AcDbEntity
  8
BEMAßUNG
 62
     7
100
AcDb2dPolyline
 66
     1
 10
0.0
 20
0.0
 30
0.0
  0
VERTEX
  5
6DB
330
6DA
100
AcDbEntity
  8
BEMAßUNG
 62
     7
100
AcDbVertex
100
AcDb2dVertex
 10
-96.67799205482356
 20
57.97148300417032
 30
0.0
  0
VERTEX
  5
6DC
330
6DA
100
AcDbEntity
  8
BEMAßUNG
 62
     7
100
AcDbVertex
100
AcDb2dVertex
 10
-96.86299368238147
 20
57.97148300417032
 30
0.0
  0
SEQEND
  5
6DD
330
6DA
100
AcDbEntity
  8
BEMAßUNG
  0
POLYLINE
  5
6DE
330
1F
100
AcDbEntity
  8
BEMAßUNG
 62
     7
100
AcDb2dPolyline
 66
     1
 10
0.0
 20
0.0
 30
0.0
  0
VERTEX
  5
6DF
330
6DE
100
AcDbEntity
  8
BEMAßUNG
 62
     7
100
AcDbVertex
100
AcDb2dVertex
 10
-96.67799205482356
 20
58.0221259078035
 30
0.0
  0
VERTEX
  5
6E0
330
6DE
100
AcDbEntity
  8
BEMAßUNG
 62
     7
100
AcDbVertex
100
AcDb2dVertex
 10
-97.24918888627799
 20
58.0221259078035
 30
0.0
  0
SEQEND
  5
6E1
330
6DE
100
AcDbEntity
  8
BEMAßUNG
  0
POLYLINE
  5
6E2
330
1F
100
AcDbEntity
  8
BEMAßUNG
 62
     7
100
AcDb2dPolyline
 66
     1
 10
0.0
 20
0.0
 30
0.0
  0
VERTEX
  5
6E3
330
6E2
100
AcDbEntity
  8
BEMAßUNG
 62
     7
100
AcDbVertex
100
AcDb2dVertex
 10
-96.67799205482356
 20
58.07345783053372
 30
0.0
  0
VERTEX
  5
6E4
330
6E2
100
AcDbEntity
  8
BEMAßUNG
 62
     7
100
AcDbVertex
100
AcDb2dVertex
 10
-97.63469507107745
 20
58.07345783053372
 30
0.0
  0
SEQEND
  5
6E5
330
6E2
100
AcDbEntity
  8
BEMAßUNG
  0
POLYLINE
  5
6E6
330
1F
100
AcDbEntity
  8
BEMAßUNG
 62
     7
100
AcDb2dPolyline
 66
     1
 10
0.0
 20
0.0
 30
0.0
  0
VERTEX
  5
6E7
330
6E6
100
AcDbEntity
  8
BEMAßUNG
 62
     7
100
AcDbVertex
100
AcDb2dVertex
 10
-96.67799205482356
 20
58.12410073416689
 30
0.0
  0
VERTEX
  5
6E8
330
6E6
100
AcDbEntity
  8
BEMAßUNG
 62
     7
100
AcDbVertex
100
AcDb2dVertex
 10
-98.02054576542542
 20
58.12410073416689
 30
0.0
  0
SEQEND
  5
6E9
330
6E6
100
AcDbEntity
  8
BEMAßUNG
  0
POLYLINE
  5
6EA
330
1F
100
AcDbEntity
  8
BEMAßUNG
 62
     7
100
AcDb2dPolyline
 66
     1
 10
0.0
 20
0.0
 30
0.0
  0
VERTEX
  5
6EB
330
6EA
100
AcDbEntity
  8
BEMAßUNG
 62
     7
100
AcDbVertex
100
AcDb2dVertex
 10
-96.67799205482356
 20
58.17474363780007
 30
0.0
  0
VERTEX
  5
6EC
330
6EA
100
AcDbEntity
  8
BEMAßUNG
 62
     7
100
AcDbVertex
100
AcDb2dVertex
 10
-98.4063964597734
 20
58.17474363780007
 30
0.0
  0
SEQEND
  5
6ED
330
6EA
100
AcDbEntity
  8
BEMAßUNG
  0
POLYLINE
  5
6EE
330
1F
100
AcDbEntity
  8
BEMAßUNG
 62
     7
100
AcDb2dPolyline
 66
     1
 10
0.0
 20
0.0
 30
0.0
  0
VERTEX
  5
6EF
330
6EE
100
AcDbEntity
  8
BEMAßUNG
 62
     7
100
AcDbVertex
100
AcDb2dVertex
 10
-96.67799205482356
 20
58.22538654143324
 30
0.0
  0
VERTEX
  5
6F0
330
6EE
100
AcDbEntity
  8
BEMAßUNG
 62
     7
100
AcDbVertex
100
AcDb2dVertex
 10
-98.79259166366991
 20
58.22538654143324
 30
0.0
  0
SEQEND
  5
6F1
330
6EE
100
AcDbEntity
  8
BEMAßUNG
  0
POLYLINE
  5
6F2
330
1F
100
AcDbEntity
  8
BEMAßUNG
 62
     7
100
AcDb2dPolyline
 66
     1
 10
0.0
 20
0.0
 30
0.0
  0
VERTEX
  5
6F3
330
6F2
100
AcDbEntity
  8
BEMAßUNG
 62
     7
100
AcDbVertex
100
AcDb2dVertex
 10
-96.67799205482356
 20
58.27637395461494
 30
0.0
  0
VERTEX
  5
6F4
330
6F2
100
AcDbEntity
  8
BEMAßUNG
 62
     7
100
AcDbVertex
100
AcDb2dVertex
 10
-99.17809784846936
 20
58.27637395461494
 30
0.0
  0
SEQEND
  5
6F5
330
6F2
100
AcDbEntity
  8
BEMAßUNG
  0
POLYLINE
  5
6F6
330
1F
100
AcDbEntity
  8
BEMAßUNG
 62
     7
100
AcDb2dPolyline
 66
     1
 10
0.0
 20
0.0
 30
0.0
  0
VERTEX
  5
6F7
330
6F6
100
AcDbEntity
  8
BEMAßUNG
 62
     7
100
AcDbVertex
100
AcDb2dVertex
 10
-96.67799205482356
 20
58.58160941460807
 30
0.0
  0
VERTEX
  5
6F8
330
6F6
100
AcDbEntity
  8
BEMAßUNG
 62
     7
100
AcDbVertex
100
AcDb2dVertex
 10
-96.86299368238147
 20
58.58160941460807
 30
0.0
  0
SEQEND
  5
6F9
330
6F6
100
AcDbEntity
  8
BEMAßUNG
  0
POLYLINE
  5
6FA
330
1F
100
AcDbEntity
  8
BEMAßUNG
 62
     7
100
AcDb2dPolyline
 66
     1
 10
0.0
 20
0.0
 30
0.0
  0
VERTEX
  5
6FB
330
6FA
100
AcDbEntity
  8
BEMAßUNG
 62
     7
100
AcDbVertex
100
AcDb2dVertex
 10
-96.67799205482356
 20
58.58160941460807
 30
0.0
  0
VERTEX
  5
6FC
330
6FA
100
AcDbEntity
  8
BEMAßUNG
 62
     7
100
AcDbVertex
100
AcDb2dVertex
 10
-96.86299368238147
 20
58.58160941460807
 30
0.0
  0
SEQEND
  5
6FD
330
6FA
100
AcDbEntity
  8
BEMAßUNG
  0
POLYLINE
  5
6FE
330
1F
100
AcDbEntity
  8
BEMAßUNG
 62
     7
100
AcDb2dPolyline
 66
     1
 10
0.0
 20
0.0
 30
0.0
  0
VERTEX
  5
6FF
330
6FE
100
AcDbEntity
  8
BEMAßUNG
 62
     7
100
AcDbVertex
100
AcDb2dVertex
 10
-96.67799205482356
 20
58.53062200142637
 30
0.0
  0
VERTEX
  5
700
330
6FE
100
AcDbEntity
  8
BEMAßUNG
 62
     7
100
AcDbVertex
100
AcDb2dVertex
 10
-97.24918888627799
 20
58.53062200142637
 30
0.0
  0
SEQEND
  5
701
330
6FE
100
AcDbEntity
  8
BEMAßUNG
  0
POLYLINE
  5
702
330
1F
100
AcDbEntity
  8
BEMAßUNG
 62
     7
100
AcDb2dPolyline
 66
     1
 10
0.0
 20
0.0
 30
0.0
  0
VERTEX
  5
703
330
702
100
AcDbEntity
  8
BEMAßUNG
 62
     7
100
AcDbVertex
100
AcDb2dVertex
 10
-96.67799205482356
 20
58.47963458824468
 30
0.0
  0
VERTEX
  5
704
330
702
100
AcDbEntity
  8
BEMAßUNG
 62
     7
100
AcDbVertex
100
AcDb2dVertex
 10
-97.63469507107745
 20
58.47963458824468
 30
0.0
  0
SEQEND
  5
705
330
702
100
AcDbEntity
  8
BEMAßUNG
  0
POLYLINE
  5
706
330
1F
100
AcDbEntity
  8
BEMAßUNG
 62
     7
100
AcDb2dPolyline
 66
     1
 10
0.0
 20
0.0
 30
0.0
  0
VERTEX
  5
707
330
706
100
AcDbEntity
  8
BEMAßUNG
 62
     7
100
AcDbVertex
100
AcDb2dVertex
 10
-96.67799205482356
 20
58.42864717506298
 30
0.0
  0
VERTEX
  5
708
330
706
100
AcDbEntity
  8
BEMAßUNG
 62
     7
100
AcDbVertex
100
AcDb2dVertex
 10
-98.02054576542542
 20
58.42864717506298
 30
0.0
  0
SEQEND
  5
709
330
706
100
AcDbEntity
  8
BEMAßUNG
  0
POLYLINE
  5
70A
330
1F
100
AcDbEntity
  8
BEMAßUNG
 62
     7
100
AcDb2dPolyline
 66
     1
 10
0.0
 20
0.0
 30
0.0
  0
VERTEX
  5
70B
330
70A
100
AcDbEntity
  8
BEMAßUNG
 62
     7
100
AcDbVertex
100
AcDb2dVertex
 10
-96.67799205482356
 20
58.37800427142981
 30
0.0
  0
VERTEX
  5
70C
330
70A
100
AcDbEntity
  8
BEMAßUNG
 62
     7
100
AcDbVertex
100
AcDb2dVertex
 10
-98.4063964597734
 20
58.37800427142981
 30
0.0
  0
SEQEND
  5
70D
330
70A
100
AcDbEntity
  8
BEMAßUNG
  0
POLYLINE
  5
70E
330
1F
100
AcDbEntity
  8
BEMAßUNG
 62
     7
100
AcDb2dPolyline
 66
     1
 10
0.0
 20
0.0
 30
0.0
  0
VERTEX
  5
70F
330
70E
100
AcDbEntity
  8
BEMAßUNG
 62
     7
100
AcDbVertex
100
AcDb2dVertex
 10
-96.67799205482356
 20
58.32736136779663
 30
0.0
  0
VERTEX
  5
710
330
70E
100
AcDbEntity
  8
BEMAßUNG
 62
     7
100
AcDbVertex
100
AcDb2dVertex
 10
-98.79259166366991
 20
58.32736136779663
 30
0.0
  0
SEQEND
  5
711
330
70E
100
AcDbEntity
  8
BEMAßUNG
  0
POLYLINE
  5
712
330
1F
100
AcDbEntity
  8
BEMAßUNG
 62
     7
100
AcDb2dPolyline
 66
     1
 10
0.0
 20
0.0
 30
0.0
  0
VERTEX
  5
713
330
712
100
AcDbEntity
  8
BEMAßUNG
 62
     7
100
AcDbVertex
100
AcDb2dVertex
 10
-96.67799205482356
 20
58.27637395461494
 30
0.0
  0
VERTEX
  5
714
330
712
100
AcDbEntity
  8
BEMAßUNG
 62
     7
100
AcDbVertex
100
AcDb2dVertex
 10
-99.17809784846936
 20
58.27637395461494
 30
0.0
  0
SEQEND
  5
715
330
712
100
AcDbEntity
  8
BEMAßUNG
  0
POLYLINE
  5
716
330
1F
100
AcDbEntity
  8
BEMAßUNG
 62
     7
100
AcDb2dPolyline
 66
     1
 10
0.0
 20
0.0
 30
0.0
  0
VERTEX
  5
717
330
716
100
AcDbEntity
  8
BEMAßUNG
 62
     7
100
AcDbVertex
100
AcDb2dVertex
 10
-54.17860512968452
 20
58.27637395461494
 30
0.0
  0
VERTEX
  5
718
330
716
100
AcDbEntity
  8
BEMAßUNG
 62
     7
100
AcDbVertex
100
AcDb2dVertex
 10
-56.67802190423328
 20
58.60538057345629
 30
0.0
  0
VERTEX
  5
719
330
716
100
AcDbEntity
  8
BEMAßUNG
 62
     7
100
AcDbVertex
100
AcDb2dVertex
 10
-56.67802190423328
 20
57.94702282622505
 30
0.0
  0
VERTEX
  5
71A
330
716
100
AcDbEntity
  8
BEMAßUNG
 62
     7
100
AcDbVertex
100
AcDb2dVertex
 10
-54.17860512968452
 20
58.27637395461494
 30
0.0
  0
SEQEND
  5
71B
330
716
100
AcDbEntity
  8
BEMAßUNG
  0
POLYLINE
  5
71C
330
1F
100
AcDbEntity
  8
BEMAßUNG
 62
     7
100
AcDb2dPolyline
 66
     1
 10
0.0
 20
0.0
 30
0.0
  0
VERTEX
  5
71D
330
71C
100
AcDbEntity
  8
BEMAßUNG
 62
     7
100
AcDbVertex
100
AcDb2dVertex
 10
-56.67802190423328
 20
58.58160941460807
 30
0.0
  0
VERTEX
  5
71E
330
71C
100
AcDbEntity
  8
BEMAßUNG
 62
     7
100
AcDbVertex
100
AcDb2dVertex
 10
-56.49302027667536
 20
58.58160941460807
 30
0.0
  0
SEQEND
  5
71F
330
71C
100
AcDbEntity
  8
BEMAßUNG
  0
POLYLINE
  5
720
330
1F
100
AcDbEntity
  8
BEMAßUNG
 62
     7
100
AcDb2dPolyline
 66
     1
 10
0.0
 20
0.0
 30
0.0
  0
VERTEX
  5
721
330
720
100
AcDbEntity
  8
BEMAßUNG
 62
     7
100
AcDbVertex
100
AcDb2dVertex
 10
-56.67802190423328
 20
58.58160941460807
 30
0.0
  0
VERTEX
  5
722
330
720
100
AcDbEntity
  8
BEMAßUNG
 62
     7
100
AcDbVertex
100
AcDb2dVertex
 10
-56.49302027667536
 20
58.58160941460807
 30
0.0
  0
SEQEND
  5
723
330
720
100
AcDbEntity
  8
BEMAßUNG
  0
POLYLINE
  5
724
330
1F
100
AcDbEntity
  8
BEMAßUNG
 62
     7
100
AcDb2dPolyline
 66
     1
 10
0.0
 20
0.0
 30
0.0
  0
VERTEX
  5
725
330
724
100
AcDbEntity
  8
BEMAßUNG
 62
     7
100
AcDbVertex
100
AcDb2dVertex
 10
-56.67802190423328
 20
58.53062200142637
 30
0.0
  0
VERTEX
  5
726
330
724
100
AcDbEntity
  8
BEMAßUNG
 62
     7
100
AcDbVertex
100
AcDb2dVertex
 10
-56.10785860142443
 20
58.53062200142637
 30
0.0
  0
SEQEND
  5
727
330
724
100
AcDbEntity
  8
BEMAßUNG
  0
POLYLINE
  5
728
330
1F
100
AcDbEntity
  8
BEMAßUNG
 62
     7
100
AcDb2dPolyline
 66
     1
 10
0.0
 20
0.0
 30
0.0
  0
VERTEX
  5
729
330
728
100
AcDbEntity
  8
BEMAßUNG
 62
     7
100
AcDbVertex
100
AcDb2dVertex
 10
-56.67802190423328
 20
58.47963458824468
 30
0.0
  0
VERTEX
  5
72A
330
728
100
AcDbEntity
  8
BEMAßUNG
 62
     7
100
AcDbVertex
100
AcDb2dVertex
 10
-55.72200790707645
 20
58.47963458824468
 30
0.0
  0
SEQEND
  5
72B
330
728
100
AcDbEntity
  8
BEMAßUNG
  0
POLYLINE
  5
72C
330
1F
100
AcDbEntity
  8
BEMAßUNG
 62
     7
100
AcDb2dPolyline
 66
     1
 10
0.0
 20
0.0
 30
0.0
  0
VERTEX
  5
72D
330
72C
100
AcDbEntity
  8
BEMAßUNG
 62
     7
100
AcDbVertex
100
AcDb2dVertex
 10
-56.67802190423328
 20
58.42864717506298
 30
0.0
  0
VERTEX
  5
72E
330
72C
100
AcDbEntity
  8
BEMAßUNG
 62
     7
100
AcDbVertex
100
AcDb2dVertex
 10
-55.33546819363141
 20
58.42864717506298
 30
0.0
  0
SEQEND
  5
72F
330
72C
100
AcDbEntity
  8
BEMAßUNG
  0
POLYLINE
  5
730
330
1F
100
AcDbEntity
  8
BEMAßUNG
 62
     7
100
AcDb2dPolyline
 66
     1
 10
0.0
 20
0.0
 30
0.0
  0
VERTEX
  5
731
330
730
100
AcDbEntity
  8
BEMAßUNG
 62
     7
100
AcDbVertex
100
AcDb2dVertex
 10
-56.67802190423328
 20
58.37800427142981
 30
0.0
  0
VERTEX
  5
732
330
730
100
AcDbEntity
  8
BEMAßUNG
 62
     7
100
AcDbVertex
100
AcDb2dVertex
 10
-54.95030651838048
 20
58.37800427142981
 30
0.0
  0
SEQEND
  5
733
330
730
100
AcDbEntity
  8
BEMAßUNG
  0
POLYLINE
  5
734
330
1F
100
AcDbEntity
  8
BEMAßUNG
 62
     7
100
AcDb2dPolyline
 66
     1
 10
0.0
 20
0.0
 30
0.0
  0
VERTEX
  5
735
330
734
100
AcDbEntity
  8
BEMAßUNG
 62
     7
100
AcDbVertex
100
AcDb2dVertex
 10
-56.67802190423328
 20
58.32736136779663
 30
0.0
  0
VERTEX
  5
736
330
734
100
AcDbEntity
  8
BEMAßUNG
 62
     7
100
AcDbVertex
100
AcDb2dVertex
 10
-54.5644558240325
 20
58.32736136779663
 30
0.0
  0
SEQEND
  5
737
330
734
100
AcDbEntity
  8
BEMAßUNG
  0
POLYLINE
  5
738
330
1F
100
AcDbEntity
  8
BEMAßUNG
 62
     7
100
AcDb2dPolyline
 66
     1
 10
0.0
 20
0.0
 30
0.0
  0
VERTEX
  5
739
330
738
100
AcDbEntity
  8
BEMAßUNG
 62
     7
100
AcDbVertex
100
AcDb2dVertex
 10
-56.67802190423328
 20
58.27637395461494
 30
0.0
  0
VERTEX
  5
73A
330
738
100
AcDbEntity
  8
BEMAßUNG
 62
     7
100
AcDbVertex
100
AcDb2dVertex
 10
-54.17860512968452
 20
58.27637395461494
 30
0.0
  0
SEQEND
  5
73B
330
738
100
AcDbEntity
  8
BEMAßUNG
  0
POLYLINE
  5
73C
330
1F
100
AcDbEntity
  8
BEMAßUNG
 62
     7
100
AcDb2dPolyline
 66
     1
 10
0.0
 20
0.0
 30
0.0
  0
VERTEX
  5
73D
330
73C
100
AcDbEntity
  8
BEMAßUNG
 62
     7
100
AcDbVertex
100
AcDb2dVertex
 10
-56.67802190423328
 20
57.97148300417032
 30
0.0
  0
VERTEX
  5
73E
330
73C
100
AcDbEntity
  8
BEMAßUNG
 62
     7
100
AcDbVertex
100
AcDb2dVertex
 10
-56.49302027667536
 20
57.97148300417032
 30
0.0
  0
SEQEND
  5
73F
330
73C
100
AcDbEntity
  8
BEMAßUNG
  0
POLYLINE
  5
740
330
1F
100
AcDbEntity
  8
BEMAßUNG
 62
     7
100
AcDb2dPolyline
 66
     1
 10
0.0
 20
0.0
 30
0.0
  0
VERTEX
  5
741
330
740
100
AcDbEntity
  8
BEMAßUNG
 62
     7
100
AcDbVertex
100
AcDb2dVertex
 10
-56.67802190423328
 20
57.97148300417032
 30
0.0
  0
VERTEX
  5
742
330
740
100
AcDbEntity
  8
BEMAßUNG
 62
     7
100
AcDbVertex
100
AcDb2dVertex
 10
-56.49302027667536
 20
57.97148300417032
 30
0.0
  0
SEQEND
  5
743
330
740
100
AcDbEntity
  8
BEMAßUNG
  0
POLYLINE
  5
744
330
1F
100
AcDbEntity
  8
BEMAßUNG
 62
     7
100
AcDb2dPolyline
 66
     1
 10
0.0
 20
0.0
 30
0.0
  0
VERTEX
  5
745
330
744
100
AcDbEntity
  8
BEMAßUNG
 62
     7
100
AcDbVertex
100
AcDb2dVertex
 10
-56.67802190423328
 20
58.0221259078035
 30
0.0
  0
VERTEX
  5
746
330
744
100
AcDbEntity
  8
BEMAßUNG
 62
     7
100
AcDbVertex
100
AcDb2dVertex
 10
-56.10785860142443
 20
58.0221259078035
 30
0.0
  0
SEQEND
  5
747
330
744
100
AcDbEntity
  8
BEMAßUNG
  0
POLYLINE
  5
748
330
1F
100
AcDbEntity
  8
BEMAßUNG
 62
     7
100
AcDb2dPolyline
 66
     1
 10
0.0
 20
0.0
 30
0.0
  0
VERTEX
  5
749
330
748
100
AcDbEntity
  8
BEMAßUNG
 62
     7
100
AcDbVertex
100
AcDb2dVertex
 10
-56.67802190423328
 20
58.07345783053372
 30
0.0
  0
VERTEX
  5
74A
330
748
100
AcDbEntity
  8
BEMAßUNG
 62
     7
100
AcDbVertex
100
AcDb2dVertex
 10
-55.72200790707645
 20
58.07345783053372
 30
0.0
  0
SEQEND
  5
74B
330
748
100
AcDbEntity
  8
BEMAßUNG
  0
POLYLINE
  5
74C
330
1F
100
AcDbEntity
  8
BEMAßUNG
 62
     7
100
AcDb2dPolyline
 66
     1
 10
0.0
 20
0.0
 30
0.0
  0
VERTEX
  5
74D
330
74C
100
AcDbEntity
  8
BEMAßUNG
 62
     7
100
AcDbVertex
100
AcDb2dVertex
 10
-56.67802190423328
 20
58.12410073416689
 30
0.0
  0
VERTEX
  5
74E
330
74C
100
AcDbEntity
  8
BEMAßUNG
 62
     7
100
AcDbVertex
100
AcDb2dVertex
 10
-55.33546819363141
 20
58.12410073416689
 30
0.0
  0
SEQEND
  5
74F
330
74C
100
AcDbEntity
  8
BEMAßUNG
  0
POLYLINE
  5
750
330
1F
100
AcDbEntity
  8
BEMAßUNG
 62
     7
100
AcDb2dPolyline
 66
     1
 10
0.0
 20
0.0
 30
0.0
  0
VERTEX
  5
751
330
750
100
AcDbEntity
  8
BEMAßUNG
 62
     7
100
AcDbVertex
100
AcDb2dVertex
 10
-56.67802190423328
 20
58.17474363780007
 30
0.0
  0
VERTEX
  5
752
330
750
100
AcDbEntity
  8
BEMAßUNG
 62
     7
100
AcDbVertex
100
AcDb2dVertex
 10
-54.95030651838048
 20
58.17474363780007
 30
0.0
  0
SEQEND
  5
753
330
750
100
AcDbEntity
  8
BEMAßUNG
  0
POLYLINE
  5
754
330
1F
100
AcDbEntity
  8
BEMAßUNG
 62
     7
100
AcDb2dPolyline
 66
     1
 10
0.0
 20
0.0
 30
0.0
  0
VERTEX
  5
755
330
754
100
AcDbEntity
  8
BEMAßUNG
 62
     7
100
AcDbVertex
100
AcDb2dVertex
 10
-56.67802190423328
 20
58.22538654143324
 30
0.0
  0
VERTEX
  5
756
330
754
100
AcDbEntity
  8
BEMAßUNG
 62
     7
100
AcDbVertex
100
AcDb2dVertex
 10
-54.5644558240325
 20
58.22538654143324
 30
0.0
  0
SEQEND
  5
757
330
754
100
AcDbEntity
  8
BEMAßUNG
  0
POLYLINE
  5
758
330
1F
100
AcDbEntity
  8
BEMAßUNG
 62
     7
100
AcDb2dPolyline
 66
     1
 10
0.0
 20
0.0
 30
0.0
  0
VERTEX
  5
759
330
758
100
AcDbEntity
  8
BEMAßUNG
 62
     7
100
AcDbVertex
100
AcDb2dVertex
 10
-56.67802190423328
 20
58.27637395461494
 30
0.0
  0
VERTEX
  5
75A
330
758
100
AcDbEntity
  8
BEMAßUNG
 62
     7
100
AcDbVertex
100
AcDb2dVertex
 10
-54.17860512968452
 20
58.27637395461494
 30
0.0
  0
SEQEND
  5
75B
330
758
100
AcDbEntity
  8
BEMAßUNG
  0
POLYLINE
  5
75C
330
1F
100
AcDbEntity
  8
BEMAßUNG
 62
     7
100
AcDb2dPolyline
 66
     1
 10
0.0
 20
0.0
 30
0.0
  0
VERTEX
  5
75D
330
75C
100
AcDbEntity
  8
BEMAßUNG
 62
     7
100
AcDbVertex
100
AcDb2dVertex
 10
-61.17800562706661
 20
35.40162895165307
 30
0.0
  0
VERTEX
  5
75E
330
75C
100
AcDbEntity
  8
BEMAßUNG
 62
     7
100
AcDbVertex
100
AcDb2dVertex
 10
-31.64595810840796
 20
35.40162895165307
 30
0.0
  0
SEQEND
  5
75F
330
75C
100
AcDbEntity
  8
BEMAßUNG
  0
POLYLINE
  5
760
330
1F
100
AcDbEntity
  8
BEMAßUNG
 62
     7
100
AcDb2dPolyline
 66
     1
 10
0.0
 20
0.0
 30
0.0
  0
VERTEX
  5
761
330
760
100
AcDbEntity
  8
BEMAßUNG
 62
     7
100
AcDbVertex
100
AcDb2dVertex
 10
-61.17800562706661
 20
21.4017944282433
 30
0.0
  0
VERTEX
  5
762
330
760
100
AcDbEntity
  8
BEMAßUNG
 62
     7
100
AcDbVertex
100
AcDb2dVertex
 10
-31.64595810840796
 20
21.4017944282433
 30
0.0
  0
SEQEND
  5
763
330
760
100
AcDbEntity
  8
BEMAßUNG
  0
POLYLINE
  5
764
330
1F
100
AcDbEntity
  8
BEMAßUNG
 62
     7
100
AcDb2dPolyline
 66
     1
 10
0.0
 20
0.0
 30
0.0
  0
VERTEX
  5
765
330
764
100
AcDbEntity
  8
BEMAßUNG
 62
     7
100
AcDbVertex
100
AcDb2dVertex
 10
-33.64549152804696
 20
35.40162895165307
 30
0.0
  0
VERTEX
  5
766
330
764
100
AcDbEntity
  8
BEMAßUNG
 62
     7
100
AcDbVertex
100
AcDb2dVertex
 10
-33.64549152804696
 20
21.4017944282433
 30
0.0
  0
SEQEND
  5
767
330
764
100
AcDbEntity
  8
BEMAßUNG
  0
POLYLINE
  5
768
330
1F
100
AcDbEntity
  8
BEMAßUNG
 62
     7
100
AcDb2dPolyline
 66
     1
 10
0.0
 20
0.0
 30
0.0
  0
VERTEX
  5
769
330
768
100
AcDbEntity
  8
BEMAßUNG
 62
     7
100
AcDbVertex
100
AcDb2dVertex
 10
-33.64549152804696
 20
35.40162895165307
 30
0.0
  0
VERTEX
  5
76A
330
768
100
AcDbEntity
  8
BEMAßUNG
 62
     7
100
AcDbVertex
100
AcDb2dVertex
 10
-33.97484265643685
 20
32.90152315800726
 30
0.0
  0
VERTEX
  5
76B
330
768
100
AcDbEntity
  8
BEMAßUNG
 62
     7
100
AcDbVertex
100
AcDb2dVertex
 10
-33.31648490920561
 20
32.90152315800726
 30
0.0
  0
VERTEX
  5
76C
330
768
100
AcDbEntity
  8
BEMAßUNG
 62
     7
100
AcDbVertex
100
AcDb2dVertex
 10
-33.64549152804696
 20
35.40162895165307
 30
0.0
  0
SEQEND
  5
76D
330
768
100
AcDbEntity
  8
BEMAßUNG
  0
POLYLINE
  5
76E
330
1F
100
AcDbEntity
  8
BEMAßUNG
 62
     7
100
AcDb2dPolyline
 66
     1
 10
0.0
 20
0.0
 30
0.0
  0
VERTEX
  5
76F
330
76E
100
AcDbEntity
  8
BEMAßUNG
 62
     7
100
AcDbVertex
100
AcDb2dVertex
 10
-33.95038247849157
 20
32.90152315800726
 30
0.0
  0
VERTEX
  5
770
330
76E
100
AcDbEntity
  8
BEMAßUNG
 62
     7
100
AcDbVertex
100
AcDb2dVertex
 10
-33.95038247849157
 20
33.08618027601665
 30
0.0
  0
SEQEND
  5
771
330
76E
100
AcDbEntity
  8
BEMAßUNG
  0
POLYLINE
  5
772
330
1F
100
AcDbEntity
  8
BEMAßUNG
 62
     7
100
AcDb2dPolyline
 66
     1
 10
0.0
 20
0.0
 30
0.0
  0
VERTEX
  5
773
330
772
100
AcDbEntity
  8
BEMAßUNG
 62
     7
100
AcDbVertex
100
AcDb2dVertex
 10
-33.95038247849157
 20
32.90152315800726
 30
0.0
  0
VERTEX
  5
774
330
772
100
AcDbEntity
  8
BEMAßUNG
 62
     7
100
AcDbVertex
100
AcDb2dVertex
 10
-33.95038247849157
 20
33.08618027601665
 30
0.0
  0
SEQEND
  5
775
330
772
100
AcDbEntity
  8
BEMAßUNG
  0
POLYLINE
  5
776
330
1F
100
AcDbEntity
  8
BEMAßUNG
 62
     7
100
AcDb2dPolyline
 66
     1
 10
0.0
 20
0.0
 30
0.0
  0
VERTEX
  5
777
330
776
100
AcDbEntity
  8
BEMAßUNG
 62
     7
100
AcDbVertex
100
AcDb2dVertex
 10
-33.8997395748584
 20
32.90152315800726
 30
0.0
  0
VERTEX
  5
778
330
776
100
AcDbEntity
  8
BEMAßUNG
 62
     7
100
AcDbVertex
100
AcDb2dVertex
 10
-33.8997395748584
 20
33.47271998946168
 30
0.0
  0
SEQEND
  5
779
330
776
100
AcDbEntity
  8
BEMAßUNG
  0
POLYLINE
  5
77A
330
1F
100
AcDbEntity
  8
BEMAßUNG
 62
     7
100
AcDb2dPolyline
 66
     1
 10
0.0
 20
0.0
 30
0.0
  0
VERTEX
  5
77B
330
77A
100
AcDbEntity
  8
BEMAßUNG
 62
     7
100
AcDbVertex
100
AcDb2dVertex
 10
-33.8487521616767
 20
32.90152315800726
 30
0.0
  0
VERTEX
  5
77C
330
77A
100
AcDbEntity
  8
BEMAßUNG
 62
     7
100
AcDbVertex
100
AcDb2dVertex
 10
-33.8487521616767
 20
33.85822617426114
 30
0.0
  0
SEQEND
  5
77D
330
77A
100
AcDbEntity
  8
BEMAßUNG
  0
POLYLINE
  5
77E
330
1F
100
AcDbEntity
  8
BEMAßUNG
 62
     7
100
AcDb2dPolyline
 66
     1
 10
0.0
 20
0.0
 30
0.0
  0
VERTEX
  5
77F
330
77E
100
AcDbEntity
  8
BEMAßUNG
 62
     7
100
AcDbVertex
100
AcDb2dVertex
 10
-33.79742023894648
 20
32.90152315800726
 30
0.0
  0
VERTEX
  5
780
330
77E
100
AcDbEntity
  8
BEMAßUNG
 62
     7
100
AcDbVertex
100
AcDb2dVertex
 10
-33.79742023894648
 20
34.24442137815765
 30
0.0
  0
SEQEND
  5
781
330
77E
100
AcDbEntity
  8
BEMAßUNG
  0
POLYLINE
  5
782
330
1F
100
AcDbEntity
  8
BEMAßUNG
 62
     7
100
AcDb2dPolyline
 66
     1
 10
0.0
 20
0.0
 30
0.0
  0
VERTEX
  5
783
330
782
100
AcDbEntity
  8
BEMAßUNG
 62
     7
100
AcDbVertex
100
AcDb2dVertex
 10
-33.7467773353133
 20
32.90152315800726
 30
0.0
  0
VERTEX
  5
784
330
782
100
AcDbEntity
  8
BEMAßUNG
 62
     7
100
AcDbVertex
100
AcDb2dVertex
 10
-33.7467773353133
 20
34.6299275629571
 30
0.0
  0
SEQEND
  5
785
330
782
100
AcDbEntity
  8
BEMAßUNG
  0
POLYLINE
  5
786
330
1F
100
AcDbEntity
  8
BEMAßUNG
 62
     7
100
AcDb2dPolyline
 66
     1
 10
0.0
 20
0.0
 30
0.0
  0
VERTEX
  5
787
330
786
100
AcDbEntity
  8
BEMAßUNG
 62
     7
100
AcDbVertex
100
AcDb2dVertex
 10
-33.69613443168014
 20
32.90152315800726
 30
0.0
  0
VERTEX
  5
788
330
786
100
AcDbEntity
  8
BEMAßUNG
 62
     7
100
AcDbVertex
100
AcDb2dVertex
 10
-33.69613443168014
 20
35.01612276685361
 30
0.0
  0
SEQEND
  5
789
330
786
100
AcDbEntity
  8
BEMAßUNG
  0
POLYLINE
  5
78A
330
1F
100
AcDbEntity
  8
BEMAßUNG
 62
     7
100
AcDb2dPolyline
 66
     1
 10
0.0
 20
0.0
 30
0.0
  0
VERTEX
  5
78B
330
78A
100
AcDbEntity
  8
BEMAßUNG
 62
     7
100
AcDbVertex
100
AcDb2dVertex
 10
-33.64549152804696
 20
32.90152315800726
 30
0.0
  0
VERTEX
  5
78C
330
78A
100
AcDbEntity
  8
BEMAßUNG
 62
     7
100
AcDbVertex
100
AcDb2dVertex
 10
-33.64549152804696
 20
35.40162895165307
 30
0.0
  0
SEQEND
  5
78D
330
78A
100
AcDbEntity
  8
BEMAßUNG
  0
POLYLINE
  5
78E
330
1F
100
AcDbEntity
  8
BEMAßUNG
 62
     7
100
AcDb2dPolyline
 66
     1
 10
0.0
 20
0.0
 30
0.0
  0
VERTEX
  5
78F
330
78E
100
AcDbEntity
  8
BEMAßUNG
 62
     7
100
AcDbVertex
100
AcDb2dVertex
 10
-33.34094508715088
 20
32.90152315800726
 30
0.0
  0
VERTEX
  5
790
330
78E
100
AcDbEntity
  8
BEMAßUNG
 62
     7
100
AcDbVertex
100
AcDb2dVertex
 10
-33.34094508715088
 20
33.08618027601665
 30
0.0
  0
SEQEND
  5
791
330
78E
100
AcDbEntity
  8
BEMAßUNG
  0
POLYLINE
  5
792
330
1F
100
AcDbEntity
  8
BEMAßUNG
 62
     7
100
AcDb2dPolyline
 66
     1
 10
0.0
 20
0.0
 30
0.0
  0
VERTEX
  5
793
330
792
100
AcDbEntity
  8
BEMAßUNG
 62
     7
100
AcDbVertex
100
AcDb2dVertex
 10
-33.34094508715088
 20
32.90152315800726
 30
0.0
  0
VERTEX
  5
794
330
792
100
AcDbEntity
  8
BEMAßUNG
 62
     7
100
AcDbVertex
100
AcDb2dVertex
 10
-33.34094508715088
 20
33.08618027601665
 30
0.0
  0
SEQEND
  5
795
330
792
100
AcDbEntity
  8
BEMAßUNG
  0
POLYLINE
  5
796
330
1F
100
AcDbEntity
  8
BEMAßUNG
 62
     7
100
AcDb2dPolyline
 66
     1
 10
0.0
 20
0.0
 30
0.0
  0
VERTEX
  5
797
330
796
100
AcDbEntity
  8
BEMAßUNG
 62
     7
100
AcDbVertex
100
AcDb2dVertex
 10
-33.39158799078405
 20
32.90152315800726
 30
0.0
  0
VERTEX
  5
798
330
796
100
AcDbEntity
  8
BEMAßUNG
 62
     7
100
AcDbVertex
100
AcDb2dVertex
 10
-33.39158799078405
 20
33.47271998946168
 30
0.0
  0
SEQEND
  5
799
330
796
100
AcDbEntity
  8
BEMAßUNG
  0
POLYLINE
  5
79A
330
1F
100
AcDbEntity
  8
BEMAßUNG
 62
     7
100
AcDb2dPolyline
 66
     1
 10
0.0
 20
0.0
 30
0.0
  0
VERTEX
  5
79B
330
79A
100
AcDbEntity
  8
BEMAßUNG
 62
     7
100
AcDbVertex
100
AcDb2dVertex
 10
-33.44223089441722
 20
32.90152315800726
 30
0.0
  0
VERTEX
  5
79C
330
79A
100
AcDbEntity
  8
BEMAßUNG
 62
     7
100
AcDbVertex
100
AcDb2dVertex
 10
-33.44223089441722
 20
33.85822617426114
 30
0.0
  0
SEQEND
  5
79D
330
79A
100
AcDbEntity
  8
BEMAßUNG
  0
POLYLINE
  5
79E
330
1F
100
AcDbEntity
  8
BEMAßUNG
 62
     7
100
AcDb2dPolyline
 66
     1
 10
0.0
 20
0.0
 30
0.0
  0
VERTEX
  5
79F
330
79E
100
AcDbEntity
  8
BEMAßUNG
 62
     7
100
AcDbVertex
100
AcDb2dVertex
 10
-33.49390732669597
 20
32.90152315800726
 30
0.0
  0
VERTEX
  5
7A0
330
79E
100
AcDbEntity
  8
BEMAßUNG
 62
     7
100
AcDbVertex
100
AcDb2dVertex
 10
-33.49390732669597
 20
34.24442137815765
 30
0.0
  0
SEQEND
  5
7A1
330
79E
100
AcDbEntity
  8
BEMAßUNG
  0
POLYLINE
  5
7A2
330
1F
100
AcDbEntity
  8
BEMAßUNG
 62
     7
100
AcDb2dPolyline
 66
     1
 10
0.0
 20
0.0
 30
0.0
  0
VERTEX
  5
7A3
330
7A2
100
AcDbEntity
  8
BEMAßUNG
 62
     7
100
AcDbVertex
100
AcDb2dVertex
 10
-33.54386121123209
 20
32.90152315800726
 30
0.0
  0
VERTEX
  5
7A4
330
7A2
100
AcDbEntity
  8
BEMAßUNG
 62
     7
100
AcDbVertex
100
AcDb2dVertex
 10
-33.54386121123209
 20
34.6299275629571
 30
0.0
  0
SEQEND
  5
7A5
330
7A2
100
AcDbEntity
  8
BEMAßUNG
  0
POLYLINE
  5
7A6
330
1F
100
AcDbEntity
  8
BEMAßUNG
 62
     7
100
AcDb2dPolyline
 66
     1
 10
0.0
 20
0.0
 30
0.0
  0
VERTEX
  5
7A7
330
7A6
100
AcDbEntity
  8
BEMAßUNG
 62
     7
100
AcDbVertex
100
AcDb2dVertex
 10
-33.59450411486527
 20
32.90152315800726
 30
0.0
  0
VERTEX
  5
7A8
330
7A6
100
AcDbEntity
  8
BEMAßUNG
 62
     7
100
AcDbVertex
100
AcDb2dVertex
 10
-33.59450411486527
 20
35.01612276685361
 30
0.0
  0
SEQEND
  5
7A9
330
7A6
100
AcDbEntity
  8
BEMAßUNG
  0
POLYLINE
  5
7AA
330
1F
100
AcDbEntity
  8
BEMAßUNG
 62
     7
100
AcDb2dPolyline
 66
     1
 10
0.0
 20
0.0
 30
0.0
  0
VERTEX
  5
7AB
330
7AA
100
AcDbEntity
  8
BEMAßUNG
 62
     7
100
AcDbVertex
100
AcDb2dVertex
 10
-33.64549152804696
 20
32.90152315800726
 30
0.0
  0
VERTEX
  5
7AC
330
7AA
100
AcDbEntity
  8
BEMAßUNG
 62
     7
100
AcDbVertex
100
AcDb2dVertex
 10
-33.64549152804696
 20
35.40162895165307
 30
0.0
  0
SEQEND
  5
7AD
330
7AA
100
AcDbEntity
  8
BEMAßUNG
  0
POLYLINE
  5
7AE
330
1F
100
AcDbEntity
  8
BEMAßUNG
 62
     7
100
AcDb2dPolyline
 66
     1
 10
0.0
 20
0.0
 30
0.0
  0
VERTEX
  5
7AF
330
7AE
100
AcDbEntity
  8
BEMAßUNG
 62
     7
100
AcDbVertex
100
AcDb2dVertex
 10
-33.64549152804696
 20
21.4017944282433
 30
0.0
  0
VERTEX
  5
7B0
330
7AE
100
AcDbEntity
  8
BEMAßUNG
 62
     7
100
AcDbVertex
100
AcDb2dVertex
 10
-33.31648490920561
 20
23.90224473143763
 30
0.0
  0
VERTEX
  5
7B1
330
7AE
100
AcDbEntity
  8
BEMAßUNG
 62
     7
100
AcDbVertex
100
AcDb2dVertex
 10
-33.97484265643685
 20
23.90224473143763
 30
0.0
  0
VERTEX
  5
7B2
330
7AE
100
AcDbEntity
  8
BEMAßUNG
 62
     7
100
AcDbVertex
100
AcDb2dVertex
 10
-33.64549152804696
 20
21.4017944282433
 30
0.0
  0
SEQEND
  5
7B3
330
7AE
100
AcDbEntity
  8
BEMAßUNG
  0
POLYLINE
  5
7B4
330
1F
100
AcDbEntity
  8
BEMAßUNG
 62
     7
100
AcDb2dPolyline
 66
     1
 10
0.0
 20
0.0
 30
0.0
  0
VERTEX
  5
7B5
330
7B4
100
AcDbEntity
  8
BEMAßUNG
 62
     7
100
AcDbVertex
100
AcDb2dVertex
 10
-33.34094508715088
 20
23.90224473143763
 30
0.0
  0
VERTEX
  5
7B6
330
7B4
100
AcDbEntity
  8
BEMAßUNG
 62
     7
100
AcDbVertex
100
AcDb2dVertex
 10
-33.34094508715088
 20
23.71724310387972
 30
0.0
  0
SEQEND
  5
7B7
330
7B4
100
AcDbEntity
  8
BEMAßUNG
  0
POLYLINE
  5
7B8
330
1F
100
AcDbEntity
  8
BEMAßUNG
 62
     7
100
AcDb2dPolyline
 66
     1
 10
0.0
 20
0.0
 30
0.0
  0
VERTEX
  5
7B9
330
7B8
100
AcDbEntity
  8
BEMAßUNG
 62
     7
100
AcDbVertex
100
AcDb2dVertex
 10
-33.34094508715088
 20
23.90224473143763
 30
0.0
  0
VERTEX
  5
7BA
330
7B8
100
AcDbEntity
  8
BEMAßUNG
 62
     7
100
AcDbVertex
100
AcDb2dVertex
 10
-33.34094508715088
 20
23.71724310387972
 30
0.0
  0
SEQEND
  5
7BB
330
7B8
100
AcDbEntity
  8
BEMAßUNG
  0
POLYLINE
  5
7BC
330
1F
100
AcDbEntity
  8
BEMAßUNG
 62
     7
100
AcDb2dPolyline
 66
     1
 10
0.0
 20
0.0
 30
0.0
  0
VERTEX
  5
7BD
330
7BC
100
AcDbEntity
  8
BEMAßUNG
 62
     7
100
AcDbVertex
100
AcDb2dVertex
 10
-33.39158799078405
 20
23.90224473143763
 30
0.0
  0
VERTEX
  5
7BE
330
7BC
100
AcDbEntity
  8
BEMAßUNG
 62
     7
100
AcDbVertex
100
AcDb2dVertex
 10
-33.39158799078405
 20
23.33070339043469
 30
0.0
  0
SEQEND
  5
7BF
330
7BC
100
AcDbEntity
  8
BEMAßUNG
  0
POLYLINE
  5
7C0
330
1F
100
AcDbEntity
  8
BEMAßUNG
 62
     7
100
AcDb2dPolyline
 66
     1
 10
0.0
 20
0.0
 30
0.0
  0
VERTEX
  5
7C1
330
7C0
100
AcDbEntity
  8
BEMAßUNG
 62
     7
100
AcDbVertex
100
AcDb2dVertex
 10
-33.44223089441722
 20
23.90224473143763
 30
0.0
  0
VERTEX
  5
7C2
330
7C0
100
AcDbEntity
  8
BEMAßUNG
 62
     7
100
AcDbVertex
100
AcDb2dVertex
 10
-33.44223089441722
 20
22.94519720563523
 30
0.0
  0
SEQEND
  5
7C3
330
7C0
100
AcDbEntity
  8
BEMAßUNG
  0
POLYLINE
  5
7C4
330
1F
100
AcDbEntity
  8
BEMAßUNG
 62
     7
100
AcDb2dPolyline
 66
     1
 10
0.0
 20
0.0
 30
0.0
  0
VERTEX
  5
7C5
330
7C4
100
AcDbEntity
  8
BEMAßUNG
 62
     7
100
AcDbVertex
100
AcDb2dVertex
 10
-33.49390732669597
 20
23.90224473143763
 30
0.0
  0
VERTEX
  5
7C6
330
7C4
100
AcDbEntity
  8
BEMAßUNG
 62
     7
100
AcDbVertex
100
AcDb2dVertex
 10
-33.49390732669597
 20
22.5586574921902
 30
0.0
  0
SEQEND
  5
7C7
330
7C4
100
AcDbEntity
  8
BEMAßUNG
  0
POLYLINE
  5
7C8
330
1F
100
AcDbEntity
  8
BEMAßUNG
 62
     7
100
AcDb2dPolyline
 66
     1
 10
0.0
 20
0.0
 30
0.0
  0
VERTEX
  5
7C9
330
7C8
100
AcDbEntity
  8
BEMAßUNG
 62
     7
100
AcDbVertex
100
AcDb2dVertex
 10
-33.54386121123209
 20
23.90224473143763
 30
0.0
  0
VERTEX
  5
7CA
330
7C8
100
AcDbEntity
  8
BEMAßUNG
 62
     7
100
AcDbVertex
100
AcDb2dVertex
 10
-33.54386121123209
 20
22.17384032648779
 30
0.0
  0
SEQEND
  5
7CB
330
7C8
100
AcDbEntity
  8
BEMAßUNG
  0
POLYLINE
  5
7CC
330
1F
100
AcDbEntity
  8
BEMAßUNG
 62
     7
100
AcDb2dPolyline
 66
     1
 10
0.0
 20
0.0
 30
0.0
  0
VERTEX
  5
7CD
330
7CC
100
AcDbEntity
  8
BEMAßUNG
 62
     7
100
AcDbVertex
100
AcDb2dVertex
 10
-33.59450411486527
 20
23.90224473143763
 30
0.0
  0
VERTEX
  5
7CE
330
7CC
100
AcDbEntity
  8
BEMAßUNG
 62
     7
100
AcDbVertex
100
AcDb2dVertex
 10
-33.59450411486527
 20
21.78730061304276
 30
0.0
  0
SEQEND
  5
7CF
330
7CC
100
AcDbEntity
  8
BEMAßUNG
  0
POLYLINE
  5
7D0
330
1F
100
AcDbEntity
  8
BEMAßUNG
 62
     7
100
AcDb2dPolyline
 66
     1
 10
0.0
 20
0.0
 30
0.0
  0
VERTEX
  5
7D1
330
7D0
100
AcDbEntity
  8
BEMAßUNG
 62
     7
100
AcDbVertex
100
AcDb2dVertex
 10
-33.64549152804696
 20
23.90224473143763
 30
0.0
  0
VERTEX
  5
7D2
330
7D0
100
AcDbEntity
  8
BEMAßUNG
 62
     7
100
AcDbVertex
100
AcDb2dVertex
 10
-33.64549152804696
 20
21.4017944282433
 30
0.0
  0
SEQEND
  5
7D3
330
7D0
100
AcDbEntity
  8
BEMAßUNG
  0
POLYLINE
  5
7D4
330
1F
100
AcDbEntity
  8
BEMAßUNG
 62
     7
100
AcDb2dPolyline
 66
     1
 10
0.0
 20
0.0
 30
0.0
  0
VERTEX
  5
7D5
330
7D4
100
AcDbEntity
  8
BEMAßUNG
 62
     7
100
AcDbVertex
100
AcDb2dVertex
 10
-33.95038247849157
 20
23.90224473143763
 30
0.0
  0
VERTEX
  5
7D6
330
7D4
100
AcDbEntity
  8
BEMAßUNG
 62
     7
100
AcDbVertex
100
AcDb2dVertex
 10
-33.95038247849157
 20
23.71724310387972
 30
0.0
  0
SEQEND
  5
7D7
330
7D4
100
AcDbEntity
  8
BEMAßUNG
  0
POLYLINE
  5
7D8
330
1F
100
AcDbEntity
  8
BEMAßUNG
 62
     7
100
AcDb2dPolyline
 66
     1
 10
0.0
 20
0.0
 30
0.0
  0
VERTEX
  5
7D9
330
7D8
100
AcDbEntity
  8
BEMAßUNG
 62
     7
100
AcDbVertex
100
AcDb2dVertex
 10
-33.95038247849157
 20
23.90224473143763
 30
0.0
  0
VERTEX
  5
7DA
330
7D8
100
AcDbEntity
  8
BEMAßUNG
 62
     7
100
AcDbVertex
100
AcDb2dVertex
 10
-33.95038247849157
 20
23.71724310387972
 30
0.0
  0
SEQEND
  5
7DB
330
7D8
100
AcDbEntity
  8
BEMAßUNG
  0
POLYLINE
  5
7DC
330
1F
100
AcDbEntity
  8
BEMAßUNG
 62
     7
100
AcDb2dPolyline
 66
     1
 10
0.0
 20
0.0
 30
0.0
  0
VERTEX
  5
7DD
330
7DC
100
AcDbEntity
  8
BEMAßUNG
 62
     7
100
AcDbVertex
100
AcDb2dVertex
 10
-33.8997395748584
 20
23.90224473143763
 30
0.0
  0
VERTEX
  5
7DE
330
7DC
100
AcDbEntity
  8
BEMAßUNG
 62
     7
100
AcDbVertex
100
AcDb2dVertex
 10
-33.8997395748584
 20
23.33070339043469
 30
0.0
  0
SEQEND
  5
7DF
330
7DC
100
AcDbEntity
  8
BEMAßUNG
  0
POLYLINE
  5
7E0
330
1F
100
AcDbEntity
  8
BEMAßUNG
 62
     7
100
AcDb2dPolyline
 66
     1
 10
0.0
 20
0.0
 30
0.0
  0
VERTEX
  5
7E1
330
7E0
100
AcDbEntity
  8
BEMAßUNG
 62
     7
100
AcDbVertex
100
AcDb2dVertex
 10
-33.8487521616767
 20
23.90224473143763
 30
0.0
  0
VERTEX
  5
7E2
330
7E0
100
AcDbEntity
  8
BEMAßUNG
 62
     7
100
AcDbVertex
100
AcDb2dVertex
 10
-33.8487521616767
 20
22.94519720563523
 30
0.0
  0
SEQEND
  5
7E3
330
7E0
100
AcDbEntity
  8
BEMAßUNG
  0
POLYLINE
  5
7E4
330
1F
100
AcDbEntity
  8
BEMAßUNG
 62
     7
100
AcDb2dPolyline
 66
     1
 10
0.0
 20
0.0
 30
0.0
  0
VERTEX
  5
7E5
330
7E4
100
AcDbEntity
  8
BEMAßUNG
 62
     7
100
AcDbVertex
100
AcDb2dVertex
 10
-33.79742023894648
 20
23.90224473143763
 30
0.0
  0
VERTEX
  5
7E6
330
7E4
100
AcDbEntity
  8
BEMAßUNG
 62
     7
100
AcDbVertex
100
AcDb2dVertex
 10
-33.79742023894648
 20
22.5586574921902
 30
0.0
  0
SEQEND
  5
7E7
330
7E4
100
AcDbEntity
  8
BEMAßUNG
  0
POLYLINE
  5
7E8
330
1F
100
AcDbEntity
  8
BEMAßUNG
 62
     7
100
AcDb2dPolyline
 66
     1
 10
0.0
 20
0.0
 30
0.0
  0
VERTEX
  5
7E9
330
7E8
100
AcDbEntity
  8
BEMAßUNG
 62
     7
100
AcDbVertex
100
AcDb2dVertex
 10
-33.7467773353133
 20
23.90224473143763
 30
0.0
  0
VERTEX
  5
7EA
330
7E8
100
AcDbEntity
  8
BEMAßUNG
 62
     7
100
AcDbVertex
100
AcDb2dVertex
 10
-33.7467773353133
 20
22.17384032648779
 30
0.0
  0
SEQEND
  5
7EB
330
7E8
100
AcDbEntity
  8
BEMAßUNG
  0
POLYLINE
  5
7EC
330
1F
100
AcDbEntity
  8
BEMAßUNG
 62
     7
100
AcDb2dPolyline
 66
     1
 10
0.0
 20
0.0
 30
0.0
  0
VERTEX
  5
7ED
330
7EC
100
AcDbEntity
  8
BEMAßUNG
 62
     7
100
AcDbVertex
100
AcDb2dVertex
 10
-33.69613443168014
 20
23.90224473143763
 30
0.0
  0
VERTEX
  5
7EE
330
7EC
100
AcDbEntity
  8
BEMAßUNG
 62
     7
100
AcDbVertex
100
AcDb2dVertex
 10
-33.69613443168014
 20
21.78730061304276
 30
0.0
  0
SEQEND
  5
7EF
330
7EC
100
AcDbEntity
  8
BEMAßUNG
  0
POLYLINE
  5
7F0
330
1F
100
AcDbEntity
  8
BEMAßUNG
 62
     7
100
AcDb2dPolyline
 66
     1
 10
0.0
 20
0.0
 30
0.0
  0
VERTEX
  5
7F1
330
7F0
100
AcDbEntity
  8
BEMAßUNG
 62
     7
100
AcDbVertex
100
AcDb2dVertex
 10
-33.64549152804696
 20
23.90224473143763
 30
0.0
  0
VERTEX
  5
7F2
330
7F0
100
AcDbEntity
  8
BEMAßUNG
 62
     7
100
AcDbVertex
100
AcDb2dVertex
 10
-33.64549152804696
 20
21.4017944282433
 30
0.0
  0
SEQEND
  5
7F3
330
7F0
100
AcDbEntity
  8
BEMAßUNG
  0
MTEXT
  5
7F5
330
1F
100
AcDbEntity
  8
TEXT
 62
     7
100
AcDbMText
 10
-24.3823187873072
 20
19.10064289887067
 30
0.0
 40
5.997222220722918
 41
0.0
 71
     7
 72
     1
  1
\fINDEX Univers 45 Light|b0|i0|c0|p34;\W1;ø32h6
 11
-4.371139000186241E-8
 21
0.999999999999999
 31
0.0
  0
MTEXT
  5
7F6
330
1F
100
AcDbEntity
  8
TEXT
 62
     7
100
AcDbMText
 10
-122.269883867002
 20
26.39373778637032
 30
0.0
 40
5.997222220722918
 41
0.0
 71
     7
 72
     1
  1
\fINDEX Univers 45 Light|b0|i0|c0|p34;\W1;D
 11
-4.371139000186241E-8
 21
0.999999999999999
 31
0.0
  0
MTEXT
  5
7F7
330
1F
100
AcDbEntity
  8
TEXT
 62
     7
100
AcDbMText
 10
-84.9720743602674
 20
-10.72010362145192
 30
0.0
 40
5.997222220722918
 41
0.0
 71
     7
 72
     1
  1
\fINDEX Univers 45 Light|b0|i0|c0|p34;\W1;63
  0
MTEXT
  5
7F8
330
1F
100
AcDbEntity
  8
TEXT
 62
     7
100
AcDbMText
 10
-80.88860268160077
 20
-0.7277764212590282
 30
0.0
 40
5.997222220722918
 41
0.0
 71
     7
 72
     1
  1
\fINDEX Univers 45 Light|b0|i0|c0|p34;\W1;58
  0
MTEXT
  5
7F9
330
1F
100
AcDbEntity
  8
TEXT
 62
     7
100
AcDbMText
 10
-103.8534369315019
 20
59.01069605729594
 30
0.0
 40
5.997222220722918
 41
0.0
 71
     7
 72
     1
  1
\fINDEX Univers 45 Light|b0|i0|c0|p34;\W1;7
  0
MTEXT
  5
7FA
330
1F
100
AcDbEntity
  8
TEXT
 62
     7
100
AcDbMText
 10
-80.29656302246059
 20
59.09716795397571
 30
0.0
 40
5.997222220722918
 41
0.0
 71
     7
 72
     1
  1
\fINDEX Univers 45 Light|b0|i0|c0|p34;\W1;46
  0
MTEXT
  5
7FB
330
1F
100
AcDbEntity
  8
TEXT
 62
     7
100
AcDbMText
 10
-34.38119166892206
 20
24.85188530194675
 30
0.0
 40
5.997222220722918
 41
0.0
 71
     7
 72
     1
  1
\fINDEX Univers 45 Light|b0|i0|c0|p34;\W1;14
 11
-4.371139000186241E-8
 21
0.999999999999999
 31
0.0
  0
ENDSEC
  0
SECTION
  2
OBJECTS
  0
DICTIONARY
  5
C
330
0
100
AcDbDictionary
  3
ACAD_GROUP
350
D
  3
ACAD_LAYOUT
350
1A
  3
ACAD_MLINESTYLE
350
17
  3
ACAD_PLOTSETTINGS
350
19
  3
ACAD_TABLESTYLE
350
81C
  3
ACAD_VISUALSTYLE
350
2A
  3
ACDBHEADERROUNDTRIPXREC
350
7FC
  0
DICTIONARY
  5
D
102
{ACAD_REACTORS
330
C
102
}
330
C
100
AcDbDictionary
  0
DICTIONARY
  5
1A
102
{ACAD_REACTORS
330
C
102
}
330
C
100
AcDbDictionary
  0
DICTIONARY
  5
17
102
{ACAD_REACTORS
330
C
102
}
330
C
100
AcDbDictionary
  3
STANDARD
350
18
  0
DICTIONARY
  5
19
102
{ACAD_REACTORS
330
C
102
}
330
C
100
AcDbDictionary
  0
DICTIONARY
  5
81C
102
{ACAD_REACTORS
330
C
102
}
330
C
100
AcDbDictionary
  0
DICTIONARY
  5
2A
102
{ACAD_REACTORS
330
C
102
}
330
C
100
AcDbDictionary
  3
2DWIREFRAME
350
2F
  3
3D_HIDDEN
350
31
  3
3DWIREFRAME
350
30
  3
BASIC
350
32
  3
BRIGHTEN
350
36
  3
COLORCHANGE
350
3A
  3
CONCEPTUAL
350
34
  3
DIM
350
35
  3
FACEPATTERN
350
39
  3
FLAT
350
2B
  3
FLATWITHEDGES
350
2C
  3
GOURAUD
350
2D
  3
GOURAUDWITHEDGES
350
2E
  3
LINEPATTERN
350
38
  3
REALISTIC
350
33
  3
THICKEN
350
37
  0
DICTIONARY
  5
7FC
102
{ACAD_REACTORS
330
C
102
}
330
C
100
AcDbDictionary
  3
CEPSNTYPE
350
805
  3
DIMSTYLEDATA
350
81B
  3
FINGERPRINTGUID
350
806
  3
HYPERLINKBASE
350
7FF
  3
INSUNITS
350
804
  3
LAYOUTDICT
350
801
  3
LWETCUNION
350
803
  3
PLOTSETDICT
350
802
  3
PSVPSCALE
350
808
  3
PUCSBASE
350
80B
  3
PUCSORGBACK
350
811
  3
PUCSORGBOTTOM
350
80D
  3
PUCSORGFRONT
350
810
  3
PUCSORGLEFT
350
80E
  3
PUCSORGRIGHT
350
80F
  3
PUCSORGTOP
350
80C
  3
PUCSORTHOREF
350
809
  3
PUCSORTHOVIEW
350
80A
  3
STYLESHEET
350
800
  3
TSTACKALIGN
350
7FD
  3
TSTACKSIZE
350
7FE
  3
UCSBASE
350
814
  3
UCSORGBACK
350
81A
  3
UCSORGBOTTOM
350
816
  3
UCSORGFRONT
350
819
  3
UCSORGLEFT
350
817
  3
UCSORGRIGHT
350
818
  3
UCSORGTOP
350
815
  3
UCSORTHOREF
350
812
  3
UCSORTHOVIEW
350
813
  3
VERSIONGUID
350
807
  0
MLINESTYLE
  5
18
102
{ACAD_REACTORS
330
17
102
}
330
17
100
AcDbMlineStyle
  2
Standard
 70
     0
  3

 62
   256
 51
90.0
 52
90.0
 71
     2
 49
0.5
 62
   256
  6
BYLAYER
 49
-0.5
 62
   256
  6
BYLAYER
  0
VISUALSTYLE
  5
2F
102
{ACAD_REACTORS
330
2A
102
}
330
2A
100
AcDbVisualStyle
  2
2dWireframe
 70
     4
 71
     0
 72
     2
 73
     0
 90
        0
 40
-0.6
 41
-30.0
 62
     5
 63
     7
 74
     1
 91
        4
 64
     7
 65
   257
 75
     1
175
     1
 42
1.0
 92
        0
 66
   257
 43
1.0
 76
     1
 77
     6
 78
     2
 67
     7
 79
     5
170
     0
171
     0
290
     0
174
     0
 93
        1
 44
0.0
173
     0
291
     0
 45
0.0
1001
ACAD
1000
AcDbSavedByObjectVersion
1070
     0
  0
VISUALSTYLE
  5
31
102
{ACAD_REACTORS
330
2A
102
}
330
2A
100
AcDbVisualStyle
  2
3D Hidden
 70
     6
 71
     1
 72
     2
 73
     2
 90
        0
 40
-0.6
 41
-30.0
 62
     5
 63
     7
 74
     2
 91
        2
 64
     7
 65
   257
 75
     2
175
     1
 42
40.0
 92
        0
 66
   257
 43
1.0
 76
     1
 77
     6
 78
     2
 67
     7
 79
     3
170
     0
171
     0
290
     0
174
     0
 93
        1
 44
0.0
173
     0
291
     0
 45
0.0
1001
ACAD
1000
AcDbSavedByObjectVersion
1070
     0
  0
VISUALSTYLE
  5
30
102
{ACAD_REACTORS
330
2A
102
}
330
2A
100
AcDbVisualStyle
  2
3dWireframe
 70
     5
 71
     0
 72
     2
 73
     0
 90
        0
 40
-0.6
 41
-30.0
 62
     5
 63
     7
 74
     1
 91
        4
 64
     7
 65
   257
 75
     1
175
     1
 42
1.0
 92
        0
 66
   257
 43
1.0
 76
     1
 77
     6
 78
     2
 67
     7
 79
     5
170
     0
171
     0
290
     0
174
     0
 93
        1
 44
0.0
173
     0
291
     0
 45
0.0
1001
ACAD
1000
AcDbSavedByObjectVersion
1070
     0
  0
VISUALSTYLE
  5
32
102
{ACAD_REACTORS
330
2A
102
}
330
2A
100
AcDbVisualStyle
  2
Basic
 70
     7
 71
     1
 72
     0
 73
     1
 90
        0
 40
-0.6
 41
-30.0
 62
     5
 63
     7
 74
     0
 91
        4
 64
     7
 65
   257
 75
     1
175
     1
 42
1.0
 92
        8
 66
     7
 43
1.0
 76
     1
 77
     6
 78
     2
 67
     7
 79
     5
170
     0
171
     0
290
     0
174
     0
 93
        1
 44
0.0
173
     0
291
     1
 45
0.0
1001
ACAD
1000
AcDbSavedByObjectVersion
1070
     0
  0
VISUALSTYLE
  5
36
102
{ACAD_REACTORS
330
2A
102
}
330
2A
100
AcDbVisualStyle
  2
Brighten
 70
    12
 71
     2
 72
     2
 73
     0
 90
        0
 40
-0.6
 41
-30.0
 62
     5
 63
     7
 74
     1
 91
        4
 64
     7
 65
   257
 75
     1
175
     1
 42
1.0
 92
        8
 66
     7
 43
1.0
 76
     1
 77
     6
 78
     2
 67
     7
 79
     5
170
     0
171
     0
290
     0
174
     0
 93
        1
 44
50.0
173
     0
291
     1
 45
0.0
1001
ACAD
1000
AcDbSavedByObjectVersion
1070
     0
  0
VISUALSTYLE
  5
3A
102
{ACAD_REACTORS
330
2A
102
}
330
2A
100
AcDbVisualStyle
  2
ColorChange
 70
    16
 71
     2
 72
     2
 73
     3
 90
        0
 40
-0.6
 41
-30.0
 62
     5
 63
     8
 74
     1
 91
        4
 64
     7
 65
   257
 75
     1
175
     1
 42
1.0
 92
        8
 66
     8
 43
1.0
 76
     1
 77
     6
 78
     2
 67
     7
 79
     5
170
     0
171
     0
290
     0
174
     0
 93
        1
 44
0.0
173
     0
291
     1
 45
0.0
1001
ACAD
1000
AcDbSavedByObjectVersion
1070
     0
  0
VISUALSTYLE
  5
34
102
{ACAD_REACTORS
330
2A
102
}
330
2A
100
AcDbVisualStyle
  2
Conceptual
 70
     9
 71
     3
 72
     2
 73
     0
 90
        0
 40
-0.6
 41
-30.0
 62
     5
 63
     7
 74
     2
 91
        2
 64
     7
 65
   257
 75
     1
175
     1
 42
40.0
 92
        8
 66
     7
 43
1.0
 76
     1
 77
     6
 78
     2
 67
     7
 79
     3
170
     0
171
     0
290
     0
174
     0
 93
        1
 44
0.0
173
     0
291
     0
 45
0.0
1001
ACAD
1000
AcDbSavedByObjectVersion
1070
     0
  0
VISUALSTYLE
  5
35
102
{ACAD_REACTORS
330
2A
102
}
330
2A
100
AcDbVisualStyle
  2
Dim
 70
    11
 71
     2
 72
     2
 73
     0
 90
        0
 40
-0.6
 41
-30.0
 62
     5
 63
     7
 74
     1
 91
        4
 64
     7
 65
   257
 75
     1
175
     1
 42
1.0
 92
        8
 66
     7
 43
1.0
 76
     1
 77
     6
 78
     2
 67
     7
 79
     5
170
     0
171
     0
290
     0
174
     0
 93
        1
 44
-50.0
173
     0
291
     1
 45
0.0
1001
ACAD
1000
AcDbSavedByObjectVersion
1070
     0
  0
VISUALSTYLE
  5
39
102
{ACAD_REACTORS
330
2A
102
}
330
2A
100
AcDbVisualStyle
  2
Facepattern
 70
    15
 71
     2
 72
     2
 73
     0
 90
        0
 40
-0.6
 41
-30.0
 62
     5
 63
     7
 74
     1
 91
        4
 64
     7
 65
   257
 75
     1
175
     1
 42
1.0
 92
        8
 66
     7
 43
1.0
 76
     1
 77
     6
 78
     2
 67
     7
 79
     5
170
     0
171
     0
290
     0
174
     0
 93
        1
 44
0.0
173
     0
291
     1
 45
0.0
1001
ACAD
1000
AcDbSavedByObjectVersion
1070
     0
  0
VISUALSTYLE
  5
2B
102
{ACAD_REACTORS
330
2A
102
}
330
2A
100
AcDbVisualStyle
  2
Flat
 70
     0
 71
     2
 72
     1
 73
     1
 90
        2
 40
-0.6
 41
30.0
 62
     5
 63
     7
 74
     0
 91
        4
 64
     7
 65
   257
 75
     1
175
     1
 42
1.0
 92
        8
 66
     7
 43
1.0
 76
     1
 77
     6
 78
     2
 67
     7
 79
     5
170
     0
171
     0
290
     0
174
     0
 93
       13
 44
0.0
173
     0
291
     1
 45
0.0
1001
ACAD
1000
AcDbSavedByObjectVersion
1070
     0
  0
VISUALSTYLE
  5
2C
102
{ACAD_REACTORS
330
2A
102
}
330
2A
100
AcDbVisualStyle
  2
FlatWithEdges
 70
     1
 71
     2
 72
     1
 73
     1
 90
        2
 40
-0.6
 41
30.0
 62
     5
 63
     7
 74
     1
 91
        4
 64
     7
 65
   257
 75
     1
175
     1
 42
1.0
 92
        0
 66
   257
 43
1.0
 76
     1
 77
     6
 78
     2
 67
     7
 79
     5
170
     0
171
     0
290
     0
174
     0
 93
       13
 44
0.0
173
     0
291
     1
 45
0.0
1001
ACAD
1000
AcDbSavedByObjectVersion
1070
     0
  0
VISUALSTYLE
  5
2D
102
{ACAD_REACTORS
330
2A
102
}
330
2A
100
AcDbVisualStyle
  2
Gouraud
 70
     2
 71
     2
 72
     2
 73
     1
 90
        2
 40
-0.6
 41
30.0
 62
     5
 63
     7
 74
     0
 91
        4
 64
     7
 65
   257
 75
     1
175
     1
 42
1.0
 92
        0
 66
     7
 43
1.0
 76
     1
 77
     6
 78
     2
 67
     7
 79
     5
170
     0
171
     0
290
     0
174
     0
 93
       13
 44
0.0
173
     0
291
     1
 45
0.0
1001
ACAD
1000
AcDbSavedByObjectVersion
1070
     0
  0
VISUALSTYLE
  5
2E
102
{ACAD_REACTORS
330
2A
102
}
330
2A
100
AcDbVisualStyle
  2
GouraudWithEdges
 70
     3
 71
     2
 72
     2
 73
     1
 90
        2
 40
-0.6
 41
30.0
 62
     5
 63
     7
 74
     1
 91
        4
 64
     7
 65
   257
 75
     1
175
     1
 42
1.0
 92
        0
 66
   257
 43
1.0
 76
     1
 77
     6
 78
     2
 67
     7
 79
     5
170
     0
171
     0
290
     0
174
     0
 93
       13
 44
0.0
173
     0
291
     1
 45
0.0
1001
ACAD
1000
AcDbSavedByObjectVersion
1070
     0
  0
VISUALSTYLE
  5
38
102
{ACAD_REACTORS
330
2A
102
}
330
2A
100
AcDbVisualStyle
  2
Linepattern
 70
    14
 71
     2
 72
     2
 73
     0
 90
        0
 40
-0.6
 41
-30.0
 62
     5
 63
     7
 74
     1
 91
        4
 64
     7
 65
   257
 75
     7
175
     7
 42
1.0
 92
        8
 66
     7
 43
1.0
 76
     1
 77
     6
 78
     2
 67
     7
 79
     5
170
     0
171
     0
290
     0
174
     0
 93
        1
 44
0.0
173
     0
291
     1
 45
0.0
1001
ACAD
1000
AcDbSavedByObjectVersion
1070
     0
  0
VISUALSTYLE
  5
33
102
{ACAD_REACTORS
330
2A
102
}
330
2A
100
AcDbVisualStyle
  2
Realistic
 70
     8
 71
     2
 72
     2
 73
     0
 90
        0
 40
-0.6
 41
-30.0
 62
     5
 63
     7
 74
     1
 91
        0
 64
     7
 65
   257
 75
     1
175
     1
 42
1.0
 92
        8
 66
     8
 43
1.0
 76
     1
 77
     6
 78
     2
 67
     7
 79
     5
170
     0
171
     0
290
     0
174
     0
 93
       13
 44
0.0
173
     0
291
     0
 45
0.0
1001
ACAD
1000
AcDbSavedByObjectVersion
1070
     0
  0
VISUALSTYLE
  5
37
102
{ACAD_REACTORS
330
2A
102
}
330
2A
100
AcDbVisualStyle
  2
Thicken
 70
    13
 71
     2
 72
     2
 73
     0
 90
        0
 40
-0.6
 41
-30.0
 62
     5
 63
     7
 74
     1
 91
        4
 64
     7
 65
   257
 75
     1
175
     1
 42
1.0
 92
       12
 66
     7
 43
1.0
 76
     1
 77
     6
 78
     2
 67
     7
 79
     5
170
     0
171
     0
290
     0
174
     0
 93
        1
 44
0.0
173
     0
291
     1
 45
0.0
1001
ACAD
1000
AcDbSavedByObjectVersion
1070
     0
  0
XRECORD
  5
805
102
{ACAD_REACTORS
330
7FC
102
}
330
7FC
100
AcDbXrecord
 90
        0
  0
XRECORD
  5
81B
102
{ACAD_REACTORS
330
7FC
102
}
330
7FC
100
AcDbXrecord
1000
DSTYLE
1002
{
1070
   340
340
11
1002
}
  0
XRECORD
  5
806
102
{ACAD_REACTORS
330
7FC
102
}
330
7FC
100
AcDbXrecord
  1
{3A4ACA19-0650-4012-8463-35E785DB2283}
  0
XRECORD
  5
7FF
102
{ACAD_REACTORS
330
7FC
102
}
330
7FC
100
AcDbXrecord
  1

  0
XRECORD
  5
804
102
{ACAD_REACTORS
330
7FC
102
}
330
7FC
100
AcDbXrecord
 90
        1
  0
XRECORD
  5
801
102
{ACAD_REACTORS
330
7FC
102
}
330
7FC
100
AcDbXrecord
340
1A
  0
XRECORD
  5
803
102
{ACAD_REACTORS
330
7FC
102
}
330
7FC
100
AcDbXrecord
 90
    10269
  0
XRECORD
  5
802
102
{ACAD_REACTORS
330
7FC
102
}
330
7FC
100
AcDbXrecord
340
19
  0
XRECORD
  5
808
102
{ACAD_REACTORS
330
7FC
102
}
330
7FC
100
AcDbXrecord
 40
0.0
  0
XRECORD
  5
80B
102
{ACAD_REACTORS
330
7FC
102
}
330
7FC
100
AcDbXrecord
340
0
  0
XRECORD
  5
811
102
{ACAD_REACTORS
330
7FC
102
}
330
7FC
100
AcDbXrecord
 10
0.0
 20
0.0
 30
0.0
  0
XRECORD
  5
80D
102
{ACAD_REACTORS
330
7FC
102
}
330
7FC
100
AcDbXrecord
 10
0.0
 20
0.0
 30
0.0
  0
XRECORD
  5
810
102
{ACAD_REACTORS
330
7FC
102
}
330
7FC
100
AcDbXrecord
 10
0.0
 20
0.0
 30
0.0
  0
XRECORD
  5
80E
102
{ACAD_REACTORS
330
7FC
102
}
330
7FC
100
AcDbXrecord
 10
0.0
 20
0.0
 30
0.0
  0
XRECORD
  5
80F
102
{ACAD_REACTORS
330
7FC
102
}
330
7FC
100
AcDbXrecord
 10
0.0
 20
0.0
 30
0.0
  0
XRECORD
  5
80C
102
{ACAD_REACTORS
330
7FC
102
}
330
7FC
100
AcDbXrecord
 10
0.0
 20
0.0
 30
0.0
  0
XRECORD
  5
809
102
{ACAD_REACTORS
330
7FC
102
}
330
7FC
100
AcDbXrecord
340
0
  0
XRECORD
  5
80A
102
{ACAD_REACTORS
330
7FC
102
}
330
7FC
100
AcDbXrecord
 70
     0
  0
XRECORD
  5
800
102
{ACAD_REACTORS
330
7FC
102
}
330
7FC
100
AcDbXrecord
  1

  0
XRECORD
  5
7FD
102
{ACAD_REACTORS
330
7FC
102
}
330
7FC
100
AcDbXrecord
 90
        1
  0
XRECORD
  5
7FE
102
{ACAD_REACTORS
330
7FC
102
}
330
7FC
100
AcDbXrecord
 90
       70
  0
XRECORD
  5
814
102
{ACAD_REACTORS
330
7FC
102
}
330
7FC
100
AcDbXrecord
340
0
  0
XRECORD
  5
81A
102
{ACAD_REACTORS
330
7FC
102
}
330
7FC
100
AcDbXrecord
 10
0.0
 20
0.0
 30
0.0
  0
XRECORD
  5
816
102
{ACAD_REACTORS
330
7FC
102
}
330
7FC
100
AcDbXrecord
 10
0.0
 20
0.0
 30
0.0
  0
XRECORD
  5
819
102
{ACAD_REACTORS
330
7FC
102
}
330
7FC
100
AcDbXrecord
 10
0.0
 20
0.0
 30
0.0
  0
XRECORD
  5
817
102
{ACAD_REACTORS
330
7FC
102
}
330
7FC
100
AcDbXrecord
 10
0.0
 20
0.0
 30
0.0
  0
XRECORD
  5
818
102
{ACAD_REACTORS
330
7FC
102
}
330
7FC
100
AcDbXrecord
 10
0.0
 20
0.0
 30
0.0
  0
XRECORD
  5
815
102
{ACAD_REACTORS
330
7FC
102
}
330
7FC
100
AcDbXrecord
 10
0.0
 20
0.0
 30
0.0
  0
XRECORD
  5
812
102
{ACAD_REACTORS
330
7FC
102
}
330
7FC
100
AcDbXrecord
340
0
  0
XRECORD
  5
813
102
{ACAD_REACTORS
330
7FC
102
}
330
7FC
100
AcDbXrecord
 70
     0
  0
XRECORD
  5
807
102
{ACAD_REACTORS
330
7FC
102
}
330
7FC
100
AcDbXrecord
  1
{FAEB1C32-E019-11D5-929B-00C0DF256EC4}
  0
ENDSEC
  0
EOF
