  0
SECTION
  2
HEADER
  9
$ACADVER
  1
AC1014
  9
$ACADMAINTVER
 70
     9
  9
$DWGCODEPAGE
  3
ANSI_1252
  9
$INSBASE
 10
0.0
 20
0.0
 30
0.0
  9
$EXTMIN
 10
1.000000000000000E+20
 20
1.000000000000000E+20
 30
1.000000000000000E+20
  9
$EXTMAX
 10
-1.000000000000000E+20
 20
-1.000000000000000E+20
 30
-1.000000000000000E+20
  9
$LIMMIN
 10
0.0
 20
0.0
  9
$LIMMAX
 10
12.0
 20
9.0
  9
$ORTHOMODE
 70
     0
  9
$REGENMODE
 70
     1
  9
$FILLMODE
 70
     1
  9
$QTEXTMODE
 70
     0
  9
$MIRRTEXT
 70
     1
  9
$DRAGMODE
 70
     2
  9
$LTSCALE
 40
1.0
  9
$OSMODE
 70
    37
  9
$ATTMODE
 70
     1
  9
$TEXTSIZE
 40
0.2
  9
$TRACEWID
 40
0.05
  9
$TEXTSTYLE
  7
STANDARD
  9
$CLAYER
  8
0
  9
$CELTYPE
  6
BYLAYER
  9
$CECOLOR
 62
   256
  9
$CELTSCALE
 40
1.0
  9
$DELOBJ
 70
     1
  9
$DISPSILH
 70
     0
  9
$DIMSCALE
 40
1.0
  9
$DIMASZ
 40
0.18
  9
$DIMEXO
 40
0.0625
  9
$DIMDLI
 40
0.38
  9
$DIMRND
 40
0.0
  9
$DIMDLE
 40
0.0
  9
$DIMEXE
 40
0.18
  9
$DIMTP
 40
0.0
  9
$DIMTM
 40
0.0
  9
$DIMTXT
 40
0.18
  9
$DIMCEN
 40
0.09
  9
$DIMTSZ
 40
0.0
  9
$DIMTOL
 70
     0
  9
$DIMLIM
 70
     0
  9
$DIMTIH
 70
     1
  9
$DIMTOH
 70
     1
  9
$DIMSE1
 70
     0
  9
$DIMSE2
 70
     0
  9
$DIMTAD
 70
     0
  9
$DIMZIN
 70
     0
  9
$DIMBLK
  1

  9
$DIMASO
 70
     1
  9
$DIMSHO
 70
     1
  9
$DIMPOST
  1

  9
$DIMAPOST
  1

  9
$DIMALT
 70
     0
  9
$DIMALTD
 70
     2
  9
$DIMALTF
 40
25.4
  9
$DIMLFAC
 40
1.0
  9
$DIMTOFL
 70
     0
  9
$DIMTVP
 40
0.0
  9
$DIMTIX
 70
     0
  9
$DIMSOXD
 70
     0
  9
$DIMSAH
 70
     0
  9
$DIMBLK1
  1

  9
$DIMBLK2
  1

  9
$DIMSTYLE
  2
STANDARD
  9
$DIMCLRD
 70
     0
  9
$DIMCLRE
 70
     0
  9
$DIMCLRT
 70
     0
  9
$DIMTFAC
 40
1.0
  9
$DIMGAP
 40
0.09
  9
$DIMJUST
 70
     0
  9
$DIMSD1
 70
     0
  9
$DIMSD2
 70
     0
  9
$DIMTOLJ
 70
     1
  9
$DIMTZIN
 70
     0
  9
$DIMALTZ
 70
     0
  9
$DIMALTTZ
 70
     0
  9
$DIMFIT
 70
     3
  9
$DIMUPT
 70
     0
  9
$DIMUNIT
 70
     2
  9
$DIMDEC
 70
     4
  9
$DIMTDEC
 70
     4
  9
$DIMALTU
 70
     2
  9
$DIMALTTD
 70
     2
  9
$DIMTXSTY
  7
STANDARD
  9
$DIMAUNIT
 70
     0
  9
$LUNITS
 70
     2
  9
$LUPREC
 70
     4
  9
$SKETCHINC
 40
0.1
  9
$FILLETRAD
 40
0.5
  9
$AUNITS
 70
     0
  9
$AUPREC
 70
     0
  9
$MENU
  1
.
  9
$ELEVATION
 40
0.0
  9
$PELEVATION
 40
0.0
  9
$THICKNESS
 40
0.0
  9
$LIMCHECK
 70
     0
  9
$CHAMFERA
 40
0.5
  9
$CHAMFERB
 40
0.5
  9
$CHAMFERC
 40
1.0
  9
$CHAMFERD
 40
0.0
  9
$SKPOLY
 70
     0
  9
$TDCREATE
 40
2458306.330639942
  9
$TDUPDATE
 40
2458306.330639954
  9
$TDINDWG
 40
0.0000000116
  9
$TDUSRTIMER
 40
0.0000000116
  9
$USRTIMER
 70
     1
  9
$ANGBASE
 50
0.0
  9
$ANGDIR
 70
     0
  9
$PDMODE
 70
     0
  9
$PDSIZE
 40
0.0
  9
$PLINEWID
 40
0.0
  9
$COORDS
 70
     1
  9
$SPLFRAME
 70
     0
  9
$SPLINETYPE
 70
     6
  9
$SPLINESEGS
 70
     8
  9
$ATTDIA
 70
     0
  9
$ATTREQ
 70
     1
  9
$HANDLING
 70
     1
  9
$HANDSEED
  5
583
  9
$SURFTAB1
 70
     6
  9
$SURFTAB2
 70
     6
  9
$SURFTYPE
 70
     6
  9
$SURFU
 70
     6
  9
$SURFV
 70
     6
  9
$UCSNAME
  2

  9
$UCSORG
 10
0.0
 20
0.0
 30
0.0
  9
$UCSXDIR
 10
1.0
 20
0.0
 30
0.0
  9
$UCSYDIR
 10
0.0
 20
1.0
 30
0.0
  9
$PUCSNAME
  2

  9
$PUCSORG
 10
0.0
 20
0.0
 30
0.0
  9
$PUCSXDIR
 10
1.0
 20
0.0
 30
0.0
  9
$PUCSYDIR
 10
0.0
 20
1.0
 30
0.0
  9
$USERI1
 70
     0
  9
$USERI2
 70
     0
  9
$USERI3
 70
     0
  9
$USERI4
 70
     0
  9
$USERI5
 70
     0
  9
$USERR1
 40
0.0
  9
$USERR2
 40
0.0
  9
$USERR3
 40
0.0
  9
$USERR4
 40
0.0
  9
$USERR5
 40
0.0
  9
$WORLDVIEW
 70
     1
  9
$SHADEDGE
 70
     3
  9
$SHADEDIF
 70
    70
  9
$TILEMODE
 70
     1
  9
$MAXACTVP
 70
    64
  9
$PINSBASE
 10
0.0
 20
0.0
 30
0.0
  9
$PLIMCHECK
 70
     0
  9
$PEXTMIN
 10
1.000000000000000E+20
 20
1.000000000000000E+20
 30
1.000000000000000E+20
  9
$PEXTMAX
 10
-1.000000000000000E+20
 20
-1.000000000000000E+20
 30
-1.000000000000000E+20
  9
$PLIMMIN
 10
0.0
 20
0.0
  9
$PLIMMAX
 10
12.0
 20
9.0
  9
$UNITMODE
 70
     0
  9
$VISRETAIN
 70
     1
  9
$PLINEGEN
 70
     0
  9
$PSLTSCALE
 70
     1
  9
$TREEDEPTH
 70
  3020
  9
$PICKSTYLE
 70
     1
  9
$CMLSTYLE
  2
STANDARD
  9
$CMLJUST
 70
     0
  9
$CMLSCALE
 40
1.0
  9
$PROXYGRAPHICS
 70
     1
  9
$MEASUREMENT
 70
     0
  0
ENDSEC
  0
SECTION
  2
CLASSES
  0
CLASS
  1
ACDBDICTIONARYWDFLT
  2
AcDbDictionaryWithDefault
  3
ObjectDBX Classes
 90
        0
280
     0
281
     0
  0
CLASS
  1
VISUALSTYLE
  2
AcDbVisualStyle
  3
ObjectDBX Classes
 90
     4095
280
     0
281
     0
  0
CLASS
  1
XRECORD
  2
AcDbXrecord
  3
AutoCAD 2000
 90
        0
280
     0
281
     0
  0
CLASS
  1
LWPOLYLINE
  2
AcDbPolyline
  3
AutoCAD 2000
 90
        0
280
     0
281
     1
  0
CLASS
  1
HATCH
  2
AcDbHatch
  3
AutoCAD 2000
 90
        0
280
     0
281
     1
  0
CLASS
  1
ACDBPLACEHOLDER
  2
AcDbPlaceHolder
  3
ObjectDBX Classes
 90
        0
280
     0
281
     0
  0
CLASS
  1
LAYOUT
  2
AcDbLayout
  3
ObjectDBX Classes
 90
        0
280
     0
281
     0
  0
ENDSEC
  0
SECTION
  2
TABLES
  0
TABLE
  2
VPORT
  5
8
330
0
100
AcDbSymbolTable
 70
     1
  0
VPORT
  5
29
330
8
100
AcDbSymbolTableRecord
100
AcDbViewportTableRecord
  2
*ACTIVE
 70
     0
 10
0.0
 20
0.0
 11
1.0
 21
1.0
 12
0.0
 22
0.0
 13
0.0
 23
0.0
 14
0.5
 24
0.5
 15
0.5
 25
0.5
 16
0.0
 26
0.0
 36
1.0
 17
100.0619370952102
 27
127.0193786303545
 37
0.0
 40
297.0001314904201
 41
0.7070759562020681
 42
50.0
 43
0.0
 44
0.0
 50
0.0
 51
0.0
 71
     0
 72
   100
 73
     1
 74
     3
 75
     0
 76
     0
 77
     0
 78
     0
  0
ENDTAB
  0
TABLE
  2
LTYPE
  5
5
330
0
100
AcDbSymbolTable
 70
     5
  0
LTYPE
  5
14
330
5
100
AcDbSymbolTableRecord
100
AcDbLinetypeTableRecord
  2
BYBLOCK
 70
     0
  3

 72
    65
 73
     0
 40
0.0
  0
LTYPE
  5
15
330
5
100
AcDbSymbolTableRecord
100
AcDbLinetypeTableRecord
  2
BYLAYER
 70
     0
  3

 72
    65
 73
     0
 40
0.0
  0
LTYPE
  5
16
330
5
100
AcDbSymbolTableRecord
100
AcDbLinetypeTableRecord
  2
CONTINUOUS
 70
     0
  3
Solid line
 72
    65
 73
     0
 40
0.0
  0
LTYPE
  5
42
330
5
100
AcDbSymbolTableRecord
100
AcDbLinetypeTableRecord
  2
AI-LINETYPE-1
 70
     0
  3
Adobe Illustrator Linetype No. 1
 72
    65
 73
     4
 40
8.819444442239584
 49
7.055555553791667
 74
     0
 49
-0.7055555553791667
 74
     0
 49
0.3527777776895833
 74
     0
 49
-0.7055555553791667
 74
     0
  0
LTYPE
  5
49
330
5
100
AcDbSymbolTableRecord
100
AcDbLinetypeTableRecord
  2
AI-LINETYPE-2
 70
     0
  3
Adobe Illustrator Linetype No. 2
 72
    65
 73
     4
 40
8.819444442239584
 49
7.055555553791667
 74
     0
 49
-0.7055555553791667
 74
     0
 49
0.3527777776895833
 74
     0
 49
-0.7055555553791667
 74
     0
  0
LTYPE
  5
4E
330
5
100
AcDbSymbolTableRecord
100
AcDbLinetypeTableRecord
  2
AI-LINETYPE-3
 70
     0
  3
Adobe Illustrator Linetype No. 3
 72
    65
 73
     4
 40
8.819444442239584
 49
7.055555553791667
 74
     0
 49
-0.7055555553791667
 74
     0
 49
0.3527777776895833
 74
     0
 49
-0.7055555553791667
 74
     0
  0
LTYPE
  5
53
330
5
100
AcDbSymbolTableRecord
100
AcDbLinetypeTableRecord
  2
AI-LINETYPE-4
 70
     0
  3
Adobe Illustrator Linetype No. 4
 72
    65
 73
     4
 40
8.819444442239584
 49
7.055555553791667
 74
     0
 49
-0.7055555553791667
 74
     0
 49
0.3527777776895833
 74
     0
 49
-0.7055555553791667
 74
     0
  0
ENDTAB
  0
TABLE
  2
LAYER
  5
2
330
0
100
AcDbSymbolTable
 70
     5
  0
LAYER
  5
10
330
2
100
AcDbSymbolTableRecord
100
AcDbLayerTableRecord
  2
0
 70
     0
 62
     7
  6
CONTINUOUS
  0
LAYER
  5
3B
330
2
100
AcDbSymbolTableRecord
100
AcDbLayerTableRecord
  2
GRAU_10_
 70
     0
 62
     7
  6
CONTINUOUS
  0
LAYER
  5
2EC
330
2
100
AcDbSymbolTableRecord
100
AcDbLayerTableRecord
  2
STANDARDEBENE
 70
     0
 62
     7
  6
CONTINUOUS
  0
LAYER
  5
305
330
2
100
AcDbSymbolTableRecord
100
AcDbLayerTableRecord
  2
BEMAßUNG
 70
     1
 62
     7
  6
CONTINUOUS
  0
LAYER
  5
55E
330
2
100
AcDbSymbolTableRecord
100
AcDbLayerTableRecord
  2
TEXT
 70
     1
 62
     7
  6
CONTINUOUS
  0
ENDTAB
  0
TABLE
  2
STYLE
  5
3
330
0
100
AcDbSymbolTable
 70
     1
  0
STYLE
  5
11
330
3
100
AcDbSymbolTableRecord
100
AcDbTextStyleTableRecord
  2
STANDARD
 70
     0
 40
0.0
 41
1.0
 50
0.0
 71
     0
 42
0.2
  3
txt
  4

  0
ENDTAB
  0
TABLE
  2
VIEW
  5
6
330
0
100
AcDbSymbolTable
 70
     0
  0
ENDTAB
  0
TABLE
  2
UCS
  5
7
330
0
100
AcDbSymbolTable
 70
     0
  0
ENDTAB
  0
TABLE
  2
APPID
  5
9
330
0
100
AcDbSymbolTable
 70
     1
  0
APPID
  5
12
330
9
100
AcDbSymbolTableRecord
100
AcDbRegAppTableRecord
  2
ACAD
 70
     0
  0
ENDTAB
  0
TABLE
  2
DIMSTYLE
  5
A
330
0
100
AcDbSymbolTable
 70
     1
  0
DIMSTYLE
105
27
330
A
100
AcDbSymbolTableRecord
100
AcDbDimStyleTableRecord
  2
STANDARD
 70
     0
  3

  4

  5

  6

  7

 40
1.0
 41
0.18
 42
0.0625
 43
0.38
 44
0.18
 45
0.0
 46
0.0
 47
0.0
 48
0.0
140
0.18
141
0.09
142
0.0
143
25.4
144
1.0
145
0.0
146
1.0
147
0.09
 71
     0
 72
     0
 73
     1
 74
     1
 75
     0
 76
     0
 77
     0
 78
     0
170
     0
171
     2
172
     0
173
     0
174
     0
175
     0
176
     0
177
     0
178
     0
270
     2
271
     4
272
     4
273
     2
274
     2
340
11
275
     0
280
     0
281
     0
282
     0
283
     1
284
     0
285
     0
286
     0
287
     3
288
     0
  0
ENDTAB
  0
TABLE
  2
BLOCK_RECORD
  5
1
330
0
100
AcDbSymbolTable
 70
     1
  0
BLOCK_RECORD
  5
1F
330
1
100
AcDbSymbolTableRecord
100
AcDbBlockTableRecord
  2
*MODEL_SPACE
  0
BLOCK_RECORD
  5
1B
330
1
100
AcDbSymbolTableRecord
100
AcDbBlockTableRecord
  2
*PAPER_SPACE
  0
ENDTAB
  0
ENDSEC
  0
SECTION
  2
BLOCKS
  0
BLOCK
  5
20
330
1F
100
AcDbEntity
  8
0
100
AcDbBlockBegin
  2
*MODEL_SPACE
 70
     0
 71
     0
 10
0.0
 20
0.0
 30
0.0
  3
*MODEL_SPACE
  1

  0
ENDBLK
  5
21
330
1F
100
AcDbEntity
  8
0
100
AcDbBlockEnd
  0
BLOCK
  5
1C
330
1B
100
AcDbEntity
 67
     1
  8
0
100
AcDbBlockBegin
  2
*PAPER_SPACE
 70
     0
 71
     0
 10
0.0
 20
0.0
 30
0.0
  3
*PAPER_SPACE
  1

  0
ENDBLK
  5
1D
330
1B
100
AcDbEntity
 67
     1
  8
0
100
AcDbBlockEnd
  0
ENDSEC
  0
SECTION
  2
ENTITIES
  0
POLYLINE
  5
3C
330
1F
100
AcDbEntity
  8
GRAU_10_
  6
AI-LINETYPE-1
 62
   250
100
AcDb2dPolyline
 66
     1
 10
0.0
 20
0.0
 30
0.0
  0
VERTEX
  5
3D
330
3C
100
AcDbEntity
  8
GRAU_10_
  6
AI-LINETYPE-1
 62
   250
100
AcDbVertex
100
AcDb2dVertex
 10
35.13635659928883
 20
222.6496310207265
 30
0.0
  0
VERTEX
  5
3E
330
3C
100
AcDbEntity
  8
GRAU_10_
  6
AI-LINETYPE-1
 62
   250
100
AcDbVertex
100
AcDb2dVertex
 10
37.63646239293464
 20
222.6496310207265
 30
0.0
  0
VERTEX
  5
3F
330
3C
100
AcDbEntity
  8
GRAU_10_
  6
AI-LINETYPE-1
 62
   250
100
AcDbVertex
100
AcDb2dVertex
 10
40.13622367703192
 20
222.6496310207265
 30
0.0
  0
VERTEX
  5
40
330
3C
100
AcDbEntity
  8
GRAU_10_
  6
AI-LINETYPE-1
 62
   250
100
AcDbVertex
100
AcDb2dVertex
 10
59.79583331838437
 20
222.6496310207265
 30
0.0
  0
SEQEND
  5
41
330
3C
100
AcDbEntity
  8
GRAU_10_
  6
AI-LINETYPE-1
  0
POLYLINE
  5
43
330
1F
100
AcDbEntity
  8
GRAU_10_
  6
AI-LINETYPE-2
 62
   250
100
AcDb2dPolyline
 66
     1
 10
0.0
 20
0.0
 30
0.0
  0
VERTEX
  5
44
330
43
100
AcDbEntity
  8
GRAU_10_
  6
AI-LINETYPE-2
 62
   250
100
AcDbVertex
100
AcDb2dVertex
 10
34.1362453799208
 20
162.6040282796615
 30
0.0
  0
VERTEX
  5
45
330
43
100
AcDbEntity
  8
GRAU_10_
  6
AI-LINETYPE-2
 62
   250
100
AcDbVertex
100
AcDb2dVertex
 10
37.13589001892783
 20
162.6040282796615
 30
0.0
  0
VERTEX
  5
46
330
43
100
AcDbEntity
  8
GRAU_10_
  6
AI-LINETYPE-2
 62
   250
100
AcDbVertex
100
AcDb2dVertex
 10
40.13622367703192
 20
162.6040282796615
 30
0.0
  0
VERTEX
  5
47
330
43
100
AcDbEntity
  8
GRAU_10_
  6
AI-LINETYPE-2
 62
   250
100
AcDbVertex
100
AcDb2dVertex
 10
60.14861109607396
 20
162.6040282796615
 30
0.0
  0
SEQEND
  5
48
330
43
100
AcDbEntity
  8
GRAU_10_
  6
AI-LINETYPE-2
  0
POLYLINE
  5
4A
330
1F
100
AcDbEntity
  8
GRAU_10_
  6
AI-LINETYPE-3
 62
   250
100
AcDb2dPolyline
 66
     1
 10
0.0
 20
0.0
 30
0.0
  0
VERTEX
  5
4B
330
4A
100
AcDbEntity
  8
GRAU_10_
  6
AI-LINETYPE-3
 62
   250
100
AcDbVertex
100
AcDb2dVertex
 10
117.7761013160421
 20
240.5944443842959
 30
0.0
  0
VERTEX
  5
4C
330
4A
100
AcDbEntity
  8
GRAU_10_
  6
AI-LINETYPE-3
 62
   250
100
AcDbVertex
100
AcDb2dVertex
 10
117.7761013160421
 20
204.6111110599583
 30
0.0
  0
SEQEND
  5
4D
330
4A
100
AcDbEntity
  8
GRAU_10_
  6
AI-LINETYPE-3
  0
POLYLINE
  5
4F
330
1F
100
AcDbEntity
  8
GRAU_10_
  6
AI-LINETYPE-4
 62
   250
100
AcDb2dPolyline
 66
     1
 10
0.0
 20
0.0
 30
0.0
  0
VERTEX
  5
50
330
4F
100
AcDbEntity
  8
GRAU_10_
  6
AI-LINETYPE-4
 62
   250
100
AcDbVertex
100
AcDb2dVertex
 10
99.71846107533081
 20
222.6027777221271
 30
0.0
  0
VERTEX
  5
51
330
4F
100
AcDbEntity
  8
GRAU_10_
  6
AI-LINETYPE-4
 62
   250
100
AcDbVertex
100
AcDb2dVertex
 10
136.2309610662027
 20
222.6496310207265
 30
0.0
  0
SEQEND
  5
52
330
4F
100
AcDbEntity
  8
GRAU_10_
  6
AI-LINETYPE-4
  0
POLYLINE
  5
54
330
1F
100
AcDbEntity
  8
GRAU_10_
 62
     7
100
AcDb2dPolyline
 66
     1
 10
0.0
 20
0.0
 30
0.0
  0
VERTEX
  5
55
330
54
100
AcDbEntity
  8
GRAU_10_
 62
     7
100
AcDbVertex
100
AcDb2dVertex
 10
38.63622910275414
 20
237.64940450873
 30
0.0
  0
VERTEX
  5
56
330
54
100
AcDbEntity
  8
GRAU_10_
 62
     7
100
AcDbVertex
100
AcDb2dVertex
 10
37.38600395115697
 20
237.64940450873
 30
0.0
  0
SEQEND
  5
57
330
54
100
AcDbEntity
  8
GRAU_10_
  0
POLYLINE
  5
58
330
1F
100
AcDbEntity
  8
GRAU_10_
 62
     7
100
AcDb2dPolyline
 66
     1
 10
0.0
 20
0.0
 30
0.0
  0
VERTEX
  5
59
330
58
100
AcDbEntity
  8
GRAU_10_
 62
     7
100
AcDbVertex
100
AcDb2dVertex
 10
37.38600395115697
 20
207.6495130231744
 30
0.0
  0
VERTEX
  5
5A
330
58
100
AcDbEntity
  8
GRAU_10_
 62
     7
100
AcDbVertex
100
AcDb2dVertex
 10
38.63622910275414
 20
207.6495130231744
 30
0.0
  0
SEQEND
  5
5B
330
58
100
AcDbEntity
  8
GRAU_10_
  0
POLYLINE
  5
5C
330
1F
100
AcDbEntity
  8
GRAU_10_
 62
     7
100
AcDb2dPolyline
 66
     1
 10
0.0
 20
0.0
 30
0.0
  0
VERTEX
  5
5D
330
5C
100
AcDbEntity
  8
GRAU_10_
 62
     7
100
AcDbVertex
100
AcDb2dVertex
 10
37.38600395115697
 20
237.64940450873
 30
0.0
  0
VERTEX
  5
5E
330
5C
100
AcDbEntity
  8
GRAU_10_
 62
     7
100
AcDbVertex
100
AcDb2dVertex
 10
36.18624944841871
 20
233.1494207858967
 30
0.0
  0
SEQEND
  5
5F
330
5C
100
AcDbEntity
  8
GRAU_10_
  0
POLYLINE
  5
60
330
1F
100
AcDbEntity
  8
GRAU_10_
 62
     7
100
AcDb2dPolyline
 66
     1
 10
0.0
 20
0.0
 30
0.0
  0
VERTEX
  5
61
330
60
100
AcDbEntity
  8
GRAU_10_
 62
     7
100
AcDbVertex
100
AcDb2dVertex
 10
36.18624944841871
 20
212.1500135103306
 30
0.0
  0
VERTEX
  5
62
330
60
100
AcDbEntity
  8
GRAU_10_
 62
     7
100
AcDbVertex
100
AcDb2dVertex
 10
37.38600395115697
 20
207.6495130231744
 30
0.0
  0
SEQEND
  5
63
330
60
100
AcDbEntity
  8
GRAU_10_
  0
POLYLINE
  5
64
330
1F
100
AcDbEntity
  8
GRAU_10_
 62
     7
100
AcDb2dPolyline
 66
     1
 10
0.0
 20
0.0
 30
0.0
  0
VERTEX
  5
65
330
64
100
AcDbEntity
  8
GRAU_10_
 62
     7
100
AcDbVertex
100
AcDb2dVertex
 10
45.68610024899515
 20
237.64940450873
 30
0.0
  0
VERTEX
  5
66
330
64
100
AcDbEntity
  8
GRAU_10_
 62
     7
100
AcDbVertex
100
AcDb2dVertex
 10
40.13622367703192
 20
237.64940450873
 30
0.0
  0
SEQEND
  5
67
330
64
100
AcDbEntity
  8
GRAU_10_
  0
POLYLINE
  5
68
330
1F
100
AcDbEntity
  8
GRAU_10_
 62
     7
100
AcDb2dPolyline
 66
     1
 10
0.0
 20
0.0
 30
0.0
  0
VERTEX
  5
69
330
68
100
AcDbEntity
  8
GRAU_10_
 62
     7
100
AcDbVertex
100
AcDb2dVertex
 10
40.13622367703192
 20
207.6495130231744
 30
0.0
  0
VERTEX
  5
6A
330
68
100
AcDbEntity
  8
GRAU_10_
 62
     7
100
AcDbVertex
100
AcDb2dVertex
 10
45.68610024899515
 20
207.6495130231744
 30
0.0
  0
SEQEND
  5
6B
330
68
100
AcDbEntity
  8
GRAU_10_
  0
POLYLINE
  5
6C
330
1F
100
AcDbEntity
  8
GRAU_10_
 62
     7
100
AcDb2dPolyline
 66
     1
 10
0.0
 20
0.0
 30
0.0
  0
VERTEX
  5
6D
330
6C
100
AcDbEntity
  8
GRAU_10_
 62
     7
100
AcDbVertex
100
AcDb2dVertex
 10
47.18609482327292
 20
232.6495374309869
 30
0.0
  0
VERTEX
  5
6E
330
6C
100
AcDbEntity
  8
GRAU_10_
 62
     7
100
AcDbVertex
100
AcDb2dVertex
 10
46.83865694358548
 20
232.5563475981109
 30
0.0
  0
SEQEND
  5
6F
330
6C
100
AcDbEntity
  8
GRAU_10_
  0
POLYLINE
  5
70
330
1F
100
AcDbEntity
  8
GRAU_10_
 62
     7
100
AcDb2dPolyline
 66
     1
 10
0.0
 20
0.0
 30
0.0
  0
VERTEX
  5
71
330
70
100
AcDbEntity
  8
GRAU_10_
 62
     7
100
AcDbVertex
100
AcDb2dVertex
 10
46.83865694358548
 20
212.7425699337935
 30
0.0
  0
VERTEX
  5
72
330
70
100
AcDbEntity
  8
GRAU_10_
 62
     7
100
AcDbVertex
100
AcDb2dVertex
 10
47.18609482327292
 20
212.6495523556918
 30
0.0
  0
SEQEND
  5
73
330
70
100
AcDbEntity
  8
GRAU_10_
  0
POLYLINE
  5
74
330
1F
100
AcDbEntity
  8
GRAU_10_
 62
     7
100
AcDb2dPolyline
 66
     1
 10
0.0
 20
0.0
 30
0.0
  0
VERTEX
  5
75
330
74
100
AcDbEntity
  8
GRAU_10_
 62
     7
100
AcDbVertex
100
AcDb2dVertex
 10
56.68611787862361
 20
232.6495374309869
 30
0.0
  0
VERTEX
  5
76
330
74
100
AcDbEntity
  8
GRAU_10_
 62
     7
100
AcDbVertex
100
AcDb2dVertex
 10
54.60648598895255
 20
232.6495374309869
 30
0.0
  0
SEQEND
  5
77
330
74
100
AcDbEntity
  8
GRAU_10_
  0
POLYLINE
  5
78
330
1F
100
AcDbEntity
  8
GRAU_10_
 62
     7
100
AcDb2dPolyline
 66
     1
 10
0.0
 20
0.0
 30
0.0
  0
VERTEX
  5
79
330
78
100
AcDbEntity
  8
GRAU_10_
 62
     7
100
AcDbVertex
100
AcDb2dVertex
 10
54.60648598895255
 20
212.6495523556918
 30
0.0
  0
VERTEX
  5
7A
330
78
100
AcDbEntity
  8
GRAU_10_
 62
     7
100
AcDbVertex
100
AcDb2dVertex
 10
56.68611787862361
 20
212.6495523556918
 30
0.0
  0
SEQEND
  5
7B
330
78
100
AcDbEntity
  8
GRAU_10_
  0
POLYLINE
  5
7C
330
1F
100
AcDbEntity
  8
GRAU_10_
 62
     7
100
AcDb2dPolyline
 66
     1
 10
0.0
 20
0.0
 30
0.0
  0
VERTEX
  5
7D
330
7C
100
AcDbEntity
  8
GRAU_10_
 62
     7
100
AcDbVertex
100
AcDb2dVertex
 10
48.76618786758276
 20
232.6495374309869
 30
0.0
  0
VERTEX
  5
7E
330
7C
100
AcDbEntity
  8
GRAU_10_
 62
     7
100
AcDbVertex
100
AcDb2dVertex
 10
47.18609482327292
 20
232.6495374309869
 30
0.0
  0
SEQEND
  5
7F
330
7C
100
AcDbEntity
  8
GRAU_10_
  0
POLYLINE
  5
80
330
1F
100
AcDbEntity
  8
GRAU_10_
 62
     7
100
AcDb2dPolyline
 66
     1
 10
0.0
 20
0.0
 30
0.0
  0
VERTEX
  5
81
330
80
100
AcDbEntity
  8
GRAU_10_
 62
     7
100
AcDbVertex
100
AcDb2dVertex
 10
47.18609482327292
 20
212.6495523556918
 30
0.0
  0
VERTEX
  5
82
330
80
100
AcDbEntity
  8
GRAU_10_
 62
     7
100
AcDbVertex
100
AcDb2dVertex
 10
48.76618786758276
 20
212.6495523556918
 30
0.0
  0
VERTEX
  5
83
330
80
100
AcDbEntity
  8
GRAU_10_
 62
     7
100
AcDbVertex
100
AcDb2dVertex
 10
49.93045788682294
 20
216.458449924184
 30
0.0
  0
SEQEND
  5
84
330
80
100
AcDbEntity
  8
GRAU_10_
  0
POLYLINE
  5
85
330
1F
100
AcDbEntity
  8
GRAU_10_
 62
     7
100
AcDb2dPolyline
 66
     1
 10
0.0
 20
0.0
 30
0.0
  0
VERTEX
  5
86
330
85
100
AcDbEntity
  8
GRAU_10_
 62
     7
100
AcDbVertex
100
AcDb2dVertex
 10
49.93045788682294
 20
228.8411566268175
 30
0.0
  0
VERTEX
  5
87
330
85
100
AcDbEntity
  8
GRAU_10_
 62
     7
100
AcDbVertex
100
AcDb2dVertex
 10
48.76618786758276
 20
232.6495374309869
 30
0.0
  0
SEQEND
  5
88
330
85
100
AcDbEntity
  8
GRAU_10_
  0
POLYLINE
  5
89
330
1F
100
AcDbEntity
  8
GRAU_10_
 62
     7
100
AcDb2dPolyline
 66
     1
 10
0.0
 20
0.0
 30
0.0
  0
VERTEX
  5
8A
330
89
100
AcDbEntity
  8
GRAU_10_
 62
     7
100
AcDbVertex
100
AcDb2dVertex
 10
54.60648598895255
 20
232.6495374309869
 30
0.0
  0
VERTEX
  5
8B
330
89
100
AcDbEntity
  8
GRAU_10_
 62
     7
100
AcDbVertex
100
AcDb2dVertex
 10
53.44152695061531
 20
228.8411566268175
 30
0.0
  0
SEQEND
  5
8C
330
89
100
AcDbEntity
  8
GRAU_10_
  0
POLYLINE
  5
8D
330
1F
100
AcDbEntity
  8
GRAU_10_
 62
     7
100
AcDb2dPolyline
 66
     1
 10
0.0
 20
0.0
 30
0.0
  0
VERTEX
  5
8E
330
8D
100
AcDbEntity
  8
GRAU_10_
 62
     7
100
AcDbVertex
100
AcDb2dVertex
 10
53.44152695061531
 20
216.458449924184
 30
0.0
  0
VERTEX
  5
8F
330
8D
100
AcDbEntity
  8
GRAU_10_
 62
     7
100
AcDbVertex
100
AcDb2dVertex
 10
54.60648598895255
 20
212.6495523556918
 30
0.0
  0
SEQEND
  5
90
330
8D
100
AcDbEntity
  8
GRAU_10_
  0
POLYLINE
  5
91
330
1F
100
AcDbEntity
  8
GRAU_10_
 62
     7
100
AcDb2dPolyline
 66
     1
 10
0.0
 20
0.0
 30
0.0
  0
VERTEX
  5
92
330
91
100
AcDbEntity
  8
GRAU_10_
 62
     7
100
AcDbVertex
100
AcDb2dVertex
 10
46.78646374698394
 20
232.5499741714632
 30
0.0
  0
VERTEX
  5
93
330
91
100
AcDbEntity
  8
GRAU_10_
 62
     7
100
AcDbVertex
100
AcDb2dVertex
 10
46.29105901620502
 20
232.5499741714632
 30
0.0
  0
SEQEND
  5
94
330
91
100
AcDbEntity
  8
GRAU_10_
  0
POLYLINE
  5
95
330
1F
100
AcDbEntity
  8
GRAU_10_
 62
     7
100
AcDb2dPolyline
 66
     1
 10
0.0
 20
0.0
 30
0.0
  0
VERTEX
  5
96
330
95
100
AcDbEntity
  8
GRAU_10_
 62
     7
100
AcDbVertex
100
AcDb2dVertex
 10
46.29105901620502
 20
212.7496323795383
 30
0.0
  0
VERTEX
  5
97
330
95
100
AcDbEntity
  8
GRAU_10_
 62
     7
100
AcDbVertex
100
AcDb2dVertex
 10
46.78646374698394
 20
212.7496323795383
 30
0.0
  0
SEQEND
  5
98
330
95
100
AcDbEntity
  8
GRAU_10_
  0
POLYLINE
  5
99
330
1F
100
AcDbEntity
  8
GRAU_10_
 62
     7
100
AcDb2dPolyline
 66
     1
 10
0.0
 20
0.0
 30
0.0
  0
VERTEX
  5
9A
330
99
100
AcDbEntity
  8
GRAU_10_
 62
     7
100
AcDbVertex
100
AcDb2dVertex
 10
53.25032415118395
 20
228.6993909475995
 30
0.0
  0
VERTEX
  5
9B
330
99
100
AcDbEntity
  8
GRAU_10_
 62
     7
100
AcDbVertex
100
AcDb2dVertex
 10
50.12166068625431
 20
228.6993909475995
 30
0.0
  0
SEQEND
  5
9C
330
99
100
AcDbEntity
  8
GRAU_10_
  0
POLYLINE
  5
9D
330
1F
100
AcDbEntity
  8
GRAU_10_
 62
     7
100
AcDb2dPolyline
 66
     1
 10
0.0
 20
0.0
 30
0.0
  0
VERTEX
  5
9E
330
9D
100
AcDbEntity
  8
GRAU_10_
 62
     7
100
AcDbVertex
100
AcDb2dVertex
 10
50.12166068625431
 20
216.599526584305
 30
0.0
  0
VERTEX
  5
9F
330
9D
100
AcDbEntity
  8
GRAU_10_
 62
     7
100
AcDbVertex
100
AcDb2dVertex
 10
53.25032415118395
 20
216.599526584305
 30
0.0
  0
SEQEND
  5
A0
330
9D
100
AcDbEntity
  8
GRAU_10_
  0
POLYLINE
  5
A1
330
1F
100
AcDbEntity
  8
GRAU_10_
 62
     7
100
AcDb2dPolyline
 66
     1
 10
0.0
 20
0.0
 30
0.0
  0
VERTEX
  5
A2
330
A1
100
AcDbEntity
  8
GRAU_10_
 62
     7
100
AcDbVertex
100
AcDb2dVertex
 10
37.38600395115697
 20
237.64940450873
 30
0.0
  0
VERTEX
  5
A3
330
A1
100
AcDbEntity
  8
GRAU_10_
 62
     7
100
AcDbVertex
100
AcDb2dVertex
 10
37.38600395115697
 20
237.5403672366219
 30
0.0
  0
VERTEX
  5
A4
330
A1
100
AcDbEntity
  8
GRAU_10_
 62
     7
100
AcDbVertex
100
AcDb2dVertex
 10
37.38600395115697
 20
237.2137721846202
 30
0.0
  0
VERTEX
  5
A5
330
A1
100
AcDbEntity
  8
GRAU_10_
 62
     7
100
AcDbVertex
100
AcDb2dVertex
 10
37.38600395115697
 20
236.6749592507271
 30
0.0
  0
VERTEX
  5
A6
330
A1
100
AcDbEntity
  8
GRAU_10_
 62
     7
100
AcDbVertex
100
AcDb2dVertex
 10
37.38600395115697
 20
235.9313353902359
 30
0.0
  0
VERTEX
  5
A7
330
A1
100
AcDbEntity
  8
GRAU_10_
 62
     7
100
AcDbVertex
100
AcDb2dVertex
 10
37.38600395115697
 20
234.9947861825707
 30
0.0
  0
VERTEX
  5
A8
330
A1
100
AcDbEntity
  8
GRAU_10_
 62
     7
100
AcDbVertex
100
AcDb2dVertex
 10
37.38600395115697
 20
233.8771972071557
 30
0.0
  0
VERTEX
  5
A9
330
A1
100
AcDbEntity
  8
GRAU_10_
 62
     7
100
AcDbVertex
100
AcDb2dVertex
 10
37.38600395115697
 20
232.5966552152883
 30
0.0
  0
VERTEX
  5
AA
330
A1
100
AcDbEntity
  8
GRAU_10_
 62
     7
100
AcDbVertex
100
AcDb2dVertex
 10
37.38600395115697
 20
231.1707301939434
 30
0.0
  0
VERTEX
  5
AB
330
A1
100
AcDbEntity
  8
GRAU_10_
 62
     7
100
AcDbVertex
100
AcDb2dVertex
 10
37.38600395115697
 20
229.6200927160325
 30
0.0
  0
VERTEX
  5
AC
330
A1
100
AcDbEntity
  8
GRAU_10_
 62
     7
100
AcDbVertex
100
AcDb2dVertex
 10
37.38600395115697
 20
227.9685139404037
 30
0.0
  0
VERTEX
  5
AD
330
A1
100
AcDbEntity
  8
GRAU_10_
 62
     7
100
AcDbVertex
100
AcDb2dVertex
 10
37.38600395115697
 20
226.2394205163568
 30
0.0
  0
VERTEX
  5
AE
330
A1
100
AcDbEntity
  8
GRAU_10_
 62
     7
100
AcDbVertex
100
AcDb2dVertex
 10
37.38600395115697
 20
224.4576171313856
 30
0.0
  0
VERTEX
  5
AF
330
A1
100
AcDbEntity
  8
GRAU_10_
 62
     7
100
AcDbVertex
100
AcDb2dVertex
 10
37.38600395115697
 20
222.6496310207265
 30
0.0
  0
VERTEX
  5
B0
330
A1
100
AcDbEntity
  8
GRAU_10_
 62
     7
100
AcDbVertex
100
AcDb2dVertex
 10
37.38600395115697
 20
220.8413004005189
 30
0.0
  0
VERTEX
  5
B1
330
A1
100
AcDbEntity
  8
GRAU_10_
 62
     7
100
AcDbVertex
100
AcDb2dVertex
 10
37.38600395115697
 20
219.0601860346447
 30
0.0
  0
VERTEX
  5
B2
330
A1
100
AcDbEntity
  8
GRAU_10_
 62
     7
100
AcDbVertex
100
AcDb2dVertex
 10
37.38600395115697
 20
217.3304035915008
 30
0.0
  0
VERTEX
  5
B3
330
A1
100
AcDbEntity
  8
GRAU_10_
 62
     7
100
AcDbVertex
100
AcDb2dVertex
 10
37.38600395115697
 20
215.678824815872
 30
0.0
  0
VERTEX
  5
B4
330
A1
100
AcDbEntity
  8
GRAU_10_
 62
     7
100
AcDbVertex
100
AcDb2dVertex
 10
37.38600395115697
 20
214.1287041022838
 30
0.0
  0
VERTEX
  5
B5
330
A1
100
AcDbEntity
  8
GRAU_10_
 62
     7
100
AcDbVertex
100
AcDb2dVertex
 10
37.38600395115697
 20
212.7031235904874
 30
0.0
  0
VERTEX
  5
B6
330
A1
100
AcDbEntity
  8
GRAU_10_
 62
     7
100
AcDbVertex
100
AcDb2dVertex
 10
37.38600395115697
 20
211.4217203247487
 30
0.0
  0
VERTEX
  5
B7
330
A1
100
AcDbEntity
  8
GRAU_10_
 62
     7
100
AcDbVertex
100
AcDb2dVertex
 10
37.38600395115697
 20
210.3051648779793
 30
0.0
  0
VERTEX
  5
B8
330
A1
100
AcDbEntity
  8
GRAU_10_
 62
     7
100
AcDbVertex
100
AcDb2dVertex
 10
37.38600395115697
 20
209.3675821416685
 30
0.0
  0
VERTEX
  5
B9
330
A1
100
AcDbEntity
  8
GRAU_10_
 62
     7
100
AcDbVertex
100
AcDb2dVertex
 10
37.38600395115697
 20
208.6246473002744
 30
0.0
  0
VERTEX
  5
BA
330
A1
100
AcDbEntity
  8
GRAU_10_
 62
     7
100
AcDbVertex
100
AcDb2dVertex
 10
37.38600395115697
 20
208.0851453472843
 30
0.0
  0
VERTEX
  5
BB
330
A1
100
AcDbEntity
  8
GRAU_10_
 62
     7
100
AcDbVertex
100
AcDb2dVertex
 10
37.38600395115697
 20
207.7592393143796
 30
0.0
  0
VERTEX
  5
BC
330
A1
100
AcDbEntity
  8
GRAU_10_
 62
     7
100
AcDbVertex
100
AcDb2dVertex
 10
37.38600395115697
 20
207.6495130231744
 30
0.0
  0
SEQEND
  5
BD
330
A1
100
AcDbEntity
  8
GRAU_10_
  0
POLYLINE
  5
BE
330
1F
100
AcDbEntity
  8
GRAU_10_
 62
     7
100
AcDb2dPolyline
 66
     1
 10
0.0
 20
0.0
 30
0.0
  0
VERTEX
  5
BF
330
BE
100
AcDbEntity
  8
GRAU_10_
 62
     7
100
AcDbVertex
100
AcDb2dVertex
 10
38.63622910275414
 20
237.64940450873
 30
0.0
  0
VERTEX
  5
C0
330
BE
100
AcDbEntity
  8
GRAU_10_
 62
     7
100
AcDbVertex
100
AcDb2dVertex
 10
38.63622910275414
 20
237.5403672366219
 30
0.0
  0
VERTEX
  5
C1
330
BE
100
AcDbEntity
  8
GRAU_10_
 62
     7
100
AcDbVertex
100
AcDb2dVertex
 10
38.63622910275414
 20
237.2137721846202
 30
0.0
  0
VERTEX
  5
C2
330
BE
100
AcDbEntity
  8
GRAU_10_
 62
     7
100
AcDbVertex
100
AcDb2dVertex
 10
38.63622910275414
 20
236.6749592507271
 30
0.0
  0
VERTEX
  5
C3
330
BE
100
AcDbEntity
  8
GRAU_10_
 62
     7
100
AcDbVertex
100
AcDb2dVertex
 10
38.63622910275414
 20
235.9313353902359
 30
0.0
  0
VERTEX
  5
C4
330
BE
100
AcDbEntity
  8
GRAU_10_
 62
     7
100
AcDbVertex
100
AcDb2dVertex
 10
38.63622910275414
 20
234.9947861825707
 30
0.0
  0
VERTEX
  5
C5
330
BE
100
AcDbEntity
  8
GRAU_10_
 62
     7
100
AcDbVertex
100
AcDb2dVertex
 10
38.63622910275414
 20
233.8771972071557
 30
0.0
  0
VERTEX
  5
C6
330
BE
100
AcDbEntity
  8
GRAU_10_
 62
     7
100
AcDbVertex
100
AcDb2dVertex
 10
38.63622910275414
 20
232.5966552152883
 30
0.0
  0
VERTEX
  5
C7
330
BE
100
AcDbEntity
  8
GRAU_10_
 62
     7
100
AcDbVertex
100
AcDb2dVertex
 10
38.63622910275414
 20
231.1707301939434
 30
0.0
  0
VERTEX
  5
C8
330
BE
100
AcDbEntity
  8
GRAU_10_
 62
     7
100
AcDbVertex
100
AcDb2dVertex
 10
38.63622910275414
 20
229.6200927160325
 30
0.0
  0
VERTEX
  5
C9
330
BE
100
AcDbEntity
  8
GRAU_10_
 62
     7
100
AcDbVertex
100
AcDb2dVertex
 10
38.63622910275414
 20
227.9685139404037
 30
0.0
  0
VERTEX
  5
CA
330
BE
100
AcDbEntity
  8
GRAU_10_
 62
     7
100
AcDbVertex
100
AcDb2dVertex
 10
38.63622910275414
 20
226.2394205163568
 30
0.0
  0
VERTEX
  5
CB
330
BE
100
AcDbEntity
  8
GRAU_10_
 62
     7
100
AcDbVertex
100
AcDb2dVertex
 10
38.63622910275414
 20
224.4576171313856
 30
0.0
  0
VERTEX
  5
CC
330
BE
100
AcDbEntity
  8
GRAU_10_
 62
     7
100
AcDbVertex
100
AcDb2dVertex
 10
38.63622910275414
 20
222.6496310207265
 30
0.0
  0
VERTEX
  5
CD
330
BE
100
AcDbEntity
  8
GRAU_10_
 62
     7
100
AcDbVertex
100
AcDb2dVertex
 10
38.63622910275414
 20
220.8413004005189
 30
0.0
  0
VERTEX
  5
CE
330
BE
100
AcDbEntity
  8
GRAU_10_
 62
     7
100
AcDbVertex
100
AcDb2dVertex
 10
38.63622910275414
 20
219.0601860346447
 30
0.0
  0
VERTEX
  5
CF
330
BE
100
AcDbEntity
  8
GRAU_10_
 62
     7
100
AcDbVertex
100
AcDb2dVertex
 10
38.63622910275414
 20
217.3304035915008
 30
0.0
  0
VERTEX
  5
D0
330
BE
100
AcDbEntity
  8
GRAU_10_
 62
     7
100
AcDbVertex
100
AcDb2dVertex
 10
38.63622910275414
 20
215.678824815872
 30
0.0
  0
VERTEX
  5
D1
330
BE
100
AcDbEntity
  8
GRAU_10_
 62
     7
100
AcDbVertex
100
AcDb2dVertex
 10
38.63622910275414
 20
214.1287041022838
 30
0.0
  0
VERTEX
  5
D2
330
BE
100
AcDbEntity
  8
GRAU_10_
 62
     7
100
AcDbVertex
100
AcDb2dVertex
 10
38.63622910275414
 20
212.7031235904874
 30
0.0
  0
VERTEX
  5
D3
330
BE
100
AcDbEntity
  8
GRAU_10_
 62
     7
100
AcDbVertex
100
AcDb2dVertex
 10
38.63622910275414
 20
211.4217203247487
 30
0.0
  0
VERTEX
  5
D4
330
BE
100
AcDbEntity
  8
GRAU_10_
 62
     7
100
AcDbVertex
100
AcDb2dVertex
 10
38.63622910275414
 20
210.3051648779793
 30
0.0
  0
VERTEX
  5
D5
330
BE
100
AcDbEntity
  8
GRAU_10_
 62
     7
100
AcDbVertex
100
AcDb2dVertex
 10
38.63622910275414
 20
209.3675821416685
 30
0.0
  0
VERTEX
  5
D6
330
BE
100
AcDbEntity
  8
GRAU_10_
 62
     7
100
AcDbVertex
100
AcDb2dVertex
 10
38.63622910275414
 20
208.6246473002744
 30
0.0
  0
VERTEX
  5
D7
330
BE
100
AcDbEntity
  8
GRAU_10_
 62
     7
100
AcDbVertex
100
AcDb2dVertex
 10
38.63622910275414
 20
208.0851453472843
 30
0.0
  0
VERTEX
  5
D8
330
BE
100
AcDbEntity
  8
GRAU_10_
 62
     7
100
AcDbVertex
100
AcDb2dVertex
 10
38.63622910275414
 20
207.7592393143796
 30
0.0
  0
VERTEX
  5
D9
330
BE
100
AcDbEntity
  8
GRAU_10_
 62
     7
100
AcDbVertex
100
AcDb2dVertex
 10
38.63622910275414
 20
207.6495130231744
 30
0.0
  0
SEQEND
  5
DA
330
BE
100
AcDbEntity
  8
GRAU_10_
  0
SPLINE
  5
DB
330
1F
100
AcDbEntity
  8
GRAU_10_
 62
     7
100
AcDbSpline
210
0.0
220
0.0
230
1.0
 70
     8
 71
     3
 72
    11
 73
     7
 74
     0
 42
0.0000000001
 43
0.0000000001
 40
0.0
 40
0.0
 40
0.0
 40
0.0
 40
1.0
 40
1.0
 40
1.0
 40
2.0
 40
2.0
 40
2.0
 40
2.0
 10
38.63622910275414
 20
237.64940450873
 30
0.0
 10
38.63622910275414
 20
237.2351317766287
 30
0.0
 10
38.972125912566
 20
236.8994072215911
 30
0.0
 10
39.38622638989303
 20
236.8994072215911
 30
0.0
 10
39.80032686722006
 20
236.8994072215911
 30
0.0
 10
40.13622367703192
 20
237.2351317766287
 30
0.0
 10
40.13622367703192
 20
237.64940450873
 30
0.0
  0
SPLINE
  5
DC
330
1F
100
AcDbEntity
  8
GRAU_10_
 62
     7
100
AcDbSpline
210
0.0
220
0.0
230
1.0
 70
     8
 71
     3
 72
    11
 73
     7
 74
     0
 42
0.0000000001
 43
0.0000000001
 40
0.0
 40
0.0
 40
0.0
 40
0.0
 40
1.0
 40
1.0
 40
1.0
 40
2.0
 40
2.0
 40
2.0
 40
2.0
 10
40.13622367703192
 20
207.6495130231744
 30
0.0
 10
40.13622367703192
 20
208.0636135005015
 30
0.0
 10
39.80032686722006
 20
208.3995103103133
 30
0.0
 10
39.38622638989303
 20
208.3995103103133
 30
0.0
 10
38.972125912566
 20
208.3995103103133
 30
0.0
 10
38.63622910275414
 20
208.0636135005015
 30
0.0
 10
38.63622910275414
 20
207.6495130231744
 30
0.0
  0
POLYLINE
  5
DD
330
1F
100
AcDbEntity
  8
GRAU_10_
 62
     7
100
AcDb2dPolyline
 66
     1
 10
0.0
 20
0.0
 30
0.0
  0
VERTEX
  5
DE
330
DD
100
AcDbEntity
  8
GRAU_10_
 62
     7
100
AcDbVertex
100
AcDb2dVertex
 10
40.13622367703192
 20
237.64940450873
 30
0.0
  0
VERTEX
  5
DF
330
DD
100
AcDbEntity
  8
GRAU_10_
 62
     7
100
AcDbVertex
100
AcDb2dVertex
 10
40.13622367703192
 20
237.5403672366219
 30
0.0
  0
VERTEX
  5
E0
330
DD
100
AcDbEntity
  8
GRAU_10_
 62
     7
100
AcDbVertex
100
AcDb2dVertex
 10
40.13622367703192
 20
237.2137721846202
 30
0.0
  0
VERTEX
  5
E1
330
DD
100
AcDbEntity
  8
GRAU_10_
 62
     7
100
AcDbVertex
100
AcDb2dVertex
 10
40.13622367703192
 20
236.6749592507271
 30
0.0
  0
VERTEX
  5
E2
330
DD
100
AcDbEntity
  8
GRAU_10_
 62
     7
100
AcDbVertex
100
AcDb2dVertex
 10
40.13622367703192
 20
235.9313353902359
 30
0.0
  0
VERTEX
  5
E3
330
DD
100
AcDbEntity
  8
GRAU_10_
 62
     7
100
AcDbVertex
100
AcDb2dVertex
 10
40.13622367703192
 20
234.9947861825707
 30
0.0
  0
VERTEX
  5
E4
330
DD
100
AcDbEntity
  8
GRAU_10_
 62
     7
100
AcDbVertex
100
AcDb2dVertex
 10
40.13622367703192
 20
233.8771972071557
 30
0.0
  0
VERTEX
  5
E5
330
DD
100
AcDbEntity
  8
GRAU_10_
 62
     7
100
AcDbVertex
100
AcDb2dVertex
 10
40.13622367703192
 20
232.5966552152883
 30
0.0
  0
VERTEX
  5
E6
330
DD
100
AcDbEntity
  8
GRAU_10_
 62
     7
100
AcDbVertex
100
AcDb2dVertex
 10
40.13622367703192
 20
231.1707301939434
 30
0.0
  0
VERTEX
  5
E7
330
DD
100
AcDbEntity
  8
GRAU_10_
 62
     7
100
AcDbVertex
100
AcDb2dVertex
 10
40.13622367703192
 20
229.6200927160325
 30
0.0
  0
VERTEX
  5
E8
330
DD
100
AcDbEntity
  8
GRAU_10_
 62
     7
100
AcDbVertex
100
AcDb2dVertex
 10
40.13622367703192
 20
227.9685139404037
 30
0.0
  0
VERTEX
  5
E9
330
DD
100
AcDbEntity
  8
GRAU_10_
 62
     7
100
AcDbVertex
100
AcDb2dVertex
 10
40.13622367703192
 20
226.2394205163568
 30
0.0
  0
VERTEX
  5
EA
330
DD
100
AcDbEntity
  8
GRAU_10_
 62
     7
100
AcDbVertex
100
AcDb2dVertex
 10
40.13622367703192
 20
224.4576171313856
 30
0.0
  0
VERTEX
  5
EB
330
DD
100
AcDbEntity
  8
GRAU_10_
 62
     7
100
AcDbVertex
100
AcDb2dVertex
 10
40.13622367703192
 20
222.6496310207265
 30
0.0
  0
VERTEX
  5
EC
330
DD
100
AcDbEntity
  8
GRAU_10_
 62
     7
100
AcDbVertex
100
AcDb2dVertex
 10
40.13622367703192
 20
220.8413004005189
 30
0.0
  0
VERTEX
  5
ED
330
DD
100
AcDbEntity
  8
GRAU_10_
 62
     7
100
AcDbVertex
100
AcDb2dVertex
 10
40.13622367703192
 20
219.0601860346447
 30
0.0
  0
VERTEX
  5
EE
330
DD
100
AcDbEntity
  8
GRAU_10_
 62
     7
100
AcDbVertex
100
AcDb2dVertex
 10
40.13622367703192
 20
217.3304035915008
 30
0.0
  0
VERTEX
  5
EF
330
DD
100
AcDbEntity
  8
GRAU_10_
 62
     7
100
AcDbVertex
100
AcDb2dVertex
 10
40.13622367703192
 20
215.678824815872
 30
0.0
  0
VERTEX
  5
F0
330
DD
100
AcDbEntity
  8
GRAU_10_
 62
     7
100
AcDbVertex
100
AcDb2dVertex
 10
40.13622367703192
 20
214.1287041022838
 30
0.0
  0
VERTEX
  5
F1
330
DD
100
AcDbEntity
  8
GRAU_10_
 62
     7
100
AcDbVertex
100
AcDb2dVertex
 10
40.13622367703192
 20
212.7031235904874
 30
0.0
  0
VERTEX
  5
F2
330
DD
100
AcDbEntity
  8
GRAU_10_
 62
     7
100
AcDbVertex
100
AcDb2dVertex
 10
40.13622367703192
 20
211.4217203247487
 30
0.0
  0
VERTEX
  5
F3
330
DD
100
AcDbEntity
  8
GRAU_10_
 62
     7
100
AcDbVertex
100
AcDb2dVertex
 10
40.13622367703192
 20
210.3051648779793
 30
0.0
  0
VERTEX
  5
F4
330
DD
100
AcDbEntity
  8
GRAU_10_
 62
     7
100
AcDbVertex
100
AcDb2dVertex
 10
40.13622367703192
 20
209.3675821416685
 30
0.0
  0
VERTEX
  5
F5
330
DD
100
AcDbEntity
  8
GRAU_10_
 62
     7
100
AcDbVertex
100
AcDb2dVertex
 10
40.13622367703192
 20
208.6246473002744
 30
0.0
  0
VERTEX
  5
F6
330
DD
100
AcDbEntity
  8
GRAU_10_
 62
     7
100
AcDbVertex
100
AcDb2dVertex
 10
40.13622367703192
 20
208.0851453472843
 30
0.0
  0
VERTEX
  5
F7
330
DD
100
AcDbEntity
  8
GRAU_10_
 62
     7
100
AcDbVertex
100
AcDb2dVertex
 10
40.13622367703192
 20
207.7592393143796
 30
0.0
  0
VERTEX
  5
F8
330
DD
100
AcDbEntity
  8
GRAU_10_
 62
     7
100
AcDbVertex
100
AcDb2dVertex
 10
40.13622367703192
 20
207.6495130231744
 30
0.0
  0
SEQEND
  5
F9
330
DD
100
AcDbEntity
  8
GRAU_10_
  0
POLYLINE
  5
FA
330
1F
100
AcDbEntity
  8
GRAU_10_
 62
     7
100
AcDb2dPolyline
 66
     1
 10
0.0
 20
0.0
 30
0.0
  0
VERTEX
  5
FB
330
FA
100
AcDbEntity
  8
GRAU_10_
 62
     7
100
AcDbVertex
100
AcDb2dVertex
 10
36.18624944841871
 20
233.1494207858967
 30
0.0
  0
VERTEX
  5
FC
330
FA
100
AcDbEntity
  8
GRAU_10_
 62
     7
100
AcDbVertex
100
AcDb2dVertex
 10
36.18624944841871
 20
233.0424505710797
 30
0.0
  0
VERTEX
  5
FD
330
FA
100
AcDbEntity
  8
GRAU_10_
 62
     7
100
AcDbVertex
100
AcDb2dVertex
 10
36.18624944841871
 20
232.7242960030169
 30
0.0
  0
VERTEX
  5
FE
330
FA
100
AcDbEntity
  8
GRAU_10_
 62
     7
100
AcDbVertex
100
AcDb2dVertex
 10
36.18624944841871
 20
232.2011582535817
 30
0.0
  0
VERTEX
  5
FF
330
FA
100
AcDbEntity
  8
GRAU_10_
 62
     7
100
AcDbVertex
100
AcDb2dVertex
 10
36.18624944841871
 20
231.4825113353585
 30
0.0
  0
VERTEX
  5
100
330
FA
100
AcDbEntity
  8
GRAU_10_
 62
     7
100
AcDbVertex
100
AcDb2dVertex
 10
36.18624944841871
 20
230.585063961451
 30
0.0
  0
VERTEX
  5
101
330
FA
100
AcDbEntity
  8
GRAU_10_
 62
     7
100
AcDbVertex
100
AcDb2dVertex
 10
36.18624944841871
 20
229.5260416092852
 30
0.0
  0
VERTEX
  5
102
330
FA
100
AcDbEntity
  8
GRAU_10_
 62
     7
100
AcDbVertex
100
AcDb2dVertex
 10
36.18624944841871
 20
228.3261148517726
 30
0.0
  0
VERTEX
  5
103
330
FA
100
AcDbEntity
  8
GRAU_10_
 62
     7
100
AcDbVertex
100
AcDb2dVertex
 10
36.18624944841871
 20
227.0114664146013
 30
0.0
  0
VERTEX
  5
104
330
FA
100
AcDbEntity
  8
GRAU_10_
 62
     7
100
AcDbVertex
100
AcDb2dVertex
 10
36.18624944841871
 20
225.607590004362
 30
0.0
  0
VERTEX
  5
105
330
FA
100
AcDbEntity
  8
GRAU_10_
 62
     7
100
AcDbVertex
100
AcDb2dVertex
 10
36.18624944841871
 20
224.1437689326793
 30
0.0
  0
VERTEX
  5
106
330
FA
100
AcDbEntity
  8
GRAU_10_
 62
     7
100
AcDbVertex
100
AcDb2dVertex
 10
36.18624944841871
 20
222.6496310207265
 30
0.0
  0
VERTEX
  5
107
330
FA
100
AcDbEntity
  8
GRAU_10_
 62
     7
100
AcDbVertex
100
AcDb2dVertex
 10
36.18624944841871
 20
221.1553208539994
 30
0.0
  0
VERTEX
  5
108
330
FA
100
AcDbEntity
  8
GRAU_10_
 62
     7
100
AcDbVertex
100
AcDb2dVertex
 10
36.18624944841871
 20
219.6913275275425
 30
0.0
  0
VERTEX
  5
109
330
FA
100
AcDbEntity
  8
GRAU_10_
 62
     7
100
AcDbVertex
100
AcDb2dVertex
 10
36.18624944841871
 20
218.2874511173031
 30
0.0
  0
VERTEX
  5
10A
330
FA
100
AcDbEntity
  8
GRAU_10_
 62
     7
100
AcDbVertex
100
AcDb2dVertex
 10
36.18624944841871
 20
216.9728026801318
 30
0.0
  0
VERTEX
  5
10B
330
FA
100
AcDbEntity
  8
GRAU_10_
 62
     7
100
AcDbVertex
100
AcDb2dVertex
 10
36.18624944841871
 20
215.7732204321678
 30
0.0
  0
VERTEX
  5
10C
330
FA
100
AcDbEntity
  8
GRAU_10_
 62
     7
100
AcDbVertex
100
AcDb2dVertex
 10
36.18624944841871
 20
214.7145425895505
 30
0.0
  0
VERTEX
  5
10D
330
FA
100
AcDbEntity
  8
GRAU_10_
 62
     7
100
AcDbVertex
100
AcDb2dVertex
 10
36.18624944841871
 20
213.8164061965459
 30
0.0
  0
VERTEX
  5
10E
330
FA
100
AcDbEntity
  8
GRAU_10_
 62
     7
100
AcDbVertex
100
AcDb2dVertex
 10
36.18624944841871
 20
213.0984482974198
 30
0.0
  0
VERTEX
  5
10F
330
FA
100
AcDbEntity
  8
GRAU_10_
 62
     7
100
AcDbVertex
100
AcDb2dVertex
 10
36.18624944841871
 20
212.5746215288876
 30
0.0
  0
VERTEX
  5
110
330
FA
100
AcDbEntity
  8
GRAU_10_
 62
     7
100
AcDbVertex
100
AcDb2dVertex
 10
36.18624944841871
 20
212.2568114703733
 30
0.0
  0
VERTEX
  5
111
330
FA
100
AcDbEntity
  8
GRAU_10_
 62
     7
100
AcDbVertex
100
AcDb2dVertex
 10
36.18624944841871
 20
212.1500135103306
 30
0.0
  0
SEQEND
  5
112
330
FA
100
AcDbEntity
  8
GRAU_10_
  0
SPLINE
  5
113
330
1F
100
AcDbEntity
  8
GRAU_10_
 62
     7
100
AcDbSpline
210
0.0
220
0.0
230
1.0
 70
     8
 71
     3
 72
     8
 73
     4
 74
     0
 42
0.0000000001
 43
0.0000000001
 40
0.0
 40
0.0
 40
0.0
 40
0.0
 40
1.0
 40
1.0
 40
1.0
 40
1.0
 10
46.18598360390489
 20
237.1498656633688
 30
0.0
 10
46.18598360390489
 20
237.425645556963
 30
0.0
 10
45.96205239736366
 20
237.64940450873
 30
0.0
 10
45.68610024899515
 20
237.64940450873
 30
0.0
  0
SPLINE
  5
114
330
1F
100
AcDbEntity
  8
GRAU_10_
 62
     7
100
AcDbSpline
210
0.0
220
0.0
230
1.0
 70
     8
 71
     3
 72
     8
 73
     4
 74
     0
 42
0.0000000001
 43
0.0000000001
 40
0.0
 40
0.0
 40
0.0
 40
0.0
 40
1.0
 40
1.0
 40
1.0
 40
1.0
 10
45.68610024899515
 20
207.6495130231744
 30
0.0
 10
45.96205239736366
 20
207.6495130231744
 30
0.0
 10
46.18598360390489
 20
207.8732719749414
 30
0.0
 10
46.18598360390489
 20
208.1497408876327
 30
0.0
  0
POLYLINE
  5
115
330
1F
100
AcDbEntity
  8
GRAU_10_
 62
     7
100
AcDb2dPolyline
 66
     1
 10
0.0
 20
0.0
 30
0.0
  0
VERTEX
  5
116
330
115
100
AcDbEntity
  8
GRAU_10_
 62
     7
100
AcDbVertex
100
AcDb2dVertex
 10
46.18598360390489
 20
237.1498656633688
 30
0.0
  0
VERTEX
  5
117
330
115
100
AcDbEntity
  8
GRAU_10_
 62
     7
100
AcDbVertex
100
AcDb2dVertex
 10
46.18598360390489
 20
237.0435844676488
 30
0.0
  0
VERTEX
  5
118
330
115
100
AcDbEntity
  8
GRAU_10_
 62
     7
100
AcDbVertex
100
AcDb2dVertex
 10
46.18598360390489
 20
236.7283582307485
 30
0.0
  0
VERTEX
  5
119
330
115
100
AcDbEntity
  8
GRAU_10_
 62
     7
100
AcDbVertex
100
AcDb2dVertex
 10
46.18598360390489
 20
236.2072875386044
 30
0.0
  0
VERTEX
  5
11A
330
115
100
AcDbEntity
  8
GRAU_10_
 62
     7
100
AcDbVertex
100
AcDb2dVertex
 10
46.18598360390489
 20
235.4886406203813
 30
0.0
  0
VERTEX
  5
11B
330
115
100
AcDbEntity
  8
GRAU_10_
 62
     7
100
AcDbVertex
100
AcDb2dVertex
 10
46.18598360390489
 20
234.5827527625349
 30
0.0
  0
VERTEX
  5
11C
330
115
100
AcDbEntity
  8
GRAU_10_
 62
     7
100
AcDbVertex
100
AcDb2dVertex
 10
46.18598360390489
 20
233.5032320922319
 30
0.0
  0
VERTEX
  5
11D
330
115
100
AcDbEntity
  8
GRAU_10_
 62
     7
100
AcDbVertex
100
AcDb2dVertex
 10
46.18598360390489
 20
232.2645480105103
 30
0.0
  0
VERTEX
  5
11E
330
115
100
AcDbEntity
  8
GRAU_10_
 62
     7
100
AcDbVertex
100
AcDb2dVertex
 10
46.18598360390489
 20
230.8866820711846
 30
0.0
  0
VERTEX
  5
11F
330
115
100
AcDbEntity
  8
GRAU_10_
 62
     7
100
AcDbVertex
100
AcDb2dVertex
 10
46.18598360390489
 20
229.3880655351009
 30
0.0
  0
VERTEX
  5
120
330
115
100
AcDbEntity
  8
GRAU_10_
 62
     7
100
AcDbVertex
100
AcDb2dVertex
 10
46.18598360390489
 20
227.7914360324619
 30
0.0
  0
VERTEX
  5
121
330
115
100
AcDbEntity
  8
GRAU_10_
 62
     7
100
AcDbVertex
100
AcDb2dVertex
 10
46.18598360390489
 20
226.1195311934701
 30
0.0
  0
VERTEX
  5
122
330
115
100
AcDbEntity
  8
GRAU_10_
 62
     7
100
AcDbVertex
100
AcDb2dVertex
 10
46.18598360390489
 20
224.3976724699423
 30
0.0
  0
VERTEX
  5
123
330
115
100
AcDbEntity
  8
GRAU_10_
 62
     7
100
AcDbVertex
100
AcDb2dVertex
 10
46.18598360390489
 20
222.6496310207265
 30
0.0
  0
VERTEX
  5
124
330
115
100
AcDbEntity
  8
GRAU_10_
 62
     7
100
AcDbVertex
100
AcDb2dVertex
 10
46.18598360390489
 20
220.9019340810592
 30
0.0
  0
VERTEX
  5
125
330
115
100
AcDbEntity
  8
GRAU_10_
 62
     7
100
AcDbVertex
100
AcDb2dVertex
 10
46.18598360390489
 20
219.1793863384343
 30
0.0
  0
VERTEX
  5
126
330
115
100
AcDbEntity
  8
GRAU_10_
 62
     7
100
AcDbVertex
100
AcDb2dVertex
 10
46.18598360390489
 20
217.5078260089911
 30
0.0
  0
VERTEX
  5
127
330
115
100
AcDbEntity
  8
GRAU_10_
 62
     7
100
AcDbVertex
100
AcDb2dVertex
 10
46.18598360390489
 20
215.9108519968036
 30
0.0
  0
VERTEX
  5
128
330
115
100
AcDbEntity
  8
GRAU_10_
 62
     7
100
AcDbVertex
100
AcDb2dVertex
 10
46.18598360390489
 20
214.4129244798169
 30
0.0
  0
VERTEX
  5
129
330
115
100
AcDbEntity
  8
GRAU_10_
 62
     7
100
AcDbVertex
100
AcDb2dVertex
 10
46.18598360390489
 20
213.0343695213942
 30
0.0
  0
VERTEX
  5
12A
330
115
100
AcDbEntity
  8
GRAU_10_
 62
     7
100
AcDbVertex
100
AcDb2dVertex
 10
46.18598360390489
 20
211.7960299492212
 30
0.0
  0
VERTEX
  5
12B
330
115
100
AcDbEntity
  8
GRAU_10_
 62
     7
100
AcDbVertex
100
AcDb2dVertex
 10
46.18598360390489
 20
210.7161647693696
 30
0.0
  0
VERTEX
  5
12C
330
115
100
AcDbEntity
  8
GRAU_10_
 62
     7
100
AcDbVertex
100
AcDb2dVertex
 10
46.18598360390489
 20
209.8102769115231
 30
0.0
  0
VERTEX
  5
12D
330
115
100
AcDbEntity
  8
GRAU_10_
 62
     7
100
AcDbVertex
100
AcDb2dVertex
 10
46.18598360390489
 20
209.0919745028486
 30
0.0
  0
VERTEX
  5
12E
330
115
100
AcDbEntity
  8
GRAU_10_
 62
     7
100
AcDbVertex
100
AcDb2dVertex
 10
46.18598360390489
 20
208.5714205750273
 30
0.0
  0
VERTEX
  5
12F
330
115
100
AcDbEntity
  8
GRAU_10_
 62
     7
100
AcDbVertex
100
AcDb2dVertex
 10
46.18598360390489
 20
208.2553330642556
 30
0.0
  0
VERTEX
  5
130
330
115
100
AcDbEntity
  8
GRAU_10_
 62
     7
100
AcDbVertex
100
AcDb2dVertex
 10
46.18598360390489
 20
208.1497408876327
 30
0.0
  0
SEQEND
  5
131
330
115
100
AcDbEntity
  8
GRAU_10_
  0
SPLINE
  5
132
330
1F
100
AcDbEntity
  8
GRAU_10_
 62
     7
100
AcDbSpline
210
0.0
220
0.0
230
1.0
 70
     8
 71
     3
 72
     8
 73
     4
 74
     0
 42
0.0000000001
 43
0.0000000001
 40
0.0
 40
0.0
 40
0.0
 40
0.0
 40
1.0
 40
1.0
 40
1.0
 40
1.0
 10
46.18598360390489
 20
232.5796019926364
 30
0.0
 10
46.21957328488608
 20
232.5591036744991
 30
0.0
 10
46.25591904225546
 20
232.5492851523662
 30
0.0
 10
46.29105901620502
 20
232.5499741714632
 30
0.0
  0
SPLINE
  5
133
330
1F
100
AcDbEntity
  8
GRAU_10_
 62
     7
100
AcDbSpline
210
0.0
220
0.0
230
1.0
 70
     8
 71
     3
 72
     8
 73
     4
 74
     0
 42
0.0000000001
 43
0.0000000001
 40
0.0
 40
0.0
 40
0.0
 40
0.0
 40
1.0
 40
1.0
 40
1.0
 40
1.0
 10
46.29105901620502
 20
212.7496323795383
 30
0.0
 10
46.25230169199595
 20
212.7496323795383
 30
0.0
 10
46.21595593462657
 20
212.7387803287598
 30
0.0
 10
46.18598360390489
 20
212.7200045583652
 30
0.0
  0
POLYLINE
  5
134
330
1F
100
AcDbEntity
  8
GRAU_10_
 62
     7
100
AcDb2dPolyline
 66
     1
 10
0.0
 20
0.0
 30
0.0
  0
VERTEX
  5
135
330
134
100
AcDbEntity
  8
GRAU_10_
 62
     7
100
AcDbVertex
100
AcDb2dVertex
 10
47.18609482327292
 20
232.6495374309869
 30
0.0
  0
VERTEX
  5
136
330
134
100
AcDbEntity
  8
GRAU_10_
 62
     7
100
AcDbVertex
100
AcDb2dVertex
 10
47.18609482327292
 20
232.5479071141721
 30
0.0
  0
VERTEX
  5
137
330
134
100
AcDbEntity
  8
GRAU_10_
 62
     7
100
AcDbVertex
100
AcDb2dVertex
 10
47.18609482327292
 20
232.2449109662443
 30
0.0
  0
VERTEX
  5
138
330
134
100
AcDbEntity
  8
GRAU_10_
 62
     7
100
AcDbVertex
100
AcDb2dVertex
 10
47.18609482327292
 20
231.7457166304316
 30
0.0
  0
VERTEX
  5
139
330
134
100
AcDbEntity
  8
GRAU_10_
 62
     7
100
AcDbVertex
100
AcDb2dVertex
 10
47.18609482327292
 20
231.0620374313838
 30
0.0
  0
VERTEX
  5
13A
330
134
100
AcDbEntity
  8
GRAU_10_
 62
     7
100
AcDbVertex
100
AcDb2dVertex
 10
47.18609482327292
 20
230.2067924771705
 30
0.0
  0
VERTEX
  5
13B
330
134
100
AcDbEntity
  8
GRAU_10_
 62
     7
100
AcDbVertex
100
AcDb2dVertex
 10
47.18609482327292
 20
229.1985852834122
 30
0.0
  0
VERTEX
  5
13C
330
134
100
AcDbEntity
  8
GRAU_10_
 62
     7
100
AcDbVertex
100
AcDb2dVertex
 10
47.18609482327292
 20
228.0560193657291
 30
0.0
  0
VERTEX
  5
13D
330
134
100
AcDbEntity
  8
GRAU_10_
 62
     7
100
AcDbVertex
100
AcDb2dVertex
 10
47.18609482327292
 20
226.8040716663893
 30
0.0
  0
VERTEX
  5
13E
330
134
100
AcDbEntity
  8
GRAU_10_
 62
     7
100
AcDbVertex
100
AcDb2dVertex
 10
47.18609482327292
 20
225.4673746181123
 30
0.0
  0
VERTEX
  5
13F
330
134
100
AcDbEntity
  8
GRAU_10_
 62
     7
100
AcDbVertex
100
AcDb2dVertex
 10
47.18609482327292
 20
224.0727999656832
 30
0.0
  0
VERTEX
  5
140
330
134
100
AcDbEntity
  8
GRAU_10_
 62
     7
100
AcDbVertex
100
AcDb2dVertex
 10
47.18609482327292
 20
222.6496310207265
 30
0.0
  0
VERTEX
  5
141
330
134
100
AcDbEntity
  8
GRAU_10_
 62
     7
100
AcDbVertex
100
AcDb2dVertex
 10
47.18609482327292
 20
221.2261175662213
 30
0.0
  0
VERTEX
  5
142
330
134
100
AcDbEntity
  8
GRAU_10_
 62
     7
100
AcDbVertex
100
AcDb2dVertex
 10
47.18609482327292
 20
219.8320596781149
 30
0.0
  0
VERTEX
  5
143
330
134
100
AcDbEntity
  8
GRAU_10_
 62
     7
100
AcDbVertex
100
AcDb2dVertex
 10
47.18609482327292
 20
218.495362629838
 30
0.0
  0
VERTEX
  5
144
330
134
100
AcDbEntity
  8
GRAU_10_
 62
     7
100
AcDbVertex
100
AcDb2dVertex
 10
47.18609482327292
 20
217.2432426757239
 30
0.0
  0
VERTEX
  5
145
330
134
100
AcDbEntity
  8
GRAU_10_
 62
     7
100
AcDbVertex
100
AcDb2dVertex
 10
47.18609482327292
 20
216.1010212675893
 30
0.0
  0
VERTEX
  5
146
330
134
100
AcDbEntity
  8
GRAU_10_
 62
     7
100
AcDbVertex
100
AcDb2dVertex
 10
47.18609482327292
 20
215.0921250547339
 30
0.0
  0
VERTEX
  5
147
330
134
100
AcDbEntity
  8
GRAU_10_
 62
     7
100
AcDbVertex
100
AcDb2dVertex
 10
47.18609482327292
 20
214.2370523552949
 30
0.0
  0
VERTEX
  5
148
330
134
100
AcDbEntity
  8
GRAU_10_
 62
     7
100
AcDbVertex
100
AcDb2dVertex
 10
47.18609482327292
 20
213.5532009014728
 30
0.0
  0
VERTEX
  5
149
330
134
100
AcDbEntity
  8
GRAU_10_
 62
     7
100
AcDbVertex
100
AcDb2dVertex
 10
47.18609482327292
 20
213.0543510752086
 30
0.0
  0
VERTEX
  5
14A
330
134
100
AcDbEntity
  8
GRAU_10_
 62
     7
100
AcDbVertex
100
AcDb2dVertex
 10
47.18609482327292
 20
212.7513549272809
 30
0.0
  0
VERTEX
  5
14B
330
134
100
AcDbEntity
  8
GRAU_10_
 62
     7
100
AcDbVertex
100
AcDb2dVertex
 10
47.18609482327292
 20
212.6495523556918
 30
0.0
  0
SEQEND
  5
14C
330
134
100
AcDbEntity
  8
GRAU_10_
  0
SPLINE
  5
14D
330
1F
100
AcDbEntity
  8
GRAU_10_
 62
     7
100
AcDbSpline
210
0.0
220
0.0
230
1.0
 70
     8
 71
     3
 72
     8
 73
     4
 74
     0
 42
0.0000000001
 43
0.0000000001
 40
0.0
 40
0.0
 40
0.0
 40
0.0
 40
1.0
 40
1.0
 40
1.0
 40
1.0
 10
57.18634574308189
 20
232.1499985856257
 30
0.0
 10
57.18634574308189
 20
232.4254339696714
 30
0.0
 10
56.96224228176639
 20
232.6495374309869
 30
0.0
 10
56.68611787862361
 20
232.6495374309869
 30
0.0
  0
SPLINE
  5
14E
330
1F
100
AcDbEntity
  8
GRAU_10_
 62
     7
100
AcDbSpline
210
0.0
220
0.0
230
1.0
 70
     8
 71
     3
 72
     8
 73
     4
 74
     0
 42
0.0000000001
 43
0.0000000001
 40
0.0
 40
0.0
 40
0.0
 40
0.0
 40
1.0
 40
1.0
 40
1.0
 40
1.0
 10
56.68611787862361
 20
212.6495523556918
 30
0.0
 10
56.96224228176639
 20
212.6495523556918
 30
0.0
 10
57.18634574308189
 20
212.873483562233
 30
0.0
 10
57.18634574308189
 20
213.1497802201501
 30
0.0
  0
POLYLINE
  5
14F
330
1F
100
AcDbEntity
  8
GRAU_10_
 62
     7
100
AcDb2dPolyline
 66
     1
 10
0.0
 20
0.0
 30
0.0
  0
VERTEX
  5
150
330
14F
100
AcDbEntity
  8
GRAU_10_
 62
     7
100
AcDbVertex
100
AcDb2dVertex
 10
57.18634574308189
 20
232.1499985856257
 30
0.0
  0
VERTEX
  5
151
330
14F
100
AcDbEntity
  8
GRAU_10_
 62
     7
100
AcDbVertex
100
AcDb2dVertex
 10
57.18634574308189
 20
232.0433728803572
 30
0.0
  0
VERTEX
  5
152
330
14F
100
AcDbEntity
  8
GRAU_10_
 62
     7
100
AcDbVertex
100
AcDb2dVertex
 10
57.18634574308189
 20
231.7276298791341
 30
0.0
  0
VERTEX
  5
153
330
14F
100
AcDbEntity
  8
GRAU_10_
 62
     7
100
AcDbVertex
100
AcDb2dVertex
 10
57.18634574308189
 20
231.209143008604
 30
0.0
  0
VERTEX
  5
154
330
14F
100
AcDbEntity
  8
GRAU_10_
 62
     7
100
AcDbVertex
100
AcDb2dVertex
 10
57.18634574308189
 20
230.4985920647712
 30
0.0
  0
VERTEX
  5
155
330
14F
100
AcDbEntity
  8
GRAU_10_
 62
     7
100
AcDbVertex
100
AcDb2dVertex
 10
57.18634574308189
 20
229.6135470346105
 30
0.0
  0
VERTEX
  5
156
330
14F
100
AcDbEntity
  8
GRAU_10_
 62
     7
100
AcDbVertex
100
AcDb2dVertex
 10
57.18634574308189
 20
228.5731281980651
 30
0.0
  0
VERTEX
  5
157
330
14F
100
AcDbEntity
  8
GRAU_10_
 62
     7
100
AcDbVertex
100
AcDb2dVertex
 10
57.18634574308189
 20
227.399728675789
 30
0.0
  0
VERTEX
  5
158
330
14F
100
AcDbEntity
  8
GRAU_10_
 62
     7
100
AcDbVertex
100
AcDb2dVertex
 10
57.18634574308189
 20
226.1205647221157
 30
0.0
  0
VERTEX
  5
159
330
14F
100
AcDbEntity
  8
GRAU_10_
 62
     7
100
AcDbVertex
100
AcDb2dVertex
 10
57.18634574308189
 20
224.7638861200243
 30
0.0
  0
VERTEX
  5
15A
330
14F
100
AcDbEntity
  8
GRAU_10_
 62
     7
100
AcDbVertex
100
AcDb2dVertex
 10
57.18634574308189
 20
223.3598374550107
 30
0.0
  0
VERTEX
  5
15B
330
14F
100
AcDbEntity
  8
GRAU_10_
 62
     7
100
AcDbVertex
100
AcDb2dVertex
 10
57.18634574308189
 20
221.939941350765
 30
0.0
  0
VERTEX
  5
15C
330
14F
100
AcDbEntity
  8
GRAU_10_
 62
     7
100
AcDbVertex
100
AcDb2dVertex
 10
57.18634574308189
 20
220.5357204309772
 30
0.0
  0
VERTEX
  5
15D
330
14F
100
AcDbEntity
  8
GRAU_10_
 62
     7
100
AcDbVertex
100
AcDb2dVertex
 10
57.18634574308189
 20
219.1790418288858
 30
0.0
  0
VERTEX
  5
15E
330
14F
100
AcDbEntity
  8
GRAU_10_
 62
     7
100
AcDbVertex
100
AcDb2dVertex
 10
57.18634574308189
 20
217.8998778752126
 30
0.0
  0
VERTEX
  5
15F
330
14F
100
AcDbEntity
  8
GRAU_10_
 62
     7
100
AcDbVertex
100
AcDb2dVertex
 10
57.18634574308189
 20
216.7264783529365
 30
0.0
  0
VERTEX
  5
160
330
14F
100
AcDbEntity
  8
GRAU_10_
 62
     7
100
AcDbVertex
100
AcDb2dVertex
 10
57.18634574308189
 20
215.6853704972939
 30
0.0
  0
VERTEX
  5
161
330
14F
100
AcDbEntity
  8
GRAU_10_
 62
     7
100
AcDbVertex
100
AcDb2dVertex
 10
57.18634574308189
 20
214.8003254671333
 30
0.0
  0
VERTEX
  5
162
330
14F
100
AcDbEntity
  8
GRAU_10_
 62
     7
100
AcDbVertex
100
AcDb2dVertex
 10
57.18634574308189
 20
214.0906357971718
 30
0.0
  0
VERTEX
  5
163
330
14F
100
AcDbEntity
  8
GRAU_10_
 62
     7
100
AcDbVertex
100
AcDb2dVertex
 10
57.18634574308189
 20
213.5719766718674
 30
0.0
  0
VERTEX
  5
164
330
14F
100
AcDbEntity
  8
GRAU_10_
 62
     7
100
AcDbVertex
100
AcDb2dVertex
 10
57.18634574308189
 20
213.2558891610958
 30
0.0
  0
VERTEX
  5
165
330
14F
100
AcDbEntity
  8
GRAU_10_
 62
     7
100
AcDbVertex
100
AcDb2dVertex
 10
57.18634574308189
 20
213.1497802201501
 30
0.0
  0
SEQEND
  5
166
330
14F
100
AcDbEntity
  8
GRAU_10_
  0
POLYLINE
  5
167
330
1F
100
AcDbEntity
  8
GRAU_10_
 62
     7
100
AcDb2dPolyline
 66
     1
 10
0.0
 20
0.0
 30
0.0
  0
VERTEX
  5
168
330
167
100
AcDbEntity
  8
GRAU_10_
 62
     7
100
AcDbVertex
100
AcDb2dVertex
 10
54.60648598895255
 20
232.6495374309869
 30
0.0
  0
VERTEX
  5
169
330
167
100
AcDbEntity
  8
GRAU_10_
 62
     7
100
AcDbVertex
100
AcDb2dVertex
 10
54.60648598895255
 20
232.5479071141721
 30
0.0
  0
VERTEX
  5
16A
330
167
100
AcDbEntity
  8
GRAU_10_
 62
     7
100
AcDbVertex
100
AcDb2dVertex
 10
54.60648598895255
 20
232.2449109662443
 30
0.0
  0
VERTEX
  5
16B
330
167
100
AcDbEntity
  8
GRAU_10_
 62
     7
100
AcDbVertex
100
AcDb2dVertex
 10
54.60648598895255
 20
231.7457166304316
 30
0.0
  0
VERTEX
  5
16C
330
167
100
AcDbEntity
  8
GRAU_10_
 62
     7
100
AcDbVertex
100
AcDb2dVertex
 10
54.60648598895255
 20
231.0620374313838
 30
0.0
  0
VERTEX
  5
16D
330
167
100
AcDbEntity
  8
GRAU_10_
 62
     7
100
AcDbVertex
100
AcDb2dVertex
 10
54.60648598895255
 20
230.2067924771705
 30
0.0
  0
VERTEX
  5
16E
330
167
100
AcDbEntity
  8
GRAU_10_
 62
     7
100
AcDbVertex
100
AcDb2dVertex
 10
54.60648598895255
 20
229.1985852834122
 30
0.0
  0
VERTEX
  5
16F
330
167
100
AcDbEntity
  8
GRAU_10_
 62
     7
100
AcDbVertex
100
AcDb2dVertex
 10
54.60648598895255
 20
228.0560193657291
 30
0.0
  0
VERTEX
  5
170
330
167
100
AcDbEntity
  8
GRAU_10_
 62
     7
100
AcDbVertex
100
AcDb2dVertex
 10
54.60648598895255
 20
226.8040716663893
 30
0.0
  0
VERTEX
  5
171
330
167
100
AcDbEntity
  8
GRAU_10_
 62
     7
100
AcDbVertex
100
AcDb2dVertex
 10
54.60648598895255
 20
225.4673746181123
 30
0.0
  0
VERTEX
  5
172
330
167
100
AcDbEntity
  8
GRAU_10_
 62
     7
100
AcDbVertex
100
AcDb2dVertex
 10
54.60648598895255
 20
224.0727999656832
 30
0.0
  0
VERTEX
  5
173
330
167
100
AcDbEntity
  8
GRAU_10_
 62
     7
100
AcDbVertex
100
AcDb2dVertex
 10
54.60648598895255
 20
222.6496310207265
 30
0.0
  0
VERTEX
  5
174
330
167
100
AcDbEntity
  8
GRAU_10_
 62
     7
100
AcDbVertex
100
AcDb2dVertex
 10
54.60648598895255
 20
221.2261175662213
 30
0.0
  0
VERTEX
  5
175
330
167
100
AcDbEntity
  8
GRAU_10_
 62
     7
100
AcDbVertex
100
AcDb2dVertex
 10
54.60648598895255
 20
219.8320596781149
 30
0.0
  0
VERTEX
  5
176
330
167
100
AcDbEntity
  8
GRAU_10_
 62
     7
100
AcDbVertex
100
AcDb2dVertex
 10
54.60648598895255
 20
218.495362629838
 30
0.0
  0
VERTEX
  5
177
330
167
100
AcDbEntity
  8
GRAU_10_
 62
     7
100
AcDbVertex
100
AcDb2dVertex
 10
54.60648598895255
 20
217.2432426757239
 30
0.0
  0
VERTEX
  5
178
330
167
100
AcDbEntity
  8
GRAU_10_
 62
     7
100
AcDbVertex
100
AcDb2dVertex
 10
54.60648598895255
 20
216.1010212675893
 30
0.0
  0
VERTEX
  5
179
330
167
100
AcDbEntity
  8
GRAU_10_
 62
     7
100
AcDbVertex
100
AcDb2dVertex
 10
54.60648598895255
 20
215.0921250547339
 30
0.0
  0
VERTEX
  5
17A
330
167
100
AcDbEntity
  8
GRAU_10_
 62
     7
100
AcDbVertex
100
AcDb2dVertex
 10
54.60648598895255
 20
214.2370523552949
 30
0.0
  0
VERTEX
  5
17B
330
167
100
AcDbEntity
  8
GRAU_10_
 62
     7
100
AcDbVertex
100
AcDb2dVertex
 10
54.60648598895255
 20
213.5532009014728
 30
0.0
  0
VERTEX
  5
17C
330
167
100
AcDbEntity
  8
GRAU_10_
 62
     7
100
AcDbVertex
100
AcDb2dVertex
 10
54.60648598895255
 20
213.0543510752086
 30
0.0
  0
VERTEX
  5
17D
330
167
100
AcDbEntity
  8
GRAU_10_
 62
     7
100
AcDbVertex
100
AcDb2dVertex
 10
54.60648598895255
 20
212.7513549272809
 30
0.0
  0
VERTEX
  5
17E
330
167
100
AcDbEntity
  8
GRAU_10_
 62
     7
100
AcDbVertex
100
AcDb2dVertex
 10
54.60648598895255
 20
212.6495523556918
 30
0.0
  0
SEQEND
  5
17F
330
167
100
AcDbEntity
  8
GRAU_10_
  0
POLYLINE
  5
180
330
1F
100
AcDbEntity
  8
GRAU_10_
 62
     7
100
AcDb2dPolyline
 66
     1
 10
0.0
 20
0.0
 30
0.0
  0
VERTEX
  5
181
330
180
100
AcDbEntity
  8
GRAU_10_
 62
     7
100
AcDbVertex
100
AcDb2dVertex
 10
48.76618786758276
 20
232.6495374309869
 30
0.0
  0
VERTEX
  5
182
330
180
100
AcDbEntity
  8
GRAU_10_
 62
     7
100
AcDbVertex
100
AcDb2dVertex
 10
48.76618786758276
 20
232.5479071141721
 30
0.0
  0
VERTEX
  5
183
330
180
100
AcDbEntity
  8
GRAU_10_
 62
     7
100
AcDbVertex
100
AcDb2dVertex
 10
48.76618786758276
 20
232.2449109662443
 30
0.0
  0
VERTEX
  5
184
330
180
100
AcDbEntity
  8
GRAU_10_
 62
     7
100
AcDbVertex
100
AcDb2dVertex
 10
48.76618786758276
 20
231.7457166304316
 30
0.0
  0
VERTEX
  5
185
330
180
100
AcDbEntity
  8
GRAU_10_
 62
     7
100
AcDbVertex
100
AcDb2dVertex
 10
48.76618786758276
 20
231.0620374313838
 30
0.0
  0
VERTEX
  5
186
330
180
100
AcDbEntity
  8
GRAU_10_
 62
     7
100
AcDbVertex
100
AcDb2dVertex
 10
48.76618786758276
 20
230.2067924771705
 30
0.0
  0
VERTEX
  5
187
330
180
100
AcDbEntity
  8
GRAU_10_
 62
     7
100
AcDbVertex
100
AcDb2dVertex
 10
48.76618786758276
 20
229.1985852834122
 30
0.0
  0
VERTEX
  5
188
330
180
100
AcDbEntity
  8
GRAU_10_
 62
     7
100
AcDbVertex
100
AcDb2dVertex
 10
48.76618786758276
 20
228.0560193657291
 30
0.0
  0
VERTEX
  5
189
330
180
100
AcDbEntity
  8
GRAU_10_
 62
     7
100
AcDbVertex
100
AcDb2dVertex
 10
48.76618786758276
 20
226.8040716663893
 30
0.0
  0
VERTEX
  5
18A
330
180
100
AcDbEntity
  8
GRAU_10_
 62
     7
100
AcDbVertex
100
AcDb2dVertex
 10
48.76618786758276
 20
225.4673746181123
 30
0.0
  0
VERTEX
  5
18B
330
180
100
AcDbEntity
  8
GRAU_10_
 62
     7
100
AcDbVertex
100
AcDb2dVertex
 10
48.76618786758276
 20
224.0727999656832
 30
0.0
  0
VERTEX
  5
18C
330
180
100
AcDbEntity
  8
GRAU_10_
 62
     7
100
AcDbVertex
100
AcDb2dVertex
 10
48.76618786758276
 20
222.6496310207265
 30
0.0
  0
VERTEX
  5
18D
330
180
100
AcDbEntity
  8
GRAU_10_
 62
     7
100
AcDbVertex
100
AcDb2dVertex
 10
48.76618786758276
 20
221.2261175662213
 30
0.0
  0
VERTEX
  5
18E
330
180
100
AcDbEntity
  8
GRAU_10_
 62
     7
100
AcDbVertex
100
AcDb2dVertex
 10
48.76618786758276
 20
219.8320596781149
 30
0.0
  0
VERTEX
  5
18F
330
180
100
AcDbEntity
  8
GRAU_10_
 62
     7
100
AcDbVertex
100
AcDb2dVertex
 10
48.76618786758276
 20
218.495362629838
 30
0.0
  0
VERTEX
  5
190
330
180
100
AcDbEntity
  8
GRAU_10_
 62
     7
100
AcDbVertex
100
AcDb2dVertex
 10
48.76618786758276
 20
217.2432426757239
 30
0.0
  0
VERTEX
  5
191
330
180
100
AcDbEntity
  8
GRAU_10_
 62
     7
100
AcDbVertex
100
AcDb2dVertex
 10
48.76618786758276
 20
216.1010212675893
 30
0.0
  0
VERTEX
  5
192
330
180
100
AcDbEntity
  8
GRAU_10_
 62
     7
100
AcDbVertex
100
AcDb2dVertex
 10
48.76618786758276
 20
215.0921250547339
 30
0.0
  0
VERTEX
  5
193
330
180
100
AcDbEntity
  8
GRAU_10_
 62
     7
100
AcDbVertex
100
AcDb2dVertex
 10
48.76618786758276
 20
214.2370523552949
 30
0.0
  0
VERTEX
  5
194
330
180
100
AcDbEntity
  8
GRAU_10_
 62
     7
100
AcDbVertex
100
AcDb2dVertex
 10
48.76618786758276
 20
213.5532009014728
 30
0.0
  0
VERTEX
  5
195
330
180
100
AcDbEntity
  8
GRAU_10_
 62
     7
100
AcDbVertex
100
AcDb2dVertex
 10
48.76618786758276
 20
213.0543510752086
 30
0.0
  0
VERTEX
  5
196
330
180
100
AcDbEntity
  8
GRAU_10_
 62
     7
100
AcDbVertex
100
AcDb2dVertex
 10
48.76618786758276
 20
212.7513549272809
 30
0.0
  0
VERTEX
  5
197
330
180
100
AcDbEntity
  8
GRAU_10_
 62
     7
100
AcDbVertex
100
AcDb2dVertex
 10
48.76618786758276
 20
212.6495523556918
 30
0.0
  0
SEQEND
  5
198
330
180
100
AcDbEntity
  8
GRAU_10_
  0
SPLINE
  5
199
330
1F
100
AcDbEntity
  8
GRAU_10_
 62
     7
100
AcDbSpline
210
0.0
220
0.0
230
1.0
 70
     8
 71
     3
 72
     8
 73
     4
 74
     0
 42
0.0000000001
 43
0.0000000001
 40
0.0
 40
0.0
 40
0.0
 40
0.0
 40
1.0
 40
1.0
 40
1.0
 40
1.0
 10
46.78646374698394
 20
232.5499741714632
 30
0.0
 10
46.80506726260429
 20
232.5499741714632
 30
0.0
 10
46.82280950435333
 20
232.5525579930772
 30
0.0
 10
46.83865694358548
 20
232.5563475981109
 30
0.0
  0
SPLINE
  5
19A
330
1F
100
AcDbEntity
  8
GRAU_10_
 62
     7
100
AcDbSpline
210
0.0
220
0.0
230
1.0
 70
     8
 71
     3
 72
     8
 73
     4
 74
     0
 42
0.0000000001
 43
0.0000000001
 40
0.0
 40
0.0
 40
0.0
 40
0.0
 40
1.0
 40
1.0
 40
1.0
 40
1.0
 10
46.83865694358548
 20
212.7425699337935
 30
0.0
 10
46.82022568273939
 20
212.7475653222471
 30
0.0
 10
46.80300020531314
 20
212.7496323795383
 30
0.0
 10
46.78646374698394
 20
212.7496323795383
 30
0.0
  0
SPLINE
  5
19B
330
1F
100
AcDbEntity
  8
GRAU_10_
 62
     7
100
AcDbSpline
210
0.0
220
0.0
230
1.0
 70
     8
 71
     3
 72
     8
 73
     4
 74
     0
 42
0.0000000001
 43
0.0000000001
 40
0.0
 40
0.0
 40
0.0
 40
0.0
 40
1.0
 40
1.0
 40
1.0
 40
1.0
 10
53.25032415118395
 20
228.6993909475995
 30
0.0
 10
53.34006888857471
 20
228.6993909475995
 30
0.0
 10
53.41586098925021
 20
228.7583020803972
 30
0.0
 10
53.44152695061531
 20
228.8411566268175
 30
0.0
  0
SPLINE
  5
19C
330
1F
100
AcDbEntity
  8
GRAU_10_
 62
     7
100
AcDbSpline
210
0.0
220
0.0
230
1.0
 70
     8
 71
     3
 72
     8
 73
     4
 74
     0
 42
0.0000000001
 43
0.0000000001
 40
0.0
 40
0.0
 40
0.0
 40
0.0
 40
1.0
 40
1.0
 40
1.0
 40
1.0
 10
53.44152695061531
 20
216.458449924184
 30
0.0
 10
53.41586098925021
 20
216.5437160374439
 30
0.0
 10
53.33714055741225
 20
216.5991820747565
 30
0.0
 10
53.25032415118395
 20
216.599526584305
 30
0.0
  0
SPLINE
  5
19D
330
1F
100
AcDbEntity
  8
GRAU_10_
 62
     7
100
AcDbSpline
210
0.0
220
0.0
230
1.0
 70
     8
 71
     3
 72
     8
 73
     4
 74
     0
 42
0.0000000001
 43
0.0000000001
 40
0.0
 40
0.0
 40
0.0
 40
0.0
 40
1.0
 40
1.0
 40
1.0
 40
1.0
 10
49.93045788682294
 20
228.8411566268175
 30
0.0
 10
49.9568128672851
 20
228.755546004009
 30
0.0
 10
50.03518878957454
 20
228.7005967310193
 30
0.0
 10
50.12166068625431
 20
228.6993909475995
 30
0.0
  0
SPLINE
  5
19E
330
1F
100
AcDbEntity
  8
GRAU_10_
 62
     7
100
AcDbSpline
210
0.0
220
0.0
230
1.0
 70
     8
 71
     3
 72
     8
 73
     4
 74
     0
 42
0.0000000001
 43
0.0000000001
 40
0.0
 40
0.0
 40
0.0
 40
0.0
 40
1.0
 40
1.0
 40
1.0
 40
1.0
 10
50.12166068625431
 20
216.599526584305
 30
0.0
 10
50.03243271318634
 20
216.599526584305
 30
0.0
 10
49.95646835773658
 20
216.5406154515072
 30
0.0
 10
49.93045788682294
 20
216.458449924184
 30
0.0
  0
SPLINE
  5
19F
330
1F
100
AcDbEntity
  8
GRAU_10_
 62
     7
100
AcDbSpline
210
0.0
220
0.0
230
1.0
 70
    11
 71
     3
 72
    17
 73
    13
 74
     0
 42
0.0000000001
 43
0.0000000001
 40
0.0
 40
0.0
 40
0.0
 40
0.0
 40
1.0
 40
1.0
 40
1.0
 40
2.0
 40
2.0
 40
2.0
 40
3.0
 40
3.0
 40
3.0
 40
4.0
 40
4.0
 40
4.0
 40
4.0
 10
128.2762355907608
 20
222.6496310207265
 30
0.0
 10
128.2762355907608
 20
228.4482434867247
 30
0.0
 10
123.5747137820403
 20
233.1494207858967
 30
0.0
 10
117.7761013160421
 20
233.1494207858967
 30
0.0
 10
111.9771443404953
 20
233.1494207858967
 30
0.0
 10
107.2756225317748
 20
228.4482434867247
 30
0.0
 10
107.2756225317748
 20
222.6496310207265
 30
0.0
 10
107.2756225317748
 20
216.8506740451797
 30
0.0
 10
111.9771443404953
 20
212.1500135103306
 30
0.0
 10
117.7761013160421
 20
212.1500135103306
 30
0.0
 10
123.5747137820403
 20
212.1500135103306
 30
0.0
 10
128.2762355907608
 20
216.8506740451797
 30
0.0
 10
128.2762355907608
 20
222.6496310207265
 30
0.0
  0
SPLINE
  5
1A0
330
1F
100
AcDbEntity
  8
GRAU_10_
 62
     7
100
AcDbSpline
210
0.0
220
0.0
230
1.0
 70
    11
 71
     3
 72
    17
 73
    13
 74
     0
 42
0.0000000001
 43
0.0000000001
 40
0.0
 40
0.0
 40
0.0
 40
0.0
 40
1.0
 40
1.0
 40
1.0
 40
2.0
 40
2.0
 40
2.0
 40
3.0
 40
3.0
 40
3.0
 40
4.0
 40
4.0
 40
4.0
 40
4.0
 10
132.7758748040456
 20
222.6496310207265
 30
0.0
 10
132.7758748040456
 20
230.9338798793325
 30
0.0
 10
126.0596611555511
 20
237.64940450873
 30
0.0
 10
117.7761013160421
 20
237.64940450873
 30
0.0
 10
109.4918524574361
 20
237.64940450873
 30
0.0
 10
102.77598331849
 20
230.9338798793325
 30
0.0
 10
102.77598331849
 20
222.6496310207265
 30
0.0
 10
102.77598331849
 20
214.365726671669
 30
0.0
 10
109.4918524574361
 20
207.6495130231744
 30
0.0
 10
117.7761013160421
 20
207.6495130231744
 30
0.0
 10
126.0596611555511
 20
207.6495130231744
 30
0.0
 10
132.7758748040456
 20
214.365726671669
 30
0.0
 10
132.7758748040456
 20
222.6496310207265
 30
0.0
  0
POLYLINE
  5
1A1
330
1F
100
AcDbEntity
  8
GRAU_10_
 62
     7
100
AcDb2dPolyline
 66
     1
 10
0.0
 20
0.0
 30
0.0
  0
VERTEX
  5
1A2
330
1A1
100
AcDbEntity
  8
GRAU_10_
 62
     7
100
AcDbVertex
100
AcDb2dVertex
 10
45.68610024899515
 20
177.603801767665
 30
0.0
  0
VERTEX
  5
1A3
330
1A1
100
AcDbEntity
  8
GRAU_10_
 62
     7
100
AcDbVertex
100
AcDb2dVertex
 10
40.13622367703192
 20
177.603801767665
 30
0.0
  0
SEQEND
  5
1A4
330
1A1
100
AcDbEntity
  8
GRAU_10_
  0
POLYLINE
  5
1A5
330
1F
100
AcDbEntity
  8
GRAU_10_
 62
     7
100
AcDb2dPolyline
 66
     1
 10
0.0
 20
0.0
 30
0.0
  0
VERTEX
  5
1A6
330
1A5
100
AcDbEntity
  8
GRAU_10_
 62
     7
100
AcDbVertex
100
AcDb2dVertex
 10
40.13622367703192
 20
147.6039102821094
 30
0.0
  0
VERTEX
  5
1A7
330
1A5
100
AcDbEntity
  8
GRAU_10_
 62
     7
100
AcDbVertex
100
AcDb2dVertex
 10
45.68610024899515
 20
147.6039102821094
 30
0.0
  0
SEQEND
  5
1A8
330
1A5
100
AcDbEntity
  8
GRAU_10_
  0
POLYLINE
  5
1A9
330
1F
100
AcDbEntity
  8
GRAU_10_
 62
     7
100
AcDb2dPolyline
 66
     1
 10
0.0
 20
0.0
 30
0.0
  0
VERTEX
  5
1AA
330
1A9
100
AcDbEntity
  8
GRAU_10_
 62
     7
100
AcDbVertex
100
AcDb2dVertex
 10
38.63622910275414
 20
177.603801767665
 30
0.0
  0
VERTEX
  5
1AB
330
1A9
100
AcDbEntity
  8
GRAU_10_
 62
     7
100
AcDbVertex
100
AcDb2dVertex
 10
37.38600395115697
 20
177.603801767665
 30
0.0
  0
SEQEND
  5
1AC
330
1A9
100
AcDbEntity
  8
GRAU_10_
  0
POLYLINE
  5
1AD
330
1F
100
AcDbEntity
  8
GRAU_10_
 62
     7
100
AcDb2dPolyline
 66
     1
 10
0.0
 20
0.0
 30
0.0
  0
VERTEX
  5
1AE
330
1AD
100
AcDbEntity
  8
GRAU_10_
 62
     7
100
AcDbVertex
100
AcDb2dVertex
 10
37.38600395115697
 20
147.6039102821094
 30
0.0
  0
VERTEX
  5
1AF
330
1AD
100
AcDbEntity
  8
GRAU_10_
 62
     7
100
AcDbVertex
100
AcDb2dVertex
 10
38.63622910275414
 20
147.6039102821094
 30
0.0
  0
SEQEND
  5
1B0
330
1AD
100
AcDbEntity
  8
GRAU_10_
  0
POLYLINE
  5
1B1
330
1F
100
AcDbEntity
  8
GRAU_10_
 62
     7
100
AcDb2dPolyline
 66
     1
 10
0.0
 20
0.0
 30
0.0
  0
VERTEX
  5
1B2
330
1B1
100
AcDbEntity
  8
GRAU_10_
 62
     7
100
AcDbVertex
100
AcDb2dVertex
 10
37.38600395115697
 20
177.603801767665
 30
0.0
  0
VERTEX
  5
1B3
330
1B1
100
AcDbEntity
  8
GRAU_10_
 62
     7
100
AcDbVertex
100
AcDb2dVertex
 10
36.18624944841871
 20
173.1041625543802
 30
0.0
  0
SEQEND
  5
1B4
330
1B1
100
AcDbEntity
  8
GRAU_10_
  0
POLYLINE
  5
1B5
330
1F
100
AcDbEntity
  8
GRAU_10_
 62
     7
100
AcDb2dPolyline
 66
     1
 10
0.0
 20
0.0
 30
0.0
  0
VERTEX
  5
1B6
330
1B5
100
AcDbEntity
  8
GRAU_10_
 62
     7
100
AcDbVertex
100
AcDb2dVertex
 10
36.18624944841871
 20
152.1035494953942
 30
0.0
  0
VERTEX
  5
1B7
330
1B5
100
AcDbEntity
  8
GRAU_10_
 62
     7
100
AcDbVertex
100
AcDb2dVertex
 10
37.38600395115697
 20
147.6039102821094
 30
0.0
  0
SEQEND
  5
1B8
330
1B5
100
AcDbEntity
  8
GRAU_10_
  0
POLYLINE
  5
1B9
330
1F
100
AcDbEntity
  8
GRAU_10_
 62
     7
100
AcDb2dPolyline
 66
     1
 10
0.0
 20
0.0
 30
0.0
  0
VERTEX
  5
1BA
330
1B9
100
AcDbEntity
  8
GRAU_10_
 62
     7
100
AcDbVertex
100
AcDb2dVertex
 10
56.68611787862361
 20
172.6039346899219
 30
0.0
  0
VERTEX
  5
1BB
330
1B9
100
AcDbEntity
  8
GRAU_10_
 62
     7
100
AcDbVertex
100
AcDb2dVertex
 10
54.60648598895255
 20
172.6039346899219
 30
0.0
  0
SEQEND
  5
1BC
330
1B9
100
AcDbEntity
  8
GRAU_10_
  0
POLYLINE
  5
1BD
330
1F
100
AcDbEntity
  8
GRAU_10_
 62
     7
100
AcDb2dPolyline
 66
     1
 10
0.0
 20
0.0
 30
0.0
  0
VERTEX
  5
1BE
330
1BD
100
AcDbEntity
  8
GRAU_10_
 62
     7
100
AcDbVertex
100
AcDb2dVertex
 10
54.60648598895255
 20
152.6042941241753
 30
0.0
  0
VERTEX
  5
1BF
330
1BD
100
AcDbEntity
  8
GRAU_10_
 62
     7
100
AcDbVertex
100
AcDb2dVertex
 10
56.68611787862361
 20
152.6042941241753
 30
0.0
  0
SEQEND
  5
1C0
330
1BD
100
AcDbEntity
  8
GRAU_10_
  0
POLYLINE
  5
1C1
330
1F
100
AcDbEntity
  8
GRAU_10_
 62
     7
100
AcDb2dPolyline
 66
     1
 10
0.0
 20
0.0
 30
0.0
  0
VERTEX
  5
1C2
330
1C1
100
AcDbEntity
  8
GRAU_10_
 62
     7
100
AcDbVertex
100
AcDb2dVertex
 10
54.60648598895255
 20
172.6039346899219
 30
0.0
  0
VERTEX
  5
1C3
330
1C1
100
AcDbEntity
  8
GRAU_10_
 62
     7
100
AcDbVertex
100
AcDb2dVertex
 10
53.44152695061531
 20
168.795209376204
 30
0.0
  0
SEQEND
  5
1C4
330
1C1
100
AcDbEntity
  8
GRAU_10_
  0
POLYLINE
  5
1C5
330
1F
100
AcDbEntity
  8
GRAU_10_
 62
     7
100
AcDb2dPolyline
 66
     1
 10
0.0
 20
0.0
 30
0.0
  0
VERTEX
  5
1C6
330
1C5
100
AcDbEntity
  8
GRAU_10_
 62
     7
100
AcDbVertex
100
AcDb2dVertex
 10
53.44152695061531
 20
156.4125026735705
 30
0.0
  0
VERTEX
  5
1C7
330
1C5
100
AcDbEntity
  8
GRAU_10_
 62
     7
100
AcDbVertex
100
AcDb2dVertex
 10
54.60648598895255
 20
152.6042941241753
 30
0.0
  0
SEQEND
  5
1C8
330
1C5
100
AcDbEntity
  8
GRAU_10_
  0
POLYLINE
  5
1C9
330
1F
100
AcDbEntity
  8
GRAU_10_
 62
     7
100
AcDb2dPolyline
 66
     1
 10
0.0
 20
0.0
 30
0.0
  0
VERTEX
  5
1CA
330
1C9
100
AcDbEntity
  8
GRAU_10_
 62
     7
100
AcDbVertex
100
AcDb2dVertex
 10
48.76618786758276
 20
152.6042941241753
 30
0.0
  0
VERTEX
  5
1CB
330
1C9
100
AcDbEntity
  8
GRAU_10_
 62
     7
100
AcDbVertex
100
AcDb2dVertex
 10
49.93045788682294
 20
156.4125026735705
 30
0.0
  0
SEQEND
  5
1CC
330
1C9
100
AcDbEntity
  8
GRAU_10_
  0
POLYLINE
  5
1CD
330
1F
100
AcDbEntity
  8
GRAU_10_
 62
     7
100
AcDb2dPolyline
 66
     1
 10
0.0
 20
0.0
 30
0.0
  0
VERTEX
  5
1CE
330
1CD
100
AcDbEntity
  8
GRAU_10_
 62
     7
100
AcDbVertex
100
AcDb2dVertex
 10
49.93045788682294
 20
168.795209376204
 30
0.0
  0
VERTEX
  5
1CF
330
1CD
100
AcDbEntity
  8
GRAU_10_
 62
     7
100
AcDbVertex
100
AcDb2dVertex
 10
48.76618786758276
 20
172.6039346899219
 30
0.0
  0
VERTEX
  5
1D0
330
1CD
100
AcDbEntity
  8
GRAU_10_
 62
     7
100
AcDbVertex
100
AcDb2dVertex
 10
47.18609482327292
 20
172.6039346899219
 30
0.0
  0
SEQEND
  5
1D1
330
1CD
100
AcDbEntity
  8
GRAU_10_
  0
POLYLINE
  5
1D2
330
1F
100
AcDbEntity
  8
GRAU_10_
 62
     7
100
AcDb2dPolyline
 66
     1
 10
0.0
 20
0.0
 30
0.0
  0
VERTEX
  5
1D3
330
1D2
100
AcDbEntity
  8
GRAU_10_
 62
     7
100
AcDbVertex
100
AcDb2dVertex
 10
47.18609482327292
 20
152.6042941241753
 30
0.0
  0
VERTEX
  5
1D4
330
1D2
100
AcDbEntity
  8
GRAU_10_
 62
     7
100
AcDbVertex
100
AcDb2dVertex
 10
48.76618786758276
 20
152.6042941241753
 30
0.0
  0
SEQEND
  5
1D5
330
1D2
100
AcDbEntity
  8
GRAU_10_
  0
POLYLINE
  5
1D6
330
1F
100
AcDbEntity
  8
GRAU_10_
 62
     7
100
AcDb2dPolyline
 66
     1
 10
0.0
 20
0.0
 30
0.0
  0
VERTEX
  5
1D7
330
1D6
100
AcDbEntity
  8
GRAU_10_
 62
     7
100
AcDbVertex
100
AcDb2dVertex
 10
47.18609482327292
 20
172.6039346899219
 30
0.0
  0
VERTEX
  5
1D8
330
1D6
100
AcDbEntity
  8
GRAU_10_
 62
     7
100
AcDbVertex
100
AcDb2dVertex
 10
46.83865694358548
 20
172.5107448570459
 30
0.0
  0
SEQEND
  5
1D9
330
1D6
100
AcDbEntity
  8
GRAU_10_
  0
POLYLINE
  5
1DA
330
1F
100
AcDbEntity
  8
GRAU_10_
 62
     7
100
AcDb2dPolyline
 66
     1
 10
0.0
 20
0.0
 30
0.0
  0
VERTEX
  5
1DB
330
1DA
100
AcDbEntity
  8
GRAU_10_
 62
     7
100
AcDbVertex
100
AcDb2dVertex
 10
46.83865694358548
 20
152.6973117022771
 30
0.0
  0
VERTEX
  5
1DC
330
1DA
100
AcDbEntity
  8
GRAU_10_
 62
     7
100
AcDbVertex
100
AcDb2dVertex
 10
47.18609482327292
 20
152.6042941241753
 30
0.0
  0
SEQEND
  5
1DD
330
1DA
100
AcDbEntity
  8
GRAU_10_
  0
POLYLINE
  5
1DE
330
1F
100
AcDbEntity
  8
GRAU_10_
 62
     7
100
AcDb2dPolyline
 66
     1
 10
0.0
 20
0.0
 30
0.0
  0
VERTEX
  5
1DF
330
1DE
100
AcDbEntity
  8
GRAU_10_
 62
     7
100
AcDbVertex
100
AcDb2dVertex
 10
46.78646374698394
 20
172.5036824113012
 30
0.0
  0
VERTEX
  5
1E0
330
1DE
100
AcDbEntity
  8
GRAU_10_
 62
     7
100
AcDbVertex
100
AcDb2dVertex
 10
46.29105901620502
 20
172.5036824113012
 30
0.0
  0
SEQEND
  5
1E1
330
1DE
100
AcDbEntity
  8
GRAU_10_
  0
POLYLINE
  5
1E2
330
1F
100
AcDbEntity
  8
GRAU_10_
 62
     7
100
AcDb2dPolyline
 66
     1
 10
0.0
 20
0.0
 30
0.0
  0
VERTEX
  5
1E3
330
1E2
100
AcDbEntity
  8
GRAU_10_
 62
     7
100
AcDbVertex
100
AcDb2dVertex
 10
46.29105901620502
 20
152.7040296384733
 30
0.0
  0
VERTEX
  5
1E4
330
1E2
100
AcDbEntity
  8
GRAU_10_
 62
     7
100
AcDbVertex
100
AcDb2dVertex
 10
46.78646374698394
 20
152.7040296384733
 30
0.0
  0
SEQEND
  5
1E5
330
1E2
100
AcDbEntity
  8
GRAU_10_
  0
POLYLINE
  5
1E6
330
1F
100
AcDbEntity
  8
GRAU_10_
 62
     7
100
AcDb2dPolyline
 66
     1
 10
0.0
 20
0.0
 30
0.0
  0
VERTEX
  5
1E7
330
1E6
100
AcDbEntity
  8
GRAU_10_
 62
     7
100
AcDbVertex
100
AcDb2dVertex
 10
53.25032415118395
 20
168.6537882065345
 30
0.0
  0
VERTEX
  5
1E8
330
1E6
100
AcDbEntity
  8
GRAU_10_
 62
     7
100
AcDbVertex
100
AcDb2dVertex
 10
50.12166068625431
 20
168.6537882065345
 30
0.0
  0
SEQEND
  5
1E9
330
1E6
100
AcDbEntity
  8
GRAU_10_
  0
POLYLINE
  5
1EA
330
1F
100
AcDbEntity
  8
GRAU_10_
 62
     7
100
AcDb2dPolyline
 66
     1
 10
0.0
 20
0.0
 30
0.0
  0
VERTEX
  5
1EB
330
1EA
100
AcDbEntity
  8
GRAU_10_
 62
     7
100
AcDbVertex
100
AcDb2dVertex
 10
50.12166068625431
 20
156.5542683527885
 30
0.0
  0
VERTEX
  5
1EC
330
1EA
100
AcDbEntity
  8
GRAU_10_
 62
     7
100
AcDbVertex
100
AcDb2dVertex
 10
53.25032415118395
 20
156.5542683527885
 30
0.0
  0
SEQEND
  5
1ED
330
1EA
100
AcDbEntity
  8
GRAU_10_
  0
POLYLINE
  5
1EE
330
1F
100
AcDbEntity
  8
GRAU_10_
 62
     7
100
AcDb2dPolyline
 66
     1
 10
0.0
 20
0.0
 30
0.0
  0
VERTEX
  5
1EF
330
1EE
100
AcDbEntity
  8
GRAU_10_
 62
     7
100
AcDbVertex
100
AcDb2dVertex
 10
40.13622367703192
 20
177.603801767665
 30
0.0
  0
VERTEX
  5
1F0
330
1EE
100
AcDbEntity
  8
GRAU_10_
 62
     7
100
AcDbVertex
100
AcDb2dVertex
 10
40.13622367703192
 20
177.4944199860084
 30
0.0
  0
VERTEX
  5
1F1
330
1EE
100
AcDbEntity
  8
GRAU_10_
 62
     7
100
AcDbVertex
100
AcDb2dVertex
 10
40.13622367703192
 20
177.1678249340067
 30
0.0
  0
VERTEX
  5
1F2
330
1EE
100
AcDbEntity
  8
GRAU_10_
 62
     7
100
AcDbVertex
100
AcDb2dVertex
 10
40.13622367703192
 20
176.6293565096621
 30
0.0
  0
VERTEX
  5
1F3
330
1EE
100
AcDbEntity
  8
GRAU_10_
 62
     7
100
AcDbVertex
100
AcDb2dVertex
 10
40.13622367703192
 20
175.8857326491709
 30
0.0
  0
VERTEX
  5
1F4
330
1EE
100
AcDbEntity
  8
GRAU_10_
 62
     7
100
AcDbVertex
100
AcDb2dVertex
 10
40.13622367703192
 20
174.9488389319573
 30
0.0
  0
VERTEX
  5
1F5
330
1EE
100
AcDbEntity
  8
GRAU_10_
 62
     7
100
AcDbVertex
100
AcDb2dVertex
 10
40.13622367703192
 20
173.8319389756392
 30
0.0
  0
VERTEX
  5
1F6
330
1EE
100
AcDbEntity
  8
GRAU_10_
 62
     7
100
AcDbVertex
100
AcDb2dVertex
 10
40.13622367703192
 20
172.5505357099006
 30
0.0
  0
VERTEX
  5
1F7
330
1EE
100
AcDbEntity
  8
GRAU_10_
 62
     7
100
AcDbVertex
100
AcDb2dVertex
 10
40.13622367703192
 20
171.1251274528784
 30
0.0
  0
VERTEX
  5
1F8
330
1EE
100
AcDbEntity
  8
GRAU_10_
 62
     7
100
AcDbVertex
100
AcDb2dVertex
 10
40.13622367703192
 20
169.5746622297418
 30
0.0
  0
VERTEX
  5
1F9
330
1EE
100
AcDbEntity
  8
GRAU_10_
 62
     7
100
AcDbVertex
100
AcDb2dVertex
 10
40.13622367703192
 20
167.9229111993387
 30
0.0
  0
VERTEX
  5
1FA
330
1EE
100
AcDbEntity
  8
GRAU_10_
 62
     7
100
AcDbVertex
100
AcDb2dVertex
 10
40.13622367703192
 20
166.1934732657433
 30
0.0
  0
VERTEX
  5
1FB
330
1EE
100
AcDbEntity
  8
GRAU_10_
 62
     7
100
AcDbVertex
100
AcDb2dVertex
 10
40.13622367703192
 20
164.4120143903206
 30
0.0
  0
VERTEX
  5
1FC
330
1EE
100
AcDbEntity
  8
GRAU_10_
 62
     7
100
AcDbVertex
100
AcDb2dVertex
 10
40.13622367703192
 20
162.6040282796615
 30
0.0
  0
VERTEX
  5
1FD
330
1EE
100
AcDbEntity
  8
GRAU_10_
 62
     7
100
AcDbVertex
100
AcDb2dVertex
 10
40.13622367703192
 20
160.7960421690024
 30
0.0
  0
VERTEX
  5
1FE
330
1EE
100
AcDbEntity
  8
GRAU_10_
 62
     7
100
AcDbVertex
100
AcDb2dVertex
 10
40.13622367703192
 20
159.0142387840312
 30
0.0
  0
VERTEX
  5
1FF
330
1EE
100
AcDbEntity
  8
GRAU_10_
 62
     7
100
AcDbVertex
100
AcDb2dVertex
 10
40.13622367703192
 20
157.2844563408872
 30
0.0
  0
VERTEX
  5
200
330
1EE
100
AcDbEntity
  8
GRAU_10_
 62
     7
100
AcDbVertex
100
AcDb2dVertex
 10
40.13622367703192
 20
155.633222074807
 30
0.0
  0
VERTEX
  5
201
330
1EE
100
AcDbEntity
  8
GRAU_10_
 62
     7
100
AcDbVertex
100
AcDb2dVertex
 10
40.13622367703192
 20
154.0831013612188
 30
0.0
  0
VERTEX
  5
202
330
1EE
100
AcDbEntity
  8
GRAU_10_
 62
     7
100
AcDbVertex
100
AcDb2dVertex
 10
40.13622367703192
 20
152.6568318303254
 30
0.0
  0
VERTEX
  5
203
330
1EE
100
AcDbEntity
  8
GRAU_10_
 62
     7
100
AcDbVertex
100
AcDb2dVertex
 10
40.13622367703192
 20
151.3761175836838
 30
0.0
  0
VERTEX
  5
204
330
1EE
100
AcDbEntity
  8
GRAU_10_
 62
     7
100
AcDbVertex
100
AcDb2dVertex
 10
40.13622367703192
 20
150.2592176273658
 30
0.0
  0
VERTEX
  5
205
330
1EE
100
AcDbEntity
  8
GRAU_10_
 62
     7
100
AcDbVertex
100
AcDb2dVertex
 10
40.13622367703192
 20
149.3223239101521
 30
0.0
  0
VERTEX
  5
206
330
1EE
100
AcDbEntity
  8
GRAU_10_
 62
     7
100
AcDbVertex
100
AcDb2dVertex
 10
40.13622367703192
 20
148.5787000496609
 30
0.0
  0
VERTEX
  5
207
330
1EE
100
AcDbEntity
  8
GRAU_10_
 62
     7
100
AcDbVertex
100
AcDb2dVertex
 10
40.13622367703192
 20
148.0398871157678
 30
0.0
  0
VERTEX
  5
208
330
1EE
100
AcDbEntity
  8
GRAU_10_
 62
     7
100
AcDbVertex
100
AcDb2dVertex
 10
40.13622367703192
 20
147.7132920637661
 30
0.0
  0
VERTEX
  5
209
330
1EE
100
AcDbEntity
  8
GRAU_10_
 62
     7
100
AcDbVertex
100
AcDb2dVertex
 10
40.13622367703192
 20
147.6039102821094
 30
0.0
  0
SEQEND
  5
20A
330
1EE
100
AcDbEntity
  8
GRAU_10_
  0
SPLINE
  5
20B
330
1F
100
AcDbEntity
  8
GRAU_10_
 62
     7
100
AcDbSpline
210
0.0
220
0.0
230
1.0
 70
     8
 71
     3
 72
     8
 73
     4
 74
     0
 42
0.0000000001
 43
0.0000000001
 40
0.0
 40
0.0
 40
0.0
 40
0.0
 40
1.0
 40
1.0
 40
1.0
 40
1.0
 10
46.18598360390489
 20
177.1042629223038
 30
0.0
 10
46.18598360390489
 20
177.3798705611238
 30
0.0
 10
45.96205239736366
 20
177.603801767665
 30
0.0
 10
45.68610024899515
 20
177.603801767665
 30
0.0
  0
SPLINE
  5
20C
330
1F
100
AcDbEntity
  8
GRAU_10_
 62
     7
100
AcDbSpline
210
0.0
220
0.0
230
1.0
 70
     8
 71
     3
 72
     8
 73
     4
 74
     0
 42
0.0000000001
 43
0.0000000001
 40
0.0
 40
0.0
 40
0.0
 40
0.0
 40
1.0
 40
1.0
 40
1.0
 40
1.0
 10
45.68610024899515
 20
147.6039102821094
 30
0.0
 10
45.96205239736366
 20
147.6039102821094
 30
0.0
 10
46.18598360390489
 20
147.8280137434249
 30
0.0
 10
46.18598360390489
 20
148.1037936370192
 30
0.0
  0
POLYLINE
  5
20D
330
1F
100
AcDbEntity
  8
GRAU_10_
 62
     7
100
AcDb2dPolyline
 66
     1
 10
0.0
 20
0.0
 30
0.0
  0
VERTEX
  5
20E
330
20D
100
AcDbEntity
  8
GRAU_10_
 62
     7
100
AcDbVertex
100
AcDb2dVertex
 10
46.18598360390489
 20
177.1042629223038
 30
0.0
  0
VERTEX
  5
20F
330
20D
100
AcDbEntity
  8
GRAU_10_
 62
     7
100
AcDbVertex
100
AcDb2dVertex
 10
46.18598360390489
 20
176.9984984909066
 30
0.0
  0
VERTEX
  5
210
330
20D
100
AcDbEntity
  8
GRAU_10_
 62
     7
100
AcDbVertex
100
AcDb2dVertex
 10
46.18598360390489
 20
176.6827554896835
 30
0.0
  0
VERTEX
  5
211
330
20D
100
AcDbEntity
  8
GRAU_10_
 62
     7
100
AcDbVertex
100
AcDb2dVertex
 10
46.18598360390489
 20
176.162029307088
 30
0.0
  0
VERTEX
  5
212
330
20D
100
AcDbEntity
  8
GRAU_10_
 62
     7
100
AcDbVertex
100
AcDb2dVertex
 10
46.18598360390489
 20
175.4430378793163
 30
0.0
  0
VERTEX
  5
213
330
20D
100
AcDbEntity
  8
GRAU_10_
 62
     7
100
AcDbVertex
100
AcDb2dVertex
 10
46.18598360390489
 20
174.5374945310184
 30
0.0
  0
VERTEX
  5
214
330
20D
100
AcDbEntity
  8
GRAU_10_
 62
     7
100
AcDbVertex
100
AcDb2dVertex
 10
46.18598360390489
 20
173.4576293511668
 30
0.0
  0
VERTEX
  5
215
330
20D
100
AcDbEntity
  8
GRAU_10_
 62
     7
100
AcDbVertex
100
AcDb2dVertex
 10
46.18598360390489
 20
172.2189452694453
 30
0.0
  0
VERTEX
  5
216
330
20D
100
AcDbEntity
  8
GRAU_10_
 62
     7
100
AcDbVertex
100
AcDb2dVertex
 10
46.18598360390489
 20
170.8407348205711
 30
0.0
  0
VERTEX
  5
217
330
20D
100
AcDbEntity
  8
GRAU_10_
 62
     7
100
AcDbVertex
100
AcDb2dVertex
 10
46.18598360390489
 20
169.3424627940359
 30
0.0
  0
VERTEX
  5
218
330
20D
100
AcDbEntity
  8
GRAU_10_
 62
     7
100
AcDbVertex
100
AcDb2dVertex
 10
46.18598360390489
 20
167.7454887818484
 30
0.0
  0
VERTEX
  5
219
330
20D
100
AcDbEntity
  8
GRAU_10_
 62
     7
100
AcDbVertex
100
AcDb2dVertex
 10
46.18598360390489
 20
166.0739284524051
 30
0.0
  0
VERTEX
  5
21A
330
20D
100
AcDbEntity
  8
GRAU_10_
 62
     7
100
AcDbVertex
100
AcDb2dVertex
 10
46.18598360390489
 20
164.3517252193288
 30
0.0
  0
VERTEX
  5
21B
330
20D
100
AcDbEntity
  8
GRAU_10_
 62
     7
100
AcDbVertex
100
AcDb2dVertex
 10
46.18598360390489
 20
162.6040282796615
 30
0.0
  0
VERTEX
  5
21C
330
20D
100
AcDbEntity
  8
GRAU_10_
 62
     7
100
AcDbVertex
100
AcDb2dVertex
 10
46.18598360390489
 20
160.8559868304457
 30
0.0
  0
VERTEX
  5
21D
330
20D
100
AcDbEntity
  8
GRAU_10_
 62
     7
100
AcDbVertex
100
AcDb2dVertex
 10
46.18598360390489
 20
159.1337835973693
 30
0.0
  0
VERTEX
  5
21E
330
20D
100
AcDbEntity
  8
GRAU_10_
 62
     7
100
AcDbVertex
100
AcDb2dVertex
 10
46.18598360390489
 20
157.4622232679261
 30
0.0
  0
VERTEX
  5
21F
330
20D
100
AcDbEntity
  8
GRAU_10_
 62
     7
100
AcDbVertex
100
AcDb2dVertex
 10
46.18598360390489
 20
155.8655937652871
 30
0.0
  0
VERTEX
  5
220
330
20D
100
AcDbEntity
  8
GRAU_10_
 62
     7
100
AcDbVertex
100
AcDb2dVertex
 10
46.18598360390489
 20
154.3669772292034
 30
0.0
  0
VERTEX
  5
221
330
20D
100
AcDbEntity
  8
GRAU_10_
 62
     7
100
AcDbVertex
100
AcDb2dVertex
 10
46.18598360390489
 20
152.9884222707807
 30
0.0
  0
VERTEX
  5
222
330
20D
100
AcDbEntity
  8
GRAU_10_
 62
     7
100
AcDbVertex
100
AcDb2dVertex
 10
46.18598360390489
 20
151.7507717177047
 30
0.0
  0
VERTEX
  5
223
330
20D
100
AcDbEntity
  8
GRAU_10_
 62
     7
100
AcDbVertex
100
AcDb2dVertex
 10
46.18598360390489
 20
150.6705620283046
 30
0.0
  0
VERTEX
  5
224
330
20D
100
AcDbEntity
  8
GRAU_10_
 62
     7
100
AcDbVertex
100
AcDb2dVertex
 10
46.18598360390489
 20
149.7650186800067
 30
0.0
  0
VERTEX
  5
225
330
20D
100
AcDbEntity
  8
GRAU_10_
 62
     7
100
AcDbVertex
100
AcDb2dVertex
 10
46.18598360390489
 20
149.0463717617835
 30
0.0
  0
VERTEX
  5
226
330
20D
100
AcDbEntity
  8
GRAU_10_
 62
     7
100
AcDbVertex
100
AcDb2dVertex
 10
46.18598360390489
 20
148.524956560091
 30
0.0
  0
VERTEX
  5
227
330
20D
100
AcDbEntity
  8
GRAU_10_
 62
     7
100
AcDbVertex
100
AcDb2dVertex
 10
46.18598360390489
 20
148.2097303231906
 30
0.0
  0
VERTEX
  5
228
330
20D
100
AcDbEntity
  8
GRAU_10_
 62
     7
100
AcDbVertex
100
AcDb2dVertex
 10
46.18598360390489
 20
148.1037936370192
 30
0.0
  0
SEQEND
  5
229
330
20D
100
AcDbEntity
  8
GRAU_10_
  0
SPLINE
  5
22A
330
1F
100
AcDbEntity
  8
GRAU_10_
 62
     7
100
AcDbSpline
210
0.0
220
0.0
230
1.0
 70
     8
 71
     3
 72
    11
 73
     7
 74
     0
 42
0.0000000001
 43
0.0000000001
 40
0.0
 40
0.0
 40
0.0
 40
0.0
 40
1.0
 40
1.0
 40
1.0
 40
2.0
 40
2.0
 40
2.0
 40
2.0
 10
38.63622910275414
 20
177.603801767665
 30
0.0
 10
38.63622910275414
 20
177.1900457998865
 30
0.0
 10
38.972125912566
 20
176.8541489900747
 30
0.0
 10
39.38622638989303
 20
176.8541489900747
 30
0.0
 10
39.80032686722006
 20
176.8541489900747
 30
0.0
 10
40.13622367703192
 20
177.1900457998865
 30
0.0
 10
40.13622367703192
 20
177.603801767665
 30
0.0
  0
SPLINE
  5
22B
330
1F
100
AcDbEntity
  8
GRAU_10_
 62
     7
100
AcDbSpline
210
0.0
220
0.0
230
1.0
 70
     8
 71
     3
 72
    11
 73
     7
 74
     0
 42
0.0000000001
 43
0.0000000001
 40
0.0
 40
0.0
 40
0.0
 40
0.0
 40
1.0
 40
1.0
 40
1.0
 40
2.0
 40
2.0
 40
2.0
 40
2.0
 10
40.13622367703192
 20
147.6039102821094
 30
0.0
 10
40.13622367703192
 20
148.0181830142107
 30
0.0
 10
39.80032686722006
 20
148.3539075692483
 30
0.0
 10
39.38622638989303
 20
148.3539075692483
 30
0.0
 10
38.972125912566
 20
148.3539075692483
 30
0.0
 10
38.63622910275414
 20
148.0181830142107
 30
0.0
 10
38.63622910275414
 20
147.6039102821094
 30
0.0
  0
POLYLINE
  5
22C
330
1F
100
AcDbEntity
  8
GRAU_10_
 62
     7
100
AcDb2dPolyline
 66
     1
 10
0.0
 20
0.0
 30
0.0
  0
VERTEX
  5
22D
330
22C
100
AcDbEntity
  8
GRAU_10_
 62
     7
100
AcDbVertex
100
AcDb2dVertex
 10
38.63622910275414
 20
177.603801767665
 30
0.0
  0
VERTEX
  5
22E
330
22C
100
AcDbEntity
  8
GRAU_10_
 62
     7
100
AcDbVertex
100
AcDb2dVertex
 10
38.63622910275414
 20
177.4944199860084
 30
0.0
  0
VERTEX
  5
22F
330
22C
100
AcDbEntity
  8
GRAU_10_
 62
     7
100
AcDbVertex
100
AcDb2dVertex
 10
38.63622910275414
 20
177.1678249340067
 30
0.0
  0
VERTEX
  5
230
330
22C
100
AcDbEntity
  8
GRAU_10_
 62
     7
100
AcDbVertex
100
AcDb2dVertex
 10
38.63622910275414
 20
176.6293565096621
 30
0.0
  0
VERTEX
  5
231
330
22C
100
AcDbEntity
  8
GRAU_10_
 62
     7
100
AcDbVertex
100
AcDb2dVertex
 10
38.63622910275414
 20
175.8857326491709
 30
0.0
  0
VERTEX
  5
232
330
22C
100
AcDbEntity
  8
GRAU_10_
 62
     7
100
AcDbVertex
100
AcDb2dVertex
 10
38.63622910275414
 20
174.9488389319573
 30
0.0
  0
VERTEX
  5
233
330
22C
100
AcDbEntity
  8
GRAU_10_
 62
     7
100
AcDbVertex
100
AcDb2dVertex
 10
38.63622910275414
 20
173.8319389756392
 30
0.0
  0
VERTEX
  5
234
330
22C
100
AcDbEntity
  8
GRAU_10_
 62
     7
100
AcDbVertex
100
AcDb2dVertex
 10
38.63622910275414
 20
172.5505357099006
 30
0.0
  0
VERTEX
  5
235
330
22C
100
AcDbEntity
  8
GRAU_10_
 62
     7
100
AcDbVertex
100
AcDb2dVertex
 10
38.63622910275414
 20
171.1251274528784
 30
0.0
  0
VERTEX
  5
236
330
22C
100
AcDbEntity
  8
GRAU_10_
 62
     7
100
AcDbVertex
100
AcDb2dVertex
 10
38.63622910275414
 20
169.5746622297418
 30
0.0
  0
VERTEX
  5
237
330
22C
100
AcDbEntity
  8
GRAU_10_
 62
     7
100
AcDbVertex
100
AcDb2dVertex
 10
38.63622910275414
 20
167.9229111993387
 30
0.0
  0
VERTEX
  5
238
330
22C
100
AcDbEntity
  8
GRAU_10_
 62
     7
100
AcDbVertex
100
AcDb2dVertex
 10
38.63622910275414
 20
166.1934732657433
 30
0.0
  0
VERTEX
  5
239
330
22C
100
AcDbEntity
  8
GRAU_10_
 62
     7
100
AcDbVertex
100
AcDb2dVertex
 10
38.63622910275414
 20
164.4120143903206
 30
0.0
  0
VERTEX
  5
23A
330
22C
100
AcDbEntity
  8
GRAU_10_
 62
     7
100
AcDbVertex
100
AcDb2dVertex
 10
38.63622910275414
 20
162.6040282796615
 30
0.0
  0
VERTEX
  5
23B
330
22C
100
AcDbEntity
  8
GRAU_10_
 62
     7
100
AcDbVertex
100
AcDb2dVertex
 10
38.63622910275414
 20
160.7960421690024
 30
0.0
  0
VERTEX
  5
23C
330
22C
100
AcDbEntity
  8
GRAU_10_
 62
     7
100
AcDbVertex
100
AcDb2dVertex
 10
38.63622910275414
 20
159.0142387840312
 30
0.0
  0
VERTEX
  5
23D
330
22C
100
AcDbEntity
  8
GRAU_10_
 62
     7
100
AcDbVertex
100
AcDb2dVertex
 10
38.63622910275414
 20
157.2844563408872
 30
0.0
  0
VERTEX
  5
23E
330
22C
100
AcDbEntity
  8
GRAU_10_
 62
     7
100
AcDbVertex
100
AcDb2dVertex
 10
38.63622910275414
 20
155.633222074807
 30
0.0
  0
VERTEX
  5
23F
330
22C
100
AcDbEntity
  8
GRAU_10_
 62
     7
100
AcDbVertex
100
AcDb2dVertex
 10
38.63622910275414
 20
154.0831013612188
 30
0.0
  0
VERTEX
  5
240
330
22C
100
AcDbEntity
  8
GRAU_10_
 62
     7
100
AcDbVertex
100
AcDb2dVertex
 10
38.63622910275414
 20
152.6568318303254
 30
0.0
  0
VERTEX
  5
241
330
22C
100
AcDbEntity
  8
GRAU_10_
 62
     7
100
AcDbVertex
100
AcDb2dVertex
 10
38.63622910275414
 20
151.3761175836838
 30
0.0
  0
VERTEX
  5
242
330
22C
100
AcDbEntity
  8
GRAU_10_
 62
     7
100
AcDbVertex
100
AcDb2dVertex
 10
38.63622910275414
 20
150.2592176273658
 30
0.0
  0
VERTEX
  5
243
330
22C
100
AcDbEntity
  8
GRAU_10_
 62
     7
100
AcDbVertex
100
AcDb2dVertex
 10
38.63622910275414
 20
149.3223239101521
 30
0.0
  0
VERTEX
  5
244
330
22C
100
AcDbEntity
  8
GRAU_10_
 62
     7
100
AcDbVertex
100
AcDb2dVertex
 10
38.63622910275414
 20
148.5787000496609
 30
0.0
  0
VERTEX
  5
245
330
22C
100
AcDbEntity
  8
GRAU_10_
 62
     7
100
AcDbVertex
100
AcDb2dVertex
 10
38.63622910275414
 20
148.0398871157678
 30
0.0
  0
VERTEX
  5
246
330
22C
100
AcDbEntity
  8
GRAU_10_
 62
     7
100
AcDbVertex
100
AcDb2dVertex
 10
38.63622910275414
 20
147.7132920637661
 30
0.0
  0
VERTEX
  5
247
330
22C
100
AcDbEntity
  8
GRAU_10_
 62
     7
100
AcDbVertex
100
AcDb2dVertex
 10
38.63622910275414
 20
147.6039102821094
 30
0.0
  0
SEQEND
  5
248
330
22C
100
AcDbEntity
  8
GRAU_10_
  0
POLYLINE
  5
249
330
1F
100
AcDbEntity
  8
GRAU_10_
 62
     7
100
AcDb2dPolyline
 66
     1
 10
0.0
 20
0.0
 30
0.0
  0
VERTEX
  5
24A
330
249
100
AcDbEntity
  8
GRAU_10_
 62
     7
100
AcDbVertex
100
AcDb2dVertex
 10
37.38600395115697
 20
177.603801767665
 30
0.0
  0
VERTEX
  5
24B
330
249
100
AcDbEntity
  8
GRAU_10_
 62
     7
100
AcDbVertex
100
AcDb2dVertex
 10
37.38600395115697
 20
177.4944199860084
 30
0.0
  0
VERTEX
  5
24C
330
249
100
AcDbEntity
  8
GRAU_10_
 62
     7
100
AcDbVertex
100
AcDb2dVertex
 10
37.38600395115697
 20
177.1678249340067
 30
0.0
  0
VERTEX
  5
24D
330
249
100
AcDbEntity
  8
GRAU_10_
 62
     7
100
AcDbVertex
100
AcDb2dVertex
 10
37.38600395115697
 20
176.6293565096621
 30
0.0
  0
VERTEX
  5
24E
330
249
100
AcDbEntity
  8
GRAU_10_
 62
     7
100
AcDbVertex
100
AcDb2dVertex
 10
37.38600395115697
 20
175.8857326491709
 30
0.0
  0
VERTEX
  5
24F
330
249
100
AcDbEntity
  8
GRAU_10_
 62
     7
100
AcDbVertex
100
AcDb2dVertex
 10
37.38600395115697
 20
174.9488389319573
 30
0.0
  0
VERTEX
  5
250
330
249
100
AcDbEntity
  8
GRAU_10_
 62
     7
100
AcDbVertex
100
AcDb2dVertex
 10
37.38600395115697
 20
173.8319389756392
 30
0.0
  0
VERTEX
  5
251
330
249
100
AcDbEntity
  8
GRAU_10_
 62
     7
100
AcDbVertex
100
AcDb2dVertex
 10
37.38600395115697
 20
172.5505357099006
 30
0.0
  0
VERTEX
  5
252
330
249
100
AcDbEntity
  8
GRAU_10_
 62
     7
100
AcDbVertex
100
AcDb2dVertex
 10
37.38600395115697
 20
171.1251274528784
 30
0.0
  0
VERTEX
  5
253
330
249
100
AcDbEntity
  8
GRAU_10_
 62
     7
100
AcDbVertex
100
AcDb2dVertex
 10
37.38600395115697
 20
169.5746622297418
 30
0.0
  0
VERTEX
  5
254
330
249
100
AcDbEntity
  8
GRAU_10_
 62
     7
100
AcDbVertex
100
AcDb2dVertex
 10
37.38600395115697
 20
167.9229111993387
 30
0.0
  0
VERTEX
  5
255
330
249
100
AcDbEntity
  8
GRAU_10_
 62
     7
100
AcDbVertex
100
AcDb2dVertex
 10
37.38600395115697
 20
166.1934732657433
 30
0.0
  0
VERTEX
  5
256
330
249
100
AcDbEntity
  8
GRAU_10_
 62
     7
100
AcDbVertex
100
AcDb2dVertex
 10
37.38600395115697
 20
164.4120143903206
 30
0.0
  0
VERTEX
  5
257
330
249
100
AcDbEntity
  8
GRAU_10_
 62
     7
100
AcDbVertex
100
AcDb2dVertex
 10
37.38600395115697
 20
162.6040282796615
 30
0.0
  0
VERTEX
  5
258
330
249
100
AcDbEntity
  8
GRAU_10_
 62
     7
100
AcDbVertex
100
AcDb2dVertex
 10
37.38600395115697
 20
160.7960421690024
 30
0.0
  0
VERTEX
  5
259
330
249
100
AcDbEntity
  8
GRAU_10_
 62
     7
100
AcDbVertex
100
AcDb2dVertex
 10
37.38600395115697
 20
159.0142387840312
 30
0.0
  0
VERTEX
  5
25A
330
249
100
AcDbEntity
  8
GRAU_10_
 62
     7
100
AcDbVertex
100
AcDb2dVertex
 10
37.38600395115697
 20
157.2844563408872
 30
0.0
  0
VERTEX
  5
25B
330
249
100
AcDbEntity
  8
GRAU_10_
 62
     7
100
AcDbVertex
100
AcDb2dVertex
 10
37.38600395115697
 20
155.633222074807
 30
0.0
  0
VERTEX
  5
25C
330
249
100
AcDbEntity
  8
GRAU_10_
 62
     7
100
AcDbVertex
100
AcDb2dVertex
 10
37.38600395115697
 20
154.0831013612188
 30
0.0
  0
VERTEX
  5
25D
330
249
100
AcDbEntity
  8
GRAU_10_
 62
     7
100
AcDbVertex
100
AcDb2dVertex
 10
37.38600395115697
 20
152.6568318303254
 30
0.0
  0
VERTEX
  5
25E
330
249
100
AcDbEntity
  8
GRAU_10_
 62
     7
100
AcDbVertex
100
AcDb2dVertex
 10
37.38600395115697
 20
151.3761175836838
 30
0.0
  0
VERTEX
  5
25F
330
249
100
AcDbEntity
  8
GRAU_10_
 62
     7
100
AcDbVertex
100
AcDb2dVertex
 10
37.38600395115697
 20
150.2592176273658
 30
0.0
  0
VERTEX
  5
260
330
249
100
AcDbEntity
  8
GRAU_10_
 62
     7
100
AcDbVertex
100
AcDb2dVertex
 10
37.38600395115697
 20
149.3223239101521
 30
0.0
  0
VERTEX
  5
261
330
249
100
AcDbEntity
  8
GRAU_10_
 62
     7
100
AcDbVertex
100
AcDb2dVertex
 10
37.38600395115697
 20
148.5787000496609
 30
0.0
  0
VERTEX
  5
262
330
249
100
AcDbEntity
  8
GRAU_10_
 62
     7
100
AcDbVertex
100
AcDb2dVertex
 10
37.38600395115697
 20
148.0398871157678
 30
0.0
  0
VERTEX
  5
263
330
249
100
AcDbEntity
  8
GRAU_10_
 62
     7
100
AcDbVertex
100
AcDb2dVertex
 10
37.38600395115697
 20
147.7132920637661
 30
0.0
  0
VERTEX
  5
264
330
249
100
AcDbEntity
  8
GRAU_10_
 62
     7
100
AcDbVertex
100
AcDb2dVertex
 10
37.38600395115697
 20
147.6039102821094
 30
0.0
  0
SEQEND
  5
265
330
249
100
AcDbEntity
  8
GRAU_10_
  0
POLYLINE
  5
266
330
1F
100
AcDbEntity
  8
GRAU_10_
 62
     7
100
AcDb2dPolyline
 66
     1
 10
0.0
 20
0.0
 30
0.0
  0
VERTEX
  5
267
330
266
100
AcDbEntity
  8
GRAU_10_
 62
     7
100
AcDbVertex
100
AcDb2dVertex
 10
36.18624944841871
 20
173.1041625543802
 30
0.0
  0
VERTEX
  5
268
330
266
100
AcDbEntity
  8
GRAU_10_
 62
     7
100
AcDbVertex
100
AcDb2dVertex
 10
36.18624944841871
 20
172.9971923395632
 30
0.0
  0
VERTEX
  5
269
330
266
100
AcDbEntity
  8
GRAU_10_
 62
     7
100
AcDbVertex
100
AcDb2dVertex
 10
36.18624944841871
 20
172.6783487524033
 30
0.0
  0
VERTEX
  5
26A
330
266
100
AcDbEntity
  8
GRAU_10_
 62
     7
100
AcDbVertex
100
AcDb2dVertex
 10
36.18624944841871
 20
172.1552110029681
 30
0.0
  0
VERTEX
  5
26B
330
266
100
AcDbEntity
  8
GRAU_10_
 62
     7
100
AcDbVertex
100
AcDb2dVertex
 10
36.18624944841871
 20
171.4369085942936
 30
0.0
  0
VERTEX
  5
26C
330
266
100
AcDbEntity
  8
GRAU_10_
 62
     7
100
AcDbVertex
100
AcDb2dVertex
 10
36.18624944841871
 20
170.5391167108374
 30
0.0
  0
VERTEX
  5
26D
330
266
100
AcDbEntity
  8
GRAU_10_
 62
     7
100
AcDbVertex
100
AcDb2dVertex
 10
36.18624944841871
 20
169.4797498491231
 30
0.0
  0
VERTEX
  5
26E
330
266
100
AcDbEntity
  8
GRAU_10_
 62
     7
100
AcDbVertex
100
AcDb2dVertex
 10
36.18624944841871
 20
168.2805121107077
 30
0.0
  0
VERTEX
  5
26F
330
266
100
AcDbEntity
  8
GRAU_10_
 62
     7
100
AcDbVertex
100
AcDb2dVertex
 10
36.18624944841871
 20
166.9655191639878
 30
0.0
  0
VERTEX
  5
270
330
266
100
AcDbEntity
  8
GRAU_10_
 62
     7
100
AcDbVertex
100
AcDb2dVertex
 10
36.18624944841871
 20
165.5621595180713
 30
0.0
  0
VERTEX
  5
271
330
266
100
AcDbEntity
  8
GRAU_10_
 62
     7
100
AcDbVertex
100
AcDb2dVertex
 10
36.18624944841871
 20
164.0979939368401
 30
0.0
  0
VERTEX
  5
272
330
266
100
AcDbEntity
  8
GRAU_10_
 62
     7
100
AcDbVertex
100
AcDb2dVertex
 10
36.18624944841871
 20
162.6040282796615
 30
0.0
  0
VERTEX
  5
273
330
266
100
AcDbEntity
  8
GRAU_10_
 62
     7
100
AcDbVertex
100
AcDb2dVertex
 10
36.18624944841871
 20
161.1097181129344
 30
0.0
  0
VERTEX
  5
274
330
266
100
AcDbEntity
  8
GRAU_10_
 62
     7
100
AcDbVertex
100
AcDb2dVertex
 10
36.18624944841871
 20
159.646069296026
 30
0.0
  0
VERTEX
  5
275
330
266
100
AcDbEntity
  8
GRAU_10_
 62
     7
100
AcDbVertex
100
AcDb2dVertex
 10
36.18624944841871
 20
158.2420206310124
 30
0.0
  0
VERTEX
  5
276
330
266
100
AcDbEntity
  8
GRAU_10_
 62
     7
100
AcDbVertex
100
AcDb2dVertex
 10
36.18624944841871
 20
156.9271999390668
 30
0.0
  0
VERTEX
  5
277
330
266
100
AcDbEntity
  8
GRAU_10_
 62
     7
100
AcDbVertex
100
AcDb2dVertex
 10
36.18624944841871
 20
155.7281344554256
 30
0.0
  0
VERTEX
  5
278
330
266
100
AcDbEntity
  8
GRAU_10_
 62
     7
100
AcDbVertex
100
AcDb2dVertex
 10
36.18624944841871
 20
154.6682508293885
 30
0.0
  0
VERTEX
  5
279
330
266
100
AcDbEntity
  8
GRAU_10_
 62
     7
100
AcDbVertex
100
AcDb2dVertex
 10
36.18624944841871
 20
153.7708034554809
 30
0.0
  0
VERTEX
  5
27A
330
266
100
AcDbEntity
  8
GRAU_10_
 62
     7
100
AcDbVertex
100
AcDb2dVertex
 10
36.18624944841871
 20
153.0525010468063
 30
0.0
  0
VERTEX
  5
27B
330
266
100
AcDbEntity
  8
GRAU_10_
 62
     7
100
AcDbVertex
100
AcDb2dVertex
 10
36.18624944841871
 20
152.5293632973711
 30
0.0
  0
VERTEX
  5
27C
330
266
100
AcDbEntity
  8
GRAU_10_
 62
     7
100
AcDbVertex
100
AcDb2dVertex
 10
36.18624944841871
 20
152.2105197102113
 30
0.0
  0
VERTEX
  5
27D
330
266
100
AcDbEntity
  8
GRAU_10_
 62
     7
100
AcDbVertex
100
AcDb2dVertex
 10
36.18624944841871
 20
152.1035494953942
 30
0.0
  0
SEQEND
  5
27E
330
266
100
AcDbEntity
  8
GRAU_10_
  0
SPLINE
  5
27F
330
1F
100
AcDbEntity
  8
GRAU_10_
 62
     7
100
AcDbSpline
210
0.0
220
0.0
230
1.0
 70
     8
 71
     3
 72
     8
 73
     4
 74
     0
 42
0.0000000001
 43
0.0000000001
 40
0.0
 40
0.0
 40
0.0
 40
0.0
 40
1.0
 40
1.0
 40
1.0
 40
1.0
 10
46.18598360390489
 20
172.5336547420228
 30
0.0
 10
46.21957328488608
 20
172.5131564238856
 30
0.0
 10
46.25591904225546
 20
172.5036824113012
 30
0.0
 10
46.29105901620502
 20
172.5036824113012
 30
0.0
  0
SPLINE
  5
280
330
1F
100
AcDbEntity
  8
GRAU_10_
 62
     7
100
AcDbSpline
210
0.0
220
0.0
230
1.0
 70
     8
 71
     3
 72
     8
 73
     4
 74
     0
 42
0.0000000001
 43
0.0000000001
 40
0.0
 40
0.0
 40
0.0
 40
0.0
 40
1.0
 40
1.0
 40
1.0
 40
1.0
 10
46.29105901620502
 20
152.7040296384733
 30
0.0
 10
46.25230169199595
 20
152.7040296384733
 30
0.0
 10
46.21595593462657
 20
152.6931775876948
 30
0.0
 10
46.18598360390489
 20
152.6744018173002
 30
0.0
  0
POLYLINE
  5
281
330
1F
100
AcDbEntity
  8
GRAU_10_
 62
     7
100
AcDb2dPolyline
 66
     1
 10
0.0
 20
0.0
 30
0.0
  0
VERTEX
  5
282
330
281
100
AcDbEntity
  8
GRAU_10_
 62
     7
100
AcDbVertex
100
AcDb2dVertex
 10
54.60648598895255
 20
172.6039346899219
 30
0.0
  0
VERTEX
  5
283
330
281
100
AcDbEntity
  8
GRAU_10_
 62
     7
100
AcDbVertex
100
AcDb2dVertex
 10
54.60648598895255
 20
172.5019598635585
 30
0.0
  0
VERTEX
  5
284
330
281
100
AcDbEntity
  8
GRAU_10_
 62
     7
100
AcDbVertex
100
AcDb2dVertex
 10
54.60648598895255
 20
172.1986192060823
 30
0.0
  0
VERTEX
  5
285
330
281
100
AcDbEntity
  8
GRAU_10_
 62
     7
100
AcDbVertex
100
AcDb2dVertex
 10
54.60648598895255
 20
171.7001138893666
 30
0.0
  0
VERTEX
  5
286
330
281
100
AcDbEntity
  8
GRAU_10_
 62
     7
100
AcDbVertex
100
AcDb2dVertex
 10
54.60648598895255
 20
171.0164346903188
 30
0.0
  0
VERTEX
  5
287
330
281
100
AcDbEntity
  8
GRAU_10_
 62
     7
100
AcDbVertex
100
AcDb2dVertex
 10
54.60648598895255
 20
170.1615342456541
 30
0.0
  0
VERTEX
  5
288
330
281
100
AcDbEntity
  8
GRAU_10_
 62
     7
100
AcDbVertex
100
AcDb2dVertex
 10
54.60648598895255
 20
169.1522935232501
 30
0.0
  0
VERTEX
  5
289
330
281
100
AcDbEntity
  8
GRAU_10_
 62
     7
100
AcDbVertex
100
AcDb2dVertex
 10
54.60648598895255
 20
168.0100721151155
 30
0.0
  0
VERTEX
  5
28A
330
281
100
AcDbEntity
  8
GRAU_10_
 62
     7
100
AcDbVertex
100
AcDb2dVertex
 10
54.60648598895255
 20
166.75829667055
 30
0.0
  0
VERTEX
  5
28B
330
281
100
AcDbEntity
  8
GRAU_10_
 62
     7
100
AcDbVertex
100
AcDb2dVertex
 10
54.60648598895255
 20
165.420910603176
 30
0.0
  0
VERTEX
  5
28C
330
281
100
AcDbEntity
  8
GRAU_10_
 62
     7
100
AcDbVertex
100
AcDb2dVertex
 10
54.60648598895255
 20
164.0268527150697
 30
0.0
  0
VERTEX
  5
28D
330
281
100
AcDbEntity
  8
GRAU_10_
 62
     7
100
AcDbVertex
100
AcDb2dVertex
 10
54.60648598895255
 20
162.6040282796615
 30
0.0
  0
VERTEX
  5
28E
330
281
100
AcDbEntity
  8
GRAU_10_
 62
     7
100
AcDbVertex
100
AcDb2dVertex
 10
54.60648598895255
 20
161.1808593347048
 30
0.0
  0
VERTEX
  5
28F
330
281
100
AcDbEntity
  8
GRAU_10_
 62
     7
100
AcDbVertex
100
AcDb2dVertex
 10
54.60648598895255
 20
159.7868014465984
 30
0.0
  0
VERTEX
  5
290
330
281
100
AcDbEntity
  8
GRAU_10_
 62
     7
100
AcDbVertex
100
AcDb2dVertex
 10
54.60648598895255
 20
158.449759888773
 30
0.0
  0
VERTEX
  5
291
330
281
100
AcDbEntity
  8
GRAU_10_
 62
     7
100
AcDbVertex
100
AcDb2dVertex
 10
54.60648598895255
 20
157.1976399346589
 30
0.0
  0
VERTEX
  5
292
330
281
100
AcDbEntity
  8
GRAU_10_
 62
     7
100
AcDbVertex
100
AcDb2dVertex
 10
54.60648598895255
 20
156.0554185265243
 30
0.0
  0
VERTEX
  5
293
330
281
100
AcDbEntity
  8
GRAU_10_
 62
     7
100
AcDbVertex
100
AcDb2dVertex
 10
54.60648598895255
 20
155.0465223136689
 30
0.0
  0
VERTEX
  5
294
330
281
100
AcDbEntity
  8
GRAU_10_
 62
     7
100
AcDbVertex
100
AcDb2dVertex
 10
54.60648598895255
 20
154.1917941237784
 30
0.0
  0
VERTEX
  5
295
330
281
100
AcDbEntity
  8
GRAU_10_
 62
     7
100
AcDbVertex
100
AcDb2dVertex
 10
54.60648598895255
 20
153.5072536508593
 30
0.0
  0
VERTEX
  5
296
330
281
100
AcDbEntity
  8
GRAU_10_
 62
     7
100
AcDbVertex
100
AcDb2dVertex
 10
54.60648598895255
 20
153.0092650984664
 30
0.0
  0
VERTEX
  5
297
330
281
100
AcDbEntity
  8
GRAU_10_
 62
     7
100
AcDbVertex
100
AcDb2dVertex
 10
54.60648598895255
 20
152.7057521862159
 30
0.0
  0
VERTEX
  5
298
330
281
100
AcDbEntity
  8
GRAU_10_
 62
     7
100
AcDbVertex
100
AcDb2dVertex
 10
54.60648598895255
 20
152.6042941241753
 30
0.0
  0
SEQEND
  5
299
330
281
100
AcDbEntity
  8
GRAU_10_
  0
SPLINE
  5
29A
330
1F
100
AcDbEntity
  8
GRAU_10_
 62
     7
100
AcDbSpline
210
0.0
220
0.0
230
1.0
 70
     8
 71
     3
 72
     8
 73
     4
 74
     0
 42
0.0000000001
 43
0.0000000001
 40
0.0
 40
0.0
 40
0.0
 40
0.0
 40
1.0
 40
1.0
 40
1.0
 40
1.0
 10
57.18634574308189
 20
172.1037068254637
 30
0.0
 10
57.18634574308189
 20
172.3798312286064
 30
0.0
 10
56.96224228176639
 20
172.6039346899219
 30
0.0
 10
56.68611787862361
 20
172.6039346899219
 30
0.0
  0
SPLINE
  5
29B
330
1F
100
AcDbEntity
  8
GRAU_10_
 62
     7
100
AcDbSpline
210
0.0
220
0.0
230
1.0
 70
     8
 71
     3
 72
     8
 73
     4
 74
     0
 42
0.0000000001
 43
0.0000000001
 40
0.0
 40
0.0
 40
0.0
 40
0.0
 40
1.0
 40
1.0
 40
1.0
 40
1.0
 10
56.68611787862361
 20
152.6042941241753
 30
0.0
 10
56.96224228176639
 20
152.6042941241753
 30
0.0
 10
57.18634574308189
 20
152.827880821168
 30
0.0
 10
57.18634574308189
 20
153.1036607147623
 30
0.0
  0
POLYLINE
  5
29C
330
1F
100
AcDbEntity
  8
GRAU_10_
 62
     7
100
AcDb2dPolyline
 66
     1
 10
0.0
 20
0.0
 30
0.0
  0
VERTEX
  5
29D
330
29C
100
AcDbEntity
  8
GRAU_10_
 62
     7
100
AcDbVertex
100
AcDb2dVertex
 10
57.18634574308189
 20
172.1037068254637
 30
0.0
  0
VERTEX
  5
29E
330
29C
100
AcDbEntity
  8
GRAU_10_
 62
     7
100
AcDbVertex
100
AcDb2dVertex
 10
57.18634574308189
 20
171.9981146488408
 30
0.0
  0
VERTEX
  5
29F
330
29C
100
AcDbEntity
  8
GRAU_10_
 62
     7
100
AcDbVertex
100
AcDb2dVertex
 10
57.18634574308189
 20
171.6820271380691
 30
0.0
  0
VERTEX
  5
2A0
330
29C
100
AcDbEntity
  8
GRAU_10_
 62
     7
100
AcDbVertex
100
AcDb2dVertex
 10
57.18634574308189
 20
171.1631957579905
 30
0.0
  0
VERTEX
  5
2A1
330
29C
100
AcDbEntity
  8
GRAU_10_
 62
     7
100
AcDbVertex
100
AcDb2dVertex
 10
57.18634574308189
 20
170.4533338332547
 30
0.0
  0
VERTEX
  5
2A2
330
29C
100
AcDbEntity
  8
GRAU_10_
 62
     7
100
AcDbVertex
100
AcDb2dVertex
 10
57.18634574308189
 20
169.5679442935455
 30
0.0
  0
VERTEX
  5
2A3
330
29C
100
AcDbEntity
  8
GRAU_10_
 62
     7
100
AcDbVertex
100
AcDb2dVertex
 10
57.18634574308189
 20
168.5271809474515
 30
0.0
  0
VERTEX
  5
2A4
330
29C
100
AcDbEntity
  8
GRAU_10_
 62
     7
100
AcDbVertex
100
AcDb2dVertex
 10
57.18634574308189
 20
167.3537814251754
 30
0.0
  0
VERTEX
  5
2A5
330
29C
100
AcDbEntity
  8
GRAU_10_
 62
     7
100
AcDbVertex
100
AcDb2dVertex
 10
57.18634574308189
 20
166.0749619810507
 30
0.0
  0
VERTEX
  5
2A6
330
29C
100
AcDbEntity
  8
GRAU_10_
 62
     7
100
AcDbVertex
100
AcDb2dVertex
 10
57.18634574308189
 20
164.7179388694108
 30
0.0
  0
VERTEX
  5
2A7
330
29C
100
AcDbEntity
  8
GRAU_10_
 62
     7
100
AcDbVertex
100
AcDb2dVertex
 10
57.18634574308189
 20
163.3138902043972
 30
0.0
  0
VERTEX
  5
2A8
330
29C
100
AcDbEntity
  8
GRAU_10_
 62
     7
100
AcDbVertex
100
AcDb2dVertex
 10
57.18634574308189
 20
161.8943386097
 30
0.0
  0
VERTEX
  5
2A9
330
29C
100
AcDbEntity
  8
GRAU_10_
 62
     7
100
AcDbVertex
100
AcDb2dVertex
 10
57.18634574308189
 20
160.4897731803637
 30
0.0
  0
VERTEX
  5
2AA
330
29C
100
AcDbEntity
  8
GRAU_10_
 62
     7
100
AcDbVertex
100
AcDb2dVertex
 10
57.18634574308189
 20
159.1330945782723
 30
0.0
  0
VERTEX
  5
2AB
330
29C
100
AcDbEntity
  8
GRAU_10_
 62
     7
100
AcDbVertex
100
AcDb2dVertex
 10
57.18634574308189
 20
157.8542751341475
 30
0.0
  0
VERTEX
  5
2AC
330
29C
100
AcDbEntity
  8
GRAU_10_
 62
     7
100
AcDbVertex
100
AcDb2dVertex
 10
57.18634574308189
 20
156.6805311023229
 30
0.0
  0
VERTEX
  5
2AD
330
29C
100
AcDbEntity
  8
GRAU_10_
 62
     7
100
AcDbVertex
100
AcDb2dVertex
 10
57.18634574308189
 20
155.6399400110032
 30
0.0
  0
VERTEX
  5
2AE
330
29C
100
AcDbEntity
  8
GRAU_10_
 62
     7
100
AcDbVertex
100
AcDb2dVertex
 10
57.18634574308189
 20
154.7547227260683
 30
0.0
  0
VERTEX
  5
2AF
330
29C
100
AcDbEntity
  8
GRAU_10_
 62
     7
100
AcDbVertex
100
AcDb2dVertex
 10
57.18634574308189
 20
154.0450330561068
 30
0.0
  0
VERTEX
  5
2B0
330
29C
100
AcDbEntity
  8
GRAU_10_
 62
     7
100
AcDbVertex
100
AcDb2dVertex
 10
57.18634574308189
 20
153.5260294212539
 30
0.0
  0
VERTEX
  5
2B1
330
29C
100
AcDbEntity
  8
GRAU_10_
 62
     7
100
AcDbVertex
100
AcDb2dVertex
 10
57.18634574308189
 20
153.2102864200308
 30
0.0
  0
VERTEX
  5
2B2
330
29C
100
AcDbEntity
  8
GRAU_10_
 62
     7
100
AcDbVertex
100
AcDb2dVertex
 10
57.18634574308189
 20
153.1036607147623
 30
0.0
  0
SEQEND
  5
2B3
330
29C
100
AcDbEntity
  8
GRAU_10_
  0
POLYLINE
  5
2B4
330
1F
100
AcDbEntity
  8
GRAU_10_
 62
     7
100
AcDb2dPolyline
 66
     1
 10
0.0
 20
0.0
 30
0.0
  0
VERTEX
  5
2B5
330
2B4
100
AcDbEntity
  8
GRAU_10_
 62
     7
100
AcDbVertex
100
AcDb2dVertex
 10
48.76618786758276
 20
172.6039346899219
 30
0.0
  0
VERTEX
  5
2B6
330
2B4
100
AcDbEntity
  8
GRAU_10_
 62
     7
100
AcDbVertex
100
AcDb2dVertex
 10
48.76618786758276
 20
172.5019598635585
 30
0.0
  0
VERTEX
  5
2B7
330
2B4
100
AcDbEntity
  8
GRAU_10_
 62
     7
100
AcDbVertex
100
AcDb2dVertex
 10
48.76618786758276
 20
172.1986192060823
 30
0.0
  0
VERTEX
  5
2B8
330
2B4
100
AcDbEntity
  8
GRAU_10_
 62
     7
100
AcDbVertex
100
AcDb2dVertex
 10
48.76618786758276
 20
171.7001138893666
 30
0.0
  0
VERTEX
  5
2B9
330
2B4
100
AcDbEntity
  8
GRAU_10_
 62
     7
100
AcDbVertex
100
AcDb2dVertex
 10
48.76618786758276
 20
171.0164346903188
 30
0.0
  0
VERTEX
  5
2BA
330
2B4
100
AcDbEntity
  8
GRAU_10_
 62
     7
100
AcDbVertex
100
AcDb2dVertex
 10
48.76618786758276
 20
170.1615342456541
 30
0.0
  0
VERTEX
  5
2BB
330
2B4
100
AcDbEntity
  8
GRAU_10_
 62
     7
100
AcDbVertex
100
AcDb2dVertex
 10
48.76618786758276
 20
169.1522935232501
 30
0.0
  0
VERTEX
  5
2BC
330
2B4
100
AcDbEntity
  8
GRAU_10_
 62
     7
100
AcDbVertex
100
AcDb2dVertex
 10
48.76618786758276
 20
168.0100721151155
 30
0.0
  0
VERTEX
  5
2BD
330
2B4
100
AcDbEntity
  8
GRAU_10_
 62
     7
100
AcDbVertex
100
AcDb2dVertex
 10
48.76618786758276
 20
166.75829667055
 30
0.0
  0
VERTEX
  5
2BE
330
2B4
100
AcDbEntity
  8
GRAU_10_
 62
     7
100
AcDbVertex
100
AcDb2dVertex
 10
48.76618786758276
 20
165.420910603176
 30
0.0
  0
VERTEX
  5
2BF
330
2B4
100
AcDbEntity
  8
GRAU_10_
 62
     7
100
AcDbVertex
100
AcDb2dVertex
 10
48.76618786758276
 20
164.0268527150697
 30
0.0
  0
VERTEX
  5
2C0
330
2B4
100
AcDbEntity
  8
GRAU_10_
 62
     7
100
AcDbVertex
100
AcDb2dVertex
 10
48.76618786758276
 20
162.6040282796615
 30
0.0
  0
VERTEX
  5
2C1
330
2B4
100
AcDbEntity
  8
GRAU_10_
 62
     7
100
AcDbVertex
100
AcDb2dVertex
 10
48.76618786758276
 20
161.1808593347048
 30
0.0
  0
VERTEX
  5
2C2
330
2B4
100
AcDbEntity
  8
GRAU_10_
 62
     7
100
AcDbVertex
100
AcDb2dVertex
 10
48.76618786758276
 20
159.7868014465984
 30
0.0
  0
VERTEX
  5
2C3
330
2B4
100
AcDbEntity
  8
GRAU_10_
 62
     7
100
AcDbVertex
100
AcDb2dVertex
 10
48.76618786758276
 20
158.449759888773
 30
0.0
  0
VERTEX
  5
2C4
330
2B4
100
AcDbEntity
  8
GRAU_10_
 62
     7
100
AcDbVertex
100
AcDb2dVertex
 10
48.76618786758276
 20
157.1976399346589
 30
0.0
  0
VERTEX
  5
2C5
330
2B4
100
AcDbEntity
  8
GRAU_10_
 62
     7
100
AcDbVertex
100
AcDb2dVertex
 10
48.76618786758276
 20
156.0554185265243
 30
0.0
  0
VERTEX
  5
2C6
330
2B4
100
AcDbEntity
  8
GRAU_10_
 62
     7
100
AcDbVertex
100
AcDb2dVertex
 10
48.76618786758276
 20
155.0465223136689
 30
0.0
  0
VERTEX
  5
2C7
330
2B4
100
AcDbEntity
  8
GRAU_10_
 62
     7
100
AcDbVertex
100
AcDb2dVertex
 10
48.76618786758276
 20
154.1917941237784
 30
0.0
  0
VERTEX
  5
2C8
330
2B4
100
AcDbEntity
  8
GRAU_10_
 62
     7
100
AcDbVertex
100
AcDb2dVertex
 10
48.76618786758276
 20
153.5072536508593
 30
0.0
  0
VERTEX
  5
2C9
330
2B4
100
AcDbEntity
  8
GRAU_10_
 62
     7
100
AcDbVertex
100
AcDb2dVertex
 10
48.76618786758276
 20
153.0092650984664
 30
0.0
  0
VERTEX
  5
2CA
330
2B4
100
AcDbEntity
  8
GRAU_10_
 62
     7
100
AcDbVertex
100
AcDb2dVertex
 10
48.76618786758276
 20
152.7057521862159
 30
0.0
  0
VERTEX
  5
2CB
330
2B4
100
AcDbEntity
  8
GRAU_10_
 62
     7
100
AcDbVertex
100
AcDb2dVertex
 10
48.76618786758276
 20
152.6042941241753
 30
0.0
  0
SEQEND
  5
2CC
330
2B4
100
AcDbEntity
  8
GRAU_10_
  0
POLYLINE
  5
2CD
330
1F
100
AcDbEntity
  8
GRAU_10_
 62
     7
100
AcDb2dPolyline
 66
     1
 10
0.0
 20
0.0
 30
0.0
  0
VERTEX
  5
2CE
330
2CD
100
AcDbEntity
  8
GRAU_10_
 62
     7
100
AcDbVertex
100
AcDb2dVertex
 10
47.18609482327292
 20
172.6039346899219
 30
0.0
  0
VERTEX
  5
2CF
330
2CD
100
AcDbEntity
  8
GRAU_10_
 62
     7
100
AcDbVertex
100
AcDb2dVertex
 10
47.18609482327292
 20
172.5019598635585
 30
0.0
  0
VERTEX
  5
2D0
330
2CD
100
AcDbEntity
  8
GRAU_10_
 62
     7
100
AcDbVertex
100
AcDb2dVertex
 10
47.18609482327292
 20
172.1986192060823
 30
0.0
  0
VERTEX
  5
2D1
330
2CD
100
AcDbEntity
  8
GRAU_10_
 62
     7
100
AcDbVertex
100
AcDb2dVertex
 10
47.18609482327292
 20
171.7001138893666
 30
0.0
  0
VERTEX
  5
2D2
330
2CD
100
AcDbEntity
  8
GRAU_10_
 62
     7
100
AcDbVertex
100
AcDb2dVertex
 10
47.18609482327292
 20
171.0164346903188
 30
0.0
  0
VERTEX
  5
2D3
330
2CD
100
AcDbEntity
  8
GRAU_10_
 62
     7
100
AcDbVertex
100
AcDb2dVertex
 10
47.18609482327292
 20
170.1615342456541
 30
0.0
  0
VERTEX
  5
2D4
330
2CD
100
AcDbEntity
  8
GRAU_10_
 62
     7
100
AcDbVertex
100
AcDb2dVertex
 10
47.18609482327292
 20
169.1522935232501
 30
0.0
  0
VERTEX
  5
2D5
330
2CD
100
AcDbEntity
  8
GRAU_10_
 62
     7
100
AcDbVertex
100
AcDb2dVertex
 10
47.18609482327292
 20
168.0100721151155
 30
0.0
  0
VERTEX
  5
2D6
330
2CD
100
AcDbEntity
  8
GRAU_10_
 62
     7
100
AcDbVertex
100
AcDb2dVertex
 10
47.18609482327292
 20
166.75829667055
 30
0.0
  0
VERTEX
  5
2D7
330
2CD
100
AcDbEntity
  8
GRAU_10_
 62
     7
100
AcDbVertex
100
AcDb2dVertex
 10
47.18609482327292
 20
165.420910603176
 30
0.0
  0
VERTEX
  5
2D8
330
2CD
100
AcDbEntity
  8
GRAU_10_
 62
     7
100
AcDbVertex
100
AcDb2dVertex
 10
47.18609482327292
 20
164.0268527150697
 30
0.0
  0
VERTEX
  5
2D9
330
2CD
100
AcDbEntity
  8
GRAU_10_
 62
     7
100
AcDbVertex
100
AcDb2dVertex
 10
47.18609482327292
 20
162.6040282796615
 30
0.0
  0
VERTEX
  5
2DA
330
2CD
100
AcDbEntity
  8
GRAU_10_
 62
     7
100
AcDbVertex
100
AcDb2dVertex
 10
47.18609482327292
 20
161.1808593347048
 30
0.0
  0
VERTEX
  5
2DB
330
2CD
100
AcDbEntity
  8
GRAU_10_
 62
     7
100
AcDbVertex
100
AcDb2dVertex
 10
47.18609482327292
 20
159.7868014465984
 30
0.0
  0
VERTEX
  5
2DC
330
2CD
100
AcDbEntity
  8
GRAU_10_
 62
     7
100
AcDbVertex
100
AcDb2dVertex
 10
47.18609482327292
 20
158.449759888773
 30
0.0
  0
VERTEX
  5
2DD
330
2CD
100
AcDbEntity
  8
GRAU_10_
 62
     7
100
AcDbVertex
100
AcDb2dVertex
 10
47.18609482327292
 20
157.1976399346589
 30
0.0
  0
VERTEX
  5
2DE
330
2CD
100
AcDbEntity
  8
GRAU_10_
 62
     7
100
AcDbVertex
100
AcDb2dVertex
 10
47.18609482327292
 20
156.0554185265243
 30
0.0
  0
VERTEX
  5
2DF
330
2CD
100
AcDbEntity
  8
GRAU_10_
 62
     7
100
AcDbVertex
100
AcDb2dVertex
 10
47.18609482327292
 20
155.0465223136689
 30
0.0
  0
VERTEX
  5
2E0
330
2CD
100
AcDbEntity
  8
GRAU_10_
 62
     7
100
AcDbVertex
100
AcDb2dVertex
 10
47.18609482327292
 20
154.1917941237784
 30
0.0
  0
VERTEX
  5
2E1
330
2CD
100
AcDbEntity
  8
GRAU_10_
 62
     7
100
AcDbVertex
100
AcDb2dVertex
 10
47.18609482327292
 20
153.5072536508593
 30
0.0
  0
VERTEX
  5
2E2
330
2CD
100
AcDbEntity
  8
GRAU_10_
 62
     7
100
AcDbVertex
100
AcDb2dVertex
 10
47.18609482327292
 20
153.0092650984664
 30
0.0
  0
VERTEX
  5
2E3
330
2CD
100
AcDbEntity
  8
GRAU_10_
 62
     7
100
AcDbVertex
100
AcDb2dVertex
 10
47.18609482327292
 20
152.7057521862159
 30
0.0
  0
VERTEX
  5
2E4
330
2CD
100
AcDbEntity
  8
GRAU_10_
 62
     7
100
AcDbVertex
100
AcDb2dVertex
 10
47.18609482327292
 20
152.6042941241753
 30
0.0
  0
SEQEND
  5
2E5
330
2CD
100
AcDbEntity
  8
GRAU_10_
  0
SPLINE
  5
2E6
330
1F
100
AcDbEntity
  8
GRAU_10_
 62
     7
100
AcDbSpline
210
0.0
220
0.0
230
1.0
 70
     8
 71
     3
 72
     8
 73
     4
 74
     0
 42
0.0000000001
 43
0.0000000001
 40
0.0
 40
0.0
 40
0.0
 40
0.0
 40
1.0
 40
1.0
 40
1.0
 40
1.0
 10
46.78646374698394
 20
172.5036824113012
 30
0.0
 10
46.80506726260429
 20
172.5036824113012
 30
0.0
 10
46.82280950435333
 20
172.5060939781409
 30
0.0
 10
46.83865694358548
 20
172.5107448570459
 30
0.0
  0
SPLINE
  5
2E7
330
1F
100
AcDbEntity
  8
GRAU_10_
 62
     7
100
AcDbSpline
210
0.0
220
0.0
230
1.0
 70
     8
 71
     3
 72
     8
 73
     4
 74
     0
 42
0.0000000001
 43
0.0000000001
 40
0.0
 40
0.0
 40
0.0
 40
0.0
 40
1.0
 40
1.0
 40
1.0
 40
1.0
 10
46.83865694358548
 20
152.6973117022771
 30
0.0
 10
46.82022568273939
 20
152.7016180716336
 30
0.0
 10
46.80300020531314
 20
152.7040296384733
 30
0.0
 10
46.78646374698394
 20
152.7040296384733
 30
0.0
  0
SPLINE
  5
2E8
330
1F
100
AcDbEntity
  8
GRAU_10_
 62
     7
100
AcDbSpline
210
0.0
220
0.0
230
1.0
 70
     8
 71
     3
 72
     8
 73
     4
 74
     0
 42
0.0000000001
 43
0.0000000001
 40
0.0
 40
0.0
 40
0.0
 40
0.0
 40
1.0
 40
1.0
 40
1.0
 40
1.0
 10
53.25032415118395
 20
168.6537882065345
 30
0.0
 10
53.34006888857471
 20
168.6537882065345
 30
0.0
 10
53.41586098925021
 20
168.7130438488808
 30
0.0
 10
53.44152695061531
 20
168.795209376204
 30
0.0
  0
SPLINE
  5
2E9
330
1F
100
AcDbEntity
  8
GRAU_10_
 62
     7
100
AcDbSpline
210
0.0
220
0.0
230
1.0
 70
     8
 71
     3
 72
     8
 73
     4
 74
     0
 42
0.0000000001
 43
0.0000000001
 40
0.0
 40
0.0
 40
0.0
 40
0.0
 40
1.0
 40
1.0
 40
1.0
 40
1.0
 10
53.44152695061531
 20
156.4125026735705
 30
0.0
 10
53.41586098925021
 20
156.498113296379
 30
0.0
 10
53.33714055741225
 20
156.5532348241429
 30
0.0
 10
53.25032415118395
 20
156.5542683527885
 30
0.0
  0
SPLINE
  5
2EA
330
1F
100
AcDbEntity
  8
GRAU_10_
 62
     7
100
AcDbSpline
210
0.0
220
0.0
230
1.0
 70
     8
 71
     3
 72
     8
 73
     4
 74
     0
 42
0.0000000001
 43
0.0000000001
 40
0.0
 40
0.0
 40
0.0
 40
0.0
 40
1.0
 40
1.0
 40
1.0
 40
1.0
 10
49.93045788682294
 20
168.795209376204
 30
0.0
 10
49.9568128672851
 20
168.7095987533955
 30
0.0
 10
50.03518878957454
 20
168.6544772256315
 30
0.0
 10
50.12166068625431
 20
168.6537882065345
 30
0.0
  0
SPLINE
  5
2EB
330
1F
100
AcDbEntity
  8
GRAU_10_
 62
     7
100
AcDbSpline
210
0.0
220
0.0
230
1.0
 70
     8
 71
     3
 72
     8
 73
     4
 74
     0
 42
0.0000000001
 43
0.0000000001
 40
0.0
 40
0.0
 40
0.0
 40
0.0
 40
1.0
 40
1.0
 40
1.0
 40
1.0
 10
50.12166068625431
 20
156.5542683527885
 30
0.0
 10
50.03243271318634
 20
156.5542683527885
 30
0.0
 10
49.95646835773658
 20
156.4950127104422
 30
0.0
 10
49.93045788682294
 20
156.4125026735705
 30
0.0
  0
POLYLINE
  5
2ED
330
1F
100
AcDbEntity
  8
STANDARDEBENE
 62
     7
100
AcDb2dPolyline
 66
     1
 10
0.0
 20
0.0
 30
0.0
  0
VERTEX
  5
2EE
330
2ED
100
AcDbEntity
  8
STANDARDEBENE
 62
     7
100
AcDbVertex
100
AcDb2dVertex
 10
49.97421059948562
 20
228.7650200165935
 30
0.0
  0
VERTEX
  5
2EF
330
2ED
100
AcDbEntity
  8
STANDARDEBENE
 62
     7
100
AcDbVertex
100
AcDb2dVertex
 10
49.97421059948562
 20
216.5342420248595
 30
0.0
  0
SEQEND
  5
2F0
330
2ED
100
AcDbEntity
  8
STANDARDEBENE
  0
POLYLINE
  5
2F1
330
1F
100
AcDbEntity
  8
STANDARDEBENE
 62
     7
100
AcDb2dPolyline
 66
     1
 10
0.0
 20
0.0
 30
0.0
  0
VERTEX
  5
2F2
330
2F1
100
AcDbEntity
  8
STANDARDEBENE
 62
     7
100
AcDbVertex
100
AcDb2dVertex
 10
46.81333549176889
 20
212.7479098317957
 30
0.0
  0
VERTEX
  5
2F3
330
2F1
100
AcDbEntity
  8
STANDARDEBENE
 62
     7
100
AcDbVertex
100
AcDb2dVertex
 10
46.81333549176889
 20
232.5511799548831
 30
0.0
  0
SEQEND
  5
2F4
330
2F1
100
AcDbEntity
  8
STANDARDEBENE
  0
POLYLINE
  5
2F5
330
1F
100
AcDbEntity
  8
STANDARDEBENE
 62
     7
100
AcDb2dPolyline
 66
     1
 10
0.0
 20
0.0
 30
0.0
  0
VERTEX
  5
2F6
330
2F5
100
AcDbEntity
  8
STANDARDEBENE
 62
     7
100
AcDbVertex
100
AcDb2dVertex
 10
53.39863551182395
 20
216.5342420248595
 30
0.0
  0
VERTEX
  5
2F7
330
2F5
100
AcDbEntity
  8
STANDARDEBENE
 62
     7
100
AcDbVertex
100
AcDb2dVertex
 10
53.39863551182395
 20
228.7650200165935
 30
0.0
  0
SEQEND
  5
2F8
330
2F5
100
AcDbEntity
  8
STANDARDEBENE
  0
POLYLINE
  5
2F9
330
1F
100
AcDbEntity
  8
STANDARDEBENE
 62
     7
100
AcDb2dPolyline
 66
     1
 10
0.0
 20
0.0
 30
0.0
  0
VERTEX
  5
2FA
330
2F9
100
AcDbEntity
  8
STANDARDEBENE
 62
     7
100
AcDbVertex
100
AcDb2dVertex
 10
49.97421059948562
 20
168.71907276598
 30
0.0
  0
VERTEX
  5
2FB
330
2F9
100
AcDbEntity
  8
STANDARDEBENE
 62
     7
100
AcDbVertex
100
AcDb2dVertex
 10
49.97421059948562
 20
156.4886392837945
 30
0.0
  0
SEQEND
  5
2FC
330
2F9
100
AcDbEntity
  8
STANDARDEBENE
  0
POLYLINE
  5
2FD
330
1F
100
AcDbEntity
  8
STANDARDEBENE
 62
     7
100
AcDb2dPolyline
 66
     1
 10
0.0
 20
0.0
 30
0.0
  0
VERTEX
  5
2FE
330
2FD
100
AcDbEntity
  8
STANDARDEBENE
 62
     7
100
AcDbVertex
100
AcDb2dVertex
 10
46.81333549176889
 20
152.7023070907307
 30
0.0
  0
VERTEX
  5
2FF
330
2FD
100
AcDbEntity
  8
STANDARDEBENE
 62
     7
100
AcDbVertex
100
AcDb2dVertex
 10
46.81333549176889
 20
172.5054049590438
 30
0.0
  0
SEQEND
  5
300
330
2FD
100
AcDbEntity
  8
STANDARDEBENE
  0
POLYLINE
  5
301
330
1F
100
AcDbEntity
  8
STANDARDEBENE
 62
     7
100
AcDb2dPolyline
 66
     1
 10
0.0
 20
0.0
 30
0.0
  0
VERTEX
  5
302
330
301
100
AcDbEntity
  8
STANDARDEBENE
 62
     7
100
AcDbVertex
100
AcDb2dVertex
 10
53.39863551182395
 20
156.4886392837945
 30
0.0
  0
VERTEX
  5
303
330
301
100
AcDbEntity
  8
STANDARDEBENE
 62
     7
100
AcDbVertex
100
AcDb2dVertex
 10
53.39863551182395
 20
168.71907276598
 30
0.0
  0
SEQEND
  5
304
330
301
100
AcDbEntity
  8
STANDARDEBENE
  0
POLYLINE
  5
306
330
1F
100
AcDbEntity
  8
BEMAßUNG
 62
     7
100
AcDb2dPolyline
 66
     1
 10
0.0
 20
0.0
 30
0.0
  0
VERTEX
  5
307
330
306
100
AcDbEntity
  8
BEMAßUNG
 62
     7
100
AcDbVertex
100
AcDb2dVertex
 10
102.77598331849
 20
222.6496310207265
 30
0.0
  0
VERTEX
  5
308
330
306
100
AcDbEntity
  8
BEMAßUNG
 62
     7
100
AcDbVertex
100
AcDb2dVertex
 10
102.77598331849
 20
195.6497286837265
 30
0.0
  0
SEQEND
  5
309
330
306
100
AcDbEntity
  8
BEMAßUNG
  0
POLYLINE
  5
30A
330
1F
100
AcDbEntity
  8
BEMAßUNG
 62
     7
100
AcDb2dPolyline
 66
     1
 10
0.0
 20
0.0
 30
0.0
  0
VERTEX
  5
30B
330
30A
100
AcDbEntity
  8
BEMAßUNG
 62
     7
100
AcDbVertex
100
AcDb2dVertex
 10
132.7758748040456
 20
222.6496310207265
 30
0.0
  0
VERTEX
  5
30C
330
30A
100
AcDbEntity
  8
BEMAßUNG
 62
     7
100
AcDbVertex
100
AcDb2dVertex
 10
132.7758748040456
 20
195.6497286837265
 30
0.0
  0
SEQEND
  5
30D
330
30A
100
AcDbEntity
  8
BEMAßUNG
  0
POLYLINE
  5
30E
330
1F
100
AcDbEntity
  8
BEMAßUNG
 62
     7
100
AcDb2dPolyline
 66
     1
 10
0.0
 20
0.0
 30
0.0
  0
VERTEX
  5
30F
330
30E
100
AcDbEntity
  8
BEMAßUNG
 62
     7
100
AcDbVertex
100
AcDb2dVertex
 10
102.77598331849
 20
197.6492621033655
 30
0.0
  0
VERTEX
  5
310
330
30E
100
AcDbEntity
  8
BEMAßUNG
 62
     7
100
AcDbVertex
100
AcDb2dVertex
 10
132.7758748040456
 20
197.6492621033655
 30
0.0
  0
SEQEND
  5
311
330
30E
100
AcDbEntity
  8
BEMAßUNG
  0
POLYLINE
  5
312
330
1F
100
AcDbEntity
  8
BEMAßUNG
 62
     7
100
AcDb2dPolyline
 66
     1
 10
0.0
 20
0.0
 30
0.0
  0
VERTEX
  5
313
330
312
100
AcDbEntity
  8
BEMAßUNG
 62
     7
100
AcDbVertex
100
AcDb2dVertex
 10
102.77598331849
 20
197.6492621033655
 30
0.0
  0
VERTEX
  5
314
330
312
100
AcDbEntity
  8
BEMAßUNG
 62
     7
100
AcDbVertex
100
AcDb2dVertex
 10
106.2758558219553
 20
197.1886528369876
 30
0.0
  0
VERTEX
  5
315
330
312
100
AcDbEntity
  8
BEMAßUNG
 62
     7
100
AcDbVertex
100
AcDb2dVertex
 10
106.2758558219553
 20
198.1107326436147
 30
0.0
  0
VERTEX
  5
316
330
312
100
AcDbEntity
  8
BEMAßUNG
 62
     7
100
AcDbVertex
100
AcDb2dVertex
 10
102.77598331849
 20
197.6492621033655
 30
0.0
  0
SEQEND
  5
317
330
312
100
AcDbEntity
  8
BEMAßUNG
  0
POLYLINE
  5
318
330
1F
100
AcDbEntity
  8
BEMAßUNG
 62
     7
100
AcDb2dPolyline
 66
     1
 10
0.0
 20
0.0
 30
0.0
  0
VERTEX
  5
319
330
318
100
AcDbEntity
  8
BEMAßUNG
 62
     7
100
AcDbVertex
100
AcDb2dVertex
 10
106.2758558219553
 20
197.1924424420213
 30
0.0
  0
VERTEX
  5
31A
330
318
100
AcDbEntity
  8
BEMAßUNG
 62
     7
100
AcDbVertex
100
AcDb2dVertex
 10
106.2486395676219
 20
197.1924424420213
 30
0.0
  0
SEQEND
  5
31B
330
318
100
AcDbEntity
  8
BEMAßUNG
  0
POLYLINE
  5
31C
330
1F
100
AcDbEntity
  8
BEMAßUNG
 62
     7
100
AcDb2dPolyline
 66
     1
 10
0.0
 20
0.0
 30
0.0
  0
VERTEX
  5
31D
330
31C
100
AcDbEntity
  8
BEMAßUNG
 62
     7
100
AcDbVertex
100
AcDb2dVertex
 10
106.2758558219553
 20
197.1924424420213
 30
0.0
  0
VERTEX
  5
31E
330
31C
100
AcDbEntity
  8
BEMAßUNG
 62
     7
100
AcDbVertex
100
AcDb2dVertex
 10
106.2486395676219
 20
197.1924424420213
 30
0.0
  0
SEQEND
  5
31F
330
31C
100
AcDbEntity
  8
BEMAßUNG
  0
POLYLINE
  5
320
330
1F
100
AcDbEntity
  8
BEMAßUNG
 62
     7
100
AcDb2dPolyline
 66
     1
 10
0.0
 20
0.0
 30
0.0
  0
VERTEX
  5
321
330
320
100
AcDbEntity
  8
BEMAßUNG
 62
     7
100
AcDbVertex
100
AcDb2dVertex
 10
106.2758558219553
 20
197.2429130908803
 30
0.0
  0
VERTEX
  5
322
330
320
100
AcDbEntity
  8
BEMAßUNG
 62
     7
100
AcDbVertex
100
AcDb2dVertex
 10
105.8631333828224
 20
197.2429130908803
 30
0.0
  0
SEQEND
  5
323
330
320
100
AcDbEntity
  8
BEMAßUNG
  0
POLYLINE
  5
324
330
1F
100
AcDbEntity
  8
BEMAßUNG
 62
     7
100
AcDb2dPolyline
 66
     1
 10
0.0
 20
0.0
 30
0.0
  0
VERTEX
  5
325
330
324
100
AcDbEntity
  8
BEMAßUNG
 62
     7
100
AcDbVertex
100
AcDb2dVertex
 10
106.2758558219553
 20
197.2937282492877
 30
0.0
  0
VERTEX
  5
326
330
324
100
AcDbEntity
  8
BEMAßUNG
 62
     7
100
AcDbVertex
100
AcDb2dVertex
 10
105.4772826884744
 20
197.2937282492877
 30
0.0
  0
SEQEND
  5
327
330
324
100
AcDbEntity
  8
BEMAßUNG
  0
POLYLINE
  5
328
330
1F
100
AcDbEntity
  8
BEMAßUNG
 62
     7
100
AcDb2dPolyline
 66
     1
 10
0.0
 20
0.0
 30
0.0
  0
VERTEX
  5
329
330
328
100
AcDbEntity
  8
BEMAßUNG
 62
     7
100
AcDbVertex
100
AcDb2dVertex
 10
106.2758558219553
 20
197.3445434076951
 30
0.0
  0
VERTEX
  5
32A
330
328
100
AcDbEntity
  8
BEMAßUNG
 62
     7
100
AcDbVertex
100
AcDb2dVertex
 10
105.0912597393522
 20
197.3445434076951
 30
0.0
  0
SEQEND
  5
32B
330
328
100
AcDbEntity
  8
BEMAßUNG
  0
POLYLINE
  5
32C
330
1F
100
AcDbEntity
  8
BEMAßUNG
 62
     7
100
AcDb2dPolyline
 66
     1
 10
0.0
 20
0.0
 30
0.0
  0
VERTEX
  5
32D
330
32C
100
AcDbEntity
  8
BEMAßUNG
 62
     7
100
AcDbVertex
100
AcDb2dVertex
 10
106.2758558219553
 20
197.3953585661025
 30
0.0
  0
VERTEX
  5
32E
330
32C
100
AcDbEntity
  8
BEMAßUNG
 62
     7
100
AcDbVertex
100
AcDb2dVertex
 10
104.7052367902299
 20
197.3953585661025
 30
0.0
  0
SEQEND
  5
32F
330
32C
100
AcDbEntity
  8
BEMAßUNG
  0
POLYLINE
  5
330
330
1F
100
AcDbEntity
  8
BEMAßUNG
 62
     7
100
AcDb2dPolyline
 66
     1
 10
0.0
 20
0.0
 30
0.0
  0
VERTEX
  5
331
330
330
100
AcDbEntity
  8
BEMAßUNG
 62
     7
100
AcDbVertex
100
AcDb2dVertex
 10
106.2758558219553
 20
197.44617372451
 30
0.0
  0
VERTEX
  5
332
330
330
100
AcDbEntity
  8
BEMAßUNG
 62
     7
100
AcDbVertex
100
AcDb2dVertex
 10
104.319386095882
 20
197.44617372451
 30
0.0
  0
SEQEND
  5
333
330
330
100
AcDbEntity
  8
BEMAßUNG
  0
POLYLINE
  5
334
330
1F
100
AcDbEntity
  8
BEMAßUNG
 62
     7
100
AcDb2dPolyline
 66
     1
 10
0.0
 20
0.0
 30
0.0
  0
VERTEX
  5
335
330
334
100
AcDbEntity
  8
BEMAßUNG
 62
     7
100
AcDbVertex
100
AcDb2dVertex
 10
106.2758558219553
 20
197.4969888829174
 30
0.0
  0
VERTEX
  5
336
330
334
100
AcDbEntity
  8
BEMAßUNG
 62
     7
100
AcDbVertex
100
AcDb2dVertex
 10
103.9338799110825
 20
197.4969888829174
 30
0.0
  0
SEQEND
  5
337
330
334
100
AcDbEntity
  8
BEMAßUNG
  0
POLYLINE
  5
338
330
1F
100
AcDbEntity
  8
BEMAßUNG
 62
     7
100
AcDb2dPolyline
 66
     1
 10
0.0
 20
0.0
 30
0.0
  0
VERTEX
  5
339
330
338
100
AcDbEntity
  8
BEMAßUNG
 62
     7
100
AcDbVertex
100
AcDb2dVertex
 10
106.2758558219553
 20
197.5478040413249
 30
0.0
  0
VERTEX
  5
33A
330
338
100
AcDbEntity
  8
BEMAßUNG
 62
     7
100
AcDbVertex
100
AcDb2dVertex
 10
103.5478569619603
 20
197.5478040413249
 30
0.0
  0
SEQEND
  5
33B
330
338
100
AcDbEntity
  8
BEMAßUNG
  0
POLYLINE
  5
33C
330
1F
100
AcDbEntity
  8
BEMAßUNG
 62
     7
100
AcDb2dPolyline
 66
     1
 10
0.0
 20
0.0
 30
0.0
  0
VERTEX
  5
33D
330
33C
100
AcDbEntity
  8
BEMAßUNG
 62
     7
100
AcDbVertex
100
AcDb2dVertex
 10
106.2758558219553
 20
197.5986191997323
 30
0.0
  0
VERTEX
  5
33E
330
33C
100
AcDbEntity
  8
BEMAßUNG
 62
     7
100
AcDbVertex
100
AcDb2dVertex
 10
103.161834012838
 20
197.5986191997323
 30
0.0
  0
SEQEND
  5
33F
330
33C
100
AcDbEntity
  8
BEMAßUNG
  0
POLYLINE
  5
340
330
1F
100
AcDbEntity
  8
BEMAßUNG
 62
     7
100
AcDb2dPolyline
 66
     1
 10
0.0
 20
0.0
 30
0.0
  0
VERTEX
  5
341
330
340
100
AcDbEntity
  8
BEMAßUNG
 62
     7
100
AcDbVertex
100
AcDb2dVertex
 10
106.2758558219553
 20
197.6492621033655
 30
0.0
  0
VERTEX
  5
342
330
340
100
AcDbEntity
  8
BEMAßUNG
 62
     7
100
AcDbVertex
100
AcDb2dVertex
 10
102.77598331849
 20
197.6492621033655
 30
0.0
  0
SEQEND
  5
343
330
340
100
AcDbEntity
  8
BEMAßUNG
  0
POLYLINE
  5
344
330
1F
100
AcDbEntity
  8
BEMAßUNG
 62
     7
100
AcDb2dPolyline
 66
     1
 10
0.0
 20
0.0
 30
0.0
  0
VERTEX
  5
345
330
344
100
AcDbEntity
  8
BEMAßUNG
 62
     7
100
AcDbVertex
100
AcDb2dVertex
 10
106.2758558219553
 20
198.1069430385809
 30
0.0
  0
VERTEX
  5
346
330
344
100
AcDbEntity
  8
BEMAßUNG
 62
     7
100
AcDbVertex
100
AcDb2dVertex
 10
106.2486395676219
 20
198.1069430385809
 30
0.0
  0
SEQEND
  5
347
330
344
100
AcDbEntity
  8
BEMAßUNG
  0
POLYLINE
  5
348
330
1F
100
AcDbEntity
  8
BEMAßUNG
 62
     7
100
AcDb2dPolyline
 66
     1
 10
0.0
 20
0.0
 30
0.0
  0
VERTEX
  5
349
330
348
100
AcDbEntity
  8
BEMAßUNG
 62
     7
100
AcDbVertex
100
AcDb2dVertex
 10
106.2758558219553
 20
198.1069430385809
 30
0.0
  0
VERTEX
  5
34A
330
348
100
AcDbEntity
  8
BEMAßUNG
 62
     7
100
AcDbVertex
100
AcDb2dVertex
 10
106.2486395676219
 20
198.1069430385809
 30
0.0
  0
SEQEND
  5
34B
330
348
100
AcDbEntity
  8
BEMAßUNG
  0
POLYLINE
  5
34C
330
1F
100
AcDbEntity
  8
BEMAßUNG
 62
     7
100
AcDb2dPolyline
 66
     1
 10
0.0
 20
0.0
 30
0.0
  0
VERTEX
  5
34D
330
34C
100
AcDbEntity
  8
BEMAßUNG
 62
     7
100
AcDbVertex
100
AcDb2dVertex
 10
106.2758558219553
 20
198.0561278801735
 30
0.0
  0
VERTEX
  5
34E
330
34C
100
AcDbEntity
  8
BEMAßUNG
 62
     7
100
AcDbVertex
100
AcDb2dVertex
 10
105.8631333828224
 20
198.0561278801735
 30
0.0
  0
SEQEND
  5
34F
330
34C
100
AcDbEntity
  8
BEMAßUNG
  0
POLYLINE
  5
350
330
1F
100
AcDbEntity
  8
BEMAßUNG
 62
     7
100
AcDb2dPolyline
 66
     1
 10
0.0
 20
0.0
 30
0.0
  0
VERTEX
  5
351
330
350
100
AcDbEntity
  8
BEMAßUNG
 62
     7
100
AcDbVertex
100
AcDb2dVertex
 10
106.2758558219553
 20
198.005312721766
 30
0.0
  0
VERTEX
  5
352
330
350
100
AcDbEntity
  8
BEMAßUNG
 62
     7
100
AcDbVertex
100
AcDb2dVertex
 10
105.4772826884744
 20
198.005312721766
 30
0.0
  0
SEQEND
  5
353
330
350
100
AcDbEntity
  8
BEMAßUNG
  0
POLYLINE
  5
354
330
1F
100
AcDbEntity
  8
BEMAßUNG
 62
     7
100
AcDb2dPolyline
 66
     1
 10
0.0
 20
0.0
 30
0.0
  0
VERTEX
  5
355
330
354
100
AcDbEntity
  8
BEMAßUNG
 62
     7
100
AcDbVertex
100
AcDb2dVertex
 10
106.2758558219553
 20
197.9544975633586
 30
0.0
  0
VERTEX
  5
356
330
354
100
AcDbEntity
  8
BEMAßUNG
 62
     7
100
AcDbVertex
100
AcDb2dVertex
 10
105.0912597393522
 20
197.9544975633586
 30
0.0
  0
SEQEND
  5
357
330
354
100
AcDbEntity
  8
BEMAßUNG
  0
POLYLINE
  5
358
330
1F
100
AcDbEntity
  8
BEMAßUNG
 62
     7
100
AcDb2dPolyline
 66
     1
 10
0.0
 20
0.0
 30
0.0
  0
VERTEX
  5
359
330
358
100
AcDbEntity
  8
BEMAßUNG
 62
     7
100
AcDbVertex
100
AcDb2dVertex
 10
106.2758558219553
 20
197.9036824049512
 30
0.0
  0
VERTEX
  5
35A
330
358
100
AcDbEntity
  8
BEMAßUNG
 62
     7
100
AcDbVertex
100
AcDb2dVertex
 10
104.7052367902299
 20
197.9036824049512
 30
0.0
  0
SEQEND
  5
35B
330
358
100
AcDbEntity
  8
BEMAßUNG
  0
POLYLINE
  5
35C
330
1F
100
AcDbEntity
  8
BEMAßUNG
 62
     7
100
AcDb2dPolyline
 66
     1
 10
0.0
 20
0.0
 30
0.0
  0
VERTEX
  5
35D
330
35C
100
AcDbEntity
  8
BEMAßUNG
 62
     7
100
AcDbVertex
100
AcDb2dVertex
 10
106.2758558219553
 20
197.8528672465437
 30
0.0
  0
VERTEX
  5
35E
330
35C
100
AcDbEntity
  8
BEMAßUNG
 62
     7
100
AcDbVertex
100
AcDb2dVertex
 10
104.319386095882
 20
197.8528672465437
 30
0.0
  0
SEQEND
  5
35F
330
35C
100
AcDbEntity
  8
BEMAßUNG
  0
POLYLINE
  5
360
330
1F
100
AcDbEntity
  8
BEMAßUNG
 62
     7
100
AcDb2dPolyline
 66
     1
 10
0.0
 20
0.0
 30
0.0
  0
VERTEX
  5
361
330
360
100
AcDbEntity
  8
BEMAßUNG
 62
     7
100
AcDbVertex
100
AcDb2dVertex
 10
106.2758558219553
 20
197.8020520881363
 30
0.0
  0
VERTEX
  5
362
330
360
100
AcDbEntity
  8
BEMAßUNG
 62
     7
100
AcDbVertex
100
AcDb2dVertex
 10
103.9338799110825
 20
197.8020520881363
 30
0.0
  0
SEQEND
  5
363
330
360
100
AcDbEntity
  8
BEMAßUNG
  0
POLYLINE
  5
364
330
1F
100
AcDbEntity
  8
BEMAßUNG
 62
     7
100
AcDb2dPolyline
 66
     1
 10
0.0
 20
0.0
 30
0.0
  0
VERTEX
  5
365
330
364
100
AcDbEntity
  8
BEMAßUNG
 62
     7
100
AcDbVertex
100
AcDb2dVertex
 10
106.2758558219553
 20
197.7512369297289
 30
0.0
  0
VERTEX
  5
366
330
364
100
AcDbEntity
  8
BEMAßUNG
 62
     7
100
AcDbVertex
100
AcDb2dVertex
 10
103.5478569619603
 20
197.7512369297289
 30
0.0
  0
SEQEND
  5
367
330
364
100
AcDbEntity
  8
BEMAßUNG
  0
POLYLINE
  5
368
330
1F
100
AcDbEntity
  8
BEMAßUNG
 62
     7
100
AcDb2dPolyline
 66
     1
 10
0.0
 20
0.0
 30
0.0
  0
VERTEX
  5
369
330
368
100
AcDbEntity
  8
BEMAßUNG
 62
     7
100
AcDbVertex
100
AcDb2dVertex
 10
106.2758558219553
 20
197.7000772617729
 30
0.0
  0
VERTEX
  5
36A
330
368
100
AcDbEntity
  8
BEMAßUNG
 62
     7
100
AcDbVertex
100
AcDb2dVertex
 10
103.161834012838
 20
197.7000772617729
 30
0.0
  0
SEQEND
  5
36B
330
368
100
AcDbEntity
  8
BEMAßUNG
  0
POLYLINE
  5
36C
330
1F
100
AcDbEntity
  8
BEMAßUNG
 62
     7
100
AcDb2dPolyline
 66
     1
 10
0.0
 20
0.0
 30
0.0
  0
VERTEX
  5
36D
330
36C
100
AcDbEntity
  8
BEMAßUNG
 62
     7
100
AcDbVertex
100
AcDb2dVertex
 10
106.2758558219553
 20
197.6492621033655
 30
0.0
  0
VERTEX
  5
36E
330
36C
100
AcDbEntity
  8
BEMAßUNG
 62
     7
100
AcDbVertex
100
AcDb2dVertex
 10
102.77598331849
 20
197.6492621033655
 30
0.0
  0
SEQEND
  5
36F
330
36C
100
AcDbEntity
  8
BEMAßUNG
  0
POLYLINE
  5
370
330
1F
100
AcDbEntity
  8
BEMAßUNG
 62
     7
100
AcDb2dPolyline
 66
     1
 10
0.0
 20
0.0
 30
0.0
  0
VERTEX
  5
371
330
370
100
AcDbEntity
  8
BEMAßUNG
 62
     7
100
AcDbVertex
100
AcDb2dVertex
 10
132.7758748040456
 20
197.6492621033655
 30
0.0
  0
VERTEX
  5
372
330
370
100
AcDbEntity
  8
BEMAßUNG
 62
     7
100
AcDbVertex
100
AcDb2dVertex
 10
129.2760023005803
 20
198.1107326436147
 30
0.0
  0
VERTEX
  5
373
330
370
100
AcDbEntity
  8
BEMAßUNG
 62
     7
100
AcDbVertex
100
AcDb2dVertex
 10
129.2760023005803
 20
197.1886528369876
 30
0.0
  0
VERTEX
  5
374
330
370
100
AcDbEntity
  8
BEMAßUNG
 62
     7
100
AcDbVertex
100
AcDb2dVertex
 10
132.7758748040456
 20
197.6492621033655
 30
0.0
  0
SEQEND
  5
375
330
370
100
AcDbEntity
  8
BEMAßUNG
  0
POLYLINE
  5
376
330
1F
100
AcDbEntity
  8
BEMAßUNG
 62
     7
100
AcDb2dPolyline
 66
     1
 10
0.0
 20
0.0
 30
0.0
  0
VERTEX
  5
377
330
376
100
AcDbEntity
  8
BEMAßUNG
 62
     7
100
AcDbVertex
100
AcDb2dVertex
 10
129.2760023005803
 20
198.1069430385809
 30
0.0
  0
VERTEX
  5
378
330
376
100
AcDbEntity
  8
BEMAßUNG
 62
     7
100
AcDbVertex
100
AcDb2dVertex
 10
129.3030463001395
 20
198.1069430385809
 30
0.0
  0
SEQEND
  5
379
330
376
100
AcDbEntity
  8
BEMAßUNG
  0
POLYLINE
  5
37A
330
1F
100
AcDbEntity
  8
BEMAßUNG
 62
     7
100
AcDb2dPolyline
 66
     1
 10
0.0
 20
0.0
 30
0.0
  0
VERTEX
  5
37B
330
37A
100
AcDbEntity
  8
BEMAßUNG
 62
     7
100
AcDbVertex
100
AcDb2dVertex
 10
129.2760023005803
 20
198.1069430385809
 30
0.0
  0
VERTEX
  5
37C
330
37A
100
AcDbEntity
  8
BEMAßUNG
 62
     7
100
AcDbVertex
100
AcDb2dVertex
 10
129.3030463001395
 20
198.1069430385809
 30
0.0
  0
SEQEND
  5
37D
330
37A
100
AcDbEntity
  8
BEMAßUNG
  0
POLYLINE
  5
37E
330
1F
100
AcDbEntity
  8
BEMAßUNG
 62
     7
100
AcDb2dPolyline
 66
     1
 10
0.0
 20
0.0
 30
0.0
  0
VERTEX
  5
37F
330
37E
100
AcDbEntity
  8
BEMAßUNG
 62
     7
100
AcDbVertex
100
AcDb2dVertex
 10
129.2760023005803
 20
198.0561278801735
 30
0.0
  0
VERTEX
  5
380
330
37E
100
AcDbEntity
  8
BEMAßUNG
 62
     7
100
AcDbVertex
100
AcDb2dVertex
 10
129.6890692492618
 20
198.0561278801735
 30
0.0
  0
SEQEND
  5
381
330
37E
100
AcDbEntity
  8
BEMAßUNG
  0
POLYLINE
  5
382
330
1F
100
AcDbEntity
  8
BEMAßUNG
 62
     7
100
AcDb2dPolyline
 66
     1
 10
0.0
 20
0.0
 30
0.0
  0
VERTEX
  5
383
330
382
100
AcDbEntity
  8
BEMAßUNG
 62
     7
100
AcDbVertex
100
AcDb2dVertex
 10
129.2760023005803
 20
198.005312721766
 30
0.0
  0
VERTEX
  5
384
330
382
100
AcDbEntity
  8
BEMAßUNG
 62
     7
100
AcDbVertex
100
AcDb2dVertex
 10
130.0749199436098
 20
198.005312721766
 30
0.0
  0
SEQEND
  5
385
330
382
100
AcDbEntity
  8
BEMAßUNG
  0
POLYLINE
  5
386
330
1F
100
AcDbEntity
  8
BEMAßUNG
 62
     7
100
AcDb2dPolyline
 66
     1
 10
0.0
 20
0.0
 30
0.0
  0
VERTEX
  5
387
330
386
100
AcDbEntity
  8
BEMAßUNG
 62
     7
100
AcDbVertex
100
AcDb2dVertex
 10
129.2760023005803
 20
197.9544975633586
 30
0.0
  0
VERTEX
  5
388
330
386
100
AcDbEntity
  8
BEMAßUNG
 62
     7
100
AcDbVertex
100
AcDb2dVertex
 10
130.4605983831835
 20
197.9544975633586
 30
0.0
  0
SEQEND
  5
389
330
386
100
AcDbEntity
  8
BEMAßUNG
  0
POLYLINE
  5
38A
330
1F
100
AcDbEntity
  8
BEMAßUNG
 62
     7
100
AcDb2dPolyline
 66
     1
 10
0.0
 20
0.0
 30
0.0
  0
VERTEX
  5
38B
330
38A
100
AcDbEntity
  8
BEMAßUNG
 62
     7
100
AcDbVertex
100
AcDb2dVertex
 10
129.2760023005803
 20
197.9036824049512
 30
0.0
  0
VERTEX
  5
38C
330
38A
100
AcDbEntity
  8
BEMAßUNG
 62
     7
100
AcDbVertex
100
AcDb2dVertex
 10
130.8464490775314
 20
197.9036824049512
 30
0.0
  0
SEQEND
  5
38D
330
38A
100
AcDbEntity
  8
BEMAßUNG
  0
POLYLINE
  5
38E
330
1F
100
AcDbEntity
  8
BEMAßUNG
 62
     7
100
AcDb2dPolyline
 66
     1
 10
0.0
 20
0.0
 30
0.0
  0
VERTEX
  5
38F
330
38E
100
AcDbEntity
  8
BEMAßUNG
 62
     7
100
AcDbVertex
100
AcDb2dVertex
 10
129.2760023005803
 20
197.8528672465437
 30
0.0
  0
VERTEX
  5
390
330
38E
100
AcDbEntity
  8
BEMAßUNG
 62
     7
100
AcDbVertex
100
AcDb2dVertex
 10
131.2324720266537
 20
197.8528672465437
 30
0.0
  0
SEQEND
  5
391
330
38E
100
AcDbEntity
  8
BEMAßUNG
  0
POLYLINE
  5
392
330
1F
100
AcDbEntity
  8
BEMAßUNG
 62
     7
100
AcDb2dPolyline
 66
     1
 10
0.0
 20
0.0
 30
0.0
  0
VERTEX
  5
393
330
392
100
AcDbEntity
  8
BEMAßUNG
 62
     7
100
AcDbVertex
100
AcDb2dVertex
 10
129.2760023005803
 20
197.8020520881363
 30
0.0
  0
VERTEX
  5
394
330
392
100
AcDbEntity
  8
BEMAßUNG
 62
     7
100
AcDbVertex
100
AcDb2dVertex
 10
131.6183227210017
 20
197.8020520881363
 30
0.0
  0
SEQEND
  5
395
330
392
100
AcDbEntity
  8
BEMAßUNG
  0
POLYLINE
  5
396
330
1F
100
AcDbEntity
  8
BEMAßUNG
 62
     7
100
AcDb2dPolyline
 66
     1
 10
0.0
 20
0.0
 30
0.0
  0
VERTEX
  5
397
330
396
100
AcDbEntity
  8
BEMAßUNG
 62
     7
100
AcDbVertex
100
AcDb2dVertex
 10
129.2760023005803
 20
197.7512369297289
 30
0.0
  0
VERTEX
  5
398
330
396
100
AcDbEntity
  8
BEMAßUNG
 62
     7
100
AcDbVertex
100
AcDb2dVertex
 10
132.0040011605754
 20
197.7512369297289
 30
0.0
  0
SEQEND
  5
399
330
396
100
AcDbEntity
  8
BEMAßUNG
  0
POLYLINE
  5
39A
330
1F
100
AcDbEntity
  8
BEMAßUNG
 62
     7
100
AcDb2dPolyline
 66
     1
 10
0.0
 20
0.0
 30
0.0
  0
VERTEX
  5
39B
330
39A
100
AcDbEntity
  8
BEMAßUNG
 62
     7
100
AcDbVertex
100
AcDb2dVertex
 10
129.2760023005803
 20
197.7000772617729
 30
0.0
  0
VERTEX
  5
39C
330
39A
100
AcDbEntity
  8
BEMAßUNG
 62
     7
100
AcDbVertex
100
AcDb2dVertex
 10
132.3898518549234
 20
197.7000772617729
 30
0.0
  0
SEQEND
  5
39D
330
39A
100
AcDbEntity
  8
BEMAßUNG
  0
POLYLINE
  5
39E
330
1F
100
AcDbEntity
  8
BEMAßUNG
 62
     7
100
AcDb2dPolyline
 66
     1
 10
0.0
 20
0.0
 30
0.0
  0
VERTEX
  5
39F
330
39E
100
AcDbEntity
  8
BEMAßUNG
 62
     7
100
AcDbVertex
100
AcDb2dVertex
 10
129.2760023005803
 20
197.6492621033655
 30
0.0
  0
VERTEX
  5
3A0
330
39E
100
AcDbEntity
  8
BEMAßUNG
 62
     7
100
AcDbVertex
100
AcDb2dVertex
 10
132.7758748040456
 20
197.6492621033655
 30
0.0
  0
SEQEND
  5
3A1
330
39E
100
AcDbEntity
  8
BEMAßUNG
  0
POLYLINE
  5
3A2
330
1F
100
AcDbEntity
  8
BEMAßUNG
 62
     7
100
AcDb2dPolyline
 66
     1
 10
0.0
 20
0.0
 30
0.0
  0
VERTEX
  5
3A3
330
3A2
100
AcDbEntity
  8
BEMAßUNG
 62
     7
100
AcDbVertex
100
AcDb2dVertex
 10
129.2760023005803
 20
197.1924424420213
 30
0.0
  0
VERTEX
  5
3A4
330
3A2
100
AcDbEntity
  8
BEMAßUNG
 62
     7
100
AcDbVertex
100
AcDb2dVertex
 10
129.3030463001395
 20
197.1924424420213
 30
0.0
  0
SEQEND
  5
3A5
330
3A2
100
AcDbEntity
  8
BEMAßUNG
  0
POLYLINE
  5
3A6
330
1F
100
AcDbEntity
  8
BEMAßUNG
 62
     7
100
AcDb2dPolyline
 66
     1
 10
0.0
 20
0.0
 30
0.0
  0
VERTEX
  5
3A7
330
3A6
100
AcDbEntity
  8
BEMAßUNG
 62
     7
100
AcDbVertex
100
AcDb2dVertex
 10
129.2760023005803
 20
197.1924424420213
 30
0.0
  0
VERTEX
  5
3A8
330
3A6
100
AcDbEntity
  8
BEMAßUNG
 62
     7
100
AcDbVertex
100
AcDb2dVertex
 10
129.3030463001395
 20
197.1924424420213
 30
0.0
  0
SEQEND
  5
3A9
330
3A6
100
AcDbEntity
  8
BEMAßUNG
  0
POLYLINE
  5
3AA
330
1F
100
AcDbEntity
  8
BEMAßUNG
 62
     7
100
AcDb2dPolyline
 66
     1
 10
0.0
 20
0.0
 30
0.0
  0
VERTEX
  5
3AB
330
3AA
100
AcDbEntity
  8
BEMAßUNG
 62
     7
100
AcDbVertex
100
AcDb2dVertex
 10
129.2760023005803
 20
197.2429130908803
 30
0.0
  0
VERTEX
  5
3AC
330
3AA
100
AcDbEntity
  8
BEMAßUNG
 62
     7
100
AcDbVertex
100
AcDb2dVertex
 10
129.6890692492618
 20
197.2429130908803
 30
0.0
  0
SEQEND
  5
3AD
330
3AA
100
AcDbEntity
  8
BEMAßUNG
  0
POLYLINE
  5
3AE
330
1F
100
AcDbEntity
  8
BEMAßUNG
 62
     7
100
AcDb2dPolyline
 66
     1
 10
0.0
 20
0.0
 30
0.0
  0
VERTEX
  5
3AF
330
3AE
100
AcDbEntity
  8
BEMAßUNG
 62
     7
100
AcDbVertex
100
AcDb2dVertex
 10
129.2760023005803
 20
197.2937282492877
 30
0.0
  0
VERTEX
  5
3B0
330
3AE
100
AcDbEntity
  8
BEMAßUNG
 62
     7
100
AcDbVertex
100
AcDb2dVertex
 10
130.0749199436098
 20
197.2937282492877
 30
0.0
  0
SEQEND
  5
3B1
330
3AE
100
AcDbEntity
  8
BEMAßUNG
  0
POLYLINE
  5
3B2
330
1F
100
AcDbEntity
  8
BEMAßUNG
 62
     7
100
AcDb2dPolyline
 66
     1
 10
0.0
 20
0.0
 30
0.0
  0
VERTEX
  5
3B3
330
3B2
100
AcDbEntity
  8
BEMAßUNG
 62
     7
100
AcDbVertex
100
AcDb2dVertex
 10
129.2760023005803
 20
197.3445434076951
 30
0.0
  0
VERTEX
  5
3B4
330
3B2
100
AcDbEntity
  8
BEMAßUNG
 62
     7
100
AcDbVertex
100
AcDb2dVertex
 10
130.4605983831835
 20
197.3445434076951
 30
0.0
  0
SEQEND
  5
3B5
330
3B2
100
AcDbEntity
  8
BEMAßUNG
  0
POLYLINE
  5
3B6
330
1F
100
AcDbEntity
  8
BEMAßUNG
 62
     7
100
AcDb2dPolyline
 66
     1
 10
0.0
 20
0.0
 30
0.0
  0
VERTEX
  5
3B7
330
3B6
100
AcDbEntity
  8
BEMAßUNG
 62
     7
100
AcDbVertex
100
AcDb2dVertex
 10
129.2760023005803
 20
197.3953585661025
 30
0.0
  0
VERTEX
  5
3B8
330
3B6
100
AcDbEntity
  8
BEMAßUNG
 62
     7
100
AcDbVertex
100
AcDb2dVertex
 10
130.8464490775314
 20
197.3953585661025
 30
0.0
  0
SEQEND
  5
3B9
330
3B6
100
AcDbEntity
  8
BEMAßUNG
  0
POLYLINE
  5
3BA
330
1F
100
AcDbEntity
  8
BEMAßUNG
 62
     7
100
AcDb2dPolyline
 66
     1
 10
0.0
 20
0.0
 30
0.0
  0
VERTEX
  5
3BB
330
3BA
100
AcDbEntity
  8
BEMAßUNG
 62
     7
100
AcDbVertex
100
AcDb2dVertex
 10
129.2760023005803
 20
197.44617372451
 30
0.0
  0
VERTEX
  5
3BC
330
3BA
100
AcDbEntity
  8
BEMAßUNG
 62
     7
100
AcDbVertex
100
AcDb2dVertex
 10
131.2324720266537
 20
197.44617372451
 30
0.0
  0
SEQEND
  5
3BD
330
3BA
100
AcDbEntity
  8
BEMAßUNG
  0
POLYLINE
  5
3BE
330
1F
100
AcDbEntity
  8
BEMAßUNG
 62
     7
100
AcDb2dPolyline
 66
     1
 10
0.0
 20
0.0
 30
0.0
  0
VERTEX
  5
3BF
330
3BE
100
AcDbEntity
  8
BEMAßUNG
 62
     7
100
AcDbVertex
100
AcDb2dVertex
 10
129.2760023005803
 20
197.4969888829174
 30
0.0
  0
VERTEX
  5
3C0
330
3BE
100
AcDbEntity
  8
BEMAßUNG
 62
     7
100
AcDbVertex
100
AcDb2dVertex
 10
131.6183227210017
 20
197.4969888829174
 30
0.0
  0
SEQEND
  5
3C1
330
3BE
100
AcDbEntity
  8
BEMAßUNG
  0
POLYLINE
  5
3C2
330
1F
100
AcDbEntity
  8
BEMAßUNG
 62
     7
100
AcDb2dPolyline
 66
     1
 10
0.0
 20
0.0
 30
0.0
  0
VERTEX
  5
3C3
330
3C2
100
AcDbEntity
  8
BEMAßUNG
 62
     7
100
AcDbVertex
100
AcDb2dVertex
 10
129.2760023005803
 20
197.5478040413249
 30
0.0
  0
VERTEX
  5
3C4
330
3C2
100
AcDbEntity
  8
BEMAßUNG
 62
     7
100
AcDbVertex
100
AcDb2dVertex
 10
132.0040011605754
 20
197.5478040413249
 30
0.0
  0
SEQEND
  5
3C5
330
3C2
100
AcDbEntity
  8
BEMAßUNG
  0
POLYLINE
  5
3C6
330
1F
100
AcDbEntity
  8
BEMAßUNG
 62
     7
100
AcDb2dPolyline
 66
     1
 10
0.0
 20
0.0
 30
0.0
  0
VERTEX
  5
3C7
330
3C6
100
AcDbEntity
  8
BEMAßUNG
 62
     7
100
AcDbVertex
100
AcDb2dVertex
 10
129.2760023005803
 20
197.5986191997323
 30
0.0
  0
VERTEX
  5
3C8
330
3C6
100
AcDbEntity
  8
BEMAßUNG
 62
     7
100
AcDbVertex
100
AcDb2dVertex
 10
132.3898518549234
 20
197.5986191997323
 30
0.0
  0
SEQEND
  5
3C9
330
3C6
100
AcDbEntity
  8
BEMAßUNG
  0
POLYLINE
  5
3CA
330
1F
100
AcDbEntity
  8
BEMAßUNG
 62
     7
100
AcDb2dPolyline
 66
     1
 10
0.0
 20
0.0
 30
0.0
  0
VERTEX
  5
3CB
330
3CA
100
AcDbEntity
  8
BEMAßUNG
 62
     7
100
AcDbVertex
100
AcDb2dVertex
 10
129.2760023005803
 20
197.6492621033655
 30
0.0
  0
VERTEX
  5
3CC
330
3CA
100
AcDbEntity
  8
BEMAßUNG
 62
     7
100
AcDbVertex
100
AcDb2dVertex
 10
132.7758748040456
 20
197.6492621033655
 30
0.0
  0
SEQEND
  5
3CD
330
3CA
100
AcDbEntity
  8
BEMAßUNG
  0
POLYLINE
  5
3CE
330
1F
100
AcDbEntity
  8
BEMAßUNG
 62
     7
100
AcDb2dPolyline
 66
     1
 10
0.0
 20
0.0
 30
0.0
  0
VERTEX
  5
3CF
330
3CE
100
AcDbEntity
  8
BEMAßUNG
 62
     7
100
AcDbVertex
100
AcDb2dVertex
 10
48.76618786758276
 20
212.6495523556918
 30
0.0
  0
VERTEX
  5
3D0
330
3CE
100
AcDbEntity
  8
BEMAßUNG
 62
     7
100
AcDbVertex
100
AcDb2dVertex
 10
74.64522838845676
 20
212.6495523556918
 30
0.0
  0
SEQEND
  5
3D1
330
3CE
100
AcDbEntity
  8
BEMAßUNG
  0
POLYLINE
  5
3D2
330
1F
100
AcDbEntity
  8
BEMAßUNG
 62
     7
100
AcDb2dPolyline
 66
     1
 10
0.0
 20
0.0
 30
0.0
  0
VERTEX
  5
3D3
330
3D2
100
AcDbEntity
  8
BEMAßUNG
 62
     7
100
AcDbVertex
100
AcDb2dVertex
 10
48.76618786758276
 20
232.6495374309869
 30
0.0
  0
VERTEX
  5
3D4
330
3D2
100
AcDbEntity
  8
BEMAßUNG
 62
     7
100
AcDbVertex
100
AcDb2dVertex
 10
74.64522838845676
 20
232.6495374309869
 30
0.0
  0
SEQEND
  5
3D5
330
3D2
100
AcDbEntity
  8
BEMAßUNG
  0
POLYLINE
  5
3D6
330
1F
100
AcDbEntity
  8
BEMAßUNG
 62
     7
100
AcDb2dPolyline
 66
     1
 10
0.0
 20
0.0
 30
0.0
  0
VERTEX
  5
3D7
330
3D6
100
AcDbEntity
  8
BEMAßUNG
 62
     7
100
AcDbVertex
100
AcDb2dVertex
 10
72.6450059497207
 20
212.6495523556918
 30
0.0
  0
VERTEX
  5
3D8
330
3D6
100
AcDbEntity
  8
BEMAßUNG
 62
     7
100
AcDbVertex
100
AcDb2dVertex
 10
72.6450059497207
 20
232.6495374309869
 30
0.0
  0
SEQEND
  5
3D9
330
3D6
100
AcDbEntity
  8
BEMAßUNG
  0
POLYLINE
  5
3DA
330
1F
100
AcDbEntity
  8
BEMAßUNG
 62
     7
100
AcDb2dPolyline
 66
     1
 10
0.0
 20
0.0
 30
0.0
  0
VERTEX
  5
3DB
330
3DA
100
AcDbEntity
  8
BEMAßUNG
 62
     7
100
AcDbVertex
100
AcDb2dVertex
 10
72.6450059497207
 20
212.6495523556918
 30
0.0
  0
VERTEX
  5
3DC
330
3DA
100
AcDbEntity
  8
BEMAßUNG
 62
     7
100
AcDbVertex
100
AcDb2dVertex
 10
73.10595972564712
 20
216.1497693687056
 30
0.0
  0
VERTEX
  5
3DD
330
3DA
100
AcDbEntity
  8
BEMAßUNG
 62
     7
100
AcDbVertex
100
AcDb2dVertex
 10
72.18422442856853
 20
216.1497693687056
 30
0.0
  0
VERTEX
  5
3DE
330
3DA
100
AcDbEntity
  8
BEMAßUNG
 62
     7
100
AcDbVertex
100
AcDb2dVertex
 10
72.6450059497207
 20
212.6495523556918
 30
0.0
  0
SEQEND
  5
3DF
330
3DA
100
AcDbEntity
  8
BEMAßUNG
  0
POLYLINE
  5
3E0
330
1F
100
AcDbEntity
  8
BEMAßUNG
 62
     7
100
AcDb2dPolyline
 66
     1
 10
0.0
 20
0.0
 30
0.0
  0
VERTEX
  5
3E1
330
3E0
100
AcDbEntity
  8
BEMAßUNG
 62
     7
100
AcDbVertex
100
AcDb2dVertex
 10
73.10217012061335
 20
216.1497693687056
 30
0.0
  0
VERTEX
  5
3E2
330
3E0
100
AcDbEntity
  8
BEMAßUNG
 62
     7
100
AcDbVertex
100
AcDb2dVertex
 10
73.10217012061335
 20
216.1225531143722
 30
0.0
  0
SEQEND
  5
3E3
330
3E0
100
AcDbEntity
  8
BEMAßUNG
  0
POLYLINE
  5
3E4
330
1F
100
AcDbEntity
  8
BEMAßUNG
 62
     7
100
AcDb2dPolyline
 66
     1
 10
0.0
 20
0.0
 30
0.0
  0
VERTEX
  5
3E5
330
3E4
100
AcDbEntity
  8
BEMAßUNG
 62
     7
100
AcDbVertex
100
AcDb2dVertex
 10
73.10217012061335
 20
216.1497693687056
 30
0.0
  0
VERTEX
  5
3E6
330
3E4
100
AcDbEntity
  8
BEMAßUNG
 62
     7
100
AcDbVertex
100
AcDb2dVertex
 10
73.10217012061335
 20
216.1225531143722
 30
0.0
  0
SEQEND
  5
3E7
330
3E4
100
AcDbEntity
  8
BEMAßUNG
  0
POLYLINE
  5
3E8
330
1F
100
AcDbEntity
  8
BEMAßUNG
 62
     7
100
AcDb2dPolyline
 66
     1
 10
0.0
 20
0.0
 30
0.0
  0
VERTEX
  5
3E9
330
3E8
100
AcDbEntity
  8
BEMAßUNG
 62
     7
100
AcDbVertex
100
AcDb2dVertex
 10
73.05169947175445
 20
216.1497693687056
 30
0.0
  0
VERTEX
  5
3EA
330
3E8
100
AcDbEntity
  8
BEMAßUNG
 62
     7
100
AcDbVertex
100
AcDb2dVertex
 10
73.05169947175445
 20
215.7363579104756
 30
0.0
  0
SEQEND
  5
3EB
330
3E8
100
AcDbEntity
  8
BEMAßUNG
  0
POLYLINE
  5
3EC
330
1F
100
AcDbEntity
  8
BEMAßUNG
 62
     7
100
AcDb2dPolyline
 66
     1
 10
0.0
 20
0.0
 30
0.0
  0
VERTEX
  5
3ED
330
3EC
100
AcDbEntity
  8
BEMAßUNG
 62
     7
100
AcDbVertex
100
AcDb2dVertex
 10
73.000884313347
 20
216.1497693687056
 30
0.0
  0
VERTEX
  5
3EE
330
3EC
100
AcDbEntity
  8
BEMAßUNG
 62
     7
100
AcDbVertex
100
AcDb2dVertex
 10
73.000884313347
 20
215.3510239804504
 30
0.0
  0
SEQEND
  5
3EF
330
3EC
100
AcDbEntity
  8
BEMAßUNG
  0
POLYLINE
  5
3F0
330
1F
100
AcDbEntity
  8
BEMAßUNG
 62
     7
100
AcDb2dPolyline
 66
     1
 10
0.0
 20
0.0
 30
0.0
  0
VERTEX
  5
3F1
330
3F0
100
AcDbEntity
  8
BEMAßUNG
 62
     7
100
AcDbVertex
100
AcDb2dVertex
 10
72.95006915493957
 20
216.1497693687056
 30
0.0
  0
VERTEX
  5
3F2
330
3F0
100
AcDbEntity
  8
BEMAßUNG
 62
     7
100
AcDbVertex
100
AcDb2dVertex
 10
72.95006915493957
 20
214.9646565217797
 30
0.0
  0
SEQEND
  5
3F3
330
3F0
100
AcDbEntity
  8
BEMAßUNG
  0
POLYLINE
  5
3F4
330
1F
100
AcDbEntity
  8
BEMAßUNG
 62
     7
100
AcDb2dPolyline
 66
     1
 10
0.0
 20
0.0
 30
0.0
  0
VERTEX
  5
3F5
330
3F4
100
AcDbEntity
  8
BEMAßUNG
 62
     7
100
AcDbVertex
100
AcDb2dVertex
 10
72.89925399653214
 20
216.1497693687056
 30
0.0
  0
VERTEX
  5
3F6
330
3F4
100
AcDbEntity
  8
BEMAßUNG
 62
     7
100
AcDbVertex
100
AcDb2dVertex
 10
72.89925399653214
 20
214.5791503369802
 30
0.0
  0
SEQEND
  5
3F7
330
3F4
100
AcDbEntity
  8
BEMAßUNG
  0
POLYLINE
  5
3F8
330
1F
100
AcDbEntity
  8
BEMAßUNG
 62
     7
100
AcDb2dPolyline
 66
     1
 10
0.0
 20
0.0
 30
0.0
  0
VERTEX
  5
3F9
330
3F8
100
AcDbEntity
  8
BEMAßUNG
 62
     7
100
AcDbVertex
100
AcDb2dVertex
 10
72.8484388381247
 20
216.1497693687056
 30
0.0
  0
VERTEX
  5
3FA
330
3F8
100
AcDbEntity
  8
BEMAßUNG
 62
     7
100
AcDbVertex
100
AcDb2dVertex
 10
72.8484388381247
 20
214.1929551330837
 30
0.0
  0
SEQEND
  5
3FB
330
3F8
100
AcDbEntity
  8
BEMAßUNG
  0
POLYLINE
  5
3FC
330
1F
100
AcDbEntity
  8
BEMAßUNG
 62
     7
100
AcDb2dPolyline
 66
     1
 10
0.0
 20
0.0
 30
0.0
  0
VERTEX
  5
3FD
330
3FC
100
AcDbEntity
  8
BEMAßUNG
 62
     7
100
AcDbVertex
100
AcDb2dVertex
 10
72.79727917016874
 20
216.1497693687056
 30
0.0
  0
VERTEX
  5
3FE
330
3FC
100
AcDbEntity
  8
BEMAßUNG
 62
     7
100
AcDbVertex
100
AcDb2dVertex
 10
72.79727917016874
 20
213.80727669351
 30
0.0
  0
SEQEND
  5
3FF
330
3FC
100
AcDbEntity
  8
BEMAßUNG
  0
POLYLINE
  5
400
330
1F
100
AcDbEntity
  8
BEMAßUNG
 62
     7
100
AcDb2dPolyline
 66
     1
 10
0.0
 20
0.0
 30
0.0
  0
VERTEX
  5
401
330
400
100
AcDbEntity
  8
BEMAßUNG
 62
     7
100
AcDbVertex
100
AcDb2dVertex
 10
72.7464640117613
 20
216.1497693687056
 30
0.0
  0
VERTEX
  5
402
330
400
100
AcDbEntity
  8
BEMAßUNG
 62
     7
100
AcDbVertex
100
AcDb2dVertex
 10
72.7464640117613
 20
213.4212537443877
 30
0.0
  0
SEQEND
  5
403
330
400
100
AcDbEntity
  8
BEMAßUNG
  0
POLYLINE
  5
404
330
1F
100
AcDbEntity
  8
BEMAßUNG
 62
     7
100
AcDb2dPolyline
 66
     1
 10
0.0
 20
0.0
 30
0.0
  0
VERTEX
  5
405
330
404
100
AcDbEntity
  8
BEMAßUNG
 62
     7
100
AcDbVertex
100
AcDb2dVertex
 10
72.69564885335387
 20
216.1497693687056
 30
0.0
  0
VERTEX
  5
406
330
404
100
AcDbEntity
  8
BEMAßUNG
 62
     7
100
AcDbVertex
100
AcDb2dVertex
 10
72.69564885335387
 20
213.0357475595883
 30
0.0
  0
SEQEND
  5
407
330
404
100
AcDbEntity
  8
BEMAßUNG
  0
POLYLINE
  5
408
330
1F
100
AcDbEntity
  8
BEMAßUNG
 62
     7
100
AcDb2dPolyline
 66
     1
 10
0.0
 20
0.0
 30
0.0
  0
VERTEX
  5
409
330
408
100
AcDbEntity
  8
BEMAßUNG
 62
     7
100
AcDbVertex
100
AcDb2dVertex
 10
72.6450059497207
 20
216.1497693687056
 30
0.0
  0
VERTEX
  5
40A
330
408
100
AcDbEntity
  8
BEMAßUNG
 62
     7
100
AcDbVertex
100
AcDb2dVertex
 10
72.6450059497207
 20
212.6495523556918
 30
0.0
  0
SEQEND
  5
40B
330
408
100
AcDbEntity
  8
BEMAßUNG
  0
POLYLINE
  5
40C
330
1F
100
AcDbEntity
  8
BEMAßUNG
 62
     7
100
AcDb2dPolyline
 66
     1
 10
0.0
 20
0.0
 30
0.0
  0
VERTEX
  5
40D
330
40C
100
AcDbEntity
  8
BEMAßUNG
 62
     7
100
AcDbVertex
100
AcDb2dVertex
 10
72.18766952405377
 20
216.1497693687056
 30
0.0
  0
VERTEX
  5
40E
330
40C
100
AcDbEntity
  8
BEMAßUNG
 62
     7
100
AcDbVertex
100
AcDb2dVertex
 10
72.18766952405377
 20
216.1225531143722
 30
0.0
  0
SEQEND
  5
40F
330
40C
100
AcDbEntity
  8
BEMAßUNG
  0
POLYLINE
  5
410
330
1F
100
AcDbEntity
  8
BEMAßUNG
 62
     7
100
AcDb2dPolyline
 66
     1
 10
0.0
 20
0.0
 30
0.0
  0
VERTEX
  5
411
330
410
100
AcDbEntity
  8
BEMAßUNG
 62
     7
100
AcDbVertex
100
AcDb2dVertex
 10
72.18766952405377
 20
216.1497693687056
 30
0.0
  0
VERTEX
  5
412
330
410
100
AcDbEntity
  8
BEMAßUNG
 62
     7
100
AcDbVertex
100
AcDb2dVertex
 10
72.18766952405377
 20
216.1225531143722
 30
0.0
  0
SEQEND
  5
413
330
410
100
AcDbEntity
  8
BEMAßUNG
  0
POLYLINE
  5
414
330
1F
100
AcDbEntity
  8
BEMAßUNG
 62
     7
100
AcDb2dPolyline
 66
     1
 10
0.0
 20
0.0
 30
0.0
  0
VERTEX
  5
415
330
414
100
AcDbEntity
  8
BEMAßUNG
 62
     7
100
AcDbVertex
100
AcDb2dVertex
 10
72.23848468246122
 20
216.1497693687056
 30
0.0
  0
VERTEX
  5
416
330
414
100
AcDbEntity
  8
BEMAßUNG
 62
     7
100
AcDbVertex
100
AcDb2dVertex
 10
72.23848468246122
 20
215.7363579104756
 30
0.0
  0
SEQEND
  5
417
330
414
100
AcDbEntity
  8
BEMAßUNG
  0
POLYLINE
  5
418
330
1F
100
AcDbEntity
  8
BEMAßUNG
 62
     7
100
AcDb2dPolyline
 66
     1
 10
0.0
 20
0.0
 30
0.0
  0
VERTEX
  5
419
330
418
100
AcDbEntity
  8
BEMAßUNG
 62
     7
100
AcDbVertex
100
AcDb2dVertex
 10
72.28964435041718
 20
216.1497693687056
 30
0.0
  0
VERTEX
  5
41A
330
418
100
AcDbEntity
  8
BEMAßUNG
 62
     7
100
AcDbVertex
100
AcDb2dVertex
 10
72.28964435041718
 20
215.3510239804504
 30
0.0
  0
SEQEND
  5
41B
330
418
100
AcDbEntity
  8
BEMAßUNG
  0
POLYLINE
  5
41C
330
1F
100
AcDbEntity
  8
BEMAßUNG
 62
     7
100
AcDb2dPolyline
 66
     1
 10
0.0
 20
0.0
 30
0.0
  0
VERTEX
  5
41D
330
41C
100
AcDbEntity
  8
BEMAßUNG
 62
     7
100
AcDbVertex
100
AcDb2dVertex
 10
72.34045950882461
 20
216.1497693687056
 30
0.0
  0
VERTEX
  5
41E
330
41C
100
AcDbEntity
  8
BEMAßUNG
 62
     7
100
AcDbVertex
100
AcDb2dVertex
 10
72.34045950882461
 20
214.9646565217797
 30
0.0
  0
SEQEND
  5
41F
330
41C
100
AcDbEntity
  8
BEMAßUNG
  0
POLYLINE
  5
420
330
1F
100
AcDbEntity
  8
BEMAßUNG
 62
     7
100
AcDb2dPolyline
 66
     1
 10
0.0
 20
0.0
 30
0.0
  0
VERTEX
  5
421
330
420
100
AcDbEntity
  8
BEMAßUNG
 62
     7
100
AcDbVertex
100
AcDb2dVertex
 10
72.39127466723204
 20
216.1497693687056
 30
0.0
  0
VERTEX
  5
422
330
420
100
AcDbEntity
  8
BEMAßUNG
 62
     7
100
AcDbVertex
100
AcDb2dVertex
 10
72.39127466723204
 20
214.5791503369802
 30
0.0
  0
SEQEND
  5
423
330
420
100
AcDbEntity
  8
BEMAßUNG
  0
POLYLINE
  5
424
330
1F
100
AcDbEntity
  8
BEMAßUNG
 62
     7
100
AcDb2dPolyline
 66
     1
 10
0.0
 20
0.0
 30
0.0
  0
VERTEX
  5
425
330
424
100
AcDbEntity
  8
BEMAßUNG
 62
     7
100
AcDbVertex
100
AcDb2dVertex
 10
72.44208982563948
 20
216.1497693687056
 30
0.0
  0
VERTEX
  5
426
330
424
100
AcDbEntity
  8
BEMAßUNG
 62
     7
100
AcDbVertex
100
AcDb2dVertex
 10
72.44208982563948
 20
214.1929551330837
 30
0.0
  0
SEQEND
  5
427
330
424
100
AcDbEntity
  8
BEMAßUNG
  0
POLYLINE
  5
428
330
1F
100
AcDbEntity
  8
BEMAßUNG
 62
     7
100
AcDb2dPolyline
 66
     1
 10
0.0
 20
0.0
 30
0.0
  0
VERTEX
  5
429
330
428
100
AcDbEntity
  8
BEMAßUNG
 62
     7
100
AcDbVertex
100
AcDb2dVertex
 10
72.49290498404692
 20
216.1497693687056
 30
0.0
  0
VERTEX
  5
42A
330
428
100
AcDbEntity
  8
BEMAßUNG
 62
     7
100
AcDbVertex
100
AcDb2dVertex
 10
72.49290498404692
 20
213.80727669351
 30
0.0
  0
SEQEND
  5
42B
330
428
100
AcDbEntity
  8
BEMAßUNG
  0
POLYLINE
  5
42C
330
1F
100
AcDbEntity
  8
BEMAßUNG
 62
     7
100
AcDb2dPolyline
 66
     1
 10
0.0
 20
0.0
 30
0.0
  0
VERTEX
  5
42D
330
42C
100
AcDbEntity
  8
BEMAßUNG
 62
     7
100
AcDbVertex
100
AcDb2dVertex
 10
72.54372014245435
 20
216.1497693687056
 30
0.0
  0
VERTEX
  5
42E
330
42C
100
AcDbEntity
  8
BEMAßUNG
 62
     7
100
AcDbVertex
100
AcDb2dVertex
 10
72.54372014245435
 20
213.4212537443877
 30
0.0
  0
SEQEND
  5
42F
330
42C
100
AcDbEntity
  8
BEMAßUNG
  0
POLYLINE
  5
430
330
1F
100
AcDbEntity
  8
BEMAßUNG
 62
     7
100
AcDb2dPolyline
 66
     1
 10
0.0
 20
0.0
 30
0.0
  0
VERTEX
  5
431
330
430
100
AcDbEntity
  8
BEMAßUNG
 62
     7
100
AcDbVertex
100
AcDb2dVertex
 10
72.59419079131327
 20
216.1497693687056
 30
0.0
  0
VERTEX
  5
432
330
430
100
AcDbEntity
  8
BEMAßUNG
 62
     7
100
AcDbVertex
100
AcDb2dVertex
 10
72.59419079131327
 20
213.0357475595883
 30
0.0
  0
SEQEND
  5
433
330
430
100
AcDbEntity
  8
BEMAßUNG
  0
POLYLINE
  5
434
330
1F
100
AcDbEntity
  8
BEMAßUNG
 62
     7
100
AcDb2dPolyline
 66
     1
 10
0.0
 20
0.0
 30
0.0
  0
VERTEX
  5
435
330
434
100
AcDbEntity
  8
BEMAßUNG
 62
     7
100
AcDbVertex
100
AcDb2dVertex
 10
72.6450059497207
 20
216.1497693687056
 30
0.0
  0
VERTEX
  5
436
330
434
100
AcDbEntity
  8
BEMAßUNG
 62
     7
100
AcDbVertex
100
AcDb2dVertex
 10
72.6450059497207
 20
212.6495523556918
 30
0.0
  0
SEQEND
  5
437
330
434
100
AcDbEntity
  8
BEMAßUNG
  0
POLYLINE
  5
438
330
1F
100
AcDbEntity
  8
BEMAßUNG
 62
     7
100
AcDb2dPolyline
 66
     1
 10
0.0
 20
0.0
 30
0.0
  0
VERTEX
  5
439
330
438
100
AcDbEntity
  8
BEMAßUNG
 62
     7
100
AcDbVertex
100
AcDb2dVertex
 10
72.6450059497207
 20
232.6495374309869
 30
0.0
  0
VERTEX
  5
43A
330
438
100
AcDbEntity
  8
BEMAßUNG
 62
     7
100
AcDbVertex
100
AcDb2dVertex
 10
72.18422442856853
 20
229.1498371822959
 30
0.0
  0
VERTEX
  5
43B
330
438
100
AcDbEntity
  8
BEMAßUNG
 62
     7
100
AcDbVertex
100
AcDb2dVertex
 10
73.10595972564712
 20
229.1498371822959
 30
0.0
  0
VERTEX
  5
43C
330
438
100
AcDbEntity
  8
BEMAßUNG
 62
     7
100
AcDbVertex
100
AcDb2dVertex
 10
72.6450059497207
 20
232.6495374309869
 30
0.0
  0
SEQEND
  5
43D
330
438
100
AcDbEntity
  8
BEMAßUNG
  0
POLYLINE
  5
43E
330
1F
100
AcDbEntity
  8
BEMAßUNG
 62
     7
100
AcDb2dPolyline
 66
     1
 10
0.0
 20
0.0
 30
0.0
  0
VERTEX
  5
43F
330
43E
100
AcDbEntity
  8
BEMAßUNG
 62
     7
100
AcDbVertex
100
AcDb2dVertex
 10
72.18766952405377
 20
229.1498371822959
 30
0.0
  0
VERTEX
  5
440
330
43E
100
AcDbEntity
  8
BEMAßUNG
 62
     7
100
AcDbVertex
100
AcDb2dVertex
 10
72.18766952405377
 20
229.1770534366294
 30
0.0
  0
SEQEND
  5
441
330
43E
100
AcDbEntity
  8
BEMAßUNG
  0
POLYLINE
  5
442
330
1F
100
AcDbEntity
  8
BEMAßUNG
 62
     7
100
AcDb2dPolyline
 66
     1
 10
0.0
 20
0.0
 30
0.0
  0
VERTEX
  5
443
330
442
100
AcDbEntity
  8
BEMAßUNG
 62
     7
100
AcDbVertex
100
AcDb2dVertex
 10
72.18766952405377
 20
229.1498371822959
 30
0.0
  0
VERTEX
  5
444
330
442
100
AcDbEntity
  8
BEMAßUNG
 62
     7
100
AcDbVertex
100
AcDb2dVertex
 10
72.18766952405377
 20
229.1770534366294
 30
0.0
  0
SEQEND
  5
445
330
442
100
AcDbEntity
  8
BEMAßUNG
  0
POLYLINE
  5
446
330
1F
100
AcDbEntity
  8
BEMAßUNG
 62
     7
100
AcDb2dPolyline
 66
     1
 10
0.0
 20
0.0
 30
0.0
  0
VERTEX
  5
447
330
446
100
AcDbEntity
  8
BEMAßUNG
 62
     7
100
AcDbVertex
100
AcDb2dVertex
 10
72.23848468246122
 20
229.1498371822959
 30
0.0
  0
VERTEX
  5
448
330
446
100
AcDbEntity
  8
BEMAßUNG
 62
     7
100
AcDbVertex
100
AcDb2dVertex
 10
72.23848468246122
 20
229.5627318762031
 30
0.0
  0
SEQEND
  5
449
330
446
100
AcDbEntity
  8
BEMAßUNG
  0
POLYLINE
  5
44A
330
1F
100
AcDbEntity
  8
BEMAßUNG
 62
     7
100
AcDb2dPolyline
 66
     1
 10
0.0
 20
0.0
 30
0.0
  0
VERTEX
  5
44B
330
44A
100
AcDbEntity
  8
BEMAßUNG
 62
     7
100
AcDbVertex
100
AcDb2dVertex
 10
72.28964435041718
 20
229.1498371822959
 30
0.0
  0
VERTEX
  5
44C
330
44A
100
AcDbEntity
  8
BEMAßUNG
 62
     7
100
AcDbVertex
100
AcDb2dVertex
 10
72.28964435041718
 20
229.9489270800996
 30
0.0
  0
SEQEND
  5
44D
330
44A
100
AcDbEntity
  8
BEMAßUNG
  0
POLYLINE
  5
44E
330
1F
100
AcDbEntity
  8
BEMAßUNG
 62
     7
100
AcDb2dPolyline
 66
     1
 10
0.0
 20
0.0
 30
0.0
  0
VERTEX
  5
44F
330
44E
100
AcDbEntity
  8
BEMAßUNG
 62
     7
100
AcDbVertex
100
AcDb2dVertex
 10
72.34045950882461
 20
229.1498371822959
 30
0.0
  0
VERTEX
  5
450
330
44E
100
AcDbEntity
  8
BEMAßUNG
 62
     7
100
AcDbVertex
100
AcDb2dVertex
 10
72.34045950882461
 20
230.3342610101248
 30
0.0
  0
SEQEND
  5
451
330
44E
100
AcDbEntity
  8
BEMAßUNG
  0
POLYLINE
  5
452
330
1F
100
AcDbEntity
  8
BEMAßUNG
 62
     7
100
AcDb2dPolyline
 66
     1
 10
0.0
 20
0.0
 30
0.0
  0
VERTEX
  5
453
330
452
100
AcDbEntity
  8
BEMAßUNG
 62
     7
100
AcDbVertex
100
AcDb2dVertex
 10
72.39127466723204
 20
229.1498371822959
 30
0.0
  0
VERTEX
  5
454
330
452
100
AcDbEntity
  8
BEMAßUNG
 62
     7
100
AcDbVertex
100
AcDb2dVertex
 10
72.39127466723204
 20
230.7204562140213
 30
0.0
  0
SEQEND
  5
455
330
452
100
AcDbEntity
  8
BEMAßUNG
  0
POLYLINE
  5
456
330
1F
100
AcDbEntity
  8
BEMAßUNG
 62
     7
100
AcDb2dPolyline
 66
     1
 10
0.0
 20
0.0
 30
0.0
  0
VERTEX
  5
457
330
456
100
AcDbEntity
  8
BEMAßUNG
 62
     7
100
AcDbVertex
100
AcDb2dVertex
 10
72.44208982563948
 20
229.1498371822959
 30
0.0
  0
VERTEX
  5
458
330
456
100
AcDbEntity
  8
BEMAßUNG
 62
     7
100
AcDbVertex
100
AcDb2dVertex
 10
72.44208982563948
 20
231.106134653595
 30
0.0
  0
SEQEND
  5
459
330
456
100
AcDbEntity
  8
BEMAßUNG
  0
POLYLINE
  5
45A
330
1F
100
AcDbEntity
  8
BEMAßUNG
 62
     7
100
AcDb2dPolyline
 66
     1
 10
0.0
 20
0.0
 30
0.0
  0
VERTEX
  5
45B
330
45A
100
AcDbEntity
  8
BEMAßUNG
 62
     7
100
AcDbVertex
100
AcDb2dVertex
 10
72.49290498404692
 20
229.1498371822959
 30
0.0
  0
VERTEX
  5
45C
330
45A
100
AcDbEntity
  8
BEMAßUNG
 62
     7
100
AcDbVertex
100
AcDb2dVertex
 10
72.49290498404692
 20
231.4923298574915
 30
0.0
  0
SEQEND
  5
45D
330
45A
100
AcDbEntity
  8
BEMAßUNG
  0
POLYLINE
  5
45E
330
1F
100
AcDbEntity
  8
BEMAßUNG
 62
     7
100
AcDb2dPolyline
 66
     1
 10
0.0
 20
0.0
 30
0.0
  0
VERTEX
  5
45F
330
45E
100
AcDbEntity
  8
BEMAßUNG
 62
     7
100
AcDbVertex
100
AcDb2dVertex
 10
72.54372014245435
 20
229.1498371822959
 30
0.0
  0
VERTEX
  5
460
330
45E
100
AcDbEntity
  8
BEMAßUNG
 62
     7
100
AcDbVertex
100
AcDb2dVertex
 10
72.54372014245435
 20
231.8776637875167
 30
0.0
  0
SEQEND
  5
461
330
45E
100
AcDbEntity
  8
BEMAßUNG
  0
POLYLINE
  5
462
330
1F
100
AcDbEntity
  8
BEMAßUNG
 62
     7
100
AcDb2dPolyline
 66
     1
 10
0.0
 20
0.0
 30
0.0
  0
VERTEX
  5
463
330
462
100
AcDbEntity
  8
BEMAßUNG
 62
     7
100
AcDbVertex
100
AcDb2dVertex
 10
72.59419079131327
 20
229.1498371822959
 30
0.0
  0
VERTEX
  5
464
330
462
100
AcDbEntity
  8
BEMAßUNG
 62
     7
100
AcDbVertex
100
AcDb2dVertex
 10
72.59419079131327
 20
232.2638589914132
 30
0.0
  0
SEQEND
  5
465
330
462
100
AcDbEntity
  8
BEMAßUNG
  0
POLYLINE
  5
466
330
1F
100
AcDbEntity
  8
BEMAßUNG
 62
     7
100
AcDb2dPolyline
 66
     1
 10
0.0
 20
0.0
 30
0.0
  0
VERTEX
  5
467
330
466
100
AcDbEntity
  8
BEMAßUNG
 62
     7
100
AcDbVertex
100
AcDb2dVertex
 10
72.6450059497207
 20
229.1498371822959
 30
0.0
  0
VERTEX
  5
468
330
466
100
AcDbEntity
  8
BEMAßUNG
 62
     7
100
AcDbVertex
100
AcDb2dVertex
 10
72.6450059497207
 20
232.6495374309869
 30
0.0
  0
SEQEND
  5
469
330
466
100
AcDbEntity
  8
BEMAßUNG
  0
POLYLINE
  5
46A
330
1F
100
AcDbEntity
  8
BEMAßUNG
 62
     7
100
AcDb2dPolyline
 66
     1
 10
0.0
 20
0.0
 30
0.0
  0
VERTEX
  5
46B
330
46A
100
AcDbEntity
  8
BEMAßUNG
 62
     7
100
AcDbVertex
100
AcDb2dVertex
 10
73.10217012061335
 20
229.1498371822959
 30
0.0
  0
VERTEX
  5
46C
330
46A
100
AcDbEntity
  8
BEMAßUNG
 62
     7
100
AcDbVertex
100
AcDb2dVertex
 10
73.10217012061335
 20
229.1770534366294
 30
0.0
  0
SEQEND
  5
46D
330
46A
100
AcDbEntity
  8
BEMAßUNG
  0
POLYLINE
  5
46E
330
1F
100
AcDbEntity
  8
BEMAßUNG
 62
     7
100
AcDb2dPolyline
 66
     1
 10
0.0
 20
0.0
 30
0.0
  0
VERTEX
  5
46F
330
46E
100
AcDbEntity
  8
BEMAßUNG
 62
     7
100
AcDbVertex
100
AcDb2dVertex
 10
73.10217012061335
 20
229.1498371822959
 30
0.0
  0
VERTEX
  5
470
330
46E
100
AcDbEntity
  8
BEMAßUNG
 62
     7
100
AcDbVertex
100
AcDb2dVertex
 10
73.10217012061335
 20
229.1770534366294
 30
0.0
  0
SEQEND
  5
471
330
46E
100
AcDbEntity
  8
BEMAßUNG
  0
POLYLINE
  5
472
330
1F
100
AcDbEntity
  8
BEMAßUNG
 62
     7
100
AcDb2dPolyline
 66
     1
 10
0.0
 20
0.0
 30
0.0
  0
VERTEX
  5
473
330
472
100
AcDbEntity
  8
BEMAßUNG
 62
     7
100
AcDbVertex
100
AcDb2dVertex
 10
73.05169947175445
 20
229.1498371822959
 30
0.0
  0
VERTEX
  5
474
330
472
100
AcDbEntity
  8
BEMAßUNG
 62
     7
100
AcDbVertex
100
AcDb2dVertex
 10
73.05169947175445
 20
229.5627318762031
 30
0.0
  0
SEQEND
  5
475
330
472
100
AcDbEntity
  8
BEMAßUNG
  0
POLYLINE
  5
476
330
1F
100
AcDbEntity
  8
BEMAßUNG
 62
     7
100
AcDb2dPolyline
 66
     1
 10
0.0
 20
0.0
 30
0.0
  0
VERTEX
  5
477
330
476
100
AcDbEntity
  8
BEMAßUNG
 62
     7
100
AcDbVertex
100
AcDb2dVertex
 10
73.000884313347
 20
229.1498371822959
 30
0.0
  0
VERTEX
  5
478
330
476
100
AcDbEntity
  8
BEMAßUNG
 62
     7
100
AcDbVertex
100
AcDb2dVertex
 10
73.000884313347
 20
229.9489270800996
 30
0.0
  0
SEQEND
  5
479
330
476
100
AcDbEntity
  8
BEMAßUNG
  0
POLYLINE
  5
47A
330
1F
100
AcDbEntity
  8
BEMAßUNG
 62
     7
100
AcDb2dPolyline
 66
     1
 10
0.0
 20
0.0
 30
0.0
  0
VERTEX
  5
47B
330
47A
100
AcDbEntity
  8
BEMAßUNG
 62
     7
100
AcDbVertex
100
AcDb2dVertex
 10
72.95006915493957
 20
229.1498371822959
 30
0.0
  0
VERTEX
  5
47C
330
47A
100
AcDbEntity
  8
BEMAßUNG
 62
     7
100
AcDbVertex
100
AcDb2dVertex
 10
72.95006915493957
 20
230.3342610101248
 30
0.0
  0
SEQEND
  5
47D
330
47A
100
AcDbEntity
  8
BEMAßUNG
  0
POLYLINE
  5
47E
330
1F
100
AcDbEntity
  8
BEMAßUNG
 62
     7
100
AcDb2dPolyline
 66
     1
 10
0.0
 20
0.0
 30
0.0
  0
VERTEX
  5
47F
330
47E
100
AcDbEntity
  8
BEMAßUNG
 62
     7
100
AcDbVertex
100
AcDb2dVertex
 10
72.89925399653214
 20
229.1498371822959
 30
0.0
  0
VERTEX
  5
480
330
47E
100
AcDbEntity
  8
BEMAßUNG
 62
     7
100
AcDbVertex
100
AcDb2dVertex
 10
72.89925399653214
 20
230.7204562140213
 30
0.0
  0
SEQEND
  5
481
330
47E
100
AcDbEntity
  8
BEMAßUNG
  0
POLYLINE
  5
482
330
1F
100
AcDbEntity
  8
BEMAßUNG
 62
     7
100
AcDb2dPolyline
 66
     1
 10
0.0
 20
0.0
 30
0.0
  0
VERTEX
  5
483
330
482
100
AcDbEntity
  8
BEMAßUNG
 62
     7
100
AcDbVertex
100
AcDb2dVertex
 10
72.8484388381247
 20
229.1498371822959
 30
0.0
  0
VERTEX
  5
484
330
482
100
AcDbEntity
  8
BEMAßUNG
 62
     7
100
AcDbVertex
100
AcDb2dVertex
 10
72.8484388381247
 20
231.106134653595
 30
0.0
  0
SEQEND
  5
485
330
482
100
AcDbEntity
  8
BEMAßUNG
  0
POLYLINE
  5
486
330
1F
100
AcDbEntity
  8
BEMAßUNG
 62
     7
100
AcDb2dPolyline
 66
     1
 10
0.0
 20
0.0
 30
0.0
  0
VERTEX
  5
487
330
486
100
AcDbEntity
  8
BEMAßUNG
 62
     7
100
AcDbVertex
100
AcDb2dVertex
 10
72.79727917016874
 20
229.1498371822959
 30
0.0
  0
VERTEX
  5
488
330
486
100
AcDbEntity
  8
BEMAßUNG
 62
     7
100
AcDbVertex
100
AcDb2dVertex
 10
72.79727917016874
 20
231.4923298574915
 30
0.0
  0
SEQEND
  5
489
330
486
100
AcDbEntity
  8
BEMAßUNG
  0
POLYLINE
  5
48A
330
1F
100
AcDbEntity
  8
BEMAßUNG
 62
     7
100
AcDb2dPolyline
 66
     1
 10
0.0
 20
0.0
 30
0.0
  0
VERTEX
  5
48B
330
48A
100
AcDbEntity
  8
BEMAßUNG
 62
     7
100
AcDbVertex
100
AcDb2dVertex
 10
72.7464640117613
 20
229.1498371822959
 30
0.0
  0
VERTEX
  5
48C
330
48A
100
AcDbEntity
  8
BEMAßUNG
 62
     7
100
AcDbVertex
100
AcDb2dVertex
 10
72.7464640117613
 20
231.8776637875167
 30
0.0
  0
SEQEND
  5
48D
330
48A
100
AcDbEntity
  8
BEMAßUNG
  0
POLYLINE
  5
48E
330
1F
100
AcDbEntity
  8
BEMAßUNG
 62
     7
100
AcDb2dPolyline
 66
     1
 10
0.0
 20
0.0
 30
0.0
  0
VERTEX
  5
48F
330
48E
100
AcDbEntity
  8
BEMAßUNG
 62
     7
100
AcDbVertex
100
AcDb2dVertex
 10
72.69564885335387
 20
229.1498371822959
 30
0.0
  0
VERTEX
  5
490
330
48E
100
AcDbEntity
  8
BEMAßUNG
 62
     7
100
AcDbVertex
100
AcDb2dVertex
 10
72.69564885335387
 20
232.2638589914132
 30
0.0
  0
SEQEND
  5
491
330
48E
100
AcDbEntity
  8
BEMAßUNG
  0
POLYLINE
  5
492
330
1F
100
AcDbEntity
  8
BEMAßUNG
 62
     7
100
AcDb2dPolyline
 66
     1
 10
0.0
 20
0.0
 30
0.0
  0
VERTEX
  5
493
330
492
100
AcDbEntity
  8
BEMAßUNG
 62
     7
100
AcDbVertex
100
AcDb2dVertex
 10
72.6450059497207
 20
229.1498371822959
 30
0.0
  0
VERTEX
  5
494
330
492
100
AcDbEntity
  8
BEMAßUNG
 62
     7
100
AcDbVertex
100
AcDb2dVertex
 10
72.6450059497207
 20
232.6495374309869
 30
0.0
  0
SEQEND
  5
495
330
492
100
AcDbEntity
  8
BEMAßUNG
  0
POLYLINE
  5
496
330
1F
100
AcDbEntity
  8
BEMAßUNG
 62
     7
100
AcDb2dPolyline
 66
     1
 10
0.0
 20
0.0
 30
0.0
  0
VERTEX
  5
497
330
496
100
AcDbEntity
  8
BEMAßUNG
 62
     7
100
AcDbVertex
100
AcDb2dVertex
 10
46.18598360390489
 20
222.6496310207265
 30
0.0
  0
VERTEX
  5
498
330
496
100
AcDbEntity
  8
BEMAßUNG
 62
     7
100
AcDbVertex
100
AcDb2dVertex
 10
46.18598360390489
 20
249.6498778672751
 30
0.0
  0
SEQEND
  5
499
330
496
100
AcDbEntity
  8
BEMAßUNG
  0
POLYLINE
  5
49A
330
1F
100
AcDbEntity
  8
BEMAßUNG
 62
     7
100
AcDb2dPolyline
 66
     1
 10
0.0
 20
0.0
 30
0.0
  0
VERTEX
  5
49B
330
49A
100
AcDbEntity
  8
BEMAßUNG
 62
     7
100
AcDbVertex
100
AcDb2dVertex
 10
36.18624944841871
 20
233.1494207858967
 30
0.0
  0
VERTEX
  5
49C
330
49A
100
AcDbEntity
  8
BEMAßUNG
 62
     7
100
AcDbVertex
100
AcDb2dVertex
 10
36.18624944841871
 20
249.6498778672751
 30
0.0
  0
SEQEND
  5
49D
330
49A
100
AcDbEntity
  8
BEMAßUNG
  0
POLYLINE
  5
49E
330
1F
100
AcDbEntity
  8
BEMAßUNG
 62
     7
100
AcDb2dPolyline
 66
     1
 10
0.0
 20
0.0
 30
0.0
  0
VERTEX
  5
49F
330
49E
100
AcDbEntity
  8
BEMAßUNG
 62
     7
100
AcDbVertex
100
AcDb2dVertex
 10
46.18598360390489
 20
247.6499999380875
 30
0.0
  0
VERTEX
  5
4A0
330
49E
100
AcDbEntity
  8
BEMAßUNG
 62
     7
100
AcDbVertex
100
AcDb2dVertex
 10
36.18624944841871
 20
247.6499999380875
 30
0.0
  0
SEQEND
  5
4A1
330
49E
100
AcDbEntity
  8
BEMAßUNG
  0
POLYLINE
  5
4A2
330
1F
100
AcDbEntity
  8
BEMAßUNG
 62
     7
100
AcDb2dPolyline
 66
     1
 10
0.0
 20
0.0
 30
0.0
  0
VERTEX
  5
4A3
330
4A2
100
AcDbEntity
  8
BEMAßUNG
 62
     7
100
AcDbVertex
100
AcDb2dVertex
 10
46.18598360390489
 20
247.6499999380875
 30
0.0
  0
VERTEX
  5
4A4
330
4A2
100
AcDbEntity
  8
BEMAßUNG
 62
     7
100
AcDbVertex
100
AcDb2dVertex
 10
42.68611110043958
 20
248.1102646949169
 30
0.0
  0
VERTEX
  5
4A5
330
4A2
100
AcDbEntity
  8
BEMAßUNG
 62
     7
100
AcDbVertex
100
AcDb2dVertex
 10
42.68611110043958
 20
247.1892184169353
 30
0.0
  0
VERTEX
  5
4A6
330
4A2
100
AcDbEntity
  8
BEMAßUNG
 62
     7
100
AcDbVertex
100
AcDb2dVertex
 10
46.18598360390489
 20
247.6499999380875
 30
0.0
  0
SEQEND
  5
4A7
330
4A2
100
AcDbEntity
  8
BEMAßUNG
  0
POLYLINE
  5
4A8
330
1F
100
AcDbEntity
  8
BEMAßUNG
 62
     7
100
AcDb2dPolyline
 66
     1
 10
0.0
 20
0.0
 30
0.0
  0
VERTEX
  5
4A9
330
4A8
100
AcDbEntity
  8
BEMAßUNG
 62
     7
100
AcDbVertex
100
AcDb2dVertex
 10
42.68611110043958
 20
248.1068195994316
 30
0.0
  0
VERTEX
  5
4AA
330
4A8
100
AcDbEntity
  8
BEMAßUNG
 62
     7
100
AcDbVertex
100
AcDb2dVertex
 10
42.71332735477306
 20
248.1068195994316
 30
0.0
  0
SEQEND
  5
4AB
330
4A8
100
AcDbEntity
  8
BEMAßUNG
  0
POLYLINE
  5
4AC
330
1F
100
AcDbEntity
  8
BEMAßUNG
 62
     7
100
AcDb2dPolyline
 66
     1
 10
0.0
 20
0.0
 30
0.0
  0
VERTEX
  5
4AD
330
4AC
100
AcDbEntity
  8
BEMAßUNG
 62
     7
100
AcDbVertex
100
AcDb2dVertex
 10
42.68611110043958
 20
248.1068195994316
 30
0.0
  0
VERTEX
  5
4AE
330
4AC
100
AcDbEntity
  8
BEMAßUNG
 62
     7
100
AcDbVertex
100
AcDb2dVertex
 10
42.71332735477306
 20
248.1068195994316
 30
0.0
  0
SEQEND
  5
4AF
330
4AC
100
AcDbEntity
  8
BEMAßUNG
  0
POLYLINE
  5
4B0
330
1F
100
AcDbEntity
  8
BEMAßUNG
 62
     7
100
AcDb2dPolyline
 66
     1
 10
0.0
 20
0.0
 30
0.0
  0
VERTEX
  5
4B1
330
4B0
100
AcDbEntity
  8
BEMAßUNG
 62
     7
100
AcDbVertex
100
AcDb2dVertex
 10
42.68611110043958
 20
248.0560044410242
 30
0.0
  0
VERTEX
  5
4B2
330
4B0
100
AcDbEntity
  8
BEMAßUNG
 62
     7
100
AcDbVertex
100
AcDb2dVertex
 10
43.09917804912104
 20
248.0560044410242
 30
0.0
  0
SEQEND
  5
4B3
330
4B0
100
AcDbEntity
  8
BEMAßUNG
  0
POLYLINE
  5
4B4
330
1F
100
AcDbEntity
  8
BEMAßUNG
 62
     7
100
AcDb2dPolyline
 66
     1
 10
0.0
 20
0.0
 30
0.0
  0
VERTEX
  5
4B5
330
4B4
100
AcDbEntity
  8
BEMAßUNG
 62
     7
100
AcDbVertex
100
AcDb2dVertex
 10
42.68611110043958
 20
248.0051892826168
 30
0.0
  0
VERTEX
  5
4B6
330
4B4
100
AcDbEntity
  8
BEMAßUNG
 62
     7
100
AcDbVertex
100
AcDb2dVertex
 10
43.48520099824329
 20
248.0051892826168
 30
0.0
  0
SEQEND
  5
4B7
330
4B4
100
AcDbEntity
  8
BEMAßUNG
  0
POLYLINE
  5
4B8
330
1F
100
AcDbEntity
  8
BEMAßUNG
 62
     7
100
AcDb2dPolyline
 66
     1
 10
0.0
 20
0.0
 30
0.0
  0
VERTEX
  5
4B9
330
4B8
100
AcDbEntity
  8
BEMAßUNG
 62
     7
100
AcDbVertex
100
AcDb2dVertex
 10
42.68611110043958
 20
247.9543741242093
 30
0.0
  0
VERTEX
  5
4BA
330
4B8
100
AcDbEntity
  8
BEMAßUNG
 62
     7
100
AcDbVertex
100
AcDb2dVertex
 10
43.87105169259127
 20
247.9543741242093
 30
0.0
  0
SEQEND
  5
4BB
330
4B8
100
AcDbEntity
  8
BEMAßUNG
  0
POLYLINE
  5
4BC
330
1F
100
AcDbEntity
  8
BEMAßUNG
 62
     7
100
AcDb2dPolyline
 66
     1
 10
0.0
 20
0.0
 30
0.0
  0
VERTEX
  5
4BD
330
4BC
100
AcDbEntity
  8
BEMAßUNG
 62
     7
100
AcDbVertex
100
AcDb2dVertex
 10
42.68611110043958
 20
247.9035589658019
 30
0.0
  0
VERTEX
  5
4BE
330
4BC
100
AcDbEntity
  8
BEMAßUNG
 62
     7
100
AcDbVertex
100
AcDb2dVertex
 10
44.25673013216499
 20
247.9035589658019
 30
0.0
  0
SEQEND
  5
4BF
330
4BC
100
AcDbEntity
  8
BEMAßUNG
  0
POLYLINE
  5
4C0
330
1F
100
AcDbEntity
  8
BEMAßUNG
 62
     7
100
AcDb2dPolyline
 66
     1
 10
0.0
 20
0.0
 30
0.0
  0
VERTEX
  5
4C1
330
4C0
100
AcDbEntity
  8
BEMAßUNG
 62
     7
100
AcDbVertex
100
AcDb2dVertex
 10
42.68611110043958
 20
247.8529160621687
 30
0.0
  0
VERTEX
  5
4C2
330
4C0
100
AcDbEntity
  8
BEMAßUNG
 62
     7
100
AcDbVertex
100
AcDb2dVertex
 10
44.64258082651297
 20
247.8529160621687
 30
0.0
  0
SEQEND
  5
4C3
330
4C0
100
AcDbEntity
  8
BEMAßUNG
  0
POLYLINE
  5
4C4
330
1F
100
AcDbEntity
  8
BEMAßUNG
 62
     7
100
AcDb2dPolyline
 66
     1
 10
0.0
 20
0.0
 30
0.0
  0
VERTEX
  5
4C5
330
4C4
100
AcDbEntity
  8
BEMAßUNG
 62
     7
100
AcDbVertex
100
AcDb2dVertex
 10
42.68611110043958
 20
247.801928648987
 30
0.0
  0
VERTEX
  5
4C6
330
4C4
100
AcDbEntity
  8
BEMAßUNG
 62
     7
100
AcDbVertex
100
AcDb2dVertex
 10
45.02894828518374
 20
247.801928648987
 30
0.0
  0
SEQEND
  5
4C7
330
4C4
100
AcDbEntity
  8
BEMAßUNG
  0
POLYLINE
  5
4C8
330
1F
100
AcDbEntity
  8
BEMAßUNG
 62
     7
100
AcDb2dPolyline
 66
     1
 10
0.0
 20
0.0
 30
0.0
  0
VERTEX
  5
4C9
330
4C8
100
AcDbEntity
  8
BEMAßUNG
 62
     7
100
AcDbVertex
100
AcDb2dVertex
 10
42.68611110043958
 20
247.7512857453539
 30
0.0
  0
VERTEX
  5
4CA
330
4C8
100
AcDbEntity
  8
BEMAßUNG
 62
     7
100
AcDbVertex
100
AcDb2dVertex
 10
45.41445446998319
 20
247.7512857453539
 30
0.0
  0
SEQEND
  5
4CB
330
4C8
100
AcDbEntity
  8
BEMAßUNG
  0
POLYLINE
  5
4CC
330
1F
100
AcDbEntity
  8
BEMAßUNG
 62
     7
100
AcDb2dPolyline
 66
     1
 10
0.0
 20
0.0
 30
0.0
  0
VERTEX
  5
4CD
330
4CC
100
AcDbEntity
  8
BEMAßUNG
 62
     7
100
AcDbVertex
100
AcDb2dVertex
 10
42.68611110043958
 20
247.7002983321722
 30
0.0
  0
VERTEX
  5
4CE
330
4CC
100
AcDbEntity
  8
BEMAßUNG
 62
     7
100
AcDbVertex
100
AcDb2dVertex
 10
45.80013290955691
 20
247.7002983321722
 30
0.0
  0
SEQEND
  5
4CF
330
4CC
100
AcDbEntity
  8
BEMAßUNG
  0
POLYLINE
  5
4D0
330
1F
100
AcDbEntity
  8
BEMAßUNG
 62
     7
100
AcDb2dPolyline
 66
     1
 10
0.0
 20
0.0
 30
0.0
  0
VERTEX
  5
4D1
330
4D0
100
AcDbEntity
  8
BEMAßUNG
 62
     7
100
AcDbVertex
100
AcDb2dVertex
 10
42.68611110043958
 20
247.6499999380875
 30
0.0
  0
VERTEX
  5
4D2
330
4D0
100
AcDbEntity
  8
BEMAßUNG
 62
     7
100
AcDbVertex
100
AcDb2dVertex
 10
46.18598360390489
 20
247.6499999380875
 30
0.0
  0
SEQEND
  5
4D3
330
4D0
100
AcDbEntity
  8
BEMAßUNG
  0
POLYLINE
  5
4D4
330
1F
100
AcDbEntity
  8
BEMAßUNG
 62
     7
100
AcDb2dPolyline
 66
     1
 10
0.0
 20
0.0
 30
0.0
  0
VERTEX
  5
4D5
330
4D4
100
AcDbEntity
  8
BEMAßUNG
 62
     7
100
AcDbVertex
100
AcDb2dVertex
 10
42.68611110043958
 20
247.1928357671949
 30
0.0
  0
VERTEX
  5
4D6
330
4D4
100
AcDbEntity
  8
BEMAßUNG
 62
     7
100
AcDbVertex
100
AcDb2dVertex
 10
42.71332735477306
 20
247.1928357671949
 30
0.0
  0
SEQEND
  5
4D7
330
4D4
100
AcDbEntity
  8
BEMAßUNG
  0
POLYLINE
  5
4D8
330
1F
100
AcDbEntity
  8
BEMAßUNG
 62
     7
100
AcDb2dPolyline
 66
     1
 10
0.0
 20
0.0
 30
0.0
  0
VERTEX
  5
4D9
330
4D8
100
AcDbEntity
  8
BEMAßUNG
 62
     7
100
AcDbVertex
100
AcDb2dVertex
 10
42.68611110043958
 20
247.1928357671949
 30
0.0
  0
VERTEX
  5
4DA
330
4D8
100
AcDbEntity
  8
BEMAßUNG
 62
     7
100
AcDbVertex
100
AcDb2dVertex
 10
42.71332735477306
 20
247.1928357671949
 30
0.0
  0
SEQEND
  5
4DB
330
4D8
100
AcDbEntity
  8
BEMAßUNG
  0
POLYLINE
  5
4DC
330
1F
100
AcDbEntity
  8
BEMAßUNG
 62
     7
100
AcDb2dPolyline
 66
     1
 10
0.0
 20
0.0
 30
0.0
  0
VERTEX
  5
4DD
330
4DC
100
AcDbEntity
  8
BEMAßUNG
 62
     7
100
AcDbVertex
100
AcDb2dVertex
 10
42.68611110043958
 20
247.243478670828
 30
0.0
  0
VERTEX
  5
4DE
330
4DC
100
AcDbEntity
  8
BEMAßUNG
 62
     7
100
AcDbVertex
100
AcDb2dVertex
 10
43.09917804912104
 20
247.243478670828
 30
0.0
  0
SEQEND
  5
4DF
330
4DC
100
AcDbEntity
  8
BEMAßUNG
  0
POLYLINE
  5
4E0
330
1F
100
AcDbEntity
  8
BEMAßUNG
 62
     7
100
AcDb2dPolyline
 66
     1
 10
0.0
 20
0.0
 30
0.0
  0
VERTEX
  5
4E1
330
4E0
100
AcDbEntity
  8
BEMAßUNG
 62
     7
100
AcDbVertex
100
AcDb2dVertex
 10
42.68611110043958
 20
247.2944660840097
 30
0.0
  0
VERTEX
  5
4E2
330
4E0
100
AcDbEntity
  8
BEMAßUNG
 62
     7
100
AcDbVertex
100
AcDb2dVertex
 10
43.48520099824329
 20
247.2944660840097
 30
0.0
  0
SEQEND
  5
4E3
330
4E0
100
AcDbEntity
  8
BEMAßUNG
  0
POLYLINE
  5
4E4
330
1F
100
AcDbEntity
  8
BEMAßUNG
 62
     7
100
AcDb2dPolyline
 66
     1
 10
0.0
 20
0.0
 30
0.0
  0
VERTEX
  5
4E5
330
4E4
100
AcDbEntity
  8
BEMAßUNG
 62
     7
100
AcDbVertex
100
AcDb2dVertex
 10
42.68611110043958
 20
247.3451089876429
 30
0.0
  0
VERTEX
  5
4E6
330
4E4
100
AcDbEntity
  8
BEMAßUNG
 62
     7
100
AcDbVertex
100
AcDb2dVertex
 10
43.87105169259127
 20
247.3451089876429
 30
0.0
  0
SEQEND
  5
4E7
330
4E4
100
AcDbEntity
  8
BEMAßUNG
  0
POLYLINE
  5
4E8
330
1F
100
AcDbEntity
  8
BEMAßUNG
 62
     7
100
AcDb2dPolyline
 66
     1
 10
0.0
 20
0.0
 30
0.0
  0
VERTEX
  5
4E9
330
4E8
100
AcDbEntity
  8
BEMAßUNG
 62
     7
100
AcDbVertex
100
AcDb2dVertex
 10
42.68611110043958
 20
247.3959241460503
 30
0.0
  0
VERTEX
  5
4EA
330
4E8
100
AcDbEntity
  8
BEMAßUNG
 62
     7
100
AcDbVertex
100
AcDb2dVertex
 10
44.25673013216499
 20
247.3959241460503
 30
0.0
  0
SEQEND
  5
4EB
330
4E8
100
AcDbEntity
  8
BEMAßUNG
  0
POLYLINE
  5
4EC
330
1F
100
AcDbEntity
  8
BEMAßUNG
 62
     7
100
AcDb2dPolyline
 66
     1
 10
0.0
 20
0.0
 30
0.0
  0
VERTEX
  5
4ED
330
4EC
100
AcDbEntity
  8
BEMAßUNG
 62
     7
100
AcDbVertex
100
AcDb2dVertex
 10
42.68611110043958
 20
247.4467393044578
 30
0.0
  0
VERTEX
  5
4EE
330
4EC
100
AcDbEntity
  8
BEMAßUNG
 62
     7
100
AcDbVertex
100
AcDb2dVertex
 10
44.64258082651297
 20
247.4467393044578
 30
0.0
  0
SEQEND
  5
4EF
330
4EC
100
AcDbEntity
  8
BEMAßUNG
  0
POLYLINE
  5
4F0
330
1F
100
AcDbEntity
  8
BEMAßUNG
 62
     7
100
AcDb2dPolyline
 66
     1
 10
0.0
 20
0.0
 30
0.0
  0
VERTEX
  5
4F1
330
4F0
100
AcDbEntity
  8
BEMAßUNG
 62
     7
100
AcDbVertex
100
AcDb2dVertex
 10
42.68611110043958
 20
247.4975544628652
 30
0.0
  0
VERTEX
  5
4F2
330
4F0
100
AcDbEntity
  8
BEMAßUNG
 62
     7
100
AcDbVertex
100
AcDb2dVertex
 10
45.02894828518374
 20
247.4975544628652
 30
0.0
  0
SEQEND
  5
4F3
330
4F0
100
AcDbEntity
  8
BEMAßUNG
  0
POLYLINE
  5
4F4
330
1F
100
AcDbEntity
  8
BEMAßUNG
 62
     7
100
AcDb2dPolyline
 66
     1
 10
0.0
 20
0.0
 30
0.0
  0
VERTEX
  5
4F5
330
4F4
100
AcDbEntity
  8
BEMAßUNG
 62
     7
100
AcDbVertex
100
AcDb2dVertex
 10
42.68611110043958
 20
247.5483696212726
 30
0.0
  0
VERTEX
  5
4F6
330
4F4
100
AcDbEntity
  8
BEMAßUNG
 62
     7
100
AcDbVertex
100
AcDb2dVertex
 10
45.41445446998319
 20
247.5483696212726
 30
0.0
  0
SEQEND
  5
4F7
330
4F4
100
AcDbEntity
  8
BEMAßUNG
  0
POLYLINE
  5
4F8
330
1F
100
AcDbEntity
  8
BEMAßUNG
 62
     7
100
AcDb2dPolyline
 66
     1
 10
0.0
 20
0.0
 30
0.0
  0
VERTEX
  5
4F9
330
4F8
100
AcDbEntity
  8
BEMAßUNG
 62
     7
100
AcDbVertex
100
AcDb2dVertex
 10
42.68611110043958
 20
247.5991847796801
 30
0.0
  0
VERTEX
  5
4FA
330
4F8
100
AcDbEntity
  8
BEMAßUNG
 62
     7
100
AcDbVertex
100
AcDb2dVertex
 10
45.80013290955691
 20
247.5991847796801
 30
0.0
  0
SEQEND
  5
4FB
330
4F8
100
AcDbEntity
  8
BEMAßUNG
  0
POLYLINE
  5
4FC
330
1F
100
AcDbEntity
  8
BEMAßUNG
 62
     7
100
AcDb2dPolyline
 66
     1
 10
0.0
 20
0.0
 30
0.0
  0
VERTEX
  5
4FD
330
4FC
100
AcDbEntity
  8
BEMAßUNG
 62
     7
100
AcDbVertex
100
AcDb2dVertex
 10
42.68611110043958
 20
247.6499999380875
 30
0.0
  0
VERTEX
  5
4FE
330
4FC
100
AcDbEntity
  8
BEMAßUNG
 62
     7
100
AcDbVertex
100
AcDb2dVertex
 10
46.18598360390489
 20
247.6499999380875
 30
0.0
  0
SEQEND
  5
4FF
330
4FC
100
AcDbEntity
  8
BEMAßUNG
  0
POLYLINE
  5
500
330
1F
100
AcDbEntity
  8
BEMAßUNG
 62
     7
100
AcDb2dPolyline
 66
     1
 10
0.0
 20
0.0
 30
0.0
  0
VERTEX
  5
501
330
500
100
AcDbEntity
  8
BEMAßUNG
 62
     7
100
AcDbVertex
100
AcDb2dVertex
 10
36.18624944841871
 20
247.6499999380875
 30
0.0
  0
VERTEX
  5
502
330
500
100
AcDbEntity
  8
BEMAßUNG
 62
     7
100
AcDbVertex
100
AcDb2dVertex
 10
39.68646646143255
 20
247.1892184169353
 30
0.0
  0
VERTEX
  5
503
330
500
100
AcDbEntity
  8
BEMAßUNG
 62
     7
100
AcDbVertex
100
AcDb2dVertex
 10
39.68646646143255
 20
248.1102646949169
 30
0.0
  0
VERTEX
  5
504
330
500
100
AcDbEntity
  8
BEMAßUNG
 62
     7
100
AcDbVertex
100
AcDb2dVertex
 10
36.18624944841871
 20
247.6499999380875
 30
0.0
  0
SEQEND
  5
505
330
500
100
AcDbEntity
  8
BEMAßUNG
  0
POLYLINE
  5
506
330
1F
100
AcDbEntity
  8
BEMAßUNG
 62
     7
100
AcDb2dPolyline
 66
     1
 10
0.0
 20
0.0
 30
0.0
  0
VERTEX
  5
507
330
506
100
AcDbEntity
  8
BEMAßUNG
 62
     7
100
AcDbVertex
100
AcDb2dVertex
 10
39.68646646143255
 20
247.1928357671949
 30
0.0
  0
VERTEX
  5
508
330
506
100
AcDbEntity
  8
BEMAßUNG
 62
     7
100
AcDbVertex
100
AcDb2dVertex
 10
39.65925020709908
 20
247.1928357671949
 30
0.0
  0
SEQEND
  5
509
330
506
100
AcDbEntity
  8
BEMAßUNG
  0
POLYLINE
  5
50A
330
1F
100
AcDbEntity
  8
BEMAßUNG
 62
     7
100
AcDb2dPolyline
 66
     1
 10
0.0
 20
0.0
 30
0.0
  0
VERTEX
  5
50B
330
50A
100
AcDbEntity
  8
BEMAßUNG
 62
     7
100
AcDbVertex
100
AcDb2dVertex
 10
39.68646646143255
 20
247.1928357671949
 30
0.0
  0
VERTEX
  5
50C
330
50A
100
AcDbEntity
  8
BEMAßUNG
 62
     7
100
AcDbVertex
100
AcDb2dVertex
 10
39.65925020709908
 20
247.1928357671949
 30
0.0
  0
SEQEND
  5
50D
330
50A
100
AcDbEntity
  8
BEMAßUNG
  0
POLYLINE
  5
50E
330
1F
100
AcDbEntity
  8
BEMAßUNG
 62
     7
100
AcDb2dPolyline
 66
     1
 10
0.0
 20
0.0
 30
0.0
  0
VERTEX
  5
50F
330
50E
100
AcDbEntity
  8
BEMAßUNG
 62
     7
100
AcDbVertex
100
AcDb2dVertex
 10
39.68646646143255
 20
247.243478670828
 30
0.0
  0
VERTEX
  5
510
330
50E
100
AcDbEntity
  8
BEMAßUNG
 62
     7
100
AcDbVertex
100
AcDb2dVertex
 10
39.27305500320257
 20
247.243478670828
 30
0.0
  0
SEQEND
  5
511
330
50E
100
AcDbEntity
  8
BEMAßUNG
  0
POLYLINE
  5
512
330
1F
100
AcDbEntity
  8
BEMAßUNG
 62
     7
100
AcDb2dPolyline
 66
     1
 10
0.0
 20
0.0
 30
0.0
  0
VERTEX
  5
513
330
512
100
AcDbEntity
  8
BEMAßUNG
 62
     7
100
AcDbVertex
100
AcDb2dVertex
 10
39.68646646143255
 20
247.2944660840097
 30
0.0
  0
VERTEX
  5
514
330
512
100
AcDbEntity
  8
BEMAßUNG
 62
     7
100
AcDbVertex
100
AcDb2dVertex
 10
38.88703205408033
 20
247.2944660840097
 30
0.0
  0
SEQEND
  5
515
330
512
100
AcDbEntity
  8
BEMAßUNG
  0
POLYLINE
  5
516
330
1F
100
AcDbEntity
  8
BEMAßUNG
 62
     7
100
AcDb2dPolyline
 66
     1
 10
0.0
 20
0.0
 30
0.0
  0
VERTEX
  5
517
330
516
100
AcDbEntity
  8
BEMAßUNG
 62
     7
100
AcDbVertex
100
AcDb2dVertex
 10
39.68646646143255
 20
247.3451089876429
 30
0.0
  0
VERTEX
  5
518
330
516
100
AcDbEntity
  8
BEMAßUNG
 62
     7
100
AcDbVertex
100
AcDb2dVertex
 10
38.50118135973234
 20
247.3451089876429
 30
0.0
  0
SEQEND
  5
519
330
516
100
AcDbEntity
  8
BEMAßUNG
  0
POLYLINE
  5
51A
330
1F
100
AcDbEntity
  8
BEMAßUNG
 62
     7
100
AcDb2dPolyline
 66
     1
 10
0.0
 20
0.0
 30
0.0
  0
VERTEX
  5
51B
330
51A
100
AcDbEntity
  8
BEMAßUNG
 62
     7
100
AcDbVertex
100
AcDb2dVertex
 10
39.68646646143255
 20
247.3959241460503
 30
0.0
  0
VERTEX
  5
51C
330
51A
100
AcDbEntity
  8
BEMAßUNG
 62
     7
100
AcDbVertex
100
AcDb2dVertex
 10
38.11550292015863
 20
247.3959241460503
 30
0.0
  0
SEQEND
  5
51D
330
51A
100
AcDbEntity
  8
BEMAßUNG
  0
POLYLINE
  5
51E
330
1F
100
AcDbEntity
  8
BEMAßUNG
 62
     7
100
AcDb2dPolyline
 66
     1
 10
0.0
 20
0.0
 30
0.0
  0
VERTEX
  5
51F
330
51E
100
AcDbEntity
  8
BEMAßUNG
 62
     7
100
AcDbVertex
100
AcDb2dVertex
 10
39.68646646143255
 20
247.4467393044578
 30
0.0
  0
VERTEX
  5
520
330
51E
100
AcDbEntity
  8
BEMAßUNG
 62
     7
100
AcDbVertex
100
AcDb2dVertex
 10
37.72965222581065
 20
247.4467393044578
 30
0.0
  0
SEQEND
  5
521
330
51E
100
AcDbEntity
  8
BEMAßUNG
  0
POLYLINE
  5
522
330
1F
100
AcDbEntity
  8
BEMAßUNG
 62
     7
100
AcDb2dPolyline
 66
     1
 10
0.0
 20
0.0
 30
0.0
  0
VERTEX
  5
523
330
522
100
AcDbEntity
  8
BEMAßUNG
 62
     7
100
AcDbVertex
100
AcDb2dVertex
 10
39.68646646143255
 20
247.4975544628652
 30
0.0
  0
VERTEX
  5
524
330
522
100
AcDbEntity
  8
BEMAßUNG
 62
     7
100
AcDbVertex
100
AcDb2dVertex
 10
37.3436292766884
 20
247.4975544628652
 30
0.0
  0
SEQEND
  5
525
330
522
100
AcDbEntity
  8
BEMAßUNG
  0
POLYLINE
  5
526
330
1F
100
AcDbEntity
  8
BEMAßUNG
 62
     7
100
AcDb2dPolyline
 66
     1
 10
0.0
 20
0.0
 30
0.0
  0
VERTEX
  5
527
330
526
100
AcDbEntity
  8
BEMAßUNG
 62
     7
100
AcDbVertex
100
AcDb2dVertex
 10
39.68646646143255
 20
247.5483696212726
 30
0.0
  0
VERTEX
  5
528
330
526
100
AcDbEntity
  8
BEMAßUNG
 62
     7
100
AcDbVertex
100
AcDb2dVertex
 10
36.95777858234042
 20
247.5483696212726
 30
0.0
  0
SEQEND
  5
529
330
526
100
AcDbEntity
  8
BEMAßUNG
  0
POLYLINE
  5
52A
330
1F
100
AcDbEntity
  8
BEMAßUNG
 62
     7
100
AcDb2dPolyline
 66
     1
 10
0.0
 20
0.0
 30
0.0
  0
VERTEX
  5
52B
330
52A
100
AcDbEntity
  8
BEMAßUNG
 62
     7
100
AcDbVertex
100
AcDb2dVertex
 10
39.68646646143255
 20
247.5991847796801
 30
0.0
  0
VERTEX
  5
52C
330
52A
100
AcDbEntity
  8
BEMAßUNG
 62
     7
100
AcDbVertex
100
AcDb2dVertex
 10
36.5721001427667
 20
247.5991847796801
 30
0.0
  0
SEQEND
  5
52D
330
52A
100
AcDbEntity
  8
BEMAßUNG
  0
POLYLINE
  5
52E
330
1F
100
AcDbEntity
  8
BEMAßUNG
 62
     7
100
AcDb2dPolyline
 66
     1
 10
0.0
 20
0.0
 30
0.0
  0
VERTEX
  5
52F
330
52E
100
AcDbEntity
  8
BEMAßUNG
 62
     7
100
AcDbVertex
100
AcDb2dVertex
 10
39.68646646143255
 20
247.6499999380875
 30
0.0
  0
VERTEX
  5
530
330
52E
100
AcDbEntity
  8
BEMAßUNG
 62
     7
100
AcDbVertex
100
AcDb2dVertex
 10
36.18624944841871
 20
247.6499999380875
 30
0.0
  0
SEQEND
  5
531
330
52E
100
AcDbEntity
  8
BEMAßUNG
  0
POLYLINE
  5
532
330
1F
100
AcDbEntity
  8
BEMAßUNG
 62
     7
100
AcDb2dPolyline
 66
     1
 10
0.0
 20
0.0
 30
0.0
  0
VERTEX
  5
533
330
532
100
AcDbEntity
  8
BEMAßUNG
 62
     7
100
AcDbVertex
100
AcDb2dVertex
 10
39.68646646143255
 20
248.1068195994316
 30
0.0
  0
VERTEX
  5
534
330
532
100
AcDbEntity
  8
BEMAßUNG
 62
     7
100
AcDbVertex
100
AcDb2dVertex
 10
39.65925020709908
 20
248.1068195994316
 30
0.0
  0
SEQEND
  5
535
330
532
100
AcDbEntity
  8
BEMAßUNG
  0
POLYLINE
  5
536
330
1F
100
AcDbEntity
  8
BEMAßUNG
 62
     7
100
AcDb2dPolyline
 66
     1
 10
0.0
 20
0.0
 30
0.0
  0
VERTEX
  5
537
330
536
100
AcDbEntity
  8
BEMAßUNG
 62
     7
100
AcDbVertex
100
AcDb2dVertex
 10
39.68646646143255
 20
248.1068195994316
 30
0.0
  0
VERTEX
  5
538
330
536
100
AcDbEntity
  8
BEMAßUNG
 62
     7
100
AcDbVertex
100
AcDb2dVertex
 10
39.65925020709908
 20
248.1068195994316
 30
0.0
  0
SEQEND
  5
539
330
536
100
AcDbEntity
  8
BEMAßUNG
  0
POLYLINE
  5
53A
330
1F
100
AcDbEntity
  8
BEMAßUNG
 62
     7
100
AcDb2dPolyline
 66
     1
 10
0.0
 20
0.0
 30
0.0
  0
VERTEX
  5
53B
330
53A
100
AcDbEntity
  8
BEMAßUNG
 62
     7
100
AcDbVertex
100
AcDb2dVertex
 10
39.68646646143255
 20
248.0560044410242
 30
0.0
  0
VERTEX
  5
53C
330
53A
100
AcDbEntity
  8
BEMAßUNG
 62
     7
100
AcDbVertex
100
AcDb2dVertex
 10
39.27305500320257
 20
248.0560044410242
 30
0.0
  0
SEQEND
  5
53D
330
53A
100
AcDbEntity
  8
BEMAßUNG
  0
POLYLINE
  5
53E
330
1F
100
AcDbEntity
  8
BEMAßUNG
 62
     7
100
AcDb2dPolyline
 66
     1
 10
0.0
 20
0.0
 30
0.0
  0
VERTEX
  5
53F
330
53E
100
AcDbEntity
  8
BEMAßUNG
 62
     7
100
AcDbVertex
100
AcDb2dVertex
 10
39.68646646143255
 20
248.0051892826168
 30
0.0
  0
VERTEX
  5
540
330
53E
100
AcDbEntity
  8
BEMAßUNG
 62
     7
100
AcDbVertex
100
AcDb2dVertex
 10
38.88703205408033
 20
248.0051892826168
 30
0.0
  0
SEQEND
  5
541
330
53E
100
AcDbEntity
  8
BEMAßUNG
  0
POLYLINE
  5
542
330
1F
100
AcDbEntity
  8
BEMAßUNG
 62
     7
100
AcDb2dPolyline
 66
     1
 10
0.0
 20
0.0
 30
0.0
  0
VERTEX
  5
543
330
542
100
AcDbEntity
  8
BEMAßUNG
 62
     7
100
AcDbVertex
100
AcDb2dVertex
 10
39.68646646143255
 20
247.9543741242093
 30
0.0
  0
VERTEX
  5
544
330
542
100
AcDbEntity
  8
BEMAßUNG
 62
     7
100
AcDbVertex
100
AcDb2dVertex
 10
38.50118135973234
 20
247.9543741242093
 30
0.0
  0
SEQEND
  5
545
330
542
100
AcDbEntity
  8
BEMAßUNG
  0
POLYLINE
  5
546
330
1F
100
AcDbEntity
  8
BEMAßUNG
 62
     7
100
AcDb2dPolyline
 66
     1
 10
0.0
 20
0.0
 30
0.0
  0
VERTEX
  5
547
330
546
100
AcDbEntity
  8
BEMAßUNG
 62
     7
100
AcDbVertex
100
AcDb2dVertex
 10
39.68646646143255
 20
247.9035589658019
 30
0.0
  0
VERTEX
  5
548
330
546
100
AcDbEntity
  8
BEMAßUNG
 62
     7
100
AcDbVertex
100
AcDb2dVertex
 10
38.11550292015863
 20
247.9035589658019
 30
0.0
  0
SEQEND
  5
549
330
546
100
AcDbEntity
  8
BEMAßUNG
  0
POLYLINE
  5
54A
330
1F
100
AcDbEntity
  8
BEMAßUNG
 62
     7
100
AcDb2dPolyline
 66
     1
 10
0.0
 20
0.0
 30
0.0
  0
VERTEX
  5
54B
330
54A
100
AcDbEntity
  8
BEMAßUNG
 62
     7
100
AcDbVertex
100
AcDb2dVertex
 10
39.68646646143255
 20
247.8529160621687
 30
0.0
  0
VERTEX
  5
54C
330
54A
100
AcDbEntity
  8
BEMAßUNG
 62
     7
100
AcDbVertex
100
AcDb2dVertex
 10
37.72965222581065
 20
247.8529160621687
 30
0.0
  0
SEQEND
  5
54D
330
54A
100
AcDbEntity
  8
BEMAßUNG
  0
POLYLINE
  5
54E
330
1F
100
AcDbEntity
  8
BEMAßUNG
 62
     7
100
AcDb2dPolyline
 66
     1
 10
0.0
 20
0.0
 30
0.0
  0
VERTEX
  5
54F
330
54E
100
AcDbEntity
  8
BEMAßUNG
 62
     7
100
AcDbVertex
100
AcDb2dVertex
 10
39.68646646143255
 20
247.801928648987
 30
0.0
  0
VERTEX
  5
550
330
54E
100
AcDbEntity
  8
BEMAßUNG
 62
     7
100
AcDbVertex
100
AcDb2dVertex
 10
37.3436292766884
 20
247.801928648987
 30
0.0
  0
SEQEND
  5
551
330
54E
100
AcDbEntity
  8
BEMAßUNG
  0
POLYLINE
  5
552
330
1F
100
AcDbEntity
  8
BEMAßUNG
 62
     7
100
AcDb2dPolyline
 66
     1
 10
0.0
 20
0.0
 30
0.0
  0
VERTEX
  5
553
330
552
100
AcDbEntity
  8
BEMAßUNG
 62
     7
100
AcDbVertex
100
AcDb2dVertex
 10
39.68646646143255
 20
247.7512857453539
 30
0.0
  0
VERTEX
  5
554
330
552
100
AcDbEntity
  8
BEMAßUNG
 62
     7
100
AcDbVertex
100
AcDb2dVertex
 10
36.95777858234042
 20
247.7512857453539
 30
0.0
  0
SEQEND
  5
555
330
552
100
AcDbEntity
  8
BEMAßUNG
  0
POLYLINE
  5
556
330
1F
100
AcDbEntity
  8
BEMAßUNG
 62
     7
100
AcDb2dPolyline
 66
     1
 10
0.0
 20
0.0
 30
0.0
  0
VERTEX
  5
557
330
556
100
AcDbEntity
  8
BEMAßUNG
 62
     7
100
AcDbVertex
100
AcDb2dVertex
 10
39.68646646143255
 20
247.7002983321722
 30
0.0
  0
VERTEX
  5
558
330
556
100
AcDbEntity
  8
BEMAßUNG
 62
     7
100
AcDbVertex
100
AcDb2dVertex
 10
36.5721001427667
 20
247.7002983321722
 30
0.0
  0
SEQEND
  5
559
330
556
100
AcDbEntity
  8
BEMAßUNG
  0
POLYLINE
  5
55A
330
1F
100
AcDbEntity
  8
BEMAßUNG
 62
     7
100
AcDb2dPolyline
 66
     1
 10
0.0
 20
0.0
 30
0.0
  0
VERTEX
  5
55B
330
55A
100
AcDbEntity
  8
BEMAßUNG
 62
     7
100
AcDbVertex
100
AcDb2dVertex
 10
39.68646646143255
 20
247.6499999380875
 30
0.0
  0
VERTEX
  5
55C
330
55A
100
AcDbEntity
  8
BEMAßUNG
 62
     7
100
AcDbVertex
100
AcDb2dVertex
 10
36.18624944841871
 20
247.6499999380875
 30
0.0
  0
SEQEND
  5
55D
330
55A
100
AcDbEntity
  8
BEMAßUNG
  0
MTEXT
  5
55F
330
1F
100
AcDbEntity
  8
TEXT
 62
     7
100
AcDbMText
 10
114.3582220851257
 20
198.3396592386095
 30
0.0
 40
3.311186211711877
 41
0.0
 71
     7
 72
     1
  1
\fINDEX Univers 45 Light|b0|i0|c0|p34;\W1;ø30
  0
MTEXT
  5
560
330
1F
100
AcDbEntity
  8
TEXT
 62
     7
100
AcDbMText
 10
71.8817450449636
 20
219.5153692756333
 30
0.0
 40
3.311186211711877
 41
0.0
 71
     7
 72
     1
  1
\fINDEX Univers 45 Light|b0|i0|c0|p34;\W1;ø20
 11
-4.371139000186241E-8
 21
0.999999999999999
 31
0.0
  0
MTEXT
  5
561
330
1F
100
AcDbEntity
  8
TEXT
 62
     7
100
AcDbMText
 10
38.72717962356474
 20
248.6997205324431
 30
0.0
 40
3.311186211711877
 41
0.0
 71
     7
 72
     1
  1
\fINDEX Univers 45 Light|b0|i0|c0|p34;\W1;10
  0
ENDSEC
  0
SECTION
  2
OBJECTS
  0
DICTIONARY
  5
C
330
0
100
AcDbDictionary
  3
ACAD_GROUP
350
D
  3
ACAD_LAYOUT
350
1A
  3
ACAD_MLINESTYLE
350
17
  3
ACAD_PLOTSETTINGS
350
19
  3
ACAD_TABLESTYLE
350
582
  3
ACAD_VISUALSTYLE
350
2A
  3
ACDBHEADERROUNDTRIPXREC
350
562
  0
DICTIONARY
  5
D
102
{ACAD_REACTORS
330
C
102
}
330
C
100
AcDbDictionary
  0
DICTIONARY
  5
1A
102
{ACAD_REACTORS
330
C
102
}
330
C
100
AcDbDictionary
  0
DICTIONARY
  5
17
102
{ACAD_REACTORS
330
C
102
}
330
C
100
AcDbDictionary
  3
STANDARD
350
18
  0
DICTIONARY
  5
19
102
{ACAD_REACTORS
330
C
102
}
330
C
100
AcDbDictionary
  0
DICTIONARY
  5
582
102
{ACAD_REACTORS
330
C
102
}
330
C
100
AcDbDictionary
  0
DICTIONARY
  5
2A
102
{ACAD_REACTORS
330
C
102
}
330
C
100
AcDbDictionary
  3
2DWIREFRAME
350
2F
  3
3D_HIDDEN
350
31
  3
3DWIREFRAME
350
30
  3
BASIC
350
32
  3
BRIGHTEN
350
36
  3
COLORCHANGE
350
3A
  3
CONCEPTUAL
350
34
  3
DIM
350
35
  3
FACEPATTERN
350
39
  3
FLAT
350
2B
  3
FLATWITHEDGES
350
2C
  3
GOURAUD
350
2D
  3
GOURAUDWITHEDGES
350
2E
  3
LINEPATTERN
350
38
  3
REALISTIC
350
33
  3
THICKEN
350
37
  0
DICTIONARY
  5
562
102
{ACAD_REACTORS
330
C
102
}
330
C
100
AcDbDictionary
  3
CEPSNTYPE
350
56B
  3
DIMSTYLEDATA
350
581
  3
FINGERPRINTGUID
350
56C
  3
HYPERLINKBASE
350
565
  3
INSUNITS
350
56A
  3
LAYOUTDICT
350
567
  3
LWETCUNION
350
569
  3
PLOTSETDICT
350
568
  3
PSVPSCALE
350
56E
  3
PUCSBASE
350
571
  3
PUCSORGBACK
350
577
  3
PUCSORGBOTTOM
350
573
  3
PUCSORGFRONT
350
576
  3
PUCSORGLEFT
350
574
  3
PUCSORGRIGHT
350
575
  3
PUCSORGTOP
350
572
  3
PUCSORTHOREF
350
56F
  3
PUCSORTHOVIEW
350
570
  3
STYLESHEET
350
566
  3
TSTACKALIGN
350
563
  3
TSTACKSIZE
350
564
  3
UCSBASE
350
57A
  3
UCSORGBACK
350
580
  3
UCSORGBOTTOM
350
57C
  3
UCSORGFRONT
350
57F
  3
UCSORGLEFT
350
57D
  3
UCSORGRIGHT
350
57E
  3
UCSORGTOP
350
57B
  3
UCSORTHOREF
350
578
  3
UCSORTHOVIEW
350
579
  3
VERSIONGUID
350
56D
  0
MLINESTYLE
  5
18
102
{ACAD_REACTORS
330
17
102
}
330
17
100
AcDbMlineStyle
  2
Standard
 70
     0
  3

 62
   256
 51
90.0
 52
90.0
 71
     2
 49
0.5
 62
   256
  6
BYLAYER
 49
-0.5
 62
   256
  6
BYLAYER
  0
VISUALSTYLE
  5
2F
102
{ACAD_REACTORS
330
2A
102
}
330
2A
100
AcDbVisualStyle
  2
2dWireframe
 70
     4
 71
     0
 72
     2
 73
     0
 90
        0
 40
-0.6
 41
-30.0
 62
     5
 63
     7
 74
     1
 91
        4
 64
     7
 65
   257
 75
     1
175
     1
 42
1.0
 92
        0
 66
   257
 43
1.0
 76
     1
 77
     6
 78
     2
 67
     7
 79
     5
170
     0
171
     0
290
     0
174
     0
 93
        1
 44
0.0
173
     0
291
     0
 45
0.0
1001
ACAD
1000
AcDbSavedByObjectVersion
1070
     0
  0
VISUALSTYLE
  5
31
102
{ACAD_REACTORS
330
2A
102
}
330
2A
100
AcDbVisualStyle
  2
3D Hidden
 70
     6
 71
     1
 72
     2
 73
     2
 90
        0
 40
-0.6
 41
-30.0
 62
     5
 63
     7
 74
     2
 91
        2
 64
     7
 65
   257
 75
     2
175
     1
 42
40.0
 92
        0
 66
   257
 43
1.0
 76
     1
 77
     6
 78
     2
 67
     7
 79
     3
170
     0
171
     0
290
     0
174
     0
 93
        1
 44
0.0
173
     0
291
     0
 45
0.0
1001
ACAD
1000
AcDbSavedByObjectVersion
1070
     0
  0
VISUALSTYLE
  5
30
102
{ACAD_REACTORS
330
2A
102
}
330
2A
100
AcDbVisualStyle
  2
3dWireframe
 70
     5
 71
     0
 72
     2
 73
     0
 90
        0
 40
-0.6
 41
-30.0
 62
     5
 63
     7
 74
     1
 91
        4
 64
     7
 65
   257
 75
     1
175
     1
 42
1.0
 92
        0
 66
   257
 43
1.0
 76
     1
 77
     6
 78
     2
 67
     7
 79
     5
170
     0
171
     0
290
     0
174
     0
 93
        1
 44
0.0
173
     0
291
     0
 45
0.0
1001
ACAD
1000
AcDbSavedByObjectVersion
1070
     0
  0
VISUALSTYLE
  5
32
102
{ACAD_REACTORS
330
2A
102
}
330
2A
100
AcDbVisualStyle
  2
Basic
 70
     7
 71
     1
 72
     0
 73
     1
 90
        0
 40
-0.6
 41
-30.0
 62
     5
 63
     7
 74
     0
 91
        4
 64
     7
 65
   257
 75
     1
175
     1
 42
1.0
 92
        8
 66
     7
 43
1.0
 76
     1
 77
     6
 78
     2
 67
     7
 79
     5
170
     0
171
     0
290
     0
174
     0
 93
        1
 44
0.0
173
     0
291
     1
 45
0.0
1001
ACAD
1000
AcDbSavedByObjectVersion
1070
     0
  0
VISUALSTYLE
  5
36
102
{ACAD_REACTORS
330
2A
102
}
330
2A
100
AcDbVisualStyle
  2
Brighten
 70
    12
 71
     2
 72
     2
 73
     0
 90
        0
 40
-0.6
 41
-30.0
 62
     5
 63
     7
 74
     1
 91
        4
 64
     7
 65
   257
 75
     1
175
     1
 42
1.0
 92
        8
 66
     7
 43
1.0
 76
     1
 77
     6
 78
     2
 67
     7
 79
     5
170
     0
171
     0
290
     0
174
     0
 93
        1
 44
50.0
173
     0
291
     1
 45
0.0
1001
ACAD
1000
AcDbSavedByObjectVersion
1070
     0
  0
VISUALSTYLE
  5
3A
102
{ACAD_REACTORS
330
2A
102
}
330
2A
100
AcDbVisualStyle
  2
ColorChange
 70
    16
 71
     2
 72
     2
 73
     3
 90
        0
 40
-0.6
 41
-30.0
 62
     5
 63
     8
 74
     1
 91
        4
 64
     7
 65
   257
 75
     1
175
     1
 42
1.0
 92
        8
 66
     8
 43
1.0
 76
     1
 77
     6
 78
     2
 67
     7
 79
     5
170
     0
171
     0
290
     0
174
     0
 93
        1
 44
0.0
173
     0
291
     1
 45
0.0
1001
ACAD
1000
AcDbSavedByObjectVersion
1070
     0
  0
VISUALSTYLE
  5
34
102
{ACAD_REACTORS
330
2A
102
}
330
2A
100
AcDbVisualStyle
  2
Conceptual
 70
     9
 71
     3
 72
     2
 73
     0
 90
        0
 40
-0.6
 41
-30.0
 62
     5
 63
     7
 74
     2
 91
        2
 64
     7
 65
   257
 75
     1
175
     1
 42
40.0
 92
        8
 66
     7
 43
1.0
 76
     1
 77
     6
 78
     2
 67
     7
 79
     3
170
     0
171
     0
290
     0
174
     0
 93
        1
 44
0.0
173
     0
291
     0
 45
0.0
1001
ACAD
1000
AcDbSavedByObjectVersion
1070
     0
  0
VISUALSTYLE
  5
35
102
{ACAD_REACTORS
330
2A
102
}
330
2A
100
AcDbVisualStyle
  2
Dim
 70
    11
 71
     2
 72
     2
 73
     0
 90
        0
 40
-0.6
 41
-30.0
 62
     5
 63
     7
 74
     1
 91
        4
 64
     7
 65
   257
 75
     1
175
     1
 42
1.0
 92
        8
 66
     7
 43
1.0
 76
     1
 77
     6
 78
     2
 67
     7
 79
     5
170
     0
171
     0
290
     0
174
     0
 93
        1
 44
-50.0
173
     0
291
     1
 45
0.0
1001
ACAD
1000
AcDbSavedByObjectVersion
1070
     0
  0
VISUALSTYLE
  5
39
102
{ACAD_REACTORS
330
2A
102
}
330
2A
100
AcDbVisualStyle
  2
Facepattern
 70
    15
 71
     2
 72
     2
 73
     0
 90
        0
 40
-0.6
 41
-30.0
 62
     5
 63
     7
 74
     1
 91
        4
 64
     7
 65
   257
 75
     1
175
     1
 42
1.0
 92
        8
 66
     7
 43
1.0
 76
     1
 77
     6
 78
     2
 67
     7
 79
     5
170
     0
171
     0
290
     0
174
     0
 93
        1
 44
0.0
173
     0
291
     1
 45
0.0
1001
ACAD
1000
AcDbSavedByObjectVersion
1070
     0
  0
VISUALSTYLE
  5
2B
102
{ACAD_REACTORS
330
2A
102
}
330
2A
100
AcDbVisualStyle
  2
Flat
 70
     0
 71
     2
 72
     1
 73
     1
 90
        2
 40
-0.6
 41
30.0
 62
     5
 63
     7
 74
     0
 91
        4
 64
     7
 65
   257
 75
     1
175
     1
 42
1.0
 92
        8
 66
     7
 43
1.0
 76
     1
 77
     6
 78
     2
 67
     7
 79
     5
170
     0
171
     0
290
     0
174
     0
 93
       13
 44
0.0
173
     0
291
     1
 45
0.0
1001
ACAD
1000
AcDbSavedByObjectVersion
1070
     0
  0
VISUALSTYLE
  5
2C
102
{ACAD_REACTORS
330
2A
102
}
330
2A
100
AcDbVisualStyle
  2
FlatWithEdges
 70
     1
 71
     2
 72
     1
 73
     1
 90
        2
 40
-0.6
 41
30.0
 62
     5
 63
     7
 74
     1
 91
        4
 64
     7
 65
   257
 75
     1
175
     1
 42
1.0
 92
        0
 66
   257
 43
1.0
 76
     1
 77
     6
 78
     2
 67
     7
 79
     5
170
     0
171
     0
290
     0
174
     0
 93
       13
 44
0.0
173
     0
291
     1
 45
0.0
1001
ACAD
1000
AcDbSavedByObjectVersion
1070
     0
  0
VISUALSTYLE
  5
2D
102
{ACAD_REACTORS
330
2A
102
}
330
2A
100
AcDbVisualStyle
  2
Gouraud
 70
     2
 71
     2
 72
     2
 73
     1
 90
        2
 40
-0.6
 41
30.0
 62
     5
 63
     7
 74
     0
 91
        4
 64
     7
 65
   257
 75
     1
175
     1
 42
1.0
 92
        0
 66
     7
 43
1.0
 76
     1
 77
     6
 78
     2
 67
     7
 79
     5
170
     0
171
     0
290
     0
174
     0
 93
       13
 44
0.0
173
     0
291
     1
 45
0.0
1001
ACAD
1000
AcDbSavedByObjectVersion
1070
     0
  0
VISUALSTYLE
  5
2E
102
{ACAD_REACTORS
330
2A
102
}
330
2A
100
AcDbVisualStyle
  2
GouraudWithEdges
 70
     3
 71
     2
 72
     2
 73
     1
 90
        2
 40
-0.6
 41
30.0
 62
     5
 63
     7
 74
     1
 91
        4
 64
     7
 65
   257
 75
     1
175
     1
 42
1.0
 92
        0
 66
   257
 43
1.0
 76
     1
 77
     6
 78
     2
 67
     7
 79
     5
170
     0
171
     0
290
     0
174
     0
 93
       13
 44
0.0
173
     0
291
     1
 45
0.0
1001
ACAD
1000
AcDbSavedByObjectVersion
1070
     0
  0
VISUALSTYLE
  5
38
102
{ACAD_REACTORS
330
2A
102
}
330
2A
100
AcDbVisualStyle
  2
Linepattern
 70
    14
 71
     2
 72
     2
 73
     0
 90
        0
 40
-0.6
 41
-30.0
 62
     5
 63
     7
 74
     1
 91
        4
 64
     7
 65
   257
 75
     7
175
     7
 42
1.0
 92
        8
 66
     7
 43
1.0
 76
     1
 77
     6
 78
     2
 67
     7
 79
     5
170
     0
171
     0
290
     0
174
     0
 93
        1
 44
0.0
173
     0
291
     1
 45
0.0
1001
ACAD
1000
AcDbSavedByObjectVersion
1070
     0
  0
VISUALSTYLE
  5
33
102
{ACAD_REACTORS
330
2A
102
}
330
2A
100
AcDbVisualStyle
  2
Realistic
 70
     8
 71
     2
 72
     2
 73
     0
 90
        0
 40
-0.6
 41
-30.0
 62
     5
 63
     7
 74
     1
 91
        0
 64
     7
 65
   257
 75
     1
175
     1
 42
1.0
 92
        8
 66
     8
 43
1.0
 76
     1
 77
     6
 78
     2
 67
     7
 79
     5
170
     0
171
     0
290
     0
174
     0
 93
       13
 44
0.0
173
     0
291
     0
 45
0.0
1001
ACAD
1000
AcDbSavedByObjectVersion
1070
     0
  0
VISUALSTYLE
  5
37
102
{ACAD_REACTORS
330
2A
102
}
330
2A
100
AcDbVisualStyle
  2
Thicken
 70
    13
 71
     2
 72
     2
 73
     0
 90
        0
 40
-0.6
 41
-30.0
 62
     5
 63
     7
 74
     1
 91
        4
 64
     7
 65
   257
 75
     1
175
     1
 42
1.0
 92
       12
 66
     7
 43
1.0
 76
     1
 77
     6
 78
     2
 67
     7
 79
     5
170
     0
171
     0
290
     0
174
     0
 93
        1
 44
0.0
173
     0
291
     1
 45
0.0
1001
ACAD
1000
AcDbSavedByObjectVersion
1070
     0
  0
XRECORD
  5
56B
102
{ACAD_REACTORS
330
562
102
}
330
562
100
AcDbXrecord
 90
        0
  0
XRECORD
  5
581
102
{ACAD_REACTORS
330
562
102
}
330
562
100
AcDbXrecord
1000
DSTYLE
1002
{
1070
   340
340
11
1002
}
  0
XRECORD
  5
56C
102
{ACAD_REACTORS
330
562
102
}
330
562
100
AcDbXrecord
  1
{14C4A864-A145-42CB-BCAC-2654A54EAEDC}
  0
XRECORD
  5
565
102
{ACAD_REACTORS
330
562
102
}
330
562
100
AcDbXrecord
  1

  0
XRECORD
  5
56A
102
{ACAD_REACTORS
330
562
102
}
330
562
100
AcDbXrecord
 90
        1
  0
XRECORD
  5
567
102
{ACAD_REACTORS
330
562
102
}
330
562
100
AcDbXrecord
340
1A
  0
XRECORD
  5
569
102
{ACAD_REACTORS
330
562
102
}
330
562
100
AcDbXrecord
 90
    10269
  0
XRECORD
  5
568
102
{ACAD_REACTORS
330
562
102
}
330
562
100
AcDbXrecord
340
19
  0
XRECORD
  5
56E
102
{ACAD_REACTORS
330
562
102
}
330
562
100
AcDbXrecord
 40
0.0
  0
XRECORD
  5
571
102
{ACAD_REACTORS
330
562
102
}
330
562
100
AcDbXrecord
340
0
  0
XRECORD
  5
577
102
{ACAD_REACTORS
330
562
102
}
330
562
100
AcDbXrecord
 10
0.0
 20
0.0
 30
0.0
  0
XRECORD
  5
573
102
{ACAD_REACTORS
330
562
102
}
330
562
100
AcDbXrecord
 10
0.0
 20
0.0
 30
0.0
  0
XRECORD
  5
576
102
{ACAD_REACTORS
330
562
102
}
330
562
100
AcDbXrecord
 10
0.0
 20
0.0
 30
0.0
  0
XRECORD
  5
574
102
{ACAD_REACTORS
330
562
102
}
330
562
100
AcDbXrecord
 10
0.0
 20
0.0
 30
0.0
  0
XRECORD
  5
575
102
{ACAD_REACTORS
330
562
102
}
330
562
100
AcDbXrecord
 10
0.0
 20
0.0
 30
0.0
  0
XRECORD
  5
572
102
{ACAD_REACTORS
330
562
102
}
330
562
100
AcDbXrecord
 10
0.0
 20
0.0
 30
0.0
  0
XRECORD
  5
56F
102
{ACAD_REACTORS
330
562
102
}
330
562
100
AcDbXrecord
340
0
  0
XRECORD
  5
570
102
{ACAD_REACTORS
330
562
102
}
330
562
100
AcDbXrecord
 70
     0
  0
XRECORD
  5
566
102
{ACAD_REACTORS
330
562
102
}
330
562
100
AcDbXrecord
  1

  0
XRECORD
  5
563
102
{ACAD_REACTORS
330
562
102
}
330
562
100
AcDbXrecord
 90
        1
  0
XRECORD
  5
564
102
{ACAD_REACTORS
330
562
102
}
330
562
100
AcDbXrecord
 90
       70
  0
XRECORD
  5
57A
102
{ACAD_REACTORS
330
562
102
}
330
562
100
AcDbXrecord
340
0
  0
XRECORD
  5
580
102
{ACAD_REACTORS
330
562
102
}
330
562
100
AcDbXrecord
 10
0.0
 20
0.0
 30
0.0
  0
XRECORD
  5
57C
102
{ACAD_REACTORS
330
562
102
}
330
562
100
AcDbXrecord
 10
0.0
 20
0.0
 30
0.0
  0
XRECORD
  5
57F
102
{ACAD_REACTORS
330
562
102
}
330
562
100
AcDbXrecord
 10
0.0
 20
0.0
 30
0.0
  0
XRECORD
  5
57D
102
{ACAD_REACTORS
330
562
102
}
330
562
100
AcDbXrecord
 10
0.0
 20
0.0
 30
0.0
  0
XRECORD
  5
57E
102
{ACAD_REACTORS
330
562
102
}
330
562
100
AcDbXrecord
 10
0.0
 20
0.0
 30
0.0
  0
XRECORD
  5
57B
102
{ACAD_REACTORS
330
562
102
}
330
562
100
AcDbXrecord
 10
0.0
 20
0.0
 30
0.0
  0
XRECORD
  5
578
102
{ACAD_REACTORS
330
562
102
}
330
562
100
AcDbXrecord
340
0
  0
XRECORD
  5
579
102
{ACAD_REACTORS
330
562
102
}
330
562
100
AcDbXrecord
 70
     0
  0
XRECORD
  5
56D
102
{ACAD_REACTORS
330
562
102
}
330
562
100
AcDbXrecord
  1
{FAEB1C32-E019-11D5-929B-00C0DF256EC4}
  0
ENDSEC
  0
EOF
