ISO-10303-21;
HEADER;
/* Generated by software containing ST-Developer
 * from STEP Tools, Inc. (www.steptools.com) 
 */
/* OPTION: using custom schema-name function */

FILE_DESCRIPTION(
/* description */ (''),
/* implementation_level */ '2;1');

FILE_NAME(
/* name */ '837714_stp.stp',
/* time_stamp */ '2017-05-05T15:31:34+02:00',
/* author */ (''),
/* organization */ (''),
/* preprocessor_version */ 'ST-DEVELOPER v15',
/* originating_system */ 'SIEMENS PLM Software NX 9.0',
/* authorisation */ '');

FILE_SCHEMA (('AUTOMOTIVE_DESIGN { 1 0 10303 214 3 1 1 1 }'));
ENDSEC;

DATA;
#10=PROPERTY_DEFINITION_REPRESENTATION(#14,#12);
#11=PROPERTY_DEFINITION_REPRESENTATION(#15,#13);
#12=REPRESENTATION('',(#16),#153);
#13=REPRESENTATION('',(#17),#153);
#14=PROPERTY_DEFINITION('pmi validation property','',#21);
#15=PROPERTY_DEFINITION('pmi validation property','',#21);
#16=VALUE_REPRESENTATION_ITEM('number of annotations',COUNT_MEASURE(0.));
#17=VALUE_REPRESENTATION_ITEM('number of views',COUNT_MEASURE(0.));
#18=SHAPE_REPRESENTATION_RELATIONSHIP('None',
'relationship between reic1D6440F2gruv-None and reic1D6440F2gruv-None',
#30,#19);
#19=ADVANCED_BREP_SHAPE_REPRESENTATION('reic1D6440F2gruv-None',(#40),#153);
#20=SHAPE_DEFINITION_REPRESENTATION(#21,#30);
#21=PRODUCT_DEFINITION_SHAPE('','',#22);
#22=PRODUCT_DEFINITION(' ','',#24,#23);
#23=PRODUCT_DEFINITION_CONTEXT('part definition',#29,'design');
#24=PRODUCT_DEFINITION_FORMATION_WITH_SPECIFIED_SOURCE(' ',' ',#26,
 .NOT_KNOWN.);
#25=PRODUCT_RELATED_PRODUCT_CATEGORY('part','',(#26));
#26=PRODUCT('reic1D6440F2gruv','reic1D6440F2gruv',' ',(#27));
#27=PRODUCT_CONTEXT(' ',#29,'mechanical');
#28=APPLICATION_PROTOCOL_DEFINITION('international standard',
'automotive_design',2010,#29);
#29=APPLICATION_CONTEXT(
'core data for automotive mechanical design processes');
#30=SHAPE_REPRESENTATION('reic1D6440F2gruv-None',(#99),#153);
#31=PRESENTATION_LAYER_ASSIGNMENT('210','Layer 210',(#40));
#32=STYLED_ITEM('',(#33),#40);
#33=PRESENTATION_STYLE_ASSIGNMENT((#34));
#34=SURFACE_STYLE_USAGE(.BOTH.,#35);
#35=SURFACE_SIDE_STYLE('',(#36));
#36=SURFACE_STYLE_FILL_AREA(#37);
#37=FILL_AREA_STYLE('',(#38));
#38=FILL_AREA_STYLE_COLOUR('',#39);
#39=COLOUR_RGB('Orange',1.,0.499992370489052,0.);
#40=MANIFOLD_SOLID_BREP('',#41);
#41=CLOSED_SHELL('',(#53,#54,#55,#56,#57,#58));
#42=CONICAL_SURFACE('',#105,10.5,75.0685828218624);
#43=CYLINDRICAL_SURFACE('',#104,15.);
#44=CYLINDRICAL_SURFACE('',#110,10.);
#45=FACE_BOUND('',#65,.T.);
#46=FACE_BOUND('',#66,.T.);
#47=FACE_BOUND('',#67,.T.);
#48=FACE_BOUND('',#68,.T.);
#49=FACE_BOUND('',#69,.T.);
#50=FACE_BOUND('',#70,.T.);
#51=FACE_BOUND('',#72,.T.);
#52=FACE_BOUND('',#73,.T.);
#53=ADVANCED_FACE('',(#62),#59,.F.);
#54=ADVANCED_FACE('',(#45,#46),#43,.T.);
#55=ADVANCED_FACE('',(#47,#48),#42,.T.);
#56=ADVANCED_FACE('',(#49,#50),#60,.F.);
#57=ADVANCED_FACE('',(#63),#61,.T.);
#58=ADVANCED_FACE('',(#51,#52),#44,.T.);
#59=PLANE('',#101);
#60=PLANE('',#107);
#61=PLANE('',#109);
#62=FACE_OUTER_BOUND('',#64,.T.);
#63=FACE_OUTER_BOUND('',#71,.T.);
#64=EDGE_LOOP('',(#74));
#65=EDGE_LOOP('',(#75));
#66=EDGE_LOOP('',(#76));
#67=EDGE_LOOP('',(#77));
#68=EDGE_LOOP('',(#78));
#69=EDGE_LOOP('',(#79));
#70=EDGE_LOOP('',(#80));
#71=EDGE_LOOP('',(#81));
#72=EDGE_LOOP('',(#82));
#73=EDGE_LOOP('',(#83));
#74=ORIENTED_EDGE('',*,*,#89,.F.);
#75=ORIENTED_EDGE('',*,*,#90,.T.);
#76=ORIENTED_EDGE('',*,*,#91,.T.);
#77=ORIENTED_EDGE('',*,*,#90,.F.);
#78=ORIENTED_EDGE('',*,*,#89,.T.);
#79=ORIENTED_EDGE('',*,*,#91,.F.);
#80=ORIENTED_EDGE('',*,*,#92,.T.);
#81=ORIENTED_EDGE('',*,*,#93,.T.);
#82=ORIENTED_EDGE('',*,*,#93,.F.);
#83=ORIENTED_EDGE('',*,*,#92,.F.);
#84=VERTEX_POINT('',#137);
#85=VERTEX_POINT('',#140);
#86=VERTEX_POINT('',#142);
#87=VERTEX_POINT('',#146);
#88=VERTEX_POINT('',#149);
#89=EDGE_CURVE('',#84,#84,#94,.T.);
#90=EDGE_CURVE('',#85,#85,#95,.T.);
#91=EDGE_CURVE('',#86,#86,#96,.T.);
#92=EDGE_CURVE('',#87,#87,#97,.T.);
#93=EDGE_CURVE('',#88,#88,#98,.T.);
#94=CIRCLE('',#100,10.5);
#95=CIRCLE('',#102,15.);
#96=CIRCLE('',#103,15.);
#97=CIRCLE('',#106,10.);
#98=CIRCLE('',#108,10.);
#99=AXIS2_PLACEMENT_3D('',#135,#111,#112);
#100=AXIS2_PLACEMENT_3D('',#136,#113,#114);
#101=AXIS2_PLACEMENT_3D('',#138,#115,#116);
#102=AXIS2_PLACEMENT_3D('',#139,#117,#118);
#103=AXIS2_PLACEMENT_3D('',#141,#119,#120);
#104=AXIS2_PLACEMENT_3D('',#143,#121,#122);
#105=AXIS2_PLACEMENT_3D('',#144,#123,#124);
#106=AXIS2_PLACEMENT_3D('',#145,#125,#126);
#107=AXIS2_PLACEMENT_3D('',#147,#127,#128);
#108=AXIS2_PLACEMENT_3D('',#148,#129,#130);
#109=AXIS2_PLACEMENT_3D('',#150,#131,#132);
#110=AXIS2_PLACEMENT_3D('',#151,#133,#134);
#111=DIRECTION('',(0.,0.,1.));
#112=DIRECTION('',(1.,0.,0.));
#113=DIRECTION('',(0.,0.,-1.));
#114=DIRECTION('',(-0.923728021347068,-0.383049008063238,0.));
#115=DIRECTION('',(0.,0.,-1.));
#116=DIRECTION('',(-0.923728021347068,-0.383049008063238,0.));
#117=DIRECTION('',(0.,0.,-1.));
#118=DIRECTION('',(-0.923728021347068,-0.383049008063238,0.));
#119=DIRECTION('',(0.,0.,1.));
#120=DIRECTION('',(1.,0.,0.));
#121=DIRECTION('',(0.,0.,-1.));
#122=DIRECTION('',(-0.923728021347068,-0.383049008063238,0.));
#123=DIRECTION('',(0.,0.,-1.));
#124=DIRECTION('',(-0.923728021347068,-0.383049008063238,2.30650641666908E-018));
#125=DIRECTION('',(0.,0.,1.));
#126=DIRECTION('',(1.,0.,0.));
#127=DIRECTION('',(0.,0.,1.));
#128=DIRECTION('',(0.923728021347068,0.383049008063238,0.));
#129=DIRECTION('',(0.,0.,-1.));
#130=DIRECTION('',(-1.,0.,0.));
#131=DIRECTION('',(0.,0.,-1.));
#132=DIRECTION('',(-0.923728021347068,-0.383049008063238,0.));
#133=DIRECTION('',(0.,0.,-1.));
#134=DIRECTION('',(-0.923728021347068,-0.383049008063238,0.));
#135=CARTESIAN_POINT('',(0.,0.,0.));
#136=CARTESIAN_POINT('',(0.,-1.73472347597681E-018,10.));
#137=CARTESIAN_POINT('',(-9.69914422414422,-4.022014584664,10.));
#138=CARTESIAN_POINT('',(0.,-1.73472347597681E-018,10.));
#139=CARTESIAN_POINT('',(0.,-1.73472347597681E-018,8.79999999999999));
#140=CARTESIAN_POINT('',(-13.855920320206,-5.74573512094857,8.79999999999999));
#141=CARTESIAN_POINT('',(0.,-1.73472347597681E-018,0.));
#142=CARTESIAN_POINT('',(15.,-1.73472347597681E-018,0.));
#143=CARTESIAN_POINT('',(0.,-1.73472347597681E-018,53.74));
#144=CARTESIAN_POINT('',(0.,-1.73472347597681E-018,10.));
#145=CARTESIAN_POINT('',(0.,-1.73472347597681E-018,-6.93889390390723E-015));
#146=CARTESIAN_POINT('',(10.,-1.73472347597681E-018,-6.93889390390723E-015));
#147=CARTESIAN_POINT('',(-5.55421061691695,13.3940563095325,-3.46944695195361E-015));
#148=CARTESIAN_POINT('',(-9.4039548065783E-035,-1.73472347597681E-018,-11.));
#149=CARTESIAN_POINT('',(-10.,-1.73472347597681E-018,-11.));
#150=CARTESIAN_POINT('',(0.,-1.73472347597681E-018,-11.));
#151=CARTESIAN_POINT('',(0.,-1.73472347597681E-018,53.74));
#152=MECHANICAL_DESIGN_GEOMETRIC_PRESENTATION_REPRESENTATION('',(#32),#153);
#153=(
GEOMETRIC_REPRESENTATION_CONTEXT(3)
GLOBAL_UNCERTAINTY_ASSIGNED_CONTEXT((#154))
GLOBAL_UNIT_ASSIGNED_CONTEXT((#160,#156,#155))
REPRESENTATION_CONTEXT('837714_stp','TOP_LEVEL_ASSEMBLY_PART')
);
#154=UNCERTAINTY_MEASURE_WITH_UNIT(LENGTH_MEASURE(2.E-005),#160,
'DISTANCE_ACCURACY_VALUE','Maximum Tolerance applied to model');
#155=(
NAMED_UNIT(*)
SI_UNIT($,.STERADIAN.)
SOLID_ANGLE_UNIT()
);
#156=(
CONVERSION_BASED_UNIT('DEGREE',#158)
NAMED_UNIT(#157)
PLANE_ANGLE_UNIT()
);
#157=DIMENSIONAL_EXPONENTS(0.,0.,0.,0.,0.,0.,0.);
#158=PLANE_ANGLE_MEASURE_WITH_UNIT(PLANE_ANGLE_MEASURE(0.0174532925),#159);
#159=(
NAMED_UNIT(*)
PLANE_ANGLE_UNIT()
SI_UNIT($,.RADIAN.)
);
#160=(
LENGTH_UNIT()
NAMED_UNIT(*)
SI_UNIT(.MILLI.,.METRE.)
);
ENDSEC;
END-ISO-10303-21;
