  0
SECTION
  2
HEADER
  9
$ACADVER
  1
AC1014
  9
$ACADMAINTVER
 70
     9
  9
$DWGCODEPAGE
  3
ASCII
  9
$INSBASE
 10
0.0
 20
0.0
 30
0.0
  9
$EXTMIN
 10
1.000000000000000E+20
 20
1.000000000000000E+20
 30
1.000000000000000E+20
  9
$EXTMAX
 10
-1.000000000000000E+20
 20
-1.000000000000000E+20
 30
-1.000000000000000E+20
  9
$LIMMIN
 10
0.0
 20
0.0
  9
$LIMMAX
 10
12.0
 20
9.0
  9
$ORTHOMODE
 70
     0
  9
$REGENMODE
 70
     1
  9
$FILLMODE
 70
     1
  9
$QTEXTMODE
 70
     0
  9
$MIRRTEXT
 70
     1
  9
$DRAGMODE
 70
     2
  9
$LTSCALE
 40
1.0
  9
$OSMODE
 70
    37
  9
$ATTMODE
 70
     1
  9
$TEXTSIZE
 40
0.2
  9
$TRACEWID
 40
0.05
  9
$TEXTSTYLE
  7
STANDARD
  9
$CLAYER
  8
0
  9
$CELTYPE
  6
BYLAYER
  9
$CECOLOR
 62
   256
  9
$CELTSCALE
 40
1.0
  9
$DELOBJ
 70
     1
  9
$DISPSILH
 70
     0
  9
$DIMSCALE
 40
1.0
  9
$DIMASZ
 40
0.18
  9
$DIMEXO
 40
0.0625
  9
$DIMDLI
 40
0.38
  9
$DIMRND
 40
0.0
  9
$DIMDLE
 40
0.0
  9
$DIMEXE
 40
0.18
  9
$DIMTP
 40
0.0
  9
$DIMTM
 40
0.0
  9
$DIMTXT
 40
0.18
  9
$DIMCEN
 40
0.09
  9
$DIMTSZ
 40
0.0
  9
$DIMTOL
 70
     0
  9
$DIMLIM
 70
     0
  9
$DIMTIH
 70
     1
  9
$DIMTOH
 70
     1
  9
$DIMSE1
 70
     0
  9
$DIMSE2
 70
     0
  9
$DIMTAD
 70
     0
  9
$DIMZIN
 70
     0
  9
$DIMBLK
  1

  9
$DIMASO
 70
     1
  9
$DIMSHO
 70
     1
  9
$DIMPOST
  1

  9
$DIMAPOST
  1

  9
$DIMALT
 70
     0
  9
$DIMALTD
 70
     2
  9
$DIMALTF
 40
25.4
  9
$DIMLFAC
 40
1.0
  9
$DIMTOFL
 70
     0
  9
$DIMTVP
 40
0.0
  9
$DIMTIX
 70
     0
  9
$DIMSOXD
 70
     0
  9
$DIMSAH
 70
     0
  9
$DIMBLK1
  1

  9
$DIMBLK2
  1

  9
$DIMSTYLE
  2
STANDARD
  9
$DIMCLRD
 70
     0
  9
$DIMCLRE
 70
     0
  9
$DIMCLRT
 70
     0
  9
$DIMTFAC
 40
1.0
  9
$DIMGAP
 40
0.09
  9
$DIMJUST
 70
     0
  9
$DIMSD1
 70
     0
  9
$DIMSD2
 70
     0
  9
$DIMTOLJ
 70
     1
  9
$DIMTZIN
 70
     0
  9
$DIMALTZ
 70
     0
  9
$DIMALTTZ
 70
     0
  9
$DIMFIT
 70
     3
  9
$DIMUPT
 70
     0
  9
$DIMUNIT
 70
     2
  9
$DIMDEC
 70
     4
  9
$DIMTDEC
 70
     4
  9
$DIMALTU
 70
     2
  9
$DIMALTTD
 70
     2
  9
$DIMTXSTY
  7
STANDARD
  9
$DIMAUNIT
 70
     0
  9
$LUNITS
 70
     2
  9
$LUPREC
 70
     4
  9
$SKETCHINC
 40
0.1
  9
$FILLETRAD
 40
0.5
  9
$AUNITS
 70
     0
  9
$AUPREC
 70
     0
  9
$MENU
  1
.
  9
$ELEVATION
 40
0.0
  9
$PELEVATION
 40
0.0
  9
$THICKNESS
 40
0.0
  9
$LIMCHECK
 70
     0
  9
$CHAMFERA
 40
0.5
  9
$CHAMFERB
 40
0.5
  9
$CHAMFERC
 40
1.0
  9
$CHAMFERD
 40
0.0
  9
$SKPOLY
 70
     0
  9
$TDCREATE
 40
2456035.51476853
  9
$TDUPDATE
 40
2456035.514768542
  9
$TDINDWG
 40
0.0000000116
  9
$TDUSRTIMER
 40
0.0000000116
  9
$USRTIMER
 70
     1
  9
$ANGBASE
 50
0.0
  9
$ANGDIR
 70
     0
  9
$PDMODE
 70
     0
  9
$PDSIZE
 40
0.0
  9
$PLINEWID
 40
0.0
  9
$COORDS
 70
     1
  9
$SPLFRAME
 70
     0
  9
$SPLINETYPE
 70
     6
  9
$SPLINESEGS
 70
     8
  9
$ATTDIA
 70
     0
  9
$ATTREQ
 70
     1
  9
$HANDLING
 70
     1
  9
$HANDSEED
  5
835
  9
$SURFTAB1
 70
     6
  9
$SURFTAB2
 70
     6
  9
$SURFTYPE
 70
     6
  9
$SURFU
 70
     6
  9
$SURFV
 70
     6
  9
$UCSNAME
  2

  9
$UCSORG
 10
0.0
 20
0.0
 30
0.0
  9
$UCSXDIR
 10
1.0
 20
0.0
 30
0.0
  9
$UCSYDIR
 10
0.0
 20
1.0
 30
0.0
  9
$PUCSNAME
  2

  9
$PUCSORG
 10
0.0
 20
0.0
 30
0.0
  9
$PUCSXDIR
 10
1.0
 20
0.0
 30
0.0
  9
$PUCSYDIR
 10
0.0
 20
1.0
 30
0.0
  9
$USERI1
 70
     0
  9
$USERI2
 70
     0
  9
$USERI3
 70
     0
  9
$USERI4
 70
     0
  9
$USERI5
 70
     0
  9
$USERR1
 40
0.0
  9
$USERR2
 40
0.0
  9
$USERR3
 40
0.0
  9
$USERR4
 40
0.0
  9
$USERR5
 40
0.0
  9
$WORLDVIEW
 70
     1
  9
$SHADEDGE
 70
     3
  9
$SHADEDIF
 70
    70
  9
$TILEMODE
 70
     1
  9
$MAXACTVP
 70
    64
  9
$PINSBASE
 10
0.0
 20
0.0
 30
0.0
  9
$PLIMCHECK
 70
     0
  9
$PEXTMIN
 10
1.000000000000000E+20
 20
1.000000000000000E+20
 30
1.000000000000000E+20
  9
$PEXTMAX
 10
-1.000000000000000E+20
 20
-1.000000000000000E+20
 30
-1.000000000000000E+20
  9
$PLIMMIN
 10
0.0
 20
0.0
  9
$PLIMMAX
 10
12.0
 20
9.0
  9
$UNITMODE
 70
     0
  9
$VISRETAIN
 70
     1
  9
$PLINEGEN
 70
     0
  9
$PSLTSCALE
 70
     1
  9
$TREEDEPTH
 70
  3020
  9
$PICKSTYLE
 70
     1
  9
$CMLSTYLE
  2
STANDARD
  9
$CMLJUST
 70
     0
  9
$CMLSCALE
 40
1.0
  9
$PROXYGRAPHICS
 70
     1
  9
$MEASUREMENT
 70
     0
  0
ENDSEC
  0
SECTION
  2
CLASSES
  0
CLASS
  1
ACDBDICTIONARYWDFLT
  2
AcDbDictionaryWithDefault
  3
ObjectDBX Classes
 90
        0
280
     0
281
     0
  0
CLASS
  1
VISUALSTYLE
  2
AcDbVisualStyle
  3
ObjectDBX Classes
 90
     4095
280
     0
281
     0
  0
CLASS
  1
XRECORD
  2
AcDbXrecord
  3
AutoCAD 2000
 90
        0
280
     0
281
     0
  0
CLASS
  1
LWPOLYLINE
  2
AcDbPolyline
  3
AutoCAD 2000
 90
        0
280
     0
281
     1
  0
CLASS
  1
HATCH
  2
AcDbHatch
  3
AutoCAD 2000
 90
        0
280
     0
281
     1
  0
CLASS
  1
ACDBPLACEHOLDER
  2
AcDbPlaceHolder
  3
ObjectDBX Classes
 90
        0
280
     0
281
     0
  0
CLASS
  1
LAYOUT
  2
AcDbLayout
  3
ObjectDBX Classes
 90
        0
280
     0
281
     0
  0
ENDSEC
  0
SECTION
  2
TABLES
  0
TABLE
  2
VPORT
  5
8
330
0
100
AcDbSymbolTable
 70
     1
  0
VPORT
  5
29
330
8
100
AcDbSymbolTableRecord
100
AcDbViewportTableRecord
  2
*ACTIVE
 70
     0
 10
0.0
 20
0.0
 11
1.0
 21
1.0
 12
0.0
 22
0.0
 13
0.0
 23
0.0
 14
0.5
 24
0.5
 15
0.5
 25
0.5
 16
0.0
 26
0.0
 36
1.0
 17
63.27981400057214
 27
-42.20718454444788
 37
0.0
 40
118.4614985289333
 41
1.376803920347183
 42
50.0
 43
0.0
 44
0.0
 50
0.0
 51
0.0
 71
     0
 72
   100
 73
     1
 74
     3
 75
     0
 76
     0
 77
     0
 78
     0
  0
ENDTAB
  0
TABLE
  2
LTYPE
  5
5
330
0
100
AcDbSymbolTable
 70
     5
  0
LTYPE
  5
14
330
5
100
AcDbSymbolTableRecord
100
AcDbLinetypeTableRecord
  2
BYBLOCK
 70
     0
  3

 72
    65
 73
     0
 40
0.0
  0
LTYPE
  5
15
330
5
100
AcDbSymbolTableRecord
100
AcDbLinetypeTableRecord
  2
BYLAYER
 70
     0
  3

 72
    65
 73
     0
 40
0.0
  0
LTYPE
  5
16
330
5
100
AcDbSymbolTableRecord
100
AcDbLinetypeTableRecord
  2
CONTINUOUS
 70
     0
  3
Solid line
 72
    65
 73
     0
 40
0.0
  0
LTYPE
  5
164
330
5
100
AcDbSymbolTableRecord
100
AcDbLinetypeTableRecord
  2
AI-LINETYPE-1
 70
     0
  3
Adobe Illustrator Linetype No. 1
 72
    65
 73
     4
 40
8.819450260381924
 49
7.055560208305538
 74
     0
 49
-0.7055560208305538
 74
     0
 49
0.3527780104152769
 74
     0
 49
-0.7055560208305538
 74
     0
  0
LTYPE
  5
169
330
5
100
AcDbSymbolTableRecord
100
AcDbLinetypeTableRecord
  2
AI-LINETYPE-2
 70
     0
  3
Adobe Illustrator Linetype No. 2
 72
    65
 73
     4
 40
8.819450260381924
 49
7.055560208305538
 74
     0
 49
-0.7055560208305538
 74
     0
 49
0.3527780104152769
 74
     0
 49
-0.7055560208305538
 74
     0
  0
LTYPE
  5
16E
330
5
100
AcDbSymbolTableRecord
100
AcDbLinetypeTableRecord
  2
AI-LINETYPE-3
 70
     0
  3
Adobe Illustrator Linetype No. 3
 72
    65
 73
     4
 40
8.819450260381924
 49
7.055560208305538
 74
     0
 49
-0.7055560208305538
 74
     0
 49
0.3527780104152769
 74
     0
 49
-0.7055560208305538
 74
     0
  0
LTYPE
  5
173
330
5
100
AcDbSymbolTableRecord
100
AcDbLinetypeTableRecord
  2
AI-LINETYPE-4
 70
     0
  3
Adobe Illustrator Linetype No. 4
 72
    65
 73
     4
 40
8.819450260381924
 49
7.055560208305538
 74
     0
 49
-0.7055560208305538
 74
     0
 49
0.3527780104152769
 74
     0
 49
-0.7055560208305538
 74
     0
  0
ENDTAB
  0
TABLE
  2
LAYER
  5
2
330
0
100
AcDbSymbolTable
 70
     5
  0
LAYER
  5
10
330
2
100
AcDbSymbolTableRecord
100
AcDbLayerTableRecord
  2
0
 70
     0
 62
     7
  6
CONTINUOUS
  0
LAYER
  5
3B
330
2
100
AcDbSymbolTableRecord
100
AcDbLayerTableRecord
  2
GRAU_10_
 70
     0
 62
     7
  6
CONTINUOUS
  0
LAYER
  5
3C
330
2
100
AcDbSymbolTableRecord
100
AcDbLayerTableRecord
  2
STANDARDEBENE
 70
     0
 62
     7
  6
CONTINUOUS
  0
LAYER
  5
487
330
2
100
AcDbSymbolTableRecord
100
AcDbLayerTableRecord
  2
BEMA_UNG
 70
     1
 62
     7
  6
CONTINUOUS
  0
LAYER
  5
80E
330
2
100
AcDbSymbolTableRecord
100
AcDbLayerTableRecord
  2
TEXT
 70
     1
 62
     7
  6
CONTINUOUS
  0
ENDTAB
  0
TABLE
  2
STYLE
  5
3
330
0
100
AcDbSymbolTable
 70
     1
  0
STYLE
  5
11
330
3
100
AcDbSymbolTableRecord
100
AcDbTextStyleTableRecord
  2
STANDARD
 70
     0
 40
0.0
 41
1.0
 50
0.0
 71
     0
 42
0.2
  3
txt
  4

  0
ENDTAB
  0
TABLE
  2
VIEW
  5
6
330
0
100
AcDbSymbolTable
 70
     0
  0
ENDTAB
  0
TABLE
  2
UCS
  5
7
330
0
100
AcDbSymbolTable
 70
     0
  0
ENDTAB
  0
TABLE
  2
APPID
  5
9
330
0
100
AcDbSymbolTable
 70
     1
  0
APPID
  5
12
330
9
100
AcDbSymbolTableRecord
100
AcDbRegAppTableRecord
  2
ACAD
 70
     0
  0
ENDTAB
  0
TABLE
  2
DIMSTYLE
  5
A
330
0
100
AcDbSymbolTable
 70
     1
  0
DIMSTYLE
105
27
330
A
100
AcDbSymbolTableRecord
100
AcDbDimStyleTableRecord
  2
STANDARD
 70
     0
  3

  4

  5

  6

  7

 40
1.0
 41
0.18
 42
0.0625
 43
0.38
 44
0.18
 45
0.0
 46
0.0
 47
0.0
 48
0.0
140
0.18
141
0.09
142
0.0
143
25.4
144
1.0
145
0.0
146
1.0
147
0.09
 71
     0
 72
     0
 73
     1
 74
     1
 75
     0
 76
     0
 77
     0
 78
     0
170
     0
171
     2
172
     0
173
     0
174
     0
175
     0
176
     0
177
     0
178
     0
270
     2
271
     4
272
     4
273
     2
274
     2
340
11
275
     0
280
     0
281
     0
282
     0
283
     1
284
     0
285
     0
286
     0
287
     3
288
     0
  0
ENDTAB
  0
TABLE
  2
BLOCK_RECORD
  5
1
330
0
100
AcDbSymbolTable
 70
     1
  0
BLOCK_RECORD
  5
1F
330
1
100
AcDbSymbolTableRecord
100
AcDbBlockTableRecord
  2
*MODEL_SPACE
  0
BLOCK_RECORD
  5
1B
330
1
100
AcDbSymbolTableRecord
100
AcDbBlockTableRecord
  2
*PAPER_SPACE
  0
ENDTAB
  0
ENDSEC
  0
SECTION
  2
BLOCKS
  0
BLOCK
  5
20
330
1F
100
AcDbEntity
  8
0
100
AcDbBlockBegin
  2
*MODEL_SPACE
 70
     0
 71
     0
 10
0.0
 20
0.0
 30
0.0
  3
*MODEL_SPACE
  1

  0
ENDBLK
  5
21
330
1F
100
AcDbEntity
  8
0
100
AcDbBlockEnd
  0
BLOCK
  5
1C
330
1B
100
AcDbEntity
 67
     1
  8
0
100
AcDbBlockBegin
  2
*PAPER_SPACE
 70
     0
 71
     0
 10
0.0
 20
0.0
 30
0.0
  3
*PAPER_SPACE
  1

  0
ENDBLK
  5
1D
330
1B
100
AcDbEntity
 67
     1
  8
0
100
AcDbBlockEnd
  0
ENDSEC
  0
SECTION
  2
ENTITIES
  0
POLYLINE
  5
3D
330
1F
100
AcDbEntity
  8
STANDARDEBENE
 62
     7
100
AcDb2dPolyline
 66
     1
 10
0.0
 20
0.0
 30
0.0
  0
VERTEX
  5
3E
330
3D
100
AcDbEntity
  8
STANDARDEBENE
 62
     7
100
AcDbVertex
100
AcDb2dVertex
 10
128.5429707804028
 20
-14.35977034729196
 30
0.0
  0
VERTEX
  5
3F
330
3D
100
AcDbEntity
  8
STANDARDEBENE
 62
     7
100
AcDbVertex
100
AcDb2dVertex
 10
128.0158708234347
 20
-14.88618128470851
 30
0.0
  0
SEQEND
  5
40
330
3D
100
AcDbEntity
  8
STANDARDEBENE
  0
POLYLINE
  5
41
330
1F
100
AcDbEntity
  8
STANDARDEBENE
 62
     7
100
AcDb2dPolyline
 66
     1
 10
0.0
 20
0.0
 30
0.0
  0
VERTEX
  5
42
330
41
100
AcDbEntity
  8
STANDARDEBENE
 62
     7
100
AcDbVertex
100
AcDb2dVertex
 10
128.0158708234347
 20
-20.38627985529434
 30
0.0
  0
VERTEX
  5
43
330
41
100
AcDbEntity
  8
STANDARDEBENE
 62
     7
100
AcDbVertex
100
AcDb2dVertex
 10
128.5429707804028
 20
-20.91303530248668
 30
0.0
  0
SEQEND
  5
44
330
41
100
AcDbEntity
  8
STANDARDEBENE
  0
POLYLINE
  5
45
330
1F
100
AcDbEntity
  8
STANDARDEBENE
 62
     7
100
AcDb2dPolyline
 66
     1
 10
0.0
 20
0.0
 30
0.0
  0
VERTEX
  5
46
330
45
100
AcDbEntity
  8
STANDARDEBENE
 62
     7
100
AcDbVertex
100
AcDb2dVertex
 10
127.9884822962589
 20
-21.63616132188284
 30
0.0
  0
VERTEX
  5
47
330
45
100
AcDbEntity
  8
STANDARDEBENE
 62
     7
100
AcDbVertex
100
AcDb2dVertex
 10
127.96298857285
 20
-21.62134740152361
 30
0.0
  0
SEQEND
  5
48
330
45
100
AcDbEntity
  8
STANDARDEBENE
  0
POLYLINE
  5
49
330
1F
100
AcDbEntity
  8
STANDARDEBENE
 62
     7
100
AcDb2dPolyline
 66
     1
 10
0.0
 20
0.0
 30
0.0
  0
VERTEX
  5
4A
330
49
100
AcDbEntity
  8
STANDARDEBENE
 62
     7
100
AcDbVertex
100
AcDb2dVertex
 10
127.9884822962589
 20
-13.63578305345631
 30
0.0
  0
VERTEX
  5
4B
330
49
100
AcDbEntity
  8
STANDARDEBENE
 62
     7
100
AcDbVertex
100
AcDb2dVertex
 10
127.9626440630742
 20
-13.65111373847924
 30
0.0
  0
SEQEND
  5
4C
330
49
100
AcDbEntity
  8
STANDARDEBENE
  0
POLYLINE
  5
4D
330
1F
100
AcDbEntity
  8
STANDARDEBENE
 62
     7
100
AcDb2dPolyline
 66
     1
 10
0.0
 20
0.0
 30
0.0
  0
VERTEX
  5
4E
330
4D
100
AcDbEntity
  8
STANDARDEBENE
 62
     7
100
AcDbVertex
100
AcDb2dVertex
 10
128.0158708234347
 20
-17.63640282488932
 30
0.0
  0
VERTEX
  5
4F
330
4D
100
AcDbEntity
  8
STANDARDEBENE
 62
     7
100
AcDbVertex
100
AcDb2dVertex
 10
128.0158708234347
 20
-16.78649720800017
 30
0.0
  0
VERTEX
  5
50
330
4D
100
AcDbEntity
  8
STANDARDEBENE
 62
     7
100
AcDbVertex
100
AcDb2dVertex
 10
128.0158708234347
 20
-16.0199629568537
 30
0.0
  0
VERTEX
  5
51
330
4D
100
AcDbEntity
  8
STANDARDEBENE
 62
     7
100
AcDbVertex
100
AcDb2dVertex
 10
128.0158708234347
 20
-15.41138643790977
 30
0.0
  0
VERTEX
  5
52
330
4D
100
AcDbEntity
  8
STANDARDEBENE
 62
     7
100
AcDbVertex
100
AcDb2dVertex
 10
128.0158708234347
 20
-15.02054009726901
 30
0.0
  0
VERTEX
  5
53
330
4D
100
AcDbEntity
  8
STANDARDEBENE
 62
     7
100
AcDbVertex
100
AcDb2dVertex
 10
128.0158708234347
 20
-14.88618128470851
 30
0.0
  0
SEQEND
  5
54
330
4D
100
AcDbEntity
  8
STANDARDEBENE
  0
POLYLINE
  5
55
330
1F
100
AcDbEntity
  8
STANDARDEBENE
 62
     7
100
AcDb2dPolyline
 66
     1
 10
0.0
 20
0.0
 30
0.0
  0
VERTEX
  5
56
330
55
100
AcDbEntity
  8
STANDARDEBENE
 62
     7
100
AcDbVertex
100
AcDb2dVertex
 10
128.0158708234347
 20
-20.38627985529434
 30
0.0
  0
VERTEX
  5
57
330
55
100
AcDbEntity
  8
STANDARDEBENE
 62
     7
100
AcDbVertex
100
AcDb2dVertex
 10
128.0158708234347
 20
-20.25192104273384
 30
0.0
  0
VERTEX
  5
58
330
55
100
AcDbEntity
  8
STANDARDEBENE
 62
     7
100
AcDbVertex
100
AcDb2dVertex
 10
128.0158708234347
 20
-19.86055793742939
 30
0.0
  0
VERTEX
  5
59
330
55
100
AcDbEntity
  8
STANDARDEBENE
 62
     7
100
AcDbVertex
100
AcDb2dVertex
 10
128.0158708234347
 20
-19.25284269292495
 30
0.0
  0
VERTEX
  5
5A
330
55
100
AcDbEntity
  8
STANDARDEBENE
 62
     7
100
AcDbVertex
100
AcDb2dVertex
 10
128.0158708234347
 20
-18.48613618689057
 30
0.0
  0
VERTEX
  5
5B
330
55
100
AcDbEntity
  8
STANDARDEBENE
 62
     7
100
AcDbVertex
100
AcDb2dVertex
 10
128.0158708234347
 20
-17.63640282488932
 30
0.0
  0
SEQEND
  5
5C
330
55
100
AcDbEntity
  8
STANDARDEBENE
  0
POLYLINE
  5
5D
330
1F
100
AcDbEntity
  8
STANDARDEBENE
 62
     7
100
AcDb2dPolyline
 66
     1
 10
0.0
 20
0.0
 30
0.0
  0
VERTEX
  5
5E
330
5D
100
AcDbEntity
  8
STANDARDEBENE
 62
     7
100
AcDbVertex
100
AcDb2dVertex
 10
129.266096799799
 20
-15.92212218052759
 30
0.0
  0
VERTEX
  5
5F
330
5D
100
AcDbEntity
  8
STANDARDEBENE
 62
     7
100
AcDbVertex
100
AcDb2dVertex
 10
129.266096799799
 20
-17.04832463760526
 30
0.0
  0
VERTEX
  5
60
330
5D
100
AcDbEntity
  8
STANDARDEBENE
 62
     7
100
AcDbVertex
100
AcDb2dVertex
 10
129.266096799799
 20
-18.22413650239759
 30
0.0
  0
VERTEX
  5
61
330
5D
100
AcDbEntity
  8
STANDARDEBENE
 62
     7
100
AcDbVertex
100
AcDb2dVertex
 10
129.266096799799
 20
-19.34982219481157
 30
0.0
  0
SEQEND
  5
62
330
5D
100
AcDbEntity
  8
STANDARDEBENE
  0
POLYLINE
  5
63
330
1F
100
AcDbEntity
  8
STANDARDEBENE
 62
     7
100
AcDb2dPolyline
 66
     1
 10
0.0
 20
0.0
 30
0.0
  0
VERTEX
  5
64
330
63
100
AcDbEntity
  8
STANDARDEBENE
 62
     7
100
AcDbVertex
100
AcDb2dVertex
 10
-0.0921563650254752
 20
-11.63624831473535
 30
0.0
  0
VERTEX
  5
65
330
63
100
AcDbEntity
  8
STANDARDEBENE
 62
     7
100
AcDbVertex
100
AcDb2dVertex
 10
0.4197851618076318
 20
-11.63624831473535
 30
0.0
  0
SEQEND
  5
66
330
63
100
AcDbEntity
  8
STANDARDEBENE
  0
POLYLINE
  5
67
330
1F
100
AcDbEntity
  8
STANDARDEBENE
 62
     7
100
AcDb2dPolyline
 66
     1
 10
0.0
 20
0.0
 30
0.0
  0
VERTEX
  5
68
330
67
100
AcDbEntity
  8
STANDARDEBENE
 62
     7
100
AcDbVertex
100
AcDb2dVertex
 10
1.444357235025438
 20
-11.63624831473535
 30
0.0
  0
VERTEX
  5
69
330
67
100
AcDbEntity
  8
STANDARDEBENE
 62
     7
100
AcDbVertex
100
AcDb2dVertex
 10
2.468068033803754
 20
-11.63624831473535
 30
0.0
  0
SEQEND
  5
6A
330
67
100
AcDbEntity
  8
STANDARDEBENE
  0
POLYLINE
  5
6B
330
1F
100
AcDbEntity
  8
STANDARDEBENE
 62
     7
100
AcDb2dPolyline
 66
     1
 10
0.0
 20
0.0
 30
0.0
  0
VERTEX
  5
6C
330
6B
100
AcDbEntity
  8
STANDARDEBENE
 62
     7
100
AcDbVertex
100
AcDb2dVertex
 10
3.491434322806273
 20
-11.63624831473535
 30
0.0
  0
VERTEX
  5
6D
330
6B
100
AcDbEntity
  8
STANDARDEBENE
 62
     7
100
AcDbVertex
100
AcDb2dVertex
 10
4.515661886248283
 20
-11.63624831473535
 30
0.0
  0
SEQEND
  5
6E
330
6B
100
AcDbEntity
  8
STANDARDEBENE
  0
POLYLINE
  5
6F
330
1F
100
AcDbEntity
  8
STANDARDEBENE
 62
     7
100
AcDb2dPolyline
 66
     1
 10
0.0
 20
0.0
 30
0.0
  0
VERTEX
  5
70
330
6F
100
AcDbEntity
  8
STANDARDEBENE
 62
     7
100
AcDbVertex
100
AcDb2dVertex
 10
5.539028175250802
 20
-11.63624831473535
 30
0.0
  0
VERTEX
  5
71
330
6F
100
AcDbEntity
  8
STANDARDEBENE
 62
     7
100
AcDbVertex
100
AcDb2dVertex
 10
6.563083483804915
 20
-11.63624831473535
 30
0.0
  0
SEQEND
  5
72
330
6F
100
AcDbEntity
  8
STANDARDEBENE
  0
POLYLINE
  5
73
330
1F
100
AcDbEntity
  8
STANDARDEBENE
 62
     7
100
AcDb2dPolyline
 66
     1
 10
0.0
 20
0.0
 30
0.0
  0
VERTEX
  5
74
330
73
100
AcDbEntity
  8
STANDARDEBENE
 62
     7
100
AcDbVertex
100
AcDb2dVertex
 10
7.58679428258323
 20
-11.63624831473535
 30
0.0
  0
VERTEX
  5
75
330
73
100
AcDbEntity
  8
STANDARDEBENE
 62
     7
100
AcDbVertex
100
AcDb2dVertex
 10
8.610677336249443
 20
-11.63624831473535
 30
0.0
  0
SEQEND
  5
76
330
73
100
AcDbEntity
  8
STANDARDEBENE
  0
POLYLINE
  5
77
330
1F
100
AcDbEntity
  8
STANDARDEBENE
 62
     7
100
AcDb2dPolyline
 66
     1
 10
0.0
 20
0.0
 30
0.0
  0
VERTEX
  5
78
330
77
100
AcDbEntity
  8
STANDARDEBENE
 62
     7
100
AcDbVertex
100
AcDb2dVertex
 10
9.63438813502776
 20
-11.63624831473535
 30
0.0
  0
VERTEX
  5
79
330
77
100
AcDbEntity
  8
STANDARDEBENE
 62
     7
100
AcDbVertex
100
AcDb2dVertex
 10
10.65844344358187
 20
-11.63624831473535
 30
0.0
  0
SEQEND
  5
7A
330
77
100
AcDbEntity
  8
STANDARDEBENE
  0
POLYLINE
  5
7B
330
1F
100
AcDbEntity
  8
STANDARDEBENE
 62
     7
100
AcDb2dPolyline
 66
     1
 10
0.0
 20
0.0
 30
0.0
  0
VERTEX
  5
7C
330
7B
100
AcDbEntity
  8
STANDARDEBENE
 62
     7
100
AcDbVertex
100
AcDb2dVertex
 10
11.68180973258439
 20
-11.63624831473535
 30
0.0
  0
VERTEX
  5
7D
330
7B
100
AcDbEntity
  8
STANDARDEBENE
 62
     7
100
AcDbVertex
100
AcDb2dVertex
 10
12.7060372960264
 20
-11.63624831473535
 30
0.0
  0
SEQEND
  5
7E
330
7B
100
AcDbEntity
  8
STANDARDEBENE
  0
POLYLINE
  5
7F
330
1F
100
AcDbEntity
  8
STANDARDEBENE
 62
     7
100
AcDb2dPolyline
 66
     1
 10
0.0
 20
0.0
 30
0.0
  0
VERTEX
  5
80
330
7F
100
AcDbEntity
  8
STANDARDEBENE
 62
     7
100
AcDbVertex
100
AcDb2dVertex
 10
13.72974809480472
 20
-11.63624831473535
 30
0.0
  0
VERTEX
  5
81
330
7F
100
AcDbEntity
  8
STANDARDEBENE
 62
     7
100
AcDbVertex
100
AcDb2dVertex
 10
14.75311438380724
 20
-11.63624831473535
 30
0.0
  0
SEQEND
  5
82
330
7F
100
AcDbEntity
  8
STANDARDEBENE
  0
POLYLINE
  5
83
330
1F
100
AcDbEntity
  8
STANDARDEBENE
 62
     7
100
AcDb2dPolyline
 66
     1
 10
0.0
 20
0.0
 30
0.0
  0
VERTEX
  5
84
330
83
100
AcDbEntity
  8
STANDARDEBENE
 62
     7
100
AcDbVertex
100
AcDb2dVertex
 10
15.77768645702504
 20
-11.63624831473535
 30
0.0
  0
VERTEX
  5
85
330
83
100
AcDbEntity
  8
STANDARDEBENE
 62
     7
100
AcDbVertex
100
AcDb2dVertex
 10
16.80139725580336
 20
-11.63624831473535
 30
0.0
  0
SEQEND
  5
86
330
83
100
AcDbEntity
  8
STANDARDEBENE
  0
POLYLINE
  5
87
330
1F
100
AcDbEntity
  8
STANDARDEBENE
 62
     7
100
AcDb2dPolyline
 66
     1
 10
0.0
 20
0.0
 30
0.0
  0
VERTEX
  5
88
330
87
100
AcDbEntity
  8
STANDARDEBENE
 62
     7
100
AcDbVertex
100
AcDb2dVertex
 10
17.82476354480588
 20
-11.63624831473535
 30
0.0
  0
VERTEX
  5
89
330
87
100
AcDbEntity
  8
STANDARDEBENE
 62
     7
100
AcDbVertex
100
AcDb2dVertex
 10
18.84899110824789
 20
-11.63624831473535
 30
0.0
  0
SEQEND
  5
8A
330
87
100
AcDbEntity
  8
STANDARDEBENE
  0
POLYLINE
  5
8B
330
1F
100
AcDbEntity
  8
STANDARDEBENE
 62
     7
100
AcDb2dPolyline
 66
     1
 10
0.0
 20
0.0
 30
0.0
  0
VERTEX
  5
8C
330
8B
100
AcDbEntity
  8
STANDARDEBENE
 62
     7
100
AcDbVertex
100
AcDb2dVertex
 10
19.87235739725041
 20
-11.63624831473535
 30
0.0
  0
VERTEX
  5
8D
330
8B
100
AcDbEntity
  8
STANDARDEBENE
 62
     7
100
AcDbVertex
100
AcDb2dVertex
 10
20.89606819602872
 20
-11.63624831473535
 30
0.0
  0
SEQEND
  5
8E
330
8B
100
AcDbEntity
  8
STANDARDEBENE
  0
POLYLINE
  5
8F
330
1F
100
AcDbEntity
  8
STANDARDEBENE
 62
     7
100
AcDb2dPolyline
 66
     1
 10
0.0
 20
0.0
 30
0.0
  0
VERTEX
  5
90
330
8F
100
AcDbEntity
  8
STANDARDEBENE
 62
     7
100
AcDbVertex
100
AcDb2dVertex
 10
21.92029575947073
 20
-11.63624831473535
 30
0.0
  0
VERTEX
  5
91
330
8F
100
AcDbEntity
  8
STANDARDEBENE
 62
     7
100
AcDbVertex
100
AcDb2dVertex
 10
22.94366204847325
 20
-11.63624831473535
 30
0.0
  0
SEQEND
  5
92
330
8F
100
AcDbEntity
  8
STANDARDEBENE
  0
POLYLINE
  5
93
330
1F
100
AcDbEntity
  8
STANDARDEBENE
 62
     7
100
AcDb2dPolyline
 66
     1
 10
0.0
 20
0.0
 30
0.0
  0
VERTEX
  5
94
330
93
100
AcDbEntity
  8
STANDARDEBENE
 62
     7
100
AcDbVertex
100
AcDb2dVertex
 10
23.96771735702736
 20
-11.63624831473535
 30
0.0
  0
VERTEX
  5
95
330
93
100
AcDbEntity
  8
STANDARDEBENE
 62
     7
100
AcDbVertex
100
AcDb2dVertex
 10
24.99194492046938
 20
-11.63624831473535
 30
0.0
  0
SEQEND
  5
96
330
93
100
AcDbEntity
  8
STANDARDEBENE
  0
POLYLINE
  5
97
330
1F
100
AcDbEntity
  8
STANDARDEBENE
 62
     7
100
AcDb2dPolyline
 66
     1
 10
0.0
 20
0.0
 30
0.0
  0
VERTEX
  5
98
330
97
100
AcDbEntity
  8
STANDARDEBENE
 62
     7
100
AcDbVertex
100
AcDb2dVertex
 10
26.01531120947189
 20
-11.63624831473535
 30
0.0
  0
VERTEX
  5
99
330
97
100
AcDbEntity
  8
STANDARDEBENE
 62
     7
100
AcDbVertex
100
AcDb2dVertex
 10
27.03936651802601
 20
-11.63624831473535
 30
0.0
  0
SEQEND
  5
9A
330
97
100
AcDbEntity
  8
STANDARDEBENE
  0
POLYLINE
  5
9B
330
1F
100
AcDbEntity
  8
STANDARDEBENE
 62
     7
100
AcDb2dPolyline
 66
     1
 10
0.0
 20
0.0
 30
0.0
  0
VERTEX
  5
9C
330
9B
100
AcDbEntity
  8
STANDARDEBENE
 62
     7
100
AcDbVertex
100
AcDb2dVertex
 10
28.06307731680432
 20
-11.63624831473535
 30
0.0
  0
VERTEX
  5
9D
330
9B
100
AcDbEntity
  8
STANDARDEBENE
 62
     7
100
AcDbVertex
100
AcDb2dVertex
 10
29.08661586069474
 20
-11.63624831473535
 30
0.0
  0
SEQEND
  5
9E
330
9B
100
AcDbEntity
  8
STANDARDEBENE
  0
POLYLINE
  5
9F
330
1F
100
AcDbEntity
  8
STANDARDEBENE
 62
     7
100
AcDb2dPolyline
 66
     1
 10
0.0
 20
0.0
 30
0.0
  0
VERTEX
  5
A0
330
9F
100
AcDbEntity
  8
STANDARDEBENE
 62
     7
100
AcDbVertex
100
AcDb2dVertex
 10
30.11067116924885
 20
-11.63624831473535
 30
0.0
  0
VERTEX
  5
A1
330
9F
100
AcDbEntity
  8
STANDARDEBENE
 62
     7
100
AcDbVertex
100
AcDb2dVertex
 10
31.13472647780296
 20
-11.63624831473535
 30
0.0
  0
SEQEND
  5
A2
330
9F
100
AcDbEntity
  8
STANDARDEBENE
  0
POLYLINE
  5
A3
330
1F
100
AcDbEntity
  8
STANDARDEBENE
 62
     7
100
AcDb2dPolyline
 66
     1
 10
0.0
 20
0.0
 30
0.0
  0
VERTEX
  5
A4
330
A3
100
AcDbEntity
  8
STANDARDEBENE
 62
     7
100
AcDbVertex
100
AcDb2dVertex
 10
32.15826502169338
 20
-11.63624831473535
 30
0.0
  0
VERTEX
  5
A5
330
A3
100
AcDbEntity
  8
STANDARDEBENE
 62
     7
100
AcDbVertex
100
AcDb2dVertex
 10
33.18232033024749
 20
-11.63624831473535
 30
0.0
  0
SEQEND
  5
A6
330
A3
100
AcDbEntity
  8
STANDARDEBENE
  0
POLYLINE
  5
A7
330
1F
100
AcDbEntity
  8
STANDARDEBENE
 62
     7
100
AcDb2dPolyline
 66
     1
 10
0.0
 20
0.0
 30
0.0
  0
VERTEX
  5
A8
330
A7
100
AcDbEntity
  8
STANDARDEBENE
 62
     7
100
AcDbVertex
100
AcDb2dVertex
 10
34.20568661925001
 20
-11.63624831473535
 30
0.0
  0
VERTEX
  5
A9
330
A7
100
AcDbEntity
  8
STANDARDEBENE
 62
     7
100
AcDbVertex
100
AcDb2dVertex
 10
35.22939741802833
 20
-11.63624831473535
 30
0.0
  0
SEQEND
  5
AA
330
A7
100
AcDbEntity
  8
STANDARDEBENE
  0
POLYLINE
  5
AB
330
1F
100
AcDbEntity
  8
STANDARDEBENE
 62
     7
100
AcDb2dPolyline
 66
     1
 10
0.0
 20
0.0
 30
0.0
  0
VERTEX
  5
AC
330
AB
100
AcDbEntity
  8
STANDARDEBENE
 62
     7
100
AcDbVertex
100
AcDb2dVertex
 10
36.25362498147034
 20
-11.63624831473535
 30
0.0
  0
VERTEX
  5
AD
330
AB
100
AcDbEntity
  8
STANDARDEBENE
 62
     7
100
AcDbVertex
100
AcDb2dVertex
 10
37.27699127047286
 20
-11.63624831473535
 30
0.0
  0
SEQEND
  5
AE
330
AB
100
AcDbEntity
  8
STANDARDEBENE
  0
POLYLINE
  5
AF
330
1F
100
AcDbEntity
  8
STANDARDEBENE
 62
     7
100
AcDb2dPolyline
 66
     1
 10
0.0
 20
0.0
 30
0.0
  0
VERTEX
  5
B0
330
AF
100
AcDbEntity
  8
STANDARDEBENE
 62
     7
100
AcDbVertex
100
AcDb2dVertex
 10
38.30104657902697
 20
-11.63624831473535
 30
0.0
  0
VERTEX
  5
B1
330
AF
100
AcDbEntity
  8
STANDARDEBENE
 62
     7
100
AcDbVertex
100
AcDb2dVertex
 10
39.32527414246898
 20
-11.63624831473535
 30
0.0
  0
SEQEND
  5
B2
330
AF
100
AcDbEntity
  8
STANDARDEBENE
  0
POLYLINE
  5
B3
330
1F
100
AcDbEntity
  8
STANDARDEBENE
 62
     7
100
AcDb2dPolyline
 66
     1
 10
0.0
 20
0.0
 30
0.0
  0
VERTEX
  5
B4
330
B3
100
AcDbEntity
  8
STANDARDEBENE
 62
     7
100
AcDbVertex
100
AcDb2dVertex
 10
40.3486404314715
 20
-11.63624831473535
 30
0.0
  0
VERTEX
  5
B5
330
B3
100
AcDbEntity
  8
STANDARDEBENE
 62
     7
100
AcDbVertex
100
AcDb2dVertex
 10
41.37269574002561
 20
-11.63624831473535
 30
0.0
  0
SEQEND
  5
B6
330
B3
100
AcDbEntity
  8
STANDARDEBENE
  0
POLYLINE
  5
B7
330
1F
100
AcDbEntity
  8
STANDARDEBENE
 62
     7
100
AcDb2dPolyline
 66
     1
 10
0.0
 20
0.0
 30
0.0
  0
VERTEX
  5
B8
330
B7
100
AcDbEntity
  8
STANDARDEBENE
 62
     7
100
AcDbVertex
100
AcDb2dVertex
 10
42.39657879369182
 20
-11.63624831473535
 30
0.0
  0
VERTEX
  5
B9
330
B7
100
AcDbEntity
  8
STANDARDEBENE
 62
     7
100
AcDbVertex
100
AcDb2dVertex
 10
42.90800355586124
 20
-11.63624831473535
 30
0.0
  0
VERTEX
  5
BA
330
B7
100
AcDbEntity
  8
STANDARDEBENE
 62
     7
100
AcDbVertex
100
AcDb2dVertex
 10
42.90800355586124
 20
-12.13613199941559
 30
0.0
  0
SEQEND
  5
BB
330
B7
100
AcDbEntity
  8
STANDARDEBENE
  0
POLYLINE
  5
BC
330
1F
100
AcDbEntity
  8
STANDARDEBENE
 62
     7
100
AcDb2dPolyline
 66
     1
 10
0.0
 20
0.0
 30
0.0
  0
VERTEX
  5
BD
330
BC
100
AcDbEntity
  8
STANDARDEBENE
 62
     7
100
AcDbVertex
100
AcDb2dVertex
 10
42.90800355586124
 20
-13.13589936877607
 30
0.0
  0
VERTEX
  5
BE
330
BC
100
AcDbEntity
  8
STANDARDEBENE
 62
     7
100
AcDbVertex
100
AcDb2dVertex
 10
42.90800355586124
 20
-14.13618350280025
 30
0.0
  0
SEQEND
  5
BF
330
BC
100
AcDbEntity
  8
STANDARDEBENE
  0
POLYLINE
  5
C0
330
1F
100
AcDbEntity
  8
STANDARDEBENE
 62
     7
100
AcDb2dPolyline
 66
     1
 10
0.0
 20
0.0
 30
0.0
  0
VERTEX
  5
C1
330
C0
100
AcDbEntity
  8
STANDARDEBENE
 62
     7
100
AcDbVertex
100
AcDb2dVertex
 10
42.90800355586124
 20
-15.13629538193653
 30
0.0
  0
VERTEX
  5
C2
330
C0
100
AcDbEntity
  8
STANDARDEBENE
 62
     7
100
AcDbVertex
100
AcDb2dVertex
 10
42.90800355586124
 20
-16.13606275129701
 30
0.0
  0
SEQEND
  5
C3
330
C0
100
AcDbEntity
  8
STANDARDEBENE
  0
POLYLINE
  5
C4
330
1F
100
AcDbEntity
  8
STANDARDEBENE
 62
     7
100
AcDb2dPolyline
 66
     1
 10
0.0
 20
0.0
 30
0.0
  0
VERTEX
  5
C5
330
C4
100
AcDbEntity
  8
STANDARDEBENE
 62
     7
100
AcDbVertex
100
AcDb2dVertex
 10
42.90800355586124
 20
-17.13651914020908
 30
0.0
  0
VERTEX
  5
C6
330
C4
100
AcDbEntity
  8
STANDARDEBENE
 62
     7
100
AcDbVertex
100
AcDb2dVertex
 10
42.90800355586124
 20
-18.13594199979377
 30
0.0
  0
SEQEND
  5
C7
330
C4
100
AcDbEntity
  8
STANDARDEBENE
  0
POLYLINE
  5
C8
330
1F
100
AcDbEntity
  8
STANDARDEBENE
 62
     7
100
AcDb2dPolyline
 66
     1
 10
0.0
 20
0.0
 30
0.0
  0
VERTEX
  5
C9
330
C8
100
AcDbEntity
  8
STANDARDEBENE
 62
     7
100
AcDbVertex
100
AcDb2dVertex
 10
42.90800355586124
 20
-19.13605387893005
 30
0.0
  0
VERTEX
  5
CA
330
C8
100
AcDbEntity
  8
STANDARDEBENE
 62
     7
100
AcDbVertex
100
AcDb2dVertex
 10
42.90800355586124
 20
-20.13651026784212
 30
0.0
  0
SEQEND
  5
CB
330
C8
100
AcDbEntity
  8
STANDARDEBENE
  0
POLYLINE
  5
CC
330
1F
100
AcDbEntity
  8
STANDARDEBENE
 62
     7
100
AcDb2dPolyline
 66
     1
 10
0.0
 20
0.0
 30
0.0
  0
VERTEX
  5
CD
330
CC
100
AcDbEntity
  8
STANDARDEBENE
 62
     7
100
AcDbVertex
100
AcDb2dVertex
 10
42.90800355586124
 20
-21.13593312742681
 30
0.0
  0
VERTEX
  5
CE
330
CC
100
AcDbEntity
  8
STANDARDEBENE
 62
     7
100
AcDbVertex
100
AcDb2dVertex
 10
42.90800355586124
 20
-22.13638951633888
 30
0.0
  0
SEQEND
  5
CF
330
CC
100
AcDbEntity
  8
STANDARDEBENE
  0
POLYLINE
  5
D0
330
1F
100
AcDbEntity
  8
STANDARDEBENE
 62
     7
100
AcDb2dPolyline
 66
     1
 10
0.0
 20
0.0
 30
0.0
  0
VERTEX
  5
D1
330
D0
100
AcDbEntity
  8
STANDARDEBENE
 62
     7
100
AcDbVertex
100
AcDb2dVertex
 10
42.90800355586124
 20
-23.13650139547516
 30
0.0
  0
VERTEX
  5
D2
330
D0
100
AcDbEntity
  8
STANDARDEBENE
 62
     7
100
AcDbVertex
100
AcDb2dVertex
 10
42.90800355586124
 20
-23.6360405703796
 30
0.0
  0
VERTEX
  5
D3
330
D0
100
AcDbEntity
  8
STANDARDEBENE
 62
     7
100
AcDbVertex
100
AcDb2dVertex
 10
42.39657879369182
 20
-23.6360405703796
 30
0.0
  0
SEQEND
  5
D4
330
D0
100
AcDbEntity
  8
STANDARDEBENE
  0
POLYLINE
  5
D5
330
1F
100
AcDbEntity
  8
STANDARDEBENE
 62
     7
100
AcDb2dPolyline
 66
     1
 10
0.0
 20
0.0
 30
0.0
  0
VERTEX
  5
D6
330
D5
100
AcDbEntity
  8
STANDARDEBENE
 62
     7
100
AcDbVertex
100
AcDb2dVertex
 10
41.37269574002561
 20
-23.6360405703796
 30
0.0
  0
VERTEX
  5
D7
330
D5
100
AcDbEntity
  8
STANDARDEBENE
 62
     7
100
AcDbVertex
100
AcDb2dVertex
 10
40.3486404314715
 20
-23.6360405703796
 30
0.0
  0
SEQEND
  5
D8
330
D5
100
AcDbEntity
  8
STANDARDEBENE
  0
POLYLINE
  5
D9
330
1F
100
AcDbEntity
  8
STANDARDEBENE
 62
     7
100
AcDb2dPolyline
 66
     1
 10
0.0
 20
0.0
 30
0.0
  0
VERTEX
  5
DA
330
D9
100
AcDbEntity
  8
STANDARDEBENE
 62
     7
100
AcDbVertex
100
AcDb2dVertex
 10
39.32527414246898
 20
-23.6360405703796
 30
0.0
  0
VERTEX
  5
DB
330
D9
100
AcDbEntity
  8
STANDARDEBENE
 62
     7
100
AcDbVertex
100
AcDb2dVertex
 10
38.30104657902697
 20
-23.6360405703796
 30
0.0
  0
SEQEND
  5
DC
330
D9
100
AcDbEntity
  8
STANDARDEBENE
  0
POLYLINE
  5
DD
330
1F
100
AcDbEntity
  8
STANDARDEBENE
 62
     7
100
AcDb2dPolyline
 66
     1
 10
0.0
 20
0.0
 30
0.0
  0
VERTEX
  5
DE
330
DD
100
AcDbEntity
  8
STANDARDEBENE
 62
     7
100
AcDbVertex
100
AcDb2dVertex
 10
37.27699127047286
 20
-23.6360405703796
 30
0.0
  0
VERTEX
  5
DF
330
DD
100
AcDbEntity
  8
STANDARDEBENE
 62
     7
100
AcDbVertex
100
AcDb2dVertex
 10
36.25362498147034
 20
-23.6360405703796
 30
0.0
  0
SEQEND
  5
E0
330
DD
100
AcDbEntity
  8
STANDARDEBENE
  0
POLYLINE
  5
E1
330
1F
100
AcDbEntity
  8
STANDARDEBENE
 62
     7
100
AcDb2dPolyline
 66
     1
 10
0.0
 20
0.0
 30
0.0
  0
VERTEX
  5
E2
330
E1
100
AcDbEntity
  8
STANDARDEBENE
 62
     7
100
AcDbVertex
100
AcDb2dVertex
 10
35.22939741802833
 20
-23.6360405703796
 30
0.0
  0
VERTEX
  5
E3
330
E1
100
AcDbEntity
  8
STANDARDEBENE
 62
     7
100
AcDbVertex
100
AcDb2dVertex
 10
34.20568661925001
 20
-23.6360405703796
 30
0.0
  0
SEQEND
  5
E4
330
E1
100
AcDbEntity
  8
STANDARDEBENE
  0
POLYLINE
  5
E5
330
1F
100
AcDbEntity
  8
STANDARDEBENE
 62
     7
100
AcDb2dPolyline
 66
     1
 10
0.0
 20
0.0
 30
0.0
  0
VERTEX
  5
E6
330
E5
100
AcDbEntity
  8
STANDARDEBENE
 62
     7
100
AcDbVertex
100
AcDb2dVertex
 10
33.18232033024749
 20
-23.6360405703796
 30
0.0
  0
VERTEX
  5
E7
330
E5
100
AcDbEntity
  8
STANDARDEBENE
 62
     7
100
AcDbVertex
100
AcDb2dVertex
 10
32.15826502169338
 20
-23.6360405703796
 30
0.0
  0
SEQEND
  5
E8
330
E5
100
AcDbEntity
  8
STANDARDEBENE
  0
POLYLINE
  5
E9
330
1F
100
AcDbEntity
  8
STANDARDEBENE
 62
     7
100
AcDb2dPolyline
 66
     1
 10
0.0
 20
0.0
 30
0.0
  0
VERTEX
  5
EA
330
E9
100
AcDbEntity
  8
STANDARDEBENE
 62
     7
100
AcDbVertex
100
AcDb2dVertex
 10
31.13472647780296
 20
-23.6360405703796
 30
0.0
  0
VERTEX
  5
EB
330
E9
100
AcDbEntity
  8
STANDARDEBENE
 62
     7
100
AcDbVertex
100
AcDb2dVertex
 10
30.11067116924885
 20
-23.6360405703796
 30
0.0
  0
SEQEND
  5
EC
330
E9
100
AcDbEntity
  8
STANDARDEBENE
  0
POLYLINE
  5
ED
330
1F
100
AcDbEntity
  8
STANDARDEBENE
 62
     7
100
AcDb2dPolyline
 66
     1
 10
0.0
 20
0.0
 30
0.0
  0
VERTEX
  5
EE
330
ED
100
AcDbEntity
  8
STANDARDEBENE
 62
     7
100
AcDbVertex
100
AcDb2dVertex
 10
29.08661586069474
 20
-23.6360405703796
 30
0.0
  0
VERTEX
  5
EF
330
ED
100
AcDbEntity
  8
STANDARDEBENE
 62
     7
100
AcDbVertex
100
AcDb2dVertex
 10
28.06307731680432
 20
-23.6360405703796
 30
0.0
  0
SEQEND
  5
F0
330
ED
100
AcDbEntity
  8
STANDARDEBENE
  0
POLYLINE
  5
F1
330
1F
100
AcDbEntity
  8
STANDARDEBENE
 62
     7
100
AcDb2dPolyline
 66
     1
 10
0.0
 20
0.0
 30
0.0
  0
VERTEX
  5
F2
330
F1
100
AcDbEntity
  8
STANDARDEBENE
 62
     7
100
AcDbVertex
100
AcDb2dVertex
 10
27.03936651802601
 20
-23.6360405703796
 30
0.0
  0
VERTEX
  5
F3
330
F1
100
AcDbEntity
  8
STANDARDEBENE
 62
     7
100
AcDbVertex
100
AcDb2dVertex
 10
26.01531120947189
 20
-23.6360405703796
 30
0.0
  0
SEQEND
  5
F4
330
F1
100
AcDbEntity
  8
STANDARDEBENE
  0
POLYLINE
  5
F5
330
1F
100
AcDbEntity
  8
STANDARDEBENE
 62
     7
100
AcDb2dPolyline
 66
     1
 10
0.0
 20
0.0
 30
0.0
  0
VERTEX
  5
F6
330
F5
100
AcDbEntity
  8
STANDARDEBENE
 62
     7
100
AcDbVertex
100
AcDb2dVertex
 10
24.99194492046938
 20
-23.6360405703796
 30
0.0
  0
VERTEX
  5
F7
330
F5
100
AcDbEntity
  8
STANDARDEBENE
 62
     7
100
AcDbVertex
100
AcDb2dVertex
 10
23.96771735702736
 20
-23.6360405703796
 30
0.0
  0
SEQEND
  5
F8
330
F5
100
AcDbEntity
  8
STANDARDEBENE
  0
POLYLINE
  5
F9
330
1F
100
AcDbEntity
  8
STANDARDEBENE
 62
     7
100
AcDb2dPolyline
 66
     1
 10
0.0
 20
0.0
 30
0.0
  0
VERTEX
  5
FA
330
F9
100
AcDbEntity
  8
STANDARDEBENE
 62
     7
100
AcDbVertex
100
AcDb2dVertex
 10
22.94366204847325
 20
-23.6360405703796
 30
0.0
  0
VERTEX
  5
FB
330
F9
100
AcDbEntity
  8
STANDARDEBENE
 62
     7
100
AcDbVertex
100
AcDb2dVertex
 10
21.92029575947073
 20
-23.6360405703796
 30
0.0
  0
SEQEND
  5
FC
330
F9
100
AcDbEntity
  8
STANDARDEBENE
  0
POLYLINE
  5
FD
330
1F
100
AcDbEntity
  8
STANDARDEBENE
 62
     7
100
AcDb2dPolyline
 66
     1
 10
0.0
 20
0.0
 30
0.0
  0
VERTEX
  5
FE
330
FD
100
AcDbEntity
  8
STANDARDEBENE
 62
     7
100
AcDbVertex
100
AcDb2dVertex
 10
20.89606819602872
 20
-23.6360405703796
 30
0.0
  0
VERTEX
  5
FF
330
FD
100
AcDbEntity
  8
STANDARDEBENE
 62
     7
100
AcDbVertex
100
AcDb2dVertex
 10
19.87235739725041
 20
-23.6360405703796
 30
0.0
  0
SEQEND
  5
100
330
FD
100
AcDbEntity
  8
STANDARDEBENE
  0
POLYLINE
  5
101
330
1F
100
AcDbEntity
  8
STANDARDEBENE
 62
     7
100
AcDb2dPolyline
 66
     1
 10
0.0
 20
0.0
 30
0.0
  0
VERTEX
  5
102
330
101
100
AcDbEntity
  8
STANDARDEBENE
 62
     7
100
AcDbVertex
100
AcDb2dVertex
 10
18.84899110824789
 20
-23.6360405703796
 30
0.0
  0
VERTEX
  5
103
330
101
100
AcDbEntity
  8
STANDARDEBENE
 62
     7
100
AcDbVertex
100
AcDb2dVertex
 10
17.82476354480588
 20
-23.6360405703796
 30
0.0
  0
SEQEND
  5
104
330
101
100
AcDbEntity
  8
STANDARDEBENE
  0
POLYLINE
  5
105
330
1F
100
AcDbEntity
  8
STANDARDEBENE
 62
     7
100
AcDb2dPolyline
 66
     1
 10
0.0
 20
0.0
 30
0.0
  0
VERTEX
  5
106
330
105
100
AcDbEntity
  8
STANDARDEBENE
 62
     7
100
AcDbVertex
100
AcDb2dVertex
 10
16.80139725580336
 20
-23.6360405703796
 30
0.0
  0
VERTEX
  5
107
330
105
100
AcDbEntity
  8
STANDARDEBENE
 62
     7
100
AcDbVertex
100
AcDb2dVertex
 10
15.77768645702504
 20
-23.6360405703796
 30
0.0
  0
SEQEND
  5
108
330
105
100
AcDbEntity
  8
STANDARDEBENE
  0
POLYLINE
  5
109
330
1F
100
AcDbEntity
  8
STANDARDEBENE
 62
     7
100
AcDb2dPolyline
 66
     1
 10
0.0
 20
0.0
 30
0.0
  0
VERTEX
  5
10A
330
109
100
AcDbEntity
  8
STANDARDEBENE
 62
     7
100
AcDbVertex
100
AcDb2dVertex
 10
14.75311438380724
 20
-23.6360405703796
 30
0.0
  0
VERTEX
  5
10B
330
109
100
AcDbEntity
  8
STANDARDEBENE
 62
     7
100
AcDbVertex
100
AcDb2dVertex
 10
13.72974809480472
 20
-23.6360405703796
 30
0.0
  0
SEQEND
  5
10C
330
109
100
AcDbEntity
  8
STANDARDEBENE
  0
POLYLINE
  5
10D
330
1F
100
AcDbEntity
  8
STANDARDEBENE
 62
     7
100
AcDb2dPolyline
 66
     1
 10
0.0
 20
0.0
 30
0.0
  0
VERTEX
  5
10E
330
10D
100
AcDbEntity
  8
STANDARDEBENE
 62
     7
100
AcDbVertex
100
AcDb2dVertex
 10
12.7060372960264
 20
-23.6360405703796
 30
0.0
  0
VERTEX
  5
10F
330
10D
100
AcDbEntity
  8
STANDARDEBENE
 62
     7
100
AcDbVertex
100
AcDb2dVertex
 10
11.68180973258439
 20
-23.6360405703796
 30
0.0
  0
SEQEND
  5
110
330
10D
100
AcDbEntity
  8
STANDARDEBENE
  0
POLYLINE
  5
111
330
1F
100
AcDbEntity
  8
STANDARDEBENE
 62
     7
100
AcDb2dPolyline
 66
     1
 10
0.0
 20
0.0
 30
0.0
  0
VERTEX
  5
112
330
111
100
AcDbEntity
  8
STANDARDEBENE
 62
     7
100
AcDbVertex
100
AcDb2dVertex
 10
10.65844344358187
 20
-23.6360405703796
 30
0.0
  0
VERTEX
  5
113
330
111
100
AcDbEntity
  8
STANDARDEBENE
 62
     7
100
AcDbVertex
100
AcDb2dVertex
 10
9.63438813502776
 20
-23.6360405703796
 30
0.0
  0
SEQEND
  5
114
330
111
100
AcDbEntity
  8
STANDARDEBENE
  0
POLYLINE
  5
115
330
1F
100
AcDbEntity
  8
STANDARDEBENE
 62
     7
100
AcDb2dPolyline
 66
     1
 10
0.0
 20
0.0
 30
0.0
  0
VERTEX
  5
116
330
115
100
AcDbEntity
  8
STANDARDEBENE
 62
     7
100
AcDbVertex
100
AcDb2dVertex
 10
8.610677336249443
 20
-23.6360405703796
 30
0.0
  0
VERTEX
  5
117
330
115
100
AcDbEntity
  8
STANDARDEBENE
 62
     7
100
AcDbVertex
100
AcDb2dVertex
 10
7.58679428258323
 20
-23.6360405703796
 30
0.0
  0
SEQEND
  5
118
330
115
100
AcDbEntity
  8
STANDARDEBENE
  0
POLYLINE
  5
119
330
1F
100
AcDbEntity
  8
STANDARDEBENE
 62
     7
100
AcDb2dPolyline
 66
     1
 10
0.0
 20
0.0
 30
0.0
  0
VERTEX
  5
11A
330
119
100
AcDbEntity
  8
STANDARDEBENE
 62
     7
100
AcDbVertex
100
AcDb2dVertex
 10
6.563083483804915
 20
-23.6360405703796
 30
0.0
  0
VERTEX
  5
11B
330
119
100
AcDbEntity
  8
STANDARDEBENE
 62
     7
100
AcDbVertex
100
AcDb2dVertex
 10
5.539028175250802
 20
-23.6360405703796
 30
0.0
  0
SEQEND
  5
11C
330
119
100
AcDbEntity
  8
STANDARDEBENE
  0
POLYLINE
  5
11D
330
1F
100
AcDbEntity
  8
STANDARDEBENE
 62
     7
100
AcDb2dPolyline
 66
     1
 10
0.0
 20
0.0
 30
0.0
  0
VERTEX
  5
11E
330
11D
100
AcDbEntity
  8
STANDARDEBENE
 62
     7
100
AcDbVertex
100
AcDb2dVertex
 10
4.515661886248283
 20
-23.6360405703796
 30
0.0
  0
VERTEX
  5
11F
330
11D
100
AcDbEntity
  8
STANDARDEBENE
 62
     7
100
AcDbVertex
100
AcDb2dVertex
 10
3.491434322806273
 20
-23.6360405703796
 30
0.0
  0
SEQEND
  5
120
330
11D
100
AcDbEntity
  8
STANDARDEBENE
  0
POLYLINE
  5
121
330
1F
100
AcDbEntity
  8
STANDARDEBENE
 62
     7
100
AcDb2dPolyline
 66
     1
 10
0.0
 20
0.0
 30
0.0
  0
VERTEX
  5
122
330
121
100
AcDbEntity
  8
STANDARDEBENE
 62
     7
100
AcDbVertex
100
AcDb2dVertex
 10
2.468068033803754
 20
-23.6360405703796
 30
0.0
  0
VERTEX
  5
123
330
121
100
AcDbEntity
  8
STANDARDEBENE
 62
     7
100
AcDbVertex
100
AcDb2dVertex
 10
1.444357235025438
 20
-23.6360405703796
 30
0.0
  0
SEQEND
  5
124
330
121
100
AcDbEntity
  8
STANDARDEBENE
  0
POLYLINE
  5
125
330
1F
100
AcDbEntity
  8
STANDARDEBENE
 62
     7
100
AcDb2dPolyline
 66
     1
 10
0.0
 20
0.0
 30
0.0
  0
VERTEX
  5
126
330
125
100
AcDbEntity
  8
STANDARDEBENE
 62
     7
100
AcDbVertex
100
AcDb2dVertex
 10
0.4197851618076318
 20
-23.6360405703796
 30
0.0
  0
VERTEX
  5
127
330
125
100
AcDbEntity
  8
STANDARDEBENE
 62
     7
100
AcDbVertex
100
AcDb2dVertex
 10
-0.0921563650254752
 20
-23.6360405703796
 30
0.0
  0
SEQEND
  5
128
330
125
100
AcDbEntity
  8
STANDARDEBENE
  0
POLYLINE
  5
129
330
1F
100
AcDbEntity
  8
STANDARDEBENE
 62
     7
100
AcDb2dPolyline
 66
     1
 10
0.0
 20
0.0
 30
0.0
  0
VERTEX
  5
12A
330
129
100
AcDbEntity
  8
STANDARDEBENE
 62
     7
100
AcDbVertex
100
AcDb2dVertex
 10
59.88131118978689
 20
-28.15445853483426
 30
0.0
  0
VERTEX
  5
12B
330
129
100
AcDbEntity
  8
STANDARDEBENE
 62
     7
100
AcDbVertex
100
AcDb2dVertex
 10
60.905366498341
 20
-27.14091077444193
 30
0.0
  0
SEQEND
  5
12C
330
129
100
AcDbEntity
  8
STANDARDEBENE
  0
POLYLINE
  5
12D
330
1F
100
AcDbEntity
  8
STANDARDEBENE
 62
     7
100
AcDb2dPolyline
 66
     1
 10
0.0
 20
0.0
 30
0.0
  0
VERTEX
  5
12E
330
12D
100
AcDbEntity
  8
STANDARDEBENE
 62
     7
100
AcDbVertex
100
AcDb2dVertex
 10
42.53266015513131
 20
-21.74623219524972
 30
0.0
  0
VERTEX
  5
12F
330
12D
100
AcDbEntity
  8
STANDARDEBENE
 62
     7
100
AcDbVertex
100
AcDb2dVertex
 10
42.53266015513131
 20
-13.52571218008944
 30
0.0
  0
SEQEND
  5
130
330
12D
100
AcDbEntity
  8
STANDARDEBENE
  0
POLYLINE
  5
131
330
1F
100
AcDbEntity
  8
STANDARDEBENE
 62
     7
100
AcDb2dPolyline
 66
     1
 10
0.0
 20
0.0
 30
0.0
  0
VERTEX
  5
132
330
131
100
AcDbEntity
  8
STANDARDEBENE
 62
     7
100
AcDbVertex
100
AcDb2dVertex
 10
45.94864683703823
 20
-28.47743644964316
 30
0.0
  0
VERTEX
  5
133
330
131
100
AcDbEntity
  8
STANDARDEBENE
 62
     7
100
AcDbVertex
100
AcDb2dVertex
 10
56.88149231704175
 20
-28.22387725465718
 30
0.0
  0
SEQEND
  5
134
330
131
100
AcDbEntity
  8
STANDARDEBENE
  0
SPLINE
  5
135
330
1F
100
AcDbEntity
  8
STANDARDEBENE
 62
     7
100
AcDbSpline
210
0.0
220
0.0
230
1.0
 70
     8
 71
     3
 72
    17
 73
    13
 74
     0
 42
0.0000000001
 43
0.0000000001
 40
0.0
 40
0.0
 40
0.0
 40
0.0
 40
1.0
 40
1.0
 40
1.0
 40
2.0
 40
2.0
 40
2.0
 40
3.0
 40
3.0
 40
3.0
 40
4.0
 40
4.0
 40
4.0
 40
4.0
 10
25.7453878001356
 20
-14.51273268774546
 30
0.0
 10
25.4575498824579
 20
-14.43625151751871
 30
0.0
 10
25.16867843545281
 20
-14.40076701061171
 30
0.0
 10
24.90788453517511
 20
-14.40283406926648
 30
0.0
 10
23.12280713188726
 20
-14.40283406926648
 30
0.0
 10
21.67500479910386
 20
-15.85046414716198
 30
0.0
 10
21.67500479910386
 20
-17.63640282488932
 30
0.0
 10
21.67500479910386
 20
-19.42165248306507
 30
0.0
 10
23.12280713188726
 20
-20.86962707073637
 30
0.0
 10
24.90788453517511
 20
-20.86962707073637
 30
0.0
 10
26.39633902150246
 20
-20.86962707073637
 30
0.0
 10
27.64966558584892
 20
-19.86383078029945
 30
0.0
 10
28.03138241743108
 20
-18.47321707029822
 30
0.0
  0
SPLINE
  5
136
330
1F
100
AcDbEntity
  8
STANDARDEBENE
 62
     7
100
AcDbSpline
210
0.0
220
0.0
230
1.0
 70
     8
 71
     3
 72
    17
 73
    13
 74
     0
 42
0.0000000001
 43
0.0000000001
 40
0.0
 40
0.0
 40
0.0
 40
0.0
 40
1.0
 40
1.0
 40
1.0
 40
2.0
 40
2.0
 40
2.0
 40
3.0
 40
3.0
 40
3.0
 40
4.0
 40
4.0
 40
4.0
 40
4.0
 10
25.94365317610629
 20
-13.77272568933529
 30
0.0
 10
25.58777457770885
 20
-13.67712422655185
 30
0.0
 10
25.23069019509612
 20
-13.63268246547415
 30
0.0
 10
24.90788453517511
 20
-13.63578305345631
 30
0.0
 10
22.69923236254587
 20
-13.63578305345631
 30
0.0
 10
20.90812603818159
 20
-15.42688937782059
 30
0.0
 10
20.90812603818159
 20
-17.63640282488932
 30
0.0
 10
20.90812603818159
 20
-19.84505499751856
 30
0.0
 10
22.69923236254587
 20
-21.63616132188284
 30
0.0
 10
24.90788453517511
 20
-21.63616132188284
 30
0.0
 10
26.74946154169353
 20
-21.63616132188284
 30
0.0
 10
28.29958327788839
 20
-20.39248103125867
 30
0.0
 10
28.77225069028074
 20
-18.67131019138101
 30
0.0
  0
SPLINE
  5
137
330
1F
100
AcDbEntity
  8
STANDARDEBENE
 62
     7
100
AcDbSpline
210
0.0
220
0.0
230
1.0
 70
    11
 71
     3
 72
    17
 73
    13
 74
     0
 42
0.0000000001
 43
0.0000000001
 40
0.0
 40
0.0
 40
0.0
 40
0.0
 40
1.0
 40
1.0
 40
1.0
 40
2.0
 40
2.0
 40
2.0
 40
3.0
 40
3.0
 40
3.0
 40
4.0
 40
4.0
 40
4.0
 40
4.0
 10
28.14145329079795
 20
-17.63640282488932
 30
0.0
 10
28.14145329079795
 20
-15.85046414716198
 30
0.0
 10
26.69365095801455
 20
-14.40283406926648
 30
0.0
 10
24.90788453517511
 20
-14.40283406926648
 30
0.0
 10
23.12280713188726
 20
-14.40283406926648
 30
0.0
 10
21.67500479910386
 20
-15.85046414716198
 30
0.0
 10
21.67500479910386
 20
-17.63640282488932
 30
0.0
 10
21.67500479910386
 20
-19.42165248306507
 30
0.0
 10
23.12280713188726
 20
-20.86962707073637
 30
0.0
 10
24.90788453517511
 20
-20.86962707073637
 30
0.0
 10
26.69365095801455
 20
-20.86962707073637
 30
0.0
 10
28.14145329079795
 20
-19.42165248306507
 30
0.0
 10
28.14145329079795
 20
-17.63640282488932
 30
0.0
  0
SPLINE
  5
138
330
1F
100
AcDbEntity
  8
STANDARDEBENE
 62
     7
100
AcDbSpline
210
0.0
220
0.0
230
1.0
 70
     8
 71
     3
 72
     8
 73
     4
 74
     0
 42
0.0000000001
 43
0.0000000001
 40
0.0
 40
0.0
 40
0.0
 40
0.0
 40
1.0
 40
1.0
 40
1.0
 40
1.0
 10
26.32261392948208
 20
-19.049926434981
 30
0.0
 10
26.45197735029354
 20
-18.92073526905744
 30
0.0
 10
26.55929214545404
 20
-18.77862498654152
 30
0.0
 10
26.63784037433557
 20
-18.63961529200776
 30
0.0
  0
POLYLINE
  5
139
330
1F
100
AcDbEntity
  8
STANDARDEBENE
 62
     7
100
AcDb2dPolyline
 66
     1
 10
0.0
 20
0.0
 30
0.0
  0
VERTEX
  5
13A
330
139
100
AcDbEntity
  8
STANDARDEBENE
 62
     7
100
AcDbVertex
100
AcDb2dVertex
 10
26.32261392948208
 20
-19.049926434981
 30
0.0
  0
VERTEX
  5
13B
330
139
100
AcDbEntity
  8
STANDARDEBENE
 62
     7
100
AcDbVertex
100
AcDb2dVertex
 10
25.78242260103368
 20
-19.75307088738099
 30
0.0
  0
VERTEX
  5
13C
330
139
100
AcDbEntity
  8
STANDARDEBENE
 62
     7
100
AcDbVertex
100
AcDb2dVertex
 10
24.90409492764135
 20
-19.63628207338608
 30
0.0
  0
SEQEND
  5
13D
330
139
100
AcDbEntity
  8
STANDARDEBENE
  0
SPLINE
  5
13E
330
1F
100
AcDbEntity
  8
STANDARDEBENE
 62
     7
100
AcDbSpline
210
0.0
220
0.0
230
1.0
 70
     8
 71
     3
 72
     8
 73
     4
 74
     0
 42
0.0000000001
 43
0.0000000001
 40
0.0
 40
0.0
 40
0.0
 40
0.0
 40
1.0
 40
1.0
 40
1.0
 40
1.0
 10
24.39146438125665
 20
-19.56841364755424
 30
0.0
 10
24.5671643669127
 20
-19.61509472217462
 30
0.0
 10
24.74458690144773
 20
-19.63766011248927
 30
0.0
 10
24.90409492764135
 20
-19.63628207338608
 30
0.0
  0
POLYLINE
  5
13F
330
1F
100
AcDbEntity
  8
STANDARDEBENE
 62
     7
100
AcDb2dPolyline
 66
     1
 10
0.0
 20
0.0
 30
0.0
  0
VERTEX
  5
140
330
13F
100
AcDbEntity
  8
STANDARDEBENE
 62
     7
100
AcDbVertex
100
AcDb2dVertex
 10
24.39146438125665
 20
-19.56841364755424
 30
0.0
  0
VERTEX
  5
141
330
13F
100
AcDbEntity
  8
STANDARDEBENE
 62
     7
100
AcDbVertex
100
AcDb2dVertex
 10
23.49332739575604
 20
-19.44921326512876
 30
0.0
  0
VERTEX
  5
142
330
13F
100
AcDbEntity
  8
STANDARDEBENE
 62
     7
100
AcDbVertex
100
AcDb2dVertex
 10
22.61138236971785
 20
-17.3146306942957
 30
0.0
  0
SEQEND
  5
143
330
13F
100
AcDbEntity
  8
STANDARDEBENE
  0
POLYLINE
  5
144
330
1F
100
AcDbEntity
  8
STANDARDEBENE
 62
     7
100
AcDb2dPolyline
 66
     1
 10
0.0
 20
0.0
 30
0.0
  0
VERTEX
  5
145
330
144
100
AcDbEntity
  8
STANDARDEBENE
 62
     7
100
AcDbVertex
100
AcDb2dVertex
 10
24.0188770587331
 20
-15.48407800060276
 30
0.0
  0
VERTEX
  5
146
330
144
100
AcDbEntity
  8
STANDARDEBENE
 62
     7
100
AcDbVertex
100
AcDb2dVertex
 10
22.61138236971785
 20
-17.3146306942957
 30
0.0
  0
SEQEND
  5
147
330
144
100
AcDbEntity
  8
STANDARDEBENE
  0
POLYLINE
  5
148
330
1F
100
AcDbEntity
  8
STANDARDEBENE
 62
     7
100
AcDb2dPolyline
 66
     1
 10
0.0
 20
0.0
 30
0.0
  0
VERTEX
  5
149
330
148
100
AcDbEntity
  8
STANDARDEBENE
 62
     7
100
AcDbVertex
100
AcDb2dVertex
 10
26.30848902867443
 20
-15.78707434841549
 30
0.0
  0
VERTEX
  5
14A
330
148
100
AcDbEntity
  8
STANDARDEBENE
 62
     7
100
AcDbVertex
100
AcDb2dVertex
 10
24.0188770587331
 20
-15.48407800060276
 30
0.0
  0
SEQEND
  5
14B
330
148
100
AcDbEntity
  8
STANDARDEBENE
  0
POLYLINE
  5
14C
330
1F
100
AcDbEntity
  8
STANDARDEBENE
 62
     7
100
AcDb2dPolyline
 66
     1
 10
0.0
 20
0.0
 30
0.0
  0
VERTEX
  5
14D
330
14C
100
AcDbEntity
  8
STANDARDEBENE
 62
     7
100
AcDbVertex
100
AcDb2dVertex
 10
27.19043405471263
 20
-17.92165691924855
 30
0.0
  0
VERTEX
  5
14E
330
14C
100
AcDbEntity
  8
STANDARDEBENE
 62
     7
100
AcDbVertex
100
AcDb2dVertex
 10
26.30848902867443
 20
-15.78707434841549
 30
0.0
  0
SEQEND
  5
14F
330
14C
100
AcDbEntity
  8
STANDARDEBENE
  0
POLYLINE
  5
150
330
1F
100
AcDbEntity
  8
STANDARDEBENE
 62
     7
100
AcDb2dPolyline
 66
     1
 10
0.0
 20
0.0
 30
0.0
  0
VERTEX
  5
151
330
150
100
AcDbEntity
  8
STANDARDEBENE
 62
     7
100
AcDbVertex
100
AcDb2dVertex
 10
27.19043405471263
 20
-17.92165691924855
 30
0.0
  0
VERTEX
  5
152
330
150
100
AcDbEntity
  8
STANDARDEBENE
 62
     7
100
AcDbVertex
100
AcDb2dVertex
 10
26.63784037433557
 20
-18.63961529200776
 30
0.0
  0
SEQEND
  5
153
330
150
100
AcDbEntity
  8
STANDARDEBENE
  0
SPLINE
  5
154
330
1F
100
AcDbEntity
  8
STANDARDEBENE
 62
     7
100
AcDbSpline
210
0.0
220
0.0
230
1.0
 70
     8
 71
     3
 72
     8
 73
     4
 74
     0
 42
0.0000000001
 43
0.0000000001
 40
0.0
 40
0.0
 40
0.0
 40
0.0
 40
1.0
 40
1.0
 40
1.0
 40
1.0
 10
26.90845280322346
 20
-17.63640282488932
 30
0.0
 10
26.90845280322346
 20
-17.36045049447659
 30
0.0
 10
26.85281447443238
 20
-17.09793404531991
 30
0.0
 10
26.75652399209735
 20
-16.87228014217342
 30
0.0
  0
SPLINE
  5
155
330
1F
100
AcDbEntity
  8
STANDARDEBENE
 62
     7
100
AcDbSpline
210
0.0
220
0.0
230
1.0
 70
     8
 71
     3
 72
    14
 73
    10
 74
     0
 42
0.0000000001
 43
0.0000000001
 40
0.0
 40
0.0
 40
0.0
 40
0.0
 40
1.0
 40
1.0
 40
1.0
 40
2.0
 40
2.0
 40
2.0
 40
3.0
 40
3.0
 40
3.0
 40
3.0
 10
26.75652399209735
 20
-16.87228014217342
 30
0.0
 10
26.44026401791647
 20
-16.10643491057854
 30
0.0
 10
25.70232407816108
 20
-15.64169122302951
 30
0.0
 10
24.90788453517511
 20
-15.63617906661677
 30
0.0
 10
23.80338619397259
 20
-15.63617906661677
 30
0.0
 10
22.90800528667835
 20
-16.53138771902311
 30
0.0
 10
22.90800528667835
 20
-17.63640282488932
 30
0.0
 10
22.90800528667835
 20
-18.55676069092879
 30
0.0
 10
23.53036219665413
 20
-19.33242445113386
 30
0.0
 10
24.39146438125665
 20
-19.56841364755424
 30
0.0
  0
SPLINE
  5
156
330
1F
100
AcDbEntity
  8
STANDARDEBENE
 62
     7
100
AcDbSpline
210
0.0
220
0.0
230
1.0
 70
     8
 71
     3
 72
     8
 73
     4
 74
     0
 42
0.0000000001
 43
0.0000000001
 40
0.0
 40
0.0
 40
0.0
 40
0.0
 40
1.0
 40
1.0
 40
1.0
 40
1.0
 10
24.90409492764135
 20
-19.63628207338608
 30
0.0
 10
25.45823890200949
 20
-19.63766011248927
 30
0.0
 10
25.95950062579292
 20
-19.41303973867016
 30
0.0
 10
26.32261392948208
 20
-19.049926434981
 30
0.0
  0
SPLINE
  5
157
330
1F
100
AcDbEntity
  8
STANDARDEBENE
 62
     7
100
AcDbSpline
210
0.0
220
0.0
230
1.0
 70
     8
 71
     3
 72
     8
 73
     4
 74
     0
 42
0.0000000001
 43
0.0000000001
 40
0.0
 40
0.0
 40
0.0
 40
0.0
 40
1.0
 40
1.0
 40
1.0
 40
1.0
 10
26.63784037433557
 20
-18.63961529200776
 30
0.0
 10
26.8238756532655
 20
-18.32025472984472
 30
0.0
 10
26.91069211676614
 20
-17.97040505252371
 30
0.0
 10
26.90845280322346
 20
-17.63640282488932
 30
0.0
  0
POLYLINE
  5
158
330
1F
100
AcDbEntity
  8
STANDARDEBENE
 62
     7
100
AcDb2dPolyline
 66
     1
 10
0.0
 20
0.0
 30
0.0
  0
VERTEX
  5
159
330
158
100
AcDbEntity
  8
STANDARDEBENE
 62
     7
100
AcDbVertex
100
AcDb2dVertex
 10
45.94864683703823
 20
-82.2202724542939
 30
0.0
  0
VERTEX
  5
15A
330
158
100
AcDbEntity
  8
STANDARDEBENE
 62
     7
100
AcDbVertex
100
AcDb2dVertex
 10
56.88114780726595
 20
-82.18427118272321
 30
0.0
  0
SEQEND
  5
15B
330
158
100
AcDbEntity
  8
STANDARDEBENE
  0
POLYLINE
  5
15C
330
1F
100
AcDbEntity
  8
STANDARDEBENE
 62
     7
100
AcDb2dPolyline
 66
     1
 10
0.0
 20
0.0
 30
0.0
  0
VERTEX
  5
15D
330
15C
100
AcDbEntity
  8
STANDARDEBENE
 62
     7
100
AcDbVertex
100
AcDb2dVertex
 10
42.53266015513131
 20
-93.12745195600061
 30
0.0
  0
VERTEX
  5
15E
330
15C
100
AcDbEntity
  8
STANDARDEBENE
 62
     7
100
AcDbVertex
100
AcDb2dVertex
 10
42.53266015513131
 20
-90.36276100523637
 30
0.0
  0
SEQEND
  5
15F
330
15C
100
AcDbEntity
  8
STANDARDEBENE
  0
POLYLINE
  5
160
330
1F
100
AcDbEntity
  8
STANDARDEBENE
  6
AI-LINETYPE-1
 62
     7
100
AcDb2dPolyline
 66
     1
 10
0.0
 20
0.0
 30
0.0
  0
VERTEX
  5
161
330
160
100
AcDbEntity
  8
STANDARDEBENE
  6
AI-LINETYPE-1
 62
     7
100
AcDbVertex
100
AcDb2dVertex
 10
63.45973423098169
 20
-17.63640282488932
 30
0.0
  0
VERTEX
  5
162
330
160
100
AcDbEntity
  8
STANDARDEBENE
  6
AI-LINETYPE-1
 62
     7
100
AcDbVertex
100
AcDb2dVertex
 10
-3.255789636161694
 20
-17.63640282488932
 30
0.0
  0
SEQEND
  5
163
330
160
100
AcDbEntity
  8
STANDARDEBENE
  6
AI-LINETYPE-1
  0
POLYLINE
  5
165
330
1F
100
AcDbEntity
  8
STANDARDEBENE
  6
AI-LINETYPE-2
 62
     7
100
AcDb2dPolyline
 66
     1
 10
0.0
 20
0.0
 30
0.0
  0
VERTEX
  5
166
330
165
100
AcDbEntity
  8
STANDARDEBENE
  6
AI-LINETYPE-2
 62
     7
100
AcDbVertex
100
AcDb2dVertex
 10
123.5162286417609
 20
-36.99750771485822
 30
0.0
  0
VERTEX
  5
167
330
165
100
AcDbEntity
  8
STANDARDEBENE
  6
AI-LINETYPE-2
 62
     7
100
AcDbVertex
100
AcDb2dVertex
 10
123.5162286417609
 20
1.851137152796764
 30
0.0
  0
SEQEND
  5
168
330
165
100
AcDbEntity
  8
STANDARDEBENE
  6
AI-LINETYPE-2
  0
POLYLINE
  5
16A
330
1F
100
AcDbEntity
  8
STANDARDEBENE
  6
AI-LINETYPE-3
 62
     7
100
AcDb2dPolyline
 66
     1
 10
0.0
 20
0.0
 30
0.0
  0
VERTEX
  5
16B
330
16A
100
AcDbEntity
  8
STANDARDEBENE
  6
AI-LINETYPE-3
 62
     7
100
AcDbVertex
100
AcDb2dVertex
 10
143.1858420359553
 20
-17.63640282488932
 30
0.0
  0
VERTEX
  5
16C
330
16A
100
AcDbEntity
  8
STANDARDEBENE
  6
AI-LINETYPE-3
 62
     7
100
AcDbVertex
100
AcDb2dVertex
 10
103.274556764857
 20
-17.63640282488932
 30
0.0
  0
SEQEND
  5
16D
330
16A
100
AcDbEntity
  8
STANDARDEBENE
  6
AI-LINETYPE-3
  0
POLYLINE
  5
16F
330
1F
100
AcDbEntity
  8
STANDARDEBENE
  6
AI-LINETYPE-4
 62
     7
100
AcDb2dPolyline
 66
     1
 10
0.0
 20
0.0
 30
0.0
  0
VERTEX
  5
170
330
16F
100
AcDbEntity
  8
STANDARDEBENE
  6
AI-LINETYPE-4
 62
     7
100
AcDbVertex
100
AcDb2dVertex
 10
63.45973423098169
 20
-82.60026673699709
 30
0.0
  0
VERTEX
  5
171
330
16F
100
AcDbEntity
  8
STANDARDEBENE
  6
AI-LINETYPE-4
 62
     7
100
AcDbVertex
100
AcDb2dVertex
 10
-3.37395648925978
 20
-82.60026673699709
 30
0.0
  0
SEQEND
  5
172
330
16F
100
AcDbEntity
  8
STANDARDEBENE
  6
AI-LINETYPE-4
  0
POLYLINE
  5
174
330
1F
100
AcDbEntity
  8
STANDARDEBENE
 62
     7
100
AcDb2dPolyline
 66
     1
 10
0.0
 20
0.0
 30
0.0
  0
VERTEX
  5
175
330
174
100
AcDbEntity
  8
STANDARDEBENE
 62
     7
100
AcDbVertex
100
AcDb2dVertex
 10
127.9884822962589
 20
-21.59206407058093
 30
0.0
  0
VERTEX
  5
176
330
174
100
AcDbEntity
  8
STANDARDEBENE
 62
     7
100
AcDbVertex
100
AcDb2dVertex
 10
127.9884822962589
 20
-21.63616132188284
 30
0.0
  0
SEQEND
  5
177
330
174
100
AcDbEntity
  8
STANDARDEBENE
  0
POLYLINE
  5
178
330
1F
100
AcDbEntity
  8
STANDARDEBENE
 62
     7
100
AcDb2dPolyline
 66
     1
 10
0.0
 20
0.0
 30
0.0
  0
VERTEX
  5
179
330
178
100
AcDbEntity
  8
STANDARDEBENE
 62
     7
100
AcDbVertex
100
AcDb2dVertex
 10
127.9884822962589
 20
-13.6817751085251
 30
0.0
  0
VERTEX
  5
17A
330
178
100
AcDbEntity
  8
STANDARDEBENE
 62
     7
100
AcDbVertex
100
AcDb2dVertex
 10
127.9884822962589
 20
-13.63578305345631
 30
0.0
  0
SEQEND
  5
17B
330
178
100
AcDbEntity
  8
STANDARDEBENE
  0
SPLINE
  5
17C
330
1F
100
AcDbEntity
  8
STANDARDEBENE
 62
     7
100
AcDbSpline
210
0.0
220
0.0
230
1.0
 70
    11
 71
     3
 72
    17
 73
    13
 74
     0
 42
0.0000000001
 43
0.0000000001
 40
0.0
 40
0.0
 40
0.0
 40
0.0
 40
1.0
 40
1.0
 40
1.0
 40
2.0
 40
2.0
 40
2.0
 40
3.0
 40
3.0
 40
3.0
 40
4.0
 40
4.0
 40
4.0
 40
4.0
 10
135.8870579259377
 20
-17.63640282488932
 30
0.0
 10
135.8870579259377
 20
-10.8040849512997
 30
0.0
 10
130.3482020055748
 20
-5.265745795600492
 30
0.0
 10
123.5162286417609
 20
-5.265745795600492
 30
0.0
 10
116.684427532835
 20
-5.265745795600492
 30
0.0
 10
111.1453993575842
 20
-10.8040849512997
 30
0.0
 10
111.1453993575842
 20
-17.63640282488932
 30
0.0
 10
111.1453993575842
 20
-24.46820393381525
 30
0.0
 10
116.684427532835
 20
-30.00654308951446
 30
0.0
 10
123.5162286417609
 20
-30.00654308951446
 30
0.0
 10
130.3482020055748
 20
-30.00654308951446
 30
0.0
 10
135.8870579259377
 20
-24.46820393381525
 30
0.0
 10
135.8870579259377
 20
-17.63640282488932
 30
0.0
  0
SPLINE
  5
17D
330
1F
100
AcDbEntity
  8
STANDARDEBENE
 62
     7
100
AcDbSpline
210
0.0
220
0.0
230
1.0
 70
    11
 71
     3
 72
    17
 73
    13
 74
     0
 42
0.0000000001
 43
0.0000000001
 40
0.0
 40
0.0
 40
0.0
 40
0.0
 40
1.0
 40
1.0
 40
1.0
 40
2.0
 40
2.0
 40
2.0
 40
3.0
 40
3.0
 40
3.0
 40
4.0
 40
4.0
 40
4.0
 40
4.0
 10
129.516210897027
 20
-17.63640282488932
 30
0.0
 10
129.516210897027
 20
-14.32273554639387
 30
0.0
 10
126.8302404300322
 20
-11.63624831473535
 30
0.0
 10
123.5162286417609
 20
-11.63624831473535
 30
0.0
 10
120.2022168534897
 20
-11.63624831473535
 30
0.0
 10
117.5162463864949
 20
-14.32273554639387
 30
0.0
 10
117.5162463864949
 20
-17.63640282488932
 30
0.0
 10
117.5162463864949
 20
-20.94955333872108
 30
0.0
 10
120.2022168534897
 20
-23.6360405703796
 30
0.0
 10
123.5162286417609
 20
-23.6360405703796
 30
0.0
 10
126.8302404300322
 20
-23.6360405703796
 30
0.0
 10
129.516210897027
 20
-20.94955333872108
 30
0.0
 10
129.516210897027
 20
-17.63640282488932
 30
0.0
  0
SPLINE
  5
17E
330
1F
100
AcDbEntity
  8
STANDARDEBENE
 62
     7
100
AcDbSpline
210
0.0
220
0.0
230
1.0
 70
    11
 71
     3
 72
    17
 73
    13
 74
     0
 42
0.0000000001
 43
0.0000000001
 40
0.0
 40
0.0
 40
0.0
 40
0.0
 40
1.0
 40
1.0
 40
1.0
 40
2.0
 40
2.0
 40
2.0
 40
3.0
 40
3.0
 40
3.0
 40
4.0
 40
4.0
 40
4.0
 40
4.0
 10
141.016119467991
 20
-17.63640282488932
 30
0.0
 10
141.016119467991
 20
-7.971181064927806
 30
0.0
 10
133.1809336370588
 20
-0.1363397437713338
 30
0.0
 10
123.5162286417609
 20
-0.1363397437713338
 30
0.0
 10
113.8515236464631
 20
-0.1363397437713338
 30
0.0
 10
106.0163378155308
 20
-7.971181064927806
 30
0.0
 10
106.0163378155308
 20
-17.63640282488932
 30
0.0
 10
106.0163378155308
 20
-27.30093556529925
 30
0.0
 10
113.8515236464631
 20
-35.13629365111942
 30
0.0
 10
123.5162286417609
 20
-35.13629365111942
 30
0.0
 10
133.1809336370588
 20
-35.13629365111942
 30
0.0
 10
141.016119467991
 20
-27.30093556529925
 30
0.0
 10
141.016119467991
 20
-17.63640282488932
 30
0.0
  0
POLYLINE
  5
17F
330
1F
100
AcDbEntity
  8
STANDARDEBENE
 62
     7
100
AcDb2dPolyline
 66
     1
 10
0.0
 20
0.0
 30
0.0
  0
VERTEX
  5
180
330
17F
100
AcDbEntity
  8
STANDARDEBENE
 62
     7
100
AcDbVertex
100
AcDb2dVertex
 10
10.90821303103409
 20
-35.13629365111942
 30
0.0
  0
VERTEX
  5
181
330
17F
100
AcDbEntity
  8
STANDARDEBENE
 62
     7
100
AcDbVertex
100
AcDb2dVertex
 10
34.9084865618742
 20
-35.13629365111942
 30
0.0
  0
SEQEND
  5
182
330
17F
100
AcDbEntity
  8
STANDARDEBENE
  0
POLYLINE
  5
183
330
1F
100
AcDbEntity
  8
STANDARDEBENE
 62
     7
100
AcDb2dPolyline
 66
     1
 10
0.0
 20
0.0
 30
0.0
  0
VERTEX
  5
184
330
183
100
AcDbEntity
  8
STANDARDEBENE
 62
     7
100
AcDbVertex
100
AcDb2dVertex
 10
34.9084865618742
 20
-0.1363397437713338
 30
0.0
  0
VERTEX
  5
185
330
183
100
AcDbEntity
  8
STANDARDEBENE
 62
     7
100
AcDbVertex
100
AcDb2dVertex
 10
10.90821303103409
 20
-0.1363397437713338
 30
0.0
  0
VERTEX
  5
186
330
183
100
AcDbEntity
  8
STANDARDEBENE
 62
     7
100
AcDbVertex
100
AcDb2dVertex
 10
-0.0921563650254752
 20
-5.265745795600492
 30
0.0
  0
SEQEND
  5
187
330
183
100
AcDbEntity
  8
STANDARDEBENE
  0
POLYLINE
  5
188
330
1F
100
AcDbEntity
  8
STANDARDEBENE
 62
     7
100
AcDb2dPolyline
 66
     1
 10
0.0
 20
0.0
 30
0.0
  0
VERTEX
  5
189
330
188
100
AcDbEntity
  8
STANDARDEBENE
 62
     7
100
AcDbVertex
100
AcDb2dVertex
 10
-0.0921563650254752
 20
-30.00654308951446
 30
0.0
  0
VERTEX
  5
18A
330
188
100
AcDbEntity
  8
STANDARDEBENE
 62
     7
100
AcDbVertex
100
AcDb2dVertex
 10
10.90821303103409
 20
-35.13629365111942
 30
0.0
  0
SEQEND
  5
18B
330
188
100
AcDbEntity
  8
STANDARDEBENE
  0
POLYLINE
  5
18C
330
1F
100
AcDbEntity
  8
STANDARDEBENE
 62
     7
100
AcDb2dPolyline
 66
     1
 10
0.0
 20
0.0
 30
0.0
  0
VERTEX
  5
18D
330
18C
100
AcDbEntity
  8
STANDARDEBENE
 62
     7
100
AcDbVertex
100
AcDb2dVertex
 10
34.9084865618742
 20
-33.6357813226392
 30
0.0
  0
VERTEX
  5
18E
330
18C
100
AcDbEntity
  8
STANDARDEBENE
 62
     7
100
AcDbVertex
100
AcDb2dVertex
 10
41.90823618650076
 20
-33.6357813226392
 30
0.0
  0
SEQEND
  5
18F
330
18C
100
AcDbEntity
  8
STANDARDEBENE
  0
POLYLINE
  5
190
330
1F
100
AcDbEntity
  8
STANDARDEBENE
 62
     7
100
AcDb2dPolyline
 66
     1
 10
0.0
 20
0.0
 30
0.0
  0
VERTEX
  5
191
330
190
100
AcDbEntity
  8
STANDARDEBENE
 62
     7
100
AcDbVertex
100
AcDb2dVertex
 10
41.90823618650076
 20
-1.636335307587853
 30
0.0
  0
VERTEX
  5
192
330
190
100
AcDbEntity
  8
STANDARDEBENE
 62
     7
100
AcDbVertex
100
AcDb2dVertex
 10
34.9084865618742
 20
-1.636335307587853
 30
0.0
  0
SEQEND
  5
193
330
190
100
AcDbEntity
  8
STANDARDEBENE
  0
POLYLINE
  5
194
330
1F
100
AcDbEntity
  8
STANDARDEBENE
 62
     7
100
AcDb2dPolyline
 66
     1
 10
0.0
 20
0.0
 30
0.0
  0
VERTEX
  5
195
330
194
100
AcDbEntity
  8
STANDARDEBENE
 62
     7
100
AcDbVertex
100
AcDb2dVertex
 10
42.40846438095679
 20
-7.13626162328579
 30
0.0
  0
VERTEX
  5
196
330
194
100
AcDbEntity
  8
STANDARDEBENE
 62
     7
100
AcDbVertex
100
AcDb2dVertex
 10
41.90823618650076
 20
-7.13626162328579
 30
0.0
  0
SEQEND
  5
197
330
194
100
AcDbEntity
  8
STANDARDEBENE
  0
POLYLINE
  5
198
330
1F
100
AcDbEntity
  8
STANDARDEBENE
 62
     7
100
AcDb2dPolyline
 66
     1
 10
0.0
 20
0.0
 30
0.0
  0
VERTEX
  5
199
330
198
100
AcDbEntity
  8
STANDARDEBENE
 62
     7
100
AcDbVertex
100
AcDb2dVertex
 10
41.90823618650076
 20
-28.13637177160496
 30
0.0
  0
VERTEX
  5
19A
330
198
100
AcDbEntity
  8
STANDARDEBENE
 62
     7
100
AcDbVertex
100
AcDb2dVertex
 10
42.40846438095679
 20
-28.13637177160496
 30
0.0
  0
SEQEND
  5
19B
330
198
100
AcDbEntity
  8
STANDARDEBENE
  0
POLYLINE
  5
19C
330
1F
100
AcDbEntity
  8
STANDARDEBENE
 62
     7
100
AcDb2dPolyline
 66
     1
 10
0.0
 20
0.0
 30
0.0
  0
VERTEX
  5
19D
330
19C
100
AcDbEntity
  8
STANDARDEBENE
 62
     7
100
AcDbVertex
100
AcDb2dVertex
 10
42.88371561666761
 20
-6.784861651973698
 30
0.0
  0
VERTEX
  5
19E
330
19C
100
AcDbEntity
  8
STANDARDEBENE
 62
     7
100
AcDbVertex
100
AcDb2dVertex
 10
42.62051014795934
 20
-7.048411630457768
 30
0.0
  0
SEQEND
  5
19F
330
19C
100
AcDbEntity
  8
STANDARDEBENE
  0
POLYLINE
  5
1A0
330
1F
100
AcDbEntity
  8
STANDARDEBENE
 62
     7
100
AcDb2dPolyline
 66
     1
 10
0.0
 20
0.0
 30
0.0
  0
VERTEX
  5
1A1
330
1A0
100
AcDbEntity
  8
STANDARDEBENE
 62
     7
100
AcDbVertex
100
AcDb2dVertex
 10
42.62051014795934
 20
-28.22387725465718
 30
0.0
  0
VERTEX
  5
1A2
330
1A0
100
AcDbEntity
  8
STANDARDEBENE
 62
     7
100
AcDbVertex
100
AcDb2dVertex
 10
42.8840601264434
 20
-28.48811625269284
 30
0.0
  0
SEQEND
  5
1A3
330
1A0
100
AcDbEntity
  8
STANDARDEBENE
  0
SPLINE
  5
1A4
330
1F
100
AcDbEntity
  8
STANDARDEBENE
 62
     7
100
AcDbSpline
210
0.0
220
0.0
230
1.0
 70
     8
 71
     3
 72
     8
 73
     4
 74
     0
 42
0.0000000001
 43
0.0000000001
 40
0.0
 40
0.0
 40
0.0
 40
0.0
 40
1.0
 40
1.0
 40
1.0
 40
1.0
 10
42.40846438095679
 20
-7.13626162328579
 30
0.0
 10
42.49149123692367
 20
-7.13626162328579
 30
0.0
 10
42.56624985827144
 20
-7.102671920145665
 30
0.0
 10
42.62051014795934
 20
-7.048411630457768
 30
0.0
  0
SPLINE
  5
1A5
330
1F
100
AcDbEntity
  8
STANDARDEBENE
 62
     7
100
AcDbSpline
210
0.0
220
0.0
230
1.0
 70
     8
 71
     3
 72
     8
 73
     4
 74
     0
 42
0.0000000001
 43
0.0000000001
 40
0.0
 40
0.0
 40
0.0
 40
0.0
 40
1.0
 40
1.0
 40
1.0
 40
1.0
 10
42.62051014795934
 20
-28.22387725465718
 30
0.0
 10
42.56159897629819
 20
-28.16565510254763
 30
0.0
 10
42.48511780607144
 20
-28.13637177160496
 30
0.0
 10
42.40846438095679
 20
-28.13637177160496
 30
0.0
  0
POLYLINE
  5
1A6
330
1F
100
AcDbEntity
  8
STANDARDEBENE
 62
     7
100
AcDb2dPolyline
 66
     1
 10
0.0
 20
0.0
 30
0.0
  0
VERTEX
  5
1A7
330
1A6
100
AcDbEntity
  8
STANDARDEBENE
 62
     7
100
AcDbVertex
100
AcDb2dVertex
 10
59.88165569956268
 20
-7.01585545664503
 30
0.0
  0
VERTEX
  5
1A8
330
1A6
100
AcDbEntity
  8
STANDARDEBENE
 62
     7
100
AcDbVertex
100
AcDb2dVertex
 10
51.63047431435654
 20
-6.822929982199175
 30
0.0
  0
VERTEX
  5
1A9
330
1A6
100
AcDbEntity
  8
STANDARDEBENE
 62
     7
100
AcDbVertex
100
AcDb2dVertex
 10
43.3789484193746
 20
-6.630693527304913
 30
0.0
  0
SEQEND
  5
1AA
330
1A6
100
AcDbEntity
  8
STANDARDEBENE
  0
POLYLINE
  5
1AB
330
1F
100
AcDbEntity
  8
STANDARDEBENE
 62
     7
100
AcDb2dPolyline
 66
     1
 10
0.0
 20
0.0
 30
0.0
  0
VERTEX
  5
1AC
330
1AB
100
AcDbEntity
  8
STANDARDEBENE
 62
     7
100
AcDbVertex
100
AcDb2dVertex
 10
60.905366498341
 20
-8.03543213811379
 30
0.0
  0
VERTEX
  5
1AD
330
1AB
100
AcDbEntity
  8
STANDARDEBENE
 62
     7
100
AcDbVertex
100
AcDb2dVertex
 10
60.39308046173209
 20
-7.524007375944379
 30
0.0
  0
VERTEX
  5
1AE
330
1AB
100
AcDbEntity
  8
STANDARDEBENE
 62
     7
100
AcDbVertex
100
AcDb2dVertex
 10
59.88131118978689
 20
-7.012754868662864
 30
0.0
  0
SEQEND
  5
1AF
330
1AB
100
AcDbEntity
  8
STANDARDEBENE
  0
POLYLINE
  5
1B0
330
1F
100
AcDbEntity
  8
STANDARDEBENE
 62
     7
100
AcDb2dPolyline
 66
     1
 10
0.0
 20
0.0
 30
0.0
  0
VERTEX
  5
1B1
330
1B0
100
AcDbEntity
  8
STANDARDEBENE
 62
     7
100
AcDbVertex
100
AcDb2dVertex
 10
43.32072626726504
 20
-28.65933761126354
 30
0.0
  0
VERTEX
  5
1B2
330
1B0
100
AcDbEntity
  8
STANDARDEBENE
 62
     7
100
AcDbVertex
100
AcDb2dVertex
 10
51.60119098341386
 20
-28.4655508623782
 30
0.0
  0
VERTEX
  5
1B3
330
1B0
100
AcDbEntity
  8
STANDARDEBENE
 62
     7
100
AcDbVertex
100
AcDb2dVertex
 10
59.88165569956268
 20
-28.27141960371706
 30
0.0
  0
SEQEND
  5
1B4
330
1B0
100
AcDbEntity
  8
STANDARDEBENE
  0
POLYLINE
  5
1B5
330
1F
100
AcDbEntity
  8
STANDARDEBENE
 62
     7
100
AcDb2dPolyline
 66
     1
 10
0.0
 20
0.0
 30
0.0
  0
VERTEX
  5
1B6
330
1B5
100
AcDbEntity
  8
STANDARDEBENE
 62
     7
100
AcDbVertex
100
AcDb2dVertex
 10
59.88131118978689
 20
-28.19993382523935
 30
0.0
  0
VERTEX
  5
1B7
330
1B5
100
AcDbEntity
  8
STANDARDEBENE
 62
     7
100
AcDbVertex
100
AcDb2dVertex
 10
60.39308046173209
 20
-27.69264318037949
 30
0.0
  0
VERTEX
  5
1B8
330
1B5
100
AcDbEntity
  8
STANDARDEBENE
 62
     7
100
AcDbVertex
100
AcDb2dVertex
 10
60.905366498341
 20
-27.18431900619224
 30
0.0
  0
SEQEND
  5
1B9
330
1B5
100
AcDbEntity
  8
STANDARDEBENE
  0
POLYLINE
  5
1BA
330
1F
100
AcDbEntity
  8
STANDARDEBENE
 62
     7
100
AcDb2dPolyline
 66
     1
 10
0.0
 20
0.0
 30
0.0
  0
VERTEX
  5
1BB
330
1BA
100
AcDbEntity
  8
STANDARDEBENE
 62
     7
100
AcDbVertex
100
AcDb2dVertex
 10
60.905366498341
 20
-27.21928674843555
 30
0.0
  0
VERTEX
  5
1BC
330
1BA
100
AcDbEntity
  8
STANDARDEBENE
 62
     7
100
AcDbVertex
100
AcDb2dVertex
 10
60.905366498341
 20
-27.17863459489161
 30
0.0
  0
SEQEND
  5
1BD
330
1BA
100
AcDbEntity
  8
STANDARDEBENE
  0
POLYLINE
  5
1BE
330
1F
100
AcDbEntity
  8
STANDARDEBENE
 62
     7
100
AcDb2dPolyline
 66
     1
 10
0.0
 20
0.0
 30
0.0
  0
VERTEX
  5
1BF
330
1BE
100
AcDbEntity
  8
STANDARDEBENE
 62
     7
100
AcDbVertex
100
AcDb2dVertex
 10
60.905366498341
 20
-8.047834490042453
 30
0.0
  0
VERTEX
  5
1C0
330
1BE
100
AcDbEntity
  8
STANDARDEBENE
 62
     7
100
AcDbVertex
100
AcDb2dVertex
 10
60.905366498341
 20
-8.023546550848824
 30
0.0
  0
VERTEX
  5
1C1
330
1BE
100
AcDbEntity
  8
STANDARDEBENE
 62
     7
100
AcDbVertex
100
AcDb2dVertex
 10
60.905366498341
 20
-8.049557038921435
 30
0.0
  0
VERTEX
  5
1C2
330
1BE
100
AcDbEntity
  8
STANDARDEBENE
 62
     7
100
AcDbVertex
100
AcDb2dVertex
 10
60.905366498341
 20
-8.196662713186399
 30
0.0
  0
VERTEX
  5
1C3
330
1BE
100
AcDbEntity
  8
STANDARDEBENE
 62
     7
100
AcDbVertex
100
AcDb2dVertex
 10
60.905366498341
 20
-8.650037578134157
 30
0.0
  0
VERTEX
  5
1C4
330
1BE
100
AcDbEntity
  8
STANDARDEBENE
 62
     7
100
AcDbVertex
100
AcDb2dVertex
 10
60.905366498341
 20
-9.359899971162163
 30
0.0
  0
VERTEX
  5
1C5
330
1BE
100
AcDbEntity
  8
STANDARDEBENE
 62
     7
100
AcDbVertex
100
AcDb2dVertex
 10
60.905366498341
 20
-9.950045217101
 30
0.0
  0
VERTEX
  5
1C6
330
1BE
100
AcDbEntity
  8
STANDARDEBENE
 62
     7
100
AcDbVertex
100
AcDb2dVertex
 10
60.905366498341
 20
-10.62735143631627
 30
0.0
  0
VERTEX
  5
1C7
330
1BE
100
AcDbEntity
  8
STANDARDEBENE
 62
     7
100
AcDbVertex
100
AcDb2dVertex
 10
60.905366498341
 20
-11.39250764835956
 30
0.0
  0
VERTEX
  5
1C8
330
1BE
100
AcDbEntity
  8
STANDARDEBENE
 62
     7
100
AcDbVertex
100
AcDb2dVertex
 10
60.905366498341
 20
-11.9196076053277
 30
0.0
  0
VERTEX
  5
1C9
330
1BE
100
AcDbEntity
  8
STANDARDEBENE
 62
     7
100
AcDbVertex
100
AcDb2dVertex
 10
60.905366498341
 20
-12.46289952175825
 30
0.0
  0
VERTEX
  5
1CA
330
1BE
100
AcDbEntity
  8
STANDARDEBENE
 62
     7
100
AcDbVertex
100
AcDb2dVertex
 10
60.905366498341
 20
-13.02341692697862
 30
0.0
  0
VERTEX
  5
1CB
330
1BE
100
AcDbEntity
  8
STANDARDEBENE
 62
     7
100
AcDbVertex
100
AcDb2dVertex
 10
60.905366498341
 20
-13.59978178188561
 30
0.0
  0
VERTEX
  5
1CC
330
1BE
100
AcDbEntity
  8
STANDARDEBENE
 62
     7
100
AcDbVertex
100
AcDb2dVertex
 10
60.905366498341
 20
-14.19251085114292
 30
0.0
  0
VERTEX
  5
1CD
330
1BE
100
AcDbEntity
  8
STANDARDEBENE
 62
     7
100
AcDbVertex
100
AcDb2dVertex
 10
60.905366498341
 20
-15.14318557745245
 30
0.0
  0
VERTEX
  5
1CE
330
1BE
100
AcDbEntity
  8
STANDARDEBENE
 62
     7
100
AcDbVertex
100
AcDb2dVertex
 10
60.905366498341
 20
-16.05062432689956
 30
0.0
  0
VERTEX
  5
1CF
330
1BE
100
AcDbEntity
  8
STANDARDEBENE
 62
     7
100
AcDbVertex
100
AcDb2dVertex
 10
60.905366498341
 20
-16.91568837392374
 30
0.0
  0
VERTEX
  5
1D0
330
1BE
100
AcDbEntity
  8
STANDARDEBENE
 62
     7
100
AcDbVertex
100
AcDb2dVertex
 10
60.905366498341
 20
-17.73837771852499
 30
0.0
  0
VERTEX
  5
1D1
330
1BE
100
AcDbEntity
  8
STANDARDEBENE
 62
     7
100
AcDbVertex
100
AcDb2dVertex
 10
60.905366498341
 20
-18.55917225935936
 30
0.0
  0
VERTEX
  5
1D2
330
1BE
100
AcDbEntity
  8
STANDARDEBENE
 62
     7
100
AcDbVertex
100
AcDb2dVertex
 10
60.905366498341
 20
-19.4188964048587
 30
0.0
  0
VERTEX
  5
1D3
330
1BE
100
AcDbEntity
  8
STANDARDEBENE
 62
     7
100
AcDbVertex
100
AcDb2dVertex
 10
60.905366498341
 20
-19.86331401563576
 30
0.0
  0
VERTEX
  5
1D4
330
1BE
100
AcDbEntity
  8
STANDARDEBENE
 62
     7
100
AcDbVertex
100
AcDb2dVertex
 10
60.905366498341
 20
-20.31703339035931
 30
0.0
  0
VERTEX
  5
1D5
330
1BE
100
AcDbEntity
  8
STANDARDEBENE
 62
     7
100
AcDbVertex
100
AcDb2dVertex
 10
60.905366498341
 20
-20.78143256813255
 30
0.0
  0
VERTEX
  5
1D6
330
1BE
100
AcDbEntity
  8
STANDARDEBENE
 62
     7
100
AcDbVertex
100
AcDb2dVertex
 10
60.905366498341
 20
-21.25478900007649
 30
0.0
  0
VERTEX
  5
1D7
330
1BE
100
AcDbEntity
  8
STANDARDEBENE
 62
     7
100
AcDbVertex
100
AcDb2dVertex
 10
60.905366498341
 20
-22.22596205804588
 30
0.0
  0
VERTEX
  5
1D8
330
1BE
100
AcDbEntity
  8
STANDARDEBENE
 62
     7
100
AcDbVertex
100
AcDb2dVertex
 10
60.905366498341
 20
-23.14787021807643
 30
0.0
  0
VERTEX
  5
1D9
330
1BE
100
AcDbEntity
  8
STANDARDEBENE
 62
     7
100
AcDbVertex
100
AcDb2dVertex
 10
60.905366498341
 20
-24.02120249971972
 30
0.0
  0
VERTEX
  5
1DA
330
1BE
100
AcDbEntity
  8
STANDARDEBENE
 62
     7
100
AcDbVertex
100
AcDb2dVertex
 10
60.905366498341
 20
-25.11588231231205
 30
0.0
  0
VERTEX
  5
1DB
330
1BE
100
AcDbEntity
  8
STANDARDEBENE
 62
     7
100
AcDbVertex
100
AcDb2dVertex
 10
60.905366498341
 20
-26.0102296902789
 30
0.0
  0
VERTEX
  5
1DC
330
1BE
100
AcDbEntity
  8
STANDARDEBENE
 62
     7
100
AcDbVertex
100
AcDb2dVertex
 10
60.905366498341
 20
-26.69528737944958
 30
0.0
  0
VERTEX
  5
1DD
330
1BE
100
AcDbEntity
  8
STANDARDEBENE
 62
     7
100
AcDbVertex
100
AcDb2dVertex
 10
60.905366498341
 20
-27.1162783254725
 30
0.0
  0
SEQEND
  5
1DE
330
1BE
100
AcDbEntity
  8
STANDARDEBENE
  0
POLYLINE
  5
1DF
330
1F
100
AcDbEntity
  8
STANDARDEBENE
 62
     7
100
AcDb2dPolyline
 66
     1
 10
0.0
 20
0.0
 30
0.0
  0
VERTEX
  5
1E0
330
1DF
100
AcDbEntity
  8
STANDARDEBENE
 62
     7
100
AcDbVertex
100
AcDb2dVertex
 10
41.90823618650076
 20
-17.63640282488932
 30
0.0
  0
VERTEX
  5
1E1
330
1DF
100
AcDbEntity
  8
STANDARDEBENE
 62
     7
100
AcDbVertex
100
AcDb2dVertex
 10
41.90823618650076
 20
-15.70732033531868
 30
0.0
  0
VERTEX
  5
1E2
330
1DF
100
AcDbEntity
  8
STANDARDEBENE
 62
     7
100
AcDbVertex
100
AcDb2dVertex
 10
41.90823618650076
 20
-13.80717666691491
 30
0.0
  0
VERTEX
  5
1E3
330
1DF
100
AcDbEntity
  8
STANDARDEBENE
 62
     7
100
AcDbVertex
100
AcDb2dVertex
 10
41.90823618650076
 20
-11.96232681752642
 30
0.0
  0
VERTEX
  5
1E4
330
1DF
100
AcDbEntity
  8
STANDARDEBENE
 62
     7
100
AcDbVertex
100
AcDb2dVertex
 10
41.90823618650076
 20
-10.20084833388061
 30
0.0
  0
VERTEX
  5
1E5
330
1DF
100
AcDbEntity
  8
STANDARDEBENE
 62
     7
100
AcDbVertex
100
AcDb2dVertex
 10
41.90823618650076
 20
-8.547373664946898
 30
0.0
  0
VERTEX
  5
1E6
330
1DF
100
AcDbEntity
  8
STANDARDEBENE
 62
     7
100
AcDbVertex
100
AcDb2dVertex
 10
41.90823618650076
 20
-7.026190749918914
 30
0.0
  0
VERTEX
  5
1E7
330
1DF
100
AcDbEntity
  8
STANDARDEBENE
 62
     7
100
AcDbVertex
100
AcDb2dVertex
 10
41.90823618650076
 20
-5.659864979111309
 30
0.0
  0
VERTEX
  5
1E8
330
1DF
100
AcDbEntity
  8
STANDARDEBENE
 62
     7
100
AcDbVertex
100
AcDb2dVertex
 10
41.90823618650076
 20
-4.468550174408157
 30
0.0
  0
VERTEX
  5
1E9
330
1DF
100
AcDbEntity
  8
STANDARDEBENE
 62
     7
100
AcDbVertex
100
AcDb2dVertex
 10
41.90823618650076
 20
-3.469127314823471
 30
0.0
  0
VERTEX
  5
1EA
330
1DF
100
AcDbEntity
  8
STANDARDEBENE
 62
     7
100
AcDbVertex
100
AcDb2dVertex
 10
41.90823618650076
 20
-2.676065810940691
 30
0.0
  0
VERTEX
  5
1EB
330
1DF
100
AcDbEntity
  8
STANDARDEBENE
 62
     7
100
AcDbVertex
100
AcDb2dVertex
 10
41.90823618650076
 20
-2.101078995136885
 30
0.0
  0
VERTEX
  5
1EC
330
1DF
100
AcDbEntity
  8
STANDARDEBENE
 62
     7
100
AcDbVertex
100
AcDb2dVertex
 10
41.90823618650076
 20
-1.752779611806958
 30
0.0
  0
VERTEX
  5
1ED
330
1DF
100
AcDbEntity
  8
STANDARDEBENE
 62
     7
100
AcDbVertex
100
AcDb2dVertex
 10
41.90823618650076
 20
-1.636335307587853
 30
0.0
  0
SEQEND
  5
1EE
330
1DF
100
AcDbEntity
  8
STANDARDEBENE
  0
POLYLINE
  5
1EF
330
1F
100
AcDbEntity
  8
STANDARDEBENE
 62
     7
100
AcDb2dPolyline
 66
     1
 10
0.0
 20
0.0
 30
0.0
  0
VERTEX
  5
1F0
330
1EF
100
AcDbEntity
  8
STANDARDEBENE
 62
     7
100
AcDbVertex
100
AcDb2dVertex
 10
41.90823618650076
 20
-33.6357813226392
 30
0.0
  0
VERTEX
  5
1F1
330
1EF
100
AcDbEntity
  8
STANDARDEBENE
 62
     7
100
AcDbVertex
100
AcDb2dVertex
 10
41.90823618650076
 20
-33.51985378308379
 30
0.0
  0
VERTEX
  5
1F2
330
1EF
100
AcDbEntity
  8
STANDARDEBENE
 62
     7
100
AcDbVertex
100
AcDb2dVertex
 10
41.90823618650076
 20
-33.17086538020227
 30
0.0
  0
VERTEX
  5
1F3
330
1EF
100
AcDbEntity
  8
STANDARDEBENE
 62
     7
100
AcDbVertex
100
AcDb2dVertex
 10
41.90823618650076
 20
-32.59622307417426
 30
0.0
  0
VERTEX
  5
1F4
330
1EF
100
AcDbEntity
  8
STANDARDEBENE
 62
     7
100
AcDbVertex
100
AcDb2dVertex
 10
41.90823618650076
 20
-31.80350608006728
 30
0.0
  0
VERTEX
  5
1F5
330
1EF
100
AcDbEntity
  8
STANDARDEBENE
 62
     7
100
AcDbVertex
100
AcDb2dVertex
 10
41.90823618650076
 20
-30.8037387107068
 30
0.0
  0
VERTEX
  5
1F6
330
1EF
100
AcDbEntity
  8
STANDARDEBENE
 62
     7
100
AcDbVertex
100
AcDb2dVertex
 10
41.90823618650076
 20
-29.61242390600364
 30
0.0
  0
VERTEX
  5
1F7
330
1EF
100
AcDbEntity
  8
STANDARDEBENE
 62
     7
100
AcDbVertex
100
AcDb2dVertex
 10
41.90823618650076
 20
-28.24575362542024
 30
0.0
  0
VERTEX
  5
1F8
330
1EF
100
AcDbEntity
  8
STANDARDEBENE
 62
     7
100
AcDbVertex
100
AcDb2dVertex
 10
41.90823618650076
 20
-26.72525972994385
 30
0.0
  0
VERTEX
  5
1F9
330
1EF
100
AcDbEntity
  8
STANDARDEBENE
 62
     7
100
AcDbVertex
100
AcDb2dVertex
 10
41.90823618650076
 20
-25.07178506101014
 30
0.0
  0
VERTEX
  5
1FA
330
1EF
100
AcDbEntity
  8
STANDARDEBENE
 62
     7
100
AcDbVertex
100
AcDb2dVertex
 10
41.90823618650076
 20
-23.31013432247643
 30
0.0
  0
VERTEX
  5
1FB
330
1EF
100
AcDbEntity
  8
STANDARDEBENE
 62
     7
100
AcDbVertex
100
AcDb2dVertex
 10
41.90823618650076
 20
-21.46493996331215
 30
0.0
  0
VERTEX
  5
1FC
330
1EF
100
AcDbEntity
  8
STANDARDEBENE
 62
     7
100
AcDbVertex
100
AcDb2dVertex
 10
41.90823618650076
 20
-19.56496854979628
 30
0.0
  0
VERTEX
  5
1FD
330
1EF
100
AcDbEntity
  8
STANDARDEBENE
 62
     7
100
AcDbVertex
100
AcDb2dVertex
 10
41.90823618650076
 20
-17.63640282488932
 30
0.0
  0
SEQEND
  5
1FE
330
1EF
100
AcDbEntity
  8
STANDARDEBENE
  0
POLYLINE
  5
1FF
330
1F
100
AcDbEntity
  8
STANDARDEBENE
 62
     7
100
AcDb2dPolyline
 66
     1
 10
0.0
 20
0.0
 30
0.0
  0
VERTEX
  5
200
330
1FF
100
AcDbEntity
  8
STANDARDEBENE
 62
     7
100
AcDbVertex
100
AcDb2dVertex
 10
-0.0921563650254752
 20
-17.63640282488932
 30
0.0
  0
VERTEX
  5
201
330
1FF
100
AcDbEntity
  8
STANDARDEBENE
 62
     7
100
AcDbVertex
100
AcDb2dVertex
 10
-0.0921563650254752
 20
-16.02168550573268
 30
0.0
  0
VERTEX
  5
202
330
1FF
100
AcDbEntity
  8
STANDARDEBENE
 62
     7
100
AcDbVertex
100
AcDb2dVertex
 10
-0.0921563650254752
 20
-14.43452896863973
 30
0.0
  0
VERTEX
  5
203
330
1FF
100
AcDbEntity
  8
STANDARDEBENE
 62
     7
100
AcDbVertex
100
AcDb2dVertex
 10
-0.0921563650254752
 20
-12.90214948589837
 30
0.0
  0
VERTEX
  5
204
330
1FF
100
AcDbEntity
  8
STANDARDEBENE
 62
     7
100
AcDbVertex
100
AcDb2dVertex
 10
-0.0921563650254752
 20
-11.45107431024491
 30
0.0
  0
VERTEX
  5
205
330
1FF
100
AcDbEntity
  8
STANDARDEBENE
 62
     7
100
AcDbVertex
100
AcDb2dVertex
 10
-0.0921563650254752
 20
-10.10524687109717
 30
0.0
  0
VERTEX
  5
206
330
1FF
100
AcDbEntity
  8
STANDARDEBENE
 62
     7
100
AcDbVertex
100
AcDb2dVertex
 10
-0.0921563650254752
 20
-8.888610597873003
 30
0.0
  0
VERTEX
  5
207
330
1FF
100
AcDbEntity
  8
STANDARDEBENE
 62
     7
100
AcDbVertex
100
AcDb2dVertex
 10
-0.0921563650254752
 20
-7.821663822232268
 30
0.0
  0
VERTEX
  5
208
330
1FF
100
AcDbEntity
  8
STANDARDEBENE
 62
     7
100
AcDbVertex
100
AcDb2dVertex
 10
-0.0921563650254752
 20
-6.922837817180064
 30
0.0
  0
VERTEX
  5
209
330
1FF
100
AcDbEntity
  8
STANDARDEBENE
 62
     7
100
AcDbVertex
100
AcDb2dVertex
 10
-0.0921563650254752
 20
-6.206946503075625
 30
0.0
  0
VERTEX
  5
20A
330
1FF
100
AcDbEntity
  8
STANDARDEBENE
 62
     7
100
AcDbVertex
100
AcDb2dVertex
 10
-0.0921563650254752
 20
-5.68673674162341
 30
0.0
  0
VERTEX
  5
20B
330
1FF
100
AcDbEntity
  8
STANDARDEBENE
 62
     7
100
AcDbVertex
100
AcDb2dVertex
 10
-0.0921563650254752
 20
-5.371338041882018
 30
0.0
  0
VERTEX
  5
20C
330
1FF
100
AcDbEntity
  8
STANDARDEBENE
 62
     7
100
AcDbVertex
100
AcDb2dVertex
 10
-0.0921563650254752
 20
-5.265745795600492
 30
0.0
  0
SEQEND
  5
20D
330
1FF
100
AcDbEntity
  8
STANDARDEBENE
  0
POLYLINE
  5
20E
330
1F
100
AcDbEntity
  8
STANDARDEBENE
 62
     7
100
AcDb2dPolyline
 66
     1
 10
0.0
 20
0.0
 30
0.0
  0
VERTEX
  5
20F
330
20E
100
AcDbEntity
  8
STANDARDEBENE
 62
     7
100
AcDbVertex
100
AcDb2dVertex
 10
-0.0921563650254752
 20
-30.00654308951446
 30
0.0
  0
VERTEX
  5
210
330
20E
100
AcDbEntity
  8
STANDARDEBENE
 62
     7
100
AcDbVertex
100
AcDb2dVertex
 10
-0.0921563650254752
 20
-29.90095084323293
 30
0.0
  0
VERTEX
  5
211
330
20E
100
AcDbEntity
  8
STANDARDEBENE
 62
     7
100
AcDbVertex
100
AcDb2dVertex
 10
-0.0921563650254752
 20
-29.58537988860364
 30
0.0
  0
VERTEX
  5
212
330
20E
100
AcDbEntity
  8
STANDARDEBENE
 62
     7
100
AcDbVertex
100
AcDb2dVertex
 10
-0.0921563650254752
 20
-29.06482561737563
 30
0.0
  0
VERTEX
  5
213
330
20E
100
AcDbEntity
  8
STANDARDEBENE
 62
     7
100
AcDbVertex
100
AcDb2dVertex
 10
-0.0921563650254752
 20
-28.34910655815909
 30
0.0
  0
VERTEX
  5
214
330
20E
100
AcDbEntity
  8
STANDARDEBENE
 62
     7
100
AcDbVertex
100
AcDb2dVertex
 10
-0.0921563650254752
 20
-27.45028055310689
 30
0.0
  0
VERTEX
  5
215
330
20E
100
AcDbEntity
  8
STANDARDEBENE
 62
     7
100
AcDbVertex
100
AcDb2dVertex
 10
-0.0921563650254752
 20
-26.38350603235405
 30
0.0
  0
VERTEX
  5
216
330
20E
100
AcDbEntity
  8
STANDARDEBENE
 62
     7
100
AcDbVertex
100
AcDb2dVertex
 10
-0.0921563650254752
 20
-25.16704201401778
 30
0.0
  0
VERTEX
  5
217
330
20E
100
AcDbEntity
  8
STANDARDEBENE
 62
     7
100
AcDbVertex
100
AcDb2dVertex
 10
-0.0921563650254752
 20
-23.82121457487004
 30
0.0
  0
VERTEX
  5
218
330
20E
100
AcDbEntity
  8
STANDARDEBENE
 62
     7
100
AcDbVertex
100
AcDb2dVertex
 10
-0.0921563650254752
 20
-22.37031165410448
 30
0.0
  0
VERTEX
  5
219
330
20E
100
AcDbEntity
  8
STANDARDEBENE
 62
     7
100
AcDbVertex
100
AcDb2dVertex
 10
-0.0921563650254752
 20
-20.83775991647522
 30
0.0
  0
VERTEX
  5
21A
330
20E
100
AcDbEntity
  8
STANDARDEBENE
 62
     7
100
AcDbVertex
100
AcDb2dVertex
 10
-0.0921563650254752
 20
-19.25094788915807
 30
0.0
  0
VERTEX
  5
21B
330
20E
100
AcDbEntity
  8
STANDARDEBENE
 62
     7
100
AcDbVertex
100
AcDb2dVertex
 10
-0.0921563650254752
 20
-17.63640282488932
 30
0.0
  0
SEQEND
  5
21C
330
20E
100
AcDbEntity
  8
STANDARDEBENE
  0
POLYLINE
  5
21D
330
1F
100
AcDbEntity
  8
STANDARDEBENE
 62
     7
100
AcDb2dPolyline
 66
     1
 10
0.0
 20
0.0
 30
0.0
  0
VERTEX
  5
21E
330
21D
100
AcDbEntity
  8
STANDARDEBENE
 62
     7
100
AcDbVertex
100
AcDb2dVertex
 10
10.90821303103409
 20
-17.63640282488932
 30
0.0
  0
VERTEX
  5
21F
330
21D
100
AcDbEntity
  8
STANDARDEBENE
 62
     7
100
AcDbVertex
100
AcDb2dVertex
 10
10.90821303103409
 20
-15.67665896527282
 30
0.0
  0
VERTEX
  5
220
330
21D
100
AcDbEntity
  8
STANDARDEBENE
 62
     7
100
AcDbVertex
100
AcDb2dVertex
 10
10.90821303103409
 20
-13.74171980951363
 30
0.0
  0
VERTEX
  5
221
330
21D
100
AcDbEntity
  8
STANDARDEBENE
 62
     7
100
AcDbVertex
100
AcDb2dVertex
 10
10.90821303103409
 20
-11.8563900614691
 30
0.0
  0
VERTEX
  5
222
330
21D
100
AcDbEntity
  8
STANDARDEBENE
 62
     7
100
AcDbVertex
100
AcDb2dVertex
 10
10.90821303103409
 20
-10.04340736634176
 30
0.0
  0
VERTEX
  5
223
330
21D
100
AcDbEntity
  8
STANDARDEBENE
 62
     7
100
AcDbVertex
100
AcDb2dVertex
 10
10.90821303103409
 20
-8.325509369334165
 30
0.0
  0
VERTEX
  5
224
330
21D
100
AcDbEntity
  8
STANDARDEBENE
 62
     7
100
AcDbVertex
100
AcDb2dVertex
 10
10.90821303103409
 20
-6.724916950985165
 30
0.0
  0
VERTEX
  5
225
330
21D
100
AcDbEntity
  8
STANDARDEBENE
 62
     7
100
AcDbVertex
100
AcDb2dVertex
 10
10.90821303103409
 20
-5.261956188066734
 30
0.0
  0
VERTEX
  5
226
330
21D
100
AcDbEntity
  8
STANDARDEBENE
 62
     7
100
AcDbVertex
100
AcDb2dVertex
 10
10.90821303103409
 20
-3.954197079144477
 30
0.0
  0
VERTEX
  5
227
330
21D
100
AcDbEntity
  8
STANDARDEBENE
 62
     7
100
AcDbVertex
100
AcDb2dVertex
 10
10.90821303103409
 20
-2.818692858120305
 30
0.0
  0
VERTEX
  5
228
330
21D
100
AcDbEntity
  8
STANDARDEBENE
 62
     7
100
AcDbVertex
100
AcDb2dVertex
 10
10.90821303103409
 20
-1.868879406250267
 30
0.0
  0
VERTEX
  5
229
330
21D
100
AcDbEntity
  8
STANDARDEBENE
 62
     7
100
AcDbVertex
100
AcDb2dVertex
 10
10.90821303103409
 20
-1.117848095014619
 30
0.0
  0
VERTEX
  5
22A
330
21D
100
AcDbEntity
  8
STANDARDEBENE
 62
     7
100
AcDbVertex
100
AcDb2dVertex
 10
10.90821303103409
 20
-0.5745561785840606
 30
0.0
  0
VERTEX
  5
22B
330
21D
100
AcDbEntity
  8
STANDARDEBENE
 62
     7
100
AcDbVertex
100
AcDb2dVertex
 10
10.90821303103409
 20
-0.2462383622503117
 30
0.0
  0
VERTEX
  5
22C
330
21D
100
AcDbEntity
  8
STANDARDEBENE
 62
     7
100
AcDbVertex
100
AcDb2dVertex
 10
10.90821303103409
 20
-0.1363397437713338
 30
0.0
  0
SEQEND
  5
22D
330
21D
100
AcDbEntity
  8
STANDARDEBENE
  0
POLYLINE
  5
22E
330
1F
100
AcDbEntity
  8
STANDARDEBENE
 62
     7
100
AcDb2dPolyline
 66
     1
 10
0.0
 20
0.0
 30
0.0
  0
VERTEX
  5
22F
330
22E
100
AcDbEntity
  8
STANDARDEBENE
 62
     7
100
AcDbVertex
100
AcDb2dVertex
 10
10.90821303103409
 20
-35.13629365111942
 30
0.0
  0
VERTEX
  5
230
330
22E
100
AcDbEntity
  8
STANDARDEBENE
 62
     7
100
AcDbVertex
100
AcDb2dVertex
 10
10.90821303103409
 20
-35.02622277775254
 30
0.0
  0
VERTEX
  5
231
330
22E
100
AcDbEntity
  8
STANDARDEBENE
 62
     7
100
AcDbVertex
100
AcDb2dVertex
 10
10.90821303103409
 20
-34.69738819675509
 30
0.0
  0
VERTEX
  5
232
330
22E
100
AcDbEntity
  8
STANDARDEBENE
 62
     7
100
AcDbVertex
100
AcDb2dVertex
 10
10.90821303103409
 20
-34.15444079010033
 30
0.0
  0
VERTEX
  5
233
330
22E
100
AcDbEntity
  8
STANDARDEBENE
 62
     7
100
AcDbVertex
100
AcDb2dVertex
 10
10.90821303103409
 20
-33.40340947886468
 30
0.0
  0
VERTEX
  5
234
330
22E
100
AcDbEntity
  8
STANDARDEBENE
 62
     7
100
AcDbVertex
100
AcDb2dVertex
 10
10.90821303103409
 20
-32.45376828188255
 30
0.0
  0
VERTEX
  5
235
330
22E
100
AcDbEntity
  8
STANDARDEBENE
 62
     7
100
AcDbVertex
100
AcDb2dVertex
 10
10.90821303103409
 20
-31.31843631574627
 30
0.0
  0
VERTEX
  5
236
330
22E
100
AcDbEntity
  8
STANDARDEBENE
 62
     7
100
AcDbVertex
100
AcDb2dVertex
 10
10.90821303103409
 20
-30.01067720682401
 30
0.0
  0
VERTEX
  5
237
330
22E
100
AcDbEntity
  8
STANDARDEBENE
 62
     7
100
AcDbVertex
100
AcDb2dVertex
 10
10.90821303103409
 20
-28.54737193412979
 30
0.0
  0
VERTEX
  5
238
330
22E
100
AcDbEntity
  8
STANDARDEBENE
 62
     7
100
AcDbVertex
100
AcDb2dVertex
 10
10.90821303103409
 20
-26.94643500600499
 30
0.0
  0
VERTEX
  5
239
330
22E
100
AcDbEntity
  8
STANDARDEBENE
 62
     7
100
AcDbVertex
100
AcDb2dVertex
 10
10.90821303103409
 20
-25.22870926388529
 30
0.0
  0
VERTEX
  5
23A
330
22E
100
AcDbEntity
  8
STANDARDEBENE
 62
     7
100
AcDbVertex
100
AcDb2dVertex
 10
10.90821303103409
 20
-23.41589882364585
 30
0.0
  0
VERTEX
  5
23B
330
22E
100
AcDbEntity
  8
STANDARDEBENE
 62
     7
100
AcDbVertex
100
AcDb2dVertex
 10
10.90821303103409
 20
-21.53039682071342
 30
0.0
  0
VERTEX
  5
23C
330
22E
100
AcDbEntity
  8
STANDARDEBENE
 62
     7
100
AcDbVertex
100
AcDb2dVertex
 10
10.90821303103409
 20
-19.59562991984214
 30
0.0
  0
VERTEX
  5
23D
330
22E
100
AcDbEntity
  8
STANDARDEBENE
 62
     7
100
AcDbVertex
100
AcDb2dVertex
 10
10.90821303103409
 20
-17.63640282488932
 30
0.0
  0
SEQEND
  5
23E
330
22E
100
AcDbEntity
  8
STANDARDEBENE
  0
POLYLINE
  5
23F
330
1F
100
AcDbEntity
  8
STANDARDEBENE
 62
     7
100
AcDb2dPolyline
 66
     1
 10
0.0
 20
0.0
 30
0.0
  0
VERTEX
  5
240
330
23F
100
AcDbEntity
  8
STANDARDEBENE
 62
     7
100
AcDbVertex
100
AcDb2dVertex
 10
19.90801415904531
 20
-17.63640282488932
 30
0.0
  0
VERTEX
  5
241
330
23F
100
AcDbEntity
  8
STANDARDEBENE
 62
     7
100
AcDbVertex
100
AcDb2dVertex
 10
19.97674385931665
 20
-16.81578053894285
 30
0.0
  0
VERTEX
  5
242
330
23F
100
AcDbEntity
  8
STANDARDEBENE
 62
     7
100
AcDbVertex
100
AcDb2dVertex
 10
20.17707629394212
 20
-16.01858491775051
 30
0.0
  0
VERTEX
  5
243
330
23F
100
AcDbEntity
  8
STANDARDEBENE
 62
     7
100
AcDbVertex
100
AcDb2dVertex
 10
20.50487734561217
 20
-15.26858713584225
 30
0.0
  0
VERTEX
  5
244
330
23F
100
AcDbEntity
  8
STANDARDEBENE
 62
     7
100
AcDbVertex
100
AcDb2dVertex
 10
20.94860593683764
 20
-14.58370170155947
 30
0.0
  0
VERTEX
  5
245
330
23F
100
AcDbEntity
  8
STANDARDEBENE
 62
     7
100
AcDbVertex
100
AcDb2dVertex
 10
21.51136265560068
 20
-13.96806273221172
 30
0.0
  0
VERTEX
  5
246
330
23F
100
AcDbEntity
  8
STANDARDEBENE
 62
     7
100
AcDbVertex
100
AcDb2dVertex
 10
22.16817054315608
 20
-13.45405414672383
 30
0.0
  0
VERTEX
  5
247
330
23F
100
AcDbEntity
  8
STANDARDEBENE
 62
     7
100
AcDbVertex
100
AcDb2dVertex
 10
22.91937410927962
 20
-13.04925516016333
 30
0.0
  0
VERTEX
  5
248
330
23F
100
AcDbEntity
  8
STANDARDEBENE
 62
     7
100
AcDbVertex
100
AcDb2dVertex
 10
23.7303501215038
 20
-12.77709243728436
 30
0.0
  0
VERTEX
  5
249
330
23F
100
AcDbEntity
  8
STANDARDEBENE
 62
     7
100
AcDbVertex
100
AcDb2dVertex
 10
24.55682907363881
 20
-12.64876254580029
 30
0.0
  0
VERTEX
  5
24A
330
23F
100
AcDbEntity
  8
STANDARDEBENE
 62
     7
100
AcDbVertex
100
AcDb2dVertex
 10
25.39398782882351
 20
-12.65995911351366
 30
0.0
  0
VERTEX
  5
24B
330
23F
100
AcDbEntity
  8
STANDARDEBENE
 62
     7
100
AcDbVertex
100
AcDb2dVertex
 10
26.18946090113686
 20
-12.80361969002067
 30
0.0
  0
VERTEX
  5
24C
330
23F
100
AcDbEntity
  8
STANDARDEBENE
 62
     7
100
AcDbVertex
100
AcDb2dVertex
 10
26.95082750564639
 20
-13.07233731514168
 30
0.0
  0
VERTEX
  5
24D
330
23F
100
AcDbEntity
  8
STANDARDEBENE
 62
     7
100
AcDbVertex
100
AcDb2dVertex
 10
27.66379048665656
 20
-13.46438943999772
 30
0.0
  0
VERTEX
  5
24E
330
23F
100
AcDbEntity
  8
STANDARDEBENE
 62
     7
100
AcDbVertex
100
AcDb2dVertex
 10
28.30302837564635
 20
-13.96530665400535
 30
0.0
  0
VERTEX
  5
24F
330
23F
100
AcDbEntity
  8
STANDARDEBENE
 62
     7
100
AcDbVertex
100
AcDb2dVertex
 10
28.87095274104634
 20
-14.58800807375692
 30
0.0
  0
VERTEX
  5
250
330
23F
100
AcDbEntity
  8
STANDARDEBENE
 62
     7
100
AcDbVertex
100
AcDb2dVertex
 10
29.32794495863996
 20
-15.29821497656073
 30
0.0
  0
VERTEX
  5
251
330
23F
100
AcDbEntity
  8
STANDARDEBENE
 62
     7
100
AcDbVertex
100
AcDb2dVertex
 10
29.65988012761957
 20
-16.08197471649701
 30
0.0
  0
VERTEX
  5
252
330
23F
100
AcDbEntity
  8
STANDARDEBENE
 62
     7
100
AcDbVertex
100
AcDb2dVertex
 10
29.85590619004758
 20
-16.91379357015686
 30
0.0
  0
VERTEX
  5
253
330
23F
100
AcDbEntity
  8
STANDARDEBENE
 62
     7
100
AcDbVertex
100
AcDb2dVertex
 10
29.90672138197752
 20
-17.74010026740397
 30
0.0
  0
VERTEX
  5
254
330
23F
100
AcDbEntity
  8
STANDARDEBENE
 62
     7
100
AcDbVertex
100
AcDb2dVertex
 10
29.82145521246797
 20
-18.56278961200522
 30
0.0
  0
VERTEX
  5
255
330
23F
100
AcDbEntity
  8
STANDARDEBENE
 62
     7
100
AcDbVertex
100
AcDb2dVertex
 10
29.60734238681065
 20
-19.34310425418354
 30
0.0
  0
VERTEX
  5
256
330
23F
100
AcDbEntity
  8
STANDARDEBENE
 62
     7
100
AcDbVertex
100
AcDb2dVertex
 10
29.27247888473677
 20
-20.07691007662938
 30
0.0
  0
VERTEX
  5
257
330
23F
100
AcDbEntity
  8
STANDARDEBENE
 62
     7
100
AcDbVertex
100
AcDb2dVertex
 10
28.81359186337627
 20
-20.75800590337841
 30
0.0
  0
VERTEX
  5
258
330
23F
100
AcDbEntity
  8
STANDARDEBENE
 62
     7
100
AcDbVertex
100
AcDb2dVertex
 10
28.25049063483744
 20
-21.35469683505737
 30
0.0
  0
VERTEX
  5
259
330
23F
100
AcDbEntity
  8
STANDARDEBENE
 62
     7
100
AcDbVertex
100
AcDb2dVertex
 10
27.57387343517376
 20
-21.86543257767519
 30
0.0
  0
VERTEX
  5
25A
330
23F
100
AcDbEntity
  8
STANDARDEBENE
 62
     7
100
AcDbVertex
100
AcDb2dVertex
 10
26.81888026151646
 20
-22.25662342809174
 30
0.0
  0
VERTEX
  5
25B
330
23F
100
AcDbEntity
  8
STANDARDEBENE
 62
     7
100
AcDbVertex
100
AcDb2dVertex
 10
26.01031581772285
 20
-22.5127664463962
 30
0.0
  0
VERTEX
  5
25C
330
23F
100
AcDbEntity
  8
STANDARDEBENE
 62
     7
100
AcDbVertex
100
AcDb2dVertex
 10
25.16833392567701
 20
-22.6295552603911
 30
0.0
  0
VERTEX
  5
25D
330
23F
100
AcDbEntity
  8
STANDARDEBENE
 62
     7
100
AcDbVertex
100
AcDb2dVertex
 10
24.34943418860952
 20
-22.60457830164587
 30
0.0
  0
VERTEX
  5
25E
330
23F
100
AcDbEntity
  8
STANDARDEBENE
 62
     7
100
AcDbVertex
100
AcDb2dVertex
 10
23.54689866589235
 20
-22.44713733410703
 30
0.0
  0
VERTEX
  5
25F
330
23F
100
AcDbEntity
  8
STANDARDEBENE
 62
     7
100
AcDbVertex
100
AcDb2dVertex
 10
22.79087196290765
 20
-22.16532833750576
 30
0.0
  0
VERTEX
  5
260
330
23F
100
AcDbEntity
  8
STANDARDEBENE
 62
     7
100
AcDbVertex
100
AcDb2dVertex
 10
22.09168937292933
 20
-21.76741954646118
 30
0.0
  0
VERTEX
  5
261
330
23F
100
AcDbEntity
  8
STANDARDEBENE
 62
     7
100
AcDbVertex
100
AcDb2dVertex
 10
21.44745609219049
 20
-21.2441091970268
 30
0.0
  0
VERTEX
  5
262
330
23F
100
AcDbEntity
  8
STANDARDEBENE
 62
     7
100
AcDbVertex
100
AcDb2dVertex
 10
20.8981352546835
 20
-20.62330258104211
 30
0.0
  0
VERTEX
  5
263
330
23F
100
AcDbEntity
  8
STANDARDEBENE
 62
     7
100
AcDbVertex
100
AcDb2dVertex
 10
20.44992803637269
 20
-19.89810950299117
 30
0.0
  0
VERTEX
  5
264
330
23F
100
AcDbEntity
  8
STANDARDEBENE
 62
     7
100
AcDbVertex
100
AcDb2dVertex
 10
20.12918943510645
 20
-19.10573701865998
 30
0.0
  0
VERTEX
  5
265
330
23F
100
AcDbEntity
  8
STANDARDEBENE
 62
     7
100
AcDbVertex
100
AcDb2dVertex
 10
19.96451376227588
 20
-18.37968266616956
 30
0.0
  0
VERTEX
  5
266
330
23F
100
AcDbEntity
  8
STANDARDEBENE
 62
     7
100
AcDbVertex
100
AcDb2dVertex
 10
19.90801415904531
 20
-17.63640282488932
 30
0.0
  0
SEQEND
  5
267
330
23F
100
AcDbEntity
  8
STANDARDEBENE
  0
POLYLINE
  5
268
330
1F
100
AcDbEntity
  8
STANDARDEBENE
 62
     7
100
AcDb2dPolyline
 66
     1
 10
0.0
 20
0.0
 30
0.0
  0
VERTEX
  5
269
330
268
100
AcDbEntity
  8
STANDARDEBENE
 62
     7
100
AcDbVertex
100
AcDb2dVertex
 10
34.9084865618742
 20
-17.63640282488932
 30
0.0
  0
VERTEX
  5
26A
330
268
100
AcDbEntity
  8
STANDARDEBENE
 62
     7
100
AcDbVertex
100
AcDb2dVertex
 10
34.9084865618742
 20
-15.67665896527282
 30
0.0
  0
VERTEX
  5
26B
330
268
100
AcDbEntity
  8
STANDARDEBENE
 62
     7
100
AcDbVertex
100
AcDb2dVertex
 10
34.9084865618742
 20
-13.74171980951363
 30
0.0
  0
VERTEX
  5
26C
330
268
100
AcDbEntity
  8
STANDARDEBENE
 62
     7
100
AcDbVertex
100
AcDb2dVertex
 10
34.9084865618742
 20
-11.8563900614691
 30
0.0
  0
VERTEX
  5
26D
330
268
100
AcDbEntity
  8
STANDARDEBENE
 62
     7
100
AcDbVertex
100
AcDb2dVertex
 10
34.9084865618742
 20
-10.04340736634176
 30
0.0
  0
VERTEX
  5
26E
330
268
100
AcDbEntity
  8
STANDARDEBENE
 62
     7
100
AcDbVertex
100
AcDb2dVertex
 10
34.9084865618742
 20
-8.325509369334165
 30
0.0
  0
VERTEX
  5
26F
330
268
100
AcDbEntity
  8
STANDARDEBENE
 62
     7
100
AcDbVertex
100
AcDb2dVertex
 10
34.9084865618742
 20
-6.724916950985165
 30
0.0
  0
VERTEX
  5
270
330
268
100
AcDbEntity
  8
STANDARDEBENE
 62
     7
100
AcDbVertex
100
AcDb2dVertex
 10
34.9084865618742
 20
-5.261956188066734
 30
0.0
  0
VERTEX
  5
271
330
268
100
AcDbEntity
  8
STANDARDEBENE
 62
     7
100
AcDbVertex
100
AcDb2dVertex
 10
34.9084865618742
 20
-3.954197079144477
 30
0.0
  0
VERTEX
  5
272
330
268
100
AcDbEntity
  8
STANDARDEBENE
 62
     7
100
AcDbVertex
100
AcDb2dVertex
 10
34.9084865618742
 20
-2.818692858120305
 30
0.0
  0
VERTEX
  5
273
330
268
100
AcDbEntity
  8
STANDARDEBENE
 62
     7
100
AcDbVertex
100
AcDb2dVertex
 10
34.9084865618742
 20
-1.868879406250267
 30
0.0
  0
VERTEX
  5
274
330
268
100
AcDbEntity
  8
STANDARDEBENE
 62
     7
100
AcDbVertex
100
AcDb2dVertex
 10
34.9084865618742
 20
-1.117848095014619
 30
0.0
  0
VERTEX
  5
275
330
268
100
AcDbEntity
  8
STANDARDEBENE
 62
     7
100
AcDbVertex
100
AcDb2dVertex
 10
34.9084865618742
 20
-0.5745561785840606
 30
0.0
  0
VERTEX
  5
276
330
268
100
AcDbEntity
  8
STANDARDEBENE
 62
     7
100
AcDbVertex
100
AcDb2dVertex
 10
34.9084865618742
 20
-0.2462383622503117
 30
0.0
  0
VERTEX
  5
277
330
268
100
AcDbEntity
  8
STANDARDEBENE
 62
     7
100
AcDbVertex
100
AcDb2dVertex
 10
34.9084865618742
 20
-0.1363397437713338
 30
0.0
  0
SEQEND
  5
278
330
268
100
AcDbEntity
  8
STANDARDEBENE
  0
POLYLINE
  5
279
330
1F
100
AcDbEntity
  8
STANDARDEBENE
 62
     7
100
AcDb2dPolyline
 66
     1
 10
0.0
 20
0.0
 30
0.0
  0
VERTEX
  5
27A
330
279
100
AcDbEntity
  8
STANDARDEBENE
 62
     7
100
AcDbVertex
100
AcDb2dVertex
 10
34.9084865618742
 20
-35.13629365111942
 30
0.0
  0
VERTEX
  5
27B
330
279
100
AcDbEntity
  8
STANDARDEBENE
 62
     7
100
AcDbVertex
100
AcDb2dVertex
 10
34.9084865618742
 20
-35.02622277775254
 30
0.0
  0
VERTEX
  5
27C
330
279
100
AcDbEntity
  8
STANDARDEBENE
 62
     7
100
AcDbVertex
100
AcDb2dVertex
 10
34.9084865618742
 20
-34.69738819675509
 30
0.0
  0
VERTEX
  5
27D
330
279
100
AcDbEntity
  8
STANDARDEBENE
 62
     7
100
AcDbVertex
100
AcDb2dVertex
 10
34.9084865618742
 20
-34.15444079010033
 30
0.0
  0
VERTEX
  5
27E
330
279
100
AcDbEntity
  8
STANDARDEBENE
 62
     7
100
AcDbVertex
100
AcDb2dVertex
 10
34.9084865618742
 20
-33.40340947886468
 30
0.0
  0
VERTEX
  5
27F
330
279
100
AcDbEntity
  8
STANDARDEBENE
 62
     7
100
AcDbVertex
100
AcDb2dVertex
 10
34.9084865618742
 20
-32.45376828188255
 30
0.0
  0
VERTEX
  5
280
330
279
100
AcDbEntity
  8
STANDARDEBENE
 62
     7
100
AcDbVertex
100
AcDb2dVertex
 10
34.9084865618742
 20
-31.31843631574627
 30
0.0
  0
VERTEX
  5
281
330
279
100
AcDbEntity
  8
STANDARDEBENE
 62
     7
100
AcDbVertex
100
AcDb2dVertex
 10
34.9084865618742
 20
-30.01067720682401
 30
0.0
  0
VERTEX
  5
282
330
279
100
AcDbEntity
  8
STANDARDEBENE
 62
     7
100
AcDbVertex
100
AcDb2dVertex
 10
34.9084865618742
 20
-28.54737193412979
 30
0.0
  0
VERTEX
  5
283
330
279
100
AcDbEntity
  8
STANDARDEBENE
 62
     7
100
AcDbVertex
100
AcDb2dVertex
 10
34.9084865618742
 20
-26.94643500600499
 30
0.0
  0
VERTEX
  5
284
330
279
100
AcDbEntity
  8
STANDARDEBENE
 62
     7
100
AcDbVertex
100
AcDb2dVertex
 10
34.9084865618742
 20
-25.22870926388529
 30
0.0
  0
VERTEX
  5
285
330
279
100
AcDbEntity
  8
STANDARDEBENE
 62
     7
100
AcDbVertex
100
AcDb2dVertex
 10
34.9084865618742
 20
-23.41589882364585
 30
0.0
  0
VERTEX
  5
286
330
279
100
AcDbEntity
  8
STANDARDEBENE
 62
     7
100
AcDbVertex
100
AcDb2dVertex
 10
34.9084865618742
 20
-21.53039682071342
 30
0.0
  0
VERTEX
  5
287
330
279
100
AcDbEntity
  8
STANDARDEBENE
 62
     7
100
AcDbVertex
100
AcDb2dVertex
 10
34.9084865618742
 20
-19.59562991984214
 30
0.0
  0
VERTEX
  5
288
330
279
100
AcDbEntity
  8
STANDARDEBENE
 62
     7
100
AcDbVertex
100
AcDb2dVertex
 10
34.9084865618742
 20
-17.63640282488932
 30
0.0
  0
SEQEND
  5
289
330
279
100
AcDbEntity
  8
STANDARDEBENE
  0
POLYLINE
  5
28A
330
1F
100
AcDbEntity
  8
STANDARDEBENE
 62
     7
100
AcDb2dPolyline
 66
     1
 10
0.0
 20
0.0
 30
0.0
  0
VERTEX
  5
28B
330
28A
100
AcDbEntity
  8
STANDARDEBENE
 62
     7
100
AcDbVertex
100
AcDb2dVertex
 10
35.40802573677864
 20
-17.63640282488932
 30
0.0
  0
VERTEX
  5
28C
330
28A
100
AcDbEntity
  8
STANDARDEBENE
 62
     7
100
AcDbVertex
100
AcDb2dVertex
 10
35.54703543131239
 20
-16.81440249983966
 30
0.0
  0
VERTEX
  5
28D
330
28A
100
AcDbEntity
  8
STANDARDEBENE
 62
     7
100
AcDbVertex
100
AcDb2dVertex
 10
35.94735579078755
 20
-16.08507530447918
 30
0.0
  0
VERTEX
  5
28E
330
28A
100
AcDbEntity
  8
STANDARDEBENE
 62
     7
100
AcDbVertex
100
AcDb2dVertex
 10
36.56936819098753
 20
-15.5249024090346
 30
0.0
  0
VERTEX
  5
28F
330
28A
100
AcDbEntity
  8
STANDARDEBENE
 62
     7
100
AcDbVertex
100
AcDb2dVertex
 10
37.34761577451107
 20
-15.19968518068302
 30
0.0
  0
VERTEX
  5
290
330
28A
100
AcDbEntity
  8
STANDARDEBENE
 62
     7
100
AcDbVertex
100
AcDb2dVertex
 10
38.18287972592888
 20
-15.15110930229576
 30
0.0
  0
VERTEX
  5
291
330
28A
100
AcDbEntity
  8
STANDARDEBENE
 62
     7
100
AcDbVertex
100
AcDb2dVertex
 10
38.98093662156071
 20
-15.37779673476964
 30
0.0
  0
VERTEX
  5
292
330
28A
100
AcDbEntity
  8
STANDARDEBENE
 62
     7
100
AcDbVertex
100
AcDb2dVertex
 10
39.66186019342184
 20
-15.85442600958364
 30
0.0
  0
VERTEX
  5
293
330
28A
100
AcDbEntity
  8
STANDARDEBENE
 62
     7
100
AcDbVertex
100
AcDb2dVertex
 10
40.15313113370717
 20
-16.53603860099636
 30
0.0
  0
VERTEX
  5
294
330
28A
100
AcDbEntity
  8
STANDARDEBENE
 62
     7
100
AcDbVertex
100
AcDb2dVertex
 10
40.39101513389443
 20
-17.34391402523838
 30
0.0
  0
VERTEX
  5
295
330
28A
100
AcDbEntity
  8
STANDARDEBENE
 62
     7
100
AcDbVertex
100
AcDb2dVertex
 10
40.34932945102309
 20
-18.17676640822561
 30
0.0
  0
VERTEX
  5
296
330
28A
100
AcDbEntity
  8
STANDARDEBENE
 62
     7
100
AcDbVertex
100
AcDb2dVertex
 10
40.03789261370336
 20
-18.94519546313897
 30
0.0
  0
VERTEX
  5
297
330
28A
100
AcDbEntity
  8
STANDARDEBENE
 62
     7
100
AcDbVertex
100
AcDb2dVertex
 10
39.48891628597216
 20
-19.57306452952749
 30
0.0
  0
VERTEX
  5
298
330
28A
100
AcDbEntity
  8
STANDARDEBENE
 62
     7
100
AcDbVertex
100
AcDb2dVertex
 10
38.75614399285371
 20
-19.98768204469818
 30
0.0
  0
VERTEX
  5
299
330
28A
100
AcDbEntity
  8
STANDARDEBENE
 62
     7
100
AcDbVertex
100
AcDb2dVertex
 10
37.9293205309429
 20
-20.13582124829053
 30
0.0
  0
VERTEX
  5
29A
330
28A
100
AcDbEntity
  8
STANDARDEBENE
 62
     7
100
AcDbVertex
100
AcDb2dVertex
 10
37.10835373522063
 20
-20.00456302371219
 30
0.0
  0
VERTEX
  5
29B
330
28A
100
AcDbEntity
  8
STANDARDEBENE
 62
     7
100
AcDbVertex
100
AcDb2dVertex
 10
36.37782075564485
 20
-19.61251089885615
 30
0.0
  0
VERTEX
  5
29C
330
28A
100
AcDbEntity
  8
STANDARDEBENE
 62
     7
100
AcDbVertex
100
AcDb2dVertex
 10
35.81127442934806
 20
-18.99704418439629
 30
0.0
  0
VERTEX
  5
29D
330
28A
100
AcDbEntity
  8
STANDARDEBENE
 62
     7
100
AcDbVertex
100
AcDb2dVertex
 10
35.47813347615316
 20
-18.22241395351861
 30
0.0
  0
VERTEX
  5
29E
330
28A
100
AcDbEntity
  8
STANDARDEBENE
 62
     7
100
AcDbVertex
100
AcDb2dVertex
 10
35.40802573677864
 20
-17.63640282488932
 30
0.0
  0
SEQEND
  5
29F
330
28A
100
AcDbEntity
  8
STANDARDEBENE
  0
POLYLINE
  5
2A0
330
1F
100
AcDbEntity
  8
STANDARDEBENE
 62
     7
100
AcDb2dPolyline
 66
     1
 10
0.0
 20
0.0
 30
0.0
  0
VERTEX
  5
2A1
330
2A0
100
AcDbEntity
  8
STANDARDEBENE
 62
     7
100
AcDbVertex
100
AcDb2dVertex
 10
42.87200228429054
 20
-6.796919494126564
 30
0.0
  0
VERTEX
  5
2A2
330
2A0
100
AcDbEntity
  8
STANDARDEBENE
 62
     7
100
AcDbVertex
100
AcDb2dVertex
 10
42.88578267532238
 20
-6.78744547529217
 30
0.0
  0
SEQEND
  5
2A3
330
2A0
100
AcDbEntity
  8
STANDARDEBENE
  0
POLYLINE
  5
2A4
330
1F
100
AcDbEntity
  8
STANDARDEBENE
 62
     7
100
AcDb2dPolyline
 66
     1
 10
0.0
 20
0.0
 30
0.0
  0
VERTEX
  5
2A5
330
2A4
100
AcDbEntity
  8
STANDARDEBENE
 62
     7
100
AcDbVertex
100
AcDb2dVertex
 10
42.93987071012238
 20
-6.749893909730387
 30
0.0
  0
VERTEX
  5
2A6
330
2A4
100
AcDbEntity
  8
STANDARDEBENE
 62
     7
100
AcDbVertex
100
AcDb2dVertex
 10
43.11470942133894
 20
-6.630004507753321
 30
0.0
  0
VERTEX
  5
2A7
330
2A4
100
AcDbEntity
  8
STANDARDEBENE
 62
     7
100
AcDbVertex
100
AcDb2dVertex
 10
43.38084322314148
 20
-6.634655389726569
 30
0.0
  0
SEQEND
  5
2A8
330
2A4
100
AcDbEntity
  8
STANDARDEBENE
  0
POLYLINE
  5
2A9
330
1F
100
AcDbEntity
  8
STANDARDEBENE
 62
     7
100
AcDb2dPolyline
 66
     1
 10
0.0
 20
0.0
 30
0.0
  0
VERTEX
  5
2AA
330
2A9
100
AcDbEntity
  8
STANDARDEBENE
 62
     7
100
AcDbVertex
100
AcDb2dVertex
 10
42.62051014795934
 20
-7.197239853601713
 30
0.0
  0
VERTEX
  5
2AB
330
2A9
100
AcDbEntity
  8
STANDARDEBENE
 62
     7
100
AcDbVertex
100
AcDb2dVertex
 10
42.87200228429054
 20
-6.796919494126564
 30
0.0
  0
SEQEND
  5
2AC
330
2A9
100
AcDbEntity
  8
STANDARDEBENE
  0
POLYLINE
  5
2AD
330
1F
100
AcDbEntity
  8
STANDARDEBENE
 62
     7
100
AcDb2dPolyline
 66
     1
 10
0.0
 20
0.0
 30
0.0
  0
VERTEX
  5
2AE
330
2AD
100
AcDbEntity
  8
STANDARDEBENE
 62
     7
100
AcDbVertex
100
AcDb2dVertex
 10
42.62051014795934
 20
-24.38741639139105
 30
0.0
  0
VERTEX
  5
2AF
330
2AD
100
AcDbEntity
  8
STANDARDEBENE
 62
     7
100
AcDbVertex
100
AcDb2dVertex
 10
42.84237444357207
 20
-23.27447756068153
 30
0.0
  0
VERTEX
  5
2B0
330
2AD
100
AcDbEntity
  8
STANDARDEBENE
 62
     7
100
AcDbVertex
100
AcDb2dVertex
 10
43.10764697093511
 20
-22.05164011149302
 30
0.0
  0
VERTEX
  5
2B1
330
2AD
100
AcDbEntity
  8
STANDARDEBENE
 62
     7
100
AcDbVertex
100
AcDb2dVertex
 10
43.38394381112364
 20
-20.72803355288414
 30
0.0
  0
VERTEX
  5
2B2
330
2AD
100
AcDbEntity
  8
STANDARDEBENE
 62
     7
100
AcDbVertex
100
AcDb2dVertex
 10
43.55826575767651
 20
-19.77029637617079
 30
0.0
  0
VERTEX
  5
2B3
330
2AD
100
AcDbEntity
  8
STANDARDEBENE
 62
     7
100
AcDbVertex
100
AcDb2dVertex
 10
43.69159104090962
 20
-18.76415557595808
 30
0.0
  0
VERTEX
  5
2B4
330
2AD
100
AcDbEntity
  8
STANDARDEBENE
 62
     7
100
AcDbVertex
100
AcDb2dVertex
 10
43.74550682082172
 20
-17.89771348983072
 30
0.0
  0
VERTEX
  5
2B5
330
2AD
100
AcDbEntity
  8
STANDARDEBENE
 62
     7
100
AcDbVertex
100
AcDb2dVertex
 10
43.73293221400517
 20
-17.02420895329953
 30
0.0
  0
VERTEX
  5
2B6
330
2AD
100
AcDbEntity
  8
STANDARDEBENE
 62
     7
100
AcDbVertex
100
AcDb2dVertex
 10
43.62561741884466
 20
-15.95571188366771
 30
0.0
  0
VERTEX
  5
2B7
330
2AD
100
AcDbEntity
  8
STANDARDEBENE
 62
     7
100
AcDbVertex
100
AcDb2dVertex
 10
43.45870243247141
 20
-14.93510167287156
 30
0.0
  0
VERTEX
  5
2B8
330
2AD
100
AcDbEntity
  8
STANDARDEBENE
 62
     7
100
AcDbVertex
100
AcDb2dVertex
 10
43.12642275371601
 20
-13.30918778600154
 30
0.0
  0
VERTEX
  5
2B9
330
2AD
100
AcDbEntity
  8
STANDARDEBENE
 62
     7
100
AcDbVertex
100
AcDb2dVertex
 10
42.80688993666507
 20
-11.8384755531277
 30
0.0
  0
VERTEX
  5
2BA
330
2AD
100
AcDbEntity
  8
STANDARDEBENE
 62
     7
100
AcDbVertex
100
AcDb2dVertex
 10
42.62051014795934
 20
-10.8848724937239
 30
0.0
  0
SEQEND
  5
2BB
330
2AD
100
AcDbEntity
  8
STANDARDEBENE
  0
POLYLINE
  5
2BC
330
1F
100
AcDbEntity
  8
STANDARDEBENE
 62
     7
100
AcDb2dPolyline
 66
     1
 10
0.0
 20
0.0
 30
0.0
  0
VERTEX
  5
2BD
330
2BC
100
AcDbEntity
  8
STANDARDEBENE
 62
     7
100
AcDbVertex
100
AcDb2dVertex
 10
42.62051014795934
 20
-28.07573805106483
 30
0.0
  0
VERTEX
  5
2BE
330
2BC
100
AcDbEntity
  8
STANDARDEBENE
 62
     7
100
AcDbVertex
100
AcDb2dVertex
 10
42.51784623477208
 20
-27.89521492854764
 30
0.0
  0
VERTEX
  5
2BF
330
2BC
100
AcDbEntity
  8
STANDARDEBENE
 62
     7
100
AcDbVertex
100
AcDb2dVertex
 10
42.49252476625106
 20
-27.86730963670815
 30
0.0
  0
VERTEX
  5
2C0
330
2BC
100
AcDbEntity
  8
STANDARDEBENE
 62
     7
100
AcDbVertex
100
AcDb2dVertex
 10
42.47133741503959
 20
-27.84887836370305
 30
0.0
  0
VERTEX
  5
2C1
330
2BC
100
AcDbEntity
  8
STANDARDEBENE
 62
     7
100
AcDbVertex
100
AcDb2dVertex
 10
42.44584369163068
 20
-27.83337542379223
 30
0.0
  0
VERTEX
  5
2C2
330
2BC
100
AcDbEntity
  8
STANDARDEBENE
 62
     7
100
AcDbVertex
100
AcDb2dVertex
 10
42.43102977127144
 20
-27.82803552226738
 30
0.0
  0
VERTEX
  5
2C3
330
2BC
100
AcDbEntity
  8
STANDARDEBENE
 62
     7
100
AcDbVertex
100
AcDb2dVertex
 10
42.4169048704638
 20
-27.82493493428522
 30
0.0
  0
VERTEX
  5
2C4
330
2BC
100
AcDbEntity
  8
STANDARDEBENE
 62
     7
100
AcDbVertex
100
AcDb2dVertex
 10
42.40846438095679
 20
-27.82355689518204
 30
0.0
  0
SEQEND
  5
2C5
330
2BC
100
AcDbEntity
  8
STANDARDEBENE
  0
POLYLINE
  5
2C6
330
1F
100
AcDbEntity
  8
STANDARDEBENE
 62
     7
100
AcDb2dPolyline
 66
     1
 10
0.0
 20
0.0
 30
0.0
  0
VERTEX
  5
2C7
330
2C6
100
AcDbEntity
  8
STANDARDEBENE
 62
     7
100
AcDbVertex
100
AcDb2dVertex
 10
42.62051014795934
 20
-10.8848724937239
 30
0.0
  0
VERTEX
  5
2C8
330
2C6
100
AcDbEntity
  8
STANDARDEBENE
 62
     7
100
AcDbVertex
100
AcDb2dVertex
 10
42.51750172499628
 20
-10.48627468312774
 30
0.0
  0
VERTEX
  5
2C9
330
2C6
100
AcDbEntity
  8
STANDARDEBENE
 62
     7
100
AcDbVertex
100
AcDb2dVertex
 10
42.49218025647526
 20
-10.42908606034557
 30
0.0
  0
VERTEX
  5
2CA
330
2C6
100
AcDbEntity
  8
STANDARDEBENE
 62
     7
100
AcDbVertex
100
AcDb2dVertex
 10
42.47133741503959
 20
-10.39239576922328
 30
0.0
  0
VERTEX
  5
2CB
330
2C6
100
AcDbEntity
  8
STANDARDEBENE
 62
     7
100
AcDbVertex
100
AcDb2dVertex
 10
42.44549918185488
 20
-10.36104537962583
 30
0.0
  0
VERTEX
  5
2CC
330
2C6
100
AcDbEntity
  8
STANDARDEBENE
 62
     7
100
AcDbVertex
100
AcDb2dVertex
 10
42.43102977127144
 20
-10.34933204724876
 30
0.0
  0
VERTEX
  5
2CD
330
2C6
100
AcDbEntity
  8
STANDARDEBENE
 62
     7
100
AcDbVertex
100
AcDb2dVertex
 10
42.4169048704638
 20
-10.34226959684494
 30
0.0
  0
VERTEX
  5
2CE
330
2C6
100
AcDbEntity
  8
STANDARDEBENE
 62
     7
100
AcDbVertex
100
AcDb2dVertex
 10
42.40846438095679
 20
-10.34054704796596
 30
0.0
  0
SEQEND
  5
2CF
330
2C6
100
AcDbEntity
  8
STANDARDEBENE
  0
POLYLINE
  5
2D0
330
1F
100
AcDbEntity
  8
STANDARDEBENE
 62
     7
100
AcDb2dPolyline
 66
     1
 10
0.0
 20
0.0
 30
0.0
  0
VERTEX
  5
2D1
330
2D0
100
AcDbEntity
  8
STANDARDEBENE
 62
     7
100
AcDbVertex
100
AcDb2dVertex
 10
42.40846438095679
 20
-24.93174183714899
 30
0.0
  0
VERTEX
  5
2D2
330
2D0
100
AcDbEntity
  8
STANDARDEBENE
 62
     7
100
AcDbVertex
100
AcDb2dVertex
 10
42.42293379154023
 20
-24.92691870028785
 30
0.0
  0
VERTEX
  5
2D3
330
2D0
100
AcDbEntity
  8
STANDARDEBENE
 62
     7
100
AcDbVertex
100
AcDb2dVertex
 10
42.44102055476953
 20
-24.91486085813498
 30
0.0
  0
VERTEX
  5
2D4
330
2D0
100
AcDbEntity
  8
STANDARDEBENE
 62
     7
100
AcDbVertex
100
AcDb2dVertex
 10
42.47908888499501
 20
-24.86697399929932
 30
0.0
  0
VERTEX
  5
2D5
330
2D0
100
AcDbEntity
  8
STANDARDEBENE
 62
     7
100
AcDbVertex
100
AcDb2dVertex
 10
42.57193426957208
 20
-24.61427607875282
 30
0.0
  0
VERTEX
  5
2D6
330
2D0
100
AcDbEntity
  8
STANDARDEBENE
 62
     7
100
AcDbVertex
100
AcDb2dVertex
 10
42.62051014795934
 20
-24.38741639139105
 30
0.0
  0
SEQEND
  5
2D7
330
2D0
100
AcDbEntity
  8
STANDARDEBENE
  0
POLYLINE
  5
2D8
330
1F
100
AcDbEntity
  8
STANDARDEBENE
 62
     7
100
AcDb2dPolyline
 66
     1
 10
0.0
 20
0.0
 30
0.0
  0
VERTEX
  5
2D9
330
2D8
100
AcDbEntity
  8
STANDARDEBENE
 62
     7
100
AcDbVertex
100
AcDb2dVertex
 10
42.88905551819245
 20
-28.47605841053998
 30
0.0
  0
VERTEX
  5
2DA
330
2D8
100
AcDbEntity
  8
STANDARDEBENE
 62
     7
100
AcDbVertex
100
AcDb2dVertex
 10
42.62051014795934
 20
-28.07573805106483
 30
0.0
  0
SEQEND
  5
2DB
330
2D8
100
AcDbEntity
  8
STANDARDEBENE
  0
POLYLINE
  5
2DC
330
1F
100
AcDbEntity
  8
STANDARDEBENE
 62
     7
100
AcDb2dPolyline
 66
     1
 10
0.0
 20
0.0
 30
0.0
  0
VERTEX
  5
2DD
330
2DC
100
AcDbEntity
  8
STANDARDEBENE
 62
     7
100
AcDbVertex
100
AcDb2dVertex
 10
43.31969273793766
 20
-28.63797800516418
 30
0.0
  0
VERTEX
  5
2DE
330
2DC
100
AcDbEntity
  8
STANDARDEBENE
 62
     7
100
AcDbVertex
100
AcDb2dVertex
 10
43.21961264806887
 20
-28.66450525790048
 30
0.0
  0
VERTEX
  5
2DF
330
2DC
100
AcDbEntity
  8
STANDARDEBENE
 62
     7
100
AcDbVertex
100
AcDb2dVertex
 10
42.97862805989945
 20
-28.56890379511705
 30
0.0
  0
VERTEX
  5
2E0
330
2DC
100
AcDbEntity
  8
STANDARDEBENE
 62
     7
100
AcDbVertex
100
AcDb2dVertex
 10
42.94831119962939
 20
-28.5456493852508
 30
0.0
  0
VERTEX
  5
2E1
330
2DC
100
AcDbEntity
  8
STANDARDEBENE
 62
     7
100
AcDbVertex
100
AcDb2dVertex
 10
42.93315276949436
 20
-28.53255801377055
 30
0.0
  0
VERTEX
  5
2E2
330
2DC
100
AcDbEntity
  8
STANDARDEBENE
 62
     7
100
AcDbVertex
100
AcDb2dVertex
 10
42.91747757469563
 20
-28.51981115206609
 30
0.0
  0
SEQEND
  5
2E3
330
2DC
100
AcDbEntity
  8
STANDARDEBENE
  0
POLYLINE
  5
2E4
330
1F
100
AcDbEntity
  8
STANDARDEBENE
 62
     7
100
AcDb2dPolyline
 66
     1
 10
0.0
 20
0.0
 30
0.0
  0
VERTEX
  5
2E5
330
2E4
100
AcDbEntity
  8
STANDARDEBENE
 62
     7
100
AcDbVertex
100
AcDb2dVertex
 10
41.90823618650076
 20
-25.01614673221906
 30
0.0
  0
VERTEX
  5
2E6
330
2E4
100
AcDbEntity
  8
STANDARDEBENE
 62
     7
100
AcDbVertex
100
AcDb2dVertex
 10
42.40846438095679
 20
-24.93174183714899
 30
0.0
  0
SEQEND
  5
2E7
330
2E4
100
AcDbEntity
  8
STANDARDEBENE
  0
POLYLINE
  5
2E8
330
1F
100
AcDbEntity
  8
STANDARDEBENE
 62
     7
100
AcDb2dPolyline
 66
     1
 10
0.0
 20
0.0
 30
0.0
  0
VERTEX
  5
2E9
330
2E8
100
AcDbEntity
  8
STANDARDEBENE
 62
     7
100
AcDbVertex
100
AcDb2dVertex
 10
42.40846438095679
 20
-10.34054704796596
 30
0.0
  0
VERTEX
  5
2EA
330
2E8
100
AcDbEntity
  8
STANDARDEBENE
 62
     7
100
AcDbVertex
100
AcDb2dVertex
 10
41.90823618650076
 20
-10.25631440778379
 30
0.0
  0
SEQEND
  5
2EB
330
2E8
100
AcDbEntity
  8
STANDARDEBENE
  0
POLYLINE
  5
2EC
330
1F
100
AcDbEntity
  8
STANDARDEBENE
 62
     7
100
AcDb2dPolyline
 66
     1
 10
0.0
 20
0.0
 30
0.0
  0
VERTEX
  5
2ED
330
2EC
100
AcDbEntity
  8
STANDARDEBENE
 62
     7
100
AcDbVertex
100
AcDb2dVertex
 10
41.90823618650076
 20
-7.477843065987692
 30
0.0
  0
VERTEX
  5
2EE
330
2EC
100
AcDbEntity
  8
STANDARDEBENE
 62
     7
100
AcDbVertex
100
AcDb2dVertex
 10
42.40846438095679
 20
-7.448904244820814
 30
0.0
  0
SEQEND
  5
2EF
330
2EC
100
AcDbEntity
  8
STANDARDEBENE
  0
POLYLINE
  5
2F0
330
1F
100
AcDbEntity
  8
STANDARDEBENE
 62
     7
100
AcDb2dPolyline
 66
     1
 10
0.0
 20
0.0
 30
0.0
  0
VERTEX
  5
2F1
330
2F0
100
AcDbEntity
  8
STANDARDEBENE
 62
     7
100
AcDbVertex
100
AcDb2dVertex
 10
42.40846438095679
 20
-27.82355689518204
 30
0.0
  0
VERTEX
  5
2F2
330
2F0
100
AcDbEntity
  8
STANDARDEBENE
 62
     7
100
AcDbVertex
100
AcDb2dVertex
 10
41.90823618650076
 20
-27.79461807401516
 30
0.0
  0
SEQEND
  5
2F3
330
2F0
100
AcDbEntity
  8
STANDARDEBENE
  0
POLYLINE
  5
2F4
330
1F
100
AcDbEntity
  8
STANDARDEBENE
 62
     7
100
AcDb2dPolyline
 66
     1
 10
0.0
 20
0.0
 30
0.0
  0
VERTEX
  5
2F5
330
2F4
100
AcDbEntity
  8
STANDARDEBENE
 62
     7
100
AcDbVertex
100
AcDb2dVertex
 10
42.40846438095679
 20
-7.448904244820814
 30
0.0
  0
VERTEX
  5
2F6
330
2F4
100
AcDbEntity
  8
STANDARDEBENE
 62
     7
100
AcDbVertex
100
AcDb2dVertex
 10
42.42293379154023
 20
-7.446664931278138
 30
0.0
  0
VERTEX
  5
2F7
330
2F4
100
AcDbEntity
  8
STANDARDEBENE
 62
     7
100
AcDbVertex
100
AcDb2dVertex
 10
42.44102055476953
 20
-7.440636010201706
 30
0.0
  0
VERTEX
  5
2F8
330
2F4
100
AcDbEntity
  8
STANDARDEBENE
 62
     7
100
AcDbVertex
100
AcDb2dVertex
 10
42.47908888499501
 20
-7.416692580783872
 30
0.0
  0
VERTEX
  5
2F9
330
2F4
100
AcDbEntity
  8
STANDARDEBENE
 62
     7
100
AcDbVertex
100
AcDb2dVertex
 10
42.57193426957208
 20
-7.295941904367314
 30
0.0
  0
VERTEX
  5
2FA
330
2F4
100
AcDbEntity
  8
STANDARDEBENE
 62
     7
100
AcDbVertex
100
AcDb2dVertex
 10
42.62051014795934
 20
-7.197239853601713
 30
0.0
  0
SEQEND
  5
2FB
330
2F4
100
AcDbEntity
  8
STANDARDEBENE
  0
POLYLINE
  5
2FC
330
1F
100
AcDbEntity
  8
STANDARDEBENE
 62
     7
100
AcDb2dPolyline
 66
     1
 10
0.0
 20
0.0
 30
0.0
  0
VERTEX
  5
2FD
330
2FC
100
AcDbEntity
  8
STANDARDEBENE
 62
     7
100
AcDbVertex
100
AcDb2dVertex
 10
59.88131118978689
 20
-7.188799364094706
 30
0.0
  0
VERTEX
  5
2FE
330
2FC
100
AcDbEntity
  8
STANDARDEBENE
 62
     7
100
AcDbVertex
100
AcDb2dVertex
 10
59.88131118978689
 20
-7.029635847676876
 30
0.0
  0
VERTEX
  5
2FF
330
2FC
100
AcDbEntity
  8
STANDARDEBENE
 62
     7
100
AcDbVertex
100
AcDb2dVertex
 10
59.88131118978689
 20
-7.025846240143118
 30
0.0
  0
SEQEND
  5
300
330
2FC
100
AcDbEntity
  8
STANDARDEBENE
  0
POLYLINE
  5
301
330
1F
100
AcDbEntity
  8
STANDARDEBENE
 62
     7
100
AcDb2dPolyline
 66
     1
 10
0.0
 20
0.0
 30
0.0
  0
VERTEX
  5
302
330
301
100
AcDbEntity
  8
STANDARDEBENE
 62
     7
100
AcDbVertex
100
AcDb2dVertex
 10
59.88131118978689
 20
-28.12793128209795
 30
0.0
  0
VERTEX
  5
303
330
301
100
AcDbEntity
  8
STANDARDEBENE
 62
     7
100
AcDbVertex
100
AcDb2dVertex
 10
59.88131118978689
 20
-27.65233553661134
 30
0.0
  0
VERTEX
  5
304
330
301
100
AcDbEntity
  8
STANDARDEBENE
 62
     7
100
AcDbVertex
100
AcDb2dVertex
 10
59.88131118978689
 20
-26.90406030358206
 30
0.0
  0
VERTEX
  5
305
330
301
100
AcDbEntity
  8
STANDARDEBENE
 62
     7
100
AcDbVertex
100
AcDb2dVertex
 10
59.88131118978689
 20
-25.91703979592604
 30
0.0
  0
VERTEX
  5
306
330
301
100
AcDbEntity
  8
STANDARDEBENE
 62
     7
100
AcDbVertex
100
AcDb2dVertex
 10
59.88131118978689
 20
-24.70040352270187
 30
0.0
  0
VERTEX
  5
307
330
301
100
AcDbEntity
  8
STANDARDEBENE
 62
     7
100
AcDbVertex
100
AcDb2dVertex
 10
59.88131118978689
 20
-23.28498510884331
 30
0.0
  0
VERTEX
  5
308
330
301
100
AcDbEntity
  8
STANDARDEBENE
 62
     7
100
AcDbVertex
100
AcDb2dVertex
 10
59.88131118978689
 20
-21.65579837910322
 30
0.0
  0
VERTEX
  5
309
330
301
100
AcDbEntity
  8
STANDARDEBENE
 62
     7
100
AcDbVertex
100
AcDb2dVertex
 10
59.88131118978689
 20
-20.75697237405102
 30
0.0
  0
VERTEX
  5
30A
330
301
100
AcDbEntity
  8
STANDARDEBENE
 62
     7
100
AcDbVertex
100
AcDb2dVertex
 10
59.88131118978689
 20
-19.80767568684468
 30
0.0
  0
VERTEX
  5
30B
330
301
100
AcDbEntity
  8
STANDARDEBENE
 62
     7
100
AcDbVertex
100
AcDb2dVertex
 10
59.88131118978689
 20
-18.80825282725999
 30
0.0
  0
VERTEX
  5
30C
330
301
100
AcDbEntity
  8
STANDARDEBENE
 62
     7
100
AcDbVertex
100
AcDb2dVertex
 10
59.88131118978689
 20
-17.77558477431097
 30
0.0
  0
VERTEX
  5
30D
330
301
100
AcDbEntity
  8
STANDARDEBENE
 62
     7
100
AcDbVertex
100
AcDb2dVertex
 10
59.88131118978689
 20
-16.73275368297597
 30
0.0
  0
VERTEX
  5
30E
330
301
100
AcDbEntity
  8
STANDARDEBENE
 62
     7
100
AcDbVertex
100
AcDb2dVertex
 10
59.88131118978689
 20
-15.72506258877218
 30
0.0
  0
VERTEX
  5
30F
330
301
100
AcDbEntity
  8
STANDARDEBENE
 62
     7
100
AcDbVertex
100
AcDb2dVertex
 10
59.88131118978689
 20
-14.76250227519768
 30
0.0
  0
VERTEX
  5
310
330
301
100
AcDbEntity
  8
STANDARDEBENE
 62
     7
100
AcDbVertex
100
AcDb2dVertex
 10
59.88131118978689
 20
-13.85678607462955
 30
0.0
  0
VERTEX
  5
311
330
301
100
AcDbEntity
  8
STANDARDEBENE
 62
     7
100
AcDbVertex
100
AcDb2dVertex
 10
59.88131118978689
 20
-12.19039228910349
 30
0.0
  0
VERTEX
  5
312
330
301
100
AcDbEntity
  8
STANDARDEBENE
 62
     7
100
AcDbVertex
100
AcDb2dVertex
 10
59.88131118978689
 20
-10.74241770143219
 30
0.0
  0
VERTEX
  5
313
330
301
100
AcDbEntity
  8
STANDARDEBENE
 62
     7
100
AcDbVertex
100
AcDb2dVertex
 10
59.88131118978689
 20
-9.498737410808019
 30
0.0
  0
VERTEX
  5
314
330
301
100
AcDbEntity
  8
STANDARDEBENE
 62
     7
100
AcDbVertex
100
AcDb2dVertex
 10
59.88131118978689
 20
-8.481055533106135
 30
0.0
  0
VERTEX
  5
315
330
301
100
AcDbEntity
  8
STANDARDEBENE
 62
     7
100
AcDbVertex
100
AcDb2dVertex
 10
59.88131118978689
 20
-7.70280794958259
 30
0.0
  0
VERTEX
  5
316
330
301
100
AcDbEntity
  8
STANDARDEBENE
 62
     7
100
AcDbVertex
100
AcDb2dVertex
 10
59.88131118978689
 20
-7.188799364094706
 30
0.0
  0
SEQEND
  5
317
330
301
100
AcDbEntity
  8
STANDARDEBENE
  0
POLYLINE
  5
318
330
1F
100
AcDbEntity
  8
STANDARDEBENE
 62
     7
100
AcDb2dPolyline
 66
     1
 10
0.0
 20
0.0
 30
0.0
  0
VERTEX
  5
319
330
318
100
AcDbEntity
  8
STANDARDEBENE
 62
     7
100
AcDbVertex
100
AcDb2dVertex
 10
59.88131118978689
 20
-28.17667941537311
 30
0.0
  0
VERTEX
  5
31A
330
318
100
AcDbEntity
  8
STANDARDEBENE
 62
     7
100
AcDbVertex
100
AcDb2dVertex
 10
59.88131118978689
 20
-28.12793128209795
 30
0.0
  0
SEQEND
  5
31B
330
318
100
AcDbEntity
  8
STANDARDEBENE
  0
POLYLINE
  5
31C
330
1F
100
AcDbEntity
  8
STANDARDEBENE
 62
     7
100
AcDb2dPolyline
 66
     1
 10
0.0
 20
0.0
 30
0.0
  0
VERTEX
  5
31D
330
31C
100
AcDbEntity
  8
STANDARDEBENE
 62
     7
100
AcDbVertex
100
AcDb2dVertex
 10
59.88131118978689
 20
-28.25591666380623
 30
0.0
  0
VERTEX
  5
31E
330
31C
100
AcDbEntity
  8
STANDARDEBENE
 62
     7
100
AcDbVertex
100
AcDb2dVertex
 10
59.88131118978689
 20
-28.27107509394126
 30
0.0
  0
VERTEX
  5
31F
330
31C
100
AcDbEntity
  8
STANDARDEBENE
 62
     7
100
AcDbVertex
100
AcDb2dVertex
 10
59.88131118978689
 20
-28.17667941537311
 30
0.0
  0
SEQEND
  5
320
330
31C
100
AcDbEntity
  8
STANDARDEBENE
  0
SPLINE
  5
321
330
1F
100
AcDbEntity
  8
STANDARDEBENE
 62
     7
100
AcDbSpline
210
0.0
220
0.0
230
1.0
 70
    11
 71
     3
 72
    17
 73
    13
 74
     0
 42
0.0000000001
 43
0.0000000001
 40
0.0
 40
0.0
 40
0.0
 40
0.0
 40
1.0
 40
1.0
 40
1.0
 40
2.0
 40
2.0
 40
2.0
 40
3.0
 40
3.0
 40
3.0
 40
4.0
 40
4.0
 40
4.0
 40
4.0
 10
28.3080237673954
 20
-17.63640282488932
 30
0.0
 10
28.3080237673954
 20
-15.75813552724861
 30
0.0
 10
26.78615183281582
 20
-14.23626359266903
 30
0.0
 10
24.90788453517511
 20
-14.23626359266903
 30
0.0
 10
23.03047851197389
 20
-14.23626359266903
 30
0.0
 10
21.50860657739431
 20
-15.75813552724861
 30
0.0
 10
21.50860657739431
 20
-17.63640282488932
 30
0.0
 10
21.50860657739431
 20
-19.51415335786634
 30
0.0
 10
23.03047851197389
 20
-21.03602529244592
 30
0.0
 10
24.90788453517511
 20
-21.03602529244592
 30
0.0
 10
26.78615183281582
 20
-21.03602529244592
 30
0.0
 10
28.3080237673954
 20
-19.51415335786634
 30
0.0
 10
28.3080237673954
 20
-17.63640282488932
 30
0.0
  0
POLYLINE
  5
322
330
1F
100
AcDbEntity
  8
STANDARDEBENE
 62
     7
100
AcDb2dPolyline
 66
     1
 10
0.0
 20
0.0
 30
0.0
  0
VERTEX
  5
323
330
322
100
AcDbEntity
  8
STANDARDEBENE
 62
     7
100
AcDbVertex
100
AcDb2dVertex
 10
29.90189824511637
 20
-100.1001575632272
 30
0.0
  0
VERTEX
  5
324
330
322
100
AcDbEntity
  8
STANDARDEBENE
 62
     7
100
AcDbVertex
100
AcDb2dVertex
 10
34.9084865618742
 20
-100.1001575632272
 30
0.0
  0
SEQEND
  5
325
330
322
100
AcDbEntity
  8
STANDARDEBENE
  0
POLYLINE
  5
326
330
1F
100
AcDbEntity
  8
STANDARDEBENE
 62
     7
100
AcDb2dPolyline
 66
     1
 10
0.0
 20
0.0
 30
0.0
  0
VERTEX
  5
327
330
326
100
AcDbEntity
  8
STANDARDEBENE
 62
     7
100
AcDbVertex
100
AcDb2dVertex
 10
10.90821303103409
 20
-100.1001575632272
 30
0.0
  0
VERTEX
  5
328
330
326
100
AcDbEntity
  8
STANDARDEBENE
 62
     7
100
AcDbVertex
100
AcDb2dVertex
 10
19.90801415904531
 20
-100.1001575632272
 30
0.0
  0
SEQEND
  5
329
330
326
100
AcDbEntity
  8
STANDARDEBENE
  0
POLYLINE
  5
32A
330
1F
100
AcDbEntity
  8
STANDARDEBENE
 62
     7
100
AcDb2dPolyline
 66
     1
 10
0.0
 20
0.0
 30
0.0
  0
VERTEX
  5
32B
330
32A
100
AcDbEntity
  8
STANDARDEBENE
 62
     7
100
AcDbVertex
100
AcDb2dVertex
 10
34.9084865618742
 20
-65.100375910767
 30
0.0
  0
VERTEX
  5
32C
330
32A
100
AcDbEntity
  8
STANDARDEBENE
 62
     7
100
AcDbVertex
100
AcDb2dVertex
 10
10.90821303103409
 20
-65.100375910767
 30
0.0
  0
VERTEX
  5
32D
330
32A
100
AcDbEntity
  8
STANDARDEBENE
 62
     7
100
AcDbVertex
100
AcDb2dVertex
 10
-0.0921563650254752
 20
-70.23012647237195
 30
0.0
  0
SEQEND
  5
32E
330
32A
100
AcDbEntity
  8
STANDARDEBENE
  0
POLYLINE
  5
32F
330
1F
100
AcDbEntity
  8
STANDARDEBENE
 62
     7
100
AcDb2dPolyline
 66
     1
 10
0.0
 20
0.0
 30
0.0
  0
VERTEX
  5
330
330
32F
100
AcDbEntity
  8
STANDARDEBENE
 62
     7
100
AcDbVertex
100
AcDb2dVertex
 10
-0.0921563650254752
 20
-94.97109602117382
 30
0.0
  0
VERTEX
  5
331
330
32F
100
AcDbEntity
  8
STANDARDEBENE
 62
     7
100
AcDbVertex
100
AcDb2dVertex
 10
10.90821303103409
 20
-100.1001575632272
 30
0.0
  0
SEQEND
  5
332
330
32F
100
AcDbEntity
  8
STANDARDEBENE
  0
POLYLINE
  5
333
330
1F
100
AcDbEntity
  8
STANDARDEBENE
 62
     7
100
AcDb2dPolyline
 66
     1
 10
0.0
 20
0.0
 30
0.0
  0
VERTEX
  5
334
330
333
100
AcDbEntity
  8
STANDARDEBENE
 62
     7
100
AcDbVertex
100
AcDb2dVertex
 10
40.40117817228042
 20
-98.60050650918646
 30
0.0
  0
VERTEX
  5
335
330
333
100
AcDbEntity
  8
STANDARDEBENE
 62
     7
100
AcDbVertex
100
AcDb2dVertex
 10
41.90823618650076
 20
-98.60050650918646
 30
0.0
  0
SEQEND
  5
336
330
333
100
AcDbEntity
  8
STANDARDEBENE
  0
POLYLINE
  5
337
330
1F
100
AcDbEntity
  8
STANDARDEBENE
 62
     7
100
AcDb2dPolyline
 66
     1
 10
0.0
 20
0.0
 30
0.0
  0
VERTEX
  5
338
330
337
100
AcDbEntity
  8
STANDARDEBENE
 62
     7
100
AcDbVertex
100
AcDb2dVertex
 10
34.9084865618742
 20
-98.60050650918646
 30
0.0
  0
VERTEX
  5
339
330
337
100
AcDbEntity
  8
STANDARDEBENE
 62
     7
100
AcDbVertex
100
AcDb2dVertex
 10
35.40802573677864
 20
-98.60050650918646
 30
0.0
  0
SEQEND
  5
33A
330
337
100
AcDbEntity
  8
STANDARDEBENE
  0
POLYLINE
  5
33B
330
1F
100
AcDbEntity
  8
STANDARDEBENE
 62
     7
100
AcDb2dPolyline
 66
     1
 10
0.0
 20
0.0
 30
0.0
  0
VERTEX
  5
33C
330
33B
100
AcDbEntity
  8
STANDARDEBENE
 62
     7
100
AcDbVertex
100
AcDb2dVertex
 10
41.90823618650076
 20
-66.60037147458351
 30
0.0
  0
VERTEX
  5
33D
330
33B
100
AcDbEntity
  8
STANDARDEBENE
 62
     7
100
AcDbVertex
100
AcDb2dVertex
 10
34.9084865618742
 20
-66.60037147458351
 30
0.0
  0
SEQEND
  5
33E
330
33B
100
AcDbEntity
  8
STANDARDEBENE
  0
POLYLINE
  5
33F
330
1F
100
AcDbEntity
  8
STANDARDEBENE
 62
     7
100
AcDb2dPolyline
 66
     1
 10
0.0
 20
0.0
 30
0.0
  0
VERTEX
  5
340
330
33F
100
AcDbEntity
  8
STANDARDEBENE
 62
     7
100
AcDbVertex
100
AcDb2dVertex
 10
41.90823618650076
 20
-93.10023568371273
 30
0.0
  0
VERTEX
  5
341
330
33F
100
AcDbEntity
  8
STANDARDEBENE
 62
     7
100
AcDbVertex
100
AcDb2dVertex
 10
42.40846438095679
 20
-93.10023568371273
 30
0.0
  0
SEQEND
  5
342
330
33F
100
AcDbEntity
  8
STANDARDEBENE
  0
POLYLINE
  5
343
330
1F
100
AcDbEntity
  8
STANDARDEBENE
 62
     7
100
AcDb2dPolyline
 66
     1
 10
0.0
 20
0.0
 30
0.0
  0
VERTEX
  5
344
330
343
100
AcDbEntity
  8
STANDARDEBENE
 62
     7
100
AcDbVertex
100
AcDb2dVertex
 10
42.62051014795934
 20
-93.18843018631654
 30
0.0
  0
VERTEX
  5
345
330
343
100
AcDbEntity
  8
STANDARDEBENE
 62
     7
100
AcDbVertex
100
AcDb2dVertex
 10
43.7384443704179
 20
-94.3068811734388
 30
0.0
  0
SEQEND
  5
346
330
343
100
AcDbEntity
  8
STANDARDEBENE
  0
SPLINE
  5
347
330
1F
100
AcDbEntity
  8
STANDARDEBENE
 62
     7
100
AcDbSpline
210
0.0
220
0.0
230
1.0
 70
     8
 71
     3
 72
     8
 73
     4
 74
     0
 42
0.0000000001
 43
0.0000000001
 40
0.0
 40
0.0
 40
0.0
 40
0.0
 40
1.0
 40
1.0
 40
1.0
 40
1.0
 10
42.62051014795934
 20
-93.18843018631654
 30
0.0
 10
42.56159897629819
 20
-93.12986352443119
 30
0.0
 10
42.48511780607144
 20
-93.10023568371273
 30
0.0
 10
42.40846438095679
 20
-93.10023568371273
 30
0.0
  0
POLYLINE
  5
348
330
1F
100
AcDbEntity
  8
STANDARDEBENE
 62
     7
100
AcDb2dPolyline
 66
     1
 10
0.0
 20
0.0
 30
0.0
  0
VERTEX
  5
349
330
348
100
AcDbEntity
  8
STANDARDEBENE
 62
     7
100
AcDbVertex
100
AcDb2dVertex
 10
43.74206172306376
 20
-94.31807774115218
 30
0.0
  0
VERTEX
  5
34A
330
348
100
AcDbEntity
  8
STANDARDEBENE
 62
     7
100
AcDbVertex
100
AcDb2dVertex
 10
51.81185871131322
 20
-94.12963089379167
 30
0.0
  0
VERTEX
  5
34B
330
348
100
AcDbEntity
  8
STANDARDEBENE
 62
     7
100
AcDbVertex
100
AcDb2dVertex
 10
59.88165569956268
 20
-93.94066728176747
 30
0.0
  0
VERTEX
  5
34C
330
348
100
AcDbEntity
  8
STANDARDEBENE
 62
     7
100
AcDbVertex
100
AcDb2dVertex
 10
60.39308046173209
 20
-93.42838124515858
 30
0.0
  0
VERTEX
  5
34D
330
348
100
AcDbEntity
  8
STANDARDEBENE
 62
     7
100
AcDbVertex
100
AcDb2dVertex
 10
60.905366498341
 20
-92.91643971832546
 30
0.0
  0
SEQEND
  5
34E
330
348
100
AcDbEntity
  8
STANDARDEBENE
  0
POLYLINE
  5
34F
330
1F
100
AcDbEntity
  8
STANDARDEBENE
 62
     7
100
AcDb2dPolyline
 66
     1
 10
0.0
 20
0.0
 30
0.0
  0
VERTEX
  5
350
330
34F
100
AcDbEntity
  8
STANDARDEBENE
 62
     7
100
AcDbVertex
100
AcDb2dVertex
 10
48.31904634940376
 20
-72.43068266526998
 30
0.0
  0
VERTEX
  5
351
330
34F
100
AcDbEntity
  8
STANDARDEBENE
 62
     7
100
AcDbVertex
100
AcDb2dVertex
 10
45.11355514050831
 20
-72.35592404392222
 30
0.0
  0
VERTEX
  5
352
330
34F
100
AcDbEntity
  8
STANDARDEBENE
 62
     7
100
AcDbVertex
100
AcDb2dVertex
 10
41.90823618650076
 20
-72.28150993235023
 30
0.0
  0
SEQEND
  5
353
330
34F
100
AcDbEntity
  8
STANDARDEBENE
  0
POLYLINE
  5
354
330
1F
100
AcDbEntity
  8
STANDARDEBENE
 62
     7
100
AcDb2dPolyline
 66
     1
 10
0.0
 20
0.0
 30
0.0
  0
VERTEX
  5
355
330
354
100
AcDbEntity
  8
STANDARDEBENE
 62
     7
100
AcDbVertex
100
AcDb2dVertex
 10
59.88131118978689
 20
-72.70095058438207
 30
0.0
  0
VERTEX
  5
356
330
354
100
AcDbEntity
  8
STANDARDEBENE
 62
     7
100
AcDbVertex
100
AcDb2dVertex
 10
51.51971442143807
 20
-72.50578579639354
 30
0.0
  0
SEQEND
  5
357
330
354
100
AcDbEntity
  8
STANDARDEBENE
  0
POLYLINE
  5
358
330
1F
100
AcDbEntity
  8
STANDARDEBENE
 62
     7
100
AcDb2dPolyline
 66
     1
 10
0.0
 20
0.0
 30
0.0
  0
VERTEX
  5
359
330
358
100
AcDbEntity
  8
STANDARDEBENE
 62
     7
100
AcDbVertex
100
AcDb2dVertex
 10
60.905366498341
 20
-73.715187364326
 30
0.0
  0
VERTEX
  5
35A
330
358
100
AcDbEntity
  8
STANDARDEBENE
 62
     7
100
AcDbVertex
100
AcDb2dVertex
 10
60.39308046173209
 20
-73.20393485704447
 30
0.0
  0
VERTEX
  5
35B
330
358
100
AcDbEntity
  8
STANDARDEBENE
 62
     7
100
AcDbVertex
100
AcDb2dVertex
 10
59.88131118978689
 20
-72.69354362420245
 30
0.0
  0
SEQEND
  5
35C
330
358
100
AcDbEntity
  8
STANDARDEBENE
  0
POLYLINE
  5
35D
330
1F
100
AcDbEntity
  8
STANDARDEBENE
 62
     7
100
AcDb2dPolyline
 66
     1
 10
0.0
 20
0.0
 30
0.0
  0
VERTEX
  5
35E
330
35D
100
AcDbEntity
  8
STANDARDEBENE
 62
     7
100
AcDbVertex
100
AcDb2dVertex
 10
60.905366498341
 20
-73.74929383212981
 30
0.0
  0
VERTEX
  5
35F
330
35D
100
AcDbEntity
  8
STANDARDEBENE
 62
     7
100
AcDbVertex
100
AcDb2dVertex
 10
60.905366498341
 20
-73.68418148450434
 30
0.0
  0
VERTEX
  5
360
330
35D
100
AcDbEntity
  8
STANDARDEBENE
 62
     7
100
AcDbVertex
100
AcDb2dVertex
 10
60.905366498341
 20
-73.80372637670561
 30
0.0
  0
VERTEX
  5
361
330
35D
100
AcDbEntity
  8
STANDARDEBENE
 62
     7
100
AcDbVertex
100
AcDb2dVertex
 10
60.905366498341
 20
-73.93739616971452
 30
0.0
  0
VERTEX
  5
362
330
35D
100
AcDbEntity
  8
STANDARDEBENE
 62
     7
100
AcDbVertex
100
AcDb2dVertex
 10
60.905366498341
 20
-74.11481870424954
 30
0.0
  0
VERTEX
  5
363
330
35D
100
AcDbEntity
  8
STANDARDEBENE
 62
     7
100
AcDbVertex
100
AcDb2dVertex
 10
60.905366498341
 20
-74.33788878407756
 30
0.0
  0
VERTEX
  5
364
330
35D
100
AcDbEntity
  8
STANDARDEBENE
 62
     7
100
AcDbVertex
100
AcDb2dVertex
 10
60.905366498341
 20
-74.60557287987119
 30
0.0
  0
VERTEX
  5
365
330
35D
100
AcDbEntity
  8
STANDARDEBENE
 62
     7
100
AcDbVertex
100
AcDb2dVertex
 10
60.905366498341
 20
-74.95697285118328
 30
0.0
  0
VERTEX
  5
366
330
35D
100
AcDbEntity
  8
STANDARDEBENE
 62
     7
100
AcDbVertex
100
AcDb2dVertex
 10
60.905366498341
 20
-75.35350360312468
 30
0.0
  0
VERTEX
  5
367
330
35D
100
AcDbEntity
  8
STANDARDEBENE
 62
     7
100
AcDbVertex
100
AcDb2dVertex
 10
60.905366498341
 20
-75.79550964547116
 30
0.0
  0
VERTEX
  5
368
330
35D
100
AcDbEntity
  8
STANDARDEBENE
 62
     7
100
AcDbVertex
100
AcDb2dVertex
 10
60.905366498341
 20
-76.28299097822274
 30
0.0
  0
VERTEX
  5
369
330
35D
100
AcDbEntity
  8
STANDARDEBENE
 62
     7
100
AcDbVertex
100
AcDb2dVertex
 10
60.905366498341
 20
-76.90035249644947
 30
0.0
  0
VERTEX
  5
36A
330
35D
100
AcDbEntity
  8
STANDARDEBENE
 62
     7
100
AcDbVertex
100
AcDb2dVertex
 10
60.905366498341
 20
-77.58403214651698
 30
0.0
  0
VERTEX
  5
36B
330
35D
100
AcDbEntity
  8
STANDARDEBENE
 62
     7
100
AcDbVertex
100
AcDb2dVertex
 10
60.905366498341
 20
-78.30302404860358
 30
0.0
  0
VERTEX
  5
36C
330
35D
100
AcDbEntity
  8
STANDARDEBENE
 62
     7
100
AcDbVertex
100
AcDb2dVertex
 10
60.905366498341
 20
-79.11227751194878
 30
0.0
  0
VERTEX
  5
36D
330
35D
100
AcDbEntity
  8
STANDARDEBENE
 62
     7
100
AcDbVertex
100
AcDb2dVertex
 10
60.905366498341
 20
-80.21367526516913
 30
0.0
  0
VERTEX
  5
36E
330
35D
100
AcDbEntity
  8
STANDARDEBENE
 62
     7
100
AcDbVertex
100
AcDb2dVertex
 10
60.905366498341
 20
-81.29181860852324
 30
0.0
  0
VERTEX
  5
36F
330
35D
100
AcDbEntity
  8
STANDARDEBENE
 62
     7
100
AcDbVertex
100
AcDb2dVertex
 10
60.905366498341
 20
-82.42990665286588
 30
0.0
  0
VERTEX
  5
370
330
35D
100
AcDbEntity
  8
STANDARDEBENE
 62
     7
100
AcDbVertex
100
AcDb2dVertex
 10
60.905366498341
 20
-84.23186503516774
 30
0.0
  0
VERTEX
  5
371
330
35D
100
AcDbEntity
  8
STANDARDEBENE
 62
     7
100
AcDbVertex
100
AcDb2dVertex
 10
60.905366498341
 20
-86.00488459630273
 30
0.0
  0
VERTEX
  5
372
330
35D
100
AcDbEntity
  8
STANDARDEBENE
 62
     7
100
AcDbVertex
100
AcDb2dVertex
 10
60.905366498341
 20
-87.1217852894339
 30
0.0
  0
VERTEX
  5
373
330
35D
100
AcDbEntity
  8
STANDARDEBENE
 62
     7
100
AcDbVertex
100
AcDb2dVertex
 10
60.905366498341
 20
-88.17943030112814
 30
0.0
  0
VERTEX
  5
374
330
35D
100
AcDbEntity
  8
STANDARDEBENE
 62
     7
100
AcDbVertex
100
AcDb2dVertex
 10
60.905366498341
 20
-89.17678610205805
 30
0.0
  0
VERTEX
  5
375
330
35D
100
AcDbEntity
  8
STANDARDEBENE
 62
     7
100
AcDbVertex
100
AcDb2dVertex
 10
60.905366498341
 20
-89.77433830817651
 30
0.0
  0
VERTEX
  5
376
330
35D
100
AcDbEntity
  8
STANDARDEBENE
 62
     7
100
AcDbVertex
100
AcDb2dVertex
 10
60.905366498341
 20
-90.32538169456248
 30
0.0
  0
VERTEX
  5
377
330
35D
100
AcDbEntity
  8
STANDARDEBENE
 62
     7
100
AcDbVertex
100
AcDb2dVertex
 10
60.905366498341
 20
-90.83026077099176
 30
0.0
  0
VERTEX
  5
378
330
35D
100
AcDbEntity
  8
STANDARDEBENE
 62
     7
100
AcDbVertex
100
AcDb2dVertex
 10
60.905366498341
 20
-91.28811426302487
 30
0.0
  0
VERTEX
  5
379
330
35D
100
AcDbEntity
  8
STANDARDEBENE
 62
     7
100
AcDbVertex
100
AcDb2dVertex
 10
60.905366498341
 20
-91.7001479548771
 30
0.0
  0
VERTEX
  5
37A
330
35D
100
AcDbEntity
  8
STANDARDEBENE
 62
     7
100
AcDbVertex
100
AcDb2dVertex
 10
60.905366498341
 20
-92.2472294788414
 30
0.0
  0
VERTEX
  5
37B
330
35D
100
AcDbEntity
  8
STANDARDEBENE
 62
     7
100
AcDbVertex
100
AcDb2dVertex
 10
60.905366498341
 20
-92.63221915329362
 30
0.0
  0
VERTEX
  5
37C
330
35D
100
AcDbEntity
  8
STANDARDEBENE
 62
     7
100
AcDbVertex
100
AcDb2dVertex
 10
60.905366498341
 20
-92.90593217016368
 30
0.0
  0
SEQEND
  5
37D
330
35D
100
AcDbEntity
  8
STANDARDEBENE
  0
POLYLINE
  5
37E
330
1F
100
AcDbEntity
  8
STANDARDEBENE
 62
     7
100
AcDb2dPolyline
 66
     1
 10
0.0
 20
0.0
 30
0.0
  0
VERTEX
  5
37F
330
37E
100
AcDbEntity
  8
STANDARDEBENE
 62
     7
100
AcDbVertex
100
AcDb2dVertex
 10
51.55847177121514
 20
-72.50371873773877
 30
0.0
  0
VERTEX
  5
380
330
37E
100
AcDbEntity
  8
STANDARDEBENE
 62
     7
100
AcDbVertex
100
AcDb2dVertex
 10
51.51971442143807
 20
-72.50681932572093
 30
0.0
  0
SEQEND
  5
381
330
37E
100
AcDbEntity
  8
STANDARDEBENE
  0
POLYLINE
  5
382
330
1F
100
AcDbEntity
  8
STANDARDEBENE
 62
     7
100
AcDb2dPolyline
 66
     1
 10
0.0
 20
0.0
 30
0.0
  0
VERTEX
  5
383
330
382
100
AcDbEntity
  8
STANDARDEBENE
 62
     7
100
AcDbVertex
100
AcDb2dVertex
 10
47.93302314562415
 20
-72.3838293357617
 30
0.0
  0
VERTEX
  5
384
330
382
100
AcDbEntity
  8
STANDARDEBENE
 62
     7
100
AcDbVertex
100
AcDb2dVertex
 10
47.95834461414518
 20
-72.38727443351966
 30
0.0
  0
VERTEX
  5
385
330
382
100
AcDbEntity
  8
STANDARDEBENE
 62
     7
100
AcDbVertex
100
AcDb2dVertex
 10
48.21138704446746
 20
-72.42120864643559
 30
0.0
  0
VERTEX
  5
386
330
382
100
AcDbEntity
  8
STANDARDEBENE
 62
     7
100
AcDbVertex
100
AcDb2dVertex
 10
48.65408210636554
 20
-72.47133481881393
 30
0.0
  0
VERTEX
  5
387
330
382
100
AcDbEntity
  8
STANDARDEBENE
 62
     7
100
AcDbVertex
100
AcDb2dVertex
 10
49.2421602936496
 20
-72.51956618742538
 30
0.0
  0
VERTEX
  5
388
330
382
100
AcDbEntity
  8
STANDARDEBENE
 62
     7
100
AcDbVertex
100
AcDb2dVertex
 10
49.90568612183302
 20
-72.54919402814386
 30
0.0
  0
VERTEX
  5
389
330
382
100
AcDbEntity
  8
STANDARDEBENE
 62
     7
100
AcDbVertex
100
AcDb2dVertex
 10
50.56542234248268
 20
-72.55160559657443
 30
0.0
  0
VERTEX
  5
38A
330
382
100
AcDbEntity
  8
STANDARDEBENE
 62
     7
100
AcDbVertex
100
AcDb2dVertex
 10
51.15005543200878
 20
-72.53127951980245
 30
0.0
  0
VERTEX
  5
38B
330
382
100
AcDbEntity
  8
STANDARDEBENE
 62
     7
100
AcDbVertex
100
AcDb2dVertex
 10
51.5980903954317
 20
-72.50096265953239
 30
0.0
  0
VERTEX
  5
38C
330
382
100
AcDbEntity
  8
STANDARDEBENE
 62
     7
100
AcDbVertex
100
AcDb2dVertex
 10
51.85733400171831
 20
-72.47874177899354
 30
0.0
  0
VERTEX
  5
38D
330
382
100
AcDbEntity
  8
STANDARDEBENE
 62
     7
100
AcDbVertex
100
AcDb2dVertex
 10
51.90849370342405
 20
-72.4737463872445
 30
0.0
  0
SEQEND
  5
38E
330
382
100
AcDbEntity
  8
STANDARDEBENE
  0
POLYLINE
  5
38F
330
1F
100
AcDbEntity
  8
STANDARDEBENE
 62
     7
100
AcDb2dPolyline
 66
     1
 10
0.0
 20
0.0
 30
0.0
  0
VERTEX
  5
390
330
38F
100
AcDbEntity
  8
STANDARDEBENE
 62
     7
100
AcDbVertex
100
AcDb2dVertex
 10
41.90823618650076
 20
-98.60050650918646
 30
0.0
  0
VERTEX
  5
391
330
38F
100
AcDbEntity
  8
STANDARDEBENE
 62
     7
100
AcDbVertex
100
AcDb2dVertex
 10
41.90823618650076
 20
-98.49215818469855
 30
0.0
  0
VERTEX
  5
392
330
38F
100
AcDbEntity
  8
STANDARDEBENE
 62
     7
100
AcDbVertex
100
AcDb2dVertex
 10
41.90823618650076
 20
-98.16900801500175
 30
0.0
  0
VERTEX
  5
393
330
38F
100
AcDbEntity
  8
STANDARDEBENE
 62
     7
100
AcDbVertex
100
AcDb2dVertex
 10
41.90823618650076
 20
-97.63570688206929
 30
0.0
  0
VERTEX
  5
394
330
38F
100
AcDbEntity
  8
STANDARDEBENE
 62
     7
100
AcDbVertex
100
AcDb2dVertex
 10
41.90823618650076
 20
-96.89862821675338
 30
0.0
  0
VERTEX
  5
395
330
38F
100
AcDbEntity
  8
STANDARDEBENE
 62
     7
100
AcDbVertex
100
AcDb2dVertex
 10
41.90823618650076
 20
-95.96845182210373
 30
0.0
  0
VERTEX
  5
396
330
38F
100
AcDbEntity
  8
STANDARDEBENE
 62
     7
100
AcDbVertex
100
AcDb2dVertex
 10
41.90823618650076
 20
-94.85758005004898
 30
0.0
  0
VERTEX
  5
397
330
38F
100
AcDbEntity
  8
STANDARDEBENE
 62
     7
100
AcDbVertex
100
AcDb2dVertex
 10
41.90823618650076
 20
-93.58048231117257
 30
0.0
  0
VERTEX
  5
398
330
38F
100
AcDbEntity
  8
STANDARDEBENE
 62
     7
100
AcDbVertex
100
AcDb2dVertex
 10
41.90823618650076
 20
-92.15490085892803
 30
0.0
  0
VERTEX
  5
399
330
38F
100
AcDbEntity
  8
STANDARDEBENE
 62
     7
100
AcDbVertex
100
AcDb2dVertex
 10
41.90823618650076
 20
-90.60012824075993
 30
0.0
  0
VERTEX
  5
39A
330
38F
100
AcDbEntity
  8
STANDARDEBENE
 62
     7
100
AcDbVertex
100
AcDb2dVertex
 10
41.90823618650076
 20
-88.93752406276761
 30
0.0
  0
VERTEX
  5
39B
330
38F
100
AcDbEntity
  8
STANDARDEBENE
 62
     7
100
AcDbVertex
100
AcDb2dVertex
 10
41.90823618650076
 20
-87.18948146037785
 30
0.0
  0
VERTEX
  5
39C
330
38F
100
AcDbEntity
  8
STANDARDEBENE
 62
     7
100
AcDbVertex
100
AcDb2dVertex
 10
41.90823618650076
 20
-85.37908258856898
 30
0.0
  0
VERTEX
  5
39D
330
38F
100
AcDbEntity
  8
STANDARDEBENE
 62
     7
100
AcDbVertex
100
AcDb2dVertex
 10
41.90823618650076
 20
-83.53044313164675
 30
0.0
  0
VERTEX
  5
39E
330
38F
100
AcDbEntity
  8
STANDARDEBENE
 62
     7
100
AcDbVertex
100
AcDb2dVertex
 10
41.90823618650076
 20
-81.66991808745954
 30
0.0
  0
VERTEX
  5
39F
330
38F
100
AcDbEntity
  8
STANDARDEBENE
 62
     7
100
AcDbVertex
100
AcDb2dVertex
 10
41.90823618650076
 20
-79.82213990497678
 30
0.0
  0
VERTEX
  5
3A0
330
38F
100
AcDbEntity
  8
STANDARDEBENE
 62
     7
100
AcDbVertex
100
AcDb2dVertex
 10
41.90823618650076
 20
-78.01122426850422
 30
0.0
  0
VERTEX
  5
3A1
330
38F
100
AcDbEntity
  8
STANDARDEBENE
 62
     7
100
AcDbVertex
100
AcDb2dVertex
 10
41.90823618650076
 20
-76.26283715633866
 30
0.0
  0
VERTEX
  5
3A2
330
38F
100
AcDbEntity
  8
STANDARDEBENE
 62
     7
100
AcDbVertex
100
AcDb2dVertex
 10
41.90823618650076
 20
-74.60057748812214
 30
0.0
  0
VERTEX
  5
3A3
330
38F
100
AcDbEntity
  8
STANDARDEBENE
 62
     7
100
AcDbVertex
100
AcDb2dVertex
 10
41.90823618650076
 20
-73.04563261506614
 30
0.0
  0
VERTEX
  5
3A4
330
38F
100
AcDbEntity
  8
STANDARDEBENE
 62
     7
100
AcDbVertex
100
AcDb2dVertex
 10
41.90823618650076
 20
-71.62074018237318
 30
0.0
  0
VERTEX
  5
3A5
330
38F
100
AcDbEntity
  8
STANDARDEBENE
 62
     7
100
AcDbVertex
100
AcDb2dVertex
 10
41.90823618650076
 20
-70.34364244349679
 30
0.0
  0
VERTEX
  5
3A6
330
38F
100
AcDbEntity
  8
STANDARDEBENE
 62
     7
100
AcDbVertex
100
AcDb2dVertex
 10
41.90823618650076
 20
-69.23277067144204
 30
0.0
  0
VERTEX
  5
3A7
330
38F
100
AcDbEntity
  8
STANDARDEBENE
 62
     7
100
AcDbVertex
100
AcDb2dVertex
 10
41.90823618650076
 20
-68.30242202190449
 30
0.0
  0
VERTEX
  5
3A8
330
38F
100
AcDbEntity
  8
STANDARDEBENE
 62
     7
100
AcDbVertex
100
AcDb2dVertex
 10
41.90823618650076
 20
-67.56551561147648
 30
0.0
  0
VERTEX
  5
3A9
330
38F
100
AcDbEntity
  8
STANDARDEBENE
 62
     7
100
AcDbVertex
100
AcDb2dVertex
 10
41.90823618650076
 20
-67.03135320410452
 30
0.0
  0
VERTEX
  5
3AA
330
38F
100
AcDbEntity
  8
STANDARDEBENE
 62
     7
100
AcDbVertex
100
AcDb2dVertex
 10
41.90823618650076
 20
-66.70820303440772
 30
0.0
  0
VERTEX
  5
3AB
330
38F
100
AcDbEntity
  8
STANDARDEBENE
 62
     7
100
AcDbVertex
100
AcDb2dVertex
 10
41.90823618650076
 20
-66.60037147458351
 30
0.0
  0
SEQEND
  5
3AC
330
38F
100
AcDbEntity
  8
STANDARDEBENE
  0
POLYLINE
  5
3AD
330
1F
100
AcDbEntity
  8
STANDARDEBENE
 62
     7
100
AcDb2dPolyline
 66
     1
 10
0.0
 20
0.0
 30
0.0
  0
VERTEX
  5
3AE
330
3AD
100
AcDbEntity
  8
STANDARDEBENE
 62
     7
100
AcDbVertex
100
AcDb2dVertex
 10
-0.0921563650254752
 20
-94.97109602117382
 30
0.0
  0
VERTEX
  5
3AF
330
3AD
100
AcDbEntity
  8
STANDARDEBENE
 62
     7
100
AcDbVertex
100
AcDb2dVertex
 10
-0.0921563650254752
 20
-94.8648147553407
 30
0.0
  0
VERTEX
  5
3B0
330
3AD
100
AcDbEntity
  8
STANDARDEBENE
 62
     7
100
AcDbVertex
100
AcDb2dVertex
 10
-0.0921563650254752
 20
-94.54958831048721
 30
0.0
  0
VERTEX
  5
3B1
330
3AD
100
AcDbEntity
  8
STANDARDEBENE
 62
     7
100
AcDbVertex
100
AcDb2dVertex
 10
-0.0921563650254752
 20
-94.02955080392289
 30
0.0
  0
VERTEX
  5
3B2
330
3AD
100
AcDbEntity
  8
STANDARDEBENE
 62
     7
100
AcDbVertex
100
AcDb2dVertex
 10
-0.0921563650254752
 20
-93.31331498004265
 30
0.0
  0
VERTEX
  5
3B3
330
3AD
100
AcDbEntity
  8
STANDARDEBENE
 62
     7
100
AcDbVertex
100
AcDb2dVertex
 10
-0.0921563650254752
 20
-92.41483348476625
 30
0.0
  0
VERTEX
  5
3B4
330
3AD
100
AcDbEntity
  8
STANDARDEBENE
 62
     7
100
AcDbVertex
100
AcDb2dVertex
 10
-0.0921563650254752
 20
-91.3480589640134
 30
0.0
  0
VERTEX
  5
3B5
330
3AD
100
AcDbEntity
  8
STANDARDEBENE
 62
     7
100
AcDbVertex
100
AcDb2dVertex
 10
-0.0921563650254752
 20
-90.13125043590134
 30
0.0
  0
VERTEX
  5
3B6
330
3AD
100
AcDbEntity
  8
STANDARDEBENE
 62
     7
100
AcDbVertex
100
AcDb2dVertex
 10
-0.0921563650254752
 20
-88.78542299675361
 30
0.0
  0
VERTEX
  5
3B7
330
3AD
100
AcDbEntity
  8
STANDARDEBENE
 62
     7
100
AcDbVertex
100
AcDb2dVertex
 10
-0.0921563650254752
 20
-87.33452007598804
 30
0.0
  0
VERTEX
  5
3B8
330
3AD
100
AcDbEntity
  8
STANDARDEBENE
 62
     7
100
AcDbVertex
100
AcDb2dVertex
 10
-0.0921563650254752
 20
-85.80196833835878
 30
0.0
  0
VERTEX
  5
3B9
330
3AD
100
AcDbEntity
  8
STANDARDEBENE
 62
     7
100
AcDbVertex
100
AcDb2dVertex
 10
-0.0921563650254752
 20
-84.21481180126582
 30
0.0
  0
VERTEX
  5
3BA
330
3AD
100
AcDbEntity
  8
STANDARDEBENE
 62
     7
100
AcDbVertex
100
AcDb2dVertex
 10
-0.0921563650254752
 20
-82.60026673699709
 30
0.0
  0
VERTEX
  5
3BB
330
3AD
100
AcDbEntity
  8
STANDARDEBENE
 62
     7
100
AcDbVertex
100
AcDb2dVertex
 10
-0.0921563650254752
 20
-80.98554941784045
 30
0.0
  0
VERTEX
  5
3BC
330
3AD
100
AcDbEntity
  8
STANDARDEBENE
 62
     7
100
AcDbVertex
100
AcDb2dVertex
 10
-0.0921563650254752
 20
-79.3987373905233
 30
0.0
  0
VERTEX
  5
3BD
330
3AD
100
AcDbEntity
  8
STANDARDEBENE
 62
     7
100
AcDbVertex
100
AcDb2dVertex
 10
-0.0921563650254752
 20
-77.86635790778193
 30
0.0
  0
VERTEX
  5
3BE
330
3AD
100
AcDbEntity
  8
STANDARDEBENE
 62
     7
100
AcDbVertex
100
AcDb2dVertex
 10
-0.0921563650254752
 20
-76.41528273212846
 30
0.0
  0
VERTEX
  5
3BF
330
3AD
100
AcDbEntity
  8
STANDARDEBENE
 62
     7
100
AcDbVertex
100
AcDb2dVertex
 10
-0.0921563650254752
 20
-75.06945529298073
 30
0.0
  0
VERTEX
  5
3C0
330
3AD
100
AcDbEntity
  8
STANDARDEBENE
 62
     7
100
AcDbVertex
100
AcDb2dVertex
 10
-0.0921563650254752
 20
-73.85281901975657
 30
0.0
  0
VERTEX
  5
3C1
330
3AD
100
AcDbEntity
  8
STANDARDEBENE
 62
     7
100
AcDbVertex
100
AcDb2dVertex
 10
-0.0921563650254752
 20
-72.78587224411582
 30
0.0
  0
VERTEX
  5
3C2
330
3AD
100
AcDbEntity
  8
STANDARDEBENE
 62
     7
100
AcDbVertex
100
AcDb2dVertex
 10
-0.0921563650254752
 20
-71.88704623906362
 30
0.0
  0
VERTEX
  5
3C3
330
3AD
100
AcDbEntity
  8
STANDARDEBENE
 62
     7
100
AcDbVertex
100
AcDb2dVertex
 10
-0.0921563650254752
 20
-71.17132717984708
 30
0.0
  0
VERTEX
  5
3C4
330
3AD
100
AcDbEntity
  8
STANDARDEBENE
 62
     7
100
AcDbVertex
100
AcDb2dVertex
 10
-0.0921563650254752
 20
-70.65128967328276
 30
0.0
  0
VERTEX
  5
3C5
330
3AD
100
AcDbEntity
  8
STANDARDEBENE
 62
     7
100
AcDbVertex
100
AcDb2dVertex
 10
-0.0921563650254752
 20
-70.33589097354137
 30
0.0
  0
VERTEX
  5
3C6
330
3AD
100
AcDbEntity
  8
STANDARDEBENE
 62
     7
100
AcDbVertex
100
AcDb2dVertex
 10
-0.0921563650254752
 20
-70.23012647237195
 30
0.0
  0
SEQEND
  5
3C7
330
3AD
100
AcDbEntity
  8
STANDARDEBENE
  0
POLYLINE
  5
3C8
330
1F
100
AcDbEntity
  8
STANDARDEBENE
 62
     7
100
AcDb2dPolyline
 66
     1
 10
0.0
 20
0.0
 30
0.0
  0
VERTEX
  5
3C9
330
3C8
100
AcDbEntity
  8
STANDARDEBENE
 62
     7
100
AcDbVertex
100
AcDb2dVertex
 10
10.90821303103409
 20
-100.1001575632272
 30
0.0
  0
VERTEX
  5
3CA
330
3C8
100
AcDbEntity
  8
STANDARDEBENE
 62
     7
100
AcDbVertex
100
AcDb2dVertex
 10
10.90821303103409
 20
-99.99818266959151
 30
0.0
  0
VERTEX
  5
3CB
330
3C8
100
AcDbEntity
  8
STANDARDEBENE
 62
     7
100
AcDbVertex
100
AcDb2dVertex
 10
10.90821303103409
 20
-99.69122445935713
 30
0.0
  0
VERTEX
  5
3CC
330
3C8
100
AcDbEntity
  8
STANDARDEBENE
 62
     7
100
AcDbVertex
100
AcDb2dVertex
 10
10.90821303103409
 20
-99.18462283404885
 30
0.0
  0
VERTEX
  5
3CD
330
3C8
100
AcDbEntity
  8
STANDARDEBENE
 62
     7
100
AcDbVertex
100
AcDb2dVertex
 10
10.90821303103409
 20
-98.48337318541576
 30
0.0
  0
VERTEX
  5
3CE
330
3C8
100
AcDbEntity
  8
STANDARDEBENE
 62
     7
100
AcDbVertex
100
AcDb2dVertex
 10
10.90821303103409
 20
-97.59574374807693
 30
0.0
  0
VERTEX
  5
3CF
330
3C8
100
AcDbEntity
  8
STANDARDEBENE
 62
     7
100
AcDbVertex
100
AcDb2dVertex
 10
10.90821303103409
 20
-96.53206981530626
 30
0.0
  0
VERTEX
  5
3D0
330
3C8
100
AcDbEntity
  8
STANDARDEBENE
 62
     7
100
AcDbVertex
100
AcDb2dVertex
 10
10.90821303103409
 20
-95.3050982488082
 30
0.0
  0
VERTEX
  5
3D1
330
3C8
100
AcDbEntity
  8
STANDARDEBENE
 62
     7
100
AcDbVertex
100
AcDb2dVertex
 10
10.90821303103409
 20
-93.92964296894199
 30
0.0
  0
VERTEX
  5
3D2
330
3C8
100
AcDbEntity
  8
STANDARDEBENE
 62
     7
100
AcDbVertex
100
AcDb2dVertex
 10
10.90821303103409
 20
-92.42086240584267
 30
0.0
  0
VERTEX
  5
3D3
330
3C8
100
AcDbEntity
  8
STANDARDEBENE
 62
     7
100
AcDbVertex
100
AcDb2dVertex
 10
10.90821303103409
 20
-90.79770459717902
 30
0.0
  0
VERTEX
  5
3D4
330
3C8
100
AcDbEntity
  8
STANDARDEBENE
 62
     7
100
AcDbVertex
100
AcDb2dVertex
 10
10.90821303103409
 20
-89.07791179640455
 30
0.0
  0
VERTEX
  5
3D5
330
3C8
100
AcDbEntity
  8
STANDARDEBENE
 62
     7
100
AcDbVertex
100
AcDb2dVertex
 10
10.90821303103409
 20
-87.28198233517912
 30
0.0
  0
VERTEX
  5
3D6
330
3C8
100
AcDbEntity
  8
STANDARDEBENE
 62
     7
100
AcDbVertex
100
AcDb2dVertex
 10
10.90821303103409
 20
-85.43162032937789
 30
0.0
  0
VERTEX
  5
3D7
330
3C8
100
AcDbEntity
  8
STANDARDEBENE
 62
     7
100
AcDbVertex
100
AcDb2dVertex
 10
10.90821303103409
 20
-83.54818538510024
 30
0.0
  0
VERTEX
  5
3D8
330
3C8
100
AcDbEntity
  8
STANDARDEBENE
 62
     7
100
AcDbVertex
100
AcDb2dVertex
 10
10.90821303103409
 20
-81.65269259866972
 30
0.0
  0
VERTEX
  5
3D9
330
3C8
100
AcDbEntity
  8
STANDARDEBENE
 62
     7
100
AcDbVertex
100
AcDb2dVertex
 10
10.90821303103409
 20
-79.76960216416786
 30
0.0
  0
VERTEX
  5
3DA
330
3C8
100
AcDbEntity
  8
STANDARDEBENE
 62
     7
100
AcDbVertex
100
AcDb2dVertex
 10
10.90821303103409
 20
-77.91889564859085
 30
0.0
  0
VERTEX
  5
3DB
330
3C8
100
AcDbEntity
  8
STANDARDEBENE
 62
     7
100
AcDbVertex
100
AcDb2dVertex
 10
10.90821303103409
 20
-76.12279393247752
 30
0.0
  0
VERTEX
  5
3DC
330
3C8
100
AcDbEntity
  8
STANDARDEBENE
 62
     7
100
AcDbVertex
100
AcDb2dVertex
 10
10.90821303103409
 20
-74.40300113170305
 30
0.0
  0
VERTEX
  5
3DD
330
3C8
100
AcDbEntity
  8
STANDARDEBENE
 62
     7
100
AcDbVertex
100
AcDb2dVertex
 10
10.90821303103409
 20
-72.78001557792729
 30
0.0
  0
VERTEX
  5
3DE
330
3C8
100
AcDbEntity
  8
STANDARDEBENE
 62
     7
100
AcDbVertex
100
AcDb2dVertex
 10
10.90821303103409
 20
-71.27140726971587
 30
0.0
  0
VERTEX
  5
3DF
330
3C8
100
AcDbEntity
  8
STANDARDEBENE
 62
     7
100
AcDbVertex
100
AcDb2dVertex
 10
10.90821303103409
 20
-69.89560748007386
 30
0.0
  0
VERTEX
  5
3E0
330
3C8
100
AcDbEntity
  8
STANDARDEBENE
 62
     7
100
AcDbVertex
100
AcDb2dVertex
 10
10.90821303103409
 20
-68.66863591357581
 30
0.0
  0
VERTEX
  5
3E1
330
3C8
100
AcDbEntity
  8
STANDARDEBENE
 62
     7
100
AcDbVertex
100
AcDb2dVertex
 10
10.90821303103409
 20
-67.60547874546884
 30
0.0
  0
VERTEX
  5
3E2
330
3C8
100
AcDbEntity
  8
STANDARDEBENE
 62
     7
100
AcDbVertex
100
AcDb2dVertex
 10
10.90821303103409
 20
-66.7181938179058
 30
0.0
  0
VERTEX
  5
3E3
330
3C8
100
AcDbEntity
  8
STANDARDEBENE
 62
     7
100
AcDbVertex
100
AcDb2dVertex
 10
10.90821303103409
 20
-66.0167719143848
 30
0.0
  0
VERTEX
  5
3E4
330
3C8
100
AcDbEntity
  8
STANDARDEBENE
 62
     7
100
AcDbVertex
100
AcDb2dVertex
 10
10.90821303103409
 20
-65.50982577930074
 30
0.0
  0
VERTEX
  5
3E5
330
3C8
100
AcDbEntity
  8
STANDARDEBENE
 62
     7
100
AcDbVertex
100
AcDb2dVertex
 10
10.90821303103409
 20
-65.20303982395426
 30
0.0
  0
VERTEX
  5
3E6
330
3C8
100
AcDbEntity
  8
STANDARDEBENE
 62
     7
100
AcDbVertex
100
AcDb2dVertex
 10
10.90821303103409
 20
-65.100375910767
 30
0.0
  0
SEQEND
  5
3E7
330
3C8
100
AcDbEntity
  8
STANDARDEBENE
  0
POLYLINE
  5
3E8
330
1F
100
AcDbEntity
  8
STANDARDEBENE
 62
     7
100
AcDb2dPolyline
 66
     1
 10
0.0
 20
0.0
 30
0.0
  0
VERTEX
  5
3E9
330
3E8
100
AcDbEntity
  8
STANDARDEBENE
 62
     7
100
AcDbVertex
100
AcDb2dVertex
 10
19.90801415904531
 20
-100.1001575632272
 30
0.0
  0
VERTEX
  5
3EA
330
3E8
100
AcDbEntity
  8
STANDARDEBENE
 62
     7
100
AcDbVertex
100
AcDb2dVertex
 10
19.97674385931665
 20
-100.0810372706705
 30
0.0
  0
VERTEX
  5
3EB
330
3E8
100
AcDbEntity
  8
STANDARDEBENE
 62
     7
100
AcDbVertex
100
AcDb2dVertex
 10
20.17707629394212
 20
-100.0253989418794
 30
0.0
  0
VERTEX
  5
3EC
330
3E8
100
AcDbEntity
  8
STANDARDEBENE
 62
     7
100
AcDbVertex
100
AcDb2dVertex
 10
20.50487734561217
 20
-99.93961600770616
 30
0.0
  0
VERTEX
  5
3ED
330
3E8
100
AcDbEntity
  8
STANDARDEBENE
 62
     7
100
AcDbVertex
100
AcDb2dVertex
 10
20.94860593683764
 20
-99.83195670276986
 30
0.0
  0
VERTEX
  5
3EE
330
3E8
100
AcDbEntity
  8
STANDARDEBENE
 62
     7
100
AcDbVertex
100
AcDb2dVertex
 10
21.51136265560068
 20
-99.7113782812412
 30
0.0
  0
VERTEX
  5
3EF
330
3E8
100
AcDbEntity
  8
STANDARDEBENE
 62
     7
100
AcDbVertex
100
AcDb2dVertex
 10
22.16817054315608
 20
-99.59355593791891
 30
0.0
  0
VERTEX
  5
3F0
330
3E8
100
AcDbEntity
  8
STANDARDEBENE
 62
     7
100
AcDbVertex
100
AcDb2dVertex
 10
22.91937410927962
 20
-99.48848045630108
 30
0.0
  0
VERTEX
  5
3F1
330
3E8
100
AcDbEntity
  8
STANDARDEBENE
 62
     7
100
AcDbVertex
100
AcDb2dVertex
 10
23.7303501215038
 20
-99.41217154096223
 30
0.0
  0
VERTEX
  5
3F2
330
3E8
100
AcDbEntity
  8
STANDARDEBENE
 62
     7
100
AcDbVertex
100
AcDb2dVertex
 10
24.55682907363881
 20
-99.37479223028835
 30
0.0
  0
VERTEX
  5
3F3
330
3E8
100
AcDbEntity
  8
STANDARDEBENE
 62
     7
100
AcDbVertex
100
AcDb2dVertex
 10
25.39398782882351
 20
-99.37806507315841
 30
0.0
  0
VERTEX
  5
3F4
330
3E8
100
AcDbEntity
  8
STANDARDEBENE
 62
     7
100
AcDbVertex
100
AcDb2dVertex
 10
26.18946090113686
 20
-99.41992301091764
 30
0.0
  0
VERTEX
  5
3F5
330
3E8
100
AcDbEntity
  8
STANDARDEBENE
 62
     7
100
AcDbVertex
100
AcDb2dVertex
 10
26.95082750564639
 20
-99.49502614204121
 30
0.0
  0
VERTEX
  5
3F6
330
3E8
100
AcDbEntity
  8
STANDARDEBENE
 62
     7
100
AcDbVertex
100
AcDb2dVertex
 10
27.66379048665656
 20
-99.59596750634948
 30
0.0
  0
VERTEX
  5
3F7
330
3E8
100
AcDbEntity
  8
STANDARDEBENE
 62
     7
100
AcDbVertex
100
AcDb2dVertex
 10
28.30302837564635
 20
-99.7113782812412
 30
0.0
  0
VERTEX
  5
3F8
330
3E8
100
AcDbEntity
  8
STANDARDEBENE
 62
     7
100
AcDbVertex
100
AcDb2dVertex
 10
28.87095274104634
 20
-99.83264572232144
 30
0.0
  0
VERTEX
  5
3F9
330
3E8
100
AcDbEntity
  8
STANDARDEBENE
 62
     7
100
AcDbVertex
100
AcDb2dVertex
 10
29.32794495863996
 20
-99.94392237990361
 30
0.0
  0
VERTEX
  5
3FA
330
3E8
100
AcDbEntity
  8
STANDARDEBENE
 62
     7
100
AcDbVertex
100
AcDb2dVertex
 10
29.65988012761957
 20
-100.0314278629558
 30
0.0
  0
VERTEX
  5
3FB
330
3E8
100
AcDbEntity
  8
STANDARDEBENE
 62
     7
100
AcDbVertex
100
AcDb2dVertex
 10
29.90034795112529
 20
-100.0984350143482
 30
0.0
  0
SEQEND
  5
3FC
330
3E8
100
AcDbEntity
  8
STANDARDEBENE
  0
POLYLINE
  5
3FD
330
1F
100
AcDbEntity
  8
STANDARDEBENE
 62
     7
100
AcDb2dPolyline
 66
     1
 10
0.0
 20
0.0
 30
0.0
  0
VERTEX
  5
3FE
330
3FD
100
AcDbEntity
  8
STANDARDEBENE
 62
     7
100
AcDbVertex
100
AcDb2dVertex
 10
34.9084865618742
 20
-100.1001575632272
 30
0.0
  0
VERTEX
  5
3FF
330
3FD
100
AcDbEntity
  8
STANDARDEBENE
 62
     7
100
AcDbVertex
100
AcDb2dVertex
 10
34.9084865618742
 20
-99.99818266959151
 30
0.0
  0
VERTEX
  5
400
330
3FD
100
AcDbEntity
  8
STANDARDEBENE
 62
     7
100
AcDbVertex
100
AcDb2dVertex
 10
34.9084865618742
 20
-99.69122445935713
 30
0.0
  0
VERTEX
  5
401
330
3FD
100
AcDbEntity
  8
STANDARDEBENE
 62
     7
100
AcDbVertex
100
AcDb2dVertex
 10
34.9084865618742
 20
-99.18462283404885
 30
0.0
  0
VERTEX
  5
402
330
3FD
100
AcDbEntity
  8
STANDARDEBENE
 62
     7
100
AcDbVertex
100
AcDb2dVertex
 10
34.9084865618742
 20
-98.48337318541576
 30
0.0
  0
VERTEX
  5
403
330
3FD
100
AcDbEntity
  8
STANDARDEBENE
 62
     7
100
AcDbVertex
100
AcDb2dVertex
 10
34.9084865618742
 20
-97.59574374807693
 30
0.0
  0
VERTEX
  5
404
330
3FD
100
AcDbEntity
  8
STANDARDEBENE
 62
     7
100
AcDbVertex
100
AcDb2dVertex
 10
34.9084865618742
 20
-96.53206981530626
 30
0.0
  0
VERTEX
  5
405
330
3FD
100
AcDbEntity
  8
STANDARDEBENE
 62
     7
100
AcDbVertex
100
AcDb2dVertex
 10
34.9084865618742
 20
-95.3050982488082
 30
0.0
  0
VERTEX
  5
406
330
3FD
100
AcDbEntity
  8
STANDARDEBENE
 62
     7
100
AcDbVertex
100
AcDb2dVertex
 10
34.9084865618742
 20
-93.92964296894199
 30
0.0
  0
VERTEX
  5
407
330
3FD
100
AcDbEntity
  8
STANDARDEBENE
 62
     7
100
AcDbVertex
100
AcDb2dVertex
 10
34.9084865618742
 20
-92.42086240584267
 30
0.0
  0
VERTEX
  5
408
330
3FD
100
AcDbEntity
  8
STANDARDEBENE
 62
     7
100
AcDbVertex
100
AcDb2dVertex
 10
34.9084865618742
 20
-90.79770459717902
 30
0.0
  0
VERTEX
  5
409
330
3FD
100
AcDbEntity
  8
STANDARDEBENE
 62
     7
100
AcDbVertex
100
AcDb2dVertex
 10
34.9084865618742
 20
-89.07791179640455
 30
0.0
  0
VERTEX
  5
40A
330
3FD
100
AcDbEntity
  8
STANDARDEBENE
 62
     7
100
AcDbVertex
100
AcDb2dVertex
 10
34.9084865618742
 20
-87.28198233517912
 30
0.0
  0
VERTEX
  5
40B
330
3FD
100
AcDbEntity
  8
STANDARDEBENE
 62
     7
100
AcDbVertex
100
AcDb2dVertex
 10
34.9084865618742
 20
-85.43162032937789
 30
0.0
  0
VERTEX
  5
40C
330
3FD
100
AcDbEntity
  8
STANDARDEBENE
 62
     7
100
AcDbVertex
100
AcDb2dVertex
 10
34.9084865618742
 20
-83.54818538510024
 30
0.0
  0
VERTEX
  5
40D
330
3FD
100
AcDbEntity
  8
STANDARDEBENE
 62
     7
100
AcDbVertex
100
AcDb2dVertex
 10
34.9084865618742
 20
-81.65269259866972
 30
0.0
  0
VERTEX
  5
40E
330
3FD
100
AcDbEntity
  8
STANDARDEBENE
 62
     7
100
AcDbVertex
100
AcDb2dVertex
 10
34.9084865618742
 20
-79.76960216416786
 30
0.0
  0
VERTEX
  5
40F
330
3FD
100
AcDbEntity
  8
STANDARDEBENE
 62
     7
100
AcDbVertex
100
AcDb2dVertex
 10
34.9084865618742
 20
-77.91889564859085
 30
0.0
  0
VERTEX
  5
410
330
3FD
100
AcDbEntity
  8
STANDARDEBENE
 62
     7
100
AcDbVertex
100
AcDb2dVertex
 10
34.9084865618742
 20
-76.12279393247752
 30
0.0
  0
VERTEX
  5
411
330
3FD
100
AcDbEntity
  8
STANDARDEBENE
 62
     7
100
AcDbVertex
100
AcDb2dVertex
 10
34.9084865618742
 20
-74.40300113170305
 30
0.0
  0
VERTEX
  5
412
330
3FD
100
AcDbEntity
  8
STANDARDEBENE
 62
     7
100
AcDbVertex
100
AcDb2dVertex
 10
34.9084865618742
 20
-72.78001557792729
 30
0.0
  0
VERTEX
  5
413
330
3FD
100
AcDbEntity
  8
STANDARDEBENE
 62
     7
100
AcDbVertex
100
AcDb2dVertex
 10
34.9084865618742
 20
-71.27140726971587
 30
0.0
  0
VERTEX
  5
414
330
3FD
100
AcDbEntity
  8
STANDARDEBENE
 62
     7
100
AcDbVertex
100
AcDb2dVertex
 10
34.9084865618742
 20
-69.89560748007386
 30
0.0
  0
VERTEX
  5
415
330
3FD
100
AcDbEntity
  8
STANDARDEBENE
 62
     7
100
AcDbVertex
100
AcDb2dVertex
 10
34.9084865618742
 20
-68.66863591357581
 30
0.0
  0
VERTEX
  5
416
330
3FD
100
AcDbEntity
  8
STANDARDEBENE
 62
     7
100
AcDbVertex
100
AcDb2dVertex
 10
34.9084865618742
 20
-67.60547874546884
 30
0.0
  0
VERTEX
  5
417
330
3FD
100
AcDbEntity
  8
STANDARDEBENE
 62
     7
100
AcDbVertex
100
AcDb2dVertex
 10
34.9084865618742
 20
-66.7181938179058
 30
0.0
  0
VERTEX
  5
418
330
3FD
100
AcDbEntity
  8
STANDARDEBENE
 62
     7
100
AcDbVertex
100
AcDb2dVertex
 10
34.9084865618742
 20
-66.0167719143848
 30
0.0
  0
VERTEX
  5
419
330
3FD
100
AcDbEntity
  8
STANDARDEBENE
 62
     7
100
AcDbVertex
100
AcDb2dVertex
 10
34.9084865618742
 20
-65.50982577930074
 30
0.0
  0
VERTEX
  5
41A
330
3FD
100
AcDbEntity
  8
STANDARDEBENE
 62
     7
100
AcDbVertex
100
AcDb2dVertex
 10
34.9084865618742
 20
-65.20303982395426
 30
0.0
  0
VERTEX
  5
41B
330
3FD
100
AcDbEntity
  8
STANDARDEBENE
 62
     7
100
AcDbVertex
100
AcDb2dVertex
 10
34.9084865618742
 20
-65.100375910767
 30
0.0
  0
SEQEND
  5
41C
330
3FD
100
AcDbEntity
  8
STANDARDEBENE
  0
POLYLINE
  5
41D
330
1F
100
AcDbEntity
  8
STANDARDEBENE
 62
     7
100
AcDb2dPolyline
 66
     1
 10
0.0
 20
0.0
 30
0.0
  0
VERTEX
  5
41E
330
41D
100
AcDbEntity
  8
STANDARDEBENE
 62
     7
100
AcDbVertex
100
AcDb2dVertex
 10
35.40802573677864
 20
-98.60050650918646
 30
0.0
  0
VERTEX
  5
41F
330
41D
100
AcDbEntity
  8
STANDARDEBENE
 62
     7
100
AcDbVertex
100
AcDb2dVertex
 10
35.54703543131239
 20
-98.579319157975
 30
0.0
  0
VERTEX
  5
420
330
41D
100
AcDbEntity
  8
STANDARDEBENE
 62
     7
100
AcDbVertex
100
AcDb2dVertex
 10
35.94735579078755
 20
-98.52488661339919
 30
0.0
  0
VERTEX
  5
421
330
41D
100
AcDbEntity
  8
STANDARDEBENE
 62
     7
100
AcDbVertex
100
AcDb2dVertex
 10
36.56936819098753
 20
-98.4608077951011
 30
0.0
  0
VERTEX
  5
422
330
41D
100
AcDbEntity
  8
STANDARDEBENE
 62
     7
100
AcDbVertex
100
AcDb2dVertex
 10
37.34761577451107
 20
-98.41378221070494
 30
0.0
  0
VERTEX
  5
423
330
41D
100
AcDbEntity
  8
STANDARDEBENE
 62
     7
100
AcDbVertex
100
AcDb2dVertex
 10
38.18287972592888
 20
-98.40637525052531
 30
0.0
  0
VERTEX
  5
424
330
41D
100
AcDbEntity
  8
STANDARDEBENE
 62
     7
100
AcDbVertex
100
AcDb2dVertex
 10
38.98093662156071
 20
-98.44030946344124
 30
0.0
  0
VERTEX
  5
425
330
41D
100
AcDbEntity
  8
STANDARDEBENE
 62
     7
100
AcDbVertex
100
AcDb2dVertex
 10
39.66186019342184
 20
-98.50059867420556
 30
0.0
  0
VERTEX
  5
426
330
41D
100
AcDbEntity
  8
STANDARDEBENE
 62
     7
100
AcDbVertex
100
AcDb2dVertex
 10
40.15313113370717
 20
-98.56243817896097
 30
0.0
  0
VERTEX
  5
427
330
41D
100
AcDbEntity
  8
STANDARDEBENE
 62
     7
100
AcDbVertex
100
AcDb2dVertex
 10
40.37654572331099
 20
-98.59551111743741
 30
0.0
  0
SEQEND
  5
428
330
41D
100
AcDbEntity
  8
STANDARDEBENE
  0
POLYLINE
  5
429
330
1F
100
AcDbEntity
  8
STANDARDEBENE
 62
     7
100
AcDb2dPolyline
 66
     1
 10
0.0
 20
0.0
 30
0.0
  0
VERTEX
  5
42A
330
429
100
AcDbEntity
  8
STANDARDEBENE
 62
     7
100
AcDbVertex
100
AcDb2dVertex
 10
42.87200228429054
 20
-82.67812594632701
 30
0.0
  0
VERTEX
  5
42B
330
429
100
AcDbEntity
  8
STANDARDEBENE
 62
     7
100
AcDbVertex
100
AcDb2dVertex
 10
43.11470942133894
 20
-81.30594350933087
 30
0.0
  0
VERTEX
  5
42C
330
429
100
AcDbEntity
  8
STANDARDEBENE
 62
     7
100
AcDbVertex
100
AcDb2dVertex
 10
43.36706283210963
 20
-79.92118646551818
 30
0.0
  0
VERTEX
  5
42D
330
429
100
AcDbEntity
  8
STANDARDEBENE
 62
     7
100
AcDbVertex
100
AcDb2dVertex
 10
43.59237222548033
 20
-78.55348265560738
 30
0.0
  0
VERTEX
  5
42E
330
429
100
AcDbEntity
  8
STANDARDEBENE
 62
     7
100
AcDbVertex
100
AcDb2dVertex
 10
43.70502692216567
 20
-77.63140224068894
 30
0.0
  0
VERTEX
  5
42F
330
429
100
AcDbEntity
  8
STANDARDEBENE
 62
     7
100
AcDbVertex
100
AcDb2dVertex
 10
43.75050221257077
 20
-76.75720868460617
 30
0.0
  0
VERTEX
  5
430
330
429
100
AcDbEntity
  8
STANDARDEBENE
 62
     7
100
AcDbVertex
100
AcDb2dVertex
 10
43.70778300037205
 20
-75.9627691416202
 30
0.0
  0
VERTEX
  5
431
330
429
100
AcDbEntity
  8
STANDARDEBENE
 62
     7
100
AcDbVertex
100
AcDb2dVertex
 10
43.59598957812619
 20
-75.26462008096927
 30
0.0
  0
VERTEX
  5
432
330
429
100
AcDbEntity
  8
STANDARDEBENE
 62
     7
100
AcDbVertex
100
AcDb2dVertex
 10
43.34156910870072
 20
-74.32824251035528
 30
0.0
  0
VERTEX
  5
433
330
429
100
AcDbEntity
  8
STANDARDEBENE
 62
     7
100
AcDbVertex
100
AcDb2dVertex
 10
43.06010462187525
 20
-73.59064708037567
 30
0.0
  0
VERTEX
  5
434
330
429
100
AcDbEntity
  8
STANDARDEBENE
 62
     7
100
AcDbVertex
100
AcDb2dVertex
 10
42.82084258258481
 20
-73.0668199662776
 30
0.0
  0
VERTEX
  5
435
330
429
100
AcDbEntity
  8
STANDARDEBENE
 62
     7
100
AcDbVertex
100
AcDb2dVertex
 10
42.62051014795934
 20
-72.67545686097316
 30
0.0
  0
SEQEND
  5
436
330
429
100
AcDbEntity
  8
STANDARDEBENE
  0
POLYLINE
  5
437
330
1F
100
AcDbEntity
  8
STANDARDEBENE
 62
     7
100
AcDb2dPolyline
 66
     1
 10
0.0
 20
0.0
 30
0.0
  0
VERTEX
  5
438
330
437
100
AcDbEntity
  8
STANDARDEBENE
 62
     7
100
AcDbVertex
100
AcDb2dVertex
 10
42.62051014795934
 20
-84.36829090638302
 30
0.0
  0
VERTEX
  5
439
330
437
100
AcDbEntity
  8
STANDARDEBENE
 62
     7
100
AcDbVertex
100
AcDb2dVertex
 10
42.87200228429054
 20
-82.67812594632701
 30
0.0
  0
SEQEND
  5
43A
330
437
100
AcDbEntity
  8
STANDARDEBENE
  0
POLYLINE
  5
43B
330
1F
100
AcDbEntity
  8
STANDARDEBENE
 62
     7
100
AcDb2dPolyline
 66
     1
 10
0.0
 20
0.0
 30
0.0
  0
VERTEX
  5
43C
330
43B
100
AcDbEntity
  8
STANDARDEBENE
 62
     7
100
AcDbVertex
100
AcDb2dVertex
 10
43.74171721328796
 20
-94.30188578168976
 30
0.0
  0
VERTEX
  5
43D
330
43B
100
AcDbEntity
  8
STANDARDEBENE
 62
     7
100
AcDbVertex
100
AcDb2dVertex
 10
43.73293221400517
 20
-94.28431578312416
 30
0.0
  0
VERTEX
  5
43E
330
43B
100
AcDbEntity
  8
STANDARDEBENE
 62
     7
100
AcDbVertex
100
AcDb2dVertex
 10
43.62561741884466
 20
-94.07106423190632
 30
0.0
  0
VERTEX
  5
43F
330
43B
100
AcDbEntity
  8
STANDARDEBENE
 62
     7
100
AcDbVertex
100
AcDb2dVertex
 10
43.45870243247141
 20
-93.70243877180442
 30
0.0
  0
VERTEX
  5
440
330
43B
100
AcDbEntity
  8
STANDARDEBENE
 62
     7
100
AcDbVertex
100
AcDb2dVertex
 10
43.12642275371601
 20
-92.8153260991293
 30
0.0
  0
VERTEX
  5
441
330
43B
100
AcDbEntity
  8
STANDARDEBENE
 62
     7
100
AcDbVertex
100
AcDb2dVertex
 10
42.80688993666507
 20
-91.6813721720962
 30
0.0
  0
VERTEX
  5
442
330
43B
100
AcDbEntity
  8
STANDARDEBENE
 62
     7
100
AcDbVertex
100
AcDb2dVertex
 10
42.62051014795934
 20
-90.75653567897139
 30
0.0
  0
VERTEX
  5
443
330
43B
100
AcDbEntity
  8
STANDARDEBENE
 62
     7
100
AcDbVertex
100
AcDb2dVertex
 10
42.51750172499628
 20
-90.31866375393446
 30
0.0
  0
VERTEX
  5
444
330
43B
100
AcDbEntity
  8
STANDARDEBENE
 62
     7
100
AcDbVertex
100
AcDb2dVertex
 10
42.49218025647526
 20
-90.25337915142107
 30
0.0
  0
VERTEX
  5
445
330
43B
100
AcDbEntity
  8
STANDARDEBENE
 62
     7
100
AcDbVertex
100
AcDb2dVertex
 10
42.47133741503959
 20
-90.21031542944655
 30
0.0
  0
VERTEX
  5
446
330
43B
100
AcDbEntity
  8
STANDARDEBENE
 62
     7
100
AcDbVertex
100
AcDb2dVertex
 10
42.44549918185488
 20
-90.17465866765166
 30
0.0
  0
VERTEX
  5
447
330
43B
100
AcDbEntity
  8
STANDARDEBENE
 62
     7
100
AcDbVertex
100
AcDb2dVertex
 10
42.43102977127144
 20
-90.1617395510593
 30
0.0
  0
VERTEX
  5
448
330
43B
100
AcDbEntity
  8
STANDARDEBENE
 62
     7
100
AcDbVertex
100
AcDb2dVertex
 10
42.4169048704638
 20
-90.15347131644019
 30
0.0
  0
VERTEX
  5
449
330
43B
100
AcDbEntity
  8
STANDARDEBENE
 62
     7
100
AcDbVertex
100
AcDb2dVertex
 10
42.40846438095679
 20
-90.15174876756122
 30
0.0
  0
VERTEX
  5
44A
330
43B
100
AcDbEntity
  8
STANDARDEBENE
 62
     7
100
AcDbVertex
100
AcDb2dVertex
 10
41.90823618650076
 20
-90.06958318603382
 30
0.0
  0
SEQEND
  5
44B
330
43B
100
AcDbEntity
  8
STANDARDEBENE
  0
POLYLINE
  5
44C
330
1F
100
AcDbEntity
  8
STANDARDEBENE
 62
     7
100
AcDb2dPolyline
 66
     1
 10
0.0
 20
0.0
 30
0.0
  0
VERTEX
  5
44D
330
44C
100
AcDbEntity
  8
STANDARDEBENE
 62
     7
100
AcDbVertex
100
AcDb2dVertex
 10
41.90823618650076
 20
-85.25695387304924
 30
0.0
  0
VERTEX
  5
44E
330
44C
100
AcDbEntity
  8
STANDARDEBENE
 62
     7
100
AcDbVertex
100
AcDb2dVertex
 10
42.40846438095679
 20
-85.1434379019244
 30
0.0
  0
SEQEND
  5
44F
330
44C
100
AcDbEntity
  8
STANDARDEBENE
  0
POLYLINE
  5
450
330
1F
100
AcDbEntity
  8
STANDARDEBENE
 62
     7
100
AcDb2dPolyline
 66
     1
 10
0.0
 20
0.0
 30
0.0
  0
VERTEX
  5
451
330
450
100
AcDbEntity
  8
STANDARDEBENE
 62
     7
100
AcDbVertex
100
AcDb2dVertex
 10
42.40846438095679
 20
-72.50613030616934
 30
0.0
  0
VERTEX
  5
452
330
450
100
AcDbEntity
  8
STANDARDEBENE
 62
     7
100
AcDbVertex
100
AcDb2dVertex
 10
41.90823618650076
 20
-72.47477991657189
 30
0.0
  0
SEQEND
  5
453
330
450
100
AcDbEntity
  8
STANDARDEBENE
  0
POLYLINE
  5
454
330
1F
100
AcDbEntity
  8
STANDARDEBENE
 62
     7
100
AcDb2dPolyline
 66
     1
 10
0.0
 20
0.0
 30
0.0
  0
VERTEX
  5
455
330
454
100
AcDbEntity
  8
STANDARDEBENE
 62
     7
100
AcDbVertex
100
AcDb2dVertex
 10
42.62051014795934
 20
-72.67545686097316
 30
0.0
  0
VERTEX
  5
456
330
454
100
AcDbEntity
  8
STANDARDEBENE
 62
     7
100
AcDbVertex
100
AcDb2dVertex
 10
42.51750172499628
 20
-72.54988304769545
 30
0.0
  0
VERTEX
  5
457
330
454
100
AcDbEntity
  8
STANDARDEBENE
 62
     7
100
AcDbVertex
100
AcDb2dVertex
 10
42.49218025647526
 20
-72.53300206868144
 30
0.0
  0
VERTEX
  5
458
330
454
100
AcDbEntity
  8
STANDARDEBENE
 62
     7
100
AcDbVertex
100
AcDb2dVertex
 10
42.47133741503959
 20
-72.52197775585596
 30
0.0
  0
VERTEX
  5
459
330
454
100
AcDbEntity
  8
STANDARDEBENE
 62
     7
100
AcDbVertex
100
AcDb2dVertex
 10
42.44549918185488
 20
-72.51284824679736
 30
0.0
  0
VERTEX
  5
45A
330
454
100
AcDbEntity
  8
STANDARDEBENE
 62
     7
100
AcDbVertex
100
AcDb2dVertex
 10
42.43068526149565
 20
-72.5094031490394
 30
0.0
  0
VERTEX
  5
45B
330
454
100
AcDbEntity
  8
STANDARDEBENE
 62
     7
100
AcDbVertex
100
AcDb2dVertex
 10
42.4172493802396
 20
-72.50750834527253
 30
0.0
  0
VERTEX
  5
45C
330
454
100
AcDbEntity
  8
STANDARDEBENE
 62
     7
100
AcDbVertex
100
AcDb2dVertex
 10
42.40846438095679
 20
-72.50613030616934
 30
0.0
  0
SEQEND
  5
45D
330
454
100
AcDbEntity
  8
STANDARDEBENE
  0
POLYLINE
  5
45E
330
1F
100
AcDbEntity
  8
STANDARDEBENE
 62
     7
100
AcDb2dPolyline
 66
     1
 10
0.0
 20
0.0
 30
0.0
  0
VERTEX
  5
45F
330
45E
100
AcDbEntity
  8
STANDARDEBENE
 62
     7
100
AcDbVertex
100
AcDb2dVertex
 10
42.40846438095679
 20
-85.1434379019244
 30
0.0
  0
VERTEX
  5
460
330
45E
100
AcDbEntity
  8
STANDARDEBENE
 62
     7
100
AcDbVertex
100
AcDb2dVertex
 10
42.42293379154023
 20
-85.13637545152058
 30
0.0
  0
VERTEX
  5
461
330
45E
100
AcDbEntity
  8
STANDARDEBENE
 62
     7
100
AcDbVertex
100
AcDb2dVertex
 10
42.44102055476953
 20
-85.11932221761867
 30
0.0
  0
VERTEX
  5
462
330
45E
100
AcDbEntity
  8
STANDARDEBENE
 62
     7
100
AcDbVertex
100
AcDb2dVertex
 10
42.47908888499501
 20
-85.04990349779574
 30
0.0
  0
VERTEX
  5
463
330
45E
100
AcDbEntity
  8
STANDARDEBENE
 62
     7
100
AcDbVertex
100
AcDb2dVertex
 10
42.57193426957208
 20
-84.68799597832187
 30
0.0
  0
VERTEX
  5
464
330
45E
100
AcDbEntity
  8
STANDARDEBENE
 62
     7
100
AcDbVertex
100
AcDb2dVertex
 10
42.62051014795934
 20
-84.36829090638302
 30
0.0
  0
SEQEND
  5
465
330
45E
100
AcDbEntity
  8
STANDARDEBENE
  0
POLYLINE
  5
466
330
1F
100
AcDbEntity
  8
STANDARDEBENE
 62
     7
100
AcDb2dPolyline
 66
     1
 10
0.0
 20
0.0
 30
0.0
  0
VERTEX
  5
467
330
466
100
AcDbEntity
  8
STANDARDEBENE
 62
     7
100
AcDbVertex
100
AcDb2dVertex
 10
59.88131118978689
 20
-82.6087072265041
 30
0.0
  0
VERTEX
  5
468
330
466
100
AcDbEntity
  8
STANDARDEBENE
 62
     7
100
AcDbVertex
100
AcDb2dVertex
 10
59.88131118978689
 20
-81.37295066072323
 30
0.0
  0
VERTEX
  5
469
330
466
100
AcDbEntity
  8
STANDARDEBENE
 62
     7
100
AcDbVertex
100
AcDb2dVertex
 10
59.88131118978689
 20
-80.12651429189269
 30
0.0
  0
VERTEX
  5
46A
330
466
100
AcDbEntity
  8
STANDARDEBENE
 62
     7
100
AcDbVertex
100
AcDb2dVertex
 10
59.88131118978689
 20
-78.89075772611184
 30
0.0
  0
VERTEX
  5
46B
330
466
100
AcDbEntity
  8
STANDARDEBENE
 62
     7
100
AcDbVertex
100
AcDb2dVertex
 10
59.88131118978689
 20
-77.98262995711313
 30
0.0
  0
VERTEX
  5
46C
330
466
100
AcDbEntity
  8
STANDARDEBENE
 62
     7
100
AcDbVertex
100
AcDb2dVertex
 10
59.88131118978689
 20
-77.11911620408004
 30
0.0
  0
VERTEX
  5
46D
330
466
100
AcDbEntity
  8
STANDARDEBENE
 62
     7
100
AcDbVertex
100
AcDb2dVertex
 10
59.88131118978689
 20
-76.33415067992847
 30
0.0
  0
VERTEX
  5
46E
330
466
100
AcDbEntity
  8
STANDARDEBENE
 62
     7
100
AcDbVertex
100
AcDb2dVertex
 10
59.88131118978689
 20
-75.64375308923294
 30
0.0
  0
VERTEX
  5
46F
330
466
100
AcDbEntity
  8
STANDARDEBENE
 62
     7
100
AcDbVertex
100
AcDb2dVertex
 10
59.88131118978689
 20
-74.8658500154852
 30
0.0
  0
VERTEX
  5
470
330
466
100
AcDbEntity
  8
STANDARDEBENE
 62
     7
100
AcDbVertex
100
AcDb2dVertex
 10
59.88131118978689
 20
-74.22351153851324
 30
0.0
  0
VERTEX
  5
471
330
466
100
AcDbEntity
  8
STANDARDEBENE
 62
     7
100
AcDbVertex
100
AcDb2dVertex
 10
59.88131118978689
 20
-73.70778040414638
 30
0.0
  0
VERTEX
  5
472
330
466
100
AcDbEntity
  8
STANDARDEBENE
 62
     7
100
AcDbVertex
100
AcDb2dVertex
 10
59.88131118978689
 20
-73.13451613722155
 30
0.0
  0
VERTEX
  5
473
330
466
100
AcDbEntity
  8
STANDARDEBENE
 62
     7
100
AcDbVertex
100
AcDb2dVertex
 10
59.88131118978689
 20
-72.7884560674343
 30
0.0
  0
SEQEND
  5
474
330
466
100
AcDbEntity
  8
STANDARDEBENE
  0
POLYLINE
  5
475
330
1F
100
AcDbEntity
  8
STANDARDEBENE
 62
     7
100
AcDb2dPolyline
 66
     1
 10
0.0
 20
0.0
 30
0.0
  0
VERTEX
  5
476
330
475
100
AcDbEntity
  8
STANDARDEBENE
 62
     7
100
AcDbVertex
100
AcDb2dVertex
 10
59.88131118978689
 20
-93.92654238095983
 30
0.0
  0
VERTEX
  5
477
330
475
100
AcDbEntity
  8
STANDARDEBENE
 62
     7
100
AcDbVertex
100
AcDb2dVertex
 10
59.88131118978689
 20
-93.86194679799804
 30
0.0
  0
VERTEX
  5
478
330
475
100
AcDbEntity
  8
STANDARDEBENE
 62
     7
100
AcDbVertex
100
AcDb2dVertex
 10
59.88131118978689
 20
-93.59874132928978
 30
0.0
  0
VERTEX
  5
479
330
475
100
AcDbEntity
  8
STANDARDEBENE
 62
     7
100
AcDbVertex
100
AcDb2dVertex
 10
59.88131118978689
 20
-93.20014351869361
 30
0.0
  0
VERTEX
  5
47A
330
475
100
AcDbEntity
  8
STANDARDEBENE
 62
     7
100
AcDbVertex
100
AcDb2dVertex
 10
59.88131118978689
 20
-92.69922630468598
 30
0.0
  0
VERTEX
  5
47B
330
475
100
AcDbEntity
  8
STANDARDEBENE
 62
     7
100
AcDbVertex
100
AcDb2dVertex
 10
59.88131118978689
 20
-91.45950787648347
 30
0.0
  0
VERTEX
  5
47C
330
475
100
AcDbEntity
  8
STANDARDEBENE
 62
     7
100
AcDbVertex
100
AcDb2dVertex
 10
59.88131118978689
 20
-89.99379103535867
 30
0.0
  0
VERTEX
  5
47D
330
475
100
AcDbEntity
  8
STANDARDEBENE
 62
     7
100
AcDbVertex
100
AcDb2dVertex
 10
59.88131118978689
 20
-88.3366990137791
 30
0.0
  0
VERTEX
  5
47E
330
475
100
AcDbEntity
  8
STANDARDEBENE
 62
     7
100
AcDbVertex
100
AcDb2dVertex
 10
59.88131118978689
 20
-86.53939151345048
 30
0.0
  0
VERTEX
  5
47F
330
475
100
AcDbEntity
  8
STANDARDEBENE
 62
     7
100
AcDbVertex
100
AcDb2dVertex
 10
59.88131118978689
 20
-84.62701774800595
 30
0.0
  0
VERTEX
  5
480
330
475
100
AcDbEntity
  8
STANDARDEBENE
 62
     7
100
AcDbVertex
100
AcDb2dVertex
 10
59.88131118978689
 20
-82.6087072265041
 30
0.0
  0
SEQEND
  5
481
330
475
100
AcDbEntity
  8
STANDARDEBENE
  0
POLYLINE
  5
482
330
1F
100
AcDbEntity
  8
STANDARDEBENE
 62
     7
100
AcDb2dPolyline
 66
     1
 10
0.0
 20
0.0
 30
0.0
  0
VERTEX
  5
483
330
482
100
AcDbEntity
  8
STANDARDEBENE
 62
     7
100
AcDbVertex
100
AcDb2dVertex
 10
59.88131118978689
 20
-72.7884560674343
 30
0.0
  0
VERTEX
  5
484
330
482
100
AcDbEntity
  8
STANDARDEBENE
 62
     7
100
AcDbVertex
100
AcDb2dVertex
 10
59.88131118978689
 20
-72.662193234605
 30
0.0
  0
VERTEX
  5
485
330
482
100
AcDbEntity
  8
STANDARDEBENE
 62
     7
100
AcDbVertex
100
AcDb2dVertex
 10
59.88131118978689
 20
-72.73230097397952
 30
0.0
  0
SEQEND
  5
486
330
482
100
AcDbEntity
  8
STANDARDEBENE
  0
POLYLINE
  5
488
330
1F
100
AcDbEntity
  8
BEMA_UNG
 62
     7
100
AcDb2dPolyline
 66
     1
 10
0.0
 20
0.0
 30
0.0
  0
VERTEX
  5
489
330
488
100
AcDbEntity
  8
BEMA_UNG
 62
     7
100
AcDbVertex
100
AcDb2dVertex
 10
41.90823618650076
 20
-1.636335307587853
 30
0.0
  0
VERTEX
  5
48A
330
488
100
AcDbEntity
  8
BEMA_UNG
 62
     7
100
AcDbVertex
100
AcDb2dVertex
 10
77.67782493297747
 20
-1.636335307587853
 30
0.0
  0
SEQEND
  5
48B
330
488
100
AcDbEntity
  8
BEMA_UNG
  0
POLYLINE
  5
48C
330
1F
100
AcDbEntity
  8
BEMA_UNG
 62
     7
100
AcDb2dPolyline
 66
     1
 10
0.0
 20
0.0
 30
0.0
  0
VERTEX
  5
48D
330
48C
100
AcDbEntity
  8
BEMA_UNG
 62
     7
100
AcDbVertex
100
AcDb2dVertex
 10
41.90823618650076
 20
-33.6357813226392
 30
0.0
  0
VERTEX
  5
48E
330
48C
100
AcDbEntity
  8
BEMA_UNG
 62
     7
100
AcDbVertex
100
AcDb2dVertex
 10
77.67782493297747
 20
-33.6357813226392
 30
0.0
  0
SEQEND
  5
48F
330
48C
100
AcDbEntity
  8
BEMA_UNG
  0
POLYLINE
  5
490
330
1F
100
AcDbEntity
  8
BEMA_UNG
 62
     7
100
AcDb2dPolyline
 66
     1
 10
0.0
 20
0.0
 30
0.0
  0
VERTEX
  5
491
330
490
100
AcDbEntity
  8
BEMA_UNG
 62
     7
100
AcDbVertex
100
AcDb2dVertex
 10
75.67794568448072
 20
-1.636335307587853
 30
0.0
  0
VERTEX
  5
492
330
490
100
AcDbEntity
  8
BEMA_UNG
 62
     7
100
AcDbVertex
100
AcDb2dVertex
 10
75.67794568448072
 20
-33.6357813226392
 30
0.0
  0
SEQEND
  5
493
330
490
100
AcDbEntity
  8
BEMA_UNG
  0
POLYLINE
  5
494
330
1F
100
AcDbEntity
  8
BEMA_UNG
 62
     7
100
AcDb2dPolyline
 66
     1
 10
0.0
 20
0.0
 30
0.0
  0
VERTEX
  5
495
330
494
100
AcDbEntity
  8
BEMA_UNG
 62
     7
100
AcDbVertex
100
AcDb2dVertex
 10
75.67794568448072
 20
-1.636335307587853
 30
0.0
  0
VERTEX
  5
496
330
494
100
AcDbEntity
  8
BEMA_UNG
 62
     7
100
AcDbVertex
100
AcDb2dVertex
 10
75.21681934957755
 20
-5.13638237478903
 30
0.0
  0
VERTEX
  5
497
330
494
100
AcDbEntity
  8
BEMA_UNG
 62
     7
100
AcDbVertex
100
AcDb2dVertex
 10
76.1383829998323
 20
-5.13638237478903
 30
0.0
  0
VERTEX
  5
498
330
494
100
AcDbEntity
  8
BEMA_UNG
 62
     7
100
AcDbVertex
100
AcDb2dVertex
 10
75.67794568448072
 20
-1.636335307587853
 30
0.0
  0
SEQEND
  5
499
330
494
100
AcDbEntity
  8
BEMA_UNG
  0
POLYLINE
  5
49A
330
1F
100
AcDbEntity
  8
BEMA_UNG
 62
     7
100
AcDb2dPolyline
 66
     1
 10
0.0
 20
0.0
 30
0.0
  0
VERTEX
  5
49B
330
49A
100
AcDbEntity
  8
BEMA_UNG
 62
     7
100
AcDbVertex
100
AcDb2dVertex
 10
75.22043670222341
 20
-5.13638237478903
 30
0.0
  0
VERTEX
  5
49C
330
49A
100
AcDbEntity
  8
BEMA_UNG
 62
     7
100
AcDbVertex
100
AcDb2dVertex
 10
75.22043670222341
 20
-5.109166102501133
 30
0.0
  0
SEQEND
  5
49D
330
49A
100
AcDbEntity
  8
BEMA_UNG
  0
POLYLINE
  5
49E
330
1F
100
AcDbEntity
  8
BEMA_UNG
 62
     7
100
AcDb2dPolyline
 66
     1
 10
0.0
 20
0.0
 30
0.0
  0
VERTEX
  5
49F
330
49E
100
AcDbEntity
  8
BEMA_UNG
 62
     7
100
AcDbVertex
100
AcDb2dVertex
 10
75.22043670222341
 20
-5.13638237478903
 30
0.0
  0
VERTEX
  5
4A0
330
49E
100
AcDbEntity
  8
BEMA_UNG
 62
     7
100
AcDbVertex
100
AcDb2dVertex
 10
75.22043670222341
 20
-5.109166102501133
 30
0.0
  0
SEQEND
  5
4A1
330
49E
100
AcDbEntity
  8
BEMA_UNG
  0
POLYLINE
  5
4A2
330
1F
100
AcDbEntity
  8
BEMA_UNG
 62
     7
100
AcDb2dPolyline
 66
     1
 10
0.0
 20
0.0
 30
0.0
  0
VERTEX
  5
4A3
330
4A2
100
AcDbEntity
  8
BEMA_UNG
 62
     7
100
AcDbVertex
100
AcDb2dVertex
 10
75.27125189415334
 20
-5.13638237478903
 30
0.0
  0
VERTEX
  5
4A4
330
4A2
100
AcDbEntity
  8
BEMA_UNG
 62
     7
100
AcDbVertex
100
AcDb2dVertex
 10
75.27125189415334
 20
-4.723142898721526
 30
0.0
  0
SEQEND
  5
4A5
330
4A2
100
AcDbEntity
  8
BEMA_UNG
  0
POLYLINE
  5
4A6
330
1F
100
AcDbEntity
  8
BEMA_UNG
 62
     7
100
AcDb2dPolyline
 66
     1
 10
0.0
 20
0.0
 30
0.0
  0
VERTEX
  5
4A7
330
4A6
100
AcDbEntity
  8
BEMA_UNG
 62
     7
100
AcDbVertex
100
AcDb2dVertex
 10
75.32206708608328
 20
-5.13638237478903
 30
0.0
  0
VERTEX
  5
4A8
330
4A6
100
AcDbEntity
  8
BEMA_UNG
 62
     7
100
AcDbVertex
100
AcDb2dVertex
 10
75.32206708608328
 20
-4.33694744005402
 30
0.0
  0
SEQEND
  5
4A9
330
4A6
100
AcDbEntity
  8
BEMA_UNG
  0
POLYLINE
  5
4AA
330
1F
100
AcDbEntity
  8
BEMA_UNG
 62
     7
100
AcDb2dPolyline
 66
     1
 10
0.0
 20
0.0
 30
0.0
  0
VERTEX
  5
4AB
330
4AA
100
AcDbEntity
  8
BEMA_UNG
 62
     7
100
AcDbVertex
100
AcDb2dVertex
 10
75.37271002312531
 20
-5.13638237478903
 30
0.0
  0
VERTEX
  5
4AC
330
4AA
100
AcDbEntity
  8
BEMA_UNG
 62
     7
100
AcDbVertex
100
AcDb2dVertex
 10
75.37271002312531
 20
-3.951441000938108
 30
0.0
  0
SEQEND
  5
4AD
330
4AA
100
AcDbEntity
  8
BEMA_UNG
  0
POLYLINE
  5
4AE
330
1F
100
AcDbEntity
  8
BEMA_UNG
 62
     7
100
AcDb2dPolyline
 66
     1
 10
0.0
 20
0.0
 30
0.0
  0
VERTEX
  5
4AF
330
4AE
100
AcDbEntity
  8
BEMA_UNG
 62
     7
100
AcDbVertex
100
AcDb2dVertex
 10
75.42352521505525
 20
-5.13638237478903
 30
0.0
  0
VERTEX
  5
4B0
330
4AE
100
AcDbEntity
  8
BEMA_UNG
 62
     7
100
AcDbVertex
100
AcDb2dVertex
 10
75.42352521505525
 20
-3.565762306934297
 30
0.0
  0
SEQEND
  5
4B1
330
4AE
100
AcDbEntity
  8
BEMA_UNG
  0
POLYLINE
  5
4B2
330
1F
100
AcDbEntity
  8
BEMA_UNG
 62
     7
100
AcDb2dPolyline
 66
     1
 10
0.0
 20
0.0
 30
0.0
  0
VERTEX
  5
4B3
330
4B2
100
AcDbEntity
  8
BEMA_UNG
 62
     7
100
AcDbVertex
100
AcDb2dVertex
 10
75.47468491676098
 20
-5.13638237478903
 30
0.0
  0
VERTEX
  5
4B4
330
4B2
100
AcDbEntity
  8
BEMA_UNG
 62
     7
100
AcDbVertex
100
AcDb2dVertex
 10
75.47468491676098
 20
-3.179739103154689
 30
0.0
  0
SEQEND
  5
4B5
330
4B2
100
AcDbEntity
  8
BEMA_UNG
  0
POLYLINE
  5
4B6
330
1F
100
AcDbEntity
  8
BEMA_UNG
 62
     7
100
AcDb2dPolyline
 66
     1
 10
0.0
 20
0.0
 30
0.0
  0
VERTEX
  5
4B7
330
4B6
100
AcDbEntity
  8
BEMA_UNG
 62
     7
100
AcDbVertex
100
AcDb2dVertex
 10
75.5255001086909
 20
-5.13638237478903
 30
0.0
  0
VERTEX
  5
4B8
330
4B6
100
AcDbEntity
  8
BEMA_UNG
 62
     7
100
AcDbVertex
100
AcDb2dVertex
 10
75.5255001086909
 20
-2.793543644487184
 30
0.0
  0
SEQEND
  5
4B9
330
4B6
100
AcDbEntity
  8
BEMA_UNG
  0
POLYLINE
  5
4BA
330
1F
100
AcDbEntity
  8
BEMA_UNG
 62
     7
100
AcDb2dPolyline
 66
     1
 10
0.0
 20
0.0
 30
0.0
  0
VERTEX
  5
4BB
330
4BA
100
AcDbEntity
  8
BEMA_UNG
 62
     7
100
AcDbVertex
100
AcDb2dVertex
 10
75.57631530062085
 20
-5.13638237478903
 30
0.0
  0
VERTEX
  5
4BC
330
4BA
100
AcDbEntity
  8
BEMA_UNG
 62
     7
100
AcDbVertex
100
AcDb2dVertex
 10
75.57631530062085
 20
-2.408037205371271
 30
0.0
  0
SEQEND
  5
4BD
330
4BA
100
AcDbEntity
  8
BEMA_UNG
  0
POLYLINE
  5
4BE
330
1F
100
AcDbEntity
  8
BEMA_UNG
 62
     7
100
AcDb2dPolyline
 66
     1
 10
0.0
 20
0.0
 30
0.0
  0
VERTEX
  5
4BF
330
4BE
100
AcDbEntity
  8
BEMA_UNG
 62
     7
100
AcDbVertex
100
AcDb2dVertex
 10
75.62713049255078
 20
-5.13638237478903
 30
0.0
  0
VERTEX
  5
4C0
330
4BE
100
AcDbEntity
  8
BEMA_UNG
 62
     7
100
AcDbVertex
100
AcDb2dVertex
 10
75.62713049255078
 20
-2.021669491815868
 30
0.0
  0
SEQEND
  5
4C1
330
4BE
100
AcDbEntity
  8
BEMA_UNG
  0
POLYLINE
  5
4C2
330
1F
100
AcDbEntity
  8
BEMA_UNG
 62
     7
100
AcDb2dPolyline
 66
     1
 10
0.0
 20
0.0
 30
0.0
  0
VERTEX
  5
4C3
330
4C2
100
AcDbEntity
  8
BEMA_UNG
 62
     7
100
AcDbVertex
100
AcDb2dVertex
 10
75.67794568448072
 20
-5.13638237478903
 30
0.0
  0
VERTEX
  5
4C4
330
4C2
100
AcDbEntity
  8
BEMA_UNG
 62
     7
100
AcDbVertex
100
AcDb2dVertex
 10
75.67794568448072
 20
-1.636335307587853
 30
0.0
  0
SEQEND
  5
4C5
330
4C2
100
AcDbEntity
  8
BEMA_UNG
  0
POLYLINE
  5
4C6
330
1F
100
AcDbEntity
  8
BEMA_UNG
 62
     7
100
AcDb2dPolyline
 66
     1
 10
0.0
 20
0.0
 30
0.0
  0
VERTEX
  5
4C7
330
4C6
100
AcDbEntity
  8
BEMA_UNG
 62
     7
100
AcDbVertex
100
AcDb2dVertex
 10
76.13476564718644
 20
-5.13638237478903
 30
0.0
  0
VERTEX
  5
4C8
330
4C6
100
AcDbEntity
  8
BEMA_UNG
 62
     7
100
AcDbVertex
100
AcDb2dVertex
 10
76.13476564718644
 20
-5.109166102501133
 30
0.0
  0
SEQEND
  5
4C9
330
4C6
100
AcDbEntity
  8
BEMA_UNG
  0
POLYLINE
  5
4CA
330
1F
100
AcDbEntity
  8
BEMA_UNG
 62
     7
100
AcDb2dPolyline
 66
     1
 10
0.0
 20
0.0
 30
0.0
  0
VERTEX
  5
4CB
330
4CA
100
AcDbEntity
  8
BEMA_UNG
 62
     7
100
AcDbVertex
100
AcDb2dVertex
 10
76.13476564718644
 20
-5.13638237478903
 30
0.0
  0
VERTEX
  5
4CC
330
4CA
100
AcDbEntity
  8
BEMA_UNG
 62
     7
100
AcDbVertex
100
AcDb2dVertex
 10
76.13476564718644
 20
-5.109166102501133
 30
0.0
  0
SEQEND
  5
4CD
330
4CA
100
AcDbEntity
  8
BEMA_UNG
  0
POLYLINE
  5
4CE
330
1F
100
AcDbEntity
  8
BEMA_UNG
 62
     7
100
AcDb2dPolyline
 66
     1
 10
0.0
 20
0.0
 30
0.0
  0
VERTEX
  5
4CF
330
4CE
100
AcDbEntity
  8
BEMA_UNG
 62
     7
100
AcDbVertex
100
AcDb2dVertex
 10
76.0839504552565
 20
-5.13638237478903
 30
0.0
  0
VERTEX
  5
4D0
330
4CE
100
AcDbEntity
  8
BEMA_UNG
 62
     7
100
AcDbVertex
100
AcDb2dVertex
 10
76.0839504552565
 20
-4.723142898721526
 30
0.0
  0
SEQEND
  5
4D1
330
4CE
100
AcDbEntity
  8
BEMA_UNG
  0
POLYLINE
  5
4D2
330
1F
100
AcDbEntity
  8
BEMA_UNG
 62
     7
100
AcDb2dPolyline
 66
     1
 10
0.0
 20
0.0
 30
0.0
  0
VERTEX
  5
4D3
330
4D2
100
AcDbEntity
  8
BEMA_UNG
 62
     7
100
AcDbVertex
100
AcDb2dVertex
 10
76.03313526332657
 20
-5.13638237478903
 30
0.0
  0
VERTEX
  5
4D4
330
4D2
100
AcDbEntity
  8
BEMA_UNG
 62
     7
100
AcDbVertex
100
AcDb2dVertex
 10
76.03313526332657
 20
-4.33694744005402
 30
0.0
  0
SEQEND
  5
4D5
330
4D2
100
AcDbEntity
  8
BEMA_UNG
  0
POLYLINE
  5
4D6
330
1F
100
AcDbEntity
  8
BEMA_UNG
 62
     7
100
AcDb2dPolyline
 66
     1
 10
0.0
 20
0.0
 30
0.0
  0
VERTEX
  5
4D7
330
4D6
100
AcDbEntity
  8
BEMA_UNG
 62
     7
100
AcDbVertex
100
AcDb2dVertex
 10
75.98283683606033
 20
-5.13638237478903
 30
0.0
  0
VERTEX
  5
4D8
330
4D6
100
AcDbEntity
  8
BEMA_UNG
 62
     7
100
AcDbVertex
100
AcDb2dVertex
 10
75.98283683606033
 20
-3.951441000938108
 30
0.0
  0
SEQEND
  5
4D9
330
4D6
100
AcDbEntity
  8
BEMA_UNG
  0
POLYLINE
  5
4DA
330
1F
100
AcDbEntity
  8
BEMA_UNG
 62
     7
100
AcDb2dPolyline
 66
     1
 10
0.0
 20
0.0
 30
0.0
  0
VERTEX
  5
4DB
330
4DA
100
AcDbEntity
  8
BEMA_UNG
 62
     7
100
AcDbVertex
100
AcDb2dVertex
 10
75.93202164413039
 20
-5.13638237478903
 30
0.0
  0
VERTEX
  5
4DC
330
4DA
100
AcDbEntity
  8
BEMA_UNG
 62
     7
100
AcDbVertex
100
AcDb2dVertex
 10
75.93202164413039
 20
-3.565762306934297
 30
0.0
  0
SEQEND
  5
4DD
330
4DA
100
AcDbEntity
  8
BEMA_UNG
  0
POLYLINE
  5
4DE
330
1F
100
AcDbEntity
  8
BEMA_UNG
 62
     7
100
AcDb2dPolyline
 66
     1
 10
0.0
 20
0.0
 30
0.0
  0
VERTEX
  5
4DF
330
4DE
100
AcDbEntity
  8
BEMA_UNG
 62
     7
100
AcDbVertex
100
AcDb2dVertex
 10
75.88120645220046
 20
-5.13638237478903
 30
0.0
  0
VERTEX
  5
4E0
330
4DE
100
AcDbEntity
  8
BEMA_UNG
 62
     7
100
AcDbVertex
100
AcDb2dVertex
 10
75.88120645220046
 20
-3.179739103154689
 30
0.0
  0
SEQEND
  5
4E1
330
4DE
100
AcDbEntity
  8
BEMA_UNG
  0
POLYLINE
  5
4E2
330
1F
100
AcDbEntity
  8
BEMA_UNG
 62
     7
100
AcDb2dPolyline
 66
     1
 10
0.0
 20
0.0
 30
0.0
  0
VERTEX
  5
4E3
330
4E2
100
AcDbEntity
  8
BEMA_UNG
 62
     7
100
AcDbVertex
100
AcDb2dVertex
 10
75.83039126027052
 20
-5.13638237478903
 30
0.0
  0
VERTEX
  5
4E4
330
4E2
100
AcDbEntity
  8
BEMA_UNG
 62
     7
100
AcDbVertex
100
AcDb2dVertex
 10
75.83039126027052
 20
-2.793543644487184
 30
0.0
  0
SEQEND
  5
4E5
330
4E2
100
AcDbEntity
  8
BEMA_UNG
  0
POLYLINE
  5
4E6
330
1F
100
AcDbEntity
  8
BEMA_UNG
 62
     7
100
AcDb2dPolyline
 66
     1
 10
0.0
 20
0.0
 30
0.0
  0
VERTEX
  5
4E7
330
4E6
100
AcDbEntity
  8
BEMA_UNG
 62
     7
100
AcDbVertex
100
AcDb2dVertex
 10
75.77957606834059
 20
-5.13638237478903
 30
0.0
  0
VERTEX
  5
4E8
330
4E6
100
AcDbEntity
  8
BEMA_UNG
 62
     7
100
AcDbVertex
100
AcDb2dVertex
 10
75.77957606834059
 20
-2.408037205371271
 30
0.0
  0
SEQEND
  5
4E9
330
4E6
100
AcDbEntity
  8
BEMA_UNG
  0
POLYLINE
  5
4EA
330
1F
100
AcDbEntity
  8
BEMA_UNG
 62
     7
100
AcDb2dPolyline
 66
     1
 10
0.0
 20
0.0
 30
0.0
  0
VERTEX
  5
4EB
330
4EA
100
AcDbEntity
  8
BEMA_UNG
 62
     7
100
AcDbVertex
100
AcDb2dVertex
 10
75.72876087641065
 20
-5.13638237478903
 30
0.0
  0
VERTEX
  5
4EC
330
4EA
100
AcDbEntity
  8
BEMA_UNG
 62
     7
100
AcDbVertex
100
AcDb2dVertex
 10
75.72876087641065
 20
-2.021669491815868
 30
0.0
  0
SEQEND
  5
4ED
330
4EA
100
AcDbEntity
  8
BEMA_UNG
  0
POLYLINE
  5
4EE
330
1F
100
AcDbEntity
  8
BEMA_UNG
 62
     7
100
AcDb2dPolyline
 66
     1
 10
0.0
 20
0.0
 30
0.0
  0
VERTEX
  5
4EF
330
4EE
100
AcDbEntity
  8
BEMA_UNG
 62
     7
100
AcDbVertex
100
AcDb2dVertex
 10
75.67794568448072
 20
-5.13638237478903
 30
0.0
  0
VERTEX
  5
4F0
330
4EE
100
AcDbEntity
  8
BEMA_UNG
 62
     7
100
AcDbVertex
100
AcDb2dVertex
 10
75.67794568448072
 20
-1.636335307587853
 30
0.0
  0
SEQEND
  5
4F1
330
4EE
100
AcDbEntity
  8
BEMA_UNG
  0
POLYLINE
  5
4F2
330
1F
100
AcDbEntity
  8
BEMA_UNG
 62
     7
100
AcDb2dPolyline
 66
     1
 10
0.0
 20
0.0
 30
0.0
  0
VERTEX
  5
4F3
330
4F2
100
AcDbEntity
  8
BEMA_UNG
 62
     7
100
AcDbVertex
100
AcDb2dVertex
 10
75.67794568448072
 20
-33.6357813226392
 30
0.0
  0
VERTEX
  5
4F4
330
4F2
100
AcDbEntity
  8
BEMA_UNG
 62
     7
100
AcDbVertex
100
AcDb2dVertex
 10
76.1383829998323
 20
-30.13625102010172
 30
0.0
  0
VERTEX
  5
4F5
330
4F2
100
AcDbEntity
  8
BEMA_UNG
 62
     7
100
AcDbVertex
100
AcDb2dVertex
 10
75.21681934957755
 20
-30.13625102010172
 30
0.0
  0
VERTEX
  5
4F6
330
4F2
100
AcDbEntity
  8
BEMA_UNG
 62
     7
100
AcDbVertex
100
AcDb2dVertex
 10
75.67794568448072
 20
-33.6357813226392
 30
0.0
  0
SEQEND
  5
4F7
330
4F2
100
AcDbEntity
  8
BEMA_UNG
  0
POLYLINE
  5
4F8
330
1F
100
AcDbEntity
  8
BEMA_UNG
 62
     7
100
AcDb2dPolyline
 66
     1
 10
0.0
 20
0.0
 30
0.0
  0
VERTEX
  5
4F9
330
4F8
100
AcDbEntity
  8
BEMA_UNG
 62
     7
100
AcDbVertex
100
AcDb2dVertex
 10
76.13476564718644
 20
-30.13625102010172
 30
0.0
  0
VERTEX
  5
4FA
330
4F8
100
AcDbEntity
  8
BEMA_UNG
 62
     7
100
AcDbVertex
100
AcDb2dVertex
 10
76.13476564718644
 20
-30.16346729238962
 30
0.0
  0
SEQEND
  5
4FB
330
4F8
100
AcDbEntity
  8
BEMA_UNG
  0
POLYLINE
  5
4FC
330
1F
100
AcDbEntity
  8
BEMA_UNG
 62
     7
100
AcDb2dPolyline
 66
     1
 10
0.0
 20
0.0
 30
0.0
  0
VERTEX
  5
4FD
330
4FC
100
AcDbEntity
  8
BEMA_UNG
 62
     7
100
AcDbVertex
100
AcDb2dVertex
 10
76.13476564718644
 20
-30.13625102010172
 30
0.0
  0
VERTEX
  5
4FE
330
4FC
100
AcDbEntity
  8
BEMA_UNG
 62
     7
100
AcDbVertex
100
AcDb2dVertex
 10
76.13476564718644
 20
-30.16346729238962
 30
0.0
  0
SEQEND
  5
4FF
330
4FC
100
AcDbEntity
  8
BEMA_UNG
  0
POLYLINE
  5
500
330
1F
100
AcDbEntity
  8
BEMA_UNG
 62
     7
100
AcDb2dPolyline
 66
     1
 10
0.0
 20
0.0
 30
0.0
  0
VERTEX
  5
501
330
500
100
AcDbEntity
  8
BEMA_UNG
 62
     7
100
AcDbVertex
100
AcDb2dVertex
 10
76.0839504552565
 20
-30.13625102010172
 30
0.0
  0
VERTEX
  5
502
330
500
100
AcDbEntity
  8
BEMA_UNG
 62
     7
100
AcDbVertex
100
AcDb2dVertex
 10
76.0839504552565
 20
-30.54897373150553
 30
0.0
  0
SEQEND
  5
503
330
500
100
AcDbEntity
  8
BEMA_UNG
  0
POLYLINE
  5
504
330
1F
100
AcDbEntity
  8
BEMA_UNG
 62
     7
100
AcDb2dPolyline
 66
     1
 10
0.0
 20
0.0
 30
0.0
  0
VERTEX
  5
505
330
504
100
AcDbEntity
  8
BEMA_UNG
 62
     7
100
AcDbVertex
100
AcDb2dVertex
 10
76.03313526332657
 20
-30.13625102010172
 30
0.0
  0
VERTEX
  5
506
330
504
100
AcDbEntity
  8
BEMA_UNG
 62
     7
100
AcDbVertex
100
AcDb2dVertex
 10
76.03313526332657
 20
-30.93534144506093
 30
0.0
  0
SEQEND
  5
507
330
504
100
AcDbEntity
  8
BEMA_UNG
  0
POLYLINE
  5
508
330
1F
100
AcDbEntity
  8
BEMA_UNG
 62
     7
100
AcDb2dPolyline
 66
     1
 10
0.0
 20
0.0
 30
0.0
  0
VERTEX
  5
509
330
508
100
AcDbEntity
  8
BEMA_UNG
 62
     7
100
AcDbVertex
100
AcDb2dVertex
 10
75.98283683606033
 20
-30.13625102010172
 30
0.0
  0
VERTEX
  5
50A
330
508
100
AcDbEntity
  8
BEMA_UNG
 62
     7
100
AcDbVertex
100
AcDb2dVertex
 10
75.98283683606033
 20
-31.32102013906474
 30
0.0
  0
SEQEND
  5
50B
330
508
100
AcDbEntity
  8
BEMA_UNG
  0
POLYLINE
  5
50C
330
1F
100
AcDbEntity
  8
BEMA_UNG
 62
     7
100
AcDb2dPolyline
 66
     1
 10
0.0
 20
0.0
 30
0.0
  0
VERTEX
  5
50D
330
50C
100
AcDbEntity
  8
BEMA_UNG
 62
     7
100
AcDbVertex
100
AcDb2dVertex
 10
75.93202164413039
 20
-30.13625102010172
 30
0.0
  0
VERTEX
  5
50E
330
50C
100
AcDbEntity
  8
BEMA_UNG
 62
     7
100
AcDbVertex
100
AcDb2dVertex
 10
75.93202164413039
 20
-31.70687108795645
 30
0.0
  0
SEQEND
  5
50F
330
50C
100
AcDbEntity
  8
BEMA_UNG
  0
POLYLINE
  5
510
330
1F
100
AcDbEntity
  8
BEMA_UNG
 62
     7
100
AcDb2dPolyline
 66
     1
 10
0.0
 20
0.0
 30
0.0
  0
VERTEX
  5
511
330
510
100
AcDbEntity
  8
BEMA_UNG
 62
     7
100
AcDbVertex
100
AcDb2dVertex
 10
75.88120645220046
 20
-30.13625102010172
 30
0.0
  0
VERTEX
  5
512
330
510
100
AcDbEntity
  8
BEMA_UNG
 62
     7
100
AcDbVertex
100
AcDb2dVertex
 10
75.88120645220046
 20
-32.09237752707237
 30
0.0
  0
SEQEND
  5
513
330
510
100
AcDbEntity
  8
BEMA_UNG
  0
POLYLINE
  5
514
330
1F
100
AcDbEntity
  8
BEMA_UNG
 62
     7
100
AcDb2dPolyline
 66
     1
 10
0.0
 20
0.0
 30
0.0
  0
VERTEX
  5
515
330
514
100
AcDbEntity
  8
BEMA_UNG
 62
     7
100
AcDbVertex
100
AcDb2dVertex
 10
75.83039126027052
 20
-30.13625102010172
 30
0.0
  0
VERTEX
  5
516
330
514
100
AcDbEntity
  8
BEMA_UNG
 62
     7
100
AcDbVertex
100
AcDb2dVertex
 10
75.83039126027052
 20
-32.47874524062777
 30
0.0
  0
SEQEND
  5
517
330
514
100
AcDbEntity
  8
BEMA_UNG
  0
POLYLINE
  5
518
330
1F
100
AcDbEntity
  8
BEMA_UNG
 62
     7
100
AcDb2dPolyline
 66
     1
 10
0.0
 20
0.0
 30
0.0
  0
VERTEX
  5
519
330
518
100
AcDbEntity
  8
BEMA_UNG
 62
     7
100
AcDbVertex
100
AcDb2dVertex
 10
75.77957606834059
 20
-30.13625102010172
 30
0.0
  0
VERTEX
  5
51A
330
518
100
AcDbEntity
  8
BEMA_UNG
 62
     7
100
AcDbVertex
100
AcDb2dVertex
 10
75.77957606834059
 20
-32.86442393463158
 30
0.0
  0
SEQEND
  5
51B
330
518
100
AcDbEntity
  8
BEMA_UNG
  0
POLYLINE
  5
51C
330
1F
100
AcDbEntity
  8
BEMA_UNG
 62
     7
100
AcDb2dPolyline
 66
     1
 10
0.0
 20
0.0
 30
0.0
  0
VERTEX
  5
51D
330
51C
100
AcDbEntity
  8
BEMA_UNG
 62
     7
100
AcDbVertex
100
AcDb2dVertex
 10
75.72876087641065
 20
-30.13625102010172
 30
0.0
  0
VERTEX
  5
51E
330
51C
100
AcDbEntity
  8
BEMA_UNG
 62
     7
100
AcDbVertex
100
AcDb2dVertex
 10
75.72876087641065
 20
-33.25061939329908
 30
0.0
  0
SEQEND
  5
51F
330
51C
100
AcDbEntity
  8
BEMA_UNG
  0
POLYLINE
  5
520
330
1F
100
AcDbEntity
  8
BEMA_UNG
 62
     7
100
AcDb2dPolyline
 66
     1
 10
0.0
 20
0.0
 30
0.0
  0
VERTEX
  5
521
330
520
100
AcDbEntity
  8
BEMA_UNG
 62
     7
100
AcDbVertex
100
AcDb2dVertex
 10
75.67794568448072
 20
-30.13625102010172
 30
0.0
  0
VERTEX
  5
522
330
520
100
AcDbEntity
  8
BEMA_UNG
 62
     7
100
AcDbVertex
100
AcDb2dVertex
 10
75.67794568448072
 20
-33.6357813226392
 30
0.0
  0
SEQEND
  5
523
330
520
100
AcDbEntity
  8
BEMA_UNG
  0
POLYLINE
  5
524
330
1F
100
AcDbEntity
  8
BEMA_UNG
 62
     7
100
AcDb2dPolyline
 66
     1
 10
0.0
 20
0.0
 30
0.0
  0
VERTEX
  5
525
330
524
100
AcDbEntity
  8
BEMA_UNG
 62
     7
100
AcDbVertex
100
AcDb2dVertex
 10
75.22043670222341
 20
-30.13625102010172
 30
0.0
  0
VERTEX
  5
526
330
524
100
AcDbEntity
  8
BEMA_UNG
 62
     7
100
AcDbVertex
100
AcDb2dVertex
 10
75.22043670222341
 20
-30.16346729238962
 30
0.0
  0
SEQEND
  5
527
330
524
100
AcDbEntity
  8
BEMA_UNG
  0
POLYLINE
  5
528
330
1F
100
AcDbEntity
  8
BEMA_UNG
 62
     7
100
AcDb2dPolyline
 66
     1
 10
0.0
 20
0.0
 30
0.0
  0
VERTEX
  5
529
330
528
100
AcDbEntity
  8
BEMA_UNG
 62
     7
100
AcDbVertex
100
AcDb2dVertex
 10
75.22043670222341
 20
-30.13625102010172
 30
0.0
  0
VERTEX
  5
52A
330
528
100
AcDbEntity
  8
BEMA_UNG
 62
     7
100
AcDbVertex
100
AcDb2dVertex
 10
75.22043670222341
 20
-30.16346729238962
 30
0.0
  0
SEQEND
  5
52B
330
528
100
AcDbEntity
  8
BEMA_UNG
  0
POLYLINE
  5
52C
330
1F
100
AcDbEntity
  8
BEMA_UNG
 62
     7
100
AcDb2dPolyline
 66
     1
 10
0.0
 20
0.0
 30
0.0
  0
VERTEX
  5
52D
330
52C
100
AcDbEntity
  8
BEMA_UNG
 62
     7
100
AcDbVertex
100
AcDb2dVertex
 10
75.27125189415334
 20
-30.13625102010172
 30
0.0
  0
VERTEX
  5
52E
330
52C
100
AcDbEntity
  8
BEMA_UNG
 62
     7
100
AcDbVertex
100
AcDb2dVertex
 10
75.27125189415334
 20
-30.54897373150553
 30
0.0
  0
SEQEND
  5
52F
330
52C
100
AcDbEntity
  8
BEMA_UNG
  0
POLYLINE
  5
530
330
1F
100
AcDbEntity
  8
BEMA_UNG
 62
     7
100
AcDb2dPolyline
 66
     1
 10
0.0
 20
0.0
 30
0.0
  0
VERTEX
  5
531
330
530
100
AcDbEntity
  8
BEMA_UNG
 62
     7
100
AcDbVertex
100
AcDb2dVertex
 10
75.32206708608328
 20
-30.13625102010172
 30
0.0
  0
VERTEX
  5
532
330
530
100
AcDbEntity
  8
BEMA_UNG
 62
     7
100
AcDbVertex
100
AcDb2dVertex
 10
75.32206708608328
 20
-30.93534144506093
 30
0.0
  0
SEQEND
  5
533
330
530
100
AcDbEntity
  8
BEMA_UNG
  0
POLYLINE
  5
534
330
1F
100
AcDbEntity
  8
BEMA_UNG
 62
     7
100
AcDb2dPolyline
 66
     1
 10
0.0
 20
0.0
 30
0.0
  0
VERTEX
  5
535
330
534
100
AcDbEntity
  8
BEMA_UNG
 62
     7
100
AcDbVertex
100
AcDb2dVertex
 10
75.37271002312531
 20
-30.13625102010172
 30
0.0
  0
VERTEX
  5
536
330
534
100
AcDbEntity
  8
BEMA_UNG
 62
     7
100
AcDbVertex
100
AcDb2dVertex
 10
75.37271002312531
 20
-31.32102013906474
 30
0.0
  0
SEQEND
  5
537
330
534
100
AcDbEntity
  8
BEMA_UNG
  0
POLYLINE
  5
538
330
1F
100
AcDbEntity
  8
BEMA_UNG
 62
     7
100
AcDb2dPolyline
 66
     1
 10
0.0
 20
0.0
 30
0.0
  0
VERTEX
  5
539
330
538
100
AcDbEntity
  8
BEMA_UNG
 62
     7
100
AcDbVertex
100
AcDb2dVertex
 10
75.42352521505525
 20
-30.13625102010172
 30
0.0
  0
VERTEX
  5
53A
330
538
100
AcDbEntity
  8
BEMA_UNG
 62
     7
100
AcDbVertex
100
AcDb2dVertex
 10
75.42352521505525
 20
-31.70687108795645
 30
0.0
  0
SEQEND
  5
53B
330
538
100
AcDbEntity
  8
BEMA_UNG
  0
POLYLINE
  5
53C
330
1F
100
AcDbEntity
  8
BEMA_UNG
 62
     7
100
AcDb2dPolyline
 66
     1
 10
0.0
 20
0.0
 30
0.0
  0
VERTEX
  5
53D
330
53C
100
AcDbEntity
  8
BEMA_UNG
 62
     7
100
AcDbVertex
100
AcDb2dVertex
 10
75.47468491676098
 20
-30.13625102010172
 30
0.0
  0
VERTEX
  5
53E
330
53C
100
AcDbEntity
  8
BEMA_UNG
 62
     7
100
AcDbVertex
100
AcDb2dVertex
 10
75.47468491676098
 20
-32.09237752707237
 30
0.0
  0
SEQEND
  5
53F
330
53C
100
AcDbEntity
  8
BEMA_UNG
  0
POLYLINE
  5
540
330
1F
100
AcDbEntity
  8
BEMA_UNG
 62
     7
100
AcDb2dPolyline
 66
     1
 10
0.0
 20
0.0
 30
0.0
  0
VERTEX
  5
541
330
540
100
AcDbEntity
  8
BEMA_UNG
 62
     7
100
AcDbVertex
100
AcDb2dVertex
 10
75.5255001086909
 20
-30.13625102010172
 30
0.0
  0
VERTEX
  5
542
330
540
100
AcDbEntity
  8
BEMA_UNG
 62
     7
100
AcDbVertex
100
AcDb2dVertex
 10
75.5255001086909
 20
-32.47874524062777
 30
0.0
  0
SEQEND
  5
543
330
540
100
AcDbEntity
  8
BEMA_UNG
  0
POLYLINE
  5
544
330
1F
100
AcDbEntity
  8
BEMA_UNG
 62
     7
100
AcDb2dPolyline
 66
     1
 10
0.0
 20
0.0
 30
0.0
  0
VERTEX
  5
545
330
544
100
AcDbEntity
  8
BEMA_UNG
 62
     7
100
AcDbVertex
100
AcDb2dVertex
 10
75.57631530062085
 20
-30.13625102010172
 30
0.0
  0
VERTEX
  5
546
330
544
100
AcDbEntity
  8
BEMA_UNG
 62
     7
100
AcDbVertex
100
AcDb2dVertex
 10
75.57631530062085
 20
-32.86442393463158
 30
0.0
  0
SEQEND
  5
547
330
544
100
AcDbEntity
  8
BEMA_UNG
  0
POLYLINE
  5
548
330
1F
100
AcDbEntity
  8
BEMA_UNG
 62
     7
100
AcDb2dPolyline
 66
     1
 10
0.0
 20
0.0
 30
0.0
  0
VERTEX
  5
549
330
548
100
AcDbEntity
  8
BEMA_UNG
 62
     7
100
AcDbVertex
100
AcDb2dVertex
 10
75.62713049255078
 20
-30.13625102010172
 30
0.0
  0
VERTEX
  5
54A
330
548
100
AcDbEntity
  8
BEMA_UNG
 62
     7
100
AcDbVertex
100
AcDb2dVertex
 10
75.62713049255078
 20
-33.25061939329908
 30
0.0
  0
SEQEND
  5
54B
330
548
100
AcDbEntity
  8
BEMA_UNG
  0
POLYLINE
  5
54C
330
1F
100
AcDbEntity
  8
BEMA_UNG
 62
     7
100
AcDb2dPolyline
 66
     1
 10
0.0
 20
0.0
 30
0.0
  0
VERTEX
  5
54D
330
54C
100
AcDbEntity
  8
BEMA_UNG
 62
     7
100
AcDbVertex
100
AcDb2dVertex
 10
75.67794568448072
 20
-30.13625102010172
 30
0.0
  0
VERTEX
  5
54E
330
54C
100
AcDbEntity
  8
BEMA_UNG
 62
     7
100
AcDbVertex
100
AcDb2dVertex
 10
75.67794568448072
 20
-33.6357813226392
 30
0.0
  0
SEQEND
  5
54F
330
54C
100
AcDbEntity
  8
BEMA_UNG
  0
POLYLINE
  5
550
330
1F
100
AcDbEntity
  8
BEMA_UNG
 62
     7
100
AcDb2dPolyline
 66
     1
 10
0.0
 20
0.0
 30
0.0
  0
VERTEX
  5
551
330
550
100
AcDbEntity
  8
BEMA_UNG
 62
     7
100
AcDbVertex
100
AcDb2dVertex
 10
60.905366498341
 20
-8.196662713186399
 30
0.0
  0
VERTEX
  5
552
330
550
100
AcDbEntity
  8
BEMA_UNG
 62
     7
100
AcDbVertex
100
AcDb2dVertex
 10
60.905366498341
 20
-47.0520255214694
 30
0.0
  0
SEQEND
  5
553
330
550
100
AcDbEntity
  8
BEMA_UNG
  0
POLYLINE
  5
554
330
1F
100
AcDbEntity
  8
BEMA_UNG
 62
     7
100
AcDb2dPolyline
 66
     1
 10
0.0
 20
0.0
 30
0.0
  0
VERTEX
  5
555
330
554
100
AcDbEntity
  8
BEMA_UNG
 62
     7
100
AcDbVertex
100
AcDb2dVertex
 10
-0.0921563650254752
 20
-30.00654308951446
 30
0.0
  0
VERTEX
  5
556
330
554
100
AcDbEntity
  8
BEMA_UNG
 62
     7
100
AcDbVertex
100
AcDb2dVertex
 10
-0.0921563650254752
 20
-47.0520255214694
 30
0.0
  0
SEQEND
  5
557
330
554
100
AcDbEntity
  8
BEMA_UNG
  0
POLYLINE
  5
558
330
1F
100
AcDbEntity
  8
BEMA_UNG
 62
     7
100
AcDb2dPolyline
 66
     1
 10
0.0
 20
0.0
 30
0.0
  0
VERTEX
  5
559
330
558
100
AcDbEntity
  8
BEMA_UNG
 62
     7
100
AcDbVertex
100
AcDb2dVertex
 10
60.905366498341
 20
-45.05180176319685
 30
0.0
  0
VERTEX
  5
55A
330
558
100
AcDbEntity
  8
BEMA_UNG
 62
     7
100
AcDbVertex
100
AcDb2dVertex
 10
-0.0921563650254752
 20
-45.05180176319685
 30
0.0
  0
SEQEND
  5
55B
330
558
100
AcDbEntity
  8
BEMA_UNG
  0
POLYLINE
  5
55C
330
1F
100
AcDbEntity
  8
BEMA_UNG
 62
     7
100
AcDb2dPolyline
 66
     1
 10
0.0
 20
0.0
 30
0.0
  0
VERTEX
  5
55D
330
55C
100
AcDbEntity
  8
BEMA_UNG
 62
     7
100
AcDbVertex
100
AcDb2dVertex
 10
60.905366498341
 20
-45.05180176319685
 30
0.0
  0
VERTEX
  5
55E
330
55C
100
AcDbEntity
  8
BEMA_UNG
 62
     7
100
AcDbVertex
100
AcDb2dVertex
 10
57.40514717625192
 20
-44.59136444784527
 30
0.0
  0
VERTEX
  5
55F
330
55C
100
AcDbEntity
  8
BEMA_UNG
 62
     7
100
AcDbVertex
100
AcDb2dVertex
 10
57.40514717625192
 20
-45.51241133343633
 30
0.0
  0
VERTEX
  5
560
330
55C
100
AcDbEntity
  8
BEMA_UNG
 62
     7
100
AcDbVertex
100
AcDb2dVertex
 10
60.905366498341
 20
-45.05180176319685
 30
0.0
  0
SEQEND
  5
561
330
55C
100
AcDbEntity
  8
BEMA_UNG
  0
POLYLINE
  5
562
330
1F
100
AcDbEntity
  8
BEMA_UNG
 62
     7
100
AcDb2dPolyline
 66
     1
 10
0.0
 20
0.0
 30
0.0
  0
VERTEX
  5
563
330
562
100
AcDbEntity
  8
BEMA_UNG
 62
     7
100
AcDbVertex
100
AcDb2dVertex
 10
57.40514717625192
 20
-44.59498180049113
 30
0.0
  0
VERTEX
  5
564
330
562
100
AcDbEntity
  8
BEMA_UNG
 62
     7
100
AcDbVertex
100
AcDb2dVertex
 10
57.43270795831562
 20
-44.59498180049113
 30
0.0
  0
SEQEND
  5
565
330
562
100
AcDbEntity
  8
BEMA_UNG
  0
POLYLINE
  5
566
330
1F
100
AcDbEntity
  8
BEMA_UNG
 62
     7
100
AcDb2dPolyline
 66
     1
 10
0.0
 20
0.0
 30
0.0
  0
VERTEX
  5
567
330
566
100
AcDbEntity
  8
BEMA_UNG
 62
     7
100
AcDbVertex
100
AcDb2dVertex
 10
57.40514717625192
 20
-44.59498180049113
 30
0.0
  0
VERTEX
  5
568
330
566
100
AcDbEntity
  8
BEMA_UNG
 62
     7
100
AcDbVertex
100
AcDb2dVertex
 10
57.43270795831562
 20
-44.59498180049113
 30
0.0
  0
SEQEND
  5
569
330
566
100
AcDbEntity
  8
BEMA_UNG
  0
POLYLINE
  5
56A
330
1F
100
AcDbEntity
  8
BEMA_UNG
 62
     7
100
AcDb2dPolyline
 66
     1
 10
0.0
 20
0.0
 30
0.0
  0
VERTEX
  5
56B
330
56A
100
AcDbEntity
  8
BEMA_UNG
 62
     7
100
AcDbVertex
100
AcDb2dVertex
 10
57.40514717625192
 20
-44.64562473753316
 30
0.0
  0
VERTEX
  5
56C
330
56A
100
AcDbEntity
  8
BEMA_UNG
 62
     7
100
AcDbVertex
100
AcDb2dVertex
 10
57.81786988765573
 20
-44.64562473753316
 30
0.0
  0
SEQEND
  5
56D
330
56A
100
AcDbEntity
  8
BEMA_UNG
  0
POLYLINE
  5
56E
330
1F
100
AcDbEntity
  8
BEMA_UNG
 62
     7
100
AcDb2dPolyline
 66
     1
 10
0.0
 20
0.0
 30
0.0
  0
VERTEX
  5
56F
330
56E
100
AcDbEntity
  8
BEMA_UNG
 62
     7
100
AcDbVertex
100
AcDb2dVertex
 10
57.40514717625192
 20
-44.696612184351
 30
0.0
  0
VERTEX
  5
570
330
56E
100
AcDbEntity
  8
BEMA_UNG
 62
     7
100
AcDbVertex
100
AcDb2dVertex
 10
58.20406534632323
 20
-44.696612184351
 30
0.0
  0
SEQEND
  5
571
330
56E
100
AcDbEntity
  8
BEMA_UNG
  0
POLYLINE
  5
572
330
1F
100
AcDbEntity
  8
BEMA_UNG
 62
     7
100
AcDb2dPolyline
 66
     1
 10
0.0
 20
0.0
 30
0.0
  0
VERTEX
  5
573
330
572
100
AcDbEntity
  8
BEMA_UNG
 62
     7
100
AcDbVertex
100
AcDb2dVertex
 10
57.40514717625192
 20
-44.74725512139303
 30
0.0
  0
VERTEX
  5
574
330
572
100
AcDbEntity
  8
BEMA_UNG
 62
     7
100
AcDbVertex
100
AcDb2dVertex
 10
58.58974404032705
 20
-44.74725512139303
 30
0.0
  0
SEQEND
  5
575
330
572
100
AcDbEntity
  8
BEMA_UNG
  0
POLYLINE
  5
576
330
1F
100
AcDbEntity
  8
BEMA_UNG
 62
     7
100
AcDb2dPolyline
 66
     1
 10
0.0
 20
0.0
 30
0.0
  0
VERTEX
  5
577
330
576
100
AcDbEntity
  8
BEMA_UNG
 62
     7
100
AcDbVertex
100
AcDb2dVertex
 10
57.40514717625192
 20
-44.79807031332297
 30
0.0
  0
VERTEX
  5
578
330
576
100
AcDbEntity
  8
BEMA_UNG
 62
     7
100
AcDbVertex
100
AcDb2dVertex
 10
58.97611175388245
 20
-44.79807031332297
 30
0.0
  0
SEQEND
  5
579
330
576
100
AcDbEntity
  8
BEMA_UNG
  0
POLYLINE
  5
57A
330
1F
100
AcDbEntity
  8
BEMA_UNG
 62
     7
100
AcDb2dPolyline
 66
     1
 10
0.0
 20
0.0
 30
0.0
  0
VERTEX
  5
57B
330
57A
100
AcDbEntity
  8
BEMA_UNG
 62
     7
100
AcDbVertex
100
AcDb2dVertex
 10
57.40514717625192
 20
-44.8488855052529
 30
0.0
  0
VERTEX
  5
57C
330
57A
100
AcDbEntity
  8
BEMA_UNG
 62
     7
100
AcDbVertex
100
AcDb2dVertex
 10
59.36196270277416
 20
-44.8488855052529
 30
0.0
  0
SEQEND
  5
57D
330
57A
100
AcDbEntity
  8
BEMA_UNG
  0
POLYLINE
  5
57E
330
1F
100
AcDbEntity
  8
BEMA_UNG
 62
     7
100
AcDb2dPolyline
 66
     1
 10
0.0
 20
0.0
 30
0.0
  0
VERTEX
  5
57F
330
57E
100
AcDbEntity
  8
BEMA_UNG
 62
     7
100
AcDbVertex
100
AcDb2dVertex
 10
57.40514717625192
 20
-44.89970069718284
 30
0.0
  0
VERTEX
  5
580
330
57E
100
AcDbEntity
  8
BEMA_UNG
 62
     7
100
AcDbVertex
100
AcDb2dVertex
 10
59.74746914189007
 20
-44.89970069718284
 30
0.0
  0
SEQEND
  5
581
330
57E
100
AcDbEntity
  8
BEMA_UNG
  0
POLYLINE
  5
582
330
1F
100
AcDbEntity
  8
BEMA_UNG
 62
     7
100
AcDb2dPolyline
 66
     1
 10
0.0
 20
0.0
 30
0.0
  0
VERTEX
  5
583
330
582
100
AcDbEntity
  8
BEMA_UNG
 62
     7
100
AcDbVertex
100
AcDb2dVertex
 10
57.40514717625192
 20
-44.95017137933698
 30
0.0
  0
VERTEX
  5
584
330
582
100
AcDbEntity
  8
BEMA_UNG
 62
     7
100
AcDbVertex
100
AcDb2dVertex
 10
60.13314783589389
 20
-44.95017137933698
 30
0.0
  0
SEQEND
  5
585
330
582
100
AcDbEntity
  8
BEMA_UNG
  0
POLYLINE
  5
586
330
1F
100
AcDbEntity
  8
BEMA_UNG
 62
     7
100
AcDb2dPolyline
 66
     1
 10
0.0
 20
0.0
 30
0.0
  0
VERTEX
  5
587
330
586
100
AcDbEntity
  8
BEMA_UNG
 62
     7
100
AcDbVertex
100
AcDb2dVertex
 10
57.40514717625192
 20
-45.00098657126691
 30
0.0
  0
VERTEX
  5
588
330
586
100
AcDbEntity
  8
BEMA_UNG
 62
     7
100
AcDbVertex
100
AcDb2dVertex
 10
60.51951554944929
 20
-45.00098657126691
 30
0.0
  0
SEQEND
  5
589
330
586
100
AcDbEntity
  8
BEMA_UNG
  0
POLYLINE
  5
58A
330
1F
100
AcDbEntity
  8
BEMA_UNG
 62
     7
100
AcDb2dPolyline
 66
     1
 10
0.0
 20
0.0
 30
0.0
  0
VERTEX
  5
58B
330
58A
100
AcDbEntity
  8
BEMA_UNG
 62
     7
100
AcDbVertex
100
AcDb2dVertex
 10
57.40514717625192
 20
-45.05180176319685
 30
0.0
  0
VERTEX
  5
58C
330
58A
100
AcDbEntity
  8
BEMA_UNG
 62
     7
100
AcDbVertex
100
AcDb2dVertex
 10
60.905366498341
 20
-45.05180176319685
 30
0.0
  0
SEQEND
  5
58D
330
58A
100
AcDbEntity
  8
BEMA_UNG
  0
POLYLINE
  5
58E
330
1F
100
AcDbEntity
  8
BEMA_UNG
 62
     7
100
AcDb2dPolyline
 66
     1
 10
0.0
 20
0.0
 30
0.0
  0
VERTEX
  5
58F
330
58E
100
AcDbEntity
  8
BEMA_UNG
 62
     7
100
AcDbVertex
100
AcDb2dVertex
 10
57.40514717625192
 20
-45.50931074545416
 30
0.0
  0
VERTEX
  5
590
330
58E
100
AcDbEntity
  8
BEMA_UNG
 62
     7
100
AcDbVertex
100
AcDb2dVertex
 10
57.43270795831562
 20
-45.50931074545416
 30
0.0
  0
SEQEND
  5
591
330
58E
100
AcDbEntity
  8
BEMA_UNG
  0
POLYLINE
  5
592
330
1F
100
AcDbEntity
  8
BEMA_UNG
 62
     7
100
AcDb2dPolyline
 66
     1
 10
0.0
 20
0.0
 30
0.0
  0
VERTEX
  5
593
330
592
100
AcDbEntity
  8
BEMA_UNG
 62
     7
100
AcDbVertex
100
AcDb2dVertex
 10
57.40514717625192
 20
-45.50931074545416
 30
0.0
  0
VERTEX
  5
594
330
592
100
AcDbEntity
  8
BEMA_UNG
 62
     7
100
AcDbVertex
100
AcDb2dVertex
 10
57.43270795831562
 20
-45.50931074545416
 30
0.0
  0
SEQEND
  5
595
330
592
100
AcDbEntity
  8
BEMA_UNG
  0
POLYLINE
  5
596
330
1F
100
AcDbEntity
  8
BEMA_UNG
 62
     7
100
AcDb2dPolyline
 66
     1
 10
0.0
 20
0.0
 30
0.0
  0
VERTEX
  5
597
330
596
100
AcDbEntity
  8
BEMA_UNG
 62
     7
100
AcDbVertex
100
AcDb2dVertex
 10
57.40514717625192
 20
-45.45849555352422
 30
0.0
  0
VERTEX
  5
598
330
596
100
AcDbEntity
  8
BEMA_UNG
 62
     7
100
AcDbVertex
100
AcDb2dVertex
 10
57.81786988765573
 20
-45.45849555352422
 30
0.0
  0
SEQEND
  5
599
330
596
100
AcDbEntity
  8
BEMA_UNG
  0
POLYLINE
  5
59A
330
1F
100
AcDbEntity
  8
BEMA_UNG
 62
     7
100
AcDb2dPolyline
 66
     1
 10
0.0
 20
0.0
 30
0.0
  0
VERTEX
  5
59B
330
59A
100
AcDbEntity
  8
BEMA_UNG
 62
     7
100
AcDbVertex
100
AcDb2dVertex
 10
57.40514717625192
 20
-45.40733585181849
 30
0.0
  0
VERTEX
  5
59C
330
59A
100
AcDbEntity
  8
BEMA_UNG
 62
     7
100
AcDbVertex
100
AcDb2dVertex
 10
58.20406534632323
 20
-45.40733585181849
 30
0.0
  0
SEQEND
  5
59D
330
59A
100
AcDbEntity
  8
BEMA_UNG
  0
POLYLINE
  5
59E
330
1F
100
AcDbEntity
  8
BEMA_UNG
 62
     7
100
AcDb2dPolyline
 66
     1
 10
0.0
 20
0.0
 30
0.0
  0
VERTEX
  5
59F
330
59E
100
AcDbEntity
  8
BEMA_UNG
 62
     7
100
AcDbVertex
100
AcDb2dVertex
 10
57.40514717625192
 20
-45.35652065988856
 30
0.0
  0
VERTEX
  5
5A0
330
59E
100
AcDbEntity
  8
BEMA_UNG
 62
     7
100
AcDbVertex
100
AcDb2dVertex
 10
58.58974404032705
 20
-45.35652065988856
 30
0.0
  0
SEQEND
  5
5A1
330
59E
100
AcDbEntity
  8
BEMA_UNG
  0
POLYLINE
  5
5A2
330
1F
100
AcDbEntity
  8
BEMA_UNG
 62
     7
100
AcDb2dPolyline
 66
     1
 10
0.0
 20
0.0
 30
0.0
  0
VERTEX
  5
5A3
330
5A2
100
AcDbEntity
  8
BEMA_UNG
 62
     7
100
AcDbVertex
100
AcDb2dVertex
 10
57.40514717625192
 20
-45.30570546795862
 30
0.0
  0
VERTEX
  5
5A4
330
5A2
100
AcDbEntity
  8
BEMA_UNG
 62
     7
100
AcDbVertex
100
AcDb2dVertex
 10
58.97611175388245
 20
-45.30570546795862
 30
0.0
  0
SEQEND
  5
5A5
330
5A2
100
AcDbEntity
  8
BEMA_UNG
  0
POLYLINE
  5
5A6
330
1F
100
AcDbEntity
  8
BEMA_UNG
 62
     7
100
AcDb2dPolyline
 66
     1
 10
0.0
 20
0.0
 30
0.0
  0
VERTEX
  5
5A7
330
5A6
100
AcDbEntity
  8
BEMA_UNG
 62
     7
100
AcDbVertex
100
AcDb2dVertex
 10
57.40514717625192
 20
-45.25506253091659
 30
0.0
  0
VERTEX
  5
5A8
330
5A6
100
AcDbEntity
  8
BEMA_UNG
 62
     7
100
AcDbVertex
100
AcDb2dVertex
 10
59.36196270277416
 20
-45.25506253091659
 30
0.0
  0
SEQEND
  5
5A9
330
5A6
100
AcDbEntity
  8
BEMA_UNG
  0
POLYLINE
  5
5AA
330
1F
100
AcDbEntity
  8
BEMA_UNG
 62
     7
100
AcDb2dPolyline
 66
     1
 10
0.0
 20
0.0
 30
0.0
  0
VERTEX
  5
5AB
330
5AA
100
AcDbEntity
  8
BEMA_UNG
 62
     7
100
AcDbVertex
100
AcDb2dVertex
 10
57.40514717625192
 20
-45.20407508409875
 30
0.0
  0
VERTEX
  5
5AC
330
5AA
100
AcDbEntity
  8
BEMA_UNG
 62
     7
100
AcDbVertex
100
AcDb2dVertex
 10
59.74746914189007
 20
-45.20407508409875
 30
0.0
  0
SEQEND
  5
5AD
330
5AA
100
AcDbEntity
  8
BEMA_UNG
  0
POLYLINE
  5
5AE
330
1F
100
AcDbEntity
  8
BEMA_UNG
 62
     7
100
AcDb2dPolyline
 66
     1
 10
0.0
 20
0.0
 30
0.0
  0
VERTEX
  5
5AF
330
5AE
100
AcDbEntity
  8
BEMA_UNG
 62
     7
100
AcDbVertex
100
AcDb2dVertex
 10
57.40514717625192
 20
-45.15343214705672
 30
0.0
  0
VERTEX
  5
5B0
330
5AE
100
AcDbEntity
  8
BEMA_UNG
 62
     7
100
AcDbVertex
100
AcDb2dVertex
 10
60.13314783589389
 20
-45.15343214705672
 30
0.0
  0
SEQEND
  5
5B1
330
5AE
100
AcDbEntity
  8
BEMA_UNG
  0
POLYLINE
  5
5B2
330
1F
100
AcDbEntity
  8
BEMA_UNG
 62
     7
100
AcDb2dPolyline
 66
     1
 10
0.0
 20
0.0
 30
0.0
  0
VERTEX
  5
5B3
330
5B2
100
AcDbEntity
  8
BEMA_UNG
 62
     7
100
AcDbVertex
100
AcDb2dVertex
 10
57.40514717625192
 20
-45.10261695512678
 30
0.0
  0
VERTEX
  5
5B4
330
5B2
100
AcDbEntity
  8
BEMA_UNG
 62
     7
100
AcDbVertex
100
AcDb2dVertex
 10
60.51951554944929
 20
-45.10261695512678
 30
0.0
  0
SEQEND
  5
5B5
330
5B2
100
AcDbEntity
  8
BEMA_UNG
  0
POLYLINE
  5
5B6
330
1F
100
AcDbEntity
  8
BEMA_UNG
 62
     7
100
AcDb2dPolyline
 66
     1
 10
0.0
 20
0.0
 30
0.0
  0
VERTEX
  5
5B7
330
5B6
100
AcDbEntity
  8
BEMA_UNG
 62
     7
100
AcDbVertex
100
AcDb2dVertex
 10
57.40514717625192
 20
-45.05180176319685
 30
0.0
  0
VERTEX
  5
5B8
330
5B6
100
AcDbEntity
  8
BEMA_UNG
 62
     7
100
AcDbVertex
100
AcDb2dVertex
 10
60.905366498341
 20
-45.05180176319685
 30
0.0
  0
SEQEND
  5
5B9
330
5B6
100
AcDbEntity
  8
BEMA_UNG
  0
POLYLINE
  5
5BA
330
1F
100
AcDbEntity
  8
BEMA_UNG
 62
     7
100
AcDb2dPolyline
 66
     1
 10
0.0
 20
0.0
 30
0.0
  0
VERTEX
  5
5BB
330
5BA
100
AcDbEntity
  8
BEMA_UNG
 62
     7
100
AcDbVertex
100
AcDb2dVertex
 10
-0.0921563650254752
 20
-45.05180176319685
 30
0.0
  0
VERTEX
  5
5BC
330
5BA
100
AcDbEntity
  8
BEMA_UNG
 62
     7
100
AcDbVertex
100
AcDb2dVertex
 10
3.408235211951498
 20
-45.51241133343633
 30
0.0
  0
VERTEX
  5
5BD
330
5BA
100
AcDbEntity
  8
BEMA_UNG
 62
     7
100
AcDbVertex
100
AcDb2dVertex
 10
3.408235211951498
 20
-44.59136444784527
 30
0.0
  0
VERTEX
  5
5BE
330
5BA
100
AcDbEntity
  8
BEMA_UNG
 62
     7
100
AcDbVertex
100
AcDb2dVertex
 10
-0.0921563650254752
 20
-45.05180176319685
 30
0.0
  0
SEQEND
  5
5BF
330
5BA
100
AcDbEntity
  8
BEMA_UNG
  0
POLYLINE
  5
5C0
330
1F
100
AcDbEntity
  8
BEMA_UNG
 62
     7
100
AcDb2dPolyline
 66
     1
 10
0.0
 20
0.0
 30
0.0
  0
VERTEX
  5
5C1
330
5C0
100
AcDbEntity
  8
BEMA_UNG
 62
     7
100
AcDbVertex
100
AcDb2dVertex
 10
3.408235211951498
 20
-45.50931074545416
 30
0.0
  0
VERTEX
  5
5C2
330
5C0
100
AcDbEntity
  8
BEMA_UNG
 62
     7
100
AcDbVertex
100
AcDb2dVertex
 10
3.381018939663601
 20
-45.50931074545416
 30
0.0
  0
SEQEND
  5
5C3
330
5C0
100
AcDbEntity
  8
BEMA_UNG
  0
POLYLINE
  5
5C4
330
1F
100
AcDbEntity
  8
BEMA_UNG
 62
     7
100
AcDb2dPolyline
 66
     1
 10
0.0
 20
0.0
 30
0.0
  0
VERTEX
  5
5C5
330
5C4
100
AcDbEntity
  8
BEMA_UNG
 62
     7
100
AcDbVertex
100
AcDb2dVertex
 10
3.408235211951498
 20
-45.50931074545416
 30
0.0
  0
VERTEX
  5
5C6
330
5C4
100
AcDbEntity
  8
BEMA_UNG
 62
     7
100
AcDbVertex
100
AcDb2dVertex
 10
3.381018939663601
 20
-45.50931074545416
 30
0.0
  0
SEQEND
  5
5C7
330
5C4
100
AcDbEntity
  8
BEMA_UNG
  0
POLYLINE
  5
5C8
330
1F
100
AcDbEntity
  8
BEMA_UNG
 62
     7
100
AcDb2dPolyline
 66
     1
 10
0.0
 20
0.0
 30
0.0
  0
VERTEX
  5
5C9
330
5C8
100
AcDbEntity
  8
BEMA_UNG
 62
     7
100
AcDbVertex
100
AcDb2dVertex
 10
3.408235211951498
 20
-45.45849555352422
 30
0.0
  0
VERTEX
  5
5CA
330
5C8
100
AcDbEntity
  8
BEMA_UNG
 62
     7
100
AcDbVertex
100
AcDb2dVertex
 10
2.995167990771892
 20
-45.45849555352422
 30
0.0
  0
SEQEND
  5
5CB
330
5C8
100
AcDbEntity
  8
BEMA_UNG
  0
POLYLINE
  5
5CC
330
1F
100
AcDbEntity
  8
BEMA_UNG
 62
     7
100
AcDb2dPolyline
 66
     1
 10
0.0
 20
0.0
 30
0.0
  0
VERTEX
  5
5CD
330
5CC
100
AcDbEntity
  8
BEMA_UNG
 62
     7
100
AcDbVertex
100
AcDb2dVertex
 10
3.408235211951498
 20
-45.40733585181849
 30
0.0
  0
VERTEX
  5
5CE
330
5CC
100
AcDbEntity
  8
BEMA_UNG
 62
     7
100
AcDbVertex
100
AcDb2dVertex
 10
2.609489296768081
 20
-45.40733585181849
 30
0.0
  0
SEQEND
  5
5CF
330
5CC
100
AcDbEntity
  8
BEMA_UNG
  0
POLYLINE
  5
5D0
330
1F
100
AcDbEntity
  8
BEMA_UNG
 62
     7
100
AcDb2dPolyline
 66
     1
 10
0.0
 20
0.0
 30
0.0
  0
VERTEX
  5
5D1
330
5D0
100
AcDbEntity
  8
BEMA_UNG
 62
     7
100
AcDbVertex
100
AcDb2dVertex
 10
3.408235211951498
 20
-45.35652065988856
 30
0.0
  0
VERTEX
  5
5D2
330
5D0
100
AcDbEntity
  8
BEMA_UNG
 62
     7
100
AcDbVertex
100
AcDb2dVertex
 10
2.223293838100576
 20
-45.35652065988856
 30
0.0
  0
SEQEND
  5
5D3
330
5D0
100
AcDbEntity
  8
BEMA_UNG
  0
POLYLINE
  5
5D4
330
1F
100
AcDbEntity
  8
BEMA_UNG
 62
     7
100
AcDb2dPolyline
 66
     1
 10
0.0
 20
0.0
 30
0.0
  0
VERTEX
  5
5D5
330
5D4
100
AcDbEntity
  8
BEMA_UNG
 62
     7
100
AcDbVertex
100
AcDb2dVertex
 10
3.408235211951498
 20
-45.30570546795862
 30
0.0
  0
VERTEX
  5
5D6
330
5D4
100
AcDbEntity
  8
BEMA_UNG
 62
     7
100
AcDbVertex
100
AcDb2dVertex
 10
1.837615144096765
 20
-45.30570546795862
 30
0.0
  0
SEQEND
  5
5D7
330
5D4
100
AcDbEntity
  8
BEMA_UNG
  0
POLYLINE
  5
5D8
330
1F
100
AcDbEntity
  8
BEMA_UNG
 62
     7
100
AcDb2dPolyline
 66
     1
 10
0.0
 20
0.0
 30
0.0
  0
VERTEX
  5
5D9
330
5D8
100
AcDbEntity
  8
BEMA_UNG
 62
     7
100
AcDbVertex
100
AcDb2dVertex
 10
3.408235211951498
 20
-45.25506253091659
 30
0.0
  0
VERTEX
  5
5DA
330
5D8
100
AcDbEntity
  8
BEMA_UNG
 62
     7
100
AcDbVertex
100
AcDb2dVertex
 10
1.451764195205056
 20
-45.25506253091659
 30
0.0
  0
SEQEND
  5
5DB
330
5D8
100
AcDbEntity
  8
BEMA_UNG
  0
POLYLINE
  5
5DC
330
1F
100
AcDbEntity
  8
BEMA_UNG
 62
     7
100
AcDb2dPolyline
 66
     1
 10
0.0
 20
0.0
 30
0.0
  0
VERTEX
  5
5DD
330
5DC
100
AcDbEntity
  8
BEMA_UNG
 62
     7
100
AcDbVertex
100
AcDb2dVertex
 10
3.408235211951498
 20
-45.20407508409875
 30
0.0
  0
VERTEX
  5
5DE
330
5DC
100
AcDbEntity
  8
BEMA_UNG
 62
     7
100
AcDbVertex
100
AcDb2dVertex
 10
1.066085501201244
 20
-45.20407508409875
 30
0.0
  0
SEQEND
  5
5DF
330
5DC
100
AcDbEntity
  8
BEMA_UNG
  0
POLYLINE
  5
5E0
330
1F
100
AcDbEntity
  8
BEMA_UNG
 62
     7
100
AcDb2dPolyline
 66
     1
 10
0.0
 20
0.0
 30
0.0
  0
VERTEX
  5
5E1
330
5E0
100
AcDbEntity
  8
BEMA_UNG
 62
     7
100
AcDbVertex
100
AcDb2dVertex
 10
3.408235211951498
 20
-45.15343214705672
 30
0.0
  0
VERTEX
  5
5E2
330
5E0
100
AcDbEntity
  8
BEMA_UNG
 62
     7
100
AcDbVertex
100
AcDb2dVertex
 10
0.6798900425337392
 20
-45.15343214705672
 30
0.0
  0
SEQEND
  5
5E3
330
5E0
100
AcDbEntity
  8
BEMA_UNG
  0
POLYLINE
  5
5E4
330
1F
100
AcDbEntity
  8
BEMA_UNG
 62
     7
100
AcDb2dPolyline
 66
     1
 10
0.0
 20
0.0
 30
0.0
  0
VERTEX
  5
5E5
330
5E4
100
AcDbEntity
  8
BEMA_UNG
 62
     7
100
AcDbVertex
100
AcDb2dVertex
 10
3.408235211951498
 20
-45.10261695512678
 30
0.0
  0
VERTEX
  5
5E6
330
5E4
100
AcDbEntity
  8
BEMA_UNG
 62
     7
100
AcDbVertex
100
AcDb2dVertex
 10
0.2942113485299282
 20
-45.10261695512678
 30
0.0
  0
SEQEND
  5
5E7
330
5E4
100
AcDbEntity
  8
BEMA_UNG
  0
POLYLINE
  5
5E8
330
1F
100
AcDbEntity
  8
BEMA_UNG
 62
     7
100
AcDb2dPolyline
 66
     1
 10
0.0
 20
0.0
 30
0.0
  0
VERTEX
  5
5E9
330
5E8
100
AcDbEntity
  8
BEMA_UNG
 62
     7
100
AcDbVertex
100
AcDb2dVertex
 10
3.408235211951498
 20
-45.05180176319685
 30
0.0
  0
VERTEX
  5
5EA
330
5E8
100
AcDbEntity
  8
BEMA_UNG
 62
     7
100
AcDbVertex
100
AcDb2dVertex
 10
-0.0921563650254752
 20
-45.05180176319685
 30
0.0
  0
SEQEND
  5
5EB
330
5E8
100
AcDbEntity
  8
BEMA_UNG
  0
POLYLINE
  5
5EC
330
1F
100
AcDbEntity
  8
BEMA_UNG
 62
     7
100
AcDb2dPolyline
 66
     1
 10
0.0
 20
0.0
 30
0.0
  0
VERTEX
  5
5ED
330
5EC
100
AcDbEntity
  8
BEMA_UNG
 62
     7
100
AcDbVertex
100
AcDb2dVertex
 10
3.408235211951498
 20
-44.59498180049113
 30
0.0
  0
VERTEX
  5
5EE
330
5EC
100
AcDbEntity
  8
BEMA_UNG
 62
     7
100
AcDbVertex
100
AcDb2dVertex
 10
3.381018939663601
 20
-44.59498180049113
 30
0.0
  0
SEQEND
  5
5EF
330
5EC
100
AcDbEntity
  8
BEMA_UNG
  0
POLYLINE
  5
5F0
330
1F
100
AcDbEntity
  8
BEMA_UNG
 62
     7
100
AcDb2dPolyline
 66
     1
 10
0.0
 20
0.0
 30
0.0
  0
VERTEX
  5
5F1
330
5F0
100
AcDbEntity
  8
BEMA_UNG
 62
     7
100
AcDbVertex
100
AcDb2dVertex
 10
3.408235211951498
 20
-44.59498180049113
 30
0.0
  0
VERTEX
  5
5F2
330
5F0
100
AcDbEntity
  8
BEMA_UNG
 62
     7
100
AcDbVertex
100
AcDb2dVertex
 10
3.381018939663601
 20
-44.59498180049113
 30
0.0
  0
SEQEND
  5
5F3
330
5F0
100
AcDbEntity
  8
BEMA_UNG
  0
POLYLINE
  5
5F4
330
1F
100
AcDbEntity
  8
BEMA_UNG
 62
     7
100
AcDb2dPolyline
 66
     1
 10
0.0
 20
0.0
 30
0.0
  0
VERTEX
  5
5F5
330
5F4
100
AcDbEntity
  8
BEMA_UNG
 62
     7
100
AcDbVertex
100
AcDb2dVertex
 10
3.408235211951498
 20
-44.64562473753316
 30
0.0
  0
VERTEX
  5
5F6
330
5F4
100
AcDbEntity
  8
BEMA_UNG
 62
     7
100
AcDbVertex
100
AcDb2dVertex
 10
2.995167990771892
 20
-44.64562473753316
 30
0.0
  0
SEQEND
  5
5F7
330
5F4
100
AcDbEntity
  8
BEMA_UNG
  0
POLYLINE
  5
5F8
330
1F
100
AcDbEntity
  8
BEMA_UNG
 62
     7
100
AcDb2dPolyline
 66
     1
 10
0.0
 20
0.0
 30
0.0
  0
VERTEX
  5
5F9
330
5F8
100
AcDbEntity
  8
BEMA_UNG
 62
     7
100
AcDbVertex
100
AcDb2dVertex
 10
3.408235211951498
 20
-44.696612184351
 30
0.0
  0
VERTEX
  5
5FA
330
5F8
100
AcDbEntity
  8
BEMA_UNG
 62
     7
100
AcDbVertex
100
AcDb2dVertex
 10
2.609489296768081
 20
-44.696612184351
 30
0.0
  0
SEQEND
  5
5FB
330
5F8
100
AcDbEntity
  8
BEMA_UNG
  0
POLYLINE
  5
5FC
330
1F
100
AcDbEntity
  8
BEMA_UNG
 62
     7
100
AcDb2dPolyline
 66
     1
 10
0.0
 20
0.0
 30
0.0
  0
VERTEX
  5
5FD
330
5FC
100
AcDbEntity
  8
BEMA_UNG
 62
     7
100
AcDbVertex
100
AcDb2dVertex
 10
3.408235211951498
 20
-44.74725512139303
 30
0.0
  0
VERTEX
  5
5FE
330
5FC
100
AcDbEntity
  8
BEMA_UNG
 62
     7
100
AcDbVertex
100
AcDb2dVertex
 10
2.223293838100576
 20
-44.74725512139303
 30
0.0
  0
SEQEND
  5
5FF
330
5FC
100
AcDbEntity
  8
BEMA_UNG
  0
POLYLINE
  5
600
330
1F
100
AcDbEntity
  8
BEMA_UNG
 62
     7
100
AcDb2dPolyline
 66
     1
 10
0.0
 20
0.0
 30
0.0
  0
VERTEX
  5
601
330
600
100
AcDbEntity
  8
BEMA_UNG
 62
     7
100
AcDbVertex
100
AcDb2dVertex
 10
3.408235211951498
 20
-44.79807031332297
 30
0.0
  0
VERTEX
  5
602
330
600
100
AcDbEntity
  8
BEMA_UNG
 62
     7
100
AcDbVertex
100
AcDb2dVertex
 10
1.837615144096765
 20
-44.79807031332297
 30
0.0
  0
SEQEND
  5
603
330
600
100
AcDbEntity
  8
BEMA_UNG
  0
POLYLINE
  5
604
330
1F
100
AcDbEntity
  8
BEMA_UNG
 62
     7
100
AcDb2dPolyline
 66
     1
 10
0.0
 20
0.0
 30
0.0
  0
VERTEX
  5
605
330
604
100
AcDbEntity
  8
BEMA_UNG
 62
     7
100
AcDbVertex
100
AcDb2dVertex
 10
3.408235211951498
 20
-44.8488855052529
 30
0.0
  0
VERTEX
  5
606
330
604
100
AcDbEntity
  8
BEMA_UNG
 62
     7
100
AcDbVertex
100
AcDb2dVertex
 10
1.451764195205056
 20
-44.8488855052529
 30
0.0
  0
SEQEND
  5
607
330
604
100
AcDbEntity
  8
BEMA_UNG
  0
POLYLINE
  5
608
330
1F
100
AcDbEntity
  8
BEMA_UNG
 62
     7
100
AcDb2dPolyline
 66
     1
 10
0.0
 20
0.0
 30
0.0
  0
VERTEX
  5
609
330
608
100
AcDbEntity
  8
BEMA_UNG
 62
     7
100
AcDbVertex
100
AcDb2dVertex
 10
3.408235211951498
 20
-44.89970069718284
 30
0.0
  0
VERTEX
  5
60A
330
608
100
AcDbEntity
  8
BEMA_UNG
 62
     7
100
AcDbVertex
100
AcDb2dVertex
 10
1.066085501201244
 20
-44.89970069718284
 30
0.0
  0
SEQEND
  5
60B
330
608
100
AcDbEntity
  8
BEMA_UNG
  0
POLYLINE
  5
60C
330
1F
100
AcDbEntity
  8
BEMA_UNG
 62
     7
100
AcDb2dPolyline
 66
     1
 10
0.0
 20
0.0
 30
0.0
  0
VERTEX
  5
60D
330
60C
100
AcDbEntity
  8
BEMA_UNG
 62
     7
100
AcDbVertex
100
AcDb2dVertex
 10
3.408235211951498
 20
-44.95017137933698
 30
0.0
  0
VERTEX
  5
60E
330
60C
100
AcDbEntity
  8
BEMA_UNG
 62
     7
100
AcDbVertex
100
AcDb2dVertex
 10
0.6798900425337392
 20
-44.95017137933698
 30
0.0
  0
SEQEND
  5
60F
330
60C
100
AcDbEntity
  8
BEMA_UNG
  0
POLYLINE
  5
610
330
1F
100
AcDbEntity
  8
BEMA_UNG
 62
     7
100
AcDb2dPolyline
 66
     1
 10
0.0
 20
0.0
 30
0.0
  0
VERTEX
  5
611
330
610
100
AcDbEntity
  8
BEMA_UNG
 62
     7
100
AcDbVertex
100
AcDb2dVertex
 10
3.408235211951498
 20
-45.00098657126691
 30
0.0
  0
VERTEX
  5
612
330
610
100
AcDbEntity
  8
BEMA_UNG
 62
     7
100
AcDbVertex
100
AcDb2dVertex
 10
0.2942113485299282
 20
-45.00098657126691
 30
0.0
  0
SEQEND
  5
613
330
610
100
AcDbEntity
  8
BEMA_UNG
  0
POLYLINE
  5
614
330
1F
100
AcDbEntity
  8
BEMA_UNG
 62
     7
100
AcDb2dPolyline
 66
     1
 10
0.0
 20
0.0
 30
0.0
  0
VERTEX
  5
615
330
614
100
AcDbEntity
  8
BEMA_UNG
 62
     7
100
AcDbVertex
100
AcDb2dVertex
 10
3.408235211951498
 20
-45.05180176319685
 30
0.0
  0
VERTEX
  5
616
330
614
100
AcDbEntity
  8
BEMA_UNG
 62
     7
100
AcDbVertex
100
AcDb2dVertex
 10
-0.0921563650254752
 20
-45.05180176319685
 30
0.0
  0
SEQEND
  5
617
330
614
100
AcDbEntity
  8
BEMA_UNG
  0
POLYLINE
  5
618
330
1F
100
AcDbEntity
  8
BEMA_UNG
 62
     7
100
AcDb2dPolyline
 66
     1
 10
0.0
 20
0.0
 30
0.0
  0
VERTEX
  5
619
330
618
100
AcDbEntity
  8
BEMA_UNG
 62
     7
100
AcDbVertex
100
AcDb2dVertex
 10
41.90823618650076
 20
-1.636335307587853
 30
0.0
  0
VERTEX
  5
61A
330
618
100
AcDbEntity
  8
BEMA_UNG
 62
     7
100
AcDbVertex
100
AcDb2dVertex
 10
41.90823618650076
 20
12.07119190667801
 30
0.0
  0
SEQEND
  5
61B
330
618
100
AcDbEntity
  8
BEMA_UNG
  0
POLYLINE
  5
61C
330
1F
100
AcDbEntity
  8
BEMA_UNG
 62
     7
100
AcDb2dPolyline
 66
     1
 10
0.0
 20
0.0
 30
0.0
  0
VERTEX
  5
61D
330
61C
100
AcDbEntity
  8
BEMA_UNG
 62
     7
100
AcDbVertex
100
AcDb2dVertex
 10
-0.0921563650254752
 20
-5.265745795600492
 30
0.0
  0
VERTEX
  5
61E
330
61C
100
AcDbEntity
  8
BEMA_UNG
 62
     7
100
AcDbVertex
100
AcDb2dVertex
 10
-0.0921563650254752
 20
12.07119190667801
 30
0.0
  0
SEQEND
  5
61F
330
61C
100
AcDbEntity
  8
BEMA_UNG
  0
POLYLINE
  5
620
330
1F
100
AcDbEntity
  8
BEMA_UNG
 62
     7
100
AcDb2dPolyline
 66
     1
 10
0.0
 20
0.0
 30
0.0
  0
VERTEX
  5
621
330
620
100
AcDbEntity
  8
BEMA_UNG
 62
     7
100
AcDbVertex
100
AcDb2dVertex
 10
41.90823618650076
 20
10.07131265818125
 30
0.0
  0
VERTEX
  5
622
330
620
100
AcDbEntity
  8
BEMA_UNG
 62
     7
100
AcDbVertex
100
AcDb2dVertex
 10
-0.0921563650254752
 20
10.07131265818125
 30
0.0
  0
SEQEND
  5
623
330
620
100
AcDbEntity
  8
BEMA_UNG
  0
POLYLINE
  5
624
330
1F
100
AcDbEntity
  8
BEMA_UNG
 62
     7
100
AcDb2dPolyline
 66
     1
 10
0.0
 20
0.0
 30
0.0
  0
VERTEX
  5
625
330
624
100
AcDbEntity
  8
BEMA_UNG
 62
     7
100
AcDbVertex
100
AcDb2dVertex
 10
41.90823618650076
 20
10.07131265818125
 30
0.0
  0
VERTEX
  5
626
330
624
100
AcDbEntity
  8
BEMA_UNG
 62
     7
100
AcDbVertex
100
AcDb2dVertex
 10
38.40801686441168
 20
10.53166384608888
 30
0.0
  0
VERTEX
  5
627
330
624
100
AcDbEntity
  8
BEMA_UNG
 62
     7
100
AcDbVertex
100
AcDb2dVertex
 10
38.40801686441168
 20
9.610186323278079
 30
0.0
  0
VERTEX
  5
628
330
624
100
AcDbEntity
  8
BEMA_UNG
 62
     7
100
AcDbVertex
100
AcDb2dVertex
 10
41.90823618650076
 20
10.07131265818125
 30
0.0
  0
SEQEND
  5
629
330
624
100
AcDbEntity
  8
BEMA_UNG
  0
POLYLINE
  5
62A
330
1F
100
AcDbEntity
  8
BEMA_UNG
 62
     7
100
AcDb2dPolyline
 66
     1
 10
0.0
 20
0.0
 30
0.0
  0
VERTEX
  5
62B
330
62A
100
AcDbEntity
  8
BEMA_UNG
 62
     7
100
AcDbVertex
100
AcDb2dVertex
 10
38.40801686441168
 20
10.52813262088697
 30
0.0
  0
VERTEX
  5
62C
330
62A
100
AcDbEntity
  8
BEMA_UNG
 62
     7
100
AcDbVertex
100
AcDb2dVertex
 10
38.43523313669958
 20
10.52813262088697
 30
0.0
  0
SEQEND
  5
62D
330
62A
100
AcDbEntity
  8
BEMA_UNG
  0
POLYLINE
  5
62E
330
1F
100
AcDbEntity
  8
BEMA_UNG
 62
     7
100
AcDb2dPolyline
 66
     1
 10
0.0
 20
0.0
 30
0.0
  0
VERTEX
  5
62F
330
62E
100
AcDbEntity
  8
BEMA_UNG
 62
     7
100
AcDbVertex
100
AcDb2dVertex
 10
38.40801686441168
 20
10.52813262088697
 30
0.0
  0
VERTEX
  5
630
330
62E
100
AcDbEntity
  8
BEMA_UNG
 62
     7
100
AcDbVertex
100
AcDb2dVertex
 10
38.43523313669958
 20
10.52813262088697
 30
0.0
  0
SEQEND
  5
631
330
62E
100
AcDbEntity
  8
BEMA_UNG
  0
POLYLINE
  5
632
330
1F
100
AcDbEntity
  8
BEMA_UNG
 62
     7
100
AcDb2dPolyline
 66
     1
 10
0.0
 20
0.0
 30
0.0
  0
VERTEX
  5
633
330
632
100
AcDbEntity
  8
BEMA_UNG
 62
     7
100
AcDbVertex
100
AcDb2dVertex
 10
38.40801686441168
 20
10.47731742895704
 30
0.0
  0
VERTEX
  5
634
330
632
100
AcDbEntity
  8
BEMA_UNG
 62
     7
100
AcDbVertex
100
AcDb2dVertex
 10
38.82142859536708
 20
10.47731742895704
 30
0.0
  0
SEQEND
  5
635
330
632
100
AcDbEntity
  8
BEMA_UNG
  0
POLYLINE
  5
636
330
1F
100
AcDbEntity
  8
BEMA_UNG
 62
     7
100
AcDb2dPolyline
 66
     1
 10
0.0
 20
0.0
 30
0.0
  0
VERTEX
  5
637
330
636
100
AcDbEntity
  8
BEMA_UNG
 62
     7
100
AcDbVertex
100
AcDb2dVertex
 10
38.40801686441168
 20
10.42658836447105
 30
0.0
  0
VERTEX
  5
638
330
636
100
AcDbEntity
  8
BEMA_UNG
 62
     7
100
AcDbVertex
100
AcDb2dVertex
 10
39.2071072893709
 20
10.42658836447105
 30
0.0
  0
SEQEND
  5
639
330
636
100
AcDbEntity
  8
BEMA_UNG
  0
POLYLINE
  5
63A
330
1F
100
AcDbEntity
  8
BEMA_UNG
 62
     7
100
AcDb2dPolyline
 66
     1
 10
0.0
 20
0.0
 30
0.0
  0
VERTEX
  5
63B
330
63A
100
AcDbEntity
  8
BEMA_UNG
 62
     7
100
AcDbVertex
100
AcDb2dVertex
 10
38.40801686441168
 20
10.37611768231691
 30
0.0
  0
VERTEX
  5
63C
330
63A
100
AcDbEntity
  8
BEMA_UNG
 62
     7
100
AcDbVertex
100
AcDb2dVertex
 10
39.5933027480384
 20
10.37611768231691
 30
0.0
  0
SEQEND
  5
63D
330
63A
100
AcDbEntity
  8
BEMA_UNG
  0
POLYLINE
  5
63E
330
1F
100
AcDbEntity
  8
BEMA_UNG
 62
     7
100
AcDb2dPolyline
 66
     1
 10
0.0
 20
0.0
 30
0.0
  0
VERTEX
  5
63F
330
63E
100
AcDbEntity
  8
BEMA_UNG
 62
     7
100
AcDbVertex
100
AcDb2dVertex
 10
38.40801686441168
 20
10.32530249038698
 30
0.0
  0
VERTEX
  5
640
330
63E
100
AcDbEntity
  8
BEMA_UNG
 62
     7
100
AcDbVertex
100
AcDb2dVertex
 10
39.97898144204221
 20
10.32530249038698
 30
0.0
  0
SEQEND
  5
641
330
63E
100
AcDbEntity
  8
BEMA_UNG
  0
POLYLINE
  5
642
330
1F
100
AcDbEntity
  8
BEMA_UNG
 62
     7
100
AcDb2dPolyline
 66
     1
 10
0.0
 20
0.0
 30
0.0
  0
VERTEX
  5
643
330
642
100
AcDbEntity
  8
BEMA_UNG
 62
     7
100
AcDbVertex
100
AcDb2dVertex
 10
38.40801686441168
 20
10.27448729845704
 30
0.0
  0
VERTEX
  5
644
330
642
100
AcDbEntity
  8
BEMA_UNG
 62
     7
100
AcDbVertex
100
AcDb2dVertex
 10
40.36483239093392
 20
10.27448729845704
 30
0.0
  0
SEQEND
  5
645
330
642
100
AcDbEntity
  8
BEMA_UNG
  0
POLYLINE
  5
646
330
1F
100
AcDbEntity
  8
BEMA_UNG
 62
     7
100
AcDb2dPolyline
 66
     1
 10
0.0
 20
0.0
 30
0.0
  0
VERTEX
  5
647
330
646
100
AcDbEntity
  8
BEMA_UNG
 62
     7
100
AcDbVertex
100
AcDb2dVertex
 10
38.40801686441168
 20
10.22375823397106
 30
0.0
  0
VERTEX
  5
648
330
646
100
AcDbEntity
  8
BEMA_UNG
 62
     7
100
AcDbVertex
100
AcDb2dVertex
 10
40.75051108493773
 20
10.22375823397106
 30
0.0
  0
SEQEND
  5
649
330
646
100
AcDbEntity
  8
BEMA_UNG
  0
POLYLINE
  5
64A
330
1F
100
AcDbEntity
  8
BEMA_UNG
 62
     7
100
AcDb2dPolyline
 66
     1
 10
0.0
 20
0.0
 30
0.0
  0
VERTEX
  5
64B
330
64A
100
AcDbEntity
  8
BEMA_UNG
 62
     7
100
AcDbVertex
100
AcDb2dVertex
 10
38.40801686441168
 20
10.17294304204112
 30
0.0
  0
VERTEX
  5
64C
330
64A
100
AcDbEntity
  8
BEMA_UNG
 62
     7
100
AcDbVertex
100
AcDb2dVertex
 10
41.13670654360524
 20
10.17294304204112
 30
0.0
  0
SEQEND
  5
64D
330
64A
100
AcDbEntity
  8
BEMA_UNG
  0
POLYLINE
  5
64E
330
1F
100
AcDbEntity
  8
BEMA_UNG
 62
     7
100
AcDb2dPolyline
 66
     1
 10
0.0
 20
0.0
 30
0.0
  0
VERTEX
  5
64F
330
64E
100
AcDbEntity
  8
BEMA_UNG
 62
     7
100
AcDbVertex
100
AcDb2dVertex
 10
38.40801686441168
 20
10.12212785011119
 30
0.0
  0
VERTEX
  5
650
330
64E
100
AcDbEntity
  8
BEMA_UNG
 62
     7
100
AcDbVertex
100
AcDb2dVertex
 10
41.52238523760904
 20
10.12212785011119
 30
0.0
  0
SEQEND
  5
651
330
64E
100
AcDbEntity
  8
BEMA_UNG
  0
POLYLINE
  5
652
330
1F
100
AcDbEntity
  8
BEMA_UNG
 62
     7
100
AcDb2dPolyline
 66
     1
 10
0.0
 20
0.0
 30
0.0
  0
VERTEX
  5
653
330
652
100
AcDbEntity
  8
BEMA_UNG
 62
     7
100
AcDbVertex
100
AcDb2dVertex
 10
38.40801686441168
 20
10.07131265818125
 30
0.0
  0
VERTEX
  5
654
330
652
100
AcDbEntity
  8
BEMA_UNG
 62
     7
100
AcDbVertex
100
AcDb2dVertex
 10
41.90823618650076
 20
10.07131265818125
 30
0.0
  0
SEQEND
  5
655
330
652
100
AcDbEntity
  8
BEMA_UNG
  0
POLYLINE
  5
656
330
1F
100
AcDbEntity
  8
BEMA_UNG
 62
     7
100
AcDb2dPolyline
 66
     1
 10
0.0
 20
0.0
 30
0.0
  0
VERTEX
  5
657
330
656
100
AcDbEntity
  8
BEMA_UNG
 62
     7
100
AcDbVertex
100
AcDb2dVertex
 10
38.40801686441168
 20
9.613803675923938
 30
0.0
  0
VERTEX
  5
658
330
656
100
AcDbEntity
  8
BEMA_UNG
 62
     7
100
AcDbVertex
100
AcDb2dVertex
 10
38.43523313669958
 20
9.613803675923938
 30
0.0
  0
SEQEND
  5
659
330
656
100
AcDbEntity
  8
BEMA_UNG
  0
POLYLINE
  5
65A
330
1F
100
AcDbEntity
  8
BEMA_UNG
 62
     7
100
AcDb2dPolyline
 66
     1
 10
0.0
 20
0.0
 30
0.0
  0
VERTEX
  5
65B
330
65A
100
AcDbEntity
  8
BEMA_UNG
 62
     7
100
AcDbVertex
100
AcDb2dVertex
 10
38.40801686441168
 20
9.613803675923938
 30
0.0
  0
VERTEX
  5
65C
330
65A
100
AcDbEntity
  8
BEMA_UNG
 62
     7
100
AcDbVertex
100
AcDb2dVertex
 10
38.43523313669958
 20
9.613803675923938
 30
0.0
  0
SEQEND
  5
65D
330
65A
100
AcDbEntity
  8
BEMA_UNG
  0
POLYLINE
  5
65E
330
1F
100
AcDbEntity
  8
BEMA_UNG
 62
     7
100
AcDb2dPolyline
 66
     1
 10
0.0
 20
0.0
 30
0.0
  0
VERTEX
  5
65F
330
65E
100
AcDbEntity
  8
BEMA_UNG
 62
     7
100
AcDbVertex
100
AcDb2dVertex
 10
38.40801686441168
 20
9.664532740409925
 30
0.0
  0
VERTEX
  5
660
330
65E
100
AcDbEntity
  8
BEMA_UNG
 62
     7
100
AcDbVertex
100
AcDb2dVertex
 10
38.82142859536708
 20
9.664532740409925
 30
0.0
  0
SEQEND
  5
661
330
65E
100
AcDbEntity
  8
BEMA_UNG
  0
POLYLINE
  5
662
330
1F
100
AcDbEntity
  8
BEMA_UNG
 62
     7
100
AcDb2dPolyline
 66
     1
 10
0.0
 20
0.0
 30
0.0
  0
VERTEX
  5
663
330
662
100
AcDbEntity
  8
BEMA_UNG
 62
     7
100
AcDbVertex
100
AcDb2dVertex
 10
38.40801686441168
 20
9.71534793233986
 30
0.0
  0
VERTEX
  5
664
330
662
100
AcDbEntity
  8
BEMA_UNG
 62
     7
100
AcDbVertex
100
AcDb2dVertex
 10
39.2071072893709
 20
9.71534793233986
 30
0.0
  0
SEQEND
  5
665
330
662
100
AcDbEntity
  8
BEMA_UNG
  0
POLYLINE
  5
666
330
1F
100
AcDbEntity
  8
BEMA_UNG
 62
     7
100
AcDb2dPolyline
 66
     1
 10
0.0
 20
0.0
 30
0.0
  0
VERTEX
  5
667
330
666
100
AcDbEntity
  8
BEMA_UNG
 62
     7
100
AcDbVertex
100
AcDb2dVertex
 10
38.40801686441168
 20
9.766163124269795
 30
0.0
  0
VERTEX
  5
668
330
666
100
AcDbEntity
  8
BEMA_UNG
 62
     7
100
AcDbVertex
100
AcDb2dVertex
 10
39.5933027480384
 20
9.766163124269795
 30
0.0
  0
SEQEND
  5
669
330
666
100
AcDbEntity
  8
BEMA_UNG
  0
POLYLINE
  5
66A
330
1F
100
AcDbEntity
  8
BEMA_UNG
 62
     7
100
AcDb2dPolyline
 66
     1
 10
0.0
 20
0.0
 30
0.0
  0
VERTEX
  5
66B
330
66A
100
AcDbEntity
  8
BEMA_UNG
 62
     7
100
AcDbVertex
100
AcDb2dVertex
 10
38.40801686441168
 20
9.81697831619973
 30
0.0
  0
VERTEX
  5
66C
330
66A
100
AcDbEntity
  8
BEMA_UNG
 62
     7
100
AcDbVertex
100
AcDb2dVertex
 10
39.97898144204221
 20
9.81697831619973
 30
0.0
  0
SEQEND
  5
66D
330
66A
100
AcDbEntity
  8
BEMA_UNG
  0
POLYLINE
  5
66E
330
1F
100
AcDbEntity
  8
BEMA_UNG
 62
     7
100
AcDb2dPolyline
 66
     1
 10
0.0
 20
0.0
 30
0.0
  0
VERTEX
  5
66F
330
66E
100
AcDbEntity
  8
BEMA_UNG
 62
     7
100
AcDbVertex
100
AcDb2dVertex
 10
38.40801686441168
 20
9.86813801790546
 30
0.0
  0
VERTEX
  5
670
330
66E
100
AcDbEntity
  8
BEMA_UNG
 62
     7
100
AcDbVertex
100
AcDb2dVertex
 10
40.36483239093392
 20
9.86813801790546
 30
0.0
  0
SEQEND
  5
671
330
66E
100
AcDbEntity
  8
BEMA_UNG
  0
POLYLINE
  5
672
330
1F
100
AcDbEntity
  8
BEMA_UNG
 62
     7
100
AcDb2dPolyline
 66
     1
 10
0.0
 20
0.0
 30
0.0
  0
VERTEX
  5
673
330
672
100
AcDbEntity
  8
BEMA_UNG
 62
     7
100
AcDbVertex
100
AcDb2dVertex
 10
38.40801686441168
 20
9.918867082391447
 30
0.0
  0
VERTEX
  5
674
330
672
100
AcDbEntity
  8
BEMA_UNG
 62
     7
100
AcDbVertex
100
AcDb2dVertex
 10
40.75051108493773
 20
9.918867082391447
 30
0.0
  0
SEQEND
  5
675
330
672
100
AcDbEntity
  8
BEMA_UNG
  0
POLYLINE
  5
676
330
1F
100
AcDbEntity
  8
BEMA_UNG
 62
     7
100
AcDb2dPolyline
 66
     1
 10
0.0
 20
0.0
 30
0.0
  0
VERTEX
  5
677
330
676
100
AcDbEntity
  8
BEMA_UNG
 62
     7
100
AcDbVertex
100
AcDb2dVertex
 10
38.40801686441168
 20
9.96968227432138
 30
0.0
  0
VERTEX
  5
678
330
676
100
AcDbEntity
  8
BEMA_UNG
 62
     7
100
AcDbVertex
100
AcDb2dVertex
 10
41.13670654360524
 20
9.96968227432138
 30
0.0
  0
SEQEND
  5
679
330
676
100
AcDbEntity
  8
BEMA_UNG
  0
POLYLINE
  5
67A
330
1F
100
AcDbEntity
  8
BEMA_UNG
 62
     7
100
AcDb2dPolyline
 66
     1
 10
0.0
 20
0.0
 30
0.0
  0
VERTEX
  5
67B
330
67A
100
AcDbEntity
  8
BEMA_UNG
 62
     7
100
AcDbVertex
100
AcDb2dVertex
 10
38.40801686441168
 20
10.02049746625132
 30
0.0
  0
VERTEX
  5
67C
330
67A
100
AcDbEntity
  8
BEMA_UNG
 62
     7
100
AcDbVertex
100
AcDb2dVertex
 10
41.52238523760904
 20
10.02049746625132
 30
0.0
  0
SEQEND
  5
67D
330
67A
100
AcDbEntity
  8
BEMA_UNG
  0
POLYLINE
  5
67E
330
1F
100
AcDbEntity
  8
BEMA_UNG
 62
     7
100
AcDb2dPolyline
 66
     1
 10
0.0
 20
0.0
 30
0.0
  0
VERTEX
  5
67F
330
67E
100
AcDbEntity
  8
BEMA_UNG
 62
     7
100
AcDbVertex
100
AcDb2dVertex
 10
38.40801686441168
 20
10.07131265818125
 30
0.0
  0
VERTEX
  5
680
330
67E
100
AcDbEntity
  8
BEMA_UNG
 62
     7
100
AcDbVertex
100
AcDb2dVertex
 10
41.90823618650076
 20
10.07131265818125
 30
0.0
  0
SEQEND
  5
681
330
67E
100
AcDbEntity
  8
BEMA_UNG
  0
POLYLINE
  5
682
330
1F
100
AcDbEntity
  8
BEMA_UNG
 62
     7
100
AcDb2dPolyline
 66
     1
 10
0.0
 20
0.0
 30
0.0
  0
VERTEX
  5
683
330
682
100
AcDbEntity
  8
BEMA_UNG
 62
     7
100
AcDbVertex
100
AcDb2dVertex
 10
-0.0921563650254752
 20
10.07131265818125
 30
0.0
  0
VERTEX
  5
684
330
682
100
AcDbEntity
  8
BEMA_UNG
 62
     7
100
AcDbVertex
100
AcDb2dVertex
 10
3.408235211951498
 20
9.610186323278079
 30
0.0
  0
VERTEX
  5
685
330
682
100
AcDbEntity
  8
BEMA_UNG
 62
     7
100
AcDbVertex
100
AcDb2dVertex
 10
3.408235211951498
 20
10.53166384608888
 30
0.0
  0
VERTEX
  5
686
330
682
100
AcDbEntity
  8
BEMA_UNG
 62
     7
100
AcDbVertex
100
AcDb2dVertex
 10
-0.0921563650254752
 20
10.07131265818125
 30
0.0
  0
SEQEND
  5
687
330
682
100
AcDbEntity
  8
BEMA_UNG
  0
POLYLINE
  5
688
330
1F
100
AcDbEntity
  8
BEMA_UNG
 62
     7
100
AcDb2dPolyline
 66
     1
 10
0.0
 20
0.0
 30
0.0
  0
VERTEX
  5
689
330
688
100
AcDbEntity
  8
BEMA_UNG
 62
     7
100
AcDbVertex
100
AcDb2dVertex
 10
3.408235211951498
 20
9.613803675923938
 30
0.0
  0
VERTEX
  5
68A
330
688
100
AcDbEntity
  8
BEMA_UNG
 62
     7
100
AcDbVertex
100
AcDb2dVertex
 10
3.381018939663601
 20
9.613803675923938
 30
0.0
  0
SEQEND
  5
68B
330
688
100
AcDbEntity
  8
BEMA_UNG
  0
POLYLINE
  5
68C
330
1F
100
AcDbEntity
  8
BEMA_UNG
 62
     7
100
AcDb2dPolyline
 66
     1
 10
0.0
 20
0.0
 30
0.0
  0
VERTEX
  5
68D
330
68C
100
AcDbEntity
  8
BEMA_UNG
 62
     7
100
AcDbVertex
100
AcDb2dVertex
 10
3.408235211951498
 20
9.613803675923938
 30
0.0
  0
VERTEX
  5
68E
330
68C
100
AcDbEntity
  8
BEMA_UNG
 62
     7
100
AcDbVertex
100
AcDb2dVertex
 10
3.381018939663601
 20
9.613803675923938
 30
0.0
  0
SEQEND
  5
68F
330
68C
100
AcDbEntity
  8
BEMA_UNG
  0
POLYLINE
  5
690
330
1F
100
AcDbEntity
  8
BEMA_UNG
 62
     7
100
AcDb2dPolyline
 66
     1
 10
0.0
 20
0.0
 30
0.0
  0
VERTEX
  5
691
330
690
100
AcDbEntity
  8
BEMA_UNG
 62
     7
100
AcDbVertex
100
AcDb2dVertex
 10
3.408235211951498
 20
9.664532740409925
 30
0.0
  0
VERTEX
  5
692
330
690
100
AcDbEntity
  8
BEMA_UNG
 62
     7
100
AcDbVertex
100
AcDb2dVertex
 10
2.995167990771892
 20
9.664532740409925
 30
0.0
  0
SEQEND
  5
693
330
690
100
AcDbEntity
  8
BEMA_UNG
  0
POLYLINE
  5
694
330
1F
100
AcDbEntity
  8
BEMA_UNG
 62
     7
100
AcDb2dPolyline
 66
     1
 10
0.0
 20
0.0
 30
0.0
  0
VERTEX
  5
695
330
694
100
AcDbEntity
  8
BEMA_UNG
 62
     7
100
AcDbVertex
100
AcDb2dVertex
 10
3.408235211951498
 20
9.71534793233986
 30
0.0
  0
VERTEX
  5
696
330
694
100
AcDbEntity
  8
BEMA_UNG
 62
     7
100
AcDbVertex
100
AcDb2dVertex
 10
2.609489296768081
 20
9.71534793233986
 30
0.0
  0
SEQEND
  5
697
330
694
100
AcDbEntity
  8
BEMA_UNG
  0
POLYLINE
  5
698
330
1F
100
AcDbEntity
  8
BEMA_UNG
 62
     7
100
AcDb2dPolyline
 66
     1
 10
0.0
 20
0.0
 30
0.0
  0
VERTEX
  5
699
330
698
100
AcDbEntity
  8
BEMA_UNG
 62
     7
100
AcDbVertex
100
AcDb2dVertex
 10
3.408235211951498
 20
9.766163124269795
 30
0.0
  0
VERTEX
  5
69A
330
698
100
AcDbEntity
  8
BEMA_UNG
 62
     7
100
AcDbVertex
100
AcDb2dVertex
 10
2.223293838100576
 20
9.766163124269795
 30
0.0
  0
SEQEND
  5
69B
330
698
100
AcDbEntity
  8
BEMA_UNG
  0
POLYLINE
  5
69C
330
1F
100
AcDbEntity
  8
BEMA_UNG
 62
     7
100
AcDb2dPolyline
 66
     1
 10
0.0
 20
0.0
 30
0.0
  0
VERTEX
  5
69D
330
69C
100
AcDbEntity
  8
BEMA_UNG
 62
     7
100
AcDbVertex
100
AcDb2dVertex
 10
3.408235211951498
 20
9.81697831619973
 30
0.0
  0
VERTEX
  5
69E
330
69C
100
AcDbEntity
  8
BEMA_UNG
 62
     7
100
AcDbVertex
100
AcDb2dVertex
 10
1.837615144096765
 20
9.81697831619973
 30
0.0
  0
SEQEND
  5
69F
330
69C
100
AcDbEntity
  8
BEMA_UNG
  0
POLYLINE
  5
6A0
330
1F
100
AcDbEntity
  8
BEMA_UNG
 62
     7
100
AcDb2dPolyline
 66
     1
 10
0.0
 20
0.0
 30
0.0
  0
VERTEX
  5
6A1
330
6A0
100
AcDbEntity
  8
BEMA_UNG
 62
     7
100
AcDbVertex
100
AcDb2dVertex
 10
3.408235211951498
 20
9.86813801790546
 30
0.0
  0
VERTEX
  5
6A2
330
6A0
100
AcDbEntity
  8
BEMA_UNG
 62
     7
100
AcDbVertex
100
AcDb2dVertex
 10
1.451764195205056
 20
9.86813801790546
 30
0.0
  0
SEQEND
  5
6A3
330
6A0
100
AcDbEntity
  8
BEMA_UNG
  0
POLYLINE
  5
6A4
330
1F
100
AcDbEntity
  8
BEMA_UNG
 62
     7
100
AcDb2dPolyline
 66
     1
 10
0.0
 20
0.0
 30
0.0
  0
VERTEX
  5
6A5
330
6A4
100
AcDbEntity
  8
BEMA_UNG
 62
     7
100
AcDbVertex
100
AcDb2dVertex
 10
3.408235211951498
 20
9.918867082391447
 30
0.0
  0
VERTEX
  5
6A6
330
6A4
100
AcDbEntity
  8
BEMA_UNG
 62
     7
100
AcDbVertex
100
AcDb2dVertex
 10
1.066085501201244
 20
9.918867082391447
 30
0.0
  0
SEQEND
  5
6A7
330
6A4
100
AcDbEntity
  8
BEMA_UNG
  0
POLYLINE
  5
6A8
330
1F
100
AcDbEntity
  8
BEMA_UNG
 62
     7
100
AcDb2dPolyline
 66
     1
 10
0.0
 20
0.0
 30
0.0
  0
VERTEX
  5
6A9
330
6A8
100
AcDbEntity
  8
BEMA_UNG
 62
     7
100
AcDbVertex
100
AcDb2dVertex
 10
3.408235211951498
 20
9.96968227432138
 30
0.0
  0
VERTEX
  5
6AA
330
6A8
100
AcDbEntity
  8
BEMA_UNG
 62
     7
100
AcDbVertex
100
AcDb2dVertex
 10
0.6798900425337392
 20
9.96968227432138
 30
0.0
  0
SEQEND
  5
6AB
330
6A8
100
AcDbEntity
  8
BEMA_UNG
  0
POLYLINE
  5
6AC
330
1F
100
AcDbEntity
  8
BEMA_UNG
 62
     7
100
AcDb2dPolyline
 66
     1
 10
0.0
 20
0.0
 30
0.0
  0
VERTEX
  5
6AD
330
6AC
100
AcDbEntity
  8
BEMA_UNG
 62
     7
100
AcDbVertex
100
AcDb2dVertex
 10
3.408235211951498
 20
10.02049746625132
 30
0.0
  0
VERTEX
  5
6AE
330
6AC
100
AcDbEntity
  8
BEMA_UNG
 62
     7
100
AcDbVertex
100
AcDb2dVertex
 10
0.2942113485299282
 20
10.02049746625132
 30
0.0
  0
SEQEND
  5
6AF
330
6AC
100
AcDbEntity
  8
BEMA_UNG
  0
POLYLINE
  5
6B0
330
1F
100
AcDbEntity
  8
BEMA_UNG
 62
     7
100
AcDb2dPolyline
 66
     1
 10
0.0
 20
0.0
 30
0.0
  0
VERTEX
  5
6B1
330
6B0
100
AcDbEntity
  8
BEMA_UNG
 62
     7
100
AcDbVertex
100
AcDb2dVertex
 10
3.408235211951498
 20
10.07131265818125
 30
0.0
  0
VERTEX
  5
6B2
330
6B0
100
AcDbEntity
  8
BEMA_UNG
 62
     7
100
AcDbVertex
100
AcDb2dVertex
 10
-0.0921563650254752
 20
10.07131265818125
 30
0.0
  0
SEQEND
  5
6B3
330
6B0
100
AcDbEntity
  8
BEMA_UNG
  0
POLYLINE
  5
6B4
330
1F
100
AcDbEntity
  8
BEMA_UNG
 62
     7
100
AcDb2dPolyline
 66
     1
 10
0.0
 20
0.0
 30
0.0
  0
VERTEX
  5
6B5
330
6B4
100
AcDbEntity
  8
BEMA_UNG
 62
     7
100
AcDbVertex
100
AcDb2dVertex
 10
3.408235211951498
 20
10.52813262088697
 30
0.0
  0
VERTEX
  5
6B6
330
6B4
100
AcDbEntity
  8
BEMA_UNG
 62
     7
100
AcDbVertex
100
AcDb2dVertex
 10
3.381018939663601
 20
10.52813262088697
 30
0.0
  0
SEQEND
  5
6B7
330
6B4
100
AcDbEntity
  8
BEMA_UNG
  0
POLYLINE
  5
6B8
330
1F
100
AcDbEntity
  8
BEMA_UNG
 62
     7
100
AcDb2dPolyline
 66
     1
 10
0.0
 20
0.0
 30
0.0
  0
VERTEX
  5
6B9
330
6B8
100
AcDbEntity
  8
BEMA_UNG
 62
     7
100
AcDbVertex
100
AcDb2dVertex
 10
3.408235211951498
 20
10.52813262088697
 30
0.0
  0
VERTEX
  5
6BA
330
6B8
100
AcDbEntity
  8
BEMA_UNG
 62
     7
100
AcDbVertex
100
AcDb2dVertex
 10
3.381018939663601
 20
10.52813262088697
 30
0.0
  0
SEQEND
  5
6BB
330
6B8
100
AcDbEntity
  8
BEMA_UNG
  0
POLYLINE
  5
6BC
330
1F
100
AcDbEntity
  8
BEMA_UNG
 62
     7
100
AcDb2dPolyline
 66
     1
 10
0.0
 20
0.0
 30
0.0
  0
VERTEX
  5
6BD
330
6BC
100
AcDbEntity
  8
BEMA_UNG
 62
     7
100
AcDbVertex
100
AcDb2dVertex
 10
3.408235211951498
 20
10.47731742895704
 30
0.0
  0
VERTEX
  5
6BE
330
6BC
100
AcDbEntity
  8
BEMA_UNG
 62
     7
100
AcDbVertex
100
AcDb2dVertex
 10
2.995167990771892
 20
10.47731742895704
 30
0.0
  0
SEQEND
  5
6BF
330
6BC
100
AcDbEntity
  8
BEMA_UNG
  0
POLYLINE
  5
6C0
330
1F
100
AcDbEntity
  8
BEMA_UNG
 62
     7
100
AcDb2dPolyline
 66
     1
 10
0.0
 20
0.0
 30
0.0
  0
VERTEX
  5
6C1
330
6C0
100
AcDbEntity
  8
BEMA_UNG
 62
     7
100
AcDbVertex
100
AcDb2dVertex
 10
3.408235211951498
 20
10.42658836447105
 30
0.0
  0
VERTEX
  5
6C2
330
6C0
100
AcDbEntity
  8
BEMA_UNG
 62
     7
100
AcDbVertex
100
AcDb2dVertex
 10
2.609489296768081
 20
10.42658836447105
 30
0.0
  0
SEQEND
  5
6C3
330
6C0
100
AcDbEntity
  8
BEMA_UNG
  0
POLYLINE
  5
6C4
330
1F
100
AcDbEntity
  8
BEMA_UNG
 62
     7
100
AcDb2dPolyline
 66
     1
 10
0.0
 20
0.0
 30
0.0
  0
VERTEX
  5
6C5
330
6C4
100
AcDbEntity
  8
BEMA_UNG
 62
     7
100
AcDbVertex
100
AcDb2dVertex
 10
3.408235211951498
 20
10.37611768231691
 30
0.0
  0
VERTEX
  5
6C6
330
6C4
100
AcDbEntity
  8
BEMA_UNG
 62
     7
100
AcDbVertex
100
AcDb2dVertex
 10
2.223293838100576
 20
10.37611768231691
 30
0.0
  0
SEQEND
  5
6C7
330
6C4
100
AcDbEntity
  8
BEMA_UNG
  0
POLYLINE
  5
6C8
330
1F
100
AcDbEntity
  8
BEMA_UNG
 62
     7
100
AcDb2dPolyline
 66
     1
 10
0.0
 20
0.0
 30
0.0
  0
VERTEX
  5
6C9
330
6C8
100
AcDbEntity
  8
BEMA_UNG
 62
     7
100
AcDbVertex
100
AcDb2dVertex
 10
3.408235211951498
 20
10.32530249038698
 30
0.0
  0
VERTEX
  5
6CA
330
6C8
100
AcDbEntity
  8
BEMA_UNG
 62
     7
100
AcDbVertex
100
AcDb2dVertex
 10
1.837615144096765
 20
10.32530249038698
 30
0.0
  0
SEQEND
  5
6CB
330
6C8
100
AcDbEntity
  8
BEMA_UNG
  0
POLYLINE
  5
6CC
330
1F
100
AcDbEntity
  8
BEMA_UNG
 62
     7
100
AcDb2dPolyline
 66
     1
 10
0.0
 20
0.0
 30
0.0
  0
VERTEX
  5
6CD
330
6CC
100
AcDbEntity
  8
BEMA_UNG
 62
     7
100
AcDbVertex
100
AcDb2dVertex
 10
3.408235211951498
 20
10.27448729845704
 30
0.0
  0
VERTEX
  5
6CE
330
6CC
100
AcDbEntity
  8
BEMA_UNG
 62
     7
100
AcDbVertex
100
AcDb2dVertex
 10
1.451764195205056
 20
10.27448729845704
 30
0.0
  0
SEQEND
  5
6CF
330
6CC
100
AcDbEntity
  8
BEMA_UNG
  0
POLYLINE
  5
6D0
330
1F
100
AcDbEntity
  8
BEMA_UNG
 62
     7
100
AcDb2dPolyline
 66
     1
 10
0.0
 20
0.0
 30
0.0
  0
VERTEX
  5
6D1
330
6D0
100
AcDbEntity
  8
BEMA_UNG
 62
     7
100
AcDbVertex
100
AcDb2dVertex
 10
3.408235211951498
 20
10.22375823397106
 30
0.0
  0
VERTEX
  5
6D2
330
6D0
100
AcDbEntity
  8
BEMA_UNG
 62
     7
100
AcDbVertex
100
AcDb2dVertex
 10
1.066085501201244
 20
10.22375823397106
 30
0.0
  0
SEQEND
  5
6D3
330
6D0
100
AcDbEntity
  8
BEMA_UNG
  0
POLYLINE
  5
6D4
330
1F
100
AcDbEntity
  8
BEMA_UNG
 62
     7
100
AcDb2dPolyline
 66
     1
 10
0.0
 20
0.0
 30
0.0
  0
VERTEX
  5
6D5
330
6D4
100
AcDbEntity
  8
BEMA_UNG
 62
     7
100
AcDbVertex
100
AcDb2dVertex
 10
3.408235211951498
 20
10.17294304204112
 30
0.0
  0
VERTEX
  5
6D6
330
6D4
100
AcDbEntity
  8
BEMA_UNG
 62
     7
100
AcDbVertex
100
AcDb2dVertex
 10
0.6798900425337392
 20
10.17294304204112
 30
0.0
  0
SEQEND
  5
6D7
330
6D4
100
AcDbEntity
  8
BEMA_UNG
  0
POLYLINE
  5
6D8
330
1F
100
AcDbEntity
  8
BEMA_UNG
 62
     7
100
AcDb2dPolyline
 66
     1
 10
0.0
 20
0.0
 30
0.0
  0
VERTEX
  5
6D9
330
6D8
100
AcDbEntity
  8
BEMA_UNG
 62
     7
100
AcDbVertex
100
AcDb2dVertex
 10
3.408235211951498
 20
10.12212785011119
 30
0.0
  0
VERTEX
  5
6DA
330
6D8
100
AcDbEntity
  8
BEMA_UNG
 62
     7
100
AcDbVertex
100
AcDb2dVertex
 10
0.2942113485299282
 20
10.12212785011119
 30
0.0
  0
SEQEND
  5
6DB
330
6D8
100
AcDbEntity
  8
BEMA_UNG
  0
POLYLINE
  5
6DC
330
1F
100
AcDbEntity
  8
BEMA_UNG
 62
     7
100
AcDb2dPolyline
 66
     1
 10
0.0
 20
0.0
 30
0.0
  0
VERTEX
  5
6DD
330
6DC
100
AcDbEntity
  8
BEMA_UNG
 62
     7
100
AcDbVertex
100
AcDb2dVertex
 10
3.408235211951498
 20
10.07131265818125
 30
0.0
  0
VERTEX
  5
6DE
330
6DC
100
AcDbEntity
  8
BEMA_UNG
 62
     7
100
AcDbVertex
100
AcDb2dVertex
 10
-0.0921563650254752
 20
10.07131265818125
 30
0.0
  0
SEQEND
  5
6DF
330
6DC
100
AcDbEntity
  8
BEMA_UNG
  0
POLYLINE
  5
6E0
330
1F
100
AcDbEntity
  8
BEMA_UNG
 62
     7
100
AcDb2dPolyline
 66
     1
 10
0.0
 20
0.0
 30
0.0
  0
VERTEX
  5
6E1
330
6E0
100
AcDbEntity
  8
BEMA_UNG
 62
     7
100
AcDbVertex
100
AcDb2dVertex
 10
85.6074064424779
 20
10.17389044392456
 30
0.0
  0
VERTEX
  5
6E2
330
6E0
100
AcDbEntity
  8
BEMA_UNG
 62
     7
100
AcDbVertex
100
AcDb2dVertex
 10
63.59426529843009
 20
10.17389044392456
 30
0.0
  0
SEQEND
  5
6E3
330
6E0
100
AcDbEntity
  8
BEMA_UNG
  0
POLYLINE
  5
6E4
330
1F
100
AcDbEntity
  8
BEMA_UNG
 62
     7
100
AcDb2dPolyline
 66
     1
 10
0.0
 20
0.0
 30
0.0
  0
VERTEX
  5
6E5
330
6E4
100
AcDbEntity
  8
BEMA_UNG
 62
     7
100
AcDbVertex
100
AcDb2dVertex
 10
54.43547290888895
 20
-6.888903604264141
 30
0.0
  0
VERTEX
  5
6E6
330
6E4
100
AcDbEntity
  8
BEMA_UNG
 62
     7
100
AcDbVertex
100
AcDb2dVertex
 10
63.59426529843009
 20
10.17389044392456
 30
0.0
  0
SEQEND
  5
6E7
330
6E4
100
AcDbEntity
  8
BEMA_UNG
  0
POLYLINE
  5
6E8
330
1F
100
AcDbEntity
  8
BEMA_UNG
 62
     7
100
AcDb2dPolyline
 66
     1
 10
0.0
 20
0.0
 30
0.0
  0
VERTEX
  5
6E9
330
6E8
100
AcDbEntity
  8
BEMA_UNG
 62
     7
100
AcDbVertex
100
AcDb2dVertex
 10
54.43547290888895
 20
-6.888903604264141
 30
0.0
  0
VERTEX
  5
6EA
330
6E8
100
AcDbEntity
  8
BEMA_UNG
 62
     7
100
AcDbVertex
100
AcDb2dVertex
 10
56.65756096277423
 20
-4.145055494935555
 30
0.0
  0
VERTEX
  5
6EB
330
6E8
100
AcDbEntity
  8
BEMA_UNG
 62
     7
100
AcDbVertex
100
AcDb2dVertex
 10
55.87156190929527
 20
-3.663430828372511
 30
0.0
  0
VERTEX
  5
6EC
330
6E8
100
AcDbEntity
  8
BEMA_UNG
 62
     7
100
AcDbVertex
100
AcDb2dVertex
 10
54.43547290888895
 20
-6.888903604264141
 30
0.0
  0
SEQEND
  5
6ED
330
6E8
100
AcDbEntity
  8
BEMA_UNG
  0
POLYLINE
  5
6EE
330
1F
100
AcDbEntity
  8
BEMA_UNG
 62
     7
100
AcDb2dPolyline
 66
     1
 10
0.0
 20
0.0
 30
0.0
  0
VERTEX
  5
6EF
330
6EE
100
AcDbEntity
  8
BEMA_UNG
 62
     7
100
AcDbVertex
100
AcDb2dVertex
 10
56.65411586501627
 20
-4.143332946056574
 30
0.0
  0
VERTEX
  5
6F0
330
6EE
100
AcDbEntity
  8
BEMA_UNG
 62
     7
100
AcDbVertex
100
AcDb2dVertex
 10
56.64033547398443
 20
-4.166587355922815
 30
0.0
  0
SEQEND
  5
6F1
330
6EE
100
AcDbEntity
  8
BEMA_UNG
  0
POLYLINE
  5
6F2
330
1F
100
AcDbEntity
  8
BEMA_UNG
 62
     7
100
AcDb2dPolyline
 66
     1
 10
0.0
 20
0.0
 30
0.0
  0
VERTEX
  5
6F3
330
6F2
100
AcDbEntity
  8
BEMA_UNG
 62
     7
100
AcDbVertex
100
AcDb2dVertex
 10
56.65411586501627
 20
-4.143332946056574
 30
0.0
  0
VERTEX
  5
6F4
330
6F2
100
AcDbEntity
  8
BEMA_UNG
 62
     7
100
AcDbVertex
100
AcDb2dVertex
 10
56.64033547398443
 20
-4.166587355922815
 30
0.0
  0
SEQEND
  5
6F5
330
6F2
100
AcDbEntity
  8
BEMA_UNG
  0
POLYLINE
  5
6F6
330
1F
100
AcDbEntity
  8
BEMA_UNG
 62
     7
100
AcDb2dPolyline
 66
     1
 10
0.0
 20
0.0
 30
0.0
  0
VERTEX
  5
6F7
330
6F6
100
AcDbEntity
  8
BEMA_UNG
 62
     7
100
AcDbVertex
100
AcDb2dVertex
 10
56.61105214304175
 20
-4.116461183544472
 30
0.0
  0
VERTEX
  5
6F8
330
6F6
100
AcDbEntity
  8
BEMA_UNG
 62
     7
100
AcDbVertex
100
AcDb2dVertex
 10
56.39470000384176
 20
-4.468894684183954
 30
0.0
  0
SEQEND
  5
6F9
330
6F6
100
AcDbEntity
  8
BEMA_UNG
  0
POLYLINE
  5
6FA
330
1F
100
AcDbEntity
  8
BEMA_UNG
 62
     7
100
AcDb2dPolyline
 66
     1
 10
0.0
 20
0.0
 30
0.0
  0
VERTEX
  5
6FB
330
6FA
100
AcDbEntity
  8
BEMA_UNG
 62
     7
100
AcDbVertex
100
AcDb2dVertex
 10
56.56764391129143
 20
-4.090278440583964
 30
0.0
  0
VERTEX
  5
6FC
330
6FA
100
AcDbEntity
  8
BEMA_UNG
 62
     7
100
AcDbVertex
100
AcDb2dVertex
 10
56.15027031791438
 20
-4.771202012445092
 30
0.0
  0
SEQEND
  5
6FD
330
6FA
100
AcDbEntity
  8
BEMA_UNG
  0
POLYLINE
  5
6FE
330
1F
100
AcDbEntity
  8
BEMA_UNG
 62
     7
100
AcDb2dPolyline
 66
     1
 10
0.0
 20
0.0
 30
0.0
  0
VERTEX
  5
6FF
330
6FE
100
AcDbEntity
  8
BEMA_UNG
 62
     7
100
AcDbVertex
100
AcDb2dVertex
 10
56.52458018931691
 20
-4.063578932959761
 30
0.0
  0
VERTEX
  5
700
330
6FE
100
AcDbEntity
  8
BEMA_UNG
 62
     7
100
AcDbVertex
100
AcDb2dVertex
 10
55.9054961222112
 20
-5.073853850482026
 30
0.0
  0
SEQEND
  5
701
330
6FE
100
AcDbEntity
  8
BEMA_UNG
  0
POLYLINE
  5
702
330
1F
100
AcDbEntity
  8
BEMA_UNG
 62
     7
100
AcDb2dPolyline
 66
     1
 10
0.0
 20
0.0
 30
0.0
  0
VERTEX
  5
703
330
702
100
AcDbEntity
  8
BEMA_UNG
 62
     7
100
AcDbVertex
100
AcDb2dVertex
 10
56.48117195756659
 20
-4.037396189999252
 30
0.0
  0
VERTEX
  5
704
330
702
100
AcDbEntity
  8
BEMA_UNG
 62
     7
100
AcDbVertex
100
AcDb2dVertex
 10
55.66020516184432
 20
-5.376333433631062
 30
0.0
  0
SEQEND
  5
705
330
702
100
AcDbEntity
  8
BEMA_UNG
  0
POLYLINE
  5
706
330
1F
100
AcDbEntity
  8
BEMA_UNG
 62
     7
100
AcDb2dPolyline
 66
     1
 10
0.0
 20
0.0
 30
0.0
  0
VERTEX
  5
707
330
706
100
AcDbEntity
  8
BEMA_UNG
 62
     7
100
AcDbVertex
100
AcDb2dVertex
 10
56.43741921604048
 20
-4.010696682375048
 30
0.0
  0
VERTEX
  5
708
330
706
100
AcDbEntity
  8
BEMA_UNG
 62
     7
100
AcDbVertex
100
AcDb2dVertex
 10
55.41543096614114
 20
-5.678468507004302
 30
0.0
  0
SEQEND
  5
709
330
706
100
AcDbEntity
  8
BEMA_UNG
  0
POLYLINE
  5
70A
330
1F
100
AcDbEntity
  8
BEMA_UNG
 62
     7
100
AcDb2dPolyline
 66
     1
 10
0.0
 20
0.0
 30
0.0
  0
VERTEX
  5
70B
330
70A
100
AcDbEntity
  8
BEMA_UNG
 62
     7
100
AcDbVertex
100
AcDb2dVertex
 10
56.39435549406596
 20
-3.983824919862947
 30
0.0
  0
VERTEX
  5
70C
330
70A
100
AcDbEntity
  8
BEMA_UNG
 62
     7
100
AcDbVertex
100
AcDb2dVertex
 10
55.17031226066217
 20
-5.981637109704931
 30
0.0
  0
SEQEND
  5
70D
330
70A
100
AcDbEntity
  8
BEMA_UNG
  0
POLYLINE
  5
70E
330
1F
100
AcDbEntity
  8
BEMA_UNG
 62
     7
100
AcDb2dPolyline
 66
     1
 10
0.0
 20
0.0
 30
0.0
  0
VERTEX
  5
70F
330
70E
100
AcDbEntity
  8
BEMA_UNG
 62
     7
100
AcDbVertex
100
AcDb2dVertex
 10
56.35094726231564
 20
-3.957642176902439
 30
0.0
  0
VERTEX
  5
710
330
70E
100
AcDbEntity
  8
BEMA_UNG
 62
     7
100
AcDbVertex
100
AcDb2dVertex
 10
54.92571031984689
 20
-6.283599928190273
 30
0.0
  0
SEQEND
  5
711
330
70E
100
AcDbEntity
  8
BEMA_UNG
  0
POLYLINE
  5
712
330
1F
100
AcDbEntity
  8
BEMA_UNG
 62
     7
100
AcDb2dPolyline
 66
     1
 10
0.0
 20
0.0
 30
0.0
  0
VERTEX
  5
713
330
712
100
AcDbEntity
  8
BEMA_UNG
 62
     7
100
AcDbVertex
100
AcDb2dVertex
 10
56.30788354034112
 20
-3.930942669278235
 30
0.0
  0
VERTEX
  5
714
330
712
100
AcDbEntity
  8
BEMA_UNG
 62
     7
100
AcDbVertex
100
AcDb2dVertex
 10
54.68024710459213
 20
-6.585907256451411
 30
0.0
  0
SEQEND
  5
715
330
712
100
AcDbEntity
  8
BEMA_UNG
  0
POLYLINE
  5
716
330
1F
100
AcDbEntity
  8
BEMA_UNG
 62
     7
100
AcDb2dPolyline
 66
     1
 10
0.0
 20
0.0
 30
0.0
  0
VERTEX
  5
717
330
716
100
AcDbEntity
  8
BEMA_UNG
 62
     7
100
AcDbVertex
100
AcDb2dVertex
 10
56.26413079881501
 20
-3.904070906766135
 30
0.0
  0
VERTEX
  5
718
330
716
100
AcDbEntity
  8
BEMA_UNG
 62
     7
100
AcDbVertex
100
AcDb2dVertex
 10
54.43547290888895
 20
-6.888903604264141
 30
0.0
  0
SEQEND
  5
719
330
716
100
AcDbEntity
  8
BEMA_UNG
  0
POLYLINE
  5
71A
330
1F
100
AcDbEntity
  8
BEMA_UNG
 62
     7
100
AcDb2dPolyline
 66
     1
 10
0.0
 20
0.0
 30
0.0
  0
VERTEX
  5
71B
330
71A
100
AcDbEntity
  8
BEMA_UNG
 62
     7
100
AcDbVertex
100
AcDb2dVertex
 10
55.87449024238954
 20
-3.665153377251491
 30
0.0
  0
VERTEX
  5
71C
330
71A
100
AcDbEntity
  8
BEMA_UNG
 62
     7
100
AcDbVertex
100
AcDb2dVertex
 10
55.8603653415819
 20
-3.688580042005631
 30
0.0
  0
SEQEND
  5
71D
330
71A
100
AcDbEntity
  8
BEMA_UNG
  0
POLYLINE
  5
71E
330
1F
100
AcDbEntity
  8
BEMA_UNG
 62
     7
100
AcDb2dPolyline
 66
     1
 10
0.0
 20
0.0
 30
0.0
  0
VERTEX
  5
71F
330
71E
100
AcDbEntity
  8
BEMA_UNG
 62
     7
100
AcDbVertex
100
AcDb2dVertex
 10
55.87449024238954
 20
-3.665153377251491
 30
0.0
  0
VERTEX
  5
720
330
71E
100
AcDbEntity
  8
BEMA_UNG
 62
     7
100
AcDbVertex
100
AcDb2dVertex
 10
55.8603653415819
 20
-3.688580042005631
 30
0.0
  0
SEQEND
  5
721
330
71E
100
AcDbEntity
  8
BEMA_UNG
  0
POLYLINE
  5
722
330
1F
100
AcDbEntity
  8
BEMA_UNG
 62
     7
100
AcDb2dPolyline
 66
     1
 10
0.0
 20
0.0
 30
0.0
  0
VERTEX
  5
723
330
722
100
AcDbEntity
  8
BEMA_UNG
 62
     7
100
AcDbVertex
100
AcDb2dVertex
 10
55.91772621925196
 20
-3.692025139763592
 30
0.0
  0
VERTEX
  5
724
330
722
100
AcDbEntity
  8
BEMA_UNG
 62
     7
100
AcDbVertex
100
AcDb2dVertex
 10
55.70223535449146
 20
-4.044458640403073
 30
0.0
  0
SEQEND
  5
725
330
722
100
AcDbEntity
  8
BEMA_UNG
  0
POLYLINE
  5
726
330
1F
100
AcDbEntity
  8
BEMA_UNG
 62
     7
100
AcDb2dPolyline
 66
     1
 10
0.0
 20
0.0
 30
0.0
  0
VERTEX
  5
727
330
726
100
AcDbEntity
  8
BEMA_UNG
 62
     7
100
AcDbVertex
100
AcDb2dVertex
 10
55.96147896077807
 20
-3.718896902275694
 30
0.0
  0
VERTEX
  5
728
330
726
100
AcDbEntity
  8
BEMA_UNG
 62
     7
100
AcDbVertex
100
AcDb2dVertex
 10
55.54341634784942
 20
-4.399648219248923
 30
0.0
  0
SEQEND
  5
729
330
726
100
AcDbEntity
  8
BEMA_UNG
  0
POLYLINE
  5
72A
330
1F
100
AcDbEntity
  8
BEMA_UNG
 62
     7
100
AcDb2dPolyline
 66
     1
 10
0.0
 20
0.0
 30
0.0
  0
VERTEX
  5
72B
330
72A
100
AcDbEntity
  8
BEMA_UNG
 62
     7
100
AcDbVertex
100
AcDb2dVertex
 10
56.00454268275259
 20
-3.745079645236202
 30
0.0
  0
VERTEX
  5
72C
330
72A
100
AcDbEntity
  8
BEMA_UNG
 62
     7
100
AcDbVertex
100
AcDb2dVertex
 10
55.38545861564688
 20
-4.755354562758468
 30
0.0
  0
SEQEND
  5
72D
330
72A
100
AcDbEntity
  8
BEMA_UNG
  0
POLYLINE
  5
72E
330
1F
100
AcDbEntity
  8
BEMA_UNG
 62
     7
100
AcDb2dPolyline
 66
     1
 10
0.0
 20
0.0
 30
0.0
  0
VERTEX
  5
72F
330
72E
100
AcDbEntity
  8
BEMA_UNG
 62
     7
100
AcDbVertex
100
AcDb2dVertex
 10
56.04795091450291
 20
-3.771779152860406
 30
0.0
  0
VERTEX
  5
730
330
72E
100
AcDbEntity
  8
BEMA_UNG
 62
     7
100
AcDbVertex
100
AcDb2dVertex
 10
55.22750088344434
 20
-5.111060906268012
 30
0.0
  0
SEQEND
  5
731
330
72E
100
AcDbEntity
  8
BEMA_UNG
  0
POLYLINE
  5
732
330
1F
100
AcDbEntity
  8
BEMA_UNG
 62
     7
100
AcDb2dPolyline
 66
     1
 10
0.0
 20
0.0
 30
0.0
  0
VERTEX
  5
733
330
732
100
AcDbEntity
  8
BEMA_UNG
 62
     7
100
AcDbVertex
100
AcDb2dVertex
 10
56.09101463647743
 20
-3.798306405596711
 30
0.0
  0
VERTEX
  5
734
330
732
100
AcDbEntity
  8
BEMA_UNG
 62
     7
100
AcDbVertex
100
AcDb2dVertex
 10
55.0686818768023
 20
-5.466250485113862
 30
0.0
  0
SEQEND
  5
735
330
732
100
AcDbEntity
  8
BEMA_UNG
  0
POLYLINE
  5
736
330
1F
100
AcDbEntity
  8
BEMA_UNG
 62
     7
100
AcDb2dPolyline
 66
     1
 10
0.0
 20
0.0
 30
0.0
  0
VERTEX
  5
737
330
736
100
AcDbEntity
  8
BEMA_UNG
 62
     7
100
AcDbVertex
100
AcDb2dVertex
 10
56.13476737800354
 20
-3.824661403445118
 30
0.0
  0
VERTEX
  5
738
330
736
100
AcDbEntity
  8
BEMA_UNG
 62
     7
100
AcDbVertex
100
AcDb2dVertex
 10
54.91055188971186
 20
-5.822129083511305
 30
0.0
  0
SEQEND
  5
739
330
736
100
AcDbEntity
  8
BEMA_UNG
  0
POLYLINE
  5
73A
330
1F
100
AcDbEntity
  8
BEMA_UNG
 62
     7
100
AcDb2dPolyline
 66
     1
 10
0.0
 20
0.0
 30
0.0
  0
VERTEX
  5
73B
330
73A
100
AcDbEntity
  8
BEMA_UNG
 62
     7
100
AcDbVertex
100
AcDb2dVertex
 10
56.17748659020227
 20
-3.851188656181423
 30
0.0
  0
VERTEX
  5
73C
330
73A
100
AcDbEntity
  8
BEMA_UNG
 62
     7
100
AcDbVertex
100
AcDb2dVertex
 10
54.75259415750932
 20
-6.17766317213295
 30
0.0
  0
SEQEND
  5
73D
330
73A
100
AcDbEntity
  8
BEMA_UNG
  0
POLYLINE
  5
73E
330
1F
100
AcDbEntity
  8
BEMA_UNG
 62
     7
100
AcDb2dPolyline
 66
     1
 10
0.0
 20
0.0
 30
0.0
  0
VERTEX
  5
73F
330
73E
100
AcDbEntity
  8
BEMA_UNG
 62
     7
100
AcDbVertex
100
AcDb2dVertex
 10
56.22123933172838
 20
-3.878060418693523
 30
0.0
  0
VERTEX
  5
740
330
73E
100
AcDbEntity
  8
BEMA_UNG
 62
     7
100
AcDbVertex
100
AcDb2dVertex
 10
54.59377515086729
 20
-6.533025005866699
 30
0.0
  0
SEQEND
  5
741
330
73E
100
AcDbEntity
  8
BEMA_UNG
  0
POLYLINE
  5
742
330
1F
100
AcDbEntity
  8
BEMA_UNG
 62
     7
100
AcDb2dPolyline
 66
     1
 10
0.0
 20
0.0
 30
0.0
  0
VERTEX
  5
743
330
742
100
AcDbEntity
  8
BEMA_UNG
 62
     7
100
AcDbVertex
100
AcDb2dVertex
 10
56.26413079881501
 20
-3.904070906766135
 30
0.0
  0
VERTEX
  5
744
330
742
100
AcDbEntity
  8
BEMA_UNG
 62
     7
100
AcDbVertex
100
AcDb2dVertex
 10
54.43547290888895
 20
-6.888903604264141
 30
0.0
  0
SEQEND
  5
745
330
742
100
AcDbEntity
  8
BEMA_UNG
  0
POLYLINE
  5
746
330
1F
100
AcDbEntity
  8
BEMA_UNG
 62
     7
100
AcDb2dPolyline
 66
     1
 10
0.0
 20
0.0
 30
0.0
  0
VERTEX
  5
747
330
746
100
AcDbEntity
  8
BEMA_UNG
 62
     7
100
AcDbVertex
100
AcDb2dVertex
 10
-0.0921563650254752
 20
-11.63624831473535
 30
0.0
  0
VERTEX
  5
748
330
746
100
AcDbEntity
  8
BEMA_UNG
 62
     7
100
AcDbVertex
100
AcDb2dVertex
 10
-12.00409862784171
 20
-11.63624831473535
 30
0.0
  0
SEQEND
  5
749
330
746
100
AcDbEntity
  8
BEMA_UNG
  0
POLYLINE
  5
74A
330
1F
100
AcDbEntity
  8
BEMA_UNG
 62
     7
100
AcDb2dPolyline
 66
     1
 10
0.0
 20
0.0
 30
0.0
  0
VERTEX
  5
74B
330
74A
100
AcDbEntity
  8
BEMA_UNG
 62
     7
100
AcDbVertex
100
AcDb2dVertex
 10
-0.0921563650254752
 20
-23.6360405703796
 30
0.0
  0
VERTEX
  5
74C
330
74A
100
AcDbEntity
  8
BEMA_UNG
 62
     7
100
AcDbVertex
100
AcDb2dVertex
 10
-12.00409862784171
 20
-23.6360405703796
 30
0.0
  0
SEQEND
  5
74D
330
74A
100
AcDbEntity
  8
BEMA_UNG
  0
POLYLINE
  5
74E
330
1F
100
AcDbEntity
  8
BEMA_UNG
 62
     7
100
AcDb2dPolyline
 66
     1
 10
0.0
 20
0.0
 30
0.0
  0
VERTEX
  5
74F
330
74E
100
AcDbEntity
  8
BEMA_UNG
 62
     7
100
AcDbVertex
100
AcDb2dVertex
 10
-10.00456388912074
 20
-11.63624831473535
 30
0.0
  0
VERTEX
  5
750
330
74E
100
AcDbEntity
  8
BEMA_UNG
 62
     7
100
AcDbVertex
100
AcDb2dVertex
 10
-10.00456388912074
 20
-23.6360405703796
 30
0.0
  0
SEQEND
  5
751
330
74E
100
AcDbEntity
  8
BEMA_UNG
  0
POLYLINE
  5
752
330
1F
100
AcDbEntity
  8
BEMA_UNG
 62
     7
100
AcDb2dPolyline
 66
     1
 10
0.0
 20
0.0
 30
0.0
  0
VERTEX
  5
753
330
752
100
AcDbEntity
  8
BEMA_UNG
 62
     7
100
AcDbVertex
100
AcDb2dVertex
 10
-10.00456388912074
 20
-11.63624831473535
 30
0.0
  0
VERTEX
  5
754
330
752
100
AcDbEntity
  8
BEMA_UNG
 62
     7
100
AcDbVertex
100
AcDb2dVertex
 10
-10.46482894958442
 20
-15.13629538193653
 30
0.0
  0
VERTEX
  5
755
330
752
100
AcDbEntity
  8
BEMA_UNG
 62
     7
100
AcDbVertex
100
AcDb2dVertex
 10
-9.543782063993367
 20
-15.13629538193653
 30
0.0
  0
VERTEX
  5
756
330
752
100
AcDbEntity
  8
BEMA_UNG
 62
     7
100
AcDbVertex
100
AcDb2dVertex
 10
-10.00456388912074
 20
-11.63624831473535
 30
0.0
  0
SEQEND
  5
757
330
752
100
AcDbEntity
  8
BEMA_UNG
  0
POLYLINE
  5
758
330
1F
100
AcDbEntity
  8
BEMA_UNG
 62
     7
100
AcDb2dPolyline
 66
     1
 10
0.0
 20
0.0
 30
0.0
  0
VERTEX
  5
759
330
758
100
AcDbEntity
  8
BEMA_UNG
 62
     7
100
AcDbVertex
100
AcDb2dVertex
 10
-10.46138385182646
 20
-15.13629538193653
 30
0.0
  0
VERTEX
  5
75A
330
758
100
AcDbEntity
  8
BEMA_UNG
 62
     7
100
AcDbVertex
100
AcDb2dVertex
 10
-10.46138385182646
 20
-15.10873459987283
 30
0.0
  0
SEQEND
  5
75B
330
758
100
AcDbEntity
  8
BEMA_UNG
  0
POLYLINE
  5
75C
330
1F
100
AcDbEntity
  8
BEMA_UNG
 62
     7
100
AcDb2dPolyline
 66
     1
 10
0.0
 20
0.0
 30
0.0
  0
VERTEX
  5
75D
330
75C
100
AcDbEntity
  8
BEMA_UNG
 62
     7
100
AcDbVertex
100
AcDb2dVertex
 10
-10.46138385182646
 20
-15.13629538193653
 30
0.0
  0
VERTEX
  5
75E
330
75C
100
AcDbEntity
  8
BEMA_UNG
 62
     7
100
AcDbVertex
100
AcDb2dVertex
 10
-10.46138385182646
 20
-15.10873459987283
 30
0.0
  0
SEQEND
  5
75F
330
75C
100
AcDbEntity
  8
BEMA_UNG
  0
POLYLINE
  5
760
330
1F
100
AcDbEntity
  8
BEMA_UNG
 62
     7
100
AcDb2dPolyline
 66
     1
 10
0.0
 20
0.0
 30
0.0
  0
VERTEX
  5
761
330
760
100
AcDbEntity
  8
BEMA_UNG
 62
     7
100
AcDbVertex
100
AcDb2dVertex
 10
-10.41056865989653
 20
-15.13629538193653
 30
0.0
  0
VERTEX
  5
762
330
760
100
AcDbEntity
  8
BEMA_UNG
 62
     7
100
AcDbVertex
100
AcDb2dVertex
 10
-10.41056865989653
 20
-14.72305590586902
 30
0.0
  0
SEQEND
  5
763
330
760
100
AcDbEntity
  8
BEMA_UNG
  0
POLYLINE
  5
764
330
1F
100
AcDbEntity
  8
BEMA_UNG
 62
     7
100
AcDb2dPolyline
 66
     1
 10
0.0
 20
0.0
 30
0.0
  0
VERTEX
  5
765
330
764
100
AcDbEntity
  8
BEMA_UNG
 62
     7
100
AcDbVertex
100
AcDb2dVertex
 10
-10.35975346796659
 20
-15.13629538193653
 30
0.0
  0
VERTEX
  5
766
330
764
100
AcDbEntity
  8
BEMA_UNG
 62
     7
100
AcDbVertex
100
AcDb2dVertex
 10
-10.35975346796659
 20
-14.33754946675311
 30
0.0
  0
SEQEND
  5
767
330
764
100
AcDbEntity
  8
BEMA_UNG
  0
POLYLINE
  5
768
330
1F
100
AcDbEntity
  8
BEMA_UNG
 62
     7
100
AcDb2dPolyline
 66
     1
 10
0.0
 20
0.0
 30
0.0
  0
VERTEX
  5
769
330
768
100
AcDbEntity
  8
BEMA_UNG
 62
     7
100
AcDbVertex
100
AcDb2dVertex
 10
-10.30893827603666
 20
-15.13629538193653
 30
0.0
  0
VERTEX
  5
76A
330
768
100
AcDbEntity
  8
BEMA_UNG
 62
     7
100
AcDbVertex
100
AcDb2dVertex
 10
-10.30893827603666
 20
-13.95118175319771
 30
0.0
  0
SEQEND
  5
76B
330
768
100
AcDbEntity
  8
BEMA_UNG
  0
POLYLINE
  5
76C
330
1F
100
AcDbEntity
  8
BEMA_UNG
 62
     7
100
AcDb2dPolyline
 66
     1
 10
0.0
 20
0.0
 30
0.0
  0
VERTEX
  5
76D
330
76C
100
AcDbEntity
  8
BEMA_UNG
 62
     7
100
AcDbVertex
100
AcDb2dVertex
 10
-10.25812308410672
 20
-15.13629538193653
 30
0.0
  0
VERTEX
  5
76E
330
76C
100
AcDbEntity
  8
BEMA_UNG
 62
     7
100
AcDbVertex
100
AcDb2dVertex
 10
-10.25812308410672
 20
-13.565330804306
 30
0.0
  0
SEQEND
  5
76F
330
76C
100
AcDbEntity
  8
BEMA_UNG
  0
POLYLINE
  5
770
330
1F
100
AcDbEntity
  8
BEMA_UNG
 62
     7
100
AcDb2dPolyline
 66
     1
 10
0.0
 20
0.0
 30
0.0
  0
VERTEX
  5
771
330
770
100
AcDbEntity
  8
BEMA_UNG
 62
     7
100
AcDbVertex
100
AcDb2dVertex
 10
-10.20765240195258
 20
-15.13629538193653
 30
0.0
  0
VERTEX
  5
772
330
770
100
AcDbEntity
  8
BEMA_UNG
 62
     7
100
AcDbVertex
100
AcDb2dVertex
 10
-10.20765240195258
 20
-13.17965211030218
 30
0.0
  0
SEQEND
  5
773
330
770
100
AcDbEntity
  8
BEMA_UNG
  0
POLYLINE
  5
774
330
1F
100
AcDbEntity
  8
BEMA_UNG
 62
     7
100
AcDb2dPolyline
 66
     1
 10
0.0
 20
0.0
 30
0.0
  0
VERTEX
  5
775
330
774
100
AcDbEntity
  8
BEMA_UNG
 62
     7
100
AcDbVertex
100
AcDb2dVertex
 10
-10.15683721002265
 20
-15.13629538193653
 30
0.0
  0
VERTEX
  5
776
330
774
100
AcDbEntity
  8
BEMA_UNG
 62
     7
100
AcDbVertex
100
AcDb2dVertex
 10
-10.15683721002265
 20
-12.79328439674678
 30
0.0
  0
SEQEND
  5
777
330
774
100
AcDbEntity
  8
BEMA_UNG
  0
POLYLINE
  5
778
330
1F
100
AcDbEntity
  8
BEMA_UNG
 62
     7
100
AcDb2dPolyline
 66
     1
 10
0.0
 20
0.0
 30
0.0
  0
VERTEX
  5
779
330
778
100
AcDbEntity
  8
BEMA_UNG
 62
     7
100
AcDbVertex
100
AcDb2dVertex
 10
-10.10602201809271
 20
-15.13629538193653
 30
0.0
  0
VERTEX
  5
77A
330
778
100
AcDbEntity
  8
BEMA_UNG
 62
     7
100
AcDbVertex
100
AcDb2dVertex
 10
-10.10602201809271
 20
-12.40777795763087
 30
0.0
  0
SEQEND
  5
77B
330
778
100
AcDbEntity
  8
BEMA_UNG
  0
POLYLINE
  5
77C
330
1F
100
AcDbEntity
  8
BEMA_UNG
 62
     7
100
AcDb2dPolyline
 66
     1
 10
0.0
 20
0.0
 30
0.0
  0
VERTEX
  5
77D
330
77C
100
AcDbEntity
  8
BEMA_UNG
 62
     7
100
AcDbVertex
100
AcDb2dVertex
 10
-10.05537908105068
 20
-15.13629538193653
 30
0.0
  0
VERTEX
  5
77E
330
77C
100
AcDbEntity
  8
BEMA_UNG
 62
     7
100
AcDbVertex
100
AcDb2dVertex
 10
-10.05537908105068
 20
-12.02192700873916
 30
0.0
  0
SEQEND
  5
77F
330
77C
100
AcDbEntity
  8
BEMA_UNG
  0
POLYLINE
  5
780
330
1F
100
AcDbEntity
  8
BEMA_UNG
 62
     7
100
AcDb2dPolyline
 66
     1
 10
0.0
 20
0.0
 30
0.0
  0
VERTEX
  5
781
330
780
100
AcDbEntity
  8
BEMA_UNG
 62
     7
100
AcDbVertex
100
AcDb2dVertex
 10
-10.00456388912074
 20
-15.13629538193653
 30
0.0
  0
VERTEX
  5
782
330
780
100
AcDbEntity
  8
BEMA_UNG
 62
     7
100
AcDbVertex
100
AcDb2dVertex
 10
-10.00456388912074
 20
-11.63624831473535
 30
0.0
  0
SEQEND
  5
783
330
780
100
AcDbEntity
  8
BEMA_UNG
  0
POLYLINE
  5
784
330
1F
100
AcDbEntity
  8
BEMA_UNG
 62
     7
100
AcDb2dPolyline
 66
     1
 10
0.0
 20
0.0
 30
0.0
  0
VERTEX
  5
785
330
784
100
AcDbEntity
  8
BEMA_UNG
 62
     7
100
AcDbVertex
100
AcDb2dVertex
 10
-9.54722716175133
 20
-15.13629538193653
 30
0.0
  0
VERTEX
  5
786
330
784
100
AcDbEntity
  8
BEMA_UNG
 62
     7
100
AcDbVertex
100
AcDb2dVertex
 10
-9.54722716175133
 20
-15.10873459987283
 30
0.0
  0
SEQEND
  5
787
330
784
100
AcDbEntity
  8
BEMA_UNG
  0
POLYLINE
  5
788
330
1F
100
AcDbEntity
  8
BEMA_UNG
 62
     7
100
AcDb2dPolyline
 66
     1
 10
0.0
 20
0.0
 30
0.0
  0
VERTEX
  5
789
330
788
100
AcDbEntity
  8
BEMA_UNG
 62
     7
100
AcDbVertex
100
AcDb2dVertex
 10
-9.54722716175133
 20
-15.13629538193653
 30
0.0
  0
VERTEX
  5
78A
330
788
100
AcDbEntity
  8
BEMA_UNG
 62
     7
100
AcDbVertex
100
AcDb2dVertex
 10
-9.54722716175133
 20
-15.10873459987283
 30
0.0
  0
SEQEND
  5
78B
330
788
100
AcDbEntity
  8
BEMA_UNG
  0
POLYLINE
  5
78C
330
1F
100
AcDbEntity
  8
BEMA_UNG
 62
     7
100
AcDb2dPolyline
 66
     1
 10
0.0
 20
0.0
 30
0.0
  0
VERTEX
  5
78D
330
78C
100
AcDbEntity
  8
BEMA_UNG
 62
     7
100
AcDbVertex
100
AcDb2dVertex
 10
-9.598042353681263
 20
-15.13629538193653
 30
0.0
  0
VERTEX
  5
78E
330
78C
100
AcDbEntity
  8
BEMA_UNG
 62
     7
100
AcDbVertex
100
AcDb2dVertex
 10
-9.598042353681263
 20
-14.72305590586902
 30
0.0
  0
SEQEND
  5
78F
330
78C
100
AcDbEntity
  8
BEMA_UNG
  0
POLYLINE
  5
790
330
1F
100
AcDbEntity
  8
BEMA_UNG
 62
     7
100
AcDb2dPolyline
 66
     1
 10
0.0
 20
0.0
 30
0.0
  0
VERTEX
  5
791
330
790
100
AcDbEntity
  8
BEMA_UNG
 62
     7
100
AcDbVertex
100
AcDb2dVertex
 10
-9.648857545611198
 20
-15.13629538193653
 30
0.0
  0
VERTEX
  5
792
330
790
100
AcDbEntity
  8
BEMA_UNG
 62
     7
100
AcDbVertex
100
AcDb2dVertex
 10
-9.648857545611198
 20
-14.33754946675311
 30
0.0
  0
SEQEND
  5
793
330
790
100
AcDbEntity
  8
BEMA_UNG
  0
POLYLINE
  5
794
330
1F
100
AcDbEntity
  8
BEMA_UNG
 62
     7
100
AcDb2dPolyline
 66
     1
 10
0.0
 20
0.0
 30
0.0
  0
VERTEX
  5
795
330
794
100
AcDbEntity
  8
BEMA_UNG
 62
     7
100
AcDbVertex
100
AcDb2dVertex
 10
-9.699672737541134
 20
-15.13629538193653
 30
0.0
  0
VERTEX
  5
796
330
794
100
AcDbEntity
  8
BEMA_UNG
 62
     7
100
AcDbVertex
100
AcDb2dVertex
 10
-9.699672737541134
 20
-13.95118175319771
 30
0.0
  0
SEQEND
  5
797
330
794
100
AcDbEntity
  8
BEMA_UNG
  0
POLYLINE
  5
798
330
1F
100
AcDbEntity
  8
BEMA_UNG
 62
     7
100
AcDb2dPolyline
 66
     1
 10
0.0
 20
0.0
 30
0.0
  0
VERTEX
  5
799
330
798
100
AcDbEntity
  8
BEMA_UNG
 62
     7
100
AcDbVertex
100
AcDb2dVertex
 10
-9.750143419695272
 20
-15.13629538193653
 30
0.0
  0
VERTEX
  5
79A
330
798
100
AcDbEntity
  8
BEMA_UNG
 62
     7
100
AcDbVertex
100
AcDb2dVertex
 10
-9.750143419695272
 20
-13.565330804306
 30
0.0
  0
SEQEND
  5
79B
330
798
100
AcDbEntity
  8
BEMA_UNG
  0
POLYLINE
  5
79C
330
1F
100
AcDbEntity
  8
BEMA_UNG
 62
     7
100
AcDb2dPolyline
 66
     1
 10
0.0
 20
0.0
 30
0.0
  0
VERTEX
  5
79D
330
79C
100
AcDbEntity
  8
BEMA_UNG
 62
     7
100
AcDbVertex
100
AcDb2dVertex
 10
-9.800958611625207
 20
-15.13629538193653
 30
0.0
  0
VERTEX
  5
79E
330
79C
100
AcDbEntity
  8
BEMA_UNG
 62
     7
100
AcDbVertex
100
AcDb2dVertex
 10
-9.800958611625207
 20
-13.17965211030218
 30
0.0
  0
SEQEND
  5
79F
330
79C
100
AcDbEntity
  8
BEMA_UNG
  0
POLYLINE
  5
7A0
330
1F
100
AcDbEntity
  8
BEMA_UNG
 62
     7
100
AcDb2dPolyline
 66
     1
 10
0.0
 20
0.0
 30
0.0
  0
VERTEX
  5
7A1
330
7A0
100
AcDbEntity
  8
BEMA_UNG
 62
     7
100
AcDbVertex
100
AcDb2dVertex
 10
-9.851773803555142
 20
-15.13629538193653
 30
0.0
  0
VERTEX
  5
7A2
330
7A0
100
AcDbEntity
  8
BEMA_UNG
 62
     7
100
AcDbVertex
100
AcDb2dVertex
 10
-9.851773803555142
 20
-12.79328439674678
 30
0.0
  0
SEQEND
  5
7A3
330
7A0
100
AcDbEntity
  8
BEMA_UNG
  0
POLYLINE
  5
7A4
330
1F
100
AcDbEntity
  8
BEMA_UNG
 62
     7
100
AcDb2dPolyline
 66
     1
 10
0.0
 20
0.0
 30
0.0
  0
VERTEX
  5
7A5
330
7A4
100
AcDbEntity
  8
BEMA_UNG
 62
     7
100
AcDbVertex
100
AcDb2dVertex
 10
-9.902588995485077
 20
-15.13629538193653
 30
0.0
  0
VERTEX
  5
7A6
330
7A4
100
AcDbEntity
  8
BEMA_UNG
 62
     7
100
AcDbVertex
100
AcDb2dVertex
 10
-9.902588995485077
 20
-12.40777795763087
 30
0.0
  0
SEQEND
  5
7A7
330
7A4
100
AcDbEntity
  8
BEMA_UNG
  0
POLYLINE
  5
7A8
330
1F
100
AcDbEntity
  8
BEMA_UNG
 62
     7
100
AcDb2dPolyline
 66
     1
 10
0.0
 20
0.0
 30
0.0
  0
VERTEX
  5
7A9
330
7A8
100
AcDbEntity
  8
BEMA_UNG
 62
     7
100
AcDbVertex
100
AcDb2dVertex
 10
-9.953404187415012
 20
-15.13629538193653
 30
0.0
  0
VERTEX
  5
7AA
330
7A8
100
AcDbEntity
  8
BEMA_UNG
 62
     7
100
AcDbVertex
100
AcDb2dVertex
 10
-9.953404187415012
 20
-12.02192700873916
 30
0.0
  0
SEQEND
  5
7AB
330
7A8
100
AcDbEntity
  8
BEMA_UNG
  0
POLYLINE
  5
7AC
330
1F
100
AcDbEntity
  8
BEMA_UNG
 62
     7
100
AcDb2dPolyline
 66
     1
 10
0.0
 20
0.0
 30
0.0
  0
VERTEX
  5
7AD
330
7AC
100
AcDbEntity
  8
BEMA_UNG
 62
     7
100
AcDbVertex
100
AcDb2dVertex
 10
-10.00456388912074
 20
-15.13629538193653
 30
0.0
  0
VERTEX
  5
7AE
330
7AC
100
AcDbEntity
  8
BEMA_UNG
 62
     7
100
AcDbVertex
100
AcDb2dVertex
 10
-10.00456388912074
 20
-11.63624831473535
 30
0.0
  0
SEQEND
  5
7AF
330
7AC
100
AcDbEntity
  8
BEMA_UNG
  0
POLYLINE
  5
7B0
330
1F
100
AcDbEntity
  8
BEMA_UNG
 62
     7
100
AcDb2dPolyline
 66
     1
 10
0.0
 20
0.0
 30
0.0
  0
VERTEX
  5
7B1
330
7B0
100
AcDbEntity
  8
BEMA_UNG
 62
     7
100
AcDbVertex
100
AcDb2dVertex
 10
-10.00456388912074
 20
-23.6360405703796
 30
0.0
  0
VERTEX
  5
7B2
330
7B0
100
AcDbEntity
  8
BEMA_UNG
 62
     7
100
AcDbVertex
100
AcDb2dVertex
 10
-9.543782063993367
 20
-20.13651026784212
 30
0.0
  0
VERTEX
  5
7B3
330
7B0
100
AcDbEntity
  8
BEMA_UNG
 62
     7
100
AcDbVertex
100
AcDb2dVertex
 10
-10.46482894958442
 20
-20.13651026784212
 30
0.0
  0
VERTEX
  5
7B4
330
7B0
100
AcDbEntity
  8
BEMA_UNG
 62
     7
100
AcDbVertex
100
AcDb2dVertex
 10
-10.00456388912074
 20
-23.6360405703796
 30
0.0
  0
SEQEND
  5
7B5
330
7B0
100
AcDbEntity
  8
BEMA_UNG
  0
POLYLINE
  5
7B6
330
1F
100
AcDbEntity
  8
BEMA_UNG
 62
     7
100
AcDb2dPolyline
 66
     1
 10
0.0
 20
0.0
 30
0.0
  0
VERTEX
  5
7B7
330
7B6
100
AcDbEntity
  8
BEMA_UNG
 62
     7
100
AcDbVertex
100
AcDb2dVertex
 10
-9.54722716175133
 20
-20.13651026784212
 30
0.0
  0
VERTEX
  5
7B8
330
7B6
100
AcDbEntity
  8
BEMA_UNG
 62
     7
100
AcDbVertex
100
AcDb2dVertex
 10
-9.54722716175133
 20
-20.16372654013002
 30
0.0
  0
SEQEND
  5
7B9
330
7B6
100
AcDbEntity
  8
BEMA_UNG
  0
POLYLINE
  5
7BA
330
1F
100
AcDbEntity
  8
BEMA_UNG
 62
     7
100
AcDb2dPolyline
 66
     1
 10
0.0
 20
0.0
 30
0.0
  0
VERTEX
  5
7BB
330
7BA
100
AcDbEntity
  8
BEMA_UNG
 62
     7
100
AcDbVertex
100
AcDb2dVertex
 10
-9.54722716175133
 20
-20.13651026784212
 30
0.0
  0
VERTEX
  5
7BC
330
7BA
100
AcDbEntity
  8
BEMA_UNG
 62
     7
100
AcDbVertex
100
AcDb2dVertex
 10
-9.54722716175133
 20
-20.16372654013002
 30
0.0
  0
SEQEND
  5
7BD
330
7BA
100
AcDbEntity
  8
BEMA_UNG
  0
POLYLINE
  5
7BE
330
1F
100
AcDbEntity
  8
BEMA_UNG
 62
     7
100
AcDb2dPolyline
 66
     1
 10
0.0
 20
0.0
 30
0.0
  0
VERTEX
  5
7BF
330
7BE
100
AcDbEntity
  8
BEMA_UNG
 62
     7
100
AcDbVertex
100
AcDb2dVertex
 10
-9.598042353681263
 20
-20.13651026784212
 30
0.0
  0
VERTEX
  5
7C0
330
7BE
100
AcDbEntity
  8
BEMA_UNG
 62
     7
100
AcDbVertex
100
AcDb2dVertex
 10
-9.598042353681263
 20
-20.54923297924593
 30
0.0
  0
SEQEND
  5
7C1
330
7BE
100
AcDbEntity
  8
BEMA_UNG
  0
POLYLINE
  5
7C2
330
1F
100
AcDbEntity
  8
BEMA_UNG
 62
     7
100
AcDb2dPolyline
 66
     1
 10
0.0
 20
0.0
 30
0.0
  0
VERTEX
  5
7C3
330
7C2
100
AcDbEntity
  8
BEMA_UNG
 62
     7
100
AcDbVertex
100
AcDb2dVertex
 10
-9.648857545611198
 20
-20.13651026784212
 30
0.0
  0
VERTEX
  5
7C4
330
7C2
100
AcDbEntity
  8
BEMA_UNG
 62
     7
100
AcDbVertex
100
AcDb2dVertex
 10
-9.648857545611198
 20
-20.93508392813764
 30
0.0
  0
SEQEND
  5
7C5
330
7C2
100
AcDbEntity
  8
BEMA_UNG
  0
POLYLINE
  5
7C6
330
1F
100
AcDbEntity
  8
BEMA_UNG
 62
     7
100
AcDb2dPolyline
 66
     1
 10
0.0
 20
0.0
 30
0.0
  0
VERTEX
  5
7C7
330
7C6
100
AcDbEntity
  8
BEMA_UNG
 62
     7
100
AcDbVertex
100
AcDb2dVertex
 10
-9.699672737541134
 20
-20.13651026784212
 30
0.0
  0
VERTEX
  5
7C8
330
7C6
100
AcDbEntity
  8
BEMA_UNG
 62
     7
100
AcDbVertex
100
AcDb2dVertex
 10
-9.699672737541134
 20
-21.32076262214145
 30
0.0
  0
SEQEND
  5
7C9
330
7C6
100
AcDbEntity
  8
BEMA_UNG
  0
POLYLINE
  5
7CA
330
1F
100
AcDbEntity
  8
BEMA_UNG
 62
     7
100
AcDb2dPolyline
 66
     1
 10
0.0
 20
0.0
 30
0.0
  0
VERTEX
  5
7CB
330
7CA
100
AcDbEntity
  8
BEMA_UNG
 62
     7
100
AcDbVertex
100
AcDb2dVertex
 10
-9.750143419695272
 20
-20.13651026784212
 30
0.0
  0
VERTEX
  5
7CC
330
7CA
100
AcDbEntity
  8
BEMA_UNG
 62
     7
100
AcDbVertex
100
AcDb2dVertex
 10
-9.750143419695272
 20
-21.70713033569685
 30
0.0
  0
SEQEND
  5
7CD
330
7CA
100
AcDbEntity
  8
BEMA_UNG
  0
POLYLINE
  5
7CE
330
1F
100
AcDbEntity
  8
BEMA_UNG
 62
     7
100
AcDb2dPolyline
 66
     1
 10
0.0
 20
0.0
 30
0.0
  0
VERTEX
  5
7CF
330
7CE
100
AcDbEntity
  8
BEMA_UNG
 62
     7
100
AcDbVertex
100
AcDb2dVertex
 10
-9.800958611625207
 20
-20.13651026784212
 30
0.0
  0
VERTEX
  5
7D0
330
7CE
100
AcDbEntity
  8
BEMA_UNG
 62
     7
100
AcDbVertex
100
AcDb2dVertex
 10
-9.800958611625207
 20
-22.09263677481277
 30
0.0
  0
SEQEND
  5
7D1
330
7CE
100
AcDbEntity
  8
BEMA_UNG
  0
POLYLINE
  5
7D2
330
1F
100
AcDbEntity
  8
BEMA_UNG
 62
     7
100
AcDb2dPolyline
 66
     1
 10
0.0
 20
0.0
 30
0.0
  0
VERTEX
  5
7D3
330
7D2
100
AcDbEntity
  8
BEMA_UNG
 62
     7
100
AcDbVertex
100
AcDb2dVertex
 10
-9.851773803555142
 20
-20.13651026784212
 30
0.0
  0
VERTEX
  5
7D4
330
7D2
100
AcDbEntity
  8
BEMA_UNG
 62
     7
100
AcDbVertex
100
AcDb2dVertex
 10
-9.851773803555142
 20
-22.47883223348027
 30
0.0
  0
SEQEND
  5
7D5
330
7D2
100
AcDbEntity
  8
BEMA_UNG
  0
POLYLINE
  5
7D6
330
1F
100
AcDbEntity
  8
BEMA_UNG
 62
     7
100
AcDb2dPolyline
 66
     1
 10
0.0
 20
0.0
 30
0.0
  0
VERTEX
  5
7D7
330
7D6
100
AcDbEntity
  8
BEMA_UNG
 62
     7
100
AcDbVertex
100
AcDb2dVertex
 10
-9.902588995485077
 20
-20.13651026784212
 30
0.0
  0
VERTEX
  5
7D8
330
7D6
100
AcDbEntity
  8
BEMA_UNG
 62
     7
100
AcDbVertex
100
AcDb2dVertex
 10
-9.902588995485077
 20
-22.86416641770829
 30
0.0
  0
SEQEND
  5
7D9
330
7D6
100
AcDbEntity
  8
BEMA_UNG
  0
POLYLINE
  5
7DA
330
1F
100
AcDbEntity
  8
BEMA_UNG
 62
     7
100
AcDb2dPolyline
 66
     1
 10
0.0
 20
0.0
 30
0.0
  0
VERTEX
  5
7DB
330
7DA
100
AcDbEntity
  8
BEMA_UNG
 62
     7
100
AcDbVertex
100
AcDb2dVertex
 10
-9.953404187415012
 20
-20.13651026784212
 30
0.0
  0
VERTEX
  5
7DC
330
7DA
100
AcDbEntity
  8
BEMA_UNG
 62
     7
100
AcDbVertex
100
AcDb2dVertex
 10
-9.953404187415012
 20
-23.25053413126369
 30
0.0
  0
SEQEND
  5
7DD
330
7DA
100
AcDbEntity
  8
BEMA_UNG
  0
POLYLINE
  5
7DE
330
1F
100
AcDbEntity
  8
BEMA_UNG
 62
     7
100
AcDb2dPolyline
 66
     1
 10
0.0
 20
0.0
 30
0.0
  0
VERTEX
  5
7DF
330
7DE
100
AcDbEntity
  8
BEMA_UNG
 62
     7
100
AcDbVertex
100
AcDb2dVertex
 10
-10.00456388912074
 20
-20.13651026784212
 30
0.0
  0
VERTEX
  5
7E0
330
7DE
100
AcDbEntity
  8
BEMA_UNG
 62
     7
100
AcDbVertex
100
AcDb2dVertex
 10
-10.00456388912074
 20
-23.6360405703796
 30
0.0
  0
SEQEND
  5
7E1
330
7DE
100
AcDbEntity
  8
BEMA_UNG
  0
POLYLINE
  5
7E2
330
1F
100
AcDbEntity
  8
BEMA_UNG
 62
     7
100
AcDb2dPolyline
 66
     1
 10
0.0
 20
0.0
 30
0.0
  0
VERTEX
  5
7E3
330
7E2
100
AcDbEntity
  8
BEMA_UNG
 62
     7
100
AcDbVertex
100
AcDb2dVertex
 10
-10.46138385182646
 20
-20.13651026784212
 30
0.0
  0
VERTEX
  5
7E4
330
7E2
100
AcDbEntity
  8
BEMA_UNG
 62
     7
100
AcDbVertex
100
AcDb2dVertex
 10
-10.46138385182646
 20
-20.16372654013002
 30
0.0
  0
SEQEND
  5
7E5
330
7E2
100
AcDbEntity
  8
BEMA_UNG
  0
POLYLINE
  5
7E6
330
1F
100
AcDbEntity
  8
BEMA_UNG
 62
     7
100
AcDb2dPolyline
 66
     1
 10
0.0
 20
0.0
 30
0.0
  0
VERTEX
  5
7E7
330
7E6
100
AcDbEntity
  8
BEMA_UNG
 62
     7
100
AcDbVertex
100
AcDb2dVertex
 10
-10.46138385182646
 20
-20.13651026784212
 30
0.0
  0
VERTEX
  5
7E8
330
7E6
100
AcDbEntity
  8
BEMA_UNG
 62
     7
100
AcDbVertex
100
AcDb2dVertex
 10
-10.46138385182646
 20
-20.16372654013002
 30
0.0
  0
SEQEND
  5
7E9
330
7E6
100
AcDbEntity
  8
BEMA_UNG
  0
POLYLINE
  5
7EA
330
1F
100
AcDbEntity
  8
BEMA_UNG
 62
     7
100
AcDb2dPolyline
 66
     1
 10
0.0
 20
0.0
 30
0.0
  0
VERTEX
  5
7EB
330
7EA
100
AcDbEntity
  8
BEMA_UNG
 62
     7
100
AcDbVertex
100
AcDb2dVertex
 10
-10.41056865989653
 20
-20.13651026784212
 30
0.0
  0
VERTEX
  5
7EC
330
7EA
100
AcDbEntity
  8
BEMA_UNG
 62
     7
100
AcDbVertex
100
AcDb2dVertex
 10
-10.41056865989653
 20
-20.54923297924593
 30
0.0
  0
SEQEND
  5
7ED
330
7EA
100
AcDbEntity
  8
BEMA_UNG
  0
POLYLINE
  5
7EE
330
1F
100
AcDbEntity
  8
BEMA_UNG
 62
     7
100
AcDb2dPolyline
 66
     1
 10
0.0
 20
0.0
 30
0.0
  0
VERTEX
  5
7EF
330
7EE
100
AcDbEntity
  8
BEMA_UNG
 62
     7
100
AcDbVertex
100
AcDb2dVertex
 10
-10.35975346796659
 20
-20.13651026784212
 30
0.0
  0
VERTEX
  5
7F0
330
7EE
100
AcDbEntity
  8
BEMA_UNG
 62
     7
100
AcDbVertex
100
AcDb2dVertex
 10
-10.35975346796659
 20
-20.93508392813764
 30
0.0
  0
SEQEND
  5
7F1
330
7EE
100
AcDbEntity
  8
BEMA_UNG
  0
POLYLINE
  5
7F2
330
1F
100
AcDbEntity
  8
BEMA_UNG
 62
     7
100
AcDb2dPolyline
 66
     1
 10
0.0
 20
0.0
 30
0.0
  0
VERTEX
  5
7F3
330
7F2
100
AcDbEntity
  8
BEMA_UNG
 62
     7
100
AcDbVertex
100
AcDb2dVertex
 10
-10.30893827603666
 20
-20.13651026784212
 30
0.0
  0
VERTEX
  5
7F4
330
7F2
100
AcDbEntity
  8
BEMA_UNG
 62
     7
100
AcDbVertex
100
AcDb2dVertex
 10
-10.30893827603666
 20
-21.32076262214145
 30
0.0
  0
SEQEND
  5
7F5
330
7F2
100
AcDbEntity
  8
BEMA_UNG
  0
POLYLINE
  5
7F6
330
1F
100
AcDbEntity
  8
BEMA_UNG
 62
     7
100
AcDb2dPolyline
 66
     1
 10
0.0
 20
0.0
 30
0.0
  0
VERTEX
  5
7F7
330
7F6
100
AcDbEntity
  8
BEMA_UNG
 62
     7
100
AcDbVertex
100
AcDb2dVertex
 10
-10.25812308410672
 20
-20.13651026784212
 30
0.0
  0
VERTEX
  5
7F8
330
7F6
100
AcDbEntity
  8
BEMA_UNG
 62
     7
100
AcDbVertex
100
AcDb2dVertex
 10
-10.25812308410672
 20
-21.70713033569685
 30
0.0
  0
SEQEND
  5
7F9
330
7F6
100
AcDbEntity
  8
BEMA_UNG
  0
POLYLINE
  5
7FA
330
1F
100
AcDbEntity
  8
BEMA_UNG
 62
     7
100
AcDb2dPolyline
 66
     1
 10
0.0
 20
0.0
 30
0.0
  0
VERTEX
  5
7FB
330
7FA
100
AcDbEntity
  8
BEMA_UNG
 62
     7
100
AcDbVertex
100
AcDb2dVertex
 10
-10.20765240195258
 20
-20.13651026784212
 30
0.0
  0
VERTEX
  5
7FC
330
7FA
100
AcDbEntity
  8
BEMA_UNG
 62
     7
100
AcDbVertex
100
AcDb2dVertex
 10
-10.20765240195258
 20
-22.09263677481277
 30
0.0
  0
SEQEND
  5
7FD
330
7FA
100
AcDbEntity
  8
BEMA_UNG
  0
POLYLINE
  5
7FE
330
1F
100
AcDbEntity
  8
BEMA_UNG
 62
     7
100
AcDb2dPolyline
 66
     1
 10
0.0
 20
0.0
 30
0.0
  0
VERTEX
  5
7FF
330
7FE
100
AcDbEntity
  8
BEMA_UNG
 62
     7
100
AcDbVertex
100
AcDb2dVertex
 10
-10.15683721002265
 20
-20.13651026784212
 30
0.0
  0
VERTEX
  5
800
330
7FE
100
AcDbEntity
  8
BEMA_UNG
 62
     7
100
AcDbVertex
100
AcDb2dVertex
 10
-10.15683721002265
 20
-22.47883223348027
 30
0.0
  0
SEQEND
  5
801
330
7FE
100
AcDbEntity
  8
BEMA_UNG
  0
POLYLINE
  5
802
330
1F
100
AcDbEntity
  8
BEMA_UNG
 62
     7
100
AcDb2dPolyline
 66
     1
 10
0.0
 20
0.0
 30
0.0
  0
VERTEX
  5
803
330
802
100
AcDbEntity
  8
BEMA_UNG
 62
     7
100
AcDbVertex
100
AcDb2dVertex
 10
-10.10602201809271
 20
-20.13651026784212
 30
0.0
  0
VERTEX
  5
804
330
802
100
AcDbEntity
  8
BEMA_UNG
 62
     7
100
AcDbVertex
100
AcDb2dVertex
 10
-10.10602201809271
 20
-22.86416641770829
 30
0.0
  0
SEQEND
  5
805
330
802
100
AcDbEntity
  8
BEMA_UNG
  0
POLYLINE
  5
806
330
1F
100
AcDbEntity
  8
BEMA_UNG
 62
     7
100
AcDb2dPolyline
 66
     1
 10
0.0
 20
0.0
 30
0.0
  0
VERTEX
  5
807
330
806
100
AcDbEntity
  8
BEMA_UNG
 62
     7
100
AcDbVertex
100
AcDb2dVertex
 10
-10.05537908105068
 20
-20.13651026784212
 30
0.0
  0
VERTEX
  5
808
330
806
100
AcDbEntity
  8
BEMA_UNG
 62
     7
100
AcDbVertex
100
AcDb2dVertex
 10
-10.05537908105068
 20
-23.25053413126369
 30
0.0
  0
SEQEND
  5
809
330
806
100
AcDbEntity
  8
BEMA_UNG
  0
POLYLINE
  5
80A
330
1F
100
AcDbEntity
  8
BEMA_UNG
 62
     7
100
AcDb2dPolyline
 66
     1
 10
0.0
 20
0.0
 30
0.0
  0
VERTEX
  5
80B
330
80A
100
AcDbEntity
  8
BEMA_UNG
 62
     7
100
AcDbVertex
100
AcDb2dVertex
 10
-10.00456388912074
 20
-20.13651026784212
 30
0.0
  0
VERTEX
  5
80C
330
80A
100
AcDbEntity
  8
BEMA_UNG
 62
     7
100
AcDbVertex
100
AcDb2dVertex
 10
-10.00456388912074
 20
-23.6360405703796
 30
0.0
  0
SEQEND
  5
80D
330
80A
100
AcDbEntity
  8
BEMA_UNG
  0
MTEXT
  5
80F
330
1F
100
AcDbEntity
  8
TEXT
 62
     7
100
AcDbMText
 10
75.09348484984251
 20
-22.66348947330702
 30
0.0
 40
3.311188396084465
 41
0.0
 71
     7
 72
     1
  1
\fINDEX Univers 45 Light|b0|i0|c0|p34;\W1;\U+00F832
 11
-4.371139000186241E-8
 21
0.999999999999999
 31
0.0
  0
MTEXT
  5
810
330
1F
100
AcDbEntity
  8
TEXT
 62
     7
100
AcDbMText
 10
29.04251860939283
 20
-43.46068336368224
 30
0.0
 40
3.311188396084465
 41
0.0
 71
     7
 72
     1
  1
\fINDEX Univers 45 Light|b0|i0|c0|p34;\W1;61
  0
MTEXT
  5
811
330
1F
100
AcDbEntity
  8
TEXT
 62
     7
100
AcDbMText
 10
19.0725779527396
 20
11.66234493025191
 30
0.0
 40
3.311188396084465
 41
0.0
 71
     7
 72
     1
  1
\fINDEX Univers 45 Light|b0|i0|c0|p34;\W1;42
  0
MTEXT
  5
812
330
1F
100
AcDbEntity
  8
TEXT
 62
     7
100
AcDbMText
 10
64.9335470518377
 20
11.3214525071016
 30
0.0
 40
3.311188396084465
 41
0.0
 71
     7
 72
     1
  1
\fINDEX Univers 45 Light|b0|i0|c0|p34;\W1;Capto C3
  0
MTEXT
  5
813
330
1F
100
AcDbEntity
  8
TEXT
 62
     7
100
AcDbMText
 10
-12.47039260938182
 20
-15.06257028991615
 30
0.0
 40
3.311188396084465
 41
0.0
 71
     7
 72
     1
  1
\fINDEX Univers 45 Light|b0|i0|c0|p34;\W1;\U+00F812
 11
-4.371139000186241E-8
 21
0.999999999999999
 31
0.0
  0
ENDSEC
  0
SECTION
  2
OBJECTS
  0
DICTIONARY
  5
C
330
0
100
AcDbDictionary
  3
ACAD_GROUP
350
D
  3
ACAD_LAYOUT
350
1A
  3
ACAD_MLINESTYLE
350
17
  3
ACAD_PLOTSETTINGS
350
19
  3
ACAD_TABLESTYLE
350
834
  3
ACAD_VISUALSTYLE
350
2A
  3
ACDBHEADERROUNDTRIPXREC
350
814
  0
DICTIONARY
  5
D
102
{ACAD_REACTORS
330
C
102
}
330
C
100
AcDbDictionary
  0
DICTIONARY
  5
1A
102
{ACAD_REACTORS
330
C
102
}
330
C
100
AcDbDictionary
  0
DICTIONARY
  5
17
102
{ACAD_REACTORS
330
C
102
}
330
C
100
AcDbDictionary
  3
STANDARD
350
18
  0
DICTIONARY
  5
19
102
{ACAD_REACTORS
330
C
102
}
330
C
100
AcDbDictionary
  0
DICTIONARY
  5
834
102
{ACAD_REACTORS
330
C
102
}
330
C
100
AcDbDictionary
  0
DICTIONARY
  5
2A
102
{ACAD_REACTORS
330
C
102
}
330
C
100
AcDbDictionary
  3
2DWIREFRAME
350
2F
  3
3D_HIDDEN
350
31
  3
3DWIREFRAME
350
30
  3
BASIC
350
32
  3
BRIGHTEN
350
36
  3
COLORCHANGE
350
3A
  3
CONCEPTUAL
350
34
  3
DIM
350
35
  3
FACEPATTERN
350
39
  3
FLAT
350
2B
  3
FLATWITHEDGES
350
2C
  3
GOURAUD
350
2D
  3
GOURAUDWITHEDGES
350
2E
  3
LINEPATTERN
350
38
  3
REALISTIC
350
33
  3
THICKEN
350
37
  0
DICTIONARY
  5
814
102
{ACAD_REACTORS
330
C
102
}
330
C
100
AcDbDictionary
  3
CEPSNTYPE
350
81D
  3
DIMSTYLEDATA
350
833
  3
FINGERPRINTGUID
350
81E
  3
HYPERLINKBASE
350
817
  3
INSUNITS
350
81C
  3
LAYOUTDICT
350
819
  3
LWETCUNION
350
81B
  3
PLOTSETDICT
350
81A
  3
PSVPSCALE
350
820
  3
PUCSBASE
350
823
  3
PUCSORGBACK
350
829
  3
PUCSORGBOTTOM
350
825
  3
PUCSORGFRONT
350
828
  3
PUCSORGLEFT
350
826
  3
PUCSORGRIGHT
350
827
  3
PUCSORGTOP
350
824
  3
PUCSORTHOREF
350
821
  3
PUCSORTHOVIEW
350
822
  3
STYLESHEET
350
818
  3
TSTACKALIGN
350
815
  3
TSTACKSIZE
350
816
  3
UCSBASE
350
82C
  3
UCSORGBACK
350
832
  3
UCSORGBOTTOM
350
82E
  3
UCSORGFRONT
350
831
  3
UCSORGLEFT
350
82F
  3
UCSORGRIGHT
350
830
  3
UCSORGTOP
350
82D
  3
UCSORTHOREF
350
82A
  3
UCSORTHOVIEW
350
82B
  3
VERSIONGUID
350
81F
  0
MLINESTYLE
  5
18
102
{ACAD_REACTORS
330
17
102
}
330
17
100
AcDbMlineStyle
  2
Standard
 70
     0
  3

 62
   256
 51
90.0
 52
90.0
 71
     2
 49
0.5
 62
   256
  6
BYLAYER
 49
-0.5
 62
   256
  6
BYLAYER
  0
VISUALSTYLE
  5
2F
102
{ACAD_REACTORS
330
2A
102
}
330
2A
100
AcDbVisualStyle
  2
2dWireframe
 70
     4
 71
     0
 72
     2
 73
     0
 90
        0
 40
-0.6
 41
-30.0
 62
     5
 63
     7
 74
     1
 91
        4
 64
     7
 65
   257
 75
     1
175
     1
 42
1.0
 92
        0
 66
   257
 43
1.0
 76
     1
 77
     6
 78
     2
 67
     7
 79
     5
170
     0
171
     0
290
     0
174
     0
 93
        1
 44
0.0
173
     0
291
     0
 45
0.0
1001
ACAD
1000
AcDbSavedByObjectVersion
1070
     0
  0
VISUALSTYLE
  5
31
102
{ACAD_REACTORS
330
2A
102
}
330
2A
100
AcDbVisualStyle
  2
3D Hidden
 70
     6
 71
     1
 72
     2
 73
     2
 90
        0
 40
-0.6
 41
-30.0
 62
     5
 63
     7
 74
     2
 91
        2
 64
     7
 65
   257
 75
     2
175
     1
 42
40.0
 92
        0
 66
   257
 43
1.0
 76
     1
 77
     6
 78
     2
 67
     7
 79
     3
170
     0
171
     0
290
     0
174
     0
 93
        1
 44
0.0
173
     0
291
     0
 45
0.0
1001
ACAD
1000
AcDbSavedByObjectVersion
1070
     0
  0
VISUALSTYLE
  5
30
102
{ACAD_REACTORS
330
2A
102
}
330
2A
100
AcDbVisualStyle
  2
3dWireframe
 70
     5
 71
     0
 72
     2
 73
     0
 90
        0
 40
-0.6
 41
-30.0
 62
     5
 63
     7
 74
     1
 91
        4
 64
     7
 65
   257
 75
     1
175
     1
 42
1.0
 92
        0
 66
   257
 43
1.0
 76
     1
 77
     6
 78
     2
 67
     7
 79
     5
170
     0
171
     0
290
     0
174
     0
 93
        1
 44
0.0
173
     0
291
     0
 45
0.0
1001
ACAD
1000
AcDbSavedByObjectVersion
1070
     0
  0
VISUALSTYLE
  5
32
102
{ACAD_REACTORS
330
2A
102
}
330
2A
100
AcDbVisualStyle
  2
Basic
 70
     7
 71
     1
 72
     0
 73
     1
 90
        0
 40
-0.6
 41
-30.0
 62
     5
 63
     7
 74
     0
 91
        4
 64
     7
 65
   257
 75
     1
175
     1
 42
1.0
 92
        8
 66
     7
 43
1.0
 76
     1
 77
     6
 78
     2
 67
     7
 79
     5
170
     0
171
     0
290
     0
174
     0
 93
        1
 44
0.0
173
     0
291
     1
 45
0.0
1001
ACAD
1000
AcDbSavedByObjectVersion
1070
     0
  0
VISUALSTYLE
  5
36
102
{ACAD_REACTORS
330
2A
102
}
330
2A
100
AcDbVisualStyle
  2
Brighten
 70
    12
 71
     2
 72
     2
 73
     0
 90
        0
 40
-0.6
 41
-30.0
 62
     5
 63
     7
 74
     1
 91
        4
 64
     7
 65
   257
 75
     1
175
     1
 42
1.0
 92
        8
 66
     7
 43
1.0
 76
     1
 77
     6
 78
     2
 67
     7
 79
     5
170
     0
171
     0
290
     0
174
     0
 93
        1
 44
50.0
173
     0
291
     1
 45
0.0
1001
ACAD
1000
AcDbSavedByObjectVersion
1070
     0
  0
VISUALSTYLE
  5
3A
102
{ACAD_REACTORS
330
2A
102
}
330
2A
100
AcDbVisualStyle
  2
ColorChange
 70
    16
 71
     2
 72
     2
 73
     3
 90
        0
 40
-0.6
 41
-30.0
 62
     5
 63
     8
 74
     1
 91
        4
 64
     7
 65
   257
 75
     1
175
     1
 42
1.0
 92
        8
 66
     8
 43
1.0
 76
     1
 77
     6
 78
     2
 67
     7
 79
     5
170
     0
171
     0
290
     0
174
     0
 93
        1
 44
0.0
173
     0
291
     1
 45
0.0
1001
ACAD
1000
AcDbSavedByObjectVersion
1070
     0
  0
VISUALSTYLE
  5
34
102
{ACAD_REACTORS
330
2A
102
}
330
2A
100
AcDbVisualStyle
  2
Conceptual
 70
     9
 71
     3
 72
     2
 73
     0
 90
        0
 40
-0.6
 41
-30.0
 62
     5
 63
     7
 74
     2
 91
        2
 64
     7
 65
   257
 75
     1
175
     1
 42
40.0
 92
        8
 66
     7
 43
1.0
 76
     1
 77
     6
 78
     2
 67
     7
 79
     3
170
     0
171
     0
290
     0
174
     0
 93
        1
 44
0.0
173
     0
291
     0
 45
0.0
1001
ACAD
1000
AcDbSavedByObjectVersion
1070
     0
  0
VISUALSTYLE
  5
35
102
{ACAD_REACTORS
330
2A
102
}
330
2A
100
AcDbVisualStyle
  2
Dim
 70
    11
 71
     2
 72
     2
 73
     0
 90
        0
 40
-0.6
 41
-30.0
 62
     5
 63
     7
 74
     1
 91
        4
 64
     7
 65
   257
 75
     1
175
     1
 42
1.0
 92
        8
 66
     7
 43
1.0
 76
     1
 77
     6
 78
     2
 67
     7
 79
     5
170
     0
171
     0
290
     0
174
     0
 93
        1
 44
-50.0
173
     0
291
     1
 45
0.0
1001
ACAD
1000
AcDbSavedByObjectVersion
1070
     0
  0
VISUALSTYLE
  5
39
102
{ACAD_REACTORS
330
2A
102
}
330
2A
100
AcDbVisualStyle
  2
Facepattern
 70
    15
 71
     2
 72
     2
 73
     0
 90
        0
 40
-0.6
 41
-30.0
 62
     5
 63
     7
 74
     1
 91
        4
 64
     7
 65
   257
 75
     1
175
     1
 42
1.0
 92
        8
 66
     7
 43
1.0
 76
     1
 77
     6
 78
     2
 67
     7
 79
     5
170
     0
171
     0
290
     0
174
     0
 93
        1
 44
0.0
173
     0
291
     1
 45
0.0
1001
ACAD
1000
AcDbSavedByObjectVersion
1070
     0
  0
VISUALSTYLE
  5
2B
102
{ACAD_REACTORS
330
2A
102
}
330
2A
100
AcDbVisualStyle
  2
Flat
 70
     0
 71
     2
 72
     1
 73
     1
 90
        2
 40
-0.6
 41
30.0
 62
     5
 63
     7
 74
     0
 91
        4
 64
     7
 65
   257
 75
     1
175
     1
 42
1.0
 92
        8
 66
     7
 43
1.0
 76
     1
 77
     6
 78
     2
 67
     7
 79
     5
170
     0
171
     0
290
     0
174
     0
 93
       13
 44
0.0
173
     0
291
     1
 45
0.0
1001
ACAD
1000
AcDbSavedByObjectVersion
1070
     0
  0
VISUALSTYLE
  5
2C
102
{ACAD_REACTORS
330
2A
102
}
330
2A
100
AcDbVisualStyle
  2
FlatWithEdges
 70
     1
 71
     2
 72
     1
 73
     1
 90
        2
 40
-0.6
 41
30.0
 62
     5
 63
     7
 74
     1
 91
        4
 64
     7
 65
   257
 75
     1
175
     1
 42
1.0
 92
        0
 66
   257
 43
1.0
 76
     1
 77
     6
 78
     2
 67
     7
 79
     5
170
     0
171
     0
290
     0
174
     0
 93
       13
 44
0.0
173
     0
291
     1
 45
0.0
1001
ACAD
1000
AcDbSavedByObjectVersion
1070
     0
  0
VISUALSTYLE
  5
2D
102
{ACAD_REACTORS
330
2A
102
}
330
2A
100
AcDbVisualStyle
  2
Gouraud
 70
     2
 71
     2
 72
     2
 73
     1
 90
        2
 40
-0.6
 41
30.0
 62
     5
 63
     7
 74
     0
 91
        4
 64
     7
 65
   257
 75
     1
175
     1
 42
1.0
 92
        0
 66
     7
 43
1.0
 76
     1
 77
     6
 78
     2
 67
     7
 79
     5
170
     0
171
     0
290
     0
174
     0
 93
       13
 44
0.0
173
     0
291
     1
 45
0.0
1001
ACAD
1000
AcDbSavedByObjectVersion
1070
     0
  0
VISUALSTYLE
  5
2E
102
{ACAD_REACTORS
330
2A
102
}
330
2A
100
AcDbVisualStyle
  2
GouraudWithEdges
 70
     3
 71
     2
 72
     2
 73
     1
 90
        2
 40
-0.6
 41
30.0
 62
     5
 63
     7
 74
     1
 91
        4
 64
     7
 65
   257
 75
     1
175
     1
 42
1.0
 92
        0
 66
   257
 43
1.0
 76
     1
 77
     6
 78
     2
 67
     7
 79
     5
170
     0
171
     0
290
     0
174
     0
 93
       13
 44
0.0
173
     0
291
     1
 45
0.0
1001
ACAD
1000
AcDbSavedByObjectVersion
1070
     0
  0
VISUALSTYLE
  5
38
102
{ACAD_REACTORS
330
2A
102
}
330
2A
100
AcDbVisualStyle
  2
Linepattern
 70
    14
 71
     2
 72
     2
 73
     0
 90
        0
 40
-0.6
 41
-30.0
 62
     5
 63
     7
 74
     1
 91
        4
 64
     7
 65
   257
 75
     7
175
     7
 42
1.0
 92
        8
 66
     7
 43
1.0
 76
     1
 77
     6
 78
     2
 67
     7
 79
     5
170
     0
171
     0
290
     0
174
     0
 93
        1
 44
0.0
173
     0
291
     1
 45
0.0
1001
ACAD
1000
AcDbSavedByObjectVersion
1070
     0
  0
VISUALSTYLE
  5
33
102
{ACAD_REACTORS
330
2A
102
}
330
2A
100
AcDbVisualStyle
  2
Realistic
 70
     8
 71
     2
 72
     2
 73
     0
 90
        0
 40
-0.6
 41
-30.0
 62
     5
 63
     7
 74
     1
 91
        0
 64
     7
 65
   257
 75
     1
175
     1
 42
1.0
 92
        8
 66
     8
 43
1.0
 76
     1
 77
     6
 78
     2
 67
     7
 79
     5
170
     0
171
     0
290
     0
174
     0
 93
       13
 44
0.0
173
     0
291
     0
 45
0.0
1001
ACAD
1000
AcDbSavedByObjectVersion
1070
     0
  0
VISUALSTYLE
  5
37
102
{ACAD_REACTORS
330
2A
102
}
330
2A
100
AcDbVisualStyle
  2
Thicken
 70
    13
 71
     2
 72
     2
 73
     0
 90
        0
 40
-0.6
 41
-30.0
 62
     5
 63
     7
 74
     1
 91
        4
 64
     7
 65
   257
 75
     1
175
     1
 42
1.0
 92
       12
 66
     7
 43
1.0
 76
     1
 77
     6
 78
     2
 67
     7
 79
     5
170
     0
171
     0
290
     0
174
     0
 93
        1
 44
0.0
173
     0
291
     1
 45
0.0
1001
ACAD
1000
AcDbSavedByObjectVersion
1070
     0
  0
XRECORD
  5
81D
102
{ACAD_REACTORS
330
814
102
}
330
814
100
AcDbXrecord
 90
        0
  0
XRECORD
  5
833
102
{ACAD_REACTORS
330
814
102
}
330
814
100
AcDbXrecord
1000
DSTYLE
1002
{
1070
   340
340
11
1002
}
  0
XRECORD
  5
81E
102
{ACAD_REACTORS
330
814
102
}
330
814
100
AcDbXrecord
  1
{5B659E62-ECBE-45DB-A997-C5FDC5014800}
  0
XRECORD
  5
817
102
{ACAD_REACTORS
330
814
102
}
330
814
100
AcDbXrecord
  1

  0
XRECORD
  5
81C
102
{ACAD_REACTORS
330
814
102
}
330
814
100
AcDbXrecord
 90
        1
  0
XRECORD
  5
819
102
{ACAD_REACTORS
330
814
102
}
330
814
100
AcDbXrecord
340
1A
  0
XRECORD
  5
81B
102
{ACAD_REACTORS
330
814
102
}
330
814
100
AcDbXrecord
 90
    10269
  0
XRECORD
  5
81A
102
{ACAD_REACTORS
330
814
102
}
330
814
100
AcDbXrecord
340
19
  0
XRECORD
  5
820
102
{ACAD_REACTORS
330
814
102
}
330
814
100
AcDbXrecord
 40
0.0
  0
XRECORD
  5
823
102
{ACAD_REACTORS
330
814
102
}
330
814
100
AcDbXrecord
340
0
  0
XRECORD
  5
829
102
{ACAD_REACTORS
330
814
102
}
330
814
100
AcDbXrecord
 10
0.0
 20
0.0
 30
0.0
  0
XRECORD
  5
825
102
{ACAD_REACTORS
330
814
102
}
330
814
100
AcDbXrecord
 10
0.0
 20
0.0
 30
0.0
  0
XRECORD
  5
828
102
{ACAD_REACTORS
330
814
102
}
330
814
100
AcDbXrecord
 10
0.0
 20
0.0
 30
0.0
  0
XRECORD
  5
826
102
{ACAD_REACTORS
330
814
102
}
330
814
100
AcDbXrecord
 10
0.0
 20
0.0
 30
0.0
  0
XRECORD
  5
827
102
{ACAD_REACTORS
330
814
102
}
330
814
100
AcDbXrecord
 10
0.0
 20
0.0
 30
0.0
  0
XRECORD
  5
824
102
{ACAD_REACTORS
330
814
102
}
330
814
100
AcDbXrecord
 10
0.0
 20
0.0
 30
0.0
  0
XRECORD
  5
821
102
{ACAD_REACTORS
330
814
102
}
330
814
100
AcDbXrecord
340
0
  0
XRECORD
  5
822
102
{ACAD_REACTORS
330
814
102
}
330
814
100
AcDbXrecord
 70
     0
  0
XRECORD
  5
818
102
{ACAD_REACTORS
330
814
102
}
330
814
100
AcDbXrecord
  1

  0
XRECORD
  5
815
102
{ACAD_REACTORS
330
814
102
}
330
814
100
AcDbXrecord
 90
        1
  0
XRECORD
  5
816
102
{ACAD_REACTORS
330
814
102
}
330
814
100
AcDbXrecord
 90
       70
  0
XRECORD
  5
82C
102
{ACAD_REACTORS
330
814
102
}
330
814
100
AcDbXrecord
340
0
  0
XRECORD
  5
832
102
{ACAD_REACTORS
330
814
102
}
330
814
100
AcDbXrecord
 10
0.0
 20
0.0
 30
0.0
  0
XRECORD
  5
82E
102
{ACAD_REACTORS
330
814
102
}
330
814
100
AcDbXrecord
 10
0.0
 20
0.0
 30
0.0
  0
XRECORD
  5
831
102
{ACAD_REACTORS
330
814
102
}
330
814
100
AcDbXrecord
 10
0.0
 20
0.0
 30
0.0
  0
XRECORD
  5
82F
102
{ACAD_REACTORS
330
814
102
}
330
814
100
AcDbXrecord
 10
0.0
 20
0.0
 30
0.0
  0
XRECORD
  5
830
102
{ACAD_REACTORS
330
814
102
}
330
814
100
AcDbXrecord
 10
0.0
 20
0.0
 30
0.0
  0
XRECORD
  5
82D
102
{ACAD_REACTORS
330
814
102
}
330
814
100
AcDbXrecord
 10
0.0
 20
0.0
 30
0.0
  0
XRECORD
  5
82A
102
{ACAD_REACTORS
330
814
102
}
330
814
100
AcDbXrecord
340
0
  0
XRECORD
  5
82B
102
{ACAD_REACTORS
330
814
102
}
330
814
100
AcDbXrecord
 70
     0
  0
XRECORD
  5
81F
102
{ACAD_REACTORS
330
814
102
}
330
814
100
AcDbXrecord
  1
{FAEB1C32-E019-11D5-929B-00C0DF256EC4}
  0
ENDSEC
  0
EOF
