  0
SECTION
  2
HEADER
  9
$ACADVER
  1
AC1032
  9
$ACADMAINTVER
 90
      228
  9
$DWGCODEPAGE
  3
ANSI_1252
  9
$REQUIREDVERSIONS
160
                 0
  9
$INSBASE
 10
0.0
 20
0.0
 30
0.0
  9
$EXTMIN
 10
1.000000000000000E+20
 20
1.000000000000000E+20
 30
1.000000000000000E+20
  9
$EXTMAX
 10
-1.000000000000000E+20
 20
-1.000000000000000E+20
 30
-1.000000000000000E+20
  9
$LIMMIN
 10
0.0
 20
0.0
  9
$LIMMAX
 10
12.0
 20
9.0
  9
$ORTHOMODE
 70
     0
  9
$REGENMODE
 70
     1
  9
$FILLMODE
 70
     1
  9
$QTEXTMODE
 70
     0
  9
$MIRRTEXT
 70
     0
  9
$LTSCALE
 40
1.0
  9
$ATTMODE
 70
     1
  9
$TEXTSIZE
 40
0.2
  9
$TRACEWID
 40
0.05
  9
$TEXTSTYLE
  7
Standard
  9
$CLAYER
  8
0
  9
$CELTYPE
  6
ByLayer
  9
$CECOLOR
 62
   256
  9
$CELTSCALE
 40
1.0
  9
$DISPSILH
 70
     0
  9
$DIMSCALE
 40
1.0
  9
$DIMASZ
 40
0.18
  9
$DIMEXO
 40
0.0625
  9
$DIMDLI
 40
0.38
  9
$DIMRND
 40
0.0
  9
$DIMDLE
 40
0.0
  9
$DIMEXE
 40
0.18
  9
$DIMTP
 40
0.0
  9
$DIMTM
 40
0.0
  9
$DIMTXT
 40
0.18
  9
$DIMCEN
 40
0.09
  9
$DIMTSZ
 40
0.0
  9
$DIMTOL
 70
     0
  9
$DIMLIM
 70
     0
  9
$DIMTIH
 70
     1
  9
$DIMTOH
 70
     1
  9
$DIMSE1
 70
     0
  9
$DIMSE2
 70
     0
  9
$DIMTAD
 70
     0
  9
$DIMZIN
 70
     0
  9
$DIMBLK
  1

  9
$DIMASO
 70
     1
  9
$DIMSHO
 70
     1
  9
$DIMPOST
  1

  9
$DIMAPOST
  1

  9
$DIMALT
 70
     0
  9
$DIMALTD
 70
     2
  9
$DIMALTF
 40
25.4
  9
$DIMLFAC
 40
1.0
  9
$DIMTOFL
 70
     0
  9
$DIMTVP
 40
0.0
  9
$DIMTIX
 70
     0
  9
$DIMSOXD
 70
     0
  9
$DIMSAH
 70
     0
  9
$DIMBLK1
  1

  9
$DIMBLK2
  1

  9
$DIMSTYLE
  2
Standard
  9
$DIMCLRD
 70
     0
  9
$DIMCLRE
 70
     0
  9
$DIMCLRT
 70
     0
  9
$DIMTFAC
 40
1.0
  9
$DIMGAP
 40
0.09
  9
$DIMJUST
 70
     0
  9
$DIMSD1
 70
     0
  9
$DIMSD2
 70
     0
  9
$DIMTOLJ
 70
     1
  9
$DIMTZIN
 70
     0
  9
$DIMALTZ
 70
     0
  9
$DIMALTTZ
 70
     0
  9
$DIMUPT
 70
     0
  9
$DIMDEC
 70
     4
  9
$DIMTDEC
 70
     4
  9
$DIMALTU
 70
     2
  9
$DIMALTTD
 70
     2
  9
$DIMTXSTY
  7
Standard
  9
$DIMAUNIT
 70
     0
  9
$DIMADEC
 70
     0
  9
$DIMALTRND
 40
0.0
  9
$DIMAZIN
 70
     0
  9
$DIMDSEP
 70
    46
  9
$DIMATFIT
 70
     3
  9
$DIMFRAC
 70
     0
  9
$DIMLDRBLK
  1

  9
$DIMLUNIT
 70
     2
  9
$DIMLWD
 70
    -2
  9
$DIMLWE
 70
    -2
  9
$DIMTMOVE
 70
     0
  9
$DIMFXL
 40
1.0
  9
$DIMFXLON
 70
     0
  9
$DIMJOGANG
 40
0.7853981633974483
  9
$DIMTFILL
 70
     0
  9
$DIMTFILLCLR
 70
     0
  9
$DIMARCSYM
 70
     0
  9
$DIMLTYPE
  6

  9
$DIMLTEX1
  6

  9
$DIMLTEX2
  6

  9
$DIMTXTDIRECTION
 70
     0
  9
$LUNITS
 70
     2
  9
$LUPREC
 70
     4
  9
$SKETCHINC
 40
0.1
  9
$FILLETRAD
 40
0.0
  9
$AUNITS
 70
     0
  9
$AUPREC
 70
     0
  9
$MENU
  1
.
  9
$ELEVATION
 40
0.0
  9
$PELEVATION
 40
0.0
  9
$THICKNESS
 40
0.0
  9
$LIMCHECK
 70
     0
  9
$CHAMFERA
 40
0.0
  9
$CHAMFERB
 40
0.0
  9
$CHAMFERC
 40
0.0
  9
$CHAMFERD
 40
0.0
  9
$SKPOLY
 70
     0
  9
$TDCREATE
 40
2460101.355844908
  9
$TDUCREATE
 40
2460101.272511574
  9
$TDUPDATE
 40
2460101.355844908
  9
$TDUUPDATE
 40
2460101.272511574
  9
$TDINDWG
 40
0.0000000000
  9
$TDUSRTIMER
 40
0.0000000000
  9
$USRTIMER
 70
     1
  9
$ANGBASE
 50
0.0
  9
$ANGDIR
 70
     0
  9
$PDMODE
 70
     0
  9
$PDSIZE
 40
0.0
  9
$PLINEWID
 40
0.0
  9
$SPLFRAME
 70
     0
  9
$SPLINETYPE
 70
     6
  9
$SPLINESEGS
 70
     8
  9
$HANDSEED
  5
317
  9
$SURFTAB1
 70
     6
  9
$SURFTAB2
 70
     6
  9
$SURFTYPE
 70
     6
  9
$SURFU
 70
     6
  9
$SURFV
 70
     6
  9
$UCSBASE
  2

  9
$UCSNAME
  2

  9
$UCSORG
 10
0.0
 20
0.0
 30
0.0
  9
$UCSXDIR
 10
1.0
 20
0.0
 30
0.0
  9
$UCSYDIR
 10
0.0
 20
1.0
 30
0.0
  9
$UCSORTHOREF
  2

  9
$UCSORTHOVIEW
 70
     0
  9
$UCSORGTOP
 10
0.0
 20
0.0
 30
0.0
  9
$UCSORGBOTTOM
 10
0.0
 20
0.0
 30
0.0
  9
$UCSORGLEFT
 10
0.0
 20
0.0
 30
0.0
  9
$UCSORGRIGHT
 10
0.0
 20
0.0
 30
0.0
  9
$UCSORGFRONT
 10
0.0
 20
0.0
 30
0.0
  9
$UCSORGBACK
 10
0.0
 20
0.0
 30
0.0
  9
$PUCSBASE
  2

  9
$PUCSNAME
  2

  9
$PUCSORG
 10
0.0
 20
0.0
 30
0.0
  9
$PUCSXDIR
 10
1.0
 20
0.0
 30
0.0
  9
$PUCSYDIR
 10
0.0
 20
1.0
 30
0.0
  9
$PUCSORTHOREF
  2

  9
$PUCSORTHOVIEW
 70
     0
  9
$PUCSORGTOP
 10
0.0
 20
0.0
 30
0.0
  9
$PUCSORGBOTTOM
 10
0.0
 20
0.0
 30
0.0
  9
$PUCSORGLEFT
 10
0.0
 20
0.0
 30
0.0
  9
$PUCSORGRIGHT
 10
0.0
 20
0.0
 30
0.0
  9
$PUCSORGFRONT
 10
0.0
 20
0.0
 30
0.0
  9
$PUCSORGBACK
 10
0.0
 20
0.0
 30
0.0
  9
$USERI1
 70
     0
  9
$USERI2
 70
     0
  9
$USERI3
 70
     0
  9
$USERI4
 70
     0
  9
$USERI5
 70
     0
  9
$USERR1
 40
0.0
  9
$USERR2
 40
0.0
  9
$USERR3
 40
0.0
  9
$USERR4
 40
0.0
  9
$USERR5
 40
0.0
  9
$WORLDVIEW
 70
     1
  9
$SHADEDGE
 70
     3
  9
$SHADEDIF
 70
    70
  9
$TILEMODE
 70
     1
  9
$MAXACTVP
 70
    64
  9
$PINSBASE
 10
0.0
 20
0.0
 30
0.0
  9
$PLIMCHECK
 70
     0
  9
$PEXTMIN
 10
1.000000000000000E+20
 20
1.000000000000000E+20
 30
1.000000000000000E+20
  9
$PEXTMAX
 10
-1.000000000000000E+20
 20
-1.000000000000000E+20
 30
-1.000000000000000E+20
  9
$PLIMMIN
 10
0.0
 20
0.0
  9
$PLIMMAX
 10
12.0
 20
9.0
  9
$UNITMODE
 70
     0
  9
$VISRETAIN
 70
     1
  9
$PLINEGEN
 70
     0
  9
$PSLTSCALE
 70
     1
  9
$TREEDEPTH
 70
  3020
  9
$CMLSTYLE
  2
Standard
  9
$CMLJUST
 70
     0
  9
$CMLSCALE
 40
1.0
  9
$PROXYGRAPHICS
 70
     1
  9
$MEASUREMENT
 70
     0
  9
$CELWEIGHT
370
    -1
  9
$ENDCAPS
280
     0
  9
$JOINSTYLE
280
     0
  9
$LWDISPLAY
290
     1
  9
$INSUNITS
 70
     4
  9
$HYPERLINKBASE
  1

  9
$STYLESHEET
  1

  9
$XEDIT
290
     1
  9
$CEPSNTYPE
380
     0
  9
$PSTYLEMODE
290
     1
  9
$FINGERPRINTGUID
  2
{1B4BC99B-C067-5C45-B163-CB95880D548D}
  9
$VERSIONGUID
  2
{CB5790E4-8EE5-8A45-95B9-001D7A0744B1}
  9
$EXTNAMES
290
     1
  9
$PSVPSCALE
 40
0.0
  9
$OLESTARTUP
290
     0
  9
$SORTENTS
280
   127
  9
$INDEXCTL
280
     0
  9
$HIDETEXT
280
     1
  9
$XCLIPFRAME
280
     2
  9
$HALOGAP
280
     0
  9
$OBSCOLOR
 70
   257
  9
$OBSLTYPE
280
     0
  9
$INTERSECTIONDISPLAY
280
     0
  9
$INTERSECTIONCOLOR
 70
   257
  9
$DIMASSOC
280
     2
  9
$PROJECTNAME
  1

  9
$CAMERADISPLAY
290
     0
  9
$LENSLENGTH
 40
50.0
  9
$CAMERAHEIGHT
 40
0.0
  9
$STEPSPERSEC
 40
2.0
  9
$STEPSIZE
 40
6.0
  9
$3DDWFPREC
 40
2.0
  9
$PSOLWIDTH
 40
0.25
  9
$PSOLHEIGHT
 40
4.0
  9
$LOFTANG1
 40
1.570796326794896
  9
$LOFTANG2
 40
1.570796326794896
  9
$LOFTMAG1
 40
0.0
  9
$LOFTMAG2
 40
0.0
  9
$LOFTPARAM
 70
     7
  9
$LOFTNORMALS
280
     1
  9
$LATITUDE
 40
37.795
  9
$LONGITUDE
 40
-122.394
  9
$NORTHDIRECTION
 40
0.0
  9
$TIMEZONE
 70
 -8000
  9
$LIGHTGLYPHDISPLAY
280
     1
  9
$TILEMODELIGHTSYNCH
280
     1
  9
$CMATERIAL
347
11
  9
$SOLIDHIST
280
     0
  9
$SHOWHIST
280
     1
  9
$DWFFRAME
280
     2
  9
$DGNFRAME
280
     0
  9
$REALWORLDSCALE
290
     1
  9
$INTERFERECOLOR
 62
     1
  9
$INTERFEREOBJVS
345
33
  9
$INTERFEREVPVS
346
30
  9
$CSHADOW
280
     0
  9
$SHADOWPLANELOCATION
 40
0.0
  0
ENDSEC
  0
SECTION
  2
CLASSES
  0
CLASS
  1
ACDBDICTIONARYWDFLT
  2
AcDbDictionaryWithDefault
  3
ObjectDBX Classes
 90
        0
 91
        1
280
     0
281
     0
  0
CLASS
  1
MATERIAL
  2
AcDbMaterial
  3
ObjectDBX Classes
 90
     1153
 91
        3
280
     0
281
     0
  0
CLASS
  1
VISUALSTYLE
  2
AcDbVisualStyle
  3
ObjectDBX Classes
 90
     4095
 91
       24
280
     0
281
     0
  0
CLASS
  1
SCALE
  2
AcDbScale
  3
ObjectDBX Classes
 90
     1153
 91
       17
280
     0
281
     0
  0
CLASS
  1
TABLESTYLE
  2
AcDbTableStyle
  3
ObjectDBX Classes
 90
     4095
 91
        1
280
     0
281
     0
  0
CLASS
  1
MLEADERSTYLE
  2
AcDbMLeaderStyle
  3
ACDB_MLEADERSTYLE_CLASS
 90
     4095
 91
        1
280
     0
281
     0
  0
CLASS
  1
ACDBSECTIONVIEWSTYLE
  2
AcDbSectionViewStyle
  3
ObjectDBX Classes
 90
     1025
 91
        1
280
     0
281
     0
  0
CLASS
  1
ACDBDETAILVIEWSTYLE
  2
AcDbDetailViewStyle
  3
ObjectDBX Classes
 90
     1025
 91
        1
280
     0
281
     0
  0
CLASS
  1
DICTIONARYVAR
  2
AcDbDictionaryVar
  3
ObjectDBX Classes
 90
        0
 91
        5
280
     0
281
     0
  0
CLASS
  1
CELLSTYLEMAP
  2
AcDbCellStyleMap
  3
ObjectDBX Classes
 90
     1152
 91
        1
280
     0
281
     0
  0
ENDSEC
  0
SECTION
  2
TABLES
  0
TABLE
  2
VPORT
  5
8
330
0
100
AcDbSymbolTable
 70
     1
  0
VPORT
  5
57
330
8
100
AcDbSymbolTableRecord
100
AcDbViewportTableRecord
  2
*Active
 70
     0
 10
0.0
 20
0.0
 11
1.0
 21
1.0
 12
0.0
 22
0.0
 13
0.0
 23
0.0
 14
1.0
 24
1.0
 15
0.0
 25
0.0
 16
0.0
 26
0.0
 36
1.0
 17
73.53065252958138
 27
190.8946652687605
 37
0.0
 40
181.7399848670019
 41
0.8923330459310324
 42
50.0
 43
0.0
 44
0.0
 50
0.0
 51
0.0
 71
     0
 72
   100
 73
     1
 74
     1
 75
     0
 76
     0
 77
     0
 78
     0
281
     0
 65
     1
110
0.0
120
0.0
130
0.0
111
1.0
121
0.0
131
0.0
112
0.0
122
1.0
132
0.0
 79
     0
146
0.0
 60
     3
 61
     5
292
     1
282
     1
141
0.0
142
0.0
 63
   250
421
  3355443
  0
ENDTAB
  0
TABLE
  2
LTYPE
  5
5
330
0
100
AcDbSymbolTable
 70
     5
  0
LTYPE
  5
5B
330
5
100
AcDbSymbolTableRecord
100
AcDbLinetypeTableRecord
  2
ByBlock
 70
     0
  3

 72
    65
 73
     0
 40
0.0
  0
LTYPE
  5
5C
330
5
100
AcDbSymbolTableRecord
100
AcDbLinetypeTableRecord
  2
ByLayer
 70
     0
  3

 72
    65
 73
     0
 40
0.0
  0
LTYPE
  5
5D
330
5
100
AcDbSymbolTableRecord
100
AcDbLinetypeTableRecord
  2
Continuous
 70
     0
  3
Solid line
 72
    65
 73
     0
 40
0.0
  0
LTYPE
  5
E0
330
5
100
AcDbSymbolTableRecord
100
AcDbLinetypeTableRecord
  2
AI-Linetype-0
 70
     0
  3
Adobe Illustrator Linetype No. 0
 72
    65
 73
     4
 40
8.819444442239584
 49
7.055555553791666
 74
     0
 49
-0.7055555553791667
 74
     0
 49
0.3527777776895833
 74
     0
 49
-0.7055555553791667
 74
     0
  0
LTYPE
  5
E2
330
5
100
AcDbSymbolTableRecord
100
AcDbLinetypeTableRecord
  2
AI-Linetype-1
 70
     0
  3
Adobe Illustrator Linetype No. 1
 72
    65
 73
     4
 40
8.819444442239584
 49
7.055555553791666
 74
     0
 49
-0.7055555553791667
 74
     0
 49
0.3527777776895833
 74
     0
 49
-0.7055555553791667
 74
     0
  0
LTYPE
  5
E4
330
5
100
AcDbSymbolTableRecord
100
AcDbLinetypeTableRecord
  2
AI-Linetype-2
 70
     0
  3
Adobe Illustrator Linetype No. 2
 72
    65
 73
     4
 40
8.819444442239584
 49
7.055555553791666
 74
     0
 49
-0.7055555553791667
 74
     0
 49
0.3527777776895833
 74
     0
 49
-0.7055555553791667
 74
     0
  0
LTYPE
  5
E6
330
5
100
AcDbSymbolTableRecord
100
AcDbLinetypeTableRecord
  2
AI-Linetype-3
 70
     0
  3
Adobe Illustrator Linetype No. 3
 72
    65
 73
     4
 40
8.819444442239584
 49
7.055555553791666
 74
     0
 49
-0.7055555553791667
 74
     0
 49
0.3527777776895833
 74
     0
 49
-0.7055555553791667
 74
     0
  0
ENDTAB
  0
TABLE
  2
LAYER
  5
2
330
0
100
AcDbSymbolTable
 70
     5
  0
LAYER
  5
54
330
2
100
AcDbSymbolTableRecord
100
AcDbLayerTableRecord
  2
0
 70
     0
 62
     7
  6
Continuous
370
    -3
390
F
347
21
348
0
  0
LAYER
  5
78
330
2
100
AcDbSymbolTableRecord
100
AcDbLayerTableRecord
  2
grau 10%
 70
     1
 62
     7
  6
Continuous
370
     0
390
F
347
21
348
0
  0
LAYER
  5
7D
330
2
100
AcDbSymbolTableRecord
100
AcDbLayerTableRecord
  2
Standardebene
 70
     0
 62
     7
  6
Continuous
370
     0
390
F
347
21
348
0
  0
LAYER
  5
17D
330
2
100
AcDbSymbolTableRecord
100
AcDbLayerTableRecord
  2
Bemaßung
 70
     1
 62
     7
  6
Continuous
370
     0
390
F
347
21
348
0
  0
LAYER
  5
2A4
330
2
100
AcDbSymbolTableRecord
100
AcDbLayerTableRecord
  2
Text
 70
     1
 62
     7
  6
Continuous
370
     0
390
F
347
21
348
0
  0
ENDTAB
  0
TABLE
  2
STYLE
  5
3
330
0
100
AcDbSymbolTable
 70
     2
  0
STYLE
  5
55
330
3
100
AcDbSymbolTableRecord
100
AcDbTextStyleTableRecord
  2
Standard
 70
     0
 40
0.0
 41
1.0
 50
0.0
 71
     0
 42
0.2
  3
txt
  4

  0
STYLE
  5
5A
330
3
100
AcDbSymbolTableRecord
100
AcDbTextStyleTableRecord
  2
Annotative
 70
     0
 40
0.0
 41
1.0
 50
0.0
 71
     0
 42
0.2
  3
txt
  4

1001
AcadAnnotative
1000
AnnotativeData
1002
{
1070
     1
1070
     1
1002
}
  0
ENDTAB
  0
TABLE
  2
VIEW
  5
6
330
0
100
AcDbSymbolTable
 70
     0
  0
ENDTAB
  0
TABLE
  2
UCS
  5
7
330
0
100
AcDbSymbolTable
 70
     0
  0
ENDTAB
  0
TABLE
  2
APPID
  5
9
330
0
100
AcDbSymbolTable
 70
     2
  0
APPID
  5
56
330
9
100
AcDbSymbolTableRecord
100
AcDbRegAppTableRecord
  2
ACAD
 70
     0
  0
APPID
  5
5E
330
9
100
AcDbSymbolTableRecord
100
AcDbRegAppTableRecord
  2
AcadAnnotative
 70
     0
  0
ENDTAB
  0
TABLE
  2
DIMSTYLE
  5
A
330
0
100
AcDbSymbolTable
 70
     2
100
AcDbDimStyleTable
 71
     0
  0
DIMSTYLE
105
58
330
A
100
AcDbSymbolTableRecord
100
AcDbDimStyleTableRecord
  2
Standard
 70
     0
340
55
  0
DIMSTYLE
105
59
330
A
100
AcDbSymbolTableRecord
100
AcDbDimStyleTableRecord
  2
Annotative
 70
     0
340
55
1001
AcadAnnotative
1000
AnnotativeData
1002
{
1070
     1
1070
     1
1002
}
  0
ENDTAB
  0
TABLE
  2
BLOCK_RECORD
  5
1
330
0
100
AcDbSymbolTable
 70
     1
  0
BLOCK_RECORD
  5
70
330
1
100
AcDbSymbolTableRecord
100
AcDbBlockTableRecord
  2
*Model_Space
340
73
 70
     0
280
     1
281
     0
  0
BLOCK_RECORD
  5
6C
330
1
100
AcDbSymbolTableRecord
100
AcDbBlockTableRecord
  2
*Paper_Space
340
6F
 70
     0
280
     1
281
     0
  0
BLOCK_RECORD
  5
74
330
1
100
AcDbSymbolTableRecord
100
AcDbBlockTableRecord
  2
*Paper_Space0
340
77
 70
     0
280
     1
281
     0
  0
ENDTAB
  0
ENDSEC
  0
SECTION
  2
BLOCKS
  0
BLOCK
  5
71
330
70
100
AcDbEntity
  8
0
100
AcDbBlockBegin
  2
*Model_Space
 70
     0
 10
0.0
 20
0.0
 30
0.0
  3
*Model_Space
  1

  0
ENDBLK
  5
72
330
70
100
AcDbEntity
  8
0
100
AcDbBlockEnd
  0
BLOCK
  5
6D
330
6C
100
AcDbEntity
 67
     1
  8
0
100
AcDbBlockBegin
  2
*Paper_Space
 70
     0
 10
0.0
 20
0.0
 30
0.0
  3
*Paper_Space
  1

  0
ENDBLK
  5
6E
330
6C
100
AcDbEntity
 67
     1
  8
0
100
AcDbBlockEnd
  0
BLOCK
  5
75
330
74
100
AcDbEntity
 67
     1
  8
0
100
AcDbBlockBegin
  2
*Paper_Space0
 70
     0
 10
0.0
 20
0.0
 30
0.0
  3
*Paper_Space0
  1

  0
ENDBLK
  5
76
330
74
100
AcDbEntity
 67
     1
  8
0
100
AcDbBlockEnd
  0
ENDSEC
  0
SECTION
  2
ENTITIES
  0
SPLINE
  5
79
330
70
100
AcDbEntity
  8
grau 10%
100
AcDbSpline
210
0.0
220
0.0
230
1.0
 70
    11
 71
     3
 72
   191
 73
   187
 74
     0
 42
0.0000000001
 43
0.0000000001
 40
0.0
 40
0.0
 40
0.0
 40
0.0
 40
1.0
 40
1.0
 40
1.0
 40
2.0
 40
2.0
 40
2.0
 40
3.0
 40
3.0
 40
3.0
 40
4.0
 40
4.0
 40
4.0
 40
5.0
 40
5.0
 40
5.0
 40
6.0
 40
6.0
 40
6.0
 40
7.0
 40
7.0
 40
7.0
 40
8.0
 40
8.0
 40
8.0
 40
9.0
 40
9.0
 40
9.0
 40
10.0
 40
10.0
 40
10.0
 40
11.0
 40
11.0
 40
11.0
 40
12.0
 40
12.0
 40
12.0
 40
13.0
 40
13.0
 40
13.0
 40
14.0
 40
14.0
 40
14.0
 40
15.0
 40
15.0
 40
15.0
 40
16.0
 40
16.0
 40
16.0
 40
17.0
 40
17.0
 40
17.0
 40
18.0
 40
18.0
 40
18.0
 40
19.0
 40
19.0
 40
19.0
 40
20.0
 40
20.0
 40
20.0
 40
21.0
 40
21.0
 40
21.0
 40
22.0
 40
22.0
 40
22.0
 40
23.0
 40
23.0
 40
23.0
 40
24.0
 40
24.0
 40
24.0
 40
25.0
 40
25.0
 40
25.0
 40
26.0
 40
26.0
 40
26.0
 40
27.0
 40
27.0
 40
27.0
 40
28.0
 40
28.0
 40
28.0
 40
29.0
 40
29.0
 40
29.0
 40
30.0
 40
30.0
 40
30.0
 40
31.0
 40
31.0
 40
31.0
 40
32.0
 40
32.0
 40
32.0
 40
33.0
 40
33.0
 40
33.0
 40
34.0
 40
34.0
 40
34.0
 40
35.0
 40
35.0
 40
35.0
 40
36.0
 40
36.0
 40
36.0
 40
37.0
 40
37.0
 40
37.0
 40
38.0
 40
38.0
 40
38.0
 40
39.0
 40
39.0
 40
39.0
 40
40.0
 40
40.0
 40
40.0
 40
41.0
 40
41.0
 40
41.0
 40
42.0
 40
42.0
 40
42.0
 40
43.0
 40
43.0
 40
43.0
 40
44.0
 40
44.0
 40
44.0
 40
45.0
 40
45.0
 40
45.0
 40
46.0
 40
46.0
 40
46.0
 40
47.0
 40
47.0
 40
47.0
 40
48.0
 40
48.0
 40
48.0
 40
49.0
 40
49.0
 40
49.0
 40
50.0
 40
50.0
 40
50.0
 40
51.0
 40
51.0
 40
51.0
 40
52.0
 40
52.0
 40
52.0
 40
53.0
 40
53.0
 40
53.0
 40
54.0
 40
54.0
 40
54.0
 40
55.0
 40
55.0
 40
55.0
 40
56.0
 40
56.0
 40
56.0
 40
57.0
 40
57.0
 40
57.0
 40
58.0
 40
58.0
 40
58.0
 40
59.0
 40
59.0
 40
59.0
 40
60.0
 40
60.0
 40
60.0
 40
61.0
 40
61.0
 40
61.0
 40
62.0
 40
62.0
 40
62.0
 40
62.0
 10
52.77230865366624
 20
142.8856855213491
 30
0.0
 10
52.77230865366624
 20
142.8856855213491
 30
0.0
 10
52.31292144316396
 20
142.977658297589
 30
0.0
 10
52.20578283478618
 20
143.3297621766864
 30
0.0
 10
52.09864422640841
 20
143.6818343899265
 30
0.0
 10
52.14461116968013
 20
143.8961116066821
 30
0.0
 10
52.14461116968013
 20
143.8961116066821
 30
0.0
 10
52.14461116968013
 20
143.8961116066821
 30
0.0
 10
52.51203054242758
 20
144.3095318739127
 30
0.0
 10
52.51203054242758
 20
144.3095318739127
 30
0.0
 10
52.51203054242758
 20
144.3095318739127
 30
0.0
 10
52.42023644042613
 20
144.4473305194438
 30
0.0
 10
52.42023644042613
 20
144.4473305194438
 30
0.0
 10
52.42023644042613
 20
144.4473305194438
 30
0.0
 10
52.56766226999832
 20
145.8138468355344
 30
0.0
 10
52.56766226999832
 20
145.8138468355344
 30
0.0
 10
52.56766226999832
 20
145.8138468355344
 30
0.0
 10
52.2824061661647
 20
147.4784992930656
 30
0.0
 10
52.2824061661647
 20
147.4784992930656
 30
0.0
 10
52.2824061661647
 20
147.4784992930656
 30
0.0
 10
52.14461116968013
 20
147.9225759484029
 30
0.0
 10
52.14461116968013
 20
147.9225759484029
 30
0.0
 10
52.14461116968013
 20
147.9225759484029
 30
0.0
 10
52.15995832029319
 20
150.6323325459379
 30
0.0
 10
52.15995832029319
 20
150.6323325459379
 30
0.0
 10
52.15995832029319
 20
150.6323325459379
 30
0.0
 10
52.66517004528846
 20
152.0866588977238
 30
0.0
 10
52.61916782423986
 20
152.5459049971186
 30
0.0
 10
52.57320088096812
 20
153.0051158187365
 30
0.0
 10
52.17526755778692
 20
154.3984860725115
 30
0.0
 10
52.14461116968013
 20
154.5361360574547
 30
0.0
 10
52.11395478157336
 20
154.6737546650549
 30
0.0
 10
52.15995832029319
 20
186.9606816191245
 30
0.0
 10
52.15995832029319
 20
186.9606816191245
 30
0.0
 10
52.15995832029319
 20
186.9606816191245
 30
0.0
 10
50.50648887626215
 20
187.0373402282799
 30
0.0
 10
50.50648887626215
 20
187.0373402282799
 30
0.0
 10
50.50648887626215
 20
187.0373402282799
 30
0.0
 10
50.46066176819682
 20
193.6050745051675
 30
0.0
 10
50.46066176819682
 20
193.6050745051675
 30
0.0
 10
50.46066176819682
 20
193.6050745051675
 30
0.0
 10
52.14461116968013
 20
193.5590722841189
 30
0.0
 10
52.14461116968013
 20
193.5590722841189
 30
0.0
 10
52.14461116968013
 20
193.5590722841189
 30
0.0
 10
52.09864422640841
 20
225.1418195339314
 30
0.0
 10
52.09864422640841
 20
225.1418195339314
 30
0.0
 10
52.09864422640841
 20
225.1418195339314
 30
0.0
 10
52.19061339072875
 20
225.4019225828512
 30
0.0
 10
52.19061339072875
 20
225.4019225828512
 30
0.0
 10
52.19061339072875
 20
225.4019225828512
 30
0.0
 10
46.18926382161371
 20
225.5245481352783
 30
0.0
 10
46.18926382161371
 20
225.5245481352783
 30
0.0
 10
46.18926382161371
 20
225.5245481352783
 30
0.0
 10
46.21992020972048
 20
227.9280230739606
 30
0.0
 10
46.21992020972048
 20
227.9280230739606
 30
0.0
 10
46.21992020972048
 20
227.9280230739606
 30
0.0
 10
45.68401665524552
 20
226.6573175508234
 30
0.0
 10
45.68401665524552
 20
226.6573175508234
 30
0.0
 10
45.68401665524552
 20
226.6573175508234
 30
0.0
 10
43.1732608430028
 20
226.6114917186592
 30
0.0
 10
43.1732608430028
 20
226.6114917186592
 30
0.0
 10
43.1732608430028
 20
226.6114917186592
 30
0.0
 10
42.76001696465663
 20
227.3309819780812
 30
0.0
 10
42.76001696465663
 20
227.3309819780812
 30
0.0
 10
42.76001696465663
 20
227.3309819780812
 30
0.0
 10
42.68335835550125
 20
228.2647847320357
 30
0.0
 10
42.68335835550125
 20
228.2647847320357
 30
0.0
 10
42.68335835550125
 20
228.2647847320357
 30
0.0
 10
42.69866891066619
 20
228.6935155544312
 30
0.0
 10
42.36194253036791
 20
228.6935155544312
 30
0.0
 10
42.02518087229275
 20
228.6935155544312
 30
0.0
 10
35.94749019401423
 20
228.7395177754798
 30
0.0
 10
35.94749019401423
 20
228.7395177754798
 30
0.0
 10
35.94749019401423
 20
228.7395177754798
 30
0.0
 10
35.27382665784824
 20
229.2752460951456
 30
0.0
 10
35.27382665784824
 20
229.2752460951456
 30
0.0
 10
35.27382665784824
 20
229.2752460951456
 30
0.0
 10
33.77346276933455
 20
229.2905566503105
 30
0.0
 10
33.77346276933455
 20
229.2905566503105
 30
0.0
 10
33.77346276933455
 20
229.2905566503105
 30
0.0
 10
33.13045471393953
 20
228.7242072203149
 30
0.0
 10
33.13045471393953
 20
228.7242072203149
 30
0.0
 10
33.13045471393953
 20
228.7242072203149
 30
0.0
 10
30.40574027017649
 20
228.7088613873731
 30
0.0
 10
30.40574027017649
 20
228.7088613873731
 30
0.0
 10
30.40574027017649
 20
228.7088613873731
 30
0.0
 10
29.82383332587737
 20
228.9689644362928
 30
0.0
 10
29.82383332587737
 20
229.4743538678437
 30
0.0
 10
29.82383332587737
 20
229.9794257994027
 30
0.0
 10
29.85452499253652
 20
234.7558603997679
 30
0.0
 10
29.85452499253652
 20
234.7558603997679
 30
0.0
 10
29.85452499253652
 20
234.7558603997679
 30
0.0
 10
30.11494554802689
 20
235.3989037166959
 30
0.0
 10
30.58936110346378
 20
235.3989037166959
 30
0.0
 10
31.06409415890061
 20
235.3989037166959
 30
0.0
 10
33.11546165838787
 20
235.3989037166959
 30
0.0
 10
33.11546165838787
 20
235.3989037166959
 30
0.0
 10
33.11546165838787
 20
235.3989037166959
 30
0.0
 10
33.66650054713897
 20
234.8783448410876
 30
0.0
 10
33.66650054713897
 20
234.8783448410876
 30
0.0
 10
33.66650054713897
 20
234.8783448410876
 30
0.0
 10
35.25883360229626
 20
234.7712062327098
 30
0.0
 10
35.25883360229626
 20
234.7712062327098
 30
0.0
 10
35.25883360229626
 20
234.7712062327098
 30
0.0
 10
35.87100797374323
 20
235.4142142718608
 30
0.0
 10
35.87100797374323
 20
235.4142142718608
 30
0.0
 10
35.87100797374323
 20
235.4142142718608
 30
0.0
 10
42.13267225843931
 20
235.3224214964249
 30
0.0
 10
42.17846387834416
 20
235.3224214964249
 30
0.0
 10
42.22428864499087
 20
235.3224214964249
 30
0.0
 10
42.62236307927959
 20
235.4908728810162
 30
0.0
 10
42.62236307927959
 20
235.674493709665
 30
0.0
 10
42.62236307927959
 20
235.8581145383138
 30
0.0
 10
42.6683653003282
 20
236.6542986846681
 30
0.0
 10
42.6683653003282
 20
236.6542986846681
 30
0.0
 10
42.6683653003282
 20
236.6542986846681
 30
0.0
 10
43.09695501161619
 20
237.4044453321969
 30
0.0
 10
43.09695501161619
 20
237.4044453321969
 30
0.0
 10
43.09695501161619
 20
237.4044453321969
 30
0.0
 10
45.56174272651199
 20
237.4656875528567
 30
0.0
 10
45.56174272651199
 20
237.4656875528567
 30
0.0
 10
45.56174272651199
 20
237.4656875528567
 30
0.0
 10
45.9598171608007
 20
237.1288553392278
 30
0.0
 10
45.9598171608007
 20
237.1288553392278
 30
0.0
 10
45.9598171608007
 20
237.1288553392278
 30
0.0
 10
46.09761215728527
 20
238.6750802997803
 30
0.0
 10
46.09761215728527
 20
238.6750802997803
 30
0.0
 10
46.09761215728527
 20
238.6750802997803
 30
0.0
 10
51.85385173265359
 20
238.6138380791205
 30
0.0
 10
51.85385173265359
 20
238.6138380791205
 30
0.0
 10
51.85385173265359
 20
238.6138380791205
 30
0.0
 10
51.86902117671102
 20
238.8741175169247
 30
0.0
 10
51.86902117671102
 20
238.8741175169247
 30
0.0
 10
51.86902117671102
 20
238.8741175169247
 30
0.0
 10
52.19061339072875
 20
239.1803286202237
 30
0.0
 10
52.19061339072875
 20
239.1803286202237
 30
0.0
 10
52.19061339072875
 20
239.1803286202237
 30
0.0
 10
62.99891283720828
 20
239.2108791749998
 30
0.0
 10
62.99891283720828
 20
239.2108791749998
 30
0.0
 10
62.99891283720828
 20
239.2108791749998
 30
0.0
 10
63.33567449528344
 20
239.0118419578555
 30
0.0
 10
63.33567449528344
 20
239.0118419578555
 30
0.0
 10
63.33567449528344
 20
239.0118419578555
 30
0.0
 10
63.36633088339022
 20
238.7210119652752
 30
0.0
 10
63.36633088339022
 20
238.7210119652752
 30
0.0
 10
63.36633088339022
 20
238.7210119652752
 30
0.0
 10
64.59106946325565
 20
238.6597697446153
 30
0.0
 10
64.59106946325565
 20
238.6597697446153
 30
0.0
 10
64.59106946325565
 20
238.6597697446153
 30
0.0
 10
64.52972140926521
 20
225.4478895261229
 30
0.0
 10
64.52972140926521
 20
225.4478895261229
 30
0.0
 10
64.52972140926521
 20
225.4478895261229
 30
0.0
 10
63.0447386693725
 20
225.3867531387938
 30
0.0
 10
63.0447386693725
 20
225.3867531387938
 30
0.0
 10
63.0447386693725
 20
225.3867531387938
 30
0.0
 10
63.19787949879888
 20
225.2029559212606
 30
0.0
 10
63.19787949879888
 20
225.2029559212606
 30
0.0
 10
63.19787949879888
 20
225.2029559212606
 30
0.0
 10
63.10605144558605
 20
193.5435500622926
 30
0.0
 10
63.10605144558605
 20
193.5435500622926
 30
0.0
 10
63.10605144558605
 20
193.5435500622926
 30
0.0
 10
69.42885211761129
 20
193.5588958952345
 30
0.0
 10
69.42885211761129
 20
193.5588958952345
 30
0.0
 10
69.42885211761129
 20
193.5588958952345
 30
0.0
 10
69.41332989578508
 20
186.9915143961157
 30
0.0
 10
69.36750406362087
 20
186.9915143961157
 30
0.0
 10
69.32167823145665
 20
186.9915143961157
 30
0.0
 10
63.12139727852788
 20
186.8841993988535
 30
0.0
 10
63.12139727852788
 20
186.8841993988535
 30
0.0
 10
63.12139727852788
 20
186.8841993988535
 30
0.0
 10
63.24384644207061
 20
145.978170720231
 30
0.0
 10
63.24384644207061
 20
145.978170720231
 30
0.0
 10
63.24384644207061
 20
145.978170720231
 30
0.0
 10
63.01408228126572
 20
144.1563910444863
 30
0.0
 10
63.01408228126572
 20
144.1563910444863
 30
0.0
 10
63.01408228126572
 20
144.1563910444863
 30
0.0
 10
63.19787949879888
 20
143.8196293864111
 30
0.0
 10
63.19787949879888
 20
143.6818343899265
 30
0.0
 10
63.19787949879888
 20
143.544039393442
 30
0.0
 10
63.07557144636366
 20
143.1304427373271
 30
0.0
 10
62.87642839588867
 20
143.0846169051628
 30
0.0
 10
62.67732220655277
 20
143.0388263507755
 30
0.0
 10
62.04962313920446
 20
142.9468219086783
 30
0.0
 10
62.04962313920446
 20
142.9468219086783
 30
0.0
 10
62.04962313920446
 20
142.9468219086783
 30
0.0
 10
52.77230865366624
 20
142.8856855213491
 30
0.0
 10
52.77230865366624
 20
142.8856855213491
 30
0.0
  0
HATCH
  5
7A
330
70
100
AcDbEntity
  8
grau 10%
 62
   255
440
 33554687
100
AcDbHatch
 10
0.0
 20
0.0
 30
0.0
210
0.0
220
0.0
230
1.0
  2
SOLID
 70
     1
 71
     1
 91
        1
 92
        1
 93
        1
 72
     4
 94
        3
 73
     0
 74
     0
 95
      191
 96
      187
 40
0.0
 40
0.0
 40
0.0
 40
0.0
 40
1.0
 40
1.0
 40
1.0
 40
2.0
 40
2.0
 40
2.0
 40
3.0
 40
3.0
 40
3.0
 40
4.0
 40
4.0
 40
4.0
 40
5.0
 40
5.0
 40
5.0
 40
6.0
 40
6.0
 40
6.0
 40
7.0
 40
7.0
 40
7.0
 40
8.0
 40
8.0
 40
8.0
 40
9.0
 40
9.0
 40
9.0
 40
10.0
 40
10.0
 40
10.0
 40
11.0
 40
11.0
 40
11.0
 40
12.0
 40
12.0
 40
12.0
 40
13.0
 40
13.0
 40
13.0
 40
14.0
 40
14.0
 40
14.0
 40
15.0
 40
15.0
 40
15.0
 40
16.0
 40
16.0
 40
16.0
 40
17.0
 40
17.0
 40
17.0
 40
18.0
 40
18.0
 40
18.0
 40
19.0
 40
19.0
 40
19.0
 40
20.0
 40
20.0
 40
20.0
 40
21.0
 40
21.0
 40
21.0
 40
22.0
 40
22.0
 40
22.0
 40
23.0
 40
23.0
 40
23.0
 40
24.0
 40
24.0
 40
24.0
 40
25.0
 40
25.0
 40
25.0
 40
26.0
 40
26.0
 40
26.0
 40
27.0
 40
27.0
 40
27.0
 40
28.0
 40
28.0
 40
28.0
 40
29.0
 40
29.0
 40
29.0
 40
30.0
 40
30.0
 40
30.0
 40
31.0
 40
31.0
 40
31.0
 40
32.0
 40
32.0
 40
32.0
 40
33.0
 40
33.0
 40
33.0
 40
34.0
 40
34.0
 40
34.0
 40
35.0
 40
35.0
 40
35.0
 40
36.0
 40
36.0
 40
36.0
 40
37.0
 40
37.0
 40
37.0
 40
38.0
 40
38.0
 40
38.0
 40
39.0
 40
39.0
 40
39.0
 40
40.0
 40
40.0
 40
40.0
 40
41.0
 40
41.0
 40
41.0
 40
42.0
 40
42.0
 40
42.0
 40
43.0
 40
43.0
 40
43.0
 40
44.0
 40
44.0
 40
44.0
 40
45.0
 40
45.0
 40
45.0
 40
46.0
 40
46.0
 40
46.0
 40
47.0
 40
47.0
 40
47.0
 40
48.0
 40
48.0
 40
48.0
 40
49.0
 40
49.0
 40
49.0
 40
50.0
 40
50.0
 40
50.0
 40
51.0
 40
51.0
 40
51.0
 40
52.0
 40
52.0
 40
52.0
 40
53.0
 40
53.0
 40
53.0
 40
54.0
 40
54.0
 40
54.0
 40
55.0
 40
55.0
 40
55.0
 40
56.0
 40
56.0
 40
56.0
 40
57.0
 40
57.0
 40
57.0
 40
58.0
 40
58.0
 40
58.0
 40
59.0
 40
59.0
 40
59.0
 40
60.0
 40
60.0
 40
60.0
 40
61.0
 40
61.0
 40
61.0
 40
62.0
 40
62.0
 40
62.0
 40
62.0
 10
52.77230865366624
 20
142.8856855213491
 10
52.77230865366624
 20
142.8856855213491
 10
52.31292144316396
 20
142.977658297589
 10
52.20578283478618
 20
143.3297621766864
 10
52.09864422640841
 20
143.6818343899265
 10
52.14461116968013
 20
143.8961116066821
 10
52.14461116968013
 20
143.8961116066821
 10
52.14461116968013
 20
143.8961116066821
 10
52.51203054242758
 20
144.3095318739127
 10
52.51203054242758
 20
144.3095318739127
 10
52.51203054242758
 20
144.3095318739127
 10
52.42023644042613
 20
144.4473305194438
 10
52.42023644042613
 20
144.4473305194438
 10
52.42023644042613
 20
144.4473305194438
 10
52.56766226999832
 20
145.8138468355344
 10
52.56766226999832
 20
145.8138468355344
 10
52.56766226999832
 20
145.8138468355344
 10
52.2824061661647
 20
147.4784992930656
 10
52.2824061661647
 20
147.4784992930656
 10
52.2824061661647
 20
147.4784992930656
 10
52.14461116968013
 20
147.9225759484029
 10
52.14461116968013
 20
147.9225759484029
 10
52.14461116968013
 20
147.9225759484029
 10
52.15995832029319
 20
150.6323325459379
 10
52.15995832029319
 20
150.6323325459379
 10
52.15995832029319
 20
150.6323325459379
 10
52.66517004528846
 20
152.0866588977238
 10
52.61916782423986
 20
152.5459049971186
 10
52.57320088096812
 20
153.0051158187365
 10
52.17526755778692
 20
154.3984860725115
 10
52.14461116968013
 20
154.5361360574547
 10
52.11395478157336
 20
154.6737546650549
 10
52.15995832029319
 20
186.9606816191245
 10
52.15995832029319
 20
186.9606816191245
 10
52.15995832029319
 20
186.9606816191245
 10
50.50648887626215
 20
187.0373402282799
 10
50.50648887626215
 20
187.0373402282799
 10
50.50648887626215
 20
187.0373402282799
 10
50.46066176819682
 20
193.6050745051675
 10
50.46066176819682
 20
193.6050745051675
 10
50.46066176819682
 20
193.6050745051675
 10
52.14461116968013
 20
193.5590722841189
 10
52.14461116968013
 20
193.5590722841189
 10
52.14461116968013
 20
193.5590722841189
 10
52.09864422640841
 20
225.1418195339314
 10
52.09864422640841
 20
225.1418195339314
 10
52.09864422640841
 20
225.1418195339314
 10
52.19061339072875
 20
225.4019225828512
 10
52.19061339072875
 20
225.4019225828512
 10
52.19061339072875
 20
225.4019225828512
 10
46.18926382161371
 20
225.5245481352783
 10
46.18926382161371
 20
225.5245481352783
 10
46.18926382161371
 20
225.5245481352783
 10
46.21992020972048
 20
227.9280230739606
 10
46.21992020972048
 20
227.9280230739606
 10
46.21992020972048
 20
227.9280230739606
 10
45.68401665524552
 20
226.6573175508234
 10
45.68401665524552
 20
226.6573175508234
 10
45.68401665524552
 20
226.6573175508234
 10
43.1732608430028
 20
226.6114917186592
 10
43.1732608430028
 20
226.6114917186592
 10
43.1732608430028
 20
226.6114917186592
 10
42.76001696465663
 20
227.3309819780812
 10
42.76001696465663
 20
227.3309819780812
 10
42.76001696465663
 20
227.3309819780812
 10
42.68335835550125
 20
228.2647847320357
 10
42.68335835550125
 20
228.2647847320357
 10
42.68335835550125
 20
228.2647847320357
 10
42.69866891066619
 20
228.6935155544312
 10
42.36194253036791
 20
228.6935155544312
 10
42.02518087229275
 20
228.6935155544312
 10
35.94749019401423
 20
228.7395177754798
 10
35.94749019401423
 20
228.7395177754798
 10
35.94749019401423
 20
228.7395177754798
 10
35.27382665784824
 20
229.2752460951456
 10
35.27382665784824
 20
229.2752460951456
 10
35.27382665784824
 20
229.2752460951456
 10
33.77346276933455
 20
229.2905566503105
 10
33.77346276933455
 20
229.2905566503105
 10
33.77346276933455
 20
229.2905566503105
 10
33.13045471393953
 20
228.7242072203149
 10
33.13045471393953
 20
228.7242072203149
 10
33.13045471393953
 20
228.7242072203149
 10
30.40574027017649
 20
228.7088613873731
 10
30.40574027017649
 20
228.7088613873731
 10
30.40574027017649
 20
228.7088613873731
 10
29.82383332587737
 20
228.9689644362928
 10
29.82383332587737
 20
229.4743538678437
 10
29.82383332587737
 20
229.9794257994027
 10
29.85452499253652
 20
234.7558603997679
 10
29.85452499253652
 20
234.7558603997679
 10
29.85452499253652
 20
234.7558603997679
 10
30.11494554802689
 20
235.3989037166959
 10
30.58936110346378
 20
235.3989037166959
 10
31.06409415890061
 20
235.3989037166959
 10
33.11546165838787
 20
235.3989037166959
 10
33.11546165838787
 20
235.3989037166959
 10
33.11546165838787
 20
235.3989037166959
 10
33.66650054713897
 20
234.8783448410876
 10
33.66650054713897
 20
234.8783448410876
 10
33.66650054713897
 20
234.8783448410876
 10
35.25883360229626
 20
234.7712062327098
 10
35.25883360229626
 20
234.7712062327098
 10
35.25883360229626
 20
234.7712062327098
 10
35.87100797374323
 20
235.4142142718608
 10
35.87100797374323
 20
235.4142142718608
 10
35.87100797374323
 20
235.4142142718608
 10
42.13267225843931
 20
235.3224214964249
 10
42.17846387834416
 20
235.3224214964249
 10
42.22428864499087
 20
235.3224214964249
 10
42.62236307927959
 20
235.4908728810162
 10
42.62236307927959
 20
235.674493709665
 10
42.62236307927959
 20
235.8581145383138
 10
42.6683653003282
 20
236.6542986846681
 10
42.6683653003282
 20
236.6542986846681
 10
42.6683653003282
 20
236.6542986846681
 10
43.09695501161619
 20
237.4044453321969
 10
43.09695501161619
 20
237.4044453321969
 10
43.09695501161619
 20
237.4044453321969
 10
45.56174272651199
 20
237.4656875528567
 10
45.56174272651199
 20
237.4656875528567
 10
45.56174272651199
 20
237.4656875528567
 10
45.9598171608007
 20
237.1288553392278
 10
45.9598171608007
 20
237.1288553392278
 10
45.9598171608007
 20
237.1288553392278
 10
46.09761215728527
 20
238.6750802997803
 10
46.09761215728527
 20
238.6750802997803
 10
46.09761215728527
 20
238.6750802997803
 10
51.85385173265359
 20
238.6138380791205
 10
51.85385173265359
 20
238.6138380791205
 10
51.85385173265359
 20
238.6138380791205
 10
51.86902117671102
 20
238.8741175169247
 10
51.86902117671102
 20
238.8741175169247
 10
51.86902117671102
 20
238.8741175169247
 10
52.19061339072875
 20
239.1803286202237
 10
52.19061339072875
 20
239.1803286202237
 10
52.19061339072875
 20
239.1803286202237
 10
62.99891283720828
 20
239.2108791749998
 10
62.99891283720828
 20
239.2108791749998
 10
62.99891283720828
 20
239.2108791749998
 10
63.33567449528344
 20
239.0118419578555
 10
63.33567449528344
 20
239.0118419578555
 10
63.33567449528344
 20
239.0118419578555
 10
63.36633088339022
 20
238.7210119652752
 10
63.36633088339022
 20
238.7210119652752
 10
63.36633088339022
 20
238.7210119652752
 10
64.59106946325565
 20
238.6597697446153
 10
64.59106946325565
 20
238.6597697446153
 10
64.59106946325565
 20
238.6597697446153
 10
64.52972140926521
 20
225.4478895261229
 10
64.52972140926521
 20
225.4478895261229
 10
64.52972140926521
 20
225.4478895261229
 10
63.0447386693725
 20
225.3867531387938
 10
63.0447386693725
 20
225.3867531387938
 10
63.0447386693725
 20
225.3867531387938
 10
63.19787949879888
 20
225.2029559212606
 10
63.19787949879888
 20
225.2029559212606
 10
63.19787949879888
 20
225.2029559212606
 10
63.10605144558605
 20
193.5435500622926
 10
63.10605144558605
 20
193.5435500622926
 10
63.10605144558605
 20
193.5435500622926
 10
69.42885211761129
 20
193.5588958952345
 10
69.42885211761129
 20
193.5588958952345
 10
69.42885211761129
 20
193.5588958952345
 10
69.41332989578508
 20
186.9915143961157
 10
69.36750406362087
 20
186.9915143961157
 10
69.32167823145665
 20
186.9915143961157
 10
63.12139727852788
 20
186.8841993988535
 10
63.12139727852788
 20
186.8841993988535
 10
63.12139727852788
 20
186.8841993988535
 10
63.24384644207061
 20
145.978170720231
 10
63.24384644207061
 20
145.978170720231
 10
63.24384644207061
 20
145.978170720231
 10
63.01408228126572
 20
144.1563910444863
 10
63.01408228126572
 20
144.1563910444863
 10
63.01408228126572
 20
144.1563910444863
 10
63.19787949879888
 20
143.8196293864111
 10
63.19787949879888
 20
143.6818343899265
 10
63.19787949879888
 20
143.544039393442
 10
63.07557144636366
 20
143.1304427373271
 10
62.87642839588867
 20
143.0846169051628
 10
62.67732220655277
 20
143.0388263507755
 10
62.04962313920446
 20
142.9468219086783
 10
62.04962313920446
 20
142.9468219086783
 10
62.04962313920446
 20
142.9468219086783
 10
52.77230865366624
 20
142.8856855213491
 10
52.77230865366624
 20
142.8856855213491
 97
        0
 97
        1
330
79
 75
     0
 76
     1
 98
        1
 10
0.0
 20
0.0
450
        0
451
        0
460
0.0
461
0.0
452
        0
462
0.0
453
        0
470

  0
SPLINE
  5
7B
330
70
100
AcDbEntity
  8
grau 10%
100
AcDbSpline
210
0.0
220
0.0
230
1.0
 70
    11
 71
     3
 72
   113
 73
   109
 74
     0
 42
0.0000000001
 43
0.0000000001
 40
0.0
 40
0.0
 40
0.0
 40
0.0
 40
1.0
 40
1.0
 40
1.0
 40
2.0
 40
2.0
 40
2.0
 40
3.0
 40
3.0
 40
3.0
 40
4.0
 40
4.0
 40
4.0
 40
5.0
 40
5.0
 40
5.0
 40
6.0
 40
6.0
 40
6.0
 40
7.0
 40
7.0
 40
7.0
 40
8.0
 40
8.0
 40
8.0
 40
9.0
 40
9.0
 40
9.0
 40
10.0
 40
10.0
 40
10.0
 40
11.0
 40
11.0
 40
11.0
 40
12.0
 40
12.0
 40
12.0
 40
13.0
 40
13.0
 40
13.0
 40
14.0
 40
14.0
 40
14.0
 40
15.0
 40
15.0
 40
15.0
 40
16.0
 40
16.0
 40
16.0
 40
17.0
 40
17.0
 40
17.0
 40
18.0
 40
18.0
 40
18.0
 40
19.0
 40
19.0
 40
19.0
 40
20.0
 40
20.0
 40
20.0
 40
21.0
 40
21.0
 40
21.0
 40
22.0
 40
22.0
 40
22.0
 40
23.0
 40
23.0
 40
23.0
 40
24.0
 40
24.0
 40
24.0
 40
25.0
 40
25.0
 40
25.0
 40
26.0
 40
26.0
 40
26.0
 40
27.0
 40
27.0
 40
27.0
 40
28.0
 40
28.0
 40
28.0
 40
29.0
 40
29.0
 40
29.0
 40
30.0
 40
30.0
 40
30.0
 40
31.0
 40
31.0
 40
31.0
 40
32.0
 40
32.0
 40
32.0
 40
33.0
 40
33.0
 40
33.0
 40
34.0
 40
34.0
 40
34.0
 40
35.0
 40
35.0
 40
35.0
 40
36.0
 40
36.0
 40
36.0
 40
36.0
 10
100.4901610859886
 20
142.9530307974088
 30
0.0
 10
100.4901610859886
 20
142.9530307974088
 30
0.0
 10
100.0529610585474
 20
143.0624271835067
 30
0.0
 10
99.99062775278016
 20
143.359042731495
 30
0.0
 10
99.92825411728452
 20
143.6556582794833
 30
0.0
 10
99.92825411728452
 20
143.7727804987174
 30
0.0
 10
99.92825411728452
 20
143.7727804987174
 30
0.0
 10
99.92825411728452
 20
143.7727804987174
 30
0.0
 10
100.1545963337322
 20
144.2098015986792
 30
0.0
 10
100.1545963337322
 20
144.2098015986792
 30
0.0
 10
100.1545963337322
 20
144.2098015986792
 30
0.0
 10
99.89710384030145
 20
146.0596271070418
 30
0.0
 10
99.89710384030145
 20
146.0596271070418
 30
0.0
 10
99.89710384030145
 20
146.0596271070418
 30
0.0
 10
99.9203518952639
 20
149.2907892468302
 30
0.0
 10
99.93601522819762
 20
149.3299123013876
 30
0.0
 10
99.95167856113134
 20
149.3690000781682
 30
0.0
 10
100.0216371611547
 20
150.8832986506464
 30
0.0
 10
100.0216371611547
 20
151.1564897547877
 30
0.0
 10
100.0216371611547
 20
151.4296808589292
 30
0.0
 10
100.0533138363162
 20
153.0921108165171
 30
0.0
 10
100.0219871704487
 20
153.1703216478551
 30
0.0
 10
99.99062775278016
 20
153.2485324791931
 30
0.0
 10
99.90482967343767
 20
186.9829066185575
 30
0.0
 10
99.90482967343767
 20
186.9829066185575
 30
0.0
 10
99.90482967343767
 20
186.9829066185575
 30
0.0
 10
93.87091871626445
 20
187.045247175461
 30
0.0
 10
93.87091871626445
 20
187.045247175461
 30
0.0
 10
93.87091871626445
 20
187.045247175461
 30
0.0
 10
93.82442497654384
 20
193.5704317282735
 30
0.0
 10
93.82442497654384
 20
193.5704317282735
 30
0.0
 10
93.82442497654384
 20
193.5704317282735
 30
0.0
 10
99.92052828414827
 20
193.6095547828309
 30
0.0
 10
99.92052828414827
 20
193.6095547828309
 30
0.0
 10
99.92052828414827
 20
193.6095547828309
 30
0.0
 10
99.98872022685301
 20
225.5021820247378
 30
0.0
 10
99.98872022685301
 20
225.5021820247378
 30
0.0
 10
99.98872022685301
 20
225.5021820247378
 30
0.0
 10
95.59381478342082
 20
225.5316036906539
 30
0.0
 10
95.59381478342082
 20
225.5316036906539
 30
0.0
 10
95.59381478342082
 20
225.5316036906539
 30
0.0
 10
95.59381478342082
 20
238.7166082736541
 30
0.0
 10
95.59381478342082
 20
238.7166082736541
 30
0.0
 10
95.59381478342082
 20
238.7166082736541
 30
0.0
 10
99.650759124364
 20
238.6431539117059
 30
0.0
 10
99.650759124364
 20
238.6431539117059
 30
0.0
 10
99.650759124364
 20
238.6431539117059
 30
0.0
 10
99.66539940176827
 20
238.8929971624988
 30
0.0
 10
99.66539940176827
 20
238.8929971624988
 30
0.0
 10
99.66539940176827
 20
238.8929971624988
 30
0.0
 10
99.98872022685301
 20
239.2164177859696
 30
0.0
 10
99.98872022685301
 20
239.2164177859696
 30
0.0
 10
99.98872022685301
 20
239.2164177859696
 30
0.0
 10
110.9250074478451
 20
239.2164177859696
 30
0.0
 10
110.9250074478451
 20
239.2164177859696
 30
0.0
 10
110.9250074478451
 20
239.2164177859696
 30
0.0
 10
111.1601338307354
 20
238.9370943847101
 30
0.0
 10
111.1601338307354
 20
238.9370943847101
 30
0.0
 10
111.1601338307354
 20
238.9370943847101
 30
0.0
 10
111.1747741081396
 20
238.7019619657612
 30
0.0
 10
111.1747741081396
 20
238.7019619657612
 30
0.0
 10
111.1747741081396
 20
238.7019619657612
 30
0.0
 10
115.2611753927757
 20
238.6725110514429
 30
0.0
 10
115.2611753927757
 20
238.6725110514429
 30
0.0
 10
115.2611753927757
 20
238.6725110514429
 30
0.0
 10
115.4227476108759
 20
225.5314625795464
 30
0.0
 10
115.4227476108759
 20
225.5314625795464
 30
0.0
 10
115.4227476108759
 20
225.5314625795464
 30
0.0
 10
110.8660935604592
 20
225.5169634132496
 30
0.0
 10
110.8660935604592
 20
225.5169634132496
 30
0.0
 10
110.8660935604592
 20
225.5169634132496
 30
0.0
 10
110.9689282800579
 20
225.2082828655691
 30
0.0
 10
110.9689282800579
 20
225.2082828655691
 30
0.0
 10
110.9689282800579
 20
225.2082828655691
 30
0.0
 10
110.9396477252493
 20
193.6786286699576
 30
0.0
 10
110.9396477252493
 20
193.6786286699576
 30
0.0
 10
110.9396477252493
 20
193.6786286699576
 30
0.0
 10
117.1868128436486
 20
193.5609772840703
 30
0.0
 10
117.1868128436486
 20
193.5609772840703
 30
0.0
 10
117.1868128436486
 20
193.5609772840703
 30
0.0
 10
117.1427156225514
 20
191.4150301165957
 30
0.0
 10
117.1427156225514
 20
191.4150301165957
 30
0.0
 10
117.1427156225514
 20
191.4150301165957
 30
0.0
 10
117.0986184014542
 20
190.6211037479616
 30
0.0
 10
117.0986184014542
 20
190.341880143974
 30
0.0
 10
117.0986184014542
 20
190.0626565399866
 30
0.0
 10
117.2455503421501
 20
188.7838371281675
 30
0.0
 10
117.2455503421501
 20
188.7838371281675
 30
0.0
 10
117.2455503421501
 20
188.7838371281675
 30
0.0
 10
117.1132586788585
 20
187.0199482842791
 30
0.0
 10
117.1132586788585
 20
187.0199482842791
 30
0.0
 10
117.1132586788585
 20
187.0199482842791
 30
0.0
 10
111.0132018900395
 20
186.9317538420847
 30
0.0
 10
111.0132018900395
 20
186.9317538420847
 30
0.0
 10
111.0132018900395
 20
186.9317538420847
 30
0.0
 10
110.9396477252493
 20
146.0389896075683
 30
0.0
 10
110.9396477252493
 20
146.0389896075683
 30
0.0
 10
110.9396477252493
 20
146.0389896075683
 30
0.0
 10
110.8073560619577
 20
144.2749243747956
 30
0.0
 10
110.8073560619577
 20
144.2015465988898
 30
0.0
 10
110.8073560619577
 20
144.1281335452072
 30
0.0
 10
111.0571227222523
 20
143.9076474397211
 30
0.0
 10
110.9248310589607
 20
143.657739668319
 30
0.0
 10
110.792539395669
 20
143.40779661914
 30
0.0
 10
110.6016866227603
 20
142.9961049629765
 30
0.0
 10
110.4104810720828
 20
143.0109216292652
 30
0.0
 10
110.2192755214053
 20
143.025703017777
 30
0.0
 10
100.4901610859886
 20
142.9530307974088
 30
0.0
 10
100.4901610859886
 20
142.9530307974088
 30
0.0
  0
HATCH
  5
7C
330
70
100
AcDbEntity
  8
grau 10%
 62
   255
440
 33554687
100
AcDbHatch
 10
0.0
 20
0.0
 30
0.0
210
0.0
220
0.0
230
1.0
  2
SOLID
 70
     1
 71
     1
 91
        1
 92
        1
 93
        1
 72
     4
 94
        3
 73
     0
 74
     0
 95
      113
 96
      109
 40
0.0
 40
0.0
 40
0.0
 40
0.0
 40
1.0
 40
1.0
 40
1.0
 40
2.0
 40
2.0
 40
2.0
 40
3.0
 40
3.0
 40
3.0
 40
4.0
 40
4.0
 40
4.0
 40
5.0
 40
5.0
 40
5.0
 40
6.0
 40
6.0
 40
6.0
 40
7.0
 40
7.0
 40
7.0
 40
8.0
 40
8.0
 40
8.0
 40
9.0
 40
9.0
 40
9.0
 40
10.0
 40
10.0
 40
10.0
 40
11.0
 40
11.0
 40
11.0
 40
12.0
 40
12.0
 40
12.0
 40
13.0
 40
13.0
 40
13.0
 40
14.0
 40
14.0
 40
14.0
 40
15.0
 40
15.0
 40
15.0
 40
16.0
 40
16.0
 40
16.0
 40
17.0
 40
17.0
 40
17.0
 40
18.0
 40
18.0
 40
18.0
 40
19.0
 40
19.0
 40
19.0
 40
20.0
 40
20.0
 40
20.0
 40
21.0
 40
21.0
 40
21.0
 40
22.0
 40
22.0
 40
22.0
 40
23.0
 40
23.0
 40
23.0
 40
24.0
 40
24.0
 40
24.0
 40
25.0
 40
25.0
 40
25.0
 40
26.0
 40
26.0
 40
26.0
 40
27.0
 40
27.0
 40
27.0
 40
28.0
 40
28.0
 40
28.0
 40
29.0
 40
29.0
 40
29.0
 40
30.0
 40
30.0
 40
30.0
 40
31.0
 40
31.0
 40
31.0
 40
32.0
 40
32.0
 40
32.0
 40
33.0
 40
33.0
 40
33.0
 40
34.0
 40
34.0
 40
34.0
 40
35.0
 40
35.0
 40
35.0
 40
36.0
 40
36.0
 40
36.0
 40
36.0
 10
100.4901610859886
 20
142.9530307974088
 10
100.4901610859886
 20
142.9530307974088
 10
100.0529610585474
 20
143.0624271835067
 10
99.99062775278016
 20
143.359042731495
 10
99.92825411728452
 20
143.6556582794833
 10
99.92825411728452
 20
143.7727804987174
 10
99.92825411728452
 20
143.7727804987174
 10
99.92825411728452
 20
143.7727804987174
 10
100.1545963337322
 20
144.2098015986792
 10
100.1545963337322
 20
144.2098015986792
 10
100.1545963337322
 20
144.2098015986792
 10
99.89710384030145
 20
146.0596271070418
 10
99.89710384030145
 20
146.0596271070418
 10
99.89710384030145
 20
146.0596271070418
 10
99.9203518952639
 20
149.2907892468302
 10
99.93601522819762
 20
149.3299123013876
 10
99.95167856113134
 20
149.3690000781682
 10
100.0216371611547
 20
150.8832986506464
 10
100.0216371611547
 20
151.1564897547877
 10
100.0216371611547
 20
151.4296808589292
 10
100.0533138363162
 20
153.0921108165171
 10
100.0219871704487
 20
153.1703216478551
 10
99.99062775278016
 20
153.2485324791931
 10
99.90482967343767
 20
186.9829066185575
 10
99.90482967343767
 20
186.9829066185575
 10
99.90482967343767
 20
186.9829066185575
 10
93.87091871626445
 20
187.045247175461
 10
93.87091871626445
 20
187.045247175461
 10
93.87091871626445
 20
187.045247175461
 10
93.82442497654384
 20
193.5704317282735
 10
93.82442497654384
 20
193.5704317282735
 10
93.82442497654384
 20
193.5704317282735
 10
99.92052828414827
 20
193.6095547828309
 10
99.92052828414827
 20
193.6095547828309
 10
99.92052828414827
 20
193.6095547828309
 10
99.98872022685301
 20
225.5021820247378
 10
99.98872022685301
 20
225.5021820247378
 10
99.98872022685301
 20
225.5021820247378
 10
95.59381478342082
 20
225.5316036906539
 10
95.59381478342082
 20
225.5316036906539
 10
95.59381478342082
 20
225.5316036906539
 10
95.59381478342082
 20
238.7166082736541
 10
95.59381478342082
 20
238.7166082736541
 10
95.59381478342082
 20
238.7166082736541
 10
99.650759124364
 20
238.6431539117059
 10
99.650759124364
 20
238.6431539117059
 10
99.650759124364
 20
238.6431539117059
 10
99.66539940176827
 20
238.8929971624988
 10
99.66539940176827
 20
238.8929971624988
 10
99.66539940176827
 20
238.8929971624988
 10
99.98872022685301
 20
239.2164177859696
 10
99.98872022685301
 20
239.2164177859696
 10
99.98872022685301
 20
239.2164177859696
 10
110.9250074478451
 20
239.2164177859696
 10
110.9250074478451
 20
239.2164177859696
 10
110.9250074478451
 20
239.2164177859696
 10
111.1601338307354
 20
238.9370943847101
 10
111.1601338307354
 20
238.9370943847101
 10
111.1601338307354
 20
238.9370943847101
 10
111.1747741081396
 20
238.7019619657612
 10
111.1747741081396
 20
238.7019619657612
 10
111.1747741081396
 20
238.7019619657612
 10
115.2611753927757
 20
238.6725110514429
 10
115.2611753927757
 20
238.6725110514429
 10
115.2611753927757
 20
238.6725110514429
 10
115.4227476108759
 20
225.5314625795464
 10
115.4227476108759
 20
225.5314625795464
 10
115.4227476108759
 20
225.5314625795464
 10
110.8660935604592
 20
225.5169634132496
 10
110.8660935604592
 20
225.5169634132496
 10
110.8660935604592
 20
225.5169634132496
 10
110.9689282800579
 20
225.2082828655691
 10
110.9689282800579
 20
225.2082828655691
 10
110.9689282800579
 20
225.2082828655691
 10
110.9396477252493
 20
193.6786286699576
 10
110.9396477252493
 20
193.6786286699576
 10
110.9396477252493
 20
193.6786286699576
 10
117.1868128436486
 20
193.5609772840703
 10
117.1868128436486
 20
193.5609772840703
 10
117.1868128436486
 20
193.5609772840703
 10
117.1427156225514
 20
191.4150301165957
 10
117.1427156225514
 20
191.4150301165957
 10
117.1427156225514
 20
191.4150301165957
 10
117.0986184014542
 20
190.6211037479616
 10
117.0986184014542
 20
190.341880143974
 10
117.0986184014542
 20
190.0626565399866
 10
117.2455503421501
 20
188.7838371281675
 10
117.2455503421501
 20
188.7838371281675
 10
117.2455503421501
 20
188.7838371281675
 10
117.1132586788585
 20
187.0199482842791
 10
117.1132586788585
 20
187.0199482842791
 10
117.1132586788585
 20
187.0199482842791
 10
111.0132018900395
 20
186.9317538420847
 10
111.0132018900395
 20
186.9317538420847
 10
111.0132018900395
 20
186.9317538420847
 10
110.9396477252493
 20
146.0389896075683
 10
110.9396477252493
 20
146.0389896075683
 10
110.9396477252493
 20
146.0389896075683
 10
110.8073560619577
 20
144.2749243747956
 10
110.8073560619577
 20
144.2015465988898
 10
110.8073560619577
 20
144.1281335452072
 10
111.0571227222523
 20
143.9076474397211
 10
110.9248310589607
 20
143.657739668319
 10
110.792539395669
 20
143.40779661914
 10
110.6016866227603
 20
142.9961049629765
 10
110.4104810720828
 20
143.0109216292652
 10
110.2192755214053
 20
143.025703017777
 10
100.4901610859886
 20
142.9530307974088
 10
100.4901610859886
 20
142.9530307974088
 97
        0
 97
        1
330
7B
 75
     0
 76
     1
 98
        1
 10
0.0
 20
0.0
450
        0
451
        0
460
0.0
461
0.0
452
        0
462
0.0
453
        0
470

  0
LINE
  5
7E
330
70
100
AcDbEntity
  8
Standardebene
 62
     7
370
     9
100
AcDbLine
 10
35.31032967461249
 20
106.8397052561063
 30
0.0
 11
35.34227206609749
 21
106.8077628646213
 31
0.0
  0
LINE
  5
7F
330
70
100
AcDbEntity
  8
Standardebene
 62
     7
370
     9
100
AcDbLine
 10
41.13282471366797
 20
103.7259634997941
 30
0.0
 11
41.2772068888345
 21
103.9758581930187
 31
0.0
  0
LWPOLYLINE
  5
80
330
70
100
AcDbEntity
  8
Standardebene
 62
     7
370
     9
100
AcDbPolyline
 90
        3
 70
     0
 43
0.0
 10
41.56661265265094
 20
104.4757117208164
 10
41.71099482781747
 20
104.7256705553894
 10
42.21085094175403
 20
104.7256705553894
  0
LINE
  5
81
330
70
100
AcDbEntity
  8
Standardebene
 62
     7
370
     9
100
AcDbLine
 10
43.21055541121047
 20
104.7256705553894
 30
0.0
 11
44.21058317354813
 21
104.7256705553894
 31
0.0
  0
LINE
  5
82
330
70
100
AcDbEntity
  8
Standardebene
 62
     7
370
     9
100
AcDbLine
 10
45.21061093588515
 20
104.7256705553894
 30
0.0
 11
46.21057455687382
 21
104.7256705553894
 31
0.0
  0
LINE
  5
83
330
70
100
AcDbEntity
  8
Standardebene
 62
     7
370
     9
100
AcDbLine
 10
47.21092302595251
 20
104.7256705553894
 30
0.0
 11
47.7104558470085
 21
104.7256705553894
 31
0.0
  0
LINE
  5
84
330
70
100
AcDbEntity
  8
Standardebene
 62
     7
370
     9
100
AcDbLine
 10
41.71099482781747
 20
104.7256705553894
 30
0.0
 11
41.71099482781747
 21
105.2261013553227
 31
0.0
  0
LINE
  5
85
330
70
100
AcDbEntity
  8
Standardebene
 62
     7
370
     9
100
AcDbLine
 10
41.71099482781747
 20
106.2258084109181
 30
0.0
 11
41.71099482781747
 21
107.2255154665134
 31
0.0
  0
LINE
  5
86
330
70
100
AcDbEntity
  8
Standardebene
 62
     7
370
     9
100
AcDbLine
 10
41.71099482781747
 20
108.2258639355921
 30
0.0
 11
41.71099482781747
 21
109.2262191095524
 31
0.0
  0
LINE
  5
87
330
70
100
AcDbEntity
  8
Standardebene
 62
     7
370
     9
100
AcDbLine
 10
41.71099482781747
 20
110.2259194602668
 30
0.0
 11
41.71099482781747
 21
111.2256265158621
 31
0.0
  0
LINE
  5
88
330
70
100
AcDbEntity
  8
Standardebene
 62
     7
370
     9
100
AcDbLine
 10
41.71099482781747
 20
112.2265522570764
 30
0.0
 11
41.71099482781747
 21
113.2262593126718
 31
0.0
  0
LINE
  5
89
330
70
100
AcDbEntity
  8
Standardebene
 62
     7
370
     9
100
AcDbLine
 10
41.71099482781747
 20
114.2259663682671
 30
0.0
 11
41.71099482781747
 21
115.2256734238625
 31
0.0
  0
LINE
  5
8A
330
70
100
AcDbEntity
  8
Standardebene
 62
     7
370
     9
100
AcDbLine
 10
41.71099482781747
 20
116.2260218929412
 30
0.0
 11
41.71099482781747
 21
117.2263062206722
 31
0.0
  0
LINE
  5
8B
330
70
100
AcDbEntity
  8
Standardebene
 62
     7
370
     9
100
AcDbLine
 10
41.71099482781747
 20
118.2260132762675
 30
0.0
 11
41.71099482781747
 21
119.2257203318628
 31
0.0
  0
LINE
  5
8C
330
70
100
AcDbEntity
  8
Standardebene
 62
     7
370
     9
100
AcDbLine
 10
41.71099482781747
 20
120.2260688009415
 30
0.0
 11
41.71099482781747
 21
121.2257828645532
 31
0.0
  0
LINE
  5
8D
330
70
100
AcDbEntity
  8
Standardebene
 62
     7
370
     9
100
AcDbLine
 10
41.71099482781747
 20
122.2260601842678
 30
0.0
 11
41.71099482781747
 21
123.2264086533465
 31
0.0
  0
LINE
  5
8E
330
70
100
AcDbEntity
  8
Standardebene
 62
     7
370
     9
100
AcDbLine
 10
41.71099482781747
 20
124.2261157089419
 30
0.0
 11
41.71099482781747
 21
125.2258227645372
 31
0.0
  0
LINE
  5
8F
330
70
100
AcDbEntity
  8
Standardebene
 62
     7
370
     9
100
AcDbLine
 10
41.71099482781747
 20
126.2261712336165
 30
0.0
 11
41.71099482781747
 21
127.2258782892119
 31
0.0
  0
LINE
  5
90
330
70
100
AcDbEntity
  8
Standardebene
 62
     7
370
     9
100
AcDbLine
 10
41.71099482781747
 20
128.2261698018032
 30
0.0
 11
41.71099482781747
 21
129.2258696725376
 31
0.0
  0
LINE
  5
91
330
70
100
AcDbEntity
  8
Standardebene
 62
     7
370
     9
100
AcDbLine
 10
41.71099482781747
 20
130.2255767281329
 30
0.0
 11
41.71099482781747
 21
131.2259251972116
 31
0.0
  0
LINE
  5
92
330
70
100
AcDbEntity
  8
Standardebene
 62
     7
370
     9
100
AcDbLine
 10
41.71099482781747
 20
132.2256322528069
 30
0.0
 11
41.71099482781747
 21
133.2259880330528
 31
0.0
  0
LINE
  5
93
330
70
100
AcDbEntity
  8
Standardebene
 62
     7
370
     9
100
AcDbLine
 10
41.71099482781747
 20
134.2256877774816
 30
0.0
 11
41.71099482781747
 21
135.2253306917286
 31
0.0
  0
LINE
  5
94
330
70
100
AcDbEntity
  8
Standardebene
 62
     7
370
     9
100
AcDbLine
 10
41.71099482781747
 20
136.2256791608073
 30
0.0
 11
41.71099482781747
 21
136.7255400881784
 31
0.0
  0
LINE
  5
95
330
70
100
AcDbEntity
  8
Standardebene
 62
     7
370
     9
100
AcDbLine
 10
48.28798454767466
 20
103.7259634997941
 30
0.0
 11
48.14360237250812
 21
103.9758581930187
 31
0.0
  0
LWPOLYLINE
  5
96
330
70
100
AcDbEntity
  8
Standardebene
 62
     7
370
     9
100
AcDbPolyline
 90
        3
 70
     0
 43
0.0
 10
47.85515872891672
 20
104.4757117208164
 10
47.7104558470085
 20
104.7256705553894
 10
47.7104558470085
 20
105.2261013553227
  0
LINE
  5
97
330
70
100
AcDbEntity
  8
Standardebene
 62
     7
370
     9
100
AcDbLine
 10
47.7104558470085
 20
106.2258084109181
 30
0.0
 11
47.7104558470085
 21
107.2255154665134
 31
0.0
  0
LINE
  5
98
330
70
100
AcDbEntity
  8
Standardebene
 62
     7
370
     9
100
AcDbLine
 10
47.7104558470085
 20
108.2258639355921
 30
0.0
 11
47.7104558470085
 21
109.2262191095524
 31
0.0
  0
LINE
  5
99
330
70
100
AcDbEntity
  8
Standardebene
 62
     7
370
     9
100
AcDbLine
 10
47.7104558470085
 20
110.2259194602668
 30
0.0
 11
47.7104558470085
 21
111.2256265158621
 31
0.0
  0
LINE
  5
9A
330
70
100
AcDbEntity
  8
Standardebene
 62
     7
370
     9
100
AcDbLine
 10
47.7104558470085
 20
112.2265522570764
 30
0.0
 11
47.7104558470085
 21
113.2262593126718
 31
0.0
  0
LINE
  5
9B
330
70
100
AcDbEntity
  8
Standardebene
 62
     7
370
     9
100
AcDbLine
 10
47.7104558470085
 20
114.2259663682671
 30
0.0
 11
47.7104558470085
 21
115.2256734238625
 31
0.0
  0
LINE
  5
9C
330
70
100
AcDbEntity
  8
Standardebene
 62
     7
370
     9
100
AcDbLine
 10
47.7104558470085
 20
116.2260218929412
 30
0.0
 11
47.7104558470085
 21
117.2263062206722
 31
0.0
  0
LINE
  5
9D
330
70
100
AcDbEntity
  8
Standardebene
 62
     7
370
     9
100
AcDbLine
 10
47.7104558470085
 20
118.2260132762675
 30
0.0
 11
47.7104558470085
 21
119.2257203318628
 31
0.0
  0
LINE
  5
9E
330
70
100
AcDbEntity
  8
Standardebene
 62
     7
370
     9
100
AcDbLine
 10
47.7104558470085
 20
120.2260688009415
 30
0.0
 11
47.7104558470085
 21
121.2257828645532
 31
0.0
  0
LINE
  5
9F
330
70
100
AcDbEntity
  8
Standardebene
 62
     7
370
     9
100
AcDbLine
 10
47.7104558470085
 20
122.2260601842678
 30
0.0
 11
47.7104558470085
 21
123.2264086533465
 31
0.0
  0
LINE
  5
A0
330
70
100
AcDbEntity
  8
Standardebene
 62
     7
370
     9
100
AcDbLine
 10
47.7104558470085
 20
124.2261157089419
 30
0.0
 11
47.7104558470085
 21
125.2258227645372
 31
0.0
  0
LINE
  5
A1
330
70
100
AcDbEntity
  8
Standardebene
 62
     7
370
     9
100
AcDbLine
 10
47.7104558470085
 20
126.2261712336165
 30
0.0
 11
47.7104558470085
 21
127.2258782892119
 31
0.0
  0
LINE
  5
A2
330
70
100
AcDbEntity
  8
Standardebene
 62
     7
370
     9
100
AcDbLine
 10
47.7104558470085
 20
128.2261698018032
 30
0.0
 11
47.7104558470085
 21
129.2258696725376
 31
0.0
  0
LINE
  5
A3
330
70
100
AcDbEntity
  8
Standardebene
 62
     7
370
     9
100
AcDbLine
 10
47.7104558470085
 20
130.2255767281329
 30
0.0
 11
47.7104558470085
 21
131.2259251972116
 31
0.0
  0
LINE
  5
A4
330
70
100
AcDbEntity
  8
Standardebene
 62
     7
370
     9
100
AcDbLine
 10
47.7104558470085
 20
132.2256322528069
 30
0.0
 11
47.7104558470085
 21
133.2259880330528
 31
0.0
  0
LINE
  5
A5
330
70
100
AcDbEntity
  8
Standardebene
 62
     7
370
     9
100
AcDbLine
 10
47.7104558470085
 20
134.2256877774816
 30
0.0
 11
47.7104558470085
 21
135.2253306917286
 31
0.0
  0
LWPOLYLINE
  5
A6
330
70
100
AcDbEntity
  8
Standardebene
 62
     7
370
     9
100
AcDbPolyline
 90
        3
 70
     0
 43
0.0
 10
47.7104558470085
 20
136.2256791608073
 10
47.7104558470085
 20
136.7255400881784
 10
47.21092302595251
 20
136.7255400881784
  0
LINE
  5
A7
330
70
100
AcDbEntity
  8
Standardebene
 62
     7
370
     9
100
AcDbLine
 10
46.21057455687382
 20
136.7255400881784
 30
0.0
 11
45.21061093588515
 21
136.7255400881784
 31
0.0
  0
LINE
  5
A8
330
70
100
AcDbEntity
  8
Standardebene
 62
     7
370
     9
100
AcDbLine
 10
44.21058317354813
 20
136.7255400881784
 30
0.0
 11
43.21055541121047
 21
136.7255400881784
 31
0.0
  0
LINE
  5
A9
330
70
100
AcDbEntity
  8
Standardebene
 62
     7
370
     9
100
AcDbLine
 10
42.21085094175403
 20
136.7255400881784
 30
0.0
 11
41.71099482781747
 21
136.7255400881784
 31
0.0
  0
LINE
  5
AA
330
70
100
AcDbEntity
  8
Standardebene
 62
     7
370
     9
100
AcDbLine
 10
41.4106208934306
 20
137.4063931014852
 30
0.0
 11
41.4106208934306
 21
137.8361401355211
 31
0.0
  0
LINE
  5
AB
330
70
100
AcDbEntity
  8
Standardebene
 62
     7
370
     9
100
AcDbLine
 10
41.4106208934306
 20
138.695505920897
 30
0.0
 11
41.4106208934306
 21
139.1258302270685
 31
0.0
  0
LINE
  5
AC
330
70
100
AcDbEntity
  8
Standardebene
 62
     7
370
     9
100
AcDbLine
 10
48.01051180730339
 20
137.4063931014852
 30
0.0
 11
48.01051180730339
 21
137.8361401355211
 31
0.0
  0
LINE
  5
AD
330
70
100
AcDbEntity
  8
Standardebene
 62
     7
370
     9
100
AcDbLine
 10
48.01051180730339
 20
138.695505920897
 30
0.0
 11
48.01051180730339
 21
139.1258302270685
 31
0.0
  0
LINE
  5
AE
330
70
100
AcDbEntity
  8
Standardebene
 62
     7
370
     9
100
AcDbLine
 10
47.41040261936395
 20
139.7259366823583
 30
0.0
 11
46.96070762598616
 21
139.7259366823583
 31
0.0
  0
LINE
  5
AF
330
70
100
AcDbEntity
  8
Standardebene
 62
     7
370
     9
100
AcDbLine
 10
46.06029137765788
 20
139.7259366823583
 30
0.0
 11
45.16077310820629
 21
139.7259366823583
 31
0.0
  0
LINE
  5
B0
330
70
100
AcDbEntity
  8
Standardebene
 62
     7
370
     9
100
AcDbLine
 10
44.26035685987801
 20
139.7259366823583
 30
0.0
 11
43.36090534696593
 21
139.7259366823583
 31
0.0
  0
LINE
  5
B1
330
70
100
AcDbEntity
  8
Standardebene
 62
     7
370
     9
100
AcDbLine
 10
42.46080719018815
 20
139.7259366823583
 30
0.0
 11
42.01072992980394
 21
139.7259366823583
 31
0.0
  0
LINE
  5
B2
330
70
100
AcDbEntity
  8
Standardebene
 62
     7
370
     9
100
AcDbLine
 10
41.71099482781747
 20
136.7255400881784
 30
0.0
 11
41.65557670283154
 21
136.820782590925
 31
0.0
  0
LINE
  5
B3
330
70
100
AcDbEntity
  8
Standardebene
 62
     7
370
     9
100
AcDbLine
 10
41.54627984521972
 20
137.0111541128683
 30
0.0
 11
41.49079757888545
 21
137.1064040151883
 31
0.0
  0
LINE
  5
B4
330
70
100
AcDbEntity
  8
Standardebene
 62
     7
370
     9
100
AcDbLine
 10
47.7104558470085
 20
136.7255400881784
 30
0.0
 11
47.76561740660109
 21
136.820782590925
 31
0.0
  0
LINE
  5
B5
330
70
100
AcDbEntity
  8
Standardebene
 62
     7
370
     9
100
AcDbLine
 10
47.87491426421292
 20
137.0111541128683
 30
0.0
 11
47.93033511982335
 21
137.1064040151883
 31
0.0
  0
LINE
  5
B6
330
70
100
AcDbEntity
  8
Standardebene
 62
     7
370
     9
100
AcDbLine
 10
54.3391434936469
 20
105.8656547398566
 30
0.0
 11
35.13214500885793
 21
105.8656547398566
 31
0.0
  0
LINE
  5
B7
330
70
100
AcDbEntity
  8
Standardebene
 62
     7
370
     9
100
AcDbLine
 10
35.31032967461249
 20
106.8397052561063
 30
0.0
 11
35.34573569890888
 21
106.8397052561063
 31
0.0
  0
LINE
  5
B8
330
70
100
AcDbEntity
  8
Standardebene
 62
     7
370
     9
100
AcDbLine
 10
42.01072992980394
 20
139.7259366823583
 30
0.0
 11
41.79867605103074
 21
139.6376140456617
 31
0.0
  0
LINE
  5
B9
330
70
100
AcDbEntity
  8
Standardebene
 62
     7
370
     9
100
AcDbLine
 10
41.49868696473387
 20
139.3382022315005
 30
0.0
 11
41.4106208934306
 21
139.1258302270685
 31
0.0
  0
LINE
  5
BA
330
70
100
AcDbEntity
  8
Standardebene
 62
     7
370
     9
100
AcDbLine
 10
48.01051180730339
 20
139.1258302270685
 30
0.0
 11
47.92250714469876
 21
139.3382022315005
 31
0.0
  0
LINE
  5
BB
330
70
100
AcDbEntity
  8
Standardebene
 62
     7
370
     9
100
AcDbLine
 10
47.62245663990066
 20
139.6376140456617
 30
0.0
 11
47.41040261936395
 21
139.7259366823583
 31
0.0
  0
LINE
  5
BC
330
70
100
AcDbEntity
  8
Standardebene
 62
     7
370
     9
100
AcDbLine
 10
41.4106208934306
 20
137.4063931014852
 30
0.0
 11
41.42101179186602
 21
137.3287179286167
 31
0.0
  0
LINE
  5
BD
330
70
100
AcDbEntity
  8
Standardebene
 62
     7
370
     9
100
AcDbLine
 10
41.4611001345928
 20
137.1784347494008
 30
0.0
 11
41.49079757888545
 21
137.1064040151883
 31
0.0
  0
LINE
  5
BE
330
70
100
AcDbEntity
  8
Standardebene
 62
     7
370
     9
100
AcDbLine
 10
47.93033511982335
 20
137.1064040151883
 30
0.0
 11
47.9604146815815
 21
137.1784347494008
 31
0.0
  0
LINE
  5
BF
330
70
100
AcDbEntity
  8
Standardebene
 62
     7
370
     9
100
AcDbLine
 10
48.00018231756725
 20
137.3287179286167
 30
0.0
 11
48.01051180730339
 21
137.4063931014852
 31
0.0
  0
SPLINE
  5
C0
330
70
100
AcDbEntity
  8
Standardebene
 62
     7
370
     9
100
AcDbSpline
210
0.0
220
0.0
230
1.0
 70
     8
 71
     3
 72
    17
 73
    13
 74
     0
 42
0.0000000001
 43
0.0000000001
 40
0.0
 40
0.0
 40
0.0
 40
0.0
 40
1.0
 40
1.0
 40
1.0
 40
2.0
 40
2.0
 40
2.0
 40
3.0
 40
3.0
 40
3.0
 40
4.0
 40
4.0
 40
4.0
 40
4.0
 10
45.22844223073001
 20
191.6578511022652
 30
0.0
 10
45.05083483711112
 20
191.705443982751
 30
0.0
 10
44.87200875787322
 20
191.7273891129279
 30
0.0
 10
44.71108076412856
 20
191.7261062859278
 30
0.0
 10
43.60611510656903
 20
191.7261062859278
 30
0.0
 10
42.71038117667113
 20
190.8304277083743
 30
0.0
 10
42.71038117667113
 20
189.7261061135982
 30
0.0
 10
42.71038117667113
 20
188.6211431053381
 30
0.0
 10
43.60611510656903
 20
187.7260505889236
 30
0.0
 10
44.71108076412856
 20
187.7260505889236
 30
0.0
 10
45.63086772289831
 20
187.7260505889236
 30
0.0
 10
46.40601324533758
 20
188.3474519718702
 30
0.0
 10
46.6428231034961
 20
189.2081005842134
 30
0.0
  0
SPLINE
  5
C1
330
70
100
AcDbEntity
  8
Standardebene
 62
     7
370
     9
100
AcDbSpline
210
0.0
220
0.0
230
1.0
 70
     8
 71
     3
 72
    17
 73
    13
 74
     0
 42
0.0000000001
 43
0.0000000001
 40
0.0
 40
0.0
 40
0.0
 40
0.0
 40
1.0
 40
1.0
 40
1.0
 40
2.0
 40
2.0
 40
2.0
 40
3.0
 40
3.0
 40
3.0
 40
4.0
 40
4.0
 40
4.0
 40
4.0
 10
59.73041927637346
 20
191.6666384669909
 30
0.0
 10
59.55184673380954
 20
191.7148727609601
 30
0.0
 10
59.37244338243662
 20
191.736744960752
 30
0.0
 10
59.21080718456023
 20
191.7355262751337
 30
0.0
 10
58.10116185786972
 20
191.7355262751337
 30
0.0
 10
57.20106631628311
 20
190.8354307335464
 30
0.0
 10
57.20106631628311
 20
189.7261061135982
 30
0.0
 10
57.20106631628311
 20
188.6161400801654
 30
0.0
 10
58.10116185786972
 20
187.7160445385788
 30
0.0
 10
59.21080718456023
 20
187.7160445385788
 30
0.0
 10
60.13534057987343
 20
187.7160445385788
 30
0.0
 10
60.9139524076594
 20
188.3411661197308
 30
0.0
 10
61.15101883121127
 20
189.205599071627
 30
0.0
  0
LWPOLYLINE
  5
C2
330
70
100
AcDbEntity
  8
Standardebene
 62
     7
370
     9
100
AcDbPolyline
 90
        7
 70
     0
 43
0.0
 10
35.31032967461249
 20
106.8397052561063
 10
35.31032967461249
 20
106.9586874573206
 10
35.31032967461249
 20
107.3044734663493
 10
35.31032967461249
 20
107.842491096423
 10
35.31032967461249
 20
108.5189898976139
 10
35.31032967461249
 20
109.2656593339149
 10
35.31032967461249
 20
110.0085444306621
  0
SPLINE
  5
C3
330
70
100
AcDbEntity
  8
Standardebene
 62
     7
370
     9
100
AcDbSpline
210
0.0
220
0.0
230
1.0
 70
     9
 71
     3
 72
    17
 73
    13
 74
     0
 42
0.0000000001
 43
0.0000000001
 40
0.0
 40
0.0
 40
0.0
 40
0.0
 40
1.0
 40
1.0
 40
1.0
 40
2.0
 40
2.0
 40
2.0
 40
3.0
 40
3.0
 40
3.0
 40
4.0
 40
4.0
 40
4.0
 40
4.0
 10
61.21958593261233
 20
189.7261061135982
 30
0.0
 10
61.21958593261233
 20
190.8354307335464
 30
0.0
 10
60.32013180450907
 20
191.7355262751337
 30
0.0
 10
59.21080718456023
 20
191.7355262751337
 30
0.0
 10
58.10116185786972
 20
191.7355262751337
 30
0.0
 10
57.20106631628311
 20
190.8354307335464
 30
0.0
 10
57.20106631628311
 20
189.7261061135982
 30
0.0
 10
57.20106631628311
 20
188.6161400801654
 30
0.0
 10
58.10116185786972
 20
187.7160445385788
 30
0.0
 10
59.21080718456023
 20
187.7160445385788
 30
0.0
 10
60.32013180450907
 20
187.7160445385788
 30
0.0
 10
61.21958593261233
 20
188.6161400801654
 30
0.0
 10
61.21958593261233
 20
189.7261061135982
 30
0.0
  0
LINE
  5
C4
330
70
100
AcDbEntity
  8
Standardebene
 62
     7
370
     9
100
AcDbLine
 10
110.3460219164423
 20
195.7255671327886
 30
0.0
 11
110.3460219164423
 21
183.7260036809232
 31
0.0
  0
SPLINE
  5
C5
330
70
100
AcDbEntity
  8
Standardebene
 62
     7
370
     9
100
AcDbSpline
210
0.0
220
0.0
230
1.0
 70
     8
 71
     3
 72
    17
 73
    13
 74
     0
 42
0.0000000001
 43
0.0000000001
 40
0.0
 40
0.0
 40
0.0
 40
0.0
 40
1.0
 40
1.0
 40
1.0
 40
2.0
 40
2.0
 40
2.0
 40
3.0
 40
3.0
 40
3.0
 40
4.0
 40
4.0
 40
4.0
 40
4.0
 10
132.2182858497841
 20
123.5314649061638
 30
0.0
 10
132.0062345520945
 20
123.5884865648594
 30
0.0
 10
131.7926438620435
 20
123.6147845176883
 30
0.0
 10
131.6000273929071
 20
123.612283005102
 30
0.0
 10
130.28211510808
 20
123.612283005102
 30
0.0
 10
129.213520244342
 20
122.5442654134996
 30
0.0
 10
129.213520244342
 20
121.2257828645532
 30
0.0
 10
129.213520244342
 20
119.9078635717098
 30
0.0
 10
130.28211510808
 20
118.8392687079717
 30
0.0
 10
131.6000273929071
 20
118.8392687079717
 30
0.0
 10
132.6987045490279
 20
118.8392687079717
 30
0.0
 10
133.6238793578244
 20
119.5815123912356
 30
0.0
 10
133.9057164425341
 20
120.6081588131439
 30
0.0
  0
SPLINE
  5
C6
330
70
100
AcDbEntity
  8
Standardebene
 62
     7
370
     9
100
AcDbSpline
210
0.0
220
0.0
230
1.0
 70
     8
 71
     3
 72
    17
 73
    13
 74
     0
 42
0.0000000001
 43
0.0000000001
 40
0.0
 40
0.0
 40
0.0
 40
0.0
 40
1.0
 40
1.0
 40
1.0
 40
2.0
 40
2.0
 40
2.0
 40
3.0
 40
3.0
 40
3.0
 40
4.0
 40
4.0
 40
4.0
 40
4.0
 10
132.2182858497841
 20
111.530618627331
 30
0.0
 10
132.0062345520945
 20
111.587640286026
 30
0.0
 10
131.7926438620435
 20
111.6139382388556
 30
0.0
 10
131.6000273929071
 20
111.6120781397526
 30
0.0
 10
130.28211510808
 20
111.6120781397526
 30
0.0
 10
129.213520244342
 20
110.5441246894985
 30
0.0
 10
129.213520244342
 20
109.2262191095524
 30
0.0
 10
129.213520244342
 20
107.9076587063604
 30
0.0
 10
130.28211510808
 20
106.8397052561063
 30
0.0
 10
131.6000273929071
 20
106.8397052561063
 30
0.0
 10
132.6987045490279
 20
106.8397052561063
 30
0.0
 10
133.6238793578244
 20
107.5813075258862
 30
0.0
 10
133.9057164425341
 20
108.6085953612778
 30
0.0
  0
SPLINE
  5
C7
330
70
100
AcDbEntity
  8
Standardebene
 62
     7
370
     9
100
AcDbSpline
210
0.0
220
0.0
230
1.0
 70
     9
 71
     3
 72
    17
 73
    13
 74
     0
 42
0.0000000001
 43
0.0000000001
 40
0.0
 40
0.0
 40
0.0
 40
0.0
 40
1.0
 40
1.0
 40
1.0
 40
2.0
 40
2.0
 40
2.0
 40
3.0
 40
3.0
 40
3.0
 40
4.0
 40
4.0
 40
4.0
 40
4.0
 10
133.9868601528095
 20
121.2257828645532
 30
0.0
 10
133.9868601528095
 20
122.5442654134996
 30
0.0
 10
132.9182652620771
 20
123.612283005102
 30
0.0
 10
131.6000273929071
 20
123.612283005102
 30
0.0
 10
130.28211510808
 20
123.612283005102
 30
0.0
 10
129.213520244342
 20
122.5442654134996
 30
0.0
 10
129.213520244342
 20
121.2257828645532
 30
0.0
 10
129.213520244342
 20
119.9078635717098
 30
0.0
 10
130.28211510808
 20
118.8392687079717
 30
0.0
 10
131.6000273929071
 20
118.8392687079717
 30
0.0
 10
132.9182652620771
 20
118.8392687079717
 30
0.0
 10
133.9868601528095
 20
119.9078635717098
 30
0.0
 10
133.9868601528095
 20
121.2257828645532
 30
0.0
  0
SPLINE
  5
C8
330
70
100
AcDbEntity
  8
Standardebene
 62
     7
370
     9
100
AcDbSpline
210
0.0
220
0.0
230
1.0
 70
     8
 71
     3
 72
     8
 73
     4
 74
     0
 42
0.0000000001
 43
0.0000000001
 40
0.0
 40
0.0
 40
0.0
 40
0.0
 40
1.0
 40
1.0
 40
1.0
 40
1.0
 10
131.3419867484407
 20
119.7481516142841
 30
0.0
 10
131.4641118757247
 20
119.7268566866278
 30
0.0
 10
131.5862370030093
 20
119.7212122479718
 30
0.0
 10
131.6946358817438
 20
119.7287237559274
 30
0.0
  0
LWPOLYLINE
  5
C9
330
70
100
AcDbEntity
  8
Standardebene
 62
     7
370
     9
100
AcDbPolyline
 90
        3
 70
     0
 43
0.0
 10
131.3419867484407
 20
119.7481516142841
 10
130.6598483291415
 20
119.7863157165608
 10
130.3513284357188
 20
120.3952095365763
  0
SPLINE
  5
CA
330
70
100
AcDbEntity
  8
Standardebene
 62
     7
370
     9
100
AcDbSpline
210
0.0
220
0.0
230
1.0
 70
     8
 71
     3
 72
     8
 73
     4
 74
     0
 42
0.0000000001
 43
0.0000000001
 40
0.0
 40
0.0
 40
0.0
 40
0.0
 40
1.0
 40
1.0
 40
1.0
 40
1.0
 10
130.1916164742587
 20
120.710849111874
 30
0.0
 10
130.2342015208525
 20
120.5937270097621
 30
0.0
 10
130.2902610593225
 20
120.4853922723759
 30
0.0
 10
130.3513284357188
 20
120.3952095365763
 30
0.0
  0
LWPOLYLINE
  5
CB
330
70
100
AcDbEntity
  8
Standardebene
 62
     7
370
     9
100
AcDbPolyline
 90
        3
 70
     0
 43
0.0
 10
130.1916164742587
 20
120.710849111874
 10
129.8777680479957
 20
121.3316160920264
 10
130.8245584911915
 20
122.7817166851415
  0
LINE
  5
CC
330
70
100
AcDbEntity
  8
Standardebene
 62
     7
370
     9
100
AcDbLine
 10
132.5543223738613
 20
122.6858253693381
 30
0.0
 11
130.8245584911915
 21
122.7817166851415
 31
0.0
  0
LINE
  5
CD
330
70
100
AcDbEntity
  8
Standardebene
 62
     7
370
     9
100
AcDbLine
 10
133.3360129863687
 20
121.1411734180456
 30
0.0
 11
132.5543223738613
 21
122.6858253693381
 31
0.0
  0
LINE
  5
CE
330
70
100
AcDbEntity
  8
Standardebene
 62
     7
370
     9
100
AcDbLine
 10
132.3892866845219
 20
119.6904885421051
 30
0.0
 11
133.3360129863687
 21
121.1411734180456
 31
0.0
  0
LINE
  5
CF
330
70
100
AcDbEntity
  8
Standardebene
 62
     7
370
     9
100
AcDbLine
 10
132.3892866845219
 20
119.6904885421051
 30
0.0
 11
131.6946358817438
 21
119.7287237559274
 31
0.0
  0
SPLINE
  5
D0
330
70
100
AcDbEntity
  8
Standardebene
 62
     7
370
     9
100
AcDbSpline
210
0.0
220
0.0
230
1.0
 70
     8
 71
     3
 72
    14
 73
    10
 74
     0
 42
0.0000000001
 43
0.0000000001
 40
0.0
 40
0.0
 40
0.0
 40
0.0
 40
1.0
 40
1.0
 40
1.0
 40
2.0
 40
2.0
 40
2.0
 40
3.0
 40
3.0
 40
3.0
 40
3.0
 10
133.1005500965258
 20
121.2257828645532
 30
0.0
 10
133.1005500965258
 20
122.0544891063455
 30
0.0
 10
132.4287336137653
 20
122.7253364399299
 30
0.0
 10
131.6000273929071
 20
122.7253364399299
 30
0.0
 10
130.7716418787913
 20
122.7253364399299
 30
0.0
 10
130.1001461027724
 20
122.0544891063455
 30
0.0
 10
130.1001461027724
 20
121.2257828645532
 30
0.0
 10
130.1001461027724
 20
121.0409846319012
 30
0.0
 10
130.1340127347088
 20
120.864339358508
 30
0.0
 10
130.1916164742587
 20
120.710849111874
 30
0.0
  0
SPLINE
  5
D1
330
70
100
AcDbEntity
  8
Standardebene
 62
     7
370
     9
100
AcDbSpline
210
0.0
220
0.0
230
1.0
 70
     8
 71
     3
 72
     8
 73
     4
 74
     0
 42
0.0000000001
 43
0.0000000001
 40
0.0
 40
0.0
 40
0.0
 40
0.0
 40
1.0
 40
1.0
 40
1.0
 40
1.0
 10
130.3513284357188
 20
120.3952095365763
 30
0.0
 10
130.5878127743813
 20
120.0394174772035
 30
0.0
 10
130.9501472512875
 20
119.8170394224268
 30
0.0
 10
131.3419867484407
 20
119.7481516142841
 30
0.0
  0
SPLINE
  5
D2
330
70
100
AcDbEntity
  8
Standardebene
 62
     7
370
     9
100
AcDbSpline
210
0.0
220
0.0
230
1.0
 70
     8
 71
     3
 72
     8
 73
     4
 74
     0
 42
0.0000000001
 43
0.0000000001
 40
0.0
 40
0.0
 40
0.0
 40
0.0
 40
1.0
 40
1.0
 40
1.0
 40
1.0
 10
131.6946358817438
 20
119.7287237559274
 30
0.0
 10
132.4879360783049
 20
119.7788111788024
 30
0.0
 10
133.0986258560751
 20
120.4371579784061
 30
0.0
 10
133.1005500965258
 20
121.2257828645532
 30
0.0
  0
SPLINE
  5
D3
330
70
100
AcDbEntity
  8
Standardebene
 62
     7
370
     9
100
AcDbSpline
210
0.0
220
0.0
230
1.0
 70
     9
 71
     3
 72
    17
 73
    13
 74
     0
 42
0.0000000001
 43
0.0000000001
 40
0.0
 40
0.0
 40
0.0
 40
0.0
 40
1.0
 40
1.0
 40
1.0
 40
2.0
 40
2.0
 40
2.0
 40
3.0
 40
3.0
 40
3.0
 40
4.0
 40
4.0
 40
4.0
 40
4.0
 10
133.9868601528095
 20
109.2262191095524
 30
0.0
 10
133.9868601528095
 20
110.5441246894985
 30
0.0
 10
132.9182652620771
 20
111.6120781397526
 30
0.0
 10
131.6000273929071
 20
111.6120781397526
 30
0.0
 10
130.28211510808
 20
111.6120781397526
 30
0.0
 10
129.213520244342
 20
110.5441246894985
 30
0.0
 10
129.213520244342
 20
109.2262191095524
 30
0.0
 10
129.213520244342
 20
107.9076587063604
 30
0.0
 10
130.28211510808
 20
106.8397052561063
 30
0.0
 10
131.6000273929071
 20
106.8397052561063
 30
0.0
 10
132.9182652620771
 20
106.8397052561063
 30
0.0
 10
133.9868601528095
 20
107.9076587063604
 30
0.0
 10
133.9868601528095
 20
109.2262191095524
 30
0.0
  0
SPLINE
  5
D4
330
70
100
AcDbEntity
  8
Standardebene
 62
     7
370
     9
100
AcDbSpline
210
0.0
220
0.0
230
1.0
 70
     8
 71
     3
 72
     8
 73
     4
 74
     0
 42
0.0000000001
 43
0.0000000001
 40
0.0
 40
0.0
 40
0.0
 40
0.0
 40
1.0
 40
1.0
 40
1.0
 40
1.0
 10
131.3419867484407
 20
107.7479467489353
 30
0.0
 10
131.4641118757247
 20
107.7272932347618
 30
0.0
 10
131.5862370030093
 20
107.7210073826224
 30
0.0
 10
131.6946358817438
 20
107.7285185874272
 30
0.0
  0
LWPOLYLINE
  5
D5
330
70
100
AcDbEntity
  8
Standardebene
 62
     7
370
     9
100
AcDbPolyline
 90
        3
 70
     0
 43
0.0
 10
131.3419867484407
 20
107.7479467489353
 10
130.6598483291415
 20
107.7861749925597
 10
130.3513284357188
 20
108.39558862726
  0
SPLINE
  5
D6
330
70
100
AcDbEntity
  8
Standardebene
 62
     7
370
     9
100
AcDbSpline
210
0.0
220
0.0
230
1.0
 70
     8
 71
     3
 72
     8
 73
     4
 74
     0
 42
0.0000000001
 43
0.0000000001
 40
0.0
 40
0.0
 40
0.0
 40
0.0
 40
1.0
 40
1.0
 40
1.0
 40
1.0
 10
130.1916164742587
 20
108.711285660008
 30
0.0
 10
130.2342015208525
 20
108.594163557896
 30
0.0
 10
130.2902610593225
 20
108.4858288205099
 30
0.0
 10
130.3513284357188
 20
108.39558862726
 30
0.0
  0
LWPOLYLINE
  5
D7
330
70
100
AcDbEntity
  8
Standardebene
 62
     7
370
     9
100
AcDbPolyline
 90
        3
 70
     0
 43
0.0
 10
130.1916164742587
 20
108.711285660008
 10
129.8777680479957
 20
109.3314109235268
 10
130.8245584911915
 20
110.7815118197921
  0
LINE
  5
D8
330
70
100
AcDbEntity
  8
Standardebene
 62
     7
370
     9
100
AcDbLine
 10
132.5543223738613
 20
110.686261917472
 30
0.0
 11
130.8245584911915
 21
110.7815118197921
 31
0.0
  0
LINE
  5
D9
330
70
100
AcDbEntity
  8
Standardebene
 62
     7
370
     9
100
AcDbLine
 10
133.3360129863687
 20
109.1403912805605
 30
0.0
 11
132.5543223738613
 21
110.686261917472
 31
0.0
  0
LINE
  5
DA
330
70
100
AcDbEntity
  8
Standardebene
 62
     7
370
     9
100
AcDbLine
 10
132.3892866845219
 20
107.6909250902397
 30
0.0
 11
133.3360129863687
 21
109.1403912805605
 31
0.0
  0
LINE
  5
DB
330
70
100
AcDbEntity
  8
Standardebene
 62
     7
370
     9
100
AcDbLine
 10
132.3892866845219
 20
107.6909250902397
 30
0.0
 11
131.6946358817438
 21
107.7285185874272
 31
0.0
  0
SPLINE
  5
DC
330
70
100
AcDbEntity
  8
Standardebene
 62
     7
370
     9
100
AcDbSpline
210
0.0
220
0.0
230
1.0
 70
     8
 71
     3
 72
    14
 73
    10
 74
     0
 42
0.0000000001
 43
0.0000000001
 40
0.0
 40
0.0
 40
0.0
 40
0.0
 40
1.0
 40
1.0
 40
1.0
 40
2.0
 40
2.0
 40
2.0
 40
3.0
 40
3.0
 40
3.0
 40
3.0
 10
133.1005500965258
 20
109.2262191095524
 30
0.0
 10
133.1005500965258
 20
110.054283937846
 30
0.0
 10
132.4287336137653
 20
110.7263502601995
 30
0.0
 10
131.6000273929071
 20
110.7263502601995
 30
0.0
 10
130.7716418787913
 20
110.7263502601995
 30
0.0
 10
130.1001461027724
 20
110.054283937846
 30
0.0
 10
130.1001461027724
 20
109.2262191095524
 30
0.0
 10
130.1001461027724
 20
109.0407797665518
 30
0.0
 10
130.1340127347088
 20
108.8641344931586
 30
0.0
 10
130.1916164742587
 20
108.711285660008
 30
0.0
  0
SPLINE
  5
DD
330
70
100
AcDbEntity
  8
Standardebene
 62
     7
370
     9
100
AcDbSpline
210
0.0
220
0.0
230
1.0
 70
     8
 71
     3
 72
     8
 73
     4
 74
     0
 42
0.0000000001
 43
0.0000000001
 40
0.0
 40
0.0
 40
0.0
 40
0.0
 40
1.0
 40
1.0
 40
1.0
 40
1.0
 10
130.3513284357188
 20
108.39558862726
 30
0.0
 10
130.5878127743813
 20
108.0392126118541
 30
0.0
 10
130.9501472512875
 20
107.8168345570774
 30
0.0
 10
131.3419867484407
 20
107.7479467489353
 30
0.0
  0
SPLINE
  5
DE
330
70
100
AcDbEntity
  8
Standardebene
 62
     7
370
     9
100
AcDbSpline
210
0.0
220
0.0
230
1.0
 70
     8
 71
     3
 72
     8
 73
     4
 74
     0
 42
0.0000000001
 43
0.0000000001
 40
0.0
 40
0.0
 40
0.0
 40
0.0
 40
1.0
 40
1.0
 40
1.0
 40
1.0
 10
131.6946358817438
 20
107.7285185874272
 30
0.0
 10
132.4879360783049
 20
107.7792477269363
 30
0.0
 10
133.0986258560751
 20
108.4375945265407
 30
0.0
 10
133.1005500965258
 20
109.2262191095524
 30
0.0
  0
LINE
  5
DF
330
70
100
AcDbEntity
  8
Standardebene
  6
AI-Linetype-0
 62
   250
370
     9
100
AcDbLine
 10
44.71108076412856
 20
223.4525892034139
 30
0.0
 11
44.71108076412856
 21
279.9387959225307
 31
0.0
  0
LINE
  5
E1
330
70
100
AcDbEntity
  8
Standardebene
  6
AI-Linetype-1
 62
   250
370
     9
100
AcDbLine
 10
44.71108076412856
 20
101.8505346149904
 30
0.0
 11
44.71108076412856
 21
214.942892374664
 31
0.0
  0
LINE
  5
E3
330
70
100
AcDbEntity
  8
Standardebene
  6
AI-Linetype-2
 62
   250
370
     9
100
AcDbLine
 10
131.6000273929071
 20
224.2916221813585
 30
0.0
 11
131.6000273929071
 21
279.500004958375
 31
0.0
  0
LINE
  5
E5
330
70
100
AcDbEntity
  8
Standardebene
  6
AI-Linetype-3
 62
   250
370
     9
100
AcDbLine
 10
131.6000273929071
 20
102.0697697436974
 30
0.0
 11
131.6000273929071
 21
214.4637565023876
 31
0.0
  0
LINE
  5
E7
330
70
100
AcDbEntity
  8
Standardebene
 62
     7
370
    35
100
AcDbLine
 10
5.210590845320587
 20
271.7260093953564
 30
0.0
 11
4.211204496466926
 21
270.7259816330187
 31
0.0
  0
LWPOLYLINE
  5
E8
330
70
100
AcDbEntity
  8
Standardebene
 62
     7
370
    35
100
AcDbPolyline
 90
        3
 70
     0
 43
0.0
 10
4.211204496466926
 20
260.725832292344
 10
5.210590845320587
 20
259.725804530007
 10
16.71119874826566
 20
259.725804530007
  0
LINE
  5
E9
330
70
100
AcDbEntity
  8
Standardebene
 62
     7
370
    35
100
AcDbLine
 10
16.71119874826566
 20
271.7260093953564
 30
0.0
 11
5.210590845320587
 21
271.7260093953564
 31
0.0
  0
LINE
  5
EA
330
70
100
AcDbEntity
  8
Standardebene
 62
     7
370
    35
100
AcDbLine
 10
0.2104535587532922
 20
259.725804530007
 30
0.0
 11
1.210802053103371
 21
260.725832292344
 31
0.0
  0
LINE
  5
EB
330
70
100
AcDbEntity
  8
Standardebene
 62
     7
370
    35
100
AcDbLine
 10
1.210802053103371
 20
270.7259816330187
 30
0.0
 11
0.2104535587532922
 21
271.7260093953564
 31
0.0
  0
LINE
  5
EC
330
70
100
AcDbEntity
  8
Standardebene
 62
     7
370
    35
100
AcDbLine
 10
-4.589500225946017
 20
259.725804530007
 30
0.0
 11
0.2104535587532922
 21
259.725804530007
 31
0.0
  0
LINE
  5
ED
330
70
100
AcDbEntity
  8
Standardebene
 62
     7
370
    35
100
AcDbLine
 10
0.2104535587532922
 20
271.7260093953564
 30
0.0
 11
-4.589500225946017
 21
271.7260093953564
 31
0.0
  0
LINE
  5
EE
330
70
100
AcDbEntity
  8
Standardebene
 62
     7
370
    35
100
AcDbLine
 10
1.210802053103371
 20
260.725832292344
 30
0.0
 11
4.211204496466926
 21
260.725832292344
 31
0.0
  0
LINE
  5
EF
330
70
100
AcDbEntity
  8
Standardebene
 62
     7
370
    35
100
AcDbLine
 10
4.211204496466926
 20
270.7259816330187
 30
0.0
 11
1.210802053103371
 21
270.7259816330187
 31
0.0
  0
LINE
  5
F0
330
70
100
AcDbEntity
  8
Standardebene
 62
     7
370
    35
100
AcDbLine
 10
22.95118982381993
 20
255.9111902601256
 30
0.0
 11
23.7106875297937
 21
257.2256389121413
 31
0.0
  0
LINE
  5
F1
330
70
100
AcDbEntity
  8
Standardebene
 62
     7
370
    35
100
AcDbLine
 10
17.51046409022453
 20
257.2256389121413
 30
0.0
 11
18.26996179619829
 21
255.9111902601256
 31
0.0
  0
LINE
  5
F2
330
70
100
AcDbEntity
  8
Standardebene
 62
     7
370
    35
100
AcDbLine
 10
23.7106875297937
 20
274.2255977410864
 30
0.0
 11
22.95118982381993
 21
275.5410085133271
 31
0.0
  0
LINE
  5
F3
330
70
100
AcDbEntity
  8
Standardebene
 62
     7
370
    35
100
AcDbLine
 10
18.26996179619829
 20
275.5410085133271
 30
0.0
 11
17.51046409022453
 21
274.2255977410864
 31
0.0
  0
LINE
  5
F4
330
70
100
AcDbEntity
  8
Standardebene
 62
     7
370
    35
100
AcDbLine
 10
34.21101110500842
 20
278.1257124283363
 30
0.0
 11
34.21101110500842
 21
277.7257911212891
 31
0.0
  0
LWPOLYLINE
  5
F5
330
70
100
AcDbEntity
  8
Standardebene
 62
     7
370
    35
100
AcDbPolyline
 90
        3
 70
     0
 43
0.0
 10
55.2104395698182
 20
277.7257911212891
 10
55.2104395698182
 20
278.1257124283363
 10
54.71090674876221
 20
278.6262073696174
  0
LINE
  5
F6
330
70
100
AcDbEntity
  8
Standardebene
 62
     7
370
    35
100
AcDbLine
 10
34.71054392606377
 20
278.6262073696174
 30
0.0
 11
34.21101110500842
 21
278.1257124283363
 31
0.0
  0
LINE
  5
F7
330
70
100
AcDbEntity
  8
Standardebene
 62
     7
370
    35
100
AcDbLine
 10
57.21075165988621
 20
253.7260228040743
 30
0.0
 11
57.21075165988621
 21
277.7257911212891
 31
0.0
  0
LINE
  5
F8
330
70
100
AcDbEntity
  8
Standardebene
 62
     7
370
    35
100
AcDbLine
 10
54.71090674876221
 20
253.2261692762766
 30
0.0
 11
54.21105611025361
 21
253.7260228040743
 31
0.0
  0
LINE
  5
F9
330
70
100
AcDbEntity
  8
Standardebene
 62
     7
370
    35
100
AcDbLine
 10
35.21039745386144
 20
253.7260228040743
 30
0.0
 11
34.71054392606377
 21
253.2261692762766
 31
0.0
  0
LINE
  5
FA
330
70
100
AcDbEntity
  8
Standardebene
 62
     7
370
    35
100
AcDbLine
 10
54.31720715250666
 20
106.0210050855929
 30
0.0
 11
54.71090674876221
 21
109.2262191095524
 31
0.0
  0
LINE
  5
FB
330
70
100
AcDbEntity
  8
Standardebene
 62
     7
370
    35
100
AcDbLine
 10
34.71054392606377
 20
105.2386730596022
 30
0.0
 11
34.71054392606377
 21
104.6129100649662
 31
0.0
  0
LINE
  5
FC
330
70
100
AcDbEntity
  8
Standardebene
 62
     7
370
    35
100
AcDbLine
 10
54.71090674876221
 20
104.6129100649662
 30
0.0
 11
54.71090674876221
 21
105.2386730596022
 31
0.0
  0
LINE
  5
FD
330
70
100
AcDbEntity
  8
Standardebene
 62
     7
370
    35
100
AcDbLine
 10
34.71054392606377
 20
253.2261692762766
 30
0.0
 11
34.71054392606377
 21
195.7242843058219
 31
0.0
  0
LINE
  5
FE
330
70
100
AcDbEntity
  8
Standardebene
 62
     7
370
    35
100
AcDbLine
 10
34.71054392606377
 20
183.7278637800256
 30
0.0
 11
34.71054392606377
 21
124.7259763331776
 31
0.0
  0
LINE
  5
FF
330
70
100
AcDbEntity
  8
Standardebene
 62
     7
370
    35
100
AcDbLine
 10
54.71090674876221
 20
109.2262191095524
 30
0.0
 11
54.71090674876221
 21
183.7260036809232
 31
0.0
  0
LINE
  5
100
330
70
100
AcDbEntity
  8
Standardebene
 62
     7
370
    35
100
AcDbLine
 10
54.71090674876221
 20
195.7249257193053
 30
0.0
 11
54.71090674876221
 21
253.2261692762766
 31
0.0
  0
LINE
  5
101
330
70
100
AcDbEntity
  8
Standardebene
 62
     7
370
    35
100
AcDbLine
 10
34.71054392606377
 20
117.7268011619532
 30
0.0
 11
34.71054392606377
 21
112.725771164678
 31
0.0
  0
SPLINE
  5
102
330
70
100
AcDbEntity
  8
Standardebene
 62
     7
370
    35
100
AcDbSpline
210
0.0
220
0.0
230
1.0
 70
     8
 71
     3
 72
     8
 73
     4
 74
     0
 42
0.0000000001
 43
0.0000000001
 40
0.0
 40
0.0
 40
0.0
 40
0.0
 40
1.0
 40
1.0
 40
1.0
 40
1.0
 10
17.51046409022453
 20
258.9256412091708
 30
0.0
 10
17.51046409022453
 20
259.3675109580478
 30
0.0
 10
17.15249122500704
 20
259.725804530007
 30
0.0
 10
16.71119874826566
 20
259.725804530007
 30
0.0
  0
SPLINE
  5
103
330
70
100
AcDbEntity
  8
Standardebene
 62
     7
370
    35
100
AcDbSpline
210
0.0
220
0.0
230
1.0
 70
     8
 71
     3
 72
     8
 73
     4
 74
     0
 42
0.0000000001
 43
0.0000000001
 40
0.0
 40
0.0
 40
0.0
 40
0.0
 40
1.0
 40
1.0
 40
1.0
 40
1.0
 10
16.71119874826566
 20
271.7260093953564
 30
0.0
 10
17.15249122500704
 20
271.7260093953564
 30
0.0
 10
17.51046409022453
 20
272.0843137863389
 30
0.0
 10
17.51046409022453
 20
272.5256062742285
 30
0.0
  0
SPLINE
  5
104
330
70
100
AcDbEntity
  8
Standardebene
 62
     7
370
    35
100
AcDbSpline
210
0.0
220
0.0
230
1.0
 70
     8
 71
     3
 72
     8
 73
     4
 74
     0
 42
0.0000000001
 43
0.0000000001
 40
0.0
 40
0.0
 40
0.0
 40
0.0
 40
1.0
 40
1.0
 40
1.0
 40
1.0
 10
-5.789328318746156
 20
260.9259532992388
 30
0.0
 10
-5.789328318746156
 20
260.2632448879457
 30
0.0
 10
-5.252208653981011
 20
259.725804530007
 30
0.0
 10
-4.589500225946017
 20
259.725804530007
 30
0.0
  0
SPLINE
  5
105
330
70
100
AcDbEntity
  8
Standardebene
 62
     7
370
    35
100
AcDbSpline
210
0.0
220
0.0
230
1.0
 70
     8
 71
     3
 72
     8
 73
     4
 74
     0
 42
0.0000000001
 43
0.0000000001
 40
0.0
 40
0.0
 40
0.0
 40
0.0
 40
1.0
 40
1.0
 40
1.0
 40
1.0
 10
-4.589500225946017
 20
271.7260093953564
 30
0.0
 10
-5.252208653981011
 20
271.7260093953564
 30
0.0
 10
-5.789328318746156
 20
271.1889005405621
 30
0.0
 10
-5.789328318746156
 20
270.5258606261246
 30
0.0
  0
SPLINE
  5
106
330
70
100
AcDbEntity
  8
Standardebene
 62
     7
370
    35
100
AcDbSpline
210
0.0
220
0.0
230
1.0
 70
     8
 71
     3
 72
     8
 73
     4
 74
     0
 42
0.0000000001
 43
0.0000000001
 40
0.0
 40
0.0
 40
0.0
 40
0.0
 40
1.0
 40
1.0
 40
1.0
 40
1.0
 10
53.55206500787684
 20
103.7259634997941
 30
0.0
 10
54.10361646245572
 20
103.7259634997941
 30
0.0
 10
54.56838467269803
 20
104.0980474616517
 30
0.0
 10
54.71090674876221
 20
104.6129100649662
 30
0.0
  0
SPLINE
  5
107
330
70
100
AcDbEntity
  8
Standardebene
 62
     7
370
    35
100
AcDbSpline
210
0.0
220
0.0
230
1.0
 70
     8
 71
     3
 72
     8
 73
     4
 74
     0
 42
0.0000000001
 43
0.0000000001
 40
0.0
 40
0.0
 40
0.0
 40
0.0
 40
1.0
 40
1.0
 40
1.0
 40
1.0
 10
34.71054392606377
 20
104.6129100649662
 30
0.0
 10
34.8543488290953
 20
104.0811141456835
 30
0.0
 10
35.33444682159676
 20
103.7291064258644
 30
0.0
 10
35.86938566694978
 20
103.7259634997941
 30
0.0
  0
SPLINE
  5
108
330
70
100
AcDbEntity
  8
Standardebene
 62
     7
370
    35
100
AcDbSpline
210
0.0
220
0.0
230
1.0
 70
     8
 71
     3
 72
     8
 73
     4
 74
     0
 42
0.0000000001
 43
0.0000000001
 40
0.0
 40
0.0
 40
0.0
 40
0.0
 40
1.0
 40
1.0
 40
1.0
 40
1.0
 10
54.71090674876221
 20
105.2386730596022
 30
0.0
 10
54.65356438332494
 20
105.4509809226858
 30
0.0
 10
54.54336954683642
 20
105.6339120482184
 30
0.0
 10
54.40238686313357
 20
105.7729704914706
 30
0.0
  0
SPLINE
  5
109
330
70
100
AcDbEntity
  8
Standardebene
 62
     7
370
    35
100
AcDbSpline
210
0.0
220
0.0
230
1.0
 70
     8
 71
     3
 72
     8
 73
     4
 74
     0
 42
0.0000000001
 43
0.0000000001
 40
0.0
 40
0.0
 40
0.0
 40
0.0
 40
1.0
 40
1.0
 40
1.0
 40
1.0
 10
54.31720715250666
 20
106.0210050855929
 30
0.0
 10
54.30591827519455
 20
105.9263965967569
 30
0.0
 10
54.33978490713025
 20
105.8362138609573
 30
0.0
 10
54.40238686313357
 20
105.7729704914706
 30
0.0
  0
SPLINE
  5
10A
330
70
100
AcDbEntity
  8
Standardebene
 62
     7
370
    35
100
AcDbSpline
210
0.0
220
0.0
230
1.0
 70
     8
 71
     3
 72
     8
 73
     4
 74
     0
 42
0.0000000001
 43
0.0000000001
 40
0.0
 40
0.0
 40
0.0
 40
0.0
 40
1.0
 40
1.0
 40
1.0
 40
1.0
 10
34.9761532496376
 20
105.7272377100878
 30
0.0
 10
34.84427863740219
 20
105.5800333155932
 30
0.0
 10
34.75570183311694
 20
105.4096738943394
 30
0.0
 10
34.71054392606377
 20
105.2386730596022
 30
0.0
  0
LWPOLYLINE
  5
10B
330
70
100
AcDbEntity
  8
Standardebene
 62
     7
370
    35
100
AcDbPolyline
 90
       12
 70
     0
 43
0.0
 10
44.71108076412856
 20
253.2261692762766
 10
43.2872684638533
 20
253.2261692762766
 10
41.89360524660908
 20
253.2261692762766
 10
40.55625813322747
 20
253.2261692762766
 10
39.30447557856279
 20
253.2261692762766
 10
38.16224893076626
 20
253.2261692762766
 10
37.15343131984051
 20
253.2261692762766
 10
36.29810643941171
 20
253.2261692762766
 10
35.61442380720408
 20
253.2261692762766
 10
35.11553480652774
 20
253.2261692762766
 10
34.81265695265885
 20
253.2261692762766
 10
34.71054392606377
 20
253.2261692762766
  0
LWPOLYLINE
  5
10C
330
70
100
AcDbEntity
  8
Standardebene
 62
     7
370
    35
100
AcDbPolyline
 90
       12
 70
     0
 43
0.0
 10
54.71090674876221
 20
253.2261692762766
 10
54.60911442890945
 20
253.2261692762766
 10
54.30591827519455
 20
253.2261692762766
 10
53.80702686762191
 20
253.2261692762766
 10
53.12334423541427
 20
253.2261692762766
 10
52.26801935498547
 20
253.2261692762766
 10
51.25952493466438
 20
253.2261692762766
 10
50.11703923761151
 20
253.2261692762766
 10
48.86487458909006
 20
253.2261692762766
 10
47.52816885542433
 20
253.2261692762766
 10
46.13418221097267
 20
253.2261692762766
 10
44.71108076412856
 20
253.2261692762766
  0
LWPOLYLINE
  5
10D
330
70
100
AcDbEntity
  8
Standardebene
 62
     7
370
    35
100
AcDbPolyline
 90
        7
 70
     0
 43
0.0
 10
34.71054392606377
 20
112.725771164678
 10
34.77385143689878
 20
112.5422559737218
 10
34.9363856136525
 20
112.0161044930952
 10
35.1421510592027
 20
111.1754747355659
 10
35.23579742781369
 20
110.648675087331
 10
35.30468523595643
 20
110.0780736522882
 10
35.34291347958085
 20
109.2262191095524
  0
LWPOLYLINE
  5
10E
330
70
100
AcDbEntity
  8
Standardebene
 62
     7
370
    35
100
AcDbPolyline
 90
       20
 70
     0
 43
0.0
 10
54.71090674876221
 20
109.2262191095524
 10
54.60314928351107
 20
109.2262191095524
 10
54.28430264079598
 20
109.2262191095524
 10
53.75975469387839
 20
109.2262191095524
 10
53.04188472299273
 20
109.2262191095524
 10
52.14493210747582
 20
109.2262191095524
 10
51.08852409992721
 20
109.2262191095524
 10
49.89587986845382
 20
109.2262191095524
 10
48.59175797352458
 20
109.2262191095524
 10
47.2046371738131
 20
109.2262191095524
 10
45.76370178282471
 20
109.2262191095524
 10
44.30108661608878
 20
109.2262191095524
 10
42.84629669385359
 20
109.2262191095524
 10
41.43165925569415
 20
109.2262191095524
 10
40.08770558343146
 20
109.2262191095524
 10
38.84278865409595
 20
109.2262191095524
 10
37.72345548274825
 20
109.2262191095524
 10
36.75383071953556
 20
109.2262191095524
 10
35.95456537757669
 20
109.2262191095524
 10
35.34291347958085
 20
109.2262191095524
  0
LWPOLYLINE
  5
10F
330
70
100
AcDbEntity
  8
Standardebene
 62
     7
370
    35
100
AcDbPolyline
 90
       15
 70
     0
 43
0.0
 10
34.71054392606377
 20
124.7259763331776
 10
34.77385143689878
 20
124.5418194255879
 10
34.9363856136525
 20
124.0156679449606
 10
35.1421510592027
 20
123.1756799040655
 10
35.23579742781369
 20
122.6495213661644
 10
35.30468523595643
 20
122.0782785176376
 10
35.33912914002779
 20
121.5019685025905
 10
35.33758974766647
 20
120.9163579920309
 10
35.24233984534709
 20
119.8458388878421
 10
35.06043498138782
 20
118.9062964170121
 10
34.95454001806761
 20
118.4997754902349
 10
34.85742761381666
 20
118.1696330310559
 10
34.77821304858749
 20
117.9234585360359
 10
34.72715653529026
 20
117.77317535682
 10
34.72715653529026
 20
117.77317535682
  0
LWPOLYLINE
  5
110
330
70
100
AcDbEntity
  8
Standardebene
 62
     7
370
    35
100
AcDbPolyline
 90
       11
 70
     0
 43
0.0
 10
44.71108076412856
 20
103.7259634997941
 10
43.32735680658072
 20
103.7259634997941
 10
41.97878495723599
 20
103.7259634997941
 10
40.69659940344698
 20
103.7259634997941
 10
39.51331980883502
 20
103.7259634997941
 10
38.45883604173709
 20
103.7259634997941
 10
37.55777837992482
 20
103.7259634997941
 10
36.83304528476474
 20
103.7259634997941
 10
36.30221148570708
 20
103.7259634997941
 10
35.97836181781929
 20
103.7259634997941
 10
35.86938566694978
 20
103.7259634997941
  0
LWPOLYLINE
  5
111
330
70
100
AcDbEntity
  8
Standardebene
 62
     7
370
    35
100
AcDbPolyline
 90
       11
 70
     0
 43
0.0
 10
53.55206500787684
 20
103.7259634997941
 10
53.44308885700669
 20
103.7259634997941
 10
53.11988060260289
 20
103.7259634997941
 10
52.58808468332021
 20
103.7259634997941
 10
51.86335158815948
 20
103.7259634997941
 10
50.96293814706557
 20
103.7259634997941
 10
49.90748945250761
 20
103.7259634997941
 10
48.72459470598566
 20
103.7259634997941
 10
47.44240915219729
 20
103.7259634997941
 10
46.09377316150357
 20
103.7259634997941
 10
44.71108076412856
 20
103.7259634997941
  0
LWPOLYLINE
  5
112
330
70
100
AcDbEntity
  8
Standardebene
 62
     7
370
    35
100
AcDbPolyline
 90
       11
 70
     0
 43
0.0
 10
34.99180373863843
 20
105.7397452730183
 10
34.98461990762169
 20
105.7335235622272
 10
35.03567642091891
 20
105.7729704914706
 10
35.16658891292929
 20
105.9170319598955
 10
35.20789835050397
 20
106.0210050855929
 10
35.27774586964348
 20
106.3799400710361
 10
35.33726904092479
 20
106.7626073553728
 10
35.38768414073866
 20
107.2148680026853
 10
35.41776643312131
 20
107.7272932347618
 10
35.41866441199864
 20
108.2816027673203
 10
35.34291347958085
 20
109.2262191095524
  0
LWPOLYLINE
  5
113
330
70
100
AcDbEntity
  8
Standardebene
 62
     7
370
    35
100
AcDbPolyline
 90
       12
 70
     0
 43
0.0
 10
44.71108076412856
 20
105.2386730596022
 10
43.2872684638533
 20
105.2386730596022
 10
41.89360524660908
 20
105.2386730596022
 10
40.55625813322747
 20
105.2386730596022
 10
39.30447557856279
 20
105.2386730596022
 10
38.16224893076626
 20
105.2386730596022
 10
37.15343131984051
 20
105.2386730596022
 10
36.29810643941171
 20
105.2386730596022
 10
35.61442380720408
 20
105.2386730596022
 10
35.11553480652774
 20
105.2386730596022
 10
34.81265695265885
 20
105.2386730596022
 10
34.71054392606377
 20
105.2386730596022
  0
LWPOLYLINE
  5
114
330
70
100
AcDbEntity
  8
Standardebene
 62
     7
370
    35
100
AcDbPolyline
 90
       12
 70
     0
 43
0.0
 10
54.71090674876221
 20
105.2386730596022
 10
54.60911442890945
 20
105.2386730596022
 10
54.30591827519455
 20
105.2386730596022
 10
53.80702686762191
 20
105.2386730596022
 10
53.12334423541427
 20
105.2386730596022
 10
52.26801935498547
 20
105.2386730596022
 10
51.25952493466438
 20
105.2386730596022
 10
50.11703923761151
 20
105.2386730596022
 10
48.86487458909006
 20
105.2386730596022
 10
47.52816885542433
 20
105.2386730596022
 10
46.13418221097267
 20
105.2386730596022
 10
44.71108076412856
 20
105.2386730596022
  0
LWPOLYLINE
  5
115
330
70
100
AcDbEntity
  8
Standardebene
 62
     7
370
    35
100
AcDbPolyline
 90
       12
 70
     0
 43
0.0
 10
44.71108076412856
 20
104.6129100649662
 10
43.2872684638533
 20
104.6129100649662
 10
41.89360524660908
 20
104.6129100649662
 10
40.55625813322747
 20
104.6129100649662
 10
39.30447557856279
 20
104.6129100649662
 10
38.16224893076626
 20
104.6129100649662
 10
37.15343131984051
 20
104.6129100649662
 10
36.29810643941171
 20
104.6129100649662
 10
35.61442380720408
 20
104.6129100649662
 10
35.11553480652774
 20
104.6129100649662
 10
34.81265695265885
 20
104.6129100649662
 10
34.71054392606377
 20
104.6129100649662
  0
LWPOLYLINE
  5
116
330
70
100
AcDbEntity
  8
Standardebene
 62
     7
370
    35
100
AcDbPolyline
 90
       12
 70
     0
 43
0.0
 10
54.71090674876221
 20
104.6129100649662
 10
54.60911442890945
 20
104.6129100649662
 10
54.30591827519455
 20
104.6129100649662
 10
53.80702686762191
 20
104.6129100649662
 10
53.12334423541427
 20
104.6129100649662
 10
52.26801935498547
 20
104.6129100649662
 10
51.25952493466438
 20
104.6129100649662
 10
50.11703923761151
 20
104.6129100649662
 10
48.86487458909006
 20
104.6129100649662
 10
47.52816885542433
 20
104.6129100649662
 10
46.13418221097267
 20
104.6129100649662
 10
44.71108076412856
 20
104.6129100649662
  0
LINE
  5
117
330
70
100
AcDbEntity
  8
Standardebene
 62
     7
370
    35
100
AcDbLine
 10
44.96065210131214
 20
195.5263441047718
 30
0.0
 11
44.96065210131214
 21
195.7255671327886
 31
0.0
  0
LWPOLYLINE
  5
118
330
70
100
AcDbEntity
  8
Standardebene
 62
     7
370
    35
100
AcDbPolyline
 90
        3
 70
     0
 43
0.0
 10
44.46047786677279
 20
195.5263441047718
 10
44.71108076412856
 20
195.5263441047718
 10
44.96065210131214
 20
195.5263441047718
  0
LINE
  5
119
330
70
100
AcDbEntity
  8
Standardebene
 62
     7
370
    35
100
AcDbLine
 10
44.46047786677279
 20
195.7255671327886
 30
0.0
 11
44.46047786677279
 21
195.5263441047718
 31
0.0
  0
LWPOLYLINE
  5
11A
330
70
100
AcDbEntity
  8
Standardebene
 62
     7
370
    35
100
AcDbPolyline
 90
       14
 70
     0
 43
0.0
 10
44.46047786677279
 20
195.7255671327886
 10
42.17704586502777
 20
195.7255671327886
 10
39.92234918734972
 20
195.7255671327886
 10
37.72377618948993
 20
195.7255671327886
 10
35.60570058382665
 20
195.7255671327886
 10
33.59403547509883
 20
195.7255671327886
 10
31.71052478040107
 20
195.7255671327886
 10
31.71052478040107
 20
183.7260036809232
 10
33.59403547509883
 20
183.7260036809232
 10
35.60570058382665
 20
183.7260036809232
 10
37.72377618948993
 20
183.7260036809232
 10
39.92234918734972
 20
183.7260036809232
 10
42.17704586502777
 20
183.7260036809232
 10
44.46047786677279
 20
183.7260036809232
  0
LINE
  5
11B
330
70
100
AcDbEntity
  8
Standardebene
 62
     7
370
    35
100
AcDbLine
 10
44.46047786677279
 20
183.9258039810757
 30
0.0
 11
44.46047786677279
 21
183.7260036809232
 31
0.0
  0
LWPOLYLINE
  5
11C
330
70
100
AcDbEntity
  8
Standardebene
 62
     7
370
    35
100
AcDbPolyline
 90
        3
 70
     0
 43
0.0
 10
44.96065210131214
 20
183.9258039810757
 10
44.71108076412856
 20
183.9258039810757
 10
44.46047786677279
 20
183.9258039810757
  0
LINE
  5
11D
330
70
100
AcDbEntity
  8
Standardebene
 62
     7
370
    35
100
AcDbLine
 10
44.96065210131214
 20
183.7260036809232
 30
0.0
 11
44.96065210131214
 21
183.9258039810757
 31
0.0
  0
LWPOLYLINE
  5
11E
330
70
100
AcDbEntity
  8
Standardebene
 62
     7
370
    35
100
AcDbPolyline
 90
       16
 70
     0
 43
0.0
 10
44.96065210131214
 20
183.7260036809232
 10
47.09784182878762
 20
183.7260036809232
 10
49.20969572365983
 20
183.7260036809232
 10
51.27677895737423
 20
183.7260036809232
 10
53.27773246092558
 20
183.7260036809232
 10
55.19100474126368
 20
183.7260036809232
 10
56.99780238331862
 20
183.7260036809232
 10
58.6802940922449
 20
183.7260036809232
 10
60.22052029050034
 20
183.7260036809232
 10
61.60360018526478
 20
183.7260036809232
 10
62.81529439720204
 20
183.7260036809232
 10
63.84258223259367
 20
183.7260036809232
 10
64.67597077188223
 20
183.7260036809232
 10
65.30673679169028
 20
183.7260036809232
 10
65.7285944398778
 20
183.7260036809232
 10
65.93718210475602
 20
183.7260036809232
  0
LINE
  5
11F
330
70
100
AcDbEntity
  8
Standardebene
 62
     7
370
    35
100
AcDbLine
 10
65.93718210475602
 20
195.7255671327886
 30
0.0
 11
65.93718210475602
 21
183.7260036809232
 31
0.0
  0
LWPOLYLINE
  5
120
330
70
100
AcDbEntity
  8
Standardebene
 62
     7
370
    35
100
AcDbPolyline
 90
       16
 70
     0
 43
0.0
 10
65.93718210475602
 20
195.7255671327886
 10
65.7285944398778
 20
195.7255671327886
 10
65.30673679169028
 20
195.7255671327886
 10
64.67597077188223
 20
195.7255671327886
 10
63.84258223259367
 20
195.7255671327886
 10
62.81529439720204
 20
195.7255671327886
 10
61.60360018526478
 20
195.7255671327886
 10
60.22052029050034
 20
195.7255671327886
 10
58.6802940922449
 20
195.7255671327886
 10
56.99780238331862
 20
195.7255671327886
 10
55.19100474126368
 20
195.7255671327886
 10
53.27773246092558
 20
195.7255671327886
 10
51.27677895737423
 20
195.7255671327886
 10
49.20969572365983
 20
195.7255671327886
 10
47.09784182878762
 20
195.7255671327886
 10
44.96065210131214
 20
195.7255671327886
  0
LWPOLYLINE
  5
121
330
70
100
AcDbEntity
  8
Standardebene
 62
     7
370
    35
100
AcDbPolyline
 90
       25
 70
     0
 43
0.0
 10
61.31041008189465
 20
189.7261061135982
 10
61.24562732004793
 20
190.2447530564664
 10
61.0736643650851
 20
190.6950894633269
 10
60.67092083870981
 20
191.235031333852
 10
60.31294797349232
 20
191.5131570039809
 10
59.91796555026944
 20
191.7029424701647
 10
59.48456245937648
 20
191.8075658004079
 10
59.032943225548
 20
191.8182044731742
 10
58.23400158124767
 20
191.5851789545688
 10
57.66897745259576
 20
191.1517117223275
 10
57.31318539322233
 20
190.6255602417008
 10
57.12499764002522
 20
189.9722806086175
 10
57.14186385174348
 20
189.3671711281551
 10
57.31068388063661
 20
188.8315908693187
 10
57.6154194267122
 20
188.3593268252699
 10
58.06325432098698
 20
187.9665806452875
 10
58.81402880358267
 20
187.6640345914438
 10
59.2888030641704
 20
187.6277219018822
 10
59.74920966272463
 20
187.6966097100249
 10
60.18735921339632
 20
187.8669691312787
 10
60.58631840021792
 20
188.138864306992
 10
61.00541797042573
 20
188.6349334952359
 10
61.22240815193972
 20
189.1241395592055
 10
61.30540705672259
 20
189.5770416200006
 10
61.31041008189465
 20
189.7261061135982
  0
LWPOLYLINE
  5
122
330
70
100
AcDbEntity
  8
Standardebene
 62
     7
370
    35
100
AcDbPolyline
 90
       20
 70
     0
 43
0.0
 10
44.71108076412856
 20
191.9259619384247
 10
43.98506219270108
 20
191.8019125706894
 10
43.34082648973687
 20
191.4467619248006
 10
42.84847749969826
 20
190.8974000441349
 10
42.56535758802124
 20
190.2133879371164
 10
42.52526924529383
 20
189.4774301059919
 10
42.72885388499999
 20
188.7714904259024
 10
43.15449587274055
 20
188.170806698477
 10
43.75678313387498
 20
187.7436253183751
 10
44.46830311127289
 20
187.5393992651856
 10
45.20336296352007
 20
187.5813477070154
 10
45.88172186381332
 20
187.8632489330733
 10
46.43109251254816
 20
188.3543150961452
 10
46.78842396428165
 20
189.002023152109
 10
46.91086979830795
 20
189.7304677252869
 10
46.7859224516953
 20
190.455842233931
 10
46.42955312018748
 20
191.0984744031862
 10
45.87922035122761
 20
191.5895405662574
 10
45.19489630553598
 20
191.8720832057995
 10
44.71108076412856
 20
191.9259619384247
  0
SPLINE
  5
123
330
70
100
AcDbEntity
  8
Standardebene
 62
     7
370
    35
100
AcDbSpline
210
0.0
220
0.0
230
1.0
 70
     9
 71
     3
 72
    17
 73
    13
 74
     0
 42
0.0000000001
 43
0.0000000001
 40
0.0
 40
0.0
 40
0.0
 40
0.0
 40
1.0
 40
1.0
 40
1.0
 40
2.0
 40
2.0
 40
2.0
 40
3.0
 40
3.0
 40
3.0
 40
4.0
 40
4.0
 40
4.0
 40
4.0
 10
46.36060117069642
 20
189.7261061135982
 30
0.0
 10
46.36060117069642
 20
190.636849119013
 30
0.0
 10
45.6221418269862
 20
191.3759498762072
 30
0.0
 10
44.71108076412856
 20
191.3759498762072
 30
0.0
 10
43.79937298918875
 20
191.3759498762072
 30
0.0
 10
43.0608495041302
 20
190.636849119013
 30
0.0
 10
43.0608495041302
 20
189.7261061135982
 30
0.0
 10
43.0608495041302
 20
188.8147304101557
 30
0.0
 10
43.79937298918875
 20
188.0755567961569
 30
0.0
 10
44.71108076412856
 20
188.0755567961569
 30
0.0
 10
45.6221418269862
 20
188.0755567961569
 30
0.0
 10
46.36060117069642
 20
188.8147304101557
 30
0.0
 10
46.36060117069642
 20
189.7261061135982
 30
0.0
  0
LINE
  5
124
330
70
100
AcDbEntity
  8
Standardebene
 62
     7
370
    35
100
AcDbLine
 10
23.7106875297937
 20
277.7257911212891
 30
0.0
 11
23.7106875297937
 21
253.7260228040743
 31
0.0
  0
LWPOLYLINE
  5
125
330
70
100
AcDbEntity
  8
Standardebene
 62
     7
370
    35
100
AcDbPolyline
 90
       25
 70
     0
 43
0.0
 10
57.21075165988621
 20
277.7257911212891
 10
57.10427702160242
 20
277.7257911212891
 10
56.78703391259571
 20
277.7257911212891
 10
56.26274253107144
 20
277.7257911212891
 10
55.53647004355068
 20
277.7257911212891
 10
54.61790179363521
 20
277.7257911212891
 10
53.5173003970638
 20
277.7257911212891
 10
52.24890523317326
 20
277.7257911212891
 10
50.82548043028807
 20
277.7257911212891
 10
49.26543455538809
 20
277.7257911212891
 10
47.58679132736383
 20
277.7257911212891
 10
45.80911385746587
 20
277.7257911212891
 10
43.95376121470007
 20
277.7257911212891
 10
42.04299044694768
 20
277.7257911212891
 10
40.09809648186624
 20
277.7257911212891
 10
38.14249091160773
 20
277.7257911212891
 10
36.20041916585432
 20
277.7257911212891
 10
34.29311203091331
 20
277.7257911212891
 10
32.44372453354524
 20
277.7257911212891
 10
30.67509099376702
 20
277.7257911212891
 10
29.00613310934587
 20
277.7257911212891
 10
27.45801752524136
 20
277.7257911212891
 10
26.04870381899566
 20
277.7257911212891
 10
24.79499702388093
 20
277.7257911212891
 10
23.7106875297937
 20
277.7257911212891
  0
LWPOLYLINE
  5
126
330
70
100
AcDbEntity
  8
Standardebene
 62
     7
370
    35
100
AcDbPolyline
 90
       25
 70
     0
 43
0.0
 10
23.7106875297937
 20
253.7260228040743
 10
24.79499702388093
 20
253.7260228040743
 10
26.04870381899566
 20
253.7260228040743
 10
27.45801752524136
 20
253.7260228040743
 10
29.00613310934587
 20
253.7260228040743
 10
30.67509099376702
 20
253.7260228040743
 10
32.44372453354524
 20
253.7260228040743
 10
34.29311203091331
 20
253.7260228040743
 10
36.20041916585432
 20
253.7260228040743
 10
38.14249091160773
 20
253.7260228040743
 10
40.09809648186624
 20
253.7260228040743
 10
42.04299044694768
 20
253.7260228040743
 10
43.95376121470007
 20
253.7260228040743
 10
45.80911385746587
 20
253.7260228040743
 10
47.58679132736383
 20
253.7260228040743
 10
49.26543455538809
 20
253.7260228040743
 10
50.82548043028807
 20
253.7260228040743
 10
52.24890523317326
 20
253.7260228040743
 10
53.5173003970638
 20
253.7260228040743
 10
54.61790179363521
 20
253.7260228040743
 10
55.53647004355068
 20
253.7260228040743
 10
56.26274253107144
 20
253.7260228040743
 10
56.78703391259571
 20
253.7260228040743
 10
57.10427702160242
 20
253.7260228040743
 10
57.21075165988621
 20
253.7260228040743
  0
LWPOLYLINE
  5
127
330
70
100
AcDbEntity
  8
Standardebene
 62
     7
370
    35
100
AcDbPolyline
 90
       18
 70
     0
 43
0.0
 10
5.210590845320587
 20
271.7260093953564
 10
5.210590845320587
 20
271.6235756620196
 10
5.210590845320587
 20
271.3207643563948
 10
5.210590845320587
 20
270.8271433266532
 10
5.210590845320587
 20
270.1597418096647
 10
5.210590845320587
 20
269.3416830526353
 10
5.210590845320587
 20
268.4005370480962
 10
5.210590845320587
 20
267.3680003220176
 10
5.210590845320587
 20
266.2793185163626
 10
5.210590845320587
 20
265.1718539955167
 10
5.210590845320587
 20
264.0838884445732
 10
5.210590845320587
 20
263.0512874680965
 10
5.210590845320587
 20
262.1101308727274
 10
5.210590845320587
 20
261.292072115698
 10
5.210590845320587
 20
260.6243606792329
 10
5.210590845320587
 20
260.1311137103163
 10
5.210590845320587
 20
259.8275968498597
 10
5.210590845320587
 20
259.725804530007
  0
LWPOLYLINE
  5
128
330
70
100
AcDbEntity
  8
Standardebene
 62
     7
370
    35
100
AcDbPolyline
 90
        8
 70
     0
 43
0.0
 10
22.95118982381993
 20
260.8181958339876
 10
18.26996179619829
 20
260.8181958339876
 10
17.7190517551034
 20
259.6161869656535
 10
17.56434282284978
 20
258.9942083105712
 10
17.51046409022453
 20
258.3646609763828
 10
17.51488984326158
 20
258.1902606501819
 10
17.74066738950133
 20
257.0489936387481
 10
18.26996179619829
 20
255.9111902601256
  0
LINE
  5
129
330
70
100
AcDbEntity
  8
Standardebene
 62
     7
370
    35
100
AcDbLine
 10
22.95118982381993
 20
255.9111902601256
 30
0.0
 11
18.26996179619829
 21
255.9111902601256
 31
0.0
  0
LWPOLYLINE
  5
12A
330
70
100
AcDbEntity
  8
Standardebene
 62
     7
370
    35
100
AcDbPolyline
 90
        4
 70
     0
 43
0.0
 10
23.7106875297937
 20
258.3646609763828
 10
23.70632591810498
 20
258.1902606501819
 10
23.48080493725857
 20
257.0489936387481
 10
22.95118982381993
 20
255.9111902601256
  0
LWPOLYLINE
  5
12B
330
70
100
AcDbEntity
  8
Standardebene
 62
     7
370
    35
100
AcDbPolyline
 90
        4
 70
     0
 43
0.0
 10
22.95118982381993
 20
260.8181958339876
 10
23.50242057165714
 20
259.6161869656535
 10
23.65680879716845
 20
258.9942083105712
 10
23.7106875297937
 20
258.3646609763828
  0
LWPOLYLINE
  5
12C
330
70
100
AcDbEntity
  8
Standardebene
 62
     7
370
    35
100
AcDbPolyline
 90
        8
 70
     0
 43
0.0
 10
22.95118982381993
 20
270.6332973846334
 10
18.26996179619829
 20
270.6332973846334
 10
17.7190517551034
 20
268.2289589412234
 10
17.56434282284978
 20
266.9858996099362
 10
17.51046409022453
 20
265.7259069626814
 10
17.51488984326158
 20
265.3767214621903
 10
17.74066738950133
 20
263.0938667325803
 10
18.26996179619829
 20
260.8181958339876
  0
LWPOLYLINE
  5
12D
330
70
100
AcDbEntity
  8
Standardebene
 62
     7
370
    35
100
AcDbPolyline
 90
        4
 70
     0
 43
0.0
 10
23.7106875297937
 20
265.7259069626814
 10
23.70632591810498
 20
265.3767214621903
 10
23.48080493725857
 20
263.0938667325803
 10
22.95118982381993
 20
260.8181958339876
  0
LWPOLYLINE
  5
12E
330
70
100
AcDbEntity
  8
Standardebene
 62
     7
370
    35
100
AcDbPolyline
 90
        4
 70
     0
 43
0.0
 10
22.95118982381993
 20
270.6332973846334
 10
23.50242057165714
 20
268.2289589412234
 10
23.65680879716845
 20
266.9858996099362
 10
23.7106875297937
 20
265.7259069626814
  0
LWPOLYLINE
  5
12F
330
70
100
AcDbEntity
  8
Standardebene
 62
     7
370
    35
100
AcDbPolyline
 90
        8
 70
     0
 43
0.0
 10
22.95118982381993
 20
275.5410085133271
 10
18.26996179619829
 20
275.5410085133271
 10
17.83431375811232
 20
274.6546392202907
 10
17.56934584802248
 20
273.7442169216176
 10
17.51046409022453
 20
273.0871529489806
 10
17.62540538649241
 20
272.1638490603189
 10
17.95425807955227
 20
271.2399462574566
 10
18.26996179619829
 20
270.6332973846334
  0
LWPOLYLINE
  5
130
330
70
100
AcDbEntity
  8
Standardebene
 62
     7
370
    35
100
AcDbPolyline
 90
        4
 70
     0
 43
0.0
 10
23.7106875297937
 20
273.0871529489806
 10
23.59574834940776
 20
272.1638490603189
 10
23.26721424720763
 20
271.2399462574566
 10
22.95118982381993
 20
270.6332973846334
  0
LWPOLYLINE
  5
131
330
70
100
AcDbEntity
  8
Standardebene
 62
     7
370
    35
100
AcDbPolyline
 90
        4
 70
     0
 43
0.0
 10
22.95118982381993
 20
275.5410085133271
 10
23.38715856864758
 20
274.6546392202907
 10
23.65212647873806
 20
273.7442169216176
 10
23.7106875297937
 20
273.0871529489806
  0
LWPOLYLINE
  5
132
330
70
100
AcDbEntity
  8
Standardebene
 62
     7
370
    35
100
AcDbPolyline
 90
        4
 70
     0
 43
0.0
 10
17.51046409022453
 20
273.0871529489806
 10
17.51046409022453
 20
273.7129159436159
 10
17.51046409022453
 20
274.096545348179
 10
17.51046409022453
 20
274.2255977410864
  0
LWPOLYLINE
  5
133
330
70
100
AcDbEntity
  8
Standardebene
 62
     7
370
    35
100
AcDbPolyline
 90
        7
 70
     0
 43
0.0
 10
17.51046409022453
 20
265.7259069626814
 10
17.51046409022453
 20
267.2016711058318
 10
17.51046409022453
 20
268.6329211532177
 10
17.51046409022453
 20
269.9759127052547
 10
17.51046409022453
 20
271.189210450901
 10
17.51046409022453
 20
272.2371518004655
 10
17.51046409022453
 20
273.0871529489806
  0
LWPOLYLINE
  5
134
330
70
100
AcDbEntity
  8
Standardebene
 62
     7
370
    35
100
AcDbPolyline
 90
        7
 70
     0
 43
0.0
 10
17.51046409022453
 20
258.3646609763828
 10
17.51046409022453
 20
259.2144055595039
 10
17.51046409022453
 20
260.2620262023267
 10
17.51046409022453
 20
261.475901220108
 10
17.51046409022453
 20
262.8188927721457
 10
17.51046409022453
 20
264.2501428195316
 10
17.51046409022453
 20
265.7259069626814
  0
LWPOLYLINE
  5
135
330
70
100
AcDbEntity
  8
Standardebene
 62
     7
370
    35
100
AcDbPolyline
 90
        4
 70
     0
 43
0.0
 10
17.51046409022453
 20
257.2256389121413
 10
17.51046409022453
 20
257.3546271637003
 10
17.51046409022453
 20
257.7383207096118
 10
17.51046409022453
 20
258.3646609763828
  0
LWPOLYLINE
  5
136
330
70
100
AcDbEntity
  8
Standardebene
 62
     7
370
    35
100
AcDbPolyline
 90
       16
 70
     0
 43
0.0
 10
1.210802053103371
 20
260.725832292344
 10
1.210802053103371
 20
260.8348084432135
 10
1.210802053103371
 20
261.1583374043596
 10
1.210802053103371
 20
261.6807686867815
 10
1.210802053103371
 20
262.3797811012483
 10
1.210802053103371
 20
263.226062051558
 10
1.210802053103371
 20
264.1809343046472
 10
1.210802053103371
 20
265.2035398216085
 10
1.210802053103371
 20
266.2486589518449
 10
1.210802053103371
 20
267.2708796207162
 10
1.210802053103371
 20
268.2258160151537
 10
1.210802053103371
 20
269.0710707038894
 10
1.210802053103371
 20
269.7711093799295
 10
1.210802053103371
 20
270.293487294786
 10
1.210802053103371
 20
270.6163640686652
 10
1.210802053103371
 20
270.7259816330187
  0
LWPOLYLINE
  5
137
330
70
100
AcDbEntity
  8
Standardebene
 62
     7
370
    35
100
AcDbPolyline
 90
       16
 70
     0
 43
0.0
 10
4.211204496466926
 20
260.725832292344
 10
4.211204496466926
 20
260.8348084432135
 10
4.211204496466926
 20
261.1583374043596
 10
4.211204496466926
 20
261.6807686867815
 10
4.211204496466926
 20
262.3797811012483
 10
4.211204496466926
 20
263.226062051558
 10
4.211204496466926
 20
264.1809343046472
 10
4.211204496466926
 20
265.2035398216085
 10
4.211204496466926
 20
266.2486589518449
 10
4.211204496466926
 20
267.2708796207162
 10
4.211204496466926
 20
268.2258160151537
 10
4.211204496466926
 20
269.0710707038894
 10
4.211204496466926
 20
269.7711093799295
 10
4.211204496466926
 20
270.293487294786
 10
4.211204496466926
 20
270.6163640686652
 10
4.211204496466926
 20
270.7259816330187
  0
LWPOLYLINE
  5
138
330
70
100
AcDbEntity
  8
Standardebene
 62
     7
370
    35
100
AcDbPolyline
 90
       16
 70
     0
 43
0.0
 10
-5.789328318746156
 20
260.9259532992388
 10
-5.789328318746156
 20
261.0308885451612
 10
-5.789328318746156
 20
261.3406376640244
 10
-5.789328318746156
 20
261.8423407433096
 10
-5.789328318746156
 20
262.5138365193284
 10
-5.789328318746156
 20
263.3262508377018
 10
-5.789328318746156
 20
264.2423175750309
 10
-5.789328318746156
 20
265.2241933357814
 10
-5.789328318746156
 20
266.2276205895821
 10
-5.789328318746156
 20
267.2088549368485
 10
-5.789328318746156
 20
268.1258837944033
 10
-5.789328318746156
 20
268.9376566992926
 10
-5.789328318746156
 20
269.6085110618282
 10
-5.789328318746156
 20
270.1105453954698
 10
-5.789328318746156
 20
270.4206046734598
 10
-5.789328318746156
 20
270.5258606261246
  0
LWPOLYLINE
  5
139
330
70
100
AcDbEntity
  8
Standardebene
 62
     7
370
    35
100
AcDbPolyline
 90
       18
 70
     0
 43
0.0
 10
0.2104535587532922
 20
259.725804530007
 10
0.2104535587532922
 20
259.8275968498597
 10
0.2104535587532922
 20
260.1311137103163
 10
0.2104535587532922
 20
260.6243606792329
 10
0.2104535587532922
 20
261.292072115698
 10
0.2104535587532922
 20
262.1101308727274
 10
0.2104535587532922
 20
263.0512874680965
 10
0.2104535587532922
 20
264.0838884445732
 10
0.2104535587532922
 20
265.1718539955167
 10
0.2104535587532922
 20
266.2793185163626
 10
0.2104535587532922
 20
267.3680003220176
 10
0.2104535587532922
 20
268.4005370480962
 10
0.2104535587532922
 20
269.3416830526353
 10
0.2104535587532922
 20
270.1597418096647
 10
0.2104535587532922
 20
270.8271433266532
 10
0.2104535587532922
 20
271.3207643563948
 10
0.2104535587532922
 20
271.6235756620196
 10
0.2104535587532922
 20
271.7260093953564
  0
LWPOLYLINE
  5
13A
330
70
100
AcDbEntity
  8
Standardebene
 62
     7
370
    35
100
AcDbPolyline
 90
       23
 70
     0
 43
0.0
 10
34.71054392606377
 20
278.6262073696174
 10
34.81265695265885
 20
278.6262073696174
 10
35.11553480652774
 20
278.6262073696174
 10
35.61442380720408
 20
278.6262073696174
 10
36.29810643941171
 20
278.6262073696174
 10
37.15343131984051
 20
278.6262073696174
 10
38.16224893076626
 20
278.6262073696174
 10
39.30447557856279
 20
278.6262073696174
 10
40.55625813322747
 20
278.6262073696174
 10
41.89360524660908
 20
278.6262073696174
 10
43.2872684638533
 20
278.6262073696174
 10
44.71108076412856
 20
278.6262073696174
 10
46.13418221097267
 20
278.6262073696174
 10
47.52816885542433
 20
278.6262073696174
 10
48.86487458909006
 20
278.6262073696174
 10
50.11703923761151
 20
278.6262073696174
 10
51.25952493466438
 20
278.6262073696174
 10
52.26801935498547
 20
278.6262073696174
 10
53.12334423541427
 20
278.6262073696174
 10
53.80702686762191
 20
278.6262073696174
 10
54.30591827519455
 20
278.6262073696174
 10
54.60911442890945
 20
278.6262073696174
 10
54.71090674876221
 20
278.6262073696174
  0
LWPOLYLINE
  5
13B
330
70
100
AcDbEntity
  8
Standardebene
 62
     7
370
    35
100
AcDbPolyline
 90
       12
 70
     0
 43
0.0
 10
44.71108076412856
 20
278.1257124283363
 10
43.21652055660822
 20
278.1257124283363
 10
41.75236599751224
 20
278.1257124283363
 10
40.34895329531594
 20
278.1257124283363
 10
39.0338632298169
 20
278.1257124283363
 10
37.83467658081077
 20
278.1257124283363
 10
36.7757670606758
 20
278.1257124283363
 10
35.87785232493323
 20
278.1257124283363
 10
35.15966164730589
 20
278.1257124283363
 10
34.6363323860073
 20
278.1257124283363
 10
34.31780645003389
 20
278.1257124283363
 10
34.21101110500842
 20
278.1257124283363
  0
LWPOLYLINE
  5
13C
330
70
100
AcDbEntity
  8
Standardebene
 62
     7
370
    35
100
AcDbPolyline
 90
       12
 70
     0
 43
0.0
 10
55.2104395698182
 20
278.1257124283363
 10
55.10332351805105
 20
278.1257124283363
 10
54.78543899556099
 20
278.1257124283363
 10
54.26178902752009
 20
278.1257124283363
 10
53.54366249124108
 20
278.1257124283363
 10
52.64600717064457
 20
278.1257124283363
 10
51.58683823536419
 20
278.1257124283363
 10
50.38765158635741
 20
278.1257124283363
 10
49.07256152085837
 20
278.1257124283363
 10
47.66914881866271
 20
278.1257124283363
 10
46.20525082495944
 20
278.1257124283363
 10
44.71108076412856
 20
278.1257124283363
  0
LINE
  5
13D
330
70
100
AcDbEntity
  8
Standardebene
 62
     7
370
    35
100
AcDbLine
 10
121.1006659379181
 20
278.1257124283363
 30
0.0
 11
121.1006659379181
 21
277.7257911212891
 31
0.0
  0
LWPOLYLINE
  5
13E
330
70
100
AcDbEntity
  8
Standardebene
 62
     7
370
    35
100
AcDbPolyline
 90
        3
 70
     0
 43
0.0
 10
142.1000302613802
 20
277.7257911212891
 10
142.1000302613802
 20
278.1257124283363
 10
141.6004974403242
 20
278.6262073696174
  0
LINE
  5
13F
330
70
100
AcDbEntity
  8
Standardebene
 62
     7
370
    35
100
AcDbLine
 10
121.6005240574067
 20
278.6262073696174
 30
0.0
 11
121.1006659379181
 21
278.1257124283363
 31
0.0
  0
LINE
  5
140
330
70
100
AcDbEntity
  8
Standardebene
 62
     7
370
    35
100
AcDbLine
 10
113.600682215109
 20
277.7257911212891
 30
0.0
 11
113.600682215109
 21
253.7260228040743
 31
0.0
  0
LINE
  5
141
330
70
100
AcDbEntity
  8
Standardebene
 62
     7
370
    35
100
AcDbLine
 10
149.6003346909315
 20
253.7260228040743
 30
0.0
 11
149.6003346909315
 21
277.7257911212891
 31
0.0
  0
LINE
  5
142
330
70
100
AcDbEntity
  8
Standardebene
 62
     7
370
    35
100
AcDbLine
 10
152.8506333779089
 20
191.9259619384247
 30
0.0
 11
152.8506333779089
 21
195.5263441047718
 31
0.0
  0
LINE
  5
143
330
70
100
AcDbEntity
  8
Standardebene
 62
     7
370
    35
100
AcDbLine
 10
152.8506333779089
 20
183.9258039810757
 30
0.0
 11
152.8506333779089
 21
187.5325448239763
 31
0.0
  0
LINE
  5
144
330
70
100
AcDbEntity
  8
Standardebene
 62
     7
370
    35
100
AcDbLine
 10
141.6004974403242
 20
253.2261692762766
 30
0.0
 11
141.1003232057848
 21
253.7260228040743
 31
0.0
  0
LINE
  5
145
330
70
100
AcDbEntity
  8
Standardebene
 62
     7
370
    35
100
AcDbLine
 10
122.1000522867717
 20
253.7260228040743
 30
0.0
 11
121.6005240574067
 21
253.2261692762766
 31
0.0
  0
LINE
  5
146
330
70
100
AcDbEntity
  8
Standardebene
 62
     7
370
    35
100
AcDbLine
 10
121.6005240574067
 20
115.2238133247595
 30
0.0
 11
121.6005240574067
 21
109.2262191095524
 31
0.0
  0
LINE
  5
147
330
70
100
AcDbEntity
  8
Standardebene
 62
     7
370
    35
100
AcDbLine
 10
121.6005240574067
 20
253.2261692762766
 30
0.0
 11
121.6005240574067
 21
195.7249257193053
 31
0.0
  0
LINE
  5
148
330
70
100
AcDbEntity
  8
Standardebene
 62
     7
370
    35
100
AcDbLine
 10
121.6005240574067
 20
183.7266450944072
 30
0.0
 11
121.6005240574067
 21
115.0763530237835
 31
0.0
  0
LINE
  5
149
330
70
100
AcDbEntity
  8
Standardebene
 62
     7
370
    35
100
AcDbLine
 10
141.6004974403242
 20
109.2262191095524
 30
0.0
 11
141.6004974403242
 21
183.7260036809232
 31
0.0
  0
LINE
  5
14A
330
70
100
AcDbEntity
  8
Standardebene
 62
     7
370
    35
100
AcDbLine
 10
141.6004974403242
 20
195.7249257193053
 30
0.0
 11
141.6004974403242
 21
253.2261692762766
 31
0.0
  0
LINE
  5
14B
330
70
100
AcDbEntity
  8
Standardebene
 62
     7
370
    35
100
AcDbLine
 10
121.6005240574067
 20
105.2386730596022
 30
0.0
 11
121.6005240574067
 21
104.6129100649662
 31
0.0
  0
LINE
  5
14C
330
70
100
AcDbEntity
  8
Standardebene
 62
     7
370
    35
100
AcDbLine
 10
141.6004974403242
 20
104.6129100649662
 30
0.0
 11
141.6004974403242
 21
105.2386730596022
 31
0.0
  0
LINE
  5
14D
330
70
100
AcDbEntity
  8
Standardebene
 62
     7
370
    35
100
AcDbLine
 10
121.6005240574067
 20
109.2262191095524
 30
0.0
 11
121.9935135071402
 21
106.0210050855929
 31
0.0
  0
LINE
  5
14E
330
70
100
AcDbEntity
  8
Standardebene
 62
     7
370
    35
100
AcDbLine
 10
141.206797844068
 20
106.0210050855929
 30
0.0
 11
141.6004974403242
 21
109.2262191095524
 31
0.0
  0
SPLINE
  5
14F
330
70
100
AcDbEntity
  8
Standardebene
 62
     7
370
    35
100
AcDbSpline
210
0.0
220
0.0
230
1.0
 70
     8
 71
     3
 72
     8
 73
     4
 74
     0
 42
0.0000000001
 43
0.0000000001
 40
0.0
 40
0.0
 40
0.0
 40
0.0
 40
1.0
 40
1.0
 40
1.0
 40
1.0
 10
140.4420456151962
 20
103.7259634997941
 30
0.0
 10
140.9935278607594
 20
103.7259634997941
 30
0.0
 10
141.45797536426
 20
104.0980474616517
 30
0.0
 10
141.6004974403242
 20
104.6129100649662
 30
0.0
  0
SPLINE
  5
150
330
70
100
AcDbEntity
  8
Standardebene
 62
     7
370
    35
100
AcDbSpline
210
0.0
220
0.0
230
1.0
 70
     8
 71
     3
 72
     8
 73
     4
 74
     0
 42
0.0000000001
 43
0.0000000001
 40
0.0
 40
0.0
 40
0.0
 40
0.0
 40
1.0
 40
1.0
 40
1.0
 40
1.0
 10
121.6005240574067
 20
104.6129100649662
 30
0.0
 10
121.7442602273989
 20
104.0811141456835
 30
0.0
 10
122.2243582199004
 20
103.7291064258644
 30
0.0
 10
122.7589763585111
 20
103.7259634997941
 30
0.0
  0
SPLINE
  5
151
330
70
100
AcDbEntity
  8
Standardebene
 62
     7
370
    35
100
AcDbSpline
210
0.0
220
0.0
230
1.0
 70
     8
 71
     3
 72
     8
 73
     4
 74
     0
 42
0.0000000001
 43
0.0000000001
 40
0.0
 40
0.0
 40
0.0
 40
0.0
 40
1.0
 40
1.0
 40
1.0
 40
1.0
 10
141.6004974403242
 20
105.2386730596022
 30
0.0
 10
141.5434757816286
 20
105.4509809226858
 30
0.0
 10
141.4329602383984
 20
105.6339120482184
 30
0.0
 10
141.2919775546949
 20
105.7729704914706
 30
0.0
  0
SPLINE
  5
152
330
70
100
AcDbEntity
  8
Standardebene
 62
     7
370
    35
100
AcDbSpline
210
0.0
220
0.0
230
1.0
 70
     8
 71
     3
 72
     8
 73
     4
 74
     0
 42
0.0000000001
 43
0.0000000001
 40
0.0
 40
0.0
 40
0.0
 40
0.0
 40
1.0
 40
1.0
 40
1.0
 40
1.0
 10
121.908654503255
 20
105.7729704914706
 30
0.0
 10
121.753945571002
 20
105.6176267594555
 30
0.0
 10
121.6502931520462
 20
105.4303340175016
 30
0.0
 10
121.6005240574067
 20
105.2386730596022
 30
0.0
  0
SPLINE
  5
153
330
70
100
AcDbEntity
  8
Standardebene
 62
     7
370
    35
100
AcDbSpline
210
0.0
220
0.0
230
1.0
 70
     8
 71
     3
 72
     8
 73
     4
 74
     0
 42
0.0000000001
 43
0.0000000001
 40
0.0
 40
0.0
 40
0.0
 40
0.0
 40
1.0
 40
1.0
 40
1.0
 40
1.0
 10
141.206797844068
 20
106.0210050855929
 30
0.0
 10
141.1952524013625
 20
105.9263965967569
 30
0.0
 10
141.2293755986922
 20
105.8362138609573
 30
0.0
 10
141.2919775546949
 20
105.7729704914706
 30
0.0
  0
SPLINE
  5
154
330
70
100
AcDbEntity
  8
Standardebene
 62
     7
370
    35
100
AcDbSpline
210
0.0
220
0.0
230
1.0
 70
     8
 71
     3
 72
     8
 73
     4
 74
     0
 42
0.0000000001
 43
0.0000000001
 40
0.0
 40
0.0
 40
0.0
 40
0.0
 40
1.0
 40
1.0
 40
1.0
 40
1.0
 10
121.9963357264676
 20
105.9840596689358
 30
0.0
 10
121.9963357264676
 20
105.9978500588337
 30
0.0
 10
121.9951170408493
 20
106.0103576217648
 30
0.0
 10
121.9935135071402
 20
106.0210050855929
 30
0.0
  0
SPLINE
  5
155
330
70
100
AcDbEntity
  8
Standardebene
 62
     7
370
    35
100
AcDbSpline
210
0.0
220
0.0
230
1.0
 70
     8
 71
     3
 72
     8
 73
     4
 74
     0
 42
0.0000000001
 43
0.0000000001
 40
0.0
 40
0.0
 40
0.0
 40
0.0
 40
1.0
 40
1.0
 40
1.0
 40
1.0
 10
121.908654503255
 20
105.7729704914706
 30
0.0
 10
121.9672155543106
 20
105.8312174549018
 30
0.0
 10
121.9963357264676
 20
105.9076031816863
 30
0.0
 10
121.9963357264676
 20
105.9840596689358
 30
0.0
  0
LWPOLYLINE
  5
156
330
70
100
AcDbEntity
  8
Standardebene
 62
     7
370
    35
100
AcDbPolyline
 90
       23
 70
     0
 43
0.0
 10
141.6004974403242
 20
253.2261692762766
 10
141.4987051204708
 20
253.2261692762766
 10
141.1952524013625
 20
253.2261692762766
 10
140.6969382659255
 20
253.2261692762766
 10
140.0129399838034
 20
253.2261692762766
 10
139.1576100465474
 20
253.2261692762766
 10
138.1491156262263
 20
253.2261692762766
 10
137.0066349100549
 20
253.2261692762766
 10
135.7547832331605
 20
253.2261692762766
 10
134.4178209678695
 20
253.2261692762766
 10
133.0234570760502
 20
253.2261692762766
 10
131.6000273929071
 20
253.2261692762766
 10
130.1768639637618
 20
253.2261692762766
 10
128.782554524687
 20
253.2261692762766
 10
127.4461695315311
 20
253.2261692762766
 10
126.1940662701247
 20
253.2261692762766
 10
125.0515164317236
 20
253.2261692762766
 10
124.0433427181441
 20
253.2261692762766
 10
123.1880819790637
 20
253.2261692762766
 10
122.5037579333727
 20
253.2261692762766
 10
122.005123091194
 20
253.2261692762766
 10
121.7019910788275
 20
253.2261692762766
 10
121.6005240574067
 20
253.2261692762766
  0
LWPOLYLINE
  5
157
330
70
100
AcDbEntity
  8
Standardebene
 62
     7
370
    35
100
AcDbPolyline
 90
       14
 70
     0
 43
0.0
 10
128.1004112848401
 20
109.2262191095524
 10
128.2025243114352
 20
110.0655660893577
 10
128.6293849847947
 20
111.0759206087812
 10
129.3820195664934
 20
111.9334262950547
 10
129.876228655635
 20
112.2716504067915
 10
130.4239957706602
 20
112.522179731684
 10
131.002486591552
 20
112.6743871513512
 10
131.6000273929071
 20
112.725771164678
 10
132.7203201834264
 20
112.5422559737218
 10
133.7130999733983
 20
112.0161044930952
 10
134.5067208767011
 20
111.1754747355659
 10
134.7976660328789
 20
110.648675087331
 10
134.9950289617933
 20
110.0780736522882
 10
135.1002207731098
 20
109.2262191095524
  0
LWPOLYLINE
  5
158
330
70
100
AcDbEntity
  8
Standardebene
 62
     7
370
    35
100
AcDbPolyline
 90
        9
 70
     0
 43
0.0
 10
128.1004112848401
 20
109.2262191095524
 10
126.7249000691824
 20
109.2262191095524
 10
125.4621493439479
 20
109.2262191095524
 10
124.3399323129779
 20
109.2262191095524
 10
123.3840979396631
 20
109.2262191095524
 10
122.6174164026726
 20
109.2262191095524
 10
122.0561796044913
 20
109.2262191095524
 10
121.7148193485003
 20
109.2262191095524
 10
121.6005240574067
 20
109.2262191095524
  0
LWPOLYLINE
  5
159
330
70
100
AcDbEntity
  8
Standardebene
 62
     7
370
    35
100
AcDbPolyline
 90
        9
 70
     0
 43
0.0
 10
141.6004974403242
 20
109.2262191095524
 10
141.4855561440563
 20
109.2262191095524
 10
141.1438751813236
 20
109.2262191095524
 10
140.5836005033673
 20
109.2262191095524
 10
139.8165982596351
 20
109.2262191095524
 10
138.8606997449719
 20
109.2262191095524
 10
137.7388675620926
 20
109.2262191095524
 10
136.4754754233741
 20
109.2262191095524
 10
135.1002207731098
 20
109.2262191095524
  0
LWPOLYLINE
  5
15A
330
70
100
AcDbEntity
  8
Standardebene
 62
     7
370
    35
100
AcDbPolyline
 90
       29
 70
     0
 43
0.0
 10
131.6000273929071
 20
124.7259763331776
 10
132.7203201834264
 20
124.5418194255879
 10
133.7130999733983
 20
124.0156679449606
 10
134.5067208767011
 20
123.1756799040655
 10
134.7976660328789
 20
122.6495213661644
 10
134.9950289617933
 20
122.0782785176376
 10
135.08925260254
 20
121.5019685025905
 10
135.086430383212
 20
120.9163579920309
 10
134.8164594479494
 20
119.8458388878421
 10
134.2214201591801
 20
118.9062964170121
 10
133.7952008993039
 20
118.4997754902349
 10
133.3059948353343
 20
118.1696330310559
 10
132.7591256991865
 20
117.9234585360359
 10
132.1747338742452
 20
117.77317535682
 10
131.6006688063911
 20
117.7261597484698
 10
131.0262830317947
 20
117.77317535682
 10
129.9780257788117
 20
118.1251900063284
 10
129.0763219001922
 20
118.8010404643473
 10
128.7036606661995
 20
119.2620884763849
 10
128.4127155100224
 20
119.7813196629143
 10
128.2131717752633
 20
120.3456924156398
 10
128.1123415756356
 20
120.9376529196878
 10
128.2025243114352
 20
122.0651295412231
 10
128.6293849847947
 20
123.0760613327823
 10
129.3820195664934
 20
123.9329897469201
 10
129.876228655635
 20
124.2718555752917
 10
130.4239957706602
 20
124.52174318355
 10
131.002486591552
 20
124.6740218396914
 10
131.6000273929071
 20
124.7259763331776
  0
LWPOLYLINE
  5
15B
330
70
100
AcDbEntity
  8
Standardebene
 62
     7
370
    35
100
AcDbPolyline
 90
       21
 70
     0
 43
0.0
 10
140.4420456151962
 20
103.7259634997941
 10
140.3326795485686
 20
103.7259634997941
 10
140.0088940220292
 20
103.7259634997941
 10
139.4780011249368
 20
103.7259634997941
 10
138.7532629864631
 20
103.7259634997941
 10
137.8522694659992
 20
103.7259634997941
 10
136.7974008508112
 20
103.7259634997941
 10
135.6138646908059
 20
103.7259634997941
 10
134.3323205505009
 20
103.7259634997941
 10
132.9833638530655
 20
103.7259634997941
 10
131.6000273929071
 20
103.7259634997941
 10
130.2172730142518
 20
103.7259634997941
 10
128.8683804240893
 20
103.7259634997941
 10
127.5865108017506
 20
103.7259634997941
 10
126.4032312071386
 20
103.7259634997941
 10
125.3481060265574
 20
103.7259634997941
 10
124.4470483647451
 20
103.7259634997941
 10
123.722635976326
 20
103.7259634997941
 10
123.1914814705274
 20
103.7259634997941
 10
122.8676318026396
 20
103.7259634997941
 10
122.7589763585111
 20
103.7259634997941
  0
LWPOLYLINE
  5
15C
330
70
100
AcDbEntity
  8
Standardebene
 62
     7
370
    35
100
AcDbPolyline
 90
       18
 70
     0
 43
0.0
 10
128.1004112848401
 20
109.2262191095524
 10
128.2770565582333
 20
108.1287606113274
 10
128.7894865636086
 20
107.1403424080744
 10
129.5990738893558
 20
106.3548608038255
 10
130.1934717646417
 20
106.0210050855929
 10
130.7568893686678
 20
105.8287093231988
 10
131.0296825232583
 20
105.7729704914706
 10
131.1922808413598
 20
105.7497579404217
 10
131.8333736182543
 20
105.7335235622272
 10
132.1706288279499
 20
105.7729704914706
 10
132.7409736975993
 20
105.9170319598955
 10
133.0071602933081
 20
106.0210050855929
 10
133.6376697477228
 20
106.3799400710361
 10
134.086146055481
 20
106.7626073553728
 10
134.4654138483553
 20
107.2148680026853
 10
134.7626448566725
 20
107.7272932347618
 10
134.9709118148091
 20
108.2816027673203
 10
135.1002207731098
 20
109.2262191095524
  0
LWPOLYLINE
  5
15D
330
70
100
AcDbEntity
  8
Standardebene
 62
     7
370
    35
100
AcDbPolyline
 90
       23
 70
     0
 43
0.0
 10
141.6004974403242
 20
105.2386730596022
 10
141.4987051204708
 20
105.2386730596022
 10
141.1952524013625
 20
105.2386730596022
 10
140.6969382659255
 20
105.2386730596022
 10
140.0129399838034
 20
105.2386730596022
 10
139.1576100465474
 20
105.2386730596022
 10
138.1491156262263
 20
105.2386730596022
 10
137.0066349100549
 20
105.2386730596022
 10
135.7547832331605
 20
105.2386730596022
 10
134.4178209678695
 20
105.2386730596022
 10
133.0234570760502
 20
105.2386730596022
 10
131.6000273929071
 20
105.2386730596022
 10
130.1768639637618
 20
105.2386730596022
 10
128.782554524687
 20
105.2386730596022
 10
127.4461695315311
 20
105.2386730596022
 10
126.1940662701247
 20
105.2386730596022
 10
125.0515164317236
 20
105.2386730596022
 10
124.0433427181441
 20
105.2386730596022
 10
123.1880819790637
 20
105.2386730596022
 10
122.5037579333727
 20
105.2386730596022
 10
122.005123091194
 20
105.2386730596022
 10
121.7019910788275
 20
105.2386730596022
 10
121.6005240574067
 20
105.2386730596022
  0
LWPOLYLINE
  5
15E
330
70
100
AcDbEntity
  8
Standardebene
 62
     7
370
    35
100
AcDbPolyline
 90
       23
 70
     0
 43
0.0
 10
141.6004974403242
 20
104.6129100649662
 10
141.4987051204708
 20
104.6129100649662
 10
141.1952524013625
 20
104.6129100649662
 10
140.6969382659255
 20
104.6129100649662
 10
140.0129399838034
 20
104.6129100649662
 10
139.1576100465474
 20
104.6129100649662
 10
138.1491156262263
 20
104.6129100649662
 10
137.0066349100549
 20
104.6129100649662
 10
135.7547832331605
 20
104.6129100649662
 10
134.4178209678695
 20
104.6129100649662
 10
133.0234570760502
 20
104.6129100649662
 10
131.6000273929071
 20
104.6129100649662
 10
130.1768639637618
 20
104.6129100649662
 10
128.782554524687
 20
104.6129100649662
 10
127.4461695315311
 20
104.6129100649662
 10
126.1940662701247
 20
104.6129100649662
 10
125.0515164317236
 20
104.6129100649662
 10
124.0433427181441
 20
104.6129100649662
 10
123.1880819790637
 20
104.6129100649662
 10
122.5037579333727
 20
104.6129100649662
 10
122.005123091194
 20
104.6129100649662
 10
121.7019910788275
 20
104.6129100649662
 10
121.6005240574067
 20
104.6129100649662
  0
LWPOLYLINE
  5
15F
330
70
100
AcDbEntity
  8
Standardebene
 62
     7
370
    35
100
AcDbPolyline
 90
        3
 70
     0
 43
0.0
 10
152.8490298441999
 20
195.5263441047718
 10
152.8496712576839
 20
195.5263441047718
 10
152.8506333779089
 20
195.5263441047718
  0
LINE
  5
160
330
70
100
AcDbEntity
  8
Standardebene
 62
     7
370
    35
100
AcDbLine
 10
152.8490298441999
 20
195.7255671327886
 30
0.0
 11
152.8490298441999
 21
195.5263441047718
 31
0.0
  0
LWPOLYLINE
  5
161
330
70
100
AcDbEntity
  8
Standardebene
 62
     7
370
    35
100
AcDbPolyline
 90
       14
 70
     0
 43
0.0
 10
152.8490298441999
 20
195.7255671327886
 10
152.6984259582423
 20
195.7255671327886
 10
152.3040849485028
 20
195.7255671327886
 10
151.6686366102643
 20
195.7255671327886
 10
150.80138143904
 20
195.7255671327886
 10
149.7102729620267
 20
195.7255671327886
 10
148.4101919720445
 20
195.7255671327886
 10
148.4101919720445
 20
183.7260036809232
 10
149.7102729620267
 20
183.7260036809232
 10
150.80138143904
 20
183.7260036809232
 10
151.6686366102643
 20
183.7260036809232
 10
152.3040849485028
 20
183.7260036809232
 10
152.6984259582423
 20
183.7260036809232
 10
152.8490298441999
 20
183.7260036809232
  0
LINE
  5
162
330
70
100
AcDbEntity
  8
Standardebene
 62
     7
370
    35
100
AcDbLine
 10
152.8490298441999
 20
183.9258039810757
 30
0.0
 11
152.8490298441999
 21
183.7260036809232
 31
0.0
  0
LWPOLYLINE
  5
163
330
70
100
AcDbEntity
  8
Standardebene
 62
     7
370
    35
100
AcDbPolyline
 90
        3
 70
     0
 43
0.0
 10
152.8506333779089
 20
183.9258039810757
 10
152.8496712576839
 20
183.9258039810757
 10
152.8490298441999
 20
183.9258039810757
  0
LWPOLYLINE
  5
164
330
70
100
AcDbEntity
  8
Standardebene
 62
     7
370
    35
100
AcDbPolyline
 90
       10
 70
     0
 43
0.0
 10
152.8506333779089
 20
191.9259619384247
 10
152.8374202601461
 20
191.8019125706894
 10
152.8061192821451
 20
191.4467619248006
 10
152.7688531587457
 20
190.8974000441349
 10
152.738770866363
 20
189.7229719259287
 10
152.737552180744
 20
189.4774301059919
 10
152.7572435746919
 20
188.7714904259024
 10
152.7929703057306
 20
188.170806698477
 10
152.8286970367687
 20
187.7436253183751
 10
152.8474904518392
 20
187.5531896550834
  0
LWPOLYLINE
  5
165
330
70
100
AcDbEntity
  8
Standardebene
 62
     7
370
    35
100
AcDbPolyline
 90
       12
 70
     0
 43
0.0
 10
110.4458899958443
 20
183.7260036809232
 10
110.8057871015125
 20
183.7260036809232
 10
111.4299465624388
 20
183.7260036809232
 10
112.3100300033359
 20
183.7260036809232
 10
113.4350051122856
 20
183.7260036809232
 10
114.7905042272537
 20
183.7260036809232
 10
114.7905042272537
 20
195.7255671327886
 10
113.4350051122856
 20
195.7255671327886
 10
112.3100300033359
 20
195.7255671327886
 10
111.4299465624388
 20
195.7255671327886
 10
110.8057871015125
 20
195.7255671327886
 10
110.4458899958443
 20
195.7255671327886
  0
LINE
  5
166
330
70
100
AcDbEntity
  8
Standardebene
 62
     7
370
    35
100
AcDbLine
 10
110.4458899958443
 20
183.7260036809232
 30
0.0
 11
110.4458899958443
 21
195.7255671327886
 31
0.0
  0
LINE
  5
167
330
70
100
AcDbEntity
  8
Standardebene
 62
     7
370
    35
100
AcDbLine
 10
114.7905042272537
 20
195.7255671327886
 30
0.0
 11
148.4101919720445
 21
195.7255671327886
 31
0.0
  0
LINE
  5
168
330
70
100
AcDbEntity
  8
Standardebene
 62
     7
370
    35
100
AcDbLine
 10
148.4101919720445
 20
183.7260036809232
 30
0.0
 11
114.7905042272537
 21
183.7260036809232
 31
0.0
  0
LINE
  5
169
330
70
100
AcDbEntity
  8
Standardebene
 62
     7
370
    35
100
AcDbLine
 10
140.7517791187764
 20
277.7257911212891
 30
0.0
 11
140.7517791187764
 21
253.7260228040743
 31
0.0
  0
LINE
  5
16A
330
70
100
AcDbEntity
  8
Standardebene
 62
     7
370
    35
100
AcDbLine
 10
122.4489170805218
 20
277.7257911212891
 30
0.0
 11
140.7517791187764
 21
277.7257911212891
 31
0.0
  0
LINE
  5
16B
330
70
100
AcDbEntity
  8
Standardebene
 62
     7
370
    35
100
AcDbLine
 10
122.4489170805218
 20
253.7260228040743
 30
0.0
 11
122.4489170805218
 21
277.7257911212891
 31
0.0
  0
LINE
  5
16C
330
70
100
AcDbEntity
  8
Standardebene
 62
     7
370
    35
100
AcDbLine
 10
140.7517791187764
 20
253.7260228040743
 30
0.0
 11
122.4489170805218
 21
253.7260228040743
 31
0.0
  0
LWPOLYLINE
  5
16D
330
70
100
AcDbEntity
  8
Standardebene
 62
     7
370
    35
100
AcDbPolyline
 90
       10
 70
     0
 43
0.0
 10
122.4489170805218
 20
277.7257911212891
 10
120.7264011702164
 20
277.7257911212891
 10
119.1488447072132
 20
277.7257911212891
 10
117.7360673681562
 20
277.7257911212891
 10
116.5077008686795
 20
277.7257911212891
 10
115.4798312981181
 20
277.7257911212891
 10
114.6661341527767
 20
277.7257911212891
 10
114.0761022907869
 20
277.7257911212891
 10
113.7196644163233
 20
277.7257911212891
 10
113.600682215109
 20
277.7257911212891
  0
LWPOLYLINE
  5
16E
330
70
100
AcDbEntity
  8
Standardebene
 62
     7
370
    35
100
AcDbPolyline
 90
       10
 70
     0
 43
0.0
 10
149.6003346909315
 20
277.7257911212891
 10
149.4809676416266
 20
277.7257911212891
 10
149.1242776033765
 20
277.7257911212891
 10
148.5348186119148
 20
277.7257911212891
 10
147.7205441944385
 20
277.7257911212891
 10
146.6926790869119
 20
277.7257911212891
 10
145.4646288311421
 20
277.7257911212891
 10
144.0515307853433
 20
277.7257911212891
 10
142.4739743223402
 20
277.7257911212891
 10
140.7517791187764
 20
277.7257911212891
  0
LWPOLYLINE
  5
16F
330
70
100
AcDbEntity
  8
Standardebene
 62
     7
370
    35
100
AcDbPolyline
 90
       10
 70
     0
 43
0.0
 10
140.7517791187764
 20
253.7260228040743
 10
142.4739743223402
 20
253.7260228040743
 10
144.0515307853433
 20
253.7260228040743
 10
145.4646288311421
 20
253.7260228040743
 10
146.6926790869119
 20
253.7260228040743
 10
147.7205441944385
 20
253.7260228040743
 10
148.5348186119148
 20
253.7260228040743
 10
149.1242776033765
 20
253.7260228040743
 10
149.4809676416266
 20
253.7260228040743
 10
149.6003346909315
 20
253.7260228040743
  0
LWPOLYLINE
  5
170
330
70
100
AcDbEntity
  8
Standardebene
 62
     7
370
    35
100
AcDbPolyline
 90
       10
 70
     0
 43
0.0
 10
113.600682215109
 20
253.7260228040743
 10
113.7196644163233
 20
253.7260228040743
 10
114.0761022907869
 20
253.7260228040743
 10
114.6661341527767
 20
253.7260228040743
 10
115.4798312981181
 20
253.7260228040743
 10
116.5077008686795
 20
253.7260228040743
 10
117.7360673681562
 20
253.7260228040743
 10
119.1488447072132
 20
253.7260228040743
 10
120.7264011702164
 20
253.7260228040743
 10
122.4489170805218
 20
253.7260228040743
  0
LWPOLYLINE
  5
171
330
70
100
AcDbEntity
  8
Standardebene
 62
     7
370
    35
100
AcDbPolyline
 90
        7
 70
     0
 43
0.0
 10
140.1000388780538
 20
260.8181958339876
 10
138.0185238409576
 20
259.6161869656535
 10
136.9414623192361
 20
258.9942083105712
 10
135.8503538422228
 20
258.3646609763828
 10
135.5481198087329
 20
258.1902606501819
 10
133.5712242049142
 20
257.0489936387481
 10
131.6000273929071
 20
255.9111902601256
  0
LWPOLYLINE
  5
172
330
70
100
AcDbEntity
  8
Standardebene
 62
     7
370
    35
100
AcDbPolyline
 90
        7
 70
     0
 43
0.0
 10
140.1000388780538
 20
270.6332973846334
 10
140.1000388780538
 20
268.2289589412234
 10
140.1000388780538
 20
266.9858996099362
 10
140.1000388780538
 20
265.7259069626814
 10
140.1000388780538
 20
265.3767214621903
 10
140.1000388780538
 20
263.0938667325803
 10
140.1000388780538
 20
260.8181958339876
  0
LWPOLYLINE
  5
173
330
70
100
AcDbEntity
  8
Standardebene
 62
     7
370
    35
100
AcDbPolyline
 90
        7
 70
     0
 43
0.0
 10
131.6000273929071
 20
275.5410085133271
 10
133.1346732938555
 20
274.6546392202907
 10
134.7119090501163
 20
273.7442169216176
 10
135.8503538422228
 20
273.0871529489806
 10
137.4494617982755
 20
272.1638490603189
 10
139.0489546024196
 20
271.2399462574566
 10
140.1000388780538
 20
270.6332973846334
  0
LWPOLYLINE
  5
174
330
70
100
AcDbEntity
  8
Standardebene
 62
     7
370
    35
100
AcDbPolyline
 90
        7
 70
     0
 43
0.0
 10
123.1006573212444
 20
270.6332973846334
 10
125.1827496304756
 20
271.8353062529676
 10
126.2588490319721
 20
272.4572849080499
 10
127.3506630638177
 20
273.0871529489806
 10
127.652901841893
 20
273.2618739819231
 10
129.629738248399
 20
274.4028202866153
 10
131.6000273929071
 20
275.5410085133271
  0
LWPOLYLINE
  5
175
330
70
100
AcDbEntity
  8
Standardebene
 62
     7
370
    35
100
AcDbPolyline
 90
        7
 70
     0
 43
0.0
 10
123.1006573212444
 20
260.8181958339876
 10
123.1006573212444
 20
263.2229191254883
 10
123.1006573212444
 20
264.4659784567749
 10
123.1006573212444
 20
265.7259069626814
 10
123.1006573212444
 20
266.0750924631731
 10
123.1006573212444
 20
268.3576264860408
 10
123.1006573212444
 20
270.6332973846334
  0
LWPOLYLINE
  5
176
330
70
100
AcDbEntity
  8
Standardebene
 62
     7
370
    35
100
AcDbPolyline
 90
        7
 70
     0
 43
0.0
 10
131.6000273929071
 20
255.9111902601256
 10
130.5492638240146
 20
256.51784955873
 10
128.9704886753924
 20
257.4292235518475
 10
127.3506630638177
 20
258.3646609763828
 10
126.2125389784536
 20
259.0214683836258
 10
124.6494143188323
 20
259.9240654377988
 10
123.1006573212444
 20
260.8181958339876
  0
SPLINE
  5
177
330
70
100
AcDbEntity
  8
Standardebene
 62
     7
370
    35
100
AcDbSpline
210
0.0
220
0.0
230
1.0
 70
     9
 71
     3
 72
    17
 73
    13
 74
     0
 42
0.0000000001
 43
0.0000000001
 40
0.0
 40
0.0
 40
0.0
 40
0.0
 40
1.0
 40
1.0
 40
1.0
 40
2.0
 40
2.0
 40
2.0
 40
3.0
 40
3.0
 40
3.0
 40
4.0
 40
4.0
 40
4.0
 40
4.0
 10
140.1000388780538
 20
265.7259069626814
 30
0.0
 10
140.1000388780538
 20
270.4200274013248
 30
0.0
 10
136.2944043969439
 20
274.2255977410864
 30
0.0
 10
131.6000273929071
 20
274.2255977410864
 30
0.0
 10
126.9059069542644
 20
274.2255977410864
 30
0.0
 10
123.1006573212444
 20
270.4200274013248
 30
0.0
 10
123.1006573212444
 20
265.7259069626814
 30
0.0
 10
123.1006573212444
 20
261.0315299586452
 30
0.0
 10
126.9059069542644
 20
257.2256389121413
 30
0.0
 10
131.6000273929071
 20
257.2256389121413
 30
0.0
 10
136.2944043969439
 20
257.2256389121413
 30
0.0
 10
140.1000388780538
 20
261.0315299586452
 30
0.0
 10
140.1000388780538
 20
265.7259069626814
 30
0.0
  0
SPLINE
  5
178
330
70
100
AcDbEntity
  8
Standardebene
 62
     7
370
    35
100
AcDbSpline
210
0.0
220
0.0
230
1.0
 70
     9
 71
     3
 72
    17
 73
    13
 74
     0
 42
0.0000000001
 43
0.0000000001
 40
0.0
 40
0.0
 40
0.0
 40
0.0
 40
1.0
 40
1.0
 40
1.0
 40
2.0
 40
2.0
 40
2.0
 40
3.0
 40
3.0
 40
3.0
 40
4.0
 40
4.0
 40
4.0
 40
4.0
 10
135.1002207731098
 20
265.7259069626814
 30
0.0
 10
135.1002207731098
 20
267.6589347783156
 30
0.0
 10
133.5333808084231
 20
269.225533817553
 30
0.0
 10
131.6000273929071
 20
269.225533817553
 30
0.0
 10
129.6676409907568
 20
269.225533817553
 30
0.0
 10
128.1004112848401
 20
267.6589347783156
 30
0.0
 10
128.1004112848401
 20
265.7259069626814
 30
0.0
 10
128.1004112848401
 20
263.7926225816538
 30
0.0
 10
129.6676409907568
 20
262.225392875737
 30
0.0
 10
131.6000273929071
 20
262.225392875737
 30
0.0
 10
133.5333808084231
 20
262.225392875737
 30
0.0
 10
135.1002207731098
 20
263.7926225816538
 30
0.0
 10
135.1002207731098
 20
265.7259069626814
 30
0.0
  0
SPLINE
  5
179
330
70
100
AcDbEntity
  8
Standardebene
 62
     7
370
    35
100
AcDbSpline
210
0.0
220
0.0
230
1.0
 70
    11
 71
     3
 72
    17
 73
    13
 74
     0
 42
0.0000000001
 43
0.0000000001
 40
0.0
 40
0.0
 40
0.0
 40
0.0
 40
1.0
 40
1.0
 40
1.0
 40
2.0
 40
2.0
 40
2.0
 40
3.0
 40
3.0
 40
3.0
 40
4.0
 40
4.0
 40
4.0
 40
4.0
 10
137.6001298255822
 20
265.7259069626814
 30
0.0
 10
137.6001298255822
 20
269.0397697258877
 30
0.0
 10
134.9138901561135
 20
271.7260093953564
 30
0.0
 10
131.6000273929071
 20
271.7260093953564
 30
0.0
 10
128.2868060431848
 20
271.7260093953564
 30
0.0
 10
125.6002456669744
 20
269.0397697258877
 30
0.0
 10
125.6002456669744
 20
265.7259069626814
 30
0.0
 10
125.6002456669744
 20
262.412044199475
 30
0.0
 10
128.2868060431848
 20
259.725804530007
 30
0.0
 10
131.6000273929071
 20
259.725804530007
 30
0.0
 10
134.9138901561135
 20
259.725804530007
 30
0.0
 10
137.6001298255822
 20
262.412044199475
 30
0.0
 10
137.6001298255822
 20
265.7259069626814
 30
0.0
  0
SPLINE
  5
17A
330
70
100
AcDbEntity
  8
Standardebene
 62
     7
370
    35
100
AcDbSpline
210
0.0
220
0.0
230
1.0
 70
    11
 71
     3
 72
    17
 73
    13
 74
     0
 42
0.0000000001
 43
0.0000000001
 40
0.0
 40
0.0
 40
0.0
 40
0.0
 40
1.0
 40
1.0
 40
1.0
 40
2.0
 40
2.0
 40
2.0
 40
3.0
 40
3.0
 40
3.0
 40
4.0
 40
4.0
 40
4.0
 40
4.0
 10
134.6000514586567
 20
265.7259069626814
 30
0.0
 10
134.6000514586567
 20
267.3826779909137
 30
0.0
 10
133.2571191278811
 20
268.7262468150864
 30
0.0
 10
131.6000273929071
 20
268.7262468150864
 30
0.0
 10
129.9435770714171
 20
268.7262468150864
 30
0.0
 10
128.6002695811566
 20
267.3826779909137
 30
0.0
 10
128.6002695811566
 20
265.7259069626814
 30
0.0
 10
128.6002695811566
 20
264.069135934449
 30
0.0
 10
129.9435770714171
 20
262.7255671102763
 30
0.0
 10
131.6000273929071
 20
262.7255671102763
 30
0.0
 10
133.2571191278811
 20
262.7255671102763
 30
0.0
 10
134.6000514586567
 20
264.069135934449
 30
0.0
 10
134.6000514586567
 20
265.7259069626814
 30
0.0
  0
LWPOLYLINE
  5
17B
330
70
100
AcDbEntity
  8
Standardebene
 62
     7
370
    35
100
AcDbPolyline
 90
       23
 70
     0
 43
0.0
 10
121.6005240574067
 20
278.6262073696174
 10
121.7019910788275
 20
278.6262073696174
 10
122.005123091194
 20
278.6262073696174
 10
122.5037579333727
 20
278.6262073696174
 10
123.1880819790637
 20
278.6262073696174
 10
124.0433427181441
 20
278.6262073696174
 10
125.0515164317236
 20
278.6262073696174
 10
126.1940662701247
 20
278.6262073696174
 10
127.4461695315311
 20
278.6262073696174
 10
128.782554524687
 20
278.6262073696174
 10
130.1768639637618
 20
278.6262073696174
 10
131.6000273929071
 20
278.6262073696174
 10
133.0234570760502
 20
278.6262073696174
 10
134.4178209678695
 20
278.6262073696174
 10
135.7547832331605
 20
278.6262073696174
 10
137.0066349100549
 20
278.6262073696174
 10
138.1491156262263
 20
278.6262073696174
 10
139.1576100465474
 20
278.6262073696174
 10
140.0129399838034
 20
278.6262073696174
 10
140.6969382659255
 20
278.6262073696174
 10
141.1952524013625
 20
278.6262073696174
 10
141.4987051204708
 20
278.6262073696174
 10
141.6004974403242
 20
278.6262073696174
  0
LWPOLYLINE
  5
17C
330
70
100
AcDbEntity
  8
Standardebene
 62
     7
370
    35
100
AcDbPolyline
 90
       23
 70
     0
 43
0.0
 10
142.1000302613802
 20
278.1257124283363
 10
141.9932349163547
 20
278.1257124283363
 10
141.6750296871223
 20
278.1257124283363
 10
141.151379719082
 20
278.1257124283363
 10
140.4335738895447
 20
278.1257124283363
 10
139.5356591538028
 20
278.1257124283363
 10
138.4764289269255
 20
278.1257124283363
 10
137.2772422779194
 20
278.1257124283363
 10
135.9621522124203
 20
278.1257124283363
 10
134.558739510224
 20
278.1257124283363
 10
133.0949056578697
 20
278.1257124283363
 10
131.6000273929071
 20
278.1257124283363
 10
130.1054698346868
 20
278.1257124283363
 10
128.6419614586454
 20
278.1257124283363
 10
127.2385487209965
 20
278.1257124283363
 10
125.9237746281205
 20
278.1257124283363
 10
124.723946565631
 20
278.1257124283363
 10
123.6650370454961
 20
278.1257124283363
 10
122.7668016030118
 20
278.1257124283363
 10
122.0489957734745
 20
278.1257124283363
 10
121.5253458054336
 20
278.1257124283363
 10
121.2077178483375
 20
278.1257124283363
 10
121.1006659379181
 20
278.1257124283363
  0
LINE
  5
17E
330
70
100
AcDbEntity
  8
Bemaßung
 62
     7
370
     9
100
AcDbLine
 10
93.7791259408285
 20
193.5516639509745
 30
0.0
 11
93.7791259408285
 21
205.923686135338
 31
0.0
  0
LINE
  5
17F
330
70
100
AcDbEntity
  8
Bemaßung
 62
     7
370
     9
100
AcDbLine
 10
117.156685622195
 20
193.4420911759922
 30
0.0
 11
117.156685622195
 21
205.923686135338
 31
0.0
  0
LINE
  5
180
330
70
100
AcDbEntity
  8
Bemaßung
 62
     7
370
     9
100
AcDbLine
 10
93.7791259408285
 20
204.8236544967354
 30
0.0
 11
117.156685622195
 21
204.8236544967354
 31
0.0
  0
LWPOLYLINE
  5
181
330
70
100
AcDbEntity
  8
Bemaßung
 62
     7
370
     9
100
AcDbPolyline
 90
        4
 70
     0
 43
0.0
 10
93.7791259408285
 20
204.8236544967354
 10
95.70388144727946
 20
204.5704658920837
 10
95.70388144727946
 20
205.0768783791641
 10
93.7791259408285
 20
204.8236544967354
  0
LINE
  5
182
330
70
100
AcDbEntity
  8
Bemaßung
 62
     7
370
     9
100
AcDbLine
 10
95.70388144727946
 20
204.5725120031427
 30
0.0
 11
95.68888839210641
 21
204.5725120031427
 31
0.0
  0
LINE
  5
183
330
70
100
AcDbEntity
  8
Bemaßung
 62
     7
370
     9
100
AcDbLine
 10
95.70388144727946
 20
204.5725120031427
 30
0.0
 11
95.68888839210641
 21
204.5725120031427
 31
0.0
  0
LINE
  5
184
330
70
100
AcDbEntity
  8
Bemaßung
 62
     7
370
     9
100
AcDbLine
 10
95.70388144727946
 20
204.600099224661
 30
0.0
 11
95.47686895307103
 21
204.600099224661
 31
0.0
  0
LINE
  5
185
330
70
100
AcDbEntity
  8
Bemaßung
 62
     7
370
     9
100
AcDbLine
 10
95.70388144727946
 20
204.6283214461633
 30
0.0
 11
95.26428506960561
 21
204.6283214461633
 31
0.0
  0
LINE
  5
186
330
70
100
AcDbEntity
  8
Bemaßung
 62
     7
370
     9
100
AcDbLine
 10
95.70388144727946
 20
204.6562261676736
 30
0.0
 11
95.05226563057023
 21
204.6562261676736
 31
0.0
  0
LINE
  5
187
330
70
100
AcDbEntity
  8
Bemaßung
 62
     7
370
     9
100
AcDbLine
 10
95.70388144727946
 20
204.6841360599402
 30
0.0
 11
94.84003452487359
 21
204.6841360599402
 31
0.0
  0
LINE
  5
188
330
70
100
AcDbEntity
  8
Bemaßung
 62
     7
370
     9
100
AcDbLine
 10
95.70388144727946
 20
204.7120356106942
 30
0.0
 11
94.62797980806133
 21
204.7120356106942
 31
0.0
  0
LINE
  5
189
330
70
100
AcDbEntity
  8
Bemaßung
 62
     7
370
     9
100
AcDbLine
 10
95.70388144727946
 20
204.7399403322045
 30
0.0
 11
94.41543120237279
 21
204.7399403322045
 31
0.0
  0
LINE
  5
18A
330
70
100
AcDbEntity
  8
Bemaßung
 62
     7
370
     9
100
AcDbLine
 10
95.70388144727946
 20
204.7678450537148
 30
0.0
 11
94.20337648556053
 21
204.7678450537148
 31
0.0
  0
LINE
  5
18B
330
70
100
AcDbEntity
  8
Bemaßung
 62
     7
370
     9
100
AcDbLine
 10
95.70388144727946
 20
204.7957497752252
 30
0.0
 11
93.99100426875637
 21
204.7957497752252
 31
0.0
  0
LINE
  5
18C
330
70
100
AcDbEntity
  8
Bemaßung
 62
     7
370
     9
100
AcDbLine
 10
95.70388144727946
 20
204.8236544967354
 30
0.0
 11
93.7791259408285
 21
204.8236544967354
 31
0.0
  0
LINE
  5
18D
330
70
100
AcDbEntity
  8
Bemaßung
 62
     7
370
     9
100
AcDbLine
 10
95.70388144727946
 20
205.0751497680971
 30
0.0
 11
95.68888839210641
 21
205.0751497680971
 31
0.0
  0
LINE
  5
18E
330
70
100
AcDbEntity
  8
Bemaßung
 62
     7
370
     9
100
AcDbLine
 10
95.70388144727946
 20
205.0751497680971
 30
0.0
 11
95.68888839210641
 21
205.0751497680971
 31
0.0
  0
LINE
  5
18F
330
70
100
AcDbEntity
  8
Bemaßung
 62
     7
370
     9
100
AcDbLine
 10
95.70388144727946
 20
205.0472450465867
 30
0.0
 11
95.47686895307103
 21
205.0472450465867
 31
0.0
  0
LINE
  5
190
330
70
100
AcDbEntity
  8
Bemaßung
 62
     7
370
     9
100
AcDbLine
 10
95.70388144727946
 20
205.0190228250845
 30
0.0
 11
95.26428506960561
 21
205.0190228250845
 31
0.0
  0
LINE
  5
191
330
70
100
AcDbEntity
  8
Bemaßung
 62
     7
370
     9
100
AcDbLine
 10
95.70388144727946
 20
204.9910828257973
 30
0.0
 11
95.05226563057023
 21
204.9910828257973
 31
0.0
  0
LINE
  5
192
330
70
100
AcDbEntity
  8
Bemaßung
 62
     7
370
     9
100
AcDbLine
 10
95.70388144727946
 20
204.9631832820924
 30
0.0
 11
94.84003452487359
 21
204.9631832820924
 31
0.0
  0
LINE
  5
193
330
70
100
AcDbEntity
  8
Bemaßung
 62
     7
370
     9
100
AcDbLine
 10
95.70388144727946
 20
204.9352733827767
 30
0.0
 11
94.62797980806133
 21
204.9352733827767
 31
0.0
  0
LINE
  5
194
330
70
100
AcDbEntity
  8
Bemaßung
 62
     7
370
     9
100
AcDbLine
 10
95.70388144727946
 20
204.9073686612664
 30
0.0
 11
94.41543120237279
 21
204.9073686612664
 31
0.0
  0
LINE
  5
195
330
70
100
AcDbEntity
  8
Bemaßung
 62
     7
370
     9
100
AcDbLine
 10
95.70388144727946
 20
204.8794639397561
 30
0.0
 11
94.20337648556053
 21
204.8794639397561
 31
0.0
  0
LINE
  5
196
330
70
100
AcDbEntity
  8
Bemaßung
 62
     7
370
     9
100
AcDbLine
 10
95.70388144727946
 20
204.8515592182458
 30
0.0
 11
93.99100426875637
 21
204.8515592182458
 31
0.0
  0
LINE
  5
197
330
70
100
AcDbEntity
  8
Bemaßung
 62
     7
370
     9
100
AcDbLine
 10
95.70388144727946
 20
204.8236544967354
 30
0.0
 11
93.7791259408285
 21
204.8236544967354
 31
0.0
  0
LWPOLYLINE
  5
198
330
70
100
AcDbEntity
  8
Bemaßung
 62
     7
370
     9
100
AcDbPolyline
 90
        4
 70
     0
 43
0.0
 10
117.156685622195
 20
204.8236544967354
 10
115.231365671314
 20
205.0768783791641
 10
115.231365671314
 20
204.5704658920837
 10
117.156685622195
 20
204.8236544967354
  0
LINE
  5
199
330
70
100
AcDbEntity
  8
Bemaßung
 62
     7
370
     9
100
AcDbLine
 10
115.231365671314
 20
205.0751497680971
 30
0.0
 11
115.2463587264871
 21
205.0751497680971
 31
0.0
  0
LINE
  5
19A
330
70
100
AcDbEntity
  8
Bemaßung
 62
     7
370
     9
100
AcDbLine
 10
115.231365671314
 20
205.0751497680971
 30
0.0
 11
115.2463587264871
 21
205.0751497680971
 31
0.0
  0
LINE
  5
19B
330
70
100
AcDbEntity
  8
Bemaßung
 62
     7
370
     9
100
AcDbLine
 10
115.231365671314
 20
205.0472450465867
 30
0.0
 11
115.4587662210681
 21
205.0472450465867
 31
0.0
  0
LINE
  5
19C
330
70
100
AcDbEntity
  8
Bemaßung
 62
     7
370
     9
100
AcDbLine
 10
115.231365671314
 20
205.0190228250845
 30
0.0
 11
115.6707856601035
 21
205.0190228250845
 31
0.0
  0
LINE
  5
19D
330
70
100
AcDbEntity
  8
Bemaßung
 62
     7
370
     9
100
AcDbLine
 10
115.231365671314
 20
204.9910828257973
 30
0.0
 11
115.8831931546845
 21
204.9910828257973
 31
0.0
  0
LINE
  5
19E
330
70
100
AcDbEntity
  8
Bemaßung
 62
     7
370
     9
100
AcDbLine
 10
115.231365671314
 20
204.9631832820924
 30
0.0
 11
116.0954242603812
 21
204.9631832820924
 31
0.0
  0
LINE
  5
19F
330
70
100
AcDbEntity
  8
Bemaßung
 62
     7
370
     9
100
AcDbLine
 10
115.231365671314
 20
204.9352733827767
 30
0.0
 11
116.307620088301
 21
204.9352733827767
 31
0.0
  0
LINE
  5
1A0
330
70
100
AcDbEntity
  8
Bemaßung
 62
     7
370
     9
100
AcDbLine
 10
115.231365671314
 20
204.9073686612664
 30
0.0
 11
116.5196777486477
 21
204.9073686612664
 31
0.0
  0
LINE
  5
1A1
330
70
100
AcDbEntity
  8
Bemaßung
 62
     7
370
     9
100
AcDbLine
 10
115.231365671314
 20
204.8794639397561
 30
0.0
 11
116.732049970817
 21
204.8794639397561
 31
0.0
  0
LINE
  5
1A2
330
70
100
AcDbEntity
  8
Bemaßung
 62
     7
370
     9
100
AcDbLine
 10
115.231365671314
 20
204.8515592182458
 30
0.0
 11
116.944278127614
 21
204.8515592182458
 31
0.0
  0
LINE
  5
1A3
330
70
100
AcDbEntity
  8
Bemaßung
 62
     7
370
     9
100
AcDbLine
 10
115.231365671314
 20
204.8236544967354
 30
0.0
 11
117.156685622195
 21
204.8236544967354
 31
0.0
  0
LINE
  5
1A4
330
70
100
AcDbEntity
  8
Bemaßung
 62
     7
370
     9
100
AcDbLine
 10
115.231365671314
 20
204.5725120031427
 30
0.0
 11
115.2463587264871
 21
204.5725120031427
 31
0.0
  0
LINE
  5
1A5
330
70
100
AcDbEntity
  8
Bemaßung
 62
     7
370
     9
100
AcDbLine
 10
115.231365671314
 20
204.5725120031427
 30
0.0
 11
115.2463587264871
 21
204.5725120031427
 31
0.0
  0
LINE
  5
1A6
330
70
100
AcDbEntity
  8
Bemaßung
 62
     7
370
     9
100
AcDbLine
 10
115.231365671314
 20
204.600099224661
 30
0.0
 11
115.4587662210681
 21
204.600099224661
 31
0.0
  0
LINE
  5
1A7
330
70
100
AcDbEntity
  8
Bemaßung
 62
     7
370
     9
100
AcDbLine
 10
115.231365671314
 20
204.6283214461633
 30
0.0
 11
115.6707856601035
 21
204.6283214461633
 31
0.0
  0
LINE
  5
1A8
330
70
100
AcDbEntity
  8
Bemaßung
 62
     7
370
     9
100
AcDbLine
 10
115.231365671314
 20
204.6562261676736
 30
0.0
 11
115.8831931546845
 21
204.6562261676736
 31
0.0
  0
LINE
  5
1A9
330
70
100
AcDbEntity
  8
Bemaßung
 62
     7
370
     9
100
AcDbLine
 10
115.231365671314
 20
204.6841360599402
 30
0.0
 11
116.0954242603812
 21
204.6841360599402
 31
0.0
  0
LINE
  5
1AA
330
70
100
AcDbEntity
  8
Bemaßung
 62
     7
370
     9
100
AcDbLine
 10
115.231365671314
 20
204.7120356106942
 30
0.0
 11
116.307620088301
 21
204.7120356106942
 31
0.0
  0
LINE
  5
1AB
330
70
100
AcDbEntity
  8
Bemaßung
 62
     7
370
     9
100
AcDbLine
 10
115.231365671314
 20
204.7399403322045
 30
0.0
 11
116.5196777486477
 21
204.7399403322045
 31
0.0
  0
LINE
  5
1AC
330
70
100
AcDbEntity
  8
Bemaßung
 62
     7
370
     9
100
AcDbLine
 10
115.231365671314
 20
204.7678450537148
 30
0.0
 11
116.732049970817
 21
204.7678450537148
 31
0.0
  0
LINE
  5
1AD
330
70
100
AcDbEntity
  8
Bemaßung
 62
     7
370
     9
100
AcDbLine
 10
115.231365671314
 20
204.7957497752252
 30
0.0
 11
116.944278127614
 21
204.7957497752252
 31
0.0
  0
LINE
  5
1AE
330
70
100
AcDbEntity
  8
Bemaßung
 62
     7
370
     9
100
AcDbLine
 10
115.231365671314
 20
204.8236544967354
 30
0.0
 11
117.156685622195
 21
204.8236544967354
 31
0.0
  0
LINE
  5
1AF
330
70
100
AcDbEntity
  8
Bemaßung
 62
     7
370
     9
100
AcDbLine
 10
110.9691046689422
 20
239.1470616766279
 30
0.0
 11
123.8187879522306
 21
239.1470616766279
 31
0.0
  0
LINE
  5
1B0
330
70
100
AcDbEntity
  8
Bemaßung
 62
     7
370
     9
100
AcDbLine
 10
115.3690195566911
 20
225.4519464704639
 30
0.0
 11
123.8187879522306
 21
225.4519464704639
 31
0.0
  0
LINE
  5
1B1
330
70
100
AcDbEntity
  8
Bemaßung
 62
     7
370
     9
100
AcDbLine
 10
122.7189327025125
 20
239.1470616766279
 30
0.0
 11
122.7189327025125
 21
225.4519464704639
 31
0.0
  0
LWPOLYLINE
  5
1B2
330
70
100
AcDbEntity
  8
Bemaßung
 62
     7
370
     9
100
AcDbPolyline
 90
        4
 70
     0
 43
0.0
 10
122.7189327025125
 20
239.1470616766279
 10
122.4652149312076
 20
237.2216006146394
 10
122.9721565849411
 20
237.2216006146394
 10
122.7189327025125
 20
239.1470616766279
  0
LINE
  5
1B3
330
70
100
AcDbEntity
  8
Bemaßung
 62
     7
370
     9
100
AcDbLine
 10
122.4674727089278
 20
237.2216006146394
 30
0.0
 11
122.4674727089278
 21
237.2367700586968
 31
0.0
  0
LINE
  5
1B4
330
70
100
AcDbEntity
  8
Bemaßung
 62
     7
370
     9
100
AcDbLine
 10
122.4674727089278
 20
237.2216006146394
 30
0.0
 11
122.4674727089278
 21
237.2367700586968
 31
0.0
  0
LINE
  5
1B5
330
70
100
AcDbEntity
  8
Bemaßung
 62
     7
370
     9
100
AcDbLine
 10
122.4953805249316
 20
237.2216006146394
 30
0.0
 11
122.4953805249316
 21
237.4489658866167
 31
0.0
  0
LINE
  5
1B6
330
70
100
AcDbEntity
  8
Bemaßung
 62
     7
370
     9
100
AcDbLine
 10
122.5232821519484
 20
237.2216006146394
 30
0.0
 11
122.5232821519484
 21
237.6611969923133
 31
0.0
  0
LINE
  5
1B7
330
70
100
AcDbEntity
  8
Bemaßung
 62
     7
370
     9
100
AcDbLine
 10
122.5513279845662
 20
237.2216006146394
 30
0.0
 11
122.5513279845662
 21
237.8736044868943
 31
0.0
  0
LINE
  5
1B8
330
70
100
AcDbEntity
  8
Bemaßung
 62
     7
370
     9
100
AcDbLine
 10
122.5792679838534
 20
237.2216006146394
 30
0.0
 11
122.5792679838534
 21
238.0856239259297
 31
0.0
  0
LINE
  5
1B9
330
70
100
AcDbEntity
  8
Bemaßung
 62
     7
370
     9
100
AcDbLine
 10
122.6071727053637
 20
237.2216006146394
 30
0.0
 11
122.6071727053637
 21
238.2978610515366
 31
0.0
  0
LINE
  5
1BA
330
70
100
AcDbEntity
  8
Bemaßung
 62
     7
370
     9
100
AcDbLine
 10
122.6350805248969
 20
237.2216006146394
 30
0.0
 11
122.6350805248969
 21
238.510086137323
 31
0.0
  0
LINE
  5
1BB
330
70
100
AcDbEntity
  8
Bemaßung
 62
     7
370
     9
100
AcDbLine
 10
122.6629821483844
 20
237.2216006146394
 30
0.0
 11
122.6629821483844
 21
238.7224583541271
 31
0.0
  0
LINE
  5
1BC
330
70
100
AcDbEntity
  8
Bemaßung
 62
     7
370
     9
100
AcDbLine
 10
122.6908868698947
 20
237.2216006146394
 30
0.0
 11
122.6908868698947
 21
238.9345130709394
 31
0.0
  0
LINE
  5
1BD
330
70
100
AcDbEntity
  8
Bemaßung
 62
     7
370
     9
100
AcDbLine
 10
122.7189327025125
 20
237.2216006146394
 30
0.0
 11
122.7189327025125
 21
239.1470616766279
 31
0.0
  0
LINE
  5
1BE
330
70
100
AcDbEntity
  8
Bemaßung
 62
     7
370
     9
100
AcDbLine
 10
122.9701104738822
 20
237.2216006146394
 30
0.0
 11
122.9701104738822
 21
237.2367700586968
 31
0.0
  0
LINE
  5
1BF
330
70
100
AcDbEntity
  8
Bemaßung
 62
     7
370
     9
100
AcDbLine
 10
122.9701104738822
 20
237.2216006146394
 30
0.0
 11
122.9701104738822
 21
237.2367700586968
 31
0.0
  0
LINE
  5
1C0
330
70
100
AcDbEntity
  8
Bemaßung
 62
     7
370
     9
100
AcDbLine
 10
122.9422057523719
 20
237.2216006146394
 30
0.0
 11
122.9422057523719
 21
237.4489658866167
 31
0.0
  0
LINE
  5
1C1
330
70
100
AcDbEntity
  8
Bemaßung
 62
     7
370
     9
100
AcDbLine
 10
122.9143010308616
 20
237.2216006146394
 30
0.0
 11
122.9143010308616
 21
237.6611969923133
 31
0.0
  0
LINE
  5
1C2
330
70
100
AcDbEntity
  8
Bemaßung
 62
     7
370
     9
100
AcDbLine
 10
122.8863963093512
 20
237.2216006146394
 30
0.0
 11
122.8863963093512
 21
237.8736044868943
 31
0.0
  0
LINE
  5
1C3
330
70
100
AcDbEntity
  8
Bemaßung
 62
     7
370
     9
100
AcDbLine
 10
122.8583151989566
 20
237.2216006146394
 30
0.0
 11
122.8583151989566
 21
238.0856239259297
 31
0.0
  0
LINE
  5
1C4
330
70
100
AcDbEntity
  8
Bemaßung
 62
     7
370
     9
100
AcDbLine
 10
122.8304104774462
 20
237.2216006146394
 30
0.0
 11
122.8304104774462
 21
238.2978610515366
 31
0.0
  0
LINE
  5
1C5
330
70
100
AcDbEntity
  8
Bemaßung
 62
     7
370
     9
100
AcDbLine
 10
122.8025057559359
 20
237.2216006146394
 30
0.0
 11
122.8025057559359
 21
238.510086137323
 31
0.0
  0
LINE
  5
1C6
330
70
100
AcDbEntity
  8
Bemaßung
 62
     7
370
     9
100
AcDbLine
 10
122.7746010344256
 20
237.2216006146394
 30
0.0
 11
122.7746010344256
 21
238.7224583541271
 31
0.0
  0
LINE
  5
1C7
330
70
100
AcDbEntity
  8
Bemaßung
 62
     7
370
     9
100
AcDbLine
 10
122.7466963129153
 20
237.2216006146394
 30
0.0
 11
122.7466963129153
 21
238.9345130709394
 31
0.0
  0
LINE
  5
1C8
330
70
100
AcDbEntity
  8
Bemaßung
 62
     7
370
     9
100
AcDbLine
 10
122.7189327025125
 20
237.2216006146394
 30
0.0
 11
122.7189327025125
 21
239.1470616766279
 31
0.0
  0
LWPOLYLINE
  5
1C9
330
70
100
AcDbEntity
  8
Bemaßung
 62
     7
370
     9
100
AcDbPolyline
 90
        4
 70
     0
 43
0.0
 10
122.7189327025125
 20
225.4519464704639
 10
122.9721565849411
 20
227.3767372546917
 10
122.4652149312076
 20
227.3767372546917
 10
122.7189327025125
 20
225.4519464704639
  0
LINE
  5
1CA
330
70
100
AcDbEntity
  8
Bemaßung
 62
     7
370
     9
100
AcDbLine
 10
122.9701104738822
 20
227.3767372546917
 30
0.0
 11
122.9701104738822
 21
227.3617499431595
 31
0.0
  0
LINE
  5
1CB
330
70
100
AcDbEntity
  8
Bemaßung
 62
     7
370
     9
100
AcDbLine
 10
122.9701104738822
 20
227.3767372546917
 30
0.0
 11
122.9701104738822
 21
227.3617499431595
 31
0.0
  0
LINE
  5
1CC
330
70
100
AcDbEntity
  8
Bemaßung
 62
     7
370
     9
100
AcDbLine
 10
122.9422057523719
 20
227.3767372546917
 30
0.0
 11
122.9422057523719
 21
227.1496894827064
 31
0.0
  0
LINE
  5
1CD
330
70
100
AcDbEntity
  8
Bemaßung
 62
     7
370
     9
100
AcDbLine
 10
122.9143010308616
 20
227.3767372546917
 30
0.0
 11
122.9143010308616
 21
226.9373172659022
 31
0.0
  0
LINE
  5
1CE
330
70
100
AcDbEntity
  8
Bemaßung
 62
     7
370
     9
100
AcDbLine
 10
122.8863963093512
 20
227.3767372546917
 30
0.0
 11
122.8863963093512
 21
226.7254389379744
 31
0.0
  0
LINE
  5
1CF
330
70
100
AcDbEntity
  8
Bemaßung
 62
     7
370
     9
100
AcDbLine
 10
122.8583151989566
 20
227.3767372546917
 30
0.0
 11
122.8583151989566
 21
226.512855054509
 31
0.0
  0
LINE
  5
1D0
330
70
100
AcDbEntity
  8
Bemaßung
 62
     7
370
     9
100
AcDbLine
 10
122.8304104774462
 20
227.3767372546917
 30
0.0
 11
122.8304104774462
 21
226.3008356154736
 31
0.0
  0
LINE
  5
1D1
330
70
100
AcDbEntity
  8
Bemaßung
 62
     7
370
     9
100
AcDbLine
 10
122.8025057559359
 20
227.3767372546917
 30
0.0
 11
122.8025057559359
 21
226.0884281208926
 31
0.0
  0
LINE
  5
1D2
330
70
100
AcDbEntity
  8
Bemaßung
 62
     7
370
     9
100
AcDbLine
 10
122.7746010344256
 20
227.3767372546917
 30
0.0
 11
122.7746010344256
 21
225.8765554990863
 31
0.0
  0
LINE
  5
1D3
330
70
100
AcDbEntity
  8
Bemaßung
 62
     7
370
     9
100
AcDbLine
 10
122.7466963129153
 20
227.3767372546917
 30
0.0
 11
122.7466963129153
 21
225.6640011872761
 31
0.0
  0
LINE
  5
1D4
330
70
100
AcDbEntity
  8
Bemaßung
 62
     7
370
     9
100
AcDbLine
 10
122.7189327025125
 20
227.3767372546917
 30
0.0
 11
122.7189327025125
 21
225.4519464704639
 31
0.0
  0
LINE
  5
1D5
330
70
100
AcDbEntity
  8
Bemaßung
 62
     7
370
     9
100
AcDbLine
 10
122.4674727089278
 20
227.3767372546917
 30
0.0
 11
122.4674727089278
 21
227.3617499431595
 31
0.0
  0
LINE
  5
1D6
330
70
100
AcDbEntity
  8
Bemaßung
 62
     7
370
     9
100
AcDbLine
 10
122.4674727089278
 20
227.3767372546917
 30
0.0
 11
122.4674727089278
 21
227.3617499431595
 31
0.0
  0
LINE
  5
1D7
330
70
100
AcDbEntity
  8
Bemaßung
 62
     7
370
     9
100
AcDbLine
 10
122.4953805249316
 20
227.3767372546917
 30
0.0
 11
122.4953805249316
 21
227.1496894827064
 31
0.0
  0
LINE
  5
1D8
330
70
100
AcDbEntity
  8
Bemaßung
 62
     7
370
     9
100
AcDbLine
 10
122.5232821519484
 20
227.3767372546917
 30
0.0
 11
122.5232821519484
 21
226.9373172659022
 31
0.0
  0
LINE
  5
1D9
330
70
100
AcDbEntity
  8
Bemaßung
 62
     7
370
     9
100
AcDbLine
 10
122.5513279845662
 20
227.3767372546917
 30
0.0
 11
122.5513279845662
 21
226.7254389379744
 31
0.0
  0
LINE
  5
1DA
330
70
100
AcDbEntity
  8
Bemaßung
 62
     7
370
     9
100
AcDbLine
 10
122.5792679838534
 20
227.3767372546917
 30
0.0
 11
122.5792679838534
 21
226.512855054509
 31
0.0
  0
LINE
  5
1DB
330
70
100
AcDbEntity
  8
Bemaßung
 62
     7
370
     9
100
AcDbLine
 10
122.6071727053637
 20
227.3767372546917
 30
0.0
 11
122.6071727053637
 21
226.3008356154736
 31
0.0
  0
LINE
  5
1DC
330
70
100
AcDbEntity
  8
Bemaßung
 62
     7
370
     9
100
AcDbLine
 10
122.6350805248969
 20
227.3767372546917
 30
0.0
 11
122.6350805248969
 21
226.0884281208926
 31
0.0
  0
LINE
  5
1DD
330
70
100
AcDbEntity
  8
Bemaßung
 62
     7
370
     9
100
AcDbLine
 10
122.6629821483844
 20
227.3767372546917
 30
0.0
 11
122.6629821483844
 21
225.8765554990863
 31
0.0
  0
LINE
  5
1DE
330
70
100
AcDbEntity
  8
Bemaßung
 62
     7
370
     9
100
AcDbLine
 10
122.6908868698947
 20
227.3767372546917
 30
0.0
 11
122.6908868698947
 21
225.6640011872761
 31
0.0
  0
LINE
  5
1DF
330
70
100
AcDbEntity
  8
Bemaßung
 62
     7
370
     9
100
AcDbLine
 10
122.7189327025125
 20
227.3767372546917
 30
0.0
 11
122.7189327025125
 21
225.4519464704639
 31
0.0
  0
LINE
  5
1E0
330
70
100
AcDbEntity
  8
Bemaßung
 62
     7
370
     9
100
AcDbLine
 10
115.3690195566911
 20
225.4519464704639
 30
0.0
 11
123.8187879522306
 21
225.4519464704639
 31
0.0
  0
LINE
  5
1E1
330
70
100
AcDbEntity
  8
Bemaßung
 62
     7
370
     9
100
AcDbLine
 10
110.3319555279727
 20
142.9518313529949
 30
0.0
 11
123.8187879522306
 21
142.9518313529949
 31
0.0
  0
LINE
  5
1E2
330
70
100
AcDbEntity
  8
Bemaßung
 62
     7
370
     9
100
AcDbLine
 10
122.7189327025125
 20
225.4519464704639
 30
0.0
 11
122.7189327025125
 21
142.9518313529949
 31
0.0
  0
LWPOLYLINE
  5
1E3
330
70
100
AcDbEntity
  8
Bemaßung
 62
     7
370
     9
100
AcDbPolyline
 90
        4
 70
     0
 43
0.0
 10
122.7189327025125
 20
225.4519464704639
 10
122.4652149312076
 20
223.5270145751286
 10
122.9721565849411
 20
223.5270145751286
 10
122.7189327025125
 20
225.4519464704639
  0
LINE
  5
1E4
330
70
100
AcDbEntity
  8
Bemaßung
 62
     7
370
     9
100
AcDbLine
 10
122.4674727089278
 20
223.5270145751286
 30
0.0
 11
122.4674727089278
 21
223.5418312414172
 31
0.0
  0
LINE
  5
1E5
330
70
100
AcDbEntity
  8
Bemaßung
 62
     7
370
     9
100
AcDbLine
 10
122.4674727089278
 20
223.5270145751286
 30
0.0
 11
122.4674727089278
 21
223.5418312414172
 31
0.0
  0
LINE
  5
1E6
330
70
100
AcDbEntity
  8
Bemaßung
 62
     7
370
     9
100
AcDbLine
 10
122.4953805249316
 20
223.5270145751286
 30
0.0
 11
122.4953805249316
 21
223.7542034582213
 31
0.0
  0
LINE
  5
1E7
330
70
100
AcDbEntity
  8
Bemaßung
 62
     7
370
     9
100
AcDbLine
 10
122.5232821519484
 20
223.5270145751286
 30
0.0
 11
122.5232821519484
 21
223.9662638328972
 31
0.0
  0
LINE
  5
1E8
330
70
100
AcDbEntity
  8
Bemaßung
 62
     7
370
     9
100
AcDbLine
 10
122.5513279845662
 20
223.5270145751286
 30
0.0
 11
122.5513279845662
 21
224.1783128918459
 31
0.0
  0
LINE
  5
1E9
330
70
100
AcDbEntity
  8
Bemaßung
 62
     7
370
     9
100
AcDbLine
 10
122.5792679838534
 20
223.5270145751286
 30
0.0
 11
122.5792679838534
 21
224.39068510865
 31
0.0
  0
LINE
  5
1EA
330
70
100
AcDbEntity
  8
Bemaßung
 62
     7
370
     9
100
AcDbLine
 10
122.6071727053637
 20
223.5270145751286
 30
0.0
 11
122.6071727053637
 21
224.6030926032311
 31
0.0
  0
LINE
  5
1EB
330
70
100
AcDbEntity
  8
Bemaßung
 62
     7
370
     9
100
AcDbLine
 10
122.6350805248969
 20
223.5270145751286
 30
0.0
 11
122.6350805248969
 21
224.8151120422664
 31
0.0
  0
LINE
  5
1EC
330
70
100
AcDbEntity
  8
Bemaßung
 62
     7
370
     9
100
AcDbLine
 10
122.6629821483844
 20
223.5270145751286
 30
0.0
 11
122.6629821483844
 21
225.0271667590787
 31
0.0
  0
LINE
  5
1ED
330
70
100
AcDbEntity
  8
Bemaßung
 62
     7
370
     9
100
AcDbLine
 10
122.6908868698947
 20
223.5270145751286
 30
0.0
 11
122.6908868698947
 21
225.2395742536597
 31
0.0
  0
LINE
  5
1EE
330
70
100
AcDbEntity
  8
Bemaßung
 62
     7
370
     9
100
AcDbLine
 10
122.7189327025125
 20
223.5270145751286
 30
0.0
 11
122.7189327025125
 21
225.4519464704639
 31
0.0
  0
LINE
  5
1EF
330
70
100
AcDbEntity
  8
Bemaßung
 62
     7
370
     9
100
AcDbLine
 10
122.9701104738822
 20
223.5270145751286
 30
0.0
 11
122.9701104738822
 21
223.5418312414172
 31
0.0
  0
LINE
  5
1F0
330
70
100
AcDbEntity
  8
Bemaßung
 62
     7
370
     9
100
AcDbLine
 10
122.9701104738822
 20
223.5270145751286
 30
0.0
 11
122.9701104738822
 21
223.5418312414172
 31
0.0
  0
LINE
  5
1F1
330
70
100
AcDbEntity
  8
Bemaßung
 62
     7
370
     9
100
AcDbLine
 10
122.9422057523719
 20
223.5270145751286
 30
0.0
 11
122.9422057523719
 21
223.7542034582213
 31
0.0
  0
LINE
  5
1F2
330
70
100
AcDbEntity
  8
Bemaßung
 62
     7
370
     9
100
AcDbLine
 10
122.9143010308616
 20
223.5270145751286
 30
0.0
 11
122.9143010308616
 21
223.9662638328972
 31
0.0
  0
LINE
  5
1F3
330
70
100
AcDbEntity
  8
Bemaßung
 62
     7
370
     9
100
AcDbLine
 10
122.8863963093512
 20
223.5270145751286
 30
0.0
 11
122.8863963093512
 21
224.1783128918459
 31
0.0
  0
LINE
  5
1F4
330
70
100
AcDbEntity
  8
Bemaßung
 62
     7
370
     9
100
AcDbLine
 10
122.8583151989566
 20
223.5270145751286
 30
0.0
 11
122.8583151989566
 21
224.39068510865
 31
0.0
  0
LINE
  5
1F5
330
70
100
AcDbEntity
  8
Bemaßung
 62
     7
370
     9
100
AcDbLine
 10
122.8304104774462
 20
223.5270145751286
 30
0.0
 11
122.8304104774462
 21
224.6030926032311
 31
0.0
  0
LINE
  5
1F6
330
70
100
AcDbEntity
  8
Bemaßung
 62
     7
370
     9
100
AcDbLine
 10
122.8025057559359
 20
223.5270145751286
 30
0.0
 11
122.8025057559359
 21
224.8151120422664
 31
0.0
  0
LINE
  5
1F7
330
70
100
AcDbEntity
  8
Bemaßung
 62
     7
370
     9
100
AcDbLine
 10
122.7746010344256
 20
223.5270145751286
 30
0.0
 11
122.7746010344256
 21
225.0271667590787
 31
0.0
  0
LINE
  5
1F8
330
70
100
AcDbEntity
  8
Bemaßung
 62
     7
370
     9
100
AcDbLine
 10
122.7466963129153
 20
223.5270145751286
 30
0.0
 11
122.7466963129153
 21
225.2395742536597
 31
0.0
  0
LINE
  5
1F9
330
70
100
AcDbEntity
  8
Bemaßung
 62
     7
370
     9
100
AcDbLine
 10
122.7189327025125
 20
223.5270145751286
 30
0.0
 11
122.7189327025125
 21
225.4519464704639
 31
0.0
  0
LWPOLYLINE
  5
1FA
330
70
100
AcDbEntity
  8
Bemaßung
 62
     7
370
     9
100
AcDbPolyline
 90
        4
 70
     0
 43
0.0
 10
122.7189327025125
 20
142.9518313529949
 10
122.9721565849411
 20
144.8765868594459
 10
122.4652149312076
 20
144.8765868594459
 10
122.7189327025125
 20
142.9518313529949
  0
LINE
  5
1FB
330
70
100
AcDbEntity
  8
Bemaßung
 62
     7
370
     9
100
AcDbLine
 10
122.9701104738822
 20
144.8765868594459
 30
0.0
 11
122.9701104738822
 21
144.8617701931572
 31
0.0
  0
LINE
  5
1FC
330
70
100
AcDbEntity
  8
Bemaßung
 62
     7
370
     9
100
AcDbLine
 10
122.9701104738822
 20
144.8765868594459
 30
0.0
 11
122.9701104738822
 21
144.8617701931572
 31
0.0
  0
LINE
  5
1FD
330
70
100
AcDbEntity
  8
Bemaßung
 62
     7
370
     9
100
AcDbLine
 10
122.9422057523719
 20
144.8765868594459
 30
0.0
 11
122.9422057523719
 21
144.6495743652374
 31
0.0
  0
LINE
  5
1FE
330
70
100
AcDbEntity
  8
Bemaßung
 62
     7
370
     9
100
AcDbLine
 10
122.9143010308616
 20
144.8765868594459
 30
0.0
 11
122.9143010308616
 21
144.4373432595408
 31
0.0
  0
LINE
  5
1FF
330
70
100
AcDbEntity
  8
Bemaßung
 62
     7
370
     9
100
AcDbLine
 10
122.8863963093512
 20
144.8765868594459
 30
0.0
 11
122.8863963093512
 21
144.2251121538442
 31
0.0
  0
LINE
  5
200
330
70
100
AcDbEntity
  8
Bemaßung
 62
     7
370
     9
100
AcDbLine
 10
122.8583151989566
 20
144.8765868594459
 30
0.0
 11
122.8583151989566
 21
144.0129163259244
 31
0.0
  0
LINE
  5
201
330
70
100
AcDbEntity
  8
Bemaßung
 62
     7
370
     9
100
AcDbLine
 10
122.8304104774462
 20
144.8765868594459
 30
0.0
 11
122.8304104774462
 21
143.8006888529386
 31
0.0
  0
LINE
  5
202
330
70
100
AcDbEntity
  8
Bemaßung
 62
     7
370
     9
100
AcDbLine
 10
122.8025057559359
 20
144.8765868594459
 30
0.0
 11
122.8025057559359
 21
143.588489392308
 31
0.0
  0
LINE
  5
203
330
70
100
AcDbEntity
  8
Bemaßung
 62
     7
370
     9
100
AcDbLine
 10
122.7746010344256
 20
144.8765868594459
 30
0.0
 11
122.7746010344256
 21
143.3762582866113
 31
0.0
  0
LINE
  5
204
330
70
100
AcDbEntity
  8
Bemaßung
 62
     7
370
     9
100
AcDbLine
 10
122.7466963129153
 20
144.8765868594459
 30
0.0
 11
122.7466963129153
 21
143.1640271809147
 31
0.0
  0
LINE
  5
205
330
70
100
AcDbEntity
  8
Bemaßung
 62
     7
370
     9
100
AcDbLine
 10
122.7189327025125
 20
144.8765868594459
 30
0.0
 11
122.7189327025125
 21
142.9518313529949
 31
0.0
  0
LINE
  5
206
330
70
100
AcDbEntity
  8
Bemaßung
 62
     7
370
     9
100
AcDbLine
 10
122.4674727089278
 20
144.8765868594459
 30
0.0
 11
122.4674727089278
 21
144.8617701931572
 31
0.0
  0
LINE
  5
207
330
70
100
AcDbEntity
  8
Bemaßung
 62
     7
370
     9
100
AcDbLine
 10
122.4674727089278
 20
144.8765868594459
 30
0.0
 11
122.4674727089278
 21
144.8617701931572
 31
0.0
  0
LINE
  5
208
330
70
100
AcDbEntity
  8
Bemaßung
 62
     7
370
     9
100
AcDbLine
 10
122.4953805249316
 20
144.8765868594459
 30
0.0
 11
122.4953805249316
 21
144.6495743652374
 31
0.0
  0
LINE
  5
209
330
70
100
AcDbEntity
  8
Bemaßung
 62
     7
370
     9
100
AcDbLine
 10
122.5232821519484
 20
144.8765868594459
 30
0.0
 11
122.5232821519484
 21
144.4373432595408
 31
0.0
  0
LINE
  5
20A
330
70
100
AcDbEntity
  8
Bemaßung
 62
     7
370
     9
100
AcDbLine
 10
122.5513279845662
 20
144.8765868594459
 30
0.0
 11
122.5513279845662
 21
144.2251121538442
 31
0.0
  0
LINE
  5
20B
330
70
100
AcDbEntity
  8
Bemaßung
 62
     7
370
     9
100
AcDbLine
 10
122.5792679838534
 20
144.8765868594459
 30
0.0
 11
122.5792679838534
 21
144.0129163259244
 31
0.0
  0
LINE
  5
20C
330
70
100
AcDbEntity
  8
Bemaßung
 62
     7
370
     9
100
AcDbLine
 10
122.6071727053637
 20
144.8765868594459
 30
0.0
 11
122.6071727053637
 21
143.8006888529386
 31
0.0
  0
LINE
  5
20D
330
70
100
AcDbEntity
  8
Bemaßung
 62
     7
370
     9
100
AcDbLine
 10
122.6350805248969
 20
144.8765868594459
 30
0.0
 11
122.6350805248969
 21
143.588489392308
 31
0.0
  0
LINE
  5
20E
330
70
100
AcDbEntity
  8
Bemaßung
 62
     7
370
     9
100
AcDbLine
 10
122.6629821483844
 20
144.8765868594459
 30
0.0
 11
122.6629821483844
 21
143.3762582866113
 31
0.0
  0
LINE
  5
20F
330
70
100
AcDbEntity
  8
Bemaßung
 62
     7
370
     9
100
AcDbLine
 10
122.6908868698947
 20
144.8765868594459
 30
0.0
 11
122.6908868698947
 21
143.1640271809147
 31
0.0
  0
LINE
  5
210
330
70
100
AcDbEntity
  8
Bemaßung
 62
     7
370
     9
100
AcDbLine
 10
122.7189327025125
 20
144.8765868594459
 30
0.0
 11
122.7189327025125
 21
142.9518313529949
 31
0.0
  0
LINE
  5
211
330
70
100
AcDbEntity
  8
Bemaßung
 62
     7
370
     9
100
AcDbLine
 10
52.81693504141662
 20
142.9518313529949
 30
0.0
 11
79.08473242682482
 21
142.9518313529949
 31
0.0
  0
LINE
  5
212
330
70
100
AcDbEntity
  8
Bemaßung
 62
     7
370
     9
100
AcDbLine
 10
59.29386432062083
 20
162.7518364034103
 30
0.0
 11
79.08473242682482
 21
162.7518364034103
 31
0.0
  0
LINE
  5
213
330
70
100
AcDbEntity
  8
Bemaßung
 62
     7
370
     9
100
AcDbLine
 10
77.69464690673331
 20
142.9518313529949
 30
0.0
 11
77.69464690673331
 21
162.7518364034103
 31
0.0
  0
LWPOLYLINE
  5
214
330
70
100
AcDbEntity
  8
Bemaßung
 62
     7
370
     9
100
AcDbPolyline
 90
        4
 70
     0
 43
0.0
 10
77.69464690673331
 20
142.9518313529949
 10
77.94787078916193
 20
144.8765868594459
 10
77.44092913542842
 20
144.8765868594459
 10
77.69464690673331
 20
142.9518313529949
  0
LINE
  5
215
330
70
100
AcDbEntity
  8
Bemaßung
 62
     7
370
     9
100
AcDbLine
 10
77.94578940032613
 20
144.8765868594459
 30
0.0
 11
77.94578940032613
 21
144.8617701931572
 31
0.0
  0
LINE
  5
216
330
70
100
AcDbEntity
  8
Bemaßung
 62
     7
370
     9
100
AcDbLine
 10
77.94578940032613
 20
144.8765868594459
 30
0.0
 11
77.94578940032613
 21
144.8617701931572
 31
0.0
  0
LINE
  5
217
330
70
100
AcDbEntity
  8
Bemaßung
 62
     7
370
     9
100
AcDbLine
 10
77.91806106770021
 20
144.8765868594459
 30
0.0
 11
77.91806106770021
 21
144.6495743652374
 31
0.0
  0
LINE
  5
218
330
70
100
AcDbEntity
  8
Bemaßung
 62
     7
370
     9
100
AcDbLine
 10
77.89015831386085
 20
144.8765868594459
 30
0.0
 11
77.89015831386085
 21
144.4373432595408
 31
0.0
  0
LINE
  5
219
330
70
100
AcDbEntity
  8
Bemaßung
 62
     7
370
     9
100
AcDbLine
 10
77.86207523579519
 20
144.8765868594459
 30
0.0
 11
77.86207523579519
 21
144.2251121538442
 31
0.0
  0
LINE
  5
21A
330
70
100
AcDbEntity
  8
Bemaßung
 62
     7
370
     9
100
AcDbLine
 10
77.83417051428488
 20
144.8765868594459
 30
0.0
 11
77.83417051428488
 21
144.0129163259244
 31
0.0
  0
LINE
  5
21B
330
70
100
AcDbEntity
  8
Bemaßung
 62
     7
370
     9
100
AcDbLine
 10
77.80626579277456
 20
144.8765868594459
 30
0.0
 11
77.80626579277456
 21
143.8006888529386
 31
0.0
  0
LINE
  5
21C
330
70
100
AcDbEntity
  8
Bemaßung
 62
     7
370
     9
100
AcDbLine
 10
77.77836107126425
 20
144.8765868594459
 30
0.0
 11
77.77836107126425
 21
143.588489392308
 31
0.0
  0
LINE
  5
21D
330
70
100
AcDbEntity
  8
Bemaßung
 62
     7
370
     9
100
AcDbLine
 10
77.75027996086954
 20
144.8765868594459
 30
0.0
 11
77.75027996086954
 21
143.3762582866113
 31
0.0
  0
LINE
  5
21E
330
70
100
AcDbEntity
  8
Bemaßung
 62
     7
370
     9
100
AcDbLine
 10
77.72255162824362
 20
144.8765868594459
 30
0.0
 11
77.72255162824362
 21
143.1640271809147
 31
0.0
  0
LINE
  5
21F
330
70
100
AcDbEntity
  8
Bemaßung
 62
     7
370
     9
100
AcDbLine
 10
77.69464690673331
 20
144.8765868594459
 30
0.0
 11
77.69464690673331
 21
142.9518313529949
 31
0.0
  0
LINE
  5
220
330
70
100
AcDbEntity
  8
Bemaßung
 62
     7
370
     9
100
AcDbLine
 10
77.44279885760294
 20
144.8765868594459
 30
0.0
 11
77.44279885760294
 21
144.8617701931572
 31
0.0
  0
LINE
  5
221
330
70
100
AcDbEntity
  8
Bemaßung
 62
     7
370
     9
100
AcDbLine
 10
77.44279885760294
 20
144.8765868594459
 30
0.0
 11
77.44279885760294
 21
144.8617701931572
 31
0.0
  0
LINE
  5
222
330
70
100
AcDbEntity
  8
Bemaßung
 62
     7
370
     9
100
AcDbLine
 10
77.47073885689012
 20
144.8765868594459
 30
0.0
 11
77.47073885689012
 21
144.6495743652374
 31
0.0
  0
LINE
  5
223
330
70
100
AcDbEntity
  8
Bemaßung
 62
     7
370
     9
100
AcDbLine
 10
77.49878468950796
 20
144.8765868594459
 30
0.0
 11
77.49878468950796
 21
144.4373432595408
 31
0.0
  0
LINE
  5
224
330
70
100
AcDbEntity
  8
Bemaßung
 62
     7
370
     9
100
AcDbLine
 10
77.52668941101827
 20
144.8765868594459
 30
0.0
 11
77.52668941101827
 21
144.2251121538442
 31
0.0
  0
LINE
  5
225
330
70
100
AcDbEntity
  8
Bemaßung
 62
     7
370
     9
100
AcDbLine
 10
77.55459413252857
 20
144.8765868594459
 30
0.0
 11
77.55459413252857
 21
144.0129163259244
 31
0.0
  0
LINE
  5
226
330
70
100
AcDbEntity
  8
Bemaßung
 62
     7
370
     9
100
AcDbLine
 10
77.58249885403889
 20
144.8765868594459
 30
0.0
 11
77.58249885403889
 21
143.8006888529386
 31
0.0
  0
LINE
  5
227
330
70
100
AcDbEntity
  8
Bemaßung
 62
     7
370
     9
100
AcDbLine
 10
77.61057996443359
 20
144.8765868594459
 30
0.0
 11
77.61057996443359
 21
143.588489392308
 31
0.0
  0
LINE
  5
228
330
70
100
AcDbEntity
  8
Bemaßung
 62
     7
370
     9
100
AcDbLine
 10
77.63848468594391
 20
144.8765868594459
 30
0.0
 11
77.63848468594391
 21
143.3762582866113
 31
0.0
  0
LINE
  5
229
330
70
100
AcDbEntity
  8
Bemaßung
 62
     7
370
     9
100
AcDbLine
 10
77.6665657963386
 20
144.8765868594459
 30
0.0
 11
77.6665657963386
 21
143.1640271809147
 31
0.0
  0
LINE
  5
22A
330
70
100
AcDbEntity
  8
Bemaßung
 62
     7
370
     9
100
AcDbLine
 10
77.69464690673331
 20
144.8765868594459
 30
0.0
 11
77.69464690673331
 21
142.9518313529949
 31
0.0
  0
LWPOLYLINE
  5
22B
330
70
100
AcDbEntity
  8
Bemaßung
 62
     7
370
     9
100
AcDbPolyline
 90
        4
 70
     0
 43
0.0
 10
77.69464690673331
 20
162.7518364034103
 10
77.44092913542842
 20
160.8266928414137
 10
77.94787078916193
 20
160.8266928414137
 10
77.69464690673331
 20
162.7518364034103
  0
LINE
  5
22C
330
70
100
AcDbEntity
  8
Bemaßung
 62
     7
370
     9
100
AcDbLine
 10
77.44279885760294
 20
160.8266928414137
 30
0.0
 11
77.44279885760294
 21
160.8418622854711
 31
0.0
  0
LINE
  5
22D
330
70
100
AcDbEntity
  8
Bemaßung
 62
     7
370
     9
100
AcDbLine
 10
77.44279885760294
 20
160.8266928414137
 30
0.0
 11
77.44279885760294
 21
160.8418622854711
 31
0.0
  0
LINE
  5
22E
330
70
100
AcDbEntity
  8
Bemaßung
 62
     7
370
     9
100
AcDbLine
 10
77.47073885689012
 20
160.8266928414137
 30
0.0
 11
77.47073885689012
 21
161.0540933911677
 31
0.0
  0
LINE
  5
22F
330
70
100
AcDbEntity
  8
Bemaßung
 62
     7
370
     9
100
AcDbLine
 10
77.49878468950796
 20
160.8266928414137
 30
0.0
 11
77.49878468950796
 21
161.2662892190875
 31
0.0
  0
LINE
  5
230
330
70
100
AcDbEntity
  8
Bemaßung
 62
     7
370
     9
100
AcDbLine
 10
77.52668941101827
 20
160.8266928414137
 30
0.0
 11
77.52668941101827
 21
161.4785203247842
 31
0.0
  0
LINE
  5
231
330
70
100
AcDbEntity
  8
Bemaßung
 62
     7
370
     9
100
AcDbLine
 10
77.55459413252857
 20
160.8266928414137
 30
0.0
 11
77.55459413252857
 21
161.6907161527039
 31
0.0
  0
LINE
  5
232
330
70
100
AcDbEntity
  8
Bemaßung
 62
     7
370
     9
100
AcDbLine
 10
77.58249885403889
 20
160.8266928414137
 30
0.0
 11
77.58249885403889
 21
161.9029472584006
 31
0.0
  0
LINE
  5
233
330
70
100
AcDbEntity
  8
Bemaßung
 62
     7
370
     9
100
AcDbLine
 10
77.61057996443359
 20
160.8266928414137
 30
0.0
 11
77.61057996443359
 21
162.1151783640972
 31
0.0
  0
LINE
  5
234
330
70
100
AcDbEntity
  8
Bemaßung
 62
     7
370
     9
100
AcDbLine
 10
77.63848468594391
 20
160.8266928414137
 30
0.0
 11
77.63848468594391
 21
162.327374192017
 31
0.0
  0
LINE
  5
235
330
70
100
AcDbEntity
  8
Bemaßung
 62
     7
370
     9
100
AcDbLine
 10
77.6665657963386
 20
160.8266928414137
 30
0.0
 11
77.6665657963386
 21
162.5396052977136
 31
0.0
  0
LINE
  5
236
330
70
100
AcDbEntity
  8
Bemaßung
 62
     7
370
     9
100
AcDbLine
 10
77.69464690673331
 20
160.8266928414137
 30
0.0
 11
77.69464690673331
 21
162.7518364034103
 31
0.0
  0
LINE
  5
237
330
70
100
AcDbEntity
  8
Bemaßung
 62
     7
370
     9
100
AcDbLine
 10
77.94578940032613
 20
160.8266928414137
 30
0.0
 11
77.94578940032613
 21
160.8418622854711
 31
0.0
  0
LINE
  5
238
330
70
100
AcDbEntity
  8
Bemaßung
 62
     7
370
     9
100
AcDbLine
 10
77.94578940032613
 20
160.8266928414137
 30
0.0
 11
77.94578940032613
 21
160.8418622854711
 31
0.0
  0
LINE
  5
239
330
70
100
AcDbEntity
  8
Bemaßung
 62
     7
370
     9
100
AcDbLine
 10
77.91806106770021
 20
160.8266928414137
 30
0.0
 11
77.91806106770021
 21
161.0540933911677
 31
0.0
  0
LINE
  5
23A
330
70
100
AcDbEntity
  8
Bemaßung
 62
     7
370
     9
100
AcDbLine
 10
77.89015831386085
 20
160.8266928414137
 30
0.0
 11
77.89015831386085
 21
161.2662892190875
 31
0.0
  0
LINE
  5
23B
330
70
100
AcDbEntity
  8
Bemaßung
 62
     7
370
     9
100
AcDbLine
 10
77.86207523579519
 20
160.8266928414137
 30
0.0
 11
77.86207523579519
 21
161.4785203247842
 31
0.0
  0
LINE
  5
23C
330
70
100
AcDbEntity
  8
Bemaßung
 62
     7
370
     9
100
AcDbLine
 10
77.83417051428488
 20
160.8266928414137
 30
0.0
 11
77.83417051428488
 21
161.6907161527039
 31
0.0
  0
LINE
  5
23D
330
70
100
AcDbEntity
  8
Bemaßung
 62
     7
370
     9
100
AcDbLine
 10
77.80626579277456
 20
160.8266928414137
 30
0.0
 11
77.80626579277456
 21
161.9029472584006
 31
0.0
  0
LINE
  5
23E
330
70
100
AcDbEntity
  8
Bemaßung
 62
     7
370
     9
100
AcDbLine
 10
77.77836107126425
 20
160.8266928414137
 30
0.0
 11
77.77836107126425
 21
162.1151783640972
 31
0.0
  0
LINE
  5
23F
330
70
100
AcDbEntity
  8
Bemaßung
 62
     7
370
     9
100
AcDbLine
 10
77.75027996086954
 20
160.8266928414137
 30
0.0
 11
77.75027996086954
 21
162.327374192017
 31
0.0
  0
LINE
  5
240
330
70
100
AcDbEntity
  8
Bemaßung
 62
     7
370
     9
100
AcDbLine
 10
77.72255162824362
 20
160.8266928414137
 30
0.0
 11
77.72255162824362
 21
162.5396052977136
 31
0.0
  0
LINE
  5
241
330
70
100
AcDbEntity
  8
Bemaßung
 62
     7
370
     9
100
AcDbLine
 10
77.69464690673331
 20
160.8266928414137
 30
0.0
 11
77.69464690673331
 21
162.7518364034103
 31
0.0
  0
LINE
  5
242
330
70
100
AcDbEntity
  8
Bemaßung
 62
     7
370
     9
100
AcDbLine
 10
56.02982329278233
 20
143.5016707834118
 30
0.0
 11
56.02982329278233
 21
136.3000301338076
 31
0.0
  0
LINE
  5
243
330
70
100
AcDbEntity
  8
Bemaßung
 62
     7
370
     9
100
AcDbLine
 10
59.32953015304425
 20
143.5016707834118
 30
0.0
 11
59.32953015304425
 21
136.3000301338076
 31
0.0
  0
LINE
  5
244
330
70
100
AcDbEntity
  8
Bemaßung
 62
     7
370
     9
100
AcDbLine
 10
69.85620710670857
 20
137.3997089946414
 30
0.0
 11
51.21719369334053
 21
137.3997089946414
 31
0.0
  0
LWPOLYLINE
  5
245
330
70
100
AcDbEntity
  8
Bemaßung
 62
     7
370
     9
100
AcDbPolyline
 90
        4
 70
     0
 43
0.0
 10
56.02982329278233
 20
137.3997089946414
 10
54.10453861967822
 20
137.6536031548307
 10
54.10453861967822
 20
137.1468378899815
 10
56.02982329278233
 20
137.3997089946414
  0
LINE
  5
246
330
70
100
AcDbEntity
  8
Bemaßung
 62
     7
370
     9
100
AcDbLine
 10
54.10453861967822
 20
137.651204266003
 30
0.0
 11
54.11970806373567
 21
137.651204266003
 31
0.0
  0
LINE
  5
247
330
70
100
AcDbEntity
  8
Bemaßung
 62
     7
370
     9
100
AcDbLine
 10
54.10453861967822
 20
137.651204266003
 30
0.0
 11
54.11970806373567
 21
137.651204266003
 31
0.0
  0
LINE
  5
248
330
70
100
AcDbEntity
  8
Bemaßung
 62
     7
370
     9
100
AcDbLine
 10
54.10453861967822
 20
137.6236523222614
 30
0.0
 11
54.33190389165543
 21
137.6236523222614
 31
0.0
  0
LINE
  5
249
330
70
100
AcDbEntity
  8
Bemaßung
 62
     7
370
     9
100
AcDbLine
 10
54.10453861967822
 20
137.5957476007511
 30
0.0
 11
54.54395860846768
 21
137.5957476007511
 31
0.0
  0
LINE
  5
24A
330
70
100
AcDbEntity
  8
Bemaßung
 62
     7
370
     9
100
AcDbLine
 10
54.10453861967822
 20
137.567490101472
 30
0.0
 11
54.75633082527184
 21
137.567490101472
 31
0.0
  0
LINE
  5
24B
330
70
100
AcDbEntity
  8
Bemaßung
 62
     7
370
     9
100
AcDbLine
 10
54.10453861967822
 20
137.5395888545041
 30
0.0
 11
54.96856193096848
 21
137.5395888545041
 31
0.0
  0
LINE
  5
24C
330
70
100
AcDbEntity
  8
Bemaßung
 62
     7
370
     9
100
AcDbLine
 10
54.10453861967822
 20
137.5116806584514
 30
0.0
 11
55.18079443064912
 21
137.5116806584514
 31
0.0
  0
LINE
  5
24D
330
70
100
AcDbEntity
  8
Bemaßung
 62
     7
370
     9
100
AcDbLine
 10
54.10453861967822
 20
137.4837759369411
 30
0.0
 11
55.39281387504077
 21
137.4837759369411
 31
0.0
  0
LINE
  5
24E
330
70
100
AcDbEntity
  8
Bemaßung
 62
     7
370
     9
100
AcDbLine
 10
54.10453861967822
 20
137.4558712154308
 30
0.0
 11
55.60521997028153
 21
137.4558712154308
 31
0.0
  0
LINE
  5
24F
330
70
100
AcDbEntity
  8
Bemaßung
 62
     7
370
     9
100
AcDbLine
 10
54.10453861967822
 20
137.4276137161517
 30
0.0
 11
55.81745107597818
 21
137.4276137161517
 31
0.0
  0
LINE
  5
250
330
70
100
AcDbEntity
  8
Bemaßung
 62
     7
370
     9
100
AcDbLine
 10
54.10453861967822
 20
137.3997089946414
 30
0.0
 11
56.02982329278233
 21
137.3997089946414
 31
0.0
  0
LINE
  5
251
330
70
100
AcDbEntity
  8
Bemaßung
 62
     7
370
     9
100
AcDbLine
 10
54.10453861967822
 20
137.1485665010486
 30
0.0
 11
54.11970806373567
 21
137.1485665010486
 31
0.0
  0
LINE
  5
252
330
70
100
AcDbEntity
  8
Bemaßung
 62
     7
370
     9
100
AcDbLine
 10
54.10453861967822
 20
137.1485665010486
 30
0.0
 11
54.11970806373567
 21
137.1485665010486
 31
0.0
  0
LINE
  5
253
330
70
100
AcDbEntity
  8
Bemaßung
 62
     7
370
     9
100
AcDbLine
 10
54.10453861967822
 20
137.1764712225589
 30
0.0
 11
54.33190389165543
 21
137.1764712225589
 31
0.0
  0
LINE
  5
254
330
70
100
AcDbEntity
  8
Bemaßung
 62
     7
370
     9
100
AcDbLine
 10
54.10453861967822
 20
137.2043759440692
 30
0.0
 11
54.54395860846768
 21
137.2043759440692
 31
0.0
  0
LINE
  5
255
330
70
100
AcDbEntity
  8
Bemaßung
 62
     7
370
     9
100
AcDbLine
 10
54.10453861967822
 20
137.2322806655795
 30
0.0
 11
54.75633082527184
 21
137.2322806655795
 31
0.0
  0
LINE
  5
256
330
70
100
AcDbEntity
  8
Bemaßung
 62
     7
370
     9
100
AcDbLine
 10
54.10453861967822
 20
137.2601888545738
 30
0.0
 11
54.96856193096848
 21
137.2601888545738
 31
0.0
  0
LINE
  5
257
330
70
100
AcDbEntity
  8
Bemaßung
 62
     7
370
     9
100
AcDbLine
 10
54.10453861967822
 20
137.2884428863689
 30
0.0
 11
55.18079443064912
 21
137.2884428863689
 31
0.0
  0
LINE
  5
258
330
70
100
AcDbEntity
  8
Bemaßung
 62
     7
370
     9
100
AcDbLine
 10
54.10453861967822
 20
137.3163476078792
 30
0.0
 11
55.39281387504077
 21
137.3163476078792
 31
0.0
  0
LINE
  5
259
330
70
100
AcDbEntity
  8
Bemaßung
 62
     7
370
     9
100
AcDbLine
 10
54.10453861967822
 20
137.3442523293895
 30
0.0
 11
55.60521997028153
 21
137.3442523293895
 31
0.0
  0
LINE
  5
25A
330
70
100
AcDbEntity
  8
Bemaßung
 62
     7
370
     9
100
AcDbLine
 10
54.10453861967822
 20
137.371804273131
 30
0.0
 11
55.81745107597818
 21
137.371804273131
 31
0.0
  0
LINE
  5
25B
330
70
100
AcDbEntity
  8
Bemaßung
 62
     7
370
     9
100
AcDbLine
 10
54.10453861967822
 20
137.3997089946414
 30
0.0
 11
56.02982329278233
 21
137.3997089946414
 31
0.0
  0
LWPOLYLINE
  5
25C
330
70
100
AcDbEntity
  8
Bemaßung
 62
     7
370
     9
100
AcDbPolyline
 90
        4
 70
     0
 43
0.0
 10
59.32953015304425
 20
137.3997089946414
 10
61.25467371504086
 20
137.1468378899815
 10
61.25467371504086
 20
137.6536031548307
 10
59.32953015304425
 20
137.3997089946414
  0
LINE
  5
25D
330
70
100
AcDbEntity
  8
Bemaßung
 62
     7
370
     9
100
AcDbLine
 10
61.25467371504086
 20
137.1485665010486
 30
0.0
 11
61.2398570487522
 21
137.1485665010486
 31
0.0
  0
LINE
  5
25E
330
70
100
AcDbEntity
  8
Bemaßung
 62
     7
370
     9
100
AcDbLine
 10
61.25467371504086
 20
137.1485665010486
 30
0.0
 11
61.2398570487522
 21
137.1485665010486
 31
0.0
  0
LINE
  5
25F
330
70
100
AcDbEntity
  8
Bemaßung
 62
     7
370
     9
100
AcDbLine
 10
61.25467371504086
 20
137.1764712225589
 30
0.0
 11
61.02727316528677
 21
137.1764712225589
 31
0.0
  0
LINE
  5
260
330
70
100
AcDbEntity
  8
Bemaßung
 62
     7
370
     9
100
AcDbLine
 10
61.25467371504086
 20
137.2043759440692
 30
0.0
 11
60.81521844847451
 21
137.2043759440692
 31
0.0
  0
LINE
  5
261
330
70
100
AcDbEntity
  8
Bemaßung
 62
     7
370
     9
100
AcDbLine
 10
61.25467371504086
 20
137.2322806655795
 30
0.0
 11
60.60284623167036
 21
137.2322806655795
 31
0.0
  0
LINE
  5
262
330
70
100
AcDbEntity
  8
Bemaßung
 62
     7
370
     9
100
AcDbLine
 10
61.25467371504086
 20
137.2601888545738
 30
0.0
 11
60.39096942934667
 21
137.2601888545738
 31
0.0
  0
LINE
  5
263
330
70
100
AcDbEntity
  8
Bemaßung
 62
     7
370
     9
100
AcDbLine
 10
61.25467371504086
 20
137.2884428863689
 30
0.0
 11
60.17859720717758
 21
137.2884428863689
 31
0.0
  0
LINE
  5
264
330
70
100
AcDbEntity
  8
Bemaßung
 62
     7
370
     9
100
AcDbLine
 10
61.25467371504086
 20
137.3163476078792
 30
0.0
 11
59.9663645812417
 21
137.3163476078792
 31
0.0
  0
LINE
  5
265
330
70
100
AcDbEntity
  8
Bemaßung
 62
     7
370
     9
100
AcDbLine
 10
61.25467371504086
 20
137.3442523293895
 30
0.0
 11
59.75395708666066
 21
137.3442523293895
 31
0.0
  0
LINE
  5
266
330
70
100
AcDbEntity
  8
Bemaßung
 62
     7
370
     9
100
AcDbLine
 10
61.25467371504086
 20
137.371804273131
 30
0.0
 11
59.54193764762528
 21
137.371804273131
 31
0.0
  0
LINE
  5
267
330
70
100
AcDbEntity
  8
Bemaßung
 62
     7
370
     9
100
AcDbLine
 10
61.25467371504086
 20
137.3997089946414
 30
0.0
 11
59.32953015304425
 21
137.3997089946414
 31
0.0
  0
LINE
  5
268
330
70
100
AcDbEntity
  8
Bemaßung
 62
     7
370
     9
100
AcDbLine
 10
61.25467371504086
 20
137.651204266003
 30
0.0
 11
61.2398570487522
 21
137.651204266003
 31
0.0
  0
LINE
  5
269
330
70
100
AcDbEntity
  8
Bemaßung
 62
     7
370
     9
100
AcDbLine
 10
61.25467371504086
 20
137.651204266003
 30
0.0
 11
61.2398570487522
 21
137.651204266003
 31
0.0
  0
LINE
  5
26A
330
70
100
AcDbEntity
  8
Bemaßung
 62
     7
370
     9
100
AcDbLine
 10
61.25467371504086
 20
137.6236523222614
 30
0.0
 11
61.02727316528677
 21
137.6236523222614
 31
0.0
  0
LINE
  5
26B
330
70
100
AcDbEntity
  8
Bemaßung
 62
     7
370
     9
100
AcDbLine
 10
61.25467371504086
 20
137.5957476007511
 30
0.0
 11
60.81521844847451
 21
137.5957476007511
 31
0.0
  0
LINE
  5
26C
330
70
100
AcDbEntity
  8
Bemaßung
 62
     7
370
     9
100
AcDbLine
 10
61.25467371504086
 20
137.567490101472
 30
0.0
 11
60.60284623167036
 21
137.567490101472
 31
0.0
  0
LINE
  5
26D
330
70
100
AcDbEntity
  8
Bemaßung
 62
     7
370
     9
100
AcDbLine
 10
61.25467371504086
 20
137.5395888545041
 30
0.0
 11
60.39096942934667
 21
137.5395888545041
 31
0.0
  0
LINE
  5
26E
330
70
100
AcDbEntity
  8
Bemaßung
 62
     7
370
     9
100
AcDbLine
 10
61.25467371504086
 20
137.5116806584514
 30
0.0
 11
60.17859720717758
 21
137.5116806584514
 31
0.0
  0
LINE
  5
26F
330
70
100
AcDbEntity
  8
Bemaßung
 62
     7
370
     9
100
AcDbLine
 10
61.25467371504086
 20
137.4837759369411
 30
0.0
 11
59.9663645812417
 21
137.4837759369411
 31
0.0
  0
LINE
  5
270
330
70
100
AcDbEntity
  8
Bemaßung
 62
     7
370
     9
100
AcDbLine
 10
61.25467371504086
 20
137.4558712154308
 30
0.0
 11
59.75395708666066
 21
137.4558712154308
 31
0.0
  0
LINE
  5
271
330
70
100
AcDbEntity
  8
Bemaßung
 62
     7
370
     9
100
AcDbLine
 10
61.25467371504086
 20
137.4276137161517
 30
0.0
 11
59.54193764762528
 21
137.4276137161517
 31
0.0
  0
LINE
  5
272
330
70
100
AcDbEntity
  8
Bemaßung
 62
     7
370
     9
100
AcDbLine
 10
61.25467371504086
 20
137.3997089946414
 30
0.0
 11
59.32953015304425
 21
137.3997089946414
 31
0.0
  0
LINE
  5
273
330
70
100
AcDbEntity
  8
Bemaßung
 62
     7
370
     9
100
AcDbLine
 10
52.17957144656601
 20
225.1770267552554
 30
0.0
 11
52.17957144656601
 21
203.6991805046308
 31
0.0
  0
LINE
  5
274
330
70
100
AcDbEntity
  8
Bemaßung
 62
     7
370
     9
100
AcDbLine
 10
63.17978199926059
 20
143.7838224428802
 30
0.0
 11
63.17978199926059
 21
205.8992386359617
 31
0.0
  0
LINE
  5
275
330
70
100
AcDbEntity
  8
Bemaßung
 62
     7
370
     9
100
AcDbLine
 10
52.17957144656601
 20
204.7992069973592
 30
0.0
 11
63.17978199926059
 21
204.7992069973592
 31
0.0
  0
LWPOLYLINE
  5
276
330
70
100
AcDbEntity
  8
Bemaßung
 62
     7
370
     9
100
AcDbPolyline
 90
        4
 70
     0
 43
0.0
 10
52.17957144656601
 20
204.7992069973592
 10
54.10453861967822
 20
204.5459831149305
 10
54.10453861967822
 20
205.0524360598481
 10
52.17957144656601
 20
204.7992069973592
  0
LINE
  5
277
330
70
100
AcDbEntity
  8
Bemaßung
 62
     7
370
     9
100
AcDbLine
 10
54.10453861967822
 20
204.5477117259976
 30
0.0
 11
54.08972195338956
 21
204.5477117259976
 31
0.0
  0
LINE
  5
278
330
70
100
AcDbEntity
  8
Bemaßung
 62
     7
370
     9
100
AcDbLine
 10
54.10453861967822
 20
204.5477117259976
 30
0.0
 11
54.08972195338956
 21
204.5477117259976
 31
0.0
  0
LINE
  5
279
330
70
100
AcDbEntity
  8
Bemaßung
 62
     7
370
     9
100
AcDbLine
 10
54.10453861967822
 20
204.5756164475079
 30
0.0
 11
53.87731445880852
 21
204.5756164475079
 31
0.0
  0
LINE
  5
27A
330
70
100
AcDbEntity
  8
Bemaßung
 62
     7
370
     9
100
AcDbLine
 10
54.10453861967822
 20
204.603873946787
 30
0.0
 11
53.66511863088876
 21
204.603873946787
 31
0.0
  0
LINE
  5
27B
330
70
100
AcDbEntity
  8
Bemaßung
 62
     7
370
     9
100
AcDbLine
 10
54.10453861967822
 20
204.6317786682973
 30
0.0
 11
53.45306391407651
 21
204.6317786682973
 31
0.0
  0
LINE
  5
27C
330
70
100
AcDbEntity
  8
Bemaßung
 62
     7
370
     9
100
AcDbLine
 10
54.10453861967822
 20
204.6596833898076
 30
0.0
 11
53.24083280837986
 21
204.6596833898076
 31
0.0
  0
LINE
  5
27D
330
70
100
AcDbEntity
  8
Bemaßung
 62
     7
370
     9
100
AcDbLine
 10
54.10453861967822
 20
204.6875881113179
 30
0.0
 11
53.02846059157571
 21
204.6875881113179
 31
0.0
  0
LINE
  5
27E
330
70
100
AcDbEntity
  8
Bemaßung
 62
     7
370
     9
100
AcDbLine
 10
54.10453861967822
 20
204.7154928328282
 30
0.0
 11
52.81622948587906
 21
204.7154928328282
 31
0.0
  0
LINE
  5
27F
330
70
100
AcDbEntity
  8
Bemaßung
 62
     7
370
     9
100
AcDbLine
 10
54.10453861967822
 20
204.7434027265919
 30
0.0
 11
52.60421004684368
 21
204.7434027265919
 31
0.0
  0
LINE
  5
280
330
70
100
AcDbEntity
  8
Bemaßung
 62
     7
370
     9
100
AcDbLine
 10
54.10453861967822
 20
204.7713022758489
 30
0.0
 11
52.39197894114703
 21
204.7713022758489
 31
0.0
  0
LINE
  5
281
330
70
100
AcDbEntity
  8
Bemaßung
 62
     7
370
     9
100
AcDbLine
 10
54.10453861967822
 20
204.7992069973592
 30
0.0
 11
52.17957144656601
 21
204.7992069973592
 31
0.0
  0
LINE
  5
282
330
70
100
AcDbEntity
  8
Bemaßung
 62
     7
370
     9
100
AcDbLine
 10
54.10453861967822
 20
205.0507022687208
 30
0.0
 11
54.08972195338956
 21
205.0507022687208
 31
0.0
  0
LINE
  5
283
330
70
100
AcDbEntity
  8
Bemaßung
 62
     7
370
     9
100
AcDbLine
 10
54.10453861967822
 20
205.0507022687208
 30
0.0
 11
54.08972195338956
 21
205.0507022687208
 31
0.0
  0
LINE
  5
284
330
70
100
AcDbEntity
  8
Bemaßung
 62
     7
370
     9
100
AcDbLine
 10
54.10453861967822
 20
205.0228027265222
 30
0.0
 11
53.87731445880852
 21
205.0228027265222
 31
0.0
  0
LINE
  5
285
330
70
100
AcDbEntity
  8
Bemaßung
 62
     7
370
     9
100
AcDbLine
 10
54.10453861967822
 20
204.9945400479314
 30
0.0
 11
53.66511863088876
 21
204.9945400479314
 31
0.0
  0
LINE
  5
286
330
70
100
AcDbEntity
  8
Bemaßung
 62
     7
370
     9
100
AcDbLine
 10
54.10453861967822
 20
204.966635326421
 30
0.0
 11
53.45306391407651
 21
204.966635326421
 31
0.0
  0
LINE
  5
287
330
70
100
AcDbEntity
  8
Bemaßung
 62
     7
370
     9
100
AcDbLine
 10
54.10453861967822
 20
204.9387306049108
 30
0.0
 11
53.24083280837986
 21
204.9387306049108
 31
0.0
  0
LINE
  5
288
330
70
100
AcDbEntity
  8
Bemaßung
 62
     7
370
     9
100
AcDbLine
 10
54.10453861967822
 20
204.9108258834004
 30
0.0
 11
53.02846059157571
 21
204.9108258834004
 31
0.0
  0
LINE
  5
289
330
70
100
AcDbEntity
  8
Bemaßung
 62
     7
370
     9
100
AcDbLine
 10
54.10453861967822
 20
204.8829211618901
 30
0.0
 11
52.81622948587906
 21
204.8829211618901
 31
0.0
  0
LINE
  5
28A
330
70
100
AcDbEntity
  8
Bemaßung
 62
     7
370
     9
100
AcDbLine
 10
54.10453861967822
 20
204.8550164403798
 30
0.0
 11
52.60421004684368
 21
204.8550164403798
 31
0.0
  0
LINE
  5
28B
330
70
100
AcDbEntity
  8
Bemaßung
 62
     7
370
     9
100
AcDbLine
 10
54.10453861967822
 20
204.8271117188695
 30
0.0
 11
52.39197894114703
 21
204.8271117188695
 31
0.0
  0
LINE
  5
28C
330
70
100
AcDbEntity
  8
Bemaßung
 62
     7
370
     9
100
AcDbLine
 10
54.10453861967822
 20
204.7992069973592
 30
0.0
 11
52.17957144656601
 21
204.7992069973592
 31
0.0
  0
LWPOLYLINE
  5
28D
330
70
100
AcDbEntity
  8
Bemaßung
 62
     7
370
     9
100
AcDbPolyline
 90
        4
 70
     0
 43
0.0
 10
63.17978199926059
 20
204.7992069973592
 10
61.25467371504086
 20
205.0524360598481
 10
61.25467371504086
 20
204.5459831149305
 10
63.17978199926059
 20
204.7992069973592
  0
LINE
  5
28E
330
70
100
AcDbEntity
  8
Bemaßung
 62
     7
370
     9
100
AcDbLine
 10
61.25467371504086
 20
205.0507022687208
 30
0.0
 11
61.26945510355264
 21
205.0507022687208
 31
0.0
  0
LINE
  5
28F
330
70
100
AcDbEntity
  8
Bemaßung
 62
     7
370
     9
100
AcDbLine
 10
61.25467371504086
 20
205.0507022687208
 30
0.0
 11
61.26945510355264
 21
205.0507022687208
 31
0.0
  0
LINE
  5
290
330
70
100
AcDbEntity
  8
Bemaßung
 62
     7
370
     9
100
AcDbLine
 10
61.25467371504086
 20
205.0228027265222
 30
0.0
 11
61.48203898701806
 21
205.0228027265222
 31
0.0
  0
LINE
  5
291
330
70
100
AcDbEntity
  8
Bemaßung
 62
     7
370
     9
100
AcDbLine
 10
61.25467371504086
 20
204.9945400479314
 30
0.0
 11
61.69409370383032
 21
204.9945400479314
 31
0.0
  0
LINE
  5
292
330
70
100
AcDbEntity
  8
Bemaßung
 62
     7
370
     9
100
AcDbLine
 10
61.25467371504086
 20
204.966635326421
 30
0.0
 11
61.9061131428657
 21
204.966635326421
 31
0.0
  0
LINE
  5
293
330
70
100
AcDbEntity
  8
Bemaßung
 62
     7
370
     9
100
AcDbLine
 10
61.25467371504086
 20
204.9387306049108
 30
0.0
 11
62.11834424856235
 21
204.9387306049108
 31
0.0
  0
LINE
  5
294
330
70
100
AcDbEntity
  8
Bemaßung
 62
     7
370
     9
100
AcDbLine
 10
61.25467371504086
 20
204.9108258834004
 30
0.0
 11
62.33089442886162
 21
204.9108258834004
 31
0.0
  0
LINE
  5
295
330
70
100
AcDbEntity
  8
Bemaßung
 62
     7
370
     9
100
AcDbLine
 10
61.25467371504086
 20
204.8829211618901
 30
0.0
 11
62.54294757106315
 21
204.8829211618901
 31
0.0
  0
LINE
  5
296
330
70
100
AcDbEntity
  8
Bemaßung
 62
     7
370
     9
100
AcDbLine
 10
61.25467371504086
 20
204.8550164403798
 30
0.0
 11
62.7550022878754
 21
204.8550164403798
 31
0.0
  0
LINE
  5
297
330
70
100
AcDbEntity
  8
Bemaßung
 62
     7
370
     9
100
AcDbLine
 10
61.25467371504086
 20
204.8271117188695
 30
0.0
 11
62.96719811579516
 21
204.8271117188695
 31
0.0
  0
LINE
  5
298
330
70
100
AcDbEntity
  8
Bemaßung
 62
     7
370
     9
100
AcDbLine
 10
61.25467371504086
 20
204.7992069973592
 30
0.0
 11
63.17978199926059
 21
204.7992069973592
 31
0.0
  0
LINE
  5
299
330
70
100
AcDbEntity
  8
Bemaßung
 62
     7
370
     9
100
AcDbLine
 10
61.25467371504086
 20
204.5477117259976
 30
0.0
 11
61.26945510355264
 21
204.5477117259976
 31
0.0
  0
LINE
  5
29A
330
70
100
AcDbEntity
  8
Bemaßung
 62
     7
370
     9
100
AcDbLine
 10
61.25467371504086
 20
204.5477117259976
 30
0.0
 11
61.26945510355264
 21
204.5477117259976
 31
0.0
  0
LINE
  5
29B
330
70
100
AcDbEntity
  8
Bemaßung
 62
     7
370
     9
100
AcDbLine
 10
61.25467371504086
 20
204.5756164475079
 30
0.0
 11
61.48203898701806
 21
204.5756164475079
 31
0.0
  0
LINE
  5
29C
330
70
100
AcDbEntity
  8
Bemaßung
 62
     7
370
     9
100
AcDbLine
 10
61.25467371504086
 20
204.603873946787
 30
0.0
 11
61.69409370383032
 21
204.603873946787
 31
0.0
  0
LINE
  5
29D
330
70
100
AcDbEntity
  8
Bemaßung
 62
     7
370
     9
100
AcDbLine
 10
61.25467371504086
 20
204.6317786682973
 30
0.0
 11
61.9061131428657
 21
204.6317786682973
 31
0.0
  0
LINE
  5
29E
330
70
100
AcDbEntity
  8
Bemaßung
 62
     7
370
     9
100
AcDbLine
 10
61.25467371504086
 20
204.6596833898076
 30
0.0
 11
62.11834424856235
 21
204.6596833898076
 31
0.0
  0
LINE
  5
29F
330
70
100
AcDbEntity
  8
Bemaßung
 62
     7
370
     9
100
AcDbLine
 10
61.25467371504086
 20
204.6875881113179
 30
0.0
 11
62.33089442886162
 21
204.6875881113179
 31
0.0
  0
LINE
  5
2A0
330
70
100
AcDbEntity
  8
Bemaßung
 62
     7
370
     9
100
AcDbLine
 10
61.25467371504086
 20
204.7154928328282
 30
0.0
 11
62.54294757106315
 21
204.7154928328282
 31
0.0
  0
LINE
  5
2A1
330
70
100
AcDbEntity
  8
Bemaßung
 62
     7
370
     9
100
AcDbLine
 10
61.25467371504086
 20
204.7434027265919
 30
0.0
 11
62.7550022878754
 21
204.7434027265919
 31
0.0
  0
LINE
  5
2A2
330
70
100
AcDbEntity
  8
Bemaßung
 62
     7
370
     9
100
AcDbLine
 10
61.25467371504086
 20
204.7713022758489
 30
0.0
 11
62.96719811579516
 21
204.7713022758489
 31
0.0
  0
LINE
  5
2A3
330
70
100
AcDbEntity
  8
Bemaßung
 62
     7
370
     9
100
AcDbLine
 10
61.25467371504086
 20
204.7992069973592
 30
0.0
 11
63.17978199926059
 21
204.7992069973592
 31
0.0
  0
MTEXT
  5
2A5
330
70
100
AcDbEntity
  8
Text
100
AcDbMText
 10
100.9878065068711
 20
205.5422342422342
 30
0.0
 40
0.2
 41
0.0
 46
0.0
 71
     7
 72
     1
  1
\C7;\FINDEX Univers 45 Light|b0|i0|c1;\H2.497667;\W1.000000;ø42,5
 73
     1
 44
1.0
  0
MTEXT
  5
2A6
330
70
100
AcDbEntity
  8
Text
100
AcDbMText
 10
121.9873860372115
 20
230.7655008374909
 30
0.0
 40
0.2
 41
0.0
 46
0.0
 71
     7
 72
     1
  1
\C7;\FINDEX Univers 45 Light|b0|i0|c1;\H2.497667;\W1.000000;25
 11
0.0000000000000001
 21
1.0
 31
0.0
 73
     1
 44
1.0
  0
MTEXT
  5
2A7
330
70
100
AcDbEntity
  8
Text
100
AcDbMText
 10
122.1191609395223
 20
181.5786668111591
 30
0.0
 40
0.2
 41
0.0
 46
0.0
 71
     7
 72
     1
  1
\C7;\FINDEX Univers 45 Light|b0|i0|c1;\H2.497667;\W0.999990;150
 11
0.0000000000000001
 21
1.0
 31
0.0
 73
     1
 44
1.0
  0
MTEXT
  5
2A8
330
70
100
AcDbEntity
  8
Text
100
AcDbMText
 10
77.02940671902389
 20
151.4497564996809
 30
0.0
 40
0.2
 41
0.0
 46
0.0
 71
     7
 72
     1
  1
\C7;\FINDEX Univers 45 Light|b0|i0|c1;\H2.497667;\W1.000000;36
 11
0.0000000000000001
 21
1.0
 31
0.0
 73
     1
 44
1.0
  0
MTEXT
  5
2A9
330
70
100
AcDbEntity
  8
Text
100
AcDbMText
 10
60.83711342880114
 20
138.036449482635
 30
0.0
 40
0.2
 41
0.0
 46
0.0
 71
     7
 72
     1
  1
\C7;\FINDEX Univers 45 Light|b0|i0|c1;\H2.497667;\W1.000000;ø6H5
 73
     1
 44
1.0
  0
MTEXT
  5
2AA
330
70
100
AcDbEntity
  8
Text
100
AcDbMText
 10
55.11274277051001
 20
205.5358608155865
 30
0.0
 40
0.2
 41
0.0
 46
0.0
 71
     7
 72
     1
  1
\C7;\FINDEX Univers 45 Light|b0|i0|c1;\H2.497667;\W1.000000;ø20
 73
     1
 44
1.0
  0
LINE
  5
2AB
330
70
100
AcDbEntity
  8
Text
 62
     7
370
     9
100
AcDbLine
 10
86.51775877232619
 20
142.9556104858754
 30
0.0
 11
103.3358925181214
 21
142.9556104858754
 31
0.0
  0
LINE
  5
2AC
330
70
100
AcDbEntity
  8
Text
 62
     7
370
     9
100
AcDbLine
 10
86.57471416872818
 20
152.5805524279137
 30
0.0
 11
106.3276449955306
 21
152.5805524279137
 31
0.0
  0
LINE
  5
2AD
330
70
100
AcDbEntity
  8
Text
 62
     7
370
     9
100
AcDbLine
 10
87.82343699008453
 20
142.9556104858754
 30
0.0
 11
87.82343699008453
 21
152.5805524279137
 31
0.0
  0
MTEXT
  5
2AE
330
70
100
AcDbEntity
  8
Text
100
AcDbMText
 10
86.54051867546774
 20
144.8340212141984
 30
0.0
 40
0.2
 41
0.0
 46
0.0
 71
     7
 72
     1
  1
\C7;\FINDEX Univers 45 Light|b0|i0|c1;\H2.497667;\W1.000000;17,5
 11
0.0000000000000001
 21
1.0
 31
0.0
 73
     1
 44
1.0
  0
LWPOLYLINE
  5
2AF
330
70
100
AcDbEntity
  8
Text
 62
     7
370
     9
100
AcDbPolyline
 90
        4
 70
     0
 43
0.0
 10
87.82343699008453
 20
142.9556104858754
 10
88.07683726779911
 20
144.8805600687278
 10
87.5702307401479
 20
144.8805600687278
 10
87.82343699008453
 20
142.9556104858754
  0
LINE
  5
2B0
330
70
100
AcDbEntity
  8
Text
 62
     7
370
     9
100
AcDbLine
 10
88.07489699002239
 20
144.8805600687278
 30
0.0
 11
88.07489699002239
 21
144.8656199298424
 31
0.0
  0
LINE
  5
2B1
330
70
100
AcDbEntity
  8
Text
 62
     7
370
     9
100
AcDbLine
 10
88.07489699002239
 20
144.8805600687278
 30
0.0
 11
88.07489699002239
 21
144.8656199298424
 31
0.0
  0
LINE
  5
2B2
330
70
100
AcDbEntity
  8
Text
 62
     7
370
     9
100
AcDbLine
 10
88.04695699002902
 20
144.8805600687278
 30
0.0
 11
88.04695699002902
 21
144.6533535410066
 31
0.0
  0
LINE
  5
2B3
330
70
100
AcDbEntity
  8
Text
 62
     7
370
     9
100
AcDbLine
 10
88.01901699003595
 20
144.8805600687278
 30
0.0
 11
88.01901699003595
 21
144.4412811799486
 31
0.0
  0
LINE
  5
2B4
330
70
100
AcDbEntity
  8
Text
 62
     7
370
     9
100
AcDbLine
 10
87.9910769900429
 20
144.8805600687278
 30
0.0
 11
87.9910769900429
 21
144.2290147911128
 31
0.0
  0
LINE
  5
2B5
330
70
100
AcDbEntity
  8
Text
 62
     7
370
     9
100
AcDbLine
 10
87.96313699004983
 20
144.8805600687278
 30
0.0
 11
87.96313699004983
 21
144.0167484022769
 31
0.0
  0
LINE
  5
2B6
330
70
100
AcDbEntity
  8
Text
 62
     7
370
     9
100
AcDbLine
 10
87.93519699005678
 20
144.8805600687278
 30
0.0
 11
87.93519699005678
 21
143.804482013441
 31
0.0
  0
LINE
  5
2B7
330
70
100
AcDbEntity
  8
Text
 62
     7
370
     9
100
AcDbLine
 10
87.90725699006371
 20
144.8805600687278
 30
0.0
 11
87.90725699006371
 21
143.5922156246051
 31
0.0
  0
LINE
  5
2B8
330
70
100
AcDbEntity
  8
Text
 62
     7
370
     9
100
AcDbLine
 10
87.87931699007065
 20
144.8805600687278
 30
0.0
 11
87.87931699007065
 21
143.3801432635472
 31
0.0
  0
LINE
  5
2B9
330
70
100
AcDbEntity
  8
Text
 62
     7
370
     9
100
AcDbLine
 10
87.8513769900779
 20
144.8805600687278
 30
0.0
 11
87.8513769900779
 21
143.1678768747113
 31
0.0
  0
LINE
  5
2BA
330
70
100
AcDbEntity
  8
Text
 62
     7
370
     9
100
AcDbLine
 10
87.82343699008453
 20
144.8805600687278
 30
0.0
 11
87.82343699008453
 21
142.9556104858754
 31
0.0
  0
LINE
  5
2BB
330
70
100
AcDbEntity
  8
Text
 62
     7
370
     9
100
AcDbLine
 10
87.5721710179256
 20
144.8805600687278
 30
0.0
 11
87.5721710179256
 21
144.8656199298424
 31
0.0
  0
LINE
  5
2BC
330
70
100
AcDbEntity
  8
Text
 62
     7
370
     9
100
AcDbLine
 10
87.5721710179256
 20
144.8805600687278
 30
0.0
 11
87.5721710179256
 21
144.8656199298424
 31
0.0
  0
LINE
  5
2BD
330
70
100
AcDbEntity
  8
Text
 62
     7
370
     9
100
AcDbLine
 10
87.60011101791802
 20
144.8805600687278
 30
0.0
 11
87.60011101791802
 21
144.6533535410066
 31
0.0
  0
LINE
  5
2BE
330
70
100
AcDbEntity
  8
Text
 62
     7
370
     9
100
AcDbLine
 10
87.62805101791107
 20
144.8805600687278
 30
0.0
 11
87.62805101791107
 21
144.4412811799486
 31
0.0
  0
LINE
  5
2BF
330
70
100
AcDbEntity
  8
Text
 62
     7
370
     9
100
AcDbLine
 10
87.65599101790412
 20
144.8805600687278
 30
0.0
 11
87.65599101790412
 21
144.2290147911128
 31
0.0
  0
LINE
  5
2C0
330
70
100
AcDbEntity
  8
Text
 62
     7
370
     9
100
AcDbLine
 10
87.68393101789719
 20
144.8805600687278
 30
0.0
 11
87.68393101789719
 21
144.0167484022769
 31
0.0
  0
LINE
  5
2C1
330
70
100
AcDbEntity
  8
Text
 62
     7
370
     9
100
AcDbLine
 10
87.71187101789058
 20
144.8805600687278
 30
0.0
 11
87.71187101789058
 21
143.804482013441
 31
0.0
  0
LINE
  5
2C2
330
70
100
AcDbEntity
  8
Text
 62
     7
370
     9
100
AcDbLine
 10
87.73981101788331
 20
144.8805600687278
 30
0.0
 11
87.73981101788331
 21
143.5922156246051
 31
0.0
  0
LINE
  5
2C3
330
70
100
AcDbEntity
  8
Text
 62
     7
370
     9
100
AcDbLine
 10
87.76775101787638
 20
144.8805600687278
 30
0.0
 11
87.76775101787638
 21
143.3801432635472
 31
0.0
  0
LINE
  5
2C4
330
70
100
AcDbEntity
  8
Text
 62
     7
370
     9
100
AcDbLine
 10
87.79569101786943
 20
144.8805600687278
 30
0.0
 11
87.79569101786943
 21
143.1678768747113
 31
0.0
  0
LINE
  5
2C5
330
70
100
AcDbEntity
  8
Text
 62
     7
370
     9
100
AcDbLine
 10
87.82343699008453
 20
144.8805600687278
 30
0.0
 11
87.82343699008453
 21
142.9556104858754
 31
0.0
  0
LWPOLYLINE
  5
2C6
330
70
100
AcDbEntity
  8
Text
 62
     7
370
     9
100
AcDbPolyline
 90
        4
 70
     0
 43
0.0
 10
87.82343699008453
 20
152.5805524279137
 10
87.5702307401479
 20
150.6556028450616
 10
88.07683726779911
 20
150.6556028450616
 10
87.82343699008453
 20
152.5805524279137
  0
LINE
  5
2C7
330
70
100
AcDbEntity
  8
Text
 62
     7
370
     9
100
AcDbLine
 10
87.5721710179256
 20
150.6556028450616
 30
0.0
 11
87.5721710179256
 21
150.6705429839467
 31
0.0
  0
LINE
  5
2C8
330
70
100
AcDbEntity
  8
Text
 62
     7
370
     9
100
AcDbLine
 10
87.5721710179256
 20
150.6556028450616
 30
0.0
 11
87.5721710179256
 21
150.6705429839467
 31
0.0
  0
LINE
  5
2C9
330
70
100
AcDbEntity
  8
Text
 62
     7
370
     9
100
AcDbLine
 10
87.60011101791802
 20
150.6556028450616
 30
0.0
 11
87.60011101791802
 21
150.8828093727826
 31
0.0
  0
LINE
  5
2CA
330
70
100
AcDbEntity
  8
Text
 62
     7
370
     9
100
AcDbLine
 10
87.62805101791107
 20
150.6556028450616
 30
0.0
 11
87.62805101791107
 21
151.0950757616184
 31
0.0
  0
LINE
  5
2CB
330
70
100
AcDbEntity
  8
Text
 62
     7
370
     9
100
AcDbLine
 10
87.65599101790412
 20
150.6556028450616
 30
0.0
 11
87.65599101790412
 21
151.3073421504543
 31
0.0
  0
LINE
  5
2CC
330
70
100
AcDbEntity
  8
Text
 62
     7
370
     9
100
AcDbLine
 10
87.68393101789719
 20
150.6556028450616
 30
0.0
 11
87.68393101789719
 21
151.5194145115122
 31
0.0
  0
LINE
  5
2CD
330
70
100
AcDbEntity
  8
Text
 62
     7
370
     9
100
AcDbLine
 10
87.71187101789058
 20
150.6556028450616
 30
0.0
 11
87.71187101789058
 21
151.7316809003481
 31
0.0
  0
LINE
  5
2CE
330
70
100
AcDbEntity
  8
Text
 62
     7
370
     9
100
AcDbLine
 10
87.73981101788331
 20
150.6556028450616
 30
0.0
 11
87.73981101788331
 21
151.943947289184
 31
0.0
  0
LINE
  5
2CF
330
70
100
AcDbEntity
  8
Text
 62
     7
370
     9
100
AcDbLine
 10
87.76775101787638
 20
150.6556028450616
 30
0.0
 11
87.76775101787638
 21
152.1562136780199
 31
0.0
  0
LINE
  5
2D0
330
70
100
AcDbEntity
  8
Text
 62
     7
370
     9
100
AcDbLine
 10
87.79569101786943
 20
150.6556028450616
 30
0.0
 11
87.79569101786943
 21
152.3686740946334
 31
0.0
  0
LINE
  5
2D1
330
70
100
AcDbEntity
  8
Text
 62
     7
370
     9
100
AcDbLine
 10
87.82343699008453
 20
150.6556028450616
 30
0.0
 11
87.82343699008453
 21
152.5805524279137
 31
0.0
  0
LINE
  5
2D2
330
70
100
AcDbEntity
  8
Text
 62
     7
370
     9
100
AcDbLine
 10
88.07489699002239
 20
150.6556028450616
 30
0.0
 11
88.07489699002239
 21
150.6705429839467
 31
0.0
  0
LINE
  5
2D3
330
70
100
AcDbEntity
  8
Text
 62
     7
370
     9
100
AcDbLine
 10
88.07489699002239
 20
150.6556028450616
 30
0.0
 11
88.07489699002239
 21
150.6705429839467
 31
0.0
  0
LINE
  5
2D4
330
70
100
AcDbEntity
  8
Text
 62
     7
370
     9
100
AcDbLine
 10
88.04695699002902
 20
150.6556028450616
 30
0.0
 11
88.04695699002902
 21
150.8828093727826
 31
0.0
  0
LINE
  5
2D5
330
70
100
AcDbEntity
  8
Text
 62
     7
370
     9
100
AcDbLine
 10
88.01901699003595
 20
150.6556028450616
 30
0.0
 11
88.01901699003595
 21
151.0950757616184
 31
0.0
  0
LINE
  5
2D6
330
70
100
AcDbEntity
  8
Text
 62
     7
370
     9
100
AcDbLine
 10
87.9910769900429
 20
150.6556028450616
 30
0.0
 11
87.9910769900429
 21
151.3073421504543
 31
0.0
  0
LINE
  5
2D7
330
70
100
AcDbEntity
  8
Text
 62
     7
370
     9
100
AcDbLine
 10
87.96313699004983
 20
150.6556028450616
 30
0.0
 11
87.96313699004983
 21
151.5194145115122
 31
0.0
  0
LINE
  5
2D8
330
70
100
AcDbEntity
  8
Text
 62
     7
370
     9
100
AcDbLine
 10
87.93519699005678
 20
150.6556028450616
 30
0.0
 11
87.93519699005678
 21
151.7316809003481
 31
0.0
  0
LINE
  5
2D9
330
70
100
AcDbEntity
  8
Text
 62
     7
370
     9
100
AcDbLine
 10
87.90725699006371
 20
150.6556028450616
 30
0.0
 11
87.90725699006371
 21
151.943947289184
 31
0.0
  0
LINE
  5
2DA
330
70
100
AcDbEntity
  8
Text
 62
     7
370
     9
100
AcDbLine
 10
87.87931699007065
 20
150.6556028450616
 30
0.0
 11
87.87931699007065
 21
152.1562136780199
 31
0.0
  0
LINE
  5
2DB
330
70
100
AcDbEntity
  8
Text
 62
     7
370
     9
100
AcDbLine
 10
87.8513769900779
 20
150.6556028450616
 30
0.0
 11
87.8513769900779
 21
152.3686740946334
 31
0.0
  0
LINE
  5
2DC
330
70
100
AcDbEntity
  8
Text
 62
     7
370
     9
100
AcDbLine
 10
87.82343699008453
 20
150.6556028450616
 30
0.0
 11
87.82343699008453
 21
152.5805524279137
 31
0.0
  0
LINE
  5
2DD
330
70
100
AcDbEntity
  8
Text
 62
     7
370
     9
100
AcDbLine
 10
92.72693577907228
 20
145.9808915962303
 30
0.0
 11
106.3370560680876
 21
145.9808915962303
 31
0.0
  0
LINE
  5
2DE
330
70
100
AcDbEntity
  8
Text
 62
     7
370
     9
100
AcDbLine
 10
93.70285620256382
 20
152.5805524279137
 30
0.0
 11
93.70285620256382
 21
145.9808915962303
 31
0.0
  0
MTEXT
  5
2DF
330
70
100
AcDbEntity
  8
Text
100
AcDbMText
 10
92.42013394906294
 20
147.1591107742318
 30
0.0
 40
0.2
 41
0.0
 46
0.0
 71
     7
 72
     1
  1
\C7;\FINDEX Univers 45 Light|b0|i0|c1;\H2.497667;\W1.000000;12
 11
0.0000000000000001
 21
1.0
 31
0.0
 73
     1
 44
1.0
  0
LWPOLYLINE
  5
2E0
330
70
100
AcDbEntity
  8
Text
 62
     7
370
     9
100
AcDbPolyline
 90
        4
 70
     0
 43
0.0
 10
93.70285620256382
 20
152.5805524279137
 10
93.44964995262591
 20
150.6556028450616
 10
93.95625648027714
 20
150.6556028450616
 10
93.70285620256382
 20
152.5805524279137
  0
LINE
  5
2E1
330
70
100
AcDbEntity
  8
Text
 62
     7
370
     9
100
AcDbLine
 10
93.45159023040295
 20
150.6556028450616
 30
0.0
 11
93.45159023040295
 21
150.6705429839467
 31
0.0
  0
LINE
  5
2E2
330
70
100
AcDbEntity
  8
Text
 62
     7
370
     9
100
AcDbLine
 10
93.45159023040295
 20
150.6556028450616
 30
0.0
 11
93.45159023040295
 21
150.6705429839467
 31
0.0
  0
LINE
  5
2E3
330
70
100
AcDbEntity
  8
Text
 62
     7
370
     9
100
AcDbLine
 10
93.47953023039666
 20
150.6556028450616
 30
0.0
 11
93.47953023039666
 21
150.8828093727826
 31
0.0
  0
LINE
  5
2E4
330
70
100
AcDbEntity
  8
Text
 62
     7
370
     9
100
AcDbLine
 10
93.50747023038907
 20
150.6556028450616
 30
0.0
 11
93.50747023038907
 21
151.0950757616184
 31
0.0
  0
LINE
  5
2E5
330
70
100
AcDbEntity
  8
Text
 62
     7
370
     9
100
AcDbLine
 10
93.53541023038214
 20
150.6556028450616
 30
0.0
 11
93.53541023038214
 21
151.3073421504543
 31
0.0
  0
LINE
  5
2E6
330
70
100
AcDbEntity
  8
Text
 62
     7
370
     9
100
AcDbLine
 10
93.56335023037521
 20
150.6556028450616
 30
0.0
 11
93.56335023037521
 21
151.5194145115122
 31
0.0
  0
LINE
  5
2E7
330
70
100
AcDbEntity
  8
Text
 62
     7
370
     9
100
AcDbLine
 10
93.59129023036826
 20
150.6556028450616
 30
0.0
 11
93.59129023036826
 21
151.7316809003481
 31
0.0
  0
LINE
  5
2E8
330
70
100
AcDbEntity
  8
Text
 62
     7
370
     9
100
AcDbLine
 10
93.61923023036132
 20
150.6556028450616
 30
0.0
 11
93.61923023036132
 21
151.943947289184
 31
0.0
  0
LINE
  5
2E9
330
70
100
AcDbEntity
  8
Text
 62
     7
370
     9
100
AcDbLine
 10
93.64697620257706
 20
150.6556028450616
 30
0.0
 11
93.64697620257706
 21
152.1562136780199
 31
0.0
  0
LINE
  5
2EA
330
70
100
AcDbEntity
  8
Text
 62
     7
370
     9
100
AcDbLine
 10
93.67491620257075
 20
150.6556028450616
 30
0.0
 11
93.67491620257075
 21
152.3686740946334
 31
0.0
  0
LINE
  5
2EB
330
70
100
AcDbEntity
  8
Text
 62
     7
370
     9
100
AcDbLine
 10
93.70285620256382
 20
150.6556028450616
 30
0.0
 11
93.70285620256382
 21
152.5805524279137
 31
0.0
  0
LINE
  5
2EC
330
70
100
AcDbEntity
  8
Text
 62
     7
370
     9
100
AcDbLine
 10
93.95451023027804
 20
150.6556028450616
 30
0.0
 11
93.95451023027804
 21
150.6705429839467
 31
0.0
  0
LINE
  5
2ED
330
70
100
AcDbEntity
  8
Text
 62
     7
370
     9
100
AcDbLine
 10
93.95451023027804
 20
150.6556028450616
 30
0.0
 11
93.95451023027804
 21
150.6705429839467
 31
0.0
  0
LINE
  5
2EE
330
70
100
AcDbEntity
  8
Text
 62
     7
370
     9
100
AcDbLine
 10
93.92637620250701
 20
150.6556028450616
 30
0.0
 11
93.92637620250701
 21
150.8828093727826
 31
0.0
  0
LINE
  5
2EF
330
70
100
AcDbEntity
  8
Text
 62
     7
370
     9
100
AcDbLine
 10
93.89843620251395
 20
150.6556028450616
 30
0.0
 11
93.89843620251395
 21
151.0950757616184
 31
0.0
  0
LINE
  5
2F0
330
70
100
AcDbEntity
  8
Text
 62
     7
370
     9
100
AcDbLine
 10
93.8704962025209
 20
150.6556028450616
 30
0.0
 11
93.8704962025209
 21
151.3073421504543
 31
0.0
  0
LINE
  5
2F1
330
70
100
AcDbEntity
  8
Text
 62
     7
370
     9
100
AcDbLine
 10
93.84255620252849
 20
150.6556028450616
 30
0.0
 11
93.84255620252849
 21
151.5194145115122
 31
0.0
  0
LINE
  5
2F2
330
70
100
AcDbEntity
  8
Text
 62
     7
370
     9
100
AcDbLine
 10
93.81461620253478
 20
150.6556028450616
 30
0.0
 11
93.81461620253478
 21
151.7316809003481
 31
0.0
  0
LINE
  5
2F3
330
70
100
AcDbEntity
  8
Text
 62
     7
370
     9
100
AcDbLine
 10
93.78667620254171
 20
150.6556028450616
 30
0.0
 11
93.78667620254171
 21
151.943947289184
 31
0.0
  0
LINE
  5
2F4
330
70
100
AcDbEntity
  8
Text
 62
     7
370
     9
100
AcDbLine
 10
93.75873620254866
 20
150.6556028450616
 30
0.0
 11
93.75873620254866
 21
152.1562136780199
 31
0.0
  0
LINE
  5
2F5
330
70
100
AcDbEntity
  8
Text
 62
     7
370
     9
100
AcDbLine
 10
93.73079620255689
 20
150.6556028450616
 30
0.0
 11
93.73079620255689
 21
152.3686740946334
 31
0.0
  0
LINE
  5
2F6
330
70
100
AcDbEntity
  8
Text
 62
     7
370
     9
100
AcDbLine
 10
93.70285620256382
 20
150.6556028450616
 30
0.0
 11
93.70285620256382
 21
152.5805524279137
 31
0.0
  0
LWPOLYLINE
  5
2F7
330
70
100
AcDbEntity
  8
Text
 62
     7
370
     9
100
AcDbPolyline
 90
        4
 70
     0
 43
0.0
 10
93.70285620256382
 20
145.9808915962303
 10
93.95625648027714
 20
147.9056471513047
 10
93.44964995262591
 20
147.9056471513047
 10
93.70285620256382
 20
145.9808915962303
  0
LINE
  5
2F8
330
70
100
AcDbEntity
  8
Text
 62
     7
370
     9
100
AcDbLine
 10
93.95451023027804
 20
147.9056471513047
 30
0.0
 11
93.95451023027804
 21
147.8907070124193
 31
0.0
  0
LINE
  5
2F9
330
70
100
AcDbEntity
  8
Text
 62
     7
370
     9
100
AcDbLine
 10
93.95451023027804
 20
147.9056471513047
 30
0.0
 11
93.95451023027804
 21
147.8907070124193
 31
0.0
  0
LINE
  5
2FA
330
70
100
AcDbEntity
  8
Text
 62
     7
370
     9
100
AcDbLine
 10
93.92637620250701
 20
147.9056471513047
 30
0.0
 11
93.92637620250701
 21
147.6786346513614
 31
0.0
  0
LINE
  5
2FB
330
70
100
AcDbEntity
  8
Text
 62
     7
370
     9
100
AcDbLine
 10
93.89843620251395
 20
147.9056471513047
 30
0.0
 11
93.89843620251395
 21
147.4663682625255
 31
0.0
  0
LINE
  5
2FC
330
70
100
AcDbEntity
  8
Text
 62
     7
370
     9
100
AcDbLine
 10
93.8704962025209
 20
147.9056471513047
 30
0.0
 11
93.8704962025209
 21
147.2541018736897
 31
0.0
  0
LINE
  5
2FD
330
70
100
AcDbEntity
  8
Text
 62
     7
370
     9
100
AcDbLine
 10
93.84255620252849
 20
147.9056471513047
 30
0.0
 11
93.84255620252849
 21
147.0418354848538
 31
0.0
  0
LINE
  5
2FE
330
70
100
AcDbEntity
  8
Text
 62
     7
370
     9
100
AcDbLine
 10
93.81461620253478
 20
147.9056471513047
 30
0.0
 11
93.81461620253478
 21
146.8297631237958
 31
0.0
  0
LINE
  5
2FF
330
70
100
AcDbEntity
  8
Text
 62
     7
370
     9
100
AcDbLine
 10
93.78667620254171
 20
147.9056471513047
 30
0.0
 11
93.78667620254171
 21
146.61749673496
 31
0.0
  0
LINE
  5
300
330
70
100
AcDbEntity
  8
Text
 62
     7
370
     9
100
AcDbLine
 10
93.75873620254866
 20
147.9056471513047
 30
0.0
 11
93.75873620254866
 21
146.4052303461241
 31
0.0
  0
LINE
  5
301
330
70
100
AcDbEntity
  8
Text
 62
     7
370
     9
100
AcDbLine
 10
93.73079620255689
 20
147.9056471513047
 30
0.0
 11
93.73079620255689
 21
146.1929639572882
 31
0.0
  0
LINE
  5
302
330
70
100
AcDbEntity
  8
Text
 62
     7
370
     9
100
AcDbLine
 10
93.70285620256382
 20
147.9056471513047
 30
0.0
 11
93.70285620256382
 21
145.9808915962303
 31
0.0
  0
LINE
  5
303
330
70
100
AcDbEntity
  8
Text
 62
     7
370
     9
100
AcDbLine
 10
93.45159023040295
 20
147.9056471513047
 30
0.0
 11
93.45159023040295
 21
147.8907070124193
 31
0.0
  0
LINE
  5
304
330
70
100
AcDbEntity
  8
Text
 62
     7
370
     9
100
AcDbLine
 10
93.45159023040295
 20
147.9056471513047
 30
0.0
 11
93.45159023040295
 21
147.8907070124193
 31
0.0
  0
LINE
  5
305
330
70
100
AcDbEntity
  8
Text
 62
     7
370
     9
100
AcDbLine
 10
93.47953023039666
 20
147.9056471513047
 30
0.0
 11
93.47953023039666
 21
147.6786346513614
 31
0.0
  0
LINE
  5
306
330
70
100
AcDbEntity
  8
Text
 62
     7
370
     9
100
AcDbLine
 10
93.50747023038907
 20
147.9056471513047
 30
0.0
 11
93.50747023038907
 21
147.4663682625255
 31
0.0
  0
LINE
  5
307
330
70
100
AcDbEntity
  8
Text
 62
     7
370
     9
100
AcDbLine
 10
93.53541023038214
 20
147.9056471513047
 30
0.0
 11
93.53541023038214
 21
147.2541018736897
 31
0.0
  0
LINE
  5
308
330
70
100
AcDbEntity
  8
Text
 62
     7
370
     9
100
AcDbLine
 10
93.56335023037521
 20
147.9056471513047
 30
0.0
 11
93.56335023037521
 21
147.0418354848538
 31
0.0
  0
LINE
  5
309
330
70
100
AcDbEntity
  8
Text
 62
     7
370
     9
100
AcDbLine
 10
93.59129023036826
 20
147.9056471513047
 30
0.0
 11
93.59129023036826
 21
146.8297631237958
 31
0.0
  0
LINE
  5
30A
330
70
100
AcDbEntity
  8
Text
 62
     7
370
     9
100
AcDbLine
 10
93.61923023036132
 20
147.9056471513047
 30
0.0
 11
93.61923023036132
 21
146.61749673496
 31
0.0
  0
LINE
  5
30B
330
70
100
AcDbEntity
  8
Text
 62
     7
370
     9
100
AcDbLine
 10
93.64697620257706
 20
147.9056471513047
 30
0.0
 11
93.64697620257706
 21
146.4052303461241
 31
0.0
  0
LINE
  5
30C
330
70
100
AcDbEntity
  8
Text
 62
     7
370
     9
100
AcDbLine
 10
93.67491620257075
 20
147.9056471513047
 30
0.0
 11
93.67491620257075
 21
146.1929639572882
 31
0.0
  0
LINE
  5
30D
330
70
100
AcDbEntity
  8
Text
 62
     7
370
     9
100
AcDbLine
 10
93.70285620256382
 20
147.9056471513047
 30
0.0
 11
93.70285620256382
 21
145.9808915962303
 31
0.0
  0
ENDSEC
  0
SECTION
  2
OBJECTS
  0
DICTIONARY
  5
C
330
0
100
AcDbDictionary
281
     1
  3
ACAD_COLOR
350
63
  3
ACAD_DETAILVIEWSTYLE
350
6A
  3
ACAD_GROUP
350
D
  3
ACAD_LAYOUT
350
62
  3
ACAD_MATERIAL
350
10
  3
ACAD_MLEADERSTYLE
350
66
  3
ACAD_MLINESTYLE
350
5F
  3
ACAD_PLOTSETTINGS
350
61
  3
ACAD_PLOTSTYLENAME
350
E
  3
ACAD_SCALELIST
350
42
  3
ACAD_SECTIONVIEWSTYLE
350
68
  3
ACAD_TABLESTYLE
350
64
  3
ACAD_VISUALSTYLE
350
29
  3
ACDB_RECOMPOSE_DATA
350
316
  3
AcDbVariableDictionary
350
30E
  0
DICTIONARY
  5
63
102
{ACAD_REACTORS
330
C
102
}
330
C
100
AcDbDictionary
281
     1
  0
DICTIONARY
  5
6A
102
{ACAD_REACTORS
330
C
102
}
330
C
100
AcDbDictionary
281
     1
  3
Imperial24
350
6B
  0
DICTIONARY
  5
D
102
{ACAD_REACTORS
330
C
102
}
330
C
100
AcDbDictionary
281
     1
  0
DICTIONARY
  5
62
102
{ACAD_REACTORS
330
C
102
}
330
C
100
AcDbDictionary
281
     1
  3
Layout1
350
6F
  3
Layout2
350
77
  3
Model
350
73
  0
DICTIONARY
  5
10
102
{ACAD_REACTORS
330
C
102
}
330
C
100
AcDbDictionary
281
     1
  3
ByBlock
350
19
  3
ByLayer
350
11
  3
Global
350
21
  0
DICTIONARY
  5
66
102
{ACAD_REACTORS
330
C
102
}
330
C
100
AcDbDictionary
281
     1
  3
Standard
350
67
  0
DICTIONARY
  5
5F
102
{ACAD_REACTORS
330
C
102
}
330
C
100
AcDbDictionary
281
     1
  3
Standard
350
60
  0
DICTIONARY
  5
61
102
{ACAD_REACTORS
330
C
102
}
330
C
100
AcDbDictionary
281
     1
  0
ACDBDICTIONARYWDFLT
  5
E
102
{ACAD_REACTORS
330
C
102
}
330
C
100
AcDbDictionary
281
     1
  3
Normal
350
F
100
AcDbDictionaryWithDefault
340
F
  0
DICTIONARY
  5
42
102
{ACAD_REACTORS
330
C
102
}
330
C
100
AcDbDictionary
281
     1
  3
A0
350
43
  3
A1
350
44
  3
A2
350
45
  3
A3
350
46
  3
A4
350
47
  3
A5
350
48
  3
A6
350
49
  3
A7
350
4A
  3
A8
350
4B
  3
A9
350
4C
  3
B0
350
4D
  3
B1
350
4E
  3
B2
350
4F
  3
B3
350
50
  3
B4
350
51
  3
B5
350
52
  3
B6
350
53
  0
DICTIONARY
  5
68
102
{ACAD_REACTORS
330
C
102
}
330
C
100
AcDbDictionary
281
     1
  3
Imperial24
350
69
  0
DICTIONARY
  5
64
102
{ACAD_REACTORS
330
C
102
}
330
C
100
AcDbDictionary
281
     1
  3
Standard
350
65
  0
DICTIONARY
  5
29
102
{ACAD_REACTORS
330
C
102
}
330
C
100
AcDbDictionary
281
     1
  3
2dWireframe
350
2F
  3
Basic
350
2E
  3
Brighten
350
35
  3
ColorChange
350
39
  3
Conceptual
350
32
  3
Dim
350
34
  3
EdgeColorOff
350
41
  3
Facepattern
350
38
  3
Flat
350
2A
  3
FlatWithEdges
350
2B
  3
Gouraud
350
2C
  3
GouraudWithEdges
350
2D
  3
Hidden
350
31
  3
JitterOff
350
3F
  3
Linepattern
350
37
  3
OverhangOff
350
40
  3
Realistic
350
33
  3
Shaded
350
3E
  3
Shaded with edges
350
3D
  3
Shades of Gray
350
3A
  3
Sketchy
350
3B
  3
Thicken
350
36
  3
Wireframe
350
30
  3
X-Ray
350
3C
  0
XRECORD
  5
316
102
{ACAD_REACTORS
330
C
102
}
330
C
100
AcDbXrecord
280
     1
 90
        1
330
65
  0
DICTIONARY
  5
30E
102
{ACAD_REACTORS
330
C
102
}
330
C
100
AcDbDictionary
281
     1
  3
CANNOSCALE
350
313
  3
CMLEADERSTYLE
350
310
  3
CTABLESTYLE
350
30F
  3
CVIEWDETAILSTYLE
350
311
  3
CVIEWSECTIONSTYLE
350
312
  0
ACDBDETAILVIEWSTYLE
  5
6B
102
{ACAD_REACTORS
330
6A
102
}
330
6A
100
AcDbModelDocViewStyle
 70
     0
  3
Imperial24
290
     1
300
Imperial24
 90
        0
100
AcDbDetailViewStyle
 70
     0
 71
     0
 90
        3
 71
     1
340
55
 62
   256
 40
0.24
340
0
 62
   256
 40
0.24
300

 40
0.36
280
     3
 71
     2
340
5D
 90
       25
 62
   256
 71
     3
340
55
 62
   256
 40
0.24
 90
        1
 40
0.75
 90
        1
300
%<\AcVar ViewType \f "%tc1">% %<\AcVar ViewDetailId>%\PSCALE %<\AcVar ViewScale \f "%sn">%
 71
     4
340
5D
 90
       25
 62
   256
340
5D
 90
       25
 62
   256
280
     0
  0
LAYOUT
  5
6F
102
{ACAD_REACTORS
330
62
102
}
330
62
100
AcDbPlotSettings
  1

  2

  4

  6

 40
0.0
 41
0.0
 42
0.0
 43
0.0
 44
0.0
 45
0.0
 46
0.0
 47
0.0
 48
0.0
 49
0.0
140
0.0
141
0.0
142
1.0
143
1.0
 70
   688
 72
     0
 73
     0
 74
     5
  7

 75
    16
147
1.0
 76
     0
 77
     2
 78
   300
148
0.0
149
0.0
100
AcDbLayout
  1
Layout1
 70
     1
 71
     1
 10
0.0
 20
0.0
 11
12.0
 21
9.0
 12
0.0
 22
0.0
 32
0.0
 14
0.0
 24
0.0
 34
0.0
 15
0.0
 25
0.0
 35
0.0
146
0.0
 13
0.0
 23
0.0
 33
0.0
 16
1.0
 26
0.0
 36
0.0
 17
0.0
 27
1.0
 37
0.0
 76
     0
330
6C
  0
LAYOUT
  5
77
102
{ACAD_REACTORS
330
62
102
}
330
62
100
AcDbPlotSettings
  1

  2

  4

  6

 40
0.0
 41
0.0
 42
0.0
 43
0.0
 44
0.0
 45
0.0
 46
0.0
 47
0.0
 48
0.0
 49
0.0
140
0.0
141
0.0
142
1.0
143
1.0
 70
   688
 72
     0
 73
     0
 74
     5
  7

 75
    16
147
1.0
 76
     0
 77
     2
 78
   300
148
0.0
149
0.0
100
AcDbLayout
  1
Layout2
 70
     1
 71
     2
 10
0.0
 20
0.0
 11
12.0
 21
9.0
 12
0.0
 22
0.0
 32
0.0
 14
0.0
 24
0.0
 34
0.0
 15
0.0
 25
0.0
 35
0.0
146
0.0
 13
0.0
 23
0.0
 33
0.0
 16
1.0
 26
0.0
 36
0.0
 17
0.0
 27
1.0
 37
0.0
 76
     0
330
74
  0
LAYOUT
  5
73
102
{ACAD_REACTORS
330
62
102
}
330
62
100
AcDbPlotSettings
  1

  2

  4

  6

 40
0.0
 41
0.0
 42
0.0
 43
0.0
 44
0.0
 45
0.0
 46
0.0
 47
0.0
 48
0.0
 49
0.0
140
0.0
141
0.0
142
1.0
143
1.0
 70
  1712
 72
     0
 73
     0
 74
     0
  7

 75
     0
147
1.0
 76
     0
 77
     2
 78
   300
148
0.0
149
0.0
100
AcDbLayout
  1
Model
 70
     1
 71
     0
 10
0.0
 20
0.0
 11
12.0
 21
9.0
 12
0.0
 22
0.0
 32
0.0
 14
0.0
 24
0.0
 34
0.0
 15
0.0
 25
0.0
 35
0.0
146
0.0
 13
0.0
 23
0.0
 33
0.0
 16
1.0
 26
0.0
 36
0.0
 17
0.0
 27
1.0
 37
0.0
 76
     0
330
70
  0
MATERIAL
  5
19
102
{ACAD_XDICTIONARY
360
1A
102
}
102
{ACAD_REACTORS
330
10
102
}
330
10
100
AcDbMaterial
  1
ByBlock
 72
     0
 43
0.0208333333333333
 43
0.0
 43
0.0
 43
0.0
 43
0.0
 43
0.0208333333333333
 43
0.0
 43
0.0
 43
0.0
 43
0.0
 43
1.0
 43
0.0
 43
0.0
 43
0.0
 43
0.0
 43
1.0
 77
     0
 47
0.0208333333333333
 47
0.0
 47
0.0
 47
0.0
 47
0.0
 47
0.0208333333333333
 47
0.0
 47
0.0
 47
0.0
 47
0.0
 47
1.0
 47
0.0
 47
0.0
 47
0.0
 47
0.0
 47
1.0
171
     0
 49
0.0208333333333333
 49
0.0
 49
0.0
 49
0.0
 49
0.0
 49
0.0208333333333333
 49
0.0
 49
0.0
 49
0.0
 49
0.0
 49
1.0
 49
0.0
 49
0.0
 49
0.0
 49
0.0
 49
1.0
175
     0
142
0.0208333333333333
142
0.0
142
0.0
142
0.0
142
0.0
142
0.0208333333333333
142
0.0
142
0.0
142
0.0
142
0.0
142
1.0
142
0.0
142
0.0
142
0.0
142
0.0
142
1.0
179
     0
144
0.0208333333333333
144
0.0
144
0.0
144
0.0
144
0.0
144
0.0208333333333333
144
0.0
144
0.0
144
0.0
144
0.0
144
1.0
144
0.0
144
0.0
144
0.0
144
0.0
144
1.0
147
0.0208333333333333
147
0.0
147
0.0
147
0.0
147
0.0
147
0.0208333333333333
147
0.0
147
0.0
147
0.0
147
0.0
147
1.0
147
0.0
147
0.0
147
0.0
147
0.0
147
1.0
  0
MATERIAL
  5
11
102
{ACAD_XDICTIONARY
360
12
102
}
102
{ACAD_REACTORS
330
10
102
}
330
10
100
AcDbMaterial
  1
ByLayer
 72
     0
 43
0.0208333333333333
 43
0.0
 43
0.0
 43
0.0
 43
0.0
 43
0.0208333333333333
 43
0.0
 43
0.0
 43
0.0
 43
0.0
 43
1.0
 43
0.0
 43
0.0
 43
0.0
 43
0.0
 43
1.0
 77
     0
 47
0.0208333333333333
 47
0.0
 47
0.0
 47
0.0
 47
0.0
 47
0.0208333333333333
 47
0.0
 47
0.0
 47
0.0
 47
0.0
 47
1.0
 47
0.0
 47
0.0
 47
0.0
 47
0.0
 47
1.0
171
     0
 49
0.0208333333333333
 49
0.0
 49
0.0
 49
0.0
 49
0.0
 49
0.0208333333333333
 49
0.0
 49
0.0
 49
0.0
 49
0.0
 49
1.0
 49
0.0
 49
0.0
 49
0.0
 49
0.0
 49
1.0
175
     0
142
0.0208333333333333
142
0.0
142
0.0
142
0.0
142
0.0
142
0.0208333333333333
142
0.0
142
0.0
142
0.0
142
0.0
142
1.0
142
0.0
142
0.0
142
0.0
142
0.0
142
1.0
179
     0
144
0.0208333333333333
144
0.0
144
0.0
144
0.0
144
0.0
144
0.0208333333333333
144
0.0
144
0.0
144
0.0
144
0.0
144
1.0
144
0.0
144
0.0
144
0.0
144
0.0
144
1.0
147
0.0208333333333333
147
0.0
147
0.0
147
0.0
147
0.0
147
0.0208333333333333
147
0.0
147
0.0
147
0.0
147
0.0
147
1.0
147
0.0
147
0.0
147
0.0
147
0.0
147
1.0
  0
MATERIAL
  5
21
102
{ACAD_XDICTIONARY
360
22
102
}
102
{ACAD_REACTORS
330
10
102
}
330
10
100
AcDbMaterial
  1
Global
 72
     0
 43
0.0208333333333333
 43
0.0
 43
0.0
 43
0.0
 43
0.0
 43
0.0208333333333333
 43
0.0
 43
0.0
 43
0.0
 43
0.0
 43
1.0
 43
0.0
 43
0.0
 43
0.0
 43
0.0
 43
1.0
 77
     0
 47
0.0208333333333333
 47
0.0
 47
0.0
 47
0.0
 47
0.0
 47
0.0208333333333333
 47
0.0
 47
0.0
 47
0.0
 47
0.0
 47
1.0
 47
0.0
 47
0.0
 47
0.0
 47
0.0
 47
1.0
171
     0
 49
0.0208333333333333
 49
0.0
 49
0.0
 49
0.0
 49
0.0
 49
0.0208333333333333
 49
0.0
 49
0.0
 49
0.0
 49
0.0
 49
1.0
 49
0.0
 49
0.0
 49
0.0
 49
0.0
 49
1.0
175
     0
142
0.0208333333333333
142
0.0
142
0.0
142
0.0
142
0.0
142
0.0208333333333333
142
0.0
142
0.0
142
0.0
142
0.0
142
1.0
142
0.0
142
0.0
142
0.0
142
0.0
142
1.0
179
     0
144
0.0208333333333333
144
0.0
144
0.0
144
0.0
144
0.0
144
0.0208333333333333
144
0.0
144
0.0
144
0.0
144
0.0
144
1.0
144
0.0
144
0.0
144
0.0
144
0.0
144
1.0
147
0.0208333333333333
147
0.0
147
0.0
147
0.0
147
0.0
147
0.0208333333333333
147
0.0
147
0.0
147
0.0
147
0.0
147
1.0
147
0.0
147
0.0
147
0.0
147
0.0
147
1.0
  0
MLEADERSTYLE
  5
67
102
{ACAD_REACTORS
330
66
102
}
330
66
100
AcDbMLeaderStyle
179
     2
170
     2
171
     1
172
     0
 90
        2
 40
0.0
 41
0.0
173
     1
 91
-1056964608
340
5B
 92
       -2
290
     1
 42
0.09
291
     1
 43
0.36
  3
Standard
 44
0.18
300

342
55
174
     1
178
     6
175
     1
176
     0
 93
-1056964608
 45
0.18
292
     0
297
     0
 46
0.18
 94
-1056964608
 47
1.0
 49
1.0
140
1.0
293
     1
141
0.0
294
     1
177
     0
142
1.0
295
     1
296
     0
143
0.125
271
     0
272
     9
273
     9
298
     1
  0
MLINESTYLE
  5
60
102
{ACAD_REACTORS
330
5F
102
}
330
5F
100
AcDbMlineStyle
  2
STANDARD
 70
     0
  3

 62
   256
 51
90.0
 52
90.0
 71
     2
 49
0.5
 62
   256
  6
BYLAYER
 49
-0.5
 62
   256
  6
BYLAYER
  0
ACDBPLACEHOLDER
  5
F
102
{ACAD_REACTORS
330
E
102
}
330
E
  0
SCALE
  5
43
102
{ACAD_REACTORS
330
42
102
}
330
42
100
AcDbScale
 70
     0
300
1:1
140
1.0
141
1.0
290
     1
  0
SCALE
  5
44
102
{ACAD_REACTORS
330
42
102
}
330
42
100
AcDbScale
 70
     0
300
1/128" = 1'-0"
140
0.0078125
141
12.0
290
     0
  0
SCALE
  5
45
102
{ACAD_REACTORS
330
42
102
}
330
42
100
AcDbScale
 70
     0
300
1/64" = 1'-0"
140
0.015625
141
12.0
290
     0
  0
SCALE
  5
46
102
{ACAD_REACTORS
330
42
102
}
330
42
100
AcDbScale
 70
     0
300
1/32" = 1'-0"
140
0.03125
141
12.0
290
     0
  0
SCALE
  5
47
102
{ACAD_REACTORS
330
42
102
}
330
42
100
AcDbScale
 70
     0
300
1/16" = 1'-0"
140
0.0625
141
12.0
290
     0
  0
SCALE
  5
48
102
{ACAD_REACTORS
330
42
102
}
330
42
100
AcDbScale
 70
     0
300
3/32" = 1'-0"
140
0.09375
141
12.0
290
     0
  0
SCALE
  5
49
102
{ACAD_REACTORS
330
42
102
}
330
42
100
AcDbScale
 70
     0
300
1/8" = 1'-0"
140
0.125
141
12.0
290
     0
  0
SCALE
  5
4A
102
{ACAD_REACTORS
330
42
102
}
330
42
100
AcDbScale
 70
     0
300
3/16" = 1'-0"
140
0.1875
141
12.0
290
     0
  0
SCALE
  5
4B
102
{ACAD_REACTORS
330
42
102
}
330
42
100
AcDbScale
 70
     0
300
1/4" = 1'-0"
140
0.25
141
12.0
290
     0
  0
SCALE
  5
4C
102
{ACAD_REACTORS
330
42
102
}
330
42
100
AcDbScale
 70
     0
300
3/8" = 1'-0"
140
0.375
141
12.0
290
     0
  0
SCALE
  5
4D
102
{ACAD_REACTORS
330
42
102
}
330
42
100
AcDbScale
 70
     0
300
1/2" = 1'-0"
140
0.5
141
12.0
290
     0
  0
SCALE
  5
4E
102
{ACAD_REACTORS
330
42
102
}
330
42
100
AcDbScale
 70
     0
300
3/4" = 1'-0"
140
0.75
141
12.0
290
     0
  0
SCALE
  5
4F
102
{ACAD_REACTORS
330
42
102
}
330
42
100
AcDbScale
 70
     0
300
1" = 1'-0"
140
1.0
141
12.0
290
     0
  0
SCALE
  5
50
102
{ACAD_REACTORS
330
42
102
}
330
42
100
AcDbScale
 70
     0
300
1-1/2" = 1'-0"
140
1.5
141
12.0
290
     0
  0
SCALE
  5
51
102
{ACAD_REACTORS
330
42
102
}
330
42
100
AcDbScale
 70
     0
300
3" = 1'-0"
140
3.0
141
12.0
290
     0
  0
SCALE
  5
52
102
{ACAD_REACTORS
330
42
102
}
330
42
100
AcDbScale
 70
     0
300
6" = 1'-0"
140
6.0
141
12.0
290
     0
  0
SCALE
  5
53
102
{ACAD_REACTORS
330
42
102
}
330
42
100
AcDbScale
 70
     0
300
1'-0" = 1'-0"
140
12.0
141
12.0
290
     0
  0
ACDBSECTIONVIEWSTYLE
  5
69
102
{ACAD_REACTORS
330
68
102
}
330
68
100
AcDbModelDocViewStyle
 70
     0
  3
Imperial24
290
     1
300
Imperial24
 90
        0
100
AcDbSectionViewStyle
 70
     0
 71
     0
 90
       78
 71
     1
340
55
 62
   256
 40
0.24
340
0
340
0
 62
   256
 40
0.24
300
I, O, Q, S, X, Z
 40
0.48
 90
        3
 40
0.18
 90
        1
 71
     2
340
5D
 90
       25
 62
   256
340
5D
 90
       50
 62
   256
 40
0.24
 40
0.0
 40
0.24
 71
     3
340
55
 62
   256
 40
0.24
 90
        1
 40
0.75
 90
        1
300
%<\AcVar ViewType \f "%tc1">% %<\AcVar ViewSectionStartId>%-%<\AcVar ViewSectionEndId>%\PSCALE %<\AcVar ViewScale \f "%sn">%
 71
     4
 62
   256
 62
   257
300
ANSI31
 40
1.0
 90
        0
290
     0
290
     0
 90
        6
 40
0.0
 40
1.570796326794896
 40
0.2617993877991494
 40
1.308996938995747
 40
-0.2617993877991494
 40
1.832595714594046
  0
TABLESTYLE
  5
65
102
{ACAD_XDICTIONARY
360
314
102
}
102
{ACAD_REACTORS
330
64
102
}
330
64
100
AcDbTableStyle
280
     0
  3
Standard
 70
     0
 71
     0
 40
0.06
 41
0.06
280
     0
281
     0
  7
Standard
140
0.18
170
     2
 62
     0
 63
     7
283
     0
 90
      512
 91
        0
  1

274
    -2
284
     1
 64
     0
275
    -2
285
     1
 65
     0
276
    -2
286
     1
 66
     0
277
    -2
287
     1
 67
     0
278
    -2
288
     1
 68
     0
279
    -2
289
     1
 69
     0
  7
Standard
140
0.25
170
     5
 62
     0
 63
     7
283
     0
 90
      512
 91
        0
  1

274
    -2
284
     1
 64
     0
275
    -2
285
     1
 65
     0
276
    -2
286
     1
 66
     0
277
    -2
287
     1
 67
     0
278
    -2
288
     1
 68
     0
279
    -2
289
     1
 69
     0
  7
Standard
140
0.18
170
     5
 62
     0
 63
     7
283
     0
 90
      512
 91
        0
  1

274
    -2
284
     1
 64
     0
275
    -2
285
     1
 65
     0
276
    -2
286
     1
 66
     0
277
    -2
287
     1
 67
     0
278
    -2
288
     1
 68
     0
279
    -2
289
     1
 69
     0
  0
VISUALSTYLE
  5
2F
102
{ACAD_REACTORS
330
29
102
}
330
29
100
AcDbVisualStyle
  2
2dWireframe
 70
     4
177
     3
291
     0
 70
    58
 90
        0
176
     1
 90
        2
176
     1
 90
        0
176
     1
 90
        0
176
     1
 40
0.6
176
     1
 40
30.0
176
     1
 62
     7
420
 16777215
176
     1
 90
        1
176
     1
 90
        4
176
     1
 62
     7
176
     1
 62
   257
176
     1
 90
        1
176
     1
 90
        1
176
     1
 40
1.0
176
     1
 90
        0
176
     1
 62
   257
176
     1
 40
1.0
176
     1
 90
        1
176
     1
 90
        6
176
     1
 90
        2
176
     1
 62
     7
176
     1
 90
        5
176
     1
 90
        0
176
     1
 90
        0
176
     1
290
     0
176
     1
 90
        1
176
     1
 40
0.0
176
     1
 90
        0
176
     1
290
     1
176
     1
290
     1
176
     1
290
     0
176
     1
290
     0
176
     1
290
     0
176
     1
290
     0
176
     1
290
     0
176
     1
290
     0
176
     1
290
     0
176
     1
 90
       50
176
     1
 40
0.0
176
     1
 40
1.0
176
     1
 90
        0
176
     1
 62
    18
420
        0
176
     1
 90
       50
176
     1
 90
        3
176
     1
 62
     5
420
      255
176
     1
290
     0
176
     1
 90
       50
176
     1
 90
       50
176
     1
 90
       50
176
     1
290
     0
176
     1
 90
       50
176
     1
 62
   256
176
     0
 40
1.0
176
     0
 90
        2
176
     1
  1
strokes_ogs.tif
176
     1
290
     0
176
     1
 40
1.0
176
     1
 40
1.0
176
     1
  0
VISUALSTYLE
  5
2E
102
{ACAD_REACTORS
330
29
102
}
330
29
100
AcDbVisualStyle
  2
Basic
 70
     7
177
     3
291
     1
 70
    58
 90
        1
176
     1
 90
        0
176
     1
 90
        1
176
     1
 90
        0
176
     1
 40
0.6
176
     1
 40
30.0
176
     1
 62
     7
420
 16777215
176
     1
 90
        0
176
     1
 90
        4
176
     1
 62
     7
176
     1
 62
   257
176
     1
 90
        1
176
     1
 90
        1
176
     1
 40
1.0
176
     1
 90
        8
176
     1
 62
     7
176
     1
 40
1.0
176
     1
 90
        1
176
     1
 90
        6
176
     1
 90
        2
176
     1
 62
     7
176
     1
 90
        5
176
     1
 90
        0
176
     1
 90
        0
176
     1
290
     0
176
     1
 90
        1
176
     1
 40
0.0
176
     1
 90
        0
176
     1
290
     0
176
     1
290
     1
176
     1
290
     1
176
     1
290
     0
176
     1
290
     0
176
     1
290
     0
176
     1
290
     0
176
     1
290
     0
176
     1
290
     0
176
     1
 90
       50
176
     1
 40
0.0
176
     1
 40
1.0
176
     1
 90
        0
176
     1
 62
    18
420
        0
176
     1
 90
       50
176
     1
 90
        3
176
     1
 62
     5
420
      255
176
     1
290
     0
176
     1
 90
       50
176
     1
 90
       50
176
     1
 90
       50
176
     1
290
     0
176
     1
 90
       50
176
     1
 62
   256
176
     0
 40
1.0
176
     0
 90
        2
176
     1
  1
strokes_ogs.tif
176
     1
290
     0
176
     1
 40
1.0
176
     1
 40
1.0
176
     1
  0
VISUALSTYLE
  5
35
102
{ACAD_REACTORS
330
29
102
}
330
29
100
AcDbVisualStyle
  2
Brighten
 70
    12
177
     3
291
     1
 70
    58
 90
        2
176
     1
 90
        2
176
     1
 90
        0
176
     1
 90
        0
176
     1
 40
0.6
176
     1
 40
30.0
176
     1
 62
     7
420
 16777215
176
     1
 90
        1
176
     1
 90
        4
176
     1
 62
     7
176
     1
 62
   257
176
     1
 90
        1
176
     1
 90
        1
176
     1
 40
1.0
176
     1
 90
        8
176
     1
 62
     7
176
     1
 40
1.0
176
     1
 90
        1
176
     1
 90
        6
176
     1
 90
        2
176
     1
 62
     7
176
     1
 90
        5
176
     1
 90
        0
176
     1
 90
        0
176
     1
290
     0
176
     1
 90
        1
176
     1
 40
50.0
176
     1
 90
        0
176
     1
290
     0
176
     1
290
     1
176
     1
290
     1
176
     1
290
     0
176
     1
290
     0
176
     1
290
     0
176
     1
290
     0
176
     1
290
     0
176
     1
290
     0
176
     1
 90
       50
176
     1
 40
0.0
176
     1
 40
1.0
176
     1
 90
        0
176
     1
 62
    18
420
        0
176
     1
 90
       50
176
     1
 90
        3
176
     1
 62
     5
420
      255
176
     1
290
     0
176
     1
 90
       50
176
     1
 90
       50
176
     1
 90
       50
176
     1
290
     0
176
     1
 90
       50
176
     1
 62
   256
176
     0
 40
1.0
176
     0
 90
        2
176
     1
  1
strokes_ogs.tif
176
     1
290
     0
176
     1
 40
1.0
176
     1
 40
1.0
176
     1
  0
VISUALSTYLE
  5
39
102
{ACAD_REACTORS
330
29
102
}
330
29
100
AcDbVisualStyle
  2
ColorChange
 70
    16
177
     3
291
     1
 70
    58
 90
        2
176
     1
 90
        2
176
     1
 90
        3
176
     1
 90
        0
176
     1
 40
0.6
176
     1
 40
30.0
176
     1
 62
     8
420
  8421504
176
     1
 90
        1
176
     1
 90
        4
176
     1
 62
     7
176
     1
 62
   257
176
     1
 90
        1
176
     1
 90
        1
176
     1
 40
1.0
176
     1
 90
        8
176
     1
 62
     8
420
  8421504
176
     1
 40
1.0
176
     1
 90
        1
176
     1
 90
        6
176
     1
 90
        2
176
     1
 62
     7
176
     1
 90
        5
176
     1
 90
        0
176
     1
 90
        0
176
     1
290
     0
176
     1
 90
        1
176
     1
 40
0.0
176
     1
 90
        0
176
     1
290
     0
176
     1
290
     1
176
     1
290
     1
176
     1
290
     0
176
     1
290
     0
176
     1
290
     0
176
     1
290
     0
176
     1
290
     0
176
     1
290
     0
176
     1
 90
       50
176
     1
 40
0.0
176
     1
 40
1.0
176
     1
 90
        0
176
     1
 62
    18
420
        0
176
     1
 90
       50
176
     1
 90
        3
176
     1
 62
     5
420
      255
176
     1
290
     0
176
     1
 90
       50
176
     1
 90
       50
176
     1
 90
       50
176
     1
290
     0
176
     1
 90
       50
176
     1
 62
   256
176
     0
 40
1.0
176
     0
 90
        2
176
     1
  1
strokes_ogs.tif
176
     1
290
     0
176
     1
 40
1.0
176
     1
 40
1.0
176
     1
  0
VISUALSTYLE
  5
32
102
{ACAD_REACTORS
330
29
102
}
330
29
100
AcDbVisualStyle
  2
Conceptual
 70
     9
177
     3
291
     0
 70
    58
 90
        3
176
     1
 90
        2
176
     1
 90
        0
176
     1
 90
        0
176
     1
 40
0.6
176
     1
 40
30.0
176
     1
 62
     7
420
 16777215
176
     1
 90
        2
176
     1
 90
        2
176
     1
 62
     7
176
     1
 62
   257
176
     1
 90
        1
176
     1
 90
        1
176
     1
 40
179.0
176
     1
 90
        8
176
     1
 62
     7
176
     1
 40
1.0
176
     1
 90
        1
176
     1
 90
        6
176
     1
 90
        2
176
     1
 62
     7
176
     1
 90
        3
176
     1
 90
        0
176
     1
 90
        0
176
     1
290
     0
176
     1
 90
        1
176
     1
 40
0.0
176
     1
 90
        0
176
     1
290
     0
176
     1
290
     1
176
     1
290
     1
176
     1
290
     0
176
     1
290
     0
176
     1
290
     0
176
     1
290
     0
176
     1
290
     0
176
     1
290
     0
176
     1
 90
       50
176
     1
 40
0.0
176
     1
 40
1.0
176
     1
 90
        0
176
     1
 62
    18
420
        0
176
     1
 90
       50
176
     1
 90
        3
176
     1
 62
     5
420
      255
176
     1
290
     0
176
     1
 90
       50
176
     1
 90
       50
176
     1
 90
       50
176
     1
290
     0
176
     1
 90
       50
176
     1
 62
   256
176
     0
 40
1.0
176
     0
 90
        2
176
     1
  1
strokes_ogs.tif
176
     1
290
     0
176
     1
 40
1.0
176
     1
 40
1.0
176
     1
  0
VISUALSTYLE
  5
34
102
{ACAD_REACTORS
330
29
102
}
330
29
100
AcDbVisualStyle
  2
Dim
 70
    11
177
     3
291
     1
 70
    58
 90
        2
176
     1
 90
        2
176
     1
 90
        0
176
     1
 90
        0
176
     1
 40
0.6
176
     1
 40
30.0
176
     1
 62
     7
420
 16777215
176
     1
 90
        1
176
     1
 90
        4
176
     1
 62
     7
176
     1
 62
   257
176
     1
 90
        1
176
     1
 90
        1
176
     1
 40
1.0
176
     1
 90
        8
176
     1
 62
     7
176
     1
 40
1.0
176
     1
 90
        1
176
     1
 90
        6
176
     1
 90
        2
176
     1
 62
     7
176
     1
 90
        5
176
     1
 90
        0
176
     1
 90
        0
176
     1
290
     0
176
     1
 90
        1
176
     1
 40
-50.0
176
     1
 90
        0
176
     1
290
     0
176
     1
290
     1
176
     1
290
     1
176
     1
290
     0
176
     1
290
     0
176
     1
290
     0
176
     1
290
     0
176
     1
290
     0
176
     1
290
     0
176
     1
 90
       50
176
     1
 40
0.0
176
     1
 40
1.0
176
     1
 90
        0
176
     1
 62
    18
420
        0
176
     1
 90
       50
176
     1
 90
        3
176
     1
 62
     5
420
      255
176
     1
290
     0
176
     1
 90
       50
176
     1
 90
       50
176
     1
 90
       50
176
     1
290
     0
176
     1
 90
       50
176
     1
 62
   256
176
     0
 40
1.0
176
     0
 90
        2
176
     1
  1
strokes_ogs.tif
176
     1
290
     0
176
     1
 40
1.0
176
     1
 40
1.0
176
     1
  0
VISUALSTYLE
  5
41
102
{ACAD_REACTORS
330
29
102
}
330
29
100
AcDbVisualStyle
  2
EdgeColorOff
 70
    22
177
     3
291
     1
 70
    58
 90
        2
176
     0
 90
        2
176
     0
 90
        0
176
     0
 90
        0
176
     0
 40
0.6
176
     0
 40
30.0
176
     0
 62
     7
420
 16777215
176
     0
 90
        1
176
     0
 90
        4
176
     0
 62
     7
176
     0
 62
   257
176
     0
 90
        1
176
     0
 90
        1
176
     0
 40
1.0
176
     0
 90
        8
176
     2
 62
     7
176
     0
 40
1.0
176
     0
 90
        1
176
     0
 90
        6
176
     0
 90
        2
176
     0
 62
     7
176
     0
 90
        5
176
     0
 90
        0
176
     0
 90
        0
176
     0
290
     0
176
     0
 90
        1
176
     0
 40
0.0
176
     0
 90
        0
176
     0
290
     0
176
     0
290
     1
176
     0
290
     1
176
     0
290
     0
176
     0
290
     0
176
     0
290
     0
176
     0
290
     0
176
     0
290
     0
176
     0
290
     0
176
     0
 90
       50
176
     0
 40
0.0
176
     0
 40
1.0
176
     0
 90
        0
176
     0
 62
    18
420
        0
176
     0
 90
       50
176
     0
 90
        3
176
     0
 62
     5
420
      255
176
     0
290
     0
176
     0
 90
       50
176
     0
 90
       50
176
     0
 90
       50
176
     0
290
     0
176
     0
 90
       50
176
     0
 62
   256
176
     0
 40
1.0
176
     0
 90
        2
176
     0
  1
strokes_ogs.tif
176
     0
290
     0
176
     0
 40
1.0
176
     0
 40
1.0
176
     0
  0
VISUALSTYLE
  5
38
102
{ACAD_REACTORS
330
29
102
}
330
29
100
AcDbVisualStyle
  2
Facepattern
 70
    15
177
     3
291
     1
 70
    58
 90
        2
176
     1
 90
        2
176
     1
 90
        0
176
     1
 90
        0
176
     1
 40
0.6
176
     1
 40
30.0
176
     1
 62
     7
420
 16777215
176
     1
 90
        1
176
     1
 90
        4
176
     1
 62
     7
176
     1
 62
   257
176
     1
 90
        1
176
     1
 90
        1
176
     1
 40
1.0
176
     1
 90
        8
176
     1
 62
     7
176
     1
 40
1.0
176
     1
 90
        1
176
     1
 90
        6
176
     1
 90
        2
176
     1
 62
     7
176
     1
 90
        5
176
     1
 90
        0
176
     1
 90
        0
176
     1
290
     0
176
     1
 90
        1
176
     1
 40
0.0
176
     1
 90
        0
176
     1
290
     0
176
     1
290
     1
176
     1
290
     1
176
     1
290
     0
176
     1
290
     0
176
     1
290
     0
176
     1
290
     0
176
     1
290
     0
176
     1
290
     0
176
     1
 90
       50
176
     1
 40
0.0
176
     1
 40
1.0
176
     1
 90
        0
176
     1
 62
    18
420
        0
176
     1
 90
       50
176
     1
 90
        3
176
     1
 62
     5
420
      255
176
     1
290
     0
176
     1
 90
       50
176
     1
 90
       50
176
     1
 90
       50
176
     1
290
     0
176
     1
 90
       50
176
     1
 62
   256
176
     0
 40
1.0
176
     0
 90
        2
176
     1
  1
strokes_ogs.tif
176
     1
290
     0
176
     1
 40
1.0
176
     1
 40
1.0
176
     1
  0
VISUALSTYLE
  5
2A
102
{ACAD_REACTORS
330
29
102
}
330
29
100
AcDbVisualStyle
  2
Flat
 70
     0
177
     3
291
     1
 70
    58
 90
        2
176
     1
 90
        1
176
     1
 90
        1
176
     1
 90
        2
176
     1
 40
0.6
176
     1
 40
30.0
176
     1
 62
     7
420
 16777215
176
     1
 90
        0
176
     1
 90
        0
176
     1
 62
     7
176
     1
 62
   257
176
     1
 90
        1
176
     1
 90
        1
176
     1
 40
1.0
176
     1
 90
        8
176
     1
 62
     7
176
     1
 40
1.0
176
     1
 90
        1
176
     1
 90
        6
176
     1
 90
        2
176
     1
 62
     7
176
     1
 90
        5
176
     1
 90
        0
176
     1
 90
        0
176
     1
290
     0
176
     1
 90
       13
176
     1
 40
0.0
176
     1
 90
        0
176
     1
290
     0
176
     1
290
     1
176
     1
290
     1
176
     1
290
     0
176
     1
290
     0
176
     1
290
     0
176
     1
290
     0
176
     1
290
     0
176
     1
290
     0
176
     1
 90
       50
176
     1
 40
0.0
176
     1
 40
1.0
176
     1
 90
        0
176
     1
 62
    18
420
        0
176
     1
 90
       50
176
     1
 90
        3
176
     1
 62
     5
420
      255
176
     1
290
     0
176
     1
 90
       50
176
     1
 90
       50
176
     1
 90
       50
176
     1
290
     0
176
     1
 90
       50
176
     1
 62
   256
176
     0
 40
1.0
176
     0
 90
        2
176
     1
  1
strokes_ogs.tif
176
     1
290
     0
176
     1
 40
1.0
176
     1
 40
1.0
176
     1
  0
VISUALSTYLE
  5
2B
102
{ACAD_REACTORS
330
29
102
}
330
29
100
AcDbVisualStyle
  2
FlatWithEdges
 70
     1
177
     3
291
     1
 70
    58
 90
        2
176
     1
 90
        1
176
     1
 90
        1
176
     1
 90
        2
176
     1
 40
0.6
176
     1
 40
30.0
176
     1
 62
     7
420
 16777215
176
     1
 90
        1
176
     1
 90
        0
176
     1
 62
     7
176
     1
 62
   257
176
     1
 90
        1
176
     1
 90
        1
176
     1
 40
1.0
176
     1
 90
        0
176
     1
 62
   257
176
     1
 40
1.0
176
     1
 90
        1
176
     1
 90
        6
176
     1
 90
        2
176
     1
 62
     7
176
     1
 90
        5
176
     1
 90
        0
176
     1
 90
        0
176
     1
290
     0
176
     1
 90
       13
176
     1
 40
0.0
176
     1
 90
        0
176
     1
290
     0
176
     1
290
     1
176
     1
290
     1
176
     1
290
     0
176
     1
290
     0
176
     1
290
     0
176
     1
290
     0
176
     1
290
     0
176
     1
290
     0
176
     1
 90
       50
176
     1
 40
0.0
176
     1
 40
1.0
176
     1
 90
        0
176
     1
 62
    18
420
        0
176
     1
 90
       50
176
     1
 90
        3
176
     1
 62
     5
420
      255
176
     1
290
     0
176
     1
 90
       50
176
     1
 90
       50
176
     1
 90
       50
176
     1
290
     0
176
     1
 90
       50
176
     1
 62
   256
176
     0
 40
1.0
176
     0
 90
        2
176
     1
  1
strokes_ogs.tif
176
     1
290
     0
176
     1
 40
1.0
176
     1
 40
1.0
176
     1
  0
VISUALSTYLE
  5
2C
102
{ACAD_REACTORS
330
29
102
}
330
29
100
AcDbVisualStyle
  2
Gouraud
 70
     2
177
     3
291
     1
 70
    58
 90
        2
176
     1
 90
        2
176
     1
 90
        1
176
     1
 90
        2
176
     1
 40
0.6
176
     1
 40
30.0
176
     1
 62
     7
420
 16777215
176
     1
 90
        0
176
     1
 90
        0
176
     1
 62
     7
176
     1
 62
   257
176
     1
 90
        1
176
     1
 90
        1
176
     1
 40
1.0
176
     1
 90
        0
176
     1
 62
     7
176
     1
 40
1.0
176
     1
 90
        1
176
     1
 90
        6
176
     1
 90
        2
176
     1
 62
     7
176
     1
 90
        5
176
     1
 90
        0
176
     1
 90
        0
176
     1
290
     0
176
     1
 90
       13
176
     1
 40
0.0
176
     1
 90
        0
176
     1
290
     0
176
     1
290
     1
176
     1
290
     1
176
     1
290
     0
176
     1
290
     0
176
     1
290
     0
176
     1
290
     0
176
     1
290
     0
176
     1
290
     0
176
     1
 90
       50
176
     1
 40
0.0
176
     1
 40
1.0
176
     1
 90
        0
176
     1
 62
    18
420
        0
176
     1
 90
       50
176
     1
 90
        3
176
     1
 62
     5
420
      255
176
     1
290
     0
176
     1
 90
       50
176
     1
 90
       50
176
     1
 90
       50
176
     1
290
     0
176
     1
 90
       50
176
     1
 62
   256
176
     0
 40
1.0
176
     0
 90
        2
176
     1
  1
strokes_ogs.tif
176
     1
290
     0
176
     1
 40
1.0
176
     1
 40
1.0
176
     1
  0
VISUALSTYLE
  5
2D
102
{ACAD_REACTORS
330
29
102
}
330
29
100
AcDbVisualStyle
  2
GouraudWithEdges
 70
     3
177
     3
291
     1
 70
    58
 90
        2
176
     1
 90
        2
176
     1
 90
        1
176
     1
 90
        2
176
     1
 40
0.6
176
     1
 40
30.0
176
     1
 62
     7
420
 16777215
176
     1
 90
        1
176
     1
 90
        0
176
     1
 62
     7
176
     1
 62
   257
176
     1
 90
        1
176
     1
 90
        1
176
     1
 40
1.0
176
     1
 90
        0
176
     1
 62
   257
176
     1
 40
1.0
176
     1
 90
        1
176
     1
 90
        6
176
     1
 90
        2
176
     1
 62
     7
176
     1
 90
        5
176
     1
 90
        0
176
     1
 90
        0
176
     1
290
     0
176
     1
 90
       13
176
     1
 40
0.0
176
     1
 90
        0
176
     1
290
     0
176
     1
290
     1
176
     1
290
     1
176
     1
290
     0
176
     1
290
     0
176
     1
290
     0
176
     1
290
     0
176
     1
290
     0
176
     1
290
     0
176
     1
 90
       50
176
     1
 40
0.0
176
     1
 40
1.0
176
     1
 90
        0
176
     1
 62
    18
420
        0
176
     1
 90
       50
176
     1
 90
        3
176
     1
 62
     5
420
      255
176
     1
290
     0
176
     1
 90
       50
176
     1
 90
       50
176
     1
 90
       50
176
     1
290
     0
176
     1
 90
       50
176
     1
 62
   256
176
     0
 40
1.0
176
     0
 90
        2
176
     1
  1
strokes_ogs.tif
176
     1
290
     0
176
     1
 40
1.0
176
     1
 40
1.0
176
     1
  0
VISUALSTYLE
  5
31
102
{ACAD_REACTORS
330
29
102
}
330
29
100
AcDbVisualStyle
  2
Hidden
 70
     6
177
     3
291
     0
 70
    58
 90
        1
176
     1
 90
        2
176
     1
 90
        2
176
     1
 90
        0
176
     1
 40
0.6
176
     1
 40
30.0
176
     1
 62
     7
420
 16777215
176
     1
 90
        2
176
     1
 90
        2
176
     1
 62
     7
176
     1
 62
   257
176
     1
 90
        2
176
     1
 90
        1
176
     1
 40
40.0
176
     1
 90
        0
176
     1
 62
   257
176
     1
 40
1.0
176
     1
 90
        1
176
     1
 90
        6
176
     1
 90
        2
176
     1
 62
     7
176
     1
 90
        3
176
     1
 90
        0
176
     1
 90
        0
176
     1
290
     0
176
     1
 90
        1
176
     1
 40
0.0
176
     1
 90
        0
176
     1
290
     0
176
     1
290
     1
176
     1
290
     1
176
     1
290
     0
176
     1
290
     0
176
     1
290
     0
176
     1
290
     0
176
     1
290
     0
176
     1
290
     0
176
     1
 90
       50
176
     1
 40
0.0
176
     1
 40
1.0
176
     1
 90
        0
176
     1
 62
    18
420
        0
176
     1
 90
       50
176
     1
 90
        3
176
     1
 62
     5
420
      255
176
     1
290
     0
176
     1
 90
       50
176
     1
 90
       50
176
     1
 90
       50
176
     1
290
     0
176
     1
 90
       50
176
     1
 62
   256
176
     0
 40
1.0
176
     0
 90
        2
176
     1
  1
strokes_ogs.tif
176
     1
290
     0
176
     1
 40
1.0
176
     1
 40
1.0
176
     1
  0
VISUALSTYLE
  5
3F
102
{ACAD_REACTORS
330
29
102
}
330
29
100
AcDbVisualStyle
  2
JitterOff
 70
    20
177
     3
291
     1
 70
    58
 90
        2
176
     0
 90
        2
176
     0
 90
        0
176
     0
 90
        0
176
     0
 40
0.6
176
     0
 40
30.0
176
     0
 62
     7
420
 16777215
176
     0
 90
        1
176
     0
 90
        4
176
     0
 62
     7
176
     0
 62
   257
176
     0
 90
        1
176
     0
 90
        1
176
     0
 40
1.0
176
     0
 90
       10
176
     2
 62
     7
176
     0
 40
1.0
176
     0
 90
        1
176
     0
 90
        6
176
     0
 90
        2
176
     0
 62
     7
176
     0
 90
        5
176
     0
 90
        0
176
     0
 90
        0
176
     0
290
     0
176
     0
 90
        1
176
     0
 40
0.0
176
     0
 90
        0
176
     0
290
     0
176
     0
290
     1
176
     0
290
     1
176
     0
290
     0
176
     0
290
     0
176
     0
290
     0
176
     0
290
     0
176
     0
290
     0
176
     0
290
     0
176
     0
 90
       50
176
     0
 40
0.0
176
     0
 40
1.0
176
     0
 90
        0
176
     0
 62
    18
420
        0
176
     0
 90
       50
176
     0
 90
        3
176
     0
 62
     5
420
      255
176
     0
290
     0
176
     0
 90
       50
176
     0
 90
       50
176
     0
 90
       50
176
     0
290
     0
176
     0
 90
       50
176
     0
 62
   256
176
     0
 40
1.0
176
     0
 90
        2
176
     0
  1
strokes_ogs.tif
176
     0
290
     0
176
     0
 40
1.0
176
     0
 40
1.0
176
     0
  0
VISUALSTYLE
  5
37
102
{ACAD_REACTORS
330
29
102
}
330
29
100
AcDbVisualStyle
  2
Linepattern
 70
    14
177
     3
291
     1
 70
    58
 90
        2
176
     1
 90
        2
176
     1
 90
        0
176
     1
 90
        0
176
     1
 40
0.6
176
     1
 40
30.0
176
     1
 62
     7
420
 16777215
176
     1
 90
        1
176
     1
 90
        4
176
     1
 62
     7
176
     1
 62
   257
176
     1
 90
        7
176
     1
 90
        7
176
     1
 40
1.0
176
     1
 90
        8
176
     1
 62
     7
176
     1
 40
1.0
176
     1
 90
        1
176
     1
 90
        6
176
     1
 90
        2
176
     1
 62
     7
176
     1
 90
        5
176
     1
 90
        0
176
     1
 90
        0
176
     1
290
     0
176
     1
 90
        1
176
     1
 40
0.0
176
     1
 90
        0
176
     1
290
     0
176
     1
290
     1
176
     1
290
     1
176
     1
290
     0
176
     1
290
     0
176
     1
290
     0
176
     1
290
     0
176
     1
290
     0
176
     1
290
     0
176
     1
 90
       50
176
     1
 40
0.0
176
     1
 40
1.0
176
     1
 90
        0
176
     1
 62
    18
420
        0
176
     1
 90
       50
176
     1
 90
        3
176
     1
 62
     5
420
      255
176
     1
290
     0
176
     1
 90
       50
176
     1
 90
       50
176
     1
 90
       50
176
     1
290
     0
176
     1
 90
       50
176
     1
 62
   256
176
     0
 40
1.0
176
     0
 90
        2
176
     1
  1
strokes_ogs.tif
176
     1
290
     0
176
     1
 40
1.0
176
     1
 40
1.0
176
     1
  0
VISUALSTYLE
  5
40
102
{ACAD_REACTORS
330
29
102
}
330
29
100
AcDbVisualStyle
  2
OverhangOff
 70
    21
177
     3
291
     1
 70
    58
 90
        2
176
     0
 90
        2
176
     0
 90
        0
176
     0
 90
        0
176
     0
 40
0.6
176
     0
 40
30.0
176
     0
 62
     7
420
 16777215
176
     0
 90
        1
176
     0
 90
        4
176
     0
 62
     7
176
     0
 62
   257
176
     0
 90
        1
176
     0
 90
        1
176
     0
 40
1.0
176
     0
 90
        9
176
     2
 62
     7
176
     0
 40
1.0
176
     0
 90
        1
176
     0
 90
        6
176
     0
 90
        2
176
     0
 62
     7
176
     0
 90
        5
176
     0
 90
        0
176
     0
 90
        0
176
     0
290
     0
176
     0
 90
        1
176
     0
 40
0.0
176
     0
 90
        0
176
     0
290
     0
176
     0
290
     1
176
     0
290
     1
176
     0
290
     0
176
     0
290
     0
176
     0
290
     0
176
     0
290
     0
176
     0
290
     0
176
     0
290
     0
176
     0
 90
       50
176
     0
 40
0.0
176
     0
 40
1.0
176
     0
 90
        0
176
     0
 62
    18
420
        0
176
     0
 90
       50
176
     0
 90
        3
176
     0
 62
     5
420
      255
176
     0
290
     0
176
     0
 90
       50
176
     0
 90
       50
176
     0
 90
       50
176
     0
290
     0
176
     0
 90
       50
176
     0
 62
   256
176
     0
 40
1.0
176
     0
 90
        2
176
     0
  1
strokes_ogs.tif
176
     0
290
     0
176
     0
 40
1.0
176
     0
 40
1.0
176
     0
  0
VISUALSTYLE
  5
33
102
{ACAD_REACTORS
330
29
102
}
330
29
100
AcDbVisualStyle
  2
Realistic
 70
     8
177
     3
291
     0
 70
    58
 90
        2
176
     1
 90
        3
176
     1
 90
        0
176
     1
 90
        2
176
     1
 40
0.6
176
     1
 40
30.0
176
     1
 62
     7
420
 16777215
176
     1
 90
        0
176
     1
 90
        0
176
     1
 62
     7
176
     1
 62
   257
176
     1
 90
        1
176
     1
 90
        1
176
     1
 40
1.0
176
     1
 90
        8
176
     1
 62
   257
176
     1
 40
1.0
176
     1
 90
        1
176
     1
 90
        6
176
     1
 90
        2
176
     1
 62
     7
176
     1
 90
        3
176
     1
 90
        0
176
     1
 90
        0
176
     1
290
     0
176
     1
 90
       13
176
     1
 40
0.0
176
     1
 90
        0
176
     1
290
     0
176
     1
290
     1
176
     1
290
     1
176
     1
290
     0
176
     1
290
     0
176
     1
290
     0
176
     1
290
     0
176
     1
290
     0
176
     1
290
     0
176
     1
 90
       50
176
     1
 40
0.0
176
     1
 40
1.0
176
     1
 90
        0
176
     1
 62
    18
420
        0
176
     1
 90
       50
176
     1
 90
        3
176
     1
 62
     5
420
      255
176
     1
290
     0
176
     1
 90
       50
176
     1
 90
       50
176
     1
 90
       50
176
     1
290
     0
176
     1
 90
       50
176
     1
 62
   256
176
     0
 40
1.0
176
     0
 90
        2
176
     1
  1
strokes_ogs.tif
176
     1
290
     0
176
     1
 40
1.0
176
     1
 40
1.0
176
     1
  0
VISUALSTYLE
  5
3E
102
{ACAD_REACTORS
330
29
102
}
330
29
100
AcDbVisualStyle
  2
Shaded
 70
    27
177
     3
291
     0
 70
    58
 90
        2
176
     1
 90
        2
176
     1
 90
        1
176
     1
 90
        2
176
     1
 40
0.6
176
     1
 40
30.0
176
     1
 62
     7
420
 16777215
176
     1
 90
        0
176
     1
 90
        4
176
     1
 62
     7
176
     1
 62
   257
176
     1
 90
        1
176
     1
 90
        1
176
     1
 40
1.0
176
     1
 90
        8
176
     1
 62
   257
176
     1
 40
1.0
176
     1
 90
        1
176
     1
 90
        6
176
     1
 90
        2
176
     1
 62
     8
420
  7895160
176
     1
 90
        3
176
     1
 90
        0
176
     1
 90
        0
176
     1
290
     0
176
     1
 90
        5
176
     1
 40
0.0
176
     1
 90
        0
176
     1
290
     0
176
     1
290
     1
176
     1
290
     1
176
     1
290
     0
176
     1
290
     0
176
     1
290
     0
176
     1
290
     0
176
     1
290
     0
176
     1
290
     0
176
     1
 90
       50
176
     1
 40
0.0
176
     1
 40
1.0
176
     1
 90
        0
176
     1
 62
    18
420
        0
176
     1
 90
       50
176
     1
 90
        3
176
     1
 62
     5
420
      255
176
     1
290
     0
176
     1
 90
       50
176
     1
 90
       50
176
     1
 90
       50
176
     1
290
     0
176
     1
 90
       50
176
     1
 62
   256
176
     0
 40
1.0
176
     0
 90
        2
176
     1
  1
strokes_ogs.tif
176
     1
290
     0
176
     1
 40
1.0
176
     1
 40
1.0
176
     1
  0
VISUALSTYLE
  5
3D
102
{ACAD_REACTORS
330
29
102
}
330
29
100
AcDbVisualStyle
  2
Shaded with edges
 70
    26
177
     3
291
     0
 70
    58
 90
        2
176
     1
 90
        2
176
     1
 90
        1
176
     1
 90
        2
176
     1
 40
0.6
176
     1
 40
30.0
176
     1
 62
     7
420
 16777215
176
     1
 90
        1
176
     1
 90
        2
176
     1
 62
     7
176
     1
 62
   257
176
     1
 90
        2
176
     1
 90
        1
176
     1
 40
1.0
176
     1
 90
        8
176
     1
 62
   257
176
     1
 40
1.0
176
     1
 90
        1
176
     1
 90
        6
176
     1
 90
        2
176
     1
 62
     7
176
     1
 90
        3
176
     1
 90
        0
176
     1
 90
        0
176
     1
290
     0
176
     1
 90
        5
176
     1
 40
0.0
176
     1
 90
        0
176
     1
290
     0
176
     1
290
     1
176
     1
290
     1
176
     1
290
     0
176
     1
290
     0
176
     1
290
     0
176
     1
290
     0
176
     1
290
     0
176
     1
290
     0
176
     1
 90
       50
176
     1
 40
0.0
176
     1
 40
1.0
176
     1
 90
        0
176
     1
 62
    18
420
        0
176
     1
 90
       50
176
     1
 90
        3
176
     1
 62
     5
420
      255
176
     1
290
     0
176
     1
 90
       50
176
     1
 90
       50
176
     1
 90
       50
176
     1
290
     0
176
     1
 90
       50
176
     1
 62
   256
176
     0
 40
1.0
176
     0
 90
        2
176
     1
  1
strokes_ogs.tif
176
     1
290
     0
176
     1
 40
1.0
176
     1
 40
1.0
176
     1
  0
VISUALSTYLE
  5
3A
102
{ACAD_REACTORS
330
29
102
}
330
29
100
AcDbVisualStyle
  2
Shades of Gray
 70
    23
177
     3
291
     0
 70
    58
 90
        2
176
     1
 90
        2
176
     1
 90
        3
176
     1
 90
        0
176
     1
 40
0.6
176
     1
 40
30.0
176
     1
 62
     7
420
 16777215
176
     1
 90
        2
176
     1
 90
        2
176
     1
 62
     7
176
     1
 62
     7
176
     1
 90
        1
176
     1
 90
        1
176
     1
 40
40.0
176
     1
 90
        8
176
     1
 62
     7
176
     1
 40
1.0
176
     1
 90
        1
176
     1
 90
        6
176
     1
 90
        2
176
     1
 62
     7
176
     1
 90
        3
176
     1
 90
        0
176
     1
 90
        0
176
     1
290
     0
176
     1
 90
        1
176
     1
 40
0.0
176
     1
 90
        0
176
     1
290
     0
176
     1
290
     1
176
     1
290
     1
176
     1
290
     0
176
     1
290
     0
176
     1
290
     0
176
     1
290
     0
176
     1
290
     0
176
     1
290
     0
176
     1
 90
       50
176
     1
 40
0.0
176
     1
 40
1.0
176
     1
 90
        0
176
     1
 62
    18
420
        0
176
     1
 90
       50
176
     1
 90
        3
176
     1
 62
     5
420
      255
176
     1
290
     0
176
     1
 90
       50
176
     1
 90
       50
176
     1
 90
       50
176
     1
290
     0
176
     1
 90
       50
176
     1
 62
   256
176
     0
 40
1.0
176
     0
 90
        2
176
     1
  1
strokes_ogs.tif
176
     1
290
     0
176
     1
 40
1.0
176
     1
 40
1.0
176
     1
  0
VISUALSTYLE
  5
3B
102
{ACAD_REACTORS
330
29
102
}
330
29
100
AcDbVisualStyle
  2
Sketchy
 70
    24
177
     3
291
     0
 70
    58
 90
        1
176
     1
 90
        2
176
     1
 90
        2
176
     1
 90
        0
176
     1
 40
0.6
176
     1
 40
30.0
176
     1
 62
     7
420
 16777215
176
     1
 90
        2
176
     1
 90
        2
176
     1
 62
     7
176
     1
 62
     7
176
     1
 90
        1
176
     1
 90
        1
176
     1
 40
40.0
176
     1
 90
       11
176
     1
 62
     7
176
     1
 40
1.0
176
     1
 90
        1
176
     1
 90
        6
176
     1
 90
        2
176
     1
 62
     7
176
     1
 90
        6
176
     1
 90
        0
176
     1
 90
        0
176
     1
290
     0
176
     1
 90
        1
176
     1
 40
0.0
176
     1
 90
        0
176
     1
290
     0
176
     1
290
     1
176
     1
290
     1
176
     1
290
     0
176
     1
290
     0
176
     1
290
     0
176
     1
290
     0
176
     1
290
     0
176
     1
290
     0
176
     1
 90
       50
176
     1
 40
0.0
176
     1
 40
1.0
176
     1
 90
        0
176
     1
 62
    18
420
        0
176
     1
 90
       50
176
     1
 90
        3
176
     1
 62
     5
420
      255
176
     1
290
     0
176
     1
 90
       50
176
     1
 90
       50
176
     1
 90
       50
176
     1
290
     0
176
     1
 90
       50
176
     1
 62
   256
176
     0
 40
1.0
176
     0
 90
        2
176
     1
  1
strokes_ogs.tif
176
     1
290
     0
176
     1
 40
1.0
176
     1
 40
1.0
176
     1
  0
VISUALSTYLE
  5
36
102
{ACAD_REACTORS
330
29
102
}
330
29
100
AcDbVisualStyle
  2
Thicken
 70
    13
177
     3
291
     1
 70
    58
 90
        2
176
     1
 90
        2
176
     1
 90
        0
176
     1
 90
        0
176
     1
 40
0.6
176
     1
 40
30.0
176
     1
 62
     7
420
 16777215
176
     1
 90
        1
176
     1
 90
        4
176
     1
 62
     7
176
     1
 62
   257
176
     1
 90
        1
176
     1
 90
        1
176
     1
 40
1.0
176
     1
 90
       12
176
     1
 62
     7
176
     1
 40
1.0
176
     1
 90
        1
176
     1
 90
        6
176
     1
 90
        2
176
     1
 62
     7
176
     1
 90
        5
176
     1
 90
        0
176
     1
 90
        0
176
     1
290
     0
176
     1
 90
        1
176
     1
 40
0.0
176
     1
 90
        0
176
     1
290
     0
176
     1
290
     1
176
     1
290
     1
176
     1
290
     0
176
     1
290
     0
176
     1
290
     0
176
     1
290
     0
176
     1
290
     0
176
     1
290
     0
176
     1
 90
       50
176
     1
 40
0.0
176
     1
 40
1.0
176
     1
 90
        0
176
     1
 62
    18
420
        0
176
     1
 90
       50
176
     1
 90
        3
176
     1
 62
     5
420
      255
176
     1
290
     0
176
     1
 90
       50
176
     1
 90
       50
176
     1
 90
       50
176
     1
290
     0
176
     1
 90
       50
176
     1
 62
   256
176
     0
 40
1.0
176
     0
 90
        2
176
     1
  1
strokes_ogs.tif
176
     1
290
     0
176
     1
 40
1.0
176
     1
 40
1.0
176
     1
  0
VISUALSTYLE
  5
30
102
{ACAD_REACTORS
330
29
102
}
330
29
100
AcDbVisualStyle
  2
Wireframe
 70
     5
177
     3
291
     0
 70
    58
 90
        0
176
     1
 90
        2
176
     1
 90
        0
176
     1
 90
        0
176
     1
 40
0.6
176
     1
 40
30.0
176
     1
 62
     7
420
 16777215
176
     1
 90
        1
176
     1
 90
        4
176
     1
 62
     7
176
     1
 62
   257
176
     1
 90
        1
176
     1
 90
        1
176
     1
 40
1.0
176
     1
 90
        0
176
     1
 62
   257
176
     1
 40
1.0
176
     1
 90
        1
176
     1
 90
        6
176
     1
 90
        2
176
     1
 62
     7
176
     1
 90
        3
176
     1
 90
        0
176
     1
 90
        0
176
     1
290
     0
176
     1
 90
        1
176
     1
 40
0.0
176
     1
 90
        0
176
     1
290
     0
176
     1
290
     1
176
     1
290
     1
176
     1
290
     0
176
     1
290
     0
176
     1
290
     0
176
     1
290
     0
176
     1
290
     0
176
     1
290
     0
176
     1
 90
       50
176
     1
 40
0.0
176
     1
 40
1.0
176
     1
 90
        0
176
     1
 62
    18
420
        0
176
     1
 90
       50
176
     1
 90
        3
176
     1
 62
     5
420
      255
176
     1
290
     0
176
     1
 90
       50
176
     1
 90
       50
176
     1
 90
       50
176
     1
290
     0
176
     1
 90
       50
176
     1
 62
   256
176
     0
 40
1.0
176
     0
 90
        2
176
     1
  1
strokes_ogs.tif
176
     1
290
     0
176
     1
 40
1.0
176
     1
 40
1.0
176
     1
  0
VISUALSTYLE
  5
3C
102
{ACAD_REACTORS
330
29
102
}
330
29
100
AcDbVisualStyle
  2
X-Ray
 70
    25
177
     3
291
     0
 70
    58
 90
        2
176
     1
 90
        2
176
     1
 90
        1
176
     1
 90
        1
176
     1
 40
0.5
176
     1
 40
30.0
176
     1
 62
     7
420
 16777215
176
     1
 90
        1
176
     1
 90
        0
176
     1
 62
     7
176
     1
 62
   257
176
     1
 90
        1
176
     1
 90
        1
176
     1
 40
1.0
176
     1
 90
        8
176
     1
 62
     7
176
     1
 40
1.0
176
     1
 90
        1
176
     1
 90
        6
176
     1
 90
        2
176
     1
 62
     7
176
     1
 90
        3
176
     1
 90
        0
176
     1
 90
        0
176
     1
290
     0
176
     1
 90
       13
176
     1
 40
0.0
176
     1
 90
        0
176
     1
290
     0
176
     1
290
     1
176
     1
290
     1
176
     1
290
     0
176
     1
290
     0
176
     1
290
     0
176
     1
290
     0
176
     1
290
     0
176
     1
290
     0
176
     1
 90
       50
176
     1
 40
0.0
176
     1
 40
1.0
176
     1
 90
        0
176
     1
 62
    18
420
        0
176
     1
 90
       50
176
     1
 90
        3
176
     1
 62
     5
420
      255
176
     1
290
     0
176
     1
 90
       50
176
     1
 90
       50
176
     1
 90
       50
176
     1
290
     0
176
     1
 90
       50
176
     1
 62
   256
176
     0
 40
1.0
176
     0
 90
        2
176
     1
  1
strokes_ogs.tif
176
     1
290
     0
176
     1
 40
1.0
176
     1
 40
1.0
176
     1
  0
DICTIONARYVAR
  5
313
102
{ACAD_REACTORS
330
30E
102
}
330
30E
100
DictionaryVariables
280
     0
  1
1:1
  0
DICTIONARYVAR
  5
310
102
{ACAD_REACTORS
330
30E
102
}
330
30E
100
DictionaryVariables
280
     0
  1
STANDARD
  0
DICTIONARYVAR
  5
30F
102
{ACAD_REACTORS
330
30E
102
}
330
30E
100
DictionaryVariables
280
     0
  1
STANDARD
  0
DICTIONARYVAR
  5
311
102
{ACAD_REACTORS
330
30E
102
}
330
30E
100
DictionaryVariables
280
     0
  1
Imperial24
  0
DICTIONARYVAR
  5
312
102
{ACAD_REACTORS
330
30E
102
}
330
30E
100
DictionaryVariables
280
     0
  1
Imperial24
  0
DICTIONARY
  5
1A
330
19
100
AcDbDictionary
280
     1
281
     1
  3
BUMPTILE
360
1C
  3
DIFFUSETILE
360
1B
  3
OPACITYTILE
360
1F
  3
REFLECTIONTILE
360
1E
  3
REFRACTIONTILE
360
20
  3
SPECULARTILE
360
1D
  0
DICTIONARY
  5
12
330
11
100
AcDbDictionary
280
     1
281
     1
  3
BUMPTILE
360
14
  3
DIFFUSETILE
360
13
  3
OPACITYTILE
360
17
  3
REFLECTIONTILE
360
16
  3
REFRACTIONTILE
360
18
  3
SPECULARTILE
360
15
  0
DICTIONARY
  5
22
330
21
100
AcDbDictionary
280
     1
281
     1
  3
BUMPTILE
360
24
  3
DIFFUSETILE
360
23
  3
OPACITYTILE
360
27
  3
REFLECTIONTILE
360
26
  3
REFRACTIONTILE
360
28
  3
SPECULARTILE
360
25
  0
DICTIONARY
  5
314
330
65
100
AcDbDictionary
280
     1
281
     1
  3
ACAD_ROUNDTRIP_2008_TABLESTYLE_CELLSTYLEMAP
360
315
  0
XRECORD
  5
1C
102
{ACAD_REACTORS
330
1A
102
}
330
1A
100
AcDbXrecord
280
     1
270
     1
271
     1
  0
XRECORD
  5
1B
102
{ACAD_REACTORS
330
1A
102
}
330
1A
100
AcDbXrecord
280
     1
270
     1
271
     1
  0
XRECORD
  5
1F
102
{ACAD_REACTORS
330
1A
102
}
330
1A
100
AcDbXrecord
280
     1
270
     1
271
     1
  0
XRECORD
  5
1E
102
{ACAD_REACTORS
330
1A
102
}
330
1A
100
AcDbXrecord
280
     1
270
     1
271
     1
  0
XRECORD
  5
20
102
{ACAD_REACTORS
330
1A
102
}
330
1A
100
AcDbXrecord
280
     1
270
     1
271
     1
  0
XRECORD
  5
1D
102
{ACAD_REACTORS
330
1A
102
}
330
1A
100
AcDbXrecord
280
     1
270
     1
271
     1
  0
XRECORD
  5
14
102
{ACAD_REACTORS
330
12
102
}
330
12
100
AcDbXrecord
280
     1
270
     1
271
     1
  0
XRECORD
  5
13
102
{ACAD_REACTORS
330
12
102
}
330
12
100
AcDbXrecord
280
     1
270
     1
271
     1
  0
XRECORD
  5
17
102
{ACAD_REACTORS
330
12
102
}
330
12
100
AcDbXrecord
280
     1
270
     1
271
     1
  0
XRECORD
  5
16
102
{ACAD_REACTORS
330
12
102
}
330
12
100
AcDbXrecord
280
     1
270
     1
271
     1
  0
XRECORD
  5
18
102
{ACAD_REACTORS
330
12
102
}
330
12
100
AcDbXrecord
280
     1
270
     1
271
     1
  0
XRECORD
  5
15
102
{ACAD_REACTORS
330
12
102
}
330
12
100
AcDbXrecord
280
     1
270
     1
271
     1
  0
XRECORD
  5
24
102
{ACAD_REACTORS
330
22
102
}
330
22
100
AcDbXrecord
280
     1
270
     1
271
     1
  0
XRECORD
  5
23
102
{ACAD_REACTORS
330
22
102
}
330
22
100
AcDbXrecord
280
     1
270
     1
271
     1
  0
XRECORD
  5
27
102
{ACAD_REACTORS
330
22
102
}
330
22
100
AcDbXrecord
280
     1
270
     1
271
     1
  0
XRECORD
  5
26
102
{ACAD_REACTORS
330
22
102
}
330
22
100
AcDbXrecord
280
     1
270
     1
271
     1
  0
XRECORD
  5
28
102
{ACAD_REACTORS
330
22
102
}
330
22
100
AcDbXrecord
280
     1
270
     1
271
     1
  0
XRECORD
  5
25
102
{ACAD_REACTORS
330
22
102
}
330
22
100
AcDbXrecord
280
     1
270
     1
271
     1
  0
CELLSTYLEMAP
  5
315
102
{ACAD_REACTORS
330
314
102
}
330
314
100
AcDbCellStyleMap
 90
        3
300
CELLSTYLE
  1
TABLEFORMAT_BEGIN
 90
        5
170
     1
 91
        0
 92
    32768
 62
   257
 93
        1
300
CONTENTFORMAT
  1
CONTENTFORMAT_BEGIN
 90
        0
 91
        0
 92
      512
 93
        0
300

 40
0.0
140
1.0
 94
        5
 62
     0
340
55
144
0.25
309
CONTENTFORMAT_END
171
     0
 94
        0
309
TABLEFORMAT_END
  1
CELLSTYLE_BEGIN
 90
        1
 91
        1
300
_TITLE
309
CELLSTYLE_END
300
CELLSTYLE
  1
TABLEFORMAT_BEGIN
 90
        5
170
     1
 91
        0
 92
        0
 62
   257
 93
        1
300
CONTENTFORMAT
  1
CONTENTFORMAT_BEGIN
 90
        0
 91
        0
 92
      512
 93
        0
300

 40
0.0
140
1.0
 94
        5
 62
     0
340
55
144
0.18
309
CONTENTFORMAT_END
171
     0
 94
        0
309
TABLEFORMAT_END
  1
CELLSTYLE_BEGIN
 90
        2
 91
        1
300
_HEADER
309
CELLSTYLE_END
300
CELLSTYLE
  1
TABLEFORMAT_BEGIN
 90
        5
170
     1
 91
        0
 92
        0
 62
   257
 93
        1
300
CONTENTFORMAT
  1
CONTENTFORMAT_BEGIN
 90
        0
 91
        0
 92
      512
 93
        0
300

 40
0.0
140
1.0
 94
        2
 62
     0
340
55
144
0.18
309
CONTENTFORMAT_END
171
     0
 94
        0
309
TABLEFORMAT_END
  1
CELLSTYLE_BEGIN
 90
        3
 91
        2
300
_DATA
309
CELLSTYLE_END
  0
ENDSEC
  0
EOF
