ISO-10303-21;
HEADER;
/* Generated by software containing ST-Developer
 * from STEP Tools, Inc. (www.steptools.com) 
 */
/* OPTION: using custom schema-name function */

FILE_DESCRIPTION(
/* description */ (''),
/* implementation_level */ '2;1');

FILE_NAME(
/* name */ 'W9990509_stp.stp',
/* time_stamp */ '2017-05-29T13:59:27+02:00',
/* author */ (''),
/* organization */ (''),
/* preprocessor_version */ 'ST-DEVELOPER v15',
/* originating_system */ 'SIEMENS PLM Software NX 9.0',
/* authorisation */ '');

FILE_SCHEMA (('AUTOMOTIVE_DESIGN { 1 0 10303 214 3 1 1 1 }'));
ENDSEC;

DATA;
#10=PROPERTY_DEFINITION_REPRESENTATION(#14,#12);
#11=PROPERTY_DEFINITION_REPRESENTATION(#15,#13);
#12=REPRESENTATION('',(#16),#289);
#13=REPRESENTATION('',(#17),#289);
#14=PROPERTY_DEFINITION('pmi validation property','',#21);
#15=PROPERTY_DEFINITION('pmi validation property','',#21);
#16=VALUE_REPRESENTATION_ITEM('number of annotations',COUNT_MEASURE(0.));
#17=VALUE_REPRESENTATION_ITEM('number of views',COUNT_MEASURE(0.));
#18=SHAPE_REPRESENTATION_RELATIONSHIP('None',
'relationship between reic1C24C78Ap7m2-None and reic1C24C78Ap7m2-None',
#30,#19);
#19=ADVANCED_BREP_SHAPE_REPRESENTATION('reic1C24C78Ap7m2-None',(#76),#289);
#20=SHAPE_DEFINITION_REPRESENTATION(#21,#30);
#21=PRODUCT_DEFINITION_SHAPE('','',#22);
#22=PRODUCT_DEFINITION(' ','',#24,#23);
#23=PRODUCT_DEFINITION_CONTEXT('part definition',#29,'design');
#24=PRODUCT_DEFINITION_FORMATION_WITH_SPECIFIED_SOURCE(' ',' ',#26,
 .NOT_KNOWN.);
#25=PRODUCT_RELATED_PRODUCT_CATEGORY('part','',(#26));
#26=PRODUCT('reic1C24C78Ap7m2','reic1C24C78Ap7m2',' ',(#27));
#27=PRODUCT_CONTEXT(' ',#29,'mechanical');
#28=APPLICATION_PROTOCOL_DEFINITION('international standard',
'automotive_design',2010,#29);
#29=APPLICATION_CONTEXT(
'core data for automotive mechanical design processes');
#30=SHAPE_REPRESENTATION('reic1C24C78Ap7m2-None',(#190),#289);
#31=OVER_RIDING_STYLED_ITEM('',(#39),#88,#37);
#32=OVER_RIDING_STYLED_ITEM('',(#40),#89,#37);
#33=OVER_RIDING_STYLED_ITEM('',(#41),#90,#37);
#34=OVER_RIDING_STYLED_ITEM('',(#42),#91,#37);
#35=OVER_RIDING_STYLED_ITEM('',(#43),#92,#37);
#36=PRESENTATION_LAYER_ASSIGNMENT('210','Layer 210',(#76));
#37=STYLED_ITEM('',(#38),#76);
#38=PRESENTATION_STYLE_ASSIGNMENT((#44));
#39=PRESENTATION_STYLE_ASSIGNMENT((#45));
#40=PRESENTATION_STYLE_ASSIGNMENT((#46));
#41=PRESENTATION_STYLE_ASSIGNMENT((#47));
#42=PRESENTATION_STYLE_ASSIGNMENT((#48));
#43=PRESENTATION_STYLE_ASSIGNMENT((#49));
#44=SURFACE_STYLE_USAGE(.BOTH.,#50);
#45=SURFACE_STYLE_USAGE(.BOTH.,#51);
#46=SURFACE_STYLE_USAGE(.BOTH.,#52);
#47=SURFACE_STYLE_USAGE(.BOTH.,#53);
#48=SURFACE_STYLE_USAGE(.BOTH.,#54);
#49=SURFACE_STYLE_USAGE(.BOTH.,#55);
#50=SURFACE_SIDE_STYLE('',(#56));
#51=SURFACE_SIDE_STYLE('',(#57));
#52=SURFACE_SIDE_STYLE('',(#58));
#53=SURFACE_SIDE_STYLE('',(#59));
#54=SURFACE_SIDE_STYLE('',(#60));
#55=SURFACE_SIDE_STYLE('',(#61));
#56=SURFACE_STYLE_FILL_AREA(#62);
#57=SURFACE_STYLE_FILL_AREA(#63);
#58=SURFACE_STYLE_FILL_AREA(#64);
#59=SURFACE_STYLE_FILL_AREA(#65);
#60=SURFACE_STYLE_FILL_AREA(#66);
#61=SURFACE_STYLE_FILL_AREA(#67);
#62=FILL_AREA_STYLE('',(#68));
#63=FILL_AREA_STYLE('',(#69));
#64=FILL_AREA_STYLE('',(#70));
#65=FILL_AREA_STYLE('',(#71));
#66=FILL_AREA_STYLE('',(#72));
#67=FILL_AREA_STYLE('',(#73));
#68=FILL_AREA_STYLE_COLOUR('',#74);
#69=FILL_AREA_STYLE_COLOUR('',#75);
#70=FILL_AREA_STYLE_COLOUR('',#75);
#71=FILL_AREA_STYLE_COLOUR('',#75);
#72=FILL_AREA_STYLE_COLOUR('',#75);
#73=FILL_AREA_STYLE_COLOUR('',#75);
#74=COLOUR_RGB('Orange',1.,0.499992370489052,0.);
#75=COLOUR_RGB('RAL 7035',0.8,0.8,0.8);
#76=MANIFOLD_SOLID_BREP('',#77);
#77=CLOSED_SHELL('',(#86,#87,#88,#89,#90,#91,#92,#93,#94,#95,#96));
#78=FACE_OUTER_BOUND('',#132,.T.);
#79=FACE_OUTER_BOUND('',#139,.T.);
#80=CONICAL_SURFACE('',#202,10.0723145172501,8.00000000000004);
#81=CONICAL_SURFACE('',#207,25.,40.);
#82=CYLINDRICAL_SURFACE('',#198,16.);
#83=CYLINDRICAL_SURFACE('',#204,8.);
#84=CYLINDRICAL_SURFACE('',#208,25.);
#85=CYLINDRICAL_SURFACE('',#210,8.);
#86=ADVANCED_FACE('',(#102,#103),#97,.F.);
#87=ADVANCED_FACE('',(#104,#105),#98,.F.);
#88=ADVANCED_FACE('',(#106,#107),#82,.T.);
#89=ADVANCED_FACE('',(#108,#109),#99,.F.);
#90=ADVANCED_FACE('',(#110,#111),#80,.T.);
#91=ADVANCED_FACE('',(#112,#113),#83,.T.);
#92=ADVANCED_FACE('',(#78),#100,.F.);
#93=ADVANCED_FACE('',(#114,#115),#81,.T.);
#94=ADVANCED_FACE('',(#116,#117),#84,.T.);
#95=ADVANCED_FACE('',(#118,#119),#85,.F.);
#96=ADVANCED_FACE('',(#79),#101,.F.);
#97=PLANE('',#193);
#98=PLANE('',#196);
#99=PLANE('',#200);
#100=PLANE('',#205);
#101=PLANE('',#211);
#102=FACE_BOUND('',#120,.T.);
#103=FACE_BOUND('',#121,.T.);
#104=FACE_BOUND('',#122,.T.);
#105=FACE_BOUND('',#123,.T.);
#106=FACE_BOUND('',#124,.T.);
#107=FACE_BOUND('',#125,.T.);
#108=FACE_BOUND('',#126,.T.);
#109=FACE_BOUND('',#127,.T.);
#110=FACE_BOUND('',#128,.T.);
#111=FACE_BOUND('',#129,.T.);
#112=FACE_BOUND('',#130,.T.);
#113=FACE_BOUND('',#131,.T.);
#114=FACE_BOUND('',#133,.T.);
#115=FACE_BOUND('',#134,.T.);
#116=FACE_BOUND('',#135,.T.);
#117=FACE_BOUND('',#136,.T.);
#118=FACE_BOUND('',#137,.T.);
#119=FACE_BOUND('',#138,.T.);
#120=EDGE_LOOP('',(#140));
#121=EDGE_LOOP('',(#141));
#122=EDGE_LOOP('',(#142));
#123=EDGE_LOOP('',(#143));
#124=EDGE_LOOP('',(#144));
#125=EDGE_LOOP('',(#145));
#126=EDGE_LOOP('',(#146));
#127=EDGE_LOOP('',(#147));
#128=EDGE_LOOP('',(#148));
#129=EDGE_LOOP('',(#149));
#130=EDGE_LOOP('',(#150));
#131=EDGE_LOOP('',(#151));
#132=EDGE_LOOP('',(#152));
#133=EDGE_LOOP('',(#153));
#134=EDGE_LOOP('',(#154));
#135=EDGE_LOOP('',(#155));
#136=EDGE_LOOP('',(#156));
#137=EDGE_LOOP('',(#157));
#138=EDGE_LOOP('',(#158));
#139=EDGE_LOOP('',(#159));
#140=ORIENTED_EDGE('',*,*,#170,.T.);
#141=ORIENTED_EDGE('',*,*,#171,.F.);
#142=ORIENTED_EDGE('',*,*,#172,.T.);
#143=ORIENTED_EDGE('',*,*,#173,.F.);
#144=ORIENTED_EDGE('',*,*,#174,.T.);
#145=ORIENTED_EDGE('',*,*,#172,.F.);
#146=ORIENTED_EDGE('',*,*,#174,.F.);
#147=ORIENTED_EDGE('',*,*,#175,.T.);
#148=ORIENTED_EDGE('',*,*,#176,.F.);
#149=ORIENTED_EDGE('',*,*,#175,.F.);
#150=ORIENTED_EDGE('',*,*,#176,.T.);
#151=ORIENTED_EDGE('',*,*,#177,.T.);
#152=ORIENTED_EDGE('',*,*,#177,.F.);
#153=ORIENTED_EDGE('',*,*,#170,.F.);
#154=ORIENTED_EDGE('',*,*,#178,.T.);
#155=ORIENTED_EDGE('',*,*,#178,.F.);
#156=ORIENTED_EDGE('',*,*,#173,.T.);
#157=ORIENTED_EDGE('',*,*,#171,.T.);
#158=ORIENTED_EDGE('',*,*,#179,.T.);
#159=ORIENTED_EDGE('',*,*,#179,.F.);
#160=VERTEX_POINT('',#258);
#161=VERTEX_POINT('',#260);
#162=VERTEX_POINT('',#263);
#163=VERTEX_POINT('',#265);
#164=VERTEX_POINT('',#268);
#165=VERTEX_POINT('',#271);
#166=VERTEX_POINT('',#274);
#167=VERTEX_POINT('',#277);
#168=VERTEX_POINT('',#281);
#169=VERTEX_POINT('',#285);
#170=EDGE_CURVE('',#160,#160,#180,.T.);
#171=EDGE_CURVE('',#161,#161,#181,.T.);
#172=EDGE_CURVE('',#162,#162,#182,.T.);
#173=EDGE_CURVE('',#163,#163,#183,.T.);
#174=EDGE_CURVE('',#164,#164,#184,.T.);
#175=EDGE_CURVE('',#165,#165,#185,.T.);
#176=EDGE_CURVE('',#166,#166,#186,.T.);
#177=EDGE_CURVE('',#167,#167,#187,.T.);
#178=EDGE_CURVE('',#168,#168,#188,.T.);
#179=EDGE_CURVE('',#169,#169,#189,.T.);
#180=CIRCLE('',#191,16.);
#181=CIRCLE('',#192,8.);
#182=CIRCLE('',#194,16.);
#183=CIRCLE('',#195,25.);
#184=CIRCLE('',#197,16.);
#185=CIRCLE('',#199,10.0723145172501);
#186=CIRCLE('',#201,8.);
#187=CIRCLE('',#203,8.);
#188=CIRCLE('',#206,25.);
#189=CIRCLE('',#209,8.);
#190=AXIS2_PLACEMENT_3D('',#256,#212,#213);
#191=AXIS2_PLACEMENT_3D('',#257,#214,#215);
#192=AXIS2_PLACEMENT_3D('',#259,#216,#217);
#193=AXIS2_PLACEMENT_3D('',#261,#218,#219);
#194=AXIS2_PLACEMENT_3D('',#262,#220,#221);
#195=AXIS2_PLACEMENT_3D('',#264,#222,#223);
#196=AXIS2_PLACEMENT_3D('',#266,#224,#225);
#197=AXIS2_PLACEMENT_3D('',#267,#226,#227);
#198=AXIS2_PLACEMENT_3D('',#269,#228,#229);
#199=AXIS2_PLACEMENT_3D('',#270,#230,#231);
#200=AXIS2_PLACEMENT_3D('',#272,#232,#233);
#201=AXIS2_PLACEMENT_3D('',#273,#234,#235);
#202=AXIS2_PLACEMENT_3D('',#275,#236,#237);
#203=AXIS2_PLACEMENT_3D('',#276,#238,#239);
#204=AXIS2_PLACEMENT_3D('',#278,#240,#241);
#205=AXIS2_PLACEMENT_3D('',#279,#242,#243);
#206=AXIS2_PLACEMENT_3D('',#280,#244,#245);
#207=AXIS2_PLACEMENT_3D('',#282,#246,#247);
#208=AXIS2_PLACEMENT_3D('',#283,#248,#249);
#209=AXIS2_PLACEMENT_3D('',#284,#250,#251);
#210=AXIS2_PLACEMENT_3D('',#286,#252,#253);
#211=AXIS2_PLACEMENT_3D('',#287,#254,#255);
#212=DIRECTION('',(0.,0.,1.));
#213=DIRECTION('',(1.,0.,0.));
#214=DIRECTION('',(0.,0.,1.));
#215=DIRECTION('',(1.,0.,0.));
#216=DIRECTION('',(0.,0.,1.));
#217=DIRECTION('',(-1.,0.,0.));
#218=DIRECTION('',(0.,0.,-1.));
#219=DIRECTION('',(-1.,0.,0.));
#220=DIRECTION('',(0.,0.,1.));
#221=DIRECTION('',(1.,0.,0.));
#222=DIRECTION('',(0.,0.,1.));
#223=DIRECTION('',(1.,0.,0.));
#224=DIRECTION('',(0.,0.,1.));
#225=DIRECTION('',(1.,0.,0.));
#226=DIRECTION('',(0.,0.,1.));
#227=DIRECTION('',(1.,0.,0.));
#228=DIRECTION('',(0.,0.,-1.));
#229=DIRECTION('',(1.,0.,0.));
#230=DIRECTION('',(0.,0.,1.));
#231=DIRECTION('',(1.,0.,0.));
#232=DIRECTION('',(0.,0.,1.));
#233=DIRECTION('',(-1.,0.,0.));
#234=DIRECTION('',(0.,0.,-1.));
#235=DIRECTION('',(1.,0.,0.));
#236=DIRECTION('',(0.,0.,1.));
#237=DIRECTION('',(-1.,0.,2.53390335898458E-016));
#238=DIRECTION('',(0.,0.,1.));
#239=DIRECTION('',(1.,0.,0.));
#240=DIRECTION('',(0.,0.,-1.));
#241=DIRECTION('',(1.,0.,0.));
#242=DIRECTION('',(0.,0.,1.));
#243=DIRECTION('',(-1.,0.,0.));
#244=DIRECTION('',(0.,0.,1.));
#245=DIRECTION('',(1.,0.,0.));
#246=DIRECTION('',(0.,0.,-1.));
#247=DIRECTION('',(-1.,0.,-5.62114084705418E-017));
#248=DIRECTION('',(0.,0.,1.));
#249=DIRECTION('',(1.,0.,0.));
#250=DIRECTION('',(0.,0.,-1.));
#251=DIRECTION('',(-1.,0.,0.));
#252=DIRECTION('',(0.,0.,1.));
#253=DIRECTION('',(1.,0.,0.));
#254=DIRECTION('',(0.,0.,-1.));
#255=DIRECTION('',(-1.,0.,0.));
#256=CARTESIAN_POINT('',(0.,0.,0.));
#257=CARTESIAN_POINT('',(0.,0.,44.));
#258=CARTESIAN_POINT('',(16.,0.,44.));
#259=CARTESIAN_POINT('',(0.,0.,44.));
#260=CARTESIAN_POINT('',(-8.,0.,44.));
#261=CARTESIAN_POINT('',(-16.,0.,44.));
#262=CARTESIAN_POINT('',(0.,0.,0.));
#263=CARTESIAN_POINT('',(16.,0.,0.));
#264=CARTESIAN_POINT('',(0.,0.,-6.93889390390723E-015));
#265=CARTESIAN_POINT('',(25.,0.,-6.93889390390723E-015));
#266=CARTESIAN_POINT('',(-16.,0.,0.));
#267=CARTESIAN_POINT('',(0.,0.,-18.5));
#268=CARTESIAN_POINT('',(16.,0.,-18.5));
#269=CARTESIAN_POINT('',(0.,0.,-41.));
#270=CARTESIAN_POINT('',(0.,0.,-18.5));
#271=CARTESIAN_POINT('',(10.0723145172501,0.,-18.5));
#272=CARTESIAN_POINT('',(0.,16.,-18.5));
#273=CARTESIAN_POINT('',(0.,0.,-33.2452839712988));
#274=CARTESIAN_POINT('',(8.,0.,-33.2452839712988));
#275=CARTESIAN_POINT('',(0.,0.,-18.5));
#276=CARTESIAN_POINT('',(0.,0.,-41.));
#277=CARTESIAN_POINT('',(8.,0.,-41.));
#278=CARTESIAN_POINT('',(0.,0.,-41.));
#279=CARTESIAN_POINT('',(0.,0.,-41.));
#280=CARTESIAN_POINT('',(0.,0.,33.2742176666521));
#281=CARTESIAN_POINT('',(25.,0.,33.2742176666521));
#282=CARTESIAN_POINT('',(0.,0.,33.2742176666521));
#283=CARTESIAN_POINT('',(0.,0.,-121.648191015574));
#284=CARTESIAN_POINT('',(0.,0.,-4.49999999999998));
#285=CARTESIAN_POINT('',(-8.,0.,-4.49999999999998));
#286=CARTESIAN_POINT('',(0.,0.,-121.648191015574));
#287=CARTESIAN_POINT('',(0.,0.,-4.49999999999998));
#288=MECHANICAL_DESIGN_GEOMETRIC_PRESENTATION_REPRESENTATION('',(#37,#31,
#32,#33,#34,#35),#289);
#289=(
GEOMETRIC_REPRESENTATION_CONTEXT(3)
GLOBAL_UNCERTAINTY_ASSIGNED_CONTEXT((#290))
GLOBAL_UNIT_ASSIGNED_CONTEXT((#296,#292,#291))
REPRESENTATION_CONTEXT('W9990509_stp','TOP_LEVEL_ASSEMBLY_PART')
);
#290=UNCERTAINTY_MEASURE_WITH_UNIT(LENGTH_MEASURE(2.E-005),#296,
'DISTANCE_ACCURACY_VALUE','Maximum Tolerance applied to model');
#291=(
NAMED_UNIT(*)
SI_UNIT($,.STERADIAN.)
SOLID_ANGLE_UNIT()
);
#292=(
CONVERSION_BASED_UNIT('DEGREE',#294)
NAMED_UNIT(#293)
PLANE_ANGLE_UNIT()
);
#293=DIMENSIONAL_EXPONENTS(0.,0.,0.,0.,0.,0.,0.);
#294=PLANE_ANGLE_MEASURE_WITH_UNIT(PLANE_ANGLE_MEASURE(0.0174532925),#295);
#295=(
NAMED_UNIT(*)
PLANE_ANGLE_UNIT()
SI_UNIT($,.RADIAN.)
);
#296=(
LENGTH_UNIT()
NAMED_UNIT(*)
SI_UNIT(.MILLI.,.METRE.)
);
ENDSEC;
END-ISO-10303-21;
