  0
SECTION
  2
HEADER
  9
$ACADVER
  1
AC1014
  9
$ACADMAINTVER
 70
     9
  9
$DWGCODEPAGE
  3
ASCII
  9
$INSBASE
 10
0.0
 20
0.0
 30
0.0
  9
$EXTMIN
 10
1.000000000000000E+20
 20
1.000000000000000E+20
 30
1.000000000000000E+20
  9
$EXTMAX
 10
-1.000000000000000E+20
 20
-1.000000000000000E+20
 30
-1.000000000000000E+20
  9
$LIMMIN
 10
0.0
 20
0.0
  9
$LIMMAX
 10
12.0
 20
9.0
  9
$ORTHOMODE
 70
     0
  9
$REGENMODE
 70
     1
  9
$FILLMODE
 70
     1
  9
$QTEXTMODE
 70
     0
  9
$MIRRTEXT
 70
     1
  9
$DRAGMODE
 70
     2
  9
$LTSCALE
 40
1.0
  9
$OSMODE
 70
    37
  9
$ATTMODE
 70
     1
  9
$TEXTSIZE
 40
0.2
  9
$TRACEWID
 40
0.05
  9
$TEXTSTYLE
  7
STANDARD
  9
$CLAYER
  8
0
  9
$CELTYPE
  6
BYLAYER
  9
$CECOLOR
 62
   256
  9
$CELTSCALE
 40
1.0
  9
$DELOBJ
 70
     1
  9
$DISPSILH
 70
     0
  9
$DIMSCALE
 40
1.0
  9
$DIMASZ
 40
0.18
  9
$DIMEXO
 40
0.0625
  9
$DIMDLI
 40
0.38
  9
$DIMRND
 40
0.0
  9
$DIMDLE
 40
0.0
  9
$DIMEXE
 40
0.18
  9
$DIMTP
 40
0.0
  9
$DIMTM
 40
0.0
  9
$DIMTXT
 40
0.18
  9
$DIMCEN
 40
0.09
  9
$DIMTSZ
 40
0.0
  9
$DIMTOL
 70
     0
  9
$DIMLIM
 70
     0
  9
$DIMTIH
 70
     1
  9
$DIMTOH
 70
     1
  9
$DIMSE1
 70
     0
  9
$DIMSE2
 70
     0
  9
$DIMTAD
 70
     0
  9
$DIMZIN
 70
     0
  9
$DIMBLK
  1

  9
$DIMASO
 70
     1
  9
$DIMSHO
 70
     1
  9
$DIMPOST
  1

  9
$DIMAPOST
  1

  9
$DIMALT
 70
     0
  9
$DIMALTD
 70
     2
  9
$DIMALTF
 40
25.4
  9
$DIMLFAC
 40
1.0
  9
$DIMTOFL
 70
     0
  9
$DIMTVP
 40
0.0
  9
$DIMTIX
 70
     0
  9
$DIMSOXD
 70
     0
  9
$DIMSAH
 70
     0
  9
$DIMBLK1
  1

  9
$DIMBLK2
  1

  9
$DIMSTYLE
  2
STANDARD
  9
$DIMCLRD
 70
     0
  9
$DIMCLRE
 70
     0
  9
$DIMCLRT
 70
     0
  9
$DIMTFAC
 40
1.0
  9
$DIMGAP
 40
0.09
  9
$DIMJUST
 70
     0
  9
$DIMSD1
 70
     0
  9
$DIMSD2
 70
     0
  9
$DIMTOLJ
 70
     1
  9
$DIMTZIN
 70
     0
  9
$DIMALTZ
 70
     0
  9
$DIMALTTZ
 70
     0
  9
$DIMFIT
 70
     3
  9
$DIMUPT
 70
     0
  9
$DIMUNIT
 70
     2
  9
$DIMDEC
 70
     4
  9
$DIMTDEC
 70
     4
  9
$DIMALTU
 70
     2
  9
$DIMALTTD
 70
     2
  9
$DIMTXSTY
  7
STANDARD
  9
$DIMAUNIT
 70
     0
  9
$LUNITS
 70
     2
  9
$LUPREC
 70
     4
  9
$SKETCHINC
 40
0.1
  9
$FILLETRAD
 40
0.5
  9
$AUNITS
 70
     0
  9
$AUPREC
 70
     0
  9
$MENU
  1
.
  9
$ELEVATION
 40
0.0
  9
$PELEVATION
 40
0.0
  9
$THICKNESS
 40
0.0
  9
$LIMCHECK
 70
     0
  9
$CHAMFERA
 40
0.5
  9
$CHAMFERB
 40
0.5
  9
$CHAMFERC
 40
1.0
  9
$CHAMFERD
 40
0.0
  9
$SKPOLY
 70
     0
  9
$TDCREATE
 40
2456037.37657853
  9
$TDUPDATE
 40
2456037.376578541
  9
$TDINDWG
 40
0.0000000116
  9
$TDUSRTIMER
 40
0.0000000116
  9
$USRTIMER
 70
     1
  9
$ANGBASE
 50
0.0
  9
$ANGDIR
 70
     0
  9
$PDMODE
 70
     0
  9
$PDSIZE
 40
0.0
  9
$PLINEWID
 40
0.0
  9
$COORDS
 70
     1
  9
$SPLFRAME
 70
     0
  9
$SPLINETYPE
 70
     6
  9
$SPLINESEGS
 70
     8
  9
$ATTDIA
 70
     0
  9
$ATTREQ
 70
     1
  9
$HANDLING
 70
     1
  9
$HANDSEED
  5
445
  9
$SURFTAB1
 70
     6
  9
$SURFTAB2
 70
     6
  9
$SURFTYPE
 70
     6
  9
$SURFU
 70
     6
  9
$SURFV
 70
     6
  9
$UCSNAME
  2

  9
$UCSORG
 10
0.0
 20
0.0
 30
0.0
  9
$UCSXDIR
 10
1.0
 20
0.0
 30
0.0
  9
$UCSYDIR
 10
0.0
 20
1.0
 30
0.0
  9
$PUCSNAME
  2

  9
$PUCSORG
 10
0.0
 20
0.0
 30
0.0
  9
$PUCSXDIR
 10
1.0
 20
0.0
 30
0.0
  9
$PUCSYDIR
 10
0.0
 20
1.0
 30
0.0
  9
$USERI1
 70
     0
  9
$USERI2
 70
     0
  9
$USERI3
 70
     0
  9
$USERI4
 70
     0
  9
$USERI5
 70
     0
  9
$USERR1
 40
0.0
  9
$USERR2
 40
0.0
  9
$USERR3
 40
0.0
  9
$USERR4
 40
0.0
  9
$USERR5
 40
0.0
  9
$WORLDVIEW
 70
     1
  9
$SHADEDGE
 70
     3
  9
$SHADEDIF
 70
    70
  9
$TILEMODE
 70
     1
  9
$MAXACTVP
 70
    64
  9
$PINSBASE
 10
0.0
 20
0.0
 30
0.0
  9
$PLIMCHECK
 70
     0
  9
$PEXTMIN
 10
1.000000000000000E+20
 20
1.000000000000000E+20
 30
1.000000000000000E+20
  9
$PEXTMAX
 10
-1.000000000000000E+20
 20
-1.000000000000000E+20
 30
-1.000000000000000E+20
  9
$PLIMMIN
 10
0.0
 20
0.0
  9
$PLIMMAX
 10
12.0
 20
9.0
  9
$UNITMODE
 70
     0
  9
$VISRETAIN
 70
     1
  9
$PLINEGEN
 70
     0
  9
$PSLTSCALE
 70
     1
  9
$TREEDEPTH
 70
  3020
  9
$PICKSTYLE
 70
     1
  9
$CMLSTYLE
  2
STANDARD
  9
$CMLJUST
 70
     0
  9
$CMLSCALE
 40
1.0
  9
$PROXYGRAPHICS
 70
     1
  9
$MEASUREMENT
 70
     0
  0
ENDSEC
  0
SECTION
  2
CLASSES
  0
CLASS
  1
ACDBDICTIONARYWDFLT
  2
AcDbDictionaryWithDefault
  3
ObjectDBX Classes
 90
        0
280
     0
281
     0
  0
CLASS
  1
VISUALSTYLE
  2
AcDbVisualStyle
  3
ObjectDBX Classes
 90
     4095
280
     0
281
     0
  0
CLASS
  1
XRECORD
  2
AcDbXrecord
  3
AutoCAD 2000
 90
        0
280
     0
281
     0
  0
CLASS
  1
LWPOLYLINE
  2
AcDbPolyline
  3
AutoCAD 2000
 90
        0
280
     0
281
     1
  0
CLASS
  1
HATCH
  2
AcDbHatch
  3
AutoCAD 2000
 90
        0
280
     0
281
     1
  0
CLASS
  1
ACDBPLACEHOLDER
  2
AcDbPlaceHolder
  3
ObjectDBX Classes
 90
        0
280
     0
281
     0
  0
CLASS
  1
LAYOUT
  2
AcDbLayout
  3
ObjectDBX Classes
 90
        0
280
     0
281
     0
  0
ENDSEC
  0
SECTION
  2
TABLES
  0
TABLE
  2
VPORT
  5
8
330
0
100
AcDbSymbolTable
 70
     1
  0
VPORT
  5
29
330
8
100
AcDbSymbolTableRecord
100
AcDbViewportTableRecord
  2
*ACTIVE
 70
     0
 10
0.0
 20
0.0
 11
1.0
 21
1.0
 12
0.0
 22
0.0
 13
0.0
 23
0.0
 14
0.5
 24
0.5
 15
0.5
 25
0.5
 16
0.0
 26
0.0
 36
1.0
 17
30.47094226728769
 27
-0.3813723218063592
 37
0.0
 40
31.42077983484204
 41
2.9438411469983
 42
50.0
 43
0.0
 44
0.0
 50
0.0
 51
0.0
 71
     0
 72
   100
 73
     1
 74
     3
 75
     0
 76
     0
 77
     0
 78
     0
  0
ENDTAB
  0
TABLE
  2
LTYPE
  5
5
330
0
100
AcDbSymbolTable
 70
     4
  0
LTYPE
  5
14
330
5
100
AcDbSymbolTableRecord
100
AcDbLinetypeTableRecord
  2
BYBLOCK
 70
     0
  3

 72
    65
 73
     0
 40
0.0
  0
LTYPE
  5
15
330
5
100
AcDbSymbolTableRecord
100
AcDbLinetypeTableRecord
  2
BYLAYER
 70
     0
  3

 72
    65
 73
     0
 40
0.0
  0
LTYPE
  5
16
330
5
100
AcDbSymbolTableRecord
100
AcDbLinetypeTableRecord
  2
CONTINUOUS
 70
     0
  3
Solid line
 72
    65
 73
     0
 40
0.0
  0
LTYPE
  5
102
330
5
100
AcDbSymbolTableRecord
100
AcDbLinetypeTableRecord
  2
AI-LINETYPE-1
 70
     0
  3
Adobe Illustrator Linetype No. 1
 72
    65
 73
     4
 40
8.819450260381924
 49
7.055560208305538
 74
     0
 49
-0.7055560208305538
 74
     0
 49
0.3527780104152769
 74
     0
 49
-0.7055560208305538
 74
     0
  0
LTYPE
  5
107
330
5
100
AcDbSymbolTableRecord
100
AcDbLinetypeTableRecord
  2
AI-LINETYPE-2
 70
     0
  3
Adobe Illustrator Linetype No. 2
 72
    65
 73
     4
 40
8.819450260381924
 49
7.055560208305538
 74
     0
 49
-0.7055560208305538
 74
     0
 49
0.3527780104152769
 74
     0
 49
-0.7055560208305538
 74
     0
  0
LTYPE
  5
10C
330
5
100
AcDbSymbolTableRecord
100
AcDbLinetypeTableRecord
  2
AI-LINETYPE-3
 70
     0
  3
Adobe Illustrator Linetype No. 3
 72
    65
 73
     4
 40
8.819450260381924
 49
7.055560208305538
 74
     0
 49
-0.7055560208305538
 74
     0
 49
0.3527780104152769
 74
     0
 49
-0.7055560208305538
 74
     0
  0
ENDTAB
  0
TABLE
  2
LAYER
  5
2
330
0
100
AcDbSymbolTable
 70
     5
  0
LAYER
  5
10
330
2
100
AcDbSymbolTableRecord
100
AcDbLayerTableRecord
  2
0
 70
     0
 62
     7
  6
CONTINUOUS
  0
LAYER
  5
3B
330
2
100
AcDbSymbolTableRecord
100
AcDbLayerTableRecord
  2
GRAU_10_
 70
     0
 62
     7
  6
CONTINUOUS
  0
LAYER
  5
10D
330
2
100
AcDbSymbolTableRecord
100
AcDbLayerTableRecord
  2
STANDARDEBENE
 70
     0
 62
     7
  6
CONTINUOUS
  0
LAYER
  5
1C7
330
2
100
AcDbSymbolTableRecord
100
AcDbLayerTableRecord
  2
BEMA_UNG
 70
     1
 62
     7
  6
CONTINUOUS
  0
LAYER
  5
420
330
2
100
AcDbSymbolTableRecord
100
AcDbLayerTableRecord
  2
TEXT
 70
     1
 62
     7
  6
CONTINUOUS
  0
ENDTAB
  0
TABLE
  2
STYLE
  5
3
330
0
100
AcDbSymbolTable
 70
     1
  0
STYLE
  5
11
330
3
100
AcDbSymbolTableRecord
100
AcDbTextStyleTableRecord
  2
STANDARD
 70
     0
 40
0.0
 41
1.0
 50
0.0
 71
     0
 42
0.2
  3
txt
  4

  0
ENDTAB
  0
TABLE
  2
VIEW
  5
6
330
0
100
AcDbSymbolTable
 70
     0
  0
ENDTAB
  0
TABLE
  2
UCS
  5
7
330
0
100
AcDbSymbolTable
 70
     0
  0
ENDTAB
  0
TABLE
  2
APPID
  5
9
330
0
100
AcDbSymbolTable
 70
     1
  0
APPID
  5
12
330
9
100
AcDbSymbolTableRecord
100
AcDbRegAppTableRecord
  2
ACAD
 70
     0
  0
ENDTAB
  0
TABLE
  2
DIMSTYLE
  5
A
330
0
100
AcDbSymbolTable
 70
     1
  0
DIMSTYLE
105
27
330
A
100
AcDbSymbolTableRecord
100
AcDbDimStyleTableRecord
  2
STANDARD
 70
     0
  3

  4

  5

  6

  7

 40
1.0
 41
0.18
 42
0.0625
 43
0.38
 44
0.18
 45
0.0
 46
0.0
 47
0.0
 48
0.0
140
0.18
141
0.09
142
0.0
143
25.4
144
1.0
145
0.0
146
1.0
147
0.09
 71
     0
 72
     0
 73
     1
 74
     1
 75
     0
 76
     0
 77
     0
 78
     0
170
     0
171
     2
172
     0
173
     0
174
     0
175
     0
176
     0
177
     0
178
     0
270
     2
271
     4
272
     4
273
     2
274
     2
340
11
275
     0
280
     0
281
     0
282
     0
283
     1
284
     0
285
     0
286
     0
287
     3
288
     0
  0
ENDTAB
  0
TABLE
  2
BLOCK_RECORD
  5
1
330
0
100
AcDbSymbolTable
 70
     1
  0
BLOCK_RECORD
  5
1F
330
1
100
AcDbSymbolTableRecord
100
AcDbBlockTableRecord
  2
*MODEL_SPACE
  0
BLOCK_RECORD
  5
1B
330
1
100
AcDbSymbolTableRecord
100
AcDbBlockTableRecord
  2
*PAPER_SPACE
  0
ENDTAB
  0
ENDSEC
  0
SECTION
  2
BLOCKS
  0
BLOCK
  5
20
330
1F
100
AcDbEntity
  8
0
100
AcDbBlockBegin
  2
*MODEL_SPACE
 70
     0
 71
     0
 10
0.0
 20
0.0
 30
0.0
  3
*MODEL_SPACE
  1

  0
ENDBLK
  5
21
330
1F
100
AcDbEntity
  8
0
100
AcDbBlockEnd
  0
BLOCK
  5
1C
330
1B
100
AcDbEntity
 67
     1
  8
0
100
AcDbBlockBegin
  2
*PAPER_SPACE
 70
     0
 71
     0
 10
0.0
 20
0.0
 30
0.0
  3
*PAPER_SPACE
  1

  0
ENDBLK
  5
1D
330
1B
100
AcDbEntity
 67
     1
  8
0
100
AcDbBlockEnd
  0
ENDSEC
  0
SECTION
  2
ENTITIES
  0
POLYLINE
  5
3C
330
1F
100
AcDbEntity
  8
GRAU_10_
 62
     7
100
AcDb2dPolyline
 66
     1
 10
0.0
 20
0.0
 30
0.0
  0
VERTEX
  5
3D
330
3C
100
AcDbEntity
  8
GRAU_10_
 62
     7
100
AcDbVertex
100
AcDb2dVertex
 10
6.58151475681001
 20
-10.93887440107995
 30
0.0
  0
VERTEX
  5
3E
330
3C
100
AcDbEntity
  8
GRAU_10_
 62
     7
100
AcDbVertex
100
AcDb2dVertex
 10
18.60301112832942
 20
-9.249398460575541
 30
0.0
  0
SEQEND
  5
3F
330
3C
100
AcDbEntity
  8
GRAU_10_
  0
POLYLINE
  5
40
330
1F
100
AcDbEntity
  8
GRAU_10_
 62
     7
100
AcDb2dPolyline
 66
     1
 10
0.0
 20
0.0
 30
0.0
  0
VERTEX
  5
41
330
40
100
AcDbEntity
  8
GRAU_10_
 62
     7
100
AcDbVertex
100
AcDb2dVertex
 10
18.60301112832942
 20
-1.628842219964286
 30
0.0
  0
VERTEX
  5
42
330
40
100
AcDbEntity
  8
GRAU_10_
 62
     7
100
AcDbVertex
100
AcDb2dVertex
 10
6.58151475681001
 20
0.0606337205401257
 30
0.0
  0
SEQEND
  5
43
330
40
100
AcDbEntity
  8
GRAU_10_
  0
POLYLINE
  5
44
330
1F
100
AcDbEntity
  8
GRAU_10_
 62
     7
100
AcDb2dPolyline
 66
     1
 10
0.0
 20
0.0
 30
0.0
  0
VERTEX
  5
45
330
44
100
AcDbEntity
  8
GRAU_10_
 62
     7
100
AcDbVertex
100
AcDb2dVertex
 10
3.781167044250851
 20
0.0110243128254774
 30
0.0
  0
VERTEX
  5
46
330
44
100
AcDbEntity
  8
GRAU_10_
 62
     7
100
AcDbVertex
100
AcDb2dVertex
 10
3.735347244069961
 20
0.0110243128254774
 30
0.0
  0
SEQEND
  5
47
330
44
100
AcDbEntity
  8
GRAU_10_
  0
POLYLINE
  5
48
330
1F
100
AcDbEntity
  8
GRAU_10_
 62
     7
100
AcDb2dPolyline
 66
     1
 10
0.0
 20
0.0
 30
0.0
  0
VERTEX
  5
49
330
48
100
AcDbEntity
  8
GRAU_10_
 62
     7
100
AcDbVertex
100
AcDb2dVertex
 10
3.735347244069961
 20
-10.88926499336531
 30
0.0
  0
VERTEX
  5
4A
330
48
100
AcDbEntity
  8
GRAU_10_
 62
     7
100
AcDbVertex
100
AcDb2dVertex
 10
3.781167044250851
 20
-10.88926499336531
 30
0.0
  0
SEQEND
  5
4B
330
48
100
AcDbEntity
  8
GRAU_10_
  0
POLYLINE
  5
4C
330
1F
100
AcDbEntity
  8
GRAU_10_
 62
     7
100
AcDb2dPolyline
 66
     1
 10
0.0
 20
0.0
 30
0.0
  0
VERTEX
  5
4D
330
4C
100
AcDbEntity
  8
GRAU_10_
 62
     7
100
AcDbVertex
100
AcDb2dVertex
 10
3.635094899313275
 20
-0.0158474496866238
 30
0.0
  0
VERTEX
  5
4E
330
4C
100
AcDbEntity
  8
GRAU_10_
 62
     7
100
AcDbVertex
100
AcDb2dVertex
 10
1.581472125792313
 20
-1.201650097977037
 30
0.0
  0
SEQEND
  5
4F
330
4C
100
AcDbEntity
  8
GRAU_10_
  0
POLYLINE
  5
50
330
1F
100
AcDbEntity
  8
GRAU_10_
 62
     7
100
AcDb2dPolyline
 66
     1
 10
0.0
 20
0.0
 30
0.0
  0
VERTEX
  5
51
330
50
100
AcDbEntity
  8
GRAU_10_
 62
     7
100
AcDbVertex
100
AcDb2dVertex
 10
1.581472125792313
 20
-9.676762837450688
 30
0.0
  0
VERTEX
  5
52
330
50
100
AcDbEntity
  8
GRAU_10_
 62
     7
100
AcDbVertex
100
AcDb2dVertex
 10
3.635094899313275
 20
-10.8623932308532
 30
0.0
  0
SEQEND
  5
53
330
50
100
AcDbEntity
  8
GRAU_10_
  0
POLYLINE
  5
54
330
1F
100
AcDbEntity
  8
GRAU_10_
 62
     7
100
AcDb2dPolyline
 66
     1
 10
0.0
 20
0.0
 30
0.0
  0
VERTEX
  5
55
330
54
100
AcDbEntity
  8
GRAU_10_
 62
     7
100
AcDbVertex
100
AcDb2dVertex
 10
6.381526831960334
 20
-0.6893640613681339
 30
0.0
  0
VERTEX
  5
56
330
54
100
AcDbEntity
  8
GRAU_10_
 62
     7
100
AcDbVertex
100
AcDb2dVertex
 10
4.181487403725999
 20
-0.6893640613681339
 30
0.0
  0
SEQEND
  5
57
330
54
100
AcDbEntity
  8
GRAU_10_
  0
POLYLINE
  5
58
330
1F
100
AcDbEntity
  8
GRAU_10_
 62
     7
100
AcDb2dPolyline
 66
     1
 10
0.0
 20
0.0
 30
0.0
  0
VERTEX
  5
59
330
58
100
AcDbEntity
  8
GRAU_10_
 62
     7
100
AcDbVertex
100
AcDb2dVertex
 10
4.181487403725999
 20
-10.18887661917169
 30
0.0
  0
VERTEX
  5
5A
330
58
100
AcDbEntity
  8
GRAU_10_
 62
     7
100
AcDbVertex
100
AcDb2dVertex
 10
6.381526831960334
 20
-10.18887661917169
 30
0.0
  0
SEQEND
  5
5B
330
58
100
AcDbEntity
  8
GRAU_10_
  0
POLYLINE
  5
5C
330
1F
100
AcDbEntity
  8
GRAU_10_
 62
     7
100
AcDb2dPolyline
 66
     1
 10
0.0
 20
0.0
 30
0.0
  0
VERTEX
  5
5D
330
5C
100
AcDbEntity
  8
GRAU_10_
 62
     7
100
AcDbVertex
100
AcDb2dVertex
 10
0.2812922319375719
 20
-1.439017333500597
 30
0.0
  0
VERTEX
  5
5E
330
5C
100
AcDbEntity
  8
GRAU_10_
 62
     7
100
AcDbVertex
100
AcDb2dVertex
 10
0.0814765619757939
 20
-1.639005258350273
 30
0.0
  0
SEQEND
  5
5F
330
5C
100
AcDbEntity
  8
GRAU_10_
  0
POLYLINE
  5
60
330
1F
100
AcDbEntity
  8
GRAU_10_
 62
     7
100
AcDb2dPolyline
 66
     1
 10
0.0
 20
0.0
 30
0.0
  0
VERTEX
  5
61
330
60
100
AcDbEntity
  8
GRAU_10_
 62
     7
100
AcDbVertex
100
AcDb2dVertex
 10
0.0814765619757939
 20
-9.238890912413758
 30
0.0
  0
VERTEX
  5
62
330
60
100
AcDbEntity
  8
GRAU_10_
 62
     7
100
AcDbVertex
100
AcDb2dVertex
 10
0.2812922319375719
 20
-9.43922334703923
 30
0.0
  0
SEQEND
  5
63
330
60
100
AcDbEntity
  8
GRAU_10_
  0
POLYLINE
  5
64
330
1F
100
AcDbEntity
  8
GRAU_10_
 62
     7
100
AcDb2dPolyline
 66
     1
 10
0.0
 20
0.0
 30
0.0
  0
VERTEX
  5
65
330
64
100
AcDbEntity
  8
GRAU_10_
 62
     7
100
AcDbVertex
100
AcDb2dVertex
 10
1.381484200942637
 20
-1.439017333500597
 30
0.0
  0
VERTEX
  5
66
330
64
100
AcDbEntity
  8
GRAU_10_
 62
     7
100
AcDbVertex
100
AcDb2dVertex
 10
0.2812922319375719
 20
-1.439017333500597
 30
0.0
  0
SEQEND
  5
67
330
64
100
AcDbEntity
  8
GRAU_10_
  0
POLYLINE
  5
68
330
1F
100
AcDbEntity
  8
GRAU_10_
 62
     7
100
AcDb2dPolyline
 66
     1
 10
0.0
 20
0.0
 30
0.0
  0
VERTEX
  5
69
330
68
100
AcDbEntity
  8
GRAU_10_
 62
     7
100
AcDbVertex
100
AcDb2dVertex
 10
0.2812922319375719
 20
-9.43922334703923
 30
0.0
  0
VERTEX
  5
6A
330
68
100
AcDbEntity
  8
GRAU_10_
 62
     7
100
AcDbVertex
100
AcDb2dVertex
 10
1.381484200942637
 20
-9.43922334703923
 30
0.0
  0
SEQEND
  5
6B
330
68
100
AcDbEntity
  8
GRAU_10_
  0
POLYLINE
  5
6C
330
1F
100
AcDbEntity
  8
GRAU_10_
 62
     7
100
AcDb2dPolyline
 66
     1
 10
0.0
 20
0.0
 30
0.0
  0
VERTEX
  5
6D
330
6C
100
AcDbEntity
  8
GRAU_10_
 62
     7
100
AcDbVertex
100
AcDb2dVertex
 10
18.60301112832942
 20
-9.249398460575541
 30
0.0
  0
VERTEX
  5
6E
330
6C
100
AcDbEntity
  8
GRAU_10_
 62
     7
100
AcDbVertex
100
AcDb2dVertex
 10
19.0815352069103
 20
-9.07593778846217
 30
0.0
  0
SEQEND
  5
6F
330
6C
100
AcDbEntity
  8
GRAU_10_
  0
POLYLINE
  5
70
330
1F
100
AcDbEntity
  8
GRAU_10_
 62
     7
100
AcDb2dPolyline
 66
     1
 10
0.0
 20
0.0
 30
0.0
  0
VERTEX
  5
71
330
70
100
AcDbEntity
  8
GRAU_10_
 62
     7
100
AcDbVertex
100
AcDb2dVertex
 10
19.0815352069103
 20
-1.80299191162925
 30
0.0
  0
VERTEX
  5
72
330
70
100
AcDbEntity
  8
GRAU_10_
 62
     7
100
AcDbVertex
100
AcDb2dVertex
 10
18.60301112832942
 20
-1.628842219964286
 30
0.0
  0
SEQEND
  5
73
330
70
100
AcDbEntity
  8
GRAU_10_
  0
SPLINE
  5
74
330
1F
100
AcDbEntity
  8
GRAU_10_
 62
     7
100
AcDbSpline
210
0.0
220
0.0
230
1.0
 70
     8
 71
     3
 72
     8
 73
     4
 74
     0
 42
0.0000000001
 43
0.0000000001
 40
0.0
 40
0.0
 40
0.0
 40
0.0
 40
1.0
 40
1.0
 40
1.0
 40
1.0
 10
3.981499478876323
 20
-0.1891358669120967
 30
0.0
 10
3.981499478876323
 20
-0.0787204837694246
 30
0.0
 10
3.891582427393523
 20
0.0110243128254774
 30
0.0
 10
3.781167044250851
 20
0.0110243128254774
 30
0.0
  0
SPLINE
  5
75
330
1F
100
AcDbEntity
  8
GRAU_10_
 62
     7
100
AcDbSpline
210
0.0
220
0.0
230
1.0
 70
     8
 71
     3
 72
     8
 73
     4
 74
     0
 42
0.0000000001
 43
0.0000000001
 40
0.0
 40
0.0
 40
0.0
 40
0.0
 40
1.0
 40
1.0
 40
1.0
 40
1.0
 10
3.781167044250851
 20
-10.88926499336531
 30
0.0
 10
3.891582427393523
 20
-10.88926499336531
 30
0.0
 10
3.981499478876323
 20
-10.7996924516583
 30
0.0
 10
3.981499478876323
 20
-10.68910481362773
 30
0.0
  0
SPLINE
  5
76
330
1F
100
AcDbEntity
  8
GRAU_10_
 62
     7
100
AcDbSpline
210
0.0
220
0.0
230
1.0
 70
     8
 71
     3
 72
     8
 73
     4
 74
     0
 42
0.0000000001
 43
0.0000000001
 40
0.0
 40
0.0
 40
0.0
 40
0.0
 40
1.0
 40
1.0
 40
1.0
 40
1.0
 10
3.735347244069961
 20
0.0110243128254774
 30
0.0
 10
3.698140188283975
 20
0.0110243128254774
 30
0.0
 10
3.663689210704358
 20
0.0010335293273885
 30
0.0
 10
3.635094899313275
 20
-0.0158474496866238
 30
0.0
  0
SPLINE
  5
77
330
1F
100
AcDbEntity
  8
GRAU_10_
 62
     7
100
AcDbSpline
210
0.0
220
0.0
230
1.0
 70
     8
 71
     3
 72
     8
 73
     4
 74
     0
 42
0.0000000001
 43
0.0000000001
 40
0.0
 40
0.0
 40
0.0
 40
0.0
 40
1.0
 40
1.0
 40
1.0
 40
1.0
 10
3.635094899313275
 20
-10.8623932308532
 30
0.0
 10
3.667134308462319
 20
-10.8806522489704
 30
0.0
 10
3.701413031154038
 20
-10.88926499336531
 30
0.0
 10
3.735347244069961
 20
-10.88926499336531
 30
0.0
  0
SPLINE
  5
78
330
1F
100
AcDbEntity
  8
GRAU_10_
 62
     7
100
AcDbSpline
210
0.0
220
0.0
230
1.0
 70
     8
 71
     3
 72
     8
 73
     4
 74
     0
 42
0.0000000001
 43
0.0000000001
 40
0.0
 40
0.0
 40
0.0
 40
0.0
 40
1.0
 40
1.0
 40
1.0
 40
1.0
 10
3.981499478876323
 20
-0.4888593718547636
 30
0.0
 10
3.981499478876323
 20
-0.5994470098853338
 30
0.0
 10
4.071072020583327
 20
-0.6893640613681339
 30
0.0
 10
4.181487403725999
 20
-0.6893640613681339
 30
0.0
  0
SPLINE
  5
79
330
1F
100
AcDbEntity
  8
GRAU_10_
 62
     7
100
AcDbSpline
210
0.0
220
0.0
230
1.0
 70
     8
 71
     3
 72
     8
 73
     4
 74
     0
 42
0.0000000001
 43
0.0000000001
 40
0.0
 40
0.0
 40
0.0
 40
0.0
 40
1.0
 40
1.0
 40
1.0
 40
1.0
 10
4.181487403725999
 20
-10.18887661917169
 30
0.0
 10
4.071072020583327
 20
-10.18887661917169
 30
0.0
 10
3.981499478876323
 20
-10.2784491608787
 30
0.0
 10
3.981499478876323
 20
-10.38903679890927
 30
0.0
  0
SPLINE
  5
7A
330
1F
100
AcDbEntity
  8
GRAU_10_
 62
     7
100
AcDbSpline
210
0.0
220
0.0
230
1.0
 70
     8
 71
     3
 72
     8
 73
     4
 74
     0
 42
0.0000000001
 43
0.0000000001
 40
0.0
 40
0.0
 40
0.0
 40
0.0
 40
1.0
 40
1.0
 40
1.0
 40
1.0
 10
6.381526831960334
 20
-0.6893640613681339
 30
0.0
 10
6.491425450439311
 20
-0.6893640613681339
 30
0.0
 10
6.58151475681001
 20
-0.5994470098853338
 30
0.0
 10
6.58151475681001
 20
-0.4888593718547636
 30
0.0
  0
SPLINE
  5
7B
330
1F
100
AcDbEntity
  8
GRAU_10_
 62
     7
100
AcDbSpline
210
0.0
220
0.0
230
1.0
 70
     8
 71
     3
 72
     8
 73
     4
 74
     0
 42
0.0000000001
 43
0.0000000001
 40
0.0
 40
0.0
 40
0.0
 40
0.0
 40
1.0
 40
1.0
 40
1.0
 40
1.0
 10
6.58151475681001
 20
-10.38903679890927
 30
0.0
 10
6.58151475681001
 20
-10.2784491608787
 30
0.0
 10
6.491425450439311
 20
-10.18887661917169
 30
0.0
 10
6.381526831960334
 20
-10.18887661917169
 30
0.0
  0
SPLINE
  5
7C
330
1F
100
AcDbEntity
  8
GRAU_10_
 62
     7
100
AcDbSpline
210
0.0
220
0.0
230
1.0
 70
     8
 71
     3
 72
     8
 73
     4
 74
     0
 42
0.0000000001
 43
0.0000000001
 40
0.0
 40
0.0
 40
0.0
 40
0.0
 40
1.0
 40
1.0
 40
1.0
 40
1.0
 10
1.381484200942637
 20
-1.439017333500597
 30
0.0
 10
1.491555074309513
 20
-1.439017333500597
 30
0.0
 10
1.581472125792313
 20
-1.349444791793593
 30
0.0
 10
1.581472125792313
 20
-1.238857153763023
 30
0.0
  0
SPLINE
  5
7D
330
1F
100
AcDbEntity
  8
GRAU_10_
 62
     7
100
AcDbSpline
210
0.0
220
0.0
230
1.0
 70
     8
 71
     3
 72
     8
 73
     4
 74
     0
 42
0.0000000001
 43
0.0000000001
 40
0.0
 40
0.0
 40
0.0
 40
0.0
 40
1.0
 40
1.0
 40
1.0
 40
1.0
 10
1.581472125792313
 20
-9.639383526776804
 30
0.0
 10
1.581472125792313
 20
-9.528795888746235
 30
0.0
 10
1.491555074309513
 20
-9.43922334703923
 30
0.0
 10
1.381484200942637
 20
-9.43922334703923
 30
0.0
  0
POLYLINE
  5
7E
330
1F
100
AcDbEntity
  8
GRAU_10_
 62
     7
100
AcDb2dPolyline
 66
     1
 10
0.0
 20
0.0
 30
0.0
  0
VERTEX
  5
7F
330
7E
100
AcDbEntity
  8
GRAU_10_
 62
     7
100
AcDbVertex
100
AcDb2dVertex
 10
3.981499478876323
 20
-5.43946485004571
 30
0.0
  0
VERTEX
  5
80
330
7E
100
AcDbEntity
  8
GRAU_10_
 62
     7
100
AcDbVertex
100
AcDb2dVertex
 10
3.981499478876323
 20
-4.271059945433003
 30
0.0
  0
VERTEX
  5
81
330
7E
100
AcDbEntity
  8
GRAU_10_
 62
     7
100
AcDbVertex
100
AcDb2dVertex
 10
3.981499478876323
 20
-3.161566212481441
 30
0.0
  0
VERTEX
  5
82
330
7E
100
AcDbEntity
  8
GRAU_10_
 62
     7
100
AcDbVertex
100
AcDb2dVertex
 10
3.981499478876323
 20
-2.165932960430514
 30
0.0
  0
VERTEX
  5
83
330
7E
100
AcDbEntity
  8
GRAU_10_
 62
     7
100
AcDbVertex
100
AcDb2dVertex
 10
3.981499478876323
 20
-1.334975381210154
 30
0.0
  0
VERTEX
  5
84
330
7E
100
AcDbEntity
  8
GRAU_10_
 62
     7
100
AcDbVertex
100
AcDb2dVertex
 10
3.981499478876323
 20
-0.7093456283643117
 30
0.0
  0
VERTEX
  5
85
330
7E
100
AcDbEntity
  8
GRAU_10_
 62
     7
100
AcDbVertex
100
AcDb2dVertex
 10
3.981499478876323
 20
-0.3210831110420294
 30
0.0
  0
VERTEX
  5
86
330
7E
100
AcDbEntity
  8
GRAU_10_
 62
     7
100
AcDbVertex
100
AcDb2dVertex
 10
3.981499478876323
 20
-0.1891358669120967
 30
0.0
  0
SEQEND
  5
87
330
7E
100
AcDbEntity
  8
GRAU_10_
  0
POLYLINE
  5
88
330
1F
100
AcDbEntity
  8
GRAU_10_
 62
     7
100
AcDb2dPolyline
 66
     1
 10
0.0
 20
0.0
 30
0.0
  0
VERTEX
  5
89
330
88
100
AcDbEntity
  8
GRAU_10_
 62
     7
100
AcDbVertex
100
AcDb2dVertex
 10
3.981499478876323
 20
-10.68910481362773
 30
0.0
  0
VERTEX
  5
8A
330
88
100
AcDbEntity
  8
GRAU_10_
 62
     7
100
AcDbVertex
100
AcDb2dVertex
 10
3.981499478876323
 20
-10.55784658904939
 30
0.0
  0
VERTEX
  5
8B
330
88
100
AcDbEntity
  8
GRAU_10_
 62
     7
100
AcDbVertex
100
AcDb2dVertex
 10
3.981499478876323
 20
-10.16958407172711
 30
0.0
  0
VERTEX
  5
8C
330
88
100
AcDbEntity
  8
GRAU_10_
 62
     7
100
AcDbVertex
100
AcDb2dVertex
 10
3.981499478876323
 20
-9.543954318881266
 30
0.0
  0
VERTEX
  5
8D
330
88
100
AcDbEntity
  8
GRAU_10_
 62
     7
100
AcDbVertex
100
AcDb2dVertex
 10
3.981499478876323
 20
-8.712479974997212
 30
0.0
  0
VERTEX
  5
8E
330
88
100
AcDbEntity
  8
GRAU_10_
 62
     7
100
AcDbVertex
100
AcDb2dVertex
 10
3.981499478876323
 20
-7.717363487609978
 30
0.0
  0
VERTEX
  5
8F
330
88
100
AcDbEntity
  8
GRAU_10_
 62
     7
100
AcDbVertex
100
AcDb2dVertex
 10
3.981499478876323
 20
-6.607180735106824
 30
0.0
  0
VERTEX
  5
90
330
88
100
AcDbEntity
  8
GRAU_10_
 62
     7
100
AcDbVertex
100
AcDb2dVertex
 10
3.981499478876323
 20
-5.43946485004571
 30
0.0
  0
SEQEND
  5
91
330
88
100
AcDbEntity
  8
GRAU_10_
  0
POLYLINE
  5
92
330
1F
100
AcDbEntity
  8
GRAU_10_
 62
     7
100
AcDb2dPolyline
 66
     1
 10
0.0
 20
0.0
 30
0.0
  0
VERTEX
  5
93
330
92
100
AcDbEntity
  8
GRAU_10_
 62
     7
100
AcDbVertex
100
AcDb2dVertex
 10
1.581472125792313
 20
-1.201650097977037
 30
0.0
  0
VERTEX
  5
94
330
92
100
AcDbEntity
  8
GRAU_10_
 62
     7
100
AcDbVertex
100
AcDb2dVertex
 10
1.581472125792313
 20
-1.308103618698053
 30
0.0
  0
VERTEX
  5
95
330
92
100
AcDbEntity
  8
GRAU_10_
 62
     7
100
AcDbVertex
100
AcDb2dVertex
 10
1.581472125792313
 20
-1.621607514672567
 30
0.0
  0
VERTEX
  5
96
330
92
100
AcDbEntity
  8
GRAU_10_
 62
     7
100
AcDbVertex
100
AcDb2dVertex
 10
1.581472125792313
 20
-2.126142081326056
 30
0.0
  0
VERTEX
  5
97
330
92
100
AcDbEntity
  8
GRAU_10_
 62
     7
100
AcDbVertex
100
AcDb2dVertex
 10
1.581472125792313
 20
-2.797419379464891
 30
0.0
  0
VERTEX
  5
98
330
92
100
AcDbEntity
  8
GRAU_10_
 62
     7
100
AcDbVertex
100
AcDb2dVertex
 10
1.581472125792313
 20
-3.600816176621557
 30
0.0
  0
VERTEX
  5
99
330
92
100
AcDbEntity
  8
GRAU_10_
 62
     7
100
AcDbVertex
100
AcDb2dVertex
 10
1.581472125792313
 20
-4.496541593691596
 30
0.0
  0
VERTEX
  5
9A
330
92
100
AcDbEntity
  8
GRAU_10_
 62
     7
100
AcDbVertex
100
AcDb2dVertex
 10
1.581472125792313
 20
-5.43946485004571
 30
0.0
  0
VERTEX
  5
9B
330
92
100
AcDbEntity
  8
GRAU_10_
 62
     7
100
AcDbVertex
100
AcDb2dVertex
 10
1.581472125792313
 20
-6.382388106399824
 30
0.0
  0
VERTEX
  5
9C
330
92
100
AcDbEntity
  8
GRAU_10_
 62
     7
100
AcDbVertex
100
AcDb2dVertex
 10
1.581472125792313
 20
-7.278113523469863
 30
0.0
  0
VERTEX
  5
9D
330
92
100
AcDbEntity
  8
GRAU_10_
 62
     7
100
AcDbVertex
100
AcDb2dVertex
 10
1.581472125792313
 20
-8.081165810850733
 30
0.0
  0
VERTEX
  5
9E
330
92
100
AcDbEntity
  8
GRAU_10_
 62
     7
100
AcDbVertex
100
AcDb2dVertex
 10
1.581472125792313
 20
-8.752098599213772
 30
0.0
  0
VERTEX
  5
9F
330
92
100
AcDbEntity
  8
GRAU_10_
 62
     7
100
AcDbVertex
100
AcDb2dVertex
 10
1.581472125792313
 20
-9.257322185418854
 30
0.0
  0
VERTEX
  5
A0
330
92
100
AcDbEntity
  8
GRAU_10_
 62
     7
100
AcDbVertex
100
AcDb2dVertex
 10
1.581472125792313
 20
-9.570137061841775
 30
0.0
  0
VERTEX
  5
A1
330
92
100
AcDbEntity
  8
GRAU_10_
 62
     7
100
AcDbVertex
100
AcDb2dVertex
 10
1.581472125792313
 20
-9.676762837450688
 30
0.0
  0
SEQEND
  5
A2
330
92
100
AcDbEntity
  8
GRAU_10_
  0
POLYLINE
  5
A3
330
1F
100
AcDbEntity
  8
GRAU_10_
 62
     7
100
AcDb2dPolyline
 66
     1
 10
0.0
 20
0.0
 30
0.0
  0
VERTEX
  5
A4
330
A3
100
AcDbEntity
  8
GRAU_10_
 62
     7
100
AcDbVertex
100
AcDb2dVertex
 10
0.2812922319375719
 20
-5.43946485004571
 30
0.0
  0
VERTEX
  5
A5
330
A3
100
AcDbEntity
  8
GRAU_10_
 62
     7
100
AcDbVertex
100
AcDb2dVertex
 10
0.2812922319375719
 20
-4.403696209114528
 30
0.0
  0
VERTEX
  5
A6
330
A3
100
AcDbEntity
  8
GRAU_10_
 62
     7
100
AcDbVertex
100
AcDb2dVertex
 10
0.2812922319375719
 20
-3.438896581997358
 30
0.0
  0
VERTEX
  5
A7
330
A3
100
AcDbEntity
  8
GRAU_10_
 62
     7
100
AcDbVertex
100
AcDb2dVertex
 10
0.2812922319375719
 20
-2.610867335871266
 30
0.0
  0
VERTEX
  5
A8
330
A3
100
AcDbEntity
  8
GRAU_10_
 62
     7
100
AcDbVertex
100
AcDb2dVertex
 10
0.2812922319375719
 20
-1.97473003486364
 30
0.0
  0
VERTEX
  5
A9
330
A3
100
AcDbEntity
  8
GRAU_10_
 62
     7
100
AcDbVertex
100
AcDb2dVertex
 10
0.2812922319375719
 20
-1.575787714491676
 30
0.0
  0
VERTEX
  5
AA
330
A3
100
AcDbEntity
  8
GRAU_10_
 62
     7
100
AcDbVertex
100
AcDb2dVertex
 10
0.2812922319375719
 20
-1.439017333500597
 30
0.0
  0
SEQEND
  5
AB
330
A3
100
AcDbEntity
  8
GRAU_10_
  0
POLYLINE
  5
AC
330
1F
100
AcDbEntity
  8
GRAU_10_
 62
     7
100
AcDb2dPolyline
 66
     1
 10
0.0
 20
0.0
 30
0.0
  0
VERTEX
  5
AD
330
AC
100
AcDbEntity
  8
GRAU_10_
 62
     7
100
AcDbVertex
100
AcDb2dVertex
 10
0.2812922319375719
 20
-9.43922334703923
 30
0.0
  0
VERTEX
  5
AE
330
AC
100
AcDbEntity
  8
GRAU_10_
 62
     7
100
AcDbVertex
100
AcDb2dVertex
 10
0.2812922319375719
 20
-9.303141985599744
 30
0.0
  0
VERTEX
  5
AF
330
AC
100
AcDbEntity
  8
GRAU_10_
 62
     7
100
AcDbVertex
100
AcDb2dVertex
 10
0.2812922319375719
 20
-8.902993881012494
 30
0.0
  0
VERTEX
  5
B0
330
AC
100
AcDbEntity
  8
GRAU_10_
 62
     7
100
AcDbVertex
100
AcDb2dVertex
 10
0.2812922319375719
 20
-8.267373344668561
 30
0.0
  0
VERTEX
  5
B1
330
AC
100
AcDbEntity
  8
GRAU_10_
 62
     7
100
AcDbVertex
100
AcDb2dVertex
 10
0.2812922319375719
 20
-7.43934409854247
 30
0.0
  0
VERTEX
  5
B2
330
AC
100
AcDbEntity
  8
GRAU_10_
 62
     7
100
AcDbVertex
100
AcDb2dVertex
 10
0.2812922319375719
 20
-6.4745444714253
 30
0.0
  0
VERTEX
  5
B3
330
AC
100
AcDbEntity
  8
GRAU_10_
 62
     7
100
AcDbVertex
100
AcDb2dVertex
 10
0.2812922319375719
 20
-5.43946485004571
 30
0.0
  0
SEQEND
  5
B4
330
AC
100
AcDbEntity
  8
GRAU_10_
  0
POLYLINE
  5
B5
330
1F
100
AcDbEntity
  8
GRAU_10_
 62
     7
100
AcDb2dPolyline
 66
     1
 10
0.0
 20
0.0
 30
0.0
  0
VERTEX
  5
B6
330
B5
100
AcDbEntity
  8
GRAU_10_
 62
     7
100
AcDbVertex
100
AcDb2dVertex
 10
6.58151475681001
 20
0.0606337205401257
 30
0.0
  0
VERTEX
  5
B7
330
B5
100
AcDbEntity
  8
GRAU_10_
 62
     7
100
AcDbVertex
100
AcDb2dVertex
 10
6.58151475681001
 20
-0.044786270853502
 30
0.0
  0
VERTEX
  5
B8
330
B5
100
AcDbEntity
  8
GRAU_10_
 62
     7
100
AcDbVertex
100
AcDb2dVertex
 10
6.58151475681001
 20
-0.3579456570522194
 30
0.0
  0
VERTEX
  5
B9
330
B5
100
AcDbEntity
  8
GRAU_10_
 62
     7
100
AcDbVertex
100
AcDb2dVertex
 10
6.58151475681001
 20
-0.8660975763515685
 30
0.0
  0
VERTEX
  5
BA
330
B5
100
AcDbEntity
  8
GRAU_10_
 62
     7
100
AcDbVertex
100
AcDb2dVertex
 10
6.58151475681001
 20
-1.550466245970658
 30
0.0
  0
VERTEX
  5
BB
330
B5
100
AcDbEntity
  8
GRAU_10_
 62
     7
100
AcDbVertex
100
AcDb2dVertex
 10
6.58151475681001
 20
-2.383663138733692
 30
0.0
  0
VERTEX
  5
BC
330
B5
100
AcDbEntity
  8
GRAU_10_
 62
     7
100
AcDbVertex
100
AcDb2dVertex
 10
6.58151475681001
 20
-3.334854629706915
 30
0.0
  0
VERTEX
  5
BD
330
B5
100
AcDbEntity
  8
GRAU_10_
 62
     7
100
AcDbVertex
100
AcDb2dVertex
 10
6.58151475681001
 20
-4.366316898440644
 30
0.0
  0
VERTEX
  5
BE
330
B5
100
AcDbEntity
  8
GRAU_10_
 62
     7
100
AcDbVertex
100
AcDb2dVertex
 10
6.58151475681001
 20
-5.43946485004571
 30
0.0
  0
VERTEX
  5
BF
330
B5
100
AcDbEntity
  8
GRAU_10_
 62
     7
100
AcDbVertex
100
AcDb2dVertex
 10
6.58151475681001
 20
-6.511923782099183
 30
0.0
  0
VERTEX
  5
C0
330
B5
100
AcDbEntity
  8
GRAU_10_
 62
     7
100
AcDbVertex
100
AcDb2dVertex
 10
6.58151475681001
 20
-7.544075070384506
 30
0.0
  0
VERTEX
  5
C1
330
B5
100
AcDbEntity
  8
GRAU_10_
 62
     7
100
AcDbVertex
100
AcDb2dVertex
 10
6.58151475681001
 20
-8.494577541806136
 30
0.0
  0
VERTEX
  5
C2
330
B5
100
AcDbEntity
  8
GRAU_10_
 62
     7
100
AcDbVertex
100
AcDb2dVertex
 10
6.58151475681001
 20
-9.328463454120762
 30
0.0
  0
VERTEX
  5
C3
330
B5
100
AcDbEntity
  8
GRAU_10_
 62
     7
100
AcDbVertex
100
AcDb2dVertex
 10
6.58151475681001
 20
-10.01248761396405
 30
0.0
  0
VERTEX
  5
C4
330
B5
100
AcDbEntity
  8
GRAU_10_
 62
     7
100
AcDbVertex
100
AcDb2dVertex
 10
6.58151475681001
 20
-10.5209840430392
 30
0.0
  0
VERTEX
  5
C5
330
B5
100
AcDbEntity
  8
GRAU_10_
 62
     7
100
AcDbVertex
100
AcDb2dVertex
 10
6.58151475681001
 20
-10.83345440968633
 30
0.0
  0
VERTEX
  5
C6
330
B5
100
AcDbEntity
  8
GRAU_10_
 62
     7
100
AcDbVertex
100
AcDb2dVertex
 10
6.58151475681001
 20
-10.93887440107995
 30
0.0
  0
SEQEND
  5
C7
330
B5
100
AcDbEntity
  8
GRAU_10_
  0
POLYLINE
  5
C8
330
1F
100
AcDbEntity
  8
GRAU_10_
 62
     7
100
AcDb2dPolyline
 66
     1
 10
0.0
 20
0.0
 30
0.0
  0
VERTEX
  5
C9
330
C8
100
AcDbEntity
  8
GRAU_10_
 62
     7
100
AcDbVertex
100
AcDb2dVertex
 10
0.0814765619757939
 20
-1.639005258350273
 30
0.0
  0
VERTEX
  5
CA
330
C8
100
AcDbEntity
  8
GRAU_10_
 62
     7
100
AcDbVertex
100
AcDb2dVertex
 10
0.0814765619757939
 20
-1.749420641492945
 30
0.0
  0
VERTEX
  5
CB
330
C8
100
AcDbEntity
  8
GRAU_10_
 62
     7
100
AcDbVertex
100
AcDb2dVertex
 10
0.0814765619757939
 20
-2.074637869844529
 30
0.0
  0
VERTEX
  5
CC
330
C8
100
AcDbEntity
  8
GRAU_10_
 62
     7
100
AcDbVertex
100
AcDb2dVertex
 10
0.0814765619757939
 20
-2.595019886184642
 30
0.0
  0
VERTEX
  5
CD
330
C8
100
AcDbEntity
  8
GRAU_10_
 62
     7
100
AcDbVertex
100
AcDb2dVertex
 10
0.0814765619757939
 20
-3.280766594906916
 30
0.0
  0
VERTEX
  5
CE
330
C8
100
AcDbEntity
  8
GRAU_10_
 62
     7
100
AcDbVertex
100
AcDb2dVertex
 10
0.0814765619757939
 20
-4.091398097355301
 30
0.0
  0
VERTEX
  5
CF
330
C8
100
AcDbEntity
  8
GRAU_10_
 62
     7
100
AcDbVertex
100
AcDb2dVertex
 10
0.0814765619757939
 20
-4.980922338461009
 30
0.0
  0
VERTEX
  5
D0
330
C8
100
AcDbEntity
  8
GRAU_10_
 62
     7
100
AcDbVertex
100
AcDb2dVertex
 10
0.0814765619757939
 20
-5.897318342078818
 30
0.0
  0
VERTEX
  5
D1
330
C8
100
AcDbEntity
  8
GRAU_10_
 62
     7
100
AcDbVertex
100
AcDb2dVertex
 10
0.0814765619757939
 20
-6.78649807340873
 30
0.0
  0
VERTEX
  5
D2
330
C8
100
AcDbEntity
  8
GRAU_10_
 62
     7
100
AcDbVertex
100
AcDb2dVertex
 10
0.0814765619757939
 20
-7.597818595408707
 30
0.0
  0
VERTEX
  5
D3
330
C8
100
AcDbEntity
  8
GRAU_10_
 62
     7
100
AcDbVertex
100
AcDb2dVertex
 10
0.0814765619757939
 20
-8.283565304130981
 30
0.0
  0
VERTEX
  5
D4
330
C8
100
AcDbEntity
  8
GRAU_10_
 62
     7
100
AcDbVertex
100
AcDb2dVertex
 10
0.0814765619757939
 20
-8.80429183024689
 30
0.0
  0
VERTEX
  5
D5
330
C8
100
AcDbEntity
  8
GRAU_10_
 62
     7
100
AcDbVertex
100
AcDb2dVertex
 10
0.0814765619757939
 20
-9.128820039046882
 30
0.0
  0
VERTEX
  5
D6
330
C8
100
AcDbEntity
  8
GRAU_10_
 62
     7
100
AcDbVertex
100
AcDb2dVertex
 10
0.0814765619757939
 20
-9.238890912413758
 30
0.0
  0
SEQEND
  5
D7
330
C8
100
AcDbEntity
  8
GRAU_10_
  0
POLYLINE
  5
D8
330
1F
100
AcDbEntity
  8
GRAU_10_
 62
     7
100
AcDb2dPolyline
 66
     1
 10
0.0
 20
0.0
 30
0.0
  0
VERTEX
  5
D9
330
D8
100
AcDbEntity
  8
GRAU_10_
 62
     7
100
AcDbVertex
100
AcDb2dVertex
 10
18.60301112832942
 20
-1.628842219964286
 30
0.0
  0
VERTEX
  5
DA
330
D8
100
AcDbEntity
  8
GRAU_10_
 62
     7
100
AcDbVertex
100
AcDb2dVertex
 10
18.60301112832942
 20
-1.73908534821906
 30
0.0
  0
VERTEX
  5
DB
330
D8
100
AcDbEntity
  8
GRAU_10_
 62
     7
100
AcDbVertex
100
AcDb2dVertex
 10
18.60301112832942
 20
-2.065163851010134
 30
0.0
  0
VERTEX
  5
DC
330
D8
100
AcDbEntity
  8
GRAU_10_
 62
     7
100
AcDbVertex
100
AcDb2dVertex
 10
18.60301112832942
 20
-2.586923906453432
 30
0.0
  0
VERTEX
  5
DD
330
D8
100
AcDbEntity
  8
GRAU_10_
 62
     7
100
AcDbVertex
100
AcDb2dVertex
 10
18.60301112832942
 20
-3.274565418942585
 30
0.0
  0
VERTEX
  5
DE
330
D8
100
AcDbEntity
  8
GRAU_10_
 62
     7
100
AcDbVertex
100
AcDb2dVertex
 10
18.60301112832942
 20
-4.08795299959734
 30
0.0
  0
VERTEX
  5
DF
330
D8
100
AcDbEntity
  8
GRAU_10_
 62
     7
100
AcDbVertex
100
AcDb2dVertex
 10
18.60301112832942
 20
-4.980233318909417
 30
0.0
  0
VERTEX
  5
E0
330
D8
100
AcDbEntity
  8
GRAU_10_
 62
     7
100
AcDbVertex
100
AcDb2dVertex
 10
18.60301112832942
 20
-5.898351871406207
 30
0.0
  0
VERTEX
  5
E1
330
D8
100
AcDbEntity
  8
GRAU_10_
 62
     7
100
AcDbVertex
100
AcDb2dVertex
 10
18.60301112832942
 20
-6.790287680942488
 30
0.0
  0
VERTEX
  5
E2
330
D8
100
AcDbEntity
  8
GRAU_10_
 62
     7
100
AcDbVertex
100
AcDb2dVertex
 10
18.60301112832942
 20
-7.604019771373038
 30
0.0
  0
VERTEX
  5
E3
330
D8
100
AcDbEntity
  8
GRAU_10_
 62
     7
100
AcDbVertex
100
AcDb2dVertex
 10
18.60301112832942
 20
-8.291316774086395
 30
0.0
  0
VERTEX
  5
E4
330
D8
100
AcDbEntity
  8
GRAU_10_
 62
     7
100
AcDbVertex
100
AcDb2dVertex
 10
18.60301112832942
 20
-8.81342133930549
 30
0.0
  0
VERTEX
  5
E5
330
D8
100
AcDbEntity
  8
GRAU_10_
 62
     7
100
AcDbVertex
100
AcDb2dVertex
 10
18.60301112832942
 20
-9.139155332320767
 30
0.0
  0
VERTEX
  5
E6
330
D8
100
AcDbEntity
  8
GRAU_10_
 62
     7
100
AcDbVertex
100
AcDb2dVertex
 10
18.60301112832942
 20
-9.249398460575541
 30
0.0
  0
SEQEND
  5
E7
330
D8
100
AcDbEntity
  8
GRAU_10_
  0
POLYLINE
  5
E8
330
1F
100
AcDbEntity
  8
GRAU_10_
 62
     7
100
AcDb2dPolyline
 66
     1
 10
0.0
 20
0.0
 30
0.0
  0
VERTEX
  5
E9
330
E8
100
AcDbEntity
  8
GRAU_10_
 62
     7
100
AcDbVertex
100
AcDb2dVertex
 10
19.0815352069103
 20
-1.80299191162925
 30
0.0
  0
VERTEX
  5
EA
330
E8
100
AcDbEntity
  8
GRAU_10_
 62
     7
100
AcDbVertex
100
AcDb2dVertex
 10
19.0815352069103
 20
-1.908584157910775
 30
0.0
  0
VERTEX
  5
EB
330
E8
100
AcDbEntity
  8
GRAU_10_
 62
     7
100
AcDbVertex
100
AcDb2dVertex
 10
19.0815352069103
 20
-2.21933197567892
 30
0.0
  0
VERTEX
  5
EC
330
E8
100
AcDbEntity
  8
GRAU_10_
 62
     7
100
AcDbVertex
100
AcDb2dVertex
 10
19.0815352069103
 20
-2.71749311148018
 30
0.0
  0
VERTEX
  5
ED
330
E8
100
AcDbEntity
  8
GRAU_10_
 62
     7
100
AcDbVertex
100
AcDb2dVertex
 10
19.0815352069103
 20
-3.373611979483984
 30
0.0
  0
VERTEX
  5
EE
330
E8
100
AcDbEntity
  8
GRAU_10_
 62
     7
100
AcDbVertex
100
AcDb2dVertex
 10
19.0815352069103
 20
-4.149620249464854
 30
0.0
  0
VERTEX
  5
EF
330
E8
100
AcDbEntity
  8
GRAU_10_
 62
     7
100
AcDbVertex
100
AcDb2dVertex
 10
19.0815352069103
 20
-5.000559395681391
 30
0.0
  0
VERTEX
  5
F0
330
E8
100
AcDbEntity
  8
GRAU_10_
 62
     7
100
AcDbVertex
100
AcDb2dVertex
 10
19.0815352069103
 20
-5.87733677508264
 30
0.0
  0
VERTEX
  5
F1
330
E8
100
AcDbEntity
  8
GRAU_10_
 62
     7
100
AcDbVertex
100
AcDb2dVertex
 10
19.0815352069103
 20
-6.72896494085077
 30
0.0
  0
VERTEX
  5
F2
330
E8
100
AcDbEntity
  8
GRAU_10_
 62
     7
100
AcDbVertex
100
AcDb2dVertex
 10
19.0815352069103
 20
-7.50497321083164
 30
0.0
  0
VERTEX
  5
F3
330
E8
100
AcDbEntity
  8
GRAU_10_
 62
     7
100
AcDbVertex
100
AcDb2dVertex
 10
19.0815352069103
 20
-8.160747569059648
 30
0.0
  0
VERTEX
  5
F4
330
E8
100
AcDbEntity
  8
GRAU_10_
 62
     7
100
AcDbVertex
100
AcDb2dVertex
 10
19.0815352069103
 20
-8.658908704860908
 30
0.0
  0
VERTEX
  5
F5
330
E8
100
AcDbEntity
  8
GRAU_10_
 62
     7
100
AcDbVertex
100
AcDb2dVertex
 10
19.0815352069103
 20
-8.969656522629052
 30
0.0
  0
VERTEX
  5
F6
330
E8
100
AcDbEntity
  8
GRAU_10_
 62
     7
100
AcDbVertex
100
AcDb2dVertex
 10
19.0815352069103
 20
-9.07593778846217
 30
0.0
  0
SEQEND
  5
F7
330
E8
100
AcDbEntity
  8
GRAU_10_
  0
SPLINE
  5
F8
330
1F
100
AcDbEntity
  8
GRAU_10_
 62
     7
100
AcDbSpline
210
0.0
220
0.0
230
1.0
 70
    11
 71
     3
 72
    17
 73
    13
 74
     0
 42
0.0000000001
 43
0.0000000001
 40
0.0
 40
0.0
 40
0.0
 40
0.0
 40
1.0
 40
1.0
 40
1.0
 40
2.0
 40
2.0
 40
2.0
 40
3.0
 40
3.0
 40
3.0
 40
4.0
 40
4.0
 40
4.0
 40
4.0
 10
74.83837536086546
 20
-5.43946485004571
 30
0.0
 10
74.83837536086546
 20
-2.429138429138787
 30
0.0
 10
72.39855712867698
 20
0.0110243128254774
 30
0.0
 10
69.38823070777006
 20
0.0110243128254774
 30
0.0
 10
66.37842105152683
 20
0.0110243128254774
 30
0.0
 10
63.93860281933836
 20
-2.429138429138787
 30
0.0
 10
63.93860281933836
 20
-5.43946485004571
 30
0.0
 10
63.93860281933836
 20
-8.44910225140104
 30
0.0
 10
66.37842105152683
 20
-10.88926499336531
 30
0.0
 10
69.38823070777006
 20
-10.88926499336531
 30
0.0
 10
72.39855712867698
 20
-10.88926499336531
 30
0.0
 10
74.83837536086546
 20
-8.44910225140104
 30
0.0
 10
74.83837536086546
 20
-5.43946485004571
 30
0.0
  0
SPLINE
  5
F9
330
1F
100
AcDbEntity
  8
GRAU_10_
 62
     7
100
AcDbSpline
210
0.0
220
0.0
230
1.0
 70
    11
 71
     3
 72
    17
 73
    13
 74
     0
 42
0.0000000001
 43
0.0000000001
 40
0.0
 40
0.0
 40
0.0
 40
0.0
 40
1.0
 40
1.0
 40
1.0
 40
2.0
 40
2.0
 40
2.0
 40
3.0
 40
3.0
 40
3.0
 40
4.0
 40
4.0
 40
4.0
 40
4.0
 10
73.62552869517503
 20
-5.43946485004571
 30
0.0
 10
73.62552869517503
 20
-3.099209943062335
 30
0.0
 10
71.72900237941712
 20
-1.201650097977037
 30
0.0
 10
69.38823070777006
 20
-1.201650097977037
 30
0.0
 10
67.04797580078669
 20
-1.201650097977037
 30
0.0
 10
65.15110497525298
 20
-3.099209943062335
 30
0.0
 10
65.15110497525298
 20
-5.43946485004571
 30
0.0
 10
65.15110497525298
 20
-7.779719757029085
 30
0.0
 10
67.04797580078669
 20
-9.676762837450688
 30
0.0
 10
69.38823070777006
 20
-9.676762837450688
 30
0.0
 10
71.72900237941712
 20
-9.676762837450688
 30
0.0
 10
73.62552869517503
 20
-7.779719757029085
 30
0.0
 10
73.62552869517503
 20
-5.43946485004571
 30
0.0
  0
SPLINE
  5
FA
330
1F
100
AcDbEntity
  8
GRAU_10_
 62
     7
100
AcDbSpline
210
0.0
220
0.0
230
1.0
 70
    11
 71
     3
 72
    17
 73
    13
 74
     0
 42
0.0000000001
 43
0.0000000001
 40
0.0
 40
0.0
 40
0.0
 40
0.0
 40
1.0
 40
1.0
 40
1.0
 40
2.0
 40
2.0
 40
2.0
 40
3.0
 40
3.0
 40
3.0
 40
4.0
 40
4.0
 40
4.0
 40
4.0
 10
73.38798920476358
 20
-5.43946485004571
 30
0.0
 10
73.38798920476358
 20
-3.230123657864879
 30
0.0
 10
71.5977441548388
 20
-1.439017333500597
 30
0.0
 10
69.38823070777006
 20
-1.439017333500597
 30
0.0
 10
67.17957853514082
 20
-1.439017333500597
 30
0.0
 10
65.38847221077654
 20
-3.230123657864879
 30
0.0
 10
65.38847221077654
 20
-5.43946485004571
 30
0.0
 10
65.38847221077654
 20
-7.648117022674948
 30
0.0
 10
67.17957853514082
 20
-9.43922334703923
 30
0.0
 10
69.38823070777006
 20
-9.43922334703923
 30
0.0
 10
71.5977441548388
 20
-9.43922334703923
 30
0.0
 10
73.38798920476358
 20
-7.648117022674948
 30
0.0
 10
73.38798920476358
 20
-5.43946485004571
 30
0.0
  0
SPLINE
  5
FB
330
1F
100
AcDbEntity
  8
GRAU_10_
 62
     7
100
AcDbSpline
210
0.0
220
0.0
230
1.0
 70
    11
 71
     3
 72
    17
 73
    13
 74
     0
 42
0.0000000001
 43
0.0000000001
 40
0.0
 40
0.0
 40
0.0
 40
0.0
 40
1.0
 40
1.0
 40
1.0
 40
2.0
 40
2.0
 40
2.0
 40
3.0
 40
3.0
 40
3.0
 40
4.0
 40
4.0
 40
4.0
 40
4.0
 10
74.8885015332438
 20
-5.43946485004571
 30
0.0
 10
74.8885015332438
 20
-2.401749901962991
 30
0.0
 10
72.42611791074067
 20
0.0606337205401257
 30
0.0
 10
69.38823070777006
 20
0.0606337205401257
 30
0.0
 10
66.35051575968734
 20
0.0606337205401257
 30
0.0
 10
63.88813213718423
 20
-2.401749901962991
 30
0.0
 10
63.88813213718423
 20
-5.43946485004571
 30
0.0
 10
63.88813213718423
 20
-8.476835288352632
 30
0.0
 10
66.35051575968734
 20
-10.93887440107995
 30
0.0
 10
69.38823070777006
 20
-10.93887440107995
 30
0.0
 10
72.42611791074067
 20
-10.93887440107995
 30
0.0
 10
74.8885015332438
 20
-8.476835288352632
 30
0.0
 10
74.8885015332438
 20
-5.43946485004571
 30
0.0
  0
SPLINE
  5
FC
330
1F
100
AcDbEntity
  8
GRAU_10_
 62
     7
100
AcDbSpline
210
0.0
220
0.0
230
1.0
 70
    11
 71
     3
 72
    17
 73
    13
 74
     0
 42
0.0000000001
 43
0.0000000001
 40
0.0
 40
0.0
 40
0.0
 40
0.0
 40
1.0
 40
1.0
 40
1.0
 40
2.0
 40
2.0
 40
2.0
 40
3.0
 40
3.0
 40
3.0
 40
4.0
 40
4.0
 40
4.0
 40
4.0
 10
73.1880012799139
 20
-5.43946485004571
 30
0.0
 10
73.1880012799139
 20
-3.340366786119653
 30
0.0
 10
71.48698426192033
 20
-1.639005258350273
 30
0.0
 10
69.38823070777006
 20
-1.639005258350273
 30
0.0
 10
67.2899939182835
 20
-1.639005258350273
 30
0.0
 10
65.58846013562622
 20
-3.340366786119653
 30
0.0
 10
65.58846013562622
 20
-5.43946485004571
 30
0.0
 10
65.58846013562622
 20
-7.537873894420175
 30
0.0
 10
67.2899939182835
 20
-9.238890912413758
 30
0.0
 10
69.38823070777006
 20
-9.238890912413758
 30
0.0
 10
71.48698426192033
 20
-9.238890912413758
 30
0.0
 10
73.1880012799139
 20
-7.537873894420175
 30
0.0
 10
73.1880012799139
 20
-5.43946485004571
 30
0.0
  0
SPLINE
  5
FD
330
1F
100
AcDbEntity
  8
GRAU_10_
 62
     7
100
AcDbSpline
210
0.0
220
0.0
230
1.0
 70
    11
 71
     3
 72
    17
 73
    13
 74
     0
 42
0.0000000001
 43
0.0000000001
 40
0.0
 40
0.0
 40
0.0
 40
0.0
 40
1.0
 40
1.0
 40
1.0
 40
2.0
 40
2.0
 40
2.0
 40
3.0
 40
3.0
 40
3.0
 40
4.0
 40
4.0
 40
4.0
 40
4.0
 10
70.93835244396492
 20
-5.43946485004571
 30
0.0
 10
70.93835244396492
 20
-4.58335805719223
 30
0.0
 10
70.24450975551144
 20
-3.889343113850848
 30
0.0
 10
69.38823070777006
 20
-3.889343113850848
 30
0.0
 10
68.53212391491658
 20
-3.889343113850848
 30
0.0
 10
67.8381089715752
 20
-4.58335805719223
 30
0.0
 10
67.8381089715752
 20
-5.43946485004571
 30
0.0
 10
67.8381089715752
 20
-6.294882623347597
 30
0.0
 10
68.53212391491658
 20
-6.989586586240572
 30
0.0
 10
69.38823070777006
 20
-6.989586586240572
 30
0.0
 10
70.24450975551144
 20
-6.989586586240572
 30
0.0
 10
70.93835244396492
 20
-6.294882623347597
 30
0.0
 10
70.93835244396492
 20
-5.43946485004571
 30
0.0
  0
POLYLINE
  5
FE
330
1F
100
AcDbEntity
  8
GRAU_10_
  6
AI-LINETYPE-1
 62
     7
100
AcDb2dPolyline
 66
     1
 10
0.0
 20
0.0
 30
0.0
  0
VERTEX
  5
FF
330
FE
100
AcDbEntity
  8
GRAU_10_
  6
AI-LINETYPE-1
 62
     7
100
AcDbVertex
100
AcDb2dVertex
 10
69.38823070777006
 20
-12.97130982338945
 30
0.0
  0
VERTEX
  5
100
330
FE
100
AcDbEntity
  8
GRAU_10_
  6
AI-LINETYPE-1
 62
     7
100
AcDbVertex
100
AcDb2dVertex
 10
69.38823070777006
 20
1.060745599676404
 30
0.0
  0
SEQEND
  5
101
330
FE
100
AcDbEntity
  8
GRAU_10_
  6
AI-LINETYPE-1
  0
POLYLINE
  5
103
330
1F
100
AcDbEntity
  8
GRAU_10_
  6
AI-LINETYPE-2
 62
     7
100
AcDb2dPolyline
 66
     1
 10
0.0
 20
0.0
 30
0.0
  0
VERTEX
  5
104
330
103
100
AcDbEntity
  8
GRAU_10_
  6
AI-LINETYPE-2
 62
     7
100
AcDbVertex
100
AcDb2dVertex
 10
75.7688962652909
 20
-5.43946485004571
 30
0.0
  0
VERTEX
  5
105
330
103
100
AcDbEntity
  8
GRAU_10_
  6
AI-LINETYPE-2
 62
     7
100
AcDbVertex
100
AcDb2dVertex
 10
62.88802025804794
 20
-5.43946485004571
 30
0.0
  0
SEQEND
  5
106
330
103
100
AcDbEntity
  8
GRAU_10_
  6
AI-LINETYPE-2
  0
POLYLINE
  5
108
330
1F
100
AcDbEntity
  8
GRAU_10_
  6
AI-LINETYPE-3
 62
     7
100
AcDb2dPolyline
 66
     1
 10
0.0
 20
0.0
 30
0.0
  0
VERTEX
  5
109
330
108
100
AcDbEntity
  8
GRAU_10_
  6
AI-LINETYPE-3
 62
     7
100
AcDbVertex
100
AcDb2dVertex
 10
-1.646928983193585
 20
-5.43946485004571
 30
0.0
  0
VERTEX
  5
10A
330
108
100
AcDbEntity
  8
GRAU_10_
  6
AI-LINETYPE-3
 62
     7
100
AcDbVertex
100
AcDb2dVertex
 10
21.5812981400873
 20
-5.43946485004571
 30
0.0
  0
SEQEND
  5
10B
330
108
100
AcDbEntity
  8
GRAU_10_
  6
AI-LINETYPE-3
  0
POLYLINE
  5
10E
330
1F
100
AcDbEntity
  8
STANDARDEBENE
 62
     7
100
AcDb2dPolyline
 66
     1
 10
0.0
 20
0.0
 30
0.0
  0
VERTEX
  5
10F
330
10E
100
AcDbEntity
  8
STANDARDEBENE
 62
     7
100
AcDbVertex
100
AcDb2dVertex
 10
10.08104505934749
 20
-3.889343113850848
 30
0.0
  0
VERTEX
  5
110
330
10E
100
AcDbEntity
  8
STANDARDEBENE
 62
     7
100
AcDbVertex
100
AcDb2dVertex
 10
9.601659706327125
 20
-3.889343113850848
 30
0.0
  0
SEQEND
  5
111
330
10E
100
AcDbEntity
  8
STANDARDEBENE
  0
POLYLINE
  5
112
330
1F
100
AcDbEntity
  8
STANDARDEBENE
 62
     7
100
AcDb2dPolyline
 66
     1
 10
0.0
 20
0.0
 30
0.0
  0
VERTEX
  5
113
330
112
100
AcDbEntity
  8
STANDARDEBENE
 62
     7
100
AcDbVertex
100
AcDb2dVertex
 10
8.640994196519507
 20
-3.889343113850848
 30
0.0
  0
VERTEX
  5
114
330
112
100
AcDbEntity
  8
STANDARDEBENE
 62
     7
100
AcDbVertex
100
AcDb2dVertex
 10
7.681017706263482
 20
-3.889343113850848
 30
0.0
  0
SEQEND
  5
115
330
112
100
AcDbEntity
  8
STANDARDEBENE
  0
POLYLINE
  5
116
330
1F
100
AcDbEntity
  8
STANDARDEBENE
 62
     7
100
AcDb2dPolyline
 66
     1
 10
0.0
 20
0.0
 30
0.0
  0
VERTEX
  5
117
330
116
100
AcDbEntity
  8
STANDARDEBENE
 62
     7
100
AcDbVertex
100
AcDb2dVertex
 10
6.721213470895356
 20
-3.889343113850848
 30
0.0
  0
VERTEX
  5
118
330
116
100
AcDbEntity
  8
STANDARDEBENE
 62
     7
100
AcDbVertex
100
AcDb2dVertex
 10
5.760892470863536
 20
-3.889343113850848
 30
0.0
  0
SEQEND
  5
119
330
116
100
AcDbEntity
  8
STANDARDEBENE
  0
POLYLINE
  5
11A
330
1F
100
AcDbEntity
  8
STANDARDEBENE
 62
     7
100
AcDb2dPolyline
 66
     1
 10
0.0
 20
0.0
 30
0.0
  0
VERTEX
  5
11B
330
11A
100
AcDbEntity
  8
STANDARDEBENE
 62
     7
100
AcDbVertex
100
AcDb2dVertex
 10
4.800915980607511
 20
-3.889343113850848
 30
0.0
  0
VERTEX
  5
11C
330
11A
100
AcDbEntity
  8
STANDARDEBENE
 62
     7
100
AcDbVertex
100
AcDb2dVertex
 10
3.841111745239385
 20
-3.889343113850848
 30
0.0
  0
SEQEND
  5
11D
330
11A
100
AcDbEntity
  8
STANDARDEBENE
  0
POLYLINE
  5
11E
330
1F
100
AcDbEntity
  8
STANDARDEBENE
 62
     7
100
AcDb2dPolyline
 66
     1
 10
0.0
 20
0.0
 30
0.0
  0
VERTEX
  5
11F
330
11E
100
AcDbEntity
  8
STANDARDEBENE
 62
     7
100
AcDbVertex
100
AcDb2dVertex
 10
2.88113525498336
 20
-3.889343113850848
 30
0.0
  0
VERTEX
  5
120
330
11E
100
AcDbEntity
  8
STANDARDEBENE
 62
     7
100
AcDbVertex
100
AcDb2dVertex
 10
1.920986509839437
 20
-3.889343113850848
 30
0.0
  0
SEQEND
  5
121
330
11E
100
AcDbEntity
  8
STANDARDEBENE
  0
POLYLINE
  5
122
330
1F
100
AcDbEntity
  8
STANDARDEBENE
 62
     7
100
AcDb2dPolyline
 66
     1
 10
0.0
 20
0.0
 30
0.0
  0
VERTEX
  5
123
330
122
100
AcDbEntity
  8
STANDARDEBENE
 62
     7
100
AcDbVertex
100
AcDb2dVertex
 10
0.961010019583413
 20
-3.889343113850848
 30
0.0
  0
VERTEX
  5
124
330
122
100
AcDbEntity
  8
STANDARDEBENE
 62
     7
100
AcDbVertex
100
AcDb2dVertex
 10
0.4812801567872479
 20
-3.889343113850848
 30
0.0
  0
SEQEND
  5
125
330
122
100
AcDbEntity
  8
STANDARDEBENE
  0
POLYLINE
  5
126
330
1F
100
AcDbEntity
  8
STANDARDEBENE
 62
     7
100
AcDb2dPolyline
 66
     1
 10
0.0
 20
0.0
 30
0.0
  0
VERTEX
  5
127
330
126
100
AcDbEntity
  8
STANDARDEBENE
 62
     7
100
AcDbVertex
100
AcDb2dVertex
 10
0.4812801567872479
 20
-6.988897566688979
 30
0.0
  0
VERTEX
  5
128
330
126
100
AcDbEntity
  8
STANDARDEBENE
 62
     7
100
AcDbVertex
100
AcDb2dVertex
 10
0.961010019583413
 20
-6.988897566688979
 30
0.0
  0
SEQEND
  5
129
330
126
100
AcDbEntity
  8
STANDARDEBENE
  0
POLYLINE
  5
12A
330
1F
100
AcDbEntity
  8
STANDARDEBENE
 62
     7
100
AcDb2dPolyline
 66
     1
 10
0.0
 20
0.0
 30
0.0
  0
VERTEX
  5
12B
330
12A
100
AcDbEntity
  8
STANDARDEBENE
 62
     7
100
AcDbVertex
100
AcDb2dVertex
 10
1.920986509839437
 20
-6.988897566688979
 30
0.0
  0
VERTEX
  5
12C
330
12A
100
AcDbEntity
  8
STANDARDEBENE
 62
     7
100
AcDbVertex
100
AcDb2dVertex
 10
2.88113525498336
 20
-6.988897566688979
 30
0.0
  0
SEQEND
  5
12D
330
12A
100
AcDbEntity
  8
STANDARDEBENE
  0
POLYLINE
  5
12E
330
1F
100
AcDbEntity
  8
STANDARDEBENE
 62
     7
100
AcDb2dPolyline
 66
     1
 10
0.0
 20
0.0
 30
0.0
  0
VERTEX
  5
12F
330
12E
100
AcDbEntity
  8
STANDARDEBENE
 62
     7
100
AcDbVertex
100
AcDb2dVertex
 10
3.841111745239385
 20
-6.988897566688979
 30
0.0
  0
VERTEX
  5
130
330
12E
100
AcDbEntity
  8
STANDARDEBENE
 62
     7
100
AcDbVertex
100
AcDb2dVertex
 10
4.800915980607511
 20
-6.988897566688979
 30
0.0
  0
SEQEND
  5
131
330
12E
100
AcDbEntity
  8
STANDARDEBENE
  0
POLYLINE
  5
132
330
1F
100
AcDbEntity
  8
STANDARDEBENE
 62
     7
100
AcDb2dPolyline
 66
     1
 10
0.0
 20
0.0
 30
0.0
  0
VERTEX
  5
133
330
132
100
AcDbEntity
  8
STANDARDEBENE
 62
     7
100
AcDbVertex
100
AcDb2dVertex
 10
5.760892470863536
 20
-6.988897566688979
 30
0.0
  0
VERTEX
  5
134
330
132
100
AcDbEntity
  8
STANDARDEBENE
 62
     7
100
AcDbVertex
100
AcDb2dVertex
 10
6.721213470895356
 20
-6.988897566688979
 30
0.0
  0
SEQEND
  5
135
330
132
100
AcDbEntity
  8
STANDARDEBENE
  0
POLYLINE
  5
136
330
1F
100
AcDbEntity
  8
STANDARDEBENE
 62
     7
100
AcDb2dPolyline
 66
     1
 10
0.0
 20
0.0
 30
0.0
  0
VERTEX
  5
137
330
136
100
AcDbEntity
  8
STANDARDEBENE
 62
     7
100
AcDbVertex
100
AcDb2dVertex
 10
7.681017706263482
 20
-6.988897566688979
 30
0.0
  0
VERTEX
  5
138
330
136
100
AcDbEntity
  8
STANDARDEBENE
 62
     7
100
AcDbVertex
100
AcDb2dVertex
 10
8.640994196519507
 20
-6.988897566688979
 30
0.0
  0
SEQEND
  5
139
330
136
100
AcDbEntity
  8
STANDARDEBENE
  0
POLYLINE
  5
13A
330
1F
100
AcDbEntity
  8
STANDARDEBENE
 62
     7
100
AcDb2dPolyline
 66
     1
 10
0.0
 20
0.0
 30
0.0
  0
VERTEX
  5
13B
330
13A
100
AcDbEntity
  8
STANDARDEBENE
 62
     7
100
AcDbVertex
100
AcDb2dVertex
 10
9.601659706327125
 20
-6.988897566688979
 30
0.0
  0
VERTEX
  5
13C
330
13A
100
AcDbEntity
  8
STANDARDEBENE
 62
     7
100
AcDbVertex
100
AcDb2dVertex
 10
10.08104505934749
 20
-6.988897566688979
 30
0.0
  0
SEQEND
  5
13D
330
13A
100
AcDbEntity
  8
STANDARDEBENE
  0
POLYLINE
  5
13E
330
1F
100
AcDbEntity
  8
STANDARDEBENE
 62
     7
100
AcDb2dPolyline
 66
     1
 10
0.0
 20
0.0
 30
0.0
  0
VERTEX
  5
13F
330
13E
100
AcDbEntity
  8
STANDARDEBENE
 62
     7
100
AcDbVertex
100
AcDb2dVertex
 10
19.0815352069103
 20
-3.539148926754042
 30
0.0
  0
VERTEX
  5
140
330
13E
100
AcDbEntity
  8
STANDARDEBENE
 62
     7
100
AcDbVertex
100
AcDb2dVertex
 10
19.00625982089884
 20
-3.614596567653404
 30
0.0
  0
SEQEND
  5
141
330
13E
100
AcDbEntity
  8
STANDARDEBENE
  0
POLYLINE
  5
142
330
1F
100
AcDbEntity
  8
STANDARDEBENE
 62
     7
100
AcDb2dPolyline
 66
     1
 10
0.0
 20
0.0
 30
0.0
  0
VERTEX
  5
143
330
142
100
AcDbEntity
  8
STANDARDEBENE
 62
     7
100
AcDbVertex
100
AcDb2dVertex
 10
18.85605355865171
 20
-3.764113810348941
 30
0.0
  0
VERTEX
  5
144
330
142
100
AcDbEntity
  8
STANDARDEBENE
 62
     7
100
AcDbVertex
100
AcDb2dVertex
 10
18.78129493730394
 20
-3.838872431696709
 30
0.0
  0
SEQEND
  5
145
330
142
100
AcDbEntity
  8
STANDARDEBENE
  0
POLYLINE
  5
146
330
1F
100
AcDbEntity
  8
STANDARDEBENE
 62
     7
100
AcDb2dPolyline
 66
     1
 10
0.0
 20
0.0
 30
0.0
  0
VERTEX
  5
147
330
146
100
AcDbEntity
  8
STANDARDEBENE
 62
     7
100
AcDbVertex
100
AcDb2dVertex
 10
18.78129493730394
 20
-7.039368248843118
 30
0.0
  0
VERTEX
  5
148
330
146
100
AcDbEntity
  8
STANDARDEBENE
 62
     7
100
AcDbVertex
100
AcDb2dVertex
 10
18.85605355865171
 20
-7.114126870190887
 30
0.0
  0
SEQEND
  5
149
330
146
100
AcDbEntity
  8
STANDARDEBENE
  0
POLYLINE
  5
14A
330
1F
100
AcDbEntity
  8
STANDARDEBENE
 62
     7
100
AcDb2dPolyline
 66
     1
 10
0.0
 20
0.0
 30
0.0
  0
VERTEX
  5
14B
330
14A
100
AcDbEntity
  8
STANDARDEBENE
 62
     7
100
AcDbVertex
100
AcDb2dVertex
 10
19.00625982089884
 20
-7.264333132438017
 30
0.0
  0
VERTEX
  5
14C
330
14A
100
AcDbEntity
  8
STANDARDEBENE
 62
     7
100
AcDbVertex
100
AcDb2dVertex
 10
19.0815352069103
 20
-7.339436263561582
 30
0.0
  0
SEQEND
  5
14D
330
14A
100
AcDbEntity
  8
STANDARDEBENE
  0
POLYLINE
  5
14E
330
1F
100
AcDbEntity
  8
STANDARDEBENE
 62
     7
100
AcDb2dPolyline
 66
     1
 10
0.0
 20
0.0
 30
0.0
  0
VERTEX
  5
14F
330
14E
100
AcDbEntity
  8
STANDARDEBENE
 62
     7
100
AcDbVertex
100
AcDb2dVertex
 10
18.78129493730394
 20
-3.838872431696709
 30
0.0
  0
VERTEX
  5
150
330
14E
100
AcDbEntity
  8
STANDARDEBENE
 62
     7
100
AcDbVertex
100
AcDb2dVertex
 10
18.23834753064918
 20
-3.838872431696709
 30
0.0
  0
SEQEND
  5
151
330
14E
100
AcDbEntity
  8
STANDARDEBENE
  0
POLYLINE
  5
152
330
1F
100
AcDbEntity
  8
STANDARDEBENE
 62
     7
100
AcDb2dPolyline
 66
     1
 10
0.0
 20
0.0
 30
0.0
  0
VERTEX
  5
153
330
152
100
AcDbEntity
  8
STANDARDEBENE
 62
     7
100
AcDbVertex
100
AcDb2dVertex
 10
17.15314173689125
 20
-3.838872431696709
 30
0.0
  0
VERTEX
  5
154
330
152
100
AcDbEntity
  8
STANDARDEBENE
 62
     7
100
AcDbVertex
100
AcDb2dVertex
 10
16.06810819802121
 20
-3.838872431696709
 30
0.0
  0
SEQEND
  5
155
330
152
100
AcDbEntity
  8
STANDARDEBENE
  0
POLYLINE
  5
156
330
1F
100
AcDbEntity
  8
STANDARDEBENE
 62
     7
100
AcDb2dPolyline
 66
     1
 10
0.0
 20
0.0
 30
0.0
  0
VERTEX
  5
157
330
156
100
AcDbEntity
  8
STANDARDEBENE
 62
     7
100
AcDbVertex
100
AcDb2dVertex
 10
14.98324691403908
 20
-3.838872431696709
 30
0.0
  0
VERTEX
  5
158
330
156
100
AcDbEntity
  8
STANDARDEBENE
 62
     7
100
AcDbVertex
100
AcDb2dVertex
 10
13.89769661050535
 20
-3.838872431696709
 30
0.0
  0
SEQEND
  5
159
330
156
100
AcDbEntity
  8
STANDARDEBENE
  0
POLYLINE
  5
15A
330
1F
100
AcDbEntity
  8
STANDARDEBENE
 62
     7
100
AcDb2dPolyline
 66
     1
 10
0.0
 20
0.0
 30
0.0
  0
VERTEX
  5
15B
330
15A
100
AcDbEntity
  8
STANDARDEBENE
 62
     7
100
AcDbVertex
100
AcDb2dVertex
 10
12.81249081674742
 20
-3.838872431696709
 30
0.0
  0
VERTEX
  5
15C
330
15A
100
AcDbEntity
  8
STANDARDEBENE
 62
     7
100
AcDbVertex
100
AcDb2dVertex
 10
11.72711276810159
 20
-3.838872431696709
 30
0.0
  0
SEQEND
  5
15D
330
15A
100
AcDbEntity
  8
STANDARDEBENE
  0
POLYLINE
  5
15E
330
1F
100
AcDbEntity
  8
STANDARDEBENE
 62
     7
100
AcDb2dPolyline
 66
     1
 10
0.0
 20
0.0
 30
0.0
  0
VERTEX
  5
15F
330
15E
100
AcDbEntity
  8
STANDARDEBENE
 62
     7
100
AcDbVertex
100
AcDb2dVertex
 10
10.64190697434366
 20
-3.838872431696709
 30
0.0
  0
VERTEX
  5
160
330
15E
100
AcDbEntity
  8
STANDARDEBENE
 62
     7
100
AcDbVertex
100
AcDb2dVertex
 10
10.09930407746469
 20
-3.838872431696709
 30
0.0
  0
SEQEND
  5
161
330
15E
100
AcDbEntity
  8
STANDARDEBENE
  0
POLYLINE
  5
162
330
1F
100
AcDbEntity
  8
STANDARDEBENE
 62
     7
100
AcDb2dPolyline
 66
     1
 10
0.0
 20
0.0
 30
0.0
  0
VERTEX
  5
163
330
162
100
AcDbEntity
  8
STANDARDEBENE
 62
     7
100
AcDbVertex
100
AcDb2dVertex
 10
10.09930407746469
 20
-7.039368248843118
 30
0.0
  0
VERTEX
  5
164
330
162
100
AcDbEntity
  8
STANDARDEBENE
 62
     7
100
AcDbVertex
100
AcDb2dVertex
 10
10.64190697434366
 20
-7.039368248843118
 30
0.0
  0
SEQEND
  5
165
330
162
100
AcDbEntity
  8
STANDARDEBENE
  0
POLYLINE
  5
166
330
1F
100
AcDbEntity
  8
STANDARDEBENE
 62
     7
100
AcDb2dPolyline
 66
     1
 10
0.0
 20
0.0
 30
0.0
  0
VERTEX
  5
167
330
166
100
AcDbEntity
  8
STANDARDEBENE
 62
     7
100
AcDbVertex
100
AcDb2dVertex
 10
11.72711276810159
 20
-7.039368248843118
 30
0.0
  0
VERTEX
  5
168
330
166
100
AcDbEntity
  8
STANDARDEBENE
 62
     7
100
AcDbVertex
100
AcDb2dVertex
 10
12.81249081674742
 20
-7.039368248843118
 30
0.0
  0
SEQEND
  5
169
330
166
100
AcDbEntity
  8
STANDARDEBENE
  0
POLYLINE
  5
16A
330
1F
100
AcDbEntity
  8
STANDARDEBENE
 62
     7
100
AcDb2dPolyline
 66
     1
 10
0.0
 20
0.0
 30
0.0
  0
VERTEX
  5
16B
330
16A
100
AcDbEntity
  8
STANDARDEBENE
 62
     7
100
AcDbVertex
100
AcDb2dVertex
 10
13.89769661050535
 20
-7.039368248843118
 30
0.0
  0
VERTEX
  5
16C
330
16A
100
AcDbEntity
  8
STANDARDEBENE
 62
     7
100
AcDbVertex
100
AcDb2dVertex
 10
14.98324691403908
 20
-7.039368248843118
 30
0.0
  0
SEQEND
  5
16D
330
16A
100
AcDbEntity
  8
STANDARDEBENE
  0
POLYLINE
  5
16E
330
1F
100
AcDbEntity
  8
STANDARDEBENE
 62
     7
100
AcDb2dPolyline
 66
     1
 10
0.0
 20
0.0
 30
0.0
  0
VERTEX
  5
16F
330
16E
100
AcDbEntity
  8
STANDARDEBENE
 62
     7
100
AcDbVertex
100
AcDb2dVertex
 10
16.06810819802121
 20
-7.039368248843118
 30
0.0
  0
VERTEX
  5
170
330
16E
100
AcDbEntity
  8
STANDARDEBENE
 62
     7
100
AcDbVertex
100
AcDb2dVertex
 10
17.15314173689125
 20
-7.039368248843118
 30
0.0
  0
SEQEND
  5
171
330
16E
100
AcDbEntity
  8
STANDARDEBENE
  0
POLYLINE
  5
172
330
1F
100
AcDbEntity
  8
STANDARDEBENE
 62
     7
100
AcDb2dPolyline
 66
     1
 10
0.0
 20
0.0
 30
0.0
  0
VERTEX
  5
173
330
172
100
AcDbEntity
  8
STANDARDEBENE
 62
     7
100
AcDbVertex
100
AcDb2dVertex
 10
18.23834753064918
 20
-7.039368248843118
 30
0.0
  0
VERTEX
  5
174
330
172
100
AcDbEntity
  8
STANDARDEBENE
 62
     7
100
AcDbVertex
100
AcDb2dVertex
 10
18.78129493730394
 20
-7.039368248843118
 30
0.0
  0
SEQEND
  5
175
330
172
100
AcDbEntity
  8
STANDARDEBENE
  0
POLYLINE
  5
176
330
1F
100
AcDbEntity
  8
STANDARDEBENE
 62
     7
100
AcDb2dPolyline
 66
     1
 10
0.0
 20
0.0
 30
0.0
  0
VERTEX
  5
177
330
176
100
AcDbEntity
  8
STANDARDEBENE
 62
     7
100
AcDbVertex
100
AcDb2dVertex
 10
10.09930407746469
 20
-3.838872431696709
 30
0.0
  0
VERTEX
  5
178
330
176
100
AcDbEntity
  8
STANDARDEBENE
 62
     7
100
AcDbVertex
100
AcDb2dVertex
 10
10.09516996015514
 20
-3.851963803176964
 30
0.0
  0
SEQEND
  5
179
330
176
100
AcDbEntity
  8
STANDARDEBENE
  0
POLYLINE
  5
17A
330
1F
100
AcDbEntity
  8
STANDARDEBENE
 62
     7
100
AcDb2dPolyline
 66
     1
 10
0.0
 20
0.0
 30
0.0
  0
VERTEX
  5
17B
330
17A
100
AcDbEntity
  8
STANDARDEBENE
 62
     7
100
AcDbVertex
100
AcDb2dVertex
 10
10.08569594132074
 20
-3.876768507034288
 30
0.0
  0
VERTEX
  5
17C
330
17A
100
AcDbEntity
  8
STANDARDEBENE
 62
     7
100
AcDbVertex
100
AcDb2dVertex
 10
10.08104505934749
 20
-3.889343113850848
 30
0.0
  0
SEQEND
  5
17D
330
17A
100
AcDbEntity
  8
STANDARDEBENE
  0
POLYLINE
  5
17E
330
1F
100
AcDbEntity
  8
STANDARDEBENE
 62
     7
100
AcDb2dPolyline
 66
     1
 10
0.0
 20
0.0
 30
0.0
  0
VERTEX
  5
17F
330
17E
100
AcDbEntity
  8
STANDARDEBENE
 62
     7
100
AcDbVertex
100
AcDb2dVertex
 10
10.08104505934749
 20
-6.988897566688979
 30
0.0
  0
VERTEX
  5
180
330
17E
100
AcDbEntity
  8
STANDARDEBENE
 62
     7
100
AcDbVertex
100
AcDb2dVertex
 10
10.08569594132074
 20
-7.001816683281335
 30
0.0
  0
SEQEND
  5
181
330
17E
100
AcDbEntity
  8
STANDARDEBENE
  0
POLYLINE
  5
182
330
1F
100
AcDbEntity
  8
STANDARDEBENE
 62
     7
100
AcDb2dPolyline
 66
     1
 10
0.0
 20
0.0
 30
0.0
  0
VERTEX
  5
183
330
182
100
AcDbEntity
  8
STANDARDEBENE
 62
     7
100
AcDbVertex
100
AcDb2dVertex
 10
10.09516996015514
 20
-7.026965896914456
 30
0.0
  0
VERTEX
  5
184
330
182
100
AcDbEntity
  8
STANDARDEBENE
 62
     7
100
AcDbVertex
100
AcDb2dVertex
 10
10.09930407746469
 20
-7.039368248843118
 30
0.0
  0
SEQEND
  5
185
330
182
100
AcDbEntity
  8
STANDARDEBENE
  0
POLYLINE
  5
186
330
1F
100
AcDbEntity
  8
STANDARDEBENE
 62
     7
100
AcDb2dPolyline
 66
     1
 10
0.0
 20
0.0
 30
0.0
  0
VERTEX
  5
187
330
186
100
AcDbEntity
  8
STANDARDEBENE
 62
     7
100
AcDbVertex
100
AcDb2dVertex
 10
3.681259209269962
 20
-10.88220254296148
 30
0.0
  0
VERTEX
  5
188
330
186
100
AcDbEntity
  8
STANDARDEBENE
 62
     7
100
AcDbVertex
100
AcDb2dVertex
 10
3.681259209269962
 20
0.0031005879821655
 30
0.0
  0
SEQEND
  5
189
330
186
100
AcDbEntity
  8
STANDARDEBENE
  0
POLYLINE
  5
18A
330
1F
100
AcDbEntity
  8
STANDARDEBENE
 62
     7
100
AcDb2dPolyline
 66
     1
 10
0.0
 20
0.0
 30
0.0
  0
VERTEX
  5
18B
330
18A
100
AcDbEntity
  8
STANDARDEBENE
 62
     7
100
AcDbVertex
100
AcDb2dVertex
 10
0.4812801567872479
 20
-3.889343113850848
 30
0.0
  0
VERTEX
  5
18C
330
18A
100
AcDbEntity
  8
STANDARDEBENE
 62
     7
100
AcDbVertex
100
AcDb2dVertex
 10
0.3402034035987168
 20
-3.830431942189704
 30
0.0
  0
SEQEND
  5
18D
330
18A
100
AcDbEntity
  8
STANDARDEBENE
  0
POLYLINE
  5
18E
330
1F
100
AcDbEntity
  8
STANDARDEBENE
 62
     7
100
AcDb2dPolyline
 66
     1
 10
0.0
 20
0.0
 30
0.0
  0
VERTEX
  5
18F
330
18E
100
AcDbEntity
  8
STANDARDEBENE
 62
     7
100
AcDbVertex
100
AcDb2dVertex
 10
0.1396987140853465
 20
-3.630444017340027
 30
0.0
  0
VERTEX
  5
190
330
18E
100
AcDbEntity
  8
STANDARDEBENE
 62
     7
100
AcDbVertex
100
AcDb2dVertex
 10
0.0814765619757939
 20
-3.489367264151496
 30
0.0
  0
SEQEND
  5
191
330
18E
100
AcDbEntity
  8
STANDARDEBENE
  0
POLYLINE
  5
192
330
1F
100
AcDbEntity
  8
STANDARDEBENE
 62
     7
100
AcDb2dPolyline
 66
     1
 10
0.0
 20
0.0
 30
0.0
  0
VERTEX
  5
193
330
192
100
AcDbEntity
  8
STANDARDEBENE
 62
     7
100
AcDbVertex
100
AcDb2dVertex
 10
0.0814765619757939
 20
-7.38904567127623
 30
0.0
  0
VERTEX
  5
194
330
192
100
AcDbEntity
  8
STANDARDEBENE
 62
     7
100
AcDbVertex
100
AcDb2dVertex
 10
0.1396987140853465
 20
-7.2477966631998
 30
0.0
  0
SEQEND
  5
195
330
192
100
AcDbEntity
  8
STANDARDEBENE
  0
POLYLINE
  5
196
330
1F
100
AcDbEntity
  8
STANDARDEBENE
 62
     7
100
AcDb2dPolyline
 66
     1
 10
0.0
 20
0.0
 30
0.0
  0
VERTEX
  5
197
330
196
100
AcDbEntity
  8
STANDARDEBENE
 62
     7
100
AcDbVertex
100
AcDb2dVertex
 10
0.3402034035987168
 20
-7.047808738350124
 30
0.0
  0
VERTEX
  5
198
330
196
100
AcDbEntity
  8
STANDARDEBENE
 62
     7
100
AcDbVertex
100
AcDb2dVertex
 10
0.4812801567872479
 20
-6.988897566688979
 30
0.0
  0
SEQEND
  5
199
330
196
100
AcDbEntity
  8
STANDARDEBENE
  0
POLYLINE
  5
19A
330
1F
100
AcDbEntity
  8
STANDARDEBENE
 62
     7
100
AcDb2dPolyline
 66
     1
 10
0.0
 20
0.0
 30
0.0
  0
VERTEX
  5
19B
330
19A
100
AcDbEntity
  8
STANDARDEBENE
 62
     7
100
AcDbVertex
100
AcDb2dVertex
 10
10.08104505934749
 20
-3.889343113850848
 30
0.0
  0
VERTEX
  5
19C
330
19A
100
AcDbEntity
  8
STANDARDEBENE
 62
     7
100
AcDbVertex
100
AcDb2dVertex
 10
10.08104505934749
 20
-4.007165457173138
 30
0.0
  0
VERTEX
  5
19D
330
19A
100
AcDbEntity
  8
STANDARDEBENE
 62
     7
100
AcDbVertex
100
AcDb2dVertex
 10
10.08104505934749
 20
-4.27674435673364
 30
0.0
  0
SEQEND
  5
19E
330
19A
100
AcDbEntity
  8
STANDARDEBENE
  0
POLYLINE
  5
19F
330
1F
100
AcDbEntity
  8
STANDARDEBENE
 62
     7
100
AcDb2dPolyline
 66
     1
 10
0.0
 20
0.0
 30
0.0
  0
VERTEX
  5
1A0
330
19F
100
AcDbEntity
  8
STANDARDEBENE
 62
     7
100
AcDbVertex
100
AcDb2dVertex
 10
10.08104505934749
 20
-5.051374587611326
 30
0.0
  0
VERTEX
  5
1A1
330
19F
100
AcDbEntity
  8
STANDARDEBENE
 62
     7
100
AcDbVertex
100
AcDb2dVertex
 10
10.08104505934749
 20
-5.43946485004571
 30
0.0
  0
VERTEX
  5
1A2
330
19F
100
AcDbEntity
  8
STANDARDEBENE
 62
     7
100
AcDbVertex
100
AcDb2dVertex
 10
10.08104505934749
 20
-5.826521583152705
 30
0.0
  0
SEQEND
  5
1A3
330
19F
100
AcDbEntity
  8
STANDARDEBENE
  0
POLYLINE
  5
1A4
330
1F
100
AcDbEntity
  8
STANDARDEBENE
 62
     7
100
AcDb2dPolyline
 66
     1
 10
0.0
 20
0.0
 30
0.0
  0
VERTEX
  5
1A5
330
1A4
100
AcDbEntity
  8
STANDARDEBENE
 62
     7
100
AcDbVertex
100
AcDb2dVertex
 10
10.08104505934749
 20
-6.601496323806187
 30
0.0
  0
VERTEX
  5
1A6
330
1A4
100
AcDbEntity
  8
STANDARDEBENE
 62
     7
100
AcDbVertex
100
AcDb2dVertex
 10
10.08104505934749
 20
-6.871419733142486
 30
0.0
  0
VERTEX
  5
1A7
330
1A4
100
AcDbEntity
  8
STANDARDEBENE
 62
     7
100
AcDbVertex
100
AcDb2dVertex
 10
10.08104505934749
 20
-6.988897566688979
 30
0.0
  0
SEQEND
  5
1A8
330
1A4
100
AcDbEntity
  8
STANDARDEBENE
  0
POLYLINE
  5
1A9
330
1F
100
AcDbEntity
  8
STANDARDEBENE
 62
     7
100
AcDb2dPolyline
 66
     1
 10
0.0
 20
0.0
 30
0.0
  0
VERTEX
  5
1AA
330
1A9
100
AcDbEntity
  8
STANDARDEBENE
 62
     7
100
AcDbVertex
100
AcDb2dVertex
 10
18.78129493730394
 20
-3.838872431696709
 30
0.0
  0
VERTEX
  5
1AB
330
1A9
100
AcDbEntity
  8
STANDARDEBENE
 62
     7
100
AcDbVertex
100
AcDb2dVertex
 10
18.78129493730394
 20
-3.961001147216451
 30
0.0
  0
VERTEX
  5
1AC
330
1A9
100
AcDbEntity
  8
STANDARDEBENE
 62
     7
100
AcDbVertex
100
AcDb2dVertex
 10
18.78129493730394
 20
-4.239020536283959
 30
0.0
  0
SEQEND
  5
1AD
330
1A9
100
AcDbEntity
  8
STANDARDEBENE
  0
POLYLINE
  5
1AE
330
1F
100
AcDbEntity
  8
STANDARDEBENE
 62
     7
100
AcDb2dPolyline
 66
     1
 10
0.0
 20
0.0
 30
0.0
  0
VERTEX
  5
1AF
330
1AE
100
AcDbEntity
  8
STANDARDEBENE
 62
     7
100
AcDbVertex
100
AcDb2dVertex
 10
18.78129493730394
 20
-5.039489000346358
 30
0.0
  0
VERTEX
  5
1B0
330
1AE
100
AcDbEntity
  8
STANDARDEBENE
 62
     7
100
AcDbVertex
100
AcDb2dVertex
 10
18.78129493730394
 20
-5.43946485004571
 30
0.0
  0
VERTEX
  5
1B1
330
1AE
100
AcDbEntity
  8
STANDARDEBENE
 62
     7
100
AcDbVertex
100
AcDb2dVertex
 10
18.78129493730394
 20
-5.839440699745062
 30
0.0
  0
SEQEND
  5
1B2
330
1AE
100
AcDbEntity
  8
STANDARDEBENE
  0
POLYLINE
  5
1B3
330
1F
100
AcDbEntity
  8
STANDARDEBENE
 62
     7
100
AcDb2dPolyline
 66
     1
 10
0.0
 20
0.0
 30
0.0
  0
VERTEX
  5
1B4
330
1B3
100
AcDbEntity
  8
STANDARDEBENE
 62
     7
100
AcDbVertex
100
AcDb2dVertex
 10
18.78129493730394
 20
-6.638875634480072
 30
0.0
  0
VERTEX
  5
1B5
330
1B3
100
AcDbEntity
  8
STANDARDEBENE
 62
     7
100
AcDbVertex
100
AcDb2dVertex
 10
18.78129493730394
 20
-6.917239533323376
 30
0.0
  0
VERTEX
  5
1B6
330
1B3
100
AcDbEntity
  8
STANDARDEBENE
 62
     7
100
AcDbVertex
100
AcDb2dVertex
 10
18.78129493730394
 20
-7.039368248843118
 30
0.0
  0
SEQEND
  5
1B7
330
1B3
100
AcDbEntity
  8
STANDARDEBENE
  0
POLYLINE
  5
1B8
330
1F
100
AcDbEntity
  8
STANDARDEBENE
 62
     7
100
AcDb2dPolyline
 66
     1
 10
0.0
 20
0.0
 30
0.0
  0
VERTEX
  5
1B9
330
1B8
100
AcDbEntity
  8
STANDARDEBENE
 62
     7
100
AcDbVertex
100
AcDb2dVertex
 10
10.09930407746469
 20
-3.838872431696709
 30
0.0
  0
VERTEX
  5
1BA
330
1B8
100
AcDbEntity
  8
STANDARDEBENE
 62
     7
100
AcDbVertex
100
AcDb2dVertex
 10
10.09930407746469
 20
-3.961001147216451
 30
0.0
  0
VERTEX
  5
1BB
330
1B8
100
AcDbEntity
  8
STANDARDEBENE
 62
     7
100
AcDbVertex
100
AcDb2dVertex
 10
10.09930407746469
 20
-4.239020536283959
 30
0.0
  0
SEQEND
  5
1BC
330
1B8
100
AcDbEntity
  8
STANDARDEBENE
  0
POLYLINE
  5
1BD
330
1F
100
AcDbEntity
  8
STANDARDEBENE
 62
     7
100
AcDb2dPolyline
 66
     1
 10
0.0
 20
0.0
 30
0.0
  0
VERTEX
  5
1BE
330
1BD
100
AcDbEntity
  8
STANDARDEBENE
 62
     7
100
AcDbVertex
100
AcDb2dVertex
 10
10.09930407746469
 20
-5.039489000346358
 30
0.0
  0
VERTEX
  5
1BF
330
1BD
100
AcDbEntity
  8
STANDARDEBENE
 62
     7
100
AcDbVertex
100
AcDb2dVertex
 10
10.09930407746469
 20
-5.43946485004571
 30
0.0
  0
VERTEX
  5
1C0
330
1BD
100
AcDbEntity
  8
STANDARDEBENE
 62
     7
100
AcDbVertex
100
AcDb2dVertex
 10
10.09930407746469
 20
-5.839440699745062
 30
0.0
  0
SEQEND
  5
1C1
330
1BD
100
AcDbEntity
  8
STANDARDEBENE
  0
POLYLINE
  5
1C2
330
1F
100
AcDbEntity
  8
STANDARDEBENE
 62
     7
100
AcDb2dPolyline
 66
     1
 10
0.0
 20
0.0
 30
0.0
  0
VERTEX
  5
1C3
330
1C2
100
AcDbEntity
  8
STANDARDEBENE
 62
     7
100
AcDbVertex
100
AcDb2dVertex
 10
10.09930407746469
 20
-6.638875634480072
 30
0.0
  0
VERTEX
  5
1C4
330
1C2
100
AcDbEntity
  8
STANDARDEBENE
 62
     7
100
AcDbVertex
100
AcDb2dVertex
 10
10.09930407746469
 20
-6.917239533323376
 30
0.0
  0
VERTEX
  5
1C5
330
1C2
100
AcDbEntity
  8
STANDARDEBENE
 62
     7
100
AcDbVertex
100
AcDb2dVertex
 10
10.09930407746469
 20
-7.039368248843118
 30
0.0
  0
SEQEND
  5
1C6
330
1C2
100
AcDbEntity
  8
STANDARDEBENE
  0
POLYLINE
  5
1C8
330
1F
100
AcDbEntity
  8
BEMA_UNG
 62
     7
100
AcDb2dPolyline
 66
     1
 10
0.0
 20
0.0
 30
0.0
  0
VERTEX
  5
1C9
330
1C8
100
AcDbEntity
  8
BEMA_UNG
 62
     7
100
AcDbVertex
100
AcDb2dVertex
 10
6.58151475681001
 20
0.0606337205401257
 30
0.0
  0
VERTEX
  5
1CA
330
1C8
100
AcDbEntity
  8
BEMA_UNG
 62
     7
100
AcDbVertex
100
AcDb2dVertex
 10
35.77079453069201
 20
0.0606337205401257
 30
0.0
  0
SEQEND
  5
1CB
330
1C8
100
AcDbEntity
  8
BEMA_UNG
  0
POLYLINE
  5
1CC
330
1F
100
AcDbEntity
  8
BEMA_UNG
 62
     7
100
AcDb2dPolyline
 66
     1
 10
0.0
 20
0.0
 30
0.0
  0
VERTEX
  5
1CD
330
1CC
100
AcDbEntity
  8
BEMA_UNG
 62
     7
100
AcDbVertex
100
AcDb2dVertex
 10
6.58151475681001
 20
-10.93887440107995
 30
0.0
  0
VERTEX
  5
1CE
330
1CC
100
AcDbEntity
  8
BEMA_UNG
 62
     7
100
AcDbVertex
100
AcDb2dVertex
 10
35.77079453069201
 20
-10.93887440107995
 30
0.0
  0
SEQEND
  5
1CF
330
1CC
100
AcDbEntity
  8
BEMA_UNG
  0
POLYLINE
  5
1D0
330
1F
100
AcDbEntity
  8
BEMA_UNG
 62
     7
100
AcDb2dPolyline
 66
     1
 10
0.0
 20
0.0
 30
0.0
  0
VERTEX
  5
1D1
330
1D0
100
AcDbEntity
  8
BEMA_UNG
 62
     7
100
AcDbVertex
100
AcDb2dVertex
 10
33.77022626264365
 20
0.0606337205401257
 30
0.0
  0
VERTEX
  5
1D2
330
1D0
100
AcDbEntity
  8
BEMA_UNG
 62
     7
100
AcDbVertex
100
AcDb2dVertex
 10
33.77022626264365
 20
-11.51351670710796
 30
0.0
  0
SEQEND
  5
1D3
330
1D0
100
AcDbEntity
  8
BEMA_UNG
  0
POLYLINE
  5
1D4
330
1F
100
AcDbEntity
  8
BEMA_UNG
 62
     7
100
AcDb2dPolyline
 66
     1
 10
0.0
 20
0.0
 30
0.0
  0
VERTEX
  5
1D5
330
1D4
100
AcDbEntity
  8
BEMA_UNG
 62
     7
100
AcDbVertex
100
AcDb2dVertex
 10
33.77022626264365
 20
0.0606337205401257
 30
0.0
  0
VERTEX
  5
1D6
330
1D4
100
AcDbEntity
  8
BEMA_UNG
 62
     7
100
AcDbVertex
100
AcDb2dVertex
 10
33.30978894729208
 20
-3.438896581997358
 30
0.0
  0
VERTEX
  5
1D7
330
1D4
100
AcDbEntity
  8
BEMA_UNG
 62
     7
100
AcDbVertex
100
AcDb2dVertex
 10
34.23135259754682
 20
-3.438896581997358
 30
0.0
  0
VERTEX
  5
1D8
330
1D4
100
AcDbEntity
  8
BEMA_UNG
 62
     7
100
AcDbVertex
100
AcDb2dVertex
 10
33.77022626264365
 20
0.0606337205401257
 30
0.0
  0
SEQEND
  5
1D9
330
1D4
100
AcDbEntity
  8
BEMA_UNG
  0
POLYLINE
  5
1DA
330
1F
100
AcDbEntity
  8
BEMA_UNG
 62
     7
100
AcDb2dPolyline
 66
     1
 10
0.0
 20
0.0
 30
0.0
  0
VERTEX
  5
1DB
330
1DA
100
AcDbEntity
  8
BEMA_UNG
 62
     7
100
AcDbVertex
100
AcDb2dVertex
 10
33.31340629993794
 20
-3.438896581997358
 30
0.0
  0
VERTEX
  5
1DC
330
1DA
100
AcDbEntity
  8
BEMA_UNG
 62
     7
100
AcDbVertex
100
AcDb2dVertex
 10
33.31340629993794
 20
-3.41168030970946
 30
0.0
  0
SEQEND
  5
1DD
330
1DA
100
AcDbEntity
  8
BEMA_UNG
  0
POLYLINE
  5
1DE
330
1F
100
AcDbEntity
  8
BEMA_UNG
 62
     7
100
AcDb2dPolyline
 66
     1
 10
0.0
 20
0.0
 30
0.0
  0
VERTEX
  5
1DF
330
1DE
100
AcDbEntity
  8
BEMA_UNG
 62
     7
100
AcDbVertex
100
AcDb2dVertex
 10
33.31340629993794
 20
-3.438896581997358
 30
0.0
  0
VERTEX
  5
1E0
330
1DE
100
AcDbEntity
  8
BEMA_UNG
 62
     7
100
AcDbVertex
100
AcDb2dVertex
 10
33.31340629993794
 20
-3.41168030970946
 30
0.0
  0
SEQEND
  5
1E1
330
1DE
100
AcDbEntity
  8
BEMA_UNG
  0
POLYLINE
  5
1E2
330
1F
100
AcDbEntity
  8
BEMA_UNG
 62
     7
100
AcDb2dPolyline
 66
     1
 10
0.0
 20
0.0
 30
0.0
  0
VERTEX
  5
1E3
330
1E2
100
AcDbEntity
  8
BEMA_UNG
 62
     7
100
AcDbVertex
100
AcDb2dVertex
 10
33.36422149186787
 20
-3.438896581997358
 30
0.0
  0
VERTEX
  5
1E4
330
1E2
100
AcDbEntity
  8
BEMA_UNG
 62
     7
100
AcDbVertex
100
AcDb2dVertex
 10
33.36422149186787
 20
-3.026518380369343
 30
0.0
  0
SEQEND
  5
1E5
330
1E2
100
AcDbEntity
  8
BEMA_UNG
  0
POLYLINE
  5
1E6
330
1F
100
AcDbEntity
  8
BEMA_UNG
 62
     7
100
AcDb2dPolyline
 66
     1
 10
0.0
 20
0.0
 30
0.0
  0
VERTEX
  5
1E7
330
1E6
100
AcDbEntity
  8
BEMA_UNG
 62
     7
100
AcDbVertex
100
AcDb2dVertex
 10
33.41503668379781
 20
-3.438896581997358
 30
0.0
  0
VERTEX
  5
1E8
330
1E6
100
AcDbEntity
  8
BEMA_UNG
 62
     7
100
AcDbVertex
100
AcDb2dVertex
 10
33.41503668379781
 20
-2.64015066681394
 30
0.0
  0
SEQEND
  5
1E9
330
1E6
100
AcDbEntity
  8
BEMA_UNG
  0
POLYLINE
  5
1EA
330
1F
100
AcDbEntity
  8
BEMA_UNG
 62
     7
100
AcDb2dPolyline
 66
     1
 10
0.0
 20
0.0
 30
0.0
  0
VERTEX
  5
1EB
330
1EA
100
AcDbEntity
  8
BEMA_UNG
 62
     7
100
AcDbVertex
100
AcDb2dVertex
 10
33.46585187572774
 20
-3.438896581997358
 30
0.0
  0
VERTEX
  5
1EC
330
1EA
100
AcDbEntity
  8
BEMA_UNG
 62
     7
100
AcDbVertex
100
AcDb2dVertex
 10
33.46585187572774
 20
-2.254644227698027
 30
0.0
  0
SEQEND
  5
1ED
330
1EA
100
AcDbEntity
  8
BEMA_UNG
  0
POLYLINE
  5
1EE
330
1F
100
AcDbEntity
  8
BEMA_UNG
 62
     7
100
AcDb2dPolyline
 66
     1
 10
0.0
 20
0.0
 30
0.0
  0
VERTEX
  5
1EF
330
1EE
100
AcDbEntity
  8
BEMA_UNG
 62
     7
100
AcDbVertex
100
AcDb2dVertex
 10
33.51666706765767
 20
-3.438896581997358
 30
0.0
  0
VERTEX
  5
1F0
330
1EE
100
AcDbEntity
  8
BEMA_UNG
 62
     7
100
AcDbVertex
100
AcDb2dVertex
 10
33.51666706765767
 20
-1.868276514142624
 30
0.0
  0
SEQEND
  5
1F1
330
1EE
100
AcDbEntity
  8
BEMA_UNG
  0
POLYLINE
  5
1F2
330
1F
100
AcDbEntity
  8
BEMA_UNG
 62
     7
100
AcDb2dPolyline
 66
     1
 10
0.0
 20
0.0
 30
0.0
  0
VERTEX
  5
1F3
330
1F2
100
AcDbEntity
  8
BEMA_UNG
 62
     7
100
AcDbVertex
100
AcDb2dVertex
 10
33.56696549492391
 20
-3.438896581997358
 30
0.0
  0
VERTEX
  5
1F4
330
1F2
100
AcDbEntity
  8
BEMA_UNG
 62
     7
100
AcDbVertex
100
AcDb2dVertex
 10
33.56696549492391
 20
-1.482770075026711
 30
0.0
  0
SEQEND
  5
1F5
330
1F2
100
AcDbEntity
  8
BEMA_UNG
  0
POLYLINE
  5
1F6
330
1F
100
AcDbEntity
  8
BEMA_UNG
 62
     7
100
AcDb2dPolyline
 66
     1
 10
0.0
 20
0.0
 30
0.0
  0
VERTEX
  5
1F7
330
1F6
100
AcDbEntity
  8
BEMA_UNG
 62
     7
100
AcDbVertex
100
AcDb2dVertex
 10
33.61778068685385
 20
-3.438896581997358
 30
0.0
  0
VERTEX
  5
1F8
330
1F6
100
AcDbEntity
  8
BEMA_UNG
 62
     7
100
AcDbVertex
100
AcDb2dVertex
 10
33.61778068685385
 20
-1.096746871247104
 30
0.0
  0
SEQEND
  5
1F9
330
1F6
100
AcDbEntity
  8
BEMA_UNG
  0
POLYLINE
  5
1FA
330
1F
100
AcDbEntity
  8
BEMA_UNG
 62
     7
100
AcDb2dPolyline
 66
     1
 10
0.0
 20
0.0
 30
0.0
  0
VERTEX
  5
1FB
330
1FA
100
AcDbEntity
  8
BEMA_UNG
 62
     7
100
AcDbVertex
100
AcDb2dVertex
 10
33.66859587878378
 20
-3.438896581997358
 30
0.0
  0
VERTEX
  5
1FC
330
1FA
100
AcDbEntity
  8
BEMA_UNG
 62
     7
100
AcDbVertex
100
AcDb2dVertex
 10
33.66859587878378
 20
-0.7112404321311906
 30
0.0
  0
SEQEND
  5
1FD
330
1FA
100
AcDbEntity
  8
BEMA_UNG
  0
POLYLINE
  5
1FE
330
1F
100
AcDbEntity
  8
BEMA_UNG
 62
     7
100
AcDb2dPolyline
 66
     1
 10
0.0
 20
0.0
 30
0.0
  0
VERTEX
  5
1FF
330
1FE
100
AcDbEntity
  8
BEMA_UNG
 62
     7
100
AcDbVertex
100
AcDb2dVertex
 10
33.71941107071372
 20
-3.438896581997358
 30
0.0
  0
VERTEX
  5
200
330
1FE
100
AcDbEntity
  8
BEMA_UNG
 62
     7
100
AcDbVertex
100
AcDb2dVertex
 10
33.71941107071372
 20
-0.3248727185757872
 30
0.0
  0
SEQEND
  5
201
330
1FE
100
AcDbEntity
  8
BEMA_UNG
  0
POLYLINE
  5
202
330
1F
100
AcDbEntity
  8
BEMA_UNG
 62
     7
100
AcDb2dPolyline
 66
     1
 10
0.0
 20
0.0
 30
0.0
  0
VERTEX
  5
203
330
202
100
AcDbEntity
  8
BEMA_UNG
 62
     7
100
AcDbVertex
100
AcDb2dVertex
 10
33.77022626264365
 20
-3.438896581997358
 30
0.0
  0
VERTEX
  5
204
330
202
100
AcDbEntity
  8
BEMA_UNG
 62
     7
100
AcDbVertex
100
AcDb2dVertex
 10
33.77022626264365
 20
0.0606337205401257
 30
0.0
  0
SEQEND
  5
205
330
202
100
AcDbEntity
  8
BEMA_UNG
  0
POLYLINE
  5
206
330
1F
100
AcDbEntity
  8
BEMA_UNG
 62
     7
100
AcDb2dPolyline
 66
     1
 10
0.0
 20
0.0
 30
0.0
  0
VERTEX
  5
207
330
206
100
AcDbEntity
  8
BEMA_UNG
 62
     7
100
AcDbVertex
100
AcDb2dVertex
 10
34.22773524490097
 20
-3.438896581997358
 30
0.0
  0
VERTEX
  5
208
330
206
100
AcDbEntity
  8
BEMA_UNG
 62
     7
100
AcDbVertex
100
AcDb2dVertex
 10
34.22773524490097
 20
-3.41168030970946
 30
0.0
  0
SEQEND
  5
209
330
206
100
AcDbEntity
  8
BEMA_UNG
  0
POLYLINE
  5
20A
330
1F
100
AcDbEntity
  8
BEMA_UNG
 62
     7
100
AcDb2dPolyline
 66
     1
 10
0.0
 20
0.0
 30
0.0
  0
VERTEX
  5
20B
330
20A
100
AcDbEntity
  8
BEMA_UNG
 62
     7
100
AcDbVertex
100
AcDb2dVertex
 10
34.22773524490097
 20
-3.438896581997358
 30
0.0
  0
VERTEX
  5
20C
330
20A
100
AcDbEntity
  8
BEMA_UNG
 62
     7
100
AcDbVertex
100
AcDb2dVertex
 10
34.22773524490097
 20
-3.41168030970946
 30
0.0
  0
SEQEND
  5
20D
330
20A
100
AcDbEntity
  8
BEMA_UNG
  0
POLYLINE
  5
20E
330
1F
100
AcDbEntity
  8
BEMA_UNG
 62
     7
100
AcDb2dPolyline
 66
     1
 10
0.0
 20
0.0
 30
0.0
  0
VERTEX
  5
20F
330
20E
100
AcDbEntity
  8
BEMA_UNG
 62
     7
100
AcDbVertex
100
AcDb2dVertex
 10
34.17692005297103
 20
-3.438896581997358
 30
0.0
  0
VERTEX
  5
210
330
20E
100
AcDbEntity
  8
BEMA_UNG
 62
     7
100
AcDbVertex
100
AcDb2dVertex
 10
34.17692005297103
 20
-3.026518380369343
 30
0.0
  0
SEQEND
  5
211
330
20E
100
AcDbEntity
  8
BEMA_UNG
  0
POLYLINE
  5
212
330
1F
100
AcDbEntity
  8
BEMA_UNG
 62
     7
100
AcDb2dPolyline
 66
     1
 10
0.0
 20
0.0
 30
0.0
  0
VERTEX
  5
213
330
212
100
AcDbEntity
  8
BEMA_UNG
 62
     7
100
AcDbVertex
100
AcDb2dVertex
 10
34.1261048610411
 20
-3.438896581997358
 30
0.0
  0
VERTEX
  5
214
330
212
100
AcDbEntity
  8
BEMA_UNG
 62
     7
100
AcDbVertex
100
AcDb2dVertex
 10
34.1261048610411
 20
-2.64015066681394
 30
0.0
  0
SEQEND
  5
215
330
212
100
AcDbEntity
  8
BEMA_UNG
  0
POLYLINE
  5
216
330
1F
100
AcDbEntity
  8
BEMA_UNG
 62
     7
100
AcDb2dPolyline
 66
     1
 10
0.0
 20
0.0
 30
0.0
  0
VERTEX
  5
217
330
216
100
AcDbEntity
  8
BEMA_UNG
 62
     7
100
AcDbVertex
100
AcDb2dVertex
 10
34.07546192399906
 20
-3.438896581997358
 30
0.0
  0
VERTEX
  5
218
330
216
100
AcDbEntity
  8
BEMA_UNG
 62
     7
100
AcDbVertex
100
AcDb2dVertex
 10
34.07546192399906
 20
-2.254644227698027
 30
0.0
  0
SEQEND
  5
219
330
216
100
AcDbEntity
  8
BEMA_UNG
  0
POLYLINE
  5
21A
330
1F
100
AcDbEntity
  8
BEMA_UNG
 62
     7
100
AcDb2dPolyline
 66
     1
 10
0.0
 20
0.0
 30
0.0
  0
VERTEX
  5
21B
330
21A
100
AcDbEntity
  8
BEMA_UNG
 62
     7
100
AcDbVertex
100
AcDb2dVertex
 10
34.02430222229333
 20
-3.438896581997358
 30
0.0
  0
VERTEX
  5
21C
330
21A
100
AcDbEntity
  8
BEMA_UNG
 62
     7
100
AcDbVertex
100
AcDb2dVertex
 10
34.02430222229333
 20
-1.868276514142624
 30
0.0
  0
SEQEND
  5
21D
330
21A
100
AcDbEntity
  8
BEMA_UNG
  0
POLYLINE
  5
21E
330
1F
100
AcDbEntity
  8
BEMA_UNG
 62
     7
100
AcDb2dPolyline
 66
     1
 10
0.0
 20
0.0
 30
0.0
  0
VERTEX
  5
21F
330
21E
100
AcDbEntity
  8
BEMA_UNG
 62
     7
100
AcDbVertex
100
AcDb2dVertex
 10
33.97348703036339
 20
-3.438896581997358
 30
0.0
  0
VERTEX
  5
220
330
21E
100
AcDbEntity
  8
BEMA_UNG
 62
     7
100
AcDbVertex
100
AcDb2dVertex
 10
33.97348703036339
 20
-1.482770075026711
 30
0.0
  0
SEQEND
  5
221
330
21E
100
AcDbEntity
  8
BEMA_UNG
  0
POLYLINE
  5
222
330
1F
100
AcDbEntity
  8
BEMA_UNG
 62
     7
100
AcDb2dPolyline
 66
     1
 10
0.0
 20
0.0
 30
0.0
  0
VERTEX
  5
223
330
222
100
AcDbEntity
  8
BEMA_UNG
 62
     7
100
AcDbVertex
100
AcDb2dVertex
 10
33.92267183843346
 20
-3.438896581997358
 30
0.0
  0
VERTEX
  5
224
330
222
100
AcDbEntity
  8
BEMA_UNG
 62
     7
100
AcDbVertex
100
AcDb2dVertex
 10
33.92267183843346
 20
-1.096746871247104
 30
0.0
  0
SEQEND
  5
225
330
222
100
AcDbEntity
  8
BEMA_UNG
  0
POLYLINE
  5
226
330
1F
100
AcDbEntity
  8
BEMA_UNG
 62
     7
100
AcDb2dPolyline
 66
     1
 10
0.0
 20
0.0
 30
0.0
  0
VERTEX
  5
227
330
226
100
AcDbEntity
  8
BEMA_UNG
 62
     7
100
AcDbVertex
100
AcDb2dVertex
 10
33.87185664650352
 20
-3.438896581997358
 30
0.0
  0
VERTEX
  5
228
330
226
100
AcDbEntity
  8
BEMA_UNG
 62
     7
100
AcDbVertex
100
AcDb2dVertex
 10
33.87185664650352
 20
-0.7112404321311906
 30
0.0
  0
SEQEND
  5
229
330
226
100
AcDbEntity
  8
BEMA_UNG
  0
POLYLINE
  5
22A
330
1F
100
AcDbEntity
  8
BEMA_UNG
 62
     7
100
AcDb2dPolyline
 66
     1
 10
0.0
 20
0.0
 30
0.0
  0
VERTEX
  5
22B
330
22A
100
AcDbEntity
  8
BEMA_UNG
 62
     7
100
AcDbVertex
100
AcDb2dVertex
 10
33.82104145457359
 20
-3.438896581997358
 30
0.0
  0
VERTEX
  5
22C
330
22A
100
AcDbEntity
  8
BEMA_UNG
 62
     7
100
AcDbVertex
100
AcDb2dVertex
 10
33.82104145457359
 20
-0.3248727185757872
 30
0.0
  0
SEQEND
  5
22D
330
22A
100
AcDbEntity
  8
BEMA_UNG
  0
POLYLINE
  5
22E
330
1F
100
AcDbEntity
  8
BEMA_UNG
 62
     7
100
AcDb2dPolyline
 66
     1
 10
0.0
 20
0.0
 30
0.0
  0
VERTEX
  5
22F
330
22E
100
AcDbEntity
  8
BEMA_UNG
 62
     7
100
AcDbVertex
100
AcDb2dVertex
 10
33.77022626264365
 20
-3.438896581997358
 30
0.0
  0
VERTEX
  5
230
330
22E
100
AcDbEntity
  8
BEMA_UNG
 62
     7
100
AcDbVertex
100
AcDb2dVertex
 10
33.77022626264365
 20
0.0606337205401257
 30
0.0
  0
SEQEND
  5
231
330
22E
100
AcDbEntity
  8
BEMA_UNG
  0
POLYLINE
  5
232
330
1F
100
AcDbEntity
  8
BEMA_UNG
 62
     7
100
AcDb2dPolyline
 66
     1
 10
0.0
 20
0.0
 30
0.0
  0
VERTEX
  5
233
330
232
100
AcDbEntity
  8
BEMA_UNG
 62
     7
100
AcDbVertex
100
AcDb2dVertex
 10
33.77022626264365
 20
-10.93887440107995
 30
0.0
  0
VERTEX
  5
234
330
232
100
AcDbEntity
  8
BEMA_UNG
 62
     7
100
AcDbVertex
100
AcDb2dVertex
 10
34.23135259754682
 20
-7.43934409854247
 30
0.0
  0
VERTEX
  5
235
330
232
100
AcDbEntity
  8
BEMA_UNG
 62
     7
100
AcDbVertex
100
AcDb2dVertex
 10
33.30978894729208
 20
-7.43934409854247
 30
0.0
  0
VERTEX
  5
236
330
232
100
AcDbEntity
  8
BEMA_UNG
 62
     7
100
AcDbVertex
100
AcDb2dVertex
 10
33.77022626264365
 20
-10.93887440107995
 30
0.0
  0
SEQEND
  5
237
330
232
100
AcDbEntity
  8
BEMA_UNG
  0
POLYLINE
  5
238
330
1F
100
AcDbEntity
  8
BEMA_UNG
 62
     7
100
AcDb2dPolyline
 66
     1
 10
0.0
 20
0.0
 30
0.0
  0
VERTEX
  5
239
330
238
100
AcDbEntity
  8
BEMA_UNG
 62
     7
100
AcDbVertex
100
AcDb2dVertex
 10
34.22773524490097
 20
-7.43934409854247
 30
0.0
  0
VERTEX
  5
23A
330
238
100
AcDbEntity
  8
BEMA_UNG
 62
     7
100
AcDbVertex
100
AcDb2dVertex
 10
34.22773524490097
 20
-7.466560370830368
 30
0.0
  0
SEQEND
  5
23B
330
238
100
AcDbEntity
  8
BEMA_UNG
  0
POLYLINE
  5
23C
330
1F
100
AcDbEntity
  8
BEMA_UNG
 62
     7
100
AcDb2dPolyline
 66
     1
 10
0.0
 20
0.0
 30
0.0
  0
VERTEX
  5
23D
330
23C
100
AcDbEntity
  8
BEMA_UNG
 62
     7
100
AcDbVertex
100
AcDb2dVertex
 10
34.22773524490097
 20
-7.43934409854247
 30
0.0
  0
VERTEX
  5
23E
330
23C
100
AcDbEntity
  8
BEMA_UNG
 62
     7
100
AcDbVertex
100
AcDb2dVertex
 10
34.22773524490097
 20
-7.466560370830368
 30
0.0
  0
SEQEND
  5
23F
330
23C
100
AcDbEntity
  8
BEMA_UNG
  0
POLYLINE
  5
240
330
1F
100
AcDbEntity
  8
BEMA_UNG
 62
     7
100
AcDb2dPolyline
 66
     1
 10
0.0
 20
0.0
 30
0.0
  0
VERTEX
  5
241
330
240
100
AcDbEntity
  8
BEMA_UNG
 62
     7
100
AcDbVertex
100
AcDb2dVertex
 10
34.17692005297103
 20
-7.43934409854247
 30
0.0
  0
VERTEX
  5
242
330
240
100
AcDbEntity
  8
BEMA_UNG
 62
     7
100
AcDbVertex
100
AcDb2dVertex
 10
34.17692005297103
 20
-7.85206680994628
 30
0.0
  0
SEQEND
  5
243
330
240
100
AcDbEntity
  8
BEMA_UNG
  0
POLYLINE
  5
244
330
1F
100
AcDbEntity
  8
BEMA_UNG
 62
     7
100
AcDb2dPolyline
 66
     1
 10
0.0
 20
0.0
 30
0.0
  0
VERTEX
  5
245
330
244
100
AcDbEntity
  8
BEMA_UNG
 62
     7
100
AcDbVertex
100
AcDb2dVertex
 10
34.1261048610411
 20
-7.43934409854247
 30
0.0
  0
VERTEX
  5
246
330
244
100
AcDbEntity
  8
BEMA_UNG
 62
     7
100
AcDbVertex
100
AcDb2dVertex
 10
34.1261048610411
 20
-8.238434523501684
 30
0.0
  0
SEQEND
  5
247
330
244
100
AcDbEntity
  8
BEMA_UNG
  0
POLYLINE
  5
248
330
1F
100
AcDbEntity
  8
BEMA_UNG
 62
     7
100
AcDb2dPolyline
 66
     1
 10
0.0
 20
0.0
 30
0.0
  0
VERTEX
  5
249
330
248
100
AcDbEntity
  8
BEMA_UNG
 62
     7
100
AcDbVertex
100
AcDb2dVertex
 10
34.07546192399906
 20
-7.43934409854247
 30
0.0
  0
VERTEX
  5
24A
330
248
100
AcDbEntity
  8
BEMA_UNG
 62
     7
100
AcDbVertex
100
AcDb2dVertex
 10
34.07546192399906
 20
-8.624285472393392
 30
0.0
  0
SEQEND
  5
24B
330
248
100
AcDbEntity
  8
BEMA_UNG
  0
POLYLINE
  5
24C
330
1F
100
AcDbEntity
  8
BEMA_UNG
 62
     7
100
AcDb2dPolyline
 66
     1
 10
0.0
 20
0.0
 30
0.0
  0
VERTEX
  5
24D
330
24C
100
AcDbEntity
  8
BEMA_UNG
 62
     7
100
AcDbVertex
100
AcDb2dVertex
 10
34.02430222229333
 20
-7.43934409854247
 30
0.0
  0
VERTEX
  5
24E
330
24C
100
AcDbEntity
  8
BEMA_UNG
 62
     7
100
AcDbVertex
100
AcDb2dVertex
 10
34.02430222229333
 20
-9.009964166397204
 30
0.0
  0
SEQEND
  5
24F
330
24C
100
AcDbEntity
  8
BEMA_UNG
  0
POLYLINE
  5
250
330
1F
100
AcDbEntity
  8
BEMA_UNG
 62
     7
100
AcDb2dPolyline
 66
     1
 10
0.0
 20
0.0
 30
0.0
  0
VERTEX
  5
251
330
250
100
AcDbEntity
  8
BEMA_UNG
 62
     7
100
AcDbVertex
100
AcDb2dVertex
 10
33.97348703036339
 20
-7.43934409854247
 30
0.0
  0
VERTEX
  5
252
330
250
100
AcDbEntity
  8
BEMA_UNG
 62
     7
100
AcDbVertex
100
AcDb2dVertex
 10
33.97348703036339
 20
-9.395470605513117
 30
0.0
  0
SEQEND
  5
253
330
250
100
AcDbEntity
  8
BEMA_UNG
  0
POLYLINE
  5
254
330
1F
100
AcDbEntity
  8
BEMA_UNG
 62
     7
100
AcDb2dPolyline
 66
     1
 10
0.0
 20
0.0
 30
0.0
  0
VERTEX
  5
255
330
254
100
AcDbEntity
  8
BEMA_UNG
 62
     7
100
AcDbVertex
100
AcDb2dVertex
 10
33.92267183843346
 20
-7.43934409854247
 30
0.0
  0
VERTEX
  5
256
330
254
100
AcDbEntity
  8
BEMA_UNG
 62
     7
100
AcDbVertex
100
AcDb2dVertex
 10
33.92267183843346
 20
-9.78183831906852
 30
0.0
  0
SEQEND
  5
257
330
254
100
AcDbEntity
  8
BEMA_UNG
  0
POLYLINE
  5
258
330
1F
100
AcDbEntity
  8
BEMA_UNG
 62
     7
100
AcDb2dPolyline
 66
     1
 10
0.0
 20
0.0
 30
0.0
  0
VERTEX
  5
259
330
258
100
AcDbEntity
  8
BEMA_UNG
 62
     7
100
AcDbVertex
100
AcDb2dVertex
 10
33.87185664650352
 20
-7.43934409854247
 30
0.0
  0
VERTEX
  5
25A
330
258
100
AcDbEntity
  8
BEMA_UNG
 62
     7
100
AcDbVertex
100
AcDb2dVertex
 10
33.87185664650352
 20
-10.16768926796023
 30
0.0
  0
SEQEND
  5
25B
330
258
100
AcDbEntity
  8
BEMA_UNG
  0
POLYLINE
  5
25C
330
1F
100
AcDbEntity
  8
BEMA_UNG
 62
     7
100
AcDb2dPolyline
 66
     1
 10
0.0
 20
0.0
 30
0.0
  0
VERTEX
  5
25D
330
25C
100
AcDbEntity
  8
BEMA_UNG
 62
     7
100
AcDbVertex
100
AcDb2dVertex
 10
33.82104145457359
 20
-7.43934409854247
 30
0.0
  0
VERTEX
  5
25E
330
25C
100
AcDbEntity
  8
BEMA_UNG
 62
     7
100
AcDbVertex
100
AcDb2dVertex
 10
33.82104145457359
 20
-10.55336796196404
 30
0.0
  0
SEQEND
  5
25F
330
25C
100
AcDbEntity
  8
BEMA_UNG
  0
POLYLINE
  5
260
330
1F
100
AcDbEntity
  8
BEMA_UNG
 62
     7
100
AcDb2dPolyline
 66
     1
 10
0.0
 20
0.0
 30
0.0
  0
VERTEX
  5
261
330
260
100
AcDbEntity
  8
BEMA_UNG
 62
     7
100
AcDbVertex
100
AcDb2dVertex
 10
33.77022626264365
 20
-7.43934409854247
 30
0.0
  0
VERTEX
  5
262
330
260
100
AcDbEntity
  8
BEMA_UNG
 62
     7
100
AcDbVertex
100
AcDb2dVertex
 10
33.77022626264365
 20
-10.93887440107995
 30
0.0
  0
SEQEND
  5
263
330
260
100
AcDbEntity
  8
BEMA_UNG
  0
POLYLINE
  5
264
330
1F
100
AcDbEntity
  8
BEMA_UNG
 62
     7
100
AcDb2dPolyline
 66
     1
 10
0.0
 20
0.0
 30
0.0
  0
VERTEX
  5
265
330
264
100
AcDbEntity
  8
BEMA_UNG
 62
     7
100
AcDbVertex
100
AcDb2dVertex
 10
33.31340629993794
 20
-7.43934409854247
 30
0.0
  0
VERTEX
  5
266
330
264
100
AcDbEntity
  8
BEMA_UNG
 62
     7
100
AcDbVertex
100
AcDb2dVertex
 10
33.31340629993794
 20
-7.466560370830368
 30
0.0
  0
SEQEND
  5
267
330
264
100
AcDbEntity
  8
BEMA_UNG
  0
POLYLINE
  5
268
330
1F
100
AcDbEntity
  8
BEMA_UNG
 62
     7
100
AcDb2dPolyline
 66
     1
 10
0.0
 20
0.0
 30
0.0
  0
VERTEX
  5
269
330
268
100
AcDbEntity
  8
BEMA_UNG
 62
     7
100
AcDbVertex
100
AcDb2dVertex
 10
33.31340629993794
 20
-7.43934409854247
 30
0.0
  0
VERTEX
  5
26A
330
268
100
AcDbEntity
  8
BEMA_UNG
 62
     7
100
AcDbVertex
100
AcDb2dVertex
 10
33.31340629993794
 20
-7.466560370830368
 30
0.0
  0
SEQEND
  5
26B
330
268
100
AcDbEntity
  8
BEMA_UNG
  0
POLYLINE
  5
26C
330
1F
100
AcDbEntity
  8
BEMA_UNG
 62
     7
100
AcDb2dPolyline
 66
     1
 10
0.0
 20
0.0
 30
0.0
  0
VERTEX
  5
26D
330
26C
100
AcDbEntity
  8
BEMA_UNG
 62
     7
100
AcDbVertex
100
AcDb2dVertex
 10
33.36422149186787
 20
-7.43934409854247
 30
0.0
  0
VERTEX
  5
26E
330
26C
100
AcDbEntity
  8
BEMA_UNG
 62
     7
100
AcDbVertex
100
AcDb2dVertex
 10
33.36422149186787
 20
-7.85206680994628
 30
0.0
  0
SEQEND
  5
26F
330
26C
100
AcDbEntity
  8
BEMA_UNG
  0
POLYLINE
  5
270
330
1F
100
AcDbEntity
  8
BEMA_UNG
 62
     7
100
AcDb2dPolyline
 66
     1
 10
0.0
 20
0.0
 30
0.0
  0
VERTEX
  5
271
330
270
100
AcDbEntity
  8
BEMA_UNG
 62
     7
100
AcDbVertex
100
AcDb2dVertex
 10
33.41503668379781
 20
-7.43934409854247
 30
0.0
  0
VERTEX
  5
272
330
270
100
AcDbEntity
  8
BEMA_UNG
 62
     7
100
AcDbVertex
100
AcDb2dVertex
 10
33.41503668379781
 20
-8.238434523501684
 30
0.0
  0
SEQEND
  5
273
330
270
100
AcDbEntity
  8
BEMA_UNG
  0
POLYLINE
  5
274
330
1F
100
AcDbEntity
  8
BEMA_UNG
 62
     7
100
AcDb2dPolyline
 66
     1
 10
0.0
 20
0.0
 30
0.0
  0
VERTEX
  5
275
330
274
100
AcDbEntity
  8
BEMA_UNG
 62
     7
100
AcDbVertex
100
AcDb2dVertex
 10
33.46585187572774
 20
-7.43934409854247
 30
0.0
  0
VERTEX
  5
276
330
274
100
AcDbEntity
  8
BEMA_UNG
 62
     7
100
AcDbVertex
100
AcDb2dVertex
 10
33.46585187572774
 20
-8.624285472393392
 30
0.0
  0
SEQEND
  5
277
330
274
100
AcDbEntity
  8
BEMA_UNG
  0
POLYLINE
  5
278
330
1F
100
AcDbEntity
  8
BEMA_UNG
 62
     7
100
AcDb2dPolyline
 66
     1
 10
0.0
 20
0.0
 30
0.0
  0
VERTEX
  5
279
330
278
100
AcDbEntity
  8
BEMA_UNG
 62
     7
100
AcDbVertex
100
AcDb2dVertex
 10
33.51666706765767
 20
-7.43934409854247
 30
0.0
  0
VERTEX
  5
27A
330
278
100
AcDbEntity
  8
BEMA_UNG
 62
     7
100
AcDbVertex
100
AcDb2dVertex
 10
33.51666706765767
 20
-9.009964166397204
 30
0.0
  0
SEQEND
  5
27B
330
278
100
AcDbEntity
  8
BEMA_UNG
  0
POLYLINE
  5
27C
330
1F
100
AcDbEntity
  8
BEMA_UNG
 62
     7
100
AcDb2dPolyline
 66
     1
 10
0.0
 20
0.0
 30
0.0
  0
VERTEX
  5
27D
330
27C
100
AcDbEntity
  8
BEMA_UNG
 62
     7
100
AcDbVertex
100
AcDb2dVertex
 10
33.56696549492391
 20
-7.43934409854247
 30
0.0
  0
VERTEX
  5
27E
330
27C
100
AcDbEntity
  8
BEMA_UNG
 62
     7
100
AcDbVertex
100
AcDb2dVertex
 10
33.56696549492391
 20
-9.395470605513117
 30
0.0
  0
SEQEND
  5
27F
330
27C
100
AcDbEntity
  8
BEMA_UNG
  0
POLYLINE
  5
280
330
1F
100
AcDbEntity
  8
BEMA_UNG
 62
     7
100
AcDb2dPolyline
 66
     1
 10
0.0
 20
0.0
 30
0.0
  0
VERTEX
  5
281
330
280
100
AcDbEntity
  8
BEMA_UNG
 62
     7
100
AcDbVertex
100
AcDb2dVertex
 10
33.61778068685385
 20
-7.43934409854247
 30
0.0
  0
VERTEX
  5
282
330
280
100
AcDbEntity
  8
BEMA_UNG
 62
     7
100
AcDbVertex
100
AcDb2dVertex
 10
33.61778068685385
 20
-9.78183831906852
 30
0.0
  0
SEQEND
  5
283
330
280
100
AcDbEntity
  8
BEMA_UNG
  0
POLYLINE
  5
284
330
1F
100
AcDbEntity
  8
BEMA_UNG
 62
     7
100
AcDb2dPolyline
 66
     1
 10
0.0
 20
0.0
 30
0.0
  0
VERTEX
  5
285
330
284
100
AcDbEntity
  8
BEMA_UNG
 62
     7
100
AcDbVertex
100
AcDb2dVertex
 10
33.66859587878378
 20
-7.43934409854247
 30
0.0
  0
VERTEX
  5
286
330
284
100
AcDbEntity
  8
BEMA_UNG
 62
     7
100
AcDbVertex
100
AcDb2dVertex
 10
33.66859587878378
 20
-10.16768926796023
 30
0.0
  0
SEQEND
  5
287
330
284
100
AcDbEntity
  8
BEMA_UNG
  0
POLYLINE
  5
288
330
1F
100
AcDbEntity
  8
BEMA_UNG
 62
     7
100
AcDb2dPolyline
 66
     1
 10
0.0
 20
0.0
 30
0.0
  0
VERTEX
  5
289
330
288
100
AcDbEntity
  8
BEMA_UNG
 62
     7
100
AcDbVertex
100
AcDb2dVertex
 10
33.71941107071372
 20
-7.43934409854247
 30
0.0
  0
VERTEX
  5
28A
330
288
100
AcDbEntity
  8
BEMA_UNG
 62
     7
100
AcDbVertex
100
AcDb2dVertex
 10
33.71941107071372
 20
-10.55336796196404
 30
0.0
  0
SEQEND
  5
28B
330
288
100
AcDbEntity
  8
BEMA_UNG
  0
POLYLINE
  5
28C
330
1F
100
AcDbEntity
  8
BEMA_UNG
 62
     7
100
AcDb2dPolyline
 66
     1
 10
0.0
 20
0.0
 30
0.0
  0
VERTEX
  5
28D
330
28C
100
AcDbEntity
  8
BEMA_UNG
 62
     7
100
AcDbVertex
100
AcDb2dVertex
 10
33.77022626264365
 20
-7.43934409854247
 30
0.0
  0
VERTEX
  5
28E
330
28C
100
AcDbEntity
  8
BEMA_UNG
 62
     7
100
AcDbVertex
100
AcDb2dVertex
 10
33.77022626264365
 20
-10.93887440107995
 30
0.0
  0
SEQEND
  5
28F
330
28C
100
AcDbEntity
  8
BEMA_UNG
  0
POLYLINE
  5
290
330
1F
100
AcDbEntity
  8
BEMA_UNG
 62
     7
100
AcDb2dPolyline
 66
     1
 10
0.0
 20
0.0
 30
0.0
  0
VERTEX
  5
291
330
290
100
AcDbEntity
  8
BEMA_UNG
 62
     7
100
AcDbVertex
100
AcDb2dVertex
 10
0.0814765619757939
 20
-1.639005258350273
 30
0.0
  0
VERTEX
  5
292
330
290
100
AcDbEntity
  8
BEMA_UNG
 62
     7
100
AcDbVertex
100
AcDb2dVertex
 10
0.0814765619757939
 20
12.08781450336018
 30
0.0
  0
SEQEND
  5
293
330
290
100
AcDbEntity
  8
BEMA_UNG
  0
POLYLINE
  5
294
330
1F
100
AcDbEntity
  8
BEMA_UNG
 62
     7
100
AcDb2dPolyline
 66
     1
 10
0.0
 20
0.0
 30
0.0
  0
VERTEX
  5
295
330
294
100
AcDbEntity
  8
BEMA_UNG
 62
     7
100
AcDbVertex
100
AcDb2dVertex
 10
19.0815352069103
 20
-1.80299191162925
 30
0.0
  0
VERTEX
  5
296
330
294
100
AcDbEntity
  8
BEMA_UNG
 62
     7
100
AcDbVertex
100
AcDb2dVertex
 10
19.0815352069103
 20
12.08781450336018
 30
0.0
  0
SEQEND
  5
297
330
294
100
AcDbEntity
  8
BEMA_UNG
  0
POLYLINE
  5
298
330
1F
100
AcDbEntity
  8
BEMA_UNG
 62
     7
100
AcDb2dPolyline
 66
     1
 10
0.0
 20
0.0
 30
0.0
  0
VERTEX
  5
299
330
298
100
AcDbEntity
  8
BEMA_UNG
 62
     7
100
AcDbVertex
100
AcDb2dVertex
 10
0.0814765619757939
 20
10.08759074508762
 30
0.0
  0
VERTEX
  5
29A
330
298
100
AcDbEntity
  8
BEMA_UNG
 62
     7
100
AcDbVertex
100
AcDb2dVertex
 10
19.0815352069103
 20
10.08759074508762
 30
0.0
  0
SEQEND
  5
29B
330
298
100
AcDbEntity
  8
BEMA_UNG
  0
POLYLINE
  5
29C
330
1F
100
AcDbEntity
  8
BEMA_UNG
 62
     7
100
AcDb2dPolyline
 66
     1
 10
0.0
 20
0.0
 30
0.0
  0
VERTEX
  5
29D
330
29C
100
AcDbEntity
  8
BEMA_UNG
 62
     7
100
AcDbVertex
100
AcDb2dVertex
 10
0.0814765619757939
 20
10.08759074508762
 30
0.0
  0
VERTEX
  5
29E
330
29C
100
AcDbEntity
  8
BEMA_UNG
 62
     7
100
AcDbVertex
100
AcDb2dVertex
 10
3.581006864513277
 20
9.627325684623939
 30
0.0
  0
VERTEX
  5
29F
330
29C
100
AcDbEntity
  8
BEMA_UNG
 62
     7
100
AcDbVertex
100
AcDb2dVertex
 10
3.581006864513277
 20
10.548372570215
 30
0.0
  0
VERTEX
  5
2A0
330
29C
100
AcDbEntity
  8
BEMA_UNG
 62
     7
100
AcDbVertex
100
AcDb2dVertex
 10
0.0814765619757939
 20
10.08759074508762
 30
0.0
  0
SEQEND
  5
2A1
330
29C
100
AcDbEntity
  8
BEMA_UNG
  0
POLYLINE
  5
2A2
330
1F
100
AcDbEntity
  8
BEMA_UNG
 62
     7
100
AcDb2dPolyline
 66
     1
 10
0.0
 20
0.0
 30
0.0
  0
VERTEX
  5
2A3
330
2A2
100
AcDbEntity
  8
BEMA_UNG
 62
     7
100
AcDbVertex
100
AcDb2dVertex
 10
3.581006864513277
 20
9.6307707823819
 30
0.0
  0
VERTEX
  5
2A4
330
2A2
100
AcDbEntity
  8
BEMA_UNG
 62
     7
100
AcDbVertex
100
AcDb2dVertex
 10
3.553962847113278
 20
9.6307707823819
 30
0.0
  0
SEQEND
  5
2A5
330
2A2
100
AcDbEntity
  8
BEMA_UNG
  0
POLYLINE
  5
2A6
330
1F
100
AcDbEntity
  8
BEMA_UNG
 62
     7
100
AcDb2dPolyline
 66
     1
 10
0.0
 20
0.0
 30
0.0
  0
VERTEX
  5
2A7
330
2A6
100
AcDbEntity
  8
BEMA_UNG
 62
     7
100
AcDbVertex
100
AcDb2dVertex
 10
3.581006864513277
 20
9.6307707823819
 30
0.0
  0
VERTEX
  5
2A8
330
2A6
100
AcDbEntity
  8
BEMA_UNG
 62
     7
100
AcDbVertex
100
AcDb2dVertex
 10
3.553962847113278
 20
9.6307707823819
 30
0.0
  0
SEQEND
  5
2A9
330
2A6
100
AcDbEntity
  8
BEMA_UNG
  0
POLYLINE
  5
2AA
330
1F
100
AcDbEntity
  8
BEMA_UNG
 62
     7
100
AcDb2dPolyline
 66
     1
 10
0.0
 20
0.0
 30
0.0
  0
VERTEX
  5
2AB
330
2AA
100
AcDbEntity
  8
BEMA_UNG
 62
     7
100
AcDbVertex
100
AcDb2dVertex
 10
3.581006864513277
 20
9.681585974311835
 30
0.0
  0
VERTEX
  5
2AC
330
2AA
100
AcDbEntity
  8
BEMA_UNG
 62
     7
100
AcDbVertex
100
AcDb2dVertex
 10
3.168284153109467
 20
9.681585974311835
 30
0.0
  0
SEQEND
  5
2AD
330
2AA
100
AcDbEntity
  8
BEMA_UNG
  0
POLYLINE
  5
2AE
330
1F
100
AcDbEntity
  8
BEMA_UNG
 62
     7
100
AcDb2dPolyline
 66
     1
 10
0.0
 20
0.0
 30
0.0
  0
VERTEX
  5
2AF
330
2AE
100
AcDbEntity
  8
BEMA_UNG
 62
     7
100
AcDbVertex
100
AcDb2dVertex
 10
3.581006864513277
 20
9.73240116624177
 30
0.0
  0
VERTEX
  5
2B0
330
2AE
100
AcDbEntity
  8
BEMA_UNG
 62
     7
100
AcDbVertex
100
AcDb2dVertex
 10
2.782433204217758
 20
9.73240116624177
 30
0.0
  0
SEQEND
  5
2B1
330
2AE
100
AcDbEntity
  8
BEMA_UNG
  0
POLYLINE
  5
2B2
330
1F
100
AcDbEntity
  8
BEMA_UNG
 62
     7
100
AcDb2dPolyline
 66
     1
 10
0.0
 20
0.0
 30
0.0
  0
VERTEX
  5
2B3
330
2B2
100
AcDbEntity
  8
BEMA_UNG
 62
     7
100
AcDbVertex
100
AcDb2dVertex
 10
3.581006864513277
 20
9.783216358171705
 30
0.0
  0
VERTEX
  5
2B4
330
2B2
100
AcDbEntity
  8
BEMA_UNG
 62
     7
100
AcDbVertex
100
AcDb2dVertex
 10
2.396065490662354
 20
9.783216358171705
 30
0.0
  0
SEQEND
  5
2B5
330
2B2
100
AcDbEntity
  8
BEMA_UNG
  0
POLYLINE
  5
2B6
330
1F
100
AcDbEntity
  8
BEMA_UNG
 62
     7
100
AcDb2dPolyline
 66
     1
 10
0.0
 20
0.0
 30
0.0
  0
VERTEX
  5
2B7
330
2B6
100
AcDbEntity
  8
BEMA_UNG
 62
     7
100
AcDbVertex
100
AcDb2dVertex
 10
3.581006864513277
 20
9.83403155010164
 30
0.0
  0
VERTEX
  5
2B8
330
2B6
100
AcDbEntity
  8
BEMA_UNG
 62
     7
100
AcDbVertex
100
AcDb2dVertex
 10
2.010559051546442
 20
9.83403155010164
 30
0.0
  0
SEQEND
  5
2B9
330
2B6
100
AcDbEntity
  8
BEMA_UNG
  0
POLYLINE
  5
2BA
330
1F
100
AcDbEntity
  8
BEMA_UNG
 62
     7
100
AcDb2dPolyline
 66
     1
 10
0.0
 20
0.0
 30
0.0
  0
VERTEX
  5
2BB
330
2BA
100
AcDbEntity
  8
BEMA_UNG
 62
     7
100
AcDbVertex
100
AcDb2dVertex
 10
3.581006864513277
 20
9.884674487143677
 30
0.0
  0
VERTEX
  5
2BC
330
2BA
100
AcDbEntity
  8
BEMA_UNG
 62
     7
100
AcDbVertex
100
AcDb2dVertex
 10
1.62488035754263
 20
9.884674487143677
 30
0.0
  0
SEQEND
  5
2BD
330
2BA
100
AcDbEntity
  8
BEMA_UNG
  0
POLYLINE
  5
2BE
330
1F
100
AcDbEntity
  8
BEMA_UNG
 62
     7
100
AcDb2dPolyline
 66
     1
 10
0.0
 20
0.0
 30
0.0
  0
VERTEX
  5
2BF
330
2BE
100
AcDbEntity
  8
BEMA_UNG
 62
     7
100
AcDbVertex
100
AcDb2dVertex
 10
3.581006864513277
 20
9.93566193396151
 30
0.0
  0
VERTEX
  5
2C0
330
2BE
100
AcDbEntity
  8
BEMA_UNG
 62
     7
100
AcDbVertex
100
AcDb2dVertex
 10
1.239029408650921
 20
9.93566193396151
 30
0.0
  0
SEQEND
  5
2C1
330
2BE
100
AcDbEntity
  8
BEMA_UNG
  0
POLYLINE
  5
2C2
330
1F
100
AcDbEntity
  8
BEMA_UNG
 62
     7
100
AcDb2dPolyline
 66
     1
 10
0.0
 20
0.0
 30
0.0
  0
VERTEX
  5
2C3
330
2C2
100
AcDbEntity
  8
BEMA_UNG
 62
     7
100
AcDbVertex
100
AcDb2dVertex
 10
3.581006864513277
 20
9.98596036122775
 30
0.0
  0
VERTEX
  5
2C4
330
2C2
100
AcDbEntity
  8
BEMA_UNG
 62
     7
100
AcDbVertex
100
AcDb2dVertex
 10
0.8526616950955179
 20
9.98596036122775
 30
0.0
  0
SEQEND
  5
2C5
330
2C2
100
AcDbEntity
  8
BEMA_UNG
  0
POLYLINE
  5
2C6
330
1F
100
AcDbEntity
  8
BEMA_UNG
 62
     7
100
AcDb2dPolyline
 66
     1
 10
0.0
 20
0.0
 30
0.0
  0
VERTEX
  5
2C7
330
2C6
100
AcDbEntity
  8
BEMA_UNG
 62
     7
100
AcDbVertex
100
AcDb2dVertex
 10
3.581006864513277
 20
10.03677555315769
 30
0.0
  0
VERTEX
  5
2C8
330
2C6
100
AcDbEntity
  8
BEMA_UNG
 62
     7
100
AcDbVertex
100
AcDb2dVertex
 10
0.4671552559796049
 20
10.03677555315769
 30
0.0
  0
SEQEND
  5
2C9
330
2C6
100
AcDbEntity
  8
BEMA_UNG
  0
POLYLINE
  5
2CA
330
1F
100
AcDbEntity
  8
BEMA_UNG
 62
     7
100
AcDb2dPolyline
 66
     1
 10
0.0
 20
0.0
 30
0.0
  0
VERTEX
  5
2CB
330
2CA
100
AcDbEntity
  8
BEMA_UNG
 62
     7
100
AcDbVertex
100
AcDb2dVertex
 10
3.581006864513277
 20
10.08759074508762
 30
0.0
  0
VERTEX
  5
2CC
330
2CA
100
AcDbEntity
  8
BEMA_UNG
 62
     7
100
AcDbVertex
100
AcDb2dVertex
 10
0.0814765619757939
 20
10.08759074508762
 30
0.0
  0
SEQEND
  5
2CD
330
2CA
100
AcDbEntity
  8
BEMA_UNG
  0
POLYLINE
  5
2CE
330
1F
100
AcDbEntity
  8
BEMA_UNG
 62
     7
100
AcDb2dPolyline
 66
     1
 10
0.0
 20
0.0
 30
0.0
  0
VERTEX
  5
2CF
330
2CE
100
AcDbEntity
  8
BEMA_UNG
 62
     7
100
AcDbVertex
100
AcDb2dVertex
 10
3.581006864513277
 20
10.54509972734493
 30
0.0
  0
VERTEX
  5
2D0
330
2CE
100
AcDbEntity
  8
BEMA_UNG
 62
     7
100
AcDbVertex
100
AcDb2dVertex
 10
3.553962847113278
 20
10.54509972734493
 30
0.0
  0
SEQEND
  5
2D1
330
2CE
100
AcDbEntity
  8
BEMA_UNG
  0
POLYLINE
  5
2D2
330
1F
100
AcDbEntity
  8
BEMA_UNG
 62
     7
100
AcDb2dPolyline
 66
     1
 10
0.0
 20
0.0
 30
0.0
  0
VERTEX
  5
2D3
330
2D2
100
AcDbEntity
  8
BEMA_UNG
 62
     7
100
AcDbVertex
100
AcDb2dVertex
 10
3.581006864513277
 20
10.54509972734493
 30
0.0
  0
VERTEX
  5
2D4
330
2D2
100
AcDbEntity
  8
BEMA_UNG
 62
     7
100
AcDbVertex
100
AcDb2dVertex
 10
3.553962847113278
 20
10.54509972734493
 30
0.0
  0
SEQEND
  5
2D5
330
2D2
100
AcDbEntity
  8
BEMA_UNG
  0
POLYLINE
  5
2D6
330
1F
100
AcDbEntity
  8
BEMA_UNG
 62
     7
100
AcDb2dPolyline
 66
     1
 10
0.0
 20
0.0
 30
0.0
  0
VERTEX
  5
2D7
330
2D6
100
AcDbEntity
  8
BEMA_UNG
 62
     7
100
AcDbVertex
100
AcDb2dVertex
 10
3.581006864513277
 20
10.49445679030289
 30
0.0
  0
VERTEX
  5
2D8
330
2D6
100
AcDbEntity
  8
BEMA_UNG
 62
     7
100
AcDbVertex
100
AcDb2dVertex
 10
3.168284153109467
 20
10.49445679030289
 30
0.0
  0
SEQEND
  5
2D9
330
2D6
100
AcDbEntity
  8
BEMA_UNG
  0
POLYLINE
  5
2DA
330
1F
100
AcDbEntity
  8
BEMA_UNG
 62
     7
100
AcDb2dPolyline
 66
     1
 10
0.0
 20
0.0
 30
0.0
  0
VERTEX
  5
2DB
330
2DA
100
AcDbEntity
  8
BEMA_UNG
 62
     7
100
AcDbVertex
100
AcDb2dVertex
 10
3.581006864513277
 20
10.44312483370927
 30
0.0
  0
VERTEX
  5
2DC
330
2DA
100
AcDbEntity
  8
BEMA_UNG
 62
     7
100
AcDbVertex
100
AcDb2dVertex
 10
2.782433204217758
 20
10.44312483370927
 30
0.0
  0
SEQEND
  5
2DD
330
2DA
100
AcDbEntity
  8
BEMA_UNG
  0
POLYLINE
  5
2DE
330
1F
100
AcDbEntity
  8
BEMA_UNG
 62
     7
100
AcDb2dPolyline
 66
     1
 10
0.0
 20
0.0
 30
0.0
  0
VERTEX
  5
2DF
330
2DE
100
AcDbEntity
  8
BEMA_UNG
 62
     7
100
AcDbVertex
100
AcDb2dVertex
 10
3.581006864513277
 20
10.39248189666723
 30
0.0
  0
VERTEX
  5
2E0
330
2DE
100
AcDbEntity
  8
BEMA_UNG
 62
     7
100
AcDbVertex
100
AcDb2dVertex
 10
2.396065490662354
 20
10.39248189666723
 30
0.0
  0
SEQEND
  5
2E1
330
2DE
100
AcDbEntity
  8
BEMA_UNG
  0
POLYLINE
  5
2E2
330
1F
100
AcDbEntity
  8
BEMA_UNG
 62
     7
100
AcDb2dPolyline
 66
     1
 10
0.0
 20
0.0
 30
0.0
  0
VERTEX
  5
2E3
330
2E2
100
AcDbEntity
  8
BEMA_UNG
 62
     7
100
AcDbVertex
100
AcDb2dVertex
 10
3.581006864513277
 20
10.34166670473729
 30
0.0
  0
VERTEX
  5
2E4
330
2E2
100
AcDbEntity
  8
BEMA_UNG
 62
     7
100
AcDbVertex
100
AcDb2dVertex
 10
2.010559051546442
 20
10.34166670473729
 30
0.0
  0
SEQEND
  5
2E5
330
2E2
100
AcDbEntity
  8
BEMA_UNG
  0
POLYLINE
  5
2E6
330
1F
100
AcDbEntity
  8
BEMA_UNG
 62
     7
100
AcDb2dPolyline
 66
     1
 10
0.0
 20
0.0
 30
0.0
  0
VERTEX
  5
2E7
330
2E6
100
AcDbEntity
  8
BEMA_UNG
 62
     7
100
AcDbVertex
100
AcDb2dVertex
 10
3.581006864513277
 20
10.29085151280736
 30
0.0
  0
VERTEX
  5
2E8
330
2E6
100
AcDbEntity
  8
BEMA_UNG
 62
     7
100
AcDbVertex
100
AcDb2dVertex
 10
1.62488035754263
 20
10.29085151280736
 30
0.0
  0
SEQEND
  5
2E9
330
2E6
100
AcDbEntity
  8
BEMA_UNG
  0
POLYLINE
  5
2EA
330
1F
100
AcDbEntity
  8
BEMA_UNG
 62
     7
100
AcDb2dPolyline
 66
     1
 10
0.0
 20
0.0
 30
0.0
  0
VERTEX
  5
2EB
330
2EA
100
AcDbEntity
  8
BEMA_UNG
 62
     7
100
AcDbVertex
100
AcDb2dVertex
 10
3.581006864513277
 20
10.24003632087742
 30
0.0
  0
VERTEX
  5
2EC
330
2EA
100
AcDbEntity
  8
BEMA_UNG
 62
     7
100
AcDbVertex
100
AcDb2dVertex
 10
1.239029408650921
 20
10.24003632087742
 30
0.0
  0
SEQEND
  5
2ED
330
2EA
100
AcDbEntity
  8
BEMA_UNG
  0
POLYLINE
  5
2EE
330
1F
100
AcDbEntity
  8
BEMA_UNG
 62
     7
100
AcDb2dPolyline
 66
     1
 10
0.0
 20
0.0
 30
0.0
  0
VERTEX
  5
2EF
330
2EE
100
AcDbEntity
  8
BEMA_UNG
 62
     7
100
AcDbVertex
100
AcDb2dVertex
 10
3.581006864513277
 20
10.18922112894749
 30
0.0
  0
VERTEX
  5
2F0
330
2EE
100
AcDbEntity
  8
BEMA_UNG
 62
     7
100
AcDbVertex
100
AcDb2dVertex
 10
0.8526616950955179
 20
10.18922112894749
 30
0.0
  0
SEQEND
  5
2F1
330
2EE
100
AcDbEntity
  8
BEMA_UNG
  0
POLYLINE
  5
2F2
330
1F
100
AcDbEntity
  8
BEMA_UNG
 62
     7
100
AcDb2dPolyline
 66
     1
 10
0.0
 20
0.0
 30
0.0
  0
VERTEX
  5
2F3
330
2F2
100
AcDbEntity
  8
BEMA_UNG
 62
     7
100
AcDbVertex
100
AcDb2dVertex
 10
3.581006864513277
 20
10.13840593701756
 30
0.0
  0
VERTEX
  5
2F4
330
2F2
100
AcDbEntity
  8
BEMA_UNG
 62
     7
100
AcDbVertex
100
AcDb2dVertex
 10
0.4671552559796049
 20
10.13840593701756
 30
0.0
  0
SEQEND
  5
2F5
330
2F2
100
AcDbEntity
  8
BEMA_UNG
  0
POLYLINE
  5
2F6
330
1F
100
AcDbEntity
  8
BEMA_UNG
 62
     7
100
AcDb2dPolyline
 66
     1
 10
0.0
 20
0.0
 30
0.0
  0
VERTEX
  5
2F7
330
2F6
100
AcDbEntity
  8
BEMA_UNG
 62
     7
100
AcDbVertex
100
AcDb2dVertex
 10
3.581006864513277
 20
10.08759074508762
 30
0.0
  0
VERTEX
  5
2F8
330
2F6
100
AcDbEntity
  8
BEMA_UNG
 62
     7
100
AcDbVertex
100
AcDb2dVertex
 10
0.0814765619757939
 20
10.08759074508762
 30
0.0
  0
SEQEND
  5
2F9
330
2F6
100
AcDbEntity
  8
BEMA_UNG
  0
POLYLINE
  5
2FA
330
1F
100
AcDbEntity
  8
BEMA_UNG
 62
     7
100
AcDb2dPolyline
 66
     1
 10
0.0
 20
0.0
 30
0.0
  0
VERTEX
  5
2FB
330
2FA
100
AcDbEntity
  8
BEMA_UNG
 62
     7
100
AcDbVertex
100
AcDb2dVertex
 10
19.0815352069103
 20
10.08759074508762
 30
0.0
  0
VERTEX
  5
2FC
330
2FA
100
AcDbEntity
  8
BEMA_UNG
 62
     7
100
AcDbVertex
100
AcDb2dVertex
 10
15.58114362993333
 20
10.548372570215
 30
0.0
  0
VERTEX
  5
2FD
330
2FA
100
AcDbEntity
  8
BEMA_UNG
 62
     7
100
AcDbVertex
100
AcDb2dVertex
 10
15.58114362993333
 20
9.627325684623939
 30
0.0
  0
VERTEX
  5
2FE
330
2FA
100
AcDbEntity
  8
BEMA_UNG
 62
     7
100
AcDbVertex
100
AcDb2dVertex
 10
19.0815352069103
 20
10.08759074508762
 30
0.0
  0
SEQEND
  5
2FF
330
2FA
100
AcDbEntity
  8
BEMA_UNG
  0
POLYLINE
  5
300
330
1F
100
AcDbEntity
  8
BEMA_UNG
 62
     7
100
AcDb2dPolyline
 66
     1
 10
0.0
 20
0.0
 30
0.0
  0
VERTEX
  5
301
330
300
100
AcDbEntity
  8
BEMA_UNG
 62
     7
100
AcDbVertex
100
AcDb2dVertex
 10
15.58114362993333
 20
10.54509972734493
 30
0.0
  0
VERTEX
  5
302
330
300
100
AcDbEntity
  8
BEMA_UNG
 62
     7
100
AcDbVertex
100
AcDb2dVertex
 10
15.60835990222123
 20
10.54509972734493
 30
0.0
  0
SEQEND
  5
303
330
300
100
AcDbEntity
  8
BEMA_UNG
  0
POLYLINE
  5
304
330
1F
100
AcDbEntity
  8
BEMA_UNG
 62
     7
100
AcDb2dPolyline
 66
     1
 10
0.0
 20
0.0
 30
0.0
  0
VERTEX
  5
305
330
304
100
AcDbEntity
  8
BEMA_UNG
 62
     7
100
AcDbVertex
100
AcDb2dVertex
 10
15.58114362993333
 20
10.54509972734493
 30
0.0
  0
VERTEX
  5
306
330
304
100
AcDbEntity
  8
BEMA_UNG
 62
     7
100
AcDbVertex
100
AcDb2dVertex
 10
15.60835990222123
 20
10.54509972734493
 30
0.0
  0
SEQEND
  5
307
330
304
100
AcDbEntity
  8
BEMA_UNG
  0
POLYLINE
  5
308
330
1F
100
AcDbEntity
  8
BEMA_UNG
 62
     7
100
AcDb2dPolyline
 66
     1
 10
0.0
 20
0.0
 30
0.0
  0
VERTEX
  5
309
330
308
100
AcDbEntity
  8
BEMA_UNG
 62
     7
100
AcDbVertex
100
AcDb2dVertex
 10
15.58114362993333
 20
10.49445679030289
 30
0.0
  0
VERTEX
  5
30A
330
308
100
AcDbEntity
  8
BEMA_UNG
 62
     7
100
AcDbVertex
100
AcDb2dVertex
 10
15.99472761577663
 20
10.49445679030289
 30
0.0
  0
SEQEND
  5
30B
330
308
100
AcDbEntity
  8
BEMA_UNG
  0
POLYLINE
  5
30C
330
1F
100
AcDbEntity
  8
BEMA_UNG
 62
     7
100
AcDb2dPolyline
 66
     1
 10
0.0
 20
0.0
 30
0.0
  0
VERTEX
  5
30D
330
30C
100
AcDbEntity
  8
BEMA_UNG
 62
     7
100
AcDbVertex
100
AcDb2dVertex
 10
15.58114362993333
 20
10.44312483370927
 30
0.0
  0
VERTEX
  5
30E
330
30C
100
AcDbEntity
  8
BEMA_UNG
 62
     7
100
AcDbVertex
100
AcDb2dVertex
 10
16.37988954511675
 20
10.44312483370927
 30
0.0
  0
SEQEND
  5
30F
330
30C
100
AcDbEntity
  8
BEMA_UNG
  0
POLYLINE
  5
310
330
1F
100
AcDbEntity
  8
BEMA_UNG
 62
     7
100
AcDb2dPolyline
 66
     1
 10
0.0
 20
0.0
 30
0.0
  0
VERTEX
  5
311
330
310
100
AcDbEntity
  8
BEMA_UNG
 62
     7
100
AcDbVertex
100
AcDb2dVertex
 10
15.58114362993333
 20
10.39248189666723
 30
0.0
  0
VERTEX
  5
312
330
310
100
AcDbEntity
  8
BEMA_UNG
 62
     7
100
AcDbVertex
100
AcDb2dVertex
 10
16.76608500378425
 20
10.39248189666723
 30
0.0
  0
SEQEND
  5
313
330
310
100
AcDbEntity
  8
BEMA_UNG
  0
POLYLINE
  5
314
330
1F
100
AcDbEntity
  8
BEMA_UNG
 62
     7
100
AcDb2dPolyline
 66
     1
 10
0.0
 20
0.0
 30
0.0
  0
VERTEX
  5
315
330
314
100
AcDbEntity
  8
BEMA_UNG
 62
     7
100
AcDbVertex
100
AcDb2dVertex
 10
15.58114362993333
 20
10.34166670473729
 30
0.0
  0
VERTEX
  5
316
330
314
100
AcDbEntity
  8
BEMA_UNG
 62
     7
100
AcDbVertex
100
AcDb2dVertex
 10
17.15176369778806
 20
10.34166670473729
 30
0.0
  0
SEQEND
  5
317
330
314
100
AcDbEntity
  8
BEMA_UNG
  0
POLYLINE
  5
318
330
1F
100
AcDbEntity
  8
BEMA_UNG
 62
     7
100
AcDb2dPolyline
 66
     1
 10
0.0
 20
0.0
 30
0.0
  0
VERTEX
  5
319
330
318
100
AcDbEntity
  8
BEMA_UNG
 62
     7
100
AcDbVertex
100
AcDb2dVertex
 10
15.58114362993333
 20
10.29085151280736
 30
0.0
  0
VERTEX
  5
31A
330
318
100
AcDbEntity
  8
BEMA_UNG
 62
     7
100
AcDbVertex
100
AcDb2dVertex
 10
17.53813141134346
 20
10.29085151280736
 30
0.0
  0
SEQEND
  5
31B
330
318
100
AcDbEntity
  8
BEMA_UNG
  0
POLYLINE
  5
31C
330
1F
100
AcDbEntity
  8
BEMA_UNG
 62
     7
100
AcDb2dPolyline
 66
     1
 10
0.0
 20
0.0
 30
0.0
  0
VERTEX
  5
31D
330
31C
100
AcDbEntity
  8
BEMA_UNG
 62
     7
100
AcDbVertex
100
AcDb2dVertex
 10
15.58114362993333
 20
10.24003632087742
 30
0.0
  0
VERTEX
  5
31E
330
31C
100
AcDbEntity
  8
BEMA_UNG
 62
     7
100
AcDbVertex
100
AcDb2dVertex
 10
17.92398236023518
 20
10.24003632087742
 30
0.0
  0
SEQEND
  5
31F
330
31C
100
AcDbEntity
  8
BEMA_UNG
  0
POLYLINE
  5
320
330
1F
100
AcDbEntity
  8
BEMA_UNG
 62
     7
100
AcDb2dPolyline
 66
     1
 10
0.0
 20
0.0
 30
0.0
  0
VERTEX
  5
321
330
320
100
AcDbEntity
  8
BEMA_UNG
 62
     7
100
AcDbVertex
100
AcDb2dVertex
 10
15.58114362993333
 20
10.18922112894749
 30
0.0
  0
VERTEX
  5
322
330
320
100
AcDbEntity
  8
BEMA_UNG
 62
     7
100
AcDbVertex
100
AcDb2dVertex
 10
18.30948879935109
 20
10.18922112894749
 30
0.0
  0
SEQEND
  5
323
330
320
100
AcDbEntity
  8
BEMA_UNG
  0
POLYLINE
  5
324
330
1F
100
AcDbEntity
  8
BEMA_UNG
 62
     7
100
AcDb2dPolyline
 66
     1
 10
0.0
 20
0.0
 30
0.0
  0
VERTEX
  5
325
330
324
100
AcDbEntity
  8
BEMA_UNG
 62
     7
100
AcDbVertex
100
AcDb2dVertex
 10
15.58114362993333
 20
10.13840593701756
 30
0.0
  0
VERTEX
  5
326
330
324
100
AcDbEntity
  8
BEMA_UNG
 62
     7
100
AcDbVertex
100
AcDb2dVertex
 10
18.6951674933549
 20
10.13840593701756
 30
0.0
  0
SEQEND
  5
327
330
324
100
AcDbEntity
  8
BEMA_UNG
  0
POLYLINE
  5
328
330
1F
100
AcDbEntity
  8
BEMA_UNG
 62
     7
100
AcDb2dPolyline
 66
     1
 10
0.0
 20
0.0
 30
0.0
  0
VERTEX
  5
329
330
328
100
AcDbEntity
  8
BEMA_UNG
 62
     7
100
AcDbVertex
100
AcDb2dVertex
 10
15.58114362993333
 20
10.08759074508762
 30
0.0
  0
VERTEX
  5
32A
330
328
100
AcDbEntity
  8
BEMA_UNG
 62
     7
100
AcDbVertex
100
AcDb2dVertex
 10
19.0815352069103
 20
10.08759074508762
 30
0.0
  0
SEQEND
  5
32B
330
328
100
AcDbEntity
  8
BEMA_UNG
  0
POLYLINE
  5
32C
330
1F
100
AcDbEntity
  8
BEMA_UNG
 62
     7
100
AcDb2dPolyline
 66
     1
 10
0.0
 20
0.0
 30
0.0
  0
VERTEX
  5
32D
330
32C
100
AcDbEntity
  8
BEMA_UNG
 62
     7
100
AcDbVertex
100
AcDb2dVertex
 10
15.58114362993333
 20
9.6307707823819
 30
0.0
  0
VERTEX
  5
32E
330
32C
100
AcDbEntity
  8
BEMA_UNG
 62
     7
100
AcDbVertex
100
AcDb2dVertex
 10
15.60835990222123
 20
9.6307707823819
 30
0.0
  0
SEQEND
  5
32F
330
32C
100
AcDbEntity
  8
BEMA_UNG
  0
POLYLINE
  5
330
330
1F
100
AcDbEntity
  8
BEMA_UNG
 62
     7
100
AcDb2dPolyline
 66
     1
 10
0.0
 20
0.0
 30
0.0
  0
VERTEX
  5
331
330
330
100
AcDbEntity
  8
BEMA_UNG
 62
     7
100
AcDbVertex
100
AcDb2dVertex
 10
15.58114362993333
 20
9.6307707823819
 30
0.0
  0
VERTEX
  5
332
330
330
100
AcDbEntity
  8
BEMA_UNG
 62
     7
100
AcDbVertex
100
AcDb2dVertex
 10
15.60835990222123
 20
9.6307707823819
 30
0.0
  0
SEQEND
  5
333
330
330
100
AcDbEntity
  8
BEMA_UNG
  0
POLYLINE
  5
334
330
1F
100
AcDbEntity
  8
BEMA_UNG
 62
     7
100
AcDb2dPolyline
 66
     1
 10
0.0
 20
0.0
 30
0.0
  0
VERTEX
  5
335
330
334
100
AcDbEntity
  8
BEMA_UNG
 62
     7
100
AcDbVertex
100
AcDb2dVertex
 10
15.58114362993333
 20
9.681585974311835
 30
0.0
  0
VERTEX
  5
336
330
334
100
AcDbEntity
  8
BEMA_UNG
 62
     7
100
AcDbVertex
100
AcDb2dVertex
 10
15.99472761577663
 20
9.681585974311835
 30
0.0
  0
SEQEND
  5
337
330
334
100
AcDbEntity
  8
BEMA_UNG
  0
POLYLINE
  5
338
330
1F
100
AcDbEntity
  8
BEMA_UNG
 62
     7
100
AcDb2dPolyline
 66
     1
 10
0.0
 20
0.0
 30
0.0
  0
VERTEX
  5
339
330
338
100
AcDbEntity
  8
BEMA_UNG
 62
     7
100
AcDbVertex
100
AcDb2dVertex
 10
15.58114362993333
 20
9.73240116624177
 30
0.0
  0
VERTEX
  5
33A
330
338
100
AcDbEntity
  8
BEMA_UNG
 62
     7
100
AcDbVertex
100
AcDb2dVertex
 10
16.37988954511675
 20
9.73240116624177
 30
0.0
  0
SEQEND
  5
33B
330
338
100
AcDbEntity
  8
BEMA_UNG
  0
POLYLINE
  5
33C
330
1F
100
AcDbEntity
  8
BEMA_UNG
 62
     7
100
AcDb2dPolyline
 66
     1
 10
0.0
 20
0.0
 30
0.0
  0
VERTEX
  5
33D
330
33C
100
AcDbEntity
  8
BEMA_UNG
 62
     7
100
AcDbVertex
100
AcDb2dVertex
 10
15.58114362993333
 20
9.783216358171705
 30
0.0
  0
VERTEX
  5
33E
330
33C
100
AcDbEntity
  8
BEMA_UNG
 62
     7
100
AcDbVertex
100
AcDb2dVertex
 10
16.76608500378425
 20
9.783216358171705
 30
0.0
  0
SEQEND
  5
33F
330
33C
100
AcDbEntity
  8
BEMA_UNG
  0
POLYLINE
  5
340
330
1F
100
AcDbEntity
  8
BEMA_UNG
 62
     7
100
AcDb2dPolyline
 66
     1
 10
0.0
 20
0.0
 30
0.0
  0
VERTEX
  5
341
330
340
100
AcDbEntity
  8
BEMA_UNG
 62
     7
100
AcDbVertex
100
AcDb2dVertex
 10
15.58114362993333
 20
9.83403155010164
 30
0.0
  0
VERTEX
  5
342
330
340
100
AcDbEntity
  8
BEMA_UNG
 62
     7
100
AcDbVertex
100
AcDb2dVertex
 10
17.15176369778806
 20
9.83403155010164
 30
0.0
  0
SEQEND
  5
343
330
340
100
AcDbEntity
  8
BEMA_UNG
  0
POLYLINE
  5
344
330
1F
100
AcDbEntity
  8
BEMA_UNG
 62
     7
100
AcDb2dPolyline
 66
     1
 10
0.0
 20
0.0
 30
0.0
  0
VERTEX
  5
345
330
344
100
AcDbEntity
  8
BEMA_UNG
 62
     7
100
AcDbVertex
100
AcDb2dVertex
 10
15.58114362993333
 20
9.884674487143677
 30
0.0
  0
VERTEX
  5
346
330
344
100
AcDbEntity
  8
BEMA_UNG
 62
     7
100
AcDbVertex
100
AcDb2dVertex
 10
17.53813141134346
 20
9.884674487143677
 30
0.0
  0
SEQEND
  5
347
330
344
100
AcDbEntity
  8
BEMA_UNG
  0
POLYLINE
  5
348
330
1F
100
AcDbEntity
  8
BEMA_UNG
 62
     7
100
AcDb2dPolyline
 66
     1
 10
0.0
 20
0.0
 30
0.0
  0
VERTEX
  5
349
330
348
100
AcDbEntity
  8
BEMA_UNG
 62
     7
100
AcDbVertex
100
AcDb2dVertex
 10
15.58114362993333
 20
9.93566193396151
 30
0.0
  0
VERTEX
  5
34A
330
348
100
AcDbEntity
  8
BEMA_UNG
 62
     7
100
AcDbVertex
100
AcDb2dVertex
 10
17.92398236023518
 20
9.93566193396151
 30
0.0
  0
SEQEND
  5
34B
330
348
100
AcDbEntity
  8
BEMA_UNG
  0
POLYLINE
  5
34C
330
1F
100
AcDbEntity
  8
BEMA_UNG
 62
     7
100
AcDb2dPolyline
 66
     1
 10
0.0
 20
0.0
 30
0.0
  0
VERTEX
  5
34D
330
34C
100
AcDbEntity
  8
BEMA_UNG
 62
     7
100
AcDbVertex
100
AcDb2dVertex
 10
15.58114362993333
 20
9.98596036122775
 30
0.0
  0
VERTEX
  5
34E
330
34C
100
AcDbEntity
  8
BEMA_UNG
 62
     7
100
AcDbVertex
100
AcDb2dVertex
 10
18.30948879935109
 20
9.98596036122775
 30
0.0
  0
SEQEND
  5
34F
330
34C
100
AcDbEntity
  8
BEMA_UNG
  0
POLYLINE
  5
350
330
1F
100
AcDbEntity
  8
BEMA_UNG
 62
     7
100
AcDb2dPolyline
 66
     1
 10
0.0
 20
0.0
 30
0.0
  0
VERTEX
  5
351
330
350
100
AcDbEntity
  8
BEMA_UNG
 62
     7
100
AcDbVertex
100
AcDb2dVertex
 10
15.58114362993333
 20
10.03677555315769
 30
0.0
  0
VERTEX
  5
352
330
350
100
AcDbEntity
  8
BEMA_UNG
 62
     7
100
AcDbVertex
100
AcDb2dVertex
 10
18.6951674933549
 20
10.03677555315769
 30
0.0
  0
SEQEND
  5
353
330
350
100
AcDbEntity
  8
BEMA_UNG
  0
POLYLINE
  5
354
330
1F
100
AcDbEntity
  8
BEMA_UNG
 62
     7
100
AcDb2dPolyline
 66
     1
 10
0.0
 20
0.0
 30
0.0
  0
VERTEX
  5
355
330
354
100
AcDbEntity
  8
BEMA_UNG
 62
     7
100
AcDbVertex
100
AcDb2dVertex
 10
15.58114362993333
 20
10.08759074508762
 30
0.0
  0
VERTEX
  5
356
330
354
100
AcDbEntity
  8
BEMA_UNG
 62
     7
100
AcDbVertex
100
AcDb2dVertex
 10
19.0815352069103
 20
10.08759074508762
 30
0.0
  0
SEQEND
  5
357
330
354
100
AcDbEntity
  8
BEMA_UNG
  0
POLYLINE
  5
358
330
1F
100
AcDbEntity
  8
BEMA_UNG
 62
     7
100
AcDb2dPolyline
 66
     1
 10
0.0
 20
0.0
 30
0.0
  0
VERTEX
  5
359
330
358
100
AcDbEntity
  8
BEMA_UNG
 62
     7
100
AcDbVertex
100
AcDb2dVertex
 10
0.4812801567872479
 20
-3.889343113850848
 30
0.0
  0
VERTEX
  5
35A
330
358
100
AcDbEntity
  8
BEMA_UNG
 62
     7
100
AcDbVertex
100
AcDb2dVertex
 10
-11.8521698167156
 20
-3.889343113850848
 30
0.0
  0
SEQEND
  5
35B
330
358
100
AcDbEntity
  8
BEMA_UNG
  0
POLYLINE
  5
35C
330
1F
100
AcDbEntity
  8
BEMA_UNG
 62
     7
100
AcDb2dPolyline
 66
     1
 10
0.0
 20
0.0
 30
0.0
  0
VERTEX
  5
35D
330
35C
100
AcDbEntity
  8
BEMA_UNG
 62
     7
100
AcDbVertex
100
AcDb2dVertex
 10
0.4812801567872479
 20
-6.988897566688979
 30
0.0
  0
VERTEX
  5
35E
330
35C
100
AcDbEntity
  8
BEMA_UNG
 62
     7
100
AcDbVertex
100
AcDb2dVertex
 10
-11.8521698167156
 20
-6.988897566688979
 30
0.0
  0
SEQEND
  5
35F
330
35C
100
AcDbEntity
  8
BEMA_UNG
  0
POLYLINE
  5
360
330
1F
100
AcDbEntity
  8
BEMA_UNG
 62
     7
100
AcDb2dPolyline
 66
     1
 10
0.0
 20
0.0
 30
0.0
  0
VERTEX
  5
361
330
360
100
AcDbEntity
  8
BEMA_UNG
 62
     7
100
AcDbVertex
100
AcDb2dVertex
 10
-9.852635077994632
 20
-15.73961812679957
 30
0.0
  0
VERTEX
  5
362
330
360
100
AcDbEntity
  8
BEMA_UNG
 62
     7
100
AcDbVertex
100
AcDb2dVertex
 10
-9.852635077994632
 20
11.61376905186465
 30
0.0
  0
SEQEND
  5
363
330
360
100
AcDbEntity
  8
BEMA_UNG
  0
POLYLINE
  5
364
330
1F
100
AcDbEntity
  8
BEMA_UNG
 62
     7
100
AcDb2dPolyline
 66
     1
 10
0.0
 20
0.0
 30
0.0
  0
VERTEX
  5
365
330
364
100
AcDbEntity
  8
BEMA_UNG
 62
     7
100
AcDbVertex
100
AcDb2dVertex
 10
-9.852635077994632
 20
-3.889343113850848
 30
0.0
  0
VERTEX
  5
366
330
364
100
AcDbEntity
  8
BEMA_UNG
 62
     7
100
AcDbVertex
100
AcDb2dVertex
 10
-9.39150874309146
 20
-0.3891237917617727
 30
0.0
  0
VERTEX
  5
367
330
364
100
AcDbEntity
  8
BEMA_UNG
 62
     7
100
AcDbVertex
100
AcDb2dVertex
 10
-10.31324464823411
 20
-0.3891237917617727
 30
0.0
  0
VERTEX
  5
368
330
364
100
AcDbEntity
  8
BEMA_UNG
 62
     7
100
AcDbVertex
100
AcDb2dVertex
 10
-9.852635077994632
 20
-3.889343113850848
 30
0.0
  0
SEQEND
  5
369
330
364
100
AcDbEntity
  8
BEMA_UNG
  0
POLYLINE
  5
36A
330
1F
100
AcDbEntity
  8
BEMA_UNG
 62
     7
100
AcDb2dPolyline
 66
     1
 10
0.0
 20
0.0
 30
0.0
  0
VERTEX
  5
36B
330
36A
100
AcDbEntity
  8
BEMA_UNG
 62
     7
100
AcDbVertex
100
AcDb2dVertex
 10
-9.395126095737321
 20
-0.3891237917617727
 30
0.0
  0
VERTEX
  5
36C
330
36A
100
AcDbEntity
  8
BEMA_UNG
 62
     7
100
AcDbVertex
100
AcDb2dVertex
 10
-9.395126095737321
 20
-0.416167809161772
 30
0.0
  0
SEQEND
  5
36D
330
36A
100
AcDbEntity
  8
BEMA_UNG
  0
POLYLINE
  5
36E
330
1F
100
AcDbEntity
  8
BEMA_UNG
 62
     7
100
AcDb2dPolyline
 66
     1
 10
0.0
 20
0.0
 30
0.0
  0
VERTEX
  5
36F
330
36E
100
AcDbEntity
  8
BEMA_UNG
 62
     7
100
AcDbVertex
100
AcDb2dVertex
 10
-9.395126095737321
 20
-0.3891237917617727
 30
0.0
  0
VERTEX
  5
370
330
36E
100
AcDbEntity
  8
BEMA_UNG
 62
     7
100
AcDbVertex
100
AcDb2dVertex
 10
-9.395126095737321
 20
-0.416167809161772
 30
0.0
  0
SEQEND
  5
371
330
36E
100
AcDbEntity
  8
BEMA_UNG
  0
POLYLINE
  5
372
330
1F
100
AcDbEntity
  8
BEMA_UNG
 62
     7
100
AcDb2dPolyline
 66
     1
 10
0.0
 20
0.0
 30
0.0
  0
VERTEX
  5
373
330
372
100
AcDbEntity
  8
BEMA_UNG
 62
     7
100
AcDbVertex
100
AcDb2dVertex
 10
-9.445769032779358
 20
-0.3891237917617727
 30
0.0
  0
VERTEX
  5
374
330
372
100
AcDbEntity
  8
BEMA_UNG
 62
     7
100
AcDbVertex
100
AcDb2dVertex
 10
-9.445769032779358
 20
-0.8025355227171753
 30
0.0
  0
SEQEND
  5
375
330
372
100
AcDbEntity
  8
BEMA_UNG
  0
POLYLINE
  5
376
330
1F
100
AcDbEntity
  8
BEMA_UNG
 62
     7
100
AcDb2dPolyline
 66
     1
 10
0.0
 20
0.0
 30
0.0
  0
VERTEX
  5
377
330
376
100
AcDbEntity
  8
BEMA_UNG
 62
     7
100
AcDbVertex
100
AcDb2dVertex
 10
-9.49675647959719
 20
-0.3891237917617727
 30
0.0
  0
VERTEX
  5
378
330
376
100
AcDbEntity
  8
BEMA_UNG
 62
     7
100
AcDbVertex
100
AcDb2dVertex
 10
-9.49675647959719
 20
-1.188214216720986
 30
0.0
  0
SEQEND
  5
379
330
376
100
AcDbEntity
  8
BEMA_UNG
  0
POLYLINE
  5
37A
330
1F
100
AcDbEntity
  8
BEMA_UNG
 62
     7
100
AcDb2dPolyline
 66
     1
 10
0.0
 20
0.0
 30
0.0
  0
VERTEX
  5
37B
330
37A
100
AcDbEntity
  8
BEMA_UNG
 62
     7
100
AcDbVertex
100
AcDb2dVertex
 10
-9.547399416639227
 20
-0.3891237917617727
 30
0.0
  0
VERTEX
  5
37C
330
37A
100
AcDbEntity
  8
BEMA_UNG
 62
     7
100
AcDbVertex
100
AcDb2dVertex
 10
-9.547399416639227
 20
-1.574065165612695
 30
0.0
  0
SEQEND
  5
37D
330
37A
100
AcDbEntity
  8
BEMA_UNG
  0
POLYLINE
  5
37E
330
1F
100
AcDbEntity
  8
BEMA_UNG
 62
     7
100
AcDb2dPolyline
 66
     1
 10
0.0
 20
0.0
 30
0.0
  0
VERTEX
  5
37F
330
37E
100
AcDbEntity
  8
BEMA_UNG
 62
     7
100
AcDbVertex
100
AcDb2dVertex
 10
-9.598214608569162
 20
-0.3891237917617727
 30
0.0
  0
VERTEX
  5
380
330
37E
100
AcDbEntity
  8
BEMA_UNG
 62
     7
100
AcDbVertex
100
AcDb2dVertex
 10
-9.598214608569162
 20
-1.959571604728608
 30
0.0
  0
SEQEND
  5
381
330
37E
100
AcDbEntity
  8
BEMA_UNG
  0
POLYLINE
  5
382
330
1F
100
AcDbEntity
  8
BEMA_UNG
 62
     7
100
AcDb2dPolyline
 66
     1
 10
0.0
 20
0.0
 30
0.0
  0
VERTEX
  5
383
330
382
100
AcDbEntity
  8
BEMA_UNG
 62
     7
100
AcDbVertex
100
AcDb2dVertex
 10
-9.649029800499097
 20
-0.3891237917617727
 30
0.0
  0
VERTEX
  5
384
330
382
100
AcDbEntity
  8
BEMA_UNG
 62
     7
100
AcDbVertex
100
AcDb2dVertex
 10
-9.649029800499097
 20
-2.345939318284012
 30
0.0
  0
SEQEND
  5
385
330
382
100
AcDbEntity
  8
BEMA_UNG
  0
POLYLINE
  5
386
330
1F
100
AcDbEntity
  8
BEMA_UNG
 62
     7
100
AcDb2dPolyline
 66
     1
 10
0.0
 20
0.0
 30
0.0
  0
VERTEX
  5
387
330
386
100
AcDbEntity
  8
BEMA_UNG
 62
     7
100
AcDbVertex
100
AcDb2dVertex
 10
-9.699844992429032
 20
-0.3891237917617727
 30
0.0
  0
VERTEX
  5
388
330
386
100
AcDbEntity
  8
BEMA_UNG
 62
     7
100
AcDbVertex
100
AcDb2dVertex
 10
-9.699844992429032
 20
-2.731618012287823
 30
0.0
  0
SEQEND
  5
389
330
386
100
AcDbEntity
  8
BEMA_UNG
  0
POLYLINE
  5
38A
330
1F
100
AcDbEntity
  8
BEMA_UNG
 62
     7
100
AcDb2dPolyline
 66
     1
 10
0.0
 20
0.0
 30
0.0
  0
VERTEX
  5
38B
330
38A
100
AcDbEntity
  8
BEMA_UNG
 62
     7
100
AcDbVertex
100
AcDb2dVertex
 10
-9.750660184358967
 20
-0.3891237917617727
 30
0.0
  0
VERTEX
  5
38C
330
38A
100
AcDbEntity
  8
BEMA_UNG
 62
     7
100
AcDbVertex
100
AcDb2dVertex
 10
-9.750660184358967
 20
-3.117813470955328
 30
0.0
  0
SEQEND
  5
38D
330
38A
100
AcDbEntity
  8
BEMA_UNG
  0
POLYLINE
  5
38E
330
1F
100
AcDbEntity
  8
BEMA_UNG
 62
     7
100
AcDb2dPolyline
 66
     1
 10
0.0
 20
0.0
 30
0.0
  0
VERTEX
  5
38F
330
38E
100
AcDbEntity
  8
BEMA_UNG
 62
     7
100
AcDbVertex
100
AcDb2dVertex
 10
-9.801819886064697
 20
-0.3891237917617727
 30
0.0
  0
VERTEX
  5
390
330
38E
100
AcDbEntity
  8
BEMA_UNG
 62
     7
100
AcDbVertex
100
AcDb2dVertex
 10
-9.801819886064697
 20
-3.502975400295445
 30
0.0
  0
SEQEND
  5
391
330
38E
100
AcDbEntity
  8
BEMA_UNG
  0
POLYLINE
  5
392
330
1F
100
AcDbEntity
  8
BEMA_UNG
 62
     7
100
AcDb2dPolyline
 66
     1
 10
0.0
 20
0.0
 30
0.0
  0
VERTEX
  5
393
330
392
100
AcDbEntity
  8
BEMA_UNG
 62
     7
100
AcDbVertex
100
AcDb2dVertex
 10
-9.852635077994632
 20
-0.3891237917617727
 30
0.0
  0
VERTEX
  5
394
330
392
100
AcDbEntity
  8
BEMA_UNG
 62
     7
100
AcDbVertex
100
AcDb2dVertex
 10
-9.852635077994632
 20
-3.889343113850848
 30
0.0
  0
SEQEND
  5
395
330
392
100
AcDbEntity
  8
BEMA_UNG
  0
POLYLINE
  5
396
330
1F
100
AcDbEntity
  8
BEMA_UNG
 62
     7
100
AcDb2dPolyline
 66
     1
 10
0.0
 20
0.0
 30
0.0
  0
VERTEX
  5
397
330
396
100
AcDbEntity
  8
BEMA_UNG
 62
     7
100
AcDbVertex
100
AcDb2dVertex
 10
-10.30945504070035
 20
-0.3891237917617727
 30
0.0
  0
VERTEX
  5
398
330
396
100
AcDbEntity
  8
BEMA_UNG
 62
     7
100
AcDbVertex
100
AcDb2dVertex
 10
-10.30945504070035
 20
-0.416167809161772
 30
0.0
  0
SEQEND
  5
399
330
396
100
AcDbEntity
  8
BEMA_UNG
  0
POLYLINE
  5
39A
330
1F
100
AcDbEntity
  8
BEMA_UNG
 62
     7
100
AcDb2dPolyline
 66
     1
 10
0.0
 20
0.0
 30
0.0
  0
VERTEX
  5
39B
330
39A
100
AcDbEntity
  8
BEMA_UNG
 62
     7
100
AcDbVertex
100
AcDb2dVertex
 10
-10.30945504070035
 20
-0.3891237917617727
 30
0.0
  0
VERTEX
  5
39C
330
39A
100
AcDbEntity
  8
BEMA_UNG
 62
     7
100
AcDbVertex
100
AcDb2dVertex
 10
-10.30945504070035
 20
-0.416167809161772
 30
0.0
  0
SEQEND
  5
39D
330
39A
100
AcDbEntity
  8
BEMA_UNG
  0
POLYLINE
  5
39E
330
1F
100
AcDbEntity
  8
BEMA_UNG
 62
     7
100
AcDb2dPolyline
 66
     1
 10
0.0
 20
0.0
 30
0.0
  0
VERTEX
  5
39F
330
39E
100
AcDbEntity
  8
BEMA_UNG
 62
     7
100
AcDbVertex
100
AcDb2dVertex
 10
-10.25898435854621
 20
-0.3891237917617727
 30
0.0
  0
VERTEX
  5
3A0
330
39E
100
AcDbEntity
  8
BEMA_UNG
 62
     7
100
AcDbVertex
100
AcDb2dVertex
 10
-10.25898435854621
 20
-0.8025355227171753
 30
0.0
  0
SEQEND
  5
3A1
330
39E
100
AcDbEntity
  8
BEMA_UNG
  0
POLYLINE
  5
3A2
330
1F
100
AcDbEntity
  8
BEMA_UNG
 62
     7
100
AcDb2dPolyline
 66
     1
 10
0.0
 20
0.0
 30
0.0
  0
VERTEX
  5
3A3
330
3A2
100
AcDbEntity
  8
BEMA_UNG
 62
     7
100
AcDbVertex
100
AcDb2dVertex
 10
-10.20816916661628
 20
-0.3891237917617727
 30
0.0
  0
VERTEX
  5
3A4
330
3A2
100
AcDbEntity
  8
BEMA_UNG
 62
     7
100
AcDbVertex
100
AcDb2dVertex
 10
-10.20816916661628
 20
-1.188214216720986
 30
0.0
  0
SEQEND
  5
3A5
330
3A2
100
AcDbEntity
  8
BEMA_UNG
  0
POLYLINE
  5
3A6
330
1F
100
AcDbEntity
  8
BEMA_UNG
 62
     7
100
AcDb2dPolyline
 66
     1
 10
0.0
 20
0.0
 30
0.0
  0
VERTEX
  5
3A7
330
3A6
100
AcDbEntity
  8
BEMA_UNG
 62
     7
100
AcDbVertex
100
AcDb2dVertex
 10
-10.15735397468634
 20
-0.3891237917617727
 30
0.0
  0
VERTEX
  5
3A8
330
3A6
100
AcDbEntity
  8
BEMA_UNG
 62
     7
100
AcDbVertex
100
AcDb2dVertex
 10
-10.15735397468634
 20
-1.574065165612695
 30
0.0
  0
SEQEND
  5
3A9
330
3A6
100
AcDbEntity
  8
BEMA_UNG
  0
POLYLINE
  5
3AA
330
1F
100
AcDbEntity
  8
BEMA_UNG
 62
     7
100
AcDb2dPolyline
 66
     1
 10
0.0
 20
0.0
 30
0.0
  0
VERTEX
  5
3AB
330
3AA
100
AcDbEntity
  8
BEMA_UNG
 62
     7
100
AcDbVertex
100
AcDb2dVertex
 10
-10.10653878275641
 20
-0.3891237917617727
 30
0.0
  0
VERTEX
  5
3AC
330
3AA
100
AcDbEntity
  8
BEMA_UNG
 62
     7
100
AcDbVertex
100
AcDb2dVertex
 10
-10.10653878275641
 20
-1.959571604728608
 30
0.0
  0
SEQEND
  5
3AD
330
3AA
100
AcDbEntity
  8
BEMA_UNG
  0
POLYLINE
  5
3AE
330
1F
100
AcDbEntity
  8
BEMA_UNG
 62
     7
100
AcDb2dPolyline
 66
     1
 10
0.0
 20
0.0
 30
0.0
  0
VERTEX
  5
3AF
330
3AE
100
AcDbEntity
  8
BEMA_UNG
 62
     7
100
AcDbVertex
100
AcDb2dVertex
 10
-10.05589584571437
 20
-0.3891237917617727
 30
0.0
  0
VERTEX
  5
3B0
330
3AE
100
AcDbEntity
  8
BEMA_UNG
 62
     7
100
AcDbVertex
100
AcDb2dVertex
 10
-10.05589584571437
 20
-2.345939318284012
 30
0.0
  0
SEQEND
  5
3B1
330
3AE
100
AcDbEntity
  8
BEMA_UNG
  0
POLYLINE
  5
3B2
330
1F
100
AcDbEntity
  8
BEMA_UNG
 62
     7
100
AcDb2dPolyline
 66
     1
 10
0.0
 20
0.0
 30
0.0
  0
VERTEX
  5
3B3
330
3B2
100
AcDbEntity
  8
BEMA_UNG
 62
     7
100
AcDbVertex
100
AcDb2dVertex
 10
-10.00490839889654
 20
-0.3891237917617727
 30
0.0
  0
VERTEX
  5
3B4
330
3B2
100
AcDbEntity
  8
BEMA_UNG
 62
     7
100
AcDbVertex
100
AcDb2dVertex
 10
-10.00490839889654
 20
-2.731618012287823
 30
0.0
  0
SEQEND
  5
3B5
330
3B2
100
AcDbEntity
  8
BEMA_UNG
  0
POLYLINE
  5
3B6
330
1F
100
AcDbEntity
  8
BEMA_UNG
 62
     7
100
AcDb2dPolyline
 66
     1
 10
0.0
 20
0.0
 30
0.0
  0
VERTEX
  5
3B7
330
3B6
100
AcDbEntity
  8
BEMA_UNG
 62
     7
100
AcDbVertex
100
AcDb2dVertex
 10
-9.954265461854503
 20
-0.3891237917617727
 30
0.0
  0
VERTEX
  5
3B8
330
3B6
100
AcDbEntity
  8
BEMA_UNG
 62
     7
100
AcDbVertex
100
AcDb2dVertex
 10
-9.954265461854503
 20
-3.117813470955328
 30
0.0
  0
SEQEND
  5
3B9
330
3B6
100
AcDbEntity
  8
BEMA_UNG
  0
POLYLINE
  5
3BA
330
1F
100
AcDbEntity
  8
BEMA_UNG
 62
     7
100
AcDb2dPolyline
 66
     1
 10
0.0
 20
0.0
 30
0.0
  0
VERTEX
  5
3BB
330
3BA
100
AcDbEntity
  8
BEMA_UNG
 62
     7
100
AcDbVertex
100
AcDb2dVertex
 10
-9.903450269924567
 20
-0.3891237917617727
 30
0.0
  0
VERTEX
  5
3BC
330
3BA
100
AcDbEntity
  8
BEMA_UNG
 62
     7
100
AcDbVertex
100
AcDb2dVertex
 10
-9.903450269924567
 20
-3.502975400295445
 30
0.0
  0
SEQEND
  5
3BD
330
3BA
100
AcDbEntity
  8
BEMA_UNG
  0
POLYLINE
  5
3BE
330
1F
100
AcDbEntity
  8
BEMA_UNG
 62
     7
100
AcDb2dPolyline
 66
     1
 10
0.0
 20
0.0
 30
0.0
  0
VERTEX
  5
3BF
330
3BE
100
AcDbEntity
  8
BEMA_UNG
 62
     7
100
AcDbVertex
100
AcDb2dVertex
 10
-9.852635077994632
 20
-0.3891237917617727
 30
0.0
  0
VERTEX
  5
3C0
330
3BE
100
AcDbEntity
  8
BEMA_UNG
 62
     7
100
AcDbVertex
100
AcDb2dVertex
 10
-9.852635077994632
 20
-3.889343113850848
 30
0.0
  0
SEQEND
  5
3C1
330
3BE
100
AcDbEntity
  8
BEMA_UNG
  0
POLYLINE
  5
3C2
330
1F
100
AcDbEntity
  8
BEMA_UNG
 62
     7
100
AcDb2dPolyline
 66
     1
 10
0.0
 20
0.0
 30
0.0
  0
VERTEX
  5
3C3
330
3C2
100
AcDbEntity
  8
BEMA_UNG
 62
     7
100
AcDbVertex
100
AcDb2dVertex
 10
-9.852635077994632
 20
-6.988897566688979
 30
0.0
  0
VERTEX
  5
3C4
330
3C2
100
AcDbEntity
  8
BEMA_UNG
 62
     7
100
AcDbVertex
100
AcDb2dVertex
 10
-10.31324464823411
 20
-10.48911688877805
 30
0.0
  0
VERTEX
  5
3C5
330
3C2
100
AcDbEntity
  8
BEMA_UNG
 62
     7
100
AcDbVertex
100
AcDb2dVertex
 10
-9.39150874309146
 20
-10.48911688877805
 30
0.0
  0
VERTEX
  5
3C6
330
3C2
100
AcDbEntity
  8
BEMA_UNG
 62
     7
100
AcDbVertex
100
AcDb2dVertex
 10
-9.852635077994632
 20
-6.988897566688979
 30
0.0
  0
SEQEND
  5
3C7
330
3C2
100
AcDbEntity
  8
BEMA_UNG
  0
POLYLINE
  5
3C8
330
1F
100
AcDbEntity
  8
BEMA_UNG
 62
     7
100
AcDb2dPolyline
 66
     1
 10
0.0
 20
0.0
 30
0.0
  0
VERTEX
  5
3C9
330
3C8
100
AcDbEntity
  8
BEMA_UNG
 62
     7
100
AcDbVertex
100
AcDb2dVertex
 10
-10.30945504070035
 20
-10.48911688877805
 30
0.0
  0
VERTEX
  5
3CA
330
3C8
100
AcDbEntity
  8
BEMA_UNG
 62
     7
100
AcDbVertex
100
AcDb2dVertex
 10
-10.30945504070035
 20
-10.46207287137806
 30
0.0
  0
SEQEND
  5
3CB
330
3C8
100
AcDbEntity
  8
BEMA_UNG
  0
POLYLINE
  5
3CC
330
1F
100
AcDbEntity
  8
BEMA_UNG
 62
     7
100
AcDb2dPolyline
 66
     1
 10
0.0
 20
0.0
 30
0.0
  0
VERTEX
  5
3CD
330
3CC
100
AcDbEntity
  8
BEMA_UNG
 62
     7
100
AcDbVertex
100
AcDb2dVertex
 10
-10.30945504070035
 20
-10.48911688877805
 30
0.0
  0
VERTEX
  5
3CE
330
3CC
100
AcDbEntity
  8
BEMA_UNG
 62
     7
100
AcDbVertex
100
AcDb2dVertex
 10
-10.30945504070035
 20
-10.46207287137806
 30
0.0
  0
SEQEND
  5
3CF
330
3CC
100
AcDbEntity
  8
BEMA_UNG
  0
POLYLINE
  5
3D0
330
1F
100
AcDbEntity
  8
BEMA_UNG
 62
     7
100
AcDb2dPolyline
 66
     1
 10
0.0
 20
0.0
 30
0.0
  0
VERTEX
  5
3D1
330
3D0
100
AcDbEntity
  8
BEMA_UNG
 62
     7
100
AcDbVertex
100
AcDb2dVertex
 10
-10.25898435854621
 20
-10.48911688877805
 30
0.0
  0
VERTEX
  5
3D2
330
3D0
100
AcDbEntity
  8
BEMA_UNG
 62
     7
100
AcDbVertex
100
AcDb2dVertex
 10
-10.25898435854621
 20
-10.07639417737424
 30
0.0
  0
SEQEND
  5
3D3
330
3D0
100
AcDbEntity
  8
BEMA_UNG
  0
POLYLINE
  5
3D4
330
1F
100
AcDbEntity
  8
BEMA_UNG
 62
     7
100
AcDb2dPolyline
 66
     1
 10
0.0
 20
0.0
 30
0.0
  0
VERTEX
  5
3D5
330
3D4
100
AcDbEntity
  8
BEMA_UNG
 62
     7
100
AcDbVertex
100
AcDb2dVertex
 10
-10.20816916661628
 20
-10.48911688877805
 30
0.0
  0
VERTEX
  5
3D6
330
3D4
100
AcDbEntity
  8
BEMA_UNG
 62
     7
100
AcDbVertex
100
AcDb2dVertex
 10
-10.20816916661628
 20
-9.69002646381884
 30
0.0
  0
SEQEND
  5
3D7
330
3D4
100
AcDbEntity
  8
BEMA_UNG
  0
POLYLINE
  5
3D8
330
1F
100
AcDbEntity
  8
BEMA_UNG
 62
     7
100
AcDb2dPolyline
 66
     1
 10
0.0
 20
0.0
 30
0.0
  0
VERTEX
  5
3D9
330
3D8
100
AcDbEntity
  8
BEMA_UNG
 62
     7
100
AcDbVertex
100
AcDb2dVertex
 10
-10.15735397468634
 20
-10.48911688877805
 30
0.0
  0
VERTEX
  5
3DA
330
3D8
100
AcDbEntity
  8
BEMA_UNG
 62
     7
100
AcDbVertex
100
AcDb2dVertex
 10
-10.15735397468634
 20
-9.304520024702928
 30
0.0
  0
SEQEND
  5
3DB
330
3D8
100
AcDbEntity
  8
BEMA_UNG
  0
POLYLINE
  5
3DC
330
1F
100
AcDbEntity
  8
BEMA_UNG
 62
     7
100
AcDb2dPolyline
 66
     1
 10
0.0
 20
0.0
 30
0.0
  0
VERTEX
  5
3DD
330
3DC
100
AcDbEntity
  8
BEMA_UNG
 62
     7
100
AcDbVertex
100
AcDb2dVertex
 10
-10.10653878275641
 20
-10.48911688877805
 30
0.0
  0
VERTEX
  5
3DE
330
3DC
100
AcDbEntity
  8
BEMA_UNG
 62
     7
100
AcDbVertex
100
AcDb2dVertex
 10
-10.10653878275641
 20
-8.91866907581122
 30
0.0
  0
SEQEND
  5
3DF
330
3DC
100
AcDbEntity
  8
BEMA_UNG
  0
POLYLINE
  5
3E0
330
1F
100
AcDbEntity
  8
BEMA_UNG
 62
     7
100
AcDb2dPolyline
 66
     1
 10
0.0
 20
0.0
 30
0.0
  0
VERTEX
  5
3E1
330
3E0
100
AcDbEntity
  8
BEMA_UNG
 62
     7
100
AcDbVertex
100
AcDb2dVertex
 10
-10.05589584571437
 20
-10.48911688877805
 30
0.0
  0
VERTEX
  5
3E2
330
3E0
100
AcDbEntity
  8
BEMA_UNG
 62
     7
100
AcDbVertex
100
AcDb2dVertex
 10
-10.05589584571437
 20
-8.532990381807409
 30
0.0
  0
SEQEND
  5
3E3
330
3E0
100
AcDbEntity
  8
BEMA_UNG
  0
POLYLINE
  5
3E4
330
1F
100
AcDbEntity
  8
BEMA_UNG
 62
     7
100
AcDb2dPolyline
 66
     1
 10
0.0
 20
0.0
 30
0.0
  0
VERTEX
  5
3E5
330
3E4
100
AcDbEntity
  8
BEMA_UNG
 62
     7
100
AcDbVertex
100
AcDb2dVertex
 10
-10.00490839889654
 20
-10.48911688877805
 30
0.0
  0
VERTEX
  5
3E6
330
3E4
100
AcDbEntity
  8
BEMA_UNG
 62
     7
100
AcDbVertex
100
AcDb2dVertex
 10
-10.00490839889654
 20
-8.146622668252006
 30
0.0
  0
SEQEND
  5
3E7
330
3E4
100
AcDbEntity
  8
BEMA_UNG
  0
POLYLINE
  5
3E8
330
1F
100
AcDbEntity
  8
BEMA_UNG
 62
     7
100
AcDb2dPolyline
 66
     1
 10
0.0
 20
0.0
 30
0.0
  0
VERTEX
  5
3E9
330
3E8
100
AcDbEntity
  8
BEMA_UNG
 62
     7
100
AcDbVertex
100
AcDb2dVertex
 10
-9.954265461854503
 20
-10.48911688877805
 30
0.0
  0
VERTEX
  5
3EA
330
3E8
100
AcDbEntity
  8
BEMA_UNG
 62
     7
100
AcDbVertex
100
AcDb2dVertex
 10
-9.954265461854503
 20
-7.761116229136092
 30
0.0
  0
SEQEND
  5
3EB
330
3E8
100
AcDbEntity
  8
BEMA_UNG
  0
POLYLINE
  5
3EC
330
1F
100
AcDbEntity
  8
BEMA_UNG
 62
     7
100
AcDb2dPolyline
 66
     1
 10
0.0
 20
0.0
 30
0.0
  0
VERTEX
  5
3ED
330
3EC
100
AcDbEntity
  8
BEMA_UNG
 62
     7
100
AcDbVertex
100
AcDb2dVertex
 10
-9.903450269924567
 20
-10.48911688877805
 30
0.0
  0
VERTEX
  5
3EE
330
3EC
100
AcDbEntity
  8
BEMA_UNG
 62
     7
100
AcDbVertex
100
AcDb2dVertex
 10
-9.903450269924567
 20
-7.375265280244383
 30
0.0
  0
SEQEND
  5
3EF
330
3EC
100
AcDbEntity
  8
BEMA_UNG
  0
POLYLINE
  5
3F0
330
1F
100
AcDbEntity
  8
BEMA_UNG
 62
     7
100
AcDb2dPolyline
 66
     1
 10
0.0
 20
0.0
 30
0.0
  0
VERTEX
  5
3F1
330
3F0
100
AcDbEntity
  8
BEMA_UNG
 62
     7
100
AcDbVertex
100
AcDb2dVertex
 10
-9.852635077994632
 20
-10.48911688877805
 30
0.0
  0
VERTEX
  5
3F2
330
3F0
100
AcDbEntity
  8
BEMA_UNG
 62
     7
100
AcDbVertex
100
AcDb2dVertex
 10
-9.852635077994632
 20
-6.988897566688979
 30
0.0
  0
SEQEND
  5
3F3
330
3F0
100
AcDbEntity
  8
BEMA_UNG
  0
POLYLINE
  5
3F4
330
1F
100
AcDbEntity
  8
BEMA_UNG
 62
     7
100
AcDb2dPolyline
 66
     1
 10
0.0
 20
0.0
 30
0.0
  0
VERTEX
  5
3F5
330
3F4
100
AcDbEntity
  8
BEMA_UNG
 62
     7
100
AcDbVertex
100
AcDb2dVertex
 10
-9.395126095737321
 20
-10.48911688877805
 30
0.0
  0
VERTEX
  5
3F6
330
3F4
100
AcDbEntity
  8
BEMA_UNG
 62
     7
100
AcDbVertex
100
AcDb2dVertex
 10
-9.395126095737321
 20
-10.46207287137806
 30
0.0
  0
SEQEND
  5
3F7
330
3F4
100
AcDbEntity
  8
BEMA_UNG
  0
POLYLINE
  5
3F8
330
1F
100
AcDbEntity
  8
BEMA_UNG
 62
     7
100
AcDb2dPolyline
 66
     1
 10
0.0
 20
0.0
 30
0.0
  0
VERTEX
  5
3F9
330
3F8
100
AcDbEntity
  8
BEMA_UNG
 62
     7
100
AcDbVertex
100
AcDb2dVertex
 10
-9.395126095737321
 20
-10.48911688877805
 30
0.0
  0
VERTEX
  5
3FA
330
3F8
100
AcDbEntity
  8
BEMA_UNG
 62
     7
100
AcDbVertex
100
AcDb2dVertex
 10
-9.395126095737321
 20
-10.46207287137806
 30
0.0
  0
SEQEND
  5
3FB
330
3F8
100
AcDbEntity
  8
BEMA_UNG
  0
POLYLINE
  5
3FC
330
1F
100
AcDbEntity
  8
BEMA_UNG
 62
     7
100
AcDb2dPolyline
 66
     1
 10
0.0
 20
0.0
 30
0.0
  0
VERTEX
  5
3FD
330
3FC
100
AcDbEntity
  8
BEMA_UNG
 62
     7
100
AcDbVertex
100
AcDb2dVertex
 10
-9.445769032779358
 20
-10.48911688877805
 30
0.0
  0
VERTEX
  5
3FE
330
3FC
100
AcDbEntity
  8
BEMA_UNG
 62
     7
100
AcDbVertex
100
AcDb2dVertex
 10
-9.445769032779358
 20
-10.07639417737424
 30
0.0
  0
SEQEND
  5
3FF
330
3FC
100
AcDbEntity
  8
BEMA_UNG
  0
POLYLINE
  5
400
330
1F
100
AcDbEntity
  8
BEMA_UNG
 62
     7
100
AcDb2dPolyline
 66
     1
 10
0.0
 20
0.0
 30
0.0
  0
VERTEX
  5
401
330
400
100
AcDbEntity
  8
BEMA_UNG
 62
     7
100
AcDbVertex
100
AcDb2dVertex
 10
-9.49675647959719
 20
-10.48911688877805
 30
0.0
  0
VERTEX
  5
402
330
400
100
AcDbEntity
  8
BEMA_UNG
 62
     7
100
AcDbVertex
100
AcDb2dVertex
 10
-9.49675647959719
 20
-9.69002646381884
 30
0.0
  0
SEQEND
  5
403
330
400
100
AcDbEntity
  8
BEMA_UNG
  0
POLYLINE
  5
404
330
1F
100
AcDbEntity
  8
BEMA_UNG
 62
     7
100
AcDb2dPolyline
 66
     1
 10
0.0
 20
0.0
 30
0.0
  0
VERTEX
  5
405
330
404
100
AcDbEntity
  8
BEMA_UNG
 62
     7
100
AcDbVertex
100
AcDb2dVertex
 10
-9.547399416639227
 20
-10.48911688877805
 30
0.0
  0
VERTEX
  5
406
330
404
100
AcDbEntity
  8
BEMA_UNG
 62
     7
100
AcDbVertex
100
AcDb2dVertex
 10
-9.547399416639227
 20
-9.304520024702928
 30
0.0
  0
SEQEND
  5
407
330
404
100
AcDbEntity
  8
BEMA_UNG
  0
POLYLINE
  5
408
330
1F
100
AcDbEntity
  8
BEMA_UNG
 62
     7
100
AcDb2dPolyline
 66
     1
 10
0.0
 20
0.0
 30
0.0
  0
VERTEX
  5
409
330
408
100
AcDbEntity
  8
BEMA_UNG
 62
     7
100
AcDbVertex
100
AcDb2dVertex
 10
-9.598214608569162
 20
-10.48911688877805
 30
0.0
  0
VERTEX
  5
40A
330
408
100
AcDbEntity
  8
BEMA_UNG
 62
     7
100
AcDbVertex
100
AcDb2dVertex
 10
-9.598214608569162
 20
-8.91866907581122
 30
0.0
  0
SEQEND
  5
40B
330
408
100
AcDbEntity
  8
BEMA_UNG
  0
POLYLINE
  5
40C
330
1F
100
AcDbEntity
  8
BEMA_UNG
 62
     7
100
AcDb2dPolyline
 66
     1
 10
0.0
 20
0.0
 30
0.0
  0
VERTEX
  5
40D
330
40C
100
AcDbEntity
  8
BEMA_UNG
 62
     7
100
AcDbVertex
100
AcDb2dVertex
 10
-9.649029800499097
 20
-10.48911688877805
 30
0.0
  0
VERTEX
  5
40E
330
40C
100
AcDbEntity
  8
BEMA_UNG
 62
     7
100
AcDbVertex
100
AcDb2dVertex
 10
-9.649029800499097
 20
-8.532990381807409
 30
0.0
  0
SEQEND
  5
40F
330
40C
100
AcDbEntity
  8
BEMA_UNG
  0
POLYLINE
  5
410
330
1F
100
AcDbEntity
  8
BEMA_UNG
 62
     7
100
AcDb2dPolyline
 66
     1
 10
0.0
 20
0.0
 30
0.0
  0
VERTEX
  5
411
330
410
100
AcDbEntity
  8
BEMA_UNG
 62
     7
100
AcDbVertex
100
AcDb2dVertex
 10
-9.699844992429032
 20
-10.48911688877805
 30
0.0
  0
VERTEX
  5
412
330
410
100
AcDbEntity
  8
BEMA_UNG
 62
     7
100
AcDbVertex
100
AcDb2dVertex
 10
-9.699844992429032
 20
-8.146622668252006
 30
0.0
  0
SEQEND
  5
413
330
410
100
AcDbEntity
  8
BEMA_UNG
  0
POLYLINE
  5
414
330
1F
100
AcDbEntity
  8
BEMA_UNG
 62
     7
100
AcDb2dPolyline
 66
     1
 10
0.0
 20
0.0
 30
0.0
  0
VERTEX
  5
415
330
414
100
AcDbEntity
  8
BEMA_UNG
 62
     7
100
AcDbVertex
100
AcDb2dVertex
 10
-9.750660184358967
 20
-10.48911688877805
 30
0.0
  0
VERTEX
  5
416
330
414
100
AcDbEntity
  8
BEMA_UNG
 62
     7
100
AcDbVertex
100
AcDb2dVertex
 10
-9.750660184358967
 20
-7.761116229136092
 30
0.0
  0
SEQEND
  5
417
330
414
100
AcDbEntity
  8
BEMA_UNG
  0
POLYLINE
  5
418
330
1F
100
AcDbEntity
  8
BEMA_UNG
 62
     7
100
AcDb2dPolyline
 66
     1
 10
0.0
 20
0.0
 30
0.0
  0
VERTEX
  5
419
330
418
100
AcDbEntity
  8
BEMA_UNG
 62
     7
100
AcDbVertex
100
AcDb2dVertex
 10
-9.801819886064697
 20
-10.48911688877805
 30
0.0
  0
VERTEX
  5
41A
330
418
100
AcDbEntity
  8
BEMA_UNG
 62
     7
100
AcDbVertex
100
AcDb2dVertex
 10
-9.801819886064697
 20
-7.375265280244383
 30
0.0
  0
SEQEND
  5
41B
330
418
100
AcDbEntity
  8
BEMA_UNG
  0
POLYLINE
  5
41C
330
1F
100
AcDbEntity
  8
BEMA_UNG
 62
     7
100
AcDb2dPolyline
 66
     1
 10
0.0
 20
0.0
 30
0.0
  0
VERTEX
  5
41D
330
41C
100
AcDbEntity
  8
BEMA_UNG
 62
     7
100
AcDbVertex
100
AcDb2dVertex
 10
-9.852635077994632
 20
-10.48911688877805
 30
0.0
  0
VERTEX
  5
41E
330
41C
100
AcDbEntity
  8
BEMA_UNG
 62
     7
100
AcDbVertex
100
AcDb2dVertex
 10
-9.852635077994632
 20
-6.988897566688979
 30
0.0
  0
SEQEND
  5
41F
330
41C
100
AcDbEntity
  8
BEMA_UNG
  0
MTEXT
  5
421
330
1F
100
AcDbEntity
  8
TEXT
 62
     7
100
AcDbMText
 10
32.53963734349974
 20
-8.991705148280007
 30
0.0
 40
3.311188396084465
 41
0.0
 71
     7
 72
     1
  1
\fINDEX Univers 45 Light|b0|i0|c0|p34;\W1;\U+00F811
 11
-4.371139000186241E-8
 21
0.999999999999999
 31
0.0
  0
MTEXT
  5
422
330
1F
100
AcDbEntity
  8
TEXT
 62
     7
100
AcDbMText
 10
6.965815411710636
 20
10.82105205775766
 30
0.0
 40
3.311188396084465
 41
0.0
 71
     7
 72
     1
  1
\fINDEX Univers 45 Light|b0|i0|c0|p34;\W1;19
  0
MTEXT
  5
423
330
1F
100
AcDbEntity
  8
TEXT
 62
     7
100
AcDbMText
 10
-10.67119030528633
 20
0.5134918208241896
 30
0.0
 40
3.311188396084465
 41
0.0
 71
     7
 72
     1
  1
\fINDEX Univers 45 Light|b0|i0|c0|p34;\W1;\U+00F83,1
 11
-4.371139000186241E-8
 21
0.999999999999999
 31
0.0
  0
ENDSEC
  0
SECTION
  2
OBJECTS
  0
DICTIONARY
  5
C
330
0
100
AcDbDictionary
  3
ACAD_GROUP
350
D
  3
ACAD_LAYOUT
350
1A
  3
ACAD_MLINESTYLE
350
17
  3
ACAD_PLOTSETTINGS
350
19
  3
ACAD_TABLESTYLE
350
444
  3
ACAD_VISUALSTYLE
350
2A
  3
ACDBHEADERROUNDTRIPXREC
350
424
  0
DICTIONARY
  5
D
102
{ACAD_REACTORS
330
C
102
}
330
C
100
AcDbDictionary
  0
DICTIONARY
  5
1A
102
{ACAD_REACTORS
330
C
102
}
330
C
100
AcDbDictionary
  0
DICTIONARY
  5
17
102
{ACAD_REACTORS
330
C
102
}
330
C
100
AcDbDictionary
  3
STANDARD
350
18
  0
DICTIONARY
  5
19
102
{ACAD_REACTORS
330
C
102
}
330
C
100
AcDbDictionary
  0
DICTIONARY
  5
444
102
{ACAD_REACTORS
330
C
102
}
330
C
100
AcDbDictionary
  0
DICTIONARY
  5
2A
102
{ACAD_REACTORS
330
C
102
}
330
C
100
AcDbDictionary
  3
2DWIREFRAME
350
2F
  3
3D_HIDDEN
350
31
  3
3DWIREFRAME
350
30
  3
BASIC
350
32
  3
BRIGHTEN
350
36
  3
COLORCHANGE
350
3A
  3
CONCEPTUAL
350
34
  3
DIM
350
35
  3
FACEPATTERN
350
39
  3
FLAT
350
2B
  3
FLATWITHEDGES
350
2C
  3
GOURAUD
350
2D
  3
GOURAUDWITHEDGES
350
2E
  3
LINEPATTERN
350
38
  3
REALISTIC
350
33
  3
THICKEN
350
37
  0
DICTIONARY
  5
424
102
{ACAD_REACTORS
330
C
102
}
330
C
100
AcDbDictionary
  3
CEPSNTYPE
350
42D
  3
DIMSTYLEDATA
350
443
  3
FINGERPRINTGUID
350
42E
  3
HYPERLINKBASE
350
427
  3
INSUNITS
350
42C
  3
LAYOUTDICT
350
429
  3
LWETCUNION
350
42B
  3
PLOTSETDICT
350
42A
  3
PSVPSCALE
350
430
  3
PUCSBASE
350
433
  3
PUCSORGBACK
350
439
  3
PUCSORGBOTTOM
350
435
  3
PUCSORGFRONT
350
438
  3
PUCSORGLEFT
350
436
  3
PUCSORGRIGHT
350
437
  3
PUCSORGTOP
350
434
  3
PUCSORTHOREF
350
431
  3
PUCSORTHOVIEW
350
432
  3
STYLESHEET
350
428
  3
TSTACKALIGN
350
425
  3
TSTACKSIZE
350
426
  3
UCSBASE
350
43C
  3
UCSORGBACK
350
442
  3
UCSORGBOTTOM
350
43E
  3
UCSORGFRONT
350
441
  3
UCSORGLEFT
350
43F
  3
UCSORGRIGHT
350
440
  3
UCSORGTOP
350
43D
  3
UCSORTHOREF
350
43A
  3
UCSORTHOVIEW
350
43B
  3
VERSIONGUID
350
42F
  0
MLINESTYLE
  5
18
102
{ACAD_REACTORS
330
17
102
}
330
17
100
AcDbMlineStyle
  2
Standard
 70
     0
  3

 62
   256
 51
90.0
 52
90.0
 71
     2
 49
0.5
 62
   256
  6
BYLAYER
 49
-0.5
 62
   256
  6
BYLAYER
  0
VISUALSTYLE
  5
2F
102
{ACAD_REACTORS
330
2A
102
}
330
2A
100
AcDbVisualStyle
  2
2dWireframe
 70
     4
 71
     0
 72
     2
 73
     0
 90
        0
 40
-0.6
 41
-30.0
 62
     5
 63
     7
 74
     1
 91
        4
 64
     7
 65
   257
 75
     1
175
     1
 42
1.0
 92
        0
 66
   257
 43
1.0
 76
     1
 77
     6
 78
     2
 67
     7
 79
     5
170
     0
171
     0
290
     0
174
     0
 93
        1
 44
0.0
173
     0
291
     0
 45
0.0
1001
ACAD
1000
AcDbSavedByObjectVersion
1070
     0
  0
VISUALSTYLE
  5
31
102
{ACAD_REACTORS
330
2A
102
}
330
2A
100
AcDbVisualStyle
  2
3D Hidden
 70
     6
 71
     1
 72
     2
 73
     2
 90
        0
 40
-0.6
 41
-30.0
 62
     5
 63
     7
 74
     2
 91
        2
 64
     7
 65
   257
 75
     2
175
     1
 42
40.0
 92
        0
 66
   257
 43
1.0
 76
     1
 77
     6
 78
     2
 67
     7
 79
     3
170
     0
171
     0
290
     0
174
     0
 93
        1
 44
0.0
173
     0
291
     0
 45
0.0
1001
ACAD
1000
AcDbSavedByObjectVersion
1070
     0
  0
VISUALSTYLE
  5
30
102
{ACAD_REACTORS
330
2A
102
}
330
2A
100
AcDbVisualStyle
  2
3dWireframe
 70
     5
 71
     0
 72
     2
 73
     0
 90
        0
 40
-0.6
 41
-30.0
 62
     5
 63
     7
 74
     1
 91
        4
 64
     7
 65
   257
 75
     1
175
     1
 42
1.0
 92
        0
 66
   257
 43
1.0
 76
     1
 77
     6
 78
     2
 67
     7
 79
     5
170
     0
171
     0
290
     0
174
     0
 93
        1
 44
0.0
173
     0
291
     0
 45
0.0
1001
ACAD
1000
AcDbSavedByObjectVersion
1070
     0
  0
VISUALSTYLE
  5
32
102
{ACAD_REACTORS
330
2A
102
}
330
2A
100
AcDbVisualStyle
  2
Basic
 70
     7
 71
     1
 72
     0
 73
     1
 90
        0
 40
-0.6
 41
-30.0
 62
     5
 63
     7
 74
     0
 91
        4
 64
     7
 65
   257
 75
     1
175
     1
 42
1.0
 92
        8
 66
     7
 43
1.0
 76
     1
 77
     6
 78
     2
 67
     7
 79
     5
170
     0
171
     0
290
     0
174
     0
 93
        1
 44
0.0
173
     0
291
     1
 45
0.0
1001
ACAD
1000
AcDbSavedByObjectVersion
1070
     0
  0
VISUALSTYLE
  5
36
102
{ACAD_REACTORS
330
2A
102
}
330
2A
100
AcDbVisualStyle
  2
Brighten
 70
    12
 71
     2
 72
     2
 73
     0
 90
        0
 40
-0.6
 41
-30.0
 62
     5
 63
     7
 74
     1
 91
        4
 64
     7
 65
   257
 75
     1
175
     1
 42
1.0
 92
        8
 66
     7
 43
1.0
 76
     1
 77
     6
 78
     2
 67
     7
 79
     5
170
     0
171
     0
290
     0
174
     0
 93
        1
 44
50.0
173
     0
291
     1
 45
0.0
1001
ACAD
1000
AcDbSavedByObjectVersion
1070
     0
  0
VISUALSTYLE
  5
3A
102
{ACAD_REACTORS
330
2A
102
}
330
2A
100
AcDbVisualStyle
  2
ColorChange
 70
    16
 71
     2
 72
     2
 73
     3
 90
        0
 40
-0.6
 41
-30.0
 62
     5
 63
     8
 74
     1
 91
        4
 64
     7
 65
   257
 75
     1
175
     1
 42
1.0
 92
        8
 66
     8
 43
1.0
 76
     1
 77
     6
 78
     2
 67
     7
 79
     5
170
     0
171
     0
290
     0
174
     0
 93
        1
 44
0.0
173
     0
291
     1
 45
0.0
1001
ACAD
1000
AcDbSavedByObjectVersion
1070
     0
  0
VISUALSTYLE
  5
34
102
{ACAD_REACTORS
330
2A
102
}
330
2A
100
AcDbVisualStyle
  2
Conceptual
 70
     9
 71
     3
 72
     2
 73
     0
 90
        0
 40
-0.6
 41
-30.0
 62
     5
 63
     7
 74
     2
 91
        2
 64
     7
 65
   257
 75
     1
175
     1
 42
40.0
 92
        8
 66
     7
 43
1.0
 76
     1
 77
     6
 78
     2
 67
     7
 79
     3
170
     0
171
     0
290
     0
174
     0
 93
        1
 44
0.0
173
     0
291
     0
 45
0.0
1001
ACAD
1000
AcDbSavedByObjectVersion
1070
     0
  0
VISUALSTYLE
  5
35
102
{ACAD_REACTORS
330
2A
102
}
330
2A
100
AcDbVisualStyle
  2
Dim
 70
    11
 71
     2
 72
     2
 73
     0
 90
        0
 40
-0.6
 41
-30.0
 62
     5
 63
     7
 74
     1
 91
        4
 64
     7
 65
   257
 75
     1
175
     1
 42
1.0
 92
        8
 66
     7
 43
1.0
 76
     1
 77
     6
 78
     2
 67
     7
 79
     5
170
     0
171
     0
290
     0
174
     0
 93
        1
 44
-50.0
173
     0
291
     1
 45
0.0
1001
ACAD
1000
AcDbSavedByObjectVersion
1070
     0
  0
VISUALSTYLE
  5
39
102
{ACAD_REACTORS
330
2A
102
}
330
2A
100
AcDbVisualStyle
  2
Facepattern
 70
    15
 71
     2
 72
     2
 73
     0
 90
        0
 40
-0.6
 41
-30.0
 62
     5
 63
     7
 74
     1
 91
        4
 64
     7
 65
   257
 75
     1
175
     1
 42
1.0
 92
        8
 66
     7
 43
1.0
 76
     1
 77
     6
 78
     2
 67
     7
 79
     5
170
     0
171
     0
290
     0
174
     0
 93
        1
 44
0.0
173
     0
291
     1
 45
0.0
1001
ACAD
1000
AcDbSavedByObjectVersion
1070
     0
  0
VISUALSTYLE
  5
2B
102
{ACAD_REACTORS
330
2A
102
}
330
2A
100
AcDbVisualStyle
  2
Flat
 70
     0
 71
     2
 72
     1
 73
     1
 90
        2
 40
-0.6
 41
30.0
 62
     5
 63
     7
 74
     0
 91
        4
 64
     7
 65
   257
 75
     1
175
     1
 42
1.0
 92
        8
 66
     7
 43
1.0
 76
     1
 77
     6
 78
     2
 67
     7
 79
     5
170
     0
171
     0
290
     0
174
     0
 93
       13
 44
0.0
173
     0
291
     1
 45
0.0
1001
ACAD
1000
AcDbSavedByObjectVersion
1070
     0
  0
VISUALSTYLE
  5
2C
102
{ACAD_REACTORS
330
2A
102
}
330
2A
100
AcDbVisualStyle
  2
FlatWithEdges
 70
     1
 71
     2
 72
     1
 73
     1
 90
        2
 40
-0.6
 41
30.0
 62
     5
 63
     7
 74
     1
 91
        4
 64
     7
 65
   257
 75
     1
175
     1
 42
1.0
 92
        0
 66
   257
 43
1.0
 76
     1
 77
     6
 78
     2
 67
     7
 79
     5
170
     0
171
     0
290
     0
174
     0
 93
       13
 44
0.0
173
     0
291
     1
 45
0.0
1001
ACAD
1000
AcDbSavedByObjectVersion
1070
     0
  0
VISUALSTYLE
  5
2D
102
{ACAD_REACTORS
330
2A
102
}
330
2A
100
AcDbVisualStyle
  2
Gouraud
 70
     2
 71
     2
 72
     2
 73
     1
 90
        2
 40
-0.6
 41
30.0
 62
     5
 63
     7
 74
     0
 91
        4
 64
     7
 65
   257
 75
     1
175
     1
 42
1.0
 92
        0
 66
     7
 43
1.0
 76
     1
 77
     6
 78
     2
 67
     7
 79
     5
170
     0
171
     0
290
     0
174
     0
 93
       13
 44
0.0
173
     0
291
     1
 45
0.0
1001
ACAD
1000
AcDbSavedByObjectVersion
1070
     0
  0
VISUALSTYLE
  5
2E
102
{ACAD_REACTORS
330
2A
102
}
330
2A
100
AcDbVisualStyle
  2
GouraudWithEdges
 70
     3
 71
     2
 72
     2
 73
     1
 90
        2
 40
-0.6
 41
30.0
 62
     5
 63
     7
 74
     1
 91
        4
 64
     7
 65
   257
 75
     1
175
     1
 42
1.0
 92
        0
 66
   257
 43
1.0
 76
     1
 77
     6
 78
     2
 67
     7
 79
     5
170
     0
171
     0
290
     0
174
     0
 93
       13
 44
0.0
173
     0
291
     1
 45
0.0
1001
ACAD
1000
AcDbSavedByObjectVersion
1070
     0
  0
VISUALSTYLE
  5
38
102
{ACAD_REACTORS
330
2A
102
}
330
2A
100
AcDbVisualStyle
  2
Linepattern
 70
    14
 71
     2
 72
     2
 73
     0
 90
        0
 40
-0.6
 41
-30.0
 62
     5
 63
     7
 74
     1
 91
        4
 64
     7
 65
   257
 75
     7
175
     7
 42
1.0
 92
        8
 66
     7
 43
1.0
 76
     1
 77
     6
 78
     2
 67
     7
 79
     5
170
     0
171
     0
290
     0
174
     0
 93
        1
 44
0.0
173
     0
291
     1
 45
0.0
1001
ACAD
1000
AcDbSavedByObjectVersion
1070
     0
  0
VISUALSTYLE
  5
33
102
{ACAD_REACTORS
330
2A
102
}
330
2A
100
AcDbVisualStyle
  2
Realistic
 70
     8
 71
     2
 72
     2
 73
     0
 90
        0
 40
-0.6
 41
-30.0
 62
     5
 63
     7
 74
     1
 91
        0
 64
     7
 65
   257
 75
     1
175
     1
 42
1.0
 92
        8
 66
     8
 43
1.0
 76
     1
 77
     6
 78
     2
 67
     7
 79
     5
170
     0
171
     0
290
     0
174
     0
 93
       13
 44
0.0
173
     0
291
     0
 45
0.0
1001
ACAD
1000
AcDbSavedByObjectVersion
1070
     0
  0
VISUALSTYLE
  5
37
102
{ACAD_REACTORS
330
2A
102
}
330
2A
100
AcDbVisualStyle
  2
Thicken
 70
    13
 71
     2
 72
     2
 73
     0
 90
        0
 40
-0.6
 41
-30.0
 62
     5
 63
     7
 74
     1
 91
        4
 64
     7
 65
   257
 75
     1
175
     1
 42
1.0
 92
       12
 66
     7
 43
1.0
 76
     1
 77
     6
 78
     2
 67
     7
 79
     5
170
     0
171
     0
290
     0
174
     0
 93
        1
 44
0.0
173
     0
291
     1
 45
0.0
1001
ACAD
1000
AcDbSavedByObjectVersion
1070
     0
  0
XRECORD
  5
42D
102
{ACAD_REACTORS
330
424
102
}
330
424
100
AcDbXrecord
 90
        0
  0
XRECORD
  5
443
102
{ACAD_REACTORS
330
424
102
}
330
424
100
AcDbXrecord
1000
DSTYLE
1002
{
1070
   340
340
11
1002
}
  0
XRECORD
  5
42E
102
{ACAD_REACTORS
330
424
102
}
330
424
100
AcDbXrecord
  1
{3C2553EA-A49A-450A-A081-D37E8E2C11BB}
  0
XRECORD
  5
427
102
{ACAD_REACTORS
330
424
102
}
330
424
100
AcDbXrecord
  1

  0
XRECORD
  5
42C
102
{ACAD_REACTORS
330
424
102
}
330
424
100
AcDbXrecord
 90
        1
  0
XRECORD
  5
429
102
{ACAD_REACTORS
330
424
102
}
330
424
100
AcDbXrecord
340
1A
  0
XRECORD
  5
42B
102
{ACAD_REACTORS
330
424
102
}
330
424
100
AcDbXrecord
 90
    10269
  0
XRECORD
  5
42A
102
{ACAD_REACTORS
330
424
102
}
330
424
100
AcDbXrecord
340
19
  0
XRECORD
  5
430
102
{ACAD_REACTORS
330
424
102
}
330
424
100
AcDbXrecord
 40
0.0
  0
XRECORD
  5
433
102
{ACAD_REACTORS
330
424
102
}
330
424
100
AcDbXrecord
340
0
  0
XRECORD
  5
439
102
{ACAD_REACTORS
330
424
102
}
330
424
100
AcDbXrecord
 10
0.0
 20
0.0
 30
0.0
  0
XRECORD
  5
435
102
{ACAD_REACTORS
330
424
102
}
330
424
100
AcDbXrecord
 10
0.0
 20
0.0
 30
0.0
  0
XRECORD
  5
438
102
{ACAD_REACTORS
330
424
102
}
330
424
100
AcDbXrecord
 10
0.0
 20
0.0
 30
0.0
  0
XRECORD
  5
436
102
{ACAD_REACTORS
330
424
102
}
330
424
100
AcDbXrecord
 10
0.0
 20
0.0
 30
0.0
  0
XRECORD
  5
437
102
{ACAD_REACTORS
330
424
102
}
330
424
100
AcDbXrecord
 10
0.0
 20
0.0
 30
0.0
  0
XRECORD
  5
434
102
{ACAD_REACTORS
330
424
102
}
330
424
100
AcDbXrecord
 10
0.0
 20
0.0
 30
0.0
  0
XRECORD
  5
431
102
{ACAD_REACTORS
330
424
102
}
330
424
100
AcDbXrecord
340
0
  0
XRECORD
  5
432
102
{ACAD_REACTORS
330
424
102
}
330
424
100
AcDbXrecord
 70
     0
  0
XRECORD
  5
428
102
{ACAD_REACTORS
330
424
102
}
330
424
100
AcDbXrecord
  1

  0
XRECORD
  5
425
102
{ACAD_REACTORS
330
424
102
}
330
424
100
AcDbXrecord
 90
        1
  0
XRECORD
  5
426
102
{ACAD_REACTORS
330
424
102
}
330
424
100
AcDbXrecord
 90
       70
  0
XRECORD
  5
43C
102
{ACAD_REACTORS
330
424
102
}
330
424
100
AcDbXrecord
340
0
  0
XRECORD
  5
442
102
{ACAD_REACTORS
330
424
102
}
330
424
100
AcDbXrecord
 10
0.0
 20
0.0
 30
0.0
  0
XRECORD
  5
43E
102
{ACAD_REACTORS
330
424
102
}
330
424
100
AcDbXrecord
 10
0.0
 20
0.0
 30
0.0
  0
XRECORD
  5
441
102
{ACAD_REACTORS
330
424
102
}
330
424
100
AcDbXrecord
 10
0.0
 20
0.0
 30
0.0
  0
XRECORD
  5
43F
102
{ACAD_REACTORS
330
424
102
}
330
424
100
AcDbXrecord
 10
0.0
 20
0.0
 30
0.0
  0
XRECORD
  5
440
102
{ACAD_REACTORS
330
424
102
}
330
424
100
AcDbXrecord
 10
0.0
 20
0.0
 30
0.0
  0
XRECORD
  5
43D
102
{ACAD_REACTORS
330
424
102
}
330
424
100
AcDbXrecord
 10
0.0
 20
0.0
 30
0.0
  0
XRECORD
  5
43A
102
{ACAD_REACTORS
330
424
102
}
330
424
100
AcDbXrecord
340
0
  0
XRECORD
  5
43B
102
{ACAD_REACTORS
330
424
102
}
330
424
100
AcDbXrecord
 70
     0
  0
XRECORD
  5
42F
102
{ACAD_REACTORS
330
424
102
}
330
424
100
AcDbXrecord
  1
{FAEB1C32-E019-11D5-929B-00C0DF256EC4}
  0
ENDSEC
  0
EOF
