  0
SECTION
  2
HEADER
  9
$ACADVER
  1
AC1014
  9
$ACADMAINTVER
 70
     9
  9
$DWGCODEPAGE
  3
ANSI_1252
  9
$INSBASE
 10
0.0
 20
0.0
 30
0.0
  9
$EXTMIN
 10
1.000000000000000E+20
 20
1.000000000000000E+20
 30
1.000000000000000E+20
  9
$EXTMAX
 10
-1.000000000000000E+20
 20
-1.000000000000000E+20
 30
-1.000000000000000E+20
  9
$LIMMIN
 10
0.0
 20
0.0
  9
$LIMMAX
 10
12.0
 20
9.0
  9
$ORTHOMODE
 70
     0
  9
$REGENMODE
 70
     1
  9
$FILLMODE
 70
     1
  9
$QTEXTMODE
 70
     0
  9
$MIRRTEXT
 70
     1
  9
$DRAGMODE
 70
     2
  9
$LTSCALE
 40
1.0
  9
$OSMODE
 70
    37
  9
$ATTMODE
 70
     1
  9
$TEXTSIZE
 40
0.2
  9
$TRACEWID
 40
0.05
  9
$TEXTSTYLE
  7
STANDARD
  9
$CLAYER
  8
0
  9
$CELTYPE
  6
BYLAYER
  9
$CECOLOR
 62
   256
  9
$CELTSCALE
 40
1.0
  9
$DELOBJ
 70
     1
  9
$DISPSILH
 70
     0
  9
$DIMSCALE
 40
1.0
  9
$DIMASZ
 40
0.18
  9
$DIMEXO
 40
0.0625
  9
$DIMDLI
 40
0.38
  9
$DIMRND
 40
0.0
  9
$DIMDLE
 40
0.0
  9
$DIMEXE
 40
0.18
  9
$DIMTP
 40
0.0
  9
$DIMTM
 40
0.0
  9
$DIMTXT
 40
0.18
  9
$DIMCEN
 40
0.09
  9
$DIMTSZ
 40
0.0
  9
$DIMTOL
 70
     0
  9
$DIMLIM
 70
     0
  9
$DIMTIH
 70
     1
  9
$DIMTOH
 70
     1
  9
$DIMSE1
 70
     0
  9
$DIMSE2
 70
     0
  9
$DIMTAD
 70
     0
  9
$DIMZIN
 70
     0
  9
$DIMBLK
  1

  9
$DIMASO
 70
     1
  9
$DIMSHO
 70
     1
  9
$DIMPOST
  1

  9
$DIMAPOST
  1

  9
$DIMALT
 70
     0
  9
$DIMALTD
 70
     2
  9
$DIMALTF
 40
25.4
  9
$DIMLFAC
 40
1.0
  9
$DIMTOFL
 70
     0
  9
$DIMTVP
 40
0.0
  9
$DIMTIX
 70
     0
  9
$DIMSOXD
 70
     0
  9
$DIMSAH
 70
     0
  9
$DIMBLK1
  1

  9
$DIMBLK2
  1

  9
$DIMSTYLE
  2
STANDARD
  9
$DIMCLRD
 70
     0
  9
$DIMCLRE
 70
     0
  9
$DIMCLRT
 70
     0
  9
$DIMTFAC
 40
1.0
  9
$DIMGAP
 40
0.09
  9
$DIMJUST
 70
     0
  9
$DIMSD1
 70
     0
  9
$DIMSD2
 70
     0
  9
$DIMTOLJ
 70
     1
  9
$DIMTZIN
 70
     0
  9
$DIMALTZ
 70
     0
  9
$DIMALTTZ
 70
     0
  9
$DIMFIT
 70
     3
  9
$DIMUPT
 70
     0
  9
$DIMUNIT
 70
     2
  9
$DIMDEC
 70
     4
  9
$DIMTDEC
 70
     4
  9
$DIMALTU
 70
     2
  9
$DIMALTTD
 70
     2
  9
$DIMTXSTY
  7
STANDARD
  9
$DIMAUNIT
 70
     0
  9
$LUNITS
 70
     2
  9
$LUPREC
 70
     4
  9
$SKETCHINC
 40
0.1
  9
$FILLETRAD
 40
0.5
  9
$AUNITS
 70
     0
  9
$AUPREC
 70
     0
  9
$MENU
  1
.
  9
$ELEVATION
 40
0.0
  9
$PELEVATION
 40
0.0
  9
$THICKNESS
 40
0.0
  9
$LIMCHECK
 70
     0
  9
$CHAMFERA
 40
0.5
  9
$CHAMFERB
 40
0.5
  9
$CHAMFERC
 40
1.0
  9
$CHAMFERD
 40
0.0
  9
$SKPOLY
 70
     0
  9
$TDCREATE
 40
2457723.405356134
  9
$TDUPDATE
 40
2457723.405356146
  9
$TDINDWG
 40
0.0000000116
  9
$TDUSRTIMER
 40
0.0000000116
  9
$USRTIMER
 70
     1
  9
$ANGBASE
 50
0.0
  9
$ANGDIR
 70
     0
  9
$PDMODE
 70
     0
  9
$PDSIZE
 40
0.0
  9
$PLINEWID
 40
0.0
  9
$COORDS
 70
     1
  9
$SPLFRAME
 70
     0
  9
$SPLINETYPE
 70
     6
  9
$SPLINESEGS
 70
     8
  9
$ATTDIA
 70
     0
  9
$ATTREQ
 70
     1
  9
$HANDLING
 70
     1
  9
$HANDSEED
  5
5D3
  9
$SURFTAB1
 70
     6
  9
$SURFTAB2
 70
     6
  9
$SURFTYPE
 70
     6
  9
$SURFU
 70
     6
  9
$SURFV
 70
     6
  9
$UCSNAME
  2

  9
$UCSORG
 10
0.0
 20
0.0
 30
0.0
  9
$UCSXDIR
 10
1.0
 20
0.0
 30
0.0
  9
$UCSYDIR
 10
0.0
 20
1.0
 30
0.0
  9
$PUCSNAME
  2

  9
$PUCSORG
 10
0.0
 20
0.0
 30
0.0
  9
$PUCSXDIR
 10
1.0
 20
0.0
 30
0.0
  9
$PUCSYDIR
 10
0.0
 20
1.0
 30
0.0
  9
$USERI1
 70
     0
  9
$USERI2
 70
     0
  9
$USERI3
 70
     0
  9
$USERI4
 70
     0
  9
$USERI5
 70
     0
  9
$USERR1
 40
0.0
  9
$USERR2
 40
0.0
  9
$USERR3
 40
0.0
  9
$USERR4
 40
0.0
  9
$USERR5
 40
0.0
  9
$WORLDVIEW
 70
     1
  9
$SHADEDGE
 70
     3
  9
$SHADEDIF
 70
    70
  9
$TILEMODE
 70
     1
  9
$MAXACTVP
 70
    64
  9
$PINSBASE
 10
0.0
 20
0.0
 30
0.0
  9
$PLIMCHECK
 70
     0
  9
$PEXTMIN
 10
1.000000000000000E+20
 20
1.000000000000000E+20
 30
1.000000000000000E+20
  9
$PEXTMAX
 10
-1.000000000000000E+20
 20
-1.000000000000000E+20
 30
-1.000000000000000E+20
  9
$PLIMMIN
 10
0.0
 20
0.0
  9
$PLIMMAX
 10
12.0
 20
9.0
  9
$UNITMODE
 70
     0
  9
$VISRETAIN
 70
     1
  9
$PLINEGEN
 70
     0
  9
$PSLTSCALE
 70
     1
  9
$TREEDEPTH
 70
  3020
  9
$PICKSTYLE
 70
     1
  9
$CMLSTYLE
  2
STANDARD
  9
$CMLJUST
 70
     0
  9
$CMLSCALE
 40
1.0
  9
$PROXYGRAPHICS
 70
     1
  9
$MEASUREMENT
 70
     0
  0
ENDSEC
  0
SECTION
  2
CLASSES
  0
CLASS
  1
ACDBDICTIONARYWDFLT
  2
AcDbDictionaryWithDefault
  3
ObjectDBX Classes
 90
        0
280
     0
281
     0
  0
CLASS
  1
VISUALSTYLE
  2
AcDbVisualStyle
  3
ObjectDBX Classes
 90
     4095
280
     0
281
     0
  0
CLASS
  1
XRECORD
  2
AcDbXrecord
  3
AutoCAD 2000
 90
        0
280
     0
281
     0
  0
CLASS
  1
LWPOLYLINE
  2
AcDbPolyline
  3
AutoCAD 2000
 90
        0
280
     0
281
     1
  0
CLASS
  1
HATCH
  2
AcDbHatch
  3
AutoCAD 2000
 90
        0
280
     0
281
     1
  0
CLASS
  1
ACDBPLACEHOLDER
  2
AcDbPlaceHolder
  3
ObjectDBX Classes
 90
        0
280
     0
281
     0
  0
CLASS
  1
LAYOUT
  2
AcDbLayout
  3
ObjectDBX Classes
 90
        0
280
     0
281
     0
  0
ENDSEC
  0
SECTION
  2
TABLES
  0
TABLE
  2
VPORT
  5
8
330
0
100
AcDbSymbolTable
 70
     1
  0
VPORT
  5
29
330
8
100
AcDbSymbolTableRecord
100
AcDbViewportTableRecord
  2
*ACTIVE
 70
     0
 10
0.0
 20
0.0
 11
1.0
 21
1.0
 12
0.0
 22
0.0
 13
0.0
 23
0.0
 14
0.5
 24
0.5
 15
0.5
 25
0.5
 16
0.0
 26
0.0
 36
1.0
 17
-8.316891138328762
 27
203.8042696973128
 37
0.0
 40
29.6495252747057
 41
1.800314885607054
 42
50.0
 43
0.0
 44
0.0
 50
0.0
 51
0.0
 71
     0
 72
   100
 73
     1
 74
     3
 75
     0
 76
     0
 77
     0
 78
     0
  0
ENDTAB
  0
TABLE
  2
LTYPE
  5
5
330
0
100
AcDbSymbolTable
 70
     1
  0
LTYPE
  5
14
330
5
100
AcDbSymbolTableRecord
100
AcDbLinetypeTableRecord
  2
BYBLOCK
 70
     0
  3

 72
    65
 73
     0
 40
0.0
  0
LTYPE
  5
15
330
5
100
AcDbSymbolTableRecord
100
AcDbLinetypeTableRecord
  2
BYLAYER
 70
     0
  3

 72
    65
 73
     0
 40
0.0
  0
LTYPE
  5
16
330
5
100
AcDbSymbolTableRecord
100
AcDbLinetypeTableRecord
  2
CONTINUOUS
 70
     0
  3
Solid line
 72
    65
 73
     0
 40
0.0
  0
ENDTAB
  0
TABLE
  2
LAYER
  5
2
330
0
100
AcDbSymbolTable
 70
     5
  0
LAYER
  5
10
330
2
100
AcDbSymbolTableRecord
100
AcDbLayerTableRecord
  2
0
 70
     0
 62
     7
  6
CONTINUOUS
  0
LAYER
  5
3B
330
2
100
AcDbSymbolTableRecord
100
AcDbLayerTableRecord
  2
GRAU_10_
 70
     0
 62
     7
  6
CONTINUOUS
  0
LAYER
  5
3C
330
2
100
AcDbSymbolTableRecord
100
AcDbLayerTableRecord
  2
STANDARDEBENE
 70
     0
 62
     7
  6
CONTINUOUS
  0
LAYER
  5
308
330
2
100
AcDbSymbolTableRecord
100
AcDbLayerTableRecord
  2
BEMAßUNG
 70
     1
 62
     7
  6
CONTINUOUS
  0
LAYER
  5
55E
330
2
100
AcDbSymbolTableRecord
100
AcDbLayerTableRecord
  2
TEXT
 70
     1
 62
     7
  6
CONTINUOUS
  0
ENDTAB
  0
TABLE
  2
STYLE
  5
3
330
0
100
AcDbSymbolTable
 70
     1
  0
STYLE
  5
11
330
3
100
AcDbSymbolTableRecord
100
AcDbTextStyleTableRecord
  2
STANDARD
 70
     0
 40
0.0
 41
1.0
 50
0.0
 71
     0
 42
0.2
  3
txt
  4

  0
ENDTAB
  0
TABLE
  2
VIEW
  5
6
330
0
100
AcDbSymbolTable
 70
     0
  0
ENDTAB
  0
TABLE
  2
UCS
  5
7
330
0
100
AcDbSymbolTable
 70
     0
  0
ENDTAB
  0
TABLE
  2
APPID
  5
9
330
0
100
AcDbSymbolTable
 70
     1
  0
APPID
  5
12
330
9
100
AcDbSymbolTableRecord
100
AcDbRegAppTableRecord
  2
ACAD
 70
     0
  0
ENDTAB
  0
TABLE
  2
DIMSTYLE
  5
A
330
0
100
AcDbSymbolTable
 70
     1
  0
DIMSTYLE
105
27
330
A
100
AcDbSymbolTableRecord
100
AcDbDimStyleTableRecord
  2
STANDARD
 70
     0
  3

  4

  5

  6

  7

 40
1.0
 41
0.18
 42
0.0625
 43
0.38
 44
0.18
 45
0.0
 46
0.0
 47
0.0
 48
0.0
140
0.18
141
0.09
142
0.0
143
25.4
144
1.0
145
0.0
146
1.0
147
0.09
 71
     0
 72
     0
 73
     1
 74
     1
 75
     0
 76
     0
 77
     0
 78
     0
170
     0
171
     2
172
     0
173
     0
174
     0
175
     0
176
     0
177
     0
178
     0
270
     2
271
     4
272
     4
273
     2
274
     2
340
11
275
     0
280
     0
281
     0
282
     0
283
     1
284
     0
285
     0
286
     0
287
     3
288
     0
  0
ENDTAB
  0
TABLE
  2
BLOCK_RECORD
  5
1
330
0
100
AcDbSymbolTable
 70
     7
  0
BLOCK_RECORD
  5
1F
330
1
100
AcDbSymbolTableRecord
100
AcDbBlockTableRecord
  2
*MODEL_SPACE
  0
BLOCK_RECORD
  5
1B
330
1
100
AcDbSymbolTableRecord
100
AcDbBlockTableRecord
  2
*PAPER_SPACE
  0
BLOCK_RECORD
  5
3D
330
1
100
AcDbSymbolTableRecord
100
AcDbBlockTableRecord
  2
BLOCK_2
  0
BLOCK_RECORD
  5
41
330
1
100
AcDbSymbolTableRecord
100
AcDbBlockTableRecord
  2
BLOCK_3
  0
BLOCK_RECORD
  5
45
330
1
100
AcDbSymbolTableRecord
100
AcDbBlockTableRecord
  2
BLOCK_4
  0
BLOCK_RECORD
  5
55F
330
1
100
AcDbSymbolTableRecord
100
AcDbBlockTableRecord
  2
BLOCK_5
  0
BLOCK_RECORD
  5
569
330
1
100
AcDbSymbolTableRecord
100
AcDbBlockTableRecord
  2
BLOCK_6
  0
BLOCK_RECORD
  5
5A6
330
1
100
AcDbSymbolTableRecord
100
AcDbBlockTableRecord
  2
BLOCK_7
  0
ENDTAB
  0
ENDSEC
  0
SECTION
  2
BLOCKS
  0
BLOCK
  5
20
330
1F
100
AcDbEntity
  8
0
100
AcDbBlockBegin
  2
*MODEL_SPACE
 70
     0
 71
     0
 10
0.0
 20
0.0
 30
0.0
  3
*MODEL_SPACE
  1

  0
ENDBLK
  5
21
330
1F
100
AcDbEntity
  8
0
100
AcDbBlockEnd
  0
BLOCK
  5
1C
330
1B
100
AcDbEntity
 67
     1
  8
0
100
AcDbBlockBegin
  2
*PAPER_SPACE
 70
     0
 71
     0
 10
0.0
 20
0.0
 30
0.0
  3
*PAPER_SPACE
  1

  0
ENDBLK
  5
1D
330
1B
100
AcDbEntity
 67
     1
  8
0
100
AcDbBlockEnd
  0
BLOCK
  5
3F
330
3D
100
AcDbEntity
  8
0
100
AcDbBlockBegin
  2
BLOCK_2
 70
     0
 71
     0
 10
0.0
 20
0.0
 30
0.0
  3
BLOCK_2
  1

  0
INSERT
  5
42
330
3D
100
AcDbEntity
  8
STANDARDEBENE
100
AcDbBlockReference
  2
BLOCK_3
 10
0.0
 20
0.0
 30
0.0
  0
INSERT
  5
46
330
3D
100
AcDbEntity
  8
STANDARDEBENE
100
AcDbBlockReference
  2
BLOCK_4
 10
0.0
 20
0.0
 30
0.0
  0
ENDBLK
  5
40
330
3D
100
AcDbEntity
  8
0
100
AcDbBlockEnd
  0
BLOCK
  5
43
330
41
100
AcDbEntity
  8
0
100
AcDbBlockBegin
  2
BLOCK_3
 70
     0
 71
     0
 10
0.0
 20
0.0
 30
0.0
  3
BLOCK_3
  1

  0
ENDBLK
  5
44
330
41
100
AcDbEntity
  8
0
100
AcDbBlockEnd
  0
BLOCK
  5
47
330
45
100
AcDbEntity
  8
0
100
AcDbBlockBegin
  2
BLOCK_4
 70
     0
 71
     0
 10
0.0
 20
0.0
 30
0.0
  3
BLOCK_4
  1

  0
POLYLINE
  5
49
330
45
100
AcDbEntity
  8
STANDARDEBENE
 62
     7
100
AcDb2dPolyline
 66
     1
 10
0.0
 20
0.0
 30
0.0
  0
VERTEX
  5
4A
330
49
100
AcDbEntity
  8
STANDARDEBENE
 62
     7
100
AcDbVertex
100
AcDb2dVertex
 10
-27.06622042509109
 20
202.3204670718157
 30
0.0
  0
VERTEX
  5
4B
330
49
100
AcDbEntity
  8
STANDARDEBENE
 62
     7
100
AcDbVertex
100
AcDb2dVertex
 10
-19.67907443084412
 20
197.7662230950897
 30
0.0
  0
SEQEND
  5
4C
330
49
100
AcDbEntity
  8
STANDARDEBENE
  0
POLYLINE
  5
4D
330
45
100
AcDbEntity
  8
STANDARDEBENE
 62
     7
100
AcDb2dPolyline
 66
     1
 10
0.0
 20
0.0
 30
0.0
  0
VERTEX
  5
4E
330
4D
100
AcDbEntity
  8
STANDARDEBENE
 62
     7
100
AcDbVertex
100
AcDb2dVertex
 10
-19.47443575902028
 20
193.995049322161
 30
0.0
  0
VERTEX
  5
4F
330
4D
100
AcDbEntity
  8
STANDARDEBENE
 62
     7
100
AcDbVertex
100
AcDb2dVertex
 10
-19.36160888187835
 20
193.9914319719014
 30
0.0
  0
SEQEND
  5
50
330
4D
100
AcDbEntity
  8
STANDARDEBENE
  0
POLYLINE
  5
51
330
45
100
AcDbEntity
  8
STANDARDEBENE
 62
     7
100
AcDb2dPolyline
 66
     1
 10
0.0
 20
0.0
 30
0.0
  0
VERTEX
  5
52
330
51
100
AcDbEntity
  8
STANDARDEBENE
 62
     7
100
AcDbVertex
100
AcDb2dVertex
 10
-9.720164656858154
 20
197.187619308342
 30
0.0
  0
VERTEX
  5
53
330
51
100
AcDbEntity
  8
STANDARDEBENE
 62
     7
100
AcDbVertex
100
AcDb2dVertex
 10
-9.713102211113391
 20
196.5032510901971
 30
0.0
  0
SEQEND
  5
54
330
51
100
AcDbEntity
  8
STANDARDEBENE
  0
POLYLINE
  5
55
330
45
100
AcDbEntity
  8
STANDARDEBENE
 62
     7
100
AcDb2dPolyline
 66
     1
 10
0.0
 20
0.0
 30
0.0
  0
VERTEX
  5
56
330
55
100
AcDbEntity
  8
STANDARDEBENE
 62
     7
100
AcDbVertex
100
AcDb2dVertex
 10
-9.727227102602916
 20
198.0659464023065
 30
0.0
  0
VERTEX
  5
57
330
55
100
AcDbEntity
  8
STANDARDEBENE
 62
     7
100
AcDbVertex
100
AcDb2dVertex
 10
-9.720164656858154
 20
197.2193141868063
 30
0.0
  0
SEQEND
  5
58
330
55
100
AcDbEntity
  8
STANDARDEBENE
  0
POLYLINE
  5
59
330
45
100
AcDbEntity
  8
STANDARDEBENE
 62
     7
100
AcDb2dPolyline
 66
     1
 10
0.0
 20
0.0
 30
0.0
  0
VERTEX
  5
5A
330
59
100
AcDbEntity
  8
STANDARDEBENE
 62
     7
100
AcDbVertex
100
AcDb2dVertex
 10
31.69591199294408
 20
180.9352091019016
 30
0.0
  0
VERTEX
  5
5B
330
59
100
AcDbEntity
  8
STANDARDEBENE
 62
     7
100
AcDbVertex
100
AcDb2dVertex
 10
31.69591199294408
 20
181.7007093187241
 30
0.0
  0
VERTEX
  5
5C
330
59
100
AcDbEntity
  8
STANDARDEBENE
 62
     7
100
AcDbVertex
100
AcDb2dVertex
 10
31.69591199294408
 20
189.4830077651293
 30
0.0
  0
SEQEND
  5
5D
330
59
100
AcDbEntity
  8
STANDARDEBENE
  0
POLYLINE
  5
5E
330
45
100
AcDbEntity
  8
STANDARDEBENE
 62
     7
100
AcDb2dPolyline
 66
     1
 10
0.0
 20
0.0
 30
0.0
  0
VERTEX
  5
5F
330
5E
100
AcDbEntity
  8
STANDARDEBENE
 62
     7
100
AcDbVertex
100
AcDb2dVertex
 10
-18.11982421422005
 20
196.9583482037986
 30
0.0
  0
VERTEX
  5
60
330
5E
100
AcDbEntity
  8
STANDARDEBENE
 62
     7
100
AcDbVertex
100
AcDb2dVertex
 10
-17.91156819213669
 20
193.1377373106565
 30
0.0
  0
SEQEND
  5
61
330
5E
100
AcDbEntity
  8
STANDARDEBENE
  0
POLYLINE
  5
62
330
45
100
AcDbEntity
  8
STANDARDEBENE
 62
     7
100
AcDb2dPolyline
 66
     1
 10
0.0
 20
0.0
 30
0.0
  0
VERTEX
  5
63
330
62
100
AcDbEntity
  8
STANDARDEBENE
 62
     7
100
AcDbVertex
100
AcDb2dVertex
 10
-18.3032755488096
 20
180.9352091019016
 30
0.0
  0
VERTEX
  5
64
330
62
100
AcDbEntity
  8
STANDARDEBENE
 62
     7
100
AcDbVertex
100
AcDb2dVertex
 10
31.69591199294408
 20
180.9352091019016
 30
0.0
  0
SEQEND
  5
65
330
62
100
AcDbEntity
  8
STANDARDEBENE
  0
POLYLINE
  5
66
330
45
100
AcDbEntity
  8
STANDARDEBENE
 62
     7
100
AcDb2dPolyline
 66
     1
 10
0.0
 20
0.0
 30
0.0
  0
VERTEX
  5
67
330
66
100
AcDbEntity
  8
STANDARDEBENE
 62
     7
100
AcDbVertex
100
AcDb2dVertex
 10
-18.39491508871724
 20
197.1276746468986
 30
0.0
  0
VERTEX
  5
68
330
66
100
AcDbEntity
  8
STANDARDEBENE
 62
     7
100
AcDbVertex
100
AcDb2dVertex
 10
-18.19389376715291
 20
193.384750656949
 30
0.0
  0
SEQEND
  5
69
330
66
100
AcDbEntity
  8
STANDARDEBENE
  0
POLYLINE
  5
6A
330
45
100
AcDbEntity
  8
STANDARDEBENE
 62
     7
100
AcDb2dPolyline
 66
     1
 10
0.0
 20
0.0
 30
0.0
  0
VERTEX
  5
6B
330
6A
100
AcDbEntity
  8
STANDARDEBENE
 62
     7
100
AcDbVertex
100
AcDb2dVertex
 10
-19.36160888187835
 20
193.9914319719014
 30
0.0
  0
VERTEX
  5
6C
330
6A
100
AcDbEntity
  8
STANDARDEBENE
 62
     7
100
AcDbVertex
100
AcDb2dVertex
 10
-18.75131021666634
 20
193.3528835237104
 30
0.0
  0
SEQEND
  5
6D
330
6A
100
AcDbEntity
  8
STANDARDEBENE
  0
POLYLINE
  5
6E
330
45
100
AcDbEntity
  8
STANDARDEBENE
 62
     7
100
AcDb2dPolyline
 66
     1
 10
0.0
 20
0.0
 30
0.0
  0
VERTEX
  5
6F
330
6E
100
AcDbEntity
  8
STANDARDEBENE
 62
     7
100
AcDbVertex
100
AcDb2dVertex
 10
-18.95577663371592
 20
197.1135497554091
 30
0.0
  0
VERTEX
  5
70
330
6E
100
AcDbEntity
  8
STANDARDEBENE
 62
     7
100
AcDbVertex
100
AcDb2dVertex
 10
-18.75131021666634
 20
193.3528835237104
 30
0.0
  0
VERTEX
  5
71
330
6E
100
AcDbEntity
  8
STANDARDEBENE
 62
     7
100
AcDbVertex
100
AcDb2dVertex
 10
-18.75131021666634
 20
193.3494384282251
 30
0.0
  0
SEQEND
  5
72
330
6E
100
AcDbEntity
  8
STANDARDEBENE
  0
POLYLINE
  5
73
330
45
100
AcDbEntity
  8
STANDARDEBENE
 62
     7
100
AcDb2dPolyline
 66
     1
 10
0.0
 20
0.0
 30
0.0
  0
VERTEX
  5
74
330
73
100
AcDbEntity
  8
STANDARDEBENE
 62
     7
100
AcDbVertex
100
AcDb2dVertex
 10
-18.60661620628585
 20
181.2385497593779
 30
0.0
  0
VERTEX
  5
75
330
73
100
AcDbEntity
  8
STANDARDEBENE
 62
     7
100
AcDbVertex
100
AcDb2dVertex
 10
-15.86552598344681
 20
181.7007093187241
 30
0.0
  0
SEQEND
  5
76
330
73
100
AcDbEntity
  8
STANDARDEBENE
  0
POLYLINE
  5
77
330
45
100
AcDbEntity
  8
STANDARDEBENE
 62
     7
100
AcDb2dPolyline
 66
     1
 10
0.0
 20
0.0
 30
0.0
  0
VERTEX
  5
78
330
77
100
AcDbEntity
  8
STANDARDEBENE
 62
     7
100
AcDbVertex
100
AcDb2dVertex
 10
-7.243657767286308
 20
198.4047715432808
 30
0.0
  0
VERTEX
  5
79
330
77
100
AcDbEntity
  8
STANDARDEBENE
 62
     7
100
AcDbVertex
100
AcDb2dVertex
 10
-7.247102862771558
 20
198.4047715432808
 30
0.0
  0
VERTEX
  5
7A
330
77
100
AcDbEntity
  8
STANDARDEBENE
 62
     7
100
AcDbVertex
100
AcDb2dVertex
 10
-8.245491534396962
 20
198.9585706425347
 30
0.0
  0
SEQEND
  5
7B
330
77
100
AcDbEntity
  8
STANDARDEBENE
  0
POLYLINE
  5
7C
330
45
100
AcDbEntity
  8
STANDARDEBENE
 62
     7
100
AcDb2dPolyline
 66
     1
 10
0.0
 20
0.0
 30
0.0
  0
VERTEX
  5
7D
330
7C
100
AcDbEntity
  8
STANDARDEBENE
 62
     7
100
AcDbVertex
100
AcDb2dVertex
 10
-8.750025768211799
 20
199.4029879601319
 30
0.0
  0
VERTEX
  5
7E
330
7C
100
AcDbEntity
  8
STANDARDEBENE
 62
     7
100
AcDbVertex
100
AcDb2dVertex
 10
-8.245491534396962
 20
198.9585706425347
 30
0.0
  0
SEQEND
  5
7F
330
7C
100
AcDbEntity
  8
STANDARDEBENE
  0
POLYLINE
  5
80
330
45
100
AcDbEntity
  8
STANDARDEBENE
 62
     7
100
AcDb2dPolyline
 66
     1
 10
0.0
 20
0.0
 30
0.0
  0
VERTEX
  5
81
330
80
100
AcDbEntity
  8
STANDARDEBENE
 62
     7
100
AcDbVertex
100
AcDb2dVertex
 10
-4.467255315723464
 20
202.482731069171
 30
0.0
  0
VERTEX
  5
82
330
80
100
AcDbEntity
  8
STANDARDEBENE
 62
     7
100
AcDbVertex
100
AcDb2dVertex
 10
-14.13694932372271
 20
209.2561333027207
 30
0.0
  0
SEQEND
  5
83
330
80
100
AcDbEntity
  8
STANDARDEBENE
  0
POLYLINE
  5
84
330
45
100
AcDbEntity
  8
STANDARDEBENE
 62
     7
100
AcDb2dPolyline
 66
     1
 10
0.0
 20
0.0
 30
0.0
  0
VERTEX
  5
85
330
84
100
AcDbEntity
  8
STANDARDEBENE
 62
     7
100
AcDbVertex
100
AcDb2dVertex
 10
-15.1317206450886
 20
209.4960842032683
 30
0.0
  0
VERTEX
  5
86
330
84
100
AcDbEntity
  8
STANDARDEBENE
 62
     7
100
AcDbVertex
100
AcDb2dVertex
 10
-14.3133382125675
 20
194.333702208361
 30
0.0
  0
SEQEND
  5
87
330
84
100
AcDbEntity
  8
STANDARDEBENE
  0
POLYLINE
  5
88
330
45
100
AcDbEntity
  8
STANDARDEBENE
 62
     7
100
AcDb2dPolyline
 66
     1
 10
0.0
 20
0.0
 30
0.0
  0
VERTEX
  5
89
330
88
100
AcDbEntity
  8
STANDARDEBENE
 62
     7
100
AcDbVertex
100
AcDb2dVertex
 10
-18.19389376715291
 20
193.384750656949
 30
0.0
  0
VERTEX
  5
8A
330
88
100
AcDbEntity
  8
STANDARDEBENE
 62
     7
100
AcDbVertex
100
AcDb2dVertex
 10
-17.91156819213669
 20
193.1377373106565
 30
0.0
  0
SEQEND
  5
8B
330
88
100
AcDbEntity
  8
STANDARDEBENE
  0
POLYLINE
  5
8C
330
45
100
AcDbEntity
  8
STANDARDEBENE
 62
     7
100
AcDb2dPolyline
 66
     1
 10
0.0
 20
0.0
 30
0.0
  0
VERTEX
  5
8D
330
8C
100
AcDbEntity
  8
STANDARDEBENE
 62
     7
100
AcDbVertex
100
AcDb2dVertex
 10
-26.72050509314627
 20
189.3488212959788
 30
0.0
  0
VERTEX
  5
8E
330
8C
100
AcDbEntity
  8
STANDARDEBENE
 62
     7
100
AcDbVertex
100
AcDb2dVertex
 10
-27.3449286498478
 20
201.2657510890065
 30
0.0
  0
SEQEND
  5
8F
330
8C
100
AcDbEntity
  8
STANDARDEBENE
  0
POLYLINE
  5
90
330
45
100
AcDbEntity
  8
STANDARDEBENE
 62
     7
100
AcDb2dPolyline
 66
     1
 10
0.0
 20
0.0
 30
0.0
  0
VERTEX
  5
91
330
90
100
AcDbEntity
  8
STANDARDEBENE
 62
     7
100
AcDbVertex
100
AcDb2dVertex
 10
-15.86552598344681
 20
181.7007093187241
 30
0.0
  0
VERTEX
  5
92
330
90
100
AcDbEntity
  8
STANDARDEBENE
 62
     7
100
AcDbVertex
100
AcDb2dVertex
 10
2.468410915181508
 20
202.482731069171
 30
0.0
  0
SEQEND
  5
93
330
90
100
AcDbEntity
  8
STANDARDEBENE
  0
POLYLINE
  5
94
330
45
100
AcDbEntity
  8
STANDARDEBENE
 62
     7
100
AcDb2dPolyline
 66
     1
 10
0.0
 20
0.0
 30
0.0
  0
VERTEX
  5
95
330
94
100
AcDbEntity
  8
STANDARDEBENE
 62
     7
100
AcDbVertex
100
AcDb2dVertex
 10
-10.235206431903
 20
198.5105359746779
 30
0.0
  0
VERTEX
  5
96
330
94
100
AcDbEntity
  8
STANDARDEBENE
 62
     7
100
AcDbVertex
100
AcDb2dVertex
 10
-9.727227102602916
 20
198.0659464023065
 30
0.0
  0
SEQEND
  5
97
330
94
100
AcDbEntity
  8
STANDARDEBENE
  0
POLYLINE
  5
98
330
45
100
AcDbEntity
  8
STANDARDEBENE
 62
     7
100
AcDb2dPolyline
 66
     1
 10
0.0
 20
0.0
 30
0.0
  0
VERTEX
  5
99
330
98
100
AcDbEntity
  8
STANDARDEBENE
 62
     7
100
AcDbVertex
100
AcDb2dVertex
 10
-8.989804413985189
 20
198.5105359746779
 30
0.0
  0
VERTEX
  5
9A
330
98
100
AcDbEntity
  8
STANDARDEBENE
 62
     7
100
AcDbVertex
100
AcDb2dVertex
 10
-9.727227102602916
 20
198.0659464023065
 30
0.0
  0
SEQEND
  5
9B
330
98
100
AcDbEntity
  8
STANDARDEBENE
  0
POLYLINE
  5
9C
330
45
100
AcDbEntity
  8
STANDARDEBENE
 62
     7
100
AcDb2dPolyline
 66
     1
 10
0.0
 20
0.0
 30
0.0
  0
VERTEX
  5
9D
330
9C
100
AcDbEntity
  8
STANDARDEBENE
 62
     7
100
AcDbVertex
100
AcDb2dVertex
 10
-8.245491534396962
 20
198.9585706425347
 30
0.0
  0
VERTEX
  5
9E
330
9C
100
AcDbEntity
  8
STANDARDEBENE
 62
     7
100
AcDbVertex
100
AcDb2dVertex
 10
-8.986359318499938
 20
198.5105359746779
 30
0.0
  0
SEQEND
  5
9F
330
9C
100
AcDbEntity
  8
STANDARDEBENE
  0
POLYLINE
  5
A0
330
45
100
AcDbEntity
  8
STANDARDEBENE
 62
     7
100
AcDb2dPolyline
 66
     1
 10
0.0
 20
0.0
 30
0.0
  0
VERTEX
  5
A1
330
A0
100
AcDbEntity
  8
STANDARDEBENE
 62
     7
100
AcDbVertex
100
AcDb2dVertex
 10
31.69591199294408
 20
189.4830077651293
 30
0.0
  0
VERTEX
  5
A2
330
A0
100
AcDbEntity
  8
STANDARDEBENE
 62
     7
100
AcDbVertex
100
AcDb2dVertex
 10
18.69601643412808
 20
202.482731069171
 30
0.0
  0
VERTEX
  5
A3
330
A0
100
AcDbEntity
  8
STANDARDEBENE
 62
     7
100
AcDbVertex
100
AcDb2dVertex
 10
2.468410915181508
 20
202.482731069171
 30
0.0
  0
VERTEX
  5
A4
330
A0
100
AcDbEntity
  8
STANDARDEBENE
 62
     7
100
AcDbVertex
100
AcDb2dVertex
 10
-4.467255315723464
 20
202.482731069171
 30
0.0
  0
SEQEND
  5
A5
330
A0
100
AcDbEntity
  8
STANDARDEBENE
  0
POLYLINE
  5
A6
330
45
100
AcDbEntity
  8
STANDARDEBENE
 62
     7
100
AcDb2dPolyline
 66
     1
 10
0.0
 20
0.0
 30
0.0
  0
VERTEX
  5
A7
330
A6
100
AcDbEntity
  8
STANDARDEBENE
 62
     7
100
AcDbVertex
100
AcDb2dVertex
 10
-18.3032755488096
 20
180.9352091019016
 30
0.0
  0
VERTEX
  5
A8
330
A6
100
AcDbEntity
  8
STANDARDEBENE
 62
     7
100
AcDbVertex
100
AcDb2dVertex
 10
-18.60661620628585
 20
181.2385497593779
 30
0.0
  0
VERTEX
  5
A9
330
A6
100
AcDbEntity
  8
STANDARDEBENE
 62
     7
100
AcDbVertex
100
AcDb2dVertex
 10
-18.6100613017711
 20
181.2385497593779
 30
0.0
  0
VERTEX
  5
AA
330
A6
100
AcDbEntity
  8
STANDARDEBENE
 62
     7
100
AcDbVertex
100
AcDb2dVertex
 10
-26.72050509314627
 20
189.3488212959788
 30
0.0
  0
SEQEND
  5
AB
330
A6
100
AcDbEntity
  8
STANDARDEBENE
  0
POLYLINE
  5
AC
330
45
100
AcDbEntity
  8
STANDARDEBENE
 62
     7
100
AcDb2dPolyline
 66
     1
 10
0.0
 20
0.0
 30
0.0
  0
VERTEX
  5
AD
330
AC
100
AcDbEntity
  8
STANDARDEBENE
 62
     7
100
AcDbVertex
100
AcDb2dVertex
 10
-14.26751844261368
 20
209.2807657354402
 30
0.0
  0
VERTEX
  5
AE
330
AC
100
AcDbEntity
  8
STANDARDEBENE
 62
     7
100
AcDbVertex
100
AcDb2dVertex
 10
-14.13694932372271
 20
209.2561333027207
 30
0.0
  0
SEQEND
  5
AF
330
AC
100
AcDbEntity
  8
STANDARDEBENE
  0
POLYLINE
  5
B0
330
45
100
AcDbEntity
  8
STANDARDEBENE
 62
     7
100
AcDb2dPolyline
 66
     1
 10
0.0
 20
0.0
 30
0.0
  0
VERTEX
  5
B1
330
B0
100
AcDbEntity
  8
STANDARDEBENE
 62
     7
100
AcDbVertex
100
AcDb2dVertex
 10
-19.56969264918744
 20
197.8154879605288
 30
0.0
  0
VERTEX
  5
B2
330
B0
100
AcDbEntity
  8
STANDARDEBENE
 62
     7
100
AcDbVertex
100
AcDb2dVertex
 10
-18.95577663371592
 20
197.1135497554091
 30
0.0
  0
SEQEND
  5
B3
330
B0
100
AcDbEntity
  8
STANDARDEBENE
  0
POLYLINE
  5
B4
330
45
100
AcDbEntity
  8
STANDARDEBENE
 62
     7
100
AcDb2dPolyline
 66
     1
 10
0.0
 20
0.0
 30
0.0
  0
VERTEX
  5
B5
330
B4
100
AcDbEntity
  8
STANDARDEBENE
 62
     7
100
AcDbVertex
100
AcDb2dVertex
 10
-27.3449286498478
 20
201.2657510890065
 30
0.0
  0
VERTEX
  5
B6
330
B4
100
AcDbEntity
  8
STANDARDEBENE
 62
     7
100
AcDbVertex
100
AcDb2dVertex
 10
-27.2884290838897
 20
201.4526475190813
 30
0.0
  0
SEQEND
  5
B7
330
B4
100
AcDbEntity
  8
STANDARDEBENE
  0
POLYLINE
  5
B8
330
45
100
AcDbEntity
  8
STANDARDEBENE
 62
     7
100
AcDb2dPolyline
 66
     1
 10
0.0
 20
0.0
 30
0.0
  0
VERTEX
  5
B9
330
B8
100
AcDbEntity
  8
STANDARDEBENE
 62
     7
100
AcDbVertex
100
AcDb2dVertex
 10
-15.86552598344681
 20
181.7007093187241
 30
0.0
  0
VERTEX
  5
BA
330
B8
100
AcDbEntity
  8
STANDARDEBENE
 62
     7
100
AcDbVertex
100
AcDb2dVertex
 10
31.69591199294408
 20
181.7007093187241
 30
0.0
  0
SEQEND
  5
BB
330
B8
100
AcDbEntity
  8
STANDARDEBENE
  0
POLYLINE
  5
BC
330
45
100
AcDbEntity
  8
STANDARDEBENE
 62
     7
100
AcDb2dPolyline
 66
     1
 10
0.0
 20
0.0
 30
0.0
  0
VERTEX
  5
BD
330
BC
100
AcDbEntity
  8
STANDARDEBENE
 62
     7
100
AcDbVertex
100
AcDb2dVertex
 10
-19.67907443084412
 20
197.7662230950897
 30
0.0
  0
VERTEX
  5
BE
330
BC
100
AcDbEntity
  8
STANDARDEBENE
 62
     7
100
AcDbVertex
100
AcDb2dVertex
 10
-19.47443575902028
 20
193.995049322161
 30
0.0
  0
SEQEND
  5
BF
330
BC
100
AcDbEntity
  8
STANDARDEBENE
  0
POLYLINE
  5
C0
330
45
100
AcDbEntity
  8
STANDARDEBENE
 62
     2
100
AcDb2dPolyline
 66
     1
 10
0.0
 20
0.0
 30
0.0
  0
VERTEX
  5
C1
330
C0
100
AcDbEntity
  8
STANDARDEBENE
 62
     2
100
AcDbVertex
100
AcDb2dVertex
 10
-28.20568575683747
 20
215.3839246423346
 30
0.0
  0
VERTEX
  5
C2
330
C0
100
AcDbEntity
  8
STANDARDEBENE
 62
     2
100
AcDbVertex
100
AcDb2dVertex
 10
-27.83533799217311
 20
207.7180704233309
 30
0.0
  0
VERTEX
  5
C3
330
C0
100
AcDbEntity
  8
STANDARDEBENE
 62
     2
100
AcDbVertex
100
AcDb2dVertex
 10
-27.70476887328214
 20
204.9840426462366
 30
0.0
  0
SEQEND
  5
C4
330
C0
100
AcDbEntity
  8
STANDARDEBENE
  0
POLYLINE
  5
C5
330
45
100
AcDbEntity
  8
STANDARDEBENE
 62
     7
100
AcDb2dPolyline
 66
     1
 10
0.0
 20
0.0
 30
0.0
  0
VERTEX
  5
C6
330
C5
100
AcDbEntity
  8
STANDARDEBENE
 62
     7
100
AcDbVertex
100
AcDb2dVertex
 10
-10.47515733245065
 20
197.6461615174287
 30
0.0
  0
VERTEX
  5
C7
330
C5
100
AcDbEntity
  8
STANDARDEBENE
 62
     7
100
AcDbVertex
100
AcDb2dVertex
 10
-10.46809488670589
 20
197.8154879605288
 30
0.0
  0
VERTEX
  5
C8
330
C5
100
AcDbEntity
  8
STANDARDEBENE
 62
     7
100
AcDbVertex
100
AcDb2dVertex
 10
-10.4432901992121
 20
197.9848144036288
 30
0.0
  0
VERTEX
  5
C9
330
C5
100
AcDbEntity
  8
STANDARDEBENE
 62
     7
100
AcDbVertex
100
AcDb2dVertex
 10
-10.40453287500303
 20
198.1506957512436
 30
0.0
  0
VERTEX
  5
CA
330
C5
100
AcDbEntity
  8
STANDARDEBENE
 62
     7
100
AcDbVertex
100
AcDb2dVertex
 10
-10.34803330904494
 20
198.3129597485988
 30
0.0
  0
VERTEX
  5
CB
330
C5
100
AcDbEntity
  8
STANDARDEBENE
 62
     7
100
AcDbVertex
100
AcDb2dVertex
 10
-10.27758110637158
 20
198.4681613002093
 30
0.0
  0
VERTEX
  5
CC
330
C5
100
AcDbEntity
  8
STANDARDEBENE
 62
     7
100
AcDbVertex
100
AcDb2dVertex
 10
-10.24933132339253
 20
198.5175984204227
 30
0.0
  0
VERTEX
  5
CD
330
C5
100
AcDbEntity
  8
STANDARDEBENE
 62
     7
100
AcDbVertex
100
AcDb2dVertex
 10
-10.18938666194918
 20
198.6199177563346
 30
0.0
  0
VERTEX
  5
CE
330
C5
100
AcDbEntity
  8
STANDARDEBENE
 62
     7
100
AcDbVertex
100
AcDb2dVertex
 10
-10.09051242152251
 20
198.7575493209704
 30
0.0
  0
VERTEX
  5
CF
330
C5
100
AcDbEntity
  8
STANDARDEBENE
 62
     7
100
AcDbVertex
100
AcDb2dVertex
 10
-9.977685544380579
 20
198.8845010896018
 30
0.0
  0
VERTEX
  5
D0
330
C5
100
AcDbEntity
  8
STANDARDEBENE
 62
     7
100
AcDbVertex
100
AcDb2dVertex
 10
-9.850733775749122
 20
199.0043904124885
 30
0.0
  0
VERTEX
  5
D1
330
C5
100
AcDbEntity
  8
STANDARDEBENE
 62
     7
100
AcDbVertex
100
AcDb2dVertex
 10
-9.716547306598642
 20
199.1103270986599
 30
0.0
  0
VERTEX
  5
D2
330
C5
100
AcDbEntity
  8
STANDARDEBENE
 62
     7
100
AcDbVertex
100
AcDb2dVertex
 10
-9.57202555099241
 20
199.1985215430823
 30
0.0
  0
VERTEX
  5
D3
330
C5
100
AcDbEntity
  8
STANDARDEBENE
 62
     7
100
AcDbVertex
100
AcDb2dVertex
 10
-9.416823999381906
 20
199.2760361915005
 30
0.0
  0
VERTEX
  5
D4
330
C5
100
AcDbEntity
  8
STANDARDEBENE
 62
     7
100
AcDbVertex
100
AcDb2dVertex
 10
-9.258005097511887
 20
199.3359808529438
 30
0.0
  0
VERTEX
  5
D5
330
C5
100
AcDbEntity
  8
STANDARDEBENE
 62
     7
100
AcDbVertex
100
AcDb2dVertex
 10
-9.092123749897109
 20
199.3818006228976
 30
0.0
  0
VERTEX
  5
D6
330
C5
100
AcDbEntity
  8
STANDARDEBENE
 62
     7
100
AcDbVertex
100
AcDb2dVertex
 10
-8.92279730679708
 20
199.4100504058767
 30
0.0
  0
VERTEX
  5
D7
330
C5
100
AcDbEntity
  8
STANDARDEBENE
 62
     7
100
AcDbVertex
100
AcDb2dVertex
 10
-8.75347086369705
 20
199.4207302018809
 30
0.0
  0
VERTEX
  5
D8
330
C5
100
AcDbEntity
  8
STANDARDEBENE
 62
     7
100
AcDbVertex
100
AcDb2dVertex
 10
-8.58069932511177
 20
199.4171128516214
 30
0.0
  0
VERTEX
  5
D9
330
C5
100
AcDbEntity
  8
STANDARDEBENE
 62
     7
100
AcDbVertex
100
AcDb2dVertex
 10
-8.41137288201174
 20
199.3959255143871
 30
0.0
  0
VERTEX
  5
DA
330
C5
100
AcDbEntity
  8
STANDARDEBENE
 62
     7
100
AcDbVertex
100
AcDb2dVertex
 10
-8.245491534396962
 20
199.3571681901781
 30
0.0
  0
VERTEX
  5
DB
330
C5
100
AcDbEntity
  8
STANDARDEBENE
 62
     7
100
AcDbVertex
100
AcDb2dVertex
 10
-8.086844887301206
 20
199.3042859744795
 30
0.0
  0
VERTEX
  5
DC
330
C5
100
AcDbEntity
  8
STANDARDEBENE
 62
     7
100
AcDbVertex
100
AcDb2dVertex
 10
-7.931471080916438
 20
199.2336615170319
 30
0.0
  0
VERTEX
  5
DD
330
C5
100
AcDbEntity
  8
STANDARDEBENE
 62
     7
100
AcDbVertex
100
AcDb2dVertex
 10
-7.783331975050695
 20
199.149084422869
 30
0.0
  0
VERTEX
  5
DE
330
C5
100
AcDbEntity
  8
STANDARDEBENE
 62
     7
100
AcDbVertex
100
AcDb2dVertex
 10
-7.645872665189227
 20
199.0502101824423
 30
0.0
  0
VERTEX
  5
DF
330
C5
100
AcDbEntity
  8
STANDARDEBENE
 62
     7
100
AcDbVertex
100
AcDb2dVertex
 10
-7.518748641783508
 20
198.9373833053004
 30
0.0
  0
VERTEX
  5
E0
330
C5
100
AcDbEntity
  8
STANDARDEBENE
 62
     7
100
AcDbVertex
100
AcDb2dVertex
 10
-7.402304414382063
 20
198.8138766321542
 30
0.0
  0
VERTEX
  5
E1
330
C5
100
AcDbEntity
  8
STANDARDEBENE
 62
     7
100
AcDbVertex
100
AcDb2dVertex
 10
-7.300157333244406
 20
198.679862417778
 30
0.0
  0
VERTEX
  5
E2
330
C5
100
AcDbEntity
  8
STANDARDEBENE
 62
     7
100
AcDbVertex
100
AcDb2dVertex
 10
-7.268290200005844
 20
198.6304252975646
 30
0.0
  0
VERTEX
  5
E3
330
C5
100
AcDbEntity
  8
STANDARDEBENE
 62
     7
100
AcDbVertex
100
AcDb2dVertex
 10
-7.236595321541546
 20
198.5846055276108
 30
0.0
  0
SEQEND
  5
E4
330
C5
100
AcDbEntity
  8
STANDARDEBENE
  0
POLYLINE
  5
E5
330
45
100
AcDbEntity
  8
STANDARDEBENE
 62
     7
100
AcDb2dPolyline
 66
     1
 10
0.0
 20
0.0
 30
0.0
  0
VERTEX
  5
E6
330
E5
100
AcDbEntity
  8
STANDARDEBENE
 62
     7
100
AcDbVertex
100
AcDb2dVertex
 10
-11.7167697453347
 20
197.6179117344497
 30
0.0
  0
VERTEX
  5
E7
330
E5
100
AcDbEntity
  8
STANDARDEBENE
 62
     7
100
AcDbVertex
100
AcDb2dVertex
 10
-11.69919975835992
 20
197.3428208599525
 30
0.0
  0
VERTEX
  5
E8
330
E5
100
AcDbEntity
  8
STANDARDEBENE
 62
     7
100
AcDbVertex
100
AcDb2dVertex
 10
-11.66044243415086
 20
197.0711750809405
 30
0.0
  0
VERTEX
  5
E9
330
E5
100
AcDbEntity
  8
STANDARDEBENE
 62
     7
100
AcDbVertex
100
AcDb2dVertex
 10
-11.59343532696275
 20
196.8031466521881
 30
0.0
  0
VERTEX
  5
EA
330
E5
100
AcDbEntity
  8
STANDARDEBENE
 62
     7
100
AcDbVertex
100
AcDb2dVertex
 10
-11.50524088254036
 20
196.5456257646657
 30
0.0
  0
VERTEX
  5
EB
330
E5
100
AcDbEntity
  8
STANDARDEBENE
 62
     7
100
AcDbVertex
100
AcDb2dVertex
 10
-11.38879665513891
 20
196.2949950681138
 30
0.0
  0
VERTEX
  5
EC
330
E5
100
AcDbEntity
  8
STANDARDEBENE
 62
     7
100
AcDbVertex
100
AcDb2dVertex
 10
-11.25478244076269
 20
196.0552164223404
 30
0.0
  0
VERTEX
  5
ED
330
E5
100
AcDbEntity
  8
STANDARDEBENE
 62
     7
100
AcDbVertex
100
AcDb2dVertex
 10
-11.09596353889268
 20
195.8330077635418
 30
0.0
  0
VERTEX
  5
EE
330
E5
100
AcDbEntity
  8
STANDARDEBENE
 62
     7
100
AcDbVertex
100
AcDb2dVertex
 10
-10.91957465004788
 20
195.6247517414584
 30
0.0
  0
VERTEX
  5
EF
330
E5
100
AcDbEntity
  8
STANDARDEBENE
 62
     7
100
AcDbVertex
100
AcDb2dVertex
 10
-10.72199842396881
 20
195.4342379611241
 30
0.0
  0
VERTEX
  5
F0
330
E5
100
AcDbEntity
  8
STANDARDEBENE
 62
     7
100
AcDbVertex
100
AcDb2dVertex
 10
-10.50685221091495
 20
195.2614664225388
 30
0.0
  0
VERTEX
  5
F1
330
E5
100
AcDbEntity
  8
STANDARDEBENE
 62
     7
100
AcDbVertex
100
AcDb2dVertex
 10
-10.27758110637158
 20
195.1097099664136
 30
0.0
  0
VERTEX
  5
F2
330
E5
100
AcDbEntity
  8
STANDARDEBENE
 62
     7
100
AcDbVertex
100
AcDb2dVertex
 10
-10.03763020582393
 20
194.9827581977821
 30
0.0
  0
VERTEX
  5
F3
330
E5
100
AcDbEntity
  8
STANDARDEBENE
 62
     7
100
AcDbVertex
100
AcDb2dVertex
 10
-9.783554413786751
 20
194.8769937663849
 30
0.0
  0
VERTEX
  5
F4
330
E5
100
AcDbEntity
  8
STANDARDEBENE
 62
     7
100
AcDbVertex
100
AcDb2dVertex
 10
-9.522588430779075
 20
194.7922444174478
 30
0.0
  0
VERTEX
  5
F5
330
E5
100
AcDbEntity
  8
STANDARDEBENE
 62
     7
100
AcDbVertex
100
AcDb2dVertex
 10
-9.254387747252375
 20
194.7357448514897
 30
0.0
  0
VERTEX
  5
F6
330
E5
100
AcDbEntity
  8
STANDARDEBENE
 62
     7
100
AcDbVertex
100
AcDb2dVertex
 10
-8.979296872755176
 20
194.7040499730254
 30
0.0
  0
VERTEX
  5
F7
330
E5
100
AcDbEntity
  8
STANDARDEBENE
 62
     7
100
AcDbVertex
100
AcDb2dVertex
 10
-8.704205998257976
 20
194.6969875272806
 30
0.0
  0
VERTEX
  5
F8
330
E5
100
AcDbEntity
  8
STANDARDEBENE
 62
     7
100
AcDbVertex
100
AcDb2dVertex
 10
-8.432560219246026
 20
194.7145575142554
 30
0.0
  0
VERTEX
  5
F9
330
E5
100
AcDbEntity
  8
STANDARDEBENE
 62
     7
100
AcDbVertex
100
AcDb2dVertex
 10
-8.157297089974564
 20
194.7605495389835
 30
0.0
  0
VERTEX
  5
FA
330
E5
100
AcDbEntity
  8
STANDARDEBENE
 62
     7
100
AcDbVertex
100
AcDb2dVertex
 10
-7.892713756707377
 20
194.8275566461716
 30
0.0
  0
VERTEX
  5
FB
330
E5
100
AcDbEntity
  8
STANDARDEBENE
 62
     7
100
AcDbVertex
100
AcDb2dVertex
 10
-7.631747773699702
 20
194.9228135363387
 30
0.0
  0
VERTEX
  5
FC
330
E5
100
AcDbEntity
  8
STANDARDEBENE
 62
     7
100
AcDbVertex
100
AcDb2dVertex
 10
-7.381289331922039
 20
195.0392577637402
 30
0.0
  0
VERTEX
  5
FD
330
E5
100
AcDbEntity
  8
STANDARDEBENE
 62
     7
100
AcDbVertex
100
AcDb2dVertex
 10
-7.141338431374388
 20
195.1767170736017
 30
0.0
  0
VERTEX
  5
FE
330
E5
100
AcDbEntity
  8
STANDARDEBENE
 62
     7
100
AcDbVertex
100
AcDb2dVertex
 10
-6.915512422316261
 20
195.3389810709569
 30
0.0
  0
VERTEX
  5
FF
330
E5
100
AcDbEntity
  8
STANDARDEBENE
 62
     7
100
AcDbVertex
100
AcDb2dVertex
 10
-6.703811304747658
 20
195.5189873100612
 30
0.0
  0
VERTEX
  5
100
330
E5
100
AcDbEntity
  8
STANDARDEBENE
 62
     7
100
AcDbVertex
100
AcDb2dVertex
 10
-6.513469779187605
 20
195.7165635361403
 30
0.0
  0
VERTEX
  5
101
330
E5
100
AcDbEntity
  8
STANDARDEBENE
 62
     7
100
AcDbVertex
100
AcDb2dVertex
 10
-6.340525985828063
 20
195.9353270994537
 30
0.0
  0
VERTEX
  5
102
330
E5
100
AcDbEntity
  8
STANDARDEBENE
 62
     7
100
AcDbVertex
100
AcDb2dVertex
 10
-6.185324434217558
 20
196.1645982039971
 30
0.0
  0
VERTEX
  5
103
330
E5
100
AcDbEntity
  8
STANDARDEBENE
 62
     7
100
AcDbVertex
100
AcDb2dVertex
 10
-6.054755315326589
 20
196.4079942000299
 30
0.0
  0
VERTEX
  5
104
330
E5
100
AcDbEntity
  8
STANDARDEBENE
 62
     7
100
AcDbVertex
100
AcDb2dVertex
 10
-5.945373533669907
 20
196.6618977372929
 30
0.0
  0
VERTEX
  5
105
330
E5
100
AcDbEntity
  8
STANDARDEBENE
 62
     7
100
AcDbVertex
100
AcDb2dVertex
 10
-5.860796439507023
 20
196.92648107056
 30
0.0
  0
VERTEX
  5
106
330
E5
100
AcDbEntity
  8
STANDARDEBENE
 62
     7
100
AcDbVertex
100
AcDb2dVertex
 10
-5.800851778063676
 20
197.1946817540868
 30
0.0
  0
VERTEX
  5
107
330
E5
100
AcDbEntity
  8
STANDARDEBENE
 62
     7
100
AcDbVertex
100
AcDb2dVertex
 10
-5.765539549339866
 20
197.469772628584
 30
0.0
  0
VERTEX
  5
108
330
E5
100
AcDbEntity
  8
STANDARDEBENE
 62
     7
100
AcDbVertex
100
AcDb2dVertex
 10
-5.754859753335591
 20
197.7450357578554
 30
0.0
  0
SEQEND
  5
109
330
E5
100
AcDbEntity
  8
STANDARDEBENE
  0
POLYLINE
  5
10A
330
45
100
AcDbEntity
  8
STANDARDEBENE
 62
     7
100
AcDb2dPolyline
 66
     1
 10
0.0
 20
0.0
 30
0.0
  0
VERTEX
  5
10B
330
10A
100
AcDbEntity
  8
STANDARDEBENE
 62
     7
100
AcDbVertex
100
AcDb2dVertex
 10
-7.25072021303107
 20
198.5740979863808
 30
0.0
  0
VERTEX
  5
10C
330
10A
100
AcDbEntity
  8
STANDARDEBENE
 62
     7
100
AcDbVertex
100
AcDb2dVertex
 10
-7.377671981662527
 20
198.6411050935689
 30
0.0
  0
VERTEX
  5
10D
330
10A
100
AcDbEntity
  8
STANDARDEBENE
 62
     7
100
AcDbVertex
100
AcDb2dVertex
 10
-7.501178654808734
 20
198.708112200757
 30
0.0
  0
VERTEX
  5
10E
330
10A
100
AcDbEntity
  8
STANDARDEBENE
 62
     7
100
AcDbVertex
100
AcDb2dVertex
 10
-7.621067977695428
 20
198.7751193079451
 30
0.0
  0
VERTEX
  5
10F
330
10A
100
AcDbEntity
  8
STANDARDEBENE
 62
     7
100
AcDbVertex
100
AcDb2dVertex
 10
-7.744574650841635
 20
198.8421264151332
 30
0.0
  0
VERTEX
  5
110
330
10A
100
AcDbEntity
  8
STANDARDEBENE
 62
     7
100
AcDbVertex
100
AcDb2dVertex
 10
-7.864463973728329
 20
198.9091335223213
 30
0.0
  0
VERTEX
  5
111
330
10A
100
AcDbEntity
  8
STANDARDEBENE
 62
     7
100
AcDbVertex
100
AcDb2dVertex
 10
-7.987970646874535
 20
198.9761406295094
 30
0.0
  0
VERTEX
  5
112
330
10A
100
AcDbEntity
  8
STANDARDEBENE
 62
     7
100
AcDbVertex
100
AcDb2dVertex
 10
-8.111477320020741
 20
199.0431477366976
 30
0.0
  0
VERTEX
  5
113
330
10A
100
AcDbEntity
  8
STANDARDEBENE
 62
     7
100
AcDbVertex
100
AcDb2dVertex
 10
-8.23498399316695
 20
199.1137721941452
 30
0.0
  0
VERTEX
  5
114
330
10A
100
AcDbEntity
  8
STANDARDEBENE
 62
     7
100
AcDbVertex
100
AcDb2dVertex
 10
-8.358490666313156
 20
199.1843966515928
 30
0.0
  0
VERTEX
  5
115
330
10A
100
AcDbEntity
  8
STANDARDEBENE
 62
     7
100
AcDbVertex
100
AcDb2dVertex
 10
-8.485442434944613
 20
199.2548488542662
 30
0.0
  0
VERTEX
  5
116
330
10A
100
AcDbEntity
  8
STANDARDEBENE
 62
     7
100
AcDbVertex
100
AcDb2dVertex
 10
-8.619456649320831
 20
199.328918407199
 30
0.0
  0
VERTEX
  5
117
330
10A
100
AcDbEntity
  8
STANDARDEBENE
 62
     7
100
AcDbVertex
100
AcDb2dVertex
 10
-8.750025768211799
 20
199.4029879601319
 30
0.0
  0
SEQEND
  5
118
330
10A
100
AcDbEntity
  8
STANDARDEBENE
  0
POLYLINE
  5
119
330
45
100
AcDbEntity
  8
STANDARDEBENE
 62
     7
100
AcDb2dPolyline
 66
     1
 10
0.0
 20
0.0
 30
0.0
  0
VERTEX
  5
11A
330
119
100
AcDbEntity
  8
STANDARDEBENE
 62
     7
100
AcDbVertex
100
AcDb2dVertex
 10
-18.75131021666634
 20
193.3494384282251
 30
0.0
  0
VERTEX
  5
11B
330
119
100
AcDbEntity
  8
STANDARDEBENE
 62
     7
100
AcDbVertex
100
AcDb2dVertex
 10
-18.69481065070824
 20
192.9367159890922
 30
0.0
  0
VERTEX
  5
11C
330
119
100
AcDbEntity
  8
STANDARDEBENE
 62
     7
100
AcDbVertex
100
AcDb2dVertex
 10
-18.57492132782155
 20
192.5415635369341
 30
0.0
  0
SEQEND
  5
11D
330
119
100
AcDbEntity
  8
STANDARDEBENE
  0
POLYLINE
  5
11E
330
45
100
AcDbEntity
  8
STANDARDEBENE
 62
     7
100
AcDb2dPolyline
 66
     1
 10
0.0
 20
0.0
 30
0.0
  0
VERTEX
  5
11F
330
11E
100
AcDbEntity
  8
STANDARDEBENE
 62
     7
100
AcDbVertex
100
AcDb2dVertex
 10
-9.441456432101441
 20
196.3551119843314
 30
0.0
  0
VERTEX
  5
120
330
11E
100
AcDbEntity
  8
STANDARDEBENE
 62
     7
100
AcDbVertex
100
AcDb2dVertex
 10
-9.518971080519563
 20
196.4713839569586
 30
0.0
  0
VERTEX
  5
121
330
11E
100
AcDbEntity
  8
STANDARDEBENE
 62
     7
100
AcDbVertex
100
AcDb2dVertex
 10
-9.586150442481935
 20
196.5985079803643
 30
0.0
  0
VERTEX
  5
122
330
11E
100
AcDbEntity
  8
STANDARDEBENE
 62
     7
100
AcDbVertex
100
AcDb2dVertex
 10
-9.64247775366577
 20
196.7430297359705
 30
0.0
  0
VERTEX
  5
123
330
11E
100
AcDbEntity
  8
STANDARDEBENE
 62
     7
100
AcDbVertex
100
AcDb2dVertex
 10
-9.684852428134343
 20
196.8947861920958
 30
0.0
  0
VERTEX
  5
124
330
11E
100
AcDbEntity
  8
STANDARDEBENE
 62
     7
100
AcDbVertex
100
AcDb2dVertex
 10
-9.709484860853879
 20
197.046542648221
 30
0.0
  0
VERTEX
  5
125
330
11E
100
AcDbEntity
  8
STANDARDEBENE
 62
     7
100
AcDbVertex
100
AcDb2dVertex
 10
-9.720164656858154
 20
197.187619308342
 30
0.0
  0
VERTEX
  5
126
330
11E
100
AcDbEntity
  8
STANDARDEBENE
 62
     7
100
AcDbVertex
100
AcDb2dVertex
 10
-9.720164656858154
 20
197.2017441998315
 30
0.0
  0
SEQEND
  5
127
330
11E
100
AcDbEntity
  8
STANDARDEBENE
  0
POLYLINE
  5
128
330
45
100
AcDbEntity
  8
STANDARDEBENE
 62
     7
100
AcDb2dPolyline
 66
     1
 10
0.0
 20
0.0
 30
0.0
  0
VERTEX
  5
129
330
128
100
AcDbEntity
  8
STANDARDEBENE
 62
     7
100
AcDbVertex
100
AcDb2dVertex
 10
-27.06622042509109
 20
202.3204670718157
 30
0.0
  0
VERTEX
  5
12A
330
128
100
AcDbEntity
  8
STANDARDEBENE
 62
     7
100
AcDbVertex
100
AcDb2dVertex
 10
-27.05554062908681
 20
202.3452717593095
 30
0.0
  0
VERTEX
  5
12B
330
128
100
AcDbEntity
  8
STANDARDEBENE
 62
     7
100
AcDbVertex
100
AcDb2dVertex
 10
-27.04847818334205
 20
202.3664590965438
 30
0.0
  0
VERTEX
  5
12C
330
128
100
AcDbEntity
  8
STANDARDEBENE
 62
     7
100
AcDbVertex
100
AcDb2dVertex
 10
-27.04158799237155
 20
202.3910915292633
 30
0.0
  0
VERTEX
  5
12D
330
128
100
AcDbEntity
  8
STANDARDEBENE
 62
     7
100
AcDbVertex
100
AcDb2dVertex
 10
-27.03090819636727
 20
202.4157239619829
 30
0.0
  0
SEQEND
  5
12E
330
128
100
AcDbEntity
  8
STANDARDEBENE
  0
POLYLINE
  5
12F
330
45
100
AcDbEntity
  8
STANDARDEBENE
 62
     7
100
AcDb2dPolyline
 66
     1
 10
0.0
 20
0.0
 30
0.0
  0
VERTEX
  5
130
330
12F
100
AcDbEntity
  8
STANDARDEBENE
 62
     7
100
AcDbVertex
100
AcDb2dVertex
 10
-12.15774196744668
 20
197.5579670730064
 30
0.0
  0
VERTEX
  5
131
330
12F
100
AcDbEntity
  8
STANDARDEBENE
 62
     7
100
AcDbVertex
100
AcDb2dVertex
 10
-12.12604708898238
 20
197.8966199592064
 30
0.0
  0
VERTEX
  5
132
330
12F
100
AcDbEntity
  8
STANDARDEBENE
 62
     7
100
AcDbVertex
100
AcDb2dVertex
 10
-12.09779730600333
 20
198.2352728454065
 30
0.0
  0
VERTEX
  5
133
330
12F
100
AcDbEntity
  8
STANDARDEBENE
 62
     7
100
AcDbVertex
100
AcDb2dVertex
 10
-12.00254041583617
 20
198.5634181903765
 30
0.0
  0
VERTEX
  5
134
330
12F
100
AcDbEntity
  8
STANDARDEBENE
 62
     7
100
AcDbVertex
100
AcDb2dVertex
 10
-11.90728352566901
 20
198.8915635353466
 30
0.0
  0
VERTEX
  5
135
330
12F
100
AcDbEntity
  8
STANDARDEBENE
 62
     7
100
AcDbVertex
100
AcDb2dVertex
 10
-11.75208197405851
 20
199.1949041928228
 30
0.0
  0
VERTEX
  5
136
330
12F
100
AcDbEntity
  8
STANDARDEBENE
 62
     7
100
AcDbVertex
100
AcDb2dVertex
 10
-11.59343532696275
 20
199.498244850299
 30
0.0
  0
VERTEX
  5
137
330
12F
100
AcDbEntity
  8
STANDARDEBENE
 62
     7
100
AcDbVertex
100
AcDb2dVertex
 10
-11.37811685913464
 20
199.769890629311
 30
0.0
  0
VERTEX
  5
138
330
12F
100
AcDbEntity
  8
STANDARDEBENE
 62
     7
100
AcDbVertex
100
AcDb2dVertex
 10
-11.16297064608078
 20
200.041536408323
 30
0.0
  0
VERTEX
  5
139
330
12F
100
AcDbEntity
  8
STANDARDEBENE
 62
     7
100
AcDbVertex
100
AcDb2dVertex
 10
-10.90200466307311
 20
200.2637450671216
 30
0.0
  0
VERTEX
  5
13A
330
12F
100
AcDbEntity
  8
STANDARDEBENE
 62
     7
100
AcDbVertex
100
AcDb2dVertex
 10
-10.64086642529117
 20
200.4825086304349
 30
0.0
  0
VERTEX
  5
13B
330
12F
100
AcDbEntity
  8
STANDARDEBENE
 62
     7
100
AcDbVertex
100
AcDb2dVertex
 10
-10.34458821355969
 20
200.651835073535
 30
0.0
  0
VERTEX
  5
13C
330
12F
100
AcDbEntity
  8
STANDARDEBENE
 62
     7
100
AcDbVertex
100
AcDb2dVertex
 10
-10.04813774705394
 20
200.8177164211498
 30
0.0
  0
VERTEX
  5
13D
330
12F
100
AcDbEntity
  8
STANDARDEBENE
 62
     7
100
AcDbVertex
100
AcDb2dVertex
 10
-9.723609752343403
 20
200.9234808525469
 30
0.0
  0
VERTEX
  5
13E
330
12F
100
AcDbEntity
  8
STANDARDEBENE
 62
     7
100
AcDbVertex
100
AcDb2dVertex
 10
-9.39908175763287
 20
201.0294175387183
 30
0.0
  0
VERTEX
  5
13F
330
12F
100
AcDbEntity
  8
STANDARDEBENE
 62
     7
100
AcDbVertex
100
AcDb2dVertex
 10
-9.05698377594756
 20
201.0716199584127
 30
0.0
  0
VERTEX
  5
140
330
12F
100
AcDbEntity
  8
STANDARDEBENE
 62
     7
100
AcDbVertex
100
AcDb2dVertex
 10
-8.714713539487988
 20
201.1139946328812
 30
0.0
  0
VERTEX
  5
141
330
12F
100
AcDbEntity
  8
STANDARDEBENE
 62
     7
100
AcDbVertex
100
AcDb2dVertex
 10
-8.37606065328793
 20
201.0893622001617
 30
0.0
  0
VERTEX
  5
142
330
12F
100
AcDbEntity
  8
STANDARDEBENE
 62
     7
100
AcDbVertex
100
AcDb2dVertex
 10
-8.03740776708787
 20
201.0611124171826
 30
0.0
  0
VERTEX
  5
143
330
12F
100
AcDbEntity
  8
STANDARDEBENE
 62
     7
100
AcDbVertex
100
AcDb2dVertex
 10
-7.712879772377336
 20
200.9693006225008
 30
0.0
  0
VERTEX
  5
144
330
12F
100
AcDbEntity
  8
STANDARDEBENE
 62
     7
100
AcDbVertex
100
AcDb2dVertex
 10
-7.384734427407289
 20
200.8776610825931
 30
0.0
  0
VERTEX
  5
145
330
12F
100
AcDbEntity
  8
STANDARDEBENE
 62
     7
100
AcDbVertex
100
AcDb2dVertex
 10
-7.084838865416291
 20
200.7259046264678
 30
0.0
  0
VERTEX
  5
146
330
12F
100
AcDbEntity
  8
STANDARDEBENE
 62
     7
100
AcDbVertex
100
AcDb2dVertex
 10
-6.781498207940042
 20
200.5743204251168
 30
0.0
  0
VERTEX
  5
147
330
12F
100
AcDbEntity
  8
STANDARDEBENE
 62
     7
100
AcDbVertex
100
AcDb2dVertex
 10
-6.513469779187605
 20
200.3590019572887
 30
0.0
  0
VERTEX
  5
148
330
12F
100
AcDbEntity
  8
STANDARDEBENE
 62
     7
100
AcDbVertex
100
AcDb2dVertex
 10
-6.245269095660905
 20
200.1474730944944
 30
0.0
  0
VERTEX
  5
149
330
12F
100
AcDbEntity
  8
STANDARDEBENE
 62
     7
100
AcDbVertex
100
AcDb2dVertex
 10
-6.02650553234754
 20
199.889952206972
 30
0.0
  0
VERTEX
  5
14A
330
12F
100
AcDbEntity
  8
STANDARDEBENE
 62
     7
100
AcDbVertex
100
AcDb2dVertex
 10
-5.807914223808439
 20
199.6324313194496
 30
0.0
  0
VERTEX
  5
14B
330
12F
100
AcDbEntity
  8
STANDARDEBENE
 62
     7
100
AcDbVertex
100
AcDb2dVertex
 10
-5.645477971678909
 20
199.3325357574585
 30
0.0
  0
VERTEX
  5
14C
330
12F
100
AcDbEntity
  8
STANDARDEBENE
 62
     7
100
AcDbVertex
100
AcDb2dVertex
 10
-5.479768878838391
 20
199.0397026412123
 30
0.0
  0
VERTEX
  5
14D
330
12F
100
AcDbEntity
  8
STANDARDEBENE
 62
     7
100
AcDbVertex
100
AcDb2dVertex
 10
-5.380894638411721
 20
198.7151746465018
 30
0.0
  0
VERTEX
  5
14E
330
12F
100
AcDbEntity
  8
STANDARDEBENE
 62
     7
100
AcDbVertex
100
AcDb2dVertex
 10
-5.275130207014551
 20
198.3940917472765
 30
0.0
  0
VERTEX
  5
14F
330
12F
100
AcDbEntity
  8
STANDARDEBENE
 62
     7
100
AcDbVertex
100
AcDb2dVertex
 10
-5.23981797829074
 20
198.0483764153317
 30
0.0
  0
VERTEX
  5
150
330
12F
100
AcDbEntity
  8
STANDARDEBENE
 62
     7
100
AcDbVertex
100
AcDb2dVertex
 10
-5.20106065408168
 20
197.7061061788721
 30
0.0
  0
SEQEND
  5
151
330
12F
100
AcDbEntity
  8
STANDARDEBENE
  0
POLYLINE
  5
152
330
45
100
AcDbEntity
  8
STANDARDEBENE
 62
     7
100
AcDb2dPolyline
 66
     1
 10
0.0
 20
0.0
 30
0.0
  0
VERTEX
  5
153
330
152
100
AcDbEntity
  8
STANDARDEBENE
 62
     7
100
AcDbVertex
100
AcDb2dVertex
 10
-7.222470430052022
 20
196.8419039763972
 30
0.0
  0
VERTEX
  5
154
330
152
100
AcDbEntity
  8
STANDARDEBENE
 62
     7
100
AcDbVertex
100
AcDb2dVertex
 10
-7.25072021303107
 20
196.7924668561838
 30
0.0
  0
VERTEX
  5
155
330
152
100
AcDbEntity
  8
STANDARDEBENE
 62
     7
100
AcDbVertex
100
AcDb2dVertex
 10
-7.278969996010119
 20
196.74664708623
 30
0.0
  0
VERTEX
  5
156
330
152
100
AcDbEntity
  8
STANDARDEBENE
 62
     7
100
AcDbVertex
100
AcDb2dVertex
 10
-7.381289331922039
 20
196.605570426109
 30
0.0
  0
VERTEX
  5
157
330
152
100
AcDbEntity
  8
STANDARDEBENE
 62
     7
100
AcDbVertex
100
AcDb2dVertex
 10
-7.494116209063971
 20
196.4750013072181
 30
0.0
  0
VERTEX
  5
158
330
152
100
AcDbEntity
  8
STANDARDEBENE
 62
     7
100
AcDbVertex
100
AcDb2dVertex
 10
-7.617622882210178
 20
196.3585570798166
 30
0.0
  0
VERTEX
  5
159
330
152
100
AcDbEntity
  8
STANDARDEBENE
 62
     7
100
AcDbVertex
100
AcDb2dVertex
 10
-7.755082192071646
 20
196.2527926484194
 30
0.0
  0
VERTEX
  5
15A
330
152
100
AcDbEntity
  8
STANDARDEBENE
 62
     7
100
AcDbVertex
100
AcDb2dVertex
 10
-7.89977620245214
 20
196.1645982039971
 30
0.0
  0
VERTEX
  5
15B
330
152
100
AcDbEntity
  8
STANDARDEBENE
 62
     7
100
AcDbVertex
100
AcDb2dVertex
 10
-8.054977754062644
 20
196.0869113008047
 30
0.0
  0
VERTEX
  5
15C
330
152
100
AcDbEntity
  8
STANDARDEBENE
 62
     7
100
AcDbVertex
100
AcDb2dVertex
 10
-8.213796655932663
 20
196.0269666393613
 30
0.0
  0
VERTEX
  5
15D
330
152
100
AcDbEntity
  8
STANDARDEBENE
 62
     7
100
AcDbVertex
100
AcDb2dVertex
 10
-8.37950574877318
 20
195.9811468694075
 30
0.0
  0
VERTEX
  5
15E
330
152
100
AcDbEntity
  8
STANDARDEBENE
 62
     7
100
AcDbVertex
100
AcDb2dVertex
 10
-8.545387096387959
 20
195.9528970864285
 30
0.0
  0
VERTEX
  5
15F
330
152
100
AcDbEntity
  8
STANDARDEBENE
 62
     7
100
AcDbVertex
100
AcDb2dVertex
 10
-8.714713539487988
 20
195.9387721949389
 30
0.0
  0
SEQEND
  5
160
330
152
100
AcDbEntity
  8
STANDARDEBENE
  0
POLYLINE
  5
161
330
45
100
AcDbEntity
  8
STANDARDEBENE
 62
     7
100
AcDb2dPolyline
 66
     1
 10
0.0
 20
0.0
 30
0.0
  0
VERTEX
  5
162
330
161
100
AcDbEntity
  8
STANDARDEBENE
 62
     7
100
AcDbVertex
100
AcDb2dVertex
 10
-17.91156819213669
 20
193.1377373106565
 30
0.0
  0
VERTEX
  5
163
330
161
100
AcDbEntity
  8
STANDARDEBENE
 62
     7
100
AcDbVertex
100
AcDb2dVertex
 10
-17.85162353069335
 20
192.7425848584984
 30
0.0
  0
VERTEX
  5
164
330
161
100
AcDbEntity
  8
STANDARDEBENE
 62
     7
100
AcDbVertex
100
AcDb2dVertex
 10
-17.71760931631713
 20
192.3651746480893
 30
0.0
  0
VERTEX
  5
165
330
161
100
AcDbEntity
  8
STANDARDEBENE
 62
     7
100
AcDbVertex
100
AcDb2dVertex
 10
-17.62235242614997
 20
192.1922308547297
 30
0.0
  0
VERTEX
  5
166
330
161
100
AcDbEntity
  8
STANDARDEBENE
 62
     7
100
AcDbVertex
100
AcDb2dVertex
 10
-17.50952554900804
 20
192.0265217618892
 30
0.0
  0
SEQEND
  5
167
330
161
100
AcDbEntity
  8
STANDARDEBENE
  0
POLYLINE
  5
168
330
45
100
AcDbEntity
  8
STANDARDEBENE
 62
     7
100
AcDb2dPolyline
 66
     1
 10
0.0
 20
0.0
 30
0.0
  0
VERTEX
  5
169
330
168
100
AcDbEntity
  8
STANDARDEBENE
 62
     7
100
AcDbVertex
100
AcDb2dVertex
 10
-18.81125487810969
 20
192.4109944180431
 30
0.0
  0
VERTEX
  5
16A
330
168
100
AcDbEntity
  8
STANDARDEBENE
 62
     7
100
AcDbVertex
100
AcDb2dVertex
 10
-18.71944308342778
 20
192.3122924323907
 30
0.0
  0
VERTEX
  5
16B
330
168
100
AcDbEntity
  8
STANDARDEBENE
 62
     7
100
AcDbVertex
100
AcDb2dVertex
 10
-18.62074109777537
 20
192.2204806377088
 30
0.0
  0
VERTEX
  5
16C
330
168
100
AcDbEntity
  8
STANDARDEBENE
 62
     7
100
AcDbVertex
100
AcDb2dVertex
 10
-18.35615776450818
 20
192.0123968703997
 30
0.0
  0
VERTEX
  5
16D
330
168
100
AcDbEntity
  8
STANDARDEBENE
 62
     7
100
AcDbVertex
100
AcDb2dVertex
 10
-18.06332464826195
 20
191.8430704272997
 30
0.0
  0
VERTEX
  5
16E
330
168
100
AcDbEntity
  8
STANDARDEBENE
 62
     7
100
AcDbVertex
100
AcDb2dVertex
 10
-17.75292154504094
 20
191.715946403894
 30
0.0
  0
VERTEX
  5
16F
330
168
100
AcDbEntity
  8
STANDARDEBENE
 62
     7
100
AcDbVertex
100
AcDb2dVertex
 10
-17.4283935503304
 20
191.6277519594715
 30
0.0
  0
VERTEX
  5
170
330
168
100
AcDbEntity
  8
STANDARDEBENE
 62
     7
100
AcDbVertex
100
AcDb2dVertex
 10
-17.09318575961559
 20
191.5819321895177
 30
0.0
  0
VERTEX
  5
171
330
168
100
AcDbEntity
  8
STANDARDEBENE
 62
     7
100
AcDbVertex
100
AcDb2dVertex
 10
-17.05081108514702
 20
191.5819321895177
 30
0.0
  0
VERTEX
  5
172
330
168
100
AcDbEntity
  8
STANDARDEBENE
 62
     7
100
AcDbVertex
100
AcDb2dVertex
 10
-16.75453287341553
 20
191.5819321895177
 30
0.0
  0
VERTEX
  5
173
330
168
100
AcDbEntity
  8
STANDARDEBENE
 62
     7
100
AcDbVertex
100
AcDb2dVertex
 10
-16.41932508270072
 20
191.6277519594715
 30
0.0
  0
VERTEX
  5
174
330
168
100
AcDbEntity
  8
STANDARDEBENE
 62
     7
100
AcDbVertex
100
AcDb2dVertex
 10
-16.09135199250494
 20
191.715946403894
 30
0.0
  0
VERTEX
  5
175
330
168
100
AcDbEntity
  8
STANDARDEBENE
 62
     7
100
AcDbVertex
100
AcDb2dVertex
 10
-15.77733153902442
 20
191.8430704272997
 30
0.0
  0
VERTEX
  5
176
330
168
100
AcDbEntity
  8
STANDARDEBENE
 62
     7
100
AcDbVertex
100
AcDb2dVertex
 10
-15.48449842277818
 20
192.0123968703997
 30
0.0
  0
VERTEX
  5
177
330
168
100
AcDbEntity
  8
STANDARDEBENE
 62
     7
100
AcDbVertex
100
AcDb2dVertex
 10
-15.21285264376623
 20
192.2204806377088
 30
0.0
  0
VERTEX
  5
178
330
168
100
AcDbEntity
  8
STANDARDEBENE
 62
     7
100
AcDbVertex
100
AcDb2dVertex
 10
-14.97307399799284
 20
192.4568141879969
 30
0.0
  0
VERTEX
  5
179
330
168
100
AcDbEntity
  8
STANDARDEBENE
 62
     7
100
AcDbVertex
100
AcDb2dVertex
 10
-14.76137288042424
 20
192.7250148715236
 30
0.0
  0
VERTEX
  5
17A
330
168
100
AcDbEntity
  8
STANDARDEBENE
 62
     7
100
AcDbVertex
100
AcDb2dVertex
 10
-14.59204643732421
 20
193.0178479877698
 30
0.0
  0
VERTEX
  5
17B
330
168
100
AcDbEntity
  8
STANDARDEBENE
 62
     7
100
AcDbVertex
100
AcDb2dVertex
 10
-14.45785996817373
 20
193.3316961864761
 30
0.0
  0
VERTEX
  5
17C
330
168
100
AcDbEntity
  8
STANDARDEBENE
 62
     7
100
AcDbVertex
100
AcDb2dVertex
 10
-14.36622042826608
 20
193.6598415314461
 30
0.0
  0
VERTEX
  5
17D
330
168
100
AcDbEntity
  8
STANDARDEBENE
 62
     7
100
AcDbVertex
100
AcDb2dVertex
 10
-14.32040065831226
 20
193.9879868764162
 30
0.0
  0
VERTEX
  5
17E
330
168
100
AcDbEntity
  8
STANDARDEBENE
 62
     7
100
AcDbVertex
100
AcDb2dVertex
 10
-14.3133382125675
 20
194.315959966612
 30
0.0
  0
SEQEND
  5
17F
330
168
100
AcDbEntity
  8
STANDARDEBENE
  0
POLYLINE
  5
180
330
45
100
AcDbEntity
  8
STANDARDEBENE
 62
     7
100
AcDb2dPolyline
 66
     1
 10
0.0
 20
0.0
 30
0.0
  0
VERTEX
  5
181
330
180
100
AcDbEntity
  8
STANDARDEBENE
 62
     7
100
AcDbVertex
100
AcDb2dVertex
 10
-14.59204643732421
 20
196.2633001896495
 30
0.0
  0
VERTEX
  5
182
330
180
100
AcDbEntity
  8
STANDARDEBENE
 62
     7
100
AcDbVertex
100
AcDb2dVertex
 10
-14.94482421501379
 20
202.9908826532453
 30
0.0
  0
VERTEX
  5
183
330
180
100
AcDbEntity
  8
STANDARDEBENE
 62
     7
100
AcDbVertex
100
AcDb2dVertex
 10
-15.2869221966991
 20
209.4890217575236
 30
0.0
  0
VERTEX
  5
184
330
180
100
AcDbEntity
  8
STANDARDEBENE
 62
     7
100
AcDbVertex
100
AcDb2dVertex
 10
-15.29760199270338
 20
209.718292862067
 30
0.0
  0
VERTEX
  5
185
330
180
100
AcDbEntity
  8
STANDARDEBENE
 62
     7
100
AcDbVertex
100
AcDb2dVertex
 10
-15.40698377436006
 20
210.0851955312461
 30
0.0
  0
VERTEX
  5
186
330
180
100
AcDbEntity
  8
STANDARDEBENE
 62
     7
100
AcDbVertex
100
AcDb2dVertex
 10
-15.67862955337201
 20
210.356841310258
 30
0.0
  0
VERTEX
  5
187
330
180
100
AcDbEntity
  8
STANDARDEBENE
 62
     7
100
AcDbVertex
100
AcDb2dVertex
 10
-21.38301865784869
 20
213.8634317499196
 30
0.0
  0
VERTEX
  5
188
330
180
100
AcDbEntity
  8
STANDARDEBENE
 62
     7
100
AcDbVertex
100
AcDb2dVertex
 10
-27.08740776232537
 20
217.3664048393216
 30
0.0
  0
VERTEX
  5
189
330
180
100
AcDbEntity
  8
STANDARDEBENE
 62
     7
100
AcDbVertex
100
AcDb2dVertex
 10
-27.35199109559256
 20
217.472341525493
 30
0.0
  0
VERTEX
  5
18A
330
180
100
AcDbEntity
  8
STANDARDEBENE
 62
     7
100
AcDbVertex
100
AcDb2dVertex
 10
-27.6448242118388
 20
217.472341525493
 30
0.0
  0
VERTEX
  5
18B
330
180
100
AcDbEntity
  8
STANDARDEBENE
 62
     7
100
AcDbVertex
100
AcDb2dVertex
 10
-27.91285264059123
 20
217.3734672850664
 30
0.0
  0
VERTEX
  5
18C
330
180
100
AcDbEntity
  8
STANDARDEBENE
 62
     7
100
AcDbVertex
100
AcDb2dVertex
 10
-28.12799885364509
 20
217.1865708549916
 30
0.0
  0
VERTEX
  5
18D
330
180
100
AcDbEntity
  8
STANDARDEBENE
 62
     7
100
AcDbVertex
100
AcDb2dVertex
 10
-28.26924776854033
 20
216.9290499674691
 30
0.0
  0
VERTEX
  5
18E
330
180
100
AcDbEntity
  8
STANDARDEBENE
 62
     7
100
AcDbVertex
100
AcDb2dVertex
 10
-28.30438774248988
 20
216.6432792969676
 30
0.0
  0
VERTEX
  5
18F
330
180
100
AcDbEntity
  8
STANDARDEBENE
 62
     7
100
AcDbVertex
100
AcDb2dVertex
 10
-27.95160996480029
 20
209.9158690881461
 30
0.0
  0
VERTEX
  5
190
330
180
100
AcDbEntity
  8
STANDARDEBENE
 62
     7
100
AcDbVertex
100
AcDb2dVertex
 10
-27.83533799217311
 20
207.7180704233309
 30
0.0
  0
VERTEX
  5
191
330
180
100
AcDbEntity
  8
STANDARDEBENE
 62
     7
100
AcDbVertex
100
AcDb2dVertex
 10
-27.59883218711071
 20
203.1882866245502
 30
0.0
  0
VERTEX
  5
192
330
180
100
AcDbEntity
  8
STANDARDEBENE
 62
     7
100
AcDbVertex
100
AcDb2dVertex
 10
-27.48945040545403
 20
202.8213839553711
 30
0.0
  0
VERTEX
  5
193
330
180
100
AcDbEntity
  8
STANDARDEBENE
 62
     7
100
AcDbVertex
100
AcDb2dVertex
 10
-27.21797688121634
 20
202.5499104311334
 30
0.0
  0
VERTEX
  5
194
330
180
100
AcDbEntity
  8
STANDARDEBENE
 62
     7
100
AcDbVertex
100
AcDb2dVertex
 10
-27.02384575062251
 20
202.4298488534724
 30
0.0
  0
VERTEX
  5
195
330
180
100
AcDbEntity
  8
STANDARDEBENE
 62
     7
100
AcDbVertex
100
AcDb2dVertex
 10
-21.5134155219654
 20
199.0431477366976
 30
0.0
  0
VERTEX
  5
196
330
180
100
AcDbEntity
  8
STANDARDEBENE
 62
     7
100
AcDbVertex
100
AcDb2dVertex
 10
-19.55556775769791
 20
197.8402926480226
 30
0.0
  0
VERTEX
  5
197
330
180
100
AcDbEntity
  8
STANDARDEBENE
 62
     7
100
AcDbVertex
100
AcDb2dVertex
 10
-18.39491508871724
 20
197.1276746468986
 30
0.0
  0
VERTEX
  5
198
330
180
100
AcDbEntity
  8
STANDARDEBENE
 62
     7
100
AcDbVertex
100
AcDb2dVertex
 10
-18.11982421422005
 20
196.9583482037986
 30
0.0
  0
VERTEX
  5
199
330
180
100
AcDbEntity
  8
STANDARDEBENE
 62
     7
100
AcDbVertex
100
AcDb2dVertex
 10
-15.80902641748872
 20
195.5401746472955
 30
0.0
  0
VERTEX
  5
19A
330
180
100
AcDbEntity
  8
STANDARDEBENE
 62
     7
100
AcDbVertex
100
AcDb2dVertex
 10
-15.54444308422153
 20
195.4342379611241
 30
0.0
  0
VERTEX
  5
19B
330
180
100
AcDbEntity
  8
STANDARDEBENE
 62
     7
100
AcDbVertex
100
AcDb2dVertex
 10
-15.24816487249004
 20
195.4342379611241
 30
0.0
  0
VERTEX
  5
19C
330
180
100
AcDbEntity
  8
STANDARDEBENE
 62
     7
100
AcDbVertex
100
AcDb2dVertex
 10
-14.98358153922286
 20
195.5331122015508
 30
0.0
  0
VERTEX
  5
19D
330
180
100
AcDbEntity
  8
STANDARDEBENE
 62
     7
100
AcDbVertex
100
AcDb2dVertex
 10
-14.768435326169
 20
195.7200086316256
 30
0.0
  0
VERTEX
  5
19E
330
180
100
AcDbEntity
  8
STANDARDEBENE
 62
     7
100
AcDbVertex
100
AcDb2dVertex
 10
-14.62718641127376
 20
195.9811468694075
 30
0.0
  0
VERTEX
  5
19F
330
180
100
AcDbEntity
  8
STANDARDEBENE
 62
     7
100
AcDbVertex
100
AcDb2dVertex
 10
-14.59204643732421
 20
196.2633001896495
 30
0.0
  0
SEQEND
  5
1A0
330
180
100
AcDbEntity
  8
STANDARDEBENE
  0
POLYLINE
  5
1A1
330
45
100
AcDbEntity
  8
STANDARDEBENE
 62
     7
100
AcDb2dPolyline
 66
     1
 10
0.0
 20
0.0
 30
0.0
  0
VERTEX
  5
1A2
330
1A1
100
AcDbEntity
  8
STANDARDEBENE
 62
     7
100
AcDbVertex
100
AcDb2dVertex
 10
-8.7183308897475
 20
195.9563421819137
 30
0.0
  0
VERTEX
  5
1A3
330
1A1
100
AcDbEntity
  8
STANDARDEBENE
 62
     7
100
AcDbVertex
100
AcDb2dVertex
 10
-8.58414442059702
 20
196.0305839896208
 30
0.0
  0
VERTEX
  5
1A4
330
1A1
100
AcDbEntity
  8
STANDARDEBENE
 62
     7
100
AcDbVertex
100
AcDb2dVertex
 10
-8.453747556480314
 20
196.1046535425537
 30
0.0
  0
VERTEX
  5
1A5
330
1A1
100
AcDbEntity
  8
STANDARDEBENE
 62
     7
100
AcDbVertex
100
AcDb2dVertex
 10
-8.330240883334106
 20
196.1751057452271
 30
0.0
  0
VERTEX
  5
1A6
330
1A1
100
AcDbEntity
  8
STANDARDEBENE
 62
     7
100
AcDbVertex
100
AcDb2dVertex
 10
-8.2067342101879
 20
196.2457302026747
 30
0.0
  0
VERTEX
  5
1A7
330
1A1
100
AcDbEntity
  8
STANDARDEBENE
 62
     7
100
AcDbVertex
100
AcDb2dVertex
 10
-8.083227537041694
 20
196.3161824053481
 30
0.0
  0
VERTEX
  5
1A8
330
1A1
100
AcDbEntity
  8
STANDARDEBENE
 62
     7
100
AcDbVertex
100
AcDb2dVertex
 10
-7.959720863895487
 20
196.3902519582809
 30
0.0
  0
VERTEX
  5
1A9
330
1A1
100
AcDbEntity
  8
STANDARDEBENE
 62
     7
100
AcDbVertex
100
AcDb2dVertex
 10
-7.839831541008793
 20
196.464493765988
 30
0.0
  0
VERTEX
  5
1AA
330
1A1
100
AcDbEntity
  8
STANDARDEBENE
 62
     7
100
AcDbVertex
100
AcDb2dVertex
 10
-7.719942218122098
 20
196.5385633189209
 30
0.0
  0
VERTEX
  5
1AB
330
1A1
100
AcDbEntity
  8
STANDARDEBENE
 62
     7
100
AcDbVertex
100
AcDb2dVertex
 10
-7.599880640461142
 20
196.6126328718538
 30
0.0
  0
VERTEX
  5
1AC
330
1A1
100
AcDbEntity
  8
STANDARDEBENE
 62
     7
100
AcDbVertex
100
AcDb2dVertex
 10
-7.479991317574447
 20
196.6901475202719
 30
0.0
  0
VERTEX
  5
1AD
330
1A1
100
AcDbEntity
  8
STANDARDEBENE
 62
     7
100
AcDbVertex
100
AcDb2dVertex
 10
-7.356484644428241
 20
196.7678344234643
 30
0.0
  0
VERTEX
  5
1AE
330
1A1
100
AcDbEntity
  8
STANDARDEBENE
 62
     7
100
AcDbVertex
100
AcDb2dVertex
 10
-7.236595321541546
 20
196.8489664221419
 30
0.0
  0
SEQEND
  5
1AF
330
1A1
100
AcDbEntity
  8
STANDARDEBENE
  0
POLYLINE
  5
1B0
330
45
100
AcDbEntity
  8
STANDARDEBENE
 62
     7
100
AcDb2dPolyline
 66
     1
 10
0.0
 20
0.0
 30
0.0
  0
VERTEX
  5
1B1
330
1B0
100
AcDbEntity
  8
STANDARDEBENE
 62
     7
100
AcDbVertex
100
AcDb2dVertex
 10
-7.497561304549222
 20
198.5422308531422
 30
0.0
  0
VERTEX
  5
1B2
330
1B0
100
AcDbEntity
  8
STANDARDEBENE
 62
     7
100
AcDbVertex
100
AcDb2dVertex
 10
-7.367164440432515
 20
198.4610988544646
 30
0.0
  0
VERTEX
  5
1B3
330
1B0
100
AcDbEntity
  8
STANDARDEBENE
 62
     7
100
AcDbVertex
100
AcDb2dVertex
 10
-7.243657767286308
 20
198.3658419642974
 30
0.0
  0
SEQEND
  5
1B4
330
1B0
100
AcDbEntity
  8
STANDARDEBENE
  0
POLYLINE
  5
1B5
330
45
100
AcDbEntity
  8
STANDARDEBENE
 62
     7
100
AcDb2dPolyline
 66
     1
 10
0.0
 20
0.0
 30
0.0
  0
VERTEX
  5
1B6
330
1B5
100
AcDbEntity
  8
STANDARDEBENE
 62
     7
100
AcDbVertex
100
AcDb2dVertex
 10
-10.21401909466872
 20
196.7890217606986
 30
0.0
  0
VERTEX
  5
1B7
330
1B5
100
AcDbEntity
  8
STANDARDEBENE
 62
     7
100
AcDbVertex
100
AcDb2dVertex
 10
-10.08344997577775
 20
196.7113348575062
 30
0.0
  0
VERTEX
  5
1B8
330
1B5
100
AcDbEntity
  8
STANDARDEBENE
 62
     7
100
AcDbVertex
100
AcDb2dVertex
 10
-9.94943576140153
 20
196.6372653045733
 30
0.0
  0
VERTEX
  5
1B9
330
1B5
100
AcDbEntity
  8
STANDARDEBENE
 62
     7
100
AcDbVertex
100
AcDb2dVertex
 10
-9.822483992770074
 20
196.5666408471257
 30
0.0
  0
VERTEX
  5
1BA
330
1B5
100
AcDbEntity
  8
STANDARDEBENE
 62
     7
100
AcDbVertex
100
AcDb2dVertex
 10
-9.713102211113391
 20
196.5032510901971
 30
0.0
  0
VERTEX
  5
1BB
330
1B5
100
AcDbEntity
  8
STANDARDEBENE
 62
     7
100
AcDbVertex
100
AcDb2dVertex
 10
-9.698977319623868
 20
196.4961886444524
 30
0.0
  0
VERTEX
  5
1BC
330
1B5
100
AcDbEntity
  8
STANDARDEBENE
 62
     7
100
AcDbVertex
100
AcDb2dVertex
 10
-9.57547064647766
 20
196.4291815372642
 30
0.0
  0
VERTEX
  5
1BD
330
1B5
100
AcDbEntity
  8
STANDARDEBENE
 62
     7
100
AcDbVertex
100
AcDb2dVertex
 10
-9.451963973331454
 20
196.3585570798166
 30
0.0
  0
VERTEX
  5
1BE
330
1B5
100
AcDbEntity
  8
STANDARDEBENE
 62
     7
100
AcDbVertex
100
AcDb2dVertex
 10
-9.441456432101441
 20
196.3551119843314
 30
0.0
  0
VERTEX
  5
1BF
330
1B5
100
AcDbEntity
  8
STANDARDEBENE
 62
     7
100
AcDbVertex
100
AcDb2dVertex
 10
-9.441456432101441
 20
196.3514946340719
 30
0.0
  0
VERTEX
  5
1C0
330
1B5
100
AcDbEntity
  8
STANDARDEBENE
 62
     7
100
AcDbVertex
100
AcDb2dVertex
 10
-9.328629554959509
 20
196.2915499726285
 30
0.0
  0
VERTEX
  5
1C1
330
1B5
100
AcDbEntity
  8
STANDARDEBENE
 62
     7
100
AcDbVertex
100
AcDb2dVertex
 10
-9.208567977298554
 20
196.2245428654404
 30
0.0
  0
VERTEX
  5
1C2
330
1B5
100
AcDbEntity
  8
STANDARDEBENE
 62
     7
100
AcDbVertex
100
AcDb2dVertex
 10
-9.088678654411858
 20
196.1575357582523
 30
0.0
  0
VERTEX
  5
1C3
330
1B5
100
AcDbEntity
  8
STANDARDEBENE
 62
     7
100
AcDbVertex
100
AcDb2dVertex
 10
-8.965171981265652
 20
196.0905286510642
 30
0.0
  0
VERTEX
  5
1C4
330
1B5
100
AcDbEntity
  8
STANDARDEBENE
 62
     7
100
AcDbVertex
100
AcDb2dVertex
 10
-8.841665308119445
 20
196.0235215438761
 30
0.0
  0
VERTEX
  5
1C5
330
1B5
100
AcDbEntity
  8
STANDARDEBENE
 62
     7
100
AcDbVertex
100
AcDb2dVertex
 10
-8.7183308897475
 20
195.9563421819137
 30
0.0
  0
SEQEND
  5
1C6
330
1B5
100
AcDbEntity
  8
STANDARDEBENE
  0
POLYLINE
  5
1C7
330
45
100
AcDbEntity
  8
STANDARDEBENE
 62
     7
100
AcDb2dPolyline
 66
     1
 10
0.0
 20
0.0
 30
0.0
  0
VERTEX
  5
1C8
330
1C7
100
AcDbEntity
  8
STANDARDEBENE
 62
     7
100
AcDbVertex
100
AcDb2dVertex
 10
-18.57492132782155
 20
192.5415635369341
 30
0.0
  0
VERTEX
  5
1C9
330
1C7
100
AcDbEntity
  8
STANDARDEBENE
 62
     7
100
AcDbVertex
100
AcDb2dVertex
 10
-18.53960909909774
 20
192.4533690925117
 30
0.0
  0
VERTEX
  5
1CA
330
1C7
100
AcDbEntity
  8
STANDARDEBENE
 62
     7
100
AcDbVertex
100
AcDb2dVertex
 10
-18.50067952011441
 20
192.3686197435745
 30
0.0
  0
VERTEX
  5
1CB
330
1C7
100
AcDbEntity
  8
STANDARDEBENE
 62
     7
100
AcDbVertex
100
AcDb2dVertex
 10
-18.44779730441583
 20
192.2628553121774
 30
0.0
  0
VERTEX
  5
1CC
330
1C7
100
AcDbEntity
  8
STANDARDEBENE
 62
     7
100
AcDbVertex
100
AcDb2dVertex
 10
-18.38785264297248
 20
192.1569186260059
 30
0.0
  0
SEQEND
  5
1CD
330
1C7
100
AcDbEntity
  8
STANDARDEBENE
  0
POLYLINE
  5
1CE
330
45
100
AcDbEntity
  8
STANDARDEBENE
 62
     7
100
AcDb2dPolyline
 66
     1
 10
0.0
 20
0.0
 30
0.0
  0
VERTEX
  5
1CF
330
1CE
100
AcDbEntity
  8
STANDARDEBENE
 62
     7
100
AcDbVertex
100
AcDb2dVertex
 10
-8.986359318499938
 20
198.5105359746779
 30
0.0
  0
VERTEX
  5
1D0
330
1CE
100
AcDbEntity
  8
STANDARDEBENE
 62
     7
100
AcDbVertex
100
AcDb2dVertex
 10
-8.848727753864207
 20
198.5846055276108
 30
0.0
  0
VERTEX
  5
1D1
330
1CE
100
AcDbEntity
  8
STANDARDEBENE
 62
     7
100
AcDbVertex
100
AcDb2dVertex
 10
-8.704205998257976
 20
198.6445501890541
 30
0.0
  0
VERTEX
  5
1D2
330
1CE
100
AcDbEntity
  8
STANDARDEBENE
 62
     7
100
AcDbVertex
100
AcDb2dVertex
 10
-8.552449542132722
 20
198.6869248635227
 30
0.0
  0
VERTEX
  5
1D3
330
1CE
100
AcDbEntity
  8
STANDARDEBENE
 62
     7
100
AcDbVertex
100
AcDb2dVertex
 10
-8.400693086007466
 20
198.7151746465018
 30
0.0
  0
VERTEX
  5
1D4
330
1CE
100
AcDbEntity
  8
STANDARDEBENE
 62
     7
100
AcDbVertex
100
AcDb2dVertex
 10
-8.245491534396962
 20
198.7292995379913
 30
0.0
  0
VERTEX
  5
1D5
330
1CE
100
AcDbEntity
  8
STANDARDEBENE
 62
     7
100
AcDbVertex
100
AcDb2dVertex
 10
-8.086844887301206
 20
198.7222370922465
 30
0.0
  0
VERTEX
  5
1D6
330
1CE
100
AcDbEntity
  8
STANDARDEBENE
 62
     7
100
AcDbVertex
100
AcDb2dVertex
 10
-7.93508843117595
 20
198.7010497550122
 30
0.0
  0
VERTEX
  5
1D7
330
1CE
100
AcDbEntity
  8
STANDARDEBENE
 62
     7
100
AcDbVertex
100
AcDb2dVertex
 10
-7.783331975050695
 20
198.6622924308032
 30
0.0
  0
VERTEX
  5
1D8
330
1CE
100
AcDbEntity
  8
STANDARDEBENE
 62
     7
100
AcDbVertex
100
AcDb2dVertex
 10
-7.635192869184952
 20
198.6128553105899
 30
0.0
  0
VERTEX
  5
1D9
330
1CE
100
AcDbEntity
  8
STANDARDEBENE
 62
     7
100
AcDbVertex
100
AcDb2dVertex
 10
-7.497561304549222
 20
198.5422308531422
 30
0.0
  0
SEQEND
  5
1DA
330
1CE
100
AcDbEntity
  8
STANDARDEBENE
  0
POLYLINE
  5
1DB
330
45
100
AcDbEntity
  8
STANDARDEBENE
 62
     7
100
AcDb2dPolyline
 66
     1
 10
0.0
 20
0.0
 30
0.0
  0
VERTEX
  5
1DC
330
1DB
100
AcDbEntity
  8
STANDARDEBENE
 62
     7
100
AcDbVertex
100
AcDb2dVertex
 10
-19.47443575902028
 20
193.995049322161
 30
0.0
  0
VERTEX
  5
1DD
330
1DB
100
AcDbEntity
  8
STANDARDEBENE
 62
     7
100
AcDbVertex
100
AcDb2dVertex
 10
-19.43567843481122
 20
193.6598415314461
 30
0.0
  0
VERTEX
  5
1DE
330
1DB
100
AcDbEntity
  8
STANDARDEBENE
 62
     7
100
AcDbVertex
100
AcDb2dVertex
 10
-19.35092908587407
 20
193.3353135367356
 30
0.0
  0
VERTEX
  5
1DF
330
1DB
100
AcDbEntity
  8
STANDARDEBENE
 62
     7
100
AcDbVertex
100
AcDb2dVertex
 10
-19.22397731724262
 20
193.0212930832551
 30
0.0
  0
VERTEX
  5
1E0
330
1DB
100
AcDbEntity
  8
STANDARDEBENE
 62
     7
100
AcDbVertex
100
AcDb2dVertex
 10
-19.05809596962784
 20
192.7284599670089
 30
0.0
  0
VERTEX
  5
1E1
330
1DB
100
AcDbEntity
  8
STANDARDEBENE
 62
     7
100
AcDbVertex
100
AcDb2dVertex
 10
-18.94165174222639
 20
192.5627508741684
 30
0.0
  0
VERTEX
  5
1E2
330
1DB
100
AcDbEntity
  8
STANDARDEBENE
 62
     7
100
AcDbVertex
100
AcDb2dVertex
 10
-18.81125487810969
 20
192.4109944180431
 30
0.0
  0
SEQEND
  5
1E3
330
1DB
100
AcDbEntity
  8
STANDARDEBENE
  0
POLYLINE
  5
1E4
330
45
100
AcDbEntity
  8
STANDARDEBENE
 62
     7
100
AcDb2dPolyline
 66
     1
 10
0.0
 20
0.0
 30
0.0
  0
VERTEX
  5
1E5
330
1E4
100
AcDbEntity
  8
STANDARDEBENE
 62
     7
100
AcDbVertex
100
AcDb2dVertex
 10
-18.19389376715291
 20
193.384750656949
 30
0.0
  0
VERTEX
  5
1E6
330
1E4
100
AcDbEntity
  8
STANDARDEBENE
 62
     7
100
AcDbVertex
100
AcDb2dVertex
 10
-18.13394910570957
 20
192.9895982047908
 30
0.0
  0
VERTEX
  5
1E7
330
1E4
100
AcDbEntity
  8
STANDARDEBENE
 62
     7
100
AcDbVertex
100
AcDb2dVertex
 10
-17.99631754107384
 20
192.6156330898669
 30
0.0
  0
VERTEX
  5
1E8
330
1E4
100
AcDbEntity
  8
STANDARDEBENE
 62
     7
100
AcDbVertex
100
AcDb2dVertex
 10
-17.78823377376475
 20
192.2733628534073
 30
0.0
  0
VERTEX
  5
1E9
330
1E4
100
AcDbEntity
  8
STANDARDEBENE
 62
     7
100
AcDbVertex
100
AcDb2dVertex
 10
-17.5165879947528
 20
191.9805297371611
 30
0.0
  0
SEQEND
  5
1EA
330
1E4
100
AcDbEntity
  8
STANDARDEBENE
  0
POLYLINE
  5
1EB
330
45
100
AcDbEntity
  8
STANDARDEBENE
 62
     7
100
AcDb2dPolyline
 66
     1
 10
0.0
 20
0.0
 30
0.0
  0
VERTEX
  5
1EC
330
1EB
100
AcDbEntity
  8
STANDARDEBENE
 62
     7
100
AcDbVertex
100
AcDb2dVertex
 10
-7.229532875796783
 20
197.6992159879016
 30
0.0
  0
VERTEX
  5
1ED
330
1EB
100
AcDbEntity
  8
STANDARDEBENE
 62
     7
100
AcDbVertex
100
AcDb2dVertex
 10
-7.229532875796783
 20
197.5932793017301
 30
0.0
  0
VERTEX
  5
1EE
330
1EB
100
AcDbEntity
  8
STANDARDEBENE
 62
     7
100
AcDbVertex
100
AcDb2dVertex
 10
-7.225915525537271
 20
197.487514870333
 30
0.0
  0
VERTEX
  5
1EF
330
1EB
100
AcDbEntity
  8
STANDARDEBENE
 62
     7
100
AcDbVertex
100
AcDb2dVertex
 10
-7.225915525537271
 20
197.3815781841616
 30
0.0
  0
VERTEX
  5
1F0
330
1EB
100
AcDbEntity
  8
STANDARDEBENE
 62
     7
100
AcDbVertex
100
AcDb2dVertex
 10
-7.229532875796783
 20
197.2758137527644
 30
0.0
  0
VERTEX
  5
1F1
330
1EB
100
AcDbEntity
  8
STANDARDEBENE
 62
     7
100
AcDbVertex
100
AcDb2dVertex
 10
-7.229532875796783
 20
197.1734944168525
 30
0.0
  0
VERTEX
  5
1F2
330
1EB
100
AcDbEntity
  8
STANDARDEBENE
 62
     7
100
AcDbVertex
100
AcDb2dVertex
 10
-7.229532875796783
 20
197.0677299854553
 30
0.0
  0
VERTEX
  5
1F3
330
1EB
100
AcDbEntity
  8
STANDARDEBENE
 62
     7
100
AcDbVertex
100
AcDb2dVertex
 10
-7.232977971282033
 20
196.9583482037986
 30
0.0
  0
VERTEX
  5
1F4
330
1EB
100
AcDbEntity
  8
STANDARDEBENE
 62
     7
100
AcDbVertex
100
AcDb2dVertex
 10
-7.236595321541546
 20
196.8489664221419
 30
0.0
  0
SEQEND
  5
1F5
330
1EB
100
AcDbEntity
  8
STANDARDEBENE
  0
POLYLINE
  5
1F6
330
45
100
AcDbEntity
  8
STANDARDEBENE
 62
     7
100
AcDb2dPolyline
 66
     1
 10
0.0
 20
0.0
 30
0.0
  0
VERTEX
  5
1F7
330
1F6
100
AcDbEntity
  8
STANDARDEBENE
 62
     7
100
AcDbVertex
100
AcDb2dVertex
 10
-8.714713539487988
 20
195.9387721949389
 30
0.0
  0
VERTEX
  5
1F8
330
1F6
100
AcDbEntity
  8
STANDARDEBENE
 62
     7
100
AcDbVertex
100
AcDb2dVertex
 10
-8.88765733284753
 20
195.9458346406837
 30
0.0
  0
VERTEX
  5
1F9
330
1F6
100
AcDbEntity
  8
STANDARDEBENE
 62
     7
100
AcDbVertex
100
AcDb2dVertex
 10
-9.05698377594756
 20
195.967021977918
 30
0.0
  0
VERTEX
  5
1FA
330
1F6
100
AcDbEntity
  8
STANDARDEBENE
 62
     7
100
AcDbVertex
100
AcDb2dVertex
 10
-9.222692868788076
 20
196.005779302127
 30
0.0
  0
VERTEX
  5
1FB
330
1F6
100
AcDbEntity
  8
STANDARDEBENE
 62
     7
100
AcDbVertex
100
AcDb2dVertex
 10
-9.384956866143344
 20
196.0586615178256
 30
0.0
  0
VERTEX
  5
1FC
330
1F6
100
AcDbEntity
  8
STANDARDEBENE
 62
     7
100
AcDbVertex
100
AcDb2dVertex
 10
-9.54015841775385
 20
196.1292859752732
 30
0.0
  0
VERTEX
  5
1FD
330
1F6
100
AcDbEntity
  8
STANDARDEBENE
 62
     7
100
AcDbVertex
100
AcDb2dVertex
 10
-9.684852428134343
 20
196.2138630694361
 30
0.0
  0
VERTEX
  5
1FE
330
1F6
100
AcDbEntity
  8
STANDARDEBENE
 62
     7
100
AcDbVertex
100
AcDb2dVertex
 10
-9.825929088255323
 20
196.3127373098628
 30
0.0
  0
VERTEX
  5
1FF
330
1F6
100
AcDbEntity
  8
STANDARDEBENE
 62
     7
100
AcDbVertex
100
AcDb2dVertex
 10
-9.95288085688678
 20
196.4255641870047
 30
0.0
  0
VERTEX
  5
200
330
1F6
100
AcDbEntity
  8
STANDARDEBENE
 62
     7
100
AcDbVertex
100
AcDb2dVertex
 10
-10.06932508428823
 20
196.5490708601509
 30
0.0
  0
VERTEX
  5
201
330
1F6
100
AcDbEntity
  8
STANDARDEBENE
 62
     7
100
AcDbVertex
100
AcDb2dVertex
 10
-10.17164442020015
 20
196.6830850745272
 30
0.0
  0
VERTEX
  5
202
330
1F6
100
AcDbEntity
  8
STANDARDEBENE
 62
     7
100
AcDbVertex
100
AcDb2dVertex
 10
-10.20351155343871
 20
196.7290770992552
 30
0.0
  0
VERTEX
  5
203
330
1F6
100
AcDbEntity
  8
STANDARDEBENE
 62
     7
100
AcDbVertex
100
AcDb2dVertex
 10
-10.23158908164349
 20
196.7783419646943
 30
0.0
  0
SEQEND
  5
204
330
1F6
100
AcDbEntity
  8
STANDARDEBENE
  0
POLYLINE
  5
205
330
45
100
AcDbEntity
  8
STANDARDEBENE
 62
     7
100
AcDb2dPolyline
 66
     1
 10
0.0
 20
0.0
 30
0.0
  0
VERTEX
  5
206
330
205
100
AcDbEntity
  8
STANDARDEBENE
 62
     7
100
AcDbVertex
100
AcDb2dVertex
 10
-17.5165879947528
 20
191.9805297371611
 30
0.0
  0
VERTEX
  5
207
330
205
100
AcDbEntity
  8
STANDARDEBENE
 62
     7
100
AcDbVertex
100
AcDb2dVertex
 10
-17.38946397134708
 20
191.8818277515087
 30
0.0
  0
VERTEX
  5
208
330
205
100
AcDbEntity
  8
STANDARDEBENE
 62
     7
100
AcDbVertex
100
AcDb2dVertex
 10
-17.29420708117992
 20
191.8112032940611
 30
0.0
  0
VERTEX
  5
209
330
205
100
AcDbEntity
  8
STANDARDEBENE
 62
     7
100
AcDbVertex
100
AcDb2dVertex
 10
-17.05081108514702
 20
191.6737439841996
 30
0.0
  0
SEQEND
  5
20A
330
205
100
AcDbEntity
  8
STANDARDEBENE
  0
POLYLINE
  5
20B
330
45
100
AcDbEntity
  8
STANDARDEBENE
 62
     7
100
AcDb2dPolyline
 66
     1
 10
0.0
 20
0.0
 30
0.0
  0
VERTEX
  5
20C
330
20B
100
AcDbEntity
  8
STANDARDEBENE
 62
     7
100
AcDbVertex
100
AcDb2dVertex
 10
-7.25072021303107
 20
198.5740979863808
 30
0.0
  0
VERTEX
  5
20D
330
20B
100
AcDbEntity
  8
STANDARDEBENE
 62
     7
100
AcDbVertex
100
AcDb2dVertex
 10
-7.247102862771558
 20
198.4576537589793
 30
0.0
  0
VERTEX
  5
20E
330
20B
100
AcDbEntity
  8
STANDARDEBENE
 62
     7
100
AcDbVertex
100
AcDb2dVertex
 10
-7.247102862771558
 20
198.4047715432808
 30
0.0
  0
VERTEX
  5
20F
330
20B
100
AcDbEntity
  8
STANDARDEBENE
 62
     7
100
AcDbVertex
100
AcDb2dVertex
 10
-7.243657767286308
 20
198.3658419642974
 30
0.0
  0
VERTEX
  5
210
330
20B
100
AcDbEntity
  8
STANDARDEBENE
 62
     7
100
AcDbVertex
100
AcDb2dVertex
 10
-7.243657767286308
 20
198.3446546270632
 30
0.0
  0
VERTEX
  5
211
330
20B
100
AcDbEntity
  8
STANDARDEBENE
 62
     7
100
AcDbVertex
100
AcDb2dVertex
 10
-7.240040417026796
 20
198.2352728454065
 30
0.0
  0
VERTEX
  5
212
330
20B
100
AcDbEntity
  8
STANDARDEBENE
 62
     7
100
AcDbVertex
100
AcDb2dVertex
 10
-7.236595321541546
 20
198.126063318524
 30
0.0
  0
VERTEX
  5
213
330
20B
100
AcDbEntity
  8
STANDARDEBENE
 62
     7
100
AcDbVertex
100
AcDb2dVertex
 10
-7.232977971282033
 20
198.0166815368674
 30
0.0
  0
VERTEX
  5
214
330
20B
100
AcDbEntity
  8
STANDARDEBENE
 62
     7
100
AcDbVertex
100
AcDb2dVertex
 10
-7.232977971282033
 20
197.9107448506959
 30
0.0
  0
VERTEX
  5
215
330
20B
100
AcDbEntity
  8
STANDARDEBENE
 62
     7
100
AcDbVertex
100
AcDb2dVertex
 10
-7.229532875796783
 20
197.8049804192988
 30
0.0
  0
VERTEX
  5
216
330
20B
100
AcDbEntity
  8
STANDARDEBENE
 62
     7
100
AcDbVertex
100
AcDb2dVertex
 10
-7.229532875796783
 20
197.6992159879016
 30
0.0
  0
SEQEND
  5
217
330
20B
100
AcDbEntity
  8
STANDARDEBENE
  0
POLYLINE
  5
218
330
45
100
AcDbEntity
  8
STANDARDEBENE
 62
     7
100
AcDb2dPolyline
 66
     1
 10
0.0
 20
0.0
 30
0.0
  0
VERTEX
  5
219
330
218
100
AcDbEntity
  8
STANDARDEBENE
 62
     7
100
AcDbVertex
100
AcDb2dVertex
 10
-7.236595321541546
 20
198.5846055276108
 30
0.0
  0
VERTEX
  5
21A
330
218
100
AcDbEntity
  8
STANDARDEBENE
 62
     7
100
AcDbVertex
100
AcDb2dVertex
 10
-7.236595321541546
 20
198.5811604321256
 30
0.0
  0
VERTEX
  5
21B
330
218
100
AcDbEntity
  8
STANDARDEBENE
 62
     7
100
AcDbVertex
100
AcDb2dVertex
 10
-7.222470430052022
 20
198.5599730948913
 30
0.0
  0
VERTEX
  5
21C
330
218
100
AcDbEntity
  8
STANDARDEBENE
 62
     7
100
AcDbVertex
100
AcDb2dVertex
 10
-7.208345538562497
 20
198.5351684073975
 30
0.0
  0
SEQEND
  5
21D
330
218
100
AcDbEntity
  8
STANDARDEBENE
  0
POLYLINE
  5
21E
330
45
100
AcDbEntity
  8
STANDARDEBENE
 62
     7
100
AcDb2dPolyline
 66
     1
 10
0.0
 20
0.0
 30
0.0
  0
VERTEX
  5
21F
330
21E
100
AcDbEntity
  8
STANDARDEBENE
 62
     7
100
AcDbVertex
100
AcDb2dVertex
 10
-10.21401909466872
 20
196.7890217606986
 30
0.0
  0
VERTEX
  5
220
330
21E
100
AcDbEntity
  8
STANDARDEBENE
 62
     7
100
AcDbVertex
100
AcDb2dVertex
 10
-10.21401909466872
 20
196.8947861920958
 30
0.0
  0
VERTEX
  5
221
330
21E
100
AcDbEntity
  8
STANDARDEBENE
 62
     7
100
AcDbVertex
100
AcDb2dVertex
 10
-10.21057399918347
 20
197.0041679737524
 30
0.0
  0
VERTEX
  5
222
330
21E
100
AcDbEntity
  8
STANDARDEBENE
 62
     7
100
AcDbVertex
100
AcDb2dVertex
 10
-10.21057399918347
 20
197.1099324051496
 30
0.0
  0
VERTEX
  5
223
330
21E
100
AcDbEntity
  8
STANDARDEBENE
 62
     7
100
AcDbVertex
100
AcDb2dVertex
 10
-10.21057399918347
 20
197.2158690913211
 30
0.0
  0
VERTEX
  5
224
330
21E
100
AcDbEntity
  8
STANDARDEBENE
 62
     7
100
AcDbVertex
100
AcDb2dVertex
 10
-10.20695664892396
 20
197.318188427233
 30
0.0
  0
VERTEX
  5
225
330
21E
100
AcDbEntity
  8
STANDARDEBENE
 62
     7
100
AcDbVertex
100
AcDb2dVertex
 10
-10.20695664892396
 20
197.4239528586301
 30
0.0
  0
VERTEX
  5
226
330
21E
100
AcDbEntity
  8
STANDARDEBENE
 62
     7
100
AcDbVertex
100
AcDb2dVertex
 10
-10.20695664892396
 20
197.5297172900273
 30
0.0
  0
VERTEX
  5
227
330
21E
100
AcDbEntity
  8
STANDARDEBENE
 62
     7
100
AcDbVertex
100
AcDb2dVertex
 10
-10.21057399918347
 20
197.6356539761987
 30
0.0
  0
SEQEND
  5
228
330
21E
100
AcDbEntity
  8
STANDARDEBENE
  0
POLYLINE
  5
229
330
45
100
AcDbEntity
  8
STANDARDEBENE
 62
     7
100
AcDb2dPolyline
 66
     1
 10
0.0
 20
0.0
 30
0.0
  0
VERTEX
  5
22A
330
229
100
AcDbEntity
  8
STANDARDEBENE
 62
     7
100
AcDbVertex
100
AcDb2dVertex
 10
-9.720164656858154
 20
197.2017441998315
 30
0.0
  0
VERTEX
  5
22B
330
229
100
AcDbEntity
  8
STANDARDEBENE
 62
     7
100
AcDbVertex
100
AcDb2dVertex
 10
-9.720164656858154
 20
197.2193141868063
 30
0.0
  0
VERTEX
  5
22C
330
229
100
AcDbEntity
  8
STANDARDEBENE
 62
     7
100
AcDbVertex
100
AcDb2dVertex
 10
-9.713102211113391
 20
197.3603908469273
 30
0.0
  0
VERTEX
  5
22D
330
229
100
AcDbEntity
  8
STANDARDEBENE
 62
     7
100
AcDbVertex
100
AcDb2dVertex
 10
-9.691914873879105
 20
197.515764653312
 30
0.0
  0
VERTEX
  5
22E
330
229
100
AcDbEntity
  8
STANDARDEBENE
 62
     7
100
AcDbVertex
100
AcDb2dVertex
 10
-9.649540199410533
 20
197.667348854663
 30
0.0
  0
VERTEX
  5
22F
330
229
100
AcDbEntity
  8
STANDARDEBENE
 62
     7
100
AcDbVertex
100
AcDb2dVertex
 10
-9.596657983711948
 20
197.8120428650435
 30
0.0
  0
VERTEX
  5
230
330
229
100
AcDbEntity
  8
STANDARDEBENE
 62
     7
100
AcDbVertex
100
AcDb2dVertex
 10
-9.526033526264325
 20
197.9531195251645
 30
0.0
  0
VERTEX
  5
231
330
229
100
AcDbEntity
  8
STANDARDEBENE
 62
     7
100
AcDbVertex
100
AcDb2dVertex
 10
-9.444901527586692
 20
198.0871337395407
 30
0.0
  0
VERTEX
  5
232
330
229
100
AcDbEntity
  8
STANDARDEBENE
 62
     7
100
AcDbVertex
100
AcDb2dVertex
 10
-9.346199541934284
 20
198.2106404126869
 30
0.0
  0
VERTEX
  5
233
330
229
100
AcDbEntity
  8
STANDARDEBENE
 62
     7
100
AcDbVertex
100
AcDb2dVertex
 10
-9.236817760277601
 20
198.3234672898289
 30
0.0
  0
VERTEX
  5
234
330
229
100
AcDbEntity
  8
STANDARDEBENE
 62
     7
100
AcDbVertex
100
AcDb2dVertex
 10
-9.116928437390907
 20
198.4223415302555
 30
0.0
  0
VERTEX
  5
235
330
229
100
AcDbEntity
  8
STANDARDEBENE
 62
     7
100
AcDbVertex
100
AcDb2dVertex
 10
-8.989804413985189
 20
198.5105359746779
 30
0.0
  0
VERTEX
  5
236
330
229
100
AcDbEntity
  8
STANDARDEBENE
 62
     7
100
AcDbVertex
100
AcDb2dVertex
 10
-8.986359318499938
 20
198.5105359746779
 30
0.0
  0
SEQEND
  5
237
330
229
100
AcDbEntity
  8
STANDARDEBENE
  0
POLYLINE
  5
238
330
45
100
AcDbEntity
  8
STANDARDEBENE
 62
     7
100
AcDb2dPolyline
 66
     1
 10
0.0
 20
0.0
 30
0.0
  0
VERTEX
  5
239
330
238
100
AcDbEntity
  8
STANDARDEBENE
 62
     7
100
AcDbVertex
100
AcDb2dVertex
 10
-10.21057399918347
 20
197.6356539761987
 30
0.0
  0
VERTEX
  5
23A
330
238
100
AcDbEntity
  8
STANDARDEBENE
 62
     7
100
AcDbVertex
100
AcDb2dVertex
 10
-10.21057399918347
 20
197.7414184075959
 30
0.0
  0
VERTEX
  5
23B
330
238
100
AcDbEntity
  8
STANDARDEBENE
 62
     7
100
AcDbVertex
100
AcDb2dVertex
 10
-10.21401909466872
 20
197.8473550937673
 30
0.0
  0
VERTEX
  5
23C
330
238
100
AcDbEntity
  8
STANDARDEBENE
 62
     7
100
AcDbVertex
100
AcDb2dVertex
 10
-10.21401909466872
 20
197.956736875424
 30
0.0
  0
VERTEX
  5
23D
330
238
100
AcDbEntity
  8
STANDARDEBENE
 62
     7
100
AcDbVertex
100
AcDb2dVertex
 10
-10.21746419015397
 20
198.0625013068212
 30
0.0
  0
VERTEX
  5
23E
330
238
100
AcDbEntity
  8
STANDARDEBENE
 62
     7
100
AcDbVertex
100
AcDb2dVertex
 10
-10.22108154041348
 20
198.1718830884779
 30
0.0
  0
VERTEX
  5
23F
330
238
100
AcDbEntity
  8
STANDARDEBENE
 62
     7
100
AcDbVertex
100
AcDb2dVertex
 10
-10.22452663589873
 20
198.2812648701345
 30
0.0
  0
VERTEX
  5
240
330
238
100
AcDbEntity
  8
STANDARDEBENE
 62
     7
100
AcDbVertex
100
AcDb2dVertex
 10
-10.22814398615824
 20
198.397709097536
 30
0.0
  0
VERTEX
  5
241
330
238
100
AcDbEntity
  8
STANDARDEBENE
 62
     7
100
AcDbVertex
100
AcDb2dVertex
 10
-10.235206431903
 20
198.5105359746779
 30
0.0
  0
SEQEND
  5
242
330
238
100
AcDbEntity
  8
STANDARDEBENE
  0
POLYLINE
  5
243
330
45
100
AcDbEntity
  8
STANDARDEBENE
 62
     7
100
AcDb2dPolyline
 66
     1
 10
0.0
 20
0.0
 30
0.0
  0
VERTEX
  5
244
330
243
100
AcDbEntity
  8
STANDARDEBENE
 62
     7
100
AcDbVertex
100
AcDb2dVertex
 10
-6.996644420993895
 20
197.7167859748764
 30
0.0
  0
VERTEX
  5
245
330
243
100
AcDbEntity
  8
STANDARDEBENE
 62
     7
100
AcDbVertex
100
AcDb2dVertex
 10
-7.003706866738657
 20
197.5474595317763
 30
0.0
  0
VERTEX
  5
246
330
243
100
AcDbEntity
  8
STANDARDEBENE
 62
     7
100
AcDbVertex
100
AcDb2dVertex
 10
-7.024894203972943
 20
197.3781330886763
 30
0.0
  0
VERTEX
  5
247
330
243
100
AcDbEntity
  8
STANDARDEBENE
 62
     7
100
AcDbVertex
100
AcDb2dVertex
 10
-7.067268878441516
 20
197.2122517410615
 30
0.0
  0
VERTEX
  5
248
330
243
100
AcDbEntity
  8
STANDARDEBENE
 62
     7
100
AcDbVertex
100
AcDb2dVertex
 10
-7.123768444399614
 20
197.0499877437063
 30
0.0
  0
VERTEX
  5
249
330
243
100
AcDbEntity
  8
STANDARDEBENE
 62
     7
100
AcDbVertex
100
AcDb2dVertex
 10
-7.169588214353436
 20
196.9442233123091
 30
0.0
  0
VERTEX
  5
24A
330
243
100
AcDbEntity
  8
STANDARDEBENE
 62
     7
100
AcDbVertex
100
AcDb2dVertex
 10
-7.222470430052022
 20
196.8419039763972
 30
0.0
  0
SEQEND
  5
24B
330
243
100
AcDbEntity
  8
STANDARDEBENE
  0
POLYLINE
  5
24C
330
45
100
AcDbEntity
  8
STANDARDEBENE
 62
     7
100
AcDb2dPolyline
 66
     1
 10
0.0
 20
0.0
 30
0.0
  0
VERTEX
  5
24D
330
24C
100
AcDbEntity
  8
STANDARDEBENE
 62
     7
100
AcDbVertex
100
AcDb2dVertex
 10
-17.491783307259
 20
192.0053344246549
 30
0.0
  0
VERTEX
  5
24E
330
24C
100
AcDbEntity
  8
STANDARDEBENE
 62
     7
100
AcDbVertex
100
AcDb2dVertex
 10
-17.43183864581565
 20
191.931264871722
 30
0.0
  0
VERTEX
  5
24F
330
24C
100
AcDbEntity
  8
STANDARDEBENE
 62
     7
100
AcDbVertex
100
AcDb2dVertex
 10
-17.38946397134708
 20
191.8818277515087
 30
0.0
  0
VERTEX
  5
250
330
24C
100
AcDbEntity
  8
STANDARDEBENE
 62
     7
100
AcDbVertex
100
AcDb2dVertex
 10
-17.36827663411279
 20
191.8606404142744
 30
0.0
  0
SEQEND
  5
251
330
24C
100
AcDbEntity
  8
STANDARDEBENE
  0
POLYLINE
  5
252
330
45
100
AcDbEntity
  8
STANDARDEBENE
 62
     7
100
AcDb2dPolyline
 66
     1
 10
0.0
 20
0.0
 30
0.0
  0
VERTEX
  5
253
330
252
100
AcDbEntity
  8
STANDARDEBENE
 62
     7
100
AcDbVertex
100
AcDb2dVertex
 10
-5.23637288280549
 20
195.2578490722793
 30
0.0
  0
VERTEX
  5
254
330
252
100
AcDbEntity
  8
STANDARDEBENE
 62
     7
100
AcDbVertex
100
AcDb2dVertex
 10
-4.968172199278791
 20
195.695376198906
 30
0.0
  0
VERTEX
  5
255
330
252
100
AcDbEntity
  8
STANDARDEBENE
 62
     7
100
AcDbVertex
100
AcDb2dVertex
 10
-4.756471081710188
 20
196.1645982039971
 30
0.0
  0
VERTEX
  5
256
330
252
100
AcDbEntity
  8
STANDARDEBENE
 62
     7
100
AcDbVertex
100
AcDb2dVertex
 10
-4.601269530099683
 20
196.6513901960629
 30
0.0
  0
VERTEX
  5
257
330
252
100
AcDbEntity
  8
STANDARDEBENE
 62
     7
100
AcDbVertex
100
AcDb2dVertex
 10
-4.506012639932525
 20
197.1559244298777
 30
0.0
  0
VERTEX
  5
258
330
252
100
AcDbEntity
  8
STANDARDEBENE
 62
     7
100
AcDbVertex
100
AcDb2dVertex
 10
-4.470872665982976
 20
197.6639037591778
 30
0.0
  0
VERTEX
  5
259
330
252
100
AcDbEntity
  8
STANDARDEBENE
 62
     7
100
AcDbVertex
100
AcDb2dVertex
 10
-4.498950194187763
 20
198.1753281839631
 30
0.0
  0
VERTEX
  5
25A
330
252
100
AcDbEntity
  8
STANDARDEBENE
 62
     7
100
AcDbVertex
100
AcDb2dVertex
 10
-4.587144638610159
 20
198.6762450675184
 30
0.0
  0
VERTEX
  5
25B
330
252
100
AcDbEntity
  8
STANDARDEBENE
 62
     7
100
AcDbVertex
100
AcDb2dVertex
 10
-4.735455999250164
 20
199.1632093143585
 30
0.0
  0
VERTEX
  5
25C
330
252
100
AcDbEntity
  8
STANDARDEBENE
 62
     7
100
AcDbVertex
100
AcDb2dVertex
 10
-4.939922416299741
 20
199.62881396919
 30
0.0
  0
VERTEX
  5
25D
330
252
100
AcDbEntity
  8
STANDARDEBENE
 62
     7
100
AcDbVertex
100
AcDb2dVertex
 10
-5.20106065408168
 20
200.0627237455572
 30
0.0
  0
VERTEX
  5
25E
330
252
100
AcDbEntity
  8
STANDARDEBENE
 62
     7
100
AcDbVertex
100
AcDb2dVertex
 10
-5.515081107562202
 20
200.4649386434602
 30
0.0
  0
VERTEX
  5
25F
330
252
100
AcDbEntity
  8
STANDARDEBENE
 62
     7
100
AcDbVertex
100
AcDb2dVertex
 10
-5.871303980737036
 20
200.8247788668945
 30
0.0
  0
VERTEX
  5
260
330
252
100
AcDbEntity
  8
STANDARDEBENE
 62
     7
100
AcDbVertex
100
AcDb2dVertex
 10
-6.273518878639954
 20
201.1351819701155
 30
0.0
  0
VERTEX
  5
261
330
252
100
AcDbEntity
  8
STANDARDEBENE
 62
     7
100
AcDbVertex
100
AcDb2dVertex
 10
-6.707428655007171
 20
201.3997653033827
 30
0.0
  0
VERTEX
  5
262
330
252
100
AcDbEntity
  8
STANDARDEBENE
 62
     7
100
AcDbVertex
100
AcDb2dVertex
 10
-7.169588214353436
 20
201.6044039752065
 30
0.0
  0
VERTEX
  5
263
330
252
100
AcDbEntity
  8
STANDARDEBENE
 62
     7
100
AcDbVertex
100
AcDb2dVertex
 10
-7.656380206419239
 20
201.7561604313318
 30
0.0
  0
VERTEX
  5
264
330
252
100
AcDbEntity
  8
STANDARDEBENE
 62
     7
100
AcDbVertex
100
AcDb2dVertex
 10
-8.157297089974564
 20
201.8443548757542
 30
0.0
  0
VERTEX
  5
265
330
252
100
AcDbEntity
  8
STANDARDEBENE
 62
     7
100
AcDbVertex
100
AcDb2dVertex
 10
-8.665276419274653
 20
201.872432403959
 30
0.0
  0
VERTEX
  5
266
330
252
100
AcDbEntity
  8
STANDARDEBENE
 62
     7
100
AcDbVertex
100
AcDb2dVertex
 10
-9.176873098834255
 20
201.8407375254947
 30
0.0
  0
VERTEX
  5
267
330
252
100
AcDbEntity
  8
STANDARDEBENE
 62
     7
100
AcDbVertex
100
AcDb2dVertex
 10
-9.67778998238958
 20
201.7454806353275
 30
0.0
  0
VERTEX
  5
268
330
252
100
AcDbEntity
  8
STANDARDEBENE
 62
     7
100
AcDbVertex
100
AcDb2dVertex
 10
-10.16458197445538
 20
201.590279083717
 30
0.0
  0
VERTEX
  5
269
330
252
100
AcDbEntity
  8
STANDARDEBENE
 62
     7
100
AcDbVertex
100
AcDb2dVertex
 10
-10.63035888406116
 20
201.3821953164079
 30
0.0
  0
VERTEX
  5
26A
330
252
100
AcDbEntity
  8
STANDARDEBENE
 62
     7
100
AcDbVertex
100
AcDb2dVertex
 10
-11.07133110617314
 20
201.1139946328812
 30
0.0
  0
VERTEX
  5
26B
330
252
100
AcDbEntity
  8
STANDARDEBENE
 62
     7
100
AcDbVertex
100
AcDb2dVertex
 10
-11.4733737493018
 20
200.7965290839155
 30
0.0
  0
VERTEX
  5
26C
330
252
100
AcDbEntity
  8
STANDARDEBENE
 62
     7
100
AcDbVertex
100
AcDb2dVertex
 10
-11.83683132299565
 20
200.4332437649959
 30
0.0
  0
VERTEX
  5
26D
330
252
100
AcDbEntity
  8
STANDARDEBENE
 62
     7
100
AcDbVertex
100
AcDb2dVertex
 10
-12.15429687196143
 20
200.0310288670929
 30
0.0
  0
SEQEND
  5
26E
330
252
100
AcDbEntity
  8
STANDARDEBENE
  0
POLYLINE
  5
26F
330
45
100
AcDbEntity
  8
STANDARDEBENE
 62
     7
100
AcDb2dPolyline
 66
     1
 10
0.0
 20
0.0
 30
0.0
  0
VERTEX
  5
270
330
26F
100
AcDbEntity
  8
STANDARDEBENE
 62
     7
100
AcDbVertex
100
AcDb2dVertex
 10
-27.2884290838897
 20
201.4526475190813
 30
0.0
  0
VERTEX
  5
271
330
26F
100
AcDbEntity
  8
STANDARDEBENE
 62
     7
100
AcDbVertex
100
AcDb2dVertex
 10
-27.22486707218684
 20
201.6679659869094
 30
0.0
  0
VERTEX
  5
272
330
26F
100
AcDbEntity
  8
STANDARDEBENE
 62
     7
100
AcDbVertex
100
AcDb2dVertex
 10
-27.168539761003
 20
201.8831121999633
 30
0.0
  0
VERTEX
  5
273
330
26F
100
AcDbEntity
  8
STANDARDEBENE
 62
     7
100
AcDbVertex
100
AcDb2dVertex
 10
-27.11204019504491
 20
202.1018757632766
 30
0.0
  0
VERTEX
  5
274
330
26F
100
AcDbEntity
  8
STANDARDEBENE
 62
     7
100
AcDbVertex
100
AcDb2dVertex
 10
-27.06622042509109
 20
202.3204670718157
 30
0.0
  0
SEQEND
  5
275
330
26F
100
AcDbEntity
  8
STANDARDEBENE
  0
POLYLINE
  5
276
330
45
100
AcDbEntity
  8
STANDARDEBENE
 62
     7
100
AcDb2dPolyline
 66
     1
 10
0.0
 20
0.0
 30
0.0
  0
VERTEX
  5
277
330
276
100
AcDbEntity
  8
STANDARDEBENE
 62
     7
100
AcDbVertex
100
AcDb2dVertex
 10
-5.20106065408168
 20
197.7061061788721
 30
0.0
  0
VERTEX
  5
278
330
276
100
AcDbEntity
  8
STANDARDEBENE
 62
     7
100
AcDbVertex
100
AcDb2dVertex
 10
-5.229310437060728
 20
197.367453292672
 30
0.0
  0
VERTEX
  5
279
330
276
100
AcDbEntity
  8
STANDARDEBENE
 62
     7
100
AcDbVertex
100
AcDb2dVertex
 10
-5.261005315525026
 20
197.028800406472
 30
0.0
  0
VERTEX
  5
27A
330
276
100
AcDbEntity
  8
STANDARDEBENE
 62
     7
100
AcDbVertex
100
AcDb2dVertex
 10
-5.356262205692184
 20
196.7008273162762
 30
0.0
  0
VERTEX
  5
27B
330
276
100
AcDbEntity
  8
STANDARDEBENE
 62
     7
100
AcDbVertex
100
AcDb2dVertex
 10
-5.451519095859343
 20
196.3726819713062
 30
0.0
  0
VERTEX
  5
27C
330
276
100
AcDbEntity
  8
STANDARDEBENE
 62
     7
100
AcDbVertex
100
AcDb2dVertex
 10
-5.606720647469848
 20
196.0693413138299
 30
0.0
  0
VERTEX
  5
27D
330
276
100
AcDbEntity
  8
STANDARDEBENE
 62
     7
100
AcDbVertex
100
AcDb2dVertex
 10
-5.761922199080353
 20
195.7660006563536
 30
0.0
  0
VERTEX
  5
27E
330
276
100
AcDbEntity
  8
STANDARDEBENE
 62
     7
100
AcDbVertex
100
AcDb2dVertex
 10
-5.980685762393717
 20
195.4943548773417
 30
0.0
  0
VERTEX
  5
27F
330
276
100
AcDbEntity
  8
STANDARDEBENE
 62
     7
100
AcDbVertex
100
AcDb2dVertex
 10
-6.19583197544757
 20
195.2227090983297
 30
0.0
  0
VERTEX
  5
280
330
276
100
AcDbEntity
  8
STANDARDEBENE
 62
     7
100
AcDbVertex
100
AcDb2dVertex
 10
-6.456970213229508
 20
195.0003281847569
 30
0.0
  0
VERTEX
  5
281
330
276
100
AcDbEntity
  8
STANDARDEBENE
 62
     7
100
AcDbVertex
100
AcDb2dVertex
 10
-6.714491100751933
 20
194.7817368762178
 30
0.0
  0
VERTEX
  5
282
330
276
100
AcDbEntity
  8
STANDARDEBENE
 62
     7
100
AcDbVertex
100
AcDb2dVertex
 10
-7.014386662742932
 20
194.6124104331177
 30
0.0
  0
VERTEX
  5
283
330
276
100
AcDbEntity
  8
STANDARDEBENE
 62
     7
100
AcDbVertex
100
AcDb2dVertex
 10
-7.310664874474417
 20
194.446529085503
 30
0.0
  0
VERTEX
  5
284
330
276
100
AcDbEntity
  8
STANDARDEBENE
 62
     7
100
AcDbVertex
100
AcDb2dVertex
 10
-7.635192869184952
 20
194.3407646541058
 30
0.0
  0
VERTEX
  5
285
330
276
100
AcDbEntity
  8
STANDARDEBENE
 62
     7
100
AcDbVertex
100
AcDb2dVertex
 10
-7.956275768410237
 20
194.2313828724491
 30
0.0
  0
VERTEX
  5
286
330
276
100
AcDbEntity
  8
STANDARDEBENE
 62
     7
100
AcDbVertex
100
AcDb2dVertex
 10
-8.301991100355059
 20
194.1924532934658
 30
0.0
  0
VERTEX
  5
287
330
276
100
AcDbEntity
  8
STANDARDEBENE
 62
     7
100
AcDbVertex
100
AcDb2dVertex
 10
-8.644089082040367
 20
194.1502508737715
 30
0.0
  0
VERTEX
  5
288
330
276
100
AcDbEntity
  8
STANDARDEBENE
 62
     7
100
AcDbVertex
100
AcDb2dVertex
 10
-8.982914223014689
 20
194.174883306491
 30
0.0
  0
VERTEX
  5
289
330
276
100
AcDbEntity
  8
STANDARDEBENE
 62
     7
100
AcDbVertex
100
AcDb2dVertex
 10
-9.321567109214747
 20
194.2031330894701
 30
0.0
  0
VERTEX
  5
28A
330
276
100
AcDbEntity
  8
STANDARDEBENE
 62
     7
100
AcDbVertex
100
AcDb2dVertex
 10
-9.646095103925282
 20
194.2947726293777
 30
0.0
  0
VERTEX
  5
28B
330
276
100
AcDbEntity
  8
STANDARDEBENE
 62
     7
100
AcDbVertex
100
AcDb2dVertex
 10
-9.970623098635818
 20
194.3865844240596
 30
0.0
  0
VERTEX
  5
28C
330
276
100
AcDbEntity
  8
STANDARDEBENE
 62
     7
100
AcDbVertex
100
AcDb2dVertex
 10
-10.27396375611207
 20
194.5381686254106
 30
0.0
  0
VERTEX
  5
28D
330
276
100
AcDbEntity
  8
STANDARDEBENE
 62
     7
100
AcDbVertex
100
AcDb2dVertex
 10
-10.57385931810306
 20
194.6899250815358
 30
0.0
  0
VERTEX
  5
28E
330
276
100
AcDbEntity
  8
STANDARDEBENE
 62
     7
100
AcDbVertex
100
AcDb2dVertex
 10
-10.84550509711501
 20
194.9050712945897
 30
0.0
  0
VERTEX
  5
28F
330
276
100
AcDbEntity
  8
STANDARDEBENE
 62
     7
100
AcDbVertex
100
AcDb2dVertex
 10
-11.11353352586745
 20
195.1167724121583
 30
0.0
  0
VERTEX
  5
290
330
276
100
AcDbEntity
  8
STANDARDEBENE
 62
     7
100
AcDbVertex
100
AcDb2dVertex
 10
-11.33229708918081
 20
195.3742932996807
 30
0.0
  0
VERTEX
  5
291
330
276
100
AcDbEntity
  8
STANDARDEBENE
 62
     7
100
AcDbVertex
100
AcDb2dVertex
 10
-11.55106065249418
 20
195.6318141872032
 30
0.0
  0
VERTEX
  5
292
330
276
100
AcDbEntity
  8
STANDARDEBENE
 62
     7
100
AcDbVertex
100
AcDb2dVertex
 10
-11.71332464984945
 20
195.9282646537089
 30
0.0
  0
VERTEX
  5
293
330
276
100
AcDbEntity
  8
STANDARDEBENE
 62
     7
100
AcDbVertex
100
AcDb2dVertex
 10
-11.87558864720472
 20
196.2245428654404
 30
0.0
  0
VERTEX
  5
294
330
276
100
AcDbEntity
  8
STANDARDEBENE
 62
     7
100
AcDbVertex
100
AcDb2dVertex
 10
-11.97790798311664
 20
196.5490708601509
 30
0.0
  0
VERTEX
  5
295
330
276
100
AcDbEntity
  8
STANDARDEBENE
 62
     7
100
AcDbVertex
100
AcDb2dVertex
 10
-12.08022731902856
 20
196.8701537593762
 30
0.0
  0
VERTEX
  5
296
330
276
100
AcDbEntity
  8
STANDARDEBENE
 62
     7
100
AcDbVertex
100
AcDb2dVertex
 10
-12.11898464323762
 20
197.2158690913211
 30
0.0
  0
VERTEX
  5
297
330
276
100
AcDbEntity
  8
STANDARDEBENE
 62
     7
100
AcDbVertex
100
AcDb2dVertex
 10
-12.15774196744668
 20
197.5579670730064
 30
0.0
  0
SEQEND
  5
298
330
276
100
AcDbEntity
  8
STANDARDEBENE
  0
POLYLINE
  5
299
330
45
100
AcDbEntity
  8
STANDARDEBENE
 62
     7
100
AcDb2dPolyline
 66
     1
 10
0.0
 20
0.0
 30
0.0
  0
VERTEX
  5
29A
330
299
100
AcDbEntity
  8
STANDARDEBENE
 62
     7
100
AcDbVertex
100
AcDb2dVertex
 10
-15.1317206450886
 20
209.4960842032683
 30
0.0
  0
VERTEX
  5
29B
330
299
100
AcDbEntity
  8
STANDARDEBENE
 62
     7
100
AcDbVertex
100
AcDb2dVertex
 10
-14.91657443203475
 20
209.4325221915655
 30
0.0
  0
VERTEX
  5
29C
330
299
100
AcDbEntity
  8
STANDARDEBENE
 62
     7
100
AcDbVertex
100
AcDb2dVertex
 10
-14.70142821898089
 20
209.3796399758669
 30
0.0
  0
VERTEX
  5
29D
330
299
100
AcDbEntity
  8
STANDARDEBENE
 62
     7
100
AcDbVertex
100
AcDb2dVertex
 10
-14.48610975115278
 20
209.3267577601683
 30
0.0
  0
VERTEX
  5
29E
330
299
100
AcDbEntity
  8
STANDARDEBENE
 62
     7
100
AcDbVertex
100
AcDb2dVertex
 10
-14.26751844261368
 20
209.2807657354402
 30
0.0
  0
SEQEND
  5
29F
330
299
100
AcDbEntity
  8
STANDARDEBENE
  0
POLYLINE
  5
2A0
330
45
100
AcDbEntity
  8
STANDARDEBENE
 62
     7
100
AcDb2dPolyline
 66
     1
 10
0.0
 20
0.0
 30
0.0
  0
VERTEX
  5
2A1
330
2A0
100
AcDbEntity
  8
STANDARDEBENE
 62
     7
100
AcDbVertex
100
AcDb2dVertex
 10
-17.50952554900804
 20
192.0265217618892
 30
0.0
  0
VERTEX
  5
2A2
330
2A0
100
AcDbEntity
  8
STANDARDEBENE
 62
     7
100
AcDbVertex
100
AcDb2dVertex
 10
-17.49884575300376
 20
192.0158419658849
 30
0.0
  0
VERTEX
  5
2A3
330
2A0
100
AcDbEntity
  8
STANDARDEBENE
 62
     7
100
AcDbVertex
100
AcDb2dVertex
 10
-17.491783307259
 20
192.0053344246549
 30
0.0
  0
SEQEND
  5
2A4
330
2A0
100
AcDbEntity
  8
STANDARDEBENE
  0
POLYLINE
  5
2A5
330
45
100
AcDbEntity
  8
STANDARDEBENE
 62
     7
100
AcDb2dPolyline
 66
     1
 10
0.0
 20
0.0
 30
0.0
  0
VERTEX
  5
2A6
330
2A5
100
AcDbEntity
  8
STANDARDEBENE
 62
     7
100
AcDbVertex
100
AcDb2dVertex
 10
-11.7167697453347
 20
197.6179117344497
 30
0.0
  0
VERTEX
  5
2A7
330
2A5
100
AcDbEntity
  8
STANDARDEBENE
 62
     7
100
AcDbVertex
100
AcDb2dVertex
 10
-11.70626220410469
 20
197.8931748637212
 30
0.0
  0
VERTEX
  5
2A8
330
2A5
100
AcDbEntity
  8
STANDARDEBENE
 62
     7
100
AcDbVertex
100
AcDb2dVertex
 10
-11.67094997538087
 20
198.1682657382184
 30
0.0
  0
VERTEX
  5
2A9
330
2A5
100
AcDbEntity
  8
STANDARDEBENE
 62
     7
100
AcDbVertex
100
AcDb2dVertex
 10
-11.61100531393753
 20
198.4364664217451
 30
0.0
  0
VERTEX
  5
2AA
330
2A5
100
AcDbEntity
  8
STANDARDEBENE
 62
     7
100
AcDbVertex
100
AcDb2dVertex
 10
-11.52642821977464
 20
198.7010497550122
 30
0.0
  0
VERTEX
  5
2AB
330
2A5
100
AcDbEntity
  8
STANDARDEBENE
 62
     7
100
AcDbVertex
100
AcDb2dVertex
 10
-11.41704643811796
 20
198.9549532922751
 30
0.0
  0
VERTEX
  5
2AC
330
2A5
100
AcDbEntity
  8
STANDARDEBENE
 62
     7
100
AcDbVertex
100
AcDb2dVertex
 10
-11.28647731922699
 20
199.1985215430823
 30
0.0
  0
VERTEX
  5
2AD
330
2A5
100
AcDbEntity
  8
STANDARDEBENE
 62
     7
100
AcDbVertex
100
AcDb2dVertex
 10
-11.13127576761649
 20
199.4277926476257
 30
0.0
  0
VERTEX
  5
2AE
330
2A5
100
AcDbEntity
  8
STANDARDEBENE
 62
     7
100
AcDbVertex
100
AcDb2dVertex
 10
-10.95833197425694
 20
199.6463839561648
 30
0.0
  0
VERTEX
  5
2AF
330
2A5
100
AcDbEntity
  8
STANDARDEBENE
 62
     7
100
AcDbVertex
100
AcDb2dVertex
 10
-10.76437309843738
 20
199.8439601822439
 30
0.0
  0
VERTEX
  5
2B0
330
2A5
100
AcDbEntity
  8
STANDARDEBENE
 62
     7
100
AcDbVertex
100
AcDb2dVertex
 10
-10.55628933112829
 20
200.0239664213482
 30
0.0
  0
VERTEX
  5
2B1
330
2A5
100
AcDbEntity
  8
STANDARDEBENE
 62
     7
100
AcDbVertex
100
AcDb2dVertex
 10
-10.33046332207016
 20
200.1862304187034
 30
0.0
  0
VERTEX
  5
2B2
330
2A5
100
AcDbEntity
  8
STANDARDEBENE
 62
     7
100
AcDbVertex
100
AcDb2dVertex
 10
-10.09051242152251
 20
200.3238619833392
 30
0.0
  0
VERTEX
  5
2B3
330
2A5
100
AcDbEntity
  8
STANDARDEBENE
 62
     7
100
AcDbVertex
100
AcDb2dVertex
 10
-9.840053979744848
 20
200.4401339559664
 30
0.0
  0
VERTEX
  5
2B4
330
2A5
100
AcDbEntity
  8
STANDARDEBENE
 62
     7
100
AcDbVertex
100
AcDb2dVertex
 10
-9.579087996737172
 20
200.5353908461335
 30
0.0
  0
VERTEX
  5
2B5
330
2A5
100
AcDbEntity
  8
STANDARDEBENE
 62
     7
100
AcDbVertex
100
AcDb2dVertex
 10
-9.310887313210474
 20
200.6025702080959
 30
0.0
  0
VERTEX
  5
2B6
330
2A5
100
AcDbEntity
  8
STANDARDEBENE
 62
     7
100
AcDbVertex
100
AcDb2dVertex
 10
-9.039241534198524
 20
200.6483899780497
 30
0.0
  0
VERTEX
  5
2B7
330
2A5
100
AcDbEntity
  8
STANDARDEBENE
 62
     7
100
AcDbVertex
100
AcDb2dVertex
 10
-8.764150659701324
 20
200.6659599650245
 30
0.0
  0
VERTEX
  5
2B8
330
2A5
100
AcDbEntity
  8
STANDARDEBENE
 62
     7
100
AcDbVertex
100
AcDb2dVertex
 10
-8.488887530429862
 20
200.6588975192797
 30
0.0
  0
VERTEX
  5
2B9
330
2A5
100
AcDbEntity
  8
STANDARDEBENE
 62
     7
100
AcDbVertex
100
AcDb2dVertex
 10
-8.217241751417912
 20
200.6272026408154
 30
0.0
  0
VERTEX
  5
2BA
330
2A5
100
AcDbEntity
  8
STANDARDEBENE
 62
     7
100
AcDbVertex
100
AcDb2dVertex
 10
-7.949213322665475
 20
200.5707030748573
 30
0.0
  0
VERTEX
  5
2BB
330
2A5
100
AcDbEntity
  8
STANDARDEBENE
 62
     7
100
AcDbVertex
100
AcDb2dVertex
 10
-7.684629989398287
 20
200.4861259806945
 30
0.0
  0
VERTEX
  5
2BC
330
2A5
100
AcDbEntity
  8
STANDARDEBENE
 62
     7
100
AcDbVertex
100
AcDb2dVertex
 10
-7.434171547620624
 20
200.380189294523
 30
0.0
  0
VERTEX
  5
2BD
330
2A5
100
AcDbEntity
  8
STANDARDEBENE
 62
     7
100
AcDbVertex
100
AcDb2dVertex
 10
-7.190775551587723
 20
200.2532375258916
 30
0.0
  0
VERTEX
  5
2BE
330
2A5
100
AcDbEntity
  8
STANDARDEBENE
 62
     7
100
AcDbVertex
100
AcDb2dVertex
 10
-6.961332192270084
 20
200.1014810697663
 30
0.0
  0
VERTEX
  5
2BF
330
2A5
100
AcDbEntity
  8
STANDARDEBENE
 62
     7
100
AcDbVertex
100
AcDb2dVertex
 10
-6.749803329475744
 20
199.928709531181
 30
0.0
  0
VERTEX
  5
2C0
330
2A5
100
AcDbEntity
  8
STANDARDEBENE
 62
     7
100
AcDbVertex
100
AcDb2dVertex
 10
-6.552227103396666
 20
199.7381957508467
 30
0.0
  0
VERTEX
  5
2C1
330
2A5
100
AcDbEntity
  8
STANDARDEBENE
 62
     7
100
AcDbVertex
100
AcDb2dVertex
 10
-6.375838214551874
 20
199.5301119835376
 30
0.0
  0
VERTEX
  5
2C2
330
2A5
100
AcDbEntity
  8
STANDARDEBENE
 62
     7
100
AcDbVertex
100
AcDb2dVertex
 10
-6.217019312681857
 20
199.3077310699647
 30
0.0
  0
VERTEX
  5
2C3
330
2A5
100
AcDbEntity
  8
STANDARDEBENE
 62
     7
100
AcDbVertex
100
AcDb2dVertex
 10
-6.079387748046125
 20
199.0679524241914
 30
0.0
  0
VERTEX
  5
2C4
330
2A5
100
AcDbEntity
  8
STANDARDEBENE
 62
     7
100
AcDbVertex
100
AcDb2dVertex
 10
-5.966560870904194
 20
198.8174939824137
 30
0.0
  0
VERTEX
  5
2C5
330
2A5
100
AcDbEntity
  8
STANDARDEBENE
 62
     7
100
AcDbVertex
100
AcDb2dVertex
 10
-5.874921330996548
 20
198.5599730948913
 30
0.0
  0
VERTEX
  5
2C6
330
2A5
100
AcDbEntity
  8
STANDARDEBENE
 62
     7
100
AcDbVertex
100
AcDb2dVertex
 10
-5.811359319293688
 20
198.2917724113646
 30
0.0
  0
VERTEX
  5
2C7
330
2A5
100
AcDbEntity
  8
STANDARDEBENE
 62
     7
100
AcDbVertex
100
AcDb2dVertex
 10
-5.768984644825116
 20
198.0201266323526
 30
0.0
  0
VERTEX
  5
2C8
330
2A5
100
AcDbEntity
  8
STANDARDEBENE
 62
     7
100
AcDbVertex
100
AcDb2dVertex
 10
-5.754859753335591
 20
197.7450357578554
 30
0.0
  0
SEQEND
  5
2C9
330
2A5
100
AcDbEntity
  8
STANDARDEBENE
  0
POLYLINE
  5
2CA
330
45
100
AcDbEntity
  8
STANDARDEBENE
 62
     7
100
AcDb2dPolyline
 66
     1
 10
0.0
 20
0.0
 30
0.0
  0
VERTEX
  5
2CB
330
2CA
100
AcDbEntity
  8
STANDARDEBENE
 62
     7
100
AcDbVertex
100
AcDb2dVertex
 10
-8.750025768211799
 20
199.4029879601319
 30
0.0
  0
VERTEX
  5
2CC
330
2CA
100
AcDbEntity
  8
STANDARDEBENE
 62
     7
100
AcDbVertex
100
AcDb2dVertex
 10
-8.873532441358007
 20
199.3218559614543
 30
0.0
  0
VERTEX
  5
2CD
330
2CA
100
AcDbEntity
  8
STANDARDEBENE
 62
     7
100
AcDbVertex
100
AcDb2dVertex
 10
-8.99686685972995
 20
199.2443413130362
 30
0.0
  0
VERTEX
  5
2CE
330
2CA
100
AcDbEntity
  8
STANDARDEBENE
 62
     7
100
AcDbVertex
100
AcDb2dVertex
 10
-9.116928437390907
 20
199.1666544098438
 30
0.0
  0
VERTEX
  5
2CF
330
2CA
100
AcDbEntity
  8
STANDARDEBENE
 62
     7
100
AcDbVertex
100
AcDb2dVertex
 10
-9.236817760277601
 20
199.0891397614256
 30
0.0
  0
VERTEX
  5
2D0
330
2CA
100
AcDbEntity
  8
STANDARDEBENE
 62
     7
100
AcDbVertex
100
AcDb2dVertex
 10
-9.356707083164295
 20
199.0150702084928
 30
0.0
  0
VERTEX
  5
2D1
330
2CA
100
AcDbEntity
  8
STANDARDEBENE
 62
     7
100
AcDbVertex
100
AcDb2dVertex
 10
-9.476768660825252
 20
198.9444457510452
 30
0.0
  0
VERTEX
  5
2D2
330
2CA
100
AcDbEntity
  8
STANDARDEBENE
 62
     7
100
AcDbVertex
100
AcDb2dVertex
 10
-9.600103079197197
 20
198.8703761981123
 30
0.0
  0
VERTEX
  5
2D3
330
2CA
100
AcDbEntity
  8
STANDARDEBENE
 62
     7
100
AcDbVertex
100
AcDb2dVertex
 10
-9.720164656858154
 20
198.7997517406646
 30
0.0
  0
VERTEX
  5
2D4
330
2CA
100
AcDbEntity
  8
STANDARDEBENE
 62
     7
100
AcDbVertex
100
AcDb2dVertex
 10
-9.84367133000436
 20
198.7292995379913
 30
0.0
  0
VERTEX
  5
2D5
330
2CA
100
AcDbEntity
  8
STANDARDEBENE
 62
     7
100
AcDbVertex
100
AcDb2dVertex
 10
-9.970623098635818
 20
198.6552299850584
 30
0.0
  0
VERTEX
  5
2D6
330
2CA
100
AcDbEntity
  8
STANDARDEBENE
 62
     7
100
AcDbVertex
100
AcDb2dVertex
 10
-10.10119221752679
 20
198.5846055276108
 30
0.0
  0
VERTEX
  5
2D7
330
2CA
100
AcDbEntity
  8
STANDARDEBENE
 62
     7
100
AcDbVertex
100
AcDb2dVertex
 10
-10.235206431903
 20
198.5105359746779
 30
0.0
  0
SEQEND
  5
2D8
330
2CA
100
AcDbEntity
  8
STANDARDEBENE
  0
POLYLINE
  5
2D9
330
45
100
AcDbEntity
  8
STANDARDEBENE
 62
     7
100
AcDb2dPolyline
 66
     1
 10
0.0
 20
0.0
 30
0.0
  0
VERTEX
  5
2DA
330
2D9
100
AcDbEntity
  8
STANDARDEBENE
 62
     7
100
AcDbVertex
100
AcDb2dVertex
 10
-12.15429687196143
 20
200.0310288670929
 30
0.0
  0
VERTEX
  5
2DB
330
2D9
100
AcDbEntity
  8
STANDARDEBENE
 62
     7
100
AcDbVertex
100
AcDb2dVertex
 10
-12.41888020522861
 20
199.5935017404662
 30
0.0
  0
VERTEX
  5
2DC
330
2D9
100
AcDbEntity
  8
STANDARDEBENE
 62
     7
100
AcDbVertex
100
AcDb2dVertex
 10
-12.63058132279722
 20
199.1278970856347
 30
0.0
  0
VERTEX
  5
2DD
330
2D9
100
AcDbEntity
  8
STANDARDEBENE
 62
     7
100
AcDbVertex
100
AcDb2dVertex
 10
-12.78578287440772
 20
198.6374877433094
 30
0.0
  0
VERTEX
  5
2DE
330
2D9
100
AcDbEntity
  8
STANDARDEBENE
 62
     7
100
AcDbVertex
100
AcDb2dVertex
 10
-12.88103976457488
 20
198.1365708597541
 30
0.0
  0
VERTEX
  5
2DF
330
2D9
100
AcDbEntity
  8
STANDARDEBENE
 62
     7
100
AcDbVertex
100
AcDb2dVertex
 10
-12.91635199329869
 20
197.6249741801945
 30
0.0
  0
VERTEX
  5
2E0
330
2D9
100
AcDbEntity
  8
STANDARDEBENE
 62
     7
100
AcDbVertex
100
AcDb2dVertex
 10
-12.88810221031964
 20
197.1169948508944
 30
0.0
  0
VERTEX
  5
2E1
330
2D9
100
AcDbEntity
  8
STANDARDEBENE
 62
     7
100
AcDbVertex
100
AcDb2dVertex
 10
-12.79990776589725
 20
196.6126328718538
 30
0.0
  0
VERTEX
  5
2E2
330
2D9
100
AcDbEntity
  8
STANDARDEBENE
 62
     7
100
AcDbVertex
100
AcDb2dVertex
 10
-12.6517686600315
 20
196.1256686250137
 30
0.0
  0
VERTEX
  5
2E3
330
2D9
100
AcDbEntity
  8
STANDARDEBENE
 62
     7
100
AcDbVertex
100
AcDb2dVertex
 10
-12.44712998820766
 20
195.6636813204417
 30
0.0
  0
VERTEX
  5
2E4
330
2D9
100
AcDbEntity
  8
STANDARDEBENE
 62
     7
100
AcDbVertex
100
AcDb2dVertex
 10
-12.18599175042572
 20
195.226154193815
 30
0.0
  0
VERTEX
  5
2E5
330
2D9
100
AcDbEntity
  8
STANDARDEBENE
 62
     7
100
AcDbVertex
100
AcDb2dVertex
 10
-11.87214355171946
 20
194.8275566461716
 30
0.0
  0
VERTEX
  5
2E6
330
2D9
100
AcDbEntity
  8
STANDARDEBENE
 62
     7
100
AcDbVertex
100
AcDb2dVertex
 10
-11.51574842377037
 20
194.4677164227373
 30
0.0
  0
VERTEX
  5
2E7
330
2D9
100
AcDbEntity
  8
STANDARDEBENE
 62
     7
100
AcDbVertex
100
AcDb2dVertex
 10
-11.11715087612696
 20
194.1536959692567
 30
0.0
  0
VERTEX
  5
2E8
330
2D9
100
AcDbEntity
  8
STANDARDEBENE
 62
     7
100
AcDbVertex
100
AcDb2dVertex
 10
-10.68324109975975
 20
193.892729986249
 30
0.0
  0
VERTEX
  5
2E9
330
2D9
100
AcDbEntity
  8
STANDARDEBENE
 62
     7
100
AcDbVertex
100
AcDb2dVertex
 10
-10.21746419015397
 20
193.6844739641657
 30
0.0
  0
VERTEX
  5
2EA
330
2D9
100
AcDbEntity
  8
STANDARDEBENE
 62
     7
100
AcDbVertex
100
AcDb2dVertex
 10
-9.730672198088167
 20
193.5328897628147
 30
0.0
  0
VERTEX
  5
2EB
330
2D9
100
AcDbEntity
  8
STANDARDEBENE
 62
     7
100
AcDbVertex
100
AcDb2dVertex
 10
-9.22975531453284
 20
193.4446953183923
 30
0.0
  0
VERTEX
  5
2EC
330
2D9
100
AcDbEntity
  8
STANDARDEBENE
 62
     7
100
AcDbVertex
100
AcDb2dVertex
 10
-8.721775985232751
 20
193.4164455354133
 30
0.0
  0
VERTEX
  5
2ED
330
2D9
100
AcDbEntity
  8
STANDARDEBENE
 62
     7
100
AcDbVertex
100
AcDb2dVertex
 10
-8.213796655932663
 20
193.4481404138776
 30
0.0
  0
VERTEX
  5
2EE
330
2D9
100
AcDbEntity
  8
STANDARDEBENE
 62
     7
100
AcDbVertex
100
AcDb2dVertex
 10
-7.709262422117823
 20
193.5433973040447
 30
0.0
  0
VERTEX
  5
2EF
330
2D9
100
AcDbEntity
  8
STANDARDEBENE
 62
     7
100
AcDbVertex
100
AcDb2dVertex
 10
-7.222470430052022
 20
193.6985988556552
 30
0.0
  0
VERTEX
  5
2F0
330
2D9
100
AcDbEntity
  8
STANDARDEBENE
 62
     7
100
AcDbVertex
100
AcDb2dVertex
 10
-6.756865775220506
 20
193.9102999732238
 30
0.0
  0
VERTEX
  5
2F1
330
2D9
100
AcDbEntity
  8
STANDARDEBENE
 62
     7
100
AcDbVertex
100
AcDb2dVertex
 10
-6.319338648593777
 20
194.174883306491
 30
0.0
  0
VERTEX
  5
2F2
330
2D9
100
AcDbEntity
  8
STANDARDEBENE
 62
     7
100
AcDbVertex
100
AcDb2dVertex
 10
-5.913678655205608
 20
194.4923488554568
 30
0.0
  0
VERTEX
  5
2F3
330
2D9
100
AcDbEntity
  8
STANDARDEBENE
 62
     7
100
AcDbVertex
100
AcDb2dVertex
 10
-5.550221081511751
 20
194.8558064291506
 30
0.0
  0
VERTEX
  5
2F4
330
2D9
100
AcDbEntity
  8
STANDARDEBENE
 62
     7
100
AcDbVertex
100
AcDb2dVertex
 10
-5.23637288280549
 20
195.2578490722793
 30
0.0
  0
SEQEND
  5
2F5
330
2D9
100
AcDbEntity
  8
STANDARDEBENE
  0
POLYLINE
  5
2F6
330
45
100
AcDbEntity
  8
STANDARDEBENE
 62
     7
100
AcDb2dPolyline
 66
     1
 10
0.0
 20
0.0
 30
0.0
  0
VERTEX
  5
2F7
330
2F6
100
AcDbEntity
  8
STANDARDEBENE
 62
     7
100
AcDbVertex
100
AcDb2dVertex
 10
-10.23158908164349
 20
196.7783419646943
 30
0.0
  0
VERTEX
  5
2F8
330
2F6
100
AcDbEntity
  8
STANDARDEBENE
 62
     7
100
AcDbVertex
100
AcDb2dVertex
 10
-10.28808864760159
 20
196.877216205121
 30
0.0
  0
VERTEX
  5
2F9
330
2F6
100
AcDbEntity
  8
STANDARDEBENE
 62
     7
100
AcDbVertex
100
AcDb2dVertex
 10
-10.33390841755541
 20
196.9795355410329
 30
0.0
  0
VERTEX
  5
2FA
330
2F6
100
AcDbEntity
  8
STANDARDEBENE
 62
     7
100
AcDbVertex
100
AcDb2dVertex
 10
-10.39385307899876
 20
197.1417995383882
 30
0.0
  0
VERTEX
  5
2FB
330
2F6
100
AcDbEntity
  8
STANDARDEBENE
 62
     7
100
AcDbVertex
100
AcDb2dVertex
 10
-10.43622775346733
 20
197.3040635357434
 30
0.0
  0
VERTEX
  5
2FC
330
2F6
100
AcDbEntity
  8
STANDARDEBENE
 62
     7
100
AcDbVertex
100
AcDb2dVertex
 10
-10.46447753644638
 20
197.4733899788435
 30
0.0
  0
VERTEX
  5
2FD
330
2F6
100
AcDbEntity
  8
STANDARDEBENE
 62
     7
100
AcDbVertex
100
AcDb2dVertex
 10
-10.47515733245065
 20
197.6461615174287
 30
0.0
  0
SEQEND
  5
2FE
330
2F6
100
AcDbEntity
  8
STANDARDEBENE
  0
POLYLINE
  5
2FF
330
45
100
AcDbEntity
  8
STANDARDEBENE
 62
     7
100
AcDb2dPolyline
 66
     1
 10
0.0
 20
0.0
 30
0.0
  0
VERTEX
  5
300
330
2FF
100
AcDbEntity
  8
STANDARDEBENE
 62
     7
100
AcDbVertex
100
AcDb2dVertex
 10
-7.208345538562497
 20
198.5351684073975
 30
0.0
  0
VERTEX
  5
301
330
2FF
100
AcDbEntity
  8
STANDARDEBENE
 62
     7
100
AcDbVertex
100
AcDb2dVertex
 10
-7.169588214353436
 20
198.4576537589793
 30
0.0
  0
VERTEX
  5
302
330
2FF
100
AcDbEntity
  8
STANDARDEBENE
 62
     7
100
AcDbVertex
100
AcDb2dVertex
 10
-7.134275985629626
 20
198.3835842060465
 30
0.0
  0
VERTEX
  5
303
330
2FF
100
AcDbEntity
  8
STANDARDEBENE
 62
     7
100
AcDbVertex
100
AcDb2dVertex
 10
-7.077776419671529
 20
198.2213202086912
 30
0.0
  0
VERTEX
  5
304
330
2FF
100
AcDbEntity
  8
STANDARDEBENE
 62
     7
100
AcDbVertex
100
AcDb2dVertex
 10
-7.031956649717706
 20
198.0588839565617
 30
0.0
  0
VERTEX
  5
305
330
2FF
100
AcDbEntity
  8
STANDARDEBENE
 62
     7
100
AcDbVertex
100
AcDb2dVertex
 10
-7.007324216998169
 20
197.8895575134617
 30
0.0
  0
VERTEX
  5
306
330
2FF
100
AcDbEntity
  8
STANDARDEBENE
 62
     7
100
AcDbVertex
100
AcDb2dVertex
 10
-6.996644420993895
 20
197.7167859748764
 30
0.0
  0
SEQEND
  5
307
330
2FF
100
AcDbEntity
  8
STANDARDEBENE
  0
ENDBLK
  5
48
330
45
100
AcDbEntity
  8
0
100
AcDbBlockEnd
  0
BLOCK
  5
561
330
55F
100
AcDbEntity
  8
0
100
AcDbBlockBegin
  2
BLOCK_5
 70
     0
 71
     0
 10
0.0
 20
0.0
 30
0.0
  3
BLOCK_5
  1

  0
SPLINE
  5
563
330
55F
100
AcDbEntity
  8
TEXT
100
AcDbSpline
210
0.0
220
0.0
230
1.0
 70
    11
 71
     3
 72
    35
 73
    31
 74
     0
 42
0.0000000001
 43
0.0000000001
 40
0.0
 40
0.0
 40
0.0
 40
0.0
 40
1.0
 40
1.0
 40
1.0
 40
2.0
 40
2.0
 40
2.0
 40
3.0
 40
3.0
 40
3.0
 40
4.0
 40
4.0
 40
4.0
 40
5.0
 40
5.0
 40
5.0
 40
6.0
 40
6.0
 40
6.0
 40
7.0
 40
7.0
 40
7.0
 40
8.0
 40
8.0
 40
8.0
 40
9.0
 40
9.0
 40
9.0
 40
10.0
 40
10.0
 40
10.0
 40
10.0
 10
2.1221788189139
 20
217.4549437932925
 30
0.0
 10
2.1221788189139
 20
217.4549437932925
 30
0.0
 10
1.875337727395749
 20
217.4549437932925
 30
0.0
 10
1.875337727395749
 20
217.4549437932925
 30
0.0
 10
1.864830186165737
 20
217.7088473305554
 30
0.0
 10
1.660363769116159
 20
217.8674939776512
 30
0.0
 10
1.410077582112758
 20
217.8674939776512
 30
0.0
 10
0.8247558591688111
 20
217.8674939776512
 30
0.0
 10
0.7577487519807017
 20
217.2292900390086
 30
0.0
 10
0.7577487519807017
 20
216.7709200846962
 30
0.0
 10
0.7577487519807017
 20
216.7709200846962
 30
0.0
 10
0.7648111977254639
 20
216.7709200846962
 30
0.0
 10
0.7648111977254639
 20
216.7709200846962
 30
0.0
 10
0.8740207246078837
 20
217.0389485134486
 30
0.0
 10
1.120861816126035
 20
217.1693453775653
 30
0.0
 10
1.406460231853246
 20
217.1693453775653
 30
0.0
 10
1.889462618885273
 20
217.1693453775653
 30
0.0
 10
2.154045952152461
 20
216.8274196506543
 30
0.0
 10
2.154045952152461
 20
216.361987250597
 30
0.0
 10
2.154045952152461
 20
215.8965548505398
 30
0.0
 10
1.864830186165737
 20
215.5334417863944
 30
0.0
 10
1.38527289461896
 20
215.5334417863944
 30
0.0
 10
0.7048665362821167
 20
215.5334417863944
 30
0.0
 10
0.5109076604625509
 20
216.0975761721041
 30
0.0
 10
0.5109076604625509
 20
216.682897895048
 30
0.0
 10
0.5109076604625509
 20
217.306976942201
 30
0.0
 10
0.6096096461149587
 20
218.0790228404455
 30
0.0
 10
1.399397786108484
 20
218.0790228404455
 30
0.0
 10
1.797823078977628
 20
218.0790228404455
 30
0.0
 10
2.115116373169138
 20
217.8781737736555
 30
0.0
 10
2.1221788189139
 20
217.4549437932925
 30
0.0
  0
SPLINE
  5
564
330
55F
100
AcDbEntity
  8
TEXT
100
AcDbSpline
210
0.0
220
0.0
230
1.0
 70
    11
 71
     3
 72
    17
 73
    13
 74
     0
 42
0.0000000001
 43
0.0000000001
 40
0.0
 40
0.0
 40
0.0
 40
0.0
 40
1.0
 40
1.0
 40
1.0
 40
2.0
 40
2.0
 40
2.0
 40
3.0
 40
3.0
 40
3.0
 40
4.0
 40
4.0
 40
4.0
 40
4.0
 10
0.8001234264492747
 20
216.3302923721327
 30
0.0
 10
0.8001234264492747
 20
216.0235066191712
 30
0.0
 10
1.032667371703639
 20
215.7449706491888
 30
0.0
 10
1.350132920669411
 20
215.7449706491888
 30
0.0
 10
1.709628634555232
 20
215.7449706491888
 30
0.0
 10
1.90720486063431
 20
216.0023192819369
 30
0.0
 10
1.90720486063431
 20
216.3478623591075
 30
0.0
 10
1.90720486063431
 20
216.6687730035585
 30
0.0
 10
1.759065754768567
 20
216.97555875652
 30
0.0
 10
1.395952690623234
 20
216.97555875652
 30
0.0
 10
1.008034938984102
 20
216.97555875652
 30
0.0
 10
0.8001234264492747
 20
216.6934054362781
 30
0.0
 10
0.8001234264492747
 20
216.3302923721327
 30
0.0
  0
HATCH
  5
565
330
55F
100
AcDbEntity
  8
TEXT
 62
     7
100
AcDbHatch
 10
0.0
 20
0.0
 30
0.0
210
0.0
220
0.0
230
1.0
  2
SOLID
 70
     1
 71
     0
 91
        2
 92
        1
 93
        1
 72
     4
 94
        3
 73
     0
 74
     1
 95
       35
 96
       31
 40
0.0
 40
0.0
 40
0.0
 40
0.0
 40
1.0
 40
1.0
 40
1.0
 40
2.0
 40
2.0
 40
2.0
 40
3.0
 40
3.0
 40
3.0
 40
4.0
 40
4.0
 40
4.0
 40
5.0
 40
5.0
 40
5.0
 40
6.0
 40
6.0
 40
6.0
 40
7.0
 40
7.0
 40
7.0
 40
8.0
 40
8.0
 40
8.0
 40
9.0
 40
9.0
 40
9.0
 40
10.0
 40
10.0
 40
10.0
 40
10.0
 10
2.1221788189139
 20
217.4549437932925
 10
2.1221788189139
 20
217.4549437932925
 10
1.875337727395749
 20
217.4549437932925
 10
1.875337727395749
 20
217.4549437932925
 10
1.864830186165737
 20
217.7088473305554
 10
1.660363769116159
 20
217.8674939776512
 10
1.410077582112758
 20
217.8674939776512
 10
0.8247558591688111
 20
217.8674939776512
 10
0.7577487519807017
 20
217.2292900390086
 10
0.7577487519807017
 20
216.7709200846962
 10
0.7577487519807017
 20
216.7709200846962
 10
0.7648111977254639
 20
216.7709200846962
 10
0.7648111977254639
 20
216.7709200846962
 10
0.8740207246078837
 20
217.0389485134486
 10
1.120861816126035
 20
217.1693453775653
 10
1.406460231853246
 20
217.1693453775653
 10
1.889462618885273
 20
217.1693453775653
 10
2.154045952152461
 20
216.8274196506543
 10
2.154045952152461
 20
216.361987250597
 10
2.154045952152461
 20
215.8965548505398
 10
1.864830186165737
 20
215.5334417863944
 10
1.38527289461896
 20
215.5334417863944
 10
0.7048665362821167
 20
215.5334417863944
 10
0.5109076604625509
 20
216.0975761721041
 10
0.5109076604625509
 20
216.682897895048
 10
0.5109076604625509
 20
217.306976942201
 10
0.6096096461149587
 20
218.0790228404455
 10
1.399397786108484
 20
218.0790228404455
 10
1.797823078977628
 20
218.0790228404455
 10
2.115116373169138
 20
217.8781737736555
 10
2.1221788189139
 20
217.4549437932925
 97
        0
 92
        1
 93
        1
 72
     4
 94
        3
 73
     0
 74
     1
 95
       17
 96
       13
 40
0.0
 40
0.0
 40
0.0
 40
0.0
 40
1.0
 40
1.0
 40
1.0
 40
2.0
 40
2.0
 40
2.0
 40
3.0
 40
3.0
 40
3.0
 40
4.0
 40
4.0
 40
4.0
 40
4.0
 10
0.8001234264492747
 20
216.3302923721327
 10
0.8001234264492747
 20
216.0235066191712
 10
1.032667371703639
 20
215.7449706491888
 10
1.350132920669411
 20
215.7449706491888
 10
1.709628634555232
 20
215.7449706491888
 10
1.90720486063431
 20
216.0023192819369
 10
1.90720486063431
 20
216.3478623591075
 10
1.90720486063431
 20
216.6687730035585
 10
1.759065754768567
 20
216.97555875652
 10
1.395952690623234
 20
216.97555875652
 10
1.008034938984102
 20
216.97555875652
 10
0.8001234264492747
 20
216.6934054362781
 10
0.8001234264492747
 20
216.3302923721327
 97
        0
 75
     2
 76
     1
 98
        0
  0
SPLINE
  5
566
330
55F
100
AcDbEntity
  8
TEXT
100
AcDbSpline
210
0.0
220
0.0
230
1.0
 70
    11
 71
     3
 72
    17
 73
    13
 74
     0
 42
0.0000000001
 43
0.0000000001
 40
0.0
 40
0.0
 40
0.0
 40
0.0
 40
1.0
 40
1.0
 40
1.0
 40
2.0
 40
2.0
 40
2.0
 40
3.0
 40
3.0
 40
3.0
 40
4.0
 40
4.0
 40
4.0
 40
4.0
 10
4.104831270675181
 20
216.80623231342
 30
0.0
 10
4.104831270675181
 20
216.1857706165265
 30
0.0
 10
3.960309515068951
 20
215.5334417863944
 30
0.0
 10
3.293855793447369
 20
215.5334417863944
 30
0.0
 10
2.627574326600051
 20
215.5334417863944
 30
0.0
 10
2.48305257099382
 20
216.1857706165265
 30
0.0
 10
2.48305257099382
 20
216.80623231342
 30
0.0
 10
2.48305257099382
 20
217.4268662650877
 30
0.0
 10
2.627574326600051
 20
218.0790228404455
 30
0.0
 10
3.293855793447369
 20
218.0790228404455
 30
0.0
 10
3.960309515068951
 20
218.0790228404455
 30
0.0
 10
4.104831270675181
 20
217.4268662650877
 30
0.0
 10
4.104831270675181
 20
216.80623231342
 30
0.0
  0
SPLINE
  5
567
330
55F
100
AcDbEntity
  8
TEXT
100
AcDbSpline
210
0.0
220
0.0
230
1.0
 70
    11
 71
     3
 72
    17
 73
    13
 74
     0
 42
0.0000000001
 43
0.0000000001
 40
0.0
 40
0.0
 40
0.0
 40
0.0
 40
1.0
 40
1.0
 40
1.0
 40
2.0
 40
2.0
 40
2.0
 40
3.0
 40
3.0
 40
3.0
 40
4.0
 40
4.0
 40
4.0
 40
4.0
 10
2.729721407737709
 20
216.80623231342
 30
0.0
 10
2.729721407737709
 20
216.4431192492746
 30
0.0
 10
2.775541177691531
 20
215.7449706491888
 30
0.0
 10
3.293855793447369
 20
215.7449706491888
 30
0.0
 10
3.812170409203207
 20
215.7449706491888
 30
0.0
 10
3.857990179157031
 20
216.4431192492746
 30
0.0
 10
3.857990179157031
 20
216.80623231342
 30
0.0
 10
3.857990179157031
 20
217.1693453775653
 30
0.0
 10
3.812170409203207
 20
217.8674939776512
 30
0.0
 10
3.293855793447369
 20
217.8674939776512
 30
0.0
 10
2.775541177691531
 20
217.8674939776512
 30
0.0
 10
2.729721407737709
 20
217.1693453775653
 30
0.0
 10
2.729721407737709
 20
216.80623231342
 30
0.0
  0
HATCH
  5
568
330
55F
100
AcDbEntity
  8
TEXT
 62
     7
100
AcDbHatch
 10
0.0
 20
0.0
 30
0.0
210
0.0
220
0.0
230
1.0
  2
SOLID
 70
     1
 71
     0
 91
        2
 92
        1
 93
        1
 72
     4
 94
        3
 73
     0
 74
     1
 95
       17
 96
       13
 40
0.0
 40
0.0
 40
0.0
 40
0.0
 40
1.0
 40
1.0
 40
1.0
 40
2.0
 40
2.0
 40
2.0
 40
3.0
 40
3.0
 40
3.0
 40
4.0
 40
4.0
 40
4.0
 40
4.0
 10
4.104831270675181
 20
216.80623231342
 10
4.104831270675181
 20
216.1857706165265
 10
3.960309515068951
 20
215.5334417863944
 10
3.293855793447369
 20
215.5334417863944
 10
2.627574326600051
 20
215.5334417863944
 10
2.48305257099382
 20
216.1857706165265
 10
2.48305257099382
 20
216.80623231342
 10
2.48305257099382
 20
217.4268662650877
 10
2.627574326600051
 20
218.0790228404455
 10
3.293855793447369
 20
218.0790228404455
 10
3.960309515068951
 20
218.0790228404455
 10
4.104831270675181
 20
217.4268662650877
 10
4.104831270675181
 20
216.80623231342
 97
        0
 92
        1
 93
        1
 72
     4
 94
        3
 73
     0
 74
     1
 95
       17
 96
       13
 40
0.0
 40
0.0
 40
0.0
 40
0.0
 40
1.0
 40
1.0
 40
1.0
 40
2.0
 40
2.0
 40
2.0
 40
3.0
 40
3.0
 40
3.0
 40
4.0
 40
4.0
 40
4.0
 40
4.0
 10
2.729721407737709
 20
216.80623231342
 10
2.729721407737709
 20
216.4431192492746
 10
2.775541177691531
 20
215.7449706491888
 10
3.293855793447369
 20
215.7449706491888
 10
3.812170409203207
 20
215.7449706491888
 10
3.857990179157031
 20
216.4431192492746
 10
3.857990179157031
 20
216.80623231342
 10
3.857990179157031
 20
217.1693453775653
 10
3.812170409203207
 20
217.8674939776512
 10
3.293855793447369
 20
217.8674939776512
 10
2.775541177691531
 20
217.8674939776512
 10
2.729721407737709
 20
217.1693453775653
 10
2.729721407737709
 20
216.80623231342
 97
        0
 75
     2
 76
     1
 98
        0
  0
ENDBLK
  5
562
330
55F
100
AcDbEntity
  8
0
100
AcDbBlockEnd
  0
BLOCK
  5
56B
330
569
100
AcDbEntity
  8
0
100
AcDbBlockBegin
  2
BLOCK_6
 70
     0
 71
     0
 10
0.0
 20
0.0
 30
0.0
  3
BLOCK_6
  1

  0
SPLINE
  5
56D
330
569
100
AcDbEntity
  8
TEXT
100
AcDbSpline
210
0.0
220
0.0
230
1.0
 70
    11
 71
     3
 72
    53
 73
    49
 74
     0
 42
0.0000000001
 43
0.0000000001
 40
0.0
 40
0.0
 40
0.0
 40
0.0
 40
1.0
 40
1.0
 40
1.0
 40
2.0
 40
2.0
 40
2.0
 40
3.0
 40
3.0
 40
3.0
 40
4.0
 40
4.0
 40
4.0
 40
5.0
 40
5.0
 40
5.0
 40
6.0
 40
6.0
 40
6.0
 40
7.0
 40
7.0
 40
7.0
 40
8.0
 40
8.0
 40
8.0
 40
9.0
 40
9.0
 40
9.0
 40
10.0
 40
10.0
 40
10.0
 40
11.0
 40
11.0
 40
11.0
 40
12.0
 40
12.0
 40
12.0
 40
13.0
 40
13.0
 40
13.0
 40
14.0
 40
14.0
 40
14.0
 40
15.0
 40
15.0
 40
15.0
 40
16.0
 40
16.0
 40
16.0
 40
16.0
 10
-33.34559596605597
 20
194.9942992676577
 30
0.0
 10
-33.31028373733216
 20
195.3081474663639
 30
0.0
 10
-33.43723550596361
 20
195.667815435024
 30
0.0
 10
-33.80396592036846
 20
195.667815435024
 30
0.0
 10
-34.08594698583615
 20
195.667815435024
 30
0.0
 10
-34.24459363293191
 20
195.4139118977611
 30
0.0
 10
-34.24459363293191
 20
195.1283134820339
 30
0.0
 10
-34.24459363293191
 20
194.8180826335872
 30
0.0
 10
-34.08232963557664
 20
194.6277411080271
 30
0.0
 10
-33.80034857010894
 20
194.5958739747885
 30
0.0
 10
-33.80034857010894
 20
194.5958739747885
 30
0.0
 10
-33.80034857010894
 20
194.3492051380447
 30
0.0
 10
-33.80034857010894
 20
194.3492051380447
 30
0.0
 10
-34.21289875446761
 20
194.3492051380447
 30
0.0
 10
-34.45612249572625
 20
194.7157632976752
 30
0.0
 10
-34.45612249572625
 20
195.0966186035696
 30
0.0
 10
-34.45612249572625
 20
195.5091687879283
 30
0.0
 10
-34.26216361990668
 20
195.9146565265422
 30
0.0
 10
-33.78984102887893
 20
195.9146565265422
 30
0.0
 10
-33.49356281714744
 20
195.9146565265422
 30
0.0
 10
-33.29615884584263
 20
195.6890027722583
 30
0.0
 10
-33.23965927988453
 20
195.4175292480206
 30
0.0
 10
-33.23965927988453
 20
195.4175292480206
 30
0.0
 10
-33.23276908891403
 20
195.4175292480206
 30
0.0
 10
-33.23276908891403
 20
195.4175292480206
 30
0.0
 10
-33.16576198172592
 20
195.7277600964674
 30
0.0
 10
-32.94372557770157
 20
195.9534138507512
 30
0.0
 10
-32.61575248750579
 20
195.9534138507512
 30
0.0
 10
-32.15738253319329
 20
195.9534138507512
 30
0.0
 10
-31.91054144167514
 20
195.526738774903
 30
0.0
 10
-31.91054144167514
 20
195.1178059408039
 30
0.0
 10
-31.91054144167514
 20
194.6876857694704
 30
0.0
 10
-32.14325764170377
 20
194.3280178008104
 30
0.0
 10
-32.60869004176102
 20
194.3138929093208
 30
0.0
 10
-32.60869004176102
 20
194.3138929093208
 30
0.0
 10
-32.60869004176102
 20
194.560734000839
 30
0.0
 10
-32.60869004176102
 20
194.560734000839
 30
0.0
 10
-32.30534938428477
 20
194.5641790963242
 30
0.0
 10
-32.12207030446948
 20
194.8322075250767
 30
0.0
 10
-32.12207030446948
 20
195.1141885905444
 30
0.0
 10
-32.12207030446948
 20
195.4387165852549
 30
0.0
 10
-32.29484184305476
 20
195.7065727592331
 30
0.0
 10
-32.64400227048483
 20
195.7065727592331
 30
0.0
 10
-33.03536511760922
 20
195.7065727592331
 30
0.0
 10
-33.17282442747069
 20
195.3293348035982
 30
0.0
 10
-33.12338730725735
 20
194.9942992676577
 30
0.0
 10
-33.12338730725735
 20
194.9942992676577
 30
0.0
 10
-33.34559596605597
 20
194.9942992676577
 30
0.0
 10
-33.34559596605597
 20
194.9942992676577
 30
0.0
  0
HATCH
  5
56E
330
569
100
AcDbEntity
  8
TEXT
 62
     7
100
AcDbHatch
 10
0.0
 20
0.0
 30
0.0
210
0.0
220
0.0
230
1.0
  2
SOLID
 70
     1
 71
     0
 91
        1
 92
        1
 93
        1
 72
     4
 94
        3
 73
     0
 74
     1
 95
       53
 96
       49
 40
0.0
 40
0.0
 40
0.0
 40
0.0
 40
1.0
 40
1.0
 40
1.0
 40
2.0
 40
2.0
 40
2.0
 40
3.0
 40
3.0
 40
3.0
 40
4.0
 40
4.0
 40
4.0
 40
5.0
 40
5.0
 40
5.0
 40
6.0
 40
6.0
 40
6.0
 40
7.0
 40
7.0
 40
7.0
 40
8.0
 40
8.0
 40
8.0
 40
9.0
 40
9.0
 40
9.0
 40
10.0
 40
10.0
 40
10.0
 40
11.0
 40
11.0
 40
11.0
 40
12.0
 40
12.0
 40
12.0
 40
13.0
 40
13.0
 40
13.0
 40
14.0
 40
14.0
 40
14.0
 40
15.0
 40
15.0
 40
15.0
 40
16.0
 40
16.0
 40
16.0
 40
16.0
 10
-33.34559596605597
 20
194.9942992676577
 10
-33.31028373733216
 20
195.3081474663639
 10
-33.43723550596361
 20
195.667815435024
 10
-33.80396592036846
 20
195.667815435024
 10
-34.08594698583615
 20
195.667815435024
 10
-34.24459363293191
 20
195.4139118977611
 10
-34.24459363293191
 20
195.1283134820339
 10
-34.24459363293191
 20
194.8180826335872
 10
-34.08232963557664
 20
194.6277411080271
 10
-33.80034857010894
 20
194.5958739747885
 10
-33.80034857010894
 20
194.5958739747885
 10
-33.80034857010894
 20
194.3492051380447
 10
-33.80034857010894
 20
194.3492051380447
 10
-34.21289875446761
 20
194.3492051380447
 10
-34.45612249572625
 20
194.7157632976752
 10
-34.45612249572625
 20
195.0966186035696
 10
-34.45612249572625
 20
195.5091687879283
 10
-34.26216361990668
 20
195.9146565265422
 10
-33.78984102887893
 20
195.9146565265422
 10
-33.49356281714744
 20
195.9146565265422
 10
-33.29615884584263
 20
195.6890027722583
 10
-33.23965927988453
 20
195.4175292480206
 10
-33.23965927988453
 20
195.4175292480206
 10
-33.23276908891403
 20
195.4175292480206
 10
-33.23276908891403
 20
195.4175292480206
 10
-33.16576198172592
 20
195.7277600964674
 10
-32.94372557770157
 20
195.9534138507512
 10
-32.61575248750579
 20
195.9534138507512
 10
-32.15738253319329
 20
195.9534138507512
 10
-31.91054144167514
 20
195.526738774903
 10
-31.91054144167514
 20
195.1178059408039
 10
-31.91054144167514
 20
194.6876857694704
 10
-32.14325764170377
 20
194.3280178008104
 10
-32.60869004176102
 20
194.3138929093208
 10
-32.60869004176102
 20
194.3138929093208
 10
-32.60869004176102
 20
194.560734000839
 10
-32.60869004176102
 20
194.560734000839
 10
-32.30534938428477
 20
194.5641790963242
 10
-32.12207030446948
 20
194.8322075250767
 10
-32.12207030446948
 20
195.1141885905444
 10
-32.12207030446948
 20
195.4387165852549
 10
-32.29484184305476
 20
195.7065727592331
 10
-32.64400227048483
 20
195.7065727592331
 10
-33.03536511760922
 20
195.7065727592331
 10
-33.17282442747069
 20
195.3293348035982
 10
-33.12338730725735
 20
194.9942992676577
 10
-33.12338730725735
 20
194.9942992676577
 10
-33.34559596605597
 20
194.9942992676577
 10
-33.34559596605597
 20
194.9942992676577
 97
        0
 75
     2
 76
     1
 98
        0
  0
SPLINE
  5
56F
330
569
100
AcDbEntity
  8
TEXT
100
AcDbSpline
210
0.0
220
0.0
230
1.0
 70
    11
 71
     3
 72
    35
 73
    31
 74
     0
 42
0.0000000001
 43
0.0000000001
 40
0.0
 40
0.0
 40
0.0
 40
0.0
 40
1.0
 40
1.0
 40
1.0
 40
2.0
 40
2.0
 40
2.0
 40
3.0
 40
3.0
 40
3.0
 40
4.0
 40
4.0
 40
4.0
 40
5.0
 40
5.0
 40
5.0
 40
6.0
 40
6.0
 40
6.0
 40
7.0
 40
7.0
 40
7.0
 40
8.0
 40
8.0
 40
8.0
 40
9.0
 40
9.0
 40
9.0
 40
10.0
 40
10.0
 40
10.0
 40
10.0
 10
-33.8322157033475
 20
197.932448952253
 30
0.0
 10
-33.8322157033475
 20
197.932448952253
 30
0.0
 10
-33.8322157033475
 20
197.6857801155091
 30
0.0
 10
-33.8322157033475
 20
197.6857801155091
 30
0.0
 10
-34.08594698583615
 20
197.6751003195048
 30
0.0
 10
-34.24459363293191
 20
197.4706339024553
 30
0.0
 10
-34.24459363293191
 20
197.2203477154519
 30
0.0
 10
-34.24459363293191
 20
196.6350259925079
 30
0.0
 10
-33.60656194906364
 20
196.5680188853198
 30
0.0
 10
-33.14801973997689
 20
196.5680188853198
 30
0.0
 10
-33.14801973997689
 20
196.5680188853198
 30
0.0
 10
-33.14801973997689
 20
196.5750813310646
 30
0.0
 10
-33.14801973997689
 20
196.5750813310646
 30
0.0
 10
-33.41604816872933
 20
196.684290857947
 30
0.0
 10
-33.54661728762029
 20
196.9311319494651
 30
0.0
 10
-33.54661728762029
 20
197.2167303651923
 30
0.0
 10
-33.54661728762029
 20
197.6997327522244
 30
0.0
 10
-33.20451930593498
 20
197.9643160854916
 30
0.0
 10
-32.73908690587773
 20
197.9643160854916
 30
0.0
 10
-32.27365450582047
 20
197.9643160854916
 30
0.0
 10
-31.91054144167514
 20
197.6751003195048
 30
0.0
 10
-31.91054144167514
 20
197.1955430279581
 30
0.0
 10
-31.91054144167514
 20
196.5151366696212
 30
0.0
 10
-32.47467582738481
 20
196.3211777938017
 30
0.0
 10
-33.05999755032875
 20
196.3211777938017
 30
0.0
 10
-33.68407659748176
 20
196.3211777938017
 30
0.0
 10
-34.45612249572625
 20
196.4198797794541
 30
0.0
 10
-34.45612249572625
 20
197.2096679194476
 30
0.0
 10
-34.45612249572625
 20
197.6080932123167
 30
0.0
 10
-34.25527342893619
 20
197.9253865065082
 30
0.0
 10
-33.8322157033475
 20
197.932448952253
 30
0.0
  0
SPLINE
  5
570
330
569
100
AcDbEntity
  8
TEXT
100
AcDbSpline
210
0.0
220
0.0
230
1.0
 70
    11
 71
     3
 72
    17
 73
    13
 74
     0
 42
0.0000000001
 43
0.0000000001
 40
0.0
 40
0.0
 40
0.0
 40
0.0
 40
1.0
 40
1.0
 40
1.0
 40
2.0
 40
2.0
 40
2.0
 40
3.0
 40
3.0
 40
3.0
 40
4.0
 40
4.0
 40
4.0
 40
4.0
 10
-32.70739202741343
 20
196.6103935597884
 30
0.0
 10
-32.40060627445193
 20
196.6103935597884
 30
0.0
 10
-32.12207030446948
 20
196.8429375050428
 30
0.0
 10
-32.12207030446948
 20
197.1604030540085
 30
0.0
 10
-32.12207030446948
 20
197.5198987678943
 30
0.0
 10
-32.37941893721764
 20
197.7174749939734
 30
0.0
 10
-32.7249620143882
 20
197.7174749939734
 30
0.0
 10
-33.04587265883923
 20
197.7174749939734
 30
0.0
 10
-33.35265841180072
 20
197.5693358881077
 30
0.0
 10
-33.35265841180072
 20
197.2062228239623
 30
0.0
 10
-33.35265841180072
 20
196.8183050723232
 30
0.0
 10
-33.07050509155876
 20
196.6103935597884
 30
0.0
 10
-32.70739202741343
 20
196.6103935597884
 30
0.0
  0
HATCH
  5
571
330
569
100
AcDbEntity
  8
TEXT
 62
     7
100
AcDbHatch
 10
0.0
 20
0.0
 30
0.0
210
0.0
220
0.0
230
1.0
  2
SOLID
 70
     1
 71
     0
 91
        2
 92
        1
 93
        1
 72
     4
 94
        3
 73
     0
 74
     1
 95
       35
 96
       31
 40
0.0
 40
0.0
 40
0.0
 40
0.0
 40
1.0
 40
1.0
 40
1.0
 40
2.0
 40
2.0
 40
2.0
 40
3.0
 40
3.0
 40
3.0
 40
4.0
 40
4.0
 40
4.0
 40
5.0
 40
5.0
 40
5.0
 40
6.0
 40
6.0
 40
6.0
 40
7.0
 40
7.0
 40
7.0
 40
8.0
 40
8.0
 40
8.0
 40
9.0
 40
9.0
 40
9.0
 40
10.0
 40
10.0
 40
10.0
 40
10.0
 10
-33.8322157033475
 20
197.932448952253
 10
-33.8322157033475
 20
197.932448952253
 10
-33.8322157033475
 20
197.6857801155091
 10
-33.8322157033475
 20
197.6857801155091
 10
-34.08594698583615
 20
197.6751003195048
 10
-34.24459363293191
 20
197.4706339024553
 10
-34.24459363293191
 20
197.2203477154519
 10
-34.24459363293191
 20
196.6350259925079
 10
-33.60656194906364
 20
196.5680188853198
 10
-33.14801973997689
 20
196.5680188853198
 10
-33.14801973997689
 20
196.5680188853198
 10
-33.14801973997689
 20
196.5750813310646
 10
-33.14801973997689
 20
196.5750813310646
 10
-33.41604816872933
 20
196.684290857947
 10
-33.54661728762029
 20
196.9311319494651
 10
-33.54661728762029
 20
197.2167303651923
 10
-33.54661728762029
 20
197.6997327522244
 10
-33.20451930593498
 20
197.9643160854916
 10
-32.73908690587773
 20
197.9643160854916
 10
-32.27365450582047
 20
197.9643160854916
 10
-31.91054144167514
 20
197.6751003195048
 10
-31.91054144167514
 20
197.1955430279581
 10
-31.91054144167514
 20
196.5151366696212
 10
-32.47467582738481
 20
196.3211777938017
 10
-33.05999755032875
 20
196.3211777938017
 10
-33.68407659748176
 20
196.3211777938017
 10
-34.45612249572625
 20
196.4198797794541
 10
-34.45612249572625
 20
197.2096679194476
 10
-34.45612249572625
 20
197.6080932123167
 10
-34.25527342893619
 20
197.9253865065082
 10
-33.8322157033475
 20
197.932448952253
 97
        0
 92
        1
 93
        1
 72
     4
 94
        3
 73
     0
 74
     1
 95
       17
 96
       13
 40
0.0
 40
0.0
 40
0.0
 40
0.0
 40
1.0
 40
1.0
 40
1.0
 40
2.0
 40
2.0
 40
2.0
 40
3.0
 40
3.0
 40
3.0
 40
4.0
 40
4.0
 40
4.0
 40
4.0
 10
-32.70739202741343
 20
196.6103935597884
 10
-32.40060627445193
 20
196.6103935597884
 10
-32.12207030446948
 20
196.8429375050428
 10
-32.12207030446948
 20
197.1604030540085
 10
-32.12207030446948
 20
197.5198987678943
 10
-32.37941893721764
 20
197.7174749939734
 10
-32.7249620143882
 20
197.7174749939734
 10
-33.04587265883923
 20
197.7174749939734
 10
-33.35265841180072
 20
197.5693358881077
 10
-33.35265841180072
 20
197.2062228239623
 10
-33.35265841180072
 20
196.8183050723232
 10
-33.07050509155876
 20
196.6103935597884
 10
-32.70739202741343
 20
196.6103935597884
 97
        0
 75
     2
 76
     1
 98
        0
  0
POLYLINE
  5
572
330
569
100
AcDbEntity
  8
TEXT
100
AcDb2dPolyline
 66
     1
 10
0.0
 20
0.0
 30
0.0
  0
VERTEX
  5
573
330
572
100
AcDbEntity
  8
TEXT
100
AcDbVertex
100
AcDb2dVertex
 10
-32.24902207310094
 20
198.7692626456202
 30
0.0
  0
VERTEX
  5
574
330
572
100
AcDbEntity
  8
TEXT
100
AcDbVertex
100
AcDb2dVertex
 10
-31.52624104029552
 20
198.5153591083573
 30
0.0
  0
VERTEX
  5
575
330
572
100
AcDbEntity
  8
TEXT
100
AcDbVertex
100
AcDb2dVertex
 10
-31.52624104029552
 20
198.332080028542
 30
0.0
  0
VERTEX
  5
576
330
572
100
AcDbEntity
  8
TEXT
100
AcDbVertex
100
AcDb2dVertex
 10
-32.24902207310094
 20
198.483664229893
 30
0.0
  0
VERTEX
  5
577
330
572
100
AcDbEntity
  8
TEXT
100
AcDbVertex
100
AcDb2dVertex
 10
-32.24902207310094
 20
198.7692626456202
 30
0.0
  0
SEQEND
  5
578
330
572
100
AcDbEntity
  8
TEXT
  0
HATCH
  5
579
330
569
100
AcDbEntity
  8
TEXT
 62
     7
100
AcDbHatch
 10
0.0
 20
0.0
 30
0.0
210
0.0
220
0.0
230
1.0
  2
SOLID
 70
     1
 71
     0
 91
        1
 92
        1
 93
        4
 72
     1
 10
-32.24902207310094
 20
198.7692626456202
 11
-31.52624104029552
 21
198.5153591083573
 72
     1
 10
-31.52624104029552
 20
198.5153591083573
 11
-31.52624104029552
 21
198.332080028542
 72
     1
 10
-31.52624104029552
 20
198.332080028542
 11
-32.24902207310094
 21
198.483664229893
 72
     1
 10
-32.24902207310094
 20
198.483664229893
 11
-32.24902207310094
 21
198.7692626456202
 97
        0
 75
     2
 76
     1
 98
        0
  0
POLYLINE
  5
57A
330
569
100
AcDbEntity
  8
TEXT
100
AcDb2dPolyline
 66
     1
 10
0.0
 20
0.0
 30
0.0
  0
VERTEX
  5
57B
330
57A
100
AcDbEntity
  8
TEXT
100
AcDbVertex
100
AcDb2dVertex
 10
-32.53100313856864
 20
200.3281683526957
 30
0.0
  0
VERTEX
  5
57C
330
57A
100
AcDbEntity
  8
TEXT
100
AcDbVertex
100
AcDb2dVertex
 10
-32.53100313856864
 20
199.1821573395274
 30
0.0
  0
VERTEX
  5
57D
330
57A
100
AcDbEntity
  8
TEXT
100
AcDbVertex
100
AcDb2dVertex
 10
-32.75321179736726
 20
199.1821573395274
 30
0.0
  0
VERTEX
  5
57E
330
57A
100
AcDbEntity
  8
TEXT
100
AcDbVertex
100
AcDb2dVertex
 10
-34.40341253480192
 20
200.2540987997629
 30
0.0
  0
VERTEX
  5
57F
330
57A
100
AcDbEntity
  8
TEXT
100
AcDbVertex
100
AcDb2dVertex
 10
-34.40341253480192
 20
200.5572672024649
 30
0.0
  0
VERTEX
  5
580
330
57A
100
AcDbEntity
  8
TEXT
100
AcDbVertex
100
AcDb2dVertex
 10
-32.72151691890296
 20
200.5572672024649
 30
0.0
  0
VERTEX
  5
581
330
57A
100
AcDbEntity
  8
TEXT
100
AcDbVertex
100
AcDb2dVertex
 10
-32.72151691890296
 20
200.9486300495892
 30
0.0
  0
VERTEX
  5
582
330
57A
100
AcDbEntity
  8
TEXT
100
AcDbVertex
100
AcDb2dVertex
 10
-32.53100313856864
 20
200.9486300495892
 30
0.0
  0
VERTEX
  5
583
330
57A
100
AcDbEntity
  8
TEXT
100
AcDbVertex
100
AcDb2dVertex
 10
-32.53100313856864
 20
200.5572672024649
 30
0.0
  0
VERTEX
  5
584
330
57A
100
AcDbEntity
  8
TEXT
100
AcDbVertex
100
AcDb2dVertex
 10
-31.96342365737373
 20
200.5572672024649
 30
0.0
  0
VERTEX
  5
585
330
57A
100
AcDbEntity
  8
TEXT
100
AcDbVertex
100
AcDb2dVertex
 10
-31.96342365737373
 20
200.3281683526957
 30
0.0
  0
VERTEX
  5
586
330
57A
100
AcDbEntity
  8
TEXT
100
AcDbVertex
100
AcDb2dVertex
 10
-32.53100313856864
 20
200.3281683526957
 30
0.0
  0
SEQEND
  5
587
330
57A
100
AcDbEntity
  8
TEXT
  0
POLYLINE
  5
588
330
569
100
AcDbEntity
  8
TEXT
100
AcDb2dPolyline
 66
     1
 10
0.0
 20
0.0
 30
0.0
  0
VERTEX
  5
589
330
588
100
AcDbEntity
  8
TEXT
100
AcDbVertex
100
AcDb2dVertex
 10
-34.17414143025855
 20
200.3281683526957
 30
0.0
  0
VERTEX
  5
58A
330
588
100
AcDbEntity
  8
TEXT
100
AcDbVertex
100
AcDb2dVertex
 10
-34.17414143025855
 20
200.321105906951
 30
0.0
  0
VERTEX
  5
58B
330
588
100
AcDbEntity
  8
TEXT
100
AcDbVertex
100
AcDb2dVertex
 10
-32.72151691890296
 20
199.3761162153469
 30
0.0
  0
VERTEX
  5
58C
330
588
100
AcDbEntity
  8
TEXT
100
AcDbVertex
100
AcDb2dVertex
 10
-32.72151691890296
 20
200.3281683526957
 30
0.0
  0
VERTEX
  5
58D
330
588
100
AcDbEntity
  8
TEXT
100
AcDbVertex
100
AcDb2dVertex
 10
-34.17414143025855
 20
200.3281683526957
 30
0.0
  0
SEQEND
  5
58E
330
588
100
AcDbEntity
  8
TEXT
  0
HATCH
  5
58F
330
569
100
AcDbEntity
  8
TEXT
 62
     7
100
AcDbHatch
 10
0.0
 20
0.0
 30
0.0
210
0.0
220
0.0
230
1.0
  2
SOLID
 70
     1
 71
     0
 91
        2
 92
        1
 93
       11
 72
     1
 10
-32.53100313856864
 20
200.3281683526957
 11
-32.53100313856864
 21
199.1821573395274
 72
     1
 10
-32.53100313856864
 20
199.1821573395274
 11
-32.75321179736726
 21
199.1821573395274
 72
     1
 10
-32.75321179736726
 20
199.1821573395274
 11
-34.40341253480192
 21
200.2540987997629
 72
     1
 10
-34.40341253480192
 20
200.2540987997629
 11
-34.40341253480192
 21
200.5572672024649
 72
     1
 10
-34.40341253480192
 20
200.5572672024649
 11
-32.72151691890296
 21
200.5572672024649
 72
     1
 10
-32.72151691890296
 20
200.5572672024649
 11
-32.72151691890296
 21
200.9486300495892
 72
     1
 10
-32.72151691890296
 20
200.9486300495892
 11
-32.53100313856864
 21
200.9486300495892
 72
     1
 10
-32.53100313856864
 20
200.9486300495892
 11
-32.53100313856864
 21
200.5572672024649
 72
     1
 10
-32.53100313856864
 20
200.5572672024649
 11
-31.96342365737373
 21
200.5572672024649
 72
     1
 10
-31.96342365737373
 20
200.5572672024649
 11
-31.96342365737373
 21
200.3281683526957
 72
     1
 10
-31.96342365737373
 20
200.3281683526957
 11
-32.53100313856864
 21
200.3281683526957
 97
        0
 92
        1
 93
        4
 72
     1
 10
-34.17414143025855
 20
200.3281683526957
 11
-34.17414143025855
 21
200.321105906951
 72
     1
 10
-34.17414143025855
 20
200.321105906951
 11
-32.72151691890296
 21
199.3761162153469
 72
     1
 10
-32.72151691890296
 20
199.3761162153469
 11
-32.72151691890296
 21
200.3281683526957
 72
     1
 10
-32.72151691890296
 20
200.3281683526957
 11
-34.17414143025855
 21
200.3281683526957
 97
        0
 75
     2
 76
     1
 98
        0
  0
POLYLINE
  5
590
330
569
100
AcDbEntity
  8
TEXT
100
AcDb2dPolyline
 66
     1
 10
0.0
 20
0.0
 30
0.0
  0
VERTEX
  5
591
330
590
100
AcDbEntity
  8
TEXT
100
AcDbVertex
100
AcDb2dVertex
 10
-32.53100313856864
 20
202.2896334672227
 30
0.0
  0
VERTEX
  5
592
330
590
100
AcDbEntity
  8
TEXT
100
AcDbVertex
100
AcDb2dVertex
 10
-32.53100313856864
 20
201.1436224540544
 30
0.0
  0
VERTEX
  5
593
330
590
100
AcDbEntity
  8
TEXT
100
AcDbVertex
100
AcDb2dVertex
 10
-32.75321179736726
 20
201.1436224540544
 30
0.0
  0
VERTEX
  5
594
330
590
100
AcDbEntity
  8
TEXT
100
AcDbVertex
100
AcDb2dVertex
 10
-34.40341253480192
 20
202.2155639142899
 30
0.0
  0
VERTEX
  5
595
330
590
100
AcDbEntity
  8
TEXT
100
AcDbVertex
100
AcDb2dVertex
 10
-34.40341253480192
 20
202.5187323169918
 30
0.0
  0
VERTEX
  5
596
330
590
100
AcDbEntity
  8
TEXT
100
AcDbVertex
100
AcDb2dVertex
 10
-32.72151691890296
 20
202.5187323169918
 30
0.0
  0
VERTEX
  5
597
330
590
100
AcDbEntity
  8
TEXT
100
AcDbVertex
100
AcDb2dVertex
 10
-32.72151691890296
 20
202.9100951641162
 30
0.0
  0
VERTEX
  5
598
330
590
100
AcDbEntity
  8
TEXT
100
AcDbVertex
100
AcDb2dVertex
 10
-32.53100313856864
 20
202.9100951641162
 30
0.0
  0
VERTEX
  5
599
330
590
100
AcDbEntity
  8
TEXT
100
AcDbVertex
100
AcDb2dVertex
 10
-32.53100313856864
 20
202.5187323169918
 30
0.0
  0
VERTEX
  5
59A
330
590
100
AcDbEntity
  8
TEXT
100
AcDbVertex
100
AcDb2dVertex
 10
-31.96342365737373
 20
202.5187323169918
 30
0.0
  0
VERTEX
  5
59B
330
590
100
AcDbEntity
  8
TEXT
100
AcDbVertex
100
AcDb2dVertex
 10
-31.96342365737373
 20
202.2896334672227
 30
0.0
  0
VERTEX
  5
59C
330
590
100
AcDbEntity
  8
TEXT
100
AcDbVertex
100
AcDb2dVertex
 10
-32.53100313856864
 20
202.2896334672227
 30
0.0
  0
SEQEND
  5
59D
330
590
100
AcDbEntity
  8
TEXT
  0
POLYLINE
  5
59E
330
569
100
AcDbEntity
  8
TEXT
100
AcDb2dPolyline
 66
     1
 10
0.0
 20
0.0
 30
0.0
  0
VERTEX
  5
59F
330
59E
100
AcDbEntity
  8
TEXT
100
AcDbVertex
100
AcDb2dVertex
 10
-34.17414143025855
 20
202.2896334672227
 30
0.0
  0
VERTEX
  5
5A0
330
59E
100
AcDbEntity
  8
TEXT
100
AcDbVertex
100
AcDb2dVertex
 10
-34.17414143025855
 20
202.282571021478
 30
0.0
  0
VERTEX
  5
5A1
330
59E
100
AcDbEntity
  8
TEXT
100
AcDbVertex
100
AcDb2dVertex
 10
-32.72151691890296
 20
201.337581329874
 30
0.0
  0
VERTEX
  5
5A2
330
59E
100
AcDbEntity
  8
TEXT
100
AcDbVertex
100
AcDb2dVertex
 10
-32.72151691890296
 20
202.2896334672227
 30
0.0
  0
VERTEX
  5
5A3
330
59E
100
AcDbEntity
  8
TEXT
100
AcDbVertex
100
AcDb2dVertex
 10
-34.17414143025855
 20
202.2896334672227
 30
0.0
  0
SEQEND
  5
5A4
330
59E
100
AcDbEntity
  8
TEXT
  0
HATCH
  5
5A5
330
569
100
AcDbEntity
  8
TEXT
 62
     7
100
AcDbHatch
 10
0.0
 20
0.0
 30
0.0
210
0.0
220
0.0
230
1.0
  2
SOLID
 70
     1
 71
     0
 91
        2
 92
        1
 93
       11
 72
     1
 10
-32.53100313856864
 20
202.2896334672227
 11
-32.53100313856864
 21
201.1436224540544
 72
     1
 10
-32.53100313856864
 20
201.1436224540544
 11
-32.75321179736726
 21
201.1436224540544
 72
     1
 10
-32.75321179736726
 20
201.1436224540544
 11
-34.40341253480192
 21
202.2155639142899
 72
     1
 10
-34.40341253480192
 20
202.2155639142899
 11
-34.40341253480192
 21
202.5187323169918
 72
     1
 10
-34.40341253480192
 20
202.5187323169918
 11
-32.72151691890296
 21
202.5187323169918
 72
     1
 10
-32.72151691890296
 20
202.5187323169918
 11
-32.72151691890296
 21
202.9100951641162
 72
     1
 10
-32.72151691890296
 20
202.9100951641162
 11
-32.53100313856864
 21
202.9100951641162
 72
     1
 10
-32.53100313856864
 20
202.9100951641162
 11
-32.53100313856864
 21
202.5187323169918
 72
     1
 10
-32.53100313856864
 20
202.5187323169918
 11
-31.96342365737373
 21
202.5187323169918
 72
     1
 10
-31.96342365737373
 20
202.5187323169918
 11
-31.96342365737373
 21
202.2896334672227
 72
     1
 10
-31.96342365737373
 20
202.2896334672227
 11
-32.53100313856864
 21
202.2896334672227
 97
        0
 92
        1
 93
        4
 72
     1
 10
-34.17414143025855
 20
202.2896334672227
 11
-34.17414143025855
 21
202.282571021478
 72
     1
 10
-34.17414143025855
 20
202.282571021478
 11
-32.72151691890296
 21
201.337581329874
 72
     1
 10
-32.72151691890296
 20
201.337581329874
 11
-32.72151691890296
 21
202.2896334672227
 72
     1
 10
-32.72151691890296
 20
202.2896334672227
 11
-34.17414143025855
 21
202.2896334672227
 97
        0
 75
     2
 76
     1
 98
        0
  0
ENDBLK
  5
56C
330
569
100
AcDbEntity
  8
0
100
AcDbBlockEnd
  0
BLOCK
  5
5A8
330
5A6
100
AcDbEntity
  8
0
100
AcDbBlockBegin
  2
BLOCK_7
 70
     0
 71
     0
 10
0.0
 20
0.0
 30
0.0
  3
BLOCK_7
  1

  0
SPLINE
  5
5AA
330
5A6
100
AcDbEntity
  8
TEXT
100
AcDbSpline
210
0.0
220
0.0
230
1.0
 70
    11
 71
     3
 72
    35
 73
    31
 74
     0
 42
0.0000000001
 43
0.0000000001
 40
0.0
 40
0.0
 40
0.0
 40
0.0
 40
1.0
 40
1.0
 40
1.0
 40
2.0
 40
2.0
 40
2.0
 40
3.0
 40
3.0
 40
3.0
 40
4.0
 40
4.0
 40
4.0
 40
5.0
 40
5.0
 40
5.0
 40
6.0
 40
6.0
 40
6.0
 40
7.0
 40
7.0
 40
7.0
 40
8.0
 40
8.0
 40
8.0
 40
9.0
 40
9.0
 40
9.0
 40
10.0
 40
10.0
 40
10.0
 40
10.0
 10
-22.43153346878448
 20
203.4392618306506
 30
0.0
 10
-22.64530164364423
 20
203.1996554396515
 30
0.0
 10
-22.56950954296873
 20
202.9622883607178
 30
0.0
 10
-22.352468527398
 20
202.7555826316028
 30
0.0
 10
-21.94904784607524
 20
202.3714544849974
 30
0.0
 10
-21.36579318042244
 20
202.8966592917238
 30
0.0
 10
-21.11016709541691
 20
203.1646877204762
 30
0.0
 10
-21.11016709541691
 20
203.1646877204762
 30
0.0
 10
-21.11533473864478
 20
203.1696831089298
 30
0.0
 10
-21.11533473864478
 20
203.1696831089298
 30
0.0
 10
-21.36510416132539
 20
203.0813164097331
 30
0.0
 10
-21.63623317601455
 20
203.1495293003411
 30
0.0
 10
-21.84052733828987
 20
203.3440049404834
 30
0.0
 10
-22.15954318022401
 20
203.6478623622825
 30
0.0
 10
-22.16057670886958
 20
204.0915906607827
 30
0.0
 10
-21.85878634436169
 20
204.4080226811029
 30
0.0
 10
-21.53770344513641
 20
204.7449530195603
 30
0.0
 10
-21.08691270089147
 20
204.7733750573136
 30
0.0
 10
-20.74481471920616
 20
204.4476412791832
 30
0.0
 10
-20.23149549190393
 20
203.9589544846006
 30
0.0
 10
-20.53001301570083
 20
203.4156629265767
 30
0.0
 10
-20.94859211715869
 20
202.9767577617558
 30
0.0
 10
-21.40093315437199
 20
202.5020236038884
 30
0.0
 10
-21.98005370544249
 20
202.1089382090214
 30
0.0
 10
-22.54436034592641
 20
202.6462008499461
 30
0.0
 10
-22.8585530541812
 20
202.9452351380658
 30
0.0
 10
-22.85476344914742
 20
203.3067979092428
 30
0.0
 10
-22.61033392446895
 20
203.6094495476219
 30
0.0
 10
-22.61033392446895
 20
203.6094495476219
 30
0.0
 10
-22.43153346878448
 20
203.4392618306506
 30
0.0
 10
-22.43153346878448
 20
203.4392618306506
 30
0.0
  0
SPLINE
  5
5AB
330
5A6
100
AcDbEntity
  8
TEXT
100
AcDbSpline
210
0.0
220
0.0
230
1.0
 70
    11
 71
     3
 72
    17
 73
    13
 74
     0
 42
0.0000000001
 43
0.0000000001
 40
0.0
 40
0.0
 40
0.0
 40
0.0
 40
1.0
 40
1.0
 40
1.0
 40
2.0
 40
2.0
 40
2.0
 40
3.0
 40
3.0
 40
3.0
 40
4.0
 40
4.0
 40
4.0
 40
4.0
 10
-21.69221597764986
 20
204.2250881108361
 30
0.0
 10
-21.91356336257716
 20
203.9928886751302
 30
0.0
 10
-21.92355413948439
 20
203.6909260558481
 30
0.0
 10
-21.69135470377855
 20
203.4697509256951
 30
0.0
 10
-21.44606390522876
 20
203.2363457065694
 30
0.0
 10
-21.09948729941263
 20
203.2372069804407
 30
0.0
 10
-20.86590982551269
 20
203.4823255242162
 30
0.0
 10
-20.63474391845243
 20
203.7246879916036
 30
0.0
 10
-20.64559596923096
 20
204.0611015657382
 30
0.0
 10
-20.88813069139255
 20
204.2920952180242
 30
0.0
 10
-21.15116373169138
 20
204.5425536598019
 30
0.0
 10
-21.45863850374992
 20
204.4702066546116
 30
0.0
 10
-21.69221597764986
 20
204.2250881108361
 30
0.0
  0
HATCH
  5
5AC
330
5A6
100
AcDbEntity
  8
TEXT
 62
     7
100
AcDbHatch
 10
0.0
 20
0.0
 30
0.0
210
0.0
220
0.0
230
1.0
  2
SOLID
 70
     1
 71
     0
 91
        2
 92
        1
 93
        1
 72
     4
 94
        3
 73
     0
 74
     1
 95
       35
 96
       31
 40
0.0
 40
0.0
 40
0.0
 40
0.0
 40
1.0
 40
1.0
 40
1.0
 40
2.0
 40
2.0
 40
2.0
 40
3.0
 40
3.0
 40
3.0
 40
4.0
 40
4.0
 40
4.0
 40
5.0
 40
5.0
 40
5.0
 40
6.0
 40
6.0
 40
6.0
 40
7.0
 40
7.0
 40
7.0
 40
8.0
 40
8.0
 40
8.0
 40
9.0
 40
9.0
 40
9.0
 40
10.0
 40
10.0
 40
10.0
 40
10.0
 10
-22.43153346878448
 20
203.4392618306506
 10
-22.64530164364423
 20
203.1996554396515
 10
-22.56950954296873
 20
202.9622883607178
 10
-22.352468527398
 20
202.7555826316028
 10
-21.94904784607524
 20
202.3714544849974
 10
-21.36579318042244
 20
202.8966592917238
 10
-21.11016709541691
 20
203.1646877204762
 10
-21.11016709541691
 20
203.1646877204762
 10
-21.11533473864478
 20
203.1696831089298
 10
-21.11533473864478
 20
203.1696831089298
 10
-21.36510416132539
 20
203.0813164097331
 10
-21.63623317601455
 20
203.1495293003411
 10
-21.84052733828987
 20
203.3440049404834
 10
-22.15954318022401
 20
203.6478623622825
 10
-22.16057670886958
 20
204.0915906607827
 10
-21.85878634436169
 20
204.4080226811029
 10
-21.53770344513641
 20
204.7449530195603
 10
-21.08691270089147
 20
204.7733750573136
 10
-20.74481471920616
 20
204.4476412791832
 10
-20.23149549190393
 20
203.9589544846006
 10
-20.53001301570083
 20
203.4156629265767
 10
-20.94859211715869
 20
202.9767577617558
 10
-21.40093315437199
 20
202.5020236038884
 10
-21.98005370544249
 20
202.1089382090214
 10
-22.54436034592641
 20
202.6462008499461
 10
-22.8585530541812
 20
202.9452351380658
 10
-22.85476344914742
 20
203.3067979092428
 10
-22.61033392446895
 20
203.6094495476219
 10
-22.61033392446895
 20
203.6094495476219
 10
-22.43153346878448
 20
203.4392618306506
 10
-22.43153346878448
 20
203.4392618306506
 97
        0
 92
        1
 93
        1
 72
     4
 94
        3
 73
     0
 74
     1
 95
       17
 96
       13
 40
0.0
 40
0.0
 40
0.0
 40
0.0
 40
1.0
 40
1.0
 40
1.0
 40
2.0
 40
2.0
 40
2.0
 40
3.0
 40
3.0
 40
3.0
 40
4.0
 40
4.0
 40
4.0
 40
4.0
 10
-21.69221597764986
 20
204.2250881108361
 10
-21.91356336257716
 20
203.9928886751302
 10
-21.92355413948439
 20
203.6909260558481
 10
-21.69135470377855
 20
203.4697509256951
 10
-21.44606390522876
 20
203.2363457065694
 10
-21.09948729941263
 20
203.2372069804407
 10
-20.86590982551269
 20
203.4823255242162
 10
-20.63474391845243
 20
203.7246879916036
 10
-20.64559596923096
 20
204.0611015657382
 10
-20.88813069139255
 20
204.2920952180242
 10
-21.15116373169138
 20
204.5425536598019
 10
-21.45863850374992
 20
204.4702066546116
 10
-21.69221597764986
 20
204.2250881108361
 97
        0
 75
     2
 76
     1
 98
        0
  0
SPLINE
  5
5AD
330
5A6
100
AcDbEntity
  8
TEXT
100
AcDbSpline
210
0.0
220
0.0
230
1.0
 70
    11
 71
     3
 72
    53
 73
    49
 74
     0
 42
0.0000000001
 43
0.0000000001
 40
0.0
 40
0.0
 40
0.0
 40
0.0
 40
1.0
 40
1.0
 40
1.0
 40
2.0
 40
2.0
 40
2.0
 40
3.0
 40
3.0
 40
3.0
 40
4.0
 40
4.0
 40
4.0
 40
5.0
 40
5.0
 40
5.0
 40
6.0
 40
6.0
 40
6.0
 40
7.0
 40
7.0
 40
7.0
 40
8.0
 40
8.0
 40
8.0
 40
9.0
 40
9.0
 40
9.0
 40
10.0
 40
10.0
 40
10.0
 40
11.0
 40
11.0
 40
11.0
 40
12.0
 40
12.0
 40
12.0
 40
13.0
 40
13.0
 40
13.0
 40
14.0
 40
14.0
 40
14.0
 40
15.0
 40
15.0
 40
15.0
 40
16.0
 40
16.0
 40
16.0
 40
16.0
 10
-20.19514973453455
 20
202.3909192744891
 30
0.0
 10
-19.99223361045333
 20
202.1489013166503
 30
0.0
 10
-19.64410671166884
 20
201.9928384911685
 30
0.0
 10
-19.39106444827723
 20
202.258283098307
 30
0.0
 10
-19.19641655336062
 20
202.462405005808
 30
0.0
 10
-19.27100287061628
 20
202.7524820456661
 30
0.0
 10
-19.47770859973127
 20
202.9493692526481
 30
0.0
 10
-19.70250108014382
 20
203.1633096822821
 30
0.0
 10
-19.95227050282443
 20
203.1770900642231
 30
0.0
 10
-20.1696560279437
 20
202.9948445130534
 30
0.0
 10
-20.1696560279437
 20
202.9948445130534
 30
0.0
 10
-20.34845648362817
 20
203.1650322300247
 30
0.0
 10
-20.34845648362817
 20
203.1650322300247
 30
0.0
 10
-20.06389159654653
 20
203.4635497538216
 30
0.0
 10
-19.63067083927636
 20
203.3868963792748
 30
0.0
 10
-19.35489094568211
 20
203.1243801032988
 30
0.0
 10
-19.05602891233669
 20
202.8398152162171
 30
0.0
 10
-18.89600422704683
 20
202.4198580765652
 30
0.0
 10
-19.22208251472573
 20
202.0779323496541
 30
0.0
 10
-19.42637667700104
 20
201.8634751556973
 30
0.0
 10
-19.72609998421778
 20
201.8762220089928
 30
0.0
 10
-19.96157226063461
 20
202.0224663123416
 30
0.0
 10
-19.96157226063461
 20
202.0224663123416
 30
0.0
 10
-19.96639539431396
 20
202.017470923888
 30
0.0
 10
-19.96639539431396
 20
202.017470923888
 30
0.0
 10
-19.78793944817802
 20
201.754954647912
 30
0.0
 10
-19.77777641649653
 20
201.4385226275918
 30
0.0
 10
-20.00394693510318
 20
201.2011555486581
 30
0.0
 10
-20.32020670064912
 20
200.8693928534285
 30
0.0
 10
-20.79941948264737
 20
200.9849758069586
 30
0.0
 10
-21.09569769437885
 20
201.2669568724263
 30
0.0
 10
-21.40713432624544
 20
201.5634073389321
 30
0.0
 10
-21.50704209531769
 20
201.9799193830988
 30
0.0
 10
-21.19629448254815
 20
202.3266682436892
 30
0.0
 10
-21.19629448254815
 20
202.3266682436892
 30
0.0
 10
-21.01749402686368
 20
202.1564805267178
 30
0.0
 10
-21.01749402686368
 20
202.1564805267178
 30
0.0
 10
-21.22419975597867
 20
201.9346163774677
 30
0.0
 10
-21.15650362969351
 20
201.6169785737277
 30
0.0
 10
-20.95238172219246
 20
201.4226751883596
 30
0.0
 10
-20.71725395532416
 20
201.1987439818184
 30
0.0
 10
-20.40426703048921
 20
201.1391438299236
 30
0.0
 10
-20.16328260129599
 20
201.3918415837666
 30
0.0
 10
-19.89335937002666
 20
201.6752006874284
 30
0.0
 10
-20.07164306138834
 20
202.0348686560885
 30
0.0
 10
-20.34845648362817
 20
202.2300333153279
 30
0.0
 10
-20.34845648362817
 20
202.2300333153279
 30
0.0
 10
-20.19514973453455
 20
202.3909192744891
 30
0.0
 10
-20.19514973453455
 20
202.3909192744891
 30
0.0
  0
HATCH
  5
5AE
330
5A6
100
AcDbEntity
  8
TEXT
 62
     7
100
AcDbHatch
 10
0.0
 20
0.0
 30
0.0
210
0.0
220
0.0
230
1.0
  2
SOLID
 70
     1
 71
     0
 91
        1
 92
        1
 93
        1
 72
     4
 94
        3
 73
     0
 74
     1
 95
       53
 96
       49
 40
0.0
 40
0.0
 40
0.0
 40
0.0
 40
1.0
 40
1.0
 40
1.0
 40
2.0
 40
2.0
 40
2.0
 40
3.0
 40
3.0
 40
3.0
 40
4.0
 40
4.0
 40
4.0
 40
5.0
 40
5.0
 40
5.0
 40
6.0
 40
6.0
 40
6.0
 40
7.0
 40
7.0
 40
7.0
 40
8.0
 40
8.0
 40
8.0
 40
9.0
 40
9.0
 40
9.0
 40
10.0
 40
10.0
 40
10.0
 40
11.0
 40
11.0
 40
11.0
 40
12.0
 40
12.0
 40
12.0
 40
13.0
 40
13.0
 40
13.0
 40
14.0
 40
14.0
 40
14.0
 40
15.0
 40
15.0
 40
15.0
 40
16.0
 40
16.0
 40
16.0
 40
16.0
 10
-20.19514973453455
 20
202.3909192744891
 10
-19.99223361045333
 20
202.1489013166503
 10
-19.64410671166884
 20
201.9928384911685
 10
-19.39106444827723
 20
202.258283098307
 10
-19.19641655336062
 20
202.462405005808
 10
-19.27100287061628
 20
202.7524820456661
 10
-19.47770859973127
 20
202.9493692526481
 10
-19.70250108014382
 20
203.1633096822821
 10
-19.95227050282443
 20
203.1770900642231
 10
-20.1696560279437
 20
202.9948445130534
 10
-20.1696560279437
 20
202.9948445130534
 10
-20.34845648362817
 20
203.1650322300247
 10
-20.34845648362817
 20
203.1650322300247
 10
-20.06389159654653
 20
203.4635497538216
 10
-19.63067083927636
 20
203.3868963792748
 10
-19.35489094568211
 20
203.1243801032988
 10
-19.05602891233669
 20
202.8398152162171
 10
-18.89600422704683
 20
202.4198580765652
 10
-19.22208251472573
 20
202.0779323496541
 10
-19.42637667700104
 20
201.8634751556973
 10
-19.72609998421778
 20
201.8762220089928
 10
-19.96157226063461
 20
202.0224663123416
 10
-19.96157226063461
 20
202.0224663123416
 10
-19.96639539431396
 20
202.017470923888
 10
-19.96639539431396
 20
202.017470923888
 10
-19.78793944817802
 20
201.754954647912
 10
-19.77777641649653
 20
201.4385226275918
 10
-20.00394693510318
 20
201.2011555486581
 10
-20.32020670064912
 20
200.8693928534285
 10
-20.79941948264737
 20
200.9849758069586
 10
-21.09569769437885
 20
201.2669568724263
 10
-21.40713432624544
 20
201.5634073389321
 10
-21.50704209531769
 20
201.9799193830988
 10
-21.19629448254815
 20
202.3266682436892
 10
-21.19629448254815
 20
202.3266682436892
 10
-21.01749402686368
 20
202.1564805267178
 10
-21.01749402686368
 20
202.1564805267178
 10
-21.22419975597867
 20
201.9346163774677
 10
-21.15650362969351
 20
201.6169785737277
 10
-20.95238172219246
 20
201.4226751883596
 10
-20.71725395532416
 20
201.1987439818184
 10
-20.40426703048921
 20
201.1391438299236
 10
-20.16328260129599
 20
201.3918415837666
 10
-19.89335937002666
 20
201.6752006874284
 10
-20.07164306138834
 20
202.0348686560885
 10
-20.34845648362817
 20
202.2300333153279
 10
-20.34845648362817
 20
202.2300333153279
 10
-20.19514973453455
 20
202.3909192744891
 10
-20.19514973453455
 20
202.3909192744891
 97
        0
 75
     2
 76
     1
 98
        0
  0
SPLINE
  5
5AF
330
5A6
100
AcDbEntity
  8
TEXT
100
AcDbSpline
210
0.0
220
0.0
230
1.0
 70
    11
 71
     3
 72
    17
 73
    13
 74
     0
 42
0.0000000001
 43
0.0000000001
 40
0.0
 40
0.0
 40
0.0
 40
0.0
 40
1.0
 40
1.0
 40
1.0
 40
2.0
 40
2.0
 40
2.0
 40
3.0
 40
3.0
 40
3.0
 40
4.0
 40
4.0
 40
4.0
 40
4.0
 10
-18.80195312029951
 20
201.1374212821809
 30
0.0
 10
-19.01382649264238
 20
201.3391316228423
 30
0.0
 10
-19.02192246703271
 20
201.6731336301373
 30
0.0
 10
-18.82003987159707
 20
201.8850070024801
 30
0.0
 10
-18.62315266461504
 20
202.0967081200488
 30
0.0
 10
-18.2839830140922
 20
202.1049763492134
 30
0.0
 10
-18.07210964174934
 20
201.9030937537777
 30
0.0
 10
-17.86282009102041
 20
201.703794979956
 30
0.0
 10
-17.85437960708154
 20
201.3649698389817
 30
0.0
 10
-18.05385063567751
 20
201.1555080334785
 30
0.0
 10
-18.25573323111315
 20
200.9438069159099
 30
0.0
 10
-18.59249131479632
 20
200.9381225083592
 30
0.0
 10
-18.80195312029951
 20
201.1374212821809
 30
0.0
  0
SPLINE
  5
5B0
330
5A6
100
AcDbEntity
  8
TEXT
100
AcDbSpline
210
0.0
220
0.0
230
1.0
 70
    11
 71
     3
 72
    17
 73
    13
 74
     0
 42
0.0000000001
 43
0.0000000001
 40
0.0
 40
0.0
 40
0.0
 40
0.0
 40
1.0
 40
1.0
 40
1.0
 40
2.0
 40
2.0
 40
2.0
 40
3.0
 40
3.0
 40
3.0
 40
4.0
 40
4.0
 40
4.0
 40
4.0
 10
-18.69239908386857
 20
201.252315216614
 30
0.0
 10
-18.53926458954921
 20
201.1064154228137
 30
0.0
 10
-18.31722818552486
 20
201.1093437539761
 30
0.0
 10
-18.16874457011059
 20
201.2650620699094
 30
0.0
 10
-18.02284477631026
 20
201.4181965642288
 30
0.0
 10
-18.02835692908666
 20
201.6423000255443
 30
0.0
 10
-18.18424749979422
 20
201.7907836409586
 30
0.0
 10
-18.33755424888783
 20
201.9365111799846
 30
0.0
 10
-18.5618299649776
 20
201.9311712819825
 30
0.0
 10
-18.70497368238973
 20
201.7754529660492
 30
0.0
 10
-18.85328504302974
 20
201.6197346501159
 30
0.0
 10
-18.84828965457612
 20
201.400626577254
 30
0.0
 10
-18.69239908386857
 20
201.252315216614
 30
0.0
  0
HATCH
  5
5B1
330
5A6
100
AcDbEntity
  8
TEXT
 62
     7
100
AcDbHatch
 10
0.0
 20
0.0
 30
0.0
210
0.0
220
0.0
230
1.0
  2
SOLID
 70
     1
 71
     0
 91
        2
 92
        1
 93
        1
 72
     4
 94
        3
 73
     0
 74
     1
 95
       17
 96
       13
 40
0.0
 40
0.0
 40
0.0
 40
0.0
 40
1.0
 40
1.0
 40
1.0
 40
2.0
 40
2.0
 40
2.0
 40
3.0
 40
3.0
 40
3.0
 40
4.0
 40
4.0
 40
4.0
 40
4.0
 10
-18.80195312029951
 20
201.1374212821809
 10
-19.01382649264238
 20
201.3391316228423
 10
-19.02192246703271
 20
201.6731336301373
 10
-18.82003987159707
 20
201.8850070024801
 10
-18.62315266461504
 20
202.0967081200488
 10
-18.2839830140922
 20
202.1049763492134
 10
-18.07210964174934
 20
201.9030937537777
 10
-17.86282009102041
 20
201.703794979956
 10
-17.85437960708154
 20
201.3649698389817
 10
-18.05385063567751
 20
201.1555080334785
 10
-18.25573323111315
 20
200.9438069159099
 10
-18.59249131479632
 20
200.9381225083592
 10
-18.80195312029951
 20
201.1374212821809
 97
        0
 92
        1
 93
        1
 72
     4
 94
        3
 73
     0
 74
     1
 95
       17
 96
       13
 40
0.0
 40
0.0
 40
0.0
 40
0.0
 40
1.0
 40
1.0
 40
1.0
 40
2.0
 40
2.0
 40
2.0
 40
3.0
 40
3.0
 40
3.0
 40
4.0
 40
4.0
 40
4.0
 40
4.0
 10
-18.69239908386857
 20
201.252315216614
 10
-18.53926458954921
 20
201.1064154228137
 10
-18.31722818552486
 20
201.1093437539761
 10
-18.16874457011059
 20
201.2650620699094
 10
-18.02284477631026
 20
201.4181965642288
 10
-18.02835692908666
 20
201.6423000255443
 10
-18.18424749979422
 20
201.7907836409586
 10
-18.33755424888783
 20
201.9365111799846
 10
-18.5618299649776
 20
201.9311712819825
 10
-18.70497368238973
 20
201.7754529660492
 10
-18.85328504302974
 20
201.6197346501159
 10
-18.84828965457612
 20
201.400626577254
 10
-18.69239908386857
 20
201.252315216614
 97
        0
 75
     2
 76
     1
 98
        0
  0
ENDBLK
  5
5A9
330
5A6
100
AcDbEntity
  8
0
100
AcDbBlockEnd
  0
ENDSEC
  0
SECTION
  2
ENTITIES
  0
INSERT
  5
3E
330
1F
100
AcDbEntity
  8
STANDARDEBENE
100
AcDbBlockReference
  2
BLOCK_2
 10
0.0
 20
0.0
 30
0.0
  0
POLYLINE
  5
309
330
1F
100
AcDbEntity
  8
BEMAßUNG
 62
     7
100
AcDb2dPolyline
 66
     1
 10
0.0
 20
0.0
 30
0.0
  0
VERTEX
  5
30A
330
309
100
AcDbEntity
  8
BEMAßUNG
 62
     7
100
AcDbVertex
100
AcDb2dVertex
 10
-14.80409206444134
 20
208.7960408006656
 30
0.0
  0
VERTEX
  5
30B
330
309
100
AcDbEntity
  8
BEMAßUNG
 62
     7
100
AcDbVertex
100
AcDb2dVertex
 10
-14.80409206444134
 20
215.8867363284068
 30
0.0
  0
SEQEND
  5
30C
330
309
100
AcDbEntity
  8
BEMAßUNG
  0
POLYLINE
  5
30D
330
1F
100
AcDbEntity
  8
BEMAßUNG
 62
     7
100
AcDb2dPolyline
 66
     1
 10
0.0
 20
0.0
 30
0.0
  0
VERTEX
  5
30E
330
30D
100
AcDbEntity
  8
BEMAßUNG
 62
     7
100
AcDbVertex
100
AcDb2dVertex
 10
18.19544406012128
 20
193.8581067766223
 30
0.0
  0
VERTEX
  5
30F
330
30D
100
AcDbEntity
  8
BEMAßUNG
 62
     7
100
AcDbVertex
100
AcDb2dVertex
 10
18.19544406012128
 20
215.8867363284068
 30
0.0
  0
SEQEND
  5
310
330
30D
100
AcDbEntity
  8
BEMAßUNG
  0
POLYLINE
  5
311
330
1F
100
AcDbEntity
  8
BEMAßUNG
 62
     7
100
AcDb2dPolyline
 66
     1
 10
0.0
 20
0.0
 30
0.0
  0
VERTEX
  5
312
330
311
100
AcDbEntity
  8
BEMAßUNG
 62
     7
100
AcDbVertex
100
AcDb2dVertex
 10
-14.80409206444134
 20
214.7865450851923
 30
0.0
  0
VERTEX
  5
313
330
311
100
AcDbEntity
  8
BEMAßUNG
 62
     7
100
AcDbVertex
100
AcDb2dVertex
 10
18.19544406012128
 20
214.7865450851923
 30
0.0
  0
SEQEND
  5
314
330
311
100
AcDbEntity
  8
BEMAßUNG
  0
POLYLINE
  5
315
330
1F
100
AcDbEntity
  8
BEMAßUNG
 62
     7
100
AcDb2dPolyline
 66
     1
 10
0.0
 20
0.0
 30
0.0
  0
VERTEX
  5
316
330
315
100
AcDbEntity
  8
BEMAßUNG
 62
     7
100
AcDbVertex
100
AcDb2dVertex
 10
-14.80409206444134
 20
214.7865450851923
 30
0.0
  0
VERTEX
  5
317
330
315
100
AcDbEntity
  8
BEMAßUNG
 62
     7
100
AcDbVertex
100
AcDb2dVertex
 10
-12.87897270728373
 20
214.5333305670264
 30
0.0
  0
VERTEX
  5
318
330
315
100
AcDbEntity
  8
BEMAßUNG
 62
     7
100
AcDbVertex
100
AcDb2dVertex
 10
-12.87897270728373
 20
215.0401041129066
 30
0.0
  0
VERTEX
  5
319
330
315
100
AcDbEntity
  8
BEMAßUNG
 62
     7
100
AcDbVertex
100
AcDb2dVertex
 10
-14.80409206444134
 20
214.7865450851923
 30
0.0
  0
SEQEND
  5
31A
330
315
100
AcDbEntity
  8
BEMAßUNG
  0
POLYLINE
  5
31B
330
1F
100
AcDbEntity
  8
BEMAßUNG
 62
     7
100
AcDb2dPolyline
 66
     1
 10
0.0
 20
0.0
 30
0.0
  0
VERTEX
  5
31C
330
31B
100
AcDbEntity
  8
BEMAßUNG
 62
     7
100
AcDbVertex
100
AcDb2dVertex
 10
-12.87897270728373
 20
214.5352253695433
 30
0.0
  0
VERTEX
  5
31D
330
31B
100
AcDbEntity
  8
BEMAßUNG
 62
     7
100
AcDbVertex
100
AcDb2dVertex
 10
-12.89413112741883
 20
214.5352253695433
 30
0.0
  0
SEQEND
  5
31E
330
31B
100
AcDbEntity
  8
BEMAßUNG
  0
POLYLINE
  5
31F
330
1F
100
AcDbEntity
  8
BEMAßUNG
 62
     7
100
AcDb2dPolyline
 66
     1
 10
0.0
 20
0.0
 30
0.0
  0
VERTEX
  5
320
330
31F
100
AcDbEntity
  8
BEMAßUNG
 62
     7
100
AcDbVertex
100
AcDb2dVertex
 10
-12.87897270728373
 20
214.5352253695433
 30
0.0
  0
VERTEX
  5
321
330
31F
100
AcDbEntity
  8
BEMAßUNG
 62
     7
100
AcDbVertex
100
AcDb2dVertex
 10
-12.89413112741883
 20
214.5352253695433
 30
0.0
  0
SEQEND
  5
322
330
31F
100
AcDbEntity
  8
BEMAßUNG
  0
POLYLINE
  5
323
330
1F
100
AcDbEntity
  8
BEMAßUNG
 62
     7
100
AcDb2dPolyline
 66
     1
 10
0.0
 20
0.0
 30
0.0
  0
VERTEX
  5
324
330
323
100
AcDbEntity
  8
BEMAßUNG
 62
     7
100
AcDbVertex
100
AcDb2dVertex
 10
-12.87897270728373
 20
214.5633028977481
 30
0.0
  0
VERTEX
  5
325
330
323
100
AcDbEntity
  8
BEMAßUNG
 62
     7
100
AcDbVertex
100
AcDb2dVertex
 10
-13.10634900931022
 20
214.5633028977481
 30
0.0
  0
SEQEND
  5
326
330
323
100
AcDbEntity
  8
BEMAßUNG
  0
POLYLINE
  5
327
330
1F
100
AcDbEntity
  8
BEMAßUNG
 62
     7
100
AcDb2dPolyline
 66
     1
 10
0.0
 20
0.0
 30
0.0
  0
VERTEX
  5
328
330
327
100
AcDbEntity
  8
BEMAßUNG
 62
     7
100
AcDbVertex
100
AcDb2dVertex
 10
-12.87897270728373
 20
214.5910359164043
 30
0.0
  0
VERTEX
  5
329
330
327
100
AcDbEntity
  8
BEMAßUNG
 62
     7
100
AcDbVertex
100
AcDb2dVertex
 10
-13.31856689120161
 20
214.5910359164043
 30
0.0
  0
SEQEND
  5
32A
330
327
100
AcDbEntity
  8
BEMAßUNG
  0
POLYLINE
  5
32B
330
1F
100
AcDbEntity
  8
BEMAßUNG
 62
     7
100
AcDb2dPolyline
 66
     1
 10
0.0
 20
0.0
 30
0.0
  0
VERTEX
  5
32C
330
32B
100
AcDbEntity
  8
BEMAßUNG
 62
     7
100
AcDbVertex
100
AcDb2dVertex
 10
-12.87897270728373
 20
214.6189411898349
 30
0.0
  0
VERTEX
  5
32D
330
32B
100
AcDbEntity
  8
BEMAßUNG
 62
     7
100
AcDbVertex
100
AcDb2dVertex
 10
-13.53095702786726
 20
214.6189411898349
 30
0.0
  0
SEQEND
  5
32E
330
32B
100
AcDbEntity
  8
BEMAßUNG
  0
POLYLINE
  5
32F
330
1F
100
AcDbEntity
  8
BEMAßUNG
 62
     7
100
AcDb2dPolyline
 66
     1
 10
0.0
 20
0.0
 30
0.0
  0
VERTEX
  5
330
330
32F
100
AcDbEntity
  8
BEMAßUNG
 62
     7
100
AcDbVertex
100
AcDb2dVertex
 10
-12.87897270728373
 20
214.6471909728139
 30
0.0
  0
VERTEX
  5
331
330
32F
100
AcDbEntity
  8
BEMAßUNG
 62
     7
100
AcDbVertex
100
AcDb2dVertex
 10
-13.74300265498439
 20
214.6471909728139
 30
0.0
  0
SEQEND
  5
332
330
32F
100
AcDbEntity
  8
BEMAßUNG
  0
POLYLINE
  5
333
330
1F
100
AcDbEntity
  8
BEMAßUNG
 62
     7
100
AcDb2dPolyline
 66
     1
 10
0.0
 20
0.0
 30
0.0
  0
VERTEX
  5
334
330
333
100
AcDbEntity
  8
BEMAßUNG
 62
     7
100
AcDbVertex
100
AcDb2dVertex
 10
-12.87897270728373
 20
214.6747517366959
 30
0.0
  0
VERTEX
  5
335
330
333
100
AcDbEntity
  8
BEMAßUNG
 62
     7
100
AcDbVertex
100
AcDb2dVertex
 10
-13.95522053687578
 20
214.6747517366959
 30
0.0
  0
SEQEND
  5
336
330
333
100
AcDbEntity
  8
BEMAßUNG
  0
POLYLINE
  5
337
330
1F
100
AcDbEntity
  8
BEMAßUNG
 62
     7
100
AcDb2dPolyline
 66
     1
 10
0.0
 20
0.0
 30
0.0
  0
VERTEX
  5
338
330
337
100
AcDbEntity
  8
BEMAßUNG
 62
     7
100
AcDbVertex
100
AcDb2dVertex
 10
-12.87897270728373
 20
214.7026570101264
 30
0.0
  0
VERTEX
  5
339
330
337
100
AcDbEntity
  8
BEMAßUNG
 62
     7
100
AcDbVertex
100
AcDb2dVertex
 10
-14.16743841876717
 20
214.7026570101264
 30
0.0
  0
SEQEND
  5
33A
330
337
100
AcDbEntity
  8
BEMAßUNG
  0
POLYLINE
  5
33B
330
1F
100
AcDbEntity
  8
BEMAßUNG
 62
     7
100
AcDb2dPolyline
 66
     1
 10
0.0
 20
0.0
 30
0.0
  0
VERTEX
  5
33C
330
33B
100
AcDbEntity
  8
BEMAßUNG
 62
     7
100
AcDbVertex
100
AcDb2dVertex
 10
-12.87897270728373
 20
214.7309067931055
 30
0.0
  0
VERTEX
  5
33D
330
33B
100
AcDbEntity
  8
BEMAßUNG
 62
     7
100
AcDbVertex
100
AcDb2dVertex
 10
-14.37982855543282
 20
214.7309067931055
 30
0.0
  0
SEQEND
  5
33E
330
33B
100
AcDbEntity
  8
BEMAßUNG
  0
POLYLINE
  5
33F
330
1F
100
AcDbEntity
  8
BEMAßUNG
 62
     7
100
AcDb2dPolyline
 66
     1
 10
0.0
 20
0.0
 30
0.0
  0
VERTEX
  5
340
330
33F
100
AcDbEntity
  8
BEMAßUNG
 62
     7
100
AcDbVertex
100
AcDb2dVertex
 10
-12.87897270728373
 20
214.7584675569875
 30
0.0
  0
VERTEX
  5
341
330
33F
100
AcDbEntity
  8
BEMAßUNG
 62
     7
100
AcDbVertex
100
AcDb2dVertex
 10
-14.59187418254995
 20
214.7584675569875
 30
0.0
  0
SEQEND
  5
342
330
33F
100
AcDbEntity
  8
BEMAßUNG
  0
POLYLINE
  5
343
330
1F
100
AcDbEntity
  8
BEMAßUNG
 62
     7
100
AcDb2dPolyline
 66
     1
 10
0.0
 20
0.0
 30
0.0
  0
VERTEX
  5
344
330
343
100
AcDbEntity
  8
BEMAßUNG
 62
     7
100
AcDbVertex
100
AcDb2dVertex
 10
-12.87897270728373
 20
214.7865450851923
 30
0.0
  0
VERTEX
  5
345
330
343
100
AcDbEntity
  8
BEMAßUNG
 62
     7
100
AcDbVertex
100
AcDb2dVertex
 10
-14.80409206444134
 20
214.7865450851923
 30
0.0
  0
SEQEND
  5
346
330
343
100
AcDbEntity
  8
BEMAßUNG
  0
POLYLINE
  5
347
330
1F
100
AcDbEntity
  8
BEMAßUNG
 62
     7
100
AcDb2dPolyline
 66
     1
 10
0.0
 20
0.0
 30
0.0
  0
VERTEX
  5
348
330
347
100
AcDbEntity
  8
BEMAßUNG
 62
     7
100
AcDbVertex
100
AcDb2dVertex
 10
-12.87897270728373
 20
215.038381565164
 30
0.0
  0
VERTEX
  5
349
330
347
100
AcDbEntity
  8
BEMAßUNG
 62
     7
100
AcDbVertex
100
AcDb2dVertex
 10
-12.89413112741883
 20
215.038381565164
 30
0.0
  0
SEQEND
  5
34A
330
347
100
AcDbEntity
  8
BEMAßUNG
  0
POLYLINE
  5
34B
330
1F
100
AcDbEntity
  8
BEMAßUNG
 62
     7
100
AcDb2dPolyline
 66
     1
 10
0.0
 20
0.0
 30
0.0
  0
VERTEX
  5
34C
330
34B
100
AcDbEntity
  8
BEMAßUNG
 62
     7
100
AcDbVertex
100
AcDb2dVertex
 10
-12.87897270728373
 20
215.038381565164
 30
0.0
  0
VERTEX
  5
34D
330
34B
100
AcDbEntity
  8
BEMAßUNG
 62
     7
100
AcDbVertex
100
AcDb2dVertex
 10
-12.89413112741883
 20
215.038381565164
 30
0.0
  0
SEQEND
  5
34E
330
34B
100
AcDbEntity
  8
BEMAßUNG
  0
POLYLINE
  5
34F
330
1F
100
AcDbEntity
  8
BEMAßUNG
 62
     7
100
AcDb2dPolyline
 66
     1
 10
0.0
 20
0.0
 30
0.0
  0
VERTEX
  5
350
330
34F
100
AcDbEntity
  8
BEMAßUNG
 62
     7
100
AcDbVertex
100
AcDb2dVertex
 10
-12.87897270728373
 20
215.0103040369592
 30
0.0
  0
VERTEX
  5
351
330
34F
100
AcDbEntity
  8
BEMAßUNG
 62
     7
100
AcDbVertex
100
AcDb2dVertex
 10
-13.10634900931022
 20
215.0103040369592
 30
0.0
  0
SEQEND
  5
352
330
34F
100
AcDbEntity
  8
BEMAßUNG
  0
POLYLINE
  5
353
330
1F
100
AcDbEntity
  8
BEMAßUNG
 62
     7
100
AcDb2dPolyline
 66
     1
 10
0.0
 20
0.0
 30
0.0
  0
VERTEX
  5
354
330
353
100
AcDbEntity
  8
BEMAßUNG
 62
     7
100
AcDbVertex
100
AcDb2dVertex
 10
-12.87897270728373
 20
214.9823987635287
 30
0.0
  0
VERTEX
  5
355
330
353
100
AcDbEntity
  8
BEMAßUNG
 62
     7
100
AcDbVertex
100
AcDb2dVertex
 10
-13.31856689120161
 20
214.9823987635287
 30
0.0
  0
SEQEND
  5
356
330
353
100
AcDbEntity
  8
BEMAßUNG
  0
POLYLINE
  5
357
330
1F
100
AcDbEntity
  8
BEMAßUNG
 62
     7
100
AcDb2dPolyline
 66
     1
 10
0.0
 20
0.0
 30
0.0
  0
VERTEX
  5
358
330
357
100
AcDbEntity
  8
BEMAßUNG
 62
     7
100
AcDbVertex
100
AcDb2dVertex
 10
-12.87897270728373
 20
214.9543212353239
 30
0.0
  0
VERTEX
  5
359
330
357
100
AcDbEntity
  8
BEMAßUNG
 62
     7
100
AcDbVertex
100
AcDb2dVertex
 10
-13.53095702786726
 20
214.9543212353239
 30
0.0
  0
SEQEND
  5
35A
330
357
100
AcDbEntity
  8
BEMAßUNG
  0
POLYLINE
  5
35B
330
1F
100
AcDbEntity
  8
BEMAßUNG
 62
     7
100
AcDb2dPolyline
 66
     1
 10
0.0
 20
0.0
 30
0.0
  0
VERTEX
  5
35C
330
35B
100
AcDbEntity
  8
BEMAßUNG
 62
     7
100
AcDbVertex
100
AcDb2dVertex
 10
-12.87897270728373
 20
214.9264159618934
 30
0.0
  0
VERTEX
  5
35D
330
35B
100
AcDbEntity
  8
BEMAßUNG
 62
     7
100
AcDbVertex
100
AcDb2dVertex
 10
-13.74300265498439
 20
214.9264159618934
 30
0.0
  0
SEQEND
  5
35E
330
35B
100
AcDbEntity
  8
BEMAßUNG
  0
POLYLINE
  5
35F
330
1F
100
AcDbEntity
  8
BEMAßUNG
 62
     7
100
AcDb2dPolyline
 66
     1
 10
0.0
 20
0.0
 30
0.0
  0
VERTEX
  5
360
330
35F
100
AcDbEntity
  8
BEMAßUNG
 62
     7
100
AcDbVertex
100
AcDb2dVertex
 10
-12.87897270728373
 20
214.8983384336886
 30
0.0
  0
VERTEX
  5
361
330
35F
100
AcDbEntity
  8
BEMAßUNG
 62
     7
100
AcDbVertex
100
AcDb2dVertex
 10
-13.95522053687578
 20
214.8983384336886
 30
0.0
  0
SEQEND
  5
362
330
35F
100
AcDbEntity
  8
BEMAßUNG
  0
POLYLINE
  5
363
330
1F
100
AcDbEntity
  8
BEMAßUNG
 62
     7
100
AcDb2dPolyline
 66
     1
 10
0.0
 20
0.0
 30
0.0
  0
VERTEX
  5
364
330
363
100
AcDbEntity
  8
BEMAßUNG
 62
     7
100
AcDbVertex
100
AcDb2dVertex
 10
-12.87897270728373
 20
214.8702609054838
 30
0.0
  0
VERTEX
  5
365
330
363
100
AcDbEntity
  8
BEMAßUNG
 62
     7
100
AcDbVertex
100
AcDb2dVertex
 10
-14.16743841876717
 20
214.8702609054838
 30
0.0
  0
SEQEND
  5
366
330
363
100
AcDbEntity
  8
BEMAßUNG
  0
POLYLINE
  5
367
330
1F
100
AcDbEntity
  8
BEMAßUNG
 62
     7
100
AcDb2dPolyline
 66
     1
 10
0.0
 20
0.0
 30
0.0
  0
VERTEX
  5
368
330
367
100
AcDbEntity
  8
BEMAßUNG
 62
     7
100
AcDbVertex
100
AcDb2dVertex
 10
-12.87897270728373
 20
214.8423556320533
 30
0.0
  0
VERTEX
  5
369
330
367
100
AcDbEntity
  8
BEMAßUNG
 62
     7
100
AcDbVertex
100
AcDb2dVertex
 10
-14.37982855543282
 20
214.8423556320533
 30
0.0
  0
SEQEND
  5
36A
330
367
100
AcDbEntity
  8
BEMAßUNG
  0
POLYLINE
  5
36B
330
1F
100
AcDbEntity
  8
BEMAßUNG
 62
     7
100
AcDb2dPolyline
 66
     1
 10
0.0
 20
0.0
 30
0.0
  0
VERTEX
  5
36C
330
36B
100
AcDbEntity
  8
BEMAßUNG
 62
     7
100
AcDbVertex
100
AcDb2dVertex
 10
-12.87897270728373
 20
214.8142781038485
 30
0.0
  0
VERTEX
  5
36D
330
36B
100
AcDbEntity
  8
BEMAßUNG
 62
     7
100
AcDbVertex
100
AcDb2dVertex
 10
-14.59187418254995
 20
214.8142781038485
 30
0.0
  0
SEQEND
  5
36E
330
36B
100
AcDbEntity
  8
BEMAßUNG
  0
POLYLINE
  5
36F
330
1F
100
AcDbEntity
  8
BEMAßUNG
 62
     7
100
AcDb2dPolyline
 66
     1
 10
0.0
 20
0.0
 30
0.0
  0
VERTEX
  5
370
330
36F
100
AcDbEntity
  8
BEMAßUNG
 62
     7
100
AcDbVertex
100
AcDb2dVertex
 10
-12.87897270728373
 20
214.7865450851923
 30
0.0
  0
VERTEX
  5
371
330
36F
100
AcDbEntity
  8
BEMAßUNG
 62
     7
100
AcDbVertex
100
AcDb2dVertex
 10
-14.80409206444134
 20
214.7865450851923
 30
0.0
  0
SEQEND
  5
372
330
36F
100
AcDbEntity
  8
BEMAßUNG
  0
POLYLINE
  5
373
330
1F
100
AcDbEntity
  8
BEMAßUNG
 62
     7
100
AcDb2dPolyline
 66
     1
 10
0.0
 20
0.0
 30
0.0
  0
VERTEX
  5
374
330
373
100
AcDbEntity
  8
BEMAßUNG
 62
     7
100
AcDbVertex
100
AcDb2dVertex
 10
18.19544406012128
 20
214.7865450851923
 30
0.0
  0
VERTEX
  5
375
330
373
100
AcDbEntity
  8
BEMAßUNG
 62
     7
100
AcDbVertex
100
AcDb2dVertex
 10
16.27032470296367
 20
215.0401041129066
 30
0.0
  0
VERTEX
  5
376
330
373
100
AcDbEntity
  8
BEMAßUNG
 62
     7
100
AcDbVertex
100
AcDb2dVertex
 10
16.27032470296367
 20
214.5333305670264
 30
0.0
  0
VERTEX
  5
377
330
373
100
AcDbEntity
  8
BEMAßUNG
 62
     7
100
AcDbVertex
100
AcDb2dVertex
 10
18.19544406012128
 20
214.7865450851923
 30
0.0
  0
SEQEND
  5
378
330
373
100
AcDbEntity
  8
BEMAßUNG
  0
POLYLINE
  5
379
330
1F
100
AcDbEntity
  8
BEMAßUNG
 62
     7
100
AcDb2dPolyline
 66
     1
 10
0.0
 20
0.0
 30
0.0
  0
VERTEX
  5
37A
330
379
100
AcDbEntity
  8
BEMAßUNG
 62
     7
100
AcDbVertex
100
AcDb2dVertex
 10
16.27032470296367
 20
215.038381565164
 30
0.0
  0
VERTEX
  5
37B
330
379
100
AcDbEntity
  8
BEMAßUNG
 62
     7
100
AcDbVertex
100
AcDb2dVertex
 10
16.28513861355025
 20
215.038381565164
 30
0.0
  0
SEQEND
  5
37C
330
379
100
AcDbEntity
  8
BEMAßUNG
  0
POLYLINE
  5
37D
330
1F
100
AcDbEntity
  8
BEMAßUNG
 62
     7
100
AcDb2dPolyline
 66
     1
 10
0.0
 20
0.0
 30
0.0
  0
VERTEX
  5
37E
330
37D
100
AcDbEntity
  8
BEMAßUNG
 62
     7
100
AcDbVertex
100
AcDb2dVertex
 10
16.27032470296367
 20
215.038381565164
 30
0.0
  0
VERTEX
  5
37F
330
37D
100
AcDbEntity
  8
BEMAßUNG
 62
     7
100
AcDbVertex
100
AcDb2dVertex
 10
16.28513861355025
 20
215.038381565164
 30
0.0
  0
SEQEND
  5
380
330
37D
100
AcDbEntity
  8
BEMAßUNG
  0
POLYLINE
  5
381
330
1F
100
AcDbEntity
  8
BEMAßUNG
 62
     7
100
AcDb2dPolyline
 66
     1
 10
0.0
 20
0.0
 30
0.0
  0
VERTEX
  5
382
330
381
100
AcDbEntity
  8
BEMAßUNG
 62
     7
100
AcDbVertex
100
AcDb2dVertex
 10
16.27032470296367
 20
215.0103040369592
 30
0.0
  0
VERTEX
  5
383
330
381
100
AcDbEntity
  8
BEMAßUNG
 62
     7
100
AcDbVertex
100
AcDb2dVertex
 10
16.49735649544163
 20
215.0103040369592
 30
0.0
  0
SEQEND
  5
384
330
381
100
AcDbEntity
  8
BEMAßUNG
  0
POLYLINE
  5
385
330
1F
100
AcDbEntity
  8
BEMAßUNG
 62
     7
100
AcDb2dPolyline
 66
     1
 10
0.0
 20
0.0
 30
0.0
  0
VERTEX
  5
386
330
385
100
AcDbEntity
  8
BEMAßUNG
 62
     7
100
AcDbVertex
100
AcDb2dVertex
 10
16.27032470296367
 20
214.9823987635287
 30
0.0
  0
VERTEX
  5
387
330
385
100
AcDbEntity
  8
BEMAßUNG
 62
     7
100
AcDbVertex
100
AcDb2dVertex
 10
16.70991888688155
 20
214.9823987635287
 30
0.0
  0
SEQEND
  5
388
330
385
100
AcDbEntity
  8
BEMAßUNG
  0
POLYLINE
  5
389
330
1F
100
AcDbEntity
  8
BEMAßUNG
 62
     7
100
AcDb2dPolyline
 66
     1
 10
0.0
 20
0.0
 30
0.0
  0
VERTEX
  5
38A
330
389
100
AcDbEntity
  8
BEMAßUNG
 62
     7
100
AcDbVertex
100
AcDb2dVertex
 10
16.27032470296367
 20
214.9543212353239
 30
0.0
  0
VERTEX
  5
38B
330
389
100
AcDbEntity
  8
BEMAßUNG
 62
     7
100
AcDbVertex
100
AcDb2dVertex
 10
16.92213676877294
 20
214.9543212353239
 30
0.0
  0
SEQEND
  5
38C
330
389
100
AcDbEntity
  8
BEMAßUNG
  0
POLYLINE
  5
38D
330
1F
100
AcDbEntity
  8
BEMAßUNG
 62
     7
100
AcDb2dPolyline
 66
     1
 10
0.0
 20
0.0
 30
0.0
  0
VERTEX
  5
38E
330
38D
100
AcDbEntity
  8
BEMAßUNG
 62
     7
100
AcDbVertex
100
AcDb2dVertex
 10
16.27032470296367
 20
214.9264159618934
 30
0.0
  0
VERTEX
  5
38F
330
38D
100
AcDbEntity
  8
BEMAßUNG
 62
     7
100
AcDbVertex
100
AcDb2dVertex
 10
17.13435465066433
 20
214.9264159618934
 30
0.0
  0
SEQEND
  5
390
330
38D
100
AcDbEntity
  8
BEMAßUNG
  0
POLYLINE
  5
391
330
1F
100
AcDbEntity
  8
BEMAßUNG
 62
     7
100
AcDb2dPolyline
 66
     1
 10
0.0
 20
0.0
 30
0.0
  0
VERTEX
  5
392
330
391
100
AcDbEntity
  8
BEMAßUNG
 62
     7
100
AcDbVertex
100
AcDb2dVertex
 10
16.27032470296367
 20
214.8983384336886
 30
0.0
  0
VERTEX
  5
393
330
391
100
AcDbEntity
  8
BEMAßUNG
 62
     7
100
AcDbVertex
100
AcDb2dVertex
 10
17.34622802300719
 20
214.8983384336886
 30
0.0
  0
SEQEND
  5
394
330
391
100
AcDbEntity
  8
BEMAßUNG
  0
POLYLINE
  5
395
330
1F
100
AcDbEntity
  8
BEMAßUNG
 62
     7
100
AcDb2dPolyline
 66
     1
 10
0.0
 20
0.0
 30
0.0
  0
VERTEX
  5
396
330
395
100
AcDbEntity
  8
BEMAßUNG
 62
     7
100
AcDbVertex
100
AcDb2dVertex
 10
16.27032470296367
 20
214.8702609054838
 30
0.0
  0
VERTEX
  5
397
330
395
100
AcDbEntity
  8
BEMAßUNG
 62
     7
100
AcDbVertex
100
AcDb2dVertex
 10
17.55879041444711
 20
214.8702609054838
 30
0.0
  0
SEQEND
  5
398
330
395
100
AcDbEntity
  8
BEMAßUNG
  0
POLYLINE
  5
399
330
1F
100
AcDbEntity
  8
BEMAßUNG
 62
     7
100
AcDb2dPolyline
 66
     1
 10
0.0
 20
0.0
 30
0.0
  0
VERTEX
  5
39A
330
399
100
AcDbEntity
  8
BEMAßUNG
 62
     7
100
AcDbVertex
100
AcDb2dVertex
 10
16.27032470296367
 20
214.8423556320533
 30
0.0
  0
VERTEX
  5
39B
330
399
100
AcDbEntity
  8
BEMAßUNG
 62
     7
100
AcDbVertex
100
AcDb2dVertex
 10
17.7710082963385
 20
214.8423556320533
 30
0.0
  0
SEQEND
  5
39C
330
399
100
AcDbEntity
  8
BEMAßUNG
  0
POLYLINE
  5
39D
330
1F
100
AcDbEntity
  8
BEMAßUNG
 62
     7
100
AcDb2dPolyline
 66
     1
 10
0.0
 20
0.0
 30
0.0
  0
VERTEX
  5
39E
330
39D
100
AcDbEntity
  8
BEMAßUNG
 62
     7
100
AcDbVertex
100
AcDb2dVertex
 10
16.27032470296367
 20
214.8142781038485
 30
0.0
  0
VERTEX
  5
39F
330
39D
100
AcDbEntity
  8
BEMAßUNG
 62
     7
100
AcDbVertex
100
AcDb2dVertex
 10
17.98322617822989
 20
214.8142781038485
 30
0.0
  0
SEQEND
  5
3A0
330
39D
100
AcDbEntity
  8
BEMAßUNG
  0
POLYLINE
  5
3A1
330
1F
100
AcDbEntity
  8
BEMAßUNG
 62
     7
100
AcDb2dPolyline
 66
     1
 10
0.0
 20
0.0
 30
0.0
  0
VERTEX
  5
3A2
330
3A1
100
AcDbEntity
  8
BEMAßUNG
 62
     7
100
AcDbVertex
100
AcDb2dVertex
 10
16.27032470296367
 20
214.7865450851923
 30
0.0
  0
VERTEX
  5
3A3
330
3A1
100
AcDbEntity
  8
BEMAßUNG
 62
     7
100
AcDbVertex
100
AcDb2dVertex
 10
18.19544406012128
 20
214.7865450851923
 30
0.0
  0
SEQEND
  5
3A4
330
3A1
100
AcDbEntity
  8
BEMAßUNG
  0
POLYLINE
  5
3A5
330
1F
100
AcDbEntity
  8
BEMAßUNG
 62
     7
100
AcDb2dPolyline
 66
     1
 10
0.0
 20
0.0
 30
0.0
  0
VERTEX
  5
3A6
330
3A5
100
AcDbEntity
  8
BEMAßUNG
 62
     7
100
AcDbVertex
100
AcDb2dVertex
 10
16.27032470296367
 20
214.5352253695433
 30
0.0
  0
VERTEX
  5
3A7
330
3A5
100
AcDbEntity
  8
BEMAßUNG
 62
     7
100
AcDbVertex
100
AcDb2dVertex
 10
16.28513861355025
 20
214.5352253695433
 30
0.0
  0
SEQEND
  5
3A8
330
3A5
100
AcDbEntity
  8
BEMAßUNG
  0
POLYLINE
  5
3A9
330
1F
100
AcDbEntity
  8
BEMAßUNG
 62
     7
100
AcDb2dPolyline
 66
     1
 10
0.0
 20
0.0
 30
0.0
  0
VERTEX
  5
3AA
330
3A9
100
AcDbEntity
  8
BEMAßUNG
 62
     7
100
AcDbVertex
100
AcDb2dVertex
 10
16.27032470296367
 20
214.5352253695433
 30
0.0
  0
VERTEX
  5
3AB
330
3A9
100
AcDbEntity
  8
BEMAßUNG
 62
     7
100
AcDbVertex
100
AcDb2dVertex
 10
16.28513861355025
 20
214.5352253695433
 30
0.0
  0
SEQEND
  5
3AC
330
3A9
100
AcDbEntity
  8
BEMAßUNG
  0
POLYLINE
  5
3AD
330
1F
100
AcDbEntity
  8
BEMAßUNG
 62
     7
100
AcDb2dPolyline
 66
     1
 10
0.0
 20
0.0
 30
0.0
  0
VERTEX
  5
3AE
330
3AD
100
AcDbEntity
  8
BEMAßUNG
 62
     7
100
AcDbVertex
100
AcDb2dVertex
 10
16.27032470296367
 20
214.5633028977481
 30
0.0
  0
VERTEX
  5
3AF
330
3AD
100
AcDbEntity
  8
BEMAßUNG
 62
     7
100
AcDbVertex
100
AcDb2dVertex
 10
16.49735649544163
 20
214.5633028977481
 30
0.0
  0
SEQEND
  5
3B0
330
3AD
100
AcDbEntity
  8
BEMAßUNG
  0
POLYLINE
  5
3B1
330
1F
100
AcDbEntity
  8
BEMAßUNG
 62
     7
100
AcDb2dPolyline
 66
     1
 10
0.0
 20
0.0
 30
0.0
  0
VERTEX
  5
3B2
330
3B1
100
AcDbEntity
  8
BEMAßUNG
 62
     7
100
AcDbVertex
100
AcDb2dVertex
 10
16.27032470296367
 20
214.5910359164043
 30
0.0
  0
VERTEX
  5
3B3
330
3B1
100
AcDbEntity
  8
BEMAßUNG
 62
     7
100
AcDbVertex
100
AcDb2dVertex
 10
16.70991888688155
 20
214.5910359164043
 30
0.0
  0
SEQEND
  5
3B4
330
3B1
100
AcDbEntity
  8
BEMAßUNG
  0
POLYLINE
  5
3B5
330
1F
100
AcDbEntity
  8
BEMAßUNG
 62
     7
100
AcDb2dPolyline
 66
     1
 10
0.0
 20
0.0
 30
0.0
  0
VERTEX
  5
3B6
330
3B5
100
AcDbEntity
  8
BEMAßUNG
 62
     7
100
AcDbVertex
100
AcDb2dVertex
 10
16.27032470296367
 20
214.6189411898349
 30
0.0
  0
VERTEX
  5
3B7
330
3B5
100
AcDbEntity
  8
BEMAßUNG
 62
     7
100
AcDbVertex
100
AcDb2dVertex
 10
16.92213676877294
 20
214.6189411898349
 30
0.0
  0
SEQEND
  5
3B8
330
3B5
100
AcDbEntity
  8
BEMAßUNG
  0
POLYLINE
  5
3B9
330
1F
100
AcDbEntity
  8
BEMAßUNG
 62
     7
100
AcDb2dPolyline
 66
     1
 10
0.0
 20
0.0
 30
0.0
  0
VERTEX
  5
3BA
330
3B9
100
AcDbEntity
  8
BEMAßUNG
 62
     7
100
AcDbVertex
100
AcDb2dVertex
 10
16.27032470296367
 20
214.6471909728139
 30
0.0
  0
VERTEX
  5
3BB
330
3B9
100
AcDbEntity
  8
BEMAßUNG
 62
     7
100
AcDbVertex
100
AcDb2dVertex
 10
17.13435465066433
 20
214.6471909728139
 30
0.0
  0
SEQEND
  5
3BC
330
3B9
100
AcDbEntity
  8
BEMAßUNG
  0
POLYLINE
  5
3BD
330
1F
100
AcDbEntity
  8
BEMAßUNG
 62
     7
100
AcDb2dPolyline
 66
     1
 10
0.0
 20
0.0
 30
0.0
  0
VERTEX
  5
3BE
330
3BD
100
AcDbEntity
  8
BEMAßUNG
 62
     7
100
AcDbVertex
100
AcDb2dVertex
 10
16.27032470296367
 20
214.6747517366959
 30
0.0
  0
VERTEX
  5
3BF
330
3BD
100
AcDbEntity
  8
BEMAßUNG
 62
     7
100
AcDbVertex
100
AcDb2dVertex
 10
17.34622802300719
 20
214.6747517366959
 30
0.0
  0
SEQEND
  5
3C0
330
3BD
100
AcDbEntity
  8
BEMAßUNG
  0
POLYLINE
  5
3C1
330
1F
100
AcDbEntity
  8
BEMAßUNG
 62
     7
100
AcDb2dPolyline
 66
     1
 10
0.0
 20
0.0
 30
0.0
  0
VERTEX
  5
3C2
330
3C1
100
AcDbEntity
  8
BEMAßUNG
 62
     7
100
AcDbVertex
100
AcDb2dVertex
 10
16.27032470296367
 20
214.7026570101264
 30
0.0
  0
VERTEX
  5
3C3
330
3C1
100
AcDbEntity
  8
BEMAßUNG
 62
     7
100
AcDbVertex
100
AcDb2dVertex
 10
17.55879041444711
 20
214.7026570101264
 30
0.0
  0
SEQEND
  5
3C4
330
3C1
100
AcDbEntity
  8
BEMAßUNG
  0
POLYLINE
  5
3C5
330
1F
100
AcDbEntity
  8
BEMAßUNG
 62
     7
100
AcDb2dPolyline
 66
     1
 10
0.0
 20
0.0
 30
0.0
  0
VERTEX
  5
3C6
330
3C5
100
AcDbEntity
  8
BEMAßUNG
 62
     7
100
AcDbVertex
100
AcDb2dVertex
 10
16.27032470296367
 20
214.7309067931055
 30
0.0
  0
VERTEX
  5
3C7
330
3C5
100
AcDbEntity
  8
BEMAßUNG
 62
     7
100
AcDbVertex
100
AcDb2dVertex
 10
17.7710082963385
 20
214.7309067931055
 30
0.0
  0
SEQEND
  5
3C8
330
3C5
100
AcDbEntity
  8
BEMAßUNG
  0
POLYLINE
  5
3C9
330
1F
100
AcDbEntity
  8
BEMAßUNG
 62
     7
100
AcDb2dPolyline
 66
     1
 10
0.0
 20
0.0
 30
0.0
  0
VERTEX
  5
3CA
330
3C9
100
AcDbEntity
  8
BEMAßUNG
 62
     7
100
AcDbVertex
100
AcDb2dVertex
 10
16.27032470296367
 20
214.7584675569875
 30
0.0
  0
VERTEX
  5
3CB
330
3C9
100
AcDbEntity
  8
BEMAßUNG
 62
     7
100
AcDbVertex
100
AcDb2dVertex
 10
17.98322617822989
 20
214.7584675569875
 30
0.0
  0
SEQEND
  5
3CC
330
3C9
100
AcDbEntity
  8
BEMAßUNG
  0
POLYLINE
  5
3CD
330
1F
100
AcDbEntity
  8
BEMAßUNG
 62
     7
100
AcDb2dPolyline
 66
     1
 10
0.0
 20
0.0
 30
0.0
  0
VERTEX
  5
3CE
330
3CD
100
AcDbEntity
  8
BEMAßUNG
 62
     7
100
AcDbVertex
100
AcDb2dVertex
 10
16.27032470296367
 20
214.7865450851923
 30
0.0
  0
VERTEX
  5
3CF
330
3CD
100
AcDbEntity
  8
BEMAßUNG
 62
     7
100
AcDbVertex
100
AcDb2dVertex
 10
18.19544406012128
 20
214.7865450851923
 30
0.0
  0
SEQEND
  5
3D0
330
3CD
100
AcDbEntity
  8
BEMAßUNG
  0
POLYLINE
  5
3D1
330
1F
100
AcDbEntity
  8
BEMAßUNG
 62
     7
100
AcDb2dPolyline
 66
     1
 10
0.0
 20
0.0
 30
0.0
  0
VERTEX
  5
3D2
330
3D1
100
AcDbEntity
  8
BEMAßUNG
 62
     7
100
AcDbVertex
100
AcDb2dVertex
 10
-14.58946261571027
 20
209.1975666794715
 30
0.0
  0
VERTEX
  5
3D3
330
3D1
100
AcDbEntity
  8
BEMAßUNG
 62
     7
100
AcDbVertex
100
AcDb2dVertex
 10
-32.40990803226211
 20
209.1975666794715
 30
0.0
  0
SEQEND
  5
3D4
330
3D1
100
AcDbEntity
  8
BEMAßUNG
  0
POLYLINE
  5
3D5
330
1F
100
AcDbEntity
  8
BEMAßUNG
 62
     7
100
AcDb2dPolyline
 66
     1
 10
0.0
 20
0.0
 30
0.0
  0
VERTEX
  5
3D6
330
3D5
100
AcDbEntity
  8
BEMAßUNG
 62
     7
100
AcDbVertex
100
AcDb2dVertex
 10
-9.304513886562761
 20
189.1552069297077
 30
0.0
  0
VERTEX
  5
3D7
330
3D5
100
AcDbEntity
  8
BEMAßUNG
 62
     7
100
AcDbVertex
100
AcDb2dVertex
 10
-32.40990803226211
 20
189.1552069297077
 30
0.0
  0
SEQEND
  5
3D8
330
3D5
100
AcDbEntity
  8
BEMAßUNG
  0
POLYLINE
  5
3D9
330
1F
100
AcDbEntity
  8
BEMAßUNG
 62
     7
100
AcDb2dPolyline
 66
     1
 10
0.0
 20
0.0
 30
0.0
  0
VERTEX
  5
3DA
330
3D9
100
AcDbEntity
  8
BEMAßUNG
 62
     7
100
AcDbVertex
100
AcDb2dVertex
 10
-31.31023355337036
 20
209.1975666794715
 30
0.0
  0
VERTEX
  5
3DB
330
3D9
100
AcDbEntity
  8
BEMAßUNG
 62
     7
100
AcDbVertex
100
AcDb2dVertex
 10
-31.31023355337036
 20
189.1552069297077
 30
0.0
  0
SEQEND
  5
3DC
330
3D9
100
AcDbEntity
  8
BEMAßUNG
  0
POLYLINE
  5
3DD
330
1F
100
AcDbEntity
  8
BEMAßUNG
 62
     7
100
AcDb2dPolyline
 66
     1
 10
0.0
 20
0.0
 30
0.0
  0
VERTEX
  5
3DE
330
3DD
100
AcDbEntity
  8
BEMAßUNG
 62
     7
100
AcDbVertex
100
AcDb2dVertex
 10
-31.31023355337036
 20
209.1975666794715
 30
0.0
  0
VERTEX
  5
3DF
330
3DD
100
AcDbEntity
  8
BEMAßUNG
 62
     7
100
AcDbVertex
100
AcDb2dVertex
 10
-31.56344807153622
 20
207.2722750675396
 30
0.0
  0
VERTEX
  5
3E0
330
3DD
100
AcDbEntity
  8
BEMAßUNG
 62
     7
100
AcDbVertex
100
AcDb2dVertex
 10
-31.05667452565597
 20
207.2722750675396
 30
0.0
  0
VERTEX
  5
3E1
330
3DD
100
AcDbEntity
  8
BEMAßUNG
 62
     7
100
AcDbVertex
100
AcDb2dVertex
 10
-31.31023355337036
 20
209.1975666794715
 30
0.0
  0
SEQEND
  5
3E2
330
3DD
100
AcDbEntity
  8
BEMAßUNG
  0
POLYLINE
  5
3E3
330
1F
100
AcDbEntity
  8
BEMAßUNG
 62
     7
100
AcDb2dPolyline
 66
     1
 10
0.0
 20
0.0
 30
0.0
  0
VERTEX
  5
3E4
330
3E3
100
AcDbEntity
  8
BEMAßUNG
 62
     7
100
AcDbVertex
100
AcDb2dVertex
 10
-31.5617255237936
 20
207.2722750675396
 30
0.0
  0
VERTEX
  5
3E5
330
3E3
100
AcDbEntity
  8
BEMAßUNG
 62
     7
100
AcDbVertex
100
AcDb2dVertex
 10
-31.5617255237936
 20
207.2874334876747
 30
0.0
  0
SEQEND
  5
3E6
330
3E3
100
AcDbEntity
  8
BEMAßUNG
  0
POLYLINE
  5
3E7
330
1F
100
AcDbEntity
  8
BEMAßUNG
 62
     7
100
AcDb2dPolyline
 66
     1
 10
0.0
 20
0.0
 30
0.0
  0
VERTEX
  5
3E8
330
3E7
100
AcDbEntity
  8
BEMAßUNG
 62
     7
100
AcDbVertex
100
AcDb2dVertex
 10
-31.5617255237936
 20
207.2722750675396
 30
0.0
  0
VERTEX
  5
3E9
330
3E7
100
AcDbEntity
  8
BEMAßUNG
 62
     7
100
AcDbVertex
100
AcDb2dVertex
 10
-31.5617255237936
 20
207.2874334876747
 30
0.0
  0
SEQEND
  5
3EA
330
3E7
100
AcDbEntity
  8
BEMAßUNG
  0
POLYLINE
  5
3EB
330
1F
100
AcDbEntity
  8
BEMAßUNG
 62
     7
100
AcDb2dPolyline
 66
     1
 10
0.0
 20
0.0
 30
0.0
  0
VERTEX
  5
3EC
330
3EB
100
AcDbEntity
  8
BEMAßUNG
 62
     7
100
AcDbVertex
100
AcDb2dVertex
 10
-31.53382025036307
 20
207.2722750675396
 30
0.0
  0
VERTEX
  5
3ED
330
3EB
100
AcDbEntity
  8
BEMAßUNG
 62
     7
100
AcDbVertex
100
AcDb2dVertex
 10
-31.53382025036307
 20
207.4993068600176
 30
0.0
  0
SEQEND
  5
3EE
330
3EB
100
AcDbEntity
  8
BEMAßUNG
  0
POLYLINE
  5
3EF
330
1F
100
AcDbEntity
  8
BEMAßUNG
 62
     7
100
AcDb2dPolyline
 66
     1
 10
0.0
 20
0.0
 30
0.0
  0
VERTEX
  5
3F0
330
3EF
100
AcDbEntity
  8
BEMAßUNG
 62
     7
100
AcDbVertex
100
AcDb2dVertex
 10
-31.50557046738403
 20
207.2722750675396
 30
0.0
  0
VERTEX
  5
3F1
330
3EF
100
AcDbEntity
  8
BEMAßUNG
 62
     7
100
AcDbVertex
100
AcDb2dVertex
 10
-31.50557046738403
 20
207.7118692514575
 30
0.0
  0
SEQEND
  5
3F2
330
3EF
100
AcDbEntity
  8
BEMAßUNG
  0
POLYLINE
  5
3F3
330
1F
100
AcDbEntity
  8
BEMAßUNG
 62
     7
100
AcDb2dPolyline
 66
     1
 10
0.0
 20
0.0
 30
0.0
  0
VERTEX
  5
3F4
330
3F3
100
AcDbEntity
  8
BEMAßUNG
 62
     7
100
AcDbVertex
100
AcDb2dVertex
 10
-31.4776651939535
 20
207.2722750675396
 30
0.0
  0
VERTEX
  5
3F5
330
3F3
100
AcDbEntity
  8
BEMAßUNG
 62
     7
100
AcDbVertex
100
AcDb2dVertex
 10
-31.4776651939535
 20
207.9239148785746
 30
0.0
  0
SEQEND
  5
3F6
330
3F3
100
AcDbEntity
  8
BEMAßUNG
  0
POLYLINE
  5
3F7
330
1F
100
AcDbEntity
  8
BEMAßUNG
 62
     7
100
AcDb2dPolyline
 66
     1
 10
0.0
 20
0.0
 30
0.0
  0
VERTEX
  5
3F8
330
3F7
100
AcDbEntity
  8
BEMAßUNG
 62
     7
100
AcDbVertex
100
AcDb2dVertex
 10
-31.44993217529724
 20
207.2722750675396
 30
0.0
  0
VERTEX
  5
3F9
330
3F7
100
AcDbEntity
  8
BEMAßUNG
 62
     7
100
AcDbVertex
100
AcDb2dVertex
 10
-31.44993217529724
 20
208.1363050152402
 30
0.0
  0
SEQEND
  5
3FA
330
3F7
100
AcDbEntity
  8
BEMAßUNG
  0
POLYLINE
  5
3FB
330
1F
100
AcDbEntity
  8
BEMAßUNG
 62
     7
100
AcDb2dPolyline
 66
     1
 10
0.0
 20
0.0
 30
0.0
  0
VERTEX
  5
3FC
330
3FB
100
AcDbEntity
  8
BEMAßUNG
 62
     7
100
AcDbVertex
100
AcDb2dVertex
 10
-31.42202690186672
 20
207.2722750675396
 30
0.0
  0
VERTEX
  5
3FD
330
3FB
100
AcDbEntity
  8
BEMAßUNG
 62
     7
100
AcDbVertex
100
AcDb2dVertex
 10
-31.42202690186672
 20
208.3481783875831
 30
0.0
  0
SEQEND
  5
3FE
330
3FB
100
AcDbEntity
  8
BEMAßUNG
  0
POLYLINE
  5
3FF
330
1F
100
AcDbEntity
  8
BEMAßUNG
 62
     7
100
AcDb2dPolyline
 66
     1
 10
0.0
 20
0.0
 30
0.0
  0
VERTEX
  5
400
330
3FF
100
AcDbEntity
  8
BEMAßUNG
 62
     7
100
AcDbVertex
100
AcDb2dVertex
 10
-31.39412162843619
 20
207.2722750675396
 30
0.0
  0
VERTEX
  5
401
330
3FF
100
AcDbEntity
  8
BEMAßUNG
 62
     7
100
AcDbVertex
100
AcDb2dVertex
 10
-31.39412162843619
 20
208.560740779023
 30
0.0
  0
SEQEND
  5
402
330
3FF
100
AcDbEntity
  8
BEMAßUNG
  0
POLYLINE
  5
403
330
1F
100
AcDbEntity
  8
BEMAßUNG
 62
     7
100
AcDb2dPolyline
 66
     1
 10
0.0
 20
0.0
 30
0.0
  0
VERTEX
  5
404
330
403
100
AcDbEntity
  8
BEMAßUNG
 62
     7
100
AcDbVertex
100
AcDb2dVertex
 10
-31.36604410023141
 20
207.2722750675396
 30
0.0
  0
VERTEX
  5
405
330
403
100
AcDbEntity
  8
BEMAßUNG
 62
     7
100
AcDbVertex
100
AcDb2dVertex
 10
-31.36604410023141
 20
208.7727864061401
 30
0.0
  0
SEQEND
  5
406
330
403
100
AcDbEntity
  8
BEMAßUNG
  0
POLYLINE
  5
407
330
1F
100
AcDbEntity
  8
BEMAßUNG
 62
     7
100
AcDb2dPolyline
 66
     1
 10
0.0
 20
0.0
 30
0.0
  0
VERTEX
  5
408
330
407
100
AcDbEntity
  8
BEMAßUNG
 62
     7
100
AcDbVertex
100
AcDb2dVertex
 10
-31.33796657202662
 20
207.2722750675396
 30
0.0
  0
VERTEX
  5
409
330
407
100
AcDbEntity
  8
BEMAßUNG
 62
     7
100
AcDbVertex
100
AcDb2dVertex
 10
-31.33796657202662
 20
208.9851765428058
 30
0.0
  0
SEQEND
  5
40A
330
407
100
AcDbEntity
  8
BEMAßUNG
  0
POLYLINE
  5
40B
330
1F
100
AcDbEntity
  8
BEMAßUNG
 62
     7
100
AcDb2dPolyline
 66
     1
 10
0.0
 20
0.0
 30
0.0
  0
VERTEX
  5
40C
330
40B
100
AcDbEntity
  8
BEMAßUNG
 62
     7
100
AcDbVertex
100
AcDb2dVertex
 10
-31.31023355337036
 20
207.2722750675396
 30
0.0
  0
VERTEX
  5
40D
330
40B
100
AcDbEntity
  8
BEMAßUNG
 62
     7
100
AcDbVertex
100
AcDb2dVertex
 10
-31.31023355337036
 20
209.1975666794715
 30
0.0
  0
SEQEND
  5
40E
330
40B
100
AcDbEntity
  8
BEMAßUNG
  0
POLYLINE
  5
40F
330
1F
100
AcDbEntity
  8
BEMAßUNG
 62
     7
100
AcDb2dPolyline
 66
     1
 10
0.0
 20
0.0
 30
0.0
  0
VERTEX
  5
410
330
40F
100
AcDbEntity
  8
BEMAßUNG
 62
     7
100
AcDbVertex
100
AcDb2dVertex
 10
-31.05856932817286
 20
207.2722750675396
 30
0.0
  0
VERTEX
  5
411
330
40F
100
AcDbEntity
  8
BEMAßUNG
 62
     7
100
AcDbVertex
100
AcDb2dVertex
 10
-31.05856932817286
 20
207.2874334876747
 30
0.0
  0
SEQEND
  5
412
330
40F
100
AcDbEntity
  8
BEMAßUNG
  0
POLYLINE
  5
413
330
1F
100
AcDbEntity
  8
BEMAßUNG
 62
     7
100
AcDb2dPolyline
 66
     1
 10
0.0
 20
0.0
 30
0.0
  0
VERTEX
  5
414
330
413
100
AcDbEntity
  8
BEMAßUNG
 62
     7
100
AcDbVertex
100
AcDb2dVertex
 10
-31.05856932817286
 20
207.2722750675396
 30
0.0
  0
VERTEX
  5
415
330
413
100
AcDbEntity
  8
BEMAßUNG
 62
     7
100
AcDbVertex
100
AcDb2dVertex
 10
-31.05856932817286
 20
207.2874334876747
 30
0.0
  0
SEQEND
  5
416
330
413
100
AcDbEntity
  8
BEMAßUNG
  0
POLYLINE
  5
417
330
1F
100
AcDbEntity
  8
BEMAßUNG
 62
     7
100
AcDb2dPolyline
 66
     1
 10
0.0
 20
0.0
 30
0.0
  0
VERTEX
  5
418
330
417
100
AcDbEntity
  8
BEMAßUNG
 62
     7
100
AcDbVertex
100
AcDb2dVertex
 10
-31.08664685637764
 20
207.2722750675396
 30
0.0
  0
VERTEX
  5
419
330
417
100
AcDbEntity
  8
BEMAßUNG
 62
     7
100
AcDbVertex
100
AcDb2dVertex
 10
-31.08664685637764
 20
207.4993068600176
 30
0.0
  0
SEQEND
  5
41A
330
417
100
AcDbEntity
  8
BEMAßUNG
  0
POLYLINE
  5
41B
330
1F
100
AcDbEntity
  8
BEMAßUNG
 62
     7
100
AcDb2dPolyline
 66
     1
 10
0.0
 20
0.0
 30
0.0
  0
VERTEX
  5
41C
330
41B
100
AcDbEntity
  8
BEMAßUNG
 62
     7
100
AcDbVertex
100
AcDb2dVertex
 10
-31.11472438458243
 20
207.2722750675396
 30
0.0
  0
VERTEX
  5
41D
330
41B
100
AcDbEntity
  8
BEMAßUNG
 62
     7
100
AcDbVertex
100
AcDb2dVertex
 10
-31.11472438458243
 20
207.7118692514575
 30
0.0
  0
SEQEND
  5
41E
330
41B
100
AcDbEntity
  8
BEMAßUNG
  0
POLYLINE
  5
41F
330
1F
100
AcDbEntity
  8
BEMAßUNG
 62
     7
100
AcDb2dPolyline
 66
     1
 10
0.0
 20
0.0
 30
0.0
  0
VERTEX
  5
420
330
41F
100
AcDbEntity
  8
BEMAßUNG
 62
     7
100
AcDbVertex
100
AcDb2dVertex
 10
-31.14262965801295
 20
207.2722750675396
 30
0.0
  0
VERTEX
  5
421
330
41F
100
AcDbEntity
  8
BEMAßUNG
 62
     7
100
AcDbVertex
100
AcDb2dVertex
 10
-31.14262965801295
 20
207.9239148785746
 30
0.0
  0
SEQEND
  5
422
330
41F
100
AcDbEntity
  8
BEMAßUNG
  0
POLYLINE
  5
423
330
1F
100
AcDbEntity
  8
BEMAßUNG
 62
     7
100
AcDb2dPolyline
 66
     1
 10
0.0
 20
0.0
 30
0.0
  0
VERTEX
  5
424
330
423
100
AcDbEntity
  8
BEMAßUNG
 62
     7
100
AcDbVertex
100
AcDb2dVertex
 10
-31.17036267666922
 20
207.2722750675396
 30
0.0
  0
VERTEX
  5
425
330
423
100
AcDbEntity
  8
BEMAßUNG
 62
     7
100
AcDbVertex
100
AcDb2dVertex
 10
-31.17036267666922
 20
208.1363050152402
 30
0.0
  0
SEQEND
  5
426
330
423
100
AcDbEntity
  8
BEMAßUNG
  0
POLYLINE
  5
427
330
1F
100
AcDbEntity
  8
BEMAßUNG
 62
     7
100
AcDb2dPolyline
 66
     1
 10
0.0
 20
0.0
 30
0.0
  0
VERTEX
  5
428
330
427
100
AcDbEntity
  8
BEMAßUNG
 62
     7
100
AcDbVertex
100
AcDb2dVertex
 10
-31.19826795009974
 20
207.2722750675396
 30
0.0
  0
VERTEX
  5
429
330
427
100
AcDbEntity
  8
BEMAßUNG
 62
     7
100
AcDbVertex
100
AcDb2dVertex
 10
-31.19826795009974
 20
208.3481783875831
 30
0.0
  0
SEQEND
  5
42A
330
427
100
AcDbEntity
  8
BEMAßUNG
  0
POLYLINE
  5
42B
330
1F
100
AcDbEntity
  8
BEMAßUNG
 62
     7
100
AcDb2dPolyline
 66
     1
 10
0.0
 20
0.0
 30
0.0
  0
VERTEX
  5
42C
330
42B
100
AcDbEntity
  8
BEMAßUNG
 62
     7
100
AcDbVertex
100
AcDb2dVertex
 10
-31.22617322353026
 20
207.2722750675396
 30
0.0
  0
VERTEX
  5
42D
330
42B
100
AcDbEntity
  8
BEMAßUNG
 62
     7
100
AcDbVertex
100
AcDb2dVertex
 10
-31.22617322353026
 20
208.560740779023
 30
0.0
  0
SEQEND
  5
42E
330
42B
100
AcDbEntity
  8
BEMAßUNG
  0
POLYLINE
  5
42F
330
1F
100
AcDbEntity
  8
BEMAßUNG
 62
     7
100
AcDb2dPolyline
 66
     1
 10
0.0
 20
0.0
 30
0.0
  0
VERTEX
  5
430
330
42F
100
AcDbEntity
  8
BEMAßUNG
 62
     7
100
AcDbVertex
100
AcDb2dVertex
 10
-31.25442300650931
 20
207.2722750675396
 30
0.0
  0
VERTEX
  5
431
330
42F
100
AcDbEntity
  8
BEMAßUNG
 62
     7
100
AcDbVertex
100
AcDb2dVertex
 10
-31.25442300650931
 20
208.7727864061401
 30
0.0
  0
SEQEND
  5
432
330
42F
100
AcDbEntity
  8
BEMAßUNG
  0
POLYLINE
  5
433
330
1F
100
AcDbEntity
  8
BEMAßUNG
 62
     7
100
AcDb2dPolyline
 66
     1
 10
0.0
 20
0.0
 30
0.0
  0
VERTEX
  5
434
330
433
100
AcDbEntity
  8
BEMAßUNG
 62
     7
100
AcDbVertex
100
AcDb2dVertex
 10
-31.28232827993984
 20
207.2722750675396
 30
0.0
  0
VERTEX
  5
435
330
433
100
AcDbEntity
  8
BEMAßUNG
 62
     7
100
AcDbVertex
100
AcDb2dVertex
 10
-31.28232827993984
 20
208.9851765428058
 30
0.0
  0
SEQEND
  5
436
330
433
100
AcDbEntity
  8
BEMAßUNG
  0
POLYLINE
  5
437
330
1F
100
AcDbEntity
  8
BEMAßUNG
 62
     7
100
AcDb2dPolyline
 66
     1
 10
0.0
 20
0.0
 30
0.0
  0
VERTEX
  5
438
330
437
100
AcDbEntity
  8
BEMAßUNG
 62
     7
100
AcDbVertex
100
AcDb2dVertex
 10
-31.31023355337036
 20
207.2722750675396
 30
0.0
  0
VERTEX
  5
439
330
437
100
AcDbEntity
  8
BEMAßUNG
 62
     7
100
AcDbVertex
100
AcDb2dVertex
 10
-31.31023355337036
 20
209.1975666794715
 30
0.0
  0
SEQEND
  5
43A
330
437
100
AcDbEntity
  8
BEMAßUNG
  0
POLYLINE
  5
43B
330
1F
100
AcDbEntity
  8
BEMAßUNG
 62
     7
100
AcDb2dPolyline
 66
     1
 10
0.0
 20
0.0
 30
0.0
  0
VERTEX
  5
43C
330
43B
100
AcDbEntity
  8
BEMAßUNG
 62
     7
100
AcDbVertex
100
AcDb2dVertex
 10
-31.31023355337036
 20
189.1552069297077
 30
0.0
  0
VERTEX
  5
43D
330
43B
100
AcDbEntity
  8
BEMAßUNG
 62
     7
100
AcDbVertex
100
AcDb2dVertex
 10
-31.05667452565597
 20
191.0806707964139
 30
0.0
  0
VERTEX
  5
43E
330
43B
100
AcDbEntity
  8
BEMAßUNG
 62
     7
100
AcDbVertex
100
AcDb2dVertex
 10
-31.56344807153622
 20
191.0806707964139
 30
0.0
  0
VERTEX
  5
43F
330
43B
100
AcDbEntity
  8
BEMAßUNG
 62
     7
100
AcDbVertex
100
AcDb2dVertex
 10
-31.31023355337036
 20
189.1552069297077
 30
0.0
  0
SEQEND
  5
440
330
43B
100
AcDbEntity
  8
BEMAßUNG
  0
POLYLINE
  5
441
330
1F
100
AcDbEntity
  8
BEMAßUNG
 62
     7
100
AcDb2dPolyline
 66
     1
 10
0.0
 20
0.0
 30
0.0
  0
VERTEX
  5
442
330
441
100
AcDbEntity
  8
BEMAßUNG
 62
     7
100
AcDbVertex
100
AcDb2dVertex
 10
-31.05856932817286
 20
191.0806707964139
 30
0.0
  0
VERTEX
  5
443
330
441
100
AcDbEntity
  8
BEMAßUNG
 62
     7
100
AcDbVertex
100
AcDb2dVertex
 10
-31.05856932817286
 20
191.0651678667302
 30
0.0
  0
SEQEND
  5
444
330
441
100
AcDbEntity
  8
BEMAßUNG
  0
POLYLINE
  5
445
330
1F
100
AcDbEntity
  8
BEMAßUNG
 62
     7
100
AcDb2dPolyline
 66
     1
 10
0.0
 20
0.0
 30
0.0
  0
VERTEX
  5
446
330
445
100
AcDbEntity
  8
BEMAßUNG
 62
     7
100
AcDbVertex
100
AcDb2dVertex
 10
-31.05856932817286
 20
191.0806707964139
 30
0.0
  0
VERTEX
  5
447
330
445
100
AcDbEntity
  8
BEMAßUNG
 62
     7
100
AcDbVertex
100
AcDb2dVertex
 10
-31.05856932817286
 20
191.0651678667302
 30
0.0
  0
SEQEND
  5
448
330
445
100
AcDbEntity
  8
BEMAßUNG
  0
POLYLINE
  5
449
330
1F
100
AcDbEntity
  8
BEMAßUNG
 62
     7
100
AcDb2dPolyline
 66
     1
 10
0.0
 20
0.0
 30
0.0
  0
VERTEX
  5
44A
330
449
100
AcDbEntity
  8
BEMAßUNG
 62
     7
100
AcDbVertex
100
AcDb2dVertex
 10
-31.08664685637764
 20
191.0806707964139
 30
0.0
  0
VERTEX
  5
44B
330
449
100
AcDbEntity
  8
BEMAßUNG
 62
     7
100
AcDbVertex
100
AcDb2dVertex
 10
-31.08664685637764
 20
190.8532944943874
 30
0.0
  0
SEQEND
  5
44C
330
449
100
AcDbEntity
  8
BEMAßUNG
  0
POLYLINE
  5
44D
330
1F
100
AcDbEntity
  8
BEMAßUNG
 62
     7
100
AcDb2dPolyline
 66
     1
 10
0.0
 20
0.0
 30
0.0
  0
VERTEX
  5
44E
330
44D
100
AcDbEntity
  8
BEMAßUNG
 62
     7
100
AcDbVertex
100
AcDb2dVertex
 10
-31.11472438458243
 20
191.0806707964139
 30
0.0
  0
VERTEX
  5
44F
330
44D
100
AcDbEntity
  8
BEMAßUNG
 62
     7
100
AcDbVertex
100
AcDb2dVertex
 10
-31.11472438458243
 20
190.641076612496
 30
0.0
  0
SEQEND
  5
450
330
44D
100
AcDbEntity
  8
BEMAßUNG
  0
POLYLINE
  5
451
330
1F
100
AcDbEntity
  8
BEMAßUNG
 62
     7
100
AcDb2dPolyline
 66
     1
 10
0.0
 20
0.0
 30
0.0
  0
VERTEX
  5
452
330
451
100
AcDbEntity
  8
BEMAßUNG
 62
     7
100
AcDbVertex
100
AcDb2dVertex
 10
-31.14262965801295
 20
191.0806707964139
 30
0.0
  0
VERTEX
  5
453
330
451
100
AcDbEntity
  8
BEMAßUNG
 62
     7
100
AcDbVertex
100
AcDb2dVertex
 10
-31.14262965801295
 20
190.4288587306046
 30
0.0
  0
SEQEND
  5
454
330
451
100
AcDbEntity
  8
BEMAßUNG
  0
POLYLINE
  5
455
330
1F
100
AcDbEntity
  8
BEMAßUNG
 62
     7
100
AcDb2dPolyline
 66
     1
 10
0.0
 20
0.0
 30
0.0
  0
VERTEX
  5
456
330
455
100
AcDbEntity
  8
BEMAßUNG
 62
     7
100
AcDbVertex
100
AcDb2dVertex
 10
-31.17036267666922
 20
191.0806707964139
 30
0.0
  0
VERTEX
  5
457
330
455
100
AcDbEntity
  8
BEMAßUNG
 62
     7
100
AcDbVertex
100
AcDb2dVertex
 10
-31.17036267666922
 20
190.2162963391647
 30
0.0
  0
SEQEND
  5
458
330
455
100
AcDbEntity
  8
BEMAßUNG
  0
POLYLINE
  5
459
330
1F
100
AcDbEntity
  8
BEMAßUNG
 62
     7
100
AcDb2dPolyline
 66
     1
 10
0.0
 20
0.0
 30
0.0
  0
VERTEX
  5
45A
330
459
100
AcDbEntity
  8
BEMAßUNG
 62
     7
100
AcDbVertex
100
AcDb2dVertex
 10
-31.19826795009974
 20
191.0806707964139
 30
0.0
  0
VERTEX
  5
45B
330
459
100
AcDbEntity
  8
BEMAßUNG
 62
     7
100
AcDbVertex
100
AcDb2dVertex
 10
-31.19826795009974
 20
190.0040784572733
 30
0.0
  0
SEQEND
  5
45C
330
459
100
AcDbEntity
  8
BEMAßUNG
  0
POLYLINE
  5
45D
330
1F
100
AcDbEntity
  8
BEMAßUNG
 62
     7
100
AcDb2dPolyline
 66
     1
 10
0.0
 20
0.0
 30
0.0
  0
VERTEX
  5
45E
330
45D
100
AcDbEntity
  8
BEMAßUNG
 62
     7
100
AcDbVertex
100
AcDb2dVertex
 10
-31.22617322353026
 20
191.0806707964139
 30
0.0
  0
VERTEX
  5
45F
330
45D
100
AcDbEntity
  8
BEMAßUNG
 62
     7
100
AcDbVertex
100
AcDb2dVertex
 10
-31.22617322353026
 20
189.7922050849304
 30
0.0
  0
SEQEND
  5
460
330
45D
100
AcDbEntity
  8
BEMAßUNG
  0
POLYLINE
  5
461
330
1F
100
AcDbEntity
  8
BEMAßUNG
 62
     7
100
AcDb2dPolyline
 66
     1
 10
0.0
 20
0.0
 30
0.0
  0
VERTEX
  5
462
330
461
100
AcDbEntity
  8
BEMAßUNG
 62
     7
100
AcDbVertex
100
AcDb2dVertex
 10
-31.25442300650931
 20
191.0806707964139
 30
0.0
  0
VERTEX
  5
463
330
461
100
AcDbEntity
  8
BEMAßUNG
 62
     7
100
AcDbVertex
100
AcDb2dVertex
 10
-31.25442300650931
 20
189.5799872030391
 30
0.0
  0
SEQEND
  5
464
330
461
100
AcDbEntity
  8
BEMAßUNG
  0
POLYLINE
  5
465
330
1F
100
AcDbEntity
  8
BEMAßUNG
 62
     7
100
AcDb2dPolyline
 66
     1
 10
0.0
 20
0.0
 30
0.0
  0
VERTEX
  5
466
330
465
100
AcDbEntity
  8
BEMAßUNG
 62
     7
100
AcDbVertex
100
AcDb2dVertex
 10
-31.28232827993984
 20
191.0806707964139
 30
0.0
  0
VERTEX
  5
467
330
465
100
AcDbEntity
  8
BEMAßUNG
 62
     7
100
AcDbVertex
100
AcDb2dVertex
 10
-31.28232827993984
 20
189.3674248115991
 30
0.0
  0
SEQEND
  5
468
330
465
100
AcDbEntity
  8
BEMAßUNG
  0
POLYLINE
  5
469
330
1F
100
AcDbEntity
  8
BEMAßUNG
 62
     7
100
AcDb2dPolyline
 66
     1
 10
0.0
 20
0.0
 30
0.0
  0
VERTEX
  5
46A
330
469
100
AcDbEntity
  8
BEMAßUNG
 62
     7
100
AcDbVertex
100
AcDb2dVertex
 10
-31.31023355337036
 20
191.0806707964139
 30
0.0
  0
VERTEX
  5
46B
330
469
100
AcDbEntity
  8
BEMAßUNG
 62
     7
100
AcDbVertex
100
AcDb2dVertex
 10
-31.31023355337036
 20
189.1552069297077
 30
0.0
  0
SEQEND
  5
46C
330
469
100
AcDbEntity
  8
BEMAßUNG
  0
POLYLINE
  5
46D
330
1F
100
AcDbEntity
  8
BEMAßUNG
 62
     7
100
AcDb2dPolyline
 66
     1
 10
0.0
 20
0.0
 30
0.0
  0
VERTEX
  5
46E
330
46D
100
AcDbEntity
  8
BEMAßUNG
 62
     7
100
AcDbVertex
100
AcDb2dVertex
 10
-31.5617255237936
 20
191.0806707964139
 30
0.0
  0
VERTEX
  5
46F
330
46D
100
AcDbEntity
  8
BEMAßUNG
 62
     7
100
AcDbVertex
100
AcDb2dVertex
 10
-31.5617255237936
 20
191.0651678667302
 30
0.0
  0
SEQEND
  5
470
330
46D
100
AcDbEntity
  8
BEMAßUNG
  0
POLYLINE
  5
471
330
1F
100
AcDbEntity
  8
BEMAßUNG
 62
     7
100
AcDb2dPolyline
 66
     1
 10
0.0
 20
0.0
 30
0.0
  0
VERTEX
  5
472
330
471
100
AcDbEntity
  8
BEMAßUNG
 62
     7
100
AcDbVertex
100
AcDb2dVertex
 10
-31.5617255237936
 20
191.0806707964139
 30
0.0
  0
VERTEX
  5
473
330
471
100
AcDbEntity
  8
BEMAßUNG
 62
     7
100
AcDbVertex
100
AcDb2dVertex
 10
-31.5617255237936
 20
191.0651678667302
 30
0.0
  0
SEQEND
  5
474
330
471
100
AcDbEntity
  8
BEMAßUNG
  0
POLYLINE
  5
475
330
1F
100
AcDbEntity
  8
BEMAßUNG
 62
     7
100
AcDb2dPolyline
 66
     1
 10
0.0
 20
0.0
 30
0.0
  0
VERTEX
  5
476
330
475
100
AcDbEntity
  8
BEMAßUNG
 62
     7
100
AcDbVertex
100
AcDb2dVertex
 10
-31.53382025036307
 20
191.0806707964139
 30
0.0
  0
VERTEX
  5
477
330
475
100
AcDbEntity
  8
BEMAßUNG
 62
     7
100
AcDbVertex
100
AcDb2dVertex
 10
-31.53382025036307
 20
190.8532944943874
 30
0.0
  0
SEQEND
  5
478
330
475
100
AcDbEntity
  8
BEMAßUNG
  0
POLYLINE
  5
479
330
1F
100
AcDbEntity
  8
BEMAßUNG
 62
     7
100
AcDb2dPolyline
 66
     1
 10
0.0
 20
0.0
 30
0.0
  0
VERTEX
  5
47A
330
479
100
AcDbEntity
  8
BEMAßUNG
 62
     7
100
AcDbVertex
100
AcDb2dVertex
 10
-31.50557046738403
 20
191.0806707964139
 30
0.0
  0
VERTEX
  5
47B
330
479
100
AcDbEntity
  8
BEMAßUNG
 62
     7
100
AcDbVertex
100
AcDb2dVertex
 10
-31.50557046738403
 20
190.641076612496
 30
0.0
  0
SEQEND
  5
47C
330
479
100
AcDbEntity
  8
BEMAßUNG
  0
POLYLINE
  5
47D
330
1F
100
AcDbEntity
  8
BEMAßUNG
 62
     7
100
AcDb2dPolyline
 66
     1
 10
0.0
 20
0.0
 30
0.0
  0
VERTEX
  5
47E
330
47D
100
AcDbEntity
  8
BEMAßUNG
 62
     7
100
AcDbVertex
100
AcDb2dVertex
 10
-31.4776651939535
 20
191.0806707964139
 30
0.0
  0
VERTEX
  5
47F
330
47D
100
AcDbEntity
  8
BEMAßUNG
 62
     7
100
AcDbVertex
100
AcDb2dVertex
 10
-31.4776651939535
 20
190.4288587306046
 30
0.0
  0
SEQEND
  5
480
330
47D
100
AcDbEntity
  8
BEMAßUNG
  0
POLYLINE
  5
481
330
1F
100
AcDbEntity
  8
BEMAßUNG
 62
     7
100
AcDb2dPolyline
 66
     1
 10
0.0
 20
0.0
 30
0.0
  0
VERTEX
  5
482
330
481
100
AcDbEntity
  8
BEMAßUNG
 62
     7
100
AcDbVertex
100
AcDb2dVertex
 10
-31.44993217529724
 20
191.0806707964139
 30
0.0
  0
VERTEX
  5
483
330
481
100
AcDbEntity
  8
BEMAßUNG
 62
     7
100
AcDbVertex
100
AcDb2dVertex
 10
-31.44993217529724
 20
190.2162963391647
 30
0.0
  0
SEQEND
  5
484
330
481
100
AcDbEntity
  8
BEMAßUNG
  0
POLYLINE
  5
485
330
1F
100
AcDbEntity
  8
BEMAßUNG
 62
     7
100
AcDb2dPolyline
 66
     1
 10
0.0
 20
0.0
 30
0.0
  0
VERTEX
  5
486
330
485
100
AcDbEntity
  8
BEMAßUNG
 62
     7
100
AcDbVertex
100
AcDb2dVertex
 10
-31.42202690186672
 20
191.0806707964139
 30
0.0
  0
VERTEX
  5
487
330
485
100
AcDbEntity
  8
BEMAßUNG
 62
     7
100
AcDbVertex
100
AcDb2dVertex
 10
-31.42202690186672
 20
190.0040784572733
 30
0.0
  0
SEQEND
  5
488
330
485
100
AcDbEntity
  8
BEMAßUNG
  0
POLYLINE
  5
489
330
1F
100
AcDbEntity
  8
BEMAßUNG
 62
     7
100
AcDb2dPolyline
 66
     1
 10
0.0
 20
0.0
 30
0.0
  0
VERTEX
  5
48A
330
489
100
AcDbEntity
  8
BEMAßUNG
 62
     7
100
AcDbVertex
100
AcDb2dVertex
 10
-31.39412162843619
 20
191.0806707964139
 30
0.0
  0
VERTEX
  5
48B
330
489
100
AcDbEntity
  8
BEMAßUNG
 62
     7
100
AcDbVertex
100
AcDb2dVertex
 10
-31.39412162843619
 20
189.7922050849304
 30
0.0
  0
SEQEND
  5
48C
330
489
100
AcDbEntity
  8
BEMAßUNG
  0
POLYLINE
  5
48D
330
1F
100
AcDbEntity
  8
BEMAßUNG
 62
     7
100
AcDb2dPolyline
 66
     1
 10
0.0
 20
0.0
 30
0.0
  0
VERTEX
  5
48E
330
48D
100
AcDbEntity
  8
BEMAßUNG
 62
     7
100
AcDbVertex
100
AcDb2dVertex
 10
-31.36604410023141
 20
191.0806707964139
 30
0.0
  0
VERTEX
  5
48F
330
48D
100
AcDbEntity
  8
BEMAßUNG
 62
     7
100
AcDbVertex
100
AcDb2dVertex
 10
-31.36604410023141
 20
189.5799872030391
 30
0.0
  0
SEQEND
  5
490
330
48D
100
AcDbEntity
  8
BEMAßUNG
  0
POLYLINE
  5
491
330
1F
100
AcDbEntity
  8
BEMAßUNG
 62
     7
100
AcDb2dPolyline
 66
     1
 10
0.0
 20
0.0
 30
0.0
  0
VERTEX
  5
492
330
491
100
AcDbEntity
  8
BEMAßUNG
 62
     7
100
AcDbVertex
100
AcDb2dVertex
 10
-31.33796657202662
 20
191.0806707964139
 30
0.0
  0
VERTEX
  5
493
330
491
100
AcDbEntity
  8
BEMAßUNG
 62
     7
100
AcDbVertex
100
AcDb2dVertex
 10
-31.33796657202662
 20
189.3674248115991
 30
0.0
  0
SEQEND
  5
494
330
491
100
AcDbEntity
  8
BEMAßUNG
  0
POLYLINE
  5
495
330
1F
100
AcDbEntity
  8
BEMAßUNG
 62
     7
100
AcDb2dPolyline
 66
     1
 10
0.0
 20
0.0
 30
0.0
  0
VERTEX
  5
496
330
495
100
AcDbEntity
  8
BEMAßUNG
 62
     7
100
AcDbVertex
100
AcDb2dVertex
 10
-31.31023355337036
 20
191.0806707964139
 30
0.0
  0
VERTEX
  5
497
330
495
100
AcDbEntity
  8
BEMAßUNG
 62
     7
100
AcDbVertex
100
AcDb2dVertex
 10
-31.31023355337036
 20
189.1552069297077
 30
0.0
  0
SEQEND
  5
498
330
495
100
AcDbEntity
  8
BEMAßUNG
  0
POLYLINE
  5
499
330
1F
100
AcDbEntity
  8
BEMAßUNG
 62
     7
100
AcDb2dPolyline
 66
     1
 10
0.0
 20
0.0
 30
0.0
  0
VERTEX
  5
49A
330
499
100
AcDbEntity
  8
BEMAßUNG
 62
     7
100
AcDbVertex
100
AcDb2dVertex
 10
-14.47474093605145
 20
202.382995554873
 30
0.0
  0
VERTEX
  5
49B
330
499
100
AcDbEntity
  8
BEMAßUNG
 62
     7
100
AcDbVertex
100
AcDb2dVertex
 10
-14.21877034149739
 20
197.0613565588076
 30
0.0
  0
SEQEND
  5
49C
330
499
100
AcDbEntity
  8
BEMAßUNG
  0
POLYLINE
  5
49D
330
1F
100
AcDbEntity
  8
BEMAßUNG
 62
     7
100
AcDb2dPolyline
 66
     1
 10
0.0
 20
0.0
 30
0.0
  0
VERTEX
  5
49E
330
49D
100
AcDbEntity
  8
BEMAßUNG
 62
     7
100
AcDbVertex
100
AcDb2dVertex
 10
-14.58946261571027
 20
209.1975666794715
 30
0.0
  0
VERTEX
  5
49F
330
49D
100
AcDbEntity
  8
BEMAßUNG
 62
     7
100
AcDbVertex
100
AcDb2dVertex
 10
-26.95253227407784
 20
209.1975666794715
 30
0.0
  0
SEQEND
  5
4A0
330
49D
100
AcDbEntity
  8
BEMAßUNG
  0
SPLINE
  5
4A1
330
1F
100
AcDbEntity
  8
BEMAßUNG
 62
     7
100
AcDbSpline
210
0.0
220
0.0
230
1.0
 70
     8
 71
     3
 72
    11
 73
     7
 74
     0
 42
0.0000000001
 43
0.0000000001
 40
0.0
 40
0.0
 40
0.0
 40
0.0
 40
1.0
 40
1.0
 40
1.0
 40
2.0
 40
2.0
 40
2.0
 40
2.0
 10
-25.8523410308633
 20
209.1975666794715
 30
0.0
 10
-25.8523410308633
 20
203.0945800273514
 30
0.0
 10
-20.90501165927028
 20
198.1470784009841
 30
0.0
 10
-14.80236951669871
 20
198.1470784009841
 30
0.0
 10
-14.61564534139817
 20
198.1470784009841
 30
0.0
 10
-14.42995469474321
 20
198.1517292798892
 30
0.0
 10
-14.27148030242171
 20
198.1598252542795
 30
0.0
  0
POLYLINE
  5
4A2
330
1F
100
AcDbEntity
  8
BEMAßUNG
 62
     7
100
AcDb2dPolyline
 66
     1
 10
0.0
 20
0.0
 30
0.0
  0
VERTEX
  5
4A3
330
4A2
100
AcDbEntity
  8
BEMAßUNG
 62
     7
100
AcDbVertex
100
AcDb2dVertex
 10
-14.27148030242171
 20
198.1598252542795
 30
0.0
  0
VERTEX
  5
4A4
330
4A2
100
AcDbEntity
  8
BEMAßUNG
 62
     7
100
AcDbVertex
100
AcDb2dVertex
 10
-16.1976331882249
 20
198.4045992885065
 30
0.0
  0
VERTEX
  5
4A5
330
4A2
100
AcDbEntity
  8
BEMAßUNG
 62
     7
100
AcDbVertex
100
AcDb2dVertex
 10
-16.19556613093375
 20
197.8974812330777
 30
0.0
  0
VERTEX
  5
4A6
330
4A2
100
AcDbEntity
  8
BEMAßUNG
 62
     7
100
AcDbVertex
100
AcDb2dVertex
 10
-14.27148030242171
 20
198.1598252542795
 30
0.0
  0
SEQEND
  5
4A7
330
4A2
100
AcDbEntity
  8
BEMAßUNG
  0
POLYLINE
  5
4A8
330
1F
100
AcDbEntity
  8
BEMAßUNG
 62
     7
100
AcDb2dPolyline
 66
     1
 10
0.0
 20
0.0
 30
0.0
  0
VERTEX
  5
4A9
330
4A8
100
AcDbEntity
  8
BEMAßUNG
 62
     7
100
AcDbVertex
100
AcDb2dVertex
 10
-16.1976331882249
 20
198.4023599764411
 30
0.0
  0
VERTEX
  5
4AA
330
4A8
100
AcDbEntity
  8
BEMAßUNG
 62
     7
100
AcDbVertex
100
AcDb2dVertex
 10
-16.18281927763832
 20
198.4028767407639
 30
0.0
  0
SEQEND
  5
4AB
330
4A8
100
AcDbEntity
  8
BEMAßUNG
  0
POLYLINE
  5
4AC
330
1F
100
AcDbEntity
  8
BEMAßUNG
 62
     7
100
AcDb2dPolyline
 66
     1
 10
0.0
 20
0.0
 30
0.0
  0
VERTEX
  5
4AD
330
4AC
100
AcDbEntity
  8
BEMAßUNG
 62
     7
100
AcDbVertex
100
AcDb2dVertex
 10
-16.1976331882249
 20
198.4023599764411
 30
0.0
  0
VERTEX
  5
4AE
330
4AC
100
AcDbEntity
  8
BEMAßUNG
 62
     7
100
AcDbVertex
100
AcDb2dVertex
 10
-16.18281927763832
 20
198.4028767407639
 30
0.0
  0
SEQEND
  5
4AF
330
4AC
100
AcDbEntity
  8
BEMAßUNG
  0
POLYLINE
  5
4B0
330
1F
100
AcDbEntity
  8
BEMAßUNG
 62
     7
100
AcDb2dPolyline
 66
     1
 10
0.0
 20
0.0
 30
0.0
  0
VERTEX
  5
4B1
330
4B0
100
AcDbEntity
  8
BEMAßUNG
 62
     7
100
AcDbVertex
100
AcDb2dVertex
 10
-16.1976331882249
 20
198.3746269577848
 30
0.0
  0
VERTEX
  5
4B2
330
4B0
100
AcDbEntity
  8
BEMAßUNG
 62
     7
100
AcDbVertex
100
AcDb2dVertex
 10
-15.97025688619841
 20
198.3756604864304
 30
0.0
  0
SEQEND
  5
4B3
330
4B0
100
AcDbEntity
  8
BEMAßUNG
  0
POLYLINE
  5
4B4
330
1F
100
AcDbEntity
  8
BEMAßUNG
 62
     7
100
AcDb2dPolyline
 66
     1
 10
0.0
 20
0.0
 30
0.0
  0
VERTEX
  5
4B5
330
4B4
100
AcDbEntity
  8
BEMAßUNG
 62
     7
100
AcDbVertex
100
AcDb2dVertex
 10
-16.1976331882249
 20
198.3467216843543
 30
0.0
  0
VERTEX
  5
4B6
330
4B4
100
AcDbEntity
  8
BEMAßUNG
 62
     7
100
AcDbVertex
100
AcDb2dVertex
 10
-15.75803900430702
 20
198.3486164868712
 30
0.0
  0
SEQEND
  5
4B7
330
4B4
100
AcDbEntity
  8
BEMAßUNG
  0
POLYLINE
  5
4B8
330
1F
100
AcDbEntity
  8
BEMAßUNG
 62
     7
100
AcDb2dPolyline
 66
     1
 10
0.0
 20
0.0
 30
0.0
  0
VERTEX
  5
4B9
330
4B8
100
AcDbEntity
  8
BEMAßUNG
 62
     7
100
AcDbVertex
100
AcDb2dVertex
 10
-16.19728867867637
 20
198.3188164109238
 30
0.0
  0
VERTEX
  5
4BA
330
4B8
100
AcDbEntity
  8
BEMAßUNG
 62
     7
100
AcDbVertex
100
AcDb2dVertex
 10
-15.54564886764137
 20
198.321572487312
 30
0.0
  0
SEQEND
  5
4BB
330
4B8
100
AcDbEntity
  8
BEMAßUNG
  0
POLYLINE
  5
4BC
330
1F
100
AcDbEntity
  8
BEMAßUNG
 62
     7
100
AcDb2dPolyline
 66
     1
 10
0.0
 20
0.0
 30
0.0
  0
VERTEX
  5
4BD
330
4BC
100
AcDbEntity
  8
BEMAßUNG
 62
     7
100
AcDbVertex
100
AcDb2dVertex
 10
-16.19728867867637
 20
198.2909111374933
 30
0.0
  0
VERTEX
  5
4BE
330
4BC
100
AcDbEntity
  8
BEMAßUNG
 62
     7
100
AcDbVertex
100
AcDb2dVertex
 10
-15.33325873097571
 20
198.2950452520755
 30
0.0
  0
SEQEND
  5
4BF
330
4BC
100
AcDbEntity
  8
BEMAßUNG
  0
POLYLINE
  5
4C0
330
1F
100
AcDbEntity
  8
BEMAßUNG
 62
     7
100
AcDb2dPolyline
 66
     1
 10
0.0
 20
0.0
 30
0.0
  0
VERTEX
  5
4C1
330
4C0
100
AcDbEntity
  8
BEMAßUNG
 62
     7
100
AcDbVertex
100
AcDb2dVertex
 10
-16.19694416912785
 20
198.2630058640627
 30
0.0
  0
VERTEX
  5
4C2
330
4C0
100
AcDbEntity
  8
BEMAßUNG
 62
     7
100
AcDbVertex
100
AcDb2dVertex
 10
-15.12104084908432
 20
198.2678289977421
 30
0.0
  0
SEQEND
  5
4C3
330
4C0
100
AcDbEntity
  8
BEMAßUNG
  0
POLYLINE
  5
4C4
330
1F
100
AcDbEntity
  8
BEMAßUNG
 62
     7
100
AcDb2dPolyline
 66
     1
 10
0.0
 20
0.0
 30
0.0
  0
VERTEX
  5
4C5
330
4C4
100
AcDbEntity
  8
BEMAßUNG
 62
     7
100
AcDbVertex
100
AcDb2dVertex
 10
-16.19677191435359
 20
198.2347560810837
 30
0.0
  0
VERTEX
  5
4C6
330
4C4
100
AcDbEntity
  8
BEMAßUNG
 62
     7
100
AcDbVertex
100
AcDb2dVertex
 10
-14.90865071241867
 20
198.2409572529571
 30
0.0
  0
SEQEND
  5
4C7
330
4C4
100
AcDbEntity
  8
BEMAßUNG
  0
POLYLINE
  5
4C8
330
1F
100
AcDbEntity
  8
BEMAßUNG
 62
     7
100
AcDb2dPolyline
 66
     1
 10
0.0
 20
0.0
 30
0.0
  0
VERTEX
  5
4C9
330
4C8
100
AcDbEntity
  8
BEMAßUNG
 62
     7
100
AcDbVertex
100
AcDb2dVertex
 10
-16.19677191435359
 20
198.2068508076532
 30
0.0
  0
VERTEX
  5
4CA
330
4C8
100
AcDbEntity
  8
BEMAßUNG
 62
     7
100
AcDbVertex
100
AcDb2dVertex
 10
-14.69643283052728
 20
198.2137409986236
 30
0.0
  0
SEQEND
  5
4CB
330
4C8
100
AcDbEntity
  8
BEMAßUNG
  0
POLYLINE
  5
4CC
330
1F
100
AcDbEntity
  8
BEMAßUNG
 62
     7
100
AcDb2dPolyline
 66
     1
 10
0.0
 20
0.0
 30
0.0
  0
VERTEX
  5
4CD
330
4CC
100
AcDbEntity
  8
BEMAßUNG
 62
     7
100
AcDbVertex
100
AcDb2dVertex
 10
-16.19677191435359
 20
198.1789455342226
 30
0.0
  0
VERTEX
  5
4CE
330
4CC
100
AcDbEntity
  8
BEMAßUNG
 62
     7
100
AcDbVertex
100
AcDb2dVertex
 10
-14.48387043908737
 20
198.1868692538387
 30
0.0
  0
SEQEND
  5
4CF
330
4CC
100
AcDbEntity
  8
BEMAßUNG
  0
POLYLINE
  5
4D0
330
1F
100
AcDbEntity
  8
BEMAßUNG
 62
     7
100
AcDb2dPolyline
 66
     1
 10
0.0
 20
0.0
 30
0.0
  0
VERTEX
  5
4D1
330
4D0
100
AcDbEntity
  8
BEMAßUNG
 62
     7
100
AcDbVertex
100
AcDb2dVertex
 10
-16.19659965957932
 20
198.1510402607921
 30
0.0
  0
VERTEX
  5
4D2
330
4D0
100
AcDbEntity
  8
BEMAßUNG
 62
     7
100
AcDbVertex
100
AcDb2dVertex
 10
-14.27148030242171
 20
198.1598252542795
 30
0.0
  0
SEQEND
  5
4D3
330
4D0
100
AcDbEntity
  8
BEMAßUNG
  0
POLYLINE
  5
4D4
330
1F
100
AcDbEntity
  8
BEMAßUNG
 62
     7
100
AcDb2dPolyline
 66
     1
 10
0.0
 20
0.0
 30
0.0
  0
VERTEX
  5
4D5
330
4D4
100
AcDbEntity
  8
BEMAßUNG
 62
     7
100
AcDbVertex
100
AcDb2dVertex
 10
-16.19556613093375
 20
197.8995482903689
 30
0.0
  0
VERTEX
  5
4D6
330
4D4
100
AcDbEntity
  8
BEMAßUNG
 62
     7
100
AcDbVertex
100
AcDb2dVertex
 10
-16.18040771079865
 20
197.8998927999174
 30
0.0
  0
SEQEND
  5
4D7
330
4D4
100
AcDbEntity
  8
BEMAßUNG
  0
POLYLINE
  5
4D8
330
1F
100
AcDbEntity
  8
BEMAßUNG
 62
     7
100
AcDb2dPolyline
 66
     1
 10
0.0
 20
0.0
 30
0.0
  0
VERTEX
  5
4D9
330
4D8
100
AcDbEntity
  8
BEMAßUNG
 62
     7
100
AcDbVertex
100
AcDb2dVertex
 10
-16.19556613093375
 20
197.8995482903689
 30
0.0
  0
VERTEX
  5
4DA
330
4D8
100
AcDbEntity
  8
BEMAßUNG
 62
     7
100
AcDbVertex
100
AcDb2dVertex
 10
-16.18040771079865
 20
197.8998927999174
 30
0.0
  0
SEQEND
  5
4DB
330
4D8
100
AcDbEntity
  8
BEMAßUNG
  0
POLYLINE
  5
4DC
330
1F
100
AcDbEntity
  8
BEMAßUNG
 62
     7
100
AcDb2dPolyline
 66
     1
 10
0.0
 20
0.0
 30
0.0
  0
VERTEX
  5
4DD
330
4DC
100
AcDbEntity
  8
BEMAßUNG
 62
     7
100
AcDbVertex
100
AcDb2dVertex
 10
-16.19556613093375
 20
197.9274535637994
 30
0.0
  0
VERTEX
  5
4DE
330
4DC
100
AcDbEntity
  8
BEMAßUNG
 62
     7
100
AcDbVertex
100
AcDb2dVertex
 10
-15.96818982890726
 20
197.9288316019935
 30
0.0
  0
SEQEND
  5
4DF
330
4DC
100
AcDbEntity
  8
BEMAßUNG
  0
POLYLINE
  5
4E0
330
1F
100
AcDbEntity
  8
BEMAßUNG
 62
     7
100
AcDb2dPolyline
 66
     1
 10
0.0
 20
0.0
 30
0.0
  0
VERTEX
  5
4E1
330
4E0
100
AcDbEntity
  8
BEMAßUNG
 62
     7
100
AcDbVertex
100
AcDb2dVertex
 10
-16.19556613093375
 20
197.9553588372299
 30
0.0
  0
VERTEX
  5
4E2
330
4E0
100
AcDbEntity
  8
BEMAßUNG
 62
     7
100
AcDbVertex
100
AcDb2dVertex
 10
-15.75631645656439
 20
197.9577704040696
 30
0.0
  0
SEQEND
  5
4E3
330
4E0
100
AcDbEntity
  8
BEMAßUNG
  0
POLYLINE
  5
4E4
330
1F
100
AcDbEntity
  8
BEMAßUNG
 62
     7
100
AcDb2dPolyline
 66
     1
 10
0.0
 20
0.0
 30
0.0
  0
VERTEX
  5
4E5
330
4E4
100
AcDbEntity
  8
BEMAßUNG
 62
     7
100
AcDbVertex
100
AcDb2dVertex
 10
-16.19556613093375
 20
197.983608620209
 30
0.0
  0
VERTEX
  5
4E6
330
4E4
100
AcDbEntity
  8
BEMAßUNG
 62
     7
100
AcDbVertex
100
AcDb2dVertex
 10
-15.54444308422153
 20
197.9865369513714
 30
0.0
  0
SEQEND
  5
4E7
330
4E4
100
AcDbEntity
  8
BEMAßUNG
  0
POLYLINE
  5
4E8
330
1F
100
AcDbEntity
  8
BEMAßUNG
 62
     7
100
AcDb2dPolyline
 66
     1
 10
0.0
 20
0.0
 30
0.0
  0
VERTEX
  5
4E9
330
4E8
100
AcDbEntity
  8
BEMAßUNG
 62
     7
100
AcDbVertex
100
AcDb2dVertex
 10
-16.19591064048227
 20
198.0115138936395
 30
0.0
  0
VERTEX
  5
4EA
330
4E8
100
AcDbEntity
  8
BEMAßUNG
 62
     7
100
AcDbVertex
100
AcDb2dVertex
 10
-15.33205294755588
 20
198.0156480082218
 30
0.0
  0
SEQEND
  5
4EB
330
4E8
100
AcDbEntity
  8
BEMAßUNG
  0
POLYLINE
  5
4EC
330
1F
100
AcDbEntity
  8
BEMAßUNG
 62
     7
100
AcDb2dPolyline
 66
     1
 10
0.0
 20
0.0
 30
0.0
  0
VERTEX
  5
4ED
330
4EC
100
AcDbEntity
  8
BEMAßUNG
 62
     7
100
AcDbVertex
100
AcDb2dVertex
 10
-16.19608289525653
 20
198.03941916707
 30
0.0
  0
VERTEX
  5
4EE
330
4EC
100
AcDbEntity
  8
BEMAßUNG
 62
     7
100
AcDbVertex
100
AcDb2dVertex
 10
-15.12017957521301
 20
198.0444145555236
 30
0.0
  0
SEQEND
  5
4EF
330
4EC
100
AcDbEntity
  8
BEMAßUNG
  0
POLYLINE
  5
4F0
330
1F
100
AcDbEntity
  8
BEMAßUNG
 62
     7
100
AcDb2dPolyline
 66
     1
 10
0.0
 20
0.0
 30
0.0
  0
VERTEX
  5
4F1
330
4F0
100
AcDbEntity
  8
BEMAßUNG
 62
     7
100
AcDbVertex
100
AcDb2dVertex
 10
-16.19608289525653
 20
198.0673244405005
 30
0.0
  0
VERTEX
  5
4F2
330
4F0
100
AcDbEntity
  8
BEMAßUNG
 62
     7
100
AcDbVertex
100
AcDb2dVertex
 10
-14.90778943854736
 20
198.0733533575997
 30
0.0
  0
SEQEND
  5
4F3
330
4F0
100
AcDbEntity
  8
BEMAßUNG
  0
POLYLINE
  5
4F4
330
1F
100
AcDbEntity
  8
BEMAßUNG
 62
     7
100
AcDb2dPolyline
 66
     1
 10
0.0
 20
0.0
 30
0.0
  0
VERTEX
  5
4F5
330
4F4
100
AcDbEntity
  8
BEMAßUNG
 62
     7
100
AcDbVertex
100
AcDb2dVertex
 10
-16.19642740480506
 20
198.0952297139311
 30
0.0
  0
VERTEX
  5
4F6
330
4F4
100
AcDbEntity
  8
BEMAßUNG
 62
     7
100
AcDbVertex
100
AcDb2dVertex
 10
-14.69557155665597
 20
198.1021199049016
 30
0.0
  0
SEQEND
  5
4F7
330
4F4
100
AcDbEntity
  8
BEMAßUNG
  0
POLYLINE
  5
4F8
330
1F
100
AcDbEntity
  8
BEMAßUNG
 62
     7
100
AcDb2dPolyline
 66
     1
 10
0.0
 20
0.0
 30
0.0
  0
VERTEX
  5
4F9
330
4F8
100
AcDbEntity
  8
BEMAßUNG
 62
     7
100
AcDbVertex
100
AcDb2dVertex
 10
-16.19659965957932
 20
198.1229627325873
 30
0.0
  0
VERTEX
  5
4FA
330
4F8
100
AcDbEntity
  8
BEMAßUNG
 62
     7
100
AcDbVertex
100
AcDb2dVertex
 10
-14.4836981843131
 20
198.1310587069777
 30
0.0
  0
SEQEND
  5
4FB
330
4F8
100
AcDbEntity
  8
BEMAßUNG
  0
POLYLINE
  5
4FC
330
1F
100
AcDbEntity
  8
BEMAßUNG
 62
     7
100
AcDb2dPolyline
 66
     1
 10
0.0
 20
0.0
 30
0.0
  0
VERTEX
  5
4FD
330
4FC
100
AcDbEntity
  8
BEMAßUNG
 62
     7
100
AcDbVertex
100
AcDb2dVertex
 10
-16.19659965957932
 20
198.1510402607921
 30
0.0
  0
VERTEX
  5
4FE
330
4FC
100
AcDbEntity
  8
BEMAßUNG
 62
     7
100
AcDbVertex
100
AcDb2dVertex
 10
-14.27148030242171
 20
198.1598252542795
 30
0.0
  0
SEQEND
  5
4FF
330
4FC
100
AcDbEntity
  8
BEMAßUNG
  0
POLYLINE
  5
500
330
1F
100
AcDbEntity
  8
BEMAßUNG
 62
     7
100
AcDb2dPolyline
 66
     1
 10
0.0
 20
0.0
 30
0.0
  0
VERTEX
  5
501
330
500
100
AcDbEntity
  8
BEMAßUNG
 62
     7
100
AcDbVertex
100
AcDb2dVertex
 10
-25.8523410308633
 20
209.1975666794715
 30
0.0
  0
VERTEX
  5
502
330
500
100
AcDbEntity
  8
BEMAßUNG
 62
     7
100
AcDbVertex
100
AcDb2dVertex
 10
-26.0218397287376
 20
207.2633178192779
 30
0.0
  0
VERTEX
  5
503
330
500
100
AcDbEntity
  8
BEMAßUNG
 62
     7
100
AcDbVertex
100
AcDb2dVertex
 10
-25.51575520195439
 20
207.285021920835
 30
0.0
  0
VERTEX
  5
504
330
500
100
AcDbEntity
  8
BEMAßUNG
 62
     7
100
AcDbVertex
100
AcDb2dVertex
 10
-25.8523410308633
 20
209.1975666794715
 30
0.0
  0
SEQEND
  5
505
330
500
100
AcDbEntity
  8
BEMAßUNG
  0
POLYLINE
  5
506
330
1F
100
AcDbEntity
  8
BEMAßUNG
 62
     7
100
AcDb2dPolyline
 66
     1
 10
0.0
 20
0.0
 30
0.0
  0
VERTEX
  5
507
330
506
100
AcDbEntity
  8
BEMAßUNG
 62
     7
100
AcDbVertex
100
AcDb2dVertex
 10
-26.01994492622071
 20
207.2633178192779
 30
0.0
  0
VERTEX
  5
508
330
506
100
AcDbEntity
  8
BEMAßUNG
 62
     7
100
AcDbVertex
100
AcDb2dVertex
 10
-26.02063394531776
 20
207.2781317298645
 30
0.0
  0
SEQEND
  5
509
330
506
100
AcDbEntity
  8
BEMAßUNG
  0
POLYLINE
  5
50A
330
1F
100
AcDbEntity
  8
BEMAßUNG
 62
     7
100
AcDb2dPolyline
 66
     1
 10
0.0
 20
0.0
 30
0.0
  0
VERTEX
  5
50B
330
50A
100
AcDbEntity
  8
BEMAßUNG
 62
     7
100
AcDbVertex
100
AcDb2dVertex
 10
-26.01994492622071
 20
207.2633178192779
 30
0.0
  0
VERTEX
  5
50C
330
50A
100
AcDbEntity
  8
BEMAßUNG
 62
     7
100
AcDbVertex
100
AcDb2dVertex
 10
-26.02063394531776
 20
207.2781317298645
 30
0.0
  0
SEQEND
  5
50D
330
50A
100
AcDbEntity
  8
BEMAßUNG
  0
POLYLINE
  5
50E
330
1F
100
AcDbEntity
  8
BEMAßUNG
 62
     7
100
AcDb2dPolyline
 66
     1
 10
0.0
 20
0.0
 30
0.0
  0
VERTEX
  5
50F
330
50E
100
AcDbEntity
  8
BEMAßUNG
 62
     7
100
AcDbVertex
100
AcDb2dVertex
 10
-25.99186739801592
 20
207.2643513479235
 30
0.0
  0
VERTEX
  5
510
330
50E
100
AcDbEntity
  8
BEMAßUNG
 62
     7
100
AcDbVertex
100
AcDb2dVertex
 10
-26.00203042969741
 20
207.4913831404015
 30
0.0
  0
SEQEND
  5
511
330
50E
100
AcDbEntity
  8
BEMAßUNG
  0
POLYLINE
  5
512
330
1F
100
AcDbEntity
  8
BEMAßUNG
 62
     7
100
AcDb2dPolyline
 66
     1
 10
0.0
 20
0.0
 30
0.0
  0
VERTEX
  5
513
330
512
100
AcDbEntity
  8
BEMAßUNG
 62
     7
100
AcDbVertex
100
AcDb2dVertex
 10
-25.9639621245854
 20
207.2657293861176
 30
0.0
  0
VERTEX
  5
514
330
512
100
AcDbEntity
  8
BEMAßUNG
 62
     7
100
AcDbVertex
100
AcDb2dVertex
 10
-25.98342691407706
 20
207.7046345509384
 30
0.0
  0
SEQEND
  5
515
330
512
100
AcDbEntity
  8
BEMAßUNG
  0
POLYLINE
  5
516
330
1F
100
AcDbEntity
  8
BEMAßUNG
 62
     7
100
AcDb2dPolyline
 66
     1
 10
0.0
 20
0.0
 30
0.0
  0
VERTEX
  5
517
330
516
100
AcDbEntity
  8
BEMAßUNG
 62
     7
100
AcDbVertex
100
AcDb2dVertex
 10
-25.9364013607034
 20
207.2669351695374
 30
0.0
  0
VERTEX
  5
518
330
516
100
AcDbEntity
  8
BEMAßUNG
 62
     7
100
AcDbVertex
100
AcDb2dVertex
 10
-25.96447888890819
 20
207.9180582162496
 30
0.0
  0
SEQEND
  5
519
330
516
100
AcDbEntity
  8
BEMAßUNG
  0
POLYLINE
  5
51A
330
1F
100
AcDbEntity
  8
BEMAßUNG
 62
     7
100
AcDb2dPolyline
 66
     1
 10
0.0
 20
0.0
 30
0.0
  0
VERTEX
  5
51B
330
51A
100
AcDbEntity
  8
BEMAßUNG
 62
     7
100
AcDbVertex
100
AcDb2dVertex
 10
-25.90849608727288
 20
207.267968698183
 30
0.0
  0
VERTEX
  5
51C
330
51A
100
AcDbEntity
  8
BEMAßUNG
 62
     7
100
AcDbVertex
100
AcDb2dVertex
 10
-25.94570311851357
 20
208.1313096267866
 30
0.0
  0
SEQEND
  5
51D
330
51A
100
AcDbEntity
  8
BEMAßUNG
  0
POLYLINE
  5
51E
330
1F
100
AcDbEntity
  8
BEMAßUNG
 62
     7
100
AcDb2dPolyline
 66
     1
 10
0.0
 20
0.0
 30
0.0
  0
VERTEX
  5
51F
330
51E
100
AcDbEntity
  8
BEMAßUNG
 62
     7
100
AcDbVertex
100
AcDb2dVertex
 10
-25.88059081384235
 20
207.2695189911514
 30
0.0
  0
VERTEX
  5
520
330
51E
100
AcDbEntity
  8
BEMAßUNG
 62
     7
100
AcDbVertex
100
AcDb2dVertex
 10
-25.92709960289323
 20
208.3443887825493
 30
0.0
  0
SEQEND
  5
521
330
51E
100
AcDbEntity
  8
BEMAßUNG
  0
POLYLINE
  5
522
330
1F
100
AcDbEntity
  8
BEMAßUNG
 62
     7
100
AcDb2dPolyline
 66
     1
 10
0.0
 20
0.0
 30
0.0
  0
VERTEX
  5
523
330
522
100
AcDbEntity
  8
BEMAßUNG
 62
     7
100
AcDbVertex
100
AcDb2dVertex
 10
-25.85251328563757
 20
207.270552519797
 30
0.0
  0
VERTEX
  5
524
330
522
100
AcDbEntity
  8
BEMAßUNG
 62
     7
100
AcDbVertex
100
AcDb2dVertex
 10
-25.90849608727288
 20
208.5578124478606
 30
0.0
  0
SEQEND
  5
525
330
522
100
AcDbEntity
  8
BEMAßUNG
  0
POLYLINE
  5
526
330
1F
100
AcDbEntity
  8
BEMAßUNG
 62
     7
100
AcDb2dPolyline
 66
     1
 10
0.0
 20
0.0
 30
0.0
  0
VERTEX
  5
527
330
526
100
AcDbEntity
  8
BEMAßUNG
 62
     7
100
AcDbVertex
100
AcDb2dVertex
 10
-25.82460801220704
 20
207.2715860484425
 30
0.0
  0
VERTEX
  5
528
330
526
100
AcDbEntity
  8
BEMAßUNG
 62
     7
100
AcDbVertex
100
AcDb2dVertex
 10
-25.88989257165253
 20
208.7708916036233
 30
0.0
  0
SEQEND
  5
529
330
526
100
AcDbEntity
  8
BEMAßUNG
  0
POLYLINE
  5
52A
330
1F
100
AcDbEntity
  8
BEMAßUNG
 62
     7
100
AcDb2dPolyline
 66
     1
 10
0.0
 20
0.0
 30
0.0
  0
VERTEX
  5
52B
330
52A
100
AcDbEntity
  8
BEMAßUNG
 62
     7
100
AcDbVertex
100
AcDb2dVertex
 10
-25.79653048400226
 20
207.2727918318624
 30
0.0
  0
VERTEX
  5
52C
330
52A
100
AcDbEntity
  8
BEMAßUNG
 62
     7
100
AcDbVertex
100
AcDb2dVertex
 10
-25.87128905603218
 20
208.9843152689345
 30
0.0
  0
SEQEND
  5
52D
330
52A
100
AcDbEntity
  8
BEMAßUNG
  0
POLYLINE
  5
52E
330
1F
100
AcDbEntity
  8
BEMAßUNG
 62
     7
100
AcDb2dPolyline
 66
     1
 10
0.0
 20
0.0
 30
0.0
  0
VERTEX
  5
52F
330
52E
100
AcDbEntity
  8
BEMAßUNG
 62
     7
100
AcDbVertex
100
AcDb2dVertex
 10
-25.768797465346
 20
207.2743421248307
 30
0.0
  0
VERTEX
  5
530
330
52E
100
AcDbEntity
  8
BEMAßUNG
 62
     7
100
AcDbVertex
100
AcDb2dVertex
 10
-25.8523410308633
 20
209.1975666794715
 30
0.0
  0
SEQEND
  5
531
330
52E
100
AcDbEntity
  8
BEMAßUNG
  0
POLYLINE
  5
532
330
1F
100
AcDbEntity
  8
BEMAßUNG
 62
     7
100
AcDb2dPolyline
 66
     1
 10
0.0
 20
0.0
 30
0.0
  0
VERTEX
  5
533
330
532
100
AcDbEntity
  8
BEMAßUNG
 62
     7
100
AcDbVertex
100
AcDb2dVertex
 10
-25.51765000447128
 20
207.285021920835
 30
0.0
  0
VERTEX
  5
534
330
532
100
AcDbEntity
  8
BEMAßUNG
 62
     7
100
AcDbVertex
100
AcDb2dVertex
 10
-25.51799451401981
 20
207.3001803409701
 30
0.0
  0
SEQEND
  5
535
330
532
100
AcDbEntity
  8
BEMAßUNG
  0
POLYLINE
  5
536
330
1F
100
AcDbEntity
  8
BEMAßUNG
 62
     7
100
AcDb2dPolyline
 66
     1
 10
0.0
 20
0.0
 30
0.0
  0
VERTEX
  5
537
330
536
100
AcDbEntity
  8
BEMAßUNG
 62
     7
100
AcDbVertex
100
AcDb2dVertex
 10
-25.51765000447128
 20
207.285021920835
 30
0.0
  0
VERTEX
  5
538
330
536
100
AcDbEntity
  8
BEMAßUNG
 62
     7
100
AcDbVertex
100
AcDb2dVertex
 10
-25.51799451401981
 20
207.3001803409701
 30
0.0
  0
SEQEND
  5
539
330
536
100
AcDbEntity
  8
BEMAßUNG
  0
POLYLINE
  5
53A
330
1F
100
AcDbEntity
  8
BEMAßUNG
 62
     7
100
AcDb2dPolyline
 66
     1
 10
0.0
 20
0.0
 30
0.0
  0
VERTEX
  5
53B
330
53A
100
AcDbEntity
  8
BEMAßUNG
 62
     7
100
AcDbVertex
100
AcDb2dVertex
 10
-25.54555527790181
 20
207.2839883921894
 30
0.0
  0
VERTEX
  5
53C
330
53A
100
AcDbEntity
  8
BEMAßUNG
 62
     7
100
AcDbVertex
100
AcDb2dVertex
 10
-25.55502929048624
 20
207.5110201846674
 30
0.0
  0
SEQEND
  5
53D
330
53A
100
AcDbEntity
  8
BEMAßUNG
  0
POLYLINE
  5
53E
330
1F
100
AcDbEntity
  8
BEMAßUNG
 62
     7
100
AcDb2dPolyline
 66
     1
 10
0.0
 20
0.0
 30
0.0
  0
VERTEX
  5
53F
330
53E
100
AcDbEntity
  8
BEMAßUNG
 62
     7
100
AcDbVertex
100
AcDb2dVertex
 10
-25.57346055133233
 20
207.2826103539953
 30
0.0
  0
VERTEX
  5
540
330
53E
100
AcDbEntity
  8
BEMAßUNG
 62
     7
100
AcDbVertex
100
AcDb2dVertex
 10
-25.5924085765012
 20
207.7215155188161
 30
0.0
  0
SEQEND
  5
541
330
53E
100
AcDbEntity
  8
BEMAßUNG
  0
POLYLINE
  5
542
330
1F
100
AcDbEntity
  8
BEMAßUNG
 62
     7
100
AcDb2dPolyline
 66
     1
 10
0.0
 20
0.0
 30
0.0
  0
VERTEX
  5
543
330
542
100
AcDbEntity
  8
BEMAßUNG
 62
     7
100
AcDbVertex
100
AcDb2dVertex
 10
-25.60136582476285
 20
207.2815768253498
 30
0.0
  0
VERTEX
  5
544
330
542
100
AcDbEntity
  8
BEMAßUNG
 62
     7
100
AcDbVertex
100
AcDb2dVertex
 10
-25.62944335296764
 20
207.932699872062
 30
0.0
  0
SEQEND
  5
545
330
542
100
AcDbEntity
  8
BEMAßUNG
  0
POLYLINE
  5
546
330
1F
100
AcDbEntity
  8
BEMAßUNG
 62
     7
100
AcDb2dPolyline
 66
     1
 10
0.0
 20
0.0
 30
0.0
  0
VERTEX
  5
547
330
546
100
AcDbEntity
  8
BEMAßUNG
 62
     7
100
AcDbVertex
100
AcDb2dVertex
 10
-25.62909884341911
 20
207.2801987871557
 30
0.0
  0
VERTEX
  5
548
330
546
100
AcDbEntity
  8
BEMAßUNG
 62
     7
100
AcDbVertex
100
AcDb2dVertex
 10
-25.66665038420834
 20
208.1431952062107
 30
0.0
  0
SEQEND
  5
549
330
546
100
AcDbEntity
  8
BEMAßUNG
  0
POLYLINE
  5
54A
330
1F
100
AcDbEntity
  8
BEMAßUNG
 62
     7
100
AcDb2dPolyline
 66
     1
 10
0.0
 20
0.0
 30
0.0
  0
VERTEX
  5
54B
330
54A
100
AcDbEntity
  8
BEMAßUNG
 62
     7
100
AcDbVertex
100
AcDb2dVertex
 10
-25.65700411684964
 20
207.2789930037358
 30
0.0
  0
VERTEX
  5
54C
330
54A
100
AcDbEntity
  8
BEMAßUNG
 62
     7
100
AcDbVertex
100
AcDb2dVertex
 10
-25.7040296702233
 20
208.3543795594566
 30
0.0
  0
SEQEND
  5
54D
330
54A
100
AcDbEntity
  8
BEMAßUNG
  0
POLYLINE
  5
54E
330
1F
100
AcDbEntity
  8
BEMAßUNG
 62
     7
100
AcDb2dPolyline
 66
     1
 10
0.0
 20
0.0
 30
0.0
  0
VERTEX
  5
54F
330
54E
100
AcDbEntity
  8
BEMAßUNG
 62
     7
100
AcDbVertex
100
AcDb2dVertex
 10
-25.68490939028016
 20
207.277787220316
 30
0.0
  0
VERTEX
  5
550
330
54E
100
AcDbEntity
  8
BEMAßUNG
 62
     7
100
AcDbVertex
100
AcDb2dVertex
 10
-25.74106444668973
 20
208.5648748936053
 30
0.0
  0
SEQEND
  5
551
330
54E
100
AcDbEntity
  8
BEMAßUNG
  0
POLYLINE
  5
552
330
1F
100
AcDbEntity
  8
BEMAßUNG
 62
     7
100
AcDb2dPolyline
 66
     1
 10
0.0
 20
0.0
 30
0.0
  0
VERTEX
  5
553
330
552
100
AcDbEntity
  8
BEMAßUNG
 62
     7
100
AcDbVertex
100
AcDb2dVertex
 10
-25.71315917325921
 20
207.2764091821219
 30
0.0
  0
VERTEX
  5
554
330
552
100
AcDbEntity
  8
BEMAßUNG
 62
     7
100
AcDbVertex
100
AcDb2dVertex
 10
-25.77809922315617
 20
208.7760592468511
 30
0.0
  0
SEQEND
  5
555
330
552
100
AcDbEntity
  8
BEMAßUNG
  0
POLYLINE
  5
556
330
1F
100
AcDbEntity
  8
BEMAßUNG
 62
     7
100
AcDb2dPolyline
 66
     1
 10
0.0
 20
0.0
 30
0.0
  0
VERTEX
  5
557
330
556
100
AcDbEntity
  8
BEMAßUNG
 62
     7
100
AcDbVertex
100
AcDb2dVertex
 10
-25.74089219191547
 20
207.2753756534763
 30
0.0
  0
VERTEX
  5
558
330
556
100
AcDbEntity
  8
BEMAßUNG
 62
     7
100
AcDbVertex
100
AcDb2dVertex
 10
-25.81513399962261
 20
208.9865545809999
 30
0.0
  0
SEQEND
  5
559
330
556
100
AcDbEntity
  8
BEMAßUNG
  0
POLYLINE
  5
55A
330
1F
100
AcDbEntity
  8
BEMAßUNG
 62
     7
100
AcDb2dPolyline
 66
     1
 10
0.0
 20
0.0
 30
0.0
  0
VERTEX
  5
55B
330
55A
100
AcDbEntity
  8
BEMAßUNG
 62
     7
100
AcDbVertex
100
AcDb2dVertex
 10
-25.768797465346
 20
207.2743421248307
 30
0.0
  0
VERTEX
  5
55C
330
55A
100
AcDbEntity
  8
BEMAßUNG
 62
     7
100
AcDbVertex
100
AcDb2dVertex
 10
-25.8523410308633
 20
209.1975666794715
 30
0.0
  0
SEQEND
  5
55D
330
55A
100
AcDbEntity
  8
BEMAßUNG
  0
INSERT
  5
560
330
1F
100
AcDbEntity
  8
TEXT
100
AcDbBlockReference
  2
BLOCK_5
 10
0.0
 20
0.0
 30
0.0
  0
INSERT
  5
56A
330
1F
100
AcDbEntity
  8
TEXT
100
AcDbBlockReference
  2
BLOCK_6
 10
0.0
 20
0.0
 30
0.0
  0
INSERT
  5
5A7
330
1F
100
AcDbEntity
  8
TEXT
100
AcDbBlockReference
  2
BLOCK_7
 10
0.0
 20
0.0
 30
0.0
  0
ENDSEC
  0
SECTION
  2
OBJECTS
  0
DICTIONARY
  5
C
330
0
100
AcDbDictionary
  3
ACAD_GROUP
350
D
  3
ACAD_LAYOUT
350
1A
  3
ACAD_MLINESTYLE
350
17
  3
ACAD_PLOTSETTINGS
350
19
  3
ACAD_TABLESTYLE
350
5D2
  3
ACAD_VISUALSTYLE
350
2A
  3
ACDBHEADERROUNDTRIPXREC
350
5B2
  0
DICTIONARY
  5
D
102
{ACAD_REACTORS
330
C
102
}
330
C
100
AcDbDictionary
  0
DICTIONARY
  5
1A
102
{ACAD_REACTORS
330
C
102
}
330
C
100
AcDbDictionary
  0
DICTIONARY
  5
17
102
{ACAD_REACTORS
330
C
102
}
330
C
100
AcDbDictionary
  3
STANDARD
350
18
  0
DICTIONARY
  5
19
102
{ACAD_REACTORS
330
C
102
}
330
C
100
AcDbDictionary
  0
DICTIONARY
  5
5D2
102
{ACAD_REACTORS
330
C
102
}
330
C
100
AcDbDictionary
  0
DICTIONARY
  5
2A
102
{ACAD_REACTORS
330
C
102
}
330
C
100
AcDbDictionary
  3
2DWIREFRAME
350
2F
  3
3D_HIDDEN
350
31
  3
3DWIREFRAME
350
30
  3
BASIC
350
32
  3
BRIGHTEN
350
36
  3
COLORCHANGE
350
3A
  3
CONCEPTUAL
350
34
  3
DIM
350
35
  3
FACEPATTERN
350
39
  3
FLAT
350
2B
  3
FLATWITHEDGES
350
2C
  3
GOURAUD
350
2D
  3
GOURAUDWITHEDGES
350
2E
  3
LINEPATTERN
350
38
  3
REALISTIC
350
33
  3
THICKEN
350
37
  0
DICTIONARY
  5
5B2
102
{ACAD_REACTORS
330
C
102
}
330
C
100
AcDbDictionary
  3
CEPSNTYPE
350
5BB
  3
DIMSTYLEDATA
350
5D1
  3
FINGERPRINTGUID
350
5BC
  3
HYPERLINKBASE
350
5B5
  3
INSUNITS
350
5BA
  3
LAYOUTDICT
350
5B7
  3
LWETCUNION
350
5B9
  3
PLOTSETDICT
350
5B8
  3
PSVPSCALE
350
5BE
  3
PUCSBASE
350
5C1
  3
PUCSORGBACK
350
5C7
  3
PUCSORGBOTTOM
350
5C3
  3
PUCSORGFRONT
350
5C6
  3
PUCSORGLEFT
350
5C4
  3
PUCSORGRIGHT
350
5C5
  3
PUCSORGTOP
350
5C2
  3
PUCSORTHOREF
350
5BF
  3
PUCSORTHOVIEW
350
5C0
  3
STYLESHEET
350
5B6
  3
TSTACKALIGN
350
5B3
  3
TSTACKSIZE
350
5B4
  3
UCSBASE
350
5CA
  3
UCSORGBACK
350
5D0
  3
UCSORGBOTTOM
350
5CC
  3
UCSORGFRONT
350
5CF
  3
UCSORGLEFT
350
5CD
  3
UCSORGRIGHT
350
5CE
  3
UCSORGTOP
350
5CB
  3
UCSORTHOREF
350
5C8
  3
UCSORTHOVIEW
350
5C9
  3
VERSIONGUID
350
5BD
  0
MLINESTYLE
  5
18
102
{ACAD_REACTORS
330
17
102
}
330
17
100
AcDbMlineStyle
  2
Standard
 70
     0
  3

 62
   256
 51
90.0
 52
90.0
 71
     2
 49
0.5
 62
   256
  6
BYLAYER
 49
-0.5
 62
   256
  6
BYLAYER
  0
VISUALSTYLE
  5
2F
102
{ACAD_REACTORS
330
2A
102
}
330
2A
100
AcDbVisualStyle
  2
2dWireframe
 70
     4
 71
     0
 72
     2
 73
     0
 90
        0
 40
-0.6
 41
-30.0
 62
     5
 63
     7
 74
     1
 91
        4
 64
     7
 65
   257
 75
     1
175
     1
 42
1.0
 92
        0
 66
   257
 43
1.0
 76
     1
 77
     6
 78
     2
 67
     7
 79
     5
170
     0
171
     0
290
     0
174
     0
 93
        1
 44
0.0
173
     0
291
     0
 45
0.0
1001
ACAD
1000
AcDbSavedByObjectVersion
1070
     0
  0
VISUALSTYLE
  5
31
102
{ACAD_REACTORS
330
2A
102
}
330
2A
100
AcDbVisualStyle
  2
3D Hidden
 70
     6
 71
     1
 72
     2
 73
     2
 90
        0
 40
-0.6
 41
-30.0
 62
     5
 63
     7
 74
     2
 91
        2
 64
     7
 65
   257
 75
     2
175
     1
 42
40.0
 92
        0
 66
   257
 43
1.0
 76
     1
 77
     6
 78
     2
 67
     7
 79
     3
170
     0
171
     0
290
     0
174
     0
 93
        1
 44
0.0
173
     0
291
     0
 45
0.0
1001
ACAD
1000
AcDbSavedByObjectVersion
1070
     0
  0
VISUALSTYLE
  5
30
102
{ACAD_REACTORS
330
2A
102
}
330
2A
100
AcDbVisualStyle
  2
3dWireframe
 70
     5
 71
     0
 72
     2
 73
     0
 90
        0
 40
-0.6
 41
-30.0
 62
     5
 63
     7
 74
     1
 91
        4
 64
     7
 65
   257
 75
     1
175
     1
 42
1.0
 92
        0
 66
   257
 43
1.0
 76
     1
 77
     6
 78
     2
 67
     7
 79
     5
170
     0
171
     0
290
     0
174
     0
 93
        1
 44
0.0
173
     0
291
     0
 45
0.0
1001
ACAD
1000
AcDbSavedByObjectVersion
1070
     0
  0
VISUALSTYLE
  5
32
102
{ACAD_REACTORS
330
2A
102
}
330
2A
100
AcDbVisualStyle
  2
Basic
 70
     7
 71
     1
 72
     0
 73
     1
 90
        0
 40
-0.6
 41
-30.0
 62
     5
 63
     7
 74
     0
 91
        4
 64
     7
 65
   257
 75
     1
175
     1
 42
1.0
 92
        8
 66
     7
 43
1.0
 76
     1
 77
     6
 78
     2
 67
     7
 79
     5
170
     0
171
     0
290
     0
174
     0
 93
        1
 44
0.0
173
     0
291
     1
 45
0.0
1001
ACAD
1000
AcDbSavedByObjectVersion
1070
     0
  0
VISUALSTYLE
  5
36
102
{ACAD_REACTORS
330
2A
102
}
330
2A
100
AcDbVisualStyle
  2
Brighten
 70
    12
 71
     2
 72
     2
 73
     0
 90
        0
 40
-0.6
 41
-30.0
 62
     5
 63
     7
 74
     1
 91
        4
 64
     7
 65
   257
 75
     1
175
     1
 42
1.0
 92
        8
 66
     7
 43
1.0
 76
     1
 77
     6
 78
     2
 67
     7
 79
     5
170
     0
171
     0
290
     0
174
     0
 93
        1
 44
50.0
173
     0
291
     1
 45
0.0
1001
ACAD
1000
AcDbSavedByObjectVersion
1070
     0
  0
VISUALSTYLE
  5
3A
102
{ACAD_REACTORS
330
2A
102
}
330
2A
100
AcDbVisualStyle
  2
ColorChange
 70
    16
 71
     2
 72
     2
 73
     3
 90
        0
 40
-0.6
 41
-30.0
 62
     5
 63
     8
 74
     1
 91
        4
 64
     7
 65
   257
 75
     1
175
     1
 42
1.0
 92
        8
 66
     8
 43
1.0
 76
     1
 77
     6
 78
     2
 67
     7
 79
     5
170
     0
171
     0
290
     0
174
     0
 93
        1
 44
0.0
173
     0
291
     1
 45
0.0
1001
ACAD
1000
AcDbSavedByObjectVersion
1070
     0
  0
VISUALSTYLE
  5
34
102
{ACAD_REACTORS
330
2A
102
}
330
2A
100
AcDbVisualStyle
  2
Conceptual
 70
     9
 71
     3
 72
     2
 73
     0
 90
        0
 40
-0.6
 41
-30.0
 62
     5
 63
     7
 74
     2
 91
        2
 64
     7
 65
   257
 75
     1
175
     1
 42
40.0
 92
        8
 66
     7
 43
1.0
 76
     1
 77
     6
 78
     2
 67
     7
 79
     3
170
     0
171
     0
290
     0
174
     0
 93
        1
 44
0.0
173
     0
291
     0
 45
0.0
1001
ACAD
1000
AcDbSavedByObjectVersion
1070
     0
  0
VISUALSTYLE
  5
35
102
{ACAD_REACTORS
330
2A
102
}
330
2A
100
AcDbVisualStyle
  2
Dim
 70
    11
 71
     2
 72
     2
 73
     0
 90
        0
 40
-0.6
 41
-30.0
 62
     5
 63
     7
 74
     1
 91
        4
 64
     7
 65
   257
 75
     1
175
     1
 42
1.0
 92
        8
 66
     7
 43
1.0
 76
     1
 77
     6
 78
     2
 67
     7
 79
     5
170
     0
171
     0
290
     0
174
     0
 93
        1
 44
-50.0
173
     0
291
     1
 45
0.0
1001
ACAD
1000
AcDbSavedByObjectVersion
1070
     0
  0
VISUALSTYLE
  5
39
102
{ACAD_REACTORS
330
2A
102
}
330
2A
100
AcDbVisualStyle
  2
Facepattern
 70
    15
 71
     2
 72
     2
 73
     0
 90
        0
 40
-0.6
 41
-30.0
 62
     5
 63
     7
 74
     1
 91
        4
 64
     7
 65
   257
 75
     1
175
     1
 42
1.0
 92
        8
 66
     7
 43
1.0
 76
     1
 77
     6
 78
     2
 67
     7
 79
     5
170
     0
171
     0
290
     0
174
     0
 93
        1
 44
0.0
173
     0
291
     1
 45
0.0
1001
ACAD
1000
AcDbSavedByObjectVersion
1070
     0
  0
VISUALSTYLE
  5
2B
102
{ACAD_REACTORS
330
2A
102
}
330
2A
100
AcDbVisualStyle
  2
Flat
 70
     0
 71
     2
 72
     1
 73
     1
 90
        2
 40
-0.6
 41
30.0
 62
     5
 63
     7
 74
     0
 91
        4
 64
     7
 65
   257
 75
     1
175
     1
 42
1.0
 92
        8
 66
     7
 43
1.0
 76
     1
 77
     6
 78
     2
 67
     7
 79
     5
170
     0
171
     0
290
     0
174
     0
 93
       13
 44
0.0
173
     0
291
     1
 45
0.0
1001
ACAD
1000
AcDbSavedByObjectVersion
1070
     0
  0
VISUALSTYLE
  5
2C
102
{ACAD_REACTORS
330
2A
102
}
330
2A
100
AcDbVisualStyle
  2
FlatWithEdges
 70
     1
 71
     2
 72
     1
 73
     1
 90
        2
 40
-0.6
 41
30.0
 62
     5
 63
     7
 74
     1
 91
        4
 64
     7
 65
   257
 75
     1
175
     1
 42
1.0
 92
        0
 66
   257
 43
1.0
 76
     1
 77
     6
 78
     2
 67
     7
 79
     5
170
     0
171
     0
290
     0
174
     0
 93
       13
 44
0.0
173
     0
291
     1
 45
0.0
1001
ACAD
1000
AcDbSavedByObjectVersion
1070
     0
  0
VISUALSTYLE
  5
2D
102
{ACAD_REACTORS
330
2A
102
}
330
2A
100
AcDbVisualStyle
  2
Gouraud
 70
     2
 71
     2
 72
     2
 73
     1
 90
        2
 40
-0.6
 41
30.0
 62
     5
 63
     7
 74
     0
 91
        4
 64
     7
 65
   257
 75
     1
175
     1
 42
1.0
 92
        0
 66
     7
 43
1.0
 76
     1
 77
     6
 78
     2
 67
     7
 79
     5
170
     0
171
     0
290
     0
174
     0
 93
       13
 44
0.0
173
     0
291
     1
 45
0.0
1001
ACAD
1000
AcDbSavedByObjectVersion
1070
     0
  0
VISUALSTYLE
  5
2E
102
{ACAD_REACTORS
330
2A
102
}
330
2A
100
AcDbVisualStyle
  2
GouraudWithEdges
 70
     3
 71
     2
 72
     2
 73
     1
 90
        2
 40
-0.6
 41
30.0
 62
     5
 63
     7
 74
     1
 91
        4
 64
     7
 65
   257
 75
     1
175
     1
 42
1.0
 92
        0
 66
   257
 43
1.0
 76
     1
 77
     6
 78
     2
 67
     7
 79
     5
170
     0
171
     0
290
     0
174
     0
 93
       13
 44
0.0
173
     0
291
     1
 45
0.0
1001
ACAD
1000
AcDbSavedByObjectVersion
1070
     0
  0
VISUALSTYLE
  5
38
102
{ACAD_REACTORS
330
2A
102
}
330
2A
100
AcDbVisualStyle
  2
Linepattern
 70
    14
 71
     2
 72
     2
 73
     0
 90
        0
 40
-0.6
 41
-30.0
 62
     5
 63
     7
 74
     1
 91
        4
 64
     7
 65
   257
 75
     7
175
     7
 42
1.0
 92
        8
 66
     7
 43
1.0
 76
     1
 77
     6
 78
     2
 67
     7
 79
     5
170
     0
171
     0
290
     0
174
     0
 93
        1
 44
0.0
173
     0
291
     1
 45
0.0
1001
ACAD
1000
AcDbSavedByObjectVersion
1070
     0
  0
VISUALSTYLE
  5
33
102
{ACAD_REACTORS
330
2A
102
}
330
2A
100
AcDbVisualStyle
  2
Realistic
 70
     8
 71
     2
 72
     2
 73
     0
 90
        0
 40
-0.6
 41
-30.0
 62
     5
 63
     7
 74
     1
 91
        0
 64
     7
 65
   257
 75
     1
175
     1
 42
1.0
 92
        8
 66
     8
 43
1.0
 76
     1
 77
     6
 78
     2
 67
     7
 79
     5
170
     0
171
     0
290
     0
174
     0
 93
       13
 44
0.0
173
     0
291
     0
 45
0.0
1001
ACAD
1000
AcDbSavedByObjectVersion
1070
     0
  0
VISUALSTYLE
  5
37
102
{ACAD_REACTORS
330
2A
102
}
330
2A
100
AcDbVisualStyle
  2
Thicken
 70
    13
 71
     2
 72
     2
 73
     0
 90
        0
 40
-0.6
 41
-30.0
 62
     5
 63
     7
 74
     1
 91
        4
 64
     7
 65
   257
 75
     1
175
     1
 42
1.0
 92
       12
 66
     7
 43
1.0
 76
     1
 77
     6
 78
     2
 67
     7
 79
     5
170
     0
171
     0
290
     0
174
     0
 93
        1
 44
0.0
173
     0
291
     1
 45
0.0
1001
ACAD
1000
AcDbSavedByObjectVersion
1070
     0
  0
XRECORD
  5
5BB
102
{ACAD_REACTORS
330
5B2
102
}
330
5B2
100
AcDbXrecord
 90
        0
  0
XRECORD
  5
5D1
102
{ACAD_REACTORS
330
5B2
102
}
330
5B2
100
AcDbXrecord
1000
DSTYLE
1002
{
1070
   340
340
11
1002
}
  0
XRECORD
  5
5BC
102
{ACAD_REACTORS
330
5B2
102
}
330
5B2
100
AcDbXrecord
  1
{4AB6BC3E-6142-43A6-A357-6F651882B91A}
  0
XRECORD
  5
5B5
102
{ACAD_REACTORS
330
5B2
102
}
330
5B2
100
AcDbXrecord
  1

  0
XRECORD
  5
5BA
102
{ACAD_REACTORS
330
5B2
102
}
330
5B2
100
AcDbXrecord
 90
        1
  0
XRECORD
  5
5B7
102
{ACAD_REACTORS
330
5B2
102
}
330
5B2
100
AcDbXrecord
340
1A
  0
XRECORD
  5
5B9
102
{ACAD_REACTORS
330
5B2
102
}
330
5B2
100
AcDbXrecord
 90
    10269
  0
XRECORD
  5
5B8
102
{ACAD_REACTORS
330
5B2
102
}
330
5B2
100
AcDbXrecord
340
19
  0
XRECORD
  5
5BE
102
{ACAD_REACTORS
330
5B2
102
}
330
5B2
100
AcDbXrecord
 40
0.0
  0
XRECORD
  5
5C1
102
{ACAD_REACTORS
330
5B2
102
}
330
5B2
100
AcDbXrecord
340
0
  0
XRECORD
  5
5C7
102
{ACAD_REACTORS
330
5B2
102
}
330
5B2
100
AcDbXrecord
 10
0.0
 20
0.0
 30
0.0
  0
XRECORD
  5
5C3
102
{ACAD_REACTORS
330
5B2
102
}
330
5B2
100
AcDbXrecord
 10
0.0
 20
0.0
 30
0.0
  0
XRECORD
  5
5C6
102
{ACAD_REACTORS
330
5B2
102
}
330
5B2
100
AcDbXrecord
 10
0.0
 20
0.0
 30
0.0
  0
XRECORD
  5
5C4
102
{ACAD_REACTORS
330
5B2
102
}
330
5B2
100
AcDbXrecord
 10
0.0
 20
0.0
 30
0.0
  0
XRECORD
  5
5C5
102
{ACAD_REACTORS
330
5B2
102
}
330
5B2
100
AcDbXrecord
 10
0.0
 20
0.0
 30
0.0
  0
XRECORD
  5
5C2
102
{ACAD_REACTORS
330
5B2
102
}
330
5B2
100
AcDbXrecord
 10
0.0
 20
0.0
 30
0.0
  0
XRECORD
  5
5BF
102
{ACAD_REACTORS
330
5B2
102
}
330
5B2
100
AcDbXrecord
340
0
  0
XRECORD
  5
5C0
102
{ACAD_REACTORS
330
5B2
102
}
330
5B2
100
AcDbXrecord
 70
     0
  0
XRECORD
  5
5B6
102
{ACAD_REACTORS
330
5B2
102
}
330
5B2
100
AcDbXrecord
  1

  0
XRECORD
  5
5B3
102
{ACAD_REACTORS
330
5B2
102
}
330
5B2
100
AcDbXrecord
 90
        1
  0
XRECORD
  5
5B4
102
{ACAD_REACTORS
330
5B2
102
}
330
5B2
100
AcDbXrecord
 90
       70
  0
XRECORD
  5
5CA
102
{ACAD_REACTORS
330
5B2
102
}
330
5B2
100
AcDbXrecord
340
0
  0
XRECORD
  5
5D0
102
{ACAD_REACTORS
330
5B2
102
}
330
5B2
100
AcDbXrecord
 10
0.0
 20
0.0
 30
0.0
  0
XRECORD
  5
5CC
102
{ACAD_REACTORS
330
5B2
102
}
330
5B2
100
AcDbXrecord
 10
0.0
 20
0.0
 30
0.0
  0
XRECORD
  5
5CF
102
{ACAD_REACTORS
330
5B2
102
}
330
5B2
100
AcDbXrecord
 10
0.0
 20
0.0
 30
0.0
  0
XRECORD
  5
5CD
102
{ACAD_REACTORS
330
5B2
102
}
330
5B2
100
AcDbXrecord
 10
0.0
 20
0.0
 30
0.0
  0
XRECORD
  5
5CE
102
{ACAD_REACTORS
330
5B2
102
}
330
5B2
100
AcDbXrecord
 10
0.0
 20
0.0
 30
0.0
  0
XRECORD
  5
5CB
102
{ACAD_REACTORS
330
5B2
102
}
330
5B2
100
AcDbXrecord
 10
0.0
 20
0.0
 30
0.0
  0
XRECORD
  5
5C8
102
{ACAD_REACTORS
330
5B2
102
}
330
5B2
100
AcDbXrecord
340
0
  0
XRECORD
  5
5C9
102
{ACAD_REACTORS
330
5B2
102
}
330
5B2
100
AcDbXrecord
 70
     0
  0
XRECORD
  5
5BD
102
{ACAD_REACTORS
330
5B2
102
}
330
5B2
100
AcDbXrecord
  1
{FAEB1C32-E019-11D5-929B-00C0DF256EC4}
  0
ENDSEC
  0
EOF
