ISO-10303-21;
HEADER;
/* Generated by software containing ST-Developer
 * from STEP Tools, Inc. (www.steptools.com) 
 */
/* OPTION: using custom schema-name function */

FILE_DESCRIPTION(
/* description */ (''),
/* implementation_level */ '2;1');

FILE_NAME(
/* name */ 'W9990213_stp.stp',
/* time_stamp */ '2017-05-09T13:37:20+02:00',
/* author */ (''),
/* organization */ (''),
/* preprocessor_version */ 'ST-DEVELOPER v15',
/* originating_system */ 'SIEMENS PLM Software NX 9.0',
/* authorisation */ '');

FILE_SCHEMA (('AUTOMOTIVE_DESIGN { 1 0 10303 214 3 1 1 1 }'));
ENDSEC;

DATA;
#10=PROPERTY_DEFINITION_REPRESENTATION(#14,#12);
#11=PROPERTY_DEFINITION_REPRESENTATION(#15,#13);
#12=REPRESENTATION('',(#16),#569);
#13=REPRESENTATION('',(#17),#569);
#14=PROPERTY_DEFINITION('pmi validation property','',#21);
#15=PROPERTY_DEFINITION('pmi validation property','',#21);
#16=VALUE_REPRESENTATION_ITEM('number of annotations',COUNT_MEASURE(0.));
#17=VALUE_REPRESENTATION_ITEM('number of views',COUNT_MEASURE(0.));
#18=SHAPE_REPRESENTATION_RELATIONSHIP('None',
'relationship between reic119C905Eo6cp-None and reic119C905Eo6cp-None',
#30,#19);
#19=ADVANCED_BREP_SHAPE_REPRESENTATION('reic119C905Eo6cp-None',(#48),#569);
#20=SHAPE_DEFINITION_REPRESENTATION(#21,#30);
#21=PRODUCT_DEFINITION_SHAPE('','',#22);
#22=PRODUCT_DEFINITION(' ','',#24,#23);
#23=PRODUCT_DEFINITION_CONTEXT('part definition',#29,'design');
#24=PRODUCT_DEFINITION_FORMATION_WITH_SPECIFIED_SOURCE(' ',' ',#26,
 .NOT_KNOWN.);
#25=PRODUCT_RELATED_PRODUCT_CATEGORY('part','',(#26));
#26=PRODUCT('reic119C905Eo6cp','reic119C905Eo6cp',' ',(#27));
#27=PRODUCT_CONTEXT(' ',#29,'mechanical');
#28=APPLICATION_PROTOCOL_DEFINITION('international standard',
'automotive_design',2010,#29);
#29=APPLICATION_CONTEXT(
'core data for automotive mechanical design processes');
#30=SHAPE_REPRESENTATION('reic119C905Eo6cp-None',(#272),#569);
#31=OVER_RIDING_STYLED_ITEM('',(#36),#109,#34);
#32=DRAUGHTING_PRE_DEFINED_COLOUR('yellow');
#33=PRESENTATION_LAYER_ASSIGNMENT('210','Layer 210',(#48));
#34=STYLED_ITEM('',(#35),#48);
#35=PRESENTATION_STYLE_ASSIGNMENT((#37));
#36=PRESENTATION_STYLE_ASSIGNMENT((#38));
#37=SURFACE_STYLE_USAGE(.BOTH.,#39);
#38=SURFACE_STYLE_USAGE(.BOTH.,#40);
#39=SURFACE_SIDE_STYLE('',(#41));
#40=SURFACE_SIDE_STYLE('',(#42));
#41=SURFACE_STYLE_FILL_AREA(#43);
#42=SURFACE_STYLE_FILL_AREA(#44);
#43=FILL_AREA_STYLE('',(#45));
#44=FILL_AREA_STYLE('',(#46));
#45=FILL_AREA_STYLE_COLOUR('',#47);
#46=FILL_AREA_STYLE_COLOUR('',#32);
#47=COLOUR_RGB('Orange',1.,0.499992370489052,0.);
#48=MANIFOLD_SOLID_BREP('',#49);
#49=CLOSED_SHELL('',(#101,#102,#103,#104,#105,#106,#107,#108,#109,#110,
#111,#112,#113,#114,#115,#116,#117,#118,#119,#120,#121));
#50=B_SPLINE_CURVE_WITH_KNOTS('',3,(#447,#448,#449,#450,#451,#452,#453,
#454,#455,#456,#457,#458,#459,#460,#461,#462,#463,#464,#465,#466,#467,#468,
#469,#470,#471,#472,#473,#474,#475,#476,#477,#478,#479,#480,#481,#482,#483,
#484,#485,#486,#487,#488,#489,#490,#491,#492,#493,#494,#495,#496,#497,#498,
#499,#500,#501,#502,#503,#504),.UNSPECIFIED.,.T.,.F.,(1,3,3,3,3,3,3,3,3,
3,3,3,3,3,3,3,3,3,3,3,3,1),(-0.0432452868521307,0.,0.052623173654327,0.105179624366642,
0.158732230263213,0.213012630048764,0.266239974729231,0.318323124408775,
0.370854256215746,0.424755620428426,0.478909120760162,0.531686780265281,
0.583634458566523,0.636559379550171,0.690756157215002,0.744568025169143,
0.796976777045594,0.849116874588291,0.902466677193944,0.956754713147869,
1.,1.05262317365433),.UNSPECIFIED.);
#51=B_SPLINE_CURVE_WITH_KNOTS('',3,(#507,#508,#509,#510,#511,#512,#513,
#514,#515,#516,#517,#518,#519,#520,#521,#522,#523,#524,#525,#526,#527,#528,
#529,#530,#531,#532,#533,#534,#535,#536,#537,#538,#539,#540,#541,#542,#543,
#544,#545,#546,#547,#548,#549,#550,#551,#552,#553,#554,#555,#556,#557,#558,
#559,#560,#561,#562,#563,#564),.UNSPECIFIED.,.T.,.F.,(1,3,3,3,3,3,3,3,3,
3,3,3,3,3,3,3,3,3,3,3,3,1),(-0.0432452868521307,0.,0.0526231736543271,0.105179624366642,
0.158732230263213,0.213012630048764,0.266239974729231,0.318323124408775,
0.370854256215746,0.424755620428426,0.478909120760162,0.531686780265281,
0.583634458566523,0.636559379550171,0.690756157215002,0.744568025169143,
0.796976777045594,0.849116874588291,0.902466677193944,0.956754713147869,
1.,1.05262317365433),.UNSPECIFIED.);
#52=CONICAL_SURFACE('',#280,4.3135099835713,8.00000000000004);
#53=CONICAL_SURFACE('',#288,14.5,45.);
#54=CONICAL_SURFACE('',#292,15.,45.0000000000005);
#55=CONICAL_SURFACE('',#304,4.,45.);
#56=CONICAL_SURFACE('',#306,4.,45.);
#57=CONICAL_SURFACE('',#308,16.5,45.);
#58=CYLINDRICAL_SURFACE('',#276,4.);
#59=CYLINDRICAL_SURFACE('',#284,10.);
#60=CYLINDRICAL_SURFACE('',#290,15.);
#61=CYLINDRICAL_SURFACE('',#296,10.);
#62=CYLINDRICAL_SURFACE('',#309,4.);
#63=CYLINDRICAL_SURFACE('',#310,4.);
#64=CYLINDRICAL_SURFACE('',#311,16.5);
#65=FACE_BOUND('',#135,.T.);
#66=FACE_BOUND('',#136,.T.);
#67=FACE_BOUND('',#137,.T.);
#68=FACE_BOUND('',#138,.T.);
#69=FACE_BOUND('',#139,.T.);
#70=FACE_BOUND('',#140,.T.);
#71=FACE_BOUND('',#141,.T.);
#72=FACE_BOUND('',#142,.T.);
#73=FACE_BOUND('',#143,.T.);
#74=FACE_BOUND('',#144,.T.);
#75=FACE_BOUND('',#145,.T.);
#76=FACE_BOUND('',#146,.T.);
#77=FACE_BOUND('',#147,.T.);
#78=FACE_BOUND('',#148,.T.);
#79=FACE_BOUND('',#149,.T.);
#80=FACE_BOUND('',#150,.T.);
#81=FACE_BOUND('',#151,.T.);
#82=FACE_BOUND('',#152,.T.);
#83=FACE_BOUND('',#154,.T.);
#84=FACE_BOUND('',#155,.T.);
#85=FACE_BOUND('',#158,.T.);
#86=FACE_BOUND('',#159,.T.);
#87=FACE_BOUND('',#160,.T.);
#88=FACE_BOUND('',#161,.T.);
#89=FACE_BOUND('',#162,.T.);
#90=FACE_BOUND('',#163,.T.);
#91=FACE_BOUND('',#164,.T.);
#92=FACE_BOUND('',#165,.T.);
#93=FACE_BOUND('',#166,.T.);
#94=FACE_BOUND('',#167,.T.);
#95=FACE_BOUND('',#168,.T.);
#96=FACE_BOUND('',#169,.T.);
#97=FACE_BOUND('',#170,.T.);
#98=FACE_BOUND('',#171,.T.);
#99=FACE_BOUND('',#172,.T.);
#100=FACE_BOUND('',#173,.T.);
#101=ADVANCED_FACE('',(#130),#122,.T.);
#102=ADVANCED_FACE('',(#65,#66),#58,.T.);
#103=ADVANCED_FACE('',(#67,#68),#123,.T.);
#104=ADVANCED_FACE('',(#69,#70),#52,.T.);
#105=ADVANCED_FACE('',(#71,#72),#124,.T.);
#106=ADVANCED_FACE('',(#73,#74),#59,.T.);
#107=ADVANCED_FACE('',(#75,#76),#125,.T.);
#108=ADVANCED_FACE('',(#77,#78),#53,.T.);
#109=ADVANCED_FACE('',(#79,#80),#60,.T.);
#110=ADVANCED_FACE('',(#81,#82),#54,.T.);
#111=ADVANCED_FACE('',(#131),#126,.T.);
#112=ADVANCED_FACE('',(#83,#84),#61,.F.);
#113=ADVANCED_FACE('',(#132),#127,.T.);
#114=ADVANCED_FACE('',(#133),#128,.T.);
#115=ADVANCED_FACE('',(#85,#86),#129,.T.);
#116=ADVANCED_FACE('',(#87,#88),#55,.T.);
#117=ADVANCED_FACE('',(#89,#90),#56,.T.);
#118=ADVANCED_FACE('',(#91,#92),#57,.T.);
#119=ADVANCED_FACE('',(#93,#94),#62,.T.);
#120=ADVANCED_FACE('',(#95,#96),#63,.T.);
#121=ADVANCED_FACE('',(#97,#98,#99,#100),#64,.T.);
#122=PLANE('',#274);
#123=PLANE('',#278);
#124=PLANE('',#282);
#125=PLANE('',#286);
#126=PLANE('',#294);
#127=PLANE('',#298);
#128=PLANE('',#300);
#129=PLANE('',#302);
#130=FACE_OUTER_BOUND('',#134,.T.);
#131=FACE_OUTER_BOUND('',#153,.T.);
#132=FACE_OUTER_BOUND('',#156,.T.);
#133=FACE_OUTER_BOUND('',#157,.T.);
#134=EDGE_LOOP('',(#174));
#135=EDGE_LOOP('',(#175));
#136=EDGE_LOOP('',(#176));
#137=EDGE_LOOP('',(#177));
#138=EDGE_LOOP('',(#178));
#139=EDGE_LOOP('',(#179));
#140=EDGE_LOOP('',(#180));
#141=EDGE_LOOP('',(#181));
#142=EDGE_LOOP('',(#182));
#143=EDGE_LOOP('',(#183));
#144=EDGE_LOOP('',(#184));
#145=EDGE_LOOP('',(#185));
#146=EDGE_LOOP('',(#186));
#147=EDGE_LOOP('',(#187));
#148=EDGE_LOOP('',(#188));
#149=EDGE_LOOP('',(#189));
#150=EDGE_LOOP('',(#190));
#151=EDGE_LOOP('',(#191));
#152=EDGE_LOOP('',(#192));
#153=EDGE_LOOP('',(#193));
#154=EDGE_LOOP('',(#194));
#155=EDGE_LOOP('',(#195));
#156=EDGE_LOOP('',(#196));
#157=EDGE_LOOP('',(#197));
#158=EDGE_LOOP('',(#198));
#159=EDGE_LOOP('',(#199));
#160=EDGE_LOOP('',(#200));
#161=EDGE_LOOP('',(#201));
#162=EDGE_LOOP('',(#202));
#163=EDGE_LOOP('',(#203));
#164=EDGE_LOOP('',(#204));
#165=EDGE_LOOP('',(#205));
#166=EDGE_LOOP('',(#206));
#167=EDGE_LOOP('',(#207));
#168=EDGE_LOOP('',(#208));
#169=EDGE_LOOP('',(#209));
#170=EDGE_LOOP('',(#210));
#171=EDGE_LOOP('',(#211));
#172=EDGE_LOOP('',(#212));
#173=EDGE_LOOP('',(#213));
#174=ORIENTED_EDGE('',*,*,#234,.T.);
#175=ORIENTED_EDGE('',*,*,#234,.F.);
#176=ORIENTED_EDGE('',*,*,#235,.T.);
#177=ORIENTED_EDGE('',*,*,#235,.F.);
#178=ORIENTED_EDGE('',*,*,#236,.F.);
#179=ORIENTED_EDGE('',*,*,#236,.T.);
#180=ORIENTED_EDGE('',*,*,#237,.F.);
#181=ORIENTED_EDGE('',*,*,#237,.T.);
#182=ORIENTED_EDGE('',*,*,#238,.F.);
#183=ORIENTED_EDGE('',*,*,#238,.T.);
#184=ORIENTED_EDGE('',*,*,#239,.T.);
#185=ORIENTED_EDGE('',*,*,#240,.T.);
#186=ORIENTED_EDGE('',*,*,#239,.F.);
#187=ORIENTED_EDGE('',*,*,#241,.T.);
#188=ORIENTED_EDGE('',*,*,#240,.F.);
#189=ORIENTED_EDGE('',*,*,#242,.T.);
#190=ORIENTED_EDGE('',*,*,#241,.F.);
#191=ORIENTED_EDGE('',*,*,#243,.T.);
#192=ORIENTED_EDGE('',*,*,#242,.F.);
#193=ORIENTED_EDGE('',*,*,#244,.F.);
#194=ORIENTED_EDGE('',*,*,#245,.F.);
#195=ORIENTED_EDGE('',*,*,#244,.T.);
#196=ORIENTED_EDGE('',*,*,#246,.T.);
#197=ORIENTED_EDGE('',*,*,#247,.T.);
#198=ORIENTED_EDGE('',*,*,#248,.F.);
#199=ORIENTED_EDGE('',*,*,#245,.T.);
#200=ORIENTED_EDGE('',*,*,#246,.F.);
#201=ORIENTED_EDGE('',*,*,#249,.F.);
#202=ORIENTED_EDGE('',*,*,#247,.F.);
#203=ORIENTED_EDGE('',*,*,#250,.F.);
#204=ORIENTED_EDGE('',*,*,#248,.T.);
#205=ORIENTED_EDGE('',*,*,#251,.F.);
#206=ORIENTED_EDGE('',*,*,#252,.T.);
#207=ORIENTED_EDGE('',*,*,#249,.T.);
#208=ORIENTED_EDGE('',*,*,#253,.T.);
#209=ORIENTED_EDGE('',*,*,#250,.T.);
#210=ORIENTED_EDGE('',*,*,#253,.F.);
#211=ORIENTED_EDGE('',*,*,#252,.F.);
#212=ORIENTED_EDGE('',*,*,#251,.T.);
#213=ORIENTED_EDGE('',*,*,#243,.F.);
#214=VERTEX_POINT('',#394);
#215=VERTEX_POINT('',#397);
#216=VERTEX_POINT('',#400);
#217=VERTEX_POINT('',#403);
#218=VERTEX_POINT('',#406);
#219=VERTEX_POINT('',#409);
#220=VERTEX_POINT('',#412);
#221=VERTEX_POINT('',#415);
#222=VERTEX_POINT('',#418);
#223=VERTEX_POINT('',#421);
#224=VERTEX_POINT('',#424);
#225=VERTEX_POINT('',#427);
#226=VERTEX_POINT('',#430);
#227=VERTEX_POINT('',#433);
#228=VERTEX_POINT('',#436);
#229=VERTEX_POINT('',#439);
#230=VERTEX_POINT('',#442);
#231=VERTEX_POINT('',#445);
#232=VERTEX_POINT('',#505);
#233=VERTEX_POINT('',#565);
#234=EDGE_CURVE('',#214,#214,#254,.T.);
#235=EDGE_CURVE('',#215,#215,#255,.T.);
#236=EDGE_CURVE('',#216,#216,#256,.T.);
#237=EDGE_CURVE('',#217,#217,#257,.T.);
#238=EDGE_CURVE('',#218,#218,#258,.T.);
#239=EDGE_CURVE('',#219,#219,#259,.T.);
#240=EDGE_CURVE('',#220,#220,#260,.T.);
#241=EDGE_CURVE('',#221,#221,#261,.T.);
#242=EDGE_CURVE('',#222,#222,#262,.T.);
#243=EDGE_CURVE('',#223,#223,#263,.T.);
#244=EDGE_CURVE('',#224,#224,#264,.T.);
#245=EDGE_CURVE('',#225,#225,#265,.T.);
#246=EDGE_CURVE('',#226,#226,#266,.T.);
#247=EDGE_CURVE('',#227,#227,#267,.T.);
#248=EDGE_CURVE('',#228,#228,#268,.T.);
#249=EDGE_CURVE('',#229,#229,#269,.T.);
#250=EDGE_CURVE('',#230,#230,#270,.T.);
#251=EDGE_CURVE('',#231,#231,#271,.T.);
#252=EDGE_CURVE('',#232,#232,#50,.T.);
#253=EDGE_CURVE('',#233,#233,#51,.T.);
#254=CIRCLE('',#273,4.);
#255=CIRCLE('',#275,4.);
#256=CIRCLE('',#277,4.3135099835713);
#257=CIRCLE('',#279,6.);
#258=CIRCLE('',#281,10.);
#259=CIRCLE('',#283,10.);
#260=CIRCLE('',#285,14.5);
#261=CIRCLE('',#287,15.);
#262=CIRCLE('',#289,15.);
#263=CIRCLE('',#291,16.5);
#264=CIRCLE('',#293,10.);
#265=CIRCLE('',#295,10.);
#266=CIRCLE('',#297,3.2331875);
#267=CIRCLE('',#299,3.2331875);
#268=CIRCLE('',#301,15.5);
#269=CIRCLE('',#303,4.);
#270=CIRCLE('',#305,4.);
#271=CIRCLE('',#307,16.5);
#272=AXIS2_PLACEMENT_3D('',#392,#312,#313);
#273=AXIS2_PLACEMENT_3D('',#393,#314,#315);
#274=AXIS2_PLACEMENT_3D('',#395,#316,#317);
#275=AXIS2_PLACEMENT_3D('',#396,#318,#319);
#276=AXIS2_PLACEMENT_3D('',#398,#320,#321);
#277=AXIS2_PLACEMENT_3D('',#399,#322,#323);
#278=AXIS2_PLACEMENT_3D('',#401,#324,#325);
#279=AXIS2_PLACEMENT_3D('',#402,#326,#327);
#280=AXIS2_PLACEMENT_3D('',#404,#328,#329);
#281=AXIS2_PLACEMENT_3D('',#405,#330,#331);
#282=AXIS2_PLACEMENT_3D('',#407,#332,#333);
#283=AXIS2_PLACEMENT_3D('',#408,#334,#335);
#284=AXIS2_PLACEMENT_3D('',#410,#336,#337);
#285=AXIS2_PLACEMENT_3D('',#411,#338,#339);
#286=AXIS2_PLACEMENT_3D('',#413,#340,#341);
#287=AXIS2_PLACEMENT_3D('',#414,#342,#343);
#288=AXIS2_PLACEMENT_3D('',#416,#344,#345);
#289=AXIS2_PLACEMENT_3D('',#417,#346,#347);
#290=AXIS2_PLACEMENT_3D('',#419,#348,#349);
#291=AXIS2_PLACEMENT_3D('',#420,#350,#351);
#292=AXIS2_PLACEMENT_3D('',#422,#352,#353);
#293=AXIS2_PLACEMENT_3D('',#423,#354,#355);
#294=AXIS2_PLACEMENT_3D('',#425,#356,#357);
#295=AXIS2_PLACEMENT_3D('',#426,#358,#359);
#296=AXIS2_PLACEMENT_3D('',#428,#360,#361);
#297=AXIS2_PLACEMENT_3D('',#429,#362,#363);
#298=AXIS2_PLACEMENT_3D('',#431,#364,#365);
#299=AXIS2_PLACEMENT_3D('',#432,#366,#367);
#300=AXIS2_PLACEMENT_3D('',#434,#368,#369);
#301=AXIS2_PLACEMENT_3D('',#435,#370,#371);
#302=AXIS2_PLACEMENT_3D('',#437,#372,#373);
#303=AXIS2_PLACEMENT_3D('',#438,#374,#375);
#304=AXIS2_PLACEMENT_3D('',#440,#376,#377);
#305=AXIS2_PLACEMENT_3D('',#441,#378,#379);
#306=AXIS2_PLACEMENT_3D('',#443,#380,#381);
#307=AXIS2_PLACEMENT_3D('',#444,#382,#383);
#308=AXIS2_PLACEMENT_3D('',#446,#384,#385);
#309=AXIS2_PLACEMENT_3D('',#506,#386,#387);
#310=AXIS2_PLACEMENT_3D('',#566,#388,#389);
#311=AXIS2_PLACEMENT_3D('',#567,#390,#391);
#312=DIRECTION('',(0.,0.,1.));
#313=DIRECTION('',(1.,0.,0.));
#314=DIRECTION('',(0.,0.,-1.));
#315=DIRECTION('',(-1.,0.,0.));
#316=DIRECTION('',(0.,0.,-1.));
#317=DIRECTION('',(0.,1.,0.));
#318=DIRECTION('',(0.,0.,-1.));
#319=DIRECTION('',(-1.,0.,0.));
#320=DIRECTION('',(0.,0.,-1.));
#321=DIRECTION('',(0.,1.,0.));
#322=DIRECTION('',(0.,0.,1.));
#323=DIRECTION('',(0.,1.,0.));
#324=DIRECTION('',(0.,0.,-1.));
#325=DIRECTION('',(0.,1.,0.));
#326=DIRECTION('',(0.,0.,1.));
#327=DIRECTION('',(-1.,0.,0.));
#328=DIRECTION('',(0.,0.,1.));
#329=DIRECTION('',(0.,-1.,-1.43707679302621E-016));
#330=DIRECTION('',(0.,0.,1.));
#331=DIRECTION('',(0.,-1.,0.));
#332=DIRECTION('',(0.,0.,-1.));
#333=DIRECTION('',(0.,1.,0.));
#334=DIRECTION('',(0.,0.,-1.));
#335=DIRECTION('',(1.,0.,0.));
#336=DIRECTION('',(0.,0.,1.));
#337=DIRECTION('',(0.,-1.,0.));
#338=DIRECTION('',(0.,0.,-1.));
#339=DIRECTION('',(-1.,0.,0.));
#340=DIRECTION('',(0.,0.,-1.));
#341=DIRECTION('',(-1.,0.,0.));
#342=DIRECTION('',(0.,0.,-1.));
#343=DIRECTION('',(-1.,0.,0.));
#344=DIRECTION('',(0.,0.,1.));
#345=DIRECTION('',(1.,0.,0.));
#346=DIRECTION('',(3.06151588455594E-017,3.58642301551743E-032,-1.));
#347=DIRECTION('',(-1.,0.,-5.78241158658937E-017));
#348=DIRECTION('',(0.,0.,-1.));
#349=DIRECTION('',(-1.,0.,0.));
#350=DIRECTION('',(0.,0.,-1.));
#351=DIRECTION('',(-1.,0.,0.));
#352=DIRECTION('',(0.,0.,1.));
#353=DIRECTION('',(1.,0.,1.09381578780802E-016));
#354=DIRECTION('',(0.,0.,-1.));
#355=DIRECTION('',(1.,1.22464679914735E-016,0.));
#356=DIRECTION('',(0.,0.,1.));
#357=DIRECTION('',(1.,0.,0.));
#358=DIRECTION('',(0.,0.,-1.));
#359=DIRECTION('',(1.,0.,0.));
#360=DIRECTION('',(0.,0.,-1.));
#361=DIRECTION('',(-1.,0.,0.));
#362=DIRECTION('',(0.,-1.,0.));
#363=DIRECTION('',(-1.,0.,0.));
#364=DIRECTION('',(0.,-1.,0.));
#365=DIRECTION('',(-1.,0.,0.));
#366=DIRECTION('',(0.,-1.,0.));
#367=DIRECTION('',(-1.,0.,0.));
#368=DIRECTION('',(0.,-1.,0.));
#369=DIRECTION('',(-1.,0.,0.));
#370=DIRECTION('',(0.,0.,-1.));
#371=DIRECTION('',(-1.,0.,0.));
#372=DIRECTION('',(0.,0.,1.));
#373=DIRECTION('',(1.,0.,0.));
#374=DIRECTION('',(0.,1.,0.));
#375=DIRECTION('',(-1.,0.,0.));
#376=DIRECTION('',(0.,1.,0.));
#377=DIRECTION('',(1.,5.1834366812056E-017,0.));
#378=DIRECTION('',(0.,1.,0.));
#379=DIRECTION('',(-1.,0.,0.));
#380=DIRECTION('',(0.,1.,0.));
#381=DIRECTION('',(1.,5.1834366812056E-017,0.));
#382=DIRECTION('',(0.,0.,-1.));
#383=DIRECTION('',(-1.,0.,0.));
#384=DIRECTION('',(0.,0.,-1.));
#385=DIRECTION('',(-1.,0.,2.73050424157687E-017));
#386=DIRECTION('',(0.,1.,0.));
#387=DIRECTION('',(1.,0.,0.));
#388=DIRECTION('',(0.,1.,0.));
#389=DIRECTION('',(1.,0.,0.));
#390=DIRECTION('',(0.,0.,-1.));
#391=DIRECTION('',(-1.,0.,0.));
#392=CARTESIAN_POINT('',(0.,0.,0.));
#393=CARTESIAN_POINT('',(0.,0.,-28.));
#394=CARTESIAN_POINT('',(-4.,0.,-28.));
#395=CARTESIAN_POINT('',(0.,0.,-28.));
#396=CARTESIAN_POINT('',(0.,0.,-23.));
#397=CARTESIAN_POINT('',(-4.,0.,-23.));
#398=CARTESIAN_POINT('',(0.,0.,-100.81126254777));
#399=CARTESIAN_POINT('',(0.,0.,-23.));
#400=CARTESIAN_POINT('',(0.,4.3135099835713,-23.));
#401=CARTESIAN_POINT('',(-3.5,0.,-23.));
#402=CARTESIAN_POINT('',(0.,0.,-11.));
#403=CARTESIAN_POINT('',(-6.,0.,-11.));
#404=CARTESIAN_POINT('',(0.,0.,-23.));
#405=CARTESIAN_POINT('',(0.,0.,-11.));
#406=CARTESIAN_POINT('',(0.,-10.,-11.));
#407=CARTESIAN_POINT('',(-6.,0.,-11.));
#408=CARTESIAN_POINT('',(-9.34807244633295E-015,-6.73533494602307E-016,
0.));
#409=CARTESIAN_POINT('',(9.99999999999999,-6.73533494602307E-016,0.));
#410=CARTESIAN_POINT('',(0.,0.,-5.5));
#411=CARTESIAN_POINT('',(7.105427357601E-015,0.,0.));
#412=CARTESIAN_POINT('',(-14.5,0.,0.));
#413=CARTESIAN_POINT('',(7.105427357601E-015,10.,0.));
#414=CARTESIAN_POINT('',(7.105427357601E-015,0.,0.5));
#415=CARTESIAN_POINT('',(-15.,0.,0.5));
#416=CARTESIAN_POINT('',(7.105427357601E-015,0.,0.));
#417=CARTESIAN_POINT('',(6.6461999749176E-015,-1.3446044320526E-063,5.00000000000023));
#418=CARTESIAN_POINT('',(-15.,-1.3446044320526E-063,5.00000000000023));
#419=CARTESIAN_POINT('',(7.105427357601E-015,0.,41.0000000000001));
#420=CARTESIAN_POINT('',(7.105427357601E-015,0.,6.50000000000023));
#421=CARTESIAN_POINT('',(-16.5,0.,6.50000000000023));
#422=CARTESIAN_POINT('',(7.105427357601E-015,0.,5.00000000000023));
#423=CARTESIAN_POINT('',(7.105427357601E-015,0.,5.00000000000023));
#424=CARTESIAN_POINT('',(10.,1.22464679914735E-015,5.00000000000023));
#425=CARTESIAN_POINT('',(7.105427357601E-015,10.,5.00000000000012));
#426=CARTESIAN_POINT('',(7.105427357601E-015,0.,40.0000000000002));
#427=CARTESIAN_POINT('',(10.,0.,40.0000000000002));
#428=CARTESIAN_POINT('',(7.105427357601E-015,0.,41.0000000000001));
#429=CARTESIAN_POINT('',(7.105427357601E-015,-18.24159375,16.0000000000003));
#430=CARTESIAN_POINT('',(-3.23318749999999,-18.24159375,16.0000000000003));
#431=CARTESIAN_POINT('',(7.105427357601E-015,-18.24159375,16.0000000000003));
#432=CARTESIAN_POINT('',(7.105427357601E-015,-18.24159375,31.0000000000003));
#433=CARTESIAN_POINT('',(-3.23318749999999,-18.24159375,31.0000000000003));
#434=CARTESIAN_POINT('',(7.105427357601E-015,-18.24159375,31.0000000000003));
#435=CARTESIAN_POINT('',(7.105427357601E-015,0.,40.0000000000002));
#436=CARTESIAN_POINT('',(-15.5,0.,40.0000000000002));
#437=CARTESIAN_POINT('',(7.105427357601E-015,15.5,40.0000000000002));
#438=CARTESIAN_POINT('',(7.105427357601E-015,-17.47478125,16.0000000000003));
#439=CARTESIAN_POINT('',(-3.99999999999999,-17.47478125,16.0000000000003));
#440=CARTESIAN_POINT('',(7.105427357601E-015,-17.47478125,16.0000000000003));
#441=CARTESIAN_POINT('',(7.105427357601E-015,-17.47478125,31.0000000000003));
#442=CARTESIAN_POINT('',(-3.99999999999999,-17.47478125,31.0000000000003));
#443=CARTESIAN_POINT('',(7.105427357601E-015,-17.47478125,31.0000000000003));
#444=CARTESIAN_POINT('',(7.105427357601E-015,0.,39.0000000000002));
#445=CARTESIAN_POINT('',(-16.5,0.,39.0000000000002));
#446=CARTESIAN_POINT('',(7.105427357601E-015,0.,39.0000000000002));
#447=CARTESIAN_POINT('',(4.00000000000001,-16.0078105935821,16.0000000000003));
#448=CARTESIAN_POINT('',(4.00000000000001,-16.0078105935821,16.4403137338362));
#449=CARTESIAN_POINT('',(3.92511901108493,-16.0270080742501,16.8866705963744));
#450=CARTESIAN_POINT('',(3.78223837310745,-16.0606560541279,17.3017960243426));
#451=CARTESIAN_POINT('',(3.63946105207273,-16.0942797031623,17.7166212752492));
#452=CARTESIAN_POINT('',(3.42517374040583,-16.142890052661,18.1116452763233));
#453=CARTESIAN_POINT('',(3.15688392083594,-16.195187060061,18.4564372392489));
#454=CARTESIAN_POINT('',(2.88358641266847,-16.2484602026273,18.8076648201344));
#455=CARTESIAN_POINT('',(2.54677740837422,-16.3066326610265,19.1164638422635));
#456=CARTESIAN_POINT('',(2.17277795899465,-16.356314864324,19.358427599474));
#457=CARTESIAN_POINT('',(1.79399115372449,-16.4066330214686,19.603488598192));
#458=CARTESIAN_POINT('',(1.36614657757809,-16.4492771534756,19.7866999456641));
#459=CARTESIAN_POINT('',(0.925168075468413,-16.4740421279094,19.8915374894938));
#460=CARTESIAN_POINT('',(0.492676661677326,-16.498330474743,19.9943573261353));
#461=CARTESIAN_POINT('',(0.0353460611126183,-16.5059051948899,20.0245300010191));
#462=CARTESIAN_POINT('',(-0.407413528581143,-16.4949693608909,19.979197685053));
#463=CARTESIAN_POINT('',(-0.841008602577279,-16.4842598836432,19.9348036857964));
#464=CARTESIAN_POINT('',(-1.27243326455275,-16.4556453751455,19.8169880196409));
#465=CARTESIAN_POINT('',(-1.66707851264485,-16.4155672833039,19.6360485740264));
#466=CARTESIAN_POINT('',(-2.06521488283353,-16.3751346514984,19.4535084967059));
#467=CARTESIAN_POINT('',(-2.43671761649982,-16.322241467041,19.2020310559186));
#468=CARTESIAN_POINT('',(-2.75339825968789,-16.2686446277355,18.9015165040973));
#469=CARTESIAN_POINT('',(-3.07813173568842,-16.2136848810484,18.5933602049966));
#470=CARTESIAN_POINT('',(-3.35417562832702,-16.1568409649364,18.2250598313854));
#471=CARTESIAN_POINT('',(-3.55900922408178,-16.1115937555197,17.8257747240286));
#472=CARTESIAN_POINT('',(-3.76466702540375,-16.0661644812334,17.4248829807722));
#473=CARTESIAN_POINT('',(-3.90412099183821,-16.0315842468352,16.9811676351869));
#474=CARTESIAN_POINT('',(-3.96438449254718,-16.0166680553494,16.5325932737574));
#475=CARTESIAN_POINT('',(-4.02314423439465,-16.0021240685127,16.0952122161206));
#476=CARTESIAN_POINT('',(-4.00819680995793,-16.0060121850987,15.6410164692459));
#477=CARTESIAN_POINT('',(-3.9209491440924,-16.0273565446533,15.2086986607868));
#478=CARTESIAN_POINT('',(-3.83500255256847,-16.0483826080303,14.7828277595592));
#479=CARTESIAN_POINT('',(-3.676849996294,-16.0866418031172,14.3666590330624));
#480=CARTESIAN_POINT('',(-3.45981527528602,-16.1331856203571,13.9925941464426));
#481=CARTESIAN_POINT('',(-3.23871495799206,-16.1806013182326,13.6115221007531));
#482=CARTESIAN_POINT('',(-2.9506724041873,-16.2375179269526,13.2637570716855));
#483=CARTESIAN_POINT('',(-2.61810728002928,-16.2909641909329,12.9758448667014));
#484=CARTESIAN_POINT('',(-2.27782822580266,-16.3456501541866,12.6812544671208));
#485=CARTESIAN_POINT('',(-1.88126529756462,-16.3978407613729,12.4412070504926));
#486=CARTESIAN_POINT('',(-1.46061908089025,-16.4352241207882,12.2762126939717));
#487=CARTESIAN_POINT('',(-1.04309240468137,-16.4723302427108,12.1124419466296));
#488=CARTESIAN_POINT('',(-0.589873261290494,-16.4955850827405,12.0182213532146));
#489=CARTESIAN_POINT('',(-0.140136565672124,-16.4994048905699,12.0024555358371));
#490=CARTESIAN_POINT('',(0.298178797107427,-16.5031276920908,11.9870901008377));
#491=CARTESIAN_POINT('',(0.745260854878044,-16.4885033513896,12.0457516501275));
#492=CARTESIAN_POINT('',(1.16392534082223,-16.4588966155387,12.1730850805133));
#493=CARTESIAN_POINT('',(1.58068813596187,-16.4294243617355,12.299840126962));
#494=CARTESIAN_POINT('',(1.98056625533933,-16.3845660610279,12.4977932232322));
#495=CARTESIAN_POINT('',(2.3328672857793,-16.3342502193073,12.7507338941018));
#496=CARTESIAN_POINT('',(2.69322823490251,-16.2827832552291,13.0094613241992));
#497=CARTESIAN_POINT('',(3.01368343351834,-16.2245403692685,13.3326996055637));
#498=CARTESIAN_POINT('',(3.26927787395032,-16.1728730342787,13.6952609295415));
#499=CARTESIAN_POINT('',(3.5291550410605,-16.1203399642065,14.0638973115373));
#500=CARTESIAN_POINT('',(3.72913038243841,-16.0735626074866,14.4837833865771));
#501=CARTESIAN_POINT('',(3.85146552250663,-16.0441956273583,14.920086425244));
#502=CARTESIAN_POINT('',(3.94941407338621,-16.0206827336331,15.2694157378025));
#503=CARTESIAN_POINT('',(4.00000000000001,-16.0078105935821,15.6364374284898));
#504=CARTESIAN_POINT('',(4.00000000000001,-16.0078105935821,16.0000000000003));
#505=CARTESIAN_POINT('',(4.00000000000001,-16.0078105935821,16.0000000000003));
#506=CARTESIAN_POINT('',(7.105427357601E-015,-18.24159375,16.0000000000003));
#507=CARTESIAN_POINT('',(4.00000000000001,-16.0078105935821,31.0000000000003));
#508=CARTESIAN_POINT('',(4.00000000000001,-16.0078105935821,31.4403137338362));
#509=CARTESIAN_POINT('',(3.92511901108493,-16.0270080742501,31.8866705963744));
#510=CARTESIAN_POINT('',(3.78223837310745,-16.0606560541279,32.3017960243426));
#511=CARTESIAN_POINT('',(3.63946105207273,-16.0942797031623,32.7166212752492));
#512=CARTESIAN_POINT('',(3.42517374040582,-16.142890052661,33.1116452763233));
#513=CARTESIAN_POINT('',(3.15688392083594,-16.195187060061,33.4564372392489));
#514=CARTESIAN_POINT('',(2.88358641266847,-16.2484602026273,33.8076648201344));
#515=CARTESIAN_POINT('',(2.54677740837422,-16.3066326610265,34.1164638422635));
#516=CARTESIAN_POINT('',(2.17277795899465,-16.356314864324,34.358427599474));
#517=CARTESIAN_POINT('',(1.79399115372449,-16.4066330214686,34.603488598192));
#518=CARTESIAN_POINT('',(1.36614657757808,-16.4492771534756,34.7866999456641));
#519=CARTESIAN_POINT('',(0.92516807546841,-16.4740421279094,34.8915374894938));
#520=CARTESIAN_POINT('',(0.492676661677323,-16.498330474743,34.9943573261353));
#521=CARTESIAN_POINT('',(0.035346061112615,-16.5059051948899,35.0245300010191));
#522=CARTESIAN_POINT('',(-0.407413528581146,-16.4949693608909,34.979197685053));
#523=CARTESIAN_POINT('',(-0.841008602577282,-16.4842598836432,34.9348036857964));
#524=CARTESIAN_POINT('',(-1.27243326455275,-16.4556453751455,34.8169880196409));
#525=CARTESIAN_POINT('',(-1.66707851264486,-16.4155672833039,34.6360485740264));
#526=CARTESIAN_POINT('',(-2.06521488283353,-16.3751346514984,34.4535084967059));
#527=CARTESIAN_POINT('',(-2.43671761649982,-16.322241467041,34.2020310559186));
#528=CARTESIAN_POINT('',(-2.7533982596879,-16.2686446277355,33.9015165040973));
#529=CARTESIAN_POINT('',(-3.07813173568843,-16.2136848810484,33.5933602049966));
#530=CARTESIAN_POINT('',(-3.35417562832703,-16.1568409649364,33.2250598313854));
#531=CARTESIAN_POINT('',(-3.55900922408178,-16.1115937555197,32.8257747240286));
#532=CARTESIAN_POINT('',(-3.76466702540375,-16.0661644812334,32.4248829807722));
#533=CARTESIAN_POINT('',(-3.90412099183821,-16.0315842468352,31.9811676351869));
#534=CARTESIAN_POINT('',(-3.96438449254718,-16.0166680553494,31.5325932737574));
#535=CARTESIAN_POINT('',(-4.02314423439465,-16.0021240685127,31.0952122161206));
#536=CARTESIAN_POINT('',(-4.00819680995793,-16.0060121850987,30.6410164692459));
#537=CARTESIAN_POINT('',(-3.9209491440924,-16.0273565446533,30.2086986607868));
#538=CARTESIAN_POINT('',(-3.83500255256847,-16.0483826080303,29.7828277595592));
#539=CARTESIAN_POINT('',(-3.676849996294,-16.0866418031172,29.3666590330624));
#540=CARTESIAN_POINT('',(-3.45981527528602,-16.1331856203571,28.9925941464426));
#541=CARTESIAN_POINT('',(-3.23871495799205,-16.1806013182326,28.6115221007531));
#542=CARTESIAN_POINT('',(-2.95067240418729,-16.2375179269526,28.2637570716855));
#543=CARTESIAN_POINT('',(-2.61810728002927,-16.2909641909329,27.9758448667014));
#544=CARTESIAN_POINT('',(-2.27782822580266,-16.3456501541866,27.6812544671208));
#545=CARTESIAN_POINT('',(-1.88126529756462,-16.3978407613729,27.4412070504926));
#546=CARTESIAN_POINT('',(-1.46061908089024,-16.4352241207882,27.2762126939717));
#547=CARTESIAN_POINT('',(-1.04309240468136,-16.4723302427108,27.1124419466296));
#548=CARTESIAN_POINT('',(-0.589873261290489,-16.4955850827405,27.0182213532146));
#549=CARTESIAN_POINT('',(-0.140136565672119,-16.4994048905699,27.0024555358371));
#550=CARTESIAN_POINT('',(0.298178797107432,-16.5031276920908,26.9870901008377));
#551=CARTESIAN_POINT('',(0.745260854878048,-16.4885033513896,27.0457516501275));
#552=CARTESIAN_POINT('',(1.16392534082223,-16.4588966155387,27.1730850805133));
#553=CARTESIAN_POINT('',(1.58068813596187,-16.4294243617355,27.299840126962));
#554=CARTESIAN_POINT('',(1.98056625533933,-16.3845660610279,27.4977932232322));
#555=CARTESIAN_POINT('',(2.33286728577931,-16.3342502193073,27.7507338941018));
#556=CARTESIAN_POINT('',(2.69322823490251,-16.2827832552291,28.0094613241992));
#557=CARTESIAN_POINT('',(3.01368343351835,-16.2245403692685,28.3326996055637));
#558=CARTESIAN_POINT('',(3.26927787395032,-16.1728730342787,28.6952609295415));
#559=CARTESIAN_POINT('',(3.5291550410605,-16.1203399642065,29.0638973115373));
#560=CARTESIAN_POINT('',(3.72913038243841,-16.0735626074866,29.4837833865771));
#561=CARTESIAN_POINT('',(3.85146552250663,-16.0441956273583,29.920086425244));
#562=CARTESIAN_POINT('',(3.94941407338621,-16.0206827336331,30.2694157378025));
#563=CARTESIAN_POINT('',(4.00000000000001,-16.0078105935821,30.6364374284898));
#564=CARTESIAN_POINT('',(4.00000000000001,-16.0078105935821,31.0000000000003));
#565=CARTESIAN_POINT('',(4.00000000000001,-16.0078105935821,31.0000000000003));
#566=CARTESIAN_POINT('',(7.105427357601E-015,-18.24159375,31.0000000000003));
#567=CARTESIAN_POINT('',(7.105427357601E-015,0.,41.0000000000001));
#568=MECHANICAL_DESIGN_GEOMETRIC_PRESENTATION_REPRESENTATION('',(#34,#31),
#569);
#569=(
GEOMETRIC_REPRESENTATION_CONTEXT(3)
GLOBAL_UNCERTAINTY_ASSIGNED_CONTEXT((#570))
GLOBAL_UNIT_ASSIGNED_CONTEXT((#576,#572,#571))
REPRESENTATION_CONTEXT('W9990213_stp','TOP_LEVEL_ASSEMBLY_PART')
);
#570=UNCERTAINTY_MEASURE_WITH_UNIT(LENGTH_MEASURE(0.0508),#576,
'DISTANCE_ACCURACY_VALUE','Maximum Tolerance applied to model');
#571=(
NAMED_UNIT(*)
SI_UNIT($,.STERADIAN.)
SOLID_ANGLE_UNIT()
);
#572=(
CONVERSION_BASED_UNIT('DEGREE',#574)
NAMED_UNIT(#573)
PLANE_ANGLE_UNIT()
);
#573=DIMENSIONAL_EXPONENTS(0.,0.,0.,0.,0.,0.,0.);
#574=PLANE_ANGLE_MEASURE_WITH_UNIT(PLANE_ANGLE_MEASURE(0.0174532925),#575);
#575=(
NAMED_UNIT(*)
PLANE_ANGLE_UNIT()
SI_UNIT($,.RADIAN.)
);
#576=(
LENGTH_UNIT()
NAMED_UNIT(*)
SI_UNIT(.MILLI.,.METRE.)
);
ENDSEC;
END-ISO-10303-21;
