  0
SECTION
  2
HEADER
  9
$ACADVER
  1
AC1014
  9
$ACADMAINTVER
 70
     9
  9
$DWGCODEPAGE
  3
ASCII
  9
$INSBASE
 10
0.0
 20
0.0
 30
0.0
  9
$EXTMIN
 10
1.000000000000000E+20
 20
1.000000000000000E+20
 30
1.000000000000000E+20
  9
$EXTMAX
 10
-1.000000000000000E+20
 20
-1.000000000000000E+20
 30
-1.000000000000000E+20
  9
$LIMMIN
 10
0.0
 20
0.0
  9
$LIMMAX
 10
12.0
 20
9.0
  9
$ORTHOMODE
 70
     0
  9
$REGENMODE
 70
     1
  9
$FILLMODE
 70
     1
  9
$QTEXTMODE
 70
     0
  9
$MIRRTEXT
 70
     1
  9
$DRAGMODE
 70
     2
  9
$LTSCALE
 40
1.0
  9
$OSMODE
 70
    37
  9
$ATTMODE
 70
     1
  9
$TEXTSIZE
 40
0.2
  9
$TRACEWID
 40
0.05
  9
$TEXTSTYLE
  7
STANDARD
  9
$CLAYER
  8
0
  9
$CELTYPE
  6
BYLAYER
  9
$CECOLOR
 62
   256
  9
$CELTSCALE
 40
1.0
  9
$DELOBJ
 70
     1
  9
$DISPSILH
 70
     0
  9
$DIMSCALE
 40
1.0
  9
$DIMASZ
 40
0.18
  9
$DIMEXO
 40
0.0625
  9
$DIMDLI
 40
0.38
  9
$DIMRND
 40
0.0
  9
$DIMDLE
 40
0.0
  9
$DIMEXE
 40
0.18
  9
$DIMTP
 40
0.0
  9
$DIMTM
 40
0.0
  9
$DIMTXT
 40
0.18
  9
$DIMCEN
 40
0.09
  9
$DIMTSZ
 40
0.0
  9
$DIMTOL
 70
     0
  9
$DIMLIM
 70
     0
  9
$DIMTIH
 70
     1
  9
$DIMTOH
 70
     1
  9
$DIMSE1
 70
     0
  9
$DIMSE2
 70
     0
  9
$DIMTAD
 70
     0
  9
$DIMZIN
 70
     0
  9
$DIMBLK
  1

  9
$DIMASO
 70
     1
  9
$DIMSHO
 70
     1
  9
$DIMPOST
  1

  9
$DIMAPOST
  1

  9
$DIMALT
 70
     0
  9
$DIMALTD
 70
     2
  9
$DIMALTF
 40
25.4
  9
$DIMLFAC
 40
1.0
  9
$DIMTOFL
 70
     0
  9
$DIMTVP
 40
0.0
  9
$DIMTIX
 70
     0
  9
$DIMSOXD
 70
     0
  9
$DIMSAH
 70
     0
  9
$DIMBLK1
  1

  9
$DIMBLK2
  1

  9
$DIMSTYLE
  2
STANDARD
  9
$DIMCLRD
 70
     0
  9
$DIMCLRE
 70
     0
  9
$DIMCLRT
 70
     0
  9
$DIMTFAC
 40
1.0
  9
$DIMGAP
 40
0.09
  9
$DIMJUST
 70
     0
  9
$DIMSD1
 70
     0
  9
$DIMSD2
 70
     0
  9
$DIMTOLJ
 70
     1
  9
$DIMTZIN
 70
     0
  9
$DIMALTZ
 70
     0
  9
$DIMALTTZ
 70
     0
  9
$DIMFIT
 70
     3
  9
$DIMUPT
 70
     0
  9
$DIMUNIT
 70
     2
  9
$DIMDEC
 70
     4
  9
$DIMTDEC
 70
     4
  9
$DIMALTU
 70
     2
  9
$DIMALTTD
 70
     2
  9
$DIMTXSTY
  7
STANDARD
  9
$DIMAUNIT
 70
     0
  9
$LUNITS
 70
     2
  9
$LUPREC
 70
     4
  9
$SKETCHINC
 40
0.1
  9
$FILLETRAD
 40
0.5
  9
$AUNITS
 70
     0
  9
$AUPREC
 70
     0
  9
$MENU
  1
.
  9
$ELEVATION
 40
0.0
  9
$PELEVATION
 40
0.0
  9
$THICKNESS
 40
0.0
  9
$LIMCHECK
 70
     0
  9
$CHAMFERA
 40
0.5
  9
$CHAMFERB
 40
0.5
  9
$CHAMFERC
 40
1.0
  9
$CHAMFERD
 40
0.0
  9
$SKPOLY
 70
     0
  9
$TDCREATE
 40
2456035.49754309
  9
$TDUPDATE
 40
2456035.497543102
  9
$TDINDWG
 40
0.0000000116
  9
$TDUSRTIMER
 40
0.0000000116
  9
$USRTIMER
 70
     1
  9
$ANGBASE
 50
0.0
  9
$ANGDIR
 70
     0
  9
$PDMODE
 70
     0
  9
$PDSIZE
 40
0.0
  9
$PLINEWID
 40
0.0
  9
$COORDS
 70
     1
  9
$SPLFRAME
 70
     0
  9
$SPLINETYPE
 70
     6
  9
$SPLINESEGS
 70
     8
  9
$ATTDIA
 70
     0
  9
$ATTREQ
 70
     1
  9
$HANDLING
 70
     1
  9
$HANDSEED
  5
7EE
  9
$SURFTAB1
 70
     6
  9
$SURFTAB2
 70
     6
  9
$SURFTYPE
 70
     6
  9
$SURFU
 70
     6
  9
$SURFV
 70
     6
  9
$UCSNAME
  2

  9
$UCSORG
 10
0.0
 20
0.0
 30
0.0
  9
$UCSXDIR
 10
1.0
 20
0.0
 30
0.0
  9
$UCSYDIR
 10
0.0
 20
1.0
 30
0.0
  9
$PUCSNAME
  2

  9
$PUCSORG
 10
0.0
 20
0.0
 30
0.0
  9
$PUCSXDIR
 10
1.0
 20
0.0
 30
0.0
  9
$PUCSYDIR
 10
0.0
 20
1.0
 30
0.0
  9
$USERI1
 70
     0
  9
$USERI2
 70
     0
  9
$USERI3
 70
     0
  9
$USERI4
 70
     0
  9
$USERI5
 70
     0
  9
$USERR1
 40
0.0
  9
$USERR2
 40
0.0
  9
$USERR3
 40
0.0
  9
$USERR4
 40
0.0
  9
$USERR5
 40
0.0
  9
$WORLDVIEW
 70
     1
  9
$SHADEDGE
 70
     3
  9
$SHADEDIF
 70
    70
  9
$TILEMODE
 70
     1
  9
$MAXACTVP
 70
    64
  9
$PINSBASE
 10
0.0
 20
0.0
 30
0.0
  9
$PLIMCHECK
 70
     0
  9
$PEXTMIN
 10
1.000000000000000E+20
 20
1.000000000000000E+20
 30
1.000000000000000E+20
  9
$PEXTMAX
 10
-1.000000000000000E+20
 20
-1.000000000000000E+20
 30
-1.000000000000000E+20
  9
$PLIMMIN
 10
0.0
 20
0.0
  9
$PLIMMAX
 10
12.0
 20
9.0
  9
$UNITMODE
 70
     0
  9
$VISRETAIN
 70
     1
  9
$PLINEGEN
 70
     0
  9
$PSLTSCALE
 70
     1
  9
$TREEDEPTH
 70
  3020
  9
$PICKSTYLE
 70
     1
  9
$CMLSTYLE
  2
STANDARD
  9
$CMLJUST
 70
     0
  9
$CMLSCALE
 40
1.0
  9
$PROXYGRAPHICS
 70
     1
  9
$MEASUREMENT
 70
     0
  0
ENDSEC
  0
SECTION
  2
CLASSES
  0
CLASS
  1
ACDBDICTIONARYWDFLT
  2
AcDbDictionaryWithDefault
  3
ObjectDBX Classes
 90
        0
280
     0
281
     0
  0
CLASS
  1
VISUALSTYLE
  2
AcDbVisualStyle
  3
ObjectDBX Classes
 90
     4095
280
     0
281
     0
  0
CLASS
  1
XRECORD
  2
AcDbXrecord
  3
AutoCAD 2000
 90
        0
280
     0
281
     0
  0
CLASS
  1
LWPOLYLINE
  2
AcDbPolyline
  3
AutoCAD 2000
 90
        0
280
     0
281
     1
  0
CLASS
  1
HATCH
  2
AcDbHatch
  3
AutoCAD 2000
 90
        0
280
     0
281
     1
  0
CLASS
  1
ACDBPLACEHOLDER
  2
AcDbPlaceHolder
  3
ObjectDBX Classes
 90
        0
280
     0
281
     0
  0
CLASS
  1
LAYOUT
  2
AcDbLayout
  3
ObjectDBX Classes
 90
        0
280
     0
281
     0
  0
ENDSEC
  0
SECTION
  2
TABLES
  0
TABLE
  2
VPORT
  5
8
330
0
100
AcDbSymbolTable
 70
     1
  0
VPORT
  5
29
330
8
100
AcDbSymbolTableRecord
100
AcDbViewportTableRecord
  2
*ACTIVE
 70
     0
 10
0.0
 20
0.0
 11
1.0
 21
1.0
 12
0.0
 22
0.0
 13
0.0
 23
0.0
 14
0.5
 24
0.5
 15
0.5
 25
0.5
 16
0.0
 26
0.0
 36
1.0
 17
59.01865871119328
 27
-41.75678107631637
 37
0.0
 40
118.5698175700903
 41
1.275589489399378
 42
50.0
 43
0.0
 44
0.0
 50
0.0
 51
0.0
 71
     0
 72
   100
 73
     1
 74
     3
 75
     0
 76
     0
 77
     0
 78
     0
  0
ENDTAB
  0
TABLE
  2
LTYPE
  5
5
330
0
100
AcDbSymbolTable
 70
     5
  0
LTYPE
  5
14
330
5
100
AcDbSymbolTableRecord
100
AcDbLinetypeTableRecord
  2
BYBLOCK
 70
     0
  3

 72
    65
 73
     0
 40
0.0
  0
LTYPE
  5
15
330
5
100
AcDbSymbolTableRecord
100
AcDbLinetypeTableRecord
  2
BYLAYER
 70
     0
  3

 72
    65
 73
     0
 40
0.0
  0
LTYPE
  5
16
330
5
100
AcDbSymbolTableRecord
100
AcDbLinetypeTableRecord
  2
CONTINUOUS
 70
     0
  3
Solid line
 72
    65
 73
     0
 40
0.0
  0
LTYPE
  5
40
330
5
100
AcDbSymbolTableRecord
100
AcDbLinetypeTableRecord
  2
AI-LINETYPE-1
 70
     0
  3
Adobe Illustrator Linetype No. 1
 72
    65
 73
     4
 40
8.819450260381924
 49
7.055560208305538
 74
     0
 49
-0.7055560208305538
 74
     0
 49
0.3527780104152769
 74
     0
 49
-0.7055560208305538
 74
     0
  0
LTYPE
  5
45
330
5
100
AcDbSymbolTableRecord
100
AcDbLinetypeTableRecord
  2
AI-LINETYPE-2
 70
     0
  3
Adobe Illustrator Linetype No. 2
 72
    65
 73
     4
 40
8.819450260381924
 49
7.055560208305538
 74
     0
 49
-0.7055560208305538
 74
     0
 49
0.3527780104152769
 74
     0
 49
-0.7055560208305538
 74
     0
  0
LTYPE
  5
4A
330
5
100
AcDbSymbolTableRecord
100
AcDbLinetypeTableRecord
  2
AI-LINETYPE-3
 70
     0
  3
Adobe Illustrator Linetype No. 3
 72
    65
 73
     4
 40
8.819450260381924
 49
7.055560208305538
 74
     0
 49
-0.7055560208305538
 74
     0
 49
0.3527780104152769
 74
     0
 49
-0.7055560208305538
 74
     0
  0
LTYPE
  5
4F
330
5
100
AcDbSymbolTableRecord
100
AcDbLinetypeTableRecord
  2
AI-LINETYPE-4
 70
     0
  3
Adobe Illustrator Linetype No. 4
 72
    65
 73
     4
 40
8.819450260381924
 49
7.055560208305538
 74
     0
 49
-0.7055560208305538
 74
     0
 49
0.3527780104152769
 74
     0
 49
-0.7055560208305538
 74
     0
  0
ENDTAB
  0
TABLE
  2
LAYER
  5
2
330
0
100
AcDbSymbolTable
 70
     5
  0
LAYER
  5
10
330
2
100
AcDbSymbolTableRecord
100
AcDbLayerTableRecord
  2
0
 70
     0
 62
     7
  6
CONTINUOUS
  0
LAYER
  5
3B
330
2
100
AcDbSymbolTableRecord
100
AcDbLayerTableRecord
  2
GRAU_10_
 70
     0
 62
     7
  6
CONTINUOUS
  0
LAYER
  5
363
330
2
100
AcDbSymbolTableRecord
100
AcDbLayerTableRecord
  2
STANDARDEBENE
 70
     0
 62
     7
  6
CONTINUOUS
  0
LAYER
  5
440
330
2
100
AcDbSymbolTableRecord
100
AcDbLayerTableRecord
  2
BEMA_UNG
 70
     1
 62
     7
  6
CONTINUOUS
  0
LAYER
  5
7C7
330
2
100
AcDbSymbolTableRecord
100
AcDbLayerTableRecord
  2
TEXT
 70
     1
 62
     7
  6
CONTINUOUS
  0
ENDTAB
  0
TABLE
  2
STYLE
  5
3
330
0
100
AcDbSymbolTable
 70
     1
  0
STYLE
  5
11
330
3
100
AcDbSymbolTableRecord
100
AcDbTextStyleTableRecord
  2
STANDARD
 70
     0
 40
0.0
 41
1.0
 50
0.0
 71
     0
 42
0.2
  3
txt
  4

  0
ENDTAB
  0
TABLE
  2
VIEW
  5
6
330
0
100
AcDbSymbolTable
 70
     0
  0
ENDTAB
  0
TABLE
  2
UCS
  5
7
330
0
100
AcDbSymbolTable
 70
     0
  0
ENDTAB
  0
TABLE
  2
APPID
  5
9
330
0
100
AcDbSymbolTable
 70
     1
  0
APPID
  5
12
330
9
100
AcDbSymbolTableRecord
100
AcDbRegAppTableRecord
  2
ACAD
 70
     0
  0
ENDTAB
  0
TABLE
  2
DIMSTYLE
  5
A
330
0
100
AcDbSymbolTable
 70
     1
  0
DIMSTYLE
105
27
330
A
100
AcDbSymbolTableRecord
100
AcDbDimStyleTableRecord
  2
STANDARD
 70
     0
  3

  4

  5

  6

  7

 40
1.0
 41
0.18
 42
0.0625
 43
0.38
 44
0.18
 45
0.0
 46
0.0
 47
0.0
 48
0.0
140
0.18
141
0.09
142
0.0
143
25.4
144
1.0
145
0.0
146
1.0
147
0.09
 71
     0
 72
     0
 73
     1
 74
     1
 75
     0
 76
     0
 77
     0
 78
     0
170
     0
171
     2
172
     0
173
     0
174
     0
175
     0
176
     0
177
     0
178
     0
270
     2
271
     4
272
     4
273
     2
274
     2
340
11
275
     0
280
     0
281
     0
282
     0
283
     1
284
     0
285
     0
286
     0
287
     3
288
     0
  0
ENDTAB
  0
TABLE
  2
BLOCK_RECORD
  5
1
330
0
100
AcDbSymbolTable
 70
     1
  0
BLOCK_RECORD
  5
1F
330
1
100
AcDbSymbolTableRecord
100
AcDbBlockTableRecord
  2
*MODEL_SPACE
  0
BLOCK_RECORD
  5
1B
330
1
100
AcDbSymbolTableRecord
100
AcDbBlockTableRecord
  2
*PAPER_SPACE
  0
ENDTAB
  0
ENDSEC
  0
SECTION
  2
BLOCKS
  0
BLOCK
  5
20
330
1F
100
AcDbEntity
  8
0
100
AcDbBlockBegin
  2
*MODEL_SPACE
 70
     0
 71
     0
 10
0.0
 20
0.0
 30
0.0
  3
*MODEL_SPACE
  1

  0
ENDBLK
  5
21
330
1F
100
AcDbEntity
  8
0
100
AcDbBlockEnd
  0
BLOCK
  5
1C
330
1B
100
AcDbEntity
 67
     1
  8
0
100
AcDbBlockBegin
  2
*PAPER_SPACE
 70
     0
 71
     0
 10
0.0
 20
0.0
 30
0.0
  3
*PAPER_SPACE
  1

  0
ENDBLK
  5
1D
330
1B
100
AcDbEntity
 67
     1
  8
0
100
AcDbBlockEnd
  0
ENDSEC
  0
SECTION
  2
ENTITIES
  0
POLYLINE
  5
3C
330
1F
100
AcDbEntity
  8
GRAU_10_
  6
AI-LINETYPE-1
 62
     7
100
AcDb2dPolyline
 66
     1
 10
0.0
 20
0.0
 30
0.0
  0
VERTEX
  5
3D
330
3C
100
AcDbEntity
  8
GRAU_10_
  6
AI-LINETYPE-1
 62
     7
100
AcDbVertex
100
AcDb2dVertex
 10
53.46774494867751
 20
-17.54088748954984
 30
0.0
  0
VERTEX
  5
3E
330
3C
100
AcDbEntity
  8
GRAU_10_
  6
AI-LINETYPE-1
 62
     7
100
AcDbVertex
100
AcDb2dVertex
 10
-2.213475309490385
 20
-17.54088748954984
 30
0.0
  0
SEQEND
  5
3F
330
3C
100
AcDbEntity
  8
GRAU_10_
  6
AI-LINETYPE-1
  0
POLYLINE
  5
41
330
1F
100
AcDbEntity
  8
GRAU_10_
  6
AI-LINETYPE-2
 62
     7
100
AcDb2dPolyline
 66
     1
 10
0.0
 20
0.0
 30
0.0
  0
VERTEX
  5
42
330
41
100
AcDbEntity
  8
GRAU_10_
  6
AI-LINETYPE-2
 62
     7
100
AcDbVertex
100
AcDb2dVertex
 10
113.9503979521166
 20
-36.19936469178244
 30
0.0
  0
VERTEX
  5
43
330
41
100
AcDbEntity
  8
GRAU_10_
  6
AI-LINETYPE-2
 62
     7
100
AcDbVertex
100
AcDb2dVertex
 10
113.9503979521166
 20
0.8214835603859646
 30
0.0
  0
SEQEND
  5
44
330
41
100
AcDbEntity
  8
GRAU_10_
  6
AI-LINETYPE-2
  0
POLYLINE
  5
46
330
1F
100
AcDbEntity
  8
GRAU_10_
  6
AI-LINETYPE-3
 62
     7
100
AcDb2dPolyline
 66
     1
 10
0.0
 20
0.0
 30
0.0
  0
VERTEX
  5
47
330
46
100
AcDbEntity
  8
GRAU_10_
  6
AI-LINETYPE-3
 62
     7
100
AcDbVertex
100
AcDb2dVertex
 10
94.65164933156682
 20
-17.54088748954984
 30
0.0
  0
VERTEX
  5
48
330
46
100
AcDbEntity
  8
GRAU_10_
  6
AI-LINETYPE-3
 62
     7
100
AcDbVertex
100
AcDb2dVertex
 10
133.1149600149938
 20
-17.54088748954984
 30
0.0
  0
SEQEND
  5
49
330
46
100
AcDbEntity
  8
GRAU_10_
  6
AI-LINETYPE-3
  0
POLYLINE
  5
4B
330
1F
100
AcDbEntity
  8
GRAU_10_
  6
AI-LINETYPE-4
 62
     7
100
AcDb2dPolyline
 66
     1
 10
0.0
 20
0.0
 30
0.0
  0
VERTEX
  5
4C
330
4B
100
AcDbEntity
  8
GRAU_10_
  6
AI-LINETYPE-4
 62
     7
100
AcDbVertex
100
AcDb2dVertex
 10
52.98456998812338
 20
-82.20296083806015
 30
0.0
  0
VERTEX
  5
4D
330
4B
100
AcDbEntity
  8
GRAU_10_
  6
AI-LINETYPE-4
 62
     7
100
AcDbVertex
100
AcDb2dVertex
 10
-1.720826330101863
 20
-82.20296083806015
 30
0.0
  0
SEQEND
  5
4E
330
4B
100
AcDbEntity
  8
GRAU_10_
  6
AI-LINETYPE-4
  0
POLYLINE
  5
50
330
1F
100
AcDbEntity
  8
GRAU_10_
 62
     7
100
AcDb2dPolyline
 66
     1
 10
0.0
 20
0.0
 30
0.0
  0
VERTEX
  5
51
330
50
100
AcDbEntity
  8
GRAU_10_
 62
     7
100
AcDbVertex
100
AcDb2dVertex
 10
116.5962330302312
 20
-20.47766107332428
 30
0.0
  0
VERTEX
  5
52
330
50
100
AcDbEntity
  8
GRAU_10_
 62
     7
100
AcDbVertex
100
AcDb2dVertex
 10
116.5962330302312
 20
-20.54053410740708
 30
0.0
  0
SEQEND
  5
53
330
50
100
AcDbEntity
  8
GRAU_10_
  0
POLYLINE
  5
54
330
1F
100
AcDbEntity
  8
GRAU_10_
 62
     7
100
AcDb2dPolyline
 66
     1
 10
0.0
 20
0.0
 30
0.0
  0
VERTEX
  5
55
330
54
100
AcDbEntity
  8
GRAU_10_
 62
     7
100
AcDbVertex
100
AcDb2dVertex
 10
116.5962330302312
 20
-14.60428616066329
 30
0.0
  0
VERTEX
  5
56
330
54
100
AcDbEntity
  8
GRAU_10_
 62
     7
100
AcDbVertex
100
AcDb2dVertex
 10
116.5962330302312
 20
-14.5408963619168
 30
0.0
  0
SEQEND
  5
57
330
54
100
AcDbEntity
  8
GRAU_10_
  0
SPLINE
  5
58
330
1F
100
AcDbEntity
  8
GRAU_10_
 62
     7
100
AcDbSpline
210
0.0
220
0.0
230
1.0
 70
    11
 71
     3
 72
    17
 73
    13
 74
     0
 42
0.0000000001
 43
0.0000000001
 40
0.0
 40
0.0
 40
0.0
 40
0.0
 40
1.0
 40
1.0
 40
1.0
 40
2.0
 40
2.0
 40
2.0
 40
3.0
 40
3.0
 40
3.0
 40
4.0
 40
4.0
 40
4.0
 40
4.0
 10
126.3212272362933
 20
-17.54088748954984
 30
0.0
 10
126.3212272362933
 20
-10.70856961596022
 30
0.0
 10
120.7823713159304
 20
-5.170230460261004
 30
0.0
 10
113.9503979521166
 20
-5.170230460261004
 30
0.0
 10
107.1185968431907
 20
-5.170230460261004
 30
0.0
 10
101.5795686679399
 20
-10.70856961596022
 30
0.0
 10
101.5795686679399
 20
-17.54088748954984
 30
0.0
 10
101.5795686679399
 20
-24.37268859847576
 30
0.0
 10
107.1185968431907
 20
-29.91102775417497
 30
0.0
 10
113.9503979521166
 20
-29.91102775417497
 30
0.0
 10
120.7823713159304
 20
-29.91102775417497
 30
0.0
 10
126.3212272362933
 20
-24.37268859847576
 30
0.0
 10
126.3212272362933
 20
-17.54088748954984
 30
0.0
  0
SPLINE
  5
59
330
1F
100
AcDbEntity
  8
GRAU_10_
 62
     7
100
AcDbSpline
210
0.0
220
0.0
230
1.0
 70
    11
 71
     3
 72
    17
 73
    13
 74
     0
 42
0.0000000001
 43
0.0000000001
 40
0.0
 40
0.0
 40
0.0
 40
0.0
 40
1.0
 40
1.0
 40
1.0
 40
2.0
 40
2.0
 40
2.0
 40
3.0
 40
3.0
 40
3.0
 40
4.0
 40
4.0
 40
4.0
 40
4.0
 10
117.9501564491101
 20
-17.54088748954984
 30
0.0
 10
117.9501564491101
 20
-15.33137404248111
 30
0.0
 10
116.1599113991853
 20
-13.54026771811682
 30
0.0
 10
113.9503979521166
 20
-13.54026771811682
 30
0.0
 10
111.7408845050479
 20
-13.54026771811682
 30
0.0
 10
109.9506394551231
 20
-15.33137404248111
 30
0.0
 10
109.9506394551231
 20
-17.54088748954984
 30
0.0
 10
109.9506394551231
 20
-19.74953966217907
 30
0.0
 10
111.7408845050479
 20
-21.54064598654336
 30
0.0
 10
113.9503979521166
 20
-21.54064598654336
 30
0.0
 10
116.1599113991853
 20
-21.54064598654336
 30
0.0
 10
117.9501564491101
 20
-19.74953966217907
 30
0.0
 10
117.9501564491101
 20
-17.54088748954984
 30
0.0
  0
SPLINE
  5
5A
330
1F
100
AcDbEntity
  8
GRAU_10_
 62
     7
100
AcDbSpline
210
0.0
220
0.0
230
1.0
 70
    11
 71
     3
 72
    17
 73
    13
 74
     0
 42
0.0000000001
 43
0.0000000001
 40
0.0
 40
0.0
 40
0.0
 40
0.0
 40
1.0
 40
1.0
 40
1.0
 40
2.0
 40
2.0
 40
2.0
 40
3.0
 40
3.0
 40
3.0
 40
4.0
 40
4.0
 40
4.0
 40
4.0
 10
131.4502887783467
 20
-17.54088748954984
 30
0.0
 10
131.4502887783467
 20
-7.875665729588318
 30
0.0
 10
123.6151029474144
 20
-0.040824408431846
 30
0.0
 10
113.9503979521166
 20
-0.040824408431846
 30
0.0
 10
104.2856929568188
 20
-0.040824408431846
 30
0.0
 10
96.45050712588652
 20
-7.875665729588318
 30
0.0
 10
96.45050712588652
 20
-17.54088748954984
 30
0.0
 10
96.45050712588652
 20
-27.20542022995976
 30
0.0
 10
104.2856929568188
 20
-35.04077831577992
 30
0.0
 10
113.9503979521166
 20
-35.04077831577992
 30
0.0
 10
123.6151029474144
 20
-35.04077831577992
 30
0.0
 10
131.4502887783467
 20
-27.20542022995976
 30
0.0
 10
131.4502887783467
 20
-17.54088748954984
 30
0.0
  0
POLYLINE
  5
5B
330
1F
100
AcDbEntity
  8
GRAU_10_
 62
     7
100
AcDb2dPolyline
 66
     1
 10
0.0
 20
0.0
 30
0.0
  0
VERTEX
  5
5C
330
5B
100
AcDbEntity
  8
GRAU_10_
 62
     7
100
AcDbVertex
100
AcDb2dVertex
 10
10.93026165668505
 20
-0.040824408431846
 30
0.0
  0
VERTEX
  5
5D
330
5B
100
AcDbEntity
  8
GRAU_10_
 62
     7
100
AcDbVertex
100
AcDb2dVertex
 10
-0.069418719822928
 20
-5.170230460261004
 30
0.0
  0
SEQEND
  5
5E
330
5B
100
AcDbEntity
  8
GRAU_10_
  0
POLYLINE
  5
5F
330
1F
100
AcDbEntity
  8
GRAU_10_
 62
     7
100
AcDb2dPolyline
 66
     1
 10
0.0
 20
0.0
 30
0.0
  0
VERTEX
  5
60
330
5F
100
AcDbEntity
  8
GRAU_10_
 62
     7
100
AcDbVertex
100
AcDb2dVertex
 10
-0.069418719822928
 20
-29.91102775417497
 30
0.0
  0
VERTEX
  5
61
330
5F
100
AcDbEntity
  8
GRAU_10_
 62
     7
100
AcDbVertex
100
AcDb2dVertex
 10
10.93026165668505
 20
-35.04077831577992
 30
0.0
  0
VERTEX
  5
62
330
5F
100
AcDbEntity
  8
GRAU_10_
 62
     7
100
AcDbVertex
100
AcDb2dVertex
 10
25.93073405951393
 20
-35.04077831577992
 30
0.0
  0
SEQEND
  5
63
330
5F
100
AcDbEntity
  8
GRAU_10_
  0
POLYLINE
  5
64
330
1F
100
AcDbEntity
  8
GRAU_10_
 62
     7
100
AcDb2dPolyline
 66
     1
 10
0.0
 20
0.0
 30
0.0
  0
VERTEX
  5
65
330
64
100
AcDbEntity
  8
GRAU_10_
 62
     7
100
AcDbVertex
100
AcDb2dVertex
 10
25.93073405951393
 20
-0.040824408431846
 30
0.0
  0
VERTEX
  5
66
330
64
100
AcDbEntity
  8
GRAU_10_
 62
     7
100
AcDbVertex
100
AcDb2dVertex
 10
10.93026165668505
 20
-0.040824408431846
 30
0.0
  0
SEQEND
  5
67
330
64
100
AcDbEntity
  8
GRAU_10_
  0
POLYLINE
  5
68
330
1F
100
AcDbEntity
  8
GRAU_10_
 62
     7
100
AcDb2dPolyline
 66
     1
 10
0.0
 20
0.0
 30
0.0
  0
VERTEX
  5
69
330
68
100
AcDbEntity
  8
GRAU_10_
 62
     7
100
AcDbVertex
100
AcDb2dVertex
 10
25.93073405951393
 20
-33.54026598729971
 30
0.0
  0
VERTEX
  5
6A
330
68
100
AcDbEntity
  8
GRAU_10_
 62
     7
100
AcDbVertex
100
AcDb2dVertex
 10
32.93048368414049
 20
-33.54026598729971
 30
0.0
  0
SEQEND
  5
6B
330
68
100
AcDbEntity
  8
GRAU_10_
  0
POLYLINE
  5
6C
330
1F
100
AcDbEntity
  8
GRAU_10_
 62
     7
100
AcDb2dPolyline
 66
     1
 10
0.0
 20
0.0
 30
0.0
  0
VERTEX
  5
6D
330
6C
100
AcDbEntity
  8
GRAU_10_
 62
     7
100
AcDbVertex
100
AcDb2dVertex
 10
32.93048368414049
 20
-1.540819972248365
 30
0.0
  0
VERTEX
  5
6E
330
6C
100
AcDbEntity
  8
GRAU_10_
 62
     7
100
AcDbVertex
100
AcDb2dVertex
 10
25.93073405951393
 20
-1.540819972248365
 30
0.0
  0
SEQEND
  5
6F
330
6C
100
AcDbEntity
  8
GRAU_10_
  0
POLYLINE
  5
70
330
1F
100
AcDbEntity
  8
GRAU_10_
 62
     7
100
AcDb2dPolyline
 66
     1
 10
0.0
 20
0.0
 30
0.0
  0
VERTEX
  5
71
330
70
100
AcDbEntity
  8
GRAU_10_
 62
     7
100
AcDbVertex
100
AcDb2dVertex
 10
33.43071187859653
 20
-7.040746287946303
 30
0.0
  0
VERTEX
  5
72
330
70
100
AcDbEntity
  8
GRAU_10_
 62
     7
100
AcDbVertex
100
AcDb2dVertex
 10
32.93048368414049
 20
-7.040746287946303
 30
0.0
  0
SEQEND
  5
73
330
70
100
AcDbEntity
  8
GRAU_10_
  0
POLYLINE
  5
74
330
1F
100
AcDbEntity
  8
GRAU_10_
 62
     7
100
AcDb2dPolyline
 66
     1
 10
0.0
 20
0.0
 30
0.0
  0
VERTEX
  5
75
330
74
100
AcDbEntity
  8
GRAU_10_
 62
     7
100
AcDbVertex
100
AcDb2dVertex
 10
32.93048368414049
 20
-28.04085643626547
 30
0.0
  0
VERTEX
  5
76
330
74
100
AcDbEntity
  8
GRAU_10_
 62
     7
100
AcDbVertex
100
AcDb2dVertex
 10
33.43071187859653
 20
-28.04085643626547
 30
0.0
  0
SEQEND
  5
77
330
74
100
AcDbEntity
  8
GRAU_10_
  0
POLYLINE
  5
78
330
1F
100
AcDbEntity
  8
GRAU_10_
 62
     7
100
AcDb2dPolyline
 66
     1
 10
0.0
 20
0.0
 30
0.0
  0
VERTEX
  5
79
330
78
100
AcDbEntity
  8
GRAU_10_
 62
     7
100
AcDbVertex
100
AcDb2dVertex
 10
33.90596311430735
 20
-6.689346316634211
 30
0.0
  0
VERTEX
  5
7A
330
78
100
AcDbEntity
  8
GRAU_10_
 62
     7
100
AcDbVertex
100
AcDb2dVertex
 10
33.64275764559908
 20
-6.95289629511828
 30
0.0
  0
SEQEND
  5
7B
330
78
100
AcDbEntity
  8
GRAU_10_
  0
POLYLINE
  5
7C
330
1F
100
AcDbEntity
  8
GRAU_10_
 62
     7
100
AcDb2dPolyline
 66
     1
 10
0.0
 20
0.0
 30
0.0
  0
VERTEX
  5
7D
330
7C
100
AcDbEntity
  8
GRAU_10_
 62
     7
100
AcDbVertex
100
AcDb2dVertex
 10
33.64275764559908
 20
-28.1283619193177
 30
0.0
  0
VERTEX
  5
7E
330
7C
100
AcDbEntity
  8
GRAU_10_
 62
     7
100
AcDbVertex
100
AcDb2dVertex
 10
33.90734115341053
 20
-28.39294542712915
 30
0.0
  0
SEQEND
  5
7F
330
7C
100
AcDbEntity
  8
GRAU_10_
  0
SPLINE
  5
80
330
1F
100
AcDbEntity
  8
GRAU_10_
 62
     7
100
AcDbSpline
210
0.0
220
0.0
230
1.0
 70
     8
 71
     3
 72
     8
 73
     4
 74
     0
 42
0.0000000001
 43
0.0000000001
 40
0.0
 40
0.0
 40
0.0
 40
0.0
 40
1.0
 40
1.0
 40
1.0
 40
1.0
 10
33.43071187859653
 20
-7.040746287946303
 30
0.0
 10
33.5137387345634
 20
-7.040746287946303
 30
0.0
 10
33.58849735591117
 20
-7.007156584806176
 30
0.0
 10
33.64275764559908
 20
-6.95289629511828
 30
0.0
  0
SPLINE
  5
81
330
1F
100
AcDbEntity
  8
GRAU_10_
 62
     7
100
AcDbSpline
210
0.0
220
0.0
230
1.0
 70
     8
 71
     3
 72
     8
 73
     4
 74
     0
 42
0.0000000001
 43
0.0000000001
 40
0.0
 40
0.0
 40
0.0
 40
0.0
 40
1.0
 40
1.0
 40
1.0
 40
1.0
 10
33.64275764559908
 20
-28.1283619193177
 30
0.0
 10
33.58384647393792
 20
-28.07013976720814
 30
0.0
 10
33.50736530371118
 20
-28.04085643626547
 30
0.0
 10
33.43071187859653
 20
-28.04085643626547
 30
0.0
  0
POLYLINE
  5
82
330
1F
100
AcDbEntity
  8
GRAU_10_
 62
     7
100
AcDb2dPolyline
 66
     1
 10
0.0
 20
0.0
 30
0.0
  0
VERTEX
  5
83
330
82
100
AcDbEntity
  8
GRAU_10_
 62
     7
100
AcDbVertex
100
AcDb2dVertex
 10
50.90390319720242
 20
-6.920340121305542
 30
0.0
  0
VERTEX
  5
84
330
82
100
AcDbEntity
  8
GRAU_10_
 62
     7
100
AcDbVertex
100
AcDb2dVertex
 10
42.65272181199628
 20
-6.727414646859687
 30
0.0
  0
VERTEX
  5
85
330
82
100
AcDbEntity
  8
GRAU_10_
 62
     7
100
AcDbVertex
100
AcDb2dVertex
 10
34.40119591701434
 20
-6.535178191965425
 30
0.0
  0
SEQEND
  5
86
330
82
100
AcDbEntity
  8
GRAU_10_
  0
POLYLINE
  5
87
330
1F
100
AcDbEntity
  8
GRAU_10_
 62
     7
100
AcDb2dPolyline
 66
     1
 10
0.0
 20
0.0
 30
0.0
  0
VERTEX
  5
88
330
87
100
AcDbEntity
  8
GRAU_10_
 62
     7
100
AcDbVertex
100
AcDb2dVertex
 10
51.92761399598074
 20
-7.939916802774303
 30
0.0
  0
VERTEX
  5
89
330
87
100
AcDbEntity
  8
GRAU_10_
 62
     7
100
AcDbVertex
100
AcDb2dVertex
 10
51.41532795937183
 20
-7.42849204060489
 30
0.0
  0
VERTEX
  5
8A
330
87
100
AcDbEntity
  8
GRAU_10_
 62
     7
100
AcDbVertex
100
AcDb2dVertex
 10
50.90355868742662
 20
-6.917239533323376
 30
0.0
  0
SEQEND
  5
8B
330
87
100
AcDbEntity
  8
GRAU_10_
  0
POLYLINE
  5
8C
330
1F
100
AcDbEntity
  8
GRAU_10_
 62
     7
100
AcDb2dPolyline
 66
     1
 10
0.0
 20
0.0
 30
0.0
  0
VERTEX
  5
8D
330
8C
100
AcDbEntity
  8
GRAU_10_
 62
     7
100
AcDbVertex
100
AcDb2dVertex
 10
34.34349052956848
 20
-28.56382227592405
 30
0.0
  0
VERTEX
  5
8E
330
8C
100
AcDbEntity
  8
GRAU_10_
 62
     7
100
AcDbVertex
100
AcDb2dVertex
 10
42.6237829908294
 20
-28.37003552703871
 30
0.0
  0
VERTEX
  5
8F
330
8C
100
AcDbEntity
  8
GRAU_10_
 62
     7
100
AcDbVertex
100
AcDb2dVertex
 10
50.90390319720242
 20
-28.17590426837757
 30
0.0
  0
SEQEND
  5
90
330
8C
100
AcDbEntity
  8
GRAU_10_
  0
POLYLINE
  5
91
330
1F
100
AcDbEntity
  8
GRAU_10_
 62
     7
100
AcDb2dPolyline
 66
     1
 10
0.0
 20
0.0
 30
0.0
  0
VERTEX
  5
92
330
91
100
AcDbEntity
  8
GRAU_10_
 62
     7
100
AcDbVertex
100
AcDb2dVertex
 10
50.90355868742662
 20
-28.10441848989986
 30
0.0
  0
VERTEX
  5
93
330
91
100
AcDbEntity
  8
GRAU_10_
 62
     7
100
AcDbVertex
100
AcDb2dVertex
 10
51.41532795937183
 20
-27.59712784504
 30
0.0
  0
VERTEX
  5
94
330
91
100
AcDbEntity
  8
GRAU_10_
 62
     7
100
AcDbVertex
100
AcDb2dVertex
 10
51.92761399598074
 20
-27.08880367085276
 30
0.0
  0
SEQEND
  5
95
330
91
100
AcDbEntity
  8
GRAU_10_
  0
POLYLINE
  5
96
330
1F
100
AcDbEntity
  8
GRAU_10_
 62
     7
100
AcDb2dPolyline
 66
     1
 10
0.0
 20
0.0
 30
0.0
  0
VERTEX
  5
97
330
96
100
AcDbEntity
  8
GRAU_10_
 62
     7
100
AcDbVertex
100
AcDb2dVertex
 10
51.92761399598074
 20
-27.12377141309607
 30
0.0
  0
VERTEX
  5
98
330
96
100
AcDbEntity
  8
GRAU_10_
 62
     7
100
AcDbVertex
100
AcDb2dVertex
 10
51.92761399598074
 20
-27.08311925955212
 30
0.0
  0
SEQEND
  5
99
330
96
100
AcDbEntity
  8
GRAU_10_
  0
POLYLINE
  5
9A
330
1F
100
AcDbEntity
  8
GRAU_10_
 62
     7
100
AcDb2dPolyline
 66
     1
 10
0.0
 20
0.0
 30
0.0
  0
VERTEX
  5
9B
330
9A
100
AcDbEntity
  8
GRAU_10_
 62
     7
100
AcDbVertex
100
AcDb2dVertex
 10
51.92761399598074
 20
-7.952319154702965
 30
0.0
  0
VERTEX
  5
9C
330
9A
100
AcDbEntity
  8
GRAU_10_
 62
     7
100
AcDbVertex
100
AcDb2dVertex
 10
51.92761399598074
 20
-7.928031215509336
 30
0.0
  0
VERTEX
  5
9D
330
9A
100
AcDbEntity
  8
GRAU_10_
 62
     7
100
AcDbVertex
100
AcDb2dVertex
 10
51.92761399598074
 20
-7.954041703581947
 30
0.0
  0
VERTEX
  5
9E
330
9A
100
AcDbEntity
  8
GRAU_10_
 62
     7
100
AcDbVertex
100
AcDb2dVertex
 10
51.92761399598074
 20
-8.10114737784691
 30
0.0
  0
VERTEX
  5
9F
330
9A
100
AcDbEntity
  8
GRAU_10_
 62
     7
100
AcDbVertex
100
AcDb2dVertex
 10
51.92761399598074
 20
-8.554522242794668
 30
0.0
  0
VERTEX
  5
A0
330
9A
100
AcDbEntity
  8
GRAU_10_
 62
     7
100
AcDbVertex
100
AcDb2dVertex
 10
51.92761399598074
 20
-9.264384635822674
 30
0.0
  0
VERTEX
  5
A1
330
9A
100
AcDbEntity
  8
GRAU_10_
 62
     7
100
AcDbVertex
100
AcDb2dVertex
 10
51.92761399598074
 20
-9.854529881761511
 30
0.0
  0
VERTEX
  5
A2
330
9A
100
AcDbEntity
  8
GRAU_10_
 62
     7
100
AcDbVertex
100
AcDb2dVertex
 10
51.92761399598074
 20
-10.53183610097678
 30
0.0
  0
VERTEX
  5
A3
330
9A
100
AcDbEntity
  8
GRAU_10_
 62
     7
100
AcDbVertex
100
AcDb2dVertex
 10
51.92761399598074
 20
-11.29699231302007
 30
0.0
  0
VERTEX
  5
A4
330
9A
100
AcDbEntity
  8
GRAU_10_
 62
     7
100
AcDbVertex
100
AcDb2dVertex
 10
51.92761399598074
 20
-11.82409226998821
 30
0.0
  0
VERTEX
  5
A5
330
9A
100
AcDbEntity
  8
GRAU_10_
 62
     7
100
AcDbVertex
100
AcDb2dVertex
 10
51.92761399598074
 20
-12.36738418641877
 30
0.0
  0
VERTEX
  5
A6
330
9A
100
AcDbEntity
  8
GRAU_10_
 62
     7
100
AcDbVertex
100
AcDb2dVertex
 10
51.92761399598074
 20
-12.92790159163913
 30
0.0
  0
VERTEX
  5
A7
330
9A
100
AcDbEntity
  8
GRAU_10_
 62
     7
100
AcDbVertex
100
AcDb2dVertex
 10
51.92761399598074
 20
-13.50426644654612
 30
0.0
  0
VERTEX
  5
A8
330
9A
100
AcDbEntity
  8
GRAU_10_
 62
     7
100
AcDbVertex
100
AcDb2dVertex
 10
51.92761399598074
 20
-14.09699551580343
 30
0.0
  0
VERTEX
  5
A9
330
9A
100
AcDbEntity
  8
GRAU_10_
 62
     7
100
AcDbVertex
100
AcDb2dVertex
 10
51.92761399598074
 20
-15.04767024211296
 30
0.0
  0
VERTEX
  5
AA
330
9A
100
AcDbEntity
  8
GRAU_10_
 62
     7
100
AcDbVertex
100
AcDb2dVertex
 10
51.92761399598074
 20
-15.95510899156007
 30
0.0
  0
VERTEX
  5
AB
330
9A
100
AcDbEntity
  8
GRAU_10_
 62
     7
100
AcDbVertex
100
AcDb2dVertex
 10
51.92761399598074
 20
-16.82017303858425
 30
0.0
  0
VERTEX
  5
AC
330
9A
100
AcDbEntity
  8
GRAU_10_
 62
     7
100
AcDbVertex
100
AcDb2dVertex
 10
51.92761399598074
 20
-17.6428623831855
 30
0.0
  0
VERTEX
  5
AD
330
9A
100
AcDbEntity
  8
GRAU_10_
 62
     7
100
AcDbVertex
100
AcDb2dVertex
 10
51.92761399598074
 20
-18.46365692401987
 30
0.0
  0
VERTEX
  5
AE
330
9A
100
AcDbEntity
  8
GRAU_10_
 62
     7
100
AcDbVertex
100
AcDb2dVertex
 10
51.92761399598074
 20
-19.32338106951921
 30
0.0
  0
VERTEX
  5
AF
330
9A
100
AcDbEntity
  8
GRAU_10_
 62
     7
100
AcDbVertex
100
AcDb2dVertex
 10
51.92761399598074
 20
-19.76779868029627
 30
0.0
  0
VERTEX
  5
B0
330
9A
100
AcDbEntity
  8
GRAU_10_
 62
     7
100
AcDbVertex
100
AcDb2dVertex
 10
51.92761399598074
 20
-20.22151805501982
 30
0.0
  0
VERTEX
  5
B1
330
9A
100
AcDbEntity
  8
GRAU_10_
 62
     7
100
AcDbVertex
100
AcDb2dVertex
 10
51.92761399598074
 20
-20.68591723279306
 30
0.0
  0
VERTEX
  5
B2
330
9A
100
AcDbEntity
  8
GRAU_10_
 62
     7
100
AcDbVertex
100
AcDb2dVertex
 10
51.92761399598074
 20
-21.159273664737
 30
0.0
  0
VERTEX
  5
B3
330
9A
100
AcDbEntity
  8
GRAU_10_
 62
     7
100
AcDbVertex
100
AcDb2dVertex
 10
51.92761399598074
 20
-22.1304467227064
 30
0.0
  0
VERTEX
  5
B4
330
9A
100
AcDbEntity
  8
GRAU_10_
 62
     7
100
AcDbVertex
100
AcDb2dVertex
 10
51.92761399598074
 20
-23.05235488273694
 30
0.0
  0
VERTEX
  5
B5
330
9A
100
AcDbEntity
  8
GRAU_10_
 62
     7
100
AcDbVertex
100
AcDb2dVertex
 10
51.92761399598074
 20
-23.92568716438023
 30
0.0
  0
VERTEX
  5
B6
330
9A
100
AcDbEntity
  8
GRAU_10_
 62
     7
100
AcDbVertex
100
AcDb2dVertex
 10
51.92761399598074
 20
-25.02036697697256
 30
0.0
  0
VERTEX
  5
B7
330
9A
100
AcDbEntity
  8
GRAU_10_
 62
     7
100
AcDbVertex
100
AcDb2dVertex
 10
51.92761399598074
 20
-25.91471435493941
 30
0.0
  0
VERTEX
  5
B8
330
9A
100
AcDbEntity
  8
GRAU_10_
 62
     7
100
AcDbVertex
100
AcDb2dVertex
 10
51.92761399598074
 20
-26.59977204411009
 30
0.0
  0
VERTEX
  5
B9
330
9A
100
AcDbEntity
  8
GRAU_10_
 62
     7
100
AcDbVertex
100
AcDb2dVertex
 10
51.92761399598074
 20
-27.02076299013301
 30
0.0
  0
SEQEND
  5
BA
330
9A
100
AcDbEntity
  8
GRAU_10_
  0
POLYLINE
  5
BB
330
1F
100
AcDbEntity
  8
GRAU_10_
 62
     7
100
AcDb2dPolyline
 66
     1
 10
0.0
 20
0.0
 30
0.0
  0
VERTEX
  5
BC
330
BB
100
AcDbEntity
  8
GRAU_10_
 62
     7
100
AcDbVertex
100
AcDb2dVertex
 10
32.93048368414049
 20
-17.54088748954984
 30
0.0
  0
VERTEX
  5
BD
330
BB
100
AcDbEntity
  8
GRAU_10_
 62
     7
100
AcDbVertex
100
AcDb2dVertex
 10
32.93048368414049
 20
-15.61180499997919
 30
0.0
  0
VERTEX
  5
BE
330
BB
100
AcDbEntity
  8
GRAU_10_
 62
     7
100
AcDbVertex
100
AcDb2dVertex
 10
32.93048368414049
 20
-13.71166133157542
 30
0.0
  0
VERTEX
  5
BF
330
BB
100
AcDbEntity
  8
GRAU_10_
 62
     7
100
AcDbVertex
100
AcDb2dVertex
 10
32.93048368414049
 20
-11.86681148218693
 30
0.0
  0
VERTEX
  5
C0
330
BB
100
AcDbEntity
  8
GRAU_10_
 62
     7
100
AcDbVertex
100
AcDb2dVertex
 10
32.93048368414049
 20
-10.10533299854112
 30
0.0
  0
VERTEX
  5
C1
330
BB
100
AcDbEntity
  8
GRAU_10_
 62
     7
100
AcDbVertex
100
AcDb2dVertex
 10
32.93048368414049
 20
-8.45185832960741
 30
0.0
  0
VERTEX
  5
C2
330
BB
100
AcDbEntity
  8
GRAU_10_
 62
     7
100
AcDbVertex
100
AcDb2dVertex
 10
32.93048368414049
 20
-6.930675414579427
 30
0.0
  0
VERTEX
  5
C3
330
BB
100
AcDbEntity
  8
GRAU_10_
 62
     7
100
AcDbVertex
100
AcDb2dVertex
 10
32.93048368414049
 20
-5.564349643771821
 30
0.0
  0
VERTEX
  5
C4
330
BB
100
AcDbEntity
  8
GRAU_10_
 62
     7
100
AcDbVertex
100
AcDb2dVertex
 10
32.93048368414049
 20
-4.373034839068669
 30
0.0
  0
VERTEX
  5
C5
330
BB
100
AcDbEntity
  8
GRAU_10_
 62
     7
100
AcDbVertex
100
AcDb2dVertex
 10
32.93048368414049
 20
-3.373611979483984
 30
0.0
  0
VERTEX
  5
C6
330
BB
100
AcDbEntity
  8
GRAU_10_
 62
     7
100
AcDbVertex
100
AcDb2dVertex
 10
32.93048368414049
 20
-2.580550475601203
 30
0.0
  0
VERTEX
  5
C7
330
BB
100
AcDbEntity
  8
GRAU_10_
 62
     7
100
AcDbVertex
100
AcDb2dVertex
 10
32.93048368414049
 20
-2.005563659797397
 30
0.0
  0
VERTEX
  5
C8
330
BB
100
AcDbEntity
  8
GRAU_10_
 62
     7
100
AcDbVertex
100
AcDb2dVertex
 10
32.93048368414049
 20
-1.65726427646747
 30
0.0
  0
VERTEX
  5
C9
330
BB
100
AcDbEntity
  8
GRAU_10_
 62
     7
100
AcDbVertex
100
AcDb2dVertex
 10
32.93048368414049
 20
-1.540819972248365
 30
0.0
  0
SEQEND
  5
CA
330
BB
100
AcDbEntity
  8
GRAU_10_
  0
POLYLINE
  5
CB
330
1F
100
AcDbEntity
  8
GRAU_10_
 62
     7
100
AcDb2dPolyline
 66
     1
 10
0.0
 20
0.0
 30
0.0
  0
VERTEX
  5
CC
330
CB
100
AcDbEntity
  8
GRAU_10_
 62
     7
100
AcDbVertex
100
AcDb2dVertex
 10
32.93048368414049
 20
-33.54026598729971
 30
0.0
  0
VERTEX
  5
CD
330
CB
100
AcDbEntity
  8
GRAU_10_
 62
     7
100
AcDbVertex
100
AcDb2dVertex
 10
32.93048368414049
 20
-33.4243384477443
 30
0.0
  0
VERTEX
  5
CE
330
CB
100
AcDbEntity
  8
GRAU_10_
 62
     7
100
AcDbVertex
100
AcDb2dVertex
 10
32.93048368414049
 20
-33.07535004486278
 30
0.0
  0
VERTEX
  5
CF
330
CB
100
AcDbEntity
  8
GRAU_10_
 62
     7
100
AcDbVertex
100
AcDb2dVertex
 10
32.93048368414049
 20
-32.50070773883477
 30
0.0
  0
VERTEX
  5
D0
330
CB
100
AcDbEntity
  8
GRAU_10_
 62
     7
100
AcDbVertex
100
AcDb2dVertex
 10
32.93048368414049
 20
-31.70799074472779
 30
0.0
  0
VERTEX
  5
D1
330
CB
100
AcDbEntity
  8
GRAU_10_
 62
     7
100
AcDbVertex
100
AcDb2dVertex
 10
32.93048368414049
 20
-30.70822337536731
 30
0.0
  0
VERTEX
  5
D2
330
CB
100
AcDbEntity
  8
GRAU_10_
 62
     7
100
AcDbVertex
100
AcDb2dVertex
 10
32.93048368414049
 20
-29.51690857066415
 30
0.0
  0
VERTEX
  5
D3
330
CB
100
AcDbEntity
  8
GRAU_10_
 62
     7
100
AcDbVertex
100
AcDb2dVertex
 10
32.93048368414049
 20
-28.15023829008075
 30
0.0
  0
VERTEX
  5
D4
330
CB
100
AcDbEntity
  8
GRAU_10_
 62
     7
100
AcDbVertex
100
AcDb2dVertex
 10
32.93048368414049
 20
-26.62974439460436
 30
0.0
  0
VERTEX
  5
D5
330
CB
100
AcDbEntity
  8
GRAU_10_
 62
     7
100
AcDbVertex
100
AcDb2dVertex
 10
32.93048368414049
 20
-24.97626972567065
 30
0.0
  0
VERTEX
  5
D6
330
CB
100
AcDbEntity
  8
GRAU_10_
 62
     7
100
AcDbVertex
100
AcDb2dVertex
 10
32.93048368414049
 20
-23.21461898713694
 30
0.0
  0
VERTEX
  5
D7
330
CB
100
AcDbEntity
  8
GRAU_10_
 62
     7
100
AcDbVertex
100
AcDb2dVertex
 10
32.93048368414049
 20
-21.36942462797266
 30
0.0
  0
VERTEX
  5
D8
330
CB
100
AcDbEntity
  8
GRAU_10_
 62
     7
100
AcDbVertex
100
AcDb2dVertex
 10
32.93048368414049
 20
-19.46945321445679
 30
0.0
  0
VERTEX
  5
D9
330
CB
100
AcDbEntity
  8
GRAU_10_
 62
     7
100
AcDbVertex
100
AcDb2dVertex
 10
32.93048368414049
 20
-17.54088748954984
 30
0.0
  0
SEQEND
  5
DA
330
CB
100
AcDbEntity
  8
GRAU_10_
  0
POLYLINE
  5
DB
330
1F
100
AcDbEntity
  8
GRAU_10_
 62
     7
100
AcDb2dPolyline
 66
     1
 10
0.0
 20
0.0
 30
0.0
  0
VERTEX
  5
DC
330
DB
100
AcDbEntity
  8
GRAU_10_
 62
     7
100
AcDbVertex
100
AcDb2dVertex
 10
-0.069418719822928
 20
-17.54088748954984
 30
0.0
  0
VERTEX
  5
DD
330
DB
100
AcDbEntity
  8
GRAU_10_
 62
     7
100
AcDbVertex
100
AcDb2dVertex
 10
-0.069418719822928
 20
-15.92617017039319
 30
0.0
  0
VERTEX
  5
DE
330
DB
100
AcDbEntity
  8
GRAU_10_
 62
     7
100
AcDbVertex
100
AcDb2dVertex
 10
-0.069418719822928
 20
-14.33901363330024
 30
0.0
  0
VERTEX
  5
DF
330
DB
100
AcDbEntity
  8
GRAU_10_
 62
     7
100
AcDbVertex
100
AcDb2dVertex
 10
-0.069418719822928
 20
-12.80663415055888
 30
0.0
  0
VERTEX
  5
E0
330
DB
100
AcDbEntity
  8
GRAU_10_
 62
     7
100
AcDbVertex
100
AcDb2dVertex
 10
-0.069418719822928
 20
-11.35555897490542
 30
0.0
  0
VERTEX
  5
E1
330
DB
100
AcDbEntity
  8
GRAU_10_
 62
     7
100
AcDbVertex
100
AcDb2dVertex
 10
-0.069418719822928
 20
-10.00973153575769
 30
0.0
  0
VERTEX
  5
E2
330
DB
100
AcDbEntity
  8
GRAU_10_
 62
     7
100
AcDbVertex
100
AcDb2dVertex
 10
-0.069418719822928
 20
-8.793095262533516
 30
0.0
  0
VERTEX
  5
E3
330
DB
100
AcDbEntity
  8
GRAU_10_
 62
     7
100
AcDbVertex
100
AcDb2dVertex
 10
-0.069418719822928
 20
-7.726148486892781
 30
0.0
  0
VERTEX
  5
E4
330
DB
100
AcDbEntity
  8
GRAU_10_
 62
     7
100
AcDbVertex
100
AcDb2dVertex
 10
-0.069418719822928
 20
-6.827322481840576
 30
0.0
  0
VERTEX
  5
E5
330
DB
100
AcDbEntity
  8
GRAU_10_
 62
     7
100
AcDbVertex
100
AcDb2dVertex
 10
-0.069418719822928
 20
-6.111431167736137
 30
0.0
  0
VERTEX
  5
E6
330
DB
100
AcDbEntity
  8
GRAU_10_
 62
     7
100
AcDbVertex
100
AcDb2dVertex
 10
-0.069418719822928
 20
-5.591221406283922
 30
0.0
  0
VERTEX
  5
E7
330
DB
100
AcDbEntity
  8
GRAU_10_
 62
     7
100
AcDbVertex
100
AcDb2dVertex
 10
-0.069418719822928
 20
-5.27582270654253
 30
0.0
  0
VERTEX
  5
E8
330
DB
100
AcDbEntity
  8
GRAU_10_
 62
     7
100
AcDbVertex
100
AcDb2dVertex
 10
-0.069418719822928
 20
-5.170230460261004
 30
0.0
  0
SEQEND
  5
E9
330
DB
100
AcDbEntity
  8
GRAU_10_
  0
POLYLINE
  5
EA
330
1F
100
AcDbEntity
  8
GRAU_10_
 62
     7
100
AcDb2dPolyline
 66
     1
 10
0.0
 20
0.0
 30
0.0
  0
VERTEX
  5
EB
330
EA
100
AcDbEntity
  8
GRAU_10_
 62
     7
100
AcDbVertex
100
AcDb2dVertex
 10
-0.069418719822928
 20
-29.91102775417497
 30
0.0
  0
VERTEX
  5
EC
330
EA
100
AcDbEntity
  8
GRAU_10_
 62
     7
100
AcDbVertex
100
AcDb2dVertex
 10
-0.069418719822928
 20
-29.80543550789345
 30
0.0
  0
VERTEX
  5
ED
330
EA
100
AcDbEntity
  8
GRAU_10_
 62
     7
100
AcDbVertex
100
AcDb2dVertex
 10
-0.069418719822928
 20
-29.48986455326416
 30
0.0
  0
VERTEX
  5
EE
330
EA
100
AcDbEntity
  8
GRAU_10_
 62
     7
100
AcDbVertex
100
AcDb2dVertex
 10
-0.069418719822928
 20
-28.96931028203614
 30
0.0
  0
VERTEX
  5
EF
330
EA
100
AcDbEntity
  8
GRAU_10_
 62
     7
100
AcDbVertex
100
AcDb2dVertex
 10
-0.069418719822928
 20
-28.2535912228196
 30
0.0
  0
VERTEX
  5
F0
330
EA
100
AcDbEntity
  8
GRAU_10_
 62
     7
100
AcDbVertex
100
AcDb2dVertex
 10
-0.069418719822928
 20
-27.3547652177674
 30
0.0
  0
VERTEX
  5
F1
330
EA
100
AcDbEntity
  8
GRAU_10_
 62
     7
100
AcDbVertex
100
AcDb2dVertex
 10
-0.069418719822928
 20
-26.28799069701456
 30
0.0
  0
VERTEX
  5
F2
330
EA
100
AcDbEntity
  8
GRAU_10_
 62
     7
100
AcDbVertex
100
AcDb2dVertex
 10
-0.069418719822928
 20
-25.07152667867829
 30
0.0
  0
VERTEX
  5
F3
330
EA
100
AcDbEntity
  8
GRAU_10_
 62
     7
100
AcDbVertex
100
AcDb2dVertex
 10
-0.069418719822928
 20
-23.72569923953056
 30
0.0
  0
VERTEX
  5
F4
330
EA
100
AcDbEntity
  8
GRAU_10_
 62
     7
100
AcDbVertex
100
AcDb2dVertex
 10
-0.069418719822928
 20
-22.27479631876499
 30
0.0
  0
VERTEX
  5
F5
330
EA
100
AcDbEntity
  8
GRAU_10_
 62
     7
100
AcDbVertex
100
AcDb2dVertex
 10
-0.069418719822928
 20
-20.74224458113573
 30
0.0
  0
VERTEX
  5
F6
330
EA
100
AcDbEntity
  8
GRAU_10_
 62
     7
100
AcDbVertex
100
AcDb2dVertex
 10
-0.069418719822928
 20
-19.15543255381858
 30
0.0
  0
VERTEX
  5
F7
330
EA
100
AcDbEntity
  8
GRAU_10_
 62
     7
100
AcDbVertex
100
AcDb2dVertex
 10
-0.069418719822928
 20
-17.54088748954984
 30
0.0
  0
SEQEND
  5
F8
330
EA
100
AcDbEntity
  8
GRAU_10_
  0
POLYLINE
  5
F9
330
1F
100
AcDbEntity
  8
GRAU_10_
 62
     7
100
AcDb2dPolyline
 66
     1
 10
0.0
 20
0.0
 30
0.0
  0
VERTEX
  5
FA
330
F9
100
AcDbEntity
  8
GRAU_10_
 62
     7
100
AcDbVertex
100
AcDb2dVertex
 10
10.93026165668505
 20
-17.54088748954984
 30
0.0
  0
VERTEX
  5
FB
330
F9
100
AcDbEntity
  8
GRAU_10_
 62
     7
100
AcDbVertex
100
AcDb2dVertex
 10
10.93026165668505
 20
-15.58114362993333
 30
0.0
  0
VERTEX
  5
FC
330
F9
100
AcDbEntity
  8
GRAU_10_
 62
     7
100
AcDbVertex
100
AcDb2dVertex
 10
10.93026165668505
 20
-13.64620447417415
 30
0.0
  0
VERTEX
  5
FD
330
F9
100
AcDbEntity
  8
GRAU_10_
 62
     7
100
AcDbVertex
100
AcDb2dVertex
 10
10.93026165668505
 20
-11.76087472612961
 30
0.0
  0
VERTEX
  5
FE
330
F9
100
AcDbEntity
  8
GRAU_10_
 62
     7
100
AcDbVertex
100
AcDb2dVertex
 10
10.93026165668505
 20
-9.947892031002274
 30
0.0
  0
VERTEX
  5
FF
330
F9
100
AcDbEntity
  8
GRAU_10_
 62
     7
100
AcDbVertex
100
AcDb2dVertex
 10
10.93026165668505
 20
-8.229994033994677
 30
0.0
  0
VERTEX
  5
100
330
F9
100
AcDbEntity
  8
GRAU_10_
 62
     7
100
AcDbVertex
100
AcDb2dVertex
 10
10.93026165668505
 20
-6.629401615645677
 30
0.0
  0
VERTEX
  5
101
330
F9
100
AcDbEntity
  8
GRAU_10_
 62
     7
100
AcDbVertex
100
AcDb2dVertex
 10
10.93026165668505
 20
-5.166440852727246
 30
0.0
  0
VERTEX
  5
102
330
F9
100
AcDbEntity
  8
GRAU_10_
 62
     7
100
AcDbVertex
100
AcDb2dVertex
 10
10.93026165668505
 20
-3.858681743804989
 30
0.0
  0
VERTEX
  5
103
330
F9
100
AcDbEntity
  8
GRAU_10_
 62
     7
100
AcDbVertex
100
AcDb2dVertex
 10
10.93026165668505
 20
-2.723177522780817
 30
0.0
  0
VERTEX
  5
104
330
F9
100
AcDbEntity
  8
GRAU_10_
 62
     7
100
AcDbVertex
100
AcDb2dVertex
 10
10.93026165668505
 20
-1.773364070910779
 30
0.0
  0
VERTEX
  5
105
330
F9
100
AcDbEntity
  8
GRAU_10_
 62
     7
100
AcDbVertex
100
AcDb2dVertex
 10
10.93026165668505
 20
-1.022332759675131
 30
0.0
  0
VERTEX
  5
106
330
F9
100
AcDbEntity
  8
GRAU_10_
 62
     7
100
AcDbVertex
100
AcDb2dVertex
 10
10.93026165668505
 20
-0.4790408432445728
 30
0.0
  0
VERTEX
  5
107
330
F9
100
AcDbEntity
  8
GRAU_10_
 62
     7
100
AcDbVertex
100
AcDb2dVertex
 10
10.93026165668505
 20
-0.1507230269108239
 30
0.0
  0
VERTEX
  5
108
330
F9
100
AcDbEntity
  8
GRAU_10_
 62
     7
100
AcDbVertex
100
AcDb2dVertex
 10
10.93026165668505
 20
-0.040824408431846
 30
0.0
  0
SEQEND
  5
109
330
F9
100
AcDbEntity
  8
GRAU_10_
  0
POLYLINE
  5
10A
330
1F
100
AcDbEntity
  8
GRAU_10_
 62
     7
100
AcDb2dPolyline
 66
     1
 10
0.0
 20
0.0
 30
0.0
  0
VERTEX
  5
10B
330
10A
100
AcDbEntity
  8
GRAU_10_
 62
     7
100
AcDbVertex
100
AcDb2dVertex
 10
10.93026165668505
 20
-35.04077831577992
 30
0.0
  0
VERTEX
  5
10C
330
10A
100
AcDbEntity
  8
GRAU_10_
 62
     7
100
AcDbVertex
100
AcDb2dVertex
 10
10.93026165668505
 20
-34.93070744241305
 30
0.0
  0
VERTEX
  5
10D
330
10A
100
AcDbEntity
  8
GRAU_10_
 62
     7
100
AcDbVertex
100
AcDb2dVertex
 10
10.93026165668505
 20
-34.60187286141561
 30
0.0
  0
VERTEX
  5
10E
330
10A
100
AcDbEntity
  8
GRAU_10_
 62
     7
100
AcDbVertex
100
AcDb2dVertex
 10
10.93026165668505
 20
-34.05892545476085
 30
0.0
  0
VERTEX
  5
10F
330
10A
100
AcDbEntity
  8
GRAU_10_
 62
     7
100
AcDbVertex
100
AcDb2dVertex
 10
10.93026165668505
 20
-33.3078941435252
 30
0.0
  0
VERTEX
  5
110
330
10A
100
AcDbEntity
  8
GRAU_10_
 62
     7
100
AcDbVertex
100
AcDb2dVertex
 10
10.93026165668505
 20
-32.35825294654305
 30
0.0
  0
VERTEX
  5
111
330
10A
100
AcDbEntity
  8
GRAU_10_
 62
     7
100
AcDbVertex
100
AcDb2dVertex
 10
10.93026165668505
 20
-31.22292098040678
 30
0.0
  0
VERTEX
  5
112
330
10A
100
AcDbEntity
  8
GRAU_10_
 62
     7
100
AcDbVertex
100
AcDb2dVertex
 10
10.93026165668505
 20
-29.91516187148452
 30
0.0
  0
VERTEX
  5
113
330
10A
100
AcDbEntity
  8
GRAU_10_
 62
     7
100
AcDbVertex
100
AcDb2dVertex
 10
10.93026165668505
 20
-28.4518565987903
 30
0.0
  0
VERTEX
  5
114
330
10A
100
AcDbEntity
  8
GRAU_10_
 62
     7
100
AcDbVertex
100
AcDb2dVertex
 10
10.93026165668505
 20
-26.8509196706655
 30
0.0
  0
VERTEX
  5
115
330
10A
100
AcDbEntity
  8
GRAU_10_
 62
     7
100
AcDbVertex
100
AcDb2dVertex
 10
10.93026165668505
 20
-25.1331939285458
 30
0.0
  0
VERTEX
  5
116
330
10A
100
AcDbEntity
  8
GRAU_10_
 62
     7
100
AcDbVertex
100
AcDb2dVertex
 10
10.93026165668505
 20
-23.32038348830636
 30
0.0
  0
VERTEX
  5
117
330
10A
100
AcDbEntity
  8
GRAU_10_
 62
     7
100
AcDbVertex
100
AcDb2dVertex
 10
10.93026165668505
 20
-21.43488148537393
 30
0.0
  0
VERTEX
  5
118
330
10A
100
AcDbEntity
  8
GRAU_10_
 62
     7
100
AcDbVertex
100
AcDb2dVertex
 10
10.93026165668505
 20
-19.50011458450265
 30
0.0
  0
VERTEX
  5
119
330
10A
100
AcDbEntity
  8
GRAU_10_
 62
     7
100
AcDbVertex
100
AcDb2dVertex
 10
10.93026165668505
 20
-17.54088748954984
 30
0.0
  0
SEQEND
  5
11A
330
10A
100
AcDbEntity
  8
GRAU_10_
  0
POLYLINE
  5
11B
330
1F
100
AcDbEntity
  8
GRAU_10_
 62
     7
100
AcDb2dPolyline
 66
     1
 10
0.0
 20
0.0
 30
0.0
  0
VERTEX
  5
11C
330
11B
100
AcDbEntity
  8
GRAU_10_
 62
     7
100
AcDbVertex
100
AcDb2dVertex
 10
11.93037353582133
 20
-17.54088748954984
 30
0.0
  0
VERTEX
  5
11D
330
11B
100
AcDbEntity
  8
GRAU_10_
 62
     7
100
AcDbVertex
100
AcDb2dVertex
 10
11.98618411950031
 20
-16.8787397004696
 30
0.0
  0
VERTEX
  5
11E
330
11B
100
AcDbEntity
  8
GRAU_10_
 62
     7
100
AcDbVertex
100
AcDb2dVertex
 10
12.14913724345189
 20
-16.23553994905815
 30
0.0
  0
VERTEX
  5
11F
330
11B
100
AcDbEntity
  8
GRAU_10_
 62
     7
100
AcDbVertex
100
AcDb2dVertex
 10
12.41647682946972
 20
-15.63058078276008
 30
0.0
  0
VERTEX
  5
120
330
11B
100
AcDbEntity
  8
GRAU_10_
 62
     7
100
AcDbVertex
100
AcDb2dVertex
 10
12.7783843489436
 20
-15.07867612193462
 30
0.0
  0
VERTEX
  5
121
330
11B
100
AcDbEntity
  8
GRAU_10_
 62
     7
100
AcDbVertex
100
AcDb2dVertex
 10
13.23313725299454
 20
-14.58706067187348
 30
0.0
  0
VERTEX
  5
122
330
11B
100
AcDbEntity
  8
GRAU_10_
 62
     7
100
AcDbVertex
100
AcDb2dVertex
 10
13.76402681749644
 20
-14.17812756800343
 30
0.0
  0
VERTEX
  5
123
330
11B
100
AcDbEntity
  8
GRAU_10_
 62
     7
100
AcDbVertex
100
AcDb2dVertex
 10
14.36450735670916
 20
-13.86066180960726
 30
0.0
  0
VERTEX
  5
124
330
11B
100
AcDbEntity
  8
GRAU_10_
 62
     7
100
AcDbVertex
100
AcDb2dVertex
 10
15.01149671565436
 20
-13.64758251327733
 30
0.0
  0
VERTEX
  5
125
330
11B
100
AcDbEntity
  8
GRAU_10_
 62
     7
100
AcDbVertex
100
AcDb2dVertex
 10
15.6739890145104
 20
-13.54905271739963
 30
0.0
  0
VERTEX
  5
126
330
11B
100
AcDbEntity
  8
GRAU_10_
 62
     7
100
AcDbVertex
100
AcDb2dVertex
 10
16.34492180287344
 20
-13.56214408887988
 30
0.0
  0
VERTEX
  5
127
330
11B
100
AcDbEntity
  8
GRAU_10_
 62
     7
100
AcDbVertex
100
AcDb2dVertex
 10
16.99018861293966
 20
-13.68427280439962
 30
0.0
  0
VERTEX
  5
128
330
11B
100
AcDbEntity
  8
GRAU_10_
 62
     7
100
AcDbVertex
100
AcDb2dVertex
 10
17.606516601839
 20
-13.90837641355503
 30
0.0
  0
VERTEX
  5
129
330
11B
100
AcDbEntity
  8
GRAU_10_
 62
     7
100
AcDbVertex
100
AcDb2dVertex
 10
18.18012537853962
 20
-14.23393815168241
 30
0.0
  0
VERTEX
  5
12A
330
11B
100
AcDbEntity
  8
GRAU_10_
 62
     7
100
AcDbVertex
100
AcDb2dVertex
 10
18.69275592492432
 20
-14.64769439241361
 30
0.0
  0
VERTEX
  5
12B
330
11B
100
AcDbEntity
  8
GRAU_10_
 62
     7
100
AcDbVertex
100
AcDb2dVertex
 10
19.13975735901985
 20
-15.15326248839449
 30
0.0
  0
VERTEX
  5
12C
330
11B
100
AcDbEntity
  8
GRAU_10_
 62
     7
100
AcDbVertex
100
AcDb2dVertex
 10
19.4952914476415
 20
-15.72687126509511
 30
0.0
  0
VERTEX
  5
12D
330
11B
100
AcDbEntity
  8
GRAU_10_
 62
     7
100
AcDbVertex
100
AcDb2dVertex
 10
19.75074544639436
 20
-16.35577386081101
 30
0.0
  0
VERTEX
  5
12E
330
11B
100
AcDbEntity
  8
GRAU_10_
 62
     7
100
AcDbVertex
100
AcDb2dVertex
 10
19.89647308155614
 20
-17.01895517921864
 30
0.0
  0
VERTEX
  5
12F
330
11B
100
AcDbEntity
  8
GRAU_10_
 62
     7
100
AcDbVertex
100
AcDb2dVertex
 10
19.92747896137779
 20
-17.68403130139314
 30
0.0
  0
VERTEX
  5
130
330
11B
100
AcDbEntity
  8
GRAU_10_
 62
     7
100
AcDbVertex
100
AcDb2dVertex
 10
19.84875847760837
 20
-18.34514556114599
 30
0.0
  0
VERTEX
  5
131
330
11B
100
AcDbEntity
  8
GRAU_10_
 62
     7
100
AcDbVertex
100
AcDb2dVertex
 10
19.66427349266952
 20
-18.97490943130139
 30
0.0
  0
VERTEX
  5
132
330
11B
100
AcDbEntity
  8
GRAU_10_
 62
     7
100
AcDbVertex
100
AcDb2dVertex
 10
19.38005292763768
 20
-19.56505467724023
 30
0.0
  0
VERTEX
  5
133
330
11B
100
AcDbEntity
  8
GRAU_10_
 62
     7
100
AcDbVertex
100
AcDb2dVertex
 10
18.99764707650393
 20
-20.10765757411919
 30
0.0
  0
VERTEX
  5
134
330
11B
100
AcDbEntity
  8
GRAU_10_
 62
     7
100
AcDbVertex
100
AcDb2dVertex
 10
18.53152534985172
 20
-20.57998047673574
 30
0.0
  0
VERTEX
  5
135
330
11B
100
AcDbEntity
  8
GRAU_10_
 62
     7
100
AcDbVertex
100
AcDb2dVertex
 10
17.98117098301734
 20
-20.97444417002235
 30
0.0
  0
VERTEX
  5
136
330
11B
100
AcDbEntity
  8
GRAU_10_
 62
     7
100
AcDbVertex
100
AcDb2dVertex
 10
17.37121642497022
 20
-21.27261738097394
 30
0.0
  0
VERTEX
  5
137
330
11B
100
AcDbEntity
  8
GRAU_10_
 62
     7
100
AcDbVertex
100
AcDb2dVertex
 10
16.72181549759445
 20
-21.46089197344654
 30
0.0
  0
VERTEX
  5
138
330
11B
100
AcDbEntity
  8
GRAU_10_
 62
     7
100
AcDbVertex
100
AcDb2dVertex
 10
16.04967692501612
 20
-21.53892343766437
 30
0.0
  0
VERTEX
  5
139
330
11B
100
AcDbEntity
  8
GRAU_10_
 62
     7
100
AcDbVertex
100
AcDb2dVertex
 10
15.38976844947856
 20
-21.50326667586947
 30
0.0
  0
VERTEX
  5
13A
330
11B
100
AcDbEntity
  8
GRAU_10_
 62
     7
100
AcDbVertex
100
AcDb2dVertex
 10
14.74450163941233
 20
-21.36081188357776
 30
0.0
  0
VERTEX
  5
13B
330
11B
100
AcDbEntity
  8
GRAU_10_
 62
     7
100
AcDbVertex
100
AcDb2dVertex
 10
14.1362696302442
 20
-21.11517641343509
 30
0.0
  0
VERTEX
  5
13C
330
11B
100
AcDbEntity
  8
GRAU_10_
 62
     7
100
AcDbVertex
100
AcDb2dVertex
 10
13.57678575435122
 20
-20.77514526472427
 30
0.0
  0
VERTEX
  5
13D
330
11B
100
AcDbEntity
  8
GRAU_10_
 62
     7
100
AcDbVertex
100
AcDb2dVertex
 10
13.07121765837034
 20
-20.33692882991154
 30
0.0
  0
VERTEX
  5
13E
330
11B
100
AcDbEntity
  8
GRAU_10_
 62
     7
100
AcDbVertex
100
AcDb2dVertex
 10
12.64471455593468
 20
-19.82223122487207
 30
0.0
  0
VERTEX
  5
13F
330
11B
100
AcDbEntity
  8
GRAU_10_
 62
     7
100
AcDbVertex
100
AcDb2dVertex
 10
12.30675046587864
 20
-19.23277499848482
 30
0.0
  0
VERTEX
  5
140
330
11B
100
AcDbEntity
  8
GRAU_10_
 62
     7
100
AcDbVertex
100
AcDb2dVertex
 10
12.07145028900986
 20
-18.59457063882242
 30
0.0
  0
VERTEX
  5
141
330
11B
100
AcDbEntity
  8
GRAU_10_
 62
     7
100
AcDbVertex
100
AcDb2dVertex
 10
11.93037353582133
 20
-17.54088748954984
 30
0.0
  0
SEQEND
  5
142
330
11B
100
AcDbEntity
  8
GRAU_10_
  0
POLYLINE
  5
143
330
1F
100
AcDbEntity
  8
GRAU_10_
 62
     7
100
AcDb2dPolyline
 66
     1
 10
0.0
 20
0.0
 30
0.0
  0
VERTEX
  5
144
330
143
100
AcDbEntity
  8
GRAU_10_
 62
     7
100
AcDbVertex
100
AcDb2dVertex
 10
25.93073405951393
 20
-17.54088748954984
 30
0.0
  0
VERTEX
  5
145
330
143
100
AcDbEntity
  8
GRAU_10_
 62
     7
100
AcDbVertex
100
AcDb2dVertex
 10
25.93073405951393
 20
-15.58114362993333
 30
0.0
  0
VERTEX
  5
146
330
143
100
AcDbEntity
  8
GRAU_10_
 62
     7
100
AcDbVertex
100
AcDb2dVertex
 10
25.93073405951393
 20
-13.64620447417415
 30
0.0
  0
VERTEX
  5
147
330
143
100
AcDbEntity
  8
GRAU_10_
 62
     7
100
AcDbVertex
100
AcDb2dVertex
 10
25.93073405951393
 20
-11.76087472612961
 30
0.0
  0
VERTEX
  5
148
330
143
100
AcDbEntity
  8
GRAU_10_
 62
     7
100
AcDbVertex
100
AcDb2dVertex
 10
25.93073405951393
 20
-9.947892031002274
 30
0.0
  0
VERTEX
  5
149
330
143
100
AcDbEntity
  8
GRAU_10_
 62
     7
100
AcDbVertex
100
AcDb2dVertex
 10
25.93073405951393
 20
-8.229994033994677
 30
0.0
  0
VERTEX
  5
14A
330
143
100
AcDbEntity
  8
GRAU_10_
 62
     7
100
AcDbVertex
100
AcDb2dVertex
 10
25.93073405951393
 20
-6.629401615645677
 30
0.0
  0
VERTEX
  5
14B
330
143
100
AcDbEntity
  8
GRAU_10_
 62
     7
100
AcDbVertex
100
AcDb2dVertex
 10
25.93073405951393
 20
-5.166440852727246
 30
0.0
  0
VERTEX
  5
14C
330
143
100
AcDbEntity
  8
GRAU_10_
 62
     7
100
AcDbVertex
100
AcDb2dVertex
 10
25.93073405951393
 20
-3.858681743804989
 30
0.0
  0
VERTEX
  5
14D
330
143
100
AcDbEntity
  8
GRAU_10_
 62
     7
100
AcDbVertex
100
AcDb2dVertex
 10
25.93073405951393
 20
-2.723177522780817
 30
0.0
  0
VERTEX
  5
14E
330
143
100
AcDbEntity
  8
GRAU_10_
 62
     7
100
AcDbVertex
100
AcDb2dVertex
 10
25.93073405951393
 20
-1.773364070910779
 30
0.0
  0
VERTEX
  5
14F
330
143
100
AcDbEntity
  8
GRAU_10_
 62
     7
100
AcDbVertex
100
AcDb2dVertex
 10
25.93073405951393
 20
-1.022332759675131
 30
0.0
  0
VERTEX
  5
150
330
143
100
AcDbEntity
  8
GRAU_10_
 62
     7
100
AcDbVertex
100
AcDb2dVertex
 10
25.93073405951393
 20
-0.4790408432445728
 30
0.0
  0
VERTEX
  5
151
330
143
100
AcDbEntity
  8
GRAU_10_
 62
     7
100
AcDbVertex
100
AcDb2dVertex
 10
25.93073405951393
 20
-0.1507230269108239
 30
0.0
  0
VERTEX
  5
152
330
143
100
AcDbEntity
  8
GRAU_10_
 62
     7
100
AcDbVertex
100
AcDb2dVertex
 10
25.93073405951393
 20
-0.040824408431846
 30
0.0
  0
SEQEND
  5
153
330
143
100
AcDbEntity
  8
GRAU_10_
  0
POLYLINE
  5
154
330
1F
100
AcDbEntity
  8
GRAU_10_
 62
     7
100
AcDb2dPolyline
 66
     1
 10
0.0
 20
0.0
 30
0.0
  0
VERTEX
  5
155
330
154
100
AcDbEntity
  8
GRAU_10_
 62
     7
100
AcDbVertex
100
AcDb2dVertex
 10
25.93073405951393
 20
-35.04077831577992
 30
0.0
  0
VERTEX
  5
156
330
154
100
AcDbEntity
  8
GRAU_10_
 62
     7
100
AcDbVertex
100
AcDb2dVertex
 10
25.93073405951393
 20
-34.93070744241305
 30
0.0
  0
VERTEX
  5
157
330
154
100
AcDbEntity
  8
GRAU_10_
 62
     7
100
AcDbVertex
100
AcDb2dVertex
 10
25.93073405951393
 20
-34.60187286141561
 30
0.0
  0
VERTEX
  5
158
330
154
100
AcDbEntity
  8
GRAU_10_
 62
     7
100
AcDbVertex
100
AcDb2dVertex
 10
25.93073405951393
 20
-34.05892545476085
 30
0.0
  0
VERTEX
  5
159
330
154
100
AcDbEntity
  8
GRAU_10_
 62
     7
100
AcDbVertex
100
AcDb2dVertex
 10
25.93073405951393
 20
-33.3078941435252
 30
0.0
  0
VERTEX
  5
15A
330
154
100
AcDbEntity
  8
GRAU_10_
 62
     7
100
AcDbVertex
100
AcDb2dVertex
 10
25.93073405951393
 20
-32.35825294654305
 30
0.0
  0
VERTEX
  5
15B
330
154
100
AcDbEntity
  8
GRAU_10_
 62
     7
100
AcDbVertex
100
AcDb2dVertex
 10
25.93073405951393
 20
-31.22292098040678
 30
0.0
  0
VERTEX
  5
15C
330
154
100
AcDbEntity
  8
GRAU_10_
 62
     7
100
AcDbVertex
100
AcDb2dVertex
 10
25.93073405951393
 20
-29.91516187148452
 30
0.0
  0
VERTEX
  5
15D
330
154
100
AcDbEntity
  8
GRAU_10_
 62
     7
100
AcDbVertex
100
AcDb2dVertex
 10
25.93073405951393
 20
-28.4518565987903
 30
0.0
  0
VERTEX
  5
15E
330
154
100
AcDbEntity
  8
GRAU_10_
 62
     7
100
AcDbVertex
100
AcDb2dVertex
 10
25.93073405951393
 20
-26.8509196706655
 30
0.0
  0
VERTEX
  5
15F
330
154
100
AcDbEntity
  8
GRAU_10_
 62
     7
100
AcDbVertex
100
AcDb2dVertex
 10
25.93073405951393
 20
-25.1331939285458
 30
0.0
  0
VERTEX
  5
160
330
154
100
AcDbEntity
  8
GRAU_10_
 62
     7
100
AcDbVertex
100
AcDb2dVertex
 10
25.93073405951393
 20
-23.32038348830636
 30
0.0
  0
VERTEX
  5
161
330
154
100
AcDbEntity
  8
GRAU_10_
 62
     7
100
AcDbVertex
100
AcDb2dVertex
 10
25.93073405951393
 20
-21.43488148537393
 30
0.0
  0
VERTEX
  5
162
330
154
100
AcDbEntity
  8
GRAU_10_
 62
     7
100
AcDbVertex
100
AcDb2dVertex
 10
25.93073405951393
 20
-19.50011458450265
 30
0.0
  0
VERTEX
  5
163
330
154
100
AcDbEntity
  8
GRAU_10_
 62
     7
100
AcDbVertex
100
AcDb2dVertex
 10
25.93073405951393
 20
-17.54088748954984
 30
0.0
  0
SEQEND
  5
164
330
154
100
AcDbEntity
  8
GRAU_10_
  0
POLYLINE
  5
165
330
1F
100
AcDbEntity
  8
GRAU_10_
 62
     7
100
AcDb2dPolyline
 66
     1
 10
0.0
 20
0.0
 30
0.0
  0
VERTEX
  5
166
330
165
100
AcDbEntity
  8
GRAU_10_
 62
     7
100
AcDbVertex
100
AcDb2dVertex
 10
26.43027323441838
 20
-17.54088748954984
 30
0.0
  0
VERTEX
  5
167
330
165
100
AcDbEntity
  8
GRAU_10_
 62
     7
100
AcDbVertex
100
AcDb2dVertex
 10
26.56928292895213
 20
-16.71888716450018
 30
0.0
  0
VERTEX
  5
168
330
165
100
AcDbEntity
  8
GRAU_10_
 62
     7
100
AcDbVertex
100
AcDb2dVertex
 10
26.96960328842728
 20
-15.98955996913969
 30
0.0
  0
VERTEX
  5
169
330
165
100
AcDbEntity
  8
GRAU_10_
 62
     7
100
AcDbVertex
100
AcDb2dVertex
 10
27.59161568862726
 20
-15.42938707369512
 30
0.0
  0
VERTEX
  5
16A
330
165
100
AcDbEntity
  8
GRAU_10_
 62
     7
100
AcDbVertex
100
AcDb2dVertex
 10
28.36986327215081
 20
-15.10416984534353
 30
0.0
  0
VERTEX
  5
16B
330
165
100
AcDbEntity
  8
GRAU_10_
 62
     7
100
AcDbVertex
100
AcDb2dVertex
 10
29.20512722356862
 20
-15.05559396695627
 30
0.0
  0
VERTEX
  5
16C
330
165
100
AcDbEntity
  8
GRAU_10_
 62
     7
100
AcDbVertex
100
AcDb2dVertex
 10
30.00318411920045
 20
-15.28228139943015
 30
0.0
  0
VERTEX
  5
16D
330
165
100
AcDbEntity
  8
GRAU_10_
 62
     7
100
AcDbVertex
100
AcDb2dVertex
 10
30.68410769106157
 20
-15.75891067424415
 30
0.0
  0
VERTEX
  5
16E
330
165
100
AcDbEntity
  8
GRAU_10_
 62
     7
100
AcDbVertex
100
AcDb2dVertex
 10
31.17537863134691
 20
-16.44052326565687
 30
0.0
  0
VERTEX
  5
16F
330
165
100
AcDbEntity
  8
GRAU_10_
 62
     7
100
AcDbVertex
100
AcDb2dVertex
 10
31.41326263153417
 20
-17.24839868989889
 30
0.0
  0
VERTEX
  5
170
330
165
100
AcDbEntity
  8
GRAU_10_
 62
     7
100
AcDbVertex
100
AcDb2dVertex
 10
31.37157694866283
 20
-18.08125107288613
 30
0.0
  0
VERTEX
  5
171
330
165
100
AcDbEntity
  8
GRAU_10_
 62
     7
100
AcDbVertex
100
AcDb2dVertex
 10
31.06014011134309
 20
-18.84968012779948
 30
0.0
  0
VERTEX
  5
172
330
165
100
AcDbEntity
  8
GRAU_10_
 62
     7
100
AcDbVertex
100
AcDb2dVertex
 10
30.5111637836119
 20
-19.477549194188
 30
0.0
  0
VERTEX
  5
173
330
165
100
AcDbEntity
  8
GRAU_10_
 62
     7
100
AcDbVertex
100
AcDb2dVertex
 10
29.77839149049345
 20
-19.89216670935869
 30
0.0
  0
VERTEX
  5
174
330
165
100
AcDbEntity
  8
GRAU_10_
 62
     7
100
AcDbVertex
100
AcDb2dVertex
 10
28.95156802858264
 20
-20.04030591295104
 30
0.0
  0
VERTEX
  5
175
330
165
100
AcDbEntity
  8
GRAU_10_
 62
     7
100
AcDbVertex
100
AcDb2dVertex
 10
28.13060123286037
 20
-19.9090476883727
 30
0.0
  0
VERTEX
  5
176
330
165
100
AcDbEntity
  8
GRAU_10_
 62
     7
100
AcDbVertex
100
AcDb2dVertex
 10
27.40006825328459
 20
-19.51699556351666
 30
0.0
  0
VERTEX
  5
177
330
165
100
AcDbEntity
  8
GRAU_10_
 62
     7
100
AcDbVertex
100
AcDb2dVertex
 10
26.8335219269878
 20
-18.9015288490568
 30
0.0
  0
VERTEX
  5
178
330
165
100
AcDbEntity
  8
GRAU_10_
 62
     7
100
AcDbVertex
100
AcDb2dVertex
 10
26.5003809737929
 20
-18.12689861817912
 30
0.0
  0
VERTEX
  5
179
330
165
100
AcDbEntity
  8
GRAU_10_
 62
     7
100
AcDbVertex
100
AcDb2dVertex
 10
26.43027323441838
 20
-17.54088748954984
 30
0.0
  0
SEQEND
  5
17A
330
165
100
AcDbEntity
  8
GRAU_10_
  0
POLYLINE
  5
17B
330
1F
100
AcDbEntity
  8
GRAU_10_
 62
     7
100
AcDb2dPolyline
 66
     1
 10
0.0
 20
0.0
 30
0.0
  0
VERTEX
  5
17C
330
17B
100
AcDbEntity
  8
GRAU_10_
 62
     7
100
AcDbVertex
100
AcDb2dVertex
 10
33.89424978193028
 20
-6.701404158787076
 30
0.0
  0
VERTEX
  5
17D
330
17B
100
AcDbEntity
  8
GRAU_10_
 62
     7
100
AcDbVertex
100
AcDb2dVertex
 10
33.90803017296212
 20
-6.691930139952682
 30
0.0
  0
SEQEND
  5
17E
330
17B
100
AcDbEntity
  8
GRAU_10_
  0
POLYLINE
  5
17F
330
1F
100
AcDbEntity
  8
GRAU_10_
 62
     7
100
AcDb2dPolyline
 66
     1
 10
0.0
 20
0.0
 30
0.0
  0
VERTEX
  5
180
330
17F
100
AcDbEntity
  8
GRAU_10_
 62
     7
100
AcDbVertex
100
AcDb2dVertex
 10
33.96211820776212
 20
-6.6543785743909
 30
0.0
  0
VERTEX
  5
181
330
17F
100
AcDbEntity
  8
GRAU_10_
 62
     7
100
AcDbVertex
100
AcDb2dVertex
 10
34.13695691897868
 20
-6.534489172413832
 30
0.0
  0
VERTEX
  5
182
330
17F
100
AcDbEntity
  8
GRAU_10_
 62
     7
100
AcDbVertex
100
AcDb2dVertex
 10
34.40309072078121
 20
-6.539140054387081
 30
0.0
  0
SEQEND
  5
183
330
17F
100
AcDbEntity
  8
GRAU_10_
  0
POLYLINE
  5
184
330
1F
100
AcDbEntity
  8
GRAU_10_
 62
     7
100
AcDb2dPolyline
 66
     1
 10
0.0
 20
0.0
 30
0.0
  0
VERTEX
  5
185
330
184
100
AcDbEntity
  8
GRAU_10_
 62
     7
100
AcDbVertex
100
AcDb2dVertex
 10
33.64275764559908
 20
-7.101724518262224
 30
0.0
  0
VERTEX
  5
186
330
184
100
AcDbEntity
  8
GRAU_10_
 62
     7
100
AcDbVertex
100
AcDb2dVertex
 10
33.89424978193028
 20
-6.701404158787076
 30
0.0
  0
SEQEND
  5
187
330
184
100
AcDbEntity
  8
GRAU_10_
  0
POLYLINE
  5
188
330
1F
100
AcDbEntity
  8
GRAU_10_
 62
     7
100
AcDb2dPolyline
 66
     1
 10
0.0
 20
0.0
 30
0.0
  0
VERTEX
  5
189
330
188
100
AcDbEntity
  8
GRAU_10_
 62
     7
100
AcDbVertex
100
AcDb2dVertex
 10
33.64275764559908
 20
-24.29190105605156
 30
0.0
  0
VERTEX
  5
18A
330
188
100
AcDbEntity
  8
GRAU_10_
 62
     7
100
AcDbVertex
100
AcDb2dVertex
 10
33.86462194121181
 20
-23.17896222534204
 30
0.0
  0
VERTEX
  5
18B
330
188
100
AcDbEntity
  8
GRAU_10_
 62
     7
100
AcDbVertex
100
AcDb2dVertex
 10
34.12989446857485
 20
-21.95612477615353
 30
0.0
  0
VERTEX
  5
18C
330
188
100
AcDbEntity
  8
GRAU_10_
 62
     7
100
AcDbVertex
100
AcDb2dVertex
 10
34.40619130876338
 20
-20.63251821754465
 30
0.0
  0
VERTEX
  5
18D
330
188
100
AcDbEntity
  8
GRAU_10_
 62
     7
100
AcDbVertex
100
AcDb2dVertex
 10
34.58051325531624
 20
-19.67478104083131
 30
0.0
  0
VERTEX
  5
18E
330
188
100
AcDbEntity
  8
GRAU_10_
 62
     7
100
AcDbVertex
100
AcDb2dVertex
 10
34.71383853854936
 20
-18.66864024061859
 30
0.0
  0
VERTEX
  5
18F
330
188
100
AcDbEntity
  8
GRAU_10_
 62
     7
100
AcDbVertex
100
AcDb2dVertex
 10
34.76775431846146
 20
-17.80219815449123
 30
0.0
  0
VERTEX
  5
190
330
188
100
AcDbEntity
  8
GRAU_10_
 62
     7
100
AcDbVertex
100
AcDb2dVertex
 10
34.7551797116449
 20
-16.92869361796004
 30
0.0
  0
VERTEX
  5
191
330
188
100
AcDbEntity
  8
GRAU_10_
 62
     7
100
AcDbVertex
100
AcDb2dVertex
 10
34.64786491648439
 20
-15.86019654832823
 30
0.0
  0
VERTEX
  5
192
330
188
100
AcDbEntity
  8
GRAU_10_
 62
     7
100
AcDbVertex
100
AcDb2dVertex
 10
34.48094993011115
 20
-14.83958633753208
 30
0.0
  0
VERTEX
  5
193
330
188
100
AcDbEntity
  8
GRAU_10_
 62
     7
100
AcDbVertex
100
AcDb2dVertex
 10
34.14867025135575
 20
-13.21367245066206
 30
0.0
  0
VERTEX
  5
194
330
188
100
AcDbEntity
  8
GRAU_10_
 62
     7
100
AcDbVertex
100
AcDb2dVertex
 10
33.8291374343048
 20
-11.74296021778821
 30
0.0
  0
VERTEX
  5
195
330
188
100
AcDbEntity
  8
GRAU_10_
 62
     7
100
AcDbVertex
100
AcDb2dVertex
 10
33.64275764559908
 20
-10.78935715838442
 30
0.0
  0
SEQEND
  5
196
330
188
100
AcDbEntity
  8
GRAU_10_
  0
POLYLINE
  5
197
330
1F
100
AcDbEntity
  8
GRAU_10_
 62
     7
100
AcDb2dPolyline
 66
     1
 10
0.0
 20
0.0
 30
0.0
  0
VERTEX
  5
198
330
197
100
AcDbEntity
  8
GRAU_10_
 62
     7
100
AcDbVertex
100
AcDb2dVertex
 10
33.64275764559908
 20
-27.98022271572534
 30
0.0
  0
VERTEX
  5
199
330
197
100
AcDbEntity
  8
GRAU_10_
 62
     7
100
AcDbVertex
100
AcDb2dVertex
 10
33.54009373241181
 20
-27.79969959320815
 30
0.0
  0
VERTEX
  5
19A
330
197
100
AcDbEntity
  8
GRAU_10_
 62
     7
100
AcDbVertex
100
AcDb2dVertex
 10
33.5147722638908
 20
-27.77179430136866
 30
0.0
  0
VERTEX
  5
19B
330
197
100
AcDbEntity
  8
GRAU_10_
 62
     7
100
AcDbVertex
100
AcDb2dVertex
 10
33.49358491267933
 20
-27.75336302836357
 30
0.0
  0
VERTEX
  5
19C
330
197
100
AcDbEntity
  8
GRAU_10_
 62
     7
100
AcDbVertex
100
AcDb2dVertex
 10
33.46809118927042
 20
-27.73786008845274
 30
0.0
  0
VERTEX
  5
19D
330
197
100
AcDbEntity
  8
GRAU_10_
 62
     7
100
AcDbVertex
100
AcDb2dVertex
 10
33.45327726891118
 20
-27.7325201869279
 30
0.0
  0
VERTEX
  5
19E
330
197
100
AcDbEntity
  8
GRAU_10_
 62
     7
100
AcDbVertex
100
AcDb2dVertex
 10
33.43915236810354
 20
-27.72941959894573
 30
0.0
  0
VERTEX
  5
19F
330
197
100
AcDbEntity
  8
GRAU_10_
 62
     7
100
AcDbVertex
100
AcDb2dVertex
 10
33.43071187859653
 20
-27.72804155984255
 30
0.0
  0
SEQEND
  5
1A0
330
197
100
AcDbEntity
  8
GRAU_10_
  0
POLYLINE
  5
1A1
330
1F
100
AcDbEntity
  8
GRAU_10_
 62
     7
100
AcDb2dPolyline
 66
     1
 10
0.0
 20
0.0
 30
0.0
  0
VERTEX
  5
1A2
330
1A1
100
AcDbEntity
  8
GRAU_10_
 62
     7
100
AcDbVertex
100
AcDb2dVertex
 10
33.64275764559908
 20
-10.78935715838442
 30
0.0
  0
VERTEX
  5
1A3
330
1A1
100
AcDbEntity
  8
GRAU_10_
 62
     7
100
AcDbVertex
100
AcDb2dVertex
 10
33.53974922263602
 20
-10.39075934778825
 30
0.0
  0
VERTEX
  5
1A4
330
1A1
100
AcDbEntity
  8
GRAU_10_
 62
     7
100
AcDbVertex
100
AcDb2dVertex
 10
33.514427754115
 20
-10.33357072500609
 30
0.0
  0
VERTEX
  5
1A5
330
1A1
100
AcDbEntity
  8
GRAU_10_
 62
     7
100
AcDbVertex
100
AcDb2dVertex
 10
33.49358491267933
 20
-10.29688043388379
 30
0.0
  0
VERTEX
  5
1A6
330
1A1
100
AcDbEntity
  8
GRAU_10_
 62
     7
100
AcDbVertex
100
AcDb2dVertex
 10
33.46774667949462
 20
-10.26553004428634
 30
0.0
  0
VERTEX
  5
1A7
330
1A1
100
AcDbEntity
  8
GRAU_10_
 62
     7
100
AcDbVertex
100
AcDb2dVertex
 10
33.45327726891118
 20
-10.25381671190927
 30
0.0
  0
VERTEX
  5
1A8
330
1A1
100
AcDbEntity
  8
GRAU_10_
 62
     7
100
AcDbVertex
100
AcDb2dVertex
 10
33.43915236810354
 20
-10.24675426150545
 30
0.0
  0
VERTEX
  5
1A9
330
1A1
100
AcDbEntity
  8
GRAU_10_
 62
     7
100
AcDbVertex
100
AcDb2dVertex
 10
33.43071187859653
 20
-10.24503171262647
 30
0.0
  0
SEQEND
  5
1AA
330
1A1
100
AcDbEntity
  8
GRAU_10_
  0
POLYLINE
  5
1AB
330
1F
100
AcDbEntity
  8
GRAU_10_
 62
     7
100
AcDb2dPolyline
 66
     1
 10
0.0
 20
0.0
 30
0.0
  0
VERTEX
  5
1AC
330
1AB
100
AcDbEntity
  8
GRAU_10_
 62
     7
100
AcDbVertex
100
AcDb2dVertex
 10
33.43071187859653
 20
-24.83622650180951
 30
0.0
  0
VERTEX
  5
1AD
330
1AB
100
AcDbEntity
  8
GRAU_10_
 62
     7
100
AcDbVertex
100
AcDb2dVertex
 10
33.44518128917997
 20
-24.83140336494836
 30
0.0
  0
VERTEX
  5
1AE
330
1AB
100
AcDbEntity
  8
GRAU_10_
 62
     7
100
AcDbVertex
100
AcDb2dVertex
 10
33.46326805240927
 20
-24.81934552279549
 30
0.0
  0
VERTEX
  5
1AF
330
1AB
100
AcDbEntity
  8
GRAU_10_
 62
     7
100
AcDbVertex
100
AcDb2dVertex
 10
33.50133638263475
 20
-24.77145866395983
 30
0.0
  0
VERTEX
  5
1B0
330
1AB
100
AcDbEntity
  8
GRAU_10_
 62
     7
100
AcDbVertex
100
AcDb2dVertex
 10
33.59418176721181
 20
-24.51876074341334
 30
0.0
  0
VERTEX
  5
1B1
330
1AB
100
AcDbEntity
  8
GRAU_10_
 62
     7
100
AcDbVertex
100
AcDb2dVertex
 10
33.64275764559908
 20
-24.29190105605156
 30
0.0
  0
SEQEND
  5
1B2
330
1AB
100
AcDbEntity
  8
GRAU_10_
  0
POLYLINE
  5
1B3
330
1F
100
AcDbEntity
  8
GRAU_10_
 62
     7
100
AcDb2dPolyline
 66
     1
 10
0.0
 20
0.0
 30
0.0
  0
VERTEX
  5
1B4
330
1B3
100
AcDbEntity
  8
GRAU_10_
 62
     7
100
AcDbVertex
100
AcDb2dVertex
 10
33.93972507233537
 20
-28.42429581672661
 30
0.0
  0
VERTEX
  5
1B5
330
1B3
100
AcDbEntity
  8
GRAU_10_
 62
     7
100
AcDbVertex
100
AcDb2dVertex
 10
33.64275764559908
 20
-27.98022271572534
 30
0.0
  0
SEQEND
  5
1B6
330
1B3
100
AcDbEntity
  8
GRAU_10_
  0
POLYLINE
  5
1B7
330
1F
100
AcDbEntity
  8
GRAU_10_
 62
     7
100
AcDb2dPolyline
 66
     1
 10
0.0
 20
0.0
 30
0.0
  0
VERTEX
  5
1B8
330
1B7
100
AcDbEntity
  8
GRAU_10_
 62
     7
100
AcDbVertex
100
AcDb2dVertex
 10
34.3419402355774
 20
-28.54246266982469
 30
0.0
  0
VERTEX
  5
1B9
330
1B7
100
AcDbEntity
  8
GRAU_10_
 62
     7
100
AcDbVertex
100
AcDb2dVertex
 10
34.24186014570861
 20
-28.56898992256099
 30
0.0
  0
VERTEX
  5
1BA
330
1B7
100
AcDbEntity
  8
GRAU_10_
 62
     7
100
AcDbVertex
100
AcDb2dVertex
 10
34.00087555753919
 20
-28.47338845977756
 30
0.0
  0
VERTEX
  5
1BB
330
1B7
100
AcDbEntity
  8
GRAU_10_
 62
     7
100
AcDbVertex
100
AcDb2dVertex
 10
33.97055869726913
 20
-28.45013404991132
 30
0.0
  0
VERTEX
  5
1BC
330
1B7
100
AcDbEntity
  8
GRAU_10_
 62
     7
100
AcDbVertex
100
AcDb2dVertex
 10
33.9554002671341
 20
-28.43704267843106
 30
0.0
  0
VERTEX
  5
1BD
330
1B7
100
AcDbEntity
  8
GRAU_10_
 62
     7
100
AcDbVertex
100
AcDb2dVertex
 10
33.93972507233537
 20
-28.42429581672661
 30
0.0
  0
SEQEND
  5
1BE
330
1B7
100
AcDbEntity
  8
GRAU_10_
  0
POLYLINE
  5
1BF
330
1F
100
AcDbEntity
  8
GRAU_10_
 62
     7
100
AcDb2dPolyline
 66
     1
 10
0.0
 20
0.0
 30
0.0
  0
VERTEX
  5
1C0
330
1BF
100
AcDbEntity
  8
GRAU_10_
 62
     7
100
AcDbVertex
100
AcDb2dVertex
 10
32.93048368414049
 20
-24.92063139687957
 30
0.0
  0
VERTEX
  5
1C1
330
1BF
100
AcDbEntity
  8
GRAU_10_
 62
     7
100
AcDbVertex
100
AcDb2dVertex
 10
33.43071187859653
 20
-24.83622650180951
 30
0.0
  0
SEQEND
  5
1C2
330
1BF
100
AcDbEntity
  8
GRAU_10_
  0
POLYLINE
  5
1C3
330
1F
100
AcDbEntity
  8
GRAU_10_
 62
     7
100
AcDb2dPolyline
 66
     1
 10
0.0
 20
0.0
 30
0.0
  0
VERTEX
  5
1C4
330
1C3
100
AcDbEntity
  8
GRAU_10_
 62
     7
100
AcDbVertex
100
AcDb2dVertex
 10
33.43071187859653
 20
-10.24503171262647
 30
0.0
  0
VERTEX
  5
1C5
330
1C3
100
AcDbEntity
  8
GRAU_10_
 62
     7
100
AcDbVertex
100
AcDb2dVertex
 10
32.93048368414049
 20
-10.16079907244431
 30
0.0
  0
SEQEND
  5
1C6
330
1C3
100
AcDbEntity
  8
GRAU_10_
  0
POLYLINE
  5
1C7
330
1F
100
AcDbEntity
  8
GRAU_10_
 62
     7
100
AcDb2dPolyline
 66
     1
 10
0.0
 20
0.0
 30
0.0
  0
VERTEX
  5
1C8
330
1C7
100
AcDbEntity
  8
GRAU_10_
 62
     7
100
AcDbVertex
100
AcDb2dVertex
 10
32.93048368414049
 20
-7.382327730648204
 30
0.0
  0
VERTEX
  5
1C9
330
1C7
100
AcDbEntity
  8
GRAU_10_
 62
     7
100
AcDbVertex
100
AcDb2dVertex
 10
33.43071187859653
 20
-7.353388909481326
 30
0.0
  0
SEQEND
  5
1CA
330
1C7
100
AcDbEntity
  8
GRAU_10_
  0
POLYLINE
  5
1CB
330
1F
100
AcDbEntity
  8
GRAU_10_
 62
     7
100
AcDb2dPolyline
 66
     1
 10
0.0
 20
0.0
 30
0.0
  0
VERTEX
  5
1CC
330
1CB
100
AcDbEntity
  8
GRAU_10_
 62
     7
100
AcDbVertex
100
AcDb2dVertex
 10
33.43071187859653
 20
-27.72804155984255
 30
0.0
  0
VERTEX
  5
1CD
330
1CB
100
AcDbEntity
  8
GRAU_10_
 62
     7
100
AcDbVertex
100
AcDb2dVertex
 10
32.93048368414049
 20
-27.69910273867567
 30
0.0
  0
SEQEND
  5
1CE
330
1CB
100
AcDbEntity
  8
GRAU_10_
  0
POLYLINE
  5
1CF
330
1F
100
AcDbEntity
  8
GRAU_10_
 62
     7
100
AcDb2dPolyline
 66
     1
 10
0.0
 20
0.0
 30
0.0
  0
VERTEX
  5
1D0
330
1CF
100
AcDbEntity
  8
GRAU_10_
 62
     7
100
AcDbVertex
100
AcDb2dVertex
 10
33.43071187859653
 20
-7.353388909481326
 30
0.0
  0
VERTEX
  5
1D1
330
1CF
100
AcDbEntity
  8
GRAU_10_
 62
     7
100
AcDbVertex
100
AcDb2dVertex
 10
33.44518128917997
 20
-7.351149595938651
 30
0.0
  0
VERTEX
  5
1D2
330
1CF
100
AcDbEntity
  8
GRAU_10_
 62
     7
100
AcDbVertex
100
AcDb2dVertex
 10
33.46326805240927
 20
-7.345120674862218
 30
0.0
  0
VERTEX
  5
1D3
330
1CF
100
AcDbEntity
  8
GRAU_10_
 62
     7
100
AcDbVertex
100
AcDb2dVertex
 10
33.50133638263475
 20
-7.321177245444384
 30
0.0
  0
VERTEX
  5
1D4
330
1CF
100
AcDbEntity
  8
GRAU_10_
 62
     7
100
AcDbVertex
100
AcDb2dVertex
 10
33.59418176721181
 20
-7.200426569027827
 30
0.0
  0
VERTEX
  5
1D5
330
1CF
100
AcDbEntity
  8
GRAU_10_
 62
     7
100
AcDbVertex
100
AcDb2dVertex
 10
33.64275764559908
 20
-7.101724518262224
 30
0.0
  0
SEQEND
  5
1D6
330
1CF
100
AcDbEntity
  8
GRAU_10_
  0
POLYLINE
  5
1D7
330
1F
100
AcDbEntity
  8
GRAU_10_
 62
     7
100
AcDb2dPolyline
 66
     1
 10
0.0
 20
0.0
 30
0.0
  0
VERTEX
  5
1D8
330
1D7
100
AcDbEntity
  8
GRAU_10_
 62
     7
100
AcDbVertex
100
AcDb2dVertex
 10
50.90355868742662
 20
-7.093284028755218
 30
0.0
  0
VERTEX
  5
1D9
330
1D7
100
AcDbEntity
  8
GRAU_10_
 62
     7
100
AcDbVertex
100
AcDb2dVertex
 10
50.90355868742662
 20
-6.934120512337389
 30
0.0
  0
VERTEX
  5
1DA
330
1D7
100
AcDbEntity
  8
GRAU_10_
 62
     7
100
AcDbVertex
100
AcDb2dVertex
 10
50.90355868742662
 20
-6.930330904803631
 30
0.0
  0
SEQEND
  5
1DB
330
1D7
100
AcDbEntity
  8
GRAU_10_
  0
POLYLINE
  5
1DC
330
1F
100
AcDbEntity
  8
GRAU_10_
 62
     7
100
AcDb2dPolyline
 66
     1
 10
0.0
 20
0.0
 30
0.0
  0
VERTEX
  5
1DD
330
1DC
100
AcDbEntity
  8
GRAU_10_
 62
     7
100
AcDbVertex
100
AcDb2dVertex
 10
50.90355868742662
 20
-28.03241594675846
 30
0.0
  0
VERTEX
  5
1DE
330
1DC
100
AcDbEntity
  8
GRAU_10_
 62
     7
100
AcDbVertex
100
AcDb2dVertex
 10
50.90355868742662
 20
-27.55682020127185
 30
0.0
  0
VERTEX
  5
1DF
330
1DC
100
AcDbEntity
  8
GRAU_10_
 62
     7
100
AcDbVertex
100
AcDb2dVertex
 10
50.90355868742662
 20
-26.80854496824257
 30
0.0
  0
VERTEX
  5
1E0
330
1DC
100
AcDbEntity
  8
GRAU_10_
 62
     7
100
AcDbVertex
100
AcDb2dVertex
 10
50.90355868742662
 20
-25.82152446058655
 30
0.0
  0
VERTEX
  5
1E1
330
1DC
100
AcDbEntity
  8
GRAU_10_
 62
     7
100
AcDbVertex
100
AcDb2dVertex
 10
50.90355868742662
 20
-24.60488818736238
 30
0.0
  0
VERTEX
  5
1E2
330
1DC
100
AcDbEntity
  8
GRAU_10_
 62
     7
100
AcDbVertex
100
AcDb2dVertex
 10
50.90355868742662
 20
-23.18946977350382
 30
0.0
  0
VERTEX
  5
1E3
330
1DC
100
AcDbEntity
  8
GRAU_10_
 62
     7
100
AcDbVertex
100
AcDb2dVertex
 10
50.90355868742662
 20
-21.56028304376374
 30
0.0
  0
VERTEX
  5
1E4
330
1DC
100
AcDbEntity
  8
GRAU_10_
 62
     7
100
AcDbVertex
100
AcDb2dVertex
 10
50.90355868742662
 20
-20.66145703871153
 30
0.0
  0
VERTEX
  5
1E5
330
1DC
100
AcDbEntity
  8
GRAU_10_
 62
     7
100
AcDbVertex
100
AcDb2dVertex
 10
50.90355868742662
 20
-19.71216035150519
 30
0.0
  0
VERTEX
  5
1E6
330
1DC
100
AcDbEntity
  8
GRAU_10_
 62
     7
100
AcDbVertex
100
AcDb2dVertex
 10
50.90355868742662
 20
-18.7127374919205
 30
0.0
  0
VERTEX
  5
1E7
330
1DC
100
AcDbEntity
  8
GRAU_10_
 62
     7
100
AcDbVertex
100
AcDb2dVertex
 10
50.90355868742662
 20
-17.68006943897149
 30
0.0
  0
VERTEX
  5
1E8
330
1DC
100
AcDbEntity
  8
GRAU_10_
 62
     7
100
AcDbVertex
100
AcDb2dVertex
 10
50.90355868742662
 20
-16.63723834763648
 30
0.0
  0
VERTEX
  5
1E9
330
1DC
100
AcDbEntity
  8
GRAU_10_
 62
     7
100
AcDbVertex
100
AcDb2dVertex
 10
50.90355868742662
 20
-15.62954725343269
 30
0.0
  0
VERTEX
  5
1EA
330
1DC
100
AcDbEntity
  8
GRAU_10_
 62
     7
100
AcDbVertex
100
AcDb2dVertex
 10
50.90355868742662
 20
-14.66698693985819
 30
0.0
  0
VERTEX
  5
1EB
330
1DC
100
AcDbEntity
  8
GRAU_10_
 62
     7
100
AcDbVertex
100
AcDb2dVertex
 10
50.90355868742662
 20
-13.76127073929007
 30
0.0
  0
VERTEX
  5
1EC
330
1DC
100
AcDbEntity
  8
GRAU_10_
 62
     7
100
AcDbVertex
100
AcDb2dVertex
 10
50.90355868742662
 20
-12.094876953764
 30
0.0
  0
VERTEX
  5
1ED
330
1DC
100
AcDbEntity
  8
GRAU_10_
 62
     7
100
AcDbVertex
100
AcDb2dVertex
 10
50.90355868742662
 20
-10.6469023660927
 30
0.0
  0
VERTEX
  5
1EE
330
1DC
100
AcDbEntity
  8
GRAU_10_
 62
     7
100
AcDbVertex
100
AcDb2dVertex
 10
50.90355868742662
 20
-9.40322207546853
 30
0.0
  0
VERTEX
  5
1EF
330
1DC
100
AcDbEntity
  8
GRAU_10_
 62
     7
100
AcDbVertex
100
AcDb2dVertex
 10
50.90355868742662
 20
-8.385540197766648
 30
0.0
  0
VERTEX
  5
1F0
330
1DC
100
AcDbEntity
  8
GRAU_10_
 62
     7
100
AcDbVertex
100
AcDb2dVertex
 10
50.90355868742662
 20
-7.607292614243103
 30
0.0
  0
VERTEX
  5
1F1
330
1DC
100
AcDbEntity
  8
GRAU_10_
 62
     7
100
AcDbVertex
100
AcDb2dVertex
 10
50.90355868742662
 20
-7.093284028755218
 30
0.0
  0
SEQEND
  5
1F2
330
1DC
100
AcDbEntity
  8
GRAU_10_
  0
POLYLINE
  5
1F3
330
1F
100
AcDbEntity
  8
GRAU_10_
 62
     7
100
AcDb2dPolyline
 66
     1
 10
0.0
 20
0.0
 30
0.0
  0
VERTEX
  5
1F4
330
1F3
100
AcDbEntity
  8
GRAU_10_
 62
     7
100
AcDbVertex
100
AcDb2dVertex
 10
50.90355868742662
 20
-28.08116408003362
 30
0.0
  0
VERTEX
  5
1F5
330
1F3
100
AcDbEntity
  8
GRAU_10_
 62
     7
100
AcDbVertex
100
AcDb2dVertex
 10
50.90355868742662
 20
-28.03241594675846
 30
0.0
  0
SEQEND
  5
1F6
330
1F3
100
AcDbEntity
  8
GRAU_10_
  0
POLYLINE
  5
1F7
330
1F
100
AcDbEntity
  8
GRAU_10_
 62
     7
100
AcDb2dPolyline
 66
     1
 10
0.0
 20
0.0
 30
0.0
  0
VERTEX
  5
1F8
330
1F7
100
AcDbEntity
  8
GRAU_10_
 62
     7
100
AcDbVertex
100
AcDb2dVertex
 10
50.90355868742662
 20
-28.16040132846674
 30
0.0
  0
VERTEX
  5
1F9
330
1F7
100
AcDbEntity
  8
GRAU_10_
 62
     7
100
AcDbVertex
100
AcDb2dVertex
 10
50.90355868742662
 20
-28.17555975860177
 30
0.0
  0
VERTEX
  5
1FA
330
1F7
100
AcDbEntity
  8
GRAU_10_
 62
     7
100
AcDbVertex
100
AcDb2dVertex
 10
50.90355868742662
 20
-28.08116408003362
 30
0.0
  0
SEQEND
  5
1FB
330
1F7
100
AcDbEntity
  8
GRAU_10_
  0
SPLINE
  5
1FC
330
1F
100
AcDbEntity
  8
GRAU_10_
 62
     7
100
AcDbSpline
210
0.0
220
0.0
230
1.0
 70
    11
 71
     3
 72
    17
 73
    13
 74
     0
 42
0.0000000001
 43
0.0000000001
 40
0.0
 40
0.0
 40
0.0
 40
0.0
 40
1.0
 40
1.0
 40
1.0
 40
2.0
 40
2.0
 40
2.0
 40
3.0
 40
3.0
 40
3.0
 40
4.0
 40
4.0
 40
4.0
 40
4.0
 10
18.43058398554344
 20
-17.54088748954984
 30
0.0
 10
18.43058398554344
 20
-16.15974779838299
 30
0.0
 10
17.31127172398169
 20
-15.04078004659704
 30
0.0
 10
15.93013203281485
 20
-15.04078004659704
 30
0.0
 10
14.55002587097539
 20
-15.04078004659704
 30
0.0
 10
13.43071360941364
 20
-16.15974779838299
 30
0.0
 10
13.43071360941364
 20
-17.54088748954984
 30
0.0
 10
13.43071360941364
 20
-18.92168267094088
 30
0.0
 10
14.55002587097539
 20
-20.04099493250263
 30
0.0
 10
15.93013203281485
 20
-20.04099493250263
 30
0.0
 10
17.31127172398169
 20
-20.04099493250263
 30
0.0
 10
18.43058398554344
 20
-18.92168267094088
 30
0.0
 10
18.43058398554344
 20
-17.54088748954984
 30
0.0
  0
POLYLINE
  5
1FD
330
1F
100
AcDbEntity
  8
GRAU_10_
 62
     7
100
AcDb2dPolyline
 66
     1
 10
0.0
 20
0.0
 30
0.0
  0
VERTEX
  5
1FE
330
1FD
100
AcDbEntity
  8
GRAU_10_
 62
     7
100
AcDbVertex
100
AcDb2dVertex
 10
19.92179455007716
 20
-99.70285166429025
 30
0.0
  0
VERTEX
  5
1FF
330
1FD
100
AcDbEntity
  8
GRAU_10_
 62
     7
100
AcDbVertex
100
AcDb2dVertex
 10
25.93073405951393
 20
-99.70285166429025
 30
0.0
  0
SEQEND
  5
200
330
1FD
100
AcDbEntity
  8
GRAU_10_
  0
POLYLINE
  5
201
330
1F
100
AcDbEntity
  8
GRAU_10_
 62
     7
100
AcDb2dPolyline
 66
     1
 10
0.0
 20
0.0
 30
0.0
  0
VERTEX
  5
202
330
201
100
AcDbEntity
  8
GRAU_10_
 62
     7
100
AcDbVertex
100
AcDb2dVertex
 10
10.93026165668505
 20
-99.70285166429025
 30
0.0
  0
VERTEX
  5
203
330
201
100
AcDbEntity
  8
GRAU_10_
 62
     7
100
AcDbVertex
100
AcDb2dVertex
 10
11.93037353582133
 20
-99.70285166429025
 30
0.0
  0
SEQEND
  5
204
330
201
100
AcDbEntity
  8
GRAU_10_
  0
POLYLINE
  5
205
330
1F
100
AcDbEntity
  8
GRAU_10_
 62
     7
100
AcDb2dPolyline
 66
     1
 10
0.0
 20
0.0
 30
0.0
  0
VERTEX
  5
206
330
205
100
AcDbEntity
  8
GRAU_10_
 62
     7
100
AcDbVertex
100
AcDb2dVertex
 10
25.93073405951393
 20
-64.70307001183006
 30
0.0
  0
VERTEX
  5
207
330
205
100
AcDbEntity
  8
GRAU_10_
 62
     7
100
AcDbVertex
100
AcDb2dVertex
 10
10.93026165668505
 20
-64.70307001183006
 30
0.0
  0
VERTEX
  5
208
330
205
100
AcDbEntity
  8
GRAU_10_
 62
     7
100
AcDbVertex
100
AcDb2dVertex
 10
-0.069418719822928
 20
-69.83282057343501
 30
0.0
  0
SEQEND
  5
209
330
205
100
AcDbEntity
  8
GRAU_10_
  0
POLYLINE
  5
20A
330
1F
100
AcDbEntity
  8
GRAU_10_
 62
     7
100
AcDb2dPolyline
 66
     1
 10
0.0
 20
0.0
 30
0.0
  0
VERTEX
  5
20B
330
20A
100
AcDbEntity
  8
GRAU_10_
 62
     7
100
AcDbVertex
100
AcDb2dVertex
 10
-0.069418719822928
 20
-94.57379012223689
 30
0.0
  0
VERTEX
  5
20C
330
20A
100
AcDbEntity
  8
GRAU_10_
 62
     7
100
AcDbVertex
100
AcDb2dVertex
 10
10.93026165668505
 20
-99.70285166429025
 30
0.0
  0
SEQEND
  5
20D
330
20A
100
AcDbEntity
  8
GRAU_10_
  0
POLYLINE
  5
20E
330
1F
100
AcDbEntity
  8
GRAU_10_
 62
     7
100
AcDb2dPolyline
 66
     1
 10
0.0
 20
0.0
 30
0.0
  0
VERTEX
  5
20F
330
20E
100
AcDbEntity
  8
GRAU_10_
 62
     7
100
AcDbVertex
100
AcDb2dVertex
 10
31.42342566992015
 20
-98.20320061024952
 30
0.0
  0
VERTEX
  5
210
330
20E
100
AcDbEntity
  8
GRAU_10_
 62
     7
100
AcDbVertex
100
AcDb2dVertex
 10
32.93048368414049
 20
-98.20320061024952
 30
0.0
  0
SEQEND
  5
211
330
20E
100
AcDbEntity
  8
GRAU_10_
  0
POLYLINE
  5
212
330
1F
100
AcDbEntity
  8
GRAU_10_
 62
     7
100
AcDb2dPolyline
 66
     1
 10
0.0
 20
0.0
 30
0.0
  0
VERTEX
  5
213
330
212
100
AcDbEntity
  8
GRAU_10_
 62
     7
100
AcDbVertex
100
AcDb2dVertex
 10
25.93073405951393
 20
-98.20320061024952
 30
0.0
  0
VERTEX
  5
214
330
212
100
AcDbEntity
  8
GRAU_10_
 62
     7
100
AcDbVertex
100
AcDb2dVertex
 10
26.43027323441838
 20
-98.20320061024952
 30
0.0
  0
SEQEND
  5
215
330
212
100
AcDbEntity
  8
GRAU_10_
  0
POLYLINE
  5
216
330
1F
100
AcDbEntity
  8
GRAU_10_
 62
     7
100
AcDb2dPolyline
 66
     1
 10
0.0
 20
0.0
 30
0.0
  0
VERTEX
  5
217
330
216
100
AcDbEntity
  8
GRAU_10_
 62
     7
100
AcDbVertex
100
AcDb2dVertex
 10
32.93048368414049
 20
-66.20306557564658
 30
0.0
  0
VERTEX
  5
218
330
216
100
AcDbEntity
  8
GRAU_10_
 62
     7
100
AcDbVertex
100
AcDb2dVertex
 10
25.93073405951393
 20
-66.20306557564658
 30
0.0
  0
SEQEND
  5
219
330
216
100
AcDbEntity
  8
GRAU_10_
  0
POLYLINE
  5
21A
330
1F
100
AcDbEntity
  8
GRAU_10_
 62
     7
100
AcDb2dPolyline
 66
     1
 10
0.0
 20
0.0
 30
0.0
  0
VERTEX
  5
21B
330
21A
100
AcDbEntity
  8
GRAU_10_
 62
     7
100
AcDbVertex
100
AcDb2dVertex
 10
32.93048368414049
 20
-92.70292978477579
 30
0.0
  0
VERTEX
  5
21C
330
21A
100
AcDbEntity
  8
GRAU_10_
 62
     7
100
AcDbVertex
100
AcDb2dVertex
 10
33.43071187859653
 20
-92.70292978477579
 30
0.0
  0
SEQEND
  5
21D
330
21A
100
AcDbEntity
  8
GRAU_10_
  0
POLYLINE
  5
21E
330
1F
100
AcDbEntity
  8
GRAU_10_
 62
     7
100
AcDb2dPolyline
 66
     1
 10
0.0
 20
0.0
 30
0.0
  0
VERTEX
  5
21F
330
21E
100
AcDbEntity
  8
GRAU_10_
 62
     7
100
AcDbVertex
100
AcDb2dVertex
 10
33.64275764559908
 20
-92.7911242873796
 30
0.0
  0
VERTEX
  5
220
330
21E
100
AcDbEntity
  8
GRAU_10_
 62
     7
100
AcDbVertex
100
AcDb2dVertex
 10
34.76913235756464
 20
-93.91801576400887
 30
0.0
  0
SEQEND
  5
221
330
21E
100
AcDbEntity
  8
GRAU_10_
  0
SPLINE
  5
222
330
1F
100
AcDbEntity
  8
GRAU_10_
 62
     7
100
AcDbSpline
210
0.0
220
0.0
230
1.0
 70
     8
 71
     3
 72
     8
 73
     4
 74
     0
 42
0.0000000001
 43
0.0000000001
 40
0.0
 40
0.0
 40
0.0
 40
0.0
 40
1.0
 40
1.0
 40
1.0
 40
1.0
 10
33.64275764559908
 20
-92.7911242873796
 30
0.0
 10
33.58384647393792
 20
-92.73255762549425
 30
0.0
 10
33.50736530371118
 20
-92.70292978477579
 30
0.0
 10
33.43071187859653
 20
-92.70292978477579
 30
0.0
  0
POLYLINE
  5
223
330
1F
100
AcDbEntity
  8
GRAU_10_
 62
     7
100
AcDb2dPolyline
 66
     1
 10
0.0
 20
0.0
 30
0.0
  0
VERTEX
  5
224
330
223
100
AcDbEntity
  8
GRAU_10_
 62
     7
100
AcDbVertex
100
AcDb2dVertex
 10
34.77102716133152
 20
-93.92077184221525
 30
0.0
  0
VERTEX
  5
225
330
223
100
AcDbEntity
  8
GRAU_10_
 62
     7
100
AcDbVertex
100
AcDb2dVertex
 10
42.83720679693513
 20
-93.73232499485474
 30
0.0
  0
VERTEX
  5
226
330
223
100
AcDbEntity
  8
GRAU_10_
 62
     7
100
AcDbVertex
100
AcDb2dVertex
 10
50.90390319720242
 20
-93.54336138283054
 30
0.0
  0
VERTEX
  5
227
330
223
100
AcDbEntity
  8
GRAU_10_
 62
     7
100
AcDbVertex
100
AcDb2dVertex
 10
51.41532795937183
 20
-93.03107534622164
 30
0.0
  0
VERTEX
  5
228
330
223
100
AcDbEntity
  8
GRAU_10_
 62
     7
100
AcDbVertex
100
AcDb2dVertex
 10
51.92761399598074
 20
-92.51913381938853
 30
0.0
  0
SEQEND
  5
229
330
223
100
AcDbEntity
  8
GRAU_10_
  0
POLYLINE
  5
22A
330
1F
100
AcDbEntity
  8
GRAU_10_
 62
     7
100
AcDb2dPolyline
 66
     1
 10
0.0
 20
0.0
 30
0.0
  0
VERTEX
  5
22B
330
22A
100
AcDbEntity
  8
GRAU_10_
 62
     7
100
AcDbVertex
100
AcDb2dVertex
 10
51.92761399598074
 20
-73.31788146538906
 30
0.0
  0
VERTEX
  5
22C
330
22A
100
AcDbEntity
  8
GRAU_10_
 62
     7
100
AcDbVertex
100
AcDb2dVertex
 10
51.41532795937183
 20
-72.80662895810755
 30
0.0
  0
VERTEX
  5
22D
330
22A
100
AcDbEntity
  8
GRAU_10_
 62
     7
100
AcDbVertex
100
AcDb2dVertex
 10
50.90355868742662
 20
-72.29623772526553
 30
0.0
  0
SEQEND
  5
22E
330
22A
100
AcDbEntity
  8
GRAU_10_
  0
POLYLINE
  5
22F
330
1F
100
AcDbEntity
  8
GRAU_10_
 62
     7
100
AcDb2dPolyline
 66
     1
 10
0.0
 20
0.0
 30
0.0
  0
VERTEX
  5
230
330
22F
100
AcDbEntity
  8
GRAU_10_
 62
     7
100
AcDbVertex
100
AcDb2dVertex
 10
39.3412938470435
 20
-72.03337676633305
 30
0.0
  0
VERTEX
  5
231
330
22F
100
AcDbEntity
  8
GRAU_10_
 62
     7
100
AcDbVertex
100
AcDb2dVertex
 10
36.13580263814805
 20
-71.95861814498528
 30
0.0
  0
VERTEX
  5
232
330
22F
100
AcDbEntity
  8
GRAU_10_
 62
     7
100
AcDbVertex
100
AcDb2dVertex
 10
32.93048368414049
 20
-71.88420403341331
 30
0.0
  0
SEQEND
  5
233
330
22F
100
AcDbEntity
  8
GRAU_10_
  0
POLYLINE
  5
234
330
1F
100
AcDbEntity
  8
GRAU_10_
 62
     7
100
AcDb2dPolyline
 66
     1
 10
0.0
 20
0.0
 30
0.0
  0
VERTEX
  5
235
330
234
100
AcDbEntity
  8
GRAU_10_
 62
     7
100
AcDbVertex
100
AcDb2dVertex
 10
50.90355868742662
 20
-72.30364468544514
 30
0.0
  0
VERTEX
  5
236
330
234
100
AcDbEntity
  8
GRAU_10_
 62
     7
100
AcDbVertex
100
AcDb2dVertex
 10
46.72276030325222
 20
-72.20632067378273
 30
0.0
  0
VERTEX
  5
237
330
234
100
AcDbEntity
  8
GRAU_10_
 62
     7
100
AcDbVertex
100
AcDb2dVertex
 10
42.54196191907781
 20
-72.1084798974566
 30
0.0
  0
SEQEND
  5
238
330
234
100
AcDbEntity
  8
GRAU_10_
  0
POLYLINE
  5
239
330
1F
100
AcDbEntity
  8
GRAU_10_
 62
     7
100
AcDb2dPolyline
 66
     1
 10
0.0
 20
0.0
 30
0.0
  0
VERTEX
  5
23A
330
239
100
AcDbEntity
  8
GRAU_10_
 62
     7
100
AcDbVertex
100
AcDb2dVertex
 10
51.92761399598074
 20
-73.35198793319289
 30
0.0
  0
VERTEX
  5
23B
330
239
100
AcDbEntity
  8
GRAU_10_
 62
     7
100
AcDbVertex
100
AcDb2dVertex
 10
51.92761399598074
 20
-73.2868755855674
 30
0.0
  0
VERTEX
  5
23C
330
239
100
AcDbEntity
  8
GRAU_10_
 62
     7
100
AcDbVertex
100
AcDb2dVertex
 10
51.92761399598074
 20
-73.40642047776868
 30
0.0
  0
VERTEX
  5
23D
330
239
100
AcDbEntity
  8
GRAU_10_
 62
     7
100
AcDbVertex
100
AcDb2dVertex
 10
51.92761399598074
 20
-73.5400902707776
 30
0.0
  0
VERTEX
  5
23E
330
239
100
AcDbEntity
  8
GRAU_10_
 62
     7
100
AcDbVertex
100
AcDb2dVertex
 10
51.92761399598074
 20
-73.71751280531262
 30
0.0
  0
VERTEX
  5
23F
330
239
100
AcDbEntity
  8
GRAU_10_
 62
     7
100
AcDbVertex
100
AcDb2dVertex
 10
51.92761399598074
 20
-73.94058288514064
 30
0.0
  0
VERTEX
  5
240
330
239
100
AcDbEntity
  8
GRAU_10_
 62
     7
100
AcDbVertex
100
AcDb2dVertex
 10
51.92761399598074
 20
-74.20826698093425
 30
0.0
  0
VERTEX
  5
241
330
239
100
AcDbEntity
  8
GRAU_10_
 62
     7
100
AcDbVertex
100
AcDb2dVertex
 10
51.92761399598074
 20
-74.55966695224635
 30
0.0
  0
VERTEX
  5
242
330
239
100
AcDbEntity
  8
GRAU_10_
 62
     7
100
AcDbVertex
100
AcDb2dVertex
 10
51.92761399598074
 20
-74.95619770418774
 30
0.0
  0
VERTEX
  5
243
330
239
100
AcDbEntity
  8
GRAU_10_
 62
     7
100
AcDbVertex
100
AcDb2dVertex
 10
51.92761399598074
 20
-75.39820374653422
 30
0.0
  0
VERTEX
  5
244
330
239
100
AcDbEntity
  8
GRAU_10_
 62
     7
100
AcDbVertex
100
AcDb2dVertex
 10
51.92761399598074
 20
-75.8856850792858
 30
0.0
  0
VERTEX
  5
245
330
239
100
AcDbEntity
  8
GRAU_10_
 62
     7
100
AcDbVertex
100
AcDb2dVertex
 10
51.92761399598074
 20
-76.50304659751254
 30
0.0
  0
VERTEX
  5
246
330
239
100
AcDbEntity
  8
GRAU_10_
 62
     7
100
AcDbVertex
100
AcDb2dVertex
 10
51.92761399598074
 20
-77.18672624758004
 30
0.0
  0
VERTEX
  5
247
330
239
100
AcDbEntity
  8
GRAU_10_
 62
     7
100
AcDbVertex
100
AcDb2dVertex
 10
51.92761399598074
 20
-77.90571814966664
 30
0.0
  0
VERTEX
  5
248
330
239
100
AcDbEntity
  8
GRAU_10_
 62
     7
100
AcDbVertex
100
AcDb2dVertex
 10
51.92761399598074
 20
-78.71497161301184
 30
0.0
  0
VERTEX
  5
249
330
239
100
AcDbEntity
  8
GRAU_10_
 62
     7
100
AcDbVertex
100
AcDb2dVertex
 10
51.92761399598074
 20
-79.8163693662322
 30
0.0
  0
VERTEX
  5
24A
330
239
100
AcDbEntity
  8
GRAU_10_
 62
     7
100
AcDbVertex
100
AcDb2dVertex
 10
51.92761399598074
 20
-80.89451270958631
 30
0.0
  0
VERTEX
  5
24B
330
239
100
AcDbEntity
  8
GRAU_10_
 62
     7
100
AcDbVertex
100
AcDb2dVertex
 10
51.92761399598074
 20
-82.03260075392895
 30
0.0
  0
VERTEX
  5
24C
330
239
100
AcDbEntity
  8
GRAU_10_
 62
     7
100
AcDbVertex
100
AcDb2dVertex
 10
51.92761399598074
 20
-83.83455913623081
 30
0.0
  0
VERTEX
  5
24D
330
239
100
AcDbEntity
  8
GRAU_10_
 62
     7
100
AcDbVertex
100
AcDb2dVertex
 10
51.92761399598074
 20
-85.6075786973658
 30
0.0
  0
VERTEX
  5
24E
330
239
100
AcDbEntity
  8
GRAU_10_
 62
     7
100
AcDbVertex
100
AcDb2dVertex
 10
51.92761399598074
 20
-86.72447939049697
 30
0.0
  0
VERTEX
  5
24F
330
239
100
AcDbEntity
  8
GRAU_10_
 62
     7
100
AcDbVertex
100
AcDb2dVertex
 10
51.92761399598074
 20
-87.78212440219122
 30
0.0
  0
VERTEX
  5
250
330
239
100
AcDbEntity
  8
GRAU_10_
 62
     7
100
AcDbVertex
100
AcDb2dVertex
 10
51.92761399598074
 20
-88.77948020312112
 30
0.0
  0
VERTEX
  5
251
330
239
100
AcDbEntity
  8
GRAU_10_
 62
     7
100
AcDbVertex
100
AcDb2dVertex
 10
51.92761399598074
 20
-89.37703240923958
 30
0.0
  0
VERTEX
  5
252
330
239
100
AcDbEntity
  8
GRAU_10_
 62
     7
100
AcDbVertex
100
AcDb2dVertex
 10
51.92761399598074
 20
-89.92807579562555
 30
0.0
  0
VERTEX
  5
253
330
239
100
AcDbEntity
  8
GRAU_10_
 62
     7
100
AcDbVertex
100
AcDb2dVertex
 10
51.92761399598074
 20
-90.43295487205484
 30
0.0
  0
VERTEX
  5
254
330
239
100
AcDbEntity
  8
GRAU_10_
 62
     7
100
AcDbVertex
100
AcDb2dVertex
 10
51.92761399598074
 20
-90.89080836408795
 30
0.0
  0
VERTEX
  5
255
330
239
100
AcDbEntity
  8
GRAU_10_
 62
     7
100
AcDbVertex
100
AcDb2dVertex
 10
51.92761399598074
 20
-91.30284205594016
 30
0.0
  0
VERTEX
  5
256
330
239
100
AcDbEntity
  8
GRAU_10_
 62
     7
100
AcDbVertex
100
AcDb2dVertex
 10
51.92761399598074
 20
-91.84992357990447
 30
0.0
  0
VERTEX
  5
257
330
239
100
AcDbEntity
  8
GRAU_10_
 62
     7
100
AcDbVertex
100
AcDb2dVertex
 10
51.92761399598074
 20
-92.2349132543567
 30
0.0
  0
VERTEX
  5
258
330
239
100
AcDbEntity
  8
GRAU_10_
 62
     7
100
AcDbVertex
100
AcDb2dVertex
 10
51.92761399598074
 20
-92.50862627122675
 30
0.0
  0
SEQEND
  5
259
330
239
100
AcDbEntity
  8
GRAU_10_
  0
POLYLINE
  5
25A
330
1F
100
AcDbEntity
  8
GRAU_10_
 62
     7
100
AcDb2dPolyline
 66
     1
 10
0.0
 20
0.0
 30
0.0
  0
VERTEX
  5
25B
330
25A
100
AcDbEntity
  8
GRAU_10_
 62
     7
100
AcDbVertex
100
AcDb2dVertex
 10
42.58071926885488
 20
-72.10641283880183
 30
0.0
  0
VERTEX
  5
25C
330
25A
100
AcDbEntity
  8
GRAU_10_
 62
     7
100
AcDbVertex
100
AcDb2dVertex
 10
42.54196191907781
 20
-72.109513426784
 30
0.0
  0
SEQEND
  5
25D
330
25A
100
AcDbEntity
  8
GRAU_10_
  0
POLYLINE
  5
25E
330
1F
100
AcDbEntity
  8
GRAU_10_
 62
     7
100
AcDb2dPolyline
 66
     1
 10
0.0
 20
0.0
 30
0.0
  0
VERTEX
  5
25F
330
25E
100
AcDbEntity
  8
GRAU_10_
 62
     7
100
AcDbVertex
100
AcDb2dVertex
 10
38.95527064326389
 20
-71.98652343682477
 30
0.0
  0
VERTEX
  5
260
330
25E
100
AcDbEntity
  8
GRAU_10_
 62
     7
100
AcDbVertex
100
AcDb2dVertex
 10
38.98059211178492
 20
-71.98996853458273
 30
0.0
  0
VERTEX
  5
261
330
25E
100
AcDbEntity
  8
GRAU_10_
 62
     7
100
AcDbVertex
100
AcDb2dVertex
 10
39.2336345421072
 20
-72.02390274749865
 30
0.0
  0
VERTEX
  5
262
330
25E
100
AcDbEntity
  8
GRAU_10_
 62
     7
100
AcDbVertex
100
AcDb2dVertex
 10
39.67632960400528
 20
-72.074028919877
 30
0.0
  0
VERTEX
  5
263
330
25E
100
AcDbEntity
  8
GRAU_10_
 62
     7
100
AcDbVertex
100
AcDb2dVertex
 10
40.26440779128934
 20
-72.12226028848846
 30
0.0
  0
VERTEX
  5
264
330
25E
100
AcDbEntity
  8
GRAU_10_
 62
     7
100
AcDbVertex
100
AcDb2dVertex
 10
40.92793361947276
 20
-72.15188812920692
 30
0.0
  0
VERTEX
  5
265
330
25E
100
AcDbEntity
  8
GRAU_10_
 62
     7
100
AcDbVertex
100
AcDb2dVertex
 10
41.58766984012242
 20
-72.1542996976375
 30
0.0
  0
VERTEX
  5
266
330
25E
100
AcDbEntity
  8
GRAU_10_
 62
     7
100
AcDbVertex
100
AcDb2dVertex
 10
42.17230292964852
 20
-72.13397362086553
 30
0.0
  0
VERTEX
  5
267
330
25E
100
AcDbEntity
  8
GRAU_10_
 62
     7
100
AcDbVertex
100
AcDb2dVertex
 10
42.62033789307144
 20
-72.10365676059547
 30
0.0
  0
VERTEX
  5
268
330
25E
100
AcDbEntity
  8
GRAU_10_
 62
     7
100
AcDbVertex
100
AcDb2dVertex
 10
42.87958149935805
 20
-72.08143588005662
 30
0.0
  0
VERTEX
  5
269
330
25E
100
AcDbEntity
  8
GRAU_10_
 62
     7
100
AcDbVertex
100
AcDb2dVertex
 10
42.93074120106378
 20
-72.07644048830757
 30
0.0
  0
SEQEND
  5
26A
330
25E
100
AcDbEntity
  8
GRAU_10_
  0
POLYLINE
  5
26B
330
1F
100
AcDbEntity
  8
GRAU_10_
 62
     7
100
AcDb2dPolyline
 66
     1
 10
0.0
 20
0.0
 30
0.0
  0
VERTEX
  5
26C
330
26B
100
AcDbEntity
  8
GRAU_10_
 62
     7
100
AcDbVertex
100
AcDb2dVertex
 10
32.93048368414049
 20
-98.20320061024952
 30
0.0
  0
VERTEX
  5
26D
330
26B
100
AcDbEntity
  8
GRAU_10_
 62
     7
100
AcDbVertex
100
AcDb2dVertex
 10
32.93048368414049
 20
-98.09485228576163
 30
0.0
  0
VERTEX
  5
26E
330
26B
100
AcDbEntity
  8
GRAU_10_
 62
     7
100
AcDbVertex
100
AcDb2dVertex
 10
32.93048368414049
 20
-97.77170211606482
 30
0.0
  0
VERTEX
  5
26F
330
26B
100
AcDbEntity
  8
GRAU_10_
 62
     7
100
AcDbVertex
100
AcDb2dVertex
 10
32.93048368414049
 20
-97.23840098313235
 30
0.0
  0
VERTEX
  5
270
330
26B
100
AcDbEntity
  8
GRAU_10_
 62
     7
100
AcDbVertex
100
AcDb2dVertex
 10
32.93048368414049
 20
-96.50132231781645
 30
0.0
  0
VERTEX
  5
271
330
26B
100
AcDbEntity
  8
GRAU_10_
 62
     7
100
AcDbVertex
100
AcDb2dVertex
 10
32.93048368414049
 20
-95.5711459231668
 30
0.0
  0
VERTEX
  5
272
330
26B
100
AcDbEntity
  8
GRAU_10_
 62
     7
100
AcDbVertex
100
AcDb2dVertex
 10
32.93048368414049
 20
-94.46027415111205
 30
0.0
  0
VERTEX
  5
273
330
26B
100
AcDbEntity
  8
GRAU_10_
 62
     7
100
AcDbVertex
100
AcDb2dVertex
 10
32.93048368414049
 20
-93.18317641223565
 30
0.0
  0
VERTEX
  5
274
330
26B
100
AcDbEntity
  8
GRAU_10_
 62
     7
100
AcDbVertex
100
AcDb2dVertex
 10
32.93048368414049
 20
-91.7575949599911
 30
0.0
  0
VERTEX
  5
275
330
26B
100
AcDbEntity
  8
GRAU_10_
 62
     7
100
AcDbVertex
100
AcDb2dVertex
 10
32.93048368414049
 20
-90.202822341823
 30
0.0
  0
VERTEX
  5
276
330
26B
100
AcDbEntity
  8
GRAU_10_
 62
     7
100
AcDbVertex
100
AcDb2dVertex
 10
32.93048368414049
 20
-88.54021816383069
 30
0.0
  0
VERTEX
  5
277
330
26B
100
AcDbEntity
  8
GRAU_10_
 62
     7
100
AcDbVertex
100
AcDb2dVertex
 10
32.93048368414049
 20
-86.79217556144091
 30
0.0
  0
VERTEX
  5
278
330
26B
100
AcDbEntity
  8
GRAU_10_
 62
     7
100
AcDbVertex
100
AcDb2dVertex
 10
32.93048368414049
 20
-84.98177668963206
 30
0.0
  0
VERTEX
  5
279
330
26B
100
AcDbEntity
  8
GRAU_10_
 62
     7
100
AcDbVertex
100
AcDb2dVertex
 10
32.93048368414049
 20
-83.13313723270981
 30
0.0
  0
VERTEX
  5
27A
330
26B
100
AcDbEntity
  8
GRAU_10_
 62
     7
100
AcDbVertex
100
AcDb2dVertex
 10
32.93048368414049
 20
-81.2726121885226
 30
0.0
  0
VERTEX
  5
27B
330
26B
100
AcDbEntity
  8
GRAU_10_
 62
     7
100
AcDbVertex
100
AcDb2dVertex
 10
32.93048368414049
 20
-79.42483400603984
 30
0.0
  0
VERTEX
  5
27C
330
26B
100
AcDbEntity
  8
GRAU_10_
 62
     7
100
AcDbVertex
100
AcDb2dVertex
 10
32.93048368414049
 20
-77.61391836956729
 30
0.0
  0
VERTEX
  5
27D
330
26B
100
AcDbEntity
  8
GRAU_10_
 62
     7
100
AcDbVertex
100
AcDb2dVertex
 10
32.93048368414049
 20
-75.86553125740173
 30
0.0
  0
VERTEX
  5
27E
330
26B
100
AcDbEntity
  8
GRAU_10_
 62
     7
100
AcDbVertex
100
AcDb2dVertex
 10
32.93048368414049
 20
-74.20327158918522
 30
0.0
  0
VERTEX
  5
27F
330
26B
100
AcDbEntity
  8
GRAU_10_
 62
     7
100
AcDbVertex
100
AcDb2dVertex
 10
32.93048368414049
 20
-72.6483267161292
 30
0.0
  0
VERTEX
  5
280
330
26B
100
AcDbEntity
  8
GRAU_10_
 62
     7
100
AcDbVertex
100
AcDb2dVertex
 10
32.93048368414049
 20
-71.22343428343625
 30
0.0
  0
VERTEX
  5
281
330
26B
100
AcDbEntity
  8
GRAU_10_
 62
     7
100
AcDbVertex
100
AcDb2dVertex
 10
32.93048368414049
 20
-69.94633654455986
 30
0.0
  0
VERTEX
  5
282
330
26B
100
AcDbEntity
  8
GRAU_10_
 62
     7
100
AcDbVertex
100
AcDb2dVertex
 10
32.93048368414049
 20
-68.8354647725051
 30
0.0
  0
VERTEX
  5
283
330
26B
100
AcDbEntity
  8
GRAU_10_
 62
     7
100
AcDbVertex
100
AcDb2dVertex
 10
32.93048368414049
 20
-67.90511612296756
 30
0.0
  0
VERTEX
  5
284
330
26B
100
AcDbEntity
  8
GRAU_10_
 62
     7
100
AcDbVertex
100
AcDb2dVertex
 10
32.93048368414049
 20
-67.16820971253955
 30
0.0
  0
VERTEX
  5
285
330
26B
100
AcDbEntity
  8
GRAU_10_
 62
     7
100
AcDbVertex
100
AcDb2dVertex
 10
32.93048368414049
 20
-66.63404730516758
 30
0.0
  0
VERTEX
  5
286
330
26B
100
AcDbEntity
  8
GRAU_10_
 62
     7
100
AcDbVertex
100
AcDb2dVertex
 10
32.93048368414049
 20
-66.31089713547078
 30
0.0
  0
VERTEX
  5
287
330
26B
100
AcDbEntity
  8
GRAU_10_
 62
     7
100
AcDbVertex
100
AcDb2dVertex
 10
32.93048368414049
 20
-66.20306557564658
 30
0.0
  0
SEQEND
  5
288
330
26B
100
AcDbEntity
  8
GRAU_10_
  0
POLYLINE
  5
289
330
1F
100
AcDbEntity
  8
GRAU_10_
 62
     7
100
AcDb2dPolyline
 66
     1
 10
0.0
 20
0.0
 30
0.0
  0
VERTEX
  5
28A
330
289
100
AcDbEntity
  8
GRAU_10_
 62
     7
100
AcDbVertex
100
AcDb2dVertex
 10
-0.069418719822928
 20
-94.57379012223689
 30
0.0
  0
VERTEX
  5
28B
330
289
100
AcDbEntity
  8
GRAU_10_
 62
     7
100
AcDbVertex
100
AcDb2dVertex
 10
-0.069418719822928
 20
-94.46750885640377
 30
0.0
  0
VERTEX
  5
28C
330
289
100
AcDbEntity
  8
GRAU_10_
 62
     7
100
AcDbVertex
100
AcDb2dVertex
 10
-0.069418719822928
 20
-94.15228241155027
 30
0.0
  0
VERTEX
  5
28D
330
289
100
AcDbEntity
  8
GRAU_10_
 62
     7
100
AcDbVertex
100
AcDb2dVertex
 10
-0.069418719822928
 20
-93.63224490498595
 30
0.0
  0
VERTEX
  5
28E
330
289
100
AcDbEntity
  8
GRAU_10_
 62
     7
100
AcDbVertex
100
AcDb2dVertex
 10
-0.069418719822928
 20
-92.91600908110571
 30
0.0
  0
VERTEX
  5
28F
330
289
100
AcDbEntity
  8
GRAU_10_
 62
     7
100
AcDbVertex
100
AcDb2dVertex
 10
-0.069418719822928
 20
-92.01752758582931
 30
0.0
  0
VERTEX
  5
290
330
289
100
AcDbEntity
  8
GRAU_10_
 62
     7
100
AcDbVertex
100
AcDb2dVertex
 10
-0.069418719822928
 20
-90.95075306507647
 30
0.0
  0
VERTEX
  5
291
330
289
100
AcDbEntity
  8
GRAU_10_
 62
     7
100
AcDbVertex
100
AcDb2dVertex
 10
-0.069418719822928
 20
-89.7339445369644
 30
0.0
  0
VERTEX
  5
292
330
289
100
AcDbEntity
  8
GRAU_10_
 62
     7
100
AcDbVertex
100
AcDb2dVertex
 10
-0.069418719822928
 20
-88.38811709781668
 30
0.0
  0
VERTEX
  5
293
330
289
100
AcDbEntity
  8
GRAU_10_
 62
     7
100
AcDbVertex
100
AcDb2dVertex
 10
-0.069418719822928
 20
-86.9372141770511
 30
0.0
  0
VERTEX
  5
294
330
289
100
AcDbEntity
  8
GRAU_10_
 62
     7
100
AcDbVertex
100
AcDb2dVertex
 10
-0.069418719822928
 20
-85.40466243942186
 30
0.0
  0
VERTEX
  5
295
330
289
100
AcDbEntity
  8
GRAU_10_
 62
     7
100
AcDbVertex
100
AcDb2dVertex
 10
-0.069418719822928
 20
-83.8175059023289
 30
0.0
  0
VERTEX
  5
296
330
289
100
AcDbEntity
  8
GRAU_10_
 62
     7
100
AcDbVertex
100
AcDb2dVertex
 10
-0.069418719822928
 20
-82.20296083806015
 30
0.0
  0
VERTEX
  5
297
330
289
100
AcDbEntity
  8
GRAU_10_
 62
     7
100
AcDbVertex
100
AcDb2dVertex
 10
-0.069418719822928
 20
-80.58824351890351
 30
0.0
  0
VERTEX
  5
298
330
289
100
AcDbEntity
  8
GRAU_10_
 62
     7
100
AcDbVertex
100
AcDb2dVertex
 10
-0.069418719822928
 20
-79.00143149158636
 30
0.0
  0
VERTEX
  5
299
330
289
100
AcDbEntity
  8
GRAU_10_
 62
     7
100
AcDbVertex
100
AcDb2dVertex
 10
-0.069418719822928
 20
-77.469052008845
 30
0.0
  0
VERTEX
  5
29A
330
289
100
AcDbEntity
  8
GRAU_10_
 62
     7
100
AcDbVertex
100
AcDb2dVertex
 10
-0.069418719822928
 20
-76.01797683319154
 30
0.0
  0
VERTEX
  5
29B
330
289
100
AcDbEntity
  8
GRAU_10_
 62
     7
100
AcDbVertex
100
AcDb2dVertex
 10
-0.069418719822928
 20
-74.6721493940438
 30
0.0
  0
VERTEX
  5
29C
330
289
100
AcDbEntity
  8
GRAU_10_
 62
     7
100
AcDbVertex
100
AcDb2dVertex
 10
-0.069418719822928
 20
-73.45551312081963
 30
0.0
  0
VERTEX
  5
29D
330
289
100
AcDbEntity
  8
GRAU_10_
 62
     7
100
AcDbVertex
100
AcDb2dVertex
 10
-0.069418719822928
 20
-72.3885663451789
 30
0.0
  0
VERTEX
  5
29E
330
289
100
AcDbEntity
  8
GRAU_10_
 62
     7
100
AcDbVertex
100
AcDb2dVertex
 10
-0.069418719822928
 20
-71.48974034012669
 30
0.0
  0
VERTEX
  5
29F
330
289
100
AcDbEntity
  8
GRAU_10_
 62
     7
100
AcDbVertex
100
AcDb2dVertex
 10
-0.069418719822928
 20
-70.77402128091015
 30
0.0
  0
VERTEX
  5
2A0
330
289
100
AcDbEntity
  8
GRAU_10_
 62
     7
100
AcDbVertex
100
AcDb2dVertex
 10
-0.069418719822928
 20
-70.25398377434584
 30
0.0
  0
VERTEX
  5
2A1
330
289
100
AcDbEntity
  8
GRAU_10_
 62
     7
100
AcDbVertex
100
AcDb2dVertex
 10
-0.069418719822928
 20
-69.93858507460445
 30
0.0
  0
VERTEX
  5
2A2
330
289
100
AcDbEntity
  8
GRAU_10_
 62
     7
100
AcDbVertex
100
AcDb2dVertex
 10
-0.069418719822928
 20
-69.83282057343501
 30
0.0
  0
SEQEND
  5
2A3
330
289
100
AcDbEntity
  8
GRAU_10_
  0
POLYLINE
  5
2A4
330
1F
100
AcDbEntity
  8
GRAU_10_
 62
     7
100
AcDb2dPolyline
 66
     1
 10
0.0
 20
0.0
 30
0.0
  0
VERTEX
  5
2A5
330
2A4
100
AcDbEntity
  8
GRAU_10_
 62
     7
100
AcDbVertex
100
AcDb2dVertex
 10
10.93026165668505
 20
-99.70285166429025
 30
0.0
  0
VERTEX
  5
2A6
330
2A4
100
AcDbEntity
  8
GRAU_10_
 62
     7
100
AcDbVertex
100
AcDb2dVertex
 10
10.93026165668505
 20
-99.60087677065458
 30
0.0
  0
VERTEX
  5
2A7
330
2A4
100
AcDbEntity
  8
GRAU_10_
 62
     7
100
AcDbVertex
100
AcDb2dVertex
 10
10.93026165668505
 20
-99.2939185604202
 30
0.0
  0
VERTEX
  5
2A8
330
2A4
100
AcDbEntity
  8
GRAU_10_
 62
     7
100
AcDbVertex
100
AcDb2dVertex
 10
10.93026165668505
 20
-98.78731693511193
 30
0.0
  0
VERTEX
  5
2A9
330
2A4
100
AcDbEntity
  8
GRAU_10_
 62
     7
100
AcDbVertex
100
AcDb2dVertex
 10
10.93026165668505
 20
-98.08606728647882
 30
0.0
  0
VERTEX
  5
2AA
330
2A4
100
AcDbEntity
  8
GRAU_10_
 62
     7
100
AcDbVertex
100
AcDb2dVertex
 10
10.93026165668505
 20
-97.19843784913999
 30
0.0
  0
VERTEX
  5
2AB
330
2A4
100
AcDbEntity
  8
GRAU_10_
 62
     7
100
AcDbVertex
100
AcDb2dVertex
 10
10.93026165668505
 20
-96.13476391636932
 30
0.0
  0
VERTEX
  5
2AC
330
2A4
100
AcDbEntity
  8
GRAU_10_
 62
     7
100
AcDbVertex
100
AcDb2dVertex
 10
10.93026165668505
 20
-94.90779234987127
 30
0.0
  0
VERTEX
  5
2AD
330
2A4
100
AcDbEntity
  8
GRAU_10_
 62
     7
100
AcDbVertex
100
AcDb2dVertex
 10
10.93026165668505
 20
-93.53233707000507
 30
0.0
  0
VERTEX
  5
2AE
330
2A4
100
AcDbEntity
  8
GRAU_10_
 62
     7
100
AcDbVertex
100
AcDb2dVertex
 10
10.93026165668505
 20
-92.02355650690575
 30
0.0
  0
VERTEX
  5
2AF
330
2A4
100
AcDbEntity
  8
GRAU_10_
 62
     7
100
AcDbVertex
100
AcDb2dVertex
 10
10.93026165668505
 20
-90.4003986982421
 30
0.0
  0
VERTEX
  5
2B0
330
2A4
100
AcDbEntity
  8
GRAU_10_
 62
     7
100
AcDbVertex
100
AcDb2dVertex
 10
10.93026165668505
 20
-88.68060589746761
 30
0.0
  0
VERTEX
  5
2B1
330
2A4
100
AcDbEntity
  8
GRAU_10_
 62
     7
100
AcDbVertex
100
AcDb2dVertex
 10
10.93026165668505
 20
-86.88467643624219
 30
0.0
  0
VERTEX
  5
2B2
330
2A4
100
AcDbEntity
  8
GRAU_10_
 62
     7
100
AcDbVertex
100
AcDb2dVertex
 10
10.93026165668505
 20
-85.03431443044097
 30
0.0
  0
VERTEX
  5
2B3
330
2A4
100
AcDbEntity
  8
GRAU_10_
 62
     7
100
AcDbVertex
100
AcDb2dVertex
 10
10.93026165668505
 20
-83.15087948616332
 30
0.0
  0
VERTEX
  5
2B4
330
2A4
100
AcDbEntity
  8
GRAU_10_
 62
     7
100
AcDbVertex
100
AcDb2dVertex
 10
10.93026165668505
 20
-81.2553866997328
 30
0.0
  0
VERTEX
  5
2B5
330
2A4
100
AcDbEntity
  8
GRAU_10_
 62
     7
100
AcDbVertex
100
AcDb2dVertex
 10
10.93026165668505
 20
-79.37229626523093
 30
0.0
  0
VERTEX
  5
2B6
330
2A4
100
AcDbEntity
  8
GRAU_10_
 62
     7
100
AcDbVertex
100
AcDb2dVertex
 10
10.93026165668505
 20
-77.52158974965391
 30
0.0
  0
VERTEX
  5
2B7
330
2A4
100
AcDbEntity
  8
GRAU_10_
 62
     7
100
AcDbVertex
100
AcDb2dVertex
 10
10.93026165668505
 20
-75.72548803354059
 30
0.0
  0
VERTEX
  5
2B8
330
2A4
100
AcDbEntity
  8
GRAU_10_
 62
     7
100
AcDbVertex
100
AcDb2dVertex
 10
10.93026165668505
 20
-74.00569523276612
 30
0.0
  0
VERTEX
  5
2B9
330
2A4
100
AcDbEntity
  8
GRAU_10_
 62
     7
100
AcDbVertex
100
AcDb2dVertex
 10
10.93026165668505
 20
-72.38270967899037
 30
0.0
  0
VERTEX
  5
2BA
330
2A4
100
AcDbEntity
  8
GRAU_10_
 62
     7
100
AcDbVertex
100
AcDb2dVertex
 10
10.93026165668505
 20
-70.87410137077894
 30
0.0
  0
VERTEX
  5
2BB
330
2A4
100
AcDbEntity
  8
GRAU_10_
 62
     7
100
AcDbVertex
100
AcDb2dVertex
 10
10.93026165668505
 20
-69.49830158113694
 30
0.0
  0
VERTEX
  5
2BC
330
2A4
100
AcDbEntity
  8
GRAU_10_
 62
     7
100
AcDbVertex
100
AcDb2dVertex
 10
10.93026165668505
 20
-68.27133001463888
 30
0.0
  0
VERTEX
  5
2BD
330
2A4
100
AcDbEntity
  8
GRAU_10_
 62
     7
100
AcDbVertex
100
AcDb2dVertex
 10
10.93026165668505
 20
-67.20817284653191
 30
0.0
  0
VERTEX
  5
2BE
330
2A4
100
AcDbEntity
  8
GRAU_10_
 62
     7
100
AcDbVertex
100
AcDb2dVertex
 10
10.93026165668505
 20
-66.32088791896888
 30
0.0
  0
VERTEX
  5
2BF
330
2A4
100
AcDbEntity
  8
GRAU_10_
 62
     7
100
AcDbVertex
100
AcDb2dVertex
 10
10.93026165668505
 20
-65.61946601544787
 30
0.0
  0
VERTEX
  5
2C0
330
2A4
100
AcDbEntity
  8
GRAU_10_
 62
     7
100
AcDbVertex
100
AcDb2dVertex
 10
10.93026165668505
 20
-65.1125198803638
 30
0.0
  0
VERTEX
  5
2C1
330
2A4
100
AcDbEntity
  8
GRAU_10_
 62
     7
100
AcDbVertex
100
AcDb2dVertex
 10
10.93026165668505
 20
-64.80573392501732
 30
0.0
  0
VERTEX
  5
2C2
330
2A4
100
AcDbEntity
  8
GRAU_10_
 62
     7
100
AcDbVertex
100
AcDb2dVertex
 10
10.93026165668505
 20
-64.70307001183006
 30
0.0
  0
SEQEND
  5
2C3
330
2A4
100
AcDbEntity
  8
GRAU_10_
  0
POLYLINE
  5
2C4
330
1F
100
AcDbEntity
  8
GRAU_10_
 62
     7
100
AcDb2dPolyline
 66
     1
 10
0.0
 20
0.0
 30
0.0
  0
VERTEX
  5
2C5
330
2C4
100
AcDbEntity
  8
GRAU_10_
 62
     7
100
AcDbVertex
100
AcDb2dVertex
 10
11.93037353582133
 20
-99.70285166429025
 30
0.0
  0
VERTEX
  5
2C6
330
2C4
100
AcDbEntity
  8
GRAU_10_
 62
     7
100
AcDbVertex
100
AcDb2dVertex
 10
11.98618411950031
 20
-99.69044931236158
 30
0.0
  0
VERTEX
  5
2C7
330
2C4
100
AcDbEntity
  8
GRAU_10_
 62
     7
100
AcDbVertex
100
AcDb2dVertex
 10
12.14913724345189
 20
-99.65410353101508
 30
0.0
  0
VERTEX
  5
2C8
330
2C4
100
AcDbEntity
  8
GRAU_10_
 62
     7
100
AcDbVertex
100
AcDb2dVertex
 10
12.41647682946972
 20
-99.598465202224
 30
0.0
  0
VERTEX
  5
2C9
330
2C4
100
AcDbEntity
  8
GRAU_10_
 62
     7
100
AcDbVertex
100
AcDb2dVertex
 10
12.7783843489436
 20
-99.52887422751319
 30
0.0
  0
VERTEX
  5
2CA
330
2C4
100
AcDbEntity
  8
GRAU_10_
 62
     7
100
AcDbVertex
100
AcDb2dVertex
 10
13.23313725299454
 20
-99.45239305728643
 30
0.0
  0
VERTEX
  5
2CB
330
2C4
100
AcDbEntity
  8
GRAU_10_
 62
     7
100
AcDbVertex
100
AcDb2dVertex
 10
13.76402681749644
 20
-99.37677316149917
 30
0.0
  0
VERTEX
  5
2CC
330
2C4
100
AcDbEntity
  8
GRAU_10_
 62
     7
100
AcDbVertex
100
AcDb2dVertex
 10
14.36450735670916
 20
-99.3116608138737
 30
0.0
  0
VERTEX
  5
2CD
330
2C4
100
AcDbEntity
  8
GRAU_10_
 62
     7
100
AcDbVertex
100
AcDb2dVertex
 10
15.01149671565436
 20
-99.26429071970172
 30
0.0
  0
VERTEX
  5
2CE
330
2C4
100
AcDbEntity
  8
GRAU_10_
 62
     7
100
AcDbVertex
100
AcDb2dVertex
 10
15.6739890145104
 20
-99.24206983916287
 30
0.0
  0
VERTEX
  5
2CF
330
2C4
100
AcDbEntity
  8
GRAU_10_
 62
     7
100
AcDbVertex
100
AcDb2dVertex
 10
16.34492180287344
 20
-99.24448140759344
 30
0.0
  0
VERTEX
  5
2D0
330
2C4
100
AcDbEntity
  8
GRAU_10_
 62
     7
100
AcDbVertex
100
AcDb2dVertex
 10
16.99018861293966
 20
-99.27273120920873
 30
0.0
  0
VERTEX
  5
2D1
330
2C4
100
AcDbEntity
  8
GRAU_10_
 62
     7
100
AcDbVertex
100
AcDb2dVertex
 10
17.606516601839
 20
-99.32182385225968
 30
0.0
  0
VERTEX
  5
2D2
330
2C4
100
AcDbEntity
  8
GRAU_10_
 62
     7
100
AcDbVertex
100
AcDb2dVertex
 10
18.18012537853962
 20
-99.38779747432464
 30
0.0
  0
VERTEX
  5
2D3
330
2C4
100
AcDbEntity
  8
GRAU_10_
 62
     7
100
AcDbVertex
100
AcDb2dVertex
 10
18.69275592492432
 20
-99.46255609567241
 30
0.0
  0
VERTEX
  5
2D4
330
2C4
100
AcDbEntity
  8
GRAU_10_
 62
     7
100
AcDbVertex
100
AcDb2dVertex
 10
19.13975735901985
 20
-99.53920952078707
 30
0.0
  0
VERTEX
  5
2D5
330
2C4
100
AcDbEntity
  8
GRAU_10_
 62
     7
100
AcDbVertex
100
AcDb2dVertex
 10
19.4952914476415
 20
-99.60862824060999
 30
0.0
  0
VERTEX
  5
2D6
330
2C4
100
AcDbEntity
  8
GRAU_10_
 62
     7
100
AcDbVertex
100
AcDb2dVertex
 10
19.75074544639436
 20
-99.66254402052209
 30
0.0
  0
VERTEX
  5
2D7
330
2C4
100
AcDbEntity
  8
GRAU_10_
 62
     7
100
AcDbVertex
100
AcDb2dVertex
 10
19.92041651097397
 20
-99.70112911541126
 30
0.0
  0
SEQEND
  5
2D8
330
2C4
100
AcDbEntity
  8
GRAU_10_
  0
POLYLINE
  5
2D9
330
1F
100
AcDbEntity
  8
GRAU_10_
 62
     7
100
AcDb2dPolyline
 66
     1
 10
0.0
 20
0.0
 30
0.0
  0
VERTEX
  5
2DA
330
2D9
100
AcDbEntity
  8
GRAU_10_
 62
     7
100
AcDbVertex
100
AcDb2dVertex
 10
25.93073405951393
 20
-99.70285166429025
 30
0.0
  0
VERTEX
  5
2DB
330
2D9
100
AcDbEntity
  8
GRAU_10_
 62
     7
100
AcDbVertex
100
AcDb2dVertex
 10
25.93073405951393
 20
-99.60087677065458
 30
0.0
  0
VERTEX
  5
2DC
330
2D9
100
AcDbEntity
  8
GRAU_10_
 62
     7
100
AcDbVertex
100
AcDb2dVertex
 10
25.93073405951393
 20
-99.2939185604202
 30
0.0
  0
VERTEX
  5
2DD
330
2D9
100
AcDbEntity
  8
GRAU_10_
 62
     7
100
AcDbVertex
100
AcDb2dVertex
 10
25.93073405951393
 20
-98.78731693511193
 30
0.0
  0
VERTEX
  5
2DE
330
2D9
100
AcDbEntity
  8
GRAU_10_
 62
     7
100
AcDbVertex
100
AcDb2dVertex
 10
25.93073405951393
 20
-98.08606728647882
 30
0.0
  0
VERTEX
  5
2DF
330
2D9
100
AcDbEntity
  8
GRAU_10_
 62
     7
100
AcDbVertex
100
AcDb2dVertex
 10
25.93073405951393
 20
-97.19843784913999
 30
0.0
  0
VERTEX
  5
2E0
330
2D9
100
AcDbEntity
  8
GRAU_10_
 62
     7
100
AcDbVertex
100
AcDb2dVertex
 10
25.93073405951393
 20
-96.13476391636932
 30
0.0
  0
VERTEX
  5
2E1
330
2D9
100
AcDbEntity
  8
GRAU_10_
 62
     7
100
AcDbVertex
100
AcDb2dVertex
 10
25.93073405951393
 20
-94.90779234987127
 30
0.0
  0
VERTEX
  5
2E2
330
2D9
100
AcDbEntity
  8
GRAU_10_
 62
     7
100
AcDbVertex
100
AcDb2dVertex
 10
25.93073405951393
 20
-93.53233707000507
 30
0.0
  0
VERTEX
  5
2E3
330
2D9
100
AcDbEntity
  8
GRAU_10_
 62
     7
100
AcDbVertex
100
AcDb2dVertex
 10
25.93073405951393
 20
-92.02355650690575
 30
0.0
  0
VERTEX
  5
2E4
330
2D9
100
AcDbEntity
  8
GRAU_10_
 62
     7
100
AcDbVertex
100
AcDb2dVertex
 10
25.93073405951393
 20
-90.4003986982421
 30
0.0
  0
VERTEX
  5
2E5
330
2D9
100
AcDbEntity
  8
GRAU_10_
 62
     7
100
AcDbVertex
100
AcDb2dVertex
 10
25.93073405951393
 20
-88.68060589746761
 30
0.0
  0
VERTEX
  5
2E6
330
2D9
100
AcDbEntity
  8
GRAU_10_
 62
     7
100
AcDbVertex
100
AcDb2dVertex
 10
25.93073405951393
 20
-86.88467643624219
 30
0.0
  0
VERTEX
  5
2E7
330
2D9
100
AcDbEntity
  8
GRAU_10_
 62
     7
100
AcDbVertex
100
AcDb2dVertex
 10
25.93073405951393
 20
-85.03431443044097
 30
0.0
  0
VERTEX
  5
2E8
330
2D9
100
AcDbEntity
  8
GRAU_10_
 62
     7
100
AcDbVertex
100
AcDb2dVertex
 10
25.93073405951393
 20
-83.15087948616332
 30
0.0
  0
VERTEX
  5
2E9
330
2D9
100
AcDbEntity
  8
GRAU_10_
 62
     7
100
AcDbVertex
100
AcDb2dVertex
 10
25.93073405951393
 20
-81.2553866997328
 30
0.0
  0
VERTEX
  5
2EA
330
2D9
100
AcDbEntity
  8
GRAU_10_
 62
     7
100
AcDbVertex
100
AcDb2dVertex
 10
25.93073405951393
 20
-79.37229626523093
 30
0.0
  0
VERTEX
  5
2EB
330
2D9
100
AcDbEntity
  8
GRAU_10_
 62
     7
100
AcDbVertex
100
AcDb2dVertex
 10
25.93073405951393
 20
-77.52158974965391
 30
0.0
  0
VERTEX
  5
2EC
330
2D9
100
AcDbEntity
  8
GRAU_10_
 62
     7
100
AcDbVertex
100
AcDb2dVertex
 10
25.93073405951393
 20
-75.72548803354059
 30
0.0
  0
VERTEX
  5
2ED
330
2D9
100
AcDbEntity
  8
GRAU_10_
 62
     7
100
AcDbVertex
100
AcDb2dVertex
 10
25.93073405951393
 20
-74.00569523276612
 30
0.0
  0
VERTEX
  5
2EE
330
2D9
100
AcDbEntity
  8
GRAU_10_
 62
     7
100
AcDbVertex
100
AcDb2dVertex
 10
25.93073405951393
 20
-72.38270967899037
 30
0.0
  0
VERTEX
  5
2EF
330
2D9
100
AcDbEntity
  8
GRAU_10_
 62
     7
100
AcDbVertex
100
AcDb2dVertex
 10
25.93073405951393
 20
-70.87410137077894
 30
0.0
  0
VERTEX
  5
2F0
330
2D9
100
AcDbEntity
  8
GRAU_10_
 62
     7
100
AcDbVertex
100
AcDb2dVertex
 10
25.93073405951393
 20
-69.49830158113694
 30
0.0
  0
VERTEX
  5
2F1
330
2D9
100
AcDbEntity
  8
GRAU_10_
 62
     7
100
AcDbVertex
100
AcDb2dVertex
 10
25.93073405951393
 20
-68.27133001463888
 30
0.0
  0
VERTEX
  5
2F2
330
2D9
100
AcDbEntity
  8
GRAU_10_
 62
     7
100
AcDbVertex
100
AcDb2dVertex
 10
25.93073405951393
 20
-67.20817284653191
 30
0.0
  0
VERTEX
  5
2F3
330
2D9
100
AcDbEntity
  8
GRAU_10_
 62
     7
100
AcDbVertex
100
AcDb2dVertex
 10
25.93073405951393
 20
-66.32088791896888
 30
0.0
  0
VERTEX
  5
2F4
330
2D9
100
AcDbEntity
  8
GRAU_10_
 62
     7
100
AcDbVertex
100
AcDb2dVertex
 10
25.93073405951393
 20
-65.61946601544787
 30
0.0
  0
VERTEX
  5
2F5
330
2D9
100
AcDbEntity
  8
GRAU_10_
 62
     7
100
AcDbVertex
100
AcDb2dVertex
 10
25.93073405951393
 20
-65.1125198803638
 30
0.0
  0
VERTEX
  5
2F6
330
2D9
100
AcDbEntity
  8
GRAU_10_
 62
     7
100
AcDbVertex
100
AcDb2dVertex
 10
25.93073405951393
 20
-64.80573392501732
 30
0.0
  0
VERTEX
  5
2F7
330
2D9
100
AcDbEntity
  8
GRAU_10_
 62
     7
100
AcDbVertex
100
AcDb2dVertex
 10
25.93073405951393
 20
-64.70307001183006
 30
0.0
  0
SEQEND
  5
2F8
330
2D9
100
AcDbEntity
  8
GRAU_10_
  0
POLYLINE
  5
2F9
330
1F
100
AcDbEntity
  8
GRAU_10_
 62
     7
100
AcDb2dPolyline
 66
     1
 10
0.0
 20
0.0
 30
0.0
  0
VERTEX
  5
2FA
330
2F9
100
AcDbEntity
  8
GRAU_10_
 62
     7
100
AcDbVertex
100
AcDb2dVertex
 10
26.43027323441838
 20
-98.20320061024952
 30
0.0
  0
VERTEX
  5
2FB
330
2F9
100
AcDbEntity
  8
GRAU_10_
 62
     7
100
AcDbVertex
100
AcDb2dVertex
 10
26.56928292895213
 20
-98.18201325903806
 30
0.0
  0
VERTEX
  5
2FC
330
2F9
100
AcDbEntity
  8
GRAU_10_
 62
     7
100
AcDbVertex
100
AcDb2dVertex
 10
26.96960328842728
 20
-98.12758071446227
 30
0.0
  0
VERTEX
  5
2FD
330
2F9
100
AcDbEntity
  8
GRAU_10_
 62
     7
100
AcDbVertex
100
AcDb2dVertex
 10
27.59161568862726
 20
-98.06350189616417
 30
0.0
  0
VERTEX
  5
2FE
330
2F9
100
AcDbEntity
  8
GRAU_10_
 62
     7
100
AcDbVertex
100
AcDb2dVertex
 10
28.36986327215081
 20
-98.016476311768
 30
0.0
  0
VERTEX
  5
2FF
330
2F9
100
AcDbEntity
  8
GRAU_10_
 62
     7
100
AcDbVertex
100
AcDb2dVertex
 10
29.20512722356862
 20
-98.00906935158838
 30
0.0
  0
VERTEX
  5
300
330
2F9
100
AcDbEntity
  8
GRAU_10_
 62
     7
100
AcDbVertex
100
AcDb2dVertex
 10
30.00318411920045
 20
-98.0430035645043
 30
0.0
  0
VERTEX
  5
301
330
2F9
100
AcDbEntity
  8
GRAU_10_
 62
     7
100
AcDbVertex
100
AcDb2dVertex
 10
30.68410769106157
 20
-98.10329277526863
 30
0.0
  0
VERTEX
  5
302
330
2F9
100
AcDbEntity
  8
GRAU_10_
 62
     7
100
AcDbVertex
100
AcDb2dVertex
 10
31.17537863134691
 20
-98.16513228002404
 30
0.0
  0
VERTEX
  5
303
330
2F9
100
AcDbEntity
  8
GRAU_10_
 62
     7
100
AcDbVertex
100
AcDb2dVertex
 10
31.39879322095073
 20
-98.19820521850048
 30
0.0
  0
SEQEND
  5
304
330
2F9
100
AcDbEntity
  8
GRAU_10_
  0
POLYLINE
  5
305
330
1F
100
AcDbEntity
  8
GRAU_10_
 62
     7
100
AcDb2dPolyline
 66
     1
 10
0.0
 20
0.0
 30
0.0
  0
VERTEX
  5
306
330
305
100
AcDbEntity
  8
GRAU_10_
 62
     7
100
AcDbVertex
100
AcDb2dVertex
 10
33.89424978193028
 20
-82.2808200473901
 30
0.0
  0
VERTEX
  5
307
330
305
100
AcDbEntity
  8
GRAU_10_
 62
     7
100
AcDbVertex
100
AcDb2dVertex
 10
34.13695691897868
 20
-80.90863761039395
 30
0.0
  0
VERTEX
  5
308
330
305
100
AcDbEntity
  8
GRAU_10_
 62
     7
100
AcDbVertex
100
AcDb2dVertex
 10
34.38931032974937
 20
-79.52388056658124
 30
0.0
  0
VERTEX
  5
309
330
305
100
AcDbEntity
  8
GRAU_10_
 62
     7
100
AcDbVertex
100
AcDb2dVertex
 10
34.61461972312006
 20
-78.15617675667046
 30
0.0
  0
VERTEX
  5
30A
330
305
100
AcDbEntity
  8
GRAU_10_
 62
     7
100
AcDbVertex
100
AcDb2dVertex
 10
34.72727441980541
 20
-77.23409634175201
 30
0.0
  0
VERTEX
  5
30B
330
305
100
AcDbEntity
  8
GRAU_10_
 62
     7
100
AcDbVertex
100
AcDb2dVertex
 10
34.7727497102105
 20
-76.35990278566923
 30
0.0
  0
VERTEX
  5
30C
330
305
100
AcDbEntity
  8
GRAU_10_
 62
     7
100
AcDbVertex
100
AcDb2dVertex
 10
34.73003049801178
 20
-75.56546324268326
 30
0.0
  0
VERTEX
  5
30D
330
305
100
AcDbEntity
  8
GRAU_10_
 62
     7
100
AcDbVertex
100
AcDb2dVertex
 10
34.61823707576593
 20
-74.86731418203233
 30
0.0
  0
VERTEX
  5
30E
330
305
100
AcDbEntity
  8
GRAU_10_
 62
     7
100
AcDbVertex
100
AcDb2dVertex
 10
34.36381660634046
 20
-73.93093661141835
 30
0.0
  0
VERTEX
  5
30F
330
305
100
AcDbEntity
  8
GRAU_10_
 62
     7
100
AcDbVertex
100
AcDb2dVertex
 10
34.08235211951499
 20
-73.19334118143874
 30
0.0
  0
VERTEX
  5
310
330
305
100
AcDbEntity
  8
GRAU_10_
 62
     7
100
AcDbVertex
100
AcDb2dVertex
 10
33.84309008022454
 20
-72.66951406734067
 30
0.0
  0
VERTEX
  5
311
330
305
100
AcDbEntity
  8
GRAU_10_
 62
     7
100
AcDbVertex
100
AcDb2dVertex
 10
33.64275764559908
 20
-72.27815096203622
 30
0.0
  0
SEQEND
  5
312
330
305
100
AcDbEntity
  8
GRAU_10_
  0
POLYLINE
  5
313
330
1F
100
AcDbEntity
  8
GRAU_10_
 62
     7
100
AcDb2dPolyline
 66
     1
 10
0.0
 20
0.0
 30
0.0
  0
VERTEX
  5
314
330
313
100
AcDbEntity
  8
GRAU_10_
 62
     7
100
AcDbVertex
100
AcDb2dVertex
 10
33.64275764559908
 20
-83.97098500744609
 30
0.0
  0
VERTEX
  5
315
330
313
100
AcDbEntity
  8
GRAU_10_
 62
     7
100
AcDbVertex
100
AcDb2dVertex
 10
33.89424978193028
 20
-82.2808200473901
 30
0.0
  0
SEQEND
  5
316
330
313
100
AcDbEntity
  8
GRAU_10_
  0
POLYLINE
  5
317
330
1F
100
AcDbEntity
  8
GRAU_10_
 62
     7
100
AcDb2dPolyline
 66
     1
 10
0.0
 20
0.0
 30
0.0
  0
VERTEX
  5
318
330
317
100
AcDbEntity
  8
GRAU_10_
 62
     7
100
AcDbVertex
100
AcDb2dVertex
 10
34.7639647109277
 20
-93.90457988275283
 30
0.0
  0
VERTEX
  5
319
330
317
100
AcDbEntity
  8
GRAU_10_
 62
     7
100
AcDbVertex
100
AcDb2dVertex
 10
34.7551797116449
 20
-93.88700988418722
 30
0.0
  0
VERTEX
  5
31A
330
317
100
AcDbEntity
  8
GRAU_10_
 62
     7
100
AcDbVertex
100
AcDb2dVertex
 10
34.64786491648439
 20
-93.6737583329694
 30
0.0
  0
VERTEX
  5
31B
330
317
100
AcDbEntity
  8
GRAU_10_
 62
     7
100
AcDbVertex
100
AcDb2dVertex
 10
34.48094993011115
 20
-93.30513287286749
 30
0.0
  0
VERTEX
  5
31C
330
317
100
AcDbEntity
  8
GRAU_10_
 62
     7
100
AcDbVertex
100
AcDb2dVertex
 10
34.14867025135575
 20
-92.41802020019236
 30
0.0
  0
VERTEX
  5
31D
330
317
100
AcDbEntity
  8
GRAU_10_
 62
     7
100
AcDbVertex
100
AcDb2dVertex
 10
33.8291374343048
 20
-91.28406627315927
 30
0.0
  0
VERTEX
  5
31E
330
317
100
AcDbEntity
  8
GRAU_10_
 62
     7
100
AcDbVertex
100
AcDb2dVertex
 10
33.64275764559908
 20
-90.35922978003445
 30
0.0
  0
VERTEX
  5
31F
330
317
100
AcDbEntity
  8
GRAU_10_
 62
     7
100
AcDbVertex
100
AcDb2dVertex
 10
33.53974922263602
 20
-89.92135785499752
 30
0.0
  0
VERTEX
  5
320
330
317
100
AcDbEntity
  8
GRAU_10_
 62
     7
100
AcDbVertex
100
AcDb2dVertex
 10
33.514427754115
 20
-89.85607325248415
 30
0.0
  0
VERTEX
  5
321
330
317
100
AcDbEntity
  8
GRAU_10_
 62
     7
100
AcDbVertex
100
AcDb2dVertex
 10
33.49358491267933
 20
-89.81300953050963
 30
0.0
  0
VERTEX
  5
322
330
317
100
AcDbEntity
  8
GRAU_10_
 62
     7
100
AcDbVertex
100
AcDb2dVertex
 10
33.46774667949462
 20
-89.77735276871472
 30
0.0
  0
VERTEX
  5
323
330
317
100
AcDbEntity
  8
GRAU_10_
 62
     7
100
AcDbVertex
100
AcDb2dVertex
 10
33.45327726891118
 20
-89.76443365212236
 30
0.0
  0
VERTEX
  5
324
330
317
100
AcDbEntity
  8
GRAU_10_
 62
     7
100
AcDbVertex
100
AcDb2dVertex
 10
33.43915236810354
 20
-89.75616541750325
 30
0.0
  0
VERTEX
  5
325
330
317
100
AcDbEntity
  8
GRAU_10_
 62
     7
100
AcDbVertex
100
AcDb2dVertex
 10
33.43071187859653
 20
-89.75444286862428
 30
0.0
  0
VERTEX
  5
326
330
317
100
AcDbEntity
  8
GRAU_10_
 62
     7
100
AcDbVertex
100
AcDb2dVertex
 10
32.93048368414049
 20
-89.67227728709689
 30
0.0
  0
SEQEND
  5
327
330
317
100
AcDbEntity
  8
GRAU_10_
  0
POLYLINE
  5
328
330
1F
100
AcDbEntity
  8
GRAU_10_
 62
     7
100
AcDb2dPolyline
 66
     1
 10
0.0
 20
0.0
 30
0.0
  0
VERTEX
  5
329
330
328
100
AcDbEntity
  8
GRAU_10_
 62
     7
100
AcDbVertex
100
AcDb2dVertex
 10
32.93048368414049
 20
-84.8596479741123
 30
0.0
  0
VERTEX
  5
32A
330
328
100
AcDbEntity
  8
GRAU_10_
 62
     7
100
AcDbVertex
100
AcDb2dVertex
 10
33.43071187859653
 20
-84.74613200298747
 30
0.0
  0
SEQEND
  5
32B
330
328
100
AcDbEntity
  8
GRAU_10_
  0
POLYLINE
  5
32C
330
1F
100
AcDbEntity
  8
GRAU_10_
 62
     7
100
AcDb2dPolyline
 66
     1
 10
0.0
 20
0.0
 30
0.0
  0
VERTEX
  5
32D
330
32C
100
AcDbEntity
  8
GRAU_10_
 62
     7
100
AcDbVertex
100
AcDb2dVertex
 10
33.43071187859653
 20
-72.1088244072324
 30
0.0
  0
VERTEX
  5
32E
330
32C
100
AcDbEntity
  8
GRAU_10_
 62
     7
100
AcDbVertex
100
AcDb2dVertex
 10
32.93048368414049
 20
-72.07747401763496
 30
0.0
  0
SEQEND
  5
32F
330
32C
100
AcDbEntity
  8
GRAU_10_
  0
POLYLINE
  5
330
330
1F
100
AcDbEntity
  8
GRAU_10_
 62
     7
100
AcDb2dPolyline
 66
     1
 10
0.0
 20
0.0
 30
0.0
  0
VERTEX
  5
331
330
330
100
AcDbEntity
  8
GRAU_10_
 62
     7
100
AcDbVertex
100
AcDb2dVertex
 10
33.64275764559908
 20
-72.27815096203622
 30
0.0
  0
VERTEX
  5
332
330
330
100
AcDbEntity
  8
GRAU_10_
 62
     7
100
AcDbVertex
100
AcDb2dVertex
 10
33.53974922263602
 20
-72.15257714875852
 30
0.0
  0
VERTEX
  5
333
330
330
100
AcDbEntity
  8
GRAU_10_
 62
     7
100
AcDbVertex
100
AcDb2dVertex
 10
33.514427754115
 20
-72.1356961697445
 30
0.0
  0
VERTEX
  5
334
330
330
100
AcDbEntity
  8
GRAU_10_
 62
     7
100
AcDbVertex
100
AcDb2dVertex
 10
33.49358491267933
 20
-72.12467185691904
 30
0.0
  0
VERTEX
  5
335
330
330
100
AcDbEntity
  8
GRAU_10_
 62
     7
100
AcDbVertex
100
AcDb2dVertex
 10
33.46774667949462
 20
-72.11554234786043
 30
0.0
  0
VERTEX
  5
336
330
330
100
AcDbEntity
  8
GRAU_10_
 62
     7
100
AcDbVertex
100
AcDb2dVertex
 10
33.45293275913539
 20
-72.11209725010247
 30
0.0
  0
VERTEX
  5
337
330
330
100
AcDbEntity
  8
GRAU_10_
 62
     7
100
AcDbVertex
100
AcDb2dVertex
 10
33.43949687787934
 20
-72.11020244633559
 30
0.0
  0
VERTEX
  5
338
330
330
100
AcDbEntity
  8
GRAU_10_
 62
     7
100
AcDbVertex
100
AcDb2dVertex
 10
33.43071187859653
 20
-72.1088244072324
 30
0.0
  0
SEQEND
  5
339
330
330
100
AcDbEntity
  8
GRAU_10_
  0
POLYLINE
  5
33A
330
1F
100
AcDbEntity
  8
GRAU_10_
 62
     7
100
AcDb2dPolyline
 66
     1
 10
0.0
 20
0.0
 30
0.0
  0
VERTEX
  5
33B
330
33A
100
AcDbEntity
  8
GRAU_10_
 62
     7
100
AcDbVertex
100
AcDb2dVertex
 10
33.43071187859653
 20
-84.74613200298747
 30
0.0
  0
VERTEX
  5
33C
330
33A
100
AcDbEntity
  8
GRAU_10_
 62
     7
100
AcDbVertex
100
AcDb2dVertex
 10
33.44518128917997
 20
-84.73906955258366
 30
0.0
  0
VERTEX
  5
33D
330
33A
100
AcDbEntity
  8
GRAU_10_
 62
     7
100
AcDbVertex
100
AcDb2dVertex
 10
33.46326805240927
 20
-84.72201631868174
 30
0.0
  0
VERTEX
  5
33E
330
33A
100
AcDbEntity
  8
GRAU_10_
 62
     7
100
AcDbVertex
100
AcDb2dVertex
 10
33.50133638263475
 20
-84.65259759885882
 30
0.0
  0
VERTEX
  5
33F
330
33A
100
AcDbEntity
  8
GRAU_10_
 62
     7
100
AcDbVertex
100
AcDb2dVertex
 10
33.59418176721181
 20
-84.29069007938494
 30
0.0
  0
VERTEX
  5
340
330
33A
100
AcDbEntity
  8
GRAU_10_
 62
     7
100
AcDbVertex
100
AcDb2dVertex
 10
33.64275764559908
 20
-83.97098500744609
 30
0.0
  0
SEQEND
  5
341
330
33A
100
AcDbEntity
  8
GRAU_10_
  0
POLYLINE
  5
342
330
1F
100
AcDbEntity
  8
GRAU_10_
 62
     7
100
AcDb2dPolyline
 66
     1
 10
0.0
 20
0.0
 30
0.0
  0
VERTEX
  5
343
330
342
100
AcDbEntity
  8
GRAU_10_
 62
     7
100
AcDbVertex
100
AcDb2dVertex
 10
50.90355868742662
 20
-82.21140132756716
 30
0.0
  0
VERTEX
  5
344
330
342
100
AcDbEntity
  8
GRAU_10_
 62
     7
100
AcDbVertex
100
AcDb2dVertex
 10
50.90355868742662
 20
-80.9756447617863
 30
0.0
  0
VERTEX
  5
345
330
342
100
AcDbEntity
  8
GRAU_10_
 62
     7
100
AcDbVertex
100
AcDb2dVertex
 10
50.90355868742662
 20
-79.72920839295577
 30
0.0
  0
VERTEX
  5
346
330
342
100
AcDbEntity
  8
GRAU_10_
 62
     7
100
AcDbVertex
100
AcDb2dVertex
 10
50.90355868742662
 20
-78.49345182717491
 30
0.0
  0
VERTEX
  5
347
330
342
100
AcDbEntity
  8
GRAU_10_
 62
     7
100
AcDbVertex
100
AcDb2dVertex
 10
50.90355868742662
 20
-77.58532405817621
 30
0.0
  0
VERTEX
  5
348
330
342
100
AcDbEntity
  8
GRAU_10_
 62
     7
100
AcDbVertex
100
AcDb2dVertex
 10
50.90355868742662
 20
-76.72181030514311
 30
0.0
  0
VERTEX
  5
349
330
342
100
AcDbEntity
  8
GRAU_10_
 62
     7
100
AcDbVertex
100
AcDb2dVertex
 10
50.90355868742662
 20
-75.93684478099154
 30
0.0
  0
VERTEX
  5
34A
330
342
100
AcDbEntity
  8
GRAU_10_
 62
     7
100
AcDbVertex
100
AcDb2dVertex
 10
50.90355868742662
 20
-75.24644719029601
 30
0.0
  0
VERTEX
  5
34B
330
342
100
AcDbEntity
  8
GRAU_10_
 62
     7
100
AcDbVertex
100
AcDb2dVertex
 10
50.90355868742662
 20
-74.46854411654826
 30
0.0
  0
VERTEX
  5
34C
330
342
100
AcDbEntity
  8
GRAU_10_
 62
     7
100
AcDbVertex
100
AcDb2dVertex
 10
50.90355868742662
 20
-73.82620563957632
 30
0.0
  0
VERTEX
  5
34D
330
342
100
AcDbEntity
  8
GRAU_10_
 62
     7
100
AcDbVertex
100
AcDb2dVertex
 10
50.90355868742662
 20
-73.31047450520944
 30
0.0
  0
VERTEX
  5
34E
330
342
100
AcDbEntity
  8
GRAU_10_
 62
     7
100
AcDbVertex
100
AcDb2dVertex
 10
50.90355868742662
 20
-72.73721023828462
 30
0.0
  0
VERTEX
  5
34F
330
342
100
AcDbEntity
  8
GRAU_10_
 62
     7
100
AcDbVertex
100
AcDb2dVertex
 10
50.90355868742662
 20
-72.39115016849736
 30
0.0
  0
SEQEND
  5
350
330
342
100
AcDbEntity
  8
GRAU_10_
  0
POLYLINE
  5
351
330
1F
100
AcDbEntity
  8
GRAU_10_
 62
     7
100
AcDb2dPolyline
 66
     1
 10
0.0
 20
0.0
 30
0.0
  0
VERTEX
  5
352
330
351
100
AcDbEntity
  8
GRAU_10_
 62
     7
100
AcDbVertex
100
AcDb2dVertex
 10
50.90355868742662
 20
-93.5292364820229
 30
0.0
  0
VERTEX
  5
353
330
351
100
AcDbEntity
  8
GRAU_10_
 62
     7
100
AcDbVertex
100
AcDb2dVertex
 10
50.90355868742662
 20
-93.46464089906112
 30
0.0
  0
VERTEX
  5
354
330
351
100
AcDbEntity
  8
GRAU_10_
 62
     7
100
AcDbVertex
100
AcDb2dVertex
 10
50.90355868742662
 20
-93.20143543035284
 30
0.0
  0
VERTEX
  5
355
330
351
100
AcDbEntity
  8
GRAU_10_
 62
     7
100
AcDbVertex
100
AcDb2dVertex
 10
50.90355868742662
 20
-92.80283761975667
 30
0.0
  0
VERTEX
  5
356
330
351
100
AcDbEntity
  8
GRAU_10_
 62
     7
100
AcDbVertex
100
AcDb2dVertex
 10
50.90355868742662
 20
-92.30192040574904
 30
0.0
  0
VERTEX
  5
357
330
351
100
AcDbEntity
  8
GRAU_10_
 62
     7
100
AcDbVertex
100
AcDb2dVertex
 10
50.90355868742662
 20
-91.06220197754654
 30
0.0
  0
VERTEX
  5
358
330
351
100
AcDbEntity
  8
GRAU_10_
 62
     7
100
AcDbVertex
100
AcDb2dVertex
 10
50.90355868742662
 20
-89.59648513642173
 30
0.0
  0
VERTEX
  5
359
330
351
100
AcDbEntity
  8
GRAU_10_
 62
     7
100
AcDbVertex
100
AcDb2dVertex
 10
50.90355868742662
 20
-87.93939311484216
 30
0.0
  0
VERTEX
  5
35A
330
351
100
AcDbEntity
  8
GRAU_10_
 62
     7
100
AcDbVertex
100
AcDb2dVertex
 10
50.90355868742662
 20
-86.14208561451355
 30
0.0
  0
VERTEX
  5
35B
330
351
100
AcDbEntity
  8
GRAU_10_
 62
     7
100
AcDbVertex
100
AcDb2dVertex
 10
50.90355868742662
 20
-84.22971184906902
 30
0.0
  0
VERTEX
  5
35C
330
351
100
AcDbEntity
  8
GRAU_10_
 62
     7
100
AcDbVertex
100
AcDb2dVertex
 10
50.90355868742662
 20
-82.21140132756716
 30
0.0
  0
SEQEND
  5
35D
330
351
100
AcDbEntity
  8
GRAU_10_
  0
POLYLINE
  5
35E
330
1F
100
AcDbEntity
  8
GRAU_10_
 62
     7
100
AcDb2dPolyline
 66
     1
 10
0.0
 20
0.0
 30
0.0
  0
VERTEX
  5
35F
330
35E
100
AcDbEntity
  8
GRAU_10_
 62
     7
100
AcDbVertex
100
AcDb2dVertex
 10
50.90355868742662
 20
-72.39115016849736
 30
0.0
  0
VERTEX
  5
360
330
35E
100
AcDbEntity
  8
GRAU_10_
 62
     7
100
AcDbVertex
100
AcDb2dVertex
 10
50.90355868742662
 20
-72.26488733566808
 30
0.0
  0
VERTEX
  5
361
330
35E
100
AcDbEntity
  8
GRAU_10_
 62
     7
100
AcDbVertex
100
AcDb2dVertex
 10
50.90355868742662
 20
-72.3349950750426
 30
0.0
  0
SEQEND
  5
362
330
35E
100
AcDbEntity
  8
GRAU_10_
  0
POLYLINE
  5
364
330
1F
100
AcDbEntity
  8
STANDARDEBENE
 62
     7
100
AcDb2dPolyline
 66
     1
 10
0.0
 20
0.0
 30
0.0
  0
VERTEX
  5
365
330
364
100
AcDbEntity
  8
STANDARDEBENE
 62
     7
100
AcDbVertex
100
AcDb2dVertex
 10
116.5962330302312
 20
-20.54053410740708
 30
0.0
  0
VERTEX
  5
366
330
364
100
AcDbEntity
  8
STANDARDEBENE
 62
     7
100
AcDbVertex
100
AcDb2dVertex
 10
116.5538583278083
 20
-20.51607391332555
 30
0.0
  0
SEQEND
  5
367
330
364
100
AcDbEntity
  8
STANDARDEBENE
  0
POLYLINE
  5
368
330
1F
100
AcDbEntity
  8
STANDARDEBENE
 62
     7
100
AcDb2dPolyline
 66
     1
 10
0.0
 20
0.0
 30
0.0
  0
VERTEX
  5
369
330
368
100
AcDbEntity
  8
STANDARDEBENE
 62
     7
100
AcDbVertex
100
AcDb2dVertex
 10
116.5962330302312
 20
-14.5408963619168
 30
0.0
  0
VERTEX
  5
36A
330
368
100
AcDbEntity
  8
STANDARDEBENE
 62
     7
100
AcDbVertex
100
AcDb2dVertex
 10
116.5535138180325
 20
-14.56518430111043
 30
0.0
  0
SEQEND
  5
36B
330
368
100
AcDbEntity
  8
STANDARDEBENE
  0
POLYLINE
  5
36C
330
1F
100
AcDbEntity
  8
STANDARDEBENE
 62
     7
100
AcDb2dPolyline
 66
     1
 10
0.0
 20
0.0
 30
0.0
  0
VERTEX
  5
36D
330
36C
100
AcDbEntity
  8
STANDARDEBENE
 62
     7
100
AcDbVertex
100
AcDb2dVertex
 10
-0.069418719822928
 20
-13.54026771811682
 30
0.0
  0
VERTEX
  5
36E
330
36C
100
AcDbEntity
  8
STANDARDEBENE
 62
     7
100
AcDbVertex
100
AcDb2dVertex
 10
0.4304649648573129
 20
-13.54026771811682
 30
0.0
  0
SEQEND
  5
36F
330
36C
100
AcDbEntity
  8
STANDARDEBENE
  0
POLYLINE
  5
370
330
1F
100
AcDbEntity
  8
STANDARDEBENE
 62
     7
100
AcDb2dPolyline
 66
     1
 10
0.0
 20
0.0
 30
0.0
  0
VERTEX
  5
371
330
370
100
AcDbEntity
  8
STANDARDEBENE
 62
     7
100
AcDbVertex
100
AcDb2dVertex
 10
1.430232334217795
 20
-13.54026771811682
 30
0.0
  0
VERTEX
  5
372
330
370
100
AcDbEntity
  8
STANDARDEBENE
 62
     7
100
AcDbVertex
100
AcDb2dVertex
 10
2.430688723129869
 20
-13.54026771811682
 30
0.0
  0
SEQEND
  5
373
330
370
100
AcDbEntity
  8
STANDARDEBENE
  0
POLYLINE
  5
374
330
1F
100
AcDbEntity
  8
STANDARDEBENE
 62
     7
100
AcDb2dPolyline
 66
     1
 10
0.0
 20
0.0
 30
0.0
  0
VERTEX
  5
375
330
374
100
AcDbEntity
  8
STANDARDEBENE
 62
     7
100
AcDbVertex
100
AcDb2dVertex
 10
3.430111582714555
 20
-13.54026771811682
 30
0.0
  0
VERTEX
  5
376
330
374
100
AcDbEntity
  8
STANDARDEBENE
 62
     7
100
AcDbVertex
100
AcDb2dVertex
 10
4.430223461850833
 20
-13.54026771811682
 30
0.0
  0
SEQEND
  5
377
330
374
100
AcDbEntity
  8
STANDARDEBENE
  0
POLYLINE
  5
378
330
1F
100
AcDbEntity
  8
STANDARDEBENE
 62
     7
100
AcDb2dPolyline
 66
     1
 10
0.0
 20
0.0
 30
0.0
  0
VERTEX
  5
379
330
378
100
AcDbEntity
  8
STANDARDEBENE
 62
     7
100
AcDbVertex
100
AcDb2dVertex
 10
5.430852105650806
 20
-13.54026771811682
 30
0.0
  0
VERTEX
  5
37A
330
378
100
AcDbEntity
  8
STANDARDEBENE
 62
     7
100
AcDbVertex
100
AcDb2dVertex
 10
6.430274965235491
 20
-13.54026771811682
 30
0.0
  0
SEQEND
  5
37B
330
378
100
AcDbEntity
  8
STANDARDEBENE
  0
POLYLINE
  5
37C
330
1F
100
AcDbEntity
  8
STANDARDEBENE
 62
     7
100
AcDb2dPolyline
 66
     1
 10
0.0
 20
0.0
 30
0.0
  0
VERTEX
  5
37D
330
37C
100
AcDbEntity
  8
STANDARDEBENE
 62
     7
100
AcDbVertex
100
AcDb2dVertex
 10
7.430731354147566
 20
-13.54026771811682
 30
0.0
  0
VERTEX
  5
37E
330
37C
100
AcDbEntity
  8
STANDARDEBENE
 62
     7
100
AcDbVertex
100
AcDb2dVertex
 10
8.430843233283843
 20
-13.54026771811682
 30
0.0
  0
SEQEND
  5
37F
330
37C
100
AcDbEntity
  8
STANDARDEBENE
  0
POLYLINE
  5
380
330
1F
100
AcDbEntity
  8
STANDARDEBENE
 62
     7
100
AcDb2dPolyline
 66
     1
 10
0.0
 20
0.0
 30
0.0
  0
VERTEX
  5
381
330
380
100
AcDbEntity
  8
STANDARDEBENE
 62
     7
100
AcDbVertex
100
AcDb2dVertex
 10
9.43026609286853
 20
-13.54026771811682
 30
0.0
  0
VERTEX
  5
382
330
380
100
AcDbEntity
  8
STANDARDEBENE
 62
     7
100
AcDbVertex
100
AcDb2dVertex
 10
10.4307224817806
 20
-13.54026771811682
 30
0.0
  0
SEQEND
  5
383
330
380
100
AcDbEntity
  8
STANDARDEBENE
  0
POLYLINE
  5
384
330
1F
100
AcDbEntity
  8
STANDARDEBENE
 62
     7
100
AcDb2dPolyline
 66
     1
 10
0.0
 20
0.0
 30
0.0
  0
VERTEX
  5
385
330
384
100
AcDbEntity
  8
STANDARDEBENE
 62
     7
100
AcDbVertex
100
AcDb2dVertex
 10
11.43048985114109
 20
-13.54026771811682
 30
0.0
  0
VERTEX
  5
386
330
384
100
AcDbEntity
  8
STANDARDEBENE
 62
     7
100
AcDbVertex
100
AcDb2dVertex
 10
12.43060173027737
 20
-13.54026771811682
 30
0.0
  0
SEQEND
  5
387
330
384
100
AcDbEntity
  8
STANDARDEBENE
  0
POLYLINE
  5
388
330
1F
100
AcDbEntity
  8
STANDARDEBENE
 62
     7
100
AcDb2dPolyline
 66
     1
 10
0.0
 20
0.0
 30
0.0
  0
VERTEX
  5
389
330
388
100
AcDbEntity
  8
STANDARDEBENE
 62
     7
100
AcDbVertex
100
AcDb2dVertex
 10
13.43071360941364
 20
-13.54026771811682
 30
0.0
  0
VERTEX
  5
38A
330
388
100
AcDbEntity
  8
STANDARDEBENE
 62
     7
100
AcDbVertex
100
AcDb2dVertex
 10
14.43048097877412
 20
-13.54026771811682
 30
0.0
  0
SEQEND
  5
38B
330
388
100
AcDbEntity
  8
STANDARDEBENE
  0
POLYLINE
  5
38C
330
1F
100
AcDbEntity
  8
STANDARDEBENE
 62
     7
100
AcDb2dPolyline
 66
     1
 10
0.0
 20
0.0
 30
0.0
  0
VERTEX
  5
38D
330
38C
100
AcDbEntity
  8
STANDARDEBENE
 62
     7
100
AcDbVertex
100
AcDb2dVertex
 10
15.4305928579104
 20
-13.54026771811682
 30
0.0
  0
VERTEX
  5
38E
330
38C
100
AcDbEntity
  8
STANDARDEBENE
 62
     7
100
AcDbVertex
100
AcDb2dVertex
 10
16.43036022727089
 20
-13.54026771811682
 30
0.0
  0
SEQEND
  5
38F
330
38C
100
AcDbEntity
  8
STANDARDEBENE
  0
POLYLINE
  5
390
330
1F
100
AcDbEntity
  8
STANDARDEBENE
 62
     7
100
AcDb2dPolyline
 66
     1
 10
0.0
 20
0.0
 30
0.0
  0
VERTEX
  5
391
330
390
100
AcDbEntity
  8
STANDARDEBENE
 62
     7
100
AcDbVertex
100
AcDb2dVertex
 10
17.43047210640716
 20
-13.54026771811682
 30
0.0
  0
VERTEX
  5
392
330
390
100
AcDbEntity
  8
STANDARDEBENE
 62
     7
100
AcDbVertex
100
AcDb2dVertex
 10
18.43058398554344
 20
-13.54026771811682
 30
0.0
  0
SEQEND
  5
393
330
390
100
AcDbEntity
  8
STANDARDEBENE
  0
POLYLINE
  5
394
330
1F
100
AcDbEntity
  8
STANDARDEBENE
 62
     7
100
AcDb2dPolyline
 66
     1
 10
0.0
 20
0.0
 30
0.0
  0
VERTEX
  5
395
330
394
100
AcDbEntity
  8
STANDARDEBENE
 62
     7
100
AcDbVertex
100
AcDb2dVertex
 10
19.43035135490392
 20
-13.54026771811682
 30
0.0
  0
VERTEX
  5
396
330
394
100
AcDbEntity
  8
STANDARDEBENE
 62
     7
100
AcDbVertex
100
AcDb2dVertex
 10
20.4304632340402
 20
-13.54026771811682
 30
0.0
  0
SEQEND
  5
397
330
394
100
AcDbEntity
  8
STANDARDEBENE
  0
POLYLINE
  5
398
330
1F
100
AcDbEntity
  8
STANDARDEBENE
 62
     7
100
AcDb2dPolyline
 66
     1
 10
0.0
 20
0.0
 30
0.0
  0
VERTEX
  5
399
330
398
100
AcDbEntity
  8
STANDARDEBENE
 62
     7
100
AcDbVertex
100
AcDb2dVertex
 10
21.43023060340068
 20
-13.54026771811682
 30
0.0
  0
VERTEX
  5
39A
330
398
100
AcDbEntity
  8
STANDARDEBENE
 62
     7
100
AcDbVertex
100
AcDb2dVertex
 10
22.43034248253696
 20
-13.54026771811682
 30
0.0
  0
SEQEND
  5
39B
330
398
100
AcDbEntity
  8
STANDARDEBENE
  0
POLYLINE
  5
39C
330
1F
100
AcDbEntity
  8
STANDARDEBENE
 62
     7
100
AcDb2dPolyline
 66
     1
 10
0.0
 20
0.0
 30
0.0
  0
VERTEX
  5
39D
330
39C
100
AcDbEntity
  8
STANDARDEBENE
 62
     7
100
AcDbVertex
100
AcDb2dVertex
 10
23.43028210678534
 20
-13.54026771811682
 30
0.0
  0
VERTEX
  5
39E
330
39C
100
AcDbEntity
  8
STANDARDEBENE
 62
     7
100
AcDbVertex
100
AcDb2dVertex
 10
24.43039398592162
 20
-13.54026771811682
 30
0.0
  0
SEQEND
  5
39F
330
39C
100
AcDbEntity
  8
STANDARDEBENE
  0
POLYLINE
  5
3A0
330
1F
100
AcDbEntity
  8
STANDARDEBENE
 62
     7
100
AcDb2dPolyline
 66
     1
 10
0.0
 20
0.0
 30
0.0
  0
VERTEX
  5
3A1
330
3A0
100
AcDbEntity
  8
STANDARDEBENE
 62
     7
100
AcDbVertex
100
AcDb2dVertex
 10
25.43085037483369
 20
-13.54026771811682
 30
0.0
  0
VERTEX
  5
3A2
330
3A0
100
AcDbEntity
  8
STANDARDEBENE
 62
     7
100
AcDbVertex
100
AcDb2dVertex
 10
26.43027323441838
 20
-13.54026771811682
 30
0.0
  0
SEQEND
  5
3A3
330
3A0
100
AcDbEntity
  8
STANDARDEBENE
  0
POLYLINE
  5
3A4
330
1F
100
AcDbEntity
  8
STANDARDEBENE
 62
     7
100
AcDb2dPolyline
 66
     1
 10
0.0
 20
0.0
 30
0.0
  0
VERTEX
  5
3A5
330
3A4
100
AcDbEntity
  8
STANDARDEBENE
 62
     7
100
AcDbVertex
100
AcDb2dVertex
 10
27.43038511355466
 20
-13.54026771811682
 30
0.0
  0
VERTEX
  5
3A6
330
3A4
100
AcDbEntity
  8
STANDARDEBENE
 62
     7
100
AcDbVertex
100
AcDb2dVertex
 10
28.43084150246673
 20
-13.54026771811682
 30
0.0
  0
SEQEND
  5
3A7
330
3A4
100
AcDbEntity
  8
STANDARDEBENE
  0
POLYLINE
  5
3A8
330
1F
100
AcDbEntity
  8
STANDARDEBENE
 62
     7
100
AcDb2dPolyline
 66
     1
 10
0.0
 20
0.0
 30
0.0
  0
VERTEX
  5
3A9
330
3A8
100
AcDbEntity
  8
STANDARDEBENE
 62
     7
100
AcDbVertex
100
AcDb2dVertex
 10
29.43026436205142
 20
-13.54026771811682
 30
0.0
  0
VERTEX
  5
3AA
330
3A8
100
AcDbEntity
  8
STANDARDEBENE
 62
     7
100
AcDbVertex
100
AcDb2dVertex
 10
30.43072075096349
 20
-13.54026771811682
 30
0.0
  0
SEQEND
  5
3AB
330
3A8
100
AcDbEntity
  8
STANDARDEBENE
  0
POLYLINE
  5
3AC
330
1F
100
AcDbEntity
  8
STANDARDEBENE
 62
     7
100
AcDb2dPolyline
 66
     1
 10
0.0
 20
0.0
 30
0.0
  0
VERTEX
  5
3AD
330
3AC
100
AcDbEntity
  8
STANDARDEBENE
 62
     7
100
AcDbVertex
100
AcDb2dVertex
 10
31.43014361054818
 20
-13.54026771811682
 30
0.0
  0
VERTEX
  5
3AE
330
3AC
100
AcDbEntity
  8
STANDARDEBENE
 62
     7
100
AcDbVertex
100
AcDb2dVertex
 10
32.43059999946026
 20
-13.54026771811682
 30
0.0
  0
SEQEND
  5
3AF
330
3AC
100
AcDbEntity
  8
STANDARDEBENE
  0
POLYLINE
  5
3B0
330
1F
100
AcDbEntity
  8
STANDARDEBENE
 62
     7
100
AcDb2dPolyline
 66
     1
 10
0.0
 20
0.0
 30
0.0
  0
VERTEX
  5
3B1
330
3B0
100
AcDbEntity
  8
STANDARDEBENE
 62
     7
100
AcDbVertex
100
AcDb2dVertex
 10
33.43071187859653
 20
-13.54026771811682
 30
0.0
  0
VERTEX
  5
3B2
330
3B0
100
AcDbEntity
  8
STANDARDEBENE
 62
     7
100
AcDbVertex
100
AcDb2dVertex
 10
33.93025105350097
 20
-13.54026771811682
 30
0.0
  0
VERTEX
  5
3B3
330
3B0
100
AcDbEntity
  8
STANDARDEBENE
 62
     7
100
AcDbVertex
100
AcDb2dVertex
 10
33.93025105350097
 20
-14.04066816746076
 30
0.0
  0
SEQEND
  5
3B4
330
3B0
100
AcDbEntity
  8
STANDARDEBENE
  0
POLYLINE
  5
3B5
330
1F
100
AcDbEntity
  8
STANDARDEBENE
 62
     7
100
AcDb2dPolyline
 66
     1
 10
0.0
 20
0.0
 30
0.0
  0
VERTEX
  5
3B6
330
3B5
100
AcDbEntity
  8
STANDARDEBENE
 62
     7
100
AcDbVertex
100
AcDb2dVertex
 10
33.93025105350097
 20
-15.04078004659704
 30
0.0
  0
VERTEX
  5
3B7
330
3B5
100
AcDbEntity
  8
STANDARDEBENE
 62
     7
100
AcDbVertex
100
AcDb2dVertex
 10
33.93025105350097
 20
-16.04054741595752
 30
0.0
  0
SEQEND
  5
3B8
330
3B5
100
AcDbEntity
  8
STANDARDEBENE
  0
POLYLINE
  5
3B9
330
1F
100
AcDbEntity
  8
STANDARDEBENE
 62
     7
100
AcDb2dPolyline
 66
     1
 10
0.0
 20
0.0
 30
0.0
  0
VERTEX
  5
3BA
330
3B9
100
AcDbEntity
  8
STANDARDEBENE
 62
     7
100
AcDbVertex
100
AcDb2dVertex
 10
33.93025105350097
 20
-17.04100380486959
 30
0.0
  0
VERTEX
  5
3BB
330
3B9
100
AcDbEntity
  8
STANDARDEBENE
 62
     7
100
AcDbVertex
100
AcDb2dVertex
 10
33.93025105350097
 20
-18.04042666445428
 30
0.0
  0
SEQEND
  5
3BC
330
3B9
100
AcDbEntity
  8
STANDARDEBENE
  0
POLYLINE
  5
3BD
330
1F
100
AcDbEntity
  8
STANDARDEBENE
 62
     7
100
AcDb2dPolyline
 66
     1
 10
0.0
 20
0.0
 30
0.0
  0
VERTEX
  5
3BE
330
3BD
100
AcDbEntity
  8
STANDARDEBENE
 62
     7
100
AcDbVertex
100
AcDb2dVertex
 10
33.93025105350097
 20
-19.04053854359056
 30
0.0
  0
VERTEX
  5
3BF
330
3BD
100
AcDbEntity
  8
STANDARDEBENE
 62
     7
100
AcDbVertex
100
AcDb2dVertex
 10
33.93025105350097
 20
-20.04099493250263
 30
0.0
  0
SEQEND
  5
3C0
330
3BD
100
AcDbEntity
  8
STANDARDEBENE
  0
POLYLINE
  5
3C1
330
1F
100
AcDbEntity
  8
STANDARDEBENE
 62
     7
100
AcDb2dPolyline
 66
     1
 10
0.0
 20
0.0
 30
0.0
  0
VERTEX
  5
3C2
330
3C1
100
AcDbEntity
  8
STANDARDEBENE
 62
     7
100
AcDbVertex
100
AcDb2dVertex
 10
33.93025105350097
 20
-21.04041779208732
 30
0.0
  0
VERTEX
  5
3C3
330
3C1
100
AcDbEntity
  8
STANDARDEBENE
 62
     7
100
AcDbVertex
100
AcDb2dVertex
 10
33.93025105350097
 20
-21.54064598654336
 30
0.0
  0
VERTEX
  5
3C4
330
3C1
100
AcDbEntity
  8
STANDARDEBENE
 62
     7
100
AcDbVertex
100
AcDb2dVertex
 10
33.43071187859653
 20
-21.54064598654336
 30
0.0
  0
SEQEND
  5
3C5
330
3C1
100
AcDbEntity
  8
STANDARDEBENE
  0
POLYLINE
  5
3C6
330
1F
100
AcDbEntity
  8
STANDARDEBENE
 62
     7
100
AcDb2dPolyline
 66
     1
 10
0.0
 20
0.0
 30
0.0
  0
VERTEX
  5
3C7
330
3C6
100
AcDbEntity
  8
STANDARDEBENE
 62
     7
100
AcDbVertex
100
AcDb2dVertex
 10
32.43059999946026
 20
-21.54064598654336
 30
0.0
  0
VERTEX
  5
3C8
330
3C6
100
AcDbEntity
  8
STANDARDEBENE
 62
     7
100
AcDbVertex
100
AcDb2dVertex
 10
31.43014361054818
 20
-21.54064598654336
 30
0.0
  0
SEQEND
  5
3C9
330
3C6
100
AcDbEntity
  8
STANDARDEBENE
  0
POLYLINE
  5
3CA
330
1F
100
AcDbEntity
  8
STANDARDEBENE
 62
     7
100
AcDb2dPolyline
 66
     1
 10
0.0
 20
0.0
 30
0.0
  0
VERTEX
  5
3CB
330
3CA
100
AcDbEntity
  8
STANDARDEBENE
 62
     7
100
AcDbVertex
100
AcDb2dVertex
 10
30.43072075096349
 20
-21.54064598654336
 30
0.0
  0
VERTEX
  5
3CC
330
3CA
100
AcDbEntity
  8
STANDARDEBENE
 62
     7
100
AcDbVertex
100
AcDb2dVertex
 10
29.43026436205142
 20
-21.54064598654336
 30
0.0
  0
SEQEND
  5
3CD
330
3CA
100
AcDbEntity
  8
STANDARDEBENE
  0
POLYLINE
  5
3CE
330
1F
100
AcDbEntity
  8
STANDARDEBENE
 62
     7
100
AcDb2dPolyline
 66
     1
 10
0.0
 20
0.0
 30
0.0
  0
VERTEX
  5
3CF
330
3CE
100
AcDbEntity
  8
STANDARDEBENE
 62
     7
100
AcDbVertex
100
AcDb2dVertex
 10
28.43084150246673
 20
-21.54064598654336
 30
0.0
  0
VERTEX
  5
3D0
330
3CE
100
AcDbEntity
  8
STANDARDEBENE
 62
     7
100
AcDbVertex
100
AcDb2dVertex
 10
27.43038511355466
 20
-21.54064598654336
 30
0.0
  0
SEQEND
  5
3D1
330
3CE
100
AcDbEntity
  8
STANDARDEBENE
  0
POLYLINE
  5
3D2
330
1F
100
AcDbEntity
  8
STANDARDEBENE
 62
     7
100
AcDb2dPolyline
 66
     1
 10
0.0
 20
0.0
 30
0.0
  0
VERTEX
  5
3D3
330
3D2
100
AcDbEntity
  8
STANDARDEBENE
 62
     7
100
AcDbVertex
100
AcDb2dVertex
 10
26.43027323441838
 20
-21.54064598654336
 30
0.0
  0
VERTEX
  5
3D4
330
3D2
100
AcDbEntity
  8
STANDARDEBENE
 62
     7
100
AcDbVertex
100
AcDb2dVertex
 10
25.43085037483369
 20
-21.54064598654336
 30
0.0
  0
SEQEND
  5
3D5
330
3D2
100
AcDbEntity
  8
STANDARDEBENE
  0
POLYLINE
  5
3D6
330
1F
100
AcDbEntity
  8
STANDARDEBENE
 62
     7
100
AcDb2dPolyline
 66
     1
 10
0.0
 20
0.0
 30
0.0
  0
VERTEX
  5
3D7
330
3D6
100
AcDbEntity
  8
STANDARDEBENE
 62
     7
100
AcDbVertex
100
AcDb2dVertex
 10
24.43039398592162
 20
-21.54064598654336
 30
0.0
  0
VERTEX
  5
3D8
330
3D6
100
AcDbEntity
  8
STANDARDEBENE
 62
     7
100
AcDbVertex
100
AcDb2dVertex
 10
23.43028210678534
 20
-21.54064598654336
 30
0.0
  0
SEQEND
  5
3D9
330
3D6
100
AcDbEntity
  8
STANDARDEBENE
  0
POLYLINE
  5
3DA
330
1F
100
AcDbEntity
  8
STANDARDEBENE
 62
     7
100
AcDb2dPolyline
 66
     1
 10
0.0
 20
0.0
 30
0.0
  0
VERTEX
  5
3DB
330
3DA
100
AcDbEntity
  8
STANDARDEBENE
 62
     7
100
AcDbVertex
100
AcDb2dVertex
 10
22.43034248253696
 20
-21.54064598654336
 30
0.0
  0
VERTEX
  5
3DC
330
3DA
100
AcDbEntity
  8
STANDARDEBENE
 62
     7
100
AcDbVertex
100
AcDb2dVertex
 10
21.43023060340068
 20
-21.54064598654336
 30
0.0
  0
SEQEND
  5
3DD
330
3DA
100
AcDbEntity
  8
STANDARDEBENE
  0
POLYLINE
  5
3DE
330
1F
100
AcDbEntity
  8
STANDARDEBENE
 62
     7
100
AcDb2dPolyline
 66
     1
 10
0.0
 20
0.0
 30
0.0
  0
VERTEX
  5
3DF
330
3DE
100
AcDbEntity
  8
STANDARDEBENE
 62
     7
100
AcDbVertex
100
AcDb2dVertex
 10
20.4304632340402
 20
-21.54064598654336
 30
0.0
  0
VERTEX
  5
3E0
330
3DE
100
AcDbEntity
  8
STANDARDEBENE
 62
     7
100
AcDbVertex
100
AcDb2dVertex
 10
19.43035135490392
 20
-21.54064598654336
 30
0.0
  0
SEQEND
  5
3E1
330
3DE
100
AcDbEntity
  8
STANDARDEBENE
  0
POLYLINE
  5
3E2
330
1F
100
AcDbEntity
  8
STANDARDEBENE
 62
     7
100
AcDb2dPolyline
 66
     1
 10
0.0
 20
0.0
 30
0.0
  0
VERTEX
  5
3E3
330
3E2
100
AcDbEntity
  8
STANDARDEBENE
 62
     7
100
AcDbVertex
100
AcDb2dVertex
 10
18.43058398554344
 20
-21.54064598654336
 30
0.0
  0
VERTEX
  5
3E4
330
3E2
100
AcDbEntity
  8
STANDARDEBENE
 62
     7
100
AcDbVertex
100
AcDb2dVertex
 10
17.43047210640716
 20
-21.54064598654336
 30
0.0
  0
SEQEND
  5
3E5
330
3E2
100
AcDbEntity
  8
STANDARDEBENE
  0
POLYLINE
  5
3E6
330
1F
100
AcDbEntity
  8
STANDARDEBENE
 62
     7
100
AcDb2dPolyline
 66
     1
 10
0.0
 20
0.0
 30
0.0
  0
VERTEX
  5
3E7
330
3E6
100
AcDbEntity
  8
STANDARDEBENE
 62
     7
100
AcDbVertex
100
AcDb2dVertex
 10
16.43036022727089
 20
-21.54064598654336
 30
0.0
  0
VERTEX
  5
3E8
330
3E6
100
AcDbEntity
  8
STANDARDEBENE
 62
     7
100
AcDbVertex
100
AcDb2dVertex
 10
15.4305928579104
 20
-21.54064598654336
 30
0.0
  0
SEQEND
  5
3E9
330
3E6
100
AcDbEntity
  8
STANDARDEBENE
  0
POLYLINE
  5
3EA
330
1F
100
AcDbEntity
  8
STANDARDEBENE
 62
     7
100
AcDb2dPolyline
 66
     1
 10
0.0
 20
0.0
 30
0.0
  0
VERTEX
  5
3EB
330
3EA
100
AcDbEntity
  8
STANDARDEBENE
 62
     7
100
AcDbVertex
100
AcDb2dVertex
 10
14.43048097877412
 20
-21.54064598654336
 30
0.0
  0
VERTEX
  5
3EC
330
3EA
100
AcDbEntity
  8
STANDARDEBENE
 62
     7
100
AcDbVertex
100
AcDb2dVertex
 10
13.43071360941364
 20
-21.54064598654336
 30
0.0
  0
SEQEND
  5
3ED
330
3EA
100
AcDbEntity
  8
STANDARDEBENE
  0
POLYLINE
  5
3EE
330
1F
100
AcDbEntity
  8
STANDARDEBENE
 62
     7
100
AcDb2dPolyline
 66
     1
 10
0.0
 20
0.0
 30
0.0
  0
VERTEX
  5
3EF
330
3EE
100
AcDbEntity
  8
STANDARDEBENE
 62
     7
100
AcDbVertex
100
AcDb2dVertex
 10
12.43060173027737
 20
-21.54064598654336
 30
0.0
  0
VERTEX
  5
3F0
330
3EE
100
AcDbEntity
  8
STANDARDEBENE
 62
     7
100
AcDbVertex
100
AcDb2dVertex
 10
11.43048985114109
 20
-21.54064598654336
 30
0.0
  0
SEQEND
  5
3F1
330
3EE
100
AcDbEntity
  8
STANDARDEBENE
  0
POLYLINE
  5
3F2
330
1F
100
AcDbEntity
  8
STANDARDEBENE
 62
     7
100
AcDb2dPolyline
 66
     1
 10
0.0
 20
0.0
 30
0.0
  0
VERTEX
  5
3F3
330
3F2
100
AcDbEntity
  8
STANDARDEBENE
 62
     7
100
AcDbVertex
100
AcDb2dVertex
 10
10.4307224817806
 20
-21.54064598654336
 30
0.0
  0
VERTEX
  5
3F4
330
3F2
100
AcDbEntity
  8
STANDARDEBENE
 62
     7
100
AcDbVertex
100
AcDb2dVertex
 10
9.43026609286853
 20
-21.54064598654336
 30
0.0
  0
SEQEND
  5
3F5
330
3F2
100
AcDbEntity
  8
STANDARDEBENE
  0
POLYLINE
  5
3F6
330
1F
100
AcDbEntity
  8
STANDARDEBENE
 62
     7
100
AcDb2dPolyline
 66
     1
 10
0.0
 20
0.0
 30
0.0
  0
VERTEX
  5
3F7
330
3F6
100
AcDbEntity
  8
STANDARDEBENE
 62
     7
100
AcDbVertex
100
AcDb2dVertex
 10
8.430843233283843
 20
-21.54064598654336
 30
0.0
  0
VERTEX
  5
3F8
330
3F6
100
AcDbEntity
  8
STANDARDEBENE
 62
     7
100
AcDbVertex
100
AcDb2dVertex
 10
7.430731354147566
 20
-21.54064598654336
 30
0.0
  0
SEQEND
  5
3F9
330
3F6
100
AcDbEntity
  8
STANDARDEBENE
  0
POLYLINE
  5
3FA
330
1F
100
AcDbEntity
  8
STANDARDEBENE
 62
     7
100
AcDb2dPolyline
 66
     1
 10
0.0
 20
0.0
 30
0.0
  0
VERTEX
  5
3FB
330
3FA
100
AcDbEntity
  8
STANDARDEBENE
 62
     7
100
AcDbVertex
100
AcDb2dVertex
 10
6.430274965235491
 20
-21.54064598654336
 30
0.0
  0
VERTEX
  5
3FC
330
3FA
100
AcDbEntity
  8
STANDARDEBENE
 62
     7
100
AcDbVertex
100
AcDb2dVertex
 10
5.430852105650806
 20
-21.54064598654336
 30
0.0
  0
SEQEND
  5
3FD
330
3FA
100
AcDbEntity
  8
STANDARDEBENE
  0
POLYLINE
  5
3FE
330
1F
100
AcDbEntity
  8
STANDARDEBENE
 62
     7
100
AcDb2dPolyline
 66
     1
 10
0.0
 20
0.0
 30
0.0
  0
VERTEX
  5
3FF
330
3FE
100
AcDbEntity
  8
STANDARDEBENE
 62
     7
100
AcDbVertex
100
AcDb2dVertex
 10
4.430223461850833
 20
-21.54064598654336
 30
0.0
  0
VERTEX
  5
400
330
3FE
100
AcDbEntity
  8
STANDARDEBENE
 62
     7
100
AcDbVertex
100
AcDb2dVertex
 10
3.430111582714555
 20
-21.54064598654336
 30
0.0
  0
SEQEND
  5
401
330
3FE
100
AcDbEntity
  8
STANDARDEBENE
  0
POLYLINE
  5
402
330
1F
100
AcDbEntity
  8
STANDARDEBENE
 62
     7
100
AcDb2dPolyline
 66
     1
 10
0.0
 20
0.0
 30
0.0
  0
VERTEX
  5
403
330
402
100
AcDbEntity
  8
STANDARDEBENE
 62
     7
100
AcDbVertex
100
AcDb2dVertex
 10
2.430688723129869
 20
-21.54064598654336
 30
0.0
  0
VERTEX
  5
404
330
402
100
AcDbEntity
  8
STANDARDEBENE
 62
     7
100
AcDbVertex
100
AcDb2dVertex
 10
1.430232334217795
 20
-21.54064598654336
 30
0.0
  0
SEQEND
  5
405
330
402
100
AcDbEntity
  8
STANDARDEBENE
  0
POLYLINE
  5
406
330
1F
100
AcDbEntity
  8
STANDARDEBENE
 62
     7
100
AcDb2dPolyline
 66
     1
 10
0.0
 20
0.0
 30
0.0
  0
VERTEX
  5
407
330
406
100
AcDbEntity
  8
STANDARDEBENE
 62
     7
100
AcDbVertex
100
AcDb2dVertex
 10
0.4304649648573129
 20
-21.54064598654336
 30
0.0
  0
VERTEX
  5
408
330
406
100
AcDbEntity
  8
STANDARDEBENE
 62
     7
100
AcDbVertex
100
AcDb2dVertex
 10
-0.069418719822928
 20
-21.54064598654336
 30
0.0
  0
SEQEND
  5
409
330
406
100
AcDbEntity
  8
STANDARDEBENE
  0
POLYLINE
  5
40A
330
1F
100
AcDbEntity
  8
STANDARDEBENE
 62
     7
100
AcDb2dPolyline
 66
     1
 10
0.0
 20
0.0
 30
0.0
  0
VERTEX
  5
40B
330
40A
100
AcDbEntity
  8
STANDARDEBENE
 62
     7
100
AcDbVertex
100
AcDb2dVertex
 10
50.90355868742662
 20
-28.05894319949477
 30
0.0
  0
VERTEX
  5
40C
330
40A
100
AcDbEntity
  8
STANDARDEBENE
 62
     7
100
AcDbVertex
100
AcDb2dVertex
 10
51.92761399598074
 20
-27.04539543910244
 30
0.0
  0
SEQEND
  5
40D
330
40A
100
AcDbEntity
  8
STANDARDEBENE
  0
POLYLINE
  5
40E
330
1F
100
AcDbEntity
  8
STANDARDEBENE
 62
     7
100
AcDb2dPolyline
 66
     1
 10
0.0
 20
0.0
 30
0.0
  0
VERTEX
  5
40F
330
40E
100
AcDbEntity
  8
STANDARDEBENE
 62
     7
100
AcDbVertex
100
AcDb2dVertex
 10
36.97089433467796
 20
-28.38192111430368
 30
0.0
  0
VERTEX
  5
410
330
40E
100
AcDbEntity
  8
STANDARDEBENE
 62
     7
100
AcDbVertex
100
AcDb2dVertex
 10
47.90373981468148
 20
-28.1283619193177
 30
0.0
  0
SEQEND
  5
411
330
40E
100
AcDbEntity
  8
STANDARDEBENE
  0
POLYLINE
  5
412
330
1F
100
AcDbEntity
  8
STANDARDEBENE
 62
     7
100
AcDb2dPolyline
 66
     1
 10
0.0
 20
0.0
 30
0.0
  0
VERTEX
  5
413
330
412
100
AcDbEntity
  8
STANDARDEBENE
 62
     7
100
AcDbVertex
100
AcDb2dVertex
 10
33.55490765277105
 20
-21.65071685991023
 30
0.0
  0
VERTEX
  5
414
330
412
100
AcDbEntity
  8
STANDARDEBENE
 62
     7
100
AcDbVertex
100
AcDb2dVertex
 10
33.55490765277105
 20
-13.43019684474995
 30
0.0
  0
SEQEND
  5
415
330
412
100
AcDbEntity
  8
STANDARDEBENE
  0
SPLINE
  5
416
330
1F
100
AcDbEntity
  8
STANDARDEBENE
 62
     7
100
AcDbSpline
210
0.0
220
0.0
230
1.0
 70
     8
 71
     3
 72
    17
 73
    13
 74
     0
 42
0.0000000001
 43
0.0000000001
 40
0.0
 40
0.0
 40
0.0
 40
0.0
 40
1.0
 40
1.0
 40
1.0
 40
2.0
 40
2.0
 40
2.0
 40
3.0
 40
3.0
 40
3.0
 40
4.0
 40
4.0
 40
4.0
 40
4.0
 10
16.54818257059317
 20
-15.23508356014608
 30
0.0
 10
16.33613680359063
 20
-15.1785839569155
 30
0.0
 10
16.1230575072607
 20
-15.1520567041792
 30
0.0
 10
15.93013203281485
 20
-15.15395150794608
 30
0.0
 10
14.6122098855066
 20
-15.15395150794608
 30
0.0
 10
13.54354056098689
 20
-16.22279308735369
 30
0.0
 10
13.54354056098689
 20
-17.54088748954984
 30
0.0
 10
13.54354056098689
 20
-18.85880963685808
 30
0.0
 10
14.6122098855066
 20
-19.9273067064899
 30
0.0
 10
15.93013203281485
 20
-19.9273067064899
 30
0.0
 10
17.02877370782883
 20
-19.9273067064899
 30
0.0
 10
17.95412696561734
 20
-19.18523264942495
 30
0.0
 10
18.2359359622186
 20
-18.15859351755237
 30
0.0
  0
SPLINE
  5
417
330
1F
100
AcDbEntity
  8
STANDARDEBENE
 62
     7
100
AcDbSpline
210
0.0
220
0.0
230
1.0
 70
     8
 71
     3
 72
    17
 73
    13
 74
     0
 42
0.0000000001
 43
0.0000000001
 40
0.0
 40
0.0
 40
0.0
 40
0.0
 40
1.0
 40
1.0
 40
1.0
 40
2.0
 40
2.0
 40
2.0
 40
3.0
 40
3.0
 40
3.0
 40
4.0
 40
4.0
 40
4.0
 40
4.0
 10
16.70665706745941
 20
-14.64269900066456
 30
0.0
 10
16.44035101076897
 20
-14.57155773196266
 30
0.0
 10
16.17215015031165
 20
-14.53796802882253
 30
0.0
 10
15.93013203281485
 20
-14.5408963619168
 30
0.0
 10
14.27390128567477
 20
-14.5408963619168
 30
0.0
 10
12.9308299247334
 20
-15.88379546797026
 30
0.0
 10
12.9308299247334
 20
-17.54088748954984
 30
0.0
 10
12.9308299247334
 20
-19.19711823668992
 30
0.0
 10
14.27390128567477
 20
-20.54053410740708
 30
0.0
 10
15.93013203281485
 20
-20.54053410740708
 30
0.0
 10
17.31127172398169
 20
-20.54053410740708
 30
0.0
 10
18.47399221729376
 20
-19.60777388943895
 30
0.0
 10
18.82814826681222
 20
-18.31689575953071
 30
0.0
  0
SPLINE
  5
418
330
1F
100
AcDbEntity
  8
STANDARDEBENE
 62
     7
100
AcDbSpline
210
0.0
220
0.0
230
1.0
 70
    11
 71
     3
 72
    17
 73
    13
 74
     0
 42
0.0000000001
 43
0.0000000001
 40
0.0
 40
0.0
 40
0.0
 40
0.0
 40
1.0
 40
1.0
 40
1.0
 40
2.0
 40
2.0
 40
2.0
 40
3.0
 40
3.0
 40
3.0
 40
4.0
 40
4.0
 40
4.0
 40
4.0
 10
18.3174125241944
 20
-17.54088748954984
 30
0.0
 10
18.3174125241944
 20
-16.22279308735369
 30
0.0
 10
17.24891545456258
 20
-15.15395150794608
 30
0.0
 10
15.93013203281485
 20
-15.15395150794608
 30
0.0
 10
14.6122098855066
 20
-15.15395150794608
 30
0.0
 10
13.54354056098689
 20
-16.22279308735369
 30
0.0
 10
13.54354056098689
 20
-17.54088748954984
 30
0.0
 10
13.54354056098689
 20
-18.85880963685808
 30
0.0
 10
14.6122098855066
 20
-19.9273067064899
 30
0.0
 10
15.93013203281485
 20
-19.9273067064899
 30
0.0
 10
17.24891545456258
 20
-19.9273067064899
 30
0.0
 10
18.3174125241944
 20
-18.85880963685808
 30
0.0
 10
18.3174125241944
 20
-17.54088748954984
 30
0.0
  0
SPLINE
  5
419
330
1F
100
AcDbEntity
  8
STANDARDEBENE
 62
     7
100
AcDbSpline
210
0.0
220
0.0
230
1.0
 70
     8
 71
     3
 72
     8
 73
     4
 74
     0
 42
0.0000000001
 43
0.0000000001
 40
0.0
 40
0.0
 40
0.0
 40
0.0
 40
1.0
 40
1.0
 40
1.0
 40
1.0
 10
17.00362449419571
 20
-18.58819720797019
 30
0.0
 10
17.09078546747214
 20
-18.49965819559057
 30
0.0
 10
17.16451055949252
 20
-18.40267869370395
 30
0.0
 10
17.21894310406832
 20
-18.3081107602479
 30
0.0
  0
POLYLINE
  5
41A
330
1F
100
AcDbEntity
  8
STANDARDEBENE
 62
     7
100
AcDb2dPolyline
 66
     1
 10
0.0
 20
0.0
 30
0.0
  0
VERTEX
  5
41B
330
41A
100
AcDbEntity
  8
STANDARDEBENE
 62
     7
100
AcDbVertex
100
AcDb2dVertex
 10
17.00362449419571
 20
-18.58819720797019
 30
0.0
  0
VERTEX
  5
41C
330
41A
100
AcDbEntity
  8
STANDARDEBENE
 62
     7
100
AcDbVertex
100
AcDb2dVertex
 10
16.58745668503394
 20
-19.13045559507336
 30
0.0
  0
VERTEX
  5
41D
330
41A
100
AcDbEntity
  8
STANDARDEBENE
 62
     7
100
AcDbVertex
100
AcDb2dVertex
 10
15.90963370115498
 20
-19.04053854359056
 30
0.0
  0
SEQEND
  5
41E
330
41A
100
AcDbEntity
  8
STANDARDEBENE
  0
SPLINE
  5
41F
330
1F
100
AcDbEntity
  8
STANDARDEBENE
 62
     7
100
AcDbSpline
210
0.0
220
0.0
230
1.0
 70
     8
 71
     3
 72
     8
 73
     4
 74
     0
 42
0.0000000001
 43
0.0000000001
 40
0.0
 40
0.0
 40
0.0
 40
0.0
 40
1.0
 40
1.0
 40
1.0
 40
1.0
 10
15.55978402383397
 20
-18.99437423363387
 30
0.0
 10
15.68036244536263
 20
-19.02503560367973
 30
0.0
 10
15.80094086689128
 20
-19.04019403381476
 30
0.0
 10
15.90963370115498
 20
-19.04053854359056
 30
0.0
  0
POLYLINE
  5
420
330
1F
100
AcDbEntity
  8
STANDARDEBENE
 62
     7
100
AcDb2dPolyline
 66
     1
 10
0.0
 20
0.0
 30
0.0
  0
VERTEX
  5
421
330
420
100
AcDbEntity
  8
STANDARDEBENE
 62
     7
100
AcDbVertex
100
AcDb2dVertex
 10
15.55978402383397
 20
-18.99437423363387
 30
0.0
  0
VERTEX
  5
422
330
420
100
AcDbEntity
  8
STANDARDEBENE
 62
     7
100
AcDbVertex
100
AcDb2dVertex
 10
14.87007545269004
 20
-18.90290688815999
 30
0.0
  0
VERTEX
  5
423
330
420
100
AcDbEntity
  8
STANDARDEBENE
 62
     7
100
AcDbVertex
100
AcDb2dVertex
 10
14.20861668316139
 20
-17.30196996003519
 30
0.0
  0
SEQEND
  5
424
330
420
100
AcDbEntity
  8
STANDARDEBENE
  0
POLYLINE
  5
425
330
1F
100
AcDbEntity
  8
STANDARDEBENE
 62
     7
100
AcDb2dPolyline
 66
     1
 10
0.0
 20
0.0
 30
0.0
  0
VERTEX
  5
426
330
425
100
AcDbEntity
  8
STANDARDEBENE
 62
     7
100
AcDbVertex
100
AcDb2dVertex
 10
15.26488365575245
 20
-15.92858173882376
 30
0.0
  0
VERTEX
  5
427
330
425
100
AcDbEntity
  8
STANDARDEBENE
 62
     7
100
AcDbVertex
100
AcDb2dVertex
 10
14.20861668316139
 20
-17.30196996003519
 30
0.0
  0
SEQEND
  5
428
330
425
100
AcDbEntity
  8
STANDARDEBENE
  0
POLYLINE
  5
429
330
1F
100
AcDbEntity
  8
STANDARDEBENE
 62
     7
100
AcDb2dPolyline
 66
     1
 10
0.0
 20
0.0
 30
0.0
  0
VERTEX
  5
42A
330
429
100
AcDbEntity
  8
STANDARDEBENE
 62
     7
100
AcDbVertex
100
AcDb2dVertex
 10
16.98140361365686
 20
-16.15613044573713
 30
0.0
  0
VERTEX
  5
42B
330
429
100
AcDbEntity
  8
STANDARDEBENE
 62
     7
100
AcDbVertex
100
AcDb2dVertex
 10
15.26488365575245
 20
-15.92858173882376
 30
0.0
  0
SEQEND
  5
42C
330
429
100
AcDbEntity
  8
STANDARDEBENE
  0
POLYLINE
  5
42D
330
1F
100
AcDbEntity
  8
STANDARDEBENE
 62
     7
100
AcDb2dPolyline
 66
     1
 10
0.0
 20
0.0
 30
0.0
  0
VERTEX
  5
42E
330
42D
100
AcDbEntity
  8
STANDARDEBENE
 62
     7
100
AcDbVertex
100
AcDb2dVertex
 10
17.6428623831855
 20
-17.75706737386193
 30
0.0
  0
VERTEX
  5
42F
330
42D
100
AcDbEntity
  8
STANDARDEBENE
 62
     7
100
AcDbVertex
100
AcDb2dVertex
 10
16.98140361365686
 20
-16.15613044573713
 30
0.0
  0
SEQEND
  5
430
330
42D
100
AcDbEntity
  8
STANDARDEBENE
  0
POLYLINE
  5
431
330
1F
100
AcDbEntity
  8
STANDARDEBENE
 62
     7
100
AcDb2dPolyline
 66
     1
 10
0.0
 20
0.0
 30
0.0
  0
VERTEX
  5
432
330
431
100
AcDbEntity
  8
STANDARDEBENE
 62
     7
100
AcDbVertex
100
AcDb2dVertex
 10
17.6428623831855
 20
-17.75706737386193
 30
0.0
  0
VERTEX
  5
433
330
431
100
AcDbEntity
  8
STANDARDEBENE
 62
     7
100
AcDbVertex
100
AcDb2dVertex
 10
17.21894310406832
 20
-18.3084552700237
 30
0.0
  0
SEQEND
  5
434
330
431
100
AcDbEntity
  8
STANDARDEBENE
  0
SPLINE
  5
435
330
1F
100
AcDbEntity
  8
STANDARDEBENE
 62
     7
100
AcDbSpline
210
0.0
220
0.0
230
1.0
 70
     8
 71
     3
 72
    14
 73
    10
 74
     0
 42
0.0000000001
 43
0.0000000001
 40
0.0
 40
0.0
 40
0.0
 40
0.0
 40
1.0
 40
1.0
 40
1.0
 40
2.0
 40
2.0
 40
2.0
 40
3.0
 40
3.0
 40
3.0
 40
3.0
 10
17.43047210640716
 20
-17.54088748954984
 30
0.0
 10
17.43047210640716
 20
-16.71216922387215
 30
0.0
 10
16.75885029849253
 20
-16.04054741595752
 30
0.0
 10
15.93013203281485
 20
-16.04054741595752
 30
0.0
 10
15.10175827691296
 20
-16.04054741595752
 30
0.0
 10
14.43048097877412
 20
-16.71216922387215
 30
0.0
 10
14.43048097877412
 20
-17.54088748954984
 30
0.0
 10
14.43048097877412
 20
-18.23714174643389
 30
0.0
 10
14.90538770470914
 20
-18.82315287506318
 30
0.0
 10
15.55978402383397
 20
-18.99437423363387
 30
0.0
  0
SPLINE
  5
436
330
1F
100
AcDbEntity
  8
STANDARDEBENE
 62
     7
100
AcDbSpline
210
0.0
220
0.0
230
1.0
 70
     8
 71
     3
 72
     8
 73
     4
 74
     0
 42
0.0000000001
 43
0.0000000001
 40
0.0
 40
0.0
 40
0.0
 40
0.0
 40
1.0
 40
1.0
 40
1.0
 40
1.0
 10
15.90963370115498
 20
-19.04053854359056
 30
0.0
 10
16.33717033291802
 20
-19.0460507000033
 30
0.0
 10
16.7256051051282
 20
-18.87259002788992
 30
0.0
 10
17.00362449419571
 20
-18.58819720797019
 30
0.0
  0
SPLINE
  5
437
330
1F
100
AcDbEntity
  8
STANDARDEBENE
 62
     7
100
AcDbSpline
210
0.0
220
0.0
230
1.0
 70
     8
 71
     3
 72
     8
 73
     4
 74
     0
 42
0.0000000001
 43
0.0000000001
 40
0.0
 40
0.0
 40
0.0
 40
0.0
 40
1.0
 40
1.0
 40
1.0
 40
1.0
 10
17.21894310406832
 20
-18.3081107602479
 30
0.0
 10
17.3641539745664
 20
-18.06505911342371
 30
0.0
 10
17.43219465528614
 20
-17.79720276274218
 30
0.0
 10
17.43047210640716
 20
-17.54088748954984
 30
0.0
  0
POLYLINE
  5
438
330
1F
100
AcDbEntity
  8
STANDARDEBENE
 62
     7
100
AcDb2dPolyline
 66
     1
 10
0.0
 20
0.0
 30
0.0
  0
VERTEX
  5
439
330
438
100
AcDbEntity
  8
STANDARDEBENE
 62
     7
100
AcDbVertex
100
AcDb2dVertex
 10
33.55490765277105
 20
-92.73014605706369
 30
0.0
  0
VERTEX
  5
43A
330
438
100
AcDbEntity
  8
STANDARDEBENE
 62
     7
100
AcDbVertex
100
AcDb2dVertex
 10
33.55490765277105
 20
-89.96545510629943
 30
0.0
  0
SEQEND
  5
43B
330
438
100
AcDbEntity
  8
STANDARDEBENE
  0
POLYLINE
  5
43C
330
1F
100
AcDbEntity
  8
STANDARDEBENE
 62
     7
100
AcDb2dPolyline
 66
     1
 10
0.0
 20
0.0
 30
0.0
  0
VERTEX
  5
43D
330
43C
100
AcDbEntity
  8
STANDARDEBENE
 62
     7
100
AcDbVertex
100
AcDb2dVertex
 10
36.97089433467796
 20
-81.82296655535698
 30
0.0
  0
VERTEX
  5
43E
330
43C
100
AcDbEntity
  8
STANDARDEBENE
 62
     7
100
AcDbVertex
100
AcDb2dVertex
 10
47.90339530490569
 20
-81.78696528378629
 30
0.0
  0
SEQEND
  5
43F
330
43C
100
AcDbEntity
  8
STANDARDEBENE
  0
POLYLINE
  5
441
330
1F
100
AcDbEntity
  8
BEMA_UNG
 62
     7
100
AcDb2dPolyline
 66
     1
 10
0.0
 20
0.0
 30
0.0
  0
VERTEX
  5
442
330
441
100
AcDbEntity
  8
BEMA_UNG
 62
     7
100
AcDbVertex
100
AcDb2dVertex
 10
32.93048368414049
 20
-1.540819972248365
 30
0.0
  0
VERTEX
  5
443
330
441
100
AcDbEntity
  8
BEMA_UNG
 62
     7
100
AcDbVertex
100
AcDb2dVertex
 10
68.9258985886516
 20
-1.540819972248365
 30
0.0
  0
SEQEND
  5
444
330
441
100
AcDbEntity
  8
BEMA_UNG
  0
POLYLINE
  5
445
330
1F
100
AcDbEntity
  8
BEMA_UNG
 62
     7
100
AcDb2dPolyline
 66
     1
 10
0.0
 20
0.0
 30
0.0
  0
VERTEX
  5
446
330
445
100
AcDbEntity
  8
BEMA_UNG
 62
     7
100
AcDbVertex
100
AcDb2dVertex
 10
32.93048368414049
 20
-33.54026598729971
 30
0.0
  0
VERTEX
  5
447
330
445
100
AcDbEntity
  8
BEMA_UNG
 62
     7
100
AcDbVertex
100
AcDb2dVertex
 10
68.9258985886516
 20
-33.54026598729971
 30
0.0
  0
SEQEND
  5
448
330
445
100
AcDbEntity
  8
BEMA_UNG
  0
POLYLINE
  5
449
330
1F
100
AcDbEntity
  8
BEMA_UNG
 62
     7
100
AcDb2dPolyline
 66
     1
 10
0.0
 20
0.0
 30
0.0
  0
VERTEX
  5
44A
330
449
100
AcDbEntity
  8
BEMA_UNG
 62
     7
100
AcDbVertex
100
AcDb2dVertex
 10
66.92533032060325
 20
-1.540819972248365
 30
0.0
  0
VERTEX
  5
44B
330
449
100
AcDbEntity
  8
BEMA_UNG
 62
     7
100
AcDbVertex
100
AcDb2dVertex
 10
66.92533032060325
 20
-33.54026598729971
 30
0.0
  0
SEQEND
  5
44C
330
449
100
AcDbEntity
  8
BEMA_UNG
  0
POLYLINE
  5
44D
330
1F
100
AcDbEntity
  8
BEMA_UNG
 62
     7
100
AcDb2dPolyline
 66
     1
 10
0.0
 20
0.0
 30
0.0
  0
VERTEX
  5
44E
330
44D
100
AcDbEntity
  8
BEMA_UNG
 62
     7
100
AcDbVertex
100
AcDb2dVertex
 10
66.92533032060325
 20
-1.540819972248365
 30
0.0
  0
VERTEX
  5
44F
330
44D
100
AcDbEntity
  8
BEMA_UNG
 62
     7
100
AcDbVertex
100
AcDb2dVertex
 10
66.46489300525167
 20
-5.040867039449543
 30
0.0
  0
VERTEX
  5
450
330
44D
100
AcDbEntity
  8
BEMA_UNG
 62
     7
100
AcDbVertex
100
AcDb2dVertex
 10
67.38628440061852
 20
-5.040867039449543
 30
0.0
  0
VERTEX
  5
451
330
44D
100
AcDbEntity
  8
BEMA_UNG
 62
     7
100
AcDbVertex
100
AcDb2dVertex
 10
66.92533032060325
 20
-1.540819972248365
 30
0.0
  0
SEQEND
  5
452
330
44D
100
AcDbEntity
  8
BEMA_UNG
  0
POLYLINE
  5
453
330
1F
100
AcDbEntity
  8
BEMA_UNG
 62
     7
100
AcDb2dPolyline
 66
     1
 10
0.0
 20
0.0
 30
0.0
  0
VERTEX
  5
454
330
453
100
AcDbEntity
  8
BEMA_UNG
 62
     7
100
AcDbVertex
100
AcDb2dVertex
 10
66.46833810300963
 20
-5.040867039449543
 30
0.0
  0
VERTEX
  5
455
330
453
100
AcDbEntity
  8
BEMA_UNG
 62
     7
100
AcDbVertex
100
AcDb2dVertex
 10
66.46833810300963
 20
-5.013650767161645
 30
0.0
  0
SEQEND
  5
456
330
453
100
AcDbEntity
  8
BEMA_UNG
  0
POLYLINE
  5
457
330
1F
100
AcDbEntity
  8
BEMA_UNG
 62
     7
100
AcDb2dPolyline
 66
     1
 10
0.0
 20
0.0
 30
0.0
  0
VERTEX
  5
458
330
457
100
AcDbEntity
  8
BEMA_UNG
 62
     7
100
AcDbVertex
100
AcDb2dVertex
 10
66.46833810300963
 20
-5.040867039449543
 30
0.0
  0
VERTEX
  5
459
330
457
100
AcDbEntity
  8
BEMA_UNG
 62
     7
100
AcDbVertex
100
AcDb2dVertex
 10
66.46833810300963
 20
-5.013650767161645
 30
0.0
  0
SEQEND
  5
45A
330
457
100
AcDbEntity
  8
BEMA_UNG
  0
POLYLINE
  5
45B
330
1F
100
AcDbEntity
  8
BEMA_UNG
 62
     7
100
AcDb2dPolyline
 66
     1
 10
0.0
 20
0.0
 30
0.0
  0
VERTEX
  5
45C
330
45B
100
AcDbEntity
  8
BEMA_UNG
 62
     7
100
AcDbVertex
100
AcDb2dVertex
 10
66.51915329493957
 20
-5.040867039449543
 30
0.0
  0
VERTEX
  5
45D
330
45B
100
AcDbEntity
  8
BEMA_UNG
 62
     7
100
AcDbVertex
100
AcDb2dVertex
 10
66.51915329493957
 20
-4.627627563382038
 30
0.0
  0
SEQEND
  5
45E
330
45B
100
AcDbEntity
  8
BEMA_UNG
  0
POLYLINE
  5
45F
330
1F
100
AcDbEntity
  8
BEMA_UNG
 62
     7
100
AcDb2dPolyline
 66
     1
 10
0.0
 20
0.0
 30
0.0
  0
VERTEX
  5
460
330
45F
100
AcDbEntity
  8
BEMA_UNG
 62
     7
100
AcDbVertex
100
AcDb2dVertex
 10
66.5699684868695
 20
-5.040867039449543
 30
0.0
  0
VERTEX
  5
461
330
45F
100
AcDbEntity
  8
BEMA_UNG
 62
     7
100
AcDbVertex
100
AcDb2dVertex
 10
66.5699684868695
 20
-4.241432104714533
 30
0.0
  0
SEQEND
  5
462
330
45F
100
AcDbEntity
  8
BEMA_UNG
  0
POLYLINE
  5
463
330
1F
100
AcDbEntity
  8
BEMA_UNG
 62
     7
100
AcDb2dPolyline
 66
     1
 10
0.0
 20
0.0
 30
0.0
  0
VERTEX
  5
464
330
463
100
AcDbEntity
  8
BEMA_UNG
 62
     7
100
AcDbVertex
100
AcDb2dVertex
 10
66.62078367879944
 20
-5.040867039449543
 30
0.0
  0
VERTEX
  5
465
330
463
100
AcDbEntity
  8
BEMA_UNG
 62
     7
100
AcDbVertex
100
AcDb2dVertex
 10
66.62078367879944
 20
-3.85592566559862
 30
0.0
  0
SEQEND
  5
466
330
463
100
AcDbEntity
  8
BEMA_UNG
  0
POLYLINE
  5
467
330
1F
100
AcDbEntity
  8
BEMA_UNG
 62
     7
100
AcDb2dPolyline
 66
     1
 10
0.0
 20
0.0
 30
0.0
  0
VERTEX
  5
468
330
467
100
AcDbEntity
  8
BEMA_UNG
 62
     7
100
AcDbVertex
100
AcDb2dVertex
 10
66.67159887072937
 20
-5.040867039449543
 30
0.0
  0
VERTEX
  5
469
330
467
100
AcDbEntity
  8
BEMA_UNG
 62
     7
100
AcDbVertex
100
AcDb2dVertex
 10
66.67159887072937
 20
-3.470246971594809
 30
0.0
  0
SEQEND
  5
46A
330
467
100
AcDbEntity
  8
BEMA_UNG
  0
POLYLINE
  5
46B
330
1F
100
AcDbEntity
  8
BEMA_UNG
 62
     7
100
AcDb2dPolyline
 66
     1
 10
0.0
 20
0.0
 30
0.0
  0
VERTEX
  5
46C
330
46B
100
AcDbEntity
  8
BEMA_UNG
 62
     7
100
AcDbVertex
100
AcDb2dVertex
 10
66.72241406265931
 20
-5.040867039449543
 30
0.0
  0
VERTEX
  5
46D
330
46B
100
AcDbEntity
  8
BEMA_UNG
 62
     7
100
AcDbVertex
100
AcDb2dVertex
 10
66.72241406265931
 20
-3.084223767815202
 30
0.0
  0
SEQEND
  5
46E
330
46B
100
AcDbEntity
  8
BEMA_UNG
  0
POLYLINE
  5
46F
330
1F
100
AcDbEntity
  8
BEMA_UNG
 62
     7
100
AcDb2dPolyline
 66
     1
 10
0.0
 20
0.0
 30
0.0
  0
VERTEX
  5
470
330
46F
100
AcDbEntity
  8
BEMA_UNG
 62
     7
100
AcDbVertex
100
AcDb2dVertex
 10
66.77322925458924
 20
-5.040867039449543
 30
0.0
  0
VERTEX
  5
471
330
46F
100
AcDbEntity
  8
BEMA_UNG
 62
     7
100
AcDbVertex
100
AcDb2dVertex
 10
66.77322925458924
 20
-2.698028309147696
 30
0.0
  0
SEQEND
  5
472
330
46F
100
AcDbEntity
  8
BEMA_UNG
  0
POLYLINE
  5
473
330
1F
100
AcDbEntity
  8
BEMA_UNG
 62
     7
100
AcDb2dPolyline
 66
     1
 10
0.0
 20
0.0
 30
0.0
  0
VERTEX
  5
474
330
473
100
AcDbEntity
  8
BEMA_UNG
 62
     7
100
AcDbVertex
100
AcDb2dVertex
 10
66.82404444651918
 20
-5.040867039449543
 30
0.0
  0
VERTEX
  5
475
330
473
100
AcDbEntity
  8
BEMA_UNG
 62
     7
100
AcDbVertex
100
AcDb2dVertex
 10
66.82404444651918
 20
-2.312521870031783
 30
0.0
  0
SEQEND
  5
476
330
473
100
AcDbEntity
  8
BEMA_UNG
  0
POLYLINE
  5
477
330
1F
100
AcDbEntity
  8
BEMA_UNG
 62
     7
100
AcDb2dPolyline
 66
     1
 10
0.0
 20
0.0
 30
0.0
  0
VERTEX
  5
478
330
477
100
AcDbEntity
  8
BEMA_UNG
 62
     7
100
AcDbVertex
100
AcDb2dVertex
 10
66.87451512867331
 20
-5.040867039449543
 30
0.0
  0
VERTEX
  5
479
330
477
100
AcDbEntity
  8
BEMA_UNG
 62
     7
100
AcDbVertex
100
AcDb2dVertex
 10
66.87451512867331
 20
-1.92615415647638
 30
0.0
  0
SEQEND
  5
47A
330
477
100
AcDbEntity
  8
BEMA_UNG
  0
POLYLINE
  5
47B
330
1F
100
AcDbEntity
  8
BEMA_UNG
 62
     7
100
AcDb2dPolyline
 66
     1
 10
0.0
 20
0.0
 30
0.0
  0
VERTEX
  5
47C
330
47B
100
AcDbEntity
  8
BEMA_UNG
 62
     7
100
AcDbVertex
100
AcDb2dVertex
 10
66.92533032060325
 20
-5.040867039449543
 30
0.0
  0
VERTEX
  5
47D
330
47B
100
AcDbEntity
  8
BEMA_UNG
 62
     7
100
AcDbVertex
100
AcDb2dVertex
 10
66.92533032060325
 20
-1.540819972248365
 30
0.0
  0
SEQEND
  5
47E
330
47B
100
AcDbEntity
  8
BEMA_UNG
  0
POLYLINE
  5
47F
330
1F
100
AcDbEntity
  8
BEMA_UNG
 62
     7
100
AcDb2dPolyline
 66
     1
 10
0.0
 20
0.0
 30
0.0
  0
VERTEX
  5
480
330
47F
100
AcDbEntity
  8
BEMA_UNG
 62
     7
100
AcDbVertex
100
AcDb2dVertex
 10
67.38249479308476
 20
-5.040867039449543
 30
0.0
  0
VERTEX
  5
481
330
47F
100
AcDbEntity
  8
BEMA_UNG
 62
     7
100
AcDbVertex
100
AcDb2dVertex
 10
67.38249479308476
 20
-5.013650767161645
 30
0.0
  0
SEQEND
  5
482
330
47F
100
AcDbEntity
  8
BEMA_UNG
  0
POLYLINE
  5
483
330
1F
100
AcDbEntity
  8
BEMA_UNG
 62
     7
100
AcDb2dPolyline
 66
     1
 10
0.0
 20
0.0
 30
0.0
  0
VERTEX
  5
484
330
483
100
AcDbEntity
  8
BEMA_UNG
 62
     7
100
AcDbVertex
100
AcDb2dVertex
 10
67.38249479308476
 20
-5.040867039449543
 30
0.0
  0
VERTEX
  5
485
330
483
100
AcDbEntity
  8
BEMA_UNG
 62
     7
100
AcDbVertex
100
AcDb2dVertex
 10
67.38249479308476
 20
-5.013650767161645
 30
0.0
  0
SEQEND
  5
486
330
483
100
AcDbEntity
  8
BEMA_UNG
  0
POLYLINE
  5
487
330
1F
100
AcDbEntity
  8
BEMA_UNG
 62
     7
100
AcDb2dPolyline
 66
     1
 10
0.0
 20
0.0
 30
0.0
  0
VERTEX
  5
488
330
487
100
AcDbEntity
  8
BEMA_UNG
 62
     7
100
AcDbVertex
100
AcDb2dVertex
 10
67.33167960115483
 20
-5.040867039449543
 30
0.0
  0
VERTEX
  5
489
330
487
100
AcDbEntity
  8
BEMA_UNG
 62
     7
100
AcDbVertex
100
AcDb2dVertex
 10
67.33167960115483
 20
-4.627627563382038
 30
0.0
  0
SEQEND
  5
48A
330
487
100
AcDbEntity
  8
BEMA_UNG
  0
POLYLINE
  5
48B
330
1F
100
AcDbEntity
  8
BEMA_UNG
 62
     7
100
AcDb2dPolyline
 66
     1
 10
0.0
 20
0.0
 30
0.0
  0
VERTEX
  5
48C
330
48B
100
AcDbEntity
  8
BEMA_UNG
 62
     7
100
AcDbVertex
100
AcDb2dVertex
 10
67.2808644092249
 20
-5.040867039449543
 30
0.0
  0
VERTEX
  5
48D
330
48B
100
AcDbEntity
  8
BEMA_UNG
 62
     7
100
AcDbVertex
100
AcDb2dVertex
 10
67.2808644092249
 20
-4.241432104714533
 30
0.0
  0
SEQEND
  5
48E
330
48B
100
AcDbEntity
  8
BEMA_UNG
  0
POLYLINE
  5
48F
330
1F
100
AcDbEntity
  8
BEMA_UNG
 62
     7
100
AcDb2dPolyline
 66
     1
 10
0.0
 20
0.0
 30
0.0
  0
VERTEX
  5
490
330
48F
100
AcDbEntity
  8
BEMA_UNG
 62
     7
100
AcDbVertex
100
AcDb2dVertex
 10
67.23004921729496
 20
-5.040867039449543
 30
0.0
  0
VERTEX
  5
491
330
48F
100
AcDbEntity
  8
BEMA_UNG
 62
     7
100
AcDbVertex
100
AcDb2dVertex
 10
67.23004921729496
 20
-3.85592566559862
 30
0.0
  0
SEQEND
  5
492
330
48F
100
AcDbEntity
  8
BEMA_UNG
  0
POLYLINE
  5
493
330
1F
100
AcDbEntity
  8
BEMA_UNG
 62
     7
100
AcDb2dPolyline
 66
     1
 10
0.0
 20
0.0
 30
0.0
  0
VERTEX
  5
494
330
493
100
AcDbEntity
  8
BEMA_UNG
 62
     7
100
AcDbVertex
100
AcDb2dVertex
 10
67.17923402536503
 20
-5.040867039449543
 30
0.0
  0
VERTEX
  5
495
330
493
100
AcDbEntity
  8
BEMA_UNG
 62
     7
100
AcDbVertex
100
AcDb2dVertex
 10
67.17923402536503
 20
-3.470246971594809
 30
0.0
  0
SEQEND
  5
496
330
493
100
AcDbEntity
  8
BEMA_UNG
  0
POLYLINE
  5
497
330
1F
100
AcDbEntity
  8
BEMA_UNG
 62
     7
100
AcDb2dPolyline
 66
     1
 10
0.0
 20
0.0
 30
0.0
  0
VERTEX
  5
498
330
497
100
AcDbEntity
  8
BEMA_UNG
 62
     7
100
AcDbVertex
100
AcDb2dVertex
 10
67.12841883343509
 20
-5.040867039449543
 30
0.0
  0
VERTEX
  5
499
330
497
100
AcDbEntity
  8
BEMA_UNG
 62
     7
100
AcDbVertex
100
AcDb2dVertex
 10
67.12841883343509
 20
-3.084223767815202
 30
0.0
  0
SEQEND
  5
49A
330
497
100
AcDbEntity
  8
BEMA_UNG
  0
POLYLINE
  5
49B
330
1F
100
AcDbEntity
  8
BEMA_UNG
 62
     7
100
AcDb2dPolyline
 66
     1
 10
0.0
 20
0.0
 30
0.0
  0
VERTEX
  5
49C
330
49B
100
AcDbEntity
  8
BEMA_UNG
 62
     7
100
AcDbVertex
100
AcDb2dVertex
 10
67.07760364150516
 20
-5.040867039449543
 30
0.0
  0
VERTEX
  5
49D
330
49B
100
AcDbEntity
  8
BEMA_UNG
 62
     7
100
AcDbVertex
100
AcDb2dVertex
 10
67.07760364150516
 20
-2.698028309147696
 30
0.0
  0
SEQEND
  5
49E
330
49B
100
AcDbEntity
  8
BEMA_UNG
  0
POLYLINE
  5
49F
330
1F
100
AcDbEntity
  8
BEMA_UNG
 62
     7
100
AcDb2dPolyline
 66
     1
 10
0.0
 20
0.0
 30
0.0
  0
VERTEX
  5
4A0
330
49F
100
AcDbEntity
  8
BEMA_UNG
 62
     7
100
AcDbVertex
100
AcDb2dVertex
 10
67.02678844957522
 20
-5.040867039449543
 30
0.0
  0
VERTEX
  5
4A1
330
49F
100
AcDbEntity
  8
BEMA_UNG
 62
     7
100
AcDbVertex
100
AcDb2dVertex
 10
67.02678844957522
 20
-2.312521870031783
 30
0.0
  0
SEQEND
  5
4A2
330
49F
100
AcDbEntity
  8
BEMA_UNG
  0
POLYLINE
  5
4A3
330
1F
100
AcDbEntity
  8
BEMA_UNG
 62
     7
100
AcDb2dPolyline
 66
     1
 10
0.0
 20
0.0
 30
0.0
  0
VERTEX
  5
4A4
330
4A3
100
AcDbEntity
  8
BEMA_UNG
 62
     7
100
AcDbVertex
100
AcDb2dVertex
 10
66.97614551253318
 20
-5.040867039449543
 30
0.0
  0
VERTEX
  5
4A5
330
4A3
100
AcDbEntity
  8
BEMA_UNG
 62
     7
100
AcDbVertex
100
AcDb2dVertex
 10
66.97614551253318
 20
-1.92615415647638
 30
0.0
  0
SEQEND
  5
4A6
330
4A3
100
AcDbEntity
  8
BEMA_UNG
  0
POLYLINE
  5
4A7
330
1F
100
AcDbEntity
  8
BEMA_UNG
 62
     7
100
AcDb2dPolyline
 66
     1
 10
0.0
 20
0.0
 30
0.0
  0
VERTEX
  5
4A8
330
4A7
100
AcDbEntity
  8
BEMA_UNG
 62
     7
100
AcDbVertex
100
AcDb2dVertex
 10
66.92533032060325
 20
-5.040867039449543
 30
0.0
  0
VERTEX
  5
4A9
330
4A7
100
AcDbEntity
  8
BEMA_UNG
 62
     7
100
AcDbVertex
100
AcDb2dVertex
 10
66.92533032060325
 20
-1.540819972248365
 30
0.0
  0
SEQEND
  5
4AA
330
4A7
100
AcDbEntity
  8
BEMA_UNG
  0
POLYLINE
  5
4AB
330
1F
100
AcDbEntity
  8
BEMA_UNG
 62
     7
100
AcDb2dPolyline
 66
     1
 10
0.0
 20
0.0
 30
0.0
  0
VERTEX
  5
4AC
330
4AB
100
AcDbEntity
  8
BEMA_UNG
 62
     7
100
AcDbVertex
100
AcDb2dVertex
 10
66.92533032060325
 20
-33.54026598729971
 30
0.0
  0
VERTEX
  5
4AD
330
4AB
100
AcDbEntity
  8
BEMA_UNG
 62
     7
100
AcDbVertex
100
AcDb2dVertex
 10
67.38628440061852
 20
-30.04073568476223
 30
0.0
  0
VERTEX
  5
4AE
330
4AB
100
AcDbEntity
  8
BEMA_UNG
 62
     7
100
AcDbVertex
100
AcDb2dVertex
 10
66.46489300525167
 20
-30.04073568476223
 30
0.0
  0
VERTEX
  5
4AF
330
4AB
100
AcDbEntity
  8
BEMA_UNG
 62
     7
100
AcDbVertex
100
AcDb2dVertex
 10
66.92533032060325
 20
-33.54026598729971
 30
0.0
  0
SEQEND
  5
4B0
330
4AB
100
AcDbEntity
  8
BEMA_UNG
  0
POLYLINE
  5
4B1
330
1F
100
AcDbEntity
  8
BEMA_UNG
 62
     7
100
AcDb2dPolyline
 66
     1
 10
0.0
 20
0.0
 30
0.0
  0
VERTEX
  5
4B2
330
4B1
100
AcDbEntity
  8
BEMA_UNG
 62
     7
100
AcDbVertex
100
AcDb2dVertex
 10
67.38249479308476
 20
-30.04073568476223
 30
0.0
  0
VERTEX
  5
4B3
330
4B1
100
AcDbEntity
  8
BEMA_UNG
 62
     7
100
AcDbVertex
100
AcDb2dVertex
 10
67.38249479308476
 20
-30.06795195705013
 30
0.0
  0
SEQEND
  5
4B4
330
4B1
100
AcDbEntity
  8
BEMA_UNG
  0
POLYLINE
  5
4B5
330
1F
100
AcDbEntity
  8
BEMA_UNG
 62
     7
100
AcDb2dPolyline
 66
     1
 10
0.0
 20
0.0
 30
0.0
  0
VERTEX
  5
4B6
330
4B5
100
AcDbEntity
  8
BEMA_UNG
 62
     7
100
AcDbVertex
100
AcDb2dVertex
 10
67.38249479308476
 20
-30.04073568476223
 30
0.0
  0
VERTEX
  5
4B7
330
4B5
100
AcDbEntity
  8
BEMA_UNG
 62
     7
100
AcDbVertex
100
AcDb2dVertex
 10
67.38249479308476
 20
-30.06795195705013
 30
0.0
  0
SEQEND
  5
4B8
330
4B5
100
AcDbEntity
  8
BEMA_UNG
  0
POLYLINE
  5
4B9
330
1F
100
AcDbEntity
  8
BEMA_UNG
 62
     7
100
AcDb2dPolyline
 66
     1
 10
0.0
 20
0.0
 30
0.0
  0
VERTEX
  5
4BA
330
4B9
100
AcDbEntity
  8
BEMA_UNG
 62
     7
100
AcDbVertex
100
AcDb2dVertex
 10
67.33167960115483
 20
-30.04073568476223
 30
0.0
  0
VERTEX
  5
4BB
330
4B9
100
AcDbEntity
  8
BEMA_UNG
 62
     7
100
AcDbVertex
100
AcDb2dVertex
 10
67.33167960115483
 20
-30.45345839616604
 30
0.0
  0
SEQEND
  5
4BC
330
4B9
100
AcDbEntity
  8
BEMA_UNG
  0
POLYLINE
  5
4BD
330
1F
100
AcDbEntity
  8
BEMA_UNG
 62
     7
100
AcDb2dPolyline
 66
     1
 10
0.0
 20
0.0
 30
0.0
  0
VERTEX
  5
4BE
330
4BD
100
AcDbEntity
  8
BEMA_UNG
 62
     7
100
AcDbVertex
100
AcDb2dVertex
 10
67.2808644092249
 20
-30.04073568476223
 30
0.0
  0
VERTEX
  5
4BF
330
4BD
100
AcDbEntity
  8
BEMA_UNG
 62
     7
100
AcDbVertex
100
AcDb2dVertex
 10
67.2808644092249
 20
-30.83982610972144
 30
0.0
  0
SEQEND
  5
4C0
330
4BD
100
AcDbEntity
  8
BEMA_UNG
  0
POLYLINE
  5
4C1
330
1F
100
AcDbEntity
  8
BEMA_UNG
 62
     7
100
AcDb2dPolyline
 66
     1
 10
0.0
 20
0.0
 30
0.0
  0
VERTEX
  5
4C2
330
4C1
100
AcDbEntity
  8
BEMA_UNG
 62
     7
100
AcDbVertex
100
AcDb2dVertex
 10
67.23004921729496
 20
-30.04073568476223
 30
0.0
  0
VERTEX
  5
4C3
330
4C1
100
AcDbEntity
  8
BEMA_UNG
 62
     7
100
AcDbVertex
100
AcDb2dVertex
 10
67.23004921729496
 20
-31.22550480372525
 30
0.0
  0
SEQEND
  5
4C4
330
4C1
100
AcDbEntity
  8
BEMA_UNG
  0
POLYLINE
  5
4C5
330
1F
100
AcDbEntity
  8
BEMA_UNG
 62
     7
100
AcDb2dPolyline
 66
     1
 10
0.0
 20
0.0
 30
0.0
  0
VERTEX
  5
4C6
330
4C5
100
AcDbEntity
  8
BEMA_UNG
 62
     7
100
AcDbVertex
100
AcDb2dVertex
 10
67.17923402536503
 20
-30.04073568476223
 30
0.0
  0
VERTEX
  5
4C7
330
4C5
100
AcDbEntity
  8
BEMA_UNG
 62
     7
100
AcDbVertex
100
AcDb2dVertex
 10
67.17923402536503
 20
-31.61135575261696
 30
0.0
  0
SEQEND
  5
4C8
330
4C5
100
AcDbEntity
  8
BEMA_UNG
  0
POLYLINE
  5
4C9
330
1F
100
AcDbEntity
  8
BEMA_UNG
 62
     7
100
AcDb2dPolyline
 66
     1
 10
0.0
 20
0.0
 30
0.0
  0
VERTEX
  5
4CA
330
4C9
100
AcDbEntity
  8
BEMA_UNG
 62
     7
100
AcDbVertex
100
AcDb2dVertex
 10
67.12841883343509
 20
-30.04073568476223
 30
0.0
  0
VERTEX
  5
4CB
330
4C9
100
AcDbEntity
  8
BEMA_UNG
 62
     7
100
AcDbVertex
100
AcDb2dVertex
 10
67.12841883343509
 20
-31.99686219173288
 30
0.0
  0
SEQEND
  5
4CC
330
4C9
100
AcDbEntity
  8
BEMA_UNG
  0
POLYLINE
  5
4CD
330
1F
100
AcDbEntity
  8
BEMA_UNG
 62
     7
100
AcDb2dPolyline
 66
     1
 10
0.0
 20
0.0
 30
0.0
  0
VERTEX
  5
4CE
330
4CD
100
AcDbEntity
  8
BEMA_UNG
 62
     7
100
AcDbVertex
100
AcDb2dVertex
 10
67.07760364150516
 20
-30.04073568476223
 30
0.0
  0
VERTEX
  5
4CF
330
4CD
100
AcDbEntity
  8
BEMA_UNG
 62
     7
100
AcDbVertex
100
AcDb2dVertex
 10
67.07760364150516
 20
-32.38322990528828
 30
0.0
  0
SEQEND
  5
4D0
330
4CD
100
AcDbEntity
  8
BEMA_UNG
  0
POLYLINE
  5
4D1
330
1F
100
AcDbEntity
  8
BEMA_UNG
 62
     7
100
AcDb2dPolyline
 66
     1
 10
0.0
 20
0.0
 30
0.0
  0
VERTEX
  5
4D2
330
4D1
100
AcDbEntity
  8
BEMA_UNG
 62
     7
100
AcDbVertex
100
AcDb2dVertex
 10
67.02678844957522
 20
-30.04073568476223
 30
0.0
  0
VERTEX
  5
4D3
330
4D1
100
AcDbEntity
  8
BEMA_UNG
 62
     7
100
AcDbVertex
100
AcDb2dVertex
 10
67.02678844957522
 20
-32.76890859929209
 30
0.0
  0
SEQEND
  5
4D4
330
4D1
100
AcDbEntity
  8
BEMA_UNG
  0
POLYLINE
  5
4D5
330
1F
100
AcDbEntity
  8
BEMA_UNG
 62
     7
100
AcDb2dPolyline
 66
     1
 10
0.0
 20
0.0
 30
0.0
  0
VERTEX
  5
4D6
330
4D5
100
AcDbEntity
  8
BEMA_UNG
 62
     7
100
AcDbVertex
100
AcDb2dVertex
 10
66.97614551253318
 20
-30.04073568476223
 30
0.0
  0
VERTEX
  5
4D7
330
4D5
100
AcDbEntity
  8
BEMA_UNG
 62
     7
100
AcDbVertex
100
AcDb2dVertex
 10
66.97614551253318
 20
-33.1551040579596
 30
0.0
  0
SEQEND
  5
4D8
330
4D5
100
AcDbEntity
  8
BEMA_UNG
  0
POLYLINE
  5
4D9
330
1F
100
AcDbEntity
  8
BEMA_UNG
 62
     7
100
AcDb2dPolyline
 66
     1
 10
0.0
 20
0.0
 30
0.0
  0
VERTEX
  5
4DA
330
4D9
100
AcDbEntity
  8
BEMA_UNG
 62
     7
100
AcDbVertex
100
AcDb2dVertex
 10
66.92533032060325
 20
-30.04073568476223
 30
0.0
  0
VERTEX
  5
4DB
330
4D9
100
AcDbEntity
  8
BEMA_UNG
 62
     7
100
AcDbVertex
100
AcDb2dVertex
 10
66.92533032060325
 20
-33.54026598729971
 30
0.0
  0
SEQEND
  5
4DC
330
4D9
100
AcDbEntity
  8
BEMA_UNG
  0
POLYLINE
  5
4DD
330
1F
100
AcDbEntity
  8
BEMA_UNG
 62
     7
100
AcDb2dPolyline
 66
     1
 10
0.0
 20
0.0
 30
0.0
  0
VERTEX
  5
4DE
330
4DD
100
AcDbEntity
  8
BEMA_UNG
 62
     7
100
AcDbVertex
100
AcDb2dVertex
 10
66.46833810300963
 20
-30.04073568476223
 30
0.0
  0
VERTEX
  5
4DF
330
4DD
100
AcDbEntity
  8
BEMA_UNG
 62
     7
100
AcDbVertex
100
AcDb2dVertex
 10
66.46833810300963
 20
-30.06795195705013
 30
0.0
  0
SEQEND
  5
4E0
330
4DD
100
AcDbEntity
  8
BEMA_UNG
  0
POLYLINE
  5
4E1
330
1F
100
AcDbEntity
  8
BEMA_UNG
 62
     7
100
AcDb2dPolyline
 66
     1
 10
0.0
 20
0.0
 30
0.0
  0
VERTEX
  5
4E2
330
4E1
100
AcDbEntity
  8
BEMA_UNG
 62
     7
100
AcDbVertex
100
AcDb2dVertex
 10
66.46833810300963
 20
-30.04073568476223
 30
0.0
  0
VERTEX
  5
4E3
330
4E1
100
AcDbEntity
  8
BEMA_UNG
 62
     7
100
AcDbVertex
100
AcDb2dVertex
 10
66.46833810300963
 20
-30.06795195705013
 30
0.0
  0
SEQEND
  5
4E4
330
4E1
100
AcDbEntity
  8
BEMA_UNG
  0
POLYLINE
  5
4E5
330
1F
100
AcDbEntity
  8
BEMA_UNG
 62
     7
100
AcDb2dPolyline
 66
     1
 10
0.0
 20
0.0
 30
0.0
  0
VERTEX
  5
4E6
330
4E5
100
AcDbEntity
  8
BEMA_UNG
 62
     7
100
AcDbVertex
100
AcDb2dVertex
 10
66.51915329493957
 20
-30.04073568476223
 30
0.0
  0
VERTEX
  5
4E7
330
4E5
100
AcDbEntity
  8
BEMA_UNG
 62
     7
100
AcDbVertex
100
AcDb2dVertex
 10
66.51915329493957
 20
-30.45345839616604
 30
0.0
  0
SEQEND
  5
4E8
330
4E5
100
AcDbEntity
  8
BEMA_UNG
  0
POLYLINE
  5
4E9
330
1F
100
AcDbEntity
  8
BEMA_UNG
 62
     7
100
AcDb2dPolyline
 66
     1
 10
0.0
 20
0.0
 30
0.0
  0
VERTEX
  5
4EA
330
4E9
100
AcDbEntity
  8
BEMA_UNG
 62
     7
100
AcDbVertex
100
AcDb2dVertex
 10
66.5699684868695
 20
-30.04073568476223
 30
0.0
  0
VERTEX
  5
4EB
330
4E9
100
AcDbEntity
  8
BEMA_UNG
 62
     7
100
AcDbVertex
100
AcDb2dVertex
 10
66.5699684868695
 20
-30.83982610972144
 30
0.0
  0
SEQEND
  5
4EC
330
4E9
100
AcDbEntity
  8
BEMA_UNG
  0
POLYLINE
  5
4ED
330
1F
100
AcDbEntity
  8
BEMA_UNG
 62
     7
100
AcDb2dPolyline
 66
     1
 10
0.0
 20
0.0
 30
0.0
  0
VERTEX
  5
4EE
330
4ED
100
AcDbEntity
  8
BEMA_UNG
 62
     7
100
AcDbVertex
100
AcDb2dVertex
 10
66.62078367879944
 20
-30.04073568476223
 30
0.0
  0
VERTEX
  5
4EF
330
4ED
100
AcDbEntity
  8
BEMA_UNG
 62
     7
100
AcDbVertex
100
AcDb2dVertex
 10
66.62078367879944
 20
-31.22550480372525
 30
0.0
  0
SEQEND
  5
4F0
330
4ED
100
AcDbEntity
  8
BEMA_UNG
  0
POLYLINE
  5
4F1
330
1F
100
AcDbEntity
  8
BEMA_UNG
 62
     7
100
AcDb2dPolyline
 66
     1
 10
0.0
 20
0.0
 30
0.0
  0
VERTEX
  5
4F2
330
4F1
100
AcDbEntity
  8
BEMA_UNG
 62
     7
100
AcDbVertex
100
AcDb2dVertex
 10
66.67159887072937
 20
-30.04073568476223
 30
0.0
  0
VERTEX
  5
4F3
330
4F1
100
AcDbEntity
  8
BEMA_UNG
 62
     7
100
AcDbVertex
100
AcDb2dVertex
 10
66.67159887072937
 20
-31.61135575261696
 30
0.0
  0
SEQEND
  5
4F4
330
4F1
100
AcDbEntity
  8
BEMA_UNG
  0
POLYLINE
  5
4F5
330
1F
100
AcDbEntity
  8
BEMA_UNG
 62
     7
100
AcDb2dPolyline
 66
     1
 10
0.0
 20
0.0
 30
0.0
  0
VERTEX
  5
4F6
330
4F5
100
AcDbEntity
  8
BEMA_UNG
 62
     7
100
AcDbVertex
100
AcDb2dVertex
 10
66.72241406265931
 20
-30.04073568476223
 30
0.0
  0
VERTEX
  5
4F7
330
4F5
100
AcDbEntity
  8
BEMA_UNG
 62
     7
100
AcDbVertex
100
AcDb2dVertex
 10
66.72241406265931
 20
-31.99686219173288
 30
0.0
  0
SEQEND
  5
4F8
330
4F5
100
AcDbEntity
  8
BEMA_UNG
  0
POLYLINE
  5
4F9
330
1F
100
AcDbEntity
  8
BEMA_UNG
 62
     7
100
AcDb2dPolyline
 66
     1
 10
0.0
 20
0.0
 30
0.0
  0
VERTEX
  5
4FA
330
4F9
100
AcDbEntity
  8
BEMA_UNG
 62
     7
100
AcDbVertex
100
AcDb2dVertex
 10
66.77322925458924
 20
-30.04073568476223
 30
0.0
  0
VERTEX
  5
4FB
330
4F9
100
AcDbEntity
  8
BEMA_UNG
 62
     7
100
AcDbVertex
100
AcDb2dVertex
 10
66.77322925458924
 20
-32.38322990528828
 30
0.0
  0
SEQEND
  5
4FC
330
4F9
100
AcDbEntity
  8
BEMA_UNG
  0
POLYLINE
  5
4FD
330
1F
100
AcDbEntity
  8
BEMA_UNG
 62
     7
100
AcDb2dPolyline
 66
     1
 10
0.0
 20
0.0
 30
0.0
  0
VERTEX
  5
4FE
330
4FD
100
AcDbEntity
  8
BEMA_UNG
 62
     7
100
AcDbVertex
100
AcDb2dVertex
 10
66.82404444651918
 20
-30.04073568476223
 30
0.0
  0
VERTEX
  5
4FF
330
4FD
100
AcDbEntity
  8
BEMA_UNG
 62
     7
100
AcDbVertex
100
AcDb2dVertex
 10
66.82404444651918
 20
-32.76890859929209
 30
0.0
  0
SEQEND
  5
500
330
4FD
100
AcDbEntity
  8
BEMA_UNG
  0
POLYLINE
  5
501
330
1F
100
AcDbEntity
  8
BEMA_UNG
 62
     7
100
AcDb2dPolyline
 66
     1
 10
0.0
 20
0.0
 30
0.0
  0
VERTEX
  5
502
330
501
100
AcDbEntity
  8
BEMA_UNG
 62
     7
100
AcDbVertex
100
AcDb2dVertex
 10
66.87451512867331
 20
-30.04073568476223
 30
0.0
  0
VERTEX
  5
503
330
501
100
AcDbEntity
  8
BEMA_UNG
 62
     7
100
AcDbVertex
100
AcDb2dVertex
 10
66.87451512867331
 20
-33.1551040579596
 30
0.0
  0
SEQEND
  5
504
330
501
100
AcDbEntity
  8
BEMA_UNG
  0
POLYLINE
  5
505
330
1F
100
AcDbEntity
  8
BEMA_UNG
 62
     7
100
AcDb2dPolyline
 66
     1
 10
0.0
 20
0.0
 30
0.0
  0
VERTEX
  5
506
330
505
100
AcDbEntity
  8
BEMA_UNG
 62
     7
100
AcDbVertex
100
AcDb2dVertex
 10
66.92533032060325
 20
-30.04073568476223
 30
0.0
  0
VERTEX
  5
507
330
505
100
AcDbEntity
  8
BEMA_UNG
 62
     7
100
AcDbVertex
100
AcDb2dVertex
 10
66.92533032060325
 20
-33.54026598729971
 30
0.0
  0
SEQEND
  5
508
330
505
100
AcDbEntity
  8
BEMA_UNG
  0
POLYLINE
  5
509
330
1F
100
AcDbEntity
  8
BEMA_UNG
 62
     7
100
AcDb2dPolyline
 66
     1
 10
0.0
 20
0.0
 30
0.0
  0
VERTEX
  5
50A
330
509
100
AcDbEntity
  8
BEMA_UNG
 62
     7
100
AcDbVertex
100
AcDb2dVertex
 10
51.92761399598074
 20
-8.10114737784691
 30
0.0
  0
VERTEX
  5
50B
330
509
100
AcDbEntity
  8
BEMA_UNG
 62
     7
100
AcDbVertex
100
AcDb2dVertex
 10
51.92761399598074
 20
-46.72775569500126
 30
0.0
  0
SEQEND
  5
50C
330
509
100
AcDbEntity
  8
BEMA_UNG
  0
POLYLINE
  5
50D
330
1F
100
AcDbEntity
  8
BEMA_UNG
 62
     7
100
AcDb2dPolyline
 66
     1
 10
0.0
 20
0.0
 30
0.0
  0
VERTEX
  5
50E
330
50D
100
AcDbEntity
  8
BEMA_UNG
 62
     7
100
AcDbVertex
100
AcDb2dVertex
 10
-0.069418719822928
 20
-29.91102775417497
 30
0.0
  0
VERTEX
  5
50F
330
50D
100
AcDbEntity
  8
BEMA_UNG
 62
     7
100
AcDbVertex
100
AcDb2dVertex
 10
-0.069418719822928
 20
-46.72775569500126
 30
0.0
  0
SEQEND
  5
510
330
50D
100
AcDbEntity
  8
BEMA_UNG
  0
POLYLINE
  5
511
330
1F
100
AcDbEntity
  8
BEMA_UNG
 62
     7
100
AcDb2dPolyline
 66
     1
 10
0.0
 20
0.0
 30
0.0
  0
VERTEX
  5
512
330
511
100
AcDbEntity
  8
BEMA_UNG
 62
     7
100
AcDbVertex
100
AcDb2dVertex
 10
51.92761399598074
 20
-44.7278764465045
 30
0.0
  0
VERTEX
  5
513
330
511
100
AcDbEntity
  8
BEMA_UNG
 62
     7
100
AcDbVertex
100
AcDb2dVertex
 10
-0.069418719822928
 20
-44.7278764465045
 30
0.0
  0
SEQEND
  5
514
330
511
100
AcDbEntity
  8
BEMA_UNG
  0
POLYLINE
  5
515
330
1F
100
AcDbEntity
  8
BEMA_UNG
 62
     7
100
AcDb2dPolyline
 66
     1
 10
0.0
 20
0.0
 30
0.0
  0
VERTEX
  5
516
330
515
100
AcDbEntity
  8
BEMA_UNG
 62
     7
100
AcDbVertex
100
AcDb2dVertex
 10
51.92761399598074
 20
-44.7278764465045
 30
0.0
  0
VERTEX
  5
517
330
515
100
AcDbEntity
  8
BEMA_UNG
 62
     7
100
AcDbVertex
100
AcDb2dVertex
 10
48.42739467389166
 20
-44.26709462137713
 30
0.0
  0
VERTEX
  5
518
330
515
100
AcDbEntity
  8
BEMA_UNG
 62
     7
100
AcDbVertex
100
AcDb2dVertex
 10
48.42739467389166
 20
-45.18831376185608
 30
0.0
  0
VERTEX
  5
519
330
515
100
AcDbEntity
  8
BEMA_UNG
 62
     7
100
AcDbVertex
100
AcDb2dVertex
 10
51.92761399598074
 20
-44.7278764465045
 30
0.0
  0
SEQEND
  5
51A
330
515
100
AcDbEntity
  8
BEMA_UNG
  0
POLYLINE
  5
51B
330
1F
100
AcDbEntity
  8
BEMA_UNG
 62
     7
100
AcDb2dPolyline
 66
     1
 10
0.0
 20
0.0
 30
0.0
  0
VERTEX
  5
51C
330
51B
100
AcDbEntity
  8
BEMA_UNG
 62
     7
100
AcDbVertex
100
AcDb2dVertex
 10
48.42739467389166
 20
-44.27019520935929
 30
0.0
  0
VERTEX
  5
51D
330
51B
100
AcDbEntity
  8
BEMA_UNG
 62
     7
100
AcDbVertex
100
AcDb2dVertex
 10
48.45495545595535
 20
-44.27019520935929
 30
0.0
  0
SEQEND
  5
51E
330
51B
100
AcDbEntity
  8
BEMA_UNG
  0
POLYLINE
  5
51F
330
1F
100
AcDbEntity
  8
BEMA_UNG
 62
     7
100
AcDb2dPolyline
 66
     1
 10
0.0
 20
0.0
 30
0.0
  0
VERTEX
  5
520
330
51F
100
AcDbEntity
  8
BEMA_UNG
 62
     7
100
AcDbVertex
100
AcDb2dVertex
 10
48.42739467389166
 20
-44.27019520935929
 30
0.0
  0
VERTEX
  5
521
330
51F
100
AcDbEntity
  8
BEMA_UNG
 62
     7
100
AcDbVertex
100
AcDb2dVertex
 10
48.45495545595535
 20
-44.27019520935929
 30
0.0
  0
SEQEND
  5
522
330
51F
100
AcDbEntity
  8
BEMA_UNG
  0
POLYLINE
  5
523
330
1F
100
AcDbEntity
  8
BEMA_UNG
 62
     7
100
AcDb2dPolyline
 66
     1
 10
0.0
 20
0.0
 30
0.0
  0
VERTEX
  5
524
330
523
100
AcDbEntity
  8
BEMA_UNG
 62
     7
100
AcDbVertex
100
AcDb2dVertex
 10
48.42739467389166
 20
-44.32152716595292
 30
0.0
  0
VERTEX
  5
525
330
523
100
AcDbEntity
  8
BEMA_UNG
 62
     7
100
AcDbVertex
100
AcDb2dVertex
 10
48.84011738529547
 20
-44.32152716595292
 30
0.0
  0
SEQEND
  5
526
330
523
100
AcDbEntity
  8
BEMA_UNG
  0
POLYLINE
  5
527
330
1F
100
AcDbEntity
  8
BEMA_UNG
 62
     7
100
AcDb2dPolyline
 66
     1
 10
0.0
 20
0.0
 30
0.0
  0
VERTEX
  5
528
330
527
100
AcDbEntity
  8
BEMA_UNG
 62
     7
100
AcDbVertex
100
AcDb2dVertex
 10
48.42739467389166
 20
-44.37217010299496
 30
0.0
  0
VERTEX
  5
529
330
527
100
AcDbEntity
  8
BEMA_UNG
 62
     7
100
AcDbVertex
100
AcDb2dVertex
 10
49.22631284396297
 20
-44.37217010299496
 30
0.0
  0
SEQEND
  5
52A
330
527
100
AcDbEntity
  8
BEMA_UNG
  0
POLYLINE
  5
52B
330
1F
100
AcDbEntity
  8
BEMA_UNG
 62
     7
100
AcDb2dPolyline
 66
     1
 10
0.0
 20
0.0
 30
0.0
  0
VERTEX
  5
52C
330
52B
100
AcDbEntity
  8
BEMA_UNG
 62
     7
100
AcDbVertex
100
AcDb2dVertex
 10
48.42739467389166
 20
-44.42298529492489
 30
0.0
  0
VERTEX
  5
52D
330
52B
100
AcDbEntity
  8
BEMA_UNG
 62
     7
100
AcDbVertex
100
AcDb2dVertex
 10
49.61199153796679
 20
-44.42298529492489
 30
0.0
  0
SEQEND
  5
52E
330
52B
100
AcDbEntity
  8
BEMA_UNG
  0
POLYLINE
  5
52F
330
1F
100
AcDbEntity
  8
BEMA_UNG
 62
     7
100
AcDb2dPolyline
 66
     1
 10
0.0
 20
0.0
 30
0.0
  0
VERTEX
  5
530
330
52F
100
AcDbEntity
  8
BEMA_UNG
 62
     7
100
AcDbVertex
100
AcDb2dVertex
 10
48.42739467389166
 20
-44.47380048685483
 30
0.0
  0
VERTEX
  5
531
330
52F
100
AcDbEntity
  8
BEMA_UNG
 62
     7
100
AcDbVertex
100
AcDb2dVertex
 10
49.99835925152219
 20
-44.47380048685483
 30
0.0
  0
SEQEND
  5
532
330
52F
100
AcDbEntity
  8
BEMA_UNG
  0
POLYLINE
  5
533
330
1F
100
AcDbEntity
  8
BEMA_UNG
 62
     7
100
AcDb2dPolyline
 66
     1
 10
0.0
 20
0.0
 30
0.0
  0
VERTEX
  5
534
330
533
100
AcDbEntity
  8
BEMA_UNG
 62
     7
100
AcDbVertex
100
AcDb2dVertex
 10
48.42739467389166
 20
-44.52461567878476
 30
0.0
  0
VERTEX
  5
535
330
533
100
AcDbEntity
  8
BEMA_UNG
 62
     7
100
AcDbVertex
100
AcDb2dVertex
 10
50.3842102004139
 20
-44.52461567878476
 30
0.0
  0
SEQEND
  5
536
330
533
100
AcDbEntity
  8
BEMA_UNG
  0
POLYLINE
  5
537
330
1F
100
AcDbEntity
  8
BEMA_UNG
 62
     7
100
AcDb2dPolyline
 66
     1
 10
0.0
 20
0.0
 30
0.0
  0
VERTEX
  5
538
330
537
100
AcDbEntity
  8
BEMA_UNG
 62
     7
100
AcDbVertex
100
AcDb2dVertex
 10
48.42739467389166
 20
-44.5754308707147
 30
0.0
  0
VERTEX
  5
539
330
537
100
AcDbEntity
  8
BEMA_UNG
 62
     7
100
AcDbVertex
100
AcDb2dVertex
 10
50.76971663952981
 20
-44.5754308707147
 30
0.0
  0
SEQEND
  5
53A
330
537
100
AcDbEntity
  8
BEMA_UNG
  0
POLYLINE
  5
53B
330
1F
100
AcDbEntity
  8
BEMA_UNG
 62
     7
100
AcDb2dPolyline
 66
     1
 10
0.0
 20
0.0
 30
0.0
  0
VERTEX
  5
53C
330
53B
100
AcDbEntity
  8
BEMA_UNG
 62
     7
100
AcDbVertex
100
AcDb2dVertex
 10
48.42739467389166
 20
-44.62624606264463
 30
0.0
  0
VERTEX
  5
53D
330
53B
100
AcDbEntity
  8
BEMA_UNG
 62
     7
100
AcDbVertex
100
AcDb2dVertex
 10
51.15539533353362
 20
-44.62624606264463
 30
0.0
  0
SEQEND
  5
53E
330
53B
100
AcDbEntity
  8
BEMA_UNG
  0
POLYLINE
  5
53F
330
1F
100
AcDbEntity
  8
BEMA_UNG
 62
     7
100
AcDb2dPolyline
 66
     1
 10
0.0
 20
0.0
 30
0.0
  0
VERTEX
  5
540
330
53F
100
AcDbEntity
  8
BEMA_UNG
 62
     7
100
AcDbVertex
100
AcDb2dVertex
 10
48.42739467389166
 20
-44.67706125457457
 30
0.0
  0
VERTEX
  5
541
330
53F
100
AcDbEntity
  8
BEMA_UNG
 62
     7
100
AcDbVertex
100
AcDb2dVertex
 10
51.54176304708903
 20
-44.67706125457457
 30
0.0
  0
SEQEND
  5
542
330
53F
100
AcDbEntity
  8
BEMA_UNG
  0
POLYLINE
  5
543
330
1F
100
AcDbEntity
  8
BEMA_UNG
 62
     7
100
AcDb2dPolyline
 66
     1
 10
0.0
 20
0.0
 30
0.0
  0
VERTEX
  5
544
330
543
100
AcDbEntity
  8
BEMA_UNG
 62
     7
100
AcDbVertex
100
AcDb2dVertex
 10
48.42739467389166
 20
-44.7278764465045
 30
0.0
  0
VERTEX
  5
545
330
543
100
AcDbEntity
  8
BEMA_UNG
 62
     7
100
AcDbVertex
100
AcDb2dVertex
 10
51.92761399598074
 20
-44.7278764465045
 30
0.0
  0
SEQEND
  5
546
330
543
100
AcDbEntity
  8
BEMA_UNG
  0
POLYLINE
  5
547
330
1F
100
AcDbEntity
  8
BEMA_UNG
 62
     7
100
AcDb2dPolyline
 66
     1
 10
0.0
 20
0.0
 30
0.0
  0
VERTEX
  5
548
330
547
100
AcDbEntity
  8
BEMA_UNG
 62
     7
100
AcDbVertex
100
AcDb2dVertex
 10
48.42739467389166
 20
-45.18469640921022
 30
0.0
  0
VERTEX
  5
549
330
547
100
AcDbEntity
  8
BEMA_UNG
 62
     7
100
AcDbVertex
100
AcDb2dVertex
 10
48.45495545595535
 20
-45.18469640921022
 30
0.0
  0
SEQEND
  5
54A
330
547
100
AcDbEntity
  8
BEMA_UNG
  0
POLYLINE
  5
54B
330
1F
100
AcDbEntity
  8
BEMA_UNG
 62
     7
100
AcDb2dPolyline
 66
     1
 10
0.0
 20
0.0
 30
0.0
  0
VERTEX
  5
54C
330
54B
100
AcDbEntity
  8
BEMA_UNG
 62
     7
100
AcDbVertex
100
AcDb2dVertex
 10
48.42739467389166
 20
-45.18469640921022
 30
0.0
  0
VERTEX
  5
54D
330
54B
100
AcDbEntity
  8
BEMA_UNG
 62
     7
100
AcDbVertex
100
AcDb2dVertex
 10
48.45495545595535
 20
-45.18469640921022
 30
0.0
  0
SEQEND
  5
54E
330
54B
100
AcDbEntity
  8
BEMA_UNG
  0
POLYLINE
  5
54F
330
1F
100
AcDbEntity
  8
BEMA_UNG
 62
     7
100
AcDb2dPolyline
 66
     1
 10
0.0
 20
0.0
 30
0.0
  0
VERTEX
  5
550
330
54F
100
AcDbEntity
  8
BEMA_UNG
 62
     7
100
AcDbVertex
100
AcDb2dVertex
 10
48.42739467389166
 20
-45.13388121728028
 30
0.0
  0
VERTEX
  5
551
330
54F
100
AcDbEntity
  8
BEMA_UNG
 62
     7
100
AcDbVertex
100
AcDb2dVertex
 10
48.84011738529547
 20
-45.13388121728028
 30
0.0
  0
SEQEND
  5
552
330
54F
100
AcDbEntity
  8
BEMA_UNG
  0
POLYLINE
  5
553
330
1F
100
AcDbEntity
  8
BEMA_UNG
 62
     7
100
AcDb2dPolyline
 66
     1
 10
0.0
 20
0.0
 30
0.0
  0
VERTEX
  5
554
330
553
100
AcDbEntity
  8
BEMA_UNG
 62
     7
100
AcDbVertex
100
AcDb2dVertex
 10
48.42739467389166
 20
-45.08306602535035
 30
0.0
  0
VERTEX
  5
555
330
553
100
AcDbEntity
  8
BEMA_UNG
 62
     7
100
AcDbVertex
100
AcDb2dVertex
 10
49.22631284396297
 20
-45.08306602535035
 30
0.0
  0
SEQEND
  5
556
330
553
100
AcDbEntity
  8
BEMA_UNG
  0
POLYLINE
  5
557
330
1F
100
AcDbEntity
  8
BEMA_UNG
 62
     7
100
AcDb2dPolyline
 66
     1
 10
0.0
 20
0.0
 30
0.0
  0
VERTEX
  5
558
330
557
100
AcDbEntity
  8
BEMA_UNG
 62
     7
100
AcDbVertex
100
AcDb2dVertex
 10
48.42739467389166
 20
-45.03225083342041
 30
0.0
  0
VERTEX
  5
559
330
557
100
AcDbEntity
  8
BEMA_UNG
 62
     7
100
AcDbVertex
100
AcDb2dVertex
 10
49.61199153796679
 20
-45.03225083342041
 30
0.0
  0
SEQEND
  5
55A
330
557
100
AcDbEntity
  8
BEMA_UNG
  0
POLYLINE
  5
55B
330
1F
100
AcDbEntity
  8
BEMA_UNG
 62
     7
100
AcDb2dPolyline
 66
     1
 10
0.0
 20
0.0
 30
0.0
  0
VERTEX
  5
55C
330
55B
100
AcDbEntity
  8
BEMA_UNG
 62
     7
100
AcDbVertex
100
AcDb2dVertex
 10
48.42739467389166
 20
-44.98143564149048
 30
0.0
  0
VERTEX
  5
55D
330
55B
100
AcDbEntity
  8
BEMA_UNG
 62
     7
100
AcDbVertex
100
AcDb2dVertex
 10
49.99835925152219
 20
-44.98143564149048
 30
0.0
  0
SEQEND
  5
55E
330
55B
100
AcDbEntity
  8
BEMA_UNG
  0
POLYLINE
  5
55F
330
1F
100
AcDbEntity
  8
BEMA_UNG
 62
     7
100
AcDb2dPolyline
 66
     1
 10
0.0
 20
0.0
 30
0.0
  0
VERTEX
  5
560
330
55F
100
AcDbEntity
  8
BEMA_UNG
 62
     7
100
AcDbVertex
100
AcDb2dVertex
 10
48.42739467389166
 20
-44.93062044956054
 30
0.0
  0
VERTEX
  5
561
330
55F
100
AcDbEntity
  8
BEMA_UNG
 62
     7
100
AcDbVertex
100
AcDb2dVertex
 10
50.3842102004139
 20
-44.93062044956054
 30
0.0
  0
SEQEND
  5
562
330
55F
100
AcDbEntity
  8
BEMA_UNG
  0
POLYLINE
  5
563
330
1F
100
AcDbEntity
  8
BEMA_UNG
 62
     7
100
AcDb2dPolyline
 66
     1
 10
0.0
 20
0.0
 30
0.0
  0
VERTEX
  5
564
330
563
100
AcDbEntity
  8
BEMA_UNG
 62
     7
100
AcDbVertex
100
AcDb2dVertex
 10
48.42739467389166
 20
-44.87980525763061
 30
0.0
  0
VERTEX
  5
565
330
563
100
AcDbEntity
  8
BEMA_UNG
 62
     7
100
AcDbVertex
100
AcDb2dVertex
 10
50.76971663952981
 20
-44.87980525763061
 30
0.0
  0
SEQEND
  5
566
330
563
100
AcDbEntity
  8
BEMA_UNG
  0
POLYLINE
  5
567
330
1F
100
AcDbEntity
  8
BEMA_UNG
 62
     7
100
AcDb2dPolyline
 66
     1
 10
0.0
 20
0.0
 30
0.0
  0
VERTEX
  5
568
330
567
100
AcDbEntity
  8
BEMA_UNG
 62
     7
100
AcDbVertex
100
AcDb2dVertex
 10
48.42739467389166
 20
-44.82899006570067
 30
0.0
  0
VERTEX
  5
569
330
567
100
AcDbEntity
  8
BEMA_UNG
 62
     7
100
AcDbVertex
100
AcDb2dVertex
 10
51.15539533353362
 20
-44.82899006570067
 30
0.0
  0
SEQEND
  5
56A
330
567
100
AcDbEntity
  8
BEMA_UNG
  0
POLYLINE
  5
56B
330
1F
100
AcDbEntity
  8
BEMA_UNG
 62
     7
100
AcDb2dPolyline
 66
     1
 10
0.0
 20
0.0
 30
0.0
  0
VERTEX
  5
56C
330
56B
100
AcDbEntity
  8
BEMA_UNG
 62
     7
100
AcDbVertex
100
AcDb2dVertex
 10
48.42739467389166
 20
-44.77869163843443
 30
0.0
  0
VERTEX
  5
56D
330
56B
100
AcDbEntity
  8
BEMA_UNG
 62
     7
100
AcDbVertex
100
AcDb2dVertex
 10
51.54176304708903
 20
-44.77869163843443
 30
0.0
  0
SEQEND
  5
56E
330
56B
100
AcDbEntity
  8
BEMA_UNG
  0
POLYLINE
  5
56F
330
1F
100
AcDbEntity
  8
BEMA_UNG
 62
     7
100
AcDb2dPolyline
 66
     1
 10
0.0
 20
0.0
 30
0.0
  0
VERTEX
  5
570
330
56F
100
AcDbEntity
  8
BEMA_UNG
 62
     7
100
AcDbVertex
100
AcDb2dVertex
 10
48.42739467389166
 20
-44.7278764465045
 30
0.0
  0
VERTEX
  5
571
330
56F
100
AcDbEntity
  8
BEMA_UNG
 62
     7
100
AcDbVertex
100
AcDb2dVertex
 10
51.92761399598074
 20
-44.7278764465045
 30
0.0
  0
SEQEND
  5
572
330
56F
100
AcDbEntity
  8
BEMA_UNG
  0
POLYLINE
  5
573
330
1F
100
AcDbEntity
  8
BEMA_UNG
 62
     7
100
AcDb2dPolyline
 66
     1
 10
0.0
 20
0.0
 30
0.0
  0
VERTEX
  5
574
330
573
100
AcDbEntity
  8
BEMA_UNG
 62
     7
100
AcDbVertex
100
AcDb2dVertex
 10
-0.069418719822928
 20
-44.7278764465045
 30
0.0
  0
VERTEX
  5
575
330
573
100
AcDbEntity
  8
BEMA_UNG
 62
     7
100
AcDbVertex
100
AcDb2dVertex
 10
3.430111582714555
 20
-45.18831376185608
 30
0.0
  0
VERTEX
  5
576
330
573
100
AcDbEntity
  8
BEMA_UNG
 62
     7
100
AcDbVertex
100
AcDb2dVertex
 10
3.430111582714555
 20
-44.26709462137713
 30
0.0
  0
VERTEX
  5
577
330
573
100
AcDbEntity
  8
BEMA_UNG
 62
     7
100
AcDbVertex
100
AcDb2dVertex
 10
-0.069418719822928
 20
-44.7278764465045
 30
0.0
  0
SEQEND
  5
578
330
573
100
AcDbEntity
  8
BEMA_UNG
  0
POLYLINE
  5
579
330
1F
100
AcDbEntity
  8
BEMA_UNG
 62
     7
100
AcDb2dPolyline
 66
     1
 10
0.0
 20
0.0
 30
0.0
  0
VERTEX
  5
57A
330
579
100
AcDbEntity
  8
BEMA_UNG
 62
     7
100
AcDbVertex
100
AcDb2dVertex
 10
3.430111582714555
 20
-45.18469640921022
 30
0.0
  0
VERTEX
  5
57B
330
579
100
AcDbEntity
  8
BEMA_UNG
 62
     7
100
AcDbVertex
100
AcDb2dVertex
 10
3.403067565314556
 20
-45.18469640921022
 30
0.0
  0
SEQEND
  5
57C
330
579
100
AcDbEntity
  8
BEMA_UNG
  0
POLYLINE
  5
57D
330
1F
100
AcDbEntity
  8
BEMA_UNG
 62
     7
100
AcDb2dPolyline
 66
     1
 10
0.0
 20
0.0
 30
0.0
  0
VERTEX
  5
57E
330
57D
100
AcDbEntity
  8
BEMA_UNG
 62
     7
100
AcDbVertex
100
AcDb2dVertex
 10
3.430111582714555
 20
-45.18469640921022
 30
0.0
  0
VERTEX
  5
57F
330
57D
100
AcDbEntity
  8
BEMA_UNG
 62
     7
100
AcDbVertex
100
AcDb2dVertex
 10
3.403067565314556
 20
-45.18469640921022
 30
0.0
  0
SEQEND
  5
580
330
57D
100
AcDbEntity
  8
BEMA_UNG
  0
POLYLINE
  5
581
330
1F
100
AcDbEntity
  8
BEMA_UNG
 62
     7
100
AcDb2dPolyline
 66
     1
 10
0.0
 20
0.0
 30
0.0
  0
VERTEX
  5
582
330
581
100
AcDbEntity
  8
BEMA_UNG
 62
     7
100
AcDbVertex
100
AcDb2dVertex
 10
3.430111582714555
 20
-45.13388121728028
 30
0.0
  0
VERTEX
  5
583
330
581
100
AcDbEntity
  8
BEMA_UNG
 62
     7
100
AcDbVertex
100
AcDb2dVertex
 10
3.017388871310745
 20
-45.13388121728028
 30
0.0
  0
SEQEND
  5
584
330
581
100
AcDbEntity
  8
BEMA_UNG
  0
POLYLINE
  5
585
330
1F
100
AcDbEntity
  8
BEMA_UNG
 62
     7
100
AcDb2dPolyline
 66
     1
 10
0.0
 20
0.0
 30
0.0
  0
VERTEX
  5
586
330
585
100
AcDbEntity
  8
BEMA_UNG
 62
     7
100
AcDbVertex
100
AcDb2dVertex
 10
3.430111582714555
 20
-45.08306602535035
 30
0.0
  0
VERTEX
  5
587
330
585
100
AcDbEntity
  8
BEMA_UNG
 62
     7
100
AcDbVertex
100
AcDb2dVertex
 10
2.631537922419036
 20
-45.08306602535035
 30
0.0
  0
SEQEND
  5
588
330
585
100
AcDbEntity
  8
BEMA_UNG
  0
POLYLINE
  5
589
330
1F
100
AcDbEntity
  8
BEMA_UNG
 62
     7
100
AcDb2dPolyline
 66
     1
 10
0.0
 20
0.0
 30
0.0
  0
VERTEX
  5
58A
330
589
100
AcDbEntity
  8
BEMA_UNG
 62
     7
100
AcDbVertex
100
AcDb2dVertex
 10
3.430111582714555
 20
-45.03225083342041
 30
0.0
  0
VERTEX
  5
58B
330
589
100
AcDbEntity
  8
BEMA_UNG
 62
     7
100
AcDbVertex
100
AcDb2dVertex
 10
2.245859228415225
 20
-45.03225083342041
 30
0.0
  0
SEQEND
  5
58C
330
589
100
AcDbEntity
  8
BEMA_UNG
  0
POLYLINE
  5
58D
330
1F
100
AcDbEntity
  8
BEMA_UNG
 62
     7
100
AcDb2dPolyline
 66
     1
 10
0.0
 20
0.0
 30
0.0
  0
VERTEX
  5
58E
330
58D
100
AcDbEntity
  8
BEMA_UNG
 62
     7
100
AcDbVertex
100
AcDb2dVertex
 10
3.430111582714555
 20
-44.98143564149048
 30
0.0
  0
VERTEX
  5
58F
330
58D
100
AcDbEntity
  8
BEMA_UNG
 62
     7
100
AcDbVertex
100
AcDb2dVertex
 10
1.859663769747719
 20
-44.98143564149048
 30
0.0
  0
SEQEND
  5
590
330
58D
100
AcDbEntity
  8
BEMA_UNG
  0
POLYLINE
  5
591
330
1F
100
AcDbEntity
  8
BEMA_UNG
 62
     7
100
AcDb2dPolyline
 66
     1
 10
0.0
 20
0.0
 30
0.0
  0
VERTEX
  5
592
330
591
100
AcDbEntity
  8
BEMA_UNG
 62
     7
100
AcDbVertex
100
AcDb2dVertex
 10
3.430111582714555
 20
-44.93062044956054
 30
0.0
  0
VERTEX
  5
593
330
591
100
AcDbEntity
  8
BEMA_UNG
 62
     7
100
AcDbVertex
100
AcDb2dVertex
 10
1.473985075743908
 20
-44.93062044956054
 30
0.0
  0
SEQEND
  5
594
330
591
100
AcDbEntity
  8
BEMA_UNG
  0
POLYLINE
  5
595
330
1F
100
AcDbEntity
  8
BEMA_UNG
 62
     7
100
AcDb2dPolyline
 66
     1
 10
0.0
 20
0.0
 30
0.0
  0
VERTEX
  5
596
330
595
100
AcDbEntity
  8
BEMA_UNG
 62
     7
100
AcDbVertex
100
AcDb2dVertex
 10
3.430111582714555
 20
-44.87980525763061
 30
0.0
  0
VERTEX
  5
597
330
595
100
AcDbEntity
  8
BEMA_UNG
 62
     7
100
AcDbVertex
100
AcDb2dVertex
 10
1.088134126852199
 20
-44.87980525763061
 30
0.0
  0
SEQEND
  5
598
330
595
100
AcDbEntity
  8
BEMA_UNG
  0
POLYLINE
  5
599
330
1F
100
AcDbEntity
  8
BEMA_UNG
 62
     7
100
AcDb2dPolyline
 66
     1
 10
0.0
 20
0.0
 30
0.0
  0
VERTEX
  5
59A
330
599
100
AcDbEntity
  8
BEMA_UNG
 62
     7
100
AcDbVertex
100
AcDb2dVertex
 10
3.430111582714555
 20
-44.82899006570067
 30
0.0
  0
VERTEX
  5
59B
330
599
100
AcDbEntity
  8
BEMA_UNG
 62
     7
100
AcDbVertex
100
AcDb2dVertex
 10
0.7024554328483883
 20
-44.82899006570067
 30
0.0
  0
SEQEND
  5
59C
330
599
100
AcDbEntity
  8
BEMA_UNG
  0
POLYLINE
  5
59D
330
1F
100
AcDbEntity
  8
BEMA_UNG
 62
     7
100
AcDb2dPolyline
 66
     1
 10
0.0
 20
0.0
 30
0.0
  0
VERTEX
  5
59E
330
59D
100
AcDbEntity
  8
BEMA_UNG
 62
     7
100
AcDbVertex
100
AcDb2dVertex
 10
3.430111582714555
 20
-44.77869163843443
 30
0.0
  0
VERTEX
  5
59F
330
59D
100
AcDbEntity
  8
BEMA_UNG
 62
     7
100
AcDbVertex
100
AcDb2dVertex
 10
0.316259974180883
 20
-44.77869163843443
 30
0.0
  0
SEQEND
  5
5A0
330
59D
100
AcDbEntity
  8
BEMA_UNG
  0
POLYLINE
  5
5A1
330
1F
100
AcDbEntity
  8
BEMA_UNG
 62
     7
100
AcDb2dPolyline
 66
     1
 10
0.0
 20
0.0
 30
0.0
  0
VERTEX
  5
5A2
330
5A1
100
AcDbEntity
  8
BEMA_UNG
 62
     7
100
AcDbVertex
100
AcDb2dVertex
 10
3.430111582714555
 20
-44.7278764465045
 30
0.0
  0
VERTEX
  5
5A3
330
5A1
100
AcDbEntity
  8
BEMA_UNG
 62
     7
100
AcDbVertex
100
AcDb2dVertex
 10
-0.069418719822928
 20
-44.7278764465045
 30
0.0
  0
SEQEND
  5
5A4
330
5A1
100
AcDbEntity
  8
BEMA_UNG
  0
POLYLINE
  5
5A5
330
1F
100
AcDbEntity
  8
BEMA_UNG
 62
     7
100
AcDb2dPolyline
 66
     1
 10
0.0
 20
0.0
 30
0.0
  0
VERTEX
  5
5A6
330
5A5
100
AcDbEntity
  8
BEMA_UNG
 62
     7
100
AcDbVertex
100
AcDb2dVertex
 10
3.430111582714555
 20
-44.27019520935929
 30
0.0
  0
VERTEX
  5
5A7
330
5A5
100
AcDbEntity
  8
BEMA_UNG
 62
     7
100
AcDbVertex
100
AcDb2dVertex
 10
3.403067565314556
 20
-44.27019520935929
 30
0.0
  0
SEQEND
  5
5A8
330
5A5
100
AcDbEntity
  8
BEMA_UNG
  0
POLYLINE
  5
5A9
330
1F
100
AcDbEntity
  8
BEMA_UNG
 62
     7
100
AcDb2dPolyline
 66
     1
 10
0.0
 20
0.0
 30
0.0
  0
VERTEX
  5
5AA
330
5A9
100
AcDbEntity
  8
BEMA_UNG
 62
     7
100
AcDbVertex
100
AcDb2dVertex
 10
3.430111582714555
 20
-44.27019520935929
 30
0.0
  0
VERTEX
  5
5AB
330
5A9
100
AcDbEntity
  8
BEMA_UNG
 62
     7
100
AcDbVertex
100
AcDb2dVertex
 10
3.403067565314556
 20
-44.27019520935929
 30
0.0
  0
SEQEND
  5
5AC
330
5A9
100
AcDbEntity
  8
BEMA_UNG
  0
POLYLINE
  5
5AD
330
1F
100
AcDbEntity
  8
BEMA_UNG
 62
     7
100
AcDb2dPolyline
 66
     1
 10
0.0
 20
0.0
 30
0.0
  0
VERTEX
  5
5AE
330
5AD
100
AcDbEntity
  8
BEMA_UNG
 62
     7
100
AcDbVertex
100
AcDb2dVertex
 10
3.430111582714555
 20
-44.32152716595292
 30
0.0
  0
VERTEX
  5
5AF
330
5AD
100
AcDbEntity
  8
BEMA_UNG
 62
     7
100
AcDbVertex
100
AcDb2dVertex
 10
3.017388871310745
 20
-44.32152716595292
 30
0.0
  0
SEQEND
  5
5B0
330
5AD
100
AcDbEntity
  8
BEMA_UNG
  0
POLYLINE
  5
5B1
330
1F
100
AcDbEntity
  8
BEMA_UNG
 62
     7
100
AcDb2dPolyline
 66
     1
 10
0.0
 20
0.0
 30
0.0
  0
VERTEX
  5
5B2
330
5B1
100
AcDbEntity
  8
BEMA_UNG
 62
     7
100
AcDbVertex
100
AcDb2dVertex
 10
3.430111582714555
 20
-44.37217010299496
 30
0.0
  0
VERTEX
  5
5B3
330
5B1
100
AcDbEntity
  8
BEMA_UNG
 62
     7
100
AcDbVertex
100
AcDb2dVertex
 10
2.631537922419036
 20
-44.37217010299496
 30
0.0
  0
SEQEND
  5
5B4
330
5B1
100
AcDbEntity
  8
BEMA_UNG
  0
POLYLINE
  5
5B5
330
1F
100
AcDbEntity
  8
BEMA_UNG
 62
     7
100
AcDb2dPolyline
 66
     1
 10
0.0
 20
0.0
 30
0.0
  0
VERTEX
  5
5B6
330
5B5
100
AcDbEntity
  8
BEMA_UNG
 62
     7
100
AcDbVertex
100
AcDb2dVertex
 10
3.430111582714555
 20
-44.42298529492489
 30
0.0
  0
VERTEX
  5
5B7
330
5B5
100
AcDbEntity
  8
BEMA_UNG
 62
     7
100
AcDbVertex
100
AcDb2dVertex
 10
2.245859228415225
 20
-44.42298529492489
 30
0.0
  0
SEQEND
  5
5B8
330
5B5
100
AcDbEntity
  8
BEMA_UNG
  0
POLYLINE
  5
5B9
330
1F
100
AcDbEntity
  8
BEMA_UNG
 62
     7
100
AcDb2dPolyline
 66
     1
 10
0.0
 20
0.0
 30
0.0
  0
VERTEX
  5
5BA
330
5B9
100
AcDbEntity
  8
BEMA_UNG
 62
     7
100
AcDbVertex
100
AcDb2dVertex
 10
3.430111582714555
 20
-44.47380048685483
 30
0.0
  0
VERTEX
  5
5BB
330
5B9
100
AcDbEntity
  8
BEMA_UNG
 62
     7
100
AcDbVertex
100
AcDb2dVertex
 10
1.859663769747719
 20
-44.47380048685483
 30
0.0
  0
SEQEND
  5
5BC
330
5B9
100
AcDbEntity
  8
BEMA_UNG
  0
POLYLINE
  5
5BD
330
1F
100
AcDbEntity
  8
BEMA_UNG
 62
     7
100
AcDb2dPolyline
 66
     1
 10
0.0
 20
0.0
 30
0.0
  0
VERTEX
  5
5BE
330
5BD
100
AcDbEntity
  8
BEMA_UNG
 62
     7
100
AcDbVertex
100
AcDb2dVertex
 10
3.430111582714555
 20
-44.52461567878476
 30
0.0
  0
VERTEX
  5
5BF
330
5BD
100
AcDbEntity
  8
BEMA_UNG
 62
     7
100
AcDbVertex
100
AcDb2dVertex
 10
1.473985075743908
 20
-44.52461567878476
 30
0.0
  0
SEQEND
  5
5C0
330
5BD
100
AcDbEntity
  8
BEMA_UNG
  0
POLYLINE
  5
5C1
330
1F
100
AcDbEntity
  8
BEMA_UNG
 62
     7
100
AcDb2dPolyline
 66
     1
 10
0.0
 20
0.0
 30
0.0
  0
VERTEX
  5
5C2
330
5C1
100
AcDbEntity
  8
BEMA_UNG
 62
     7
100
AcDbVertex
100
AcDb2dVertex
 10
3.430111582714555
 20
-44.5754308707147
 30
0.0
  0
VERTEX
  5
5C3
330
5C1
100
AcDbEntity
  8
BEMA_UNG
 62
     7
100
AcDbVertex
100
AcDb2dVertex
 10
1.088134126852199
 20
-44.5754308707147
 30
0.0
  0
SEQEND
  5
5C4
330
5C1
100
AcDbEntity
  8
BEMA_UNG
  0
POLYLINE
  5
5C5
330
1F
100
AcDbEntity
  8
BEMA_UNG
 62
     7
100
AcDb2dPolyline
 66
     1
 10
0.0
 20
0.0
 30
0.0
  0
VERTEX
  5
5C6
330
5C5
100
AcDbEntity
  8
BEMA_UNG
 62
     7
100
AcDbVertex
100
AcDb2dVertex
 10
3.430111582714555
 20
-44.62624606264463
 30
0.0
  0
VERTEX
  5
5C7
330
5C5
100
AcDbEntity
  8
BEMA_UNG
 62
     7
100
AcDbVertex
100
AcDb2dVertex
 10
0.7024554328483883
 20
-44.62624606264463
 30
0.0
  0
SEQEND
  5
5C8
330
5C5
100
AcDbEntity
  8
BEMA_UNG
  0
POLYLINE
  5
5C9
330
1F
100
AcDbEntity
  8
BEMA_UNG
 62
     7
100
AcDb2dPolyline
 66
     1
 10
0.0
 20
0.0
 30
0.0
  0
VERTEX
  5
5CA
330
5C9
100
AcDbEntity
  8
BEMA_UNG
 62
     7
100
AcDbVertex
100
AcDb2dVertex
 10
3.430111582714555
 20
-44.67706125457457
 30
0.0
  0
VERTEX
  5
5CB
330
5C9
100
AcDbEntity
  8
BEMA_UNG
 62
     7
100
AcDbVertex
100
AcDb2dVertex
 10
0.316259974180883
 20
-44.67706125457457
 30
0.0
  0
SEQEND
  5
5CC
330
5C9
100
AcDbEntity
  8
BEMA_UNG
  0
POLYLINE
  5
5CD
330
1F
100
AcDbEntity
  8
BEMA_UNG
 62
     7
100
AcDb2dPolyline
 66
     1
 10
0.0
 20
0.0
 30
0.0
  0
VERTEX
  5
5CE
330
5CD
100
AcDbEntity
  8
BEMA_UNG
 62
     7
100
AcDbVertex
100
AcDb2dVertex
 10
3.430111582714555
 20
-44.7278764465045
 30
0.0
  0
VERTEX
  5
5CF
330
5CD
100
AcDbEntity
  8
BEMA_UNG
 62
     7
100
AcDbVertex
100
AcDb2dVertex
 10
-0.069418719822928
 20
-44.7278764465045
 30
0.0
  0
SEQEND
  5
5D0
330
5CD
100
AcDbEntity
  8
BEMA_UNG
  0
POLYLINE
  5
5D1
330
1F
100
AcDbEntity
  8
BEMA_UNG
 62
     7
100
AcDb2dPolyline
 66
     1
 10
0.0
 20
0.0
 30
0.0
  0
VERTEX
  5
5D2
330
5D1
100
AcDbEntity
  8
BEMA_UNG
 62
     7
100
AcDbVertex
100
AcDb2dVertex
 10
32.93048368414049
 20
-1.540819972248365
 30
0.0
  0
VERTEX
  5
5D3
330
5D1
100
AcDbEntity
  8
BEMA_UNG
 62
     7
100
AcDbVertex
100
AcDb2dVertex
 10
32.93048368414049
 20
12.57469294400411
 30
0.0
  0
SEQEND
  5
5D4
330
5D1
100
AcDbEntity
  8
BEMA_UNG
  0
POLYLINE
  5
5D5
330
1F
100
AcDbEntity
  8
BEMA_UNG
 62
     7
100
AcDb2dPolyline
 66
     1
 10
0.0
 20
0.0
 30
0.0
  0
VERTEX
  5
5D6
330
5D5
100
AcDbEntity
  8
BEMA_UNG
 62
     7
100
AcDbVertex
100
AcDb2dVertex
 10
-0.069418719822928
 20
-5.170230460261004
 30
0.0
  0
VERTEX
  5
5D7
330
5D5
100
AcDbEntity
  8
BEMA_UNG
 62
     7
100
AcDbVertex
100
AcDb2dVertex
 10
-0.069418719822928
 20
12.57469294400411
 30
0.0
  0
SEQEND
  5
5D8
330
5D5
100
AcDbEntity
  8
BEMA_UNG
  0
POLYLINE
  5
5D9
330
1F
100
AcDbEntity
  8
BEMA_UNG
 62
     7
100
AcDb2dPolyline
 66
     1
 10
0.0
 20
0.0
 30
0.0
  0
VERTEX
  5
5DA
330
5D9
100
AcDbEntity
  8
BEMA_UNG
 62
     7
100
AcDbVertex
100
AcDb2dVertex
 10
32.93048368414049
 20
10.57481369550735
 30
0.0
  0
VERTEX
  5
5DB
330
5D9
100
AcDbEntity
  8
BEMA_UNG
 62
     7
100
AcDbVertex
100
AcDb2dVertex
 10
-0.069418719822928
 20
10.57481369550735
 30
0.0
  0
SEQEND
  5
5DC
330
5D9
100
AcDbEntity
  8
BEMA_UNG
  0
POLYLINE
  5
5DD
330
1F
100
AcDbEntity
  8
BEMA_UNG
 62
     7
100
AcDb2dPolyline
 66
     1
 10
0.0
 20
0.0
 30
0.0
  0
VERTEX
  5
5DE
330
5DD
100
AcDbEntity
  8
BEMA_UNG
 62
     7
100
AcDbVertex
100
AcDb2dVertex
 10
32.93048368414049
 20
10.57481369550735
 30
0.0
  0
VERTEX
  5
5DF
330
5DD
100
AcDbEntity
  8
BEMA_UNG
 62
     7
100
AcDbVertex
100
AcDb2dVertex
 10
29.43026436205142
 20
11.03516488341498
 30
0.0
  0
VERTEX
  5
5E0
330
5DD
100
AcDbEntity
  8
BEMA_UNG
 62
     7
100
AcDbVertex
100
AcDb2dVertex
 10
29.43026436205142
 20
10.11368736060418
 30
0.0
  0
VERTEX
  5
5E1
330
5DD
100
AcDbEntity
  8
BEMA_UNG
 62
     7
100
AcDbVertex
100
AcDb2dVertex
 10
32.93048368414049
 20
10.57481369550735
 30
0.0
  0
SEQEND
  5
5E2
330
5DD
100
AcDbEntity
  8
BEMA_UNG
  0
POLYLINE
  5
5E3
330
1F
100
AcDbEntity
  8
BEMA_UNG
 62
     7
100
AcDb2dPolyline
 66
     1
 10
0.0
 20
0.0
 30
0.0
  0
VERTEX
  5
5E4
330
5E3
100
AcDbEntity
  8
BEMA_UNG
 62
     7
100
AcDbVertex
100
AcDb2dVertex
 10
29.43026436205142
 20
11.03163365821307
 30
0.0
  0
VERTEX
  5
5E5
330
5E3
100
AcDbEntity
  8
BEMA_UNG
 62
     7
100
AcDbVertex
100
AcDb2dVertex
 10
29.45748063433932
 20
11.03163365821307
 30
0.0
  0
SEQEND
  5
5E6
330
5E3
100
AcDbEntity
  8
BEMA_UNG
  0
POLYLINE
  5
5E7
330
1F
100
AcDbEntity
  8
BEMA_UNG
 62
     7
100
AcDb2dPolyline
 66
     1
 10
0.0
 20
0.0
 30
0.0
  0
VERTEX
  5
5E8
330
5E7
100
AcDbEntity
  8
BEMA_UNG
 62
     7
100
AcDbVertex
100
AcDb2dVertex
 10
29.43026436205142
 20
11.03163365821307
 30
0.0
  0
VERTEX
  5
5E9
330
5E7
100
AcDbEntity
  8
BEMA_UNG
 62
     7
100
AcDbVertex
100
AcDb2dVertex
 10
29.45748063433932
 20
11.03163365821307
 30
0.0
  0
SEQEND
  5
5EA
330
5E7
100
AcDbEntity
  8
BEMA_UNG
  0
POLYLINE
  5
5EB
330
1F
100
AcDbEntity
  8
BEMA_UNG
 62
     7
100
AcDb2dPolyline
 66
     1
 10
0.0
 20
0.0
 30
0.0
  0
VERTEX
  5
5EC
330
5EB
100
AcDbEntity
  8
BEMA_UNG
 62
     7
100
AcDbVertex
100
AcDb2dVertex
 10
29.43026436205142
 20
10.98081846628314
 30
0.0
  0
VERTEX
  5
5ED
330
5EB
100
AcDbEntity
  8
BEMA_UNG
 62
     7
100
AcDbVertex
100
AcDb2dVertex
 10
29.84367609300682
 20
10.98081846628314
 30
0.0
  0
SEQEND
  5
5EE
330
5EB
100
AcDbEntity
  8
BEMA_UNG
  0
POLYLINE
  5
5EF
330
1F
100
AcDbEntity
  8
BEMA_UNG
 62
     7
100
AcDb2dPolyline
 66
     1
 10
0.0
 20
0.0
 30
0.0
  0
VERTEX
  5
5F0
330
5EF
100
AcDbEntity
  8
BEMA_UNG
 62
     7
100
AcDbVertex
100
AcDb2dVertex
 10
29.43026436205142
 20
10.9300032743532
 30
0.0
  0
VERTEX
  5
5F1
330
5EF
100
AcDbEntity
  8
BEMA_UNG
 62
     7
100
AcDbVertex
100
AcDb2dVertex
 10
30.22935478701063
 20
10.9300032743532
 30
0.0
  0
SEQEND
  5
5F2
330
5EF
100
AcDbEntity
  8
BEMA_UNG
  0
POLYLINE
  5
5F3
330
1F
100
AcDbEntity
  8
BEMA_UNG
 62
     7
100
AcDb2dPolyline
 66
     1
 10
0.0
 20
0.0
 30
0.0
  0
VERTEX
  5
5F4
330
5F3
100
AcDbEntity
  8
BEMA_UNG
 62
     7
100
AcDbVertex
100
AcDb2dVertex
 10
29.43026436205142
 20
10.87927420986722
 30
0.0
  0
VERTEX
  5
5F5
330
5F3
100
AcDbEntity
  8
BEMA_UNG
 62
     7
100
AcDbVertex
100
AcDb2dVertex
 10
30.61555024567814
 20
10.87927420986722
 30
0.0
  0
SEQEND
  5
5F6
330
5F3
100
AcDbEntity
  8
BEMA_UNG
  0
POLYLINE
  5
5F7
330
1F
100
AcDbEntity
  8
BEMA_UNG
 62
     7
100
AcDb2dPolyline
 66
     1
 10
0.0
 20
0.0
 30
0.0
  0
VERTEX
  5
5F8
330
5F7
100
AcDbEntity
  8
BEMA_UNG
 62
     7
100
AcDbVertex
100
AcDb2dVertex
 10
29.43026436205142
 20
10.82845901793728
 30
0.0
  0
VERTEX
  5
5F9
330
5F7
100
AcDbEntity
  8
BEMA_UNG
 62
     7
100
AcDbVertex
100
AcDb2dVertex
 10
31.00122893968195
 20
10.82845901793728
 30
0.0
  0
SEQEND
  5
5FA
330
5F7
100
AcDbEntity
  8
BEMA_UNG
  0
POLYLINE
  5
5FB
330
1F
100
AcDbEntity
  8
BEMA_UNG
 62
     7
100
AcDb2dPolyline
 66
     1
 10
0.0
 20
0.0
 30
0.0
  0
VERTEX
  5
5FC
330
5FB
100
AcDbEntity
  8
BEMA_UNG
 62
     7
100
AcDbVertex
100
AcDb2dVertex
 10
29.43026436205142
 20
10.77764382600735
 30
0.0
  0
VERTEX
  5
5FD
330
5FB
100
AcDbEntity
  8
BEMA_UNG
 62
     7
100
AcDbVertex
100
AcDb2dVertex
 10
31.38707988857366
 20
10.77764382600735
 30
0.0
  0
SEQEND
  5
5FE
330
5FB
100
AcDbEntity
  8
BEMA_UNG
  0
POLYLINE
  5
5FF
330
1F
100
AcDbEntity
  8
BEMA_UNG
 62
     7
100
AcDb2dPolyline
 66
     1
 10
0.0
 20
0.0
 30
0.0
  0
VERTEX
  5
600
330
5FF
100
AcDbEntity
  8
BEMA_UNG
 62
     7
100
AcDbVertex
100
AcDb2dVertex
 10
29.43026436205142
 20
10.72682863407741
 30
0.0
  0
VERTEX
  5
601
330
5FF
100
AcDbEntity
  8
BEMA_UNG
 62
     7
100
AcDbVertex
100
AcDb2dVertex
 10
31.77275858257747
 20
10.72682863407741
 30
0.0
  0
SEQEND
  5
602
330
5FF
100
AcDbEntity
  8
BEMA_UNG
  0
POLYLINE
  5
603
330
1F
100
AcDbEntity
  8
BEMA_UNG
 62
     7
100
AcDb2dPolyline
 66
     1
 10
0.0
 20
0.0
 30
0.0
  0
VERTEX
  5
604
330
603
100
AcDbEntity
  8
BEMA_UNG
 62
     7
100
AcDbVertex
100
AcDb2dVertex
 10
29.43026436205142
 20
10.67644407936722
 30
0.0
  0
VERTEX
  5
605
330
603
100
AcDbEntity
  8
BEMA_UNG
 62
     7
100
AcDbVertex
100
AcDb2dVertex
 10
32.15895404124498
 20
10.67644407936722
 30
0.0
  0
SEQEND
  5
606
330
603
100
AcDbEntity
  8
BEMA_UNG
  0
POLYLINE
  5
607
330
1F
100
AcDbEntity
  8
BEMA_UNG
 62
     7
100
AcDb2dPolyline
 66
     1
 10
0.0
 20
0.0
 30
0.0
  0
VERTEX
  5
608
330
607
100
AcDbEntity
  8
BEMA_UNG
 62
     7
100
AcDbVertex
100
AcDb2dVertex
 10
29.43026436205142
 20
10.62562888743729
 30
0.0
  0
VERTEX
  5
609
330
607
100
AcDbEntity
  8
BEMA_UNG
 62
     7
100
AcDbVertex
100
AcDb2dVertex
 10
32.54463273524878
 20
10.62562888743729
 30
0.0
  0
SEQEND
  5
60A
330
607
100
AcDbEntity
  8
BEMA_UNG
  0
POLYLINE
  5
60B
330
1F
100
AcDbEntity
  8
BEMA_UNG
 62
     7
100
AcDb2dPolyline
 66
     1
 10
0.0
 20
0.0
 30
0.0
  0
VERTEX
  5
60C
330
60B
100
AcDbEntity
  8
BEMA_UNG
 62
     7
100
AcDbVertex
100
AcDb2dVertex
 10
29.43026436205142
 20
10.57481369550735
 30
0.0
  0
VERTEX
  5
60D
330
60B
100
AcDbEntity
  8
BEMA_UNG
 62
     7
100
AcDbVertex
100
AcDb2dVertex
 10
32.93048368414049
 20
10.57481369550735
 30
0.0
  0
SEQEND
  5
60E
330
60B
100
AcDbEntity
  8
BEMA_UNG
  0
POLYLINE
  5
60F
330
1F
100
AcDbEntity
  8
BEMA_UNG
 62
     7
100
AcDb2dPolyline
 66
     1
 10
0.0
 20
0.0
 30
0.0
  0
VERTEX
  5
610
330
60F
100
AcDbEntity
  8
BEMA_UNG
 62
     7
100
AcDbVertex
100
AcDb2dVertex
 10
29.43026436205142
 20
10.11721858580609
 30
0.0
  0
VERTEX
  5
611
330
60F
100
AcDbEntity
  8
BEMA_UNG
 62
     7
100
AcDbVertex
100
AcDb2dVertex
 10
29.45748063433932
 20
10.11721858580609
 30
0.0
  0
SEQEND
  5
612
330
60F
100
AcDbEntity
  8
BEMA_UNG
  0
POLYLINE
  5
613
330
1F
100
AcDbEntity
  8
BEMA_UNG
 62
     7
100
AcDb2dPolyline
 66
     1
 10
0.0
 20
0.0
 30
0.0
  0
VERTEX
  5
614
330
613
100
AcDbEntity
  8
BEMA_UNG
 62
     7
100
AcDbVertex
100
AcDb2dVertex
 10
29.43026436205142
 20
10.11721858580609
 30
0.0
  0
VERTEX
  5
615
330
613
100
AcDbEntity
  8
BEMA_UNG
 62
     7
100
AcDbVertex
100
AcDb2dVertex
 10
29.45748063433932
 20
10.11721858580609
 30
0.0
  0
SEQEND
  5
616
330
613
100
AcDbEntity
  8
BEMA_UNG
  0
POLYLINE
  5
617
330
1F
100
AcDbEntity
  8
BEMA_UNG
 62
     7
100
AcDb2dPolyline
 66
     1
 10
0.0
 20
0.0
 30
0.0
  0
VERTEX
  5
618
330
617
100
AcDbEntity
  8
BEMA_UNG
 62
     7
100
AcDbVertex
100
AcDb2dVertex
 10
29.43026436205142
 20
10.16803377773603
 30
0.0
  0
VERTEX
  5
619
330
617
100
AcDbEntity
  8
BEMA_UNG
 62
     7
100
AcDbVertex
100
AcDb2dVertex
 10
29.84367609300682
 20
10.16803377773603
 30
0.0
  0
SEQEND
  5
61A
330
617
100
AcDbEntity
  8
BEMA_UNG
  0
POLYLINE
  5
61B
330
1F
100
AcDbEntity
  8
BEMA_UNG
 62
     7
100
AcDb2dPolyline
 66
     1
 10
0.0
 20
0.0
 30
0.0
  0
VERTEX
  5
61C
330
61B
100
AcDbEntity
  8
BEMA_UNG
 62
     7
100
AcDbVertex
100
AcDb2dVertex
 10
29.43026436205142
 20
10.21919347944176
 30
0.0
  0
VERTEX
  5
61D
330
61B
100
AcDbEntity
  8
BEMA_UNG
 62
     7
100
AcDbVertex
100
AcDb2dVertex
 10
30.22935478701063
 20
10.21919347944176
 30
0.0
  0
SEQEND
  5
61E
330
61B
100
AcDbEntity
  8
BEMA_UNG
  0
POLYLINE
  5
61F
330
1F
100
AcDbEntity
  8
BEMA_UNG
 62
     7
100
AcDb2dPolyline
 66
     1
 10
0.0
 20
0.0
 30
0.0
  0
VERTEX
  5
620
330
61F
100
AcDbEntity
  8
BEMA_UNG
 62
     7
100
AcDbVertex
100
AcDb2dVertex
 10
29.43026436205142
 20
10.27000867137169
 30
0.0
  0
VERTEX
  5
621
330
61F
100
AcDbEntity
  8
BEMA_UNG
 62
     7
100
AcDbVertex
100
AcDb2dVertex
 10
30.61555024567814
 20
10.27000867137169
 30
0.0
  0
SEQEND
  5
622
330
61F
100
AcDbEntity
  8
BEMA_UNG
  0
POLYLINE
  5
623
330
1F
100
AcDbEntity
  8
BEMA_UNG
 62
     7
100
AcDb2dPolyline
 66
     1
 10
0.0
 20
0.0
 30
0.0
  0
VERTEX
  5
624
330
623
100
AcDbEntity
  8
BEMA_UNG
 62
     7
100
AcDbVertex
100
AcDb2dVertex
 10
29.43026436205142
 20
10.32082386330163
 30
0.0
  0
VERTEX
  5
625
330
623
100
AcDbEntity
  8
BEMA_UNG
 62
     7
100
AcDbVertex
100
AcDb2dVertex
 10
31.00122893968195
 20
10.32082386330163
 30
0.0
  0
SEQEND
  5
626
330
623
100
AcDbEntity
  8
BEMA_UNG
  0
POLYLINE
  5
627
330
1F
100
AcDbEntity
  8
BEMA_UNG
 62
     7
100
AcDb2dPolyline
 66
     1
 10
0.0
 20
0.0
 30
0.0
  0
VERTEX
  5
628
330
627
100
AcDbEntity
  8
BEMA_UNG
 62
     7
100
AcDbVertex
100
AcDb2dVertex
 10
29.43026436205142
 20
10.37155292778761
 30
0.0
  0
VERTEX
  5
629
330
627
100
AcDbEntity
  8
BEMA_UNG
 62
     7
100
AcDbVertex
100
AcDb2dVertex
 10
31.38707988857366
 20
10.37155292778761
 30
0.0
  0
SEQEND
  5
62A
330
627
100
AcDbEntity
  8
BEMA_UNG
  0
POLYLINE
  5
62B
330
1F
100
AcDbEntity
  8
BEMA_UNG
 62
     7
100
AcDb2dPolyline
 66
     1
 10
0.0
 20
0.0
 30
0.0
  0
VERTEX
  5
62C
330
62B
100
AcDbEntity
  8
BEMA_UNG
 62
     7
100
AcDbVertex
100
AcDb2dVertex
 10
29.43026436205142
 20
10.42236811971755
 30
0.0
  0
VERTEX
  5
62D
330
62B
100
AcDbEntity
  8
BEMA_UNG
 62
     7
100
AcDbVertex
100
AcDb2dVertex
 10
31.77275858257747
 20
10.42236811971755
 30
0.0
  0
SEQEND
  5
62E
330
62B
100
AcDbEntity
  8
BEMA_UNG
  0
POLYLINE
  5
62F
330
1F
100
AcDbEntity
  8
BEMA_UNG
 62
     7
100
AcDb2dPolyline
 66
     1
 10
0.0
 20
0.0
 30
0.0
  0
VERTEX
  5
630
330
62F
100
AcDbEntity
  8
BEMA_UNG
 62
     7
100
AcDbVertex
100
AcDb2dVertex
 10
29.43026436205142
 20
10.47318331164748
 30
0.0
  0
VERTEX
  5
631
330
62F
100
AcDbEntity
  8
BEMA_UNG
 62
     7
100
AcDbVertex
100
AcDb2dVertex
 10
32.15895404124498
 20
10.47318331164748
 30
0.0
  0
SEQEND
  5
632
330
62F
100
AcDbEntity
  8
BEMA_UNG
  0
POLYLINE
  5
633
330
1F
100
AcDbEntity
  8
BEMA_UNG
 62
     7
100
AcDb2dPolyline
 66
     1
 10
0.0
 20
0.0
 30
0.0
  0
VERTEX
  5
634
330
633
100
AcDbEntity
  8
BEMA_UNG
 62
     7
100
AcDbVertex
100
AcDb2dVertex
 10
29.43026436205142
 20
10.52399850357742
 30
0.0
  0
VERTEX
  5
635
330
633
100
AcDbEntity
  8
BEMA_UNG
 62
     7
100
AcDbVertex
100
AcDb2dVertex
 10
32.54463273524878
 20
10.52399850357742
 30
0.0
  0
SEQEND
  5
636
330
633
100
AcDbEntity
  8
BEMA_UNG
  0
POLYLINE
  5
637
330
1F
100
AcDbEntity
  8
BEMA_UNG
 62
     7
100
AcDb2dPolyline
 66
     1
 10
0.0
 20
0.0
 30
0.0
  0
VERTEX
  5
638
330
637
100
AcDbEntity
  8
BEMA_UNG
 62
     7
100
AcDbVertex
100
AcDb2dVertex
 10
29.43026436205142
 20
10.57481369550735
 30
0.0
  0
VERTEX
  5
639
330
637
100
AcDbEntity
  8
BEMA_UNG
 62
     7
100
AcDbVertex
100
AcDb2dVertex
 10
32.93048368414049
 20
10.57481369550735
 30
0.0
  0
SEQEND
  5
63A
330
637
100
AcDbEntity
  8
BEMA_UNG
  0
POLYLINE
  5
63B
330
1F
100
AcDbEntity
  8
BEMA_UNG
 62
     7
100
AcDb2dPolyline
 66
     1
 10
0.0
 20
0.0
 30
0.0
  0
VERTEX
  5
63C
330
63B
100
AcDbEntity
  8
BEMA_UNG
 62
     7
100
AcDbVertex
100
AcDb2dVertex
 10
-0.069418719822928
 20
10.57481369550735
 30
0.0
  0
VERTEX
  5
63D
330
63B
100
AcDbEntity
  8
BEMA_UNG
 62
     7
100
AcDbVertex
100
AcDb2dVertex
 10
3.430111582714555
 20
10.11368736060418
 30
0.0
  0
VERTEX
  5
63E
330
63B
100
AcDbEntity
  8
BEMA_UNG
 62
     7
100
AcDbVertex
100
AcDb2dVertex
 10
3.430111582714555
 20
11.03516488341498
 30
0.0
  0
VERTEX
  5
63F
330
63B
100
AcDbEntity
  8
BEMA_UNG
 62
     7
100
AcDbVertex
100
AcDb2dVertex
 10
-0.069418719822928
 20
10.57481369550735
 30
0.0
  0
SEQEND
  5
640
330
63B
100
AcDbEntity
  8
BEMA_UNG
  0
POLYLINE
  5
641
330
1F
100
AcDbEntity
  8
BEMA_UNG
 62
     7
100
AcDb2dPolyline
 66
     1
 10
0.0
 20
0.0
 30
0.0
  0
VERTEX
  5
642
330
641
100
AcDbEntity
  8
BEMA_UNG
 62
     7
100
AcDbVertex
100
AcDb2dVertex
 10
3.430111582714555
 20
10.11721858580609
 30
0.0
  0
VERTEX
  5
643
330
641
100
AcDbEntity
  8
BEMA_UNG
 62
     7
100
AcDbVertex
100
AcDb2dVertex
 10
3.403067565314556
 20
10.11721858580609
 30
0.0
  0
SEQEND
  5
644
330
641
100
AcDbEntity
  8
BEMA_UNG
  0
POLYLINE
  5
645
330
1F
100
AcDbEntity
  8
BEMA_UNG
 62
     7
100
AcDb2dPolyline
 66
     1
 10
0.0
 20
0.0
 30
0.0
  0
VERTEX
  5
646
330
645
100
AcDbEntity
  8
BEMA_UNG
 62
     7
100
AcDbVertex
100
AcDb2dVertex
 10
3.430111582714555
 20
10.11721858580609
 30
0.0
  0
VERTEX
  5
647
330
645
100
AcDbEntity
  8
BEMA_UNG
 62
     7
100
AcDbVertex
100
AcDb2dVertex
 10
3.403067565314556
 20
10.11721858580609
 30
0.0
  0
SEQEND
  5
648
330
645
100
AcDbEntity
  8
BEMA_UNG
  0
POLYLINE
  5
649
330
1F
100
AcDbEntity
  8
BEMA_UNG
 62
     7
100
AcDb2dPolyline
 66
     1
 10
0.0
 20
0.0
 30
0.0
  0
VERTEX
  5
64A
330
649
100
AcDbEntity
  8
BEMA_UNG
 62
     7
100
AcDbVertex
100
AcDb2dVertex
 10
3.430111582714555
 20
10.16803377773603
 30
0.0
  0
VERTEX
  5
64B
330
649
100
AcDbEntity
  8
BEMA_UNG
 62
     7
100
AcDbVertex
100
AcDb2dVertex
 10
3.017388871310745
 20
10.16803377773603
 30
0.0
  0
SEQEND
  5
64C
330
649
100
AcDbEntity
  8
BEMA_UNG
  0
POLYLINE
  5
64D
330
1F
100
AcDbEntity
  8
BEMA_UNG
 62
     7
100
AcDb2dPolyline
 66
     1
 10
0.0
 20
0.0
 30
0.0
  0
VERTEX
  5
64E
330
64D
100
AcDbEntity
  8
BEMA_UNG
 62
     7
100
AcDbVertex
100
AcDb2dVertex
 10
3.430111582714555
 20
10.21919347944176
 30
0.0
  0
VERTEX
  5
64F
330
64D
100
AcDbEntity
  8
BEMA_UNG
 62
     7
100
AcDbVertex
100
AcDb2dVertex
 10
2.631537922419036
 20
10.21919347944176
 30
0.0
  0
SEQEND
  5
650
330
64D
100
AcDbEntity
  8
BEMA_UNG
  0
POLYLINE
  5
651
330
1F
100
AcDbEntity
  8
BEMA_UNG
 62
     7
100
AcDb2dPolyline
 66
     1
 10
0.0
 20
0.0
 30
0.0
  0
VERTEX
  5
652
330
651
100
AcDbEntity
  8
BEMA_UNG
 62
     7
100
AcDbVertex
100
AcDb2dVertex
 10
3.430111582714555
 20
10.27000867137169
 30
0.0
  0
VERTEX
  5
653
330
651
100
AcDbEntity
  8
BEMA_UNG
 62
     7
100
AcDbVertex
100
AcDb2dVertex
 10
2.245859228415225
 20
10.27000867137169
 30
0.0
  0
SEQEND
  5
654
330
651
100
AcDbEntity
  8
BEMA_UNG
  0
POLYLINE
  5
655
330
1F
100
AcDbEntity
  8
BEMA_UNG
 62
     7
100
AcDb2dPolyline
 66
     1
 10
0.0
 20
0.0
 30
0.0
  0
VERTEX
  5
656
330
655
100
AcDbEntity
  8
BEMA_UNG
 62
     7
100
AcDbVertex
100
AcDb2dVertex
 10
3.430111582714555
 20
10.32082386330163
 30
0.0
  0
VERTEX
  5
657
330
655
100
AcDbEntity
  8
BEMA_UNG
 62
     7
100
AcDbVertex
100
AcDb2dVertex
 10
1.859663769747719
 20
10.32082386330163
 30
0.0
  0
SEQEND
  5
658
330
655
100
AcDbEntity
  8
BEMA_UNG
  0
POLYLINE
  5
659
330
1F
100
AcDbEntity
  8
BEMA_UNG
 62
     7
100
AcDb2dPolyline
 66
     1
 10
0.0
 20
0.0
 30
0.0
  0
VERTEX
  5
65A
330
659
100
AcDbEntity
  8
BEMA_UNG
 62
     7
100
AcDbVertex
100
AcDb2dVertex
 10
3.430111582714555
 20
10.37155292778761
 30
0.0
  0
VERTEX
  5
65B
330
659
100
AcDbEntity
  8
BEMA_UNG
 62
     7
100
AcDbVertex
100
AcDb2dVertex
 10
1.473985075743908
 20
10.37155292778761
 30
0.0
  0
SEQEND
  5
65C
330
659
100
AcDbEntity
  8
BEMA_UNG
  0
POLYLINE
  5
65D
330
1F
100
AcDbEntity
  8
BEMA_UNG
 62
     7
100
AcDb2dPolyline
 66
     1
 10
0.0
 20
0.0
 30
0.0
  0
VERTEX
  5
65E
330
65D
100
AcDbEntity
  8
BEMA_UNG
 62
     7
100
AcDbVertex
100
AcDb2dVertex
 10
3.430111582714555
 20
10.42236811971755
 30
0.0
  0
VERTEX
  5
65F
330
65D
100
AcDbEntity
  8
BEMA_UNG
 62
     7
100
AcDbVertex
100
AcDb2dVertex
 10
1.088134126852199
 20
10.42236811971755
 30
0.0
  0
SEQEND
  5
660
330
65D
100
AcDbEntity
  8
BEMA_UNG
  0
POLYLINE
  5
661
330
1F
100
AcDbEntity
  8
BEMA_UNG
 62
     7
100
AcDb2dPolyline
 66
     1
 10
0.0
 20
0.0
 30
0.0
  0
VERTEX
  5
662
330
661
100
AcDbEntity
  8
BEMA_UNG
 62
     7
100
AcDbVertex
100
AcDb2dVertex
 10
3.430111582714555
 20
10.47318331164748
 30
0.0
  0
VERTEX
  5
663
330
661
100
AcDbEntity
  8
BEMA_UNG
 62
     7
100
AcDbVertex
100
AcDb2dVertex
 10
0.7024554328483883
 20
10.47318331164748
 30
0.0
  0
SEQEND
  5
664
330
661
100
AcDbEntity
  8
BEMA_UNG
  0
POLYLINE
  5
665
330
1F
100
AcDbEntity
  8
BEMA_UNG
 62
     7
100
AcDb2dPolyline
 66
     1
 10
0.0
 20
0.0
 30
0.0
  0
VERTEX
  5
666
330
665
100
AcDbEntity
  8
BEMA_UNG
 62
     7
100
AcDbVertex
100
AcDb2dVertex
 10
3.430111582714555
 20
10.52399850357742
 30
0.0
  0
VERTEX
  5
667
330
665
100
AcDbEntity
  8
BEMA_UNG
 62
     7
100
AcDbVertex
100
AcDb2dVertex
 10
0.316259974180883
 20
10.52399850357742
 30
0.0
  0
SEQEND
  5
668
330
665
100
AcDbEntity
  8
BEMA_UNG
  0
POLYLINE
  5
669
330
1F
100
AcDbEntity
  8
BEMA_UNG
 62
     7
100
AcDb2dPolyline
 66
     1
 10
0.0
 20
0.0
 30
0.0
  0
VERTEX
  5
66A
330
669
100
AcDbEntity
  8
BEMA_UNG
 62
     7
100
AcDbVertex
100
AcDb2dVertex
 10
3.430111582714555
 20
10.57481369550735
 30
0.0
  0
VERTEX
  5
66B
330
669
100
AcDbEntity
  8
BEMA_UNG
 62
     7
100
AcDbVertex
100
AcDb2dVertex
 10
-0.069418719822928
 20
10.57481369550735
 30
0.0
  0
SEQEND
  5
66C
330
669
100
AcDbEntity
  8
BEMA_UNG
  0
POLYLINE
  5
66D
330
1F
100
AcDbEntity
  8
BEMA_UNG
 62
     7
100
AcDb2dPolyline
 66
     1
 10
0.0
 20
0.0
 30
0.0
  0
VERTEX
  5
66E
330
66D
100
AcDbEntity
  8
BEMA_UNG
 62
     7
100
AcDbVertex
100
AcDb2dVertex
 10
3.430111582714555
 20
11.03163365821307
 30
0.0
  0
VERTEX
  5
66F
330
66D
100
AcDbEntity
  8
BEMA_UNG
 62
     7
100
AcDbVertex
100
AcDb2dVertex
 10
3.403067565314556
 20
11.03163365821307
 30
0.0
  0
SEQEND
  5
670
330
66D
100
AcDbEntity
  8
BEMA_UNG
  0
POLYLINE
  5
671
330
1F
100
AcDbEntity
  8
BEMA_UNG
 62
     7
100
AcDb2dPolyline
 66
     1
 10
0.0
 20
0.0
 30
0.0
  0
VERTEX
  5
672
330
671
100
AcDbEntity
  8
BEMA_UNG
 62
     7
100
AcDbVertex
100
AcDb2dVertex
 10
3.430111582714555
 20
11.03163365821307
 30
0.0
  0
VERTEX
  5
673
330
671
100
AcDbEntity
  8
BEMA_UNG
 62
     7
100
AcDbVertex
100
AcDb2dVertex
 10
3.403067565314556
 20
11.03163365821307
 30
0.0
  0
SEQEND
  5
674
330
671
100
AcDbEntity
  8
BEMA_UNG
  0
POLYLINE
  5
675
330
1F
100
AcDbEntity
  8
BEMA_UNG
 62
     7
100
AcDb2dPolyline
 66
     1
 10
0.0
 20
0.0
 30
0.0
  0
VERTEX
  5
676
330
675
100
AcDbEntity
  8
BEMA_UNG
 62
     7
100
AcDbVertex
100
AcDb2dVertex
 10
3.430111582714555
 20
10.98081846628314
 30
0.0
  0
VERTEX
  5
677
330
675
100
AcDbEntity
  8
BEMA_UNG
 62
     7
100
AcDbVertex
100
AcDb2dVertex
 10
3.017388871310745
 20
10.98081846628314
 30
0.0
  0
SEQEND
  5
678
330
675
100
AcDbEntity
  8
BEMA_UNG
  0
POLYLINE
  5
679
330
1F
100
AcDbEntity
  8
BEMA_UNG
 62
     7
100
AcDb2dPolyline
 66
     1
 10
0.0
 20
0.0
 30
0.0
  0
VERTEX
  5
67A
330
679
100
AcDbEntity
  8
BEMA_UNG
 62
     7
100
AcDbVertex
100
AcDb2dVertex
 10
3.430111582714555
 20
10.9300032743532
 30
0.0
  0
VERTEX
  5
67B
330
679
100
AcDbEntity
  8
BEMA_UNG
 62
     7
100
AcDbVertex
100
AcDb2dVertex
 10
2.631537922419036
 20
10.9300032743532
 30
0.0
  0
SEQEND
  5
67C
330
679
100
AcDbEntity
  8
BEMA_UNG
  0
POLYLINE
  5
67D
330
1F
100
AcDbEntity
  8
BEMA_UNG
 62
     7
100
AcDb2dPolyline
 66
     1
 10
0.0
 20
0.0
 30
0.0
  0
VERTEX
  5
67E
330
67D
100
AcDbEntity
  8
BEMA_UNG
 62
     7
100
AcDbVertex
100
AcDb2dVertex
 10
3.430111582714555
 20
10.87927420986722
 30
0.0
  0
VERTEX
  5
67F
330
67D
100
AcDbEntity
  8
BEMA_UNG
 62
     7
100
AcDbVertex
100
AcDb2dVertex
 10
2.245859228415225
 20
10.87927420986722
 30
0.0
  0
SEQEND
  5
680
330
67D
100
AcDbEntity
  8
BEMA_UNG
  0
POLYLINE
  5
681
330
1F
100
AcDbEntity
  8
BEMA_UNG
 62
     7
100
AcDb2dPolyline
 66
     1
 10
0.0
 20
0.0
 30
0.0
  0
VERTEX
  5
682
330
681
100
AcDbEntity
  8
BEMA_UNG
 62
     7
100
AcDbVertex
100
AcDb2dVertex
 10
3.430111582714555
 20
10.82845901793728
 30
0.0
  0
VERTEX
  5
683
330
681
100
AcDbEntity
  8
BEMA_UNG
 62
     7
100
AcDbVertex
100
AcDb2dVertex
 10
1.859663769747719
 20
10.82845901793728
 30
0.0
  0
SEQEND
  5
684
330
681
100
AcDbEntity
  8
BEMA_UNG
  0
POLYLINE
  5
685
330
1F
100
AcDbEntity
  8
BEMA_UNG
 62
     7
100
AcDb2dPolyline
 66
     1
 10
0.0
 20
0.0
 30
0.0
  0
VERTEX
  5
686
330
685
100
AcDbEntity
  8
BEMA_UNG
 62
     7
100
AcDbVertex
100
AcDb2dVertex
 10
3.430111582714555
 20
10.77764382600735
 30
0.0
  0
VERTEX
  5
687
330
685
100
AcDbEntity
  8
BEMA_UNG
 62
     7
100
AcDbVertex
100
AcDb2dVertex
 10
1.473985075743908
 20
10.77764382600735
 30
0.0
  0
SEQEND
  5
688
330
685
100
AcDbEntity
  8
BEMA_UNG
  0
POLYLINE
  5
689
330
1F
100
AcDbEntity
  8
BEMA_UNG
 62
     7
100
AcDb2dPolyline
 66
     1
 10
0.0
 20
0.0
 30
0.0
  0
VERTEX
  5
68A
330
689
100
AcDbEntity
  8
BEMA_UNG
 62
     7
100
AcDbVertex
100
AcDb2dVertex
 10
3.430111582714555
 20
10.72682863407741
 30
0.0
  0
VERTEX
  5
68B
330
689
100
AcDbEntity
  8
BEMA_UNG
 62
     7
100
AcDbVertex
100
AcDb2dVertex
 10
1.088134126852199
 20
10.72682863407741
 30
0.0
  0
SEQEND
  5
68C
330
689
100
AcDbEntity
  8
BEMA_UNG
  0
POLYLINE
  5
68D
330
1F
100
AcDbEntity
  8
BEMA_UNG
 62
     7
100
AcDb2dPolyline
 66
     1
 10
0.0
 20
0.0
 30
0.0
  0
VERTEX
  5
68E
330
68D
100
AcDbEntity
  8
BEMA_UNG
 62
     7
100
AcDbVertex
100
AcDb2dVertex
 10
3.430111582714555
 20
10.67644407936722
 30
0.0
  0
VERTEX
  5
68F
330
68D
100
AcDbEntity
  8
BEMA_UNG
 62
     7
100
AcDbVertex
100
AcDb2dVertex
 10
0.7024554328483883
 20
10.67644407936722
 30
0.0
  0
SEQEND
  5
690
330
68D
100
AcDbEntity
  8
BEMA_UNG
  0
POLYLINE
  5
691
330
1F
100
AcDbEntity
  8
BEMA_UNG
 62
     7
100
AcDb2dPolyline
 66
     1
 10
0.0
 20
0.0
 30
0.0
  0
VERTEX
  5
692
330
691
100
AcDbEntity
  8
BEMA_UNG
 62
     7
100
AcDbVertex
100
AcDb2dVertex
 10
3.430111582714555
 20
10.62562888743729
 30
0.0
  0
VERTEX
  5
693
330
691
100
AcDbEntity
  8
BEMA_UNG
 62
     7
100
AcDbVertex
100
AcDb2dVertex
 10
0.316259974180883
 20
10.62562888743729
 30
0.0
  0
SEQEND
  5
694
330
691
100
AcDbEntity
  8
BEMA_UNG
  0
POLYLINE
  5
695
330
1F
100
AcDbEntity
  8
BEMA_UNG
 62
     7
100
AcDb2dPolyline
 66
     1
 10
0.0
 20
0.0
 30
0.0
  0
VERTEX
  5
696
330
695
100
AcDbEntity
  8
BEMA_UNG
 62
     7
100
AcDbVertex
100
AcDb2dVertex
 10
3.430111582714555
 20
10.57481369550735
 30
0.0
  0
VERTEX
  5
697
330
695
100
AcDbEntity
  8
BEMA_UNG
 62
     7
100
AcDbVertex
100
AcDb2dVertex
 10
-0.069418719822928
 20
10.57481369550735
 30
0.0
  0
SEQEND
  5
698
330
695
100
AcDbEntity
  8
BEMA_UNG
  0
POLYLINE
  5
699
330
1F
100
AcDbEntity
  8
BEMA_UNG
 62
     7
100
AcDb2dPolyline
 66
     1
 10
0.0
 20
0.0
 30
0.0
  0
VERTEX
  5
69A
330
699
100
AcDbEntity
  8
BEMA_UNG
 62
     7
100
AcDbVertex
100
AcDb2dVertex
 10
76.99380077313418
 20
10.38696974025449
 30
0.0
  0
VERTEX
  5
69B
330
699
100
AcDbEntity
  8
BEMA_UNG
 62
     7
100
AcDbVertex
100
AcDb2dVertex
 10
54.61651279606983
 20
10.38696974025449
 30
0.0
  0
SEQEND
  5
69C
330
699
100
AcDbEntity
  8
BEMA_UNG
  0
POLYLINE
  5
69D
330
1F
100
AcDbEntity
  8
BEMA_UNG
 62
     7
100
AcDb2dPolyline
 66
     1
 10
0.0
 20
0.0
 30
0.0
  0
VERTEX
  5
69E
330
69D
100
AcDbEntity
  8
BEMA_UNG
 62
     7
100
AcDbVertex
100
AcDb2dVertex
 10
45.45772040652869
 20
-6.793388268924653
 30
0.0
  0
VERTEX
  5
69F
330
69D
100
AcDbEntity
  8
BEMA_UNG
 62
     7
100
AcDbVertex
100
AcDb2dVertex
 10
54.61651279606983
 20
10.38696974025449
 30
0.0
  0
SEQEND
  5
6A0
330
69D
100
AcDbEntity
  8
BEMA_UNG
  0
POLYLINE
  5
6A1
330
1F
100
AcDbEntity
  8
BEMA_UNG
 62
     7
100
AcDb2dPolyline
 66
     1
 10
0.0
 20
0.0
 30
0.0
  0
VERTEX
  5
6A2
330
6A1
100
AcDbEntity
  8
BEMA_UNG
 62
     7
100
AcDbVertex
100
AcDb2dVertex
 10
45.45772040652869
 20
-6.793388268924653
 30
0.0
  0
VERTEX
  5
6A3
330
6A1
100
AcDbEntity
  8
BEMA_UNG
 62
     7
100
AcDbVertex
100
AcDb2dVertex
 10
47.67980846041397
 20
-4.049540159596067
 30
0.0
  0
VERTEX
  5
6A4
330
6A1
100
AcDbEntity
  8
BEMA_UNG
 62
     7
100
AcDbVertex
100
AcDb2dVertex
 10
46.89380940693501
 20
-3.567915493033023
 30
0.0
  0
VERTEX
  5
6A5
330
6A1
100
AcDbEntity
  8
BEMA_UNG
 62
     7
100
AcDbVertex
100
AcDb2dVertex
 10
45.45772040652869
 20
-6.793388268924653
 30
0.0
  0
SEQEND
  5
6A6
330
6A1
100
AcDbEntity
  8
BEMA_UNG
  0
POLYLINE
  5
6A7
330
1F
100
AcDbEntity
  8
BEMA_UNG
 62
     7
100
AcDb2dPolyline
 66
     1
 10
0.0
 20
0.0
 30
0.0
  0
VERTEX
  5
6A8
330
6A7
100
AcDbEntity
  8
BEMA_UNG
 62
     7
100
AcDbVertex
100
AcDb2dVertex
 10
47.67636336265601
 20
-4.047817610717086
 30
0.0
  0
VERTEX
  5
6A9
330
6A7
100
AcDbEntity
  8
BEMA_UNG
 62
     7
100
AcDbVertex
100
AcDb2dVertex
 10
47.66258297162416
 20
-4.071072020583327
 30
0.0
  0
SEQEND
  5
6AA
330
6A7
100
AcDbEntity
  8
BEMA_UNG
  0
POLYLINE
  5
6AB
330
1F
100
AcDbEntity
  8
BEMA_UNG
 62
     7
100
AcDb2dPolyline
 66
     1
 10
0.0
 20
0.0
 30
0.0
  0
VERTEX
  5
6AC
330
6AB
100
AcDbEntity
  8
BEMA_UNG
 62
     7
100
AcDbVertex
100
AcDb2dVertex
 10
47.67636336265601
 20
-4.047817610717086
 30
0.0
  0
VERTEX
  5
6AD
330
6AB
100
AcDbEntity
  8
BEMA_UNG
 62
     7
100
AcDbVertex
100
AcDb2dVertex
 10
47.66258297162416
 20
-4.071072020583327
 30
0.0
  0
SEQEND
  5
6AE
330
6AB
100
AcDbEntity
  8
BEMA_UNG
  0
POLYLINE
  5
6AF
330
1F
100
AcDbEntity
  8
BEMA_UNG
 62
     7
100
AcDb2dPolyline
 66
     1
 10
0.0
 20
0.0
 30
0.0
  0
VERTEX
  5
6B0
330
6AF
100
AcDbEntity
  8
BEMA_UNG
 62
     7
100
AcDbVertex
100
AcDb2dVertex
 10
47.63329964068149
 20
-4.020945848204985
 30
0.0
  0
VERTEX
  5
6B1
330
6AF
100
AcDbEntity
  8
BEMA_UNG
 62
     7
100
AcDbVertex
100
AcDb2dVertex
 10
47.41694750148149
 20
-4.373379348844465
 30
0.0
  0
SEQEND
  5
6B2
330
6AF
100
AcDbEntity
  8
BEMA_UNG
  0
POLYLINE
  5
6B3
330
1F
100
AcDbEntity
  8
BEMA_UNG
 62
     7
100
AcDb2dPolyline
 66
     1
 10
0.0
 20
0.0
 30
0.0
  0
VERTEX
  5
6B4
330
6B3
100
AcDbEntity
  8
BEMA_UNG
 62
     7
100
AcDbVertex
100
AcDb2dVertex
 10
47.58989140893117
 20
-3.994763105244476
 30
0.0
  0
VERTEX
  5
6B5
330
6B3
100
AcDbEntity
  8
BEMA_UNG
 62
     7
100
AcDbVertex
100
AcDb2dVertex
 10
47.17251781555412
 20
-4.675686677105603
 30
0.0
  0
SEQEND
  5
6B6
330
6B3
100
AcDbEntity
  8
BEMA_UNG
  0
POLYLINE
  5
6B7
330
1F
100
AcDbEntity
  8
BEMA_UNG
 62
     7
100
AcDb2dPolyline
 66
     1
 10
0.0
 20
0.0
 30
0.0
  0
VERTEX
  5
6B8
330
6B7
100
AcDbEntity
  8
BEMA_UNG
 62
     7
100
AcDbVertex
100
AcDb2dVertex
 10
47.54682768695665
 20
-3.968063597620273
 30
0.0
  0
VERTEX
  5
6B9
330
6B7
100
AcDbEntity
  8
BEMA_UNG
 62
     7
100
AcDbVertex
100
AcDb2dVertex
 10
46.92774361985094
 20
-4.978338515142538
 30
0.0
  0
SEQEND
  5
6BA
330
6B7
100
AcDbEntity
  8
BEMA_UNG
  0
POLYLINE
  5
6BB
330
1F
100
AcDbEntity
  8
BEMA_UNG
 62
     7
100
AcDb2dPolyline
 66
     1
 10
0.0
 20
0.0
 30
0.0
  0
VERTEX
  5
6BC
330
6BB
100
AcDbEntity
  8
BEMA_UNG
 62
     7
100
AcDbVertex
100
AcDb2dVertex
 10
47.50341945520633
 20
-3.941880854659764
 30
0.0
  0
VERTEX
  5
6BD
330
6BB
100
AcDbEntity
  8
BEMA_UNG
 62
     7
100
AcDbVertex
100
AcDb2dVertex
 10
46.68245265948406
 20
-5.280818098291574
 30
0.0
  0
SEQEND
  5
6BE
330
6BB
100
AcDbEntity
  8
BEMA_UNG
  0
POLYLINE
  5
6BF
330
1F
100
AcDbEntity
  8
BEMA_UNG
 62
     7
100
AcDb2dPolyline
 66
     1
 10
0.0
 20
0.0
 30
0.0
  0
VERTEX
  5
6C0
330
6BF
100
AcDbEntity
  8
BEMA_UNG
 62
     7
100
AcDbVertex
100
AcDb2dVertex
 10
47.45966671368022
 20
-3.915181347035561
 30
0.0
  0
VERTEX
  5
6C1
330
6BF
100
AcDbEntity
  8
BEMA_UNG
 62
     7
100
AcDbVertex
100
AcDb2dVertex
 10
46.43767846378088
 20
-5.582953171664815
 30
0.0
  0
SEQEND
  5
6C2
330
6BF
100
AcDbEntity
  8
BEMA_UNG
  0
POLYLINE
  5
6C3
330
1F
100
AcDbEntity
  8
BEMA_UNG
 62
     7
100
AcDb2dPolyline
 66
     1
 10
0.0
 20
0.0
 30
0.0
  0
VERTEX
  5
6C4
330
6C3
100
AcDbEntity
  8
BEMA_UNG
 62
     7
100
AcDbVertex
100
AcDb2dVertex
 10
47.4166029917057
 20
-3.88830958452346
 30
0.0
  0
VERTEX
  5
6C5
330
6C3
100
AcDbEntity
  8
BEMA_UNG
 62
     7
100
AcDbVertex
100
AcDb2dVertex
 10
46.19255975830191
 20
-5.886121774365443
 30
0.0
  0
SEQEND
  5
6C6
330
6C3
100
AcDbEntity
  8
BEMA_UNG
  0
POLYLINE
  5
6C7
330
1F
100
AcDbEntity
  8
BEMA_UNG
 62
     7
100
AcDb2dPolyline
 66
     1
 10
0.0
 20
0.0
 30
0.0
  0
VERTEX
  5
6C8
330
6C7
100
AcDbEntity
  8
BEMA_UNG
 62
     7
100
AcDbVertex
100
AcDb2dVertex
 10
47.37319475995538
 20
-3.862126841562951
 30
0.0
  0
VERTEX
  5
6C9
330
6C7
100
AcDbEntity
  8
BEMA_UNG
 62
     7
100
AcDbVertex
100
AcDb2dVertex
 10
45.94795781748663
 20
-6.188084592850785
 30
0.0
  0
SEQEND
  5
6CA
330
6C7
100
AcDbEntity
  8
BEMA_UNG
  0
POLYLINE
  5
6CB
330
1F
100
AcDbEntity
  8
BEMA_UNG
 62
     7
100
AcDb2dPolyline
 66
     1
 10
0.0
 20
0.0
 30
0.0
  0
VERTEX
  5
6CC
330
6CB
100
AcDbEntity
  8
BEMA_UNG
 62
     7
100
AcDbVertex
100
AcDb2dVertex
 10
47.33013103798086
 20
-3.835427333938748
 30
0.0
  0
VERTEX
  5
6CD
330
6CB
100
AcDbEntity
  8
BEMA_UNG
 62
     7
100
AcDbVertex
100
AcDb2dVertex
 10
45.70249460223186
 20
-6.490391921111923
 30
0.0
  0
SEQEND
  5
6CE
330
6CB
100
AcDbEntity
  8
BEMA_UNG
  0
POLYLINE
  5
6CF
330
1F
100
AcDbEntity
  8
BEMA_UNG
 62
     7
100
AcDb2dPolyline
 66
     1
 10
0.0
 20
0.0
 30
0.0
  0
VERTEX
  5
6D0
330
6CF
100
AcDbEntity
  8
BEMA_UNG
 62
     7
100
AcDbVertex
100
AcDb2dVertex
 10
47.28637829645475
 20
-3.808555571426647
 30
0.0
  0
VERTEX
  5
6D1
330
6CF
100
AcDbEntity
  8
BEMA_UNG
 62
     7
100
AcDbVertex
100
AcDb2dVertex
 10
45.45772040652869
 20
-6.793388268924653
 30
0.0
  0
SEQEND
  5
6D2
330
6CF
100
AcDbEntity
  8
BEMA_UNG
  0
POLYLINE
  5
6D3
330
1F
100
AcDbEntity
  8
BEMA_UNG
 62
     7
100
AcDb2dPolyline
 66
     1
 10
0.0
 20
0.0
 30
0.0
  0
VERTEX
  5
6D4
330
6D3
100
AcDbEntity
  8
BEMA_UNG
 62
     7
100
AcDbVertex
100
AcDb2dVertex
 10
46.89673774002928
 20
-3.569638041912004
 30
0.0
  0
VERTEX
  5
6D5
330
6D3
100
AcDbEntity
  8
BEMA_UNG
 62
     7
100
AcDbVertex
100
AcDb2dVertex
 10
46.88261283922164
 20
-3.593064706666143
 30
0.0
  0
SEQEND
  5
6D6
330
6D3
100
AcDbEntity
  8
BEMA_UNG
  0
POLYLINE
  5
6D7
330
1F
100
AcDbEntity
  8
BEMA_UNG
 62
     7
100
AcDb2dPolyline
 66
     1
 10
0.0
 20
0.0
 30
0.0
  0
VERTEX
  5
6D8
330
6D7
100
AcDbEntity
  8
BEMA_UNG
 62
     7
100
AcDbVertex
100
AcDb2dVertex
 10
46.89673774002928
 20
-3.569638041912004
 30
0.0
  0
VERTEX
  5
6D9
330
6D7
100
AcDbEntity
  8
BEMA_UNG
 62
     7
100
AcDbVertex
100
AcDb2dVertex
 10
46.88261283922164
 20
-3.593064706666143
 30
0.0
  0
SEQEND
  5
6DA
330
6D7
100
AcDbEntity
  8
BEMA_UNG
  0
POLYLINE
  5
6DB
330
1F
100
AcDbEntity
  8
BEMA_UNG
 62
     7
100
AcDb2dPolyline
 66
     1
 10
0.0
 20
0.0
 30
0.0
  0
VERTEX
  5
6DC
330
6DB
100
AcDbEntity
  8
BEMA_UNG
 62
     7
100
AcDbVertex
100
AcDb2dVertex
 10
46.9399737168917
 20
-3.596509804424105
 30
0.0
  0
VERTEX
  5
6DD
330
6DB
100
AcDbEntity
  8
BEMA_UNG
 62
     7
100
AcDbVertex
100
AcDb2dVertex
 10
46.7244828521312
 20
-3.948943305063585
 30
0.0
  0
SEQEND
  5
6DE
330
6DB
100
AcDbEntity
  8
BEMA_UNG
  0
POLYLINE
  5
6DF
330
1F
100
AcDbEntity
  8
BEMA_UNG
 62
     7
100
AcDb2dPolyline
 66
     1
 10
0.0
 20
0.0
 30
0.0
  0
VERTEX
  5
6E0
330
6DF
100
AcDbEntity
  8
BEMA_UNG
 62
     7
100
AcDbVertex
100
AcDb2dVertex
 10
46.98372645841781
 20
-3.623381566936206
 30
0.0
  0
VERTEX
  5
6E1
330
6DF
100
AcDbEntity
  8
BEMA_UNG
 62
     7
100
AcDbVertex
100
AcDb2dVertex
 10
46.56566384548916
 20
-4.304132883909435
 30
0.0
  0
SEQEND
  5
6E2
330
6DF
100
AcDbEntity
  8
BEMA_UNG
  0
POLYLINE
  5
6E3
330
1F
100
AcDbEntity
  8
BEMA_UNG
 62
     7
100
AcDb2dPolyline
 66
     1
 10
0.0
 20
0.0
 30
0.0
  0
VERTEX
  5
6E4
330
6E3
100
AcDbEntity
  8
BEMA_UNG
 62
     7
100
AcDbVertex
100
AcDb2dVertex
 10
47.02679018039233
 20
-3.649564309896715
 30
0.0
  0
VERTEX
  5
6E5
330
6E3
100
AcDbEntity
  8
BEMA_UNG
 62
     7
100
AcDbVertex
100
AcDb2dVertex
 10
46.40770611328662
 20
-4.659839227418979
 30
0.0
  0
SEQEND
  5
6E6
330
6E3
100
AcDbEntity
  8
BEMA_UNG
  0
POLYLINE
  5
6E7
330
1F
100
AcDbEntity
  8
BEMA_UNG
 62
     7
100
AcDb2dPolyline
 66
     1
 10
0.0
 20
0.0
 30
0.0
  0
VERTEX
  5
6E8
330
6E7
100
AcDbEntity
  8
BEMA_UNG
 62
     7
100
AcDbVertex
100
AcDb2dVertex
 10
47.07019841214265
 20
-3.676263817520918
 30
0.0
  0
VERTEX
  5
6E9
330
6E7
100
AcDbEntity
  8
BEMA_UNG
 62
     7
100
AcDbVertex
100
AcDb2dVertex
 10
46.24974838108407
 20
-5.015545570928524
 30
0.0
  0
SEQEND
  5
6EA
330
6E7
100
AcDbEntity
  8
BEMA_UNG
  0
POLYLINE
  5
6EB
330
1F
100
AcDbEntity
  8
BEMA_UNG
 62
     7
100
AcDb2dPolyline
 66
     1
 10
0.0
 20
0.0
 30
0.0
  0
VERTEX
  5
6EC
330
6EB
100
AcDbEntity
  8
BEMA_UNG
 62
     7
100
AcDbVertex
100
AcDb2dVertex
 10
47.11326213411717
 20
-3.702791070257223
 30
0.0
  0
VERTEX
  5
6ED
330
6EB
100
AcDbEntity
  8
BEMA_UNG
 62
     7
100
AcDbVertex
100
AcDb2dVertex
 10
46.09092937444204
 20
-5.370735149774374
 30
0.0
  0
SEQEND
  5
6EE
330
6EB
100
AcDbEntity
  8
BEMA_UNG
  0
POLYLINE
  5
6EF
330
1F
100
AcDbEntity
  8
BEMA_UNG
 62
     7
100
AcDb2dPolyline
 66
     1
 10
0.0
 20
0.0
 30
0.0
  0
VERTEX
  5
6F0
330
6EF
100
AcDbEntity
  8
BEMA_UNG
 62
     7
100
AcDbVertex
100
AcDb2dVertex
 10
47.15701487564328
 20
-3.72914606810563
 30
0.0
  0
VERTEX
  5
6F1
330
6EF
100
AcDbEntity
  8
BEMA_UNG
 62
     7
100
AcDbVertex
100
AcDb2dVertex
 10
45.9327993873516
 20
-5.726613748171816
 30
0.0
  0
SEQEND
  5
6F2
330
6EF
100
AcDbEntity
  8
BEMA_UNG
  0
POLYLINE
  5
6F3
330
1F
100
AcDbEntity
  8
BEMA_UNG
 62
     7
100
AcDb2dPolyline
 66
     1
 10
0.0
 20
0.0
 30
0.0
  0
VERTEX
  5
6F4
330
6F3
100
AcDbEntity
  8
BEMA_UNG
 62
     7
100
AcDbVertex
100
AcDb2dVertex
 10
47.19973408784201
 20
-3.755673320841935
 30
0.0
  0
VERTEX
  5
6F5
330
6F3
100
AcDbEntity
  8
BEMA_UNG
 62
     7
100
AcDbVertex
100
AcDb2dVertex
 10
45.77484165514905
 20
-6.082147836793463
 30
0.0
  0
SEQEND
  5
6F6
330
6F3
100
AcDbEntity
  8
BEMA_UNG
  0
POLYLINE
  5
6F7
330
1F
100
AcDbEntity
  8
BEMA_UNG
 62
     7
100
AcDb2dPolyline
 66
     1
 10
0.0
 20
0.0
 30
0.0
  0
VERTEX
  5
6F8
330
6F7
100
AcDbEntity
  8
BEMA_UNG
 62
     7
100
AcDbVertex
100
AcDb2dVertex
 10
47.24348682936812
 20
-3.782545083354036
 30
0.0
  0
VERTEX
  5
6F9
330
6F7
100
AcDbEntity
  8
BEMA_UNG
 62
     7
100
AcDbVertex
100
AcDb2dVertex
 10
45.61602264850702
 20
-6.437509670527211
 30
0.0
  0
SEQEND
  5
6FA
330
6F7
100
AcDbEntity
  8
BEMA_UNG
  0
POLYLINE
  5
6FB
330
1F
100
AcDbEntity
  8
BEMA_UNG
 62
     7
100
AcDb2dPolyline
 66
     1
 10
0.0
 20
0.0
 30
0.0
  0
VERTEX
  5
6FC
330
6FB
100
AcDbEntity
  8
BEMA_UNG
 62
     7
100
AcDbVertex
100
AcDb2dVertex
 10
47.28637829645475
 20
-3.808555571426647
 30
0.0
  0
VERTEX
  5
6FD
330
6FB
100
AcDbEntity
  8
BEMA_UNG
 62
     7
100
AcDbVertex
100
AcDb2dVertex
 10
45.45772040652869
 20
-6.793388268924653
 30
0.0
  0
SEQEND
  5
6FE
330
6FB
100
AcDbEntity
  8
BEMA_UNG
  0
POLYLINE
  5
6FF
330
1F
100
AcDbEntity
  8
BEMA_UNG
 62
     7
100
AcDb2dPolyline
 66
     1
 10
0.0
 20
0.0
 30
0.0
  0
VERTEX
  5
700
330
6FF
100
AcDbEntity
  8
BEMA_UNG
 62
     7
100
AcDbVertex
100
AcDb2dVertex
 10
-0.069418719822928
 20
-13.54026771811682
 30
0.0
  0
VERTEX
  5
701
330
6FF
100
AcDbEntity
  8
BEMA_UNG
 62
     7
100
AcDbVertex
100
AcDb2dVertex
 10
-12.12071518694871
 20
-13.54026771811682
 30
0.0
  0
SEQEND
  5
702
330
6FF
100
AcDbEntity
  8
BEMA_UNG
  0
POLYLINE
  5
703
330
1F
100
AcDbEntity
  8
BEMA_UNG
 62
     7
100
AcDb2dPolyline
 66
     1
 10
0.0
 20
0.0
 30
0.0
  0
VERTEX
  5
704
330
703
100
AcDbEntity
  8
BEMA_UNG
 62
     7
100
AcDbVertex
100
AcDb2dVertex
 10
-0.069418719822928
 20
-21.54064598654336
 30
0.0
  0
VERTEX
  5
705
330
703
100
AcDbEntity
  8
BEMA_UNG
 62
     7
100
AcDbVertex
100
AcDb2dVertex
 10
-12.12071518694871
 20
-21.54064598654336
 30
0.0
  0
SEQEND
  5
706
330
703
100
AcDbEntity
  8
BEMA_UNG
  0
POLYLINE
  5
707
330
1F
100
AcDbEntity
  8
BEMA_UNG
 62
     7
100
AcDb2dPolyline
 66
     1
 10
0.0
 20
0.0
 30
0.0
  0
VERTEX
  5
708
330
707
100
AcDbEntity
  8
BEMA_UNG
 62
     7
100
AcDbVertex
100
AcDb2dVertex
 10
-10.12066368356405
 20
-4.790408432445727
 30
0.0
  0
VERTEX
  5
709
330
707
100
AcDbEntity
  8
BEMA_UNG
 62
     7
100
AcDbVertex
100
AcDb2dVertex
 10
-10.12066368356405
 20
-30.29050527221445
 30
0.0
  0
SEQEND
  5
70A
330
707
100
AcDbEntity
  8
BEMA_UNG
  0
POLYLINE
  5
70B
330
1F
100
AcDbEntity
  8
BEMA_UNG
 62
     7
100
AcDb2dPolyline
 66
     1
 10
0.0
 20
0.0
 30
0.0
  0
VERTEX
  5
70C
330
70B
100
AcDbEntity
  8
BEMA_UNG
 62
     7
100
AcDbVertex
100
AcDb2dVertex
 10
-10.12066368356405
 20
-13.54026771811682
 30
0.0
  0
VERTEX
  5
70D
330
70B
100
AcDbEntity
  8
BEMA_UNG
 62
     7
100
AcDbVertex
100
AcDb2dVertex
 10
-9.66039862310037
 20
-10.04073741557934
 30
0.0
  0
VERTEX
  5
70E
330
70B
100
AcDbEntity
  8
BEMA_UNG
 62
     7
100
AcDbVertex
100
AcDb2dVertex
 10
-10.58144550869143
 20
-10.04073741557934
 30
0.0
  0
VERTEX
  5
70F
330
70B
100
AcDbEntity
  8
BEMA_UNG
 62
     7
100
AcDbVertex
100
AcDb2dVertex
 10
-10.12066368356405
 20
-13.54026771811682
 30
0.0
  0
SEQEND
  5
710
330
70B
100
AcDbEntity
  8
BEMA_UNG
  0
POLYLINE
  5
711
330
1F
100
AcDbEntity
  8
BEMA_UNG
 62
     7
100
AcDb2dPolyline
 66
     1
 10
0.0
 20
0.0
 30
0.0
  0
VERTEX
  5
712
330
711
100
AcDbEntity
  8
BEMA_UNG
 62
     7
100
AcDbVertex
100
AcDb2dVertex
 10
-9.663843720858333
 20
-10.04073741557934
 30
0.0
  0
VERTEX
  5
713
330
711
100
AcDbEntity
  8
BEMA_UNG
 62
     7
100
AcDbVertex
100
AcDb2dVertex
 10
-9.663843720858333
 20
-10.06795368786724
 30
0.0
  0
SEQEND
  5
714
330
711
100
AcDbEntity
  8
BEMA_UNG
  0
POLYLINE
  5
715
330
1F
100
AcDbEntity
  8
BEMA_UNG
 62
     7
100
AcDb2dPolyline
 66
     1
 10
0.0
 20
0.0
 30
0.0
  0
VERTEX
  5
716
330
715
100
AcDbEntity
  8
BEMA_UNG
 62
     7
100
AcDbVertex
100
AcDb2dVertex
 10
-9.663843720858333
 20
-10.04073741557934
 30
0.0
  0
VERTEX
  5
717
330
715
100
AcDbEntity
  8
BEMA_UNG
 62
     7
100
AcDbVertex
100
AcDb2dVertex
 10
-9.663843720858333
 20
-10.06795368786724
 30
0.0
  0
SEQEND
  5
718
330
715
100
AcDbEntity
  8
BEMA_UNG
  0
POLYLINE
  5
719
330
1F
100
AcDbEntity
  8
BEMA_UNG
 62
     7
100
AcDb2dPolyline
 66
     1
 10
0.0
 20
0.0
 30
0.0
  0
VERTEX
  5
71A
330
719
100
AcDbEntity
  8
BEMA_UNG
 62
     7
100
AcDbVertex
100
AcDb2dVertex
 10
-9.714658912788268
 20
-10.04073741557934
 30
0.0
  0
VERTEX
  5
71B
330
719
100
AcDbEntity
  8
BEMA_UNG
 62
     7
100
AcDbVertex
100
AcDb2dVertex
 10
-9.714658912788268
 20
-10.45346012698315
 30
0.0
  0
SEQEND
  5
71C
330
719
100
AcDbEntity
  8
BEMA_UNG
  0
POLYLINE
  5
71D
330
1F
100
AcDbEntity
  8
BEMA_UNG
 62
     7
100
AcDb2dPolyline
 66
     1
 10
0.0
 20
0.0
 30
0.0
  0
VERTEX
  5
71E
330
71D
100
AcDbEntity
  8
BEMA_UNG
 62
     7
100
AcDbVertex
100
AcDb2dVertex
 10
-9.765474104718201
 20
-10.04073741557934
 30
0.0
  0
VERTEX
  5
71F
330
71D
100
AcDbEntity
  8
BEMA_UNG
 62
     7
100
AcDbVertex
100
AcDb2dVertex
 10
-9.765474104718201
 20
-10.83982784053855
 30
0.0
  0
SEQEND
  5
720
330
71D
100
AcDbEntity
  8
BEMA_UNG
  0
POLYLINE
  5
721
330
1F
100
AcDbEntity
  8
BEMA_UNG
 62
     7
100
AcDb2dPolyline
 66
     1
 10
0.0
 20
0.0
 30
0.0
  0
VERTEX
  5
722
330
721
100
AcDbEntity
  8
BEMA_UNG
 62
     7
100
AcDbVertex
100
AcDb2dVertex
 10
-9.816289296648137
 20
-10.04073741557934
 30
0.0
  0
VERTEX
  5
723
330
721
100
AcDbEntity
  8
BEMA_UNG
 62
     7
100
AcDbVertex
100
AcDb2dVertex
 10
-9.816289296648137
 20
-11.22533427965447
 30
0.0
  0
SEQEND
  5
724
330
721
100
AcDbEntity
  8
BEMA_UNG
  0
POLYLINE
  5
725
330
1F
100
AcDbEntity
  8
BEMA_UNG
 62
     7
100
AcDb2dPolyline
 66
     1
 10
0.0
 20
0.0
 30
0.0
  0
VERTEX
  5
726
330
725
100
AcDbEntity
  8
BEMA_UNG
 62
     7
100
AcDbVertex
100
AcDb2dVertex
 10
-9.867104488578072
 20
-10.04073741557934
 30
0.0
  0
VERTEX
  5
727
330
725
100
AcDbEntity
  8
BEMA_UNG
 62
     7
100
AcDbVertex
100
AcDb2dVertex
 10
-9.867104488578072
 20
-11.61170199320987
 30
0.0
  0
SEQEND
  5
728
330
725
100
AcDbEntity
  8
BEMA_UNG
  0
POLYLINE
  5
729
330
1F
100
AcDbEntity
  8
BEMA_UNG
 62
     7
100
AcDb2dPolyline
 66
     1
 10
0.0
 20
0.0
 30
0.0
  0
VERTEX
  5
72A
330
729
100
AcDbEntity
  8
BEMA_UNG
 62
     7
100
AcDbVertex
100
AcDb2dVertex
 10
-9.91757517073221
 20
-10.04073741557934
 30
0.0
  0
VERTEX
  5
72B
330
729
100
AcDbEntity
  8
BEMA_UNG
 62
     7
100
AcDbVertex
100
AcDb2dVertex
 10
-9.91757517073221
 20
-11.99686392254999
 30
0.0
  0
SEQEND
  5
72C
330
729
100
AcDbEntity
  8
BEMA_UNG
  0
POLYLINE
  5
72D
330
1F
100
AcDbEntity
  8
BEMA_UNG
 62
     7
100
AcDb2dPolyline
 66
     1
 10
0.0
 20
0.0
 30
0.0
  0
VERTEX
  5
72E
330
72D
100
AcDbEntity
  8
BEMA_UNG
 62
     7
100
AcDbVertex
100
AcDb2dVertex
 10
-9.968390362662145
 20
-10.04073741557934
 30
0.0
  0
VERTEX
  5
72F
330
72D
100
AcDbEntity
  8
BEMA_UNG
 62
     7
100
AcDbVertex
100
AcDb2dVertex
 10
-9.968390362662145
 20
-12.38323163610539
 30
0.0
  0
SEQEND
  5
730
330
72D
100
AcDbEntity
  8
BEMA_UNG
  0
POLYLINE
  5
731
330
1F
100
AcDbEntity
  8
BEMA_UNG
 62
     7
100
AcDb2dPolyline
 66
     1
 10
0.0
 20
0.0
 30
0.0
  0
VERTEX
  5
732
330
731
100
AcDbEntity
  8
BEMA_UNG
 62
     7
100
AcDbVertex
100
AcDb2dVertex
 10
-10.01920555459208
 20
-10.04073741557934
 30
0.0
  0
VERTEX
  5
733
330
731
100
AcDbEntity
  8
BEMA_UNG
 62
     7
100
AcDbVertex
100
AcDb2dVertex
 10
-10.01920555459208
 20
-12.7687380752213
 30
0.0
  0
SEQEND
  5
734
330
731
100
AcDbEntity
  8
BEMA_UNG
  0
POLYLINE
  5
735
330
1F
100
AcDbEntity
  8
BEMA_UNG
 62
     7
100
AcDb2dPolyline
 66
     1
 10
0.0
 20
0.0
 30
0.0
  0
VERTEX
  5
736
330
735
100
AcDbEntity
  8
BEMA_UNG
 62
     7
100
AcDbVertex
100
AcDb2dVertex
 10
-10.07002074652202
 20
-10.04073741557934
 30
0.0
  0
VERTEX
  5
737
330
735
100
AcDbEntity
  8
BEMA_UNG
 62
     7
100
AcDbVertex
100
AcDb2dVertex
 10
-10.07002074652202
 20
-13.15510578877671
 30
0.0
  0
SEQEND
  5
738
330
735
100
AcDbEntity
  8
BEMA_UNG
  0
POLYLINE
  5
739
330
1F
100
AcDbEntity
  8
BEMA_UNG
 62
     7
100
AcDb2dPolyline
 66
     1
 10
0.0
 20
0.0
 30
0.0
  0
VERTEX
  5
73A
330
739
100
AcDbEntity
  8
BEMA_UNG
 62
     7
100
AcDbVertex
100
AcDb2dVertex
 10
-10.12066368356405
 20
-10.04073741557934
 30
0.0
  0
VERTEX
  5
73B
330
739
100
AcDbEntity
  8
BEMA_UNG
 62
     7
100
AcDbVertex
100
AcDb2dVertex
 10
-10.12066368356405
 20
-13.54026771811682
 30
0.0
  0
SEQEND
  5
73C
330
739
100
AcDbEntity
  8
BEMA_UNG
  0
POLYLINE
  5
73D
330
1F
100
AcDbEntity
  8
BEMA_UNG
 62
     7
100
AcDb2dPolyline
 66
     1
 10
0.0
 20
0.0
 30
0.0
  0
VERTEX
  5
73E
330
73D
100
AcDbEntity
  8
BEMA_UNG
 62
     7
100
AcDbVertex
100
AcDb2dVertex
 10
-10.57800041093347
 20
-10.04073741557934
 30
0.0
  0
VERTEX
  5
73F
330
73D
100
AcDbEntity
  8
BEMA_UNG
 62
     7
100
AcDbVertex
100
AcDb2dVertex
 10
-10.57800041093347
 20
-10.06795368786724
 30
0.0
  0
SEQEND
  5
740
330
73D
100
AcDbEntity
  8
BEMA_UNG
  0
POLYLINE
  5
741
330
1F
100
AcDbEntity
  8
BEMA_UNG
 62
     7
100
AcDb2dPolyline
 66
     1
 10
0.0
 20
0.0
 30
0.0
  0
VERTEX
  5
742
330
741
100
AcDbEntity
  8
BEMA_UNG
 62
     7
100
AcDbVertex
100
AcDb2dVertex
 10
-10.57800041093347
 20
-10.04073741557934
 30
0.0
  0
VERTEX
  5
743
330
741
100
AcDbEntity
  8
BEMA_UNG
 62
     7
100
AcDbVertex
100
AcDb2dVertex
 10
-10.57800041093347
 20
-10.06795368786724
 30
0.0
  0
SEQEND
  5
744
330
741
100
AcDbEntity
  8
BEMA_UNG
  0
POLYLINE
  5
745
330
1F
100
AcDbEntity
  8
BEMA_UNG
 62
     7
100
AcDb2dPolyline
 66
     1
 10
0.0
 20
0.0
 30
0.0
  0
VERTEX
  5
746
330
745
100
AcDbEntity
  8
BEMA_UNG
 62
     7
100
AcDbVertex
100
AcDb2dVertex
 10
-10.52718521900353
 20
-10.04073741557934
 30
0.0
  0
VERTEX
  5
747
330
745
100
AcDbEntity
  8
BEMA_UNG
 62
     7
100
AcDbVertex
100
AcDb2dVertex
 10
-10.52718521900353
 20
-10.45346012698315
 30
0.0
  0
SEQEND
  5
748
330
745
100
AcDbEntity
  8
BEMA_UNG
  0
POLYLINE
  5
749
330
1F
100
AcDbEntity
  8
BEMA_UNG
 62
     7
100
AcDb2dPolyline
 66
     1
 10
0.0
 20
0.0
 30
0.0
  0
VERTEX
  5
74A
330
749
100
AcDbEntity
  8
BEMA_UNG
 62
     7
100
AcDbVertex
100
AcDb2dVertex
 10
-10.4763700270736
 20
-10.04073741557934
 30
0.0
  0
VERTEX
  5
74B
330
749
100
AcDbEntity
  8
BEMA_UNG
 62
     7
100
AcDbVertex
100
AcDb2dVertex
 10
-10.4763700270736
 20
-10.83982784053855
 30
0.0
  0
SEQEND
  5
74C
330
749
100
AcDbEntity
  8
BEMA_UNG
  0
POLYLINE
  5
74D
330
1F
100
AcDbEntity
  8
BEMA_UNG
 62
     7
100
AcDb2dPolyline
 66
     1
 10
0.0
 20
0.0
 30
0.0
  0
VERTEX
  5
74E
330
74D
100
AcDbEntity
  8
BEMA_UNG
 62
     7
100
AcDbVertex
100
AcDb2dVertex
 10
-10.42589934491946
 20
-10.04073741557934
 30
0.0
  0
VERTEX
  5
74F
330
74D
100
AcDbEntity
  8
BEMA_UNG
 62
     7
100
AcDbVertex
100
AcDb2dVertex
 10
-10.42589934491946
 20
-11.22533427965447
 30
0.0
  0
SEQEND
  5
750
330
74D
100
AcDbEntity
  8
BEMA_UNG
  0
POLYLINE
  5
751
330
1F
100
AcDbEntity
  8
BEMA_UNG
 62
     7
100
AcDb2dPolyline
 66
     1
 10
0.0
 20
0.0
 30
0.0
  0
VERTEX
  5
752
330
751
100
AcDbEntity
  8
BEMA_UNG
 62
     7
100
AcDbVertex
100
AcDb2dVertex
 10
-10.37508415298952
 20
-10.04073741557934
 30
0.0
  0
VERTEX
  5
753
330
751
100
AcDbEntity
  8
BEMA_UNG
 62
     7
100
AcDbVertex
100
AcDb2dVertex
 10
-10.37508415298952
 20
-11.61170199320987
 30
0.0
  0
SEQEND
  5
754
330
751
100
AcDbEntity
  8
BEMA_UNG
  0
POLYLINE
  5
755
330
1F
100
AcDbEntity
  8
BEMA_UNG
 62
     7
100
AcDb2dPolyline
 66
     1
 10
0.0
 20
0.0
 30
0.0
  0
VERTEX
  5
756
330
755
100
AcDbEntity
  8
BEMA_UNG
 62
     7
100
AcDbVertex
100
AcDb2dVertex
 10
-10.32426896105959
 20
-10.04073741557934
 30
0.0
  0
VERTEX
  5
757
330
755
100
AcDbEntity
  8
BEMA_UNG
 62
     7
100
AcDbVertex
100
AcDb2dVertex
 10
-10.32426896105959
 20
-11.99686392254999
 30
0.0
  0
SEQEND
  5
758
330
755
100
AcDbEntity
  8
BEMA_UNG
  0
POLYLINE
  5
759
330
1F
100
AcDbEntity
  8
BEMA_UNG
 62
     7
100
AcDb2dPolyline
 66
     1
 10
0.0
 20
0.0
 30
0.0
  0
VERTEX
  5
75A
330
759
100
AcDbEntity
  8
BEMA_UNG
 62
     7
100
AcDbVertex
100
AcDb2dVertex
 10
-10.27345376912965
 20
-10.04073741557934
 30
0.0
  0
VERTEX
  5
75B
330
759
100
AcDbEntity
  8
BEMA_UNG
 62
     7
100
AcDbVertex
100
AcDb2dVertex
 10
-10.27345376912965
 20
-12.38323163610539
 30
0.0
  0
SEQEND
  5
75C
330
759
100
AcDbEntity
  8
BEMA_UNG
  0
POLYLINE
  5
75D
330
1F
100
AcDbEntity
  8
BEMA_UNG
 62
     7
100
AcDb2dPolyline
 66
     1
 10
0.0
 20
0.0
 30
0.0
  0
VERTEX
  5
75E
330
75D
100
AcDbEntity
  8
BEMA_UNG
 62
     7
100
AcDbVertex
100
AcDb2dVertex
 10
-10.22263857719972
 20
-10.04073741557934
 30
0.0
  0
VERTEX
  5
75F
330
75D
100
AcDbEntity
  8
BEMA_UNG
 62
     7
100
AcDbVertex
100
AcDb2dVertex
 10
-10.22263857719972
 20
-12.7687380752213
 30
0.0
  0
SEQEND
  5
760
330
75D
100
AcDbEntity
  8
BEMA_UNG
  0
POLYLINE
  5
761
330
1F
100
AcDbEntity
  8
BEMA_UNG
 62
     7
100
AcDb2dPolyline
 66
     1
 10
0.0
 20
0.0
 30
0.0
  0
VERTEX
  5
762
330
761
100
AcDbEntity
  8
BEMA_UNG
 62
     7
100
AcDbVertex
100
AcDb2dVertex
 10
-10.17147887549399
 20
-10.04073741557934
 30
0.0
  0
VERTEX
  5
763
330
761
100
AcDbEntity
  8
BEMA_UNG
 62
     7
100
AcDbVertex
100
AcDb2dVertex
 10
-10.17147887549399
 20
-13.15510578877671
 30
0.0
  0
SEQEND
  5
764
330
761
100
AcDbEntity
  8
BEMA_UNG
  0
POLYLINE
  5
765
330
1F
100
AcDbEntity
  8
BEMA_UNG
 62
     7
100
AcDb2dPolyline
 66
     1
 10
0.0
 20
0.0
 30
0.0
  0
VERTEX
  5
766
330
765
100
AcDbEntity
  8
BEMA_UNG
 62
     7
100
AcDbVertex
100
AcDb2dVertex
 10
-10.12066368356405
 20
-10.04073741557934
 30
0.0
  0
VERTEX
  5
767
330
765
100
AcDbEntity
  8
BEMA_UNG
 62
     7
100
AcDbVertex
100
AcDb2dVertex
 10
-10.12066368356405
 20
-13.54026771811682
 30
0.0
  0
SEQEND
  5
768
330
765
100
AcDbEntity
  8
BEMA_UNG
  0
POLYLINE
  5
769
330
1F
100
AcDbEntity
  8
BEMA_UNG
 62
     7
100
AcDb2dPolyline
 66
     1
 10
0.0
 20
0.0
 30
0.0
  0
VERTEX
  5
76A
330
769
100
AcDbEntity
  8
BEMA_UNG
 62
     7
100
AcDbVertex
100
AcDb2dVertex
 10
-10.12066368356405
 20
-21.54064598654336
 30
0.0
  0
VERTEX
  5
76B
330
769
100
AcDbEntity
  8
BEMA_UNG
 62
     7
100
AcDbVertex
100
AcDb2dVertex
 10
-10.58144550869143
 20
-25.04086530863243
 30
0.0
  0
VERTEX
  5
76C
330
769
100
AcDbEntity
  8
BEMA_UNG
 62
     7
100
AcDbVertex
100
AcDb2dVertex
 10
-9.66039862310037
 20
-25.04086530863243
 30
0.0
  0
VERTEX
  5
76D
330
769
100
AcDbEntity
  8
BEMA_UNG
 62
     7
100
AcDbVertex
100
AcDb2dVertex
 10
-10.12066368356405
 20
-21.54064598654336
 30
0.0
  0
SEQEND
  5
76E
330
769
100
AcDbEntity
  8
BEMA_UNG
  0
POLYLINE
  5
76F
330
1F
100
AcDbEntity
  8
BEMA_UNG
 62
     7
100
AcDb2dPolyline
 66
     1
 10
0.0
 20
0.0
 30
0.0
  0
VERTEX
  5
770
330
76F
100
AcDbEntity
  8
BEMA_UNG
 62
     7
100
AcDbVertex
100
AcDb2dVertex
 10
-10.57800041093347
 20
-25.04086530863243
 30
0.0
  0
VERTEX
  5
771
330
76F
100
AcDbEntity
  8
BEMA_UNG
 62
     7
100
AcDbVertex
100
AcDb2dVertex
 10
-10.57800041093347
 20
-25.01364903634453
 30
0.0
  0
SEQEND
  5
772
330
76F
100
AcDbEntity
  8
BEMA_UNG
  0
POLYLINE
  5
773
330
1F
100
AcDbEntity
  8
BEMA_UNG
 62
     7
100
AcDb2dPolyline
 66
     1
 10
0.0
 20
0.0
 30
0.0
  0
VERTEX
  5
774
330
773
100
AcDbEntity
  8
BEMA_UNG
 62
     7
100
AcDbVertex
100
AcDb2dVertex
 10
-10.57800041093347
 20
-25.04086530863243
 30
0.0
  0
VERTEX
  5
775
330
773
100
AcDbEntity
  8
BEMA_UNG
 62
     7
100
AcDbVertex
100
AcDb2dVertex
 10
-10.57800041093347
 20
-25.01364903634453
 30
0.0
  0
SEQEND
  5
776
330
773
100
AcDbEntity
  8
BEMA_UNG
  0
POLYLINE
  5
777
330
1F
100
AcDbEntity
  8
BEMA_UNG
 62
     7
100
AcDb2dPolyline
 66
     1
 10
0.0
 20
0.0
 30
0.0
  0
VERTEX
  5
778
330
777
100
AcDbEntity
  8
BEMA_UNG
 62
     7
100
AcDbVertex
100
AcDb2dVertex
 10
-10.52718521900353
 20
-25.04086530863243
 30
0.0
  0
VERTEX
  5
779
330
777
100
AcDbEntity
  8
BEMA_UNG
 62
     7
100
AcDbVertex
100
AcDb2dVertex
 10
-10.52718521900353
 20
-24.62745357767703
 30
0.0
  0
SEQEND
  5
77A
330
777
100
AcDbEntity
  8
BEMA_UNG
  0
POLYLINE
  5
77B
330
1F
100
AcDbEntity
  8
BEMA_UNG
 62
     7
100
AcDb2dPolyline
 66
     1
 10
0.0
 20
0.0
 30
0.0
  0
VERTEX
  5
77C
330
77B
100
AcDbEntity
  8
BEMA_UNG
 62
     7
100
AcDbVertex
100
AcDb2dVertex
 10
-10.4763700270736
 20
-25.04086530863243
 30
0.0
  0
VERTEX
  5
77D
330
77B
100
AcDbEntity
  8
BEMA_UNG
 62
     7
100
AcDbVertex
100
AcDb2dVertex
 10
-10.4763700270736
 20
-24.24194713856112
 30
0.0
  0
SEQEND
  5
77E
330
77B
100
AcDbEntity
  8
BEMA_UNG
  0
POLYLINE
  5
77F
330
1F
100
AcDbEntity
  8
BEMA_UNG
 62
     7
100
AcDb2dPolyline
 66
     1
 10
0.0
 20
0.0
 30
0.0
  0
VERTEX
  5
780
330
77F
100
AcDbEntity
  8
BEMA_UNG
 62
     7
100
AcDbVertex
100
AcDb2dVertex
 10
-10.42589934491946
 20
-25.04086530863243
 30
0.0
  0
VERTEX
  5
781
330
77F
100
AcDbEntity
  8
BEMA_UNG
 62
     7
100
AcDbVertex
100
AcDb2dVertex
 10
-10.42589934491946
 20
-23.85557942500571
 30
0.0
  0
SEQEND
  5
782
330
77F
100
AcDbEntity
  8
BEMA_UNG
  0
POLYLINE
  5
783
330
1F
100
AcDbEntity
  8
BEMA_UNG
 62
     7
100
AcDb2dPolyline
 66
     1
 10
0.0
 20
0.0
 30
0.0
  0
VERTEX
  5
784
330
783
100
AcDbEntity
  8
BEMA_UNG
 62
     7
100
AcDbVertex
100
AcDb2dVertex
 10
-10.37508415298952
 20
-25.04086530863243
 30
0.0
  0
VERTEX
  5
785
330
783
100
AcDbEntity
  8
BEMA_UNG
 62
     7
100
AcDbVertex
100
AcDb2dVertex
 10
-10.37508415298952
 20
-23.4702452407777
 30
0.0
  0
SEQEND
  5
786
330
783
100
AcDbEntity
  8
BEMA_UNG
  0
POLYLINE
  5
787
330
1F
100
AcDbEntity
  8
BEMA_UNG
 62
     7
100
AcDb2dPolyline
 66
     1
 10
0.0
 20
0.0
 30
0.0
  0
VERTEX
  5
788
330
787
100
AcDbEntity
  8
BEMA_UNG
 62
     7
100
AcDbVertex
100
AcDb2dVertex
 10
-10.32426896105959
 20
-25.04086530863243
 30
0.0
  0
VERTEX
  5
789
330
787
100
AcDbEntity
  8
BEMA_UNG
 62
     7
100
AcDbVertex
100
AcDb2dVertex
 10
-10.32426896105959
 20
-23.08404978211019
 30
0.0
  0
SEQEND
  5
78A
330
787
100
AcDbEntity
  8
BEMA_UNG
  0
POLYLINE
  5
78B
330
1F
100
AcDbEntity
  8
BEMA_UNG
 62
     7
100
AcDb2dPolyline
 66
     1
 10
0.0
 20
0.0
 30
0.0
  0
VERTEX
  5
78C
330
78B
100
AcDbEntity
  8
BEMA_UNG
 62
     7
100
AcDbVertex
100
AcDb2dVertex
 10
-10.27345376912965
 20
-25.04086530863243
 30
0.0
  0
VERTEX
  5
78D
330
78B
100
AcDbEntity
  8
BEMA_UNG
 62
     7
100
AcDbVertex
100
AcDb2dVertex
 10
-10.27345376912965
 20
-22.69854334299428
 30
0.0
  0
SEQEND
  5
78E
330
78B
100
AcDbEntity
  8
BEMA_UNG
  0
POLYLINE
  5
78F
330
1F
100
AcDbEntity
  8
BEMA_UNG
 62
     7
100
AcDb2dPolyline
 66
     1
 10
0.0
 20
0.0
 30
0.0
  0
VERTEX
  5
790
330
78F
100
AcDbEntity
  8
BEMA_UNG
 62
     7
100
AcDbVertex
100
AcDb2dVertex
 10
-10.22263857719972
 20
-25.04086530863243
 30
0.0
  0
VERTEX
  5
791
330
78F
100
AcDbEntity
  8
BEMA_UNG
 62
     7
100
AcDbVertex
100
AcDb2dVertex
 10
-10.22263857719972
 20
-22.31217562943888
 30
0.0
  0
SEQEND
  5
792
330
78F
100
AcDbEntity
  8
BEMA_UNG
  0
POLYLINE
  5
793
330
1F
100
AcDbEntity
  8
BEMA_UNG
 62
     7
100
AcDb2dPolyline
 66
     1
 10
0.0
 20
0.0
 30
0.0
  0
VERTEX
  5
794
330
793
100
AcDbEntity
  8
BEMA_UNG
 62
     7
100
AcDbVertex
100
AcDb2dVertex
 10
-10.17147887549399
 20
-25.04086530863243
 30
0.0
  0
VERTEX
  5
795
330
793
100
AcDbEntity
  8
BEMA_UNG
 62
     7
100
AcDbVertex
100
AcDb2dVertex
 10
-10.17147887549399
 20
-21.92615242565927
 30
0.0
  0
SEQEND
  5
796
330
793
100
AcDbEntity
  8
BEMA_UNG
  0
POLYLINE
  5
797
330
1F
100
AcDbEntity
  8
BEMA_UNG
 62
     7
100
AcDb2dPolyline
 66
     1
 10
0.0
 20
0.0
 30
0.0
  0
VERTEX
  5
798
330
797
100
AcDbEntity
  8
BEMA_UNG
 62
     7
100
AcDbVertex
100
AcDb2dVertex
 10
-10.12066368356405
 20
-25.04086530863243
 30
0.0
  0
VERTEX
  5
799
330
797
100
AcDbEntity
  8
BEMA_UNG
 62
     7
100
AcDbVertex
100
AcDb2dVertex
 10
-10.12066368356405
 20
-21.54064598654336
 30
0.0
  0
SEQEND
  5
79A
330
797
100
AcDbEntity
  8
BEMA_UNG
  0
POLYLINE
  5
79B
330
1F
100
AcDbEntity
  8
BEMA_UNG
 62
     7
100
AcDb2dPolyline
 66
     1
 10
0.0
 20
0.0
 30
0.0
  0
VERTEX
  5
79C
330
79B
100
AcDbEntity
  8
BEMA_UNG
 62
     7
100
AcDbVertex
100
AcDb2dVertex
 10
-9.663843720858333
 20
-25.04086530863243
 30
0.0
  0
VERTEX
  5
79D
330
79B
100
AcDbEntity
  8
BEMA_UNG
 62
     7
100
AcDbVertex
100
AcDb2dVertex
 10
-9.663843720858333
 20
-25.01364903634453
 30
0.0
  0
SEQEND
  5
79E
330
79B
100
AcDbEntity
  8
BEMA_UNG
  0
POLYLINE
  5
79F
330
1F
100
AcDbEntity
  8
BEMA_UNG
 62
     7
100
AcDb2dPolyline
 66
     1
 10
0.0
 20
0.0
 30
0.0
  0
VERTEX
  5
7A0
330
79F
100
AcDbEntity
  8
BEMA_UNG
 62
     7
100
AcDbVertex
100
AcDb2dVertex
 10
-9.663843720858333
 20
-25.04086530863243
 30
0.0
  0
VERTEX
  5
7A1
330
79F
100
AcDbEntity
  8
BEMA_UNG
 62
     7
100
AcDbVertex
100
AcDb2dVertex
 10
-9.663843720858333
 20
-25.01364903634453
 30
0.0
  0
SEQEND
  5
7A2
330
79F
100
AcDbEntity
  8
BEMA_UNG
  0
POLYLINE
  5
7A3
330
1F
100
AcDbEntity
  8
BEMA_UNG
 62
     7
100
AcDb2dPolyline
 66
     1
 10
0.0
 20
0.0
 30
0.0
  0
VERTEX
  5
7A4
330
7A3
100
AcDbEntity
  8
BEMA_UNG
 62
     7
100
AcDbVertex
100
AcDb2dVertex
 10
-9.714658912788268
 20
-25.04086530863243
 30
0.0
  0
VERTEX
  5
7A5
330
7A3
100
AcDbEntity
  8
BEMA_UNG
 62
     7
100
AcDbVertex
100
AcDb2dVertex
 10
-9.714658912788268
 20
-24.62745357767703
 30
0.0
  0
SEQEND
  5
7A6
330
7A3
100
AcDbEntity
  8
BEMA_UNG
  0
POLYLINE
  5
7A7
330
1F
100
AcDbEntity
  8
BEMA_UNG
 62
     7
100
AcDb2dPolyline
 66
     1
 10
0.0
 20
0.0
 30
0.0
  0
VERTEX
  5
7A8
330
7A7
100
AcDbEntity
  8
BEMA_UNG
 62
     7
100
AcDbVertex
100
AcDb2dVertex
 10
-9.765474104718201
 20
-25.04086530863243
 30
0.0
  0
VERTEX
  5
7A9
330
7A7
100
AcDbEntity
  8
BEMA_UNG
 62
     7
100
AcDbVertex
100
AcDb2dVertex
 10
-9.765474104718201
 20
-24.24194713856112
 30
0.0
  0
SEQEND
  5
7AA
330
7A7
100
AcDbEntity
  8
BEMA_UNG
  0
POLYLINE
  5
7AB
330
1F
100
AcDbEntity
  8
BEMA_UNG
 62
     7
100
AcDb2dPolyline
 66
     1
 10
0.0
 20
0.0
 30
0.0
  0
VERTEX
  5
7AC
330
7AB
100
AcDbEntity
  8
BEMA_UNG
 62
     7
100
AcDbVertex
100
AcDb2dVertex
 10
-9.816289296648137
 20
-25.04086530863243
 30
0.0
  0
VERTEX
  5
7AD
330
7AB
100
AcDbEntity
  8
BEMA_UNG
 62
     7
100
AcDbVertex
100
AcDb2dVertex
 10
-9.816289296648137
 20
-23.85557942500571
 30
0.0
  0
SEQEND
  5
7AE
330
7AB
100
AcDbEntity
  8
BEMA_UNG
  0
POLYLINE
  5
7AF
330
1F
100
AcDbEntity
  8
BEMA_UNG
 62
     7
100
AcDb2dPolyline
 66
     1
 10
0.0
 20
0.0
 30
0.0
  0
VERTEX
  5
7B0
330
7AF
100
AcDbEntity
  8
BEMA_UNG
 62
     7
100
AcDbVertex
100
AcDb2dVertex
 10
-9.867104488578072
 20
-25.04086530863243
 30
0.0
  0
VERTEX
  5
7B1
330
7AF
100
AcDbEntity
  8
BEMA_UNG
 62
     7
100
AcDbVertex
100
AcDb2dVertex
 10
-9.867104488578072
 20
-23.4702452407777
 30
0.0
  0
SEQEND
  5
7B2
330
7AF
100
AcDbEntity
  8
BEMA_UNG
  0
POLYLINE
  5
7B3
330
1F
100
AcDbEntity
  8
BEMA_UNG
 62
     7
100
AcDb2dPolyline
 66
     1
 10
0.0
 20
0.0
 30
0.0
  0
VERTEX
  5
7B4
330
7B3
100
AcDbEntity
  8
BEMA_UNG
 62
     7
100
AcDbVertex
100
AcDb2dVertex
 10
-9.91757517073221
 20
-25.04086530863243
 30
0.0
  0
VERTEX
  5
7B5
330
7B3
100
AcDbEntity
  8
BEMA_UNG
 62
     7
100
AcDbVertex
100
AcDb2dVertex
 10
-9.91757517073221
 20
-23.08404978211019
 30
0.0
  0
SEQEND
  5
7B6
330
7B3
100
AcDbEntity
  8
BEMA_UNG
  0
POLYLINE
  5
7B7
330
1F
100
AcDbEntity
  8
BEMA_UNG
 62
     7
100
AcDb2dPolyline
 66
     1
 10
0.0
 20
0.0
 30
0.0
  0
VERTEX
  5
7B8
330
7B7
100
AcDbEntity
  8
BEMA_UNG
 62
     7
100
AcDbVertex
100
AcDb2dVertex
 10
-9.968390362662145
 20
-25.04086530863243
 30
0.0
  0
VERTEX
  5
7B9
330
7B7
100
AcDbEntity
  8
BEMA_UNG
 62
     7
100
AcDbVertex
100
AcDb2dVertex
 10
-9.968390362662145
 20
-22.69854334299428
 30
0.0
  0
SEQEND
  5
7BA
330
7B7
100
AcDbEntity
  8
BEMA_UNG
  0
POLYLINE
  5
7BB
330
1F
100
AcDbEntity
  8
BEMA_UNG
 62
     7
100
AcDb2dPolyline
 66
     1
 10
0.0
 20
0.0
 30
0.0
  0
VERTEX
  5
7BC
330
7BB
100
AcDbEntity
  8
BEMA_UNG
 62
     7
100
AcDbVertex
100
AcDb2dVertex
 10
-10.01920555459208
 20
-25.04086530863243
 30
0.0
  0
VERTEX
  5
7BD
330
7BB
100
AcDbEntity
  8
BEMA_UNG
 62
     7
100
AcDbVertex
100
AcDb2dVertex
 10
-10.01920555459208
 20
-22.31217562943888
 30
0.0
  0
SEQEND
  5
7BE
330
7BB
100
AcDbEntity
  8
BEMA_UNG
  0
POLYLINE
  5
7BF
330
1F
100
AcDbEntity
  8
BEMA_UNG
 62
     7
100
AcDb2dPolyline
 66
     1
 10
0.0
 20
0.0
 30
0.0
  0
VERTEX
  5
7C0
330
7BF
100
AcDbEntity
  8
BEMA_UNG
 62
     7
100
AcDbVertex
100
AcDb2dVertex
 10
-10.07002074652202
 20
-25.04086530863243
 30
0.0
  0
VERTEX
  5
7C1
330
7BF
100
AcDbEntity
  8
BEMA_UNG
 62
     7
100
AcDbVertex
100
AcDb2dVertex
 10
-10.07002074652202
 20
-21.92615242565927
 30
0.0
  0
SEQEND
  5
7C2
330
7BF
100
AcDbEntity
  8
BEMA_UNG
  0
POLYLINE
  5
7C3
330
1F
100
AcDbEntity
  8
BEMA_UNG
 62
     7
100
AcDb2dPolyline
 66
     1
 10
0.0
 20
0.0
 30
0.0
  0
VERTEX
  5
7C4
330
7C3
100
AcDbEntity
  8
BEMA_UNG
 62
     7
100
AcDbVertex
100
AcDb2dVertex
 10
-10.12066368356405
 20
-25.04086530863243
 30
0.0
  0
VERTEX
  5
7C5
330
7C3
100
AcDbEntity
  8
BEMA_UNG
 62
     7
100
AcDbVertex
100
AcDb2dVertex
 10
-10.12066368356405
 20
-21.54064598654336
 30
0.0
  0
SEQEND
  5
7C6
330
7C3
100
AcDbEntity
  8
BEMA_UNG
  0
MTEXT
  5
7C8
330
1F
100
AcDbEntity
  8
TEXT
 62
     7
100
AcDbMText
 10
64.45967385523006
 20
-15.27719988023716
 30
0.0
 40
3.311188396084465
 41
0.0
 71
     7
 72
     1
  1
\fINDEX Univers 45 Light|b0|i0|c0|p34;\W1;\U+00F832
 11
-4.371139000186241E-8
 21
0.999999999999999
 31
0.0
  0
MTEXT
  5
7C9
330
1F
100
AcDbEntity
  8
TEXT
 62
     7
100
AcDbMText
 10
24.25538301981717
 20
-43.1367580469899
 30
0.0
 40
3.311188396084465
 41
0.0
 71
     7
 72
     1
  1
\fINDEX Univers 45 Light|b0|i0|c0|p34;\W1;52
  0
MTEXT
  5
7CA
330
1F
100
AcDbEntity
  8
TEXT
 62
     7
100
AcDbMText
 10
14.75707624622889
 20
12.16584596757801
 30
0.0
 40
3.311188396084465
 41
0.0
 71
     7
 72
     1
  1
\fINDEX Univers 45 Light|b0|i0|c0|p34;\W1;33
  0
MTEXT
  5
7CB
330
1F
100
AcDbEntity
  8
TEXT
 62
     7
100
AcDbMText
 10
55.23835294138192
 20
11.0780563505016
 30
0.0
 40
3.311188396084465
 41
0.0
 71
     7
 72
     1
  1
\fINDEX Univers 45 Light|b0|i0|c0|p34;\W1;Capto C3
  0
MTEXT
  5
7CC
330
1F
100
AcDbEntity
  8
TEXT
 62
     7
100
AcDbMText
 10
-10.92182116717804
 20
-19.62603290755615
 30
0.0
 40
3.311188396084465
 41
0.0
 71
     7
 72
     1
  1
\fINDEX Univers 45 Light|b0|i0|c0|p34;\W1;\U+00F88
 11
-4.371139000186241E-8
 21
0.999999999999999
 31
0.0
  0
ENDSEC
  0
SECTION
  2
OBJECTS
  0
DICTIONARY
  5
C
330
0
100
AcDbDictionary
  3
ACAD_GROUP
350
D
  3
ACAD_LAYOUT
350
1A
  3
ACAD_MLINESTYLE
350
17
  3
ACAD_PLOTSETTINGS
350
19
  3
ACAD_TABLESTYLE
350
7ED
  3
ACAD_VISUALSTYLE
350
2A
  3
ACDBHEADERROUNDTRIPXREC
350
7CD
  0
DICTIONARY
  5
D
102
{ACAD_REACTORS
330
C
102
}
330
C
100
AcDbDictionary
  0
DICTIONARY
  5
1A
102
{ACAD_REACTORS
330
C
102
}
330
C
100
AcDbDictionary
  0
DICTIONARY
  5
17
102
{ACAD_REACTORS
330
C
102
}
330
C
100
AcDbDictionary
  3
STANDARD
350
18
  0
DICTIONARY
  5
19
102
{ACAD_REACTORS
330
C
102
}
330
C
100
AcDbDictionary
  0
DICTIONARY
  5
7ED
102
{ACAD_REACTORS
330
C
102
}
330
C
100
AcDbDictionary
  0
DICTIONARY
  5
2A
102
{ACAD_REACTORS
330
C
102
}
330
C
100
AcDbDictionary
  3
2DWIREFRAME
350
2F
  3
3D_HIDDEN
350
31
  3
3DWIREFRAME
350
30
  3
BASIC
350
32
  3
BRIGHTEN
350
36
  3
COLORCHANGE
350
3A
  3
CONCEPTUAL
350
34
  3
DIM
350
35
  3
FACEPATTERN
350
39
  3
FLAT
350
2B
  3
FLATWITHEDGES
350
2C
  3
GOURAUD
350
2D
  3
GOURAUDWITHEDGES
350
2E
  3
LINEPATTERN
350
38
  3
REALISTIC
350
33
  3
THICKEN
350
37
  0
DICTIONARY
  5
7CD
102
{ACAD_REACTORS
330
C
102
}
330
C
100
AcDbDictionary
  3
CEPSNTYPE
350
7D6
  3
DIMSTYLEDATA
350
7EC
  3
FINGERPRINTGUID
350
7D7
  3
HYPERLINKBASE
350
7D0
  3
INSUNITS
350
7D5
  3
LAYOUTDICT
350
7D2
  3
LWETCUNION
350
7D4
  3
PLOTSETDICT
350
7D3
  3
PSVPSCALE
350
7D9
  3
PUCSBASE
350
7DC
  3
PUCSORGBACK
350
7E2
  3
PUCSORGBOTTOM
350
7DE
  3
PUCSORGFRONT
350
7E1
  3
PUCSORGLEFT
350
7DF
  3
PUCSORGRIGHT
350
7E0
  3
PUCSORGTOP
350
7DD
  3
PUCSORTHOREF
350
7DA
  3
PUCSORTHOVIEW
350
7DB
  3
STYLESHEET
350
7D1
  3
TSTACKALIGN
350
7CE
  3
TSTACKSIZE
350
7CF
  3
UCSBASE
350
7E5
  3
UCSORGBACK
350
7EB
  3
UCSORGBOTTOM
350
7E7
  3
UCSORGFRONT
350
7EA
  3
UCSORGLEFT
350
7E8
  3
UCSORGRIGHT
350
7E9
  3
UCSORGTOP
350
7E6
  3
UCSORTHOREF
350
7E3
  3
UCSORTHOVIEW
350
7E4
  3
VERSIONGUID
350
7D8
  0
MLINESTYLE
  5
18
102
{ACAD_REACTORS
330
17
102
}
330
17
100
AcDbMlineStyle
  2
Standard
 70
     0
  3

 62
   256
 51
90.0
 52
90.0
 71
     2
 49
0.5
 62
   256
  6
BYLAYER
 49
-0.5
 62
   256
  6
BYLAYER
  0
VISUALSTYLE
  5
2F
102
{ACAD_REACTORS
330
2A
102
}
330
2A
100
AcDbVisualStyle
  2
2dWireframe
 70
     4
 71
     0
 72
     2
 73
     0
 90
        0
 40
-0.6
 41
-30.0
 62
     5
 63
     7
 74
     1
 91
        4
 64
     7
 65
   257
 75
     1
175
     1
 42
1.0
 92
        0
 66
   257
 43
1.0
 76
     1
 77
     6
 78
     2
 67
     7
 79
     5
170
     0
171
     0
290
     0
174
     0
 93
        1
 44
0.0
173
     0
291
     0
 45
0.0
1001
ACAD
1000
AcDbSavedByObjectVersion
1070
     0
  0
VISUALSTYLE
  5
31
102
{ACAD_REACTORS
330
2A
102
}
330
2A
100
AcDbVisualStyle
  2
3D Hidden
 70
     6
 71
     1
 72
     2
 73
     2
 90
        0
 40
-0.6
 41
-30.0
 62
     5
 63
     7
 74
     2
 91
        2
 64
     7
 65
   257
 75
     2
175
     1
 42
40.0
 92
        0
 66
   257
 43
1.0
 76
     1
 77
     6
 78
     2
 67
     7
 79
     3
170
     0
171
     0
290
     0
174
     0
 93
        1
 44
0.0
173
     0
291
     0
 45
0.0
1001
ACAD
1000
AcDbSavedByObjectVersion
1070
     0
  0
VISUALSTYLE
  5
30
102
{ACAD_REACTORS
330
2A
102
}
330
2A
100
AcDbVisualStyle
  2
3dWireframe
 70
     5
 71
     0
 72
     2
 73
     0
 90
        0
 40
-0.6
 41
-30.0
 62
     5
 63
     7
 74
     1
 91
        4
 64
     7
 65
   257
 75
     1
175
     1
 42
1.0
 92
        0
 66
   257
 43
1.0
 76
     1
 77
     6
 78
     2
 67
     7
 79
     5
170
     0
171
     0
290
     0
174
     0
 93
        1
 44
0.0
173
     0
291
     0
 45
0.0
1001
ACAD
1000
AcDbSavedByObjectVersion
1070
     0
  0
VISUALSTYLE
  5
32
102
{ACAD_REACTORS
330
2A
102
}
330
2A
100
AcDbVisualStyle
  2
Basic
 70
     7
 71
     1
 72
     0
 73
     1
 90
        0
 40
-0.6
 41
-30.0
 62
     5
 63
     7
 74
     0
 91
        4
 64
     7
 65
   257
 75
     1
175
     1
 42
1.0
 92
        8
 66
     7
 43
1.0
 76
     1
 77
     6
 78
     2
 67
     7
 79
     5
170
     0
171
     0
290
     0
174
     0
 93
        1
 44
0.0
173
     0
291
     1
 45
0.0
1001
ACAD
1000
AcDbSavedByObjectVersion
1070
     0
  0
VISUALSTYLE
  5
36
102
{ACAD_REACTORS
330
2A
102
}
330
2A
100
AcDbVisualStyle
  2
Brighten
 70
    12
 71
     2
 72
     2
 73
     0
 90
        0
 40
-0.6
 41
-30.0
 62
     5
 63
     7
 74
     1
 91
        4
 64
     7
 65
   257
 75
     1
175
     1
 42
1.0
 92
        8
 66
     7
 43
1.0
 76
     1
 77
     6
 78
     2
 67
     7
 79
     5
170
     0
171
     0
290
     0
174
     0
 93
        1
 44
50.0
173
     0
291
     1
 45
0.0
1001
ACAD
1000
AcDbSavedByObjectVersion
1070
     0
  0
VISUALSTYLE
  5
3A
102
{ACAD_REACTORS
330
2A
102
}
330
2A
100
AcDbVisualStyle
  2
ColorChange
 70
    16
 71
     2
 72
     2
 73
     3
 90
        0
 40
-0.6
 41
-30.0
 62
     5
 63
     8
 74
     1
 91
        4
 64
     7
 65
   257
 75
     1
175
     1
 42
1.0
 92
        8
 66
     8
 43
1.0
 76
     1
 77
     6
 78
     2
 67
     7
 79
     5
170
     0
171
     0
290
     0
174
     0
 93
        1
 44
0.0
173
     0
291
     1
 45
0.0
1001
ACAD
1000
AcDbSavedByObjectVersion
1070
     0
  0
VISUALSTYLE
  5
34
102
{ACAD_REACTORS
330
2A
102
}
330
2A
100
AcDbVisualStyle
  2
Conceptual
 70
     9
 71
     3
 72
     2
 73
     0
 90
        0
 40
-0.6
 41
-30.0
 62
     5
 63
     7
 74
     2
 91
        2
 64
     7
 65
   257
 75
     1
175
     1
 42
40.0
 92
        8
 66
     7
 43
1.0
 76
     1
 77
     6
 78
     2
 67
     7
 79
     3
170
     0
171
     0
290
     0
174
     0
 93
        1
 44
0.0
173
     0
291
     0
 45
0.0
1001
ACAD
1000
AcDbSavedByObjectVersion
1070
     0
  0
VISUALSTYLE
  5
35
102
{ACAD_REACTORS
330
2A
102
}
330
2A
100
AcDbVisualStyle
  2
Dim
 70
    11
 71
     2
 72
     2
 73
     0
 90
        0
 40
-0.6
 41
-30.0
 62
     5
 63
     7
 74
     1
 91
        4
 64
     7
 65
   257
 75
     1
175
     1
 42
1.0
 92
        8
 66
     7
 43
1.0
 76
     1
 77
     6
 78
     2
 67
     7
 79
     5
170
     0
171
     0
290
     0
174
     0
 93
        1
 44
-50.0
173
     0
291
     1
 45
0.0
1001
ACAD
1000
AcDbSavedByObjectVersion
1070
     0
  0
VISUALSTYLE
  5
39
102
{ACAD_REACTORS
330
2A
102
}
330
2A
100
AcDbVisualStyle
  2
Facepattern
 70
    15
 71
     2
 72
     2
 73
     0
 90
        0
 40
-0.6
 41
-30.0
 62
     5
 63
     7
 74
     1
 91
        4
 64
     7
 65
   257
 75
     1
175
     1
 42
1.0
 92
        8
 66
     7
 43
1.0
 76
     1
 77
     6
 78
     2
 67
     7
 79
     5
170
     0
171
     0
290
     0
174
     0
 93
        1
 44
0.0
173
     0
291
     1
 45
0.0
1001
ACAD
1000
AcDbSavedByObjectVersion
1070
     0
  0
VISUALSTYLE
  5
2B
102
{ACAD_REACTORS
330
2A
102
}
330
2A
100
AcDbVisualStyle
  2
Flat
 70
     0
 71
     2
 72
     1
 73
     1
 90
        2
 40
-0.6
 41
30.0
 62
     5
 63
     7
 74
     0
 91
        4
 64
     7
 65
   257
 75
     1
175
     1
 42
1.0
 92
        8
 66
     7
 43
1.0
 76
     1
 77
     6
 78
     2
 67
     7
 79
     5
170
     0
171
     0
290
     0
174
     0
 93
       13
 44
0.0
173
     0
291
     1
 45
0.0
1001
ACAD
1000
AcDbSavedByObjectVersion
1070
     0
  0
VISUALSTYLE
  5
2C
102
{ACAD_REACTORS
330
2A
102
}
330
2A
100
AcDbVisualStyle
  2
FlatWithEdges
 70
     1
 71
     2
 72
     1
 73
     1
 90
        2
 40
-0.6
 41
30.0
 62
     5
 63
     7
 74
     1
 91
        4
 64
     7
 65
   257
 75
     1
175
     1
 42
1.0
 92
        0
 66
   257
 43
1.0
 76
     1
 77
     6
 78
     2
 67
     7
 79
     5
170
     0
171
     0
290
     0
174
     0
 93
       13
 44
0.0
173
     0
291
     1
 45
0.0
1001
ACAD
1000
AcDbSavedByObjectVersion
1070
     0
  0
VISUALSTYLE
  5
2D
102
{ACAD_REACTORS
330
2A
102
}
330
2A
100
AcDbVisualStyle
  2
Gouraud
 70
     2
 71
     2
 72
     2
 73
     1
 90
        2
 40
-0.6
 41
30.0
 62
     5
 63
     7
 74
     0
 91
        4
 64
     7
 65
   257
 75
     1
175
     1
 42
1.0
 92
        0
 66
     7
 43
1.0
 76
     1
 77
     6
 78
     2
 67
     7
 79
     5
170
     0
171
     0
290
     0
174
     0
 93
       13
 44
0.0
173
     0
291
     1
 45
0.0
1001
ACAD
1000
AcDbSavedByObjectVersion
1070
     0
  0
VISUALSTYLE
  5
2E
102
{ACAD_REACTORS
330
2A
102
}
330
2A
100
AcDbVisualStyle
  2
GouraudWithEdges
 70
     3
 71
     2
 72
     2
 73
     1
 90
        2
 40
-0.6
 41
30.0
 62
     5
 63
     7
 74
     1
 91
        4
 64
     7
 65
   257
 75
     1
175
     1
 42
1.0
 92
        0
 66
   257
 43
1.0
 76
     1
 77
     6
 78
     2
 67
     7
 79
     5
170
     0
171
     0
290
     0
174
     0
 93
       13
 44
0.0
173
     0
291
     1
 45
0.0
1001
ACAD
1000
AcDbSavedByObjectVersion
1070
     0
  0
VISUALSTYLE
  5
38
102
{ACAD_REACTORS
330
2A
102
}
330
2A
100
AcDbVisualStyle
  2
Linepattern
 70
    14
 71
     2
 72
     2
 73
     0
 90
        0
 40
-0.6
 41
-30.0
 62
     5
 63
     7
 74
     1
 91
        4
 64
     7
 65
   257
 75
     7
175
     7
 42
1.0
 92
        8
 66
     7
 43
1.0
 76
     1
 77
     6
 78
     2
 67
     7
 79
     5
170
     0
171
     0
290
     0
174
     0
 93
        1
 44
0.0
173
     0
291
     1
 45
0.0
1001
ACAD
1000
AcDbSavedByObjectVersion
1070
     0
  0
VISUALSTYLE
  5
33
102
{ACAD_REACTORS
330
2A
102
}
330
2A
100
AcDbVisualStyle
  2
Realistic
 70
     8
 71
     2
 72
     2
 73
     0
 90
        0
 40
-0.6
 41
-30.0
 62
     5
 63
     7
 74
     1
 91
        0
 64
     7
 65
   257
 75
     1
175
     1
 42
1.0
 92
        8
 66
     8
 43
1.0
 76
     1
 77
     6
 78
     2
 67
     7
 79
     5
170
     0
171
     0
290
     0
174
     0
 93
       13
 44
0.0
173
     0
291
     0
 45
0.0
1001
ACAD
1000
AcDbSavedByObjectVersion
1070
     0
  0
VISUALSTYLE
  5
37
102
{ACAD_REACTORS
330
2A
102
}
330
2A
100
AcDbVisualStyle
  2
Thicken
 70
    13
 71
     2
 72
     2
 73
     0
 90
        0
 40
-0.6
 41
-30.0
 62
     5
 63
     7
 74
     1
 91
        4
 64
     7
 65
   257
 75
     1
175
     1
 42
1.0
 92
       12
 66
     7
 43
1.0
 76
     1
 77
     6
 78
     2
 67
     7
 79
     5
170
     0
171
     0
290
     0
174
     0
 93
        1
 44
0.0
173
     0
291
     1
 45
0.0
1001
ACAD
1000
AcDbSavedByObjectVersion
1070
     0
  0
XRECORD
  5
7D6
102
{ACAD_REACTORS
330
7CD
102
}
330
7CD
100
AcDbXrecord
 90
        0
  0
XRECORD
  5
7EC
102
{ACAD_REACTORS
330
7CD
102
}
330
7CD
100
AcDbXrecord
1000
DSTYLE
1002
{
1070
   340
340
11
1002
}
  0
XRECORD
  5
7D7
102
{ACAD_REACTORS
330
7CD
102
}
330
7CD
100
AcDbXrecord
  1
{4BAE1724-5BC2-45D0-9104-BAB21A02ADD9}
  0
XRECORD
  5
7D0
102
{ACAD_REACTORS
330
7CD
102
}
330
7CD
100
AcDbXrecord
  1

  0
XRECORD
  5
7D5
102
{ACAD_REACTORS
330
7CD
102
}
330
7CD
100
AcDbXrecord
 90
        1
  0
XRECORD
  5
7D2
102
{ACAD_REACTORS
330
7CD
102
}
330
7CD
100
AcDbXrecord
340
1A
  0
XRECORD
  5
7D4
102
{ACAD_REACTORS
330
7CD
102
}
330
7CD
100
AcDbXrecord
 90
    10269
  0
XRECORD
  5
7D3
102
{ACAD_REACTORS
330
7CD
102
}
330
7CD
100
AcDbXrecord
340
19
  0
XRECORD
  5
7D9
102
{ACAD_REACTORS
330
7CD
102
}
330
7CD
100
AcDbXrecord
 40
0.0
  0
XRECORD
  5
7DC
102
{ACAD_REACTORS
330
7CD
102
}
330
7CD
100
AcDbXrecord
340
0
  0
XRECORD
  5
7E2
102
{ACAD_REACTORS
330
7CD
102
}
330
7CD
100
AcDbXrecord
 10
0.0
 20
0.0
 30
0.0
  0
XRECORD
  5
7DE
102
{ACAD_REACTORS
330
7CD
102
}
330
7CD
100
AcDbXrecord
 10
0.0
 20
0.0
 30
0.0
  0
XRECORD
  5
7E1
102
{ACAD_REACTORS
330
7CD
102
}
330
7CD
100
AcDbXrecord
 10
0.0
 20
0.0
 30
0.0
  0
XRECORD
  5
7DF
102
{ACAD_REACTORS
330
7CD
102
}
330
7CD
100
AcDbXrecord
 10
0.0
 20
0.0
 30
0.0
  0
XRECORD
  5
7E0
102
{ACAD_REACTORS
330
7CD
102
}
330
7CD
100
AcDbXrecord
 10
0.0
 20
0.0
 30
0.0
  0
XRECORD
  5
7DD
102
{ACAD_REACTORS
330
7CD
102
}
330
7CD
100
AcDbXrecord
 10
0.0
 20
0.0
 30
0.0
  0
XRECORD
  5
7DA
102
{ACAD_REACTORS
330
7CD
102
}
330
7CD
100
AcDbXrecord
340
0
  0
XRECORD
  5
7DB
102
{ACAD_REACTORS
330
7CD
102
}
330
7CD
100
AcDbXrecord
 70
     0
  0
XRECORD
  5
7D1
102
{ACAD_REACTORS
330
7CD
102
}
330
7CD
100
AcDbXrecord
  1

  0
XRECORD
  5
7CE
102
{ACAD_REACTORS
330
7CD
102
}
330
7CD
100
AcDbXrecord
 90
        1
  0
XRECORD
  5
7CF
102
{ACAD_REACTORS
330
7CD
102
}
330
7CD
100
AcDbXrecord
 90
       70
  0
XRECORD
  5
7E5
102
{ACAD_REACTORS
330
7CD
102
}
330
7CD
100
AcDbXrecord
340
0
  0
XRECORD
  5
7EB
102
{ACAD_REACTORS
330
7CD
102
}
330
7CD
100
AcDbXrecord
 10
0.0
 20
0.0
 30
0.0
  0
XRECORD
  5
7E7
102
{ACAD_REACTORS
330
7CD
102
}
330
7CD
100
AcDbXrecord
 10
0.0
 20
0.0
 30
0.0
  0
XRECORD
  5
7EA
102
{ACAD_REACTORS
330
7CD
102
}
330
7CD
100
AcDbXrecord
 10
0.0
 20
0.0
 30
0.0
  0
XRECORD
  5
7E8
102
{ACAD_REACTORS
330
7CD
102
}
330
7CD
100
AcDbXrecord
 10
0.0
 20
0.0
 30
0.0
  0
XRECORD
  5
7E9
102
{ACAD_REACTORS
330
7CD
102
}
330
7CD
100
AcDbXrecord
 10
0.0
 20
0.0
 30
0.0
  0
XRECORD
  5
7E6
102
{ACAD_REACTORS
330
7CD
102
}
330
7CD
100
AcDbXrecord
 10
0.0
 20
0.0
 30
0.0
  0
XRECORD
  5
7E3
102
{ACAD_REACTORS
330
7CD
102
}
330
7CD
100
AcDbXrecord
340
0
  0
XRECORD
  5
7E4
102
{ACAD_REACTORS
330
7CD
102
}
330
7CD
100
AcDbXrecord
 70
     0
  0
XRECORD
  5
7D8
102
{ACAD_REACTORS
330
7CD
102
}
330
7CD
100
AcDbXrecord
  1
{FAEB1C32-E019-11D5-929B-00C0DF256EC4}
  0
ENDSEC
  0
EOF
