  0
SECTION
  2
HEADER
  9
$ACADVER
  1
AC1032
  9
$ACADMAINTVER
 90
      228
  9
$DWGCODEPAGE
  3
ANSI_1252
  9
$REQUIREDVERSIONS
160
                 0
  9
$INSBASE
 10
0.0
 20
0.0
 30
0.0
  9
$EXTMIN
 10
1.000000000000000E+20
 20
1.000000000000000E+20
 30
1.000000000000000E+20
  9
$EXTMAX
 10
-1.000000000000000E+20
 20
-1.000000000000000E+20
 30
-1.000000000000000E+20
  9
$LIMMIN
 10
0.0
 20
0.0
  9
$LIMMAX
 10
12.0
 20
9.0
  9
$ORTHOMODE
 70
     0
  9
$REGENMODE
 70
     1
  9
$FILLMODE
 70
     1
  9
$QTEXTMODE
 70
     0
  9
$MIRRTEXT
 70
     0
  9
$LTSCALE
 40
1.0
  9
$ATTMODE
 70
     1
  9
$TEXTSIZE
 40
0.2
  9
$TRACEWID
 40
0.05
  9
$TEXTSTYLE
  7
Standard
  9
$CLAYER
  8
0
  9
$CELTYPE
  6
ByLayer
  9
$CECOLOR
 62
   256
  9
$CELTSCALE
 40
1.0
  9
$DISPSILH
 70
     0
  9
$DIMSCALE
 40
1.0
  9
$DIMASZ
 40
0.18
  9
$DIMEXO
 40
0.0625
  9
$DIMDLI
 40
0.38
  9
$DIMRND
 40
0.0
  9
$DIMDLE
 40
0.0
  9
$DIMEXE
 40
0.18
  9
$DIMTP
 40
0.0
  9
$DIMTM
 40
0.0
  9
$DIMTXT
 40
0.18
  9
$DIMCEN
 40
0.09
  9
$DIMTSZ
 40
0.0
  9
$DIMTOL
 70
     0
  9
$DIMLIM
 70
     0
  9
$DIMTIH
 70
     1
  9
$DIMTOH
 70
     1
  9
$DIMSE1
 70
     0
  9
$DIMSE2
 70
     0
  9
$DIMTAD
 70
     0
  9
$DIMZIN
 70
     0
  9
$DIMBLK
  1

  9
$DIMASO
 70
     1
  9
$DIMSHO
 70
     1
  9
$DIMPOST
  1

  9
$DIMAPOST
  1

  9
$DIMALT
 70
     0
  9
$DIMALTD
 70
     2
  9
$DIMALTF
 40
25.4
  9
$DIMLFAC
 40
1.0
  9
$DIMTOFL
 70
     0
  9
$DIMTVP
 40
0.0
  9
$DIMTIX
 70
     0
  9
$DIMSOXD
 70
     0
  9
$DIMSAH
 70
     0
  9
$DIMBLK1
  1

  9
$DIMBLK2
  1

  9
$DIMSTYLE
  2
Standard
  9
$DIMCLRD
 70
     0
  9
$DIMCLRE
 70
     0
  9
$DIMCLRT
 70
     0
  9
$DIMTFAC
 40
1.0
  9
$DIMGAP
 40
0.09
  9
$DIMJUST
 70
     0
  9
$DIMSD1
 70
     0
  9
$DIMSD2
 70
     0
  9
$DIMTOLJ
 70
     1
  9
$DIMTZIN
 70
     0
  9
$DIMALTZ
 70
     0
  9
$DIMALTTZ
 70
     0
  9
$DIMUPT
 70
     0
  9
$DIMDEC
 70
     4
  9
$DIMTDEC
 70
     4
  9
$DIMALTU
 70
     2
  9
$DIMALTTD
 70
     2
  9
$DIMTXSTY
  7
Standard
  9
$DIMAUNIT
 70
     0
  9
$DIMADEC
 70
     0
  9
$DIMALTRND
 40
0.0
  9
$DIMAZIN
 70
     0
  9
$DIMDSEP
 70
    46
  9
$DIMATFIT
 70
     3
  9
$DIMFRAC
 70
     0
  9
$DIMLDRBLK
  1

  9
$DIMLUNIT
 70
     2
  9
$DIMLWD
 70
    -2
  9
$DIMLWE
 70
    -2
  9
$DIMTMOVE
 70
     0
  9
$DIMFXL
 40
1.0
  9
$DIMFXLON
 70
     0
  9
$DIMJOGANG
 40
0.7853981633974483
  9
$DIMTFILL
 70
     0
  9
$DIMTFILLCLR
 70
     0
  9
$DIMARCSYM
 70
     0
  9
$DIMLTYPE
  6

  9
$DIMLTEX1
  6

  9
$DIMLTEX2
  6

  9
$DIMTXTDIRECTION
 70
     0
  9
$LUNITS
 70
     2
  9
$LUPREC
 70
     4
  9
$SKETCHINC
 40
0.1
  9
$FILLETRAD
 40
0.0
  9
$AUNITS
 70
     0
  9
$AUPREC
 70
     0
  9
$MENU
  1
.
  9
$ELEVATION
 40
0.0
  9
$PELEVATION
 40
0.0
  9
$THICKNESS
 40
0.0
  9
$LIMCHECK
 70
     0
  9
$CHAMFERA
 40
0.0
  9
$CHAMFERB
 40
0.0
  9
$CHAMFERC
 40
0.0
  9
$CHAMFERD
 40
0.0
  9
$SKPOLY
 70
     0
  9
$TDCREATE
 40
2460101.402557870
  9
$TDUCREATE
 40
2460101.319224537
  9
$TDUPDATE
 40
2460101.402557870
  9
$TDUUPDATE
 40
2460101.319224537
  9
$TDINDWG
 40
0.0000000000
  9
$TDUSRTIMER
 40
0.0000000000
  9
$USRTIMER
 70
     1
  9
$ANGBASE
 50
0.0
  9
$ANGDIR
 70
     0
  9
$PDMODE
 70
     0
  9
$PDSIZE
 40
0.0
  9
$PLINEWID
 40
0.0
  9
$SPLFRAME
 70
     0
  9
$SPLINETYPE
 70
     6
  9
$SPLINESEGS
 70
     8
  9
$HANDSEED
  5
310
  9
$SURFTAB1
 70
     6
  9
$SURFTAB2
 70
     6
  9
$SURFTYPE
 70
     6
  9
$SURFU
 70
     6
  9
$SURFV
 70
     6
  9
$UCSBASE
  2

  9
$UCSNAME
  2

  9
$UCSORG
 10
0.0
 20
0.0
 30
0.0
  9
$UCSXDIR
 10
1.0
 20
0.0
 30
0.0
  9
$UCSYDIR
 10
0.0
 20
1.0
 30
0.0
  9
$UCSORTHOREF
  2

  9
$UCSORTHOVIEW
 70
     0
  9
$UCSORGTOP
 10
0.0
 20
0.0
 30
0.0
  9
$UCSORGBOTTOM
 10
0.0
 20
0.0
 30
0.0
  9
$UCSORGLEFT
 10
0.0
 20
0.0
 30
0.0
  9
$UCSORGRIGHT
 10
0.0
 20
0.0
 30
0.0
  9
$UCSORGFRONT
 10
0.0
 20
0.0
 30
0.0
  9
$UCSORGBACK
 10
0.0
 20
0.0
 30
0.0
  9
$PUCSBASE
  2

  9
$PUCSNAME
  2

  9
$PUCSORG
 10
0.0
 20
0.0
 30
0.0
  9
$PUCSXDIR
 10
1.0
 20
0.0
 30
0.0
  9
$PUCSYDIR
 10
0.0
 20
1.0
 30
0.0
  9
$PUCSORTHOREF
  2

  9
$PUCSORTHOVIEW
 70
     0
  9
$PUCSORGTOP
 10
0.0
 20
0.0
 30
0.0
  9
$PUCSORGBOTTOM
 10
0.0
 20
0.0
 30
0.0
  9
$PUCSORGLEFT
 10
0.0
 20
0.0
 30
0.0
  9
$PUCSORGRIGHT
 10
0.0
 20
0.0
 30
0.0
  9
$PUCSORGFRONT
 10
0.0
 20
0.0
 30
0.0
  9
$PUCSORGBACK
 10
0.0
 20
0.0
 30
0.0
  9
$USERI1
 70
     0
  9
$USERI2
 70
     0
  9
$USERI3
 70
     0
  9
$USERI4
 70
     0
  9
$USERI5
 70
     0
  9
$USERR1
 40
0.0
  9
$USERR2
 40
0.0
  9
$USERR3
 40
0.0
  9
$USERR4
 40
0.0
  9
$USERR5
 40
0.0
  9
$WORLDVIEW
 70
     1
  9
$SHADEDGE
 70
     3
  9
$SHADEDIF
 70
    70
  9
$TILEMODE
 70
     1
  9
$MAXACTVP
 70
    64
  9
$PINSBASE
 10
0.0
 20
0.0
 30
0.0
  9
$PLIMCHECK
 70
     0
  9
$PEXTMIN
 10
1.000000000000000E+20
 20
1.000000000000000E+20
 30
1.000000000000000E+20
  9
$PEXTMAX
 10
-1.000000000000000E+20
 20
-1.000000000000000E+20
 30
-1.000000000000000E+20
  9
$PLIMMIN
 10
0.0
 20
0.0
  9
$PLIMMAX
 10
12.0
 20
9.0
  9
$UNITMODE
 70
     0
  9
$VISRETAIN
 70
     1
  9
$PLINEGEN
 70
     0
  9
$PSLTSCALE
 70
     1
  9
$TREEDEPTH
 70
  3020
  9
$CMLSTYLE
  2
Standard
  9
$CMLJUST
 70
     0
  9
$CMLSCALE
 40
1.0
  9
$PROXYGRAPHICS
 70
     1
  9
$MEASUREMENT
 70
     0
  9
$CELWEIGHT
370
    -1
  9
$ENDCAPS
280
     0
  9
$JOINSTYLE
280
     0
  9
$LWDISPLAY
290
     1
  9
$INSUNITS
 70
     4
  9
$HYPERLINKBASE
  1

  9
$STYLESHEET
  1

  9
$XEDIT
290
     1
  9
$CEPSNTYPE
380
     0
  9
$PSTYLEMODE
290
     1
  9
$FINGERPRINTGUID
  2
{127A7A02-E911-FD42-9FFE-0D1C8D3298BF}
  9
$VERSIONGUID
  2
{23385E9B-38F8-4C49-8CF5-3D831CA1CA51}
  9
$EXTNAMES
290
     1
  9
$PSVPSCALE
 40
0.0
  9
$OLESTARTUP
290
     0
  9
$SORTENTS
280
   127
  9
$INDEXCTL
280
     0
  9
$HIDETEXT
280
     1
  9
$XCLIPFRAME
280
     2
  9
$HALOGAP
280
     0
  9
$OBSCOLOR
 70
   257
  9
$OBSLTYPE
280
     0
  9
$INTERSECTIONDISPLAY
280
     0
  9
$INTERSECTIONCOLOR
 70
   257
  9
$DIMASSOC
280
     2
  9
$PROJECTNAME
  1

  9
$CAMERADISPLAY
290
     0
  9
$LENSLENGTH
 40
50.0
  9
$CAMERAHEIGHT
 40
0.0
  9
$STEPSPERSEC
 40
2.0
  9
$STEPSIZE
 40
6.0
  9
$3DDWFPREC
 40
2.0
  9
$PSOLWIDTH
 40
0.25
  9
$PSOLHEIGHT
 40
4.0
  9
$LOFTANG1
 40
1.570796326794896
  9
$LOFTANG2
 40
1.570796326794896
  9
$LOFTMAG1
 40
0.0
  9
$LOFTMAG2
 40
0.0
  9
$LOFTPARAM
 70
     7
  9
$LOFTNORMALS
280
     1
  9
$LATITUDE
 40
37.795
  9
$LONGITUDE
 40
-122.394
  9
$NORTHDIRECTION
 40
0.0
  9
$TIMEZONE
 70
 -8000
  9
$LIGHTGLYPHDISPLAY
280
     1
  9
$TILEMODELIGHTSYNCH
280
     1
  9
$CMATERIAL
347
11
  9
$SOLIDHIST
280
     0
  9
$SHOWHIST
280
     1
  9
$DWFFRAME
280
     2
  9
$DGNFRAME
280
     0
  9
$REALWORLDSCALE
290
     1
  9
$INTERFERECOLOR
 62
     1
  9
$INTERFEREOBJVS
345
33
  9
$INTERFEREVPVS
346
30
  9
$CSHADOW
280
     0
  9
$SHADOWPLANELOCATION
 40
0.0
  0
ENDSEC
  0
SECTION
  2
CLASSES
  0
CLASS
  1
ACDBDICTIONARYWDFLT
  2
AcDbDictionaryWithDefault
  3
ObjectDBX Classes
 90
        0
 91
        1
280
     0
281
     0
  0
CLASS
  1
MATERIAL
  2
AcDbMaterial
  3
ObjectDBX Classes
 90
     1153
 91
        3
280
     0
281
     0
  0
CLASS
  1
VISUALSTYLE
  2
AcDbVisualStyle
  3
ObjectDBX Classes
 90
     4095
 91
       24
280
     0
281
     0
  0
CLASS
  1
SCALE
  2
AcDbScale
  3
ObjectDBX Classes
 90
     1153
 91
       17
280
     0
281
     0
  0
CLASS
  1
TABLESTYLE
  2
AcDbTableStyle
  3
ObjectDBX Classes
 90
     4095
 91
        1
280
     0
281
     0
  0
CLASS
  1
MLEADERSTYLE
  2
AcDbMLeaderStyle
  3
ACDB_MLEADERSTYLE_CLASS
 90
     4095
 91
        1
280
     0
281
     0
  0
CLASS
  1
ACDBSECTIONVIEWSTYLE
  2
AcDbSectionViewStyle
  3
ObjectDBX Classes
 90
     1025
 91
        1
280
     0
281
     0
  0
CLASS
  1
ACDBDETAILVIEWSTYLE
  2
AcDbDetailViewStyle
  3
ObjectDBX Classes
 90
     1025
 91
        1
280
     0
281
     0
  0
CLASS
  1
DICTIONARYVAR
  2
AcDbDictionaryVar
  3
ObjectDBX Classes
 90
        0
 91
        5
280
     0
281
     0
  0
CLASS
  1
CELLSTYLEMAP
  2
AcDbCellStyleMap
  3
ObjectDBX Classes
 90
     1152
 91
        1
280
     0
281
     0
  0
ENDSEC
  0
SECTION
  2
TABLES
  0
TABLE
  2
VPORT
  5
8
330
0
100
AcDbSymbolTable
 70
     1
  0
VPORT
  5
57
330
8
100
AcDbSymbolTableRecord
100
AcDbViewportTableRecord
  2
*Active
 70
     0
 10
0.0
 20
0.0
 11
1.0
 21
1.0
 12
0.0
 22
0.0
 13
0.0
 23
0.0
 14
1.0
 24
1.0
 15
0.0
 25
0.0
 16
0.0
 26
0.0
 36
1.0
 17
-77.5232517861743
 27
-71.02762512113184
 37
0.0
 40
131.2491425654478
 41
1.287511602794226
 42
50.0
 43
0.0
 44
0.0
 50
0.0
 51
0.0
 71
     0
 72
   100
 73
     1
 74
     1
 75
     0
 76
     0
 77
     0
 78
     0
281
     0
 65
     1
110
0.0
120
0.0
130
0.0
111
1.0
121
0.0
131
0.0
112
0.0
122
1.0
132
0.0
 79
     0
146
0.0
 60
     3
 61
     5
292
     1
282
     1
141
0.0
142
0.0
 63
   250
421
  3355443
  0
ENDTAB
  0
TABLE
  2
LTYPE
  5
5
330
0
100
AcDbSymbolTable
 70
     6
  0
LTYPE
  5
5B
330
5
100
AcDbSymbolTableRecord
100
AcDbLinetypeTableRecord
  2
ByBlock
 70
     0
  3

 72
    65
 73
     0
 40
0.0
  0
LTYPE
  5
5C
330
5
100
AcDbSymbolTableRecord
100
AcDbLinetypeTableRecord
  2
ByLayer
 70
     0
  3

 72
    65
 73
     0
 40
0.0
  0
LTYPE
  5
5D
330
5
100
AcDbSymbolTableRecord
100
AcDbLinetypeTableRecord
  2
Continuous
 70
     0
  3
Solid line
 72
    65
 73
     0
 40
0.0
  0
LTYPE
  5
EA
330
5
100
AcDbSymbolTableRecord
100
AcDbLinetypeTableRecord
  2
AI-Linetype-0
 70
     0
  3
Adobe Illustrator Linetype No. 0
 72
    65
 73
     4
 40
8.819444442239584
 49
7.055555553791666
 74
     0
 49
-0.7055555553791667
 74
     0
 49
0.3527777776895833
 74
     0
 49
-0.7055555553791667
 74
     0
  0
LTYPE
  5
EC
330
5
100
AcDbSymbolTableRecord
100
AcDbLinetypeTableRecord
  2
AI-Linetype-1
 70
     0
  3
Adobe Illustrator Linetype No. 1
 72
    65
 73
     4
 40
8.819444442239584
 49
7.055555553791666
 74
     0
 49
-0.7055555553791667
 74
     0
 49
0.3527777776895833
 74
     0
 49
-0.7055555553791667
 74
     0
  0
LTYPE
  5
EE
330
5
100
AcDbSymbolTableRecord
100
AcDbLinetypeTableRecord
  2
AI-Linetype-2
 70
     0
  3
Adobe Illustrator Linetype No. 2
 72
    65
 73
     4
 40
8.819444442239584
 49
7.055555553791666
 74
     0
 49
-0.7055555553791667
 74
     0
 49
0.3527777776895833
 74
     0
 49
-0.7055555553791667
 74
     0
  0
LTYPE
  5
F0
330
5
100
AcDbSymbolTableRecord
100
AcDbLinetypeTableRecord
  2
AI-Linetype-3
 70
     0
  3
Adobe Illustrator Linetype No. 3
 72
    65
 73
     4
 40
8.819444442239584
 49
7.055555553791666
 74
     0
 49
-0.7055555553791667
 74
     0
 49
0.3527777776895833
 74
     0
 49
-0.7055555553791667
 74
     0
  0
LTYPE
  5
F2
330
5
100
AcDbSymbolTableRecord
100
AcDbLinetypeTableRecord
  2
AI-Linetype-4
 70
     0
  3
Adobe Illustrator Linetype No. 4
 72
    65
 73
     4
 40
8.819444442239584
 49
7.055555553791666
 74
     0
 49
-0.7055555553791667
 74
     0
 49
0.3527777776895833
 74
     0
 49
-0.7055555553791667
 74
     0
  0
ENDTAB
  0
TABLE
  2
LAYER
  5
2
330
0
100
AcDbSymbolTable
 70
     5
  0
LAYER
  5
54
330
2
100
AcDbSymbolTableRecord
100
AcDbLayerTableRecord
  2
0
 70
     0
 62
     7
  6
Continuous
370
    -3
390
F
347
21
348
0
  0
LAYER
  5
78
330
2
100
AcDbSymbolTableRecord
100
AcDbLayerTableRecord
  2
grau 10%
 70
     1
 62
     7
  6
Continuous
370
     0
390
F
347
21
348
0
  0
LAYER
  5
7D
330
2
100
AcDbSymbolTableRecord
100
AcDbLayerTableRecord
  2
Standardebene
 70
     0
 62
     7
  6
Continuous
370
     0
390
F
347
21
348
0
  0
LAYER
  5
190
330
2
100
AcDbSymbolTableRecord
100
AcDbLayerTableRecord
  2
Bemaßung
 70
     1
 62
     7
  6
Continuous
370
     0
390
F
347
21
348
0
  0
LAYER
  5
2B3
330
2
100
AcDbSymbolTableRecord
100
AcDbLayerTableRecord
  2
Text
 70
     1
 62
     7
  6
Continuous
370
     0
390
F
347
21
348
0
  0
ENDTAB
  0
TABLE
  2
STYLE
  5
3
330
0
100
AcDbSymbolTable
 70
     2
  0
STYLE
  5
55
330
3
100
AcDbSymbolTableRecord
100
AcDbTextStyleTableRecord
  2
Standard
 70
     0
 40
0.0
 41
1.0
 50
0.0
 71
     0
 42
0.2
  3
txt
  4

  0
STYLE
  5
5A
330
3
100
AcDbSymbolTableRecord
100
AcDbTextStyleTableRecord
  2
Annotative
 70
     0
 40
0.0
 41
1.0
 50
0.0
 71
     0
 42
0.2
  3
txt
  4

1001
AcadAnnotative
1000
AnnotativeData
1002
{
1070
     1
1070
     1
1002
}
  0
ENDTAB
  0
TABLE
  2
VIEW
  5
6
330
0
100
AcDbSymbolTable
 70
     0
  0
ENDTAB
  0
TABLE
  2
UCS
  5
7
330
0
100
AcDbSymbolTable
 70
     0
  0
ENDTAB
  0
TABLE
  2
APPID
  5
9
330
0
100
AcDbSymbolTable
 70
     2
  0
APPID
  5
56
330
9
100
AcDbSymbolTableRecord
100
AcDbRegAppTableRecord
  2
ACAD
 70
     0
  0
APPID
  5
5E
330
9
100
AcDbSymbolTableRecord
100
AcDbRegAppTableRecord
  2
AcadAnnotative
 70
     0
  0
ENDTAB
  0
TABLE
  2
DIMSTYLE
  5
A
330
0
100
AcDbSymbolTable
 70
     2
100
AcDbDimStyleTable
 71
     0
  0
DIMSTYLE
105
58
330
A
100
AcDbSymbolTableRecord
100
AcDbDimStyleTableRecord
  2
Standard
 70
     0
340
55
  0
DIMSTYLE
105
59
330
A
100
AcDbSymbolTableRecord
100
AcDbDimStyleTableRecord
  2
Annotative
 70
     0
340
55
1001
AcadAnnotative
1000
AnnotativeData
1002
{
1070
     1
1070
     1
1002
}
  0
ENDTAB
  0
TABLE
  2
BLOCK_RECORD
  5
1
330
0
100
AcDbSymbolTable
 70
     1
  0
BLOCK_RECORD
  5
70
330
1
100
AcDbSymbolTableRecord
100
AcDbBlockTableRecord
  2
*Model_Space
340
73
 70
     0
280
     1
281
     0
  0
BLOCK_RECORD
  5
6C
330
1
100
AcDbSymbolTableRecord
100
AcDbBlockTableRecord
  2
*Paper_Space
340
6F
 70
     0
280
     1
281
     0
  0
BLOCK_RECORD
  5
74
330
1
100
AcDbSymbolTableRecord
100
AcDbBlockTableRecord
  2
*Paper_Space0
340
77
 70
     0
280
     1
281
     0
  0
ENDTAB
  0
ENDSEC
  0
SECTION
  2
BLOCKS
  0
BLOCK
  5
71
330
70
100
AcDbEntity
  8
0
100
AcDbBlockBegin
  2
*Model_Space
 70
     0
 10
0.0
 20
0.0
 30
0.0
  3
*Model_Space
  1

  0
ENDBLK
  5
72
330
70
100
AcDbEntity
  8
0
100
AcDbBlockEnd
  0
BLOCK
  5
6D
330
6C
100
AcDbEntity
 67
     1
  8
0
100
AcDbBlockBegin
  2
*Paper_Space
 70
     0
 10
0.0
 20
0.0
 30
0.0
  3
*Paper_Space
  1

  0
ENDBLK
  5
6E
330
6C
100
AcDbEntity
 67
     1
  8
0
100
AcDbBlockEnd
  0
BLOCK
  5
75
330
74
100
AcDbEntity
 67
     1
  8
0
100
AcDbBlockBegin
  2
*Paper_Space0
 70
     0
 10
0.0
 20
0.0
 30
0.0
  3
*Paper_Space0
  1

  0
ENDBLK
  5
76
330
74
100
AcDbEntity
 67
     1
  8
0
100
AcDbBlockEnd
  0
ENDSEC
  0
SECTION
  2
ENTITIES
  0
LWPOLYLINE
  5
79
330
70
100
AcDbEntity
  8
grau 10%
100
AcDbPolyline
 90
       79
 70
     1
 43
0.0
 10
-86.81208470051929
 20
-83.07831997923031
 10
-86.77885303386076
 20
-81.54214914628122
 10
-80.92408247976893
 20
-81.59675914626733
 10
-80.95149331309533
 20
-74.88156359239081
 10
-86.83363942273608
 20
-74.79957803685579
 10
-86.83381581162496
 20
-53.41136693109151
 10
-86.99796331158387
 20
-51.55085220933437
 10
-86.8065813671871
 20
-51.03117526502011
 10
-86.94335331159743
 20
-50.59348387624054
 10
-87.2168972004181
 20
-50.26515359854489
 10
-87.68199942252408
 20
-50.29235276520458
 10
-87.73675053362124
 20
-37.07817915739718
 10
-88.85847803334101
 20
-37.02356915741075
 10
-88.88571247777855
 20
-36.83204610190326
 10
-89.15943275548777
 20
-36.55850221308261
 10
-100.0753649749812
 20
-36.61311221306904
 10
-100.3217096971419
 20
-36.80463526857653
 10
-100.376319697128
 20
-37.1055899907236
 10
-106.2036794178934
 20
-37.1055899907236
 10
-106.2310549734423
 20
-38.47362693482618
 10
-106.4992719178197
 20
-38.24005276821774
 10
-109.0956810838371
 20
-38.24005276821774
 10
-109.4832427504069
 20
-38.93749443471
 10
-109.4832427504069
 20
-40.17771998995573
 10
-109.8708044169768
 20
-40.25526054549184
 10
-116.2650780264894
 20
-40.33276582325012
 10
-116.962731359648
 20
-40.79769165646722
 10
-118.4353316370579
 20
-41.03024276752021
 10
-119.0554444146804
 20
-40.2939955454819
 10
-121.9231396917415
 20
-40.33276582325012
 10
-122.271966358321
 20
-40.48763526765595
 10
-122.271966358321
 20
-40.87519693422549
 10
-122.4657471916057
 20
-46.3782127661832
 10
-122.271966358321
 20
-46.76580971053091
 10
-121.6905885806885
 20
-46.92082026604746
 10
-119.0941794146708
 20
-46.95959054381568
 10
-118.5903421925747
 20
-46.3782127661832
 10
-116.962731359648
 20
-46.3782127661832
 10
-116.3038483042573
 20
-46.92082026604746
 10
-109.9483449725129
 20
-46.92082026604746
 10
-109.6382533059238
 20
-47.11460109933256
 10
-109.5995183059334
 20
-48.27714498793081
 10
-109.211921361586
 20
-49.05230359884806
 10
-106.576777195578
 20
-49.05230359884806
 10
-106.2310549734423
 20
-48.89711665444231
 10
-106.1490694179073
 20
-50.26515359854489
 10
-102.044923307822
 20
-50.23880109855143
 10
-102.4006291410666
 20
-50.81344082062989
 10
-102.4552391410527
 20
-51.16897026498556
 10
-102.2364816411077
 20
-51.5520516537787
 10
-102.510025529928
 20
-53.35763887554948
 10
-102.4827910854905
 20
-74.88258664794592
 10
-103.6865394185228
 20
-74.88258664794592
 10
-103.7685249740578
 20
-81.55453164627813
 10
-102.4827910854905
 20
-81.55453164627813
 10
-102.4885060854891
 20
-83.05196747923686
 10
-103.0886163631166
 20
-83.15582525698891
 10
-103.6310474740923
 20
-83.62089220131705
 10
-103.7309541407339
 20
-89.39127831098558
 10
-103.66618414075
 20
-89.76695136644732
 10
-104.1453974739636
 20
-89.84480942198334
 10
-104.4694238627714
 20
-90.16865942190227
 10
-104.5081941405396
 20
-92.75952997681027
 10
-104.158485529516
 20
-93.12232664338596
 10
-103.6272727518711
 20
-93.16106164337634
 10
-103.6272727518711
 20
-93.34245997666451
 10
-103.6920427518547
 20
-99.30179386406329
 10
-103.6272727518711
 20
-99.69037858618861
 10
-104.1324858073003
 20
-99.70329025285186
 10
-104.4692474738828
 20
-100.0660869194278
 10
-104.5081941405396
 20
-102.6831335854401
 10
-104.1712560850682
 20
-103.0198952520229
 10
-103.588326085214
 20
-103.0588419186797
 10
-103.7049544185183
 20
-104.665109696056
 10
-103.1091127520004
 20
-105.2350927514692
 10
-86.12515581180195
 20
-105.2610924736845
 10
-85.47731470085274
 20
-104.6003396960721
 10
-85.516226089732
 20
-83.78179414572107
 10
-86.04729775626591
 20
-83.21181109030822
  0
HATCH
  5
7A
330
70
100
AcDbEntity
  8
grau 10%
 62
   255
440
 33554687
100
AcDbHatch
 10
0.0
 20
0.0
 30
0.0
210
0.0
220
0.0
230
1.0
  2
SOLID
 70
     1
 71
     1
 91
        1
 92
        1
 93
       79
 72
     1
 10
-86.81208470051929
 20
-83.07831997923031
 11
-86.77885303386076
 21
-81.54214914628122
 72
     1
 10
-86.77885303386076
 20
-81.54214914628122
 11
-80.92408247976893
 21
-81.59675914626733
 72
     1
 10
-80.92408247976893
 20
-81.59675914626733
 11
-80.95149331309533
 21
-74.88156359239081
 72
     1
 10
-80.95149331309533
 20
-74.88156359239081
 11
-86.83363942273608
 21
-74.79957803685579
 72
     1
 10
-86.83363942273608
 20
-74.79957803685579
 11
-86.83381581162496
 21
-53.41136693109151
 72
     1
 10
-86.83381581162496
 20
-53.41136693109151
 11
-86.99796331158387
 21
-51.55085220933437
 72
     1
 10
-86.99796331158387
 20
-51.55085220933437
 11
-86.8065813671871
 21
-51.03117526502011
 72
     1
 10
-86.8065813671871
 20
-51.03117526502011
 11
-86.94335331159743
 21
-50.59348387624054
 72
     1
 10
-86.94335331159743
 20
-50.59348387624054
 11
-87.2168972004181
 21
-50.26515359854489
 72
     1
 10
-87.2168972004181
 20
-50.26515359854489
 11
-87.68199942252408
 21
-50.29235276520458
 72
     1
 10
-87.68199942252408
 20
-50.29235276520458
 11
-87.73675053362124
 21
-37.07817915739718
 72
     1
 10
-87.73675053362124
 20
-37.07817915739718
 11
-88.85847803334101
 21
-37.02356915741075
 72
     1
 10
-88.85847803334101
 20
-37.02356915741075
 11
-88.88571247777855
 21
-36.83204610190326
 72
     1
 10
-88.88571247777855
 20
-36.83204610190326
 11
-89.15943275548777
 21
-36.55850221308261
 72
     1
 10
-89.15943275548777
 20
-36.55850221308261
 11
-100.0753649749812
 21
-36.61311221306904
 72
     1
 10
-100.0753649749812
 20
-36.61311221306904
 11
-100.3217096971419
 21
-36.80463526857653
 72
     1
 10
-100.3217096971419
 20
-36.80463526857653
 11
-100.376319697128
 21
-37.1055899907236
 72
     1
 10
-100.376319697128
 20
-37.1055899907236
 11
-106.2036794178934
 21
-37.1055899907236
 72
     1
 10
-106.2036794178934
 20
-37.1055899907236
 11
-106.2310549734423
 21
-38.47362693482618
 72
     1
 10
-106.2310549734423
 20
-38.47362693482618
 11
-106.4992719178197
 21
-38.24005276821774
 72
     1
 10
-106.4992719178197
 20
-38.24005276821774
 11
-109.0956810838371
 21
-38.24005276821774
 72
     1
 10
-109.0956810838371
 20
-38.24005276821774
 11
-109.4832427504069
 21
-38.93749443471
 72
     1
 10
-109.4832427504069
 20
-38.93749443471
 11
-109.4832427504069
 21
-40.17771998995573
 72
     1
 10
-109.4832427504069
 20
-40.17771998995573
 11
-109.8708044169768
 21
-40.25526054549184
 72
     1
 10
-109.8708044169768
 20
-40.25526054549184
 11
-116.2650780264894
 21
-40.33276582325012
 72
     1
 10
-116.2650780264894
 20
-40.33276582325012
 11
-116.962731359648
 21
-40.79769165646722
 72
     1
 10
-116.962731359648
 20
-40.79769165646722
 11
-118.4353316370579
 21
-41.03024276752021
 72
     1
 10
-118.4353316370579
 20
-41.03024276752021
 11
-119.0554444146804
 21
-40.2939955454819
 72
     1
 10
-119.0554444146804
 20
-40.2939955454819
 11
-121.9231396917415
 21
-40.33276582325012
 72
     1
 10
-121.9231396917415
 20
-40.33276582325012
 11
-122.271966358321
 21
-40.48763526765595
 72
     1
 10
-122.271966358321
 20
-40.48763526765595
 11
-122.271966358321
 21
-40.87519693422549
 72
     1
 10
-122.271966358321
 20
-40.87519693422549
 11
-122.4657471916057
 21
-46.3782127661832
 72
     1
 10
-122.4657471916057
 20
-46.3782127661832
 11
-122.271966358321
 21
-46.76580971053091
 72
     1
 10
-122.271966358321
 20
-46.76580971053091
 11
-121.6905885806885
 21
-46.92082026604746
 72
     1
 10
-121.6905885806885
 20
-46.92082026604746
 11
-119.0941794146708
 21
-46.95959054381568
 72
     1
 10
-119.0941794146708
 20
-46.95959054381568
 11
-118.5903421925747
 21
-46.3782127661832
 72
     1
 10
-118.5903421925747
 20
-46.3782127661832
 11
-116.962731359648
 21
-46.3782127661832
 72
     1
 10
-116.962731359648
 20
-46.3782127661832
 11
-116.3038483042573
 21
-46.92082026604746
 72
     1
 10
-116.3038483042573
 20
-46.92082026604746
 11
-109.9483449725129
 21
-46.92082026604746
 72
     1
 10
-109.9483449725129
 20
-46.92082026604746
 11
-109.6382533059238
 21
-47.11460109933256
 72
     1
 10
-109.6382533059238
 20
-47.11460109933256
 11
-109.5995183059334
 21
-48.27714498793081
 72
     1
 10
-109.5995183059334
 20
-48.27714498793081
 11
-109.211921361586
 21
-49.05230359884806
 72
     1
 10
-109.211921361586
 20
-49.05230359884806
 11
-106.576777195578
 21
-49.05230359884806
 72
     1
 10
-106.576777195578
 20
-49.05230359884806
 11
-106.2310549734423
 21
-48.89711665444231
 72
     1
 10
-106.2310549734423
 20
-48.89711665444231
 11
-106.1490694179073
 21
-50.26515359854489
 72
     1
 10
-106.1490694179073
 20
-50.26515359854489
 11
-102.044923307822
 21
-50.23880109855143
 72
     1
 10
-102.044923307822
 20
-50.23880109855143
 11
-102.4006291410666
 21
-50.81344082062989
 72
     1
 10
-102.4006291410666
 20
-50.81344082062989
 11
-102.4552391410527
 21
-51.16897026498556
 72
     1
 10
-102.4552391410527
 20
-51.16897026498556
 11
-102.2364816411077
 21
-51.5520516537787
 72
     1
 10
-102.2364816411077
 20
-51.5520516537787
 11
-102.510025529928
 21
-53.35763887554948
 72
     1
 10
-102.510025529928
 20
-53.35763887554948
 11
-102.4827910854905
 21
-74.88258664794592
 72
     1
 10
-102.4827910854905
 20
-74.88258664794592
 11
-103.6865394185228
 21
-74.88258664794592
 72
     1
 10
-103.6865394185228
 20
-74.88258664794592
 11
-103.7685249740578
 21
-81.55453164627813
 72
     1
 10
-103.7685249740578
 20
-81.55453164627813
 11
-102.4827910854905
 21
-81.55453164627813
 72
     1
 10
-102.4827910854905
 20
-81.55453164627813
 11
-102.4885060854891
 21
-83.05196747923686
 72
     1
 10
-102.4885060854891
 20
-83.05196747923686
 11
-103.0886163631166
 21
-83.15582525698891
 72
     1
 10
-103.0886163631166
 20
-83.15582525698891
 11
-103.6310474740923
 21
-83.62089220131705
 72
     1
 10
-103.6310474740923
 20
-83.62089220131705
 11
-103.7309541407339
 21
-89.39127831098558
 72
     1
 10
-103.7309541407339
 20
-89.39127831098558
 11
-103.66618414075
 21
-89.76695136644732
 72
     1
 10
-103.66618414075
 20
-89.76695136644732
 11
-104.1453974739636
 21
-89.84480942198334
 72
     1
 10
-104.1453974739636
 20
-89.84480942198334
 11
-104.4694238627714
 21
-90.16865942190227
 72
     1
 10
-104.4694238627714
 20
-90.16865942190227
 11
-104.5081941405396
 21
-92.75952997681027
 72
     1
 10
-104.5081941405396
 20
-92.75952997681027
 11
-104.158485529516
 21
-93.12232664338596
 72
     1
 10
-104.158485529516
 20
-93.12232664338596
 11
-103.6272727518711
 21
-93.16106164337634
 72
     1
 10
-103.6272727518711
 20
-93.16106164337634
 11
-103.6272727518711
 21
-93.34245997666451
 72
     1
 10
-103.6272727518711
 20
-93.34245997666451
 11
-103.6920427518547
 21
-99.30179386406329
 72
     1
 10
-103.6920427518547
 20
-99.30179386406329
 11
-103.6272727518711
 21
-99.69037858618861
 72
     1
 10
-103.6272727518711
 20
-99.69037858618861
 11
-104.1324858073003
 21
-99.70329025285186
 72
     1
 10
-104.1324858073003
 20
-99.70329025285186
 11
-104.4692474738828
 21
-100.0660869194278
 72
     1
 10
-104.4692474738828
 20
-100.0660869194278
 11
-104.5081941405396
 21
-102.6831335854401
 72
     1
 10
-104.5081941405396
 20
-102.6831335854401
 11
-104.1712560850682
 21
-103.0198952520229
 72
     1
 10
-104.1712560850682
 20
-103.0198952520229
 11
-103.588326085214
 21
-103.0588419186797
 72
     1
 10
-103.588326085214
 20
-103.0588419186797
 11
-103.7049544185183
 21
-104.665109696056
 72
     1
 10
-103.7049544185183
 20
-104.665109696056
 11
-103.1091127520004
 21
-105.2350927514692
 72
     1
 10
-103.1091127520004
 20
-105.2350927514692
 11
-86.12515581180195
 21
-105.2610924736845
 72
     1
 10
-86.12515581180195
 20
-105.2610924736845
 11
-85.47731470085274
 21
-104.6003396960721
 72
     1
 10
-85.47731470085274
 20
-104.6003396960721
 11
-85.516226089732
 21
-83.78179414572107
 72
     1
 10
-85.516226089732
 20
-83.78179414572107
 11
-86.04729775626591
 21
-83.21181109030822
 72
     1
 10
-86.04729775626591
 20
-83.21181109030822
 11
-86.81208470051929
 21
-83.07831997923031
 97
        1
330
79
 75
     0
 76
     1
 98
        1
 10
0.0
 20
0.0
450
        0
451
        0
460
0.0
461
0.0
452
        0
462
0.0
453
        0
470

  0
LWPOLYLINE
  5
7B
330
70
100
AcDbEntity
  8
grau 10%
100
AcDbPolyline
 90
       51
 70
     1
 43
0.0
 10
-37.99716526827872
 20
-83.18440025698182
 10
-37.94202610162564
 20
-81.49787553518114
 10
-32.08743193642267
 20
-81.55248553516758
 10
-32.11501915863797
 20
-75.01385525902439
 10
-37.99716526827872
 20
-74.93186970348938
 10
-37.99716526827872
 20
-53.41447137553537
 10
-38.16113637934874
 20
-51.55395665377822
 10
-37.96993082384118
 20
-51.03427970946364
 10
-38.10670276825119
 20
-50.59655304290656
 10
-38.38024665707184
 20
-50.26825804298842
 10
-35.96248415767591
 20
-50.29545720964843
 10
-35.96248415767591
 20
-37.08128360184072
 10
-40.02186276777228
 20
-37.0266736018546
 10
-40.0490619344323
 20
-36.83515054634679
 10
-40.32295860103007
 20
-36.56160665752614
 10
-51.23874970941286
 20
-36.61618137973473
 10
-51.48505915379534
 20
-36.80773971302038
 10
-51.53984554267065
 20
-37.10865915738961
 10
-55.7287288749567
 20
-37.10865915738961
 10
-55.75592804161671
 20
-38.47673137926971
 10
-55.63605415275787
 20
-38.39456943484581
 10
-55.72491887495764
 20
-38.72286443476363
 10
-55.69771970829762
 20
-48.65405276561439
 10
-55.71803970829257
 20
-48.84561109889972
 10
-55.75592804161671
 20
-48.90018582110831
 10
-55.67394248608137
 20
-50.26825804298842
 10
-53.20830804225335
 20
-50.24190554299496
 10
-53.56383748660935
 20
-50.81654526507374
 10
-53.6185885977065
 20
-51.1720747094291
 10
-53.39983109776115
 20
-51.55515609822223
 10
-53.67337498658181
 20
-53.36074331999301
 10
-53.64617581992179
 20
-75.01487831457952
 10
-59.4284152629209
 20
-75.01487831457952
 10
-59.51040081845559
 20
-81.5808841462716
 10
-53.64617581992179
 20
-81.5808841462716
 10
-53.67337498658181
 20
-83.15804775698836
 10
-54.34707470863567
 20
-83.16598525698639
 10
-54.88400248627886
 20
-83.66587136797233
 10
-54.90241748627429
 20
-95.2928977539547
 10
-54.95941164181322
 20
-95.77283137605896
 10
-54.92569285327361
 20
-96.49160933109392
 10
-54.91097722263924
 20
-97.5414199897591
 10
-54.88024288074
 20
-98.25123675878604
 10
-54.90241748627429
 20
-98.62534247534368
 10
-54.90241748627429
 20
-98.81051553085306
 10
-54.97650081958944
 20
-104.6237641405106
 10
-54.42112276417265
 20
-105.2533666403532
 10
-37.27749860179166
 20
-105.2533666403532
 10
-36.74057082414846
 20
-104.6793971960521
 10
-36.75898582414388
 20
-83.77713747905579
 10
-37.33295526844434
 20
-83.24020970141225
  0
HATCH
  5
7C
330
70
100
AcDbEntity
  8
grau 10%
 62
   255
440
 33554687
100
AcDbHatch
 10
0.0
 20
0.0
 30
0.0
210
0.0
220
0.0
230
1.0
  2
SOLID
 70
     1
 71
     1
 91
        1
 92
        1
 93
       51
 72
     1
 10
-37.99716526827872
 20
-83.18440025698182
 11
-37.94202610162564
 21
-81.49787553518114
 72
     1
 10
-37.94202610162564
 20
-81.49787553518114
 11
-32.08743193642267
 21
-81.55248553516758
 72
     1
 10
-32.08743193642267
 20
-81.55248553516758
 11
-32.11501915863797
 21
-75.01385525902439
 72
     1
 10
-32.11501915863797
 20
-75.01385525902439
 11
-37.99716526827872
 21
-74.93186970348938
 72
     1
 10
-37.99716526827872
 20
-74.93186970348938
 11
-37.99716526827872
 21
-53.41447137553537
 72
     1
 10
-37.99716526827872
 20
-53.41447137553537
 11
-38.16113637934874
 21
-51.55395665377822
 72
     1
 10
-38.16113637934874
 20
-51.55395665377822
 11
-37.96993082384118
 21
-51.03427970946364
 72
     1
 10
-37.96993082384118
 20
-51.03427970946364
 11
-38.10670276825119
 21
-50.59655304290656
 72
     1
 10
-38.10670276825119
 20
-50.59655304290656
 11
-38.38024665707184
 21
-50.26825804298842
 72
     1
 10
-38.38024665707184
 20
-50.26825804298842
 11
-35.96248415767591
 21
-50.29545720964843
 72
     1
 10
-35.96248415767591
 20
-50.29545720964843
 11
-35.96248415767591
 21
-37.08128360184072
 72
     1
 10
-35.96248415767591
 20
-37.08128360184072
 11
-40.02186276777228
 21
-37.0266736018546
 72
     1
 10
-40.02186276777228
 20
-37.0266736018546
 11
-40.0490619344323
 21
-36.83515054634679
 72
     1
 10
-40.0490619344323
 20
-36.83515054634679
 11
-40.32295860103007
 21
-36.56160665752614
 72
     1
 10
-40.32295860103007
 20
-36.56160665752614
 11
-51.23874970941286
 21
-36.61618137973473
 72
     1
 10
-51.23874970941286
 20
-36.61618137973473
 11
-51.48505915379534
 21
-36.80773971302038
 72
     1
 10
-51.48505915379534
 20
-36.80773971302038
 11
-51.53984554267065
 21
-37.10865915738961
 72
     1
 10
-51.53984554267065
 20
-37.10865915738961
 11
-55.7287288749567
 21
-37.10865915738961
 72
     1
 10
-55.7287288749567
 20
-37.10865915738961
 11
-55.75592804161671
 21
-38.47673137926971
 72
     1
 10
-55.75592804161671
 20
-38.47673137926971
 11
-55.63605415275787
 21
-38.39456943484581
 72
     1
 10
-55.63605415275787
 20
-38.39456943484581
 11
-55.72491887495764
 21
-38.72286443476363
 72
     1
 10
-55.72491887495764
 20
-38.72286443476363
 11
-55.69771970829762
 21
-48.65405276561439
 72
     1
 10
-55.69771970829762
 20
-48.65405276561439
 11
-55.71803970829257
 21
-48.84561109889972
 72
     1
 10
-55.71803970829257
 20
-48.84561109889972
 11
-55.75592804161671
 21
-48.90018582110831
 72
     1
 10
-55.75592804161671
 20
-48.90018582110831
 11
-55.67394248608137
 21
-50.26825804298842
 72
     1
 10
-55.67394248608137
 20
-50.26825804298842
 11
-53.20830804225335
 21
-50.24190554299496
 72
     1
 10
-53.20830804225335
 20
-50.24190554299496
 11
-53.56383748660935
 21
-50.81654526507374
 72
     1
 10
-53.56383748660935
 20
-50.81654526507374
 11
-53.6185885977065
 21
-51.1720747094291
 72
     1
 10
-53.6185885977065
 20
-51.1720747094291
 11
-53.39983109776115
 21
-51.55515609822223
 72
     1
 10
-53.39983109776115
 20
-51.55515609822223
 11
-53.67337498658181
 21
-53.36074331999301
 72
     1
 10
-53.67337498658181
 20
-53.36074331999301
 11
-53.64617581992179
 21
-75.01487831457952
 72
     1
 10
-53.64617581992179
 20
-75.01487831457952
 11
-59.4284152629209
 21
-75.01487831457952
 72
     1
 10
-59.4284152629209
 20
-75.01487831457952
 11
-59.51040081845559
 21
-81.5808841462716
 72
     1
 10
-59.51040081845559
 20
-81.5808841462716
 11
-53.64617581992179
 21
-81.5808841462716
 72
     1
 10
-53.64617581992179
 20
-81.5808841462716
 11
-53.67337498658181
 21
-83.15804775698836
 72
     1
 10
-53.67337498658181
 20
-83.15804775698836
 11
-54.34707470863567
 21
-83.16598525698639
 72
     1
 10
-54.34707470863567
 20
-83.16598525698639
 11
-54.88400248627886
 21
-83.66587136797233
 72
     1
 10
-54.88400248627886
 20
-83.66587136797233
 11
-54.90241748627429
 21
-95.2928977539547
 72
     1
 10
-54.90241748627429
 20
-95.2928977539547
 11
-54.95941164181322
 21
-95.77283137605896
 72
     1
 10
-54.95941164181322
 20
-95.77283137605896
 11
-54.92569285327361
 21
-96.49160933109392
 72
     1
 10
-54.92569285327361
 20
-96.49160933109392
 11
-54.91097722263924
 21
-97.5414199897591
 72
     1
 10
-54.91097722263924
 20
-97.5414199897591
 11
-54.88024288074
 21
-98.25123675878604
 72
     1
 10
-54.88024288074
 20
-98.25123675878604
 11
-54.90241748627429
 21
-98.62534247534368
 72
     1
 10
-54.90241748627429
 20
-98.62534247534368
 11
-54.90241748627429
 21
-98.81051553085306
 72
     1
 10
-54.90241748627429
 20
-98.81051553085306
 11
-54.97650081958944
 21
-104.6237641405106
 72
     1
 10
-54.97650081958944
 20
-104.6237641405106
 11
-54.42112276417265
 21
-105.2533666403532
 72
     1
 10
-54.42112276417265
 20
-105.2533666403532
 11
-37.27749860179166
 21
-105.2533666403532
 72
     1
 10
-37.27749860179166
 20
-105.2533666403532
 11
-36.74057082414846
 21
-104.6793971960521
 72
     1
 10
-36.74057082414846
 20
-104.6793971960521
 11
-36.75898582414388
 21
-83.77713747905579
 72
     1
 10
-36.75898582414388
 20
-83.77713747905579
 11
-37.33295526844434
 21
-83.24020970141225
 72
     1
 10
-37.33295526844434
 20
-83.24020970141225
 11
-37.99716526827872
 21
-83.18440025698182
 97
        1
330
7B
 75
     0
 76
     1
 98
        1
 10
0.0
 20
0.0
450
        0
451
        0
460
0.0
461
0.0
452
        0
462
0.0
453
        0
470

  0
LINE
  5
7E
330
70
100
AcDbEntity
  8
Standardebene
 62
     7
370
     9
100
AcDbLine
 10
-118.5026953322876
 20
-133.1975586426651
 30
0.0
 11
-118.5026953322876
 21
-132.6820546128439
 31
0.0
  0
LINE
  5
7F
330
70
100
AcDbEntity
  8
Standardebene
 62
     7
370
     9
100
AcDbLine
 10
-118.5026953322876
 20
-131.651046553201
 30
0.0
 11
-118.5026953322876
 21
-130.6197177868093
 31
0.0
  0
LINE
  5
80
330
70
100
AcDbEntity
  8
Standardebene
 62
     7
370
     9
100
AcDbLine
 10
-118.5026953322876
 20
-129.5887097271664
 30
0.0
 11
-118.5026953322876
 21
-128.5577016675254
 31
0.0
  0
LINE
  5
81
330
70
100
AcDbEntity
  8
Standardebene
 62
     7
370
     9
100
AcDbLine
 10
-118.5026953322876
 20
-127.5263729011325
 30
0.0
 11
-118.5026953322876
 21
-126.4947234279908
 31
0.0
  0
LINE
  5
82
330
70
100
AcDbEntity
  8
Standardebene
 62
     7
370
     9
100
AcDbLine
 10
-118.5026953322876
 20
-125.4636512269983
 30
0.0
 11
-118.5026953322876
 21
-124.4323224606066
 31
0.0
  0
LINE
  5
83
330
70
100
AcDbEntity
  8
Standardebene
 62
     7
370
     9
100
AcDbLine
 10
-118.5026953322876
 20
-123.4013144009644
 30
0.0
 11
-118.5026953322876
 21
-122.3699856345714
 31
0.0
  0
LINE
  5
84
330
70
100
AcDbEntity
  8
Standardebene
 62
     7
370
     9
100
AcDbLine
 10
-118.5026953322876
 20
-121.3386568681791
 30
0.0
 11
-118.5026953322876
 21
-120.3073281017875
 31
0.0
  0
LINE
  5
85
330
70
100
AcDbEntity
  8
Standardebene
 62
     7
370
     9
100
AcDbLine
 10
-118.5026953322876
 20
-119.276255900795
 30
0.0
 11
-118.5026953322876
 21
-118.2446064276533
 31
0.0
  0
LINE
  5
86
330
70
100
AcDbEntity
  8
Standardebene
 62
     7
370
     9
100
AcDbLine
 10
-118.5026953322876
 20
-117.2135983680104
 30
0.0
 11
-118.5026953322876
 21
-116.1825903083687
 31
0.0
  0
LINE
  5
87
330
70
100
AcDbEntity
  8
Standardebene
 62
     7
370
     9
100
AcDbLine
 10
-118.5026953322876
 20
-115.1512615419765
 30
0.0
 11
-118.5026953322876
 21
-114.1199327755841
 31
0.0
  0
LINE
  5
88
330
70
100
AcDbEntity
  8
Standardebene
 62
     7
370
     9
100
AcDbLine
 10
-118.5026953322876
 20
-113.0882833024418
 30
0.0
 11
-118.5026953322876
 21
-112.0569545360502
 31
0.0
  0
LINE
  5
89
330
70
100
AcDbEntity
  8
Standardebene
 62
     7
370
     9
100
AcDbLine
 10
-118.5026953322876
 20
-111.0259464764079
 30
0.0
 11
-118.5026953322876
 21
-109.9948742754154
 31
0.0
  0
LINE
  5
8A
330
70
100
AcDbEntity
  8
Standardebene
 62
     7
370
     9
100
AcDbLine
 10
-118.5026953322876
 20
-108.963224802273
 30
0.0
 11
-118.5026953322876
 21
-107.9318960358814
 31
0.0
  0
LINE
  5
8B
330
70
100
AcDbEntity
  8
Standardebene
 62
     7
370
     9
100
AcDbLine
 10
-118.5026953322876
 20
-106.9008879762391
 30
0.0
 11
-118.5026953322876
 21
-105.8695592098468
 31
0.0
  0
LINE
  5
8C
330
70
100
AcDbEntity
  8
Standardebene
 62
     7
370
     9
100
AcDbLine
 10
-118.5026953322876
 20
-104.8385511502045
 30
0.0
 11
-118.5026953322876
 21
-103.8069016770623
 31
0.0
  0
LINE
  5
8D
330
70
100
AcDbEntity
  8
Standardebene
 62
     7
370
     9
100
AcDbLine
 10
-118.5026953322876
 20
-102.7758294760704
 30
0.0
 11
-118.5026953322876
 21
-101.7445007096781
 31
0.0
  0
LWPOLYLINE
  5
8E
330
70
100
AcDbEntity
  8
Standardebene
 62
     7
370
     9
100
AcDbPolyline
 90
        3
 70
     0
 43
0.0
 10
-118.5026953322876
 20
-100.7134926500358
 10
-118.5026953322876
 20
-100.1976679134646
 10
-118.0022003783632
 20
-100.1976679134646
  0
LINE
  5
8F
330
70
100
AcDbEntity
  8
Standardebene
 62
     7
370
     9
100
AcDbLine
 10
-117.0028140042632
 20
-100.1976679134646
 30
0.0
 11
-116.0025296512627
 21
-100.1976679134646
 31
0.0
  0
LINE
  5
90
330
70
100
AcDbEntity
  8
Standardebene
 62
     7
370
     9
100
AcDbLine
 10
-115.0028225704133
 20
-100.1976679134646
 30
0.0
 11
-114.0024740760626
 21
-100.1976679134646
 31
0.0
  0
LINE
  5
91
330
70
100
AcDbEntity
  8
Standardebene
 62
     7
370
     9
100
AcDbLine
 10
-113.0024462884632
 20
-100.1976679134646
 30
0.0
 11
-112.0024185008631
 21
-100.1976679134646
 31
0.0
  0
LINE
  5
92
330
70
100
AcDbEntity
  8
Standardebene
 62
     7
370
     9
100
AcDbLine
 10
-111.0027114200124
 20
-100.1976679134646
 30
0.0
 11
-110.0027477737633
 21
-100.1976679134646
 31
0.0
  0
LINE
  5
93
330
70
100
AcDbEntity
  8
Standardebene
 62
     7
370
     9
100
AcDbLine
 10
-109.0027199861632
 20
-100.1976679134646
 30
0.0
 11
-108.0023714918131
 21
-100.1976679134646
 31
0.0
  0
LINE
  5
94
330
70
100
AcDbEntity
  8
Standardebene
 62
     7
370
     9
100
AcDbLine
 10
-107.0026644109631
 20
-100.1976679134646
 30
0.0
 11
-106.002636623363
 21
-100.1976679134646
 31
0.0
  0
LINE
  5
95
330
70
100
AcDbEntity
  8
Standardebene
 62
     7
370
     9
100
AcDbLine
 10
-105.002929542513
 20
-100.1976679134646
 30
0.0
 11
-104.0026451895131
 21
-100.1976679134646
 31
0.0
  0
LINE
  5
96
330
70
100
AcDbEntity
  8
Standardebene
 62
     7
370
     9
100
AcDbLine
 10
-103.0026174019131
 20
-100.1976679134646
 30
0.0
 11
-102.0029103210631
 21
-100.1976679134646
 31
0.0
  0
LINE
  5
97
330
70
100
AcDbEntity
  8
Standardebene
 62
     7
370
     9
100
AcDbLine
 10
-101.0022411199636
 20
-100.1976679134646
 30
0.0
 11
-100.0028547458629
 21
-100.1976679134646
 31
0.0
  0
LWPOLYLINE
  5
98
330
70
100
AcDbEntity
  8
Standardebene
 62
     7
370
     9
100
AcDbPolyline
 90
        3
 70
     0
 43
0.0
 10
-99.00282695826289
 20
-100.1976679134646
 10
-98.50271685243811
 20
-100.1976679134646
 10
-98.50271685243811
 20
-100.6831537914936
  0
LINE
  5
99
330
70
100
AcDbEntity
  8
Standardebene
 62
     7
370
     9
100
AcDbLine
 10
-98.50271685243811
 20
-101.653676558101
 30
0.0
 11
-98.50271685243811
 21
-102.6245841728081
 31
0.0
  0
LINE
  5
9A
330
70
100
AcDbEntity
  8
Standardebene
 62
     7
370
     9
100
AcDbLine
 10
-98.50271685243811
 20
-103.5948503740151
 30
0.0
 11
-98.50271685243811
 21
-104.5654372819728
 31
0.0
  0
LINE
  5
9B
330
70
100
AcDbEntity
  8
Standardebene
 62
     7
370
     9
100
AcDbLine
 10
-98.50271685243811
 20
-105.5363448966798
 30
0.0
 11
-98.50271685243811
 21
-106.5068676632872
 31
0.0
  0
LINE
  5
9C
330
70
100
AcDbEntity
  8
Standardebene
 62
     7
370
     9
100
AcDbLine
 10
-98.50271685243811
 20
-107.4771338644949
 30
0.0
 11
-98.50271685243811
 21
-108.4477207724526
 31
0.0
  0
LINE
  5
9D
330
70
100
AcDbEntity
  8
Standardebene
 62
     7
370
     9
100
AcDbLine
 10
-98.50271685243811
 20
-109.4186283871596
 30
0.0
 11
-98.50271685243811
 21
-110.3888945883673
 31
0.0
  0
LINE
  5
9E
330
70
100
AcDbEntity
  8
Standardebene
 62
     7
370
     9
100
AcDbLine
 10
-98.50271685243811
 20
-111.3598022030743
 30
0.0
 11
-98.50271685243811
 21
-112.3300684042813
 31
0.0
  0
LINE
  5
9F
330
70
100
AcDbEntity
  8
Standardebene
 62
     7
370
     9
100
AcDbLine
 10
-98.50271685243811
 20
-113.3009118776388
 30
0.0
 11
-98.50271685243811
 21
-114.2714987855964
 31
0.0
  0
LINE
  5
A0
330
70
100
AcDbEntity
  8
Standardebene
 62
     7
370
     9
100
AcDbLine
 10
-98.50271685243811
 20
-115.2420856935535
 30
0.0
 11
-98.50271685243811
 21
-116.2123518947611
 31
0.0
  0
LINE
  5
A1
330
70
100
AcDbEntity
  8
Standardebene
 62
     7
370
     9
100
AcDbLine
 10
-98.50271685243811
 20
-117.1832595094688
 30
0.0
 11
-98.50271685243811
 21
-118.1537822760756
 31
0.0
  0
LINE
  5
A2
330
70
100
AcDbEntity
  8
Standardebene
 62
     7
370
     9
100
AcDbLine
 10
-98.50271685243811
 20
-119.1243691840333
 30
0.0
 11
-98.50271685243811
 21
-120.0946353852409
 31
0.0
  0
LINE
  5
A3
330
70
100
AcDbEntity
  8
Standardebene
 62
     7
370
     9
100
AcDbLine
 10
-98.50271685243811
 20
-121.0655429999473
 30
0.0
 11
-98.50271685243811
 21
-122.036129907905
 31
0.0
  0
LINE
  5
A4
330
70
100
AcDbEntity
  8
Standardebene
 62
     7
370
     9
100
AcDbLine
 10
-98.50271685243811
 20
-123.0063961091127
 30
0.0
 11
-98.50271685243811
 21
-123.9772395824701
 31
0.0
  0
LINE
  5
A5
330
70
100
AcDbEntity
  8
Standardebene
 62
     7
370
     9
100
AcDbLine
 10
-98.50271685243811
 20
-124.9478264904271
 30
0.0
 11
-98.50271685243811
 21
-125.9184133983848
 31
0.0
  0
LINE
  5
A6
330
70
100
AcDbEntity
  8
Standardebene
 62
     7
370
     9
100
AcDbLine
 10
-98.50271685243811
 20
-126.8886795995925
 30
0.0
 11
-98.50271685243811
 21
-127.8599079210495
 31
0.0
  0
LINE
  5
A7
330
70
100
AcDbEntity
  8
Standardebene
 62
     7
370
     9
100
AcDbLine
 10
-98.50271685243811
 20
-128.8304948290066
 30
0.0
 11
-98.50271685243811
 21
-129.8007610302142
 31
0.0
  0
LINE
  5
A8
330
70
100
AcDbEntity
  8
Standardebene
 62
     7
370
     9
100
AcDbLine
 10
-98.50271685243811
 20
-130.7712837968217
 30
0.0
 11
-98.50271685243811
 21
-131.7421914115287
 31
0.0
  0
LINE
  5
A9
330
70
100
AcDbEntity
  8
Standardebene
 62
     7
370
     9
100
AcDbLine
 10
-98.50271685243811
 20
-132.7124576127357
 30
0.0
 11
-98.50271685243811
 21
-133.1975586426651
 31
0.0
  0
LINE
  5
AA
330
70
100
AcDbEntity
  8
Standardebene
 62
     7
370
     9
100
AcDbLine
 10
-118.5026953322876
 20
-100.1976679134646
 30
0.0
 11
-118.5026953322876
 21
-99.82308242955816
 31
0.0
  0
LINE
  5
AB
330
70
100
AcDbEntity
  8
Standardebene
 62
     7
370
     9
100
AcDbLine
 10
-118.5026953322876
 20
-99.07301348284608
 30
0.0
 11
-118.5026953322876
 21
-98.32326524288399
 31
0.0
  0
LWPOLYLINE
  5
AC
330
70
100
AcDbEntity
  8
Standardebene
 62
     7
370
     9
100
AcDbPolyline
 90
        3
 70
     0
 43
0.0
 10
-118.5026953322876
 20
-97.57281144807098
 10
-118.5026953322876
 20
-97.19764869201537
 10
-118.0022003783632
 20
-97.19764869201537
  0
LINE
  5
AD
330
70
100
AcDbEntity
  8
Standardebene
 62
     7
370
     9
100
AcDbLine
 10
-117.0028140042632
 20
-97.19764869201537
 30
0.0
 11
-116.0025296512627
 21
-97.19764869201537
 31
0.0
  0
LINE
  5
AE
330
70
100
AcDbEntity
  8
Standardebene
 62
     7
370
     9
100
AcDbLine
 10
-115.0028225704133
 20
-97.19764869201537
 30
0.0
 11
-114.0024740760626
 21
-97.19764869201537
 31
0.0
  0
LINE
  5
AF
330
70
100
AcDbEntity
  8
Standardebene
 62
     7
370
     9
100
AcDbLine
 10
-113.0024462884632
 20
-97.19764869201537
 30
0.0
 11
-112.0024185008631
 21
-97.19764869201537
 31
0.0
  0
LINE
  5
B0
330
70
100
AcDbEntity
  8
Standardebene
 62
     7
370
     9
100
AcDbLine
 10
-111.0027114200124
 20
-97.19764869201537
 30
0.0
 11
-110.0027477737633
 21
-97.19764869201537
 31
0.0
  0
LINE
  5
B1
330
70
100
AcDbEntity
  8
Standardebene
 62
     7
370
     9
100
AcDbLine
 10
-109.0027199861632
 20
-97.19764869201537
 30
0.0
 11
-108.0023714918131
 21
-97.19764869201537
 31
0.0
  0
LINE
  5
B2
330
70
100
AcDbEntity
  8
Standardebene
 62
     7
370
     9
100
AcDbLine
 10
-107.0026644109631
 20
-97.19764869201537
 30
0.0
 11
-106.002636623363
 21
-97.19764869201537
 31
0.0
  0
LINE
  5
B3
330
70
100
AcDbEntity
  8
Standardebene
 62
     7
370
     9
100
AcDbLine
 10
-105.002929542513
 20
-97.19764869201537
 30
0.0
 11
-104.0026451895131
 21
-97.19764869201537
 31
0.0
  0
LINE
  5
B4
330
70
100
AcDbEntity
  8
Standardebene
 62
     7
370
     9
100
AcDbLine
 10
-103.0026174019131
 20
-97.19764869201537
 30
0.0
 11
-102.0029103210631
 21
-97.19764869201537
 31
0.0
  0
LINE
  5
B5
330
70
100
AcDbEntity
  8
Standardebene
 62
     7
370
     9
100
AcDbLine
 10
-101.0022411199636
 20
-97.19764869201537
 30
0.0
 11
-100.0028547458629
 21
-97.19764869201537
 31
0.0
  0
LINE
  5
B6
330
70
100
AcDbEntity
  8
Standardebene
 62
     7
370
     9
100
AcDbLine
 10
-99.00282695826289
 20
-97.19764869201537
 30
0.0
 11
-98.50271685243811
 21
-97.19764869201537
 31
0.0
  0
LINE
  5
B7
330
70
100
AcDbEntity
  8
Standardebene
 62
     7
370
     9
100
AcDbLine
 10
-98.50271685243811
 20
-100.1976679134646
 30
0.0
 11
-98.50271685243811
 21
-99.44824038025195
 31
0.0
  0
LINE
  5
B8
330
70
100
AcDbEntity
  8
Standardebene
 62
     7
370
     9
100
AcDbLine
 10
-98.50271685243811
 20
-97.94771763872747
 30
0.0
 11
-98.50271685243811
 21
-97.19764869201537
 31
0.0
  0
LINE
  5
B9
330
70
100
AcDbEntity
  8
Standardebene
 62
     7
370
     9
100
AcDbLine
 10
-124.9046434741874
 20
-105.1977427101147
 30
0.0
 11
-125.8889566310417
 21
-105.1977427101147
 31
0.0
  0
LINE
  5
BA
330
70
100
AcDbEntity
  8
Standardebene
 62
     7
370
     9
100
AcDbLine
 10
-125.8889566310417
 20
-111.1981660011148
 30
0.0
 11
-124.904322767438
 21
-111.1981660011148
 31
0.0
  0
LINE
  5
BB
330
70
100
AcDbEntity
  8
Standardebene
 62
     7
370
     9
100
AcDbLine
 10
-125.8889566310417
 20
-105.1977427101147
 30
0.0
 11
-126.5025327849878
 21
-105.8113188640614
 31
0.0
  0
LINE
  5
BC
330
70
100
AcDbEntity
  8
Standardebene
 62
     7
370
     9
100
AcDbLine
 10
-126.5025327849878
 20
-110.5843332817683
 30
0.0
 11
-125.8889566310417
 21
-111.1981660011148
 31
0.0
  0
LINE
  5
BD
330
70
100
AcDbEntity
  8
Standardebene
 62
     7
370
     9
100
AcDbLine
 10
-124.9046434741874
 20
-123.1977297561144
 30
0.0
 11
-125.8889566310417
 21
-123.1977297561144
 31
0.0
  0
LINE
  5
BE
330
70
100
AcDbEntity
  8
Standardebene
 62
     7
370
     9
100
AcDbLine
 10
-125.8889566310417
 20
-129.1981530471151
 30
0.0
 11
-124.904322767438
 21
-129.1981530471151
 31
0.0
  0
LINE
  5
BF
330
70
100
AcDbEntity
  8
Standardebene
 62
     7
370
     9
100
AcDbLine
 10
-125.8889566310417
 20
-123.1977297561144
 30
0.0
 11
-126.5025327849878
 21
-123.8115624754615
 31
0.0
  0
LINE
  5
C0
330
70
100
AcDbEntity
  8
Standardebene
 62
     7
370
     9
100
AcDbLine
 10
-126.5025327849878
 20
-128.5846410345179
 30
0.0
 11
-125.8889566310417
 21
-129.1981530471151
 31
0.0
  0
LINE
  5
C1
330
70
100
AcDbEntity
  8
Standardebene
 62
     7
370
     9
100
AcDbLine
 10
-126.5025327849878
 20
-123.8115624754615
 30
0.0
 11
-124.904322767438
 21
-123.8115624754615
 31
0.0
  0
LINE
  5
C2
330
70
100
AcDbEntity
  8
Standardebene
 62
     7
370
     9
100
AcDbLine
 10
-126.5025327849878
 20
-128.5846410345179
 30
0.0
 11
-124.904322767438
 21
-128.5846410345179
 31
0.0
  0
LINE
  5
C3
330
70
100
AcDbEntity
  8
Standardebene
 62
     7
370
     9
100
AcDbLine
 10
-126.5025327849878
 20
-105.8113188640614
 30
0.0
 11
-124.904322767438
 21
-105.8113188640614
 31
0.0
  0
LINE
  5
C4
330
70
100
AcDbEntity
  8
Standardebene
 62
     7
370
     9
100
AcDbLine
 10
-126.5025327849878
 20
-110.5843332817683
 30
0.0
 11
-124.904322767438
 21
-110.5843332817683
 31
0.0
  0
SPLINE
  5
C5
330
70
100
AcDbEntity
  8
Standardebene
 62
     7
370
     9
100
AcDbSpline
210
0.0
220
0.0
230
1.0
 70
     8
 71
     3
 72
    17
 73
    13
 74
     0
 42
0.0000000001
 43
0.0000000001
 40
0.0
 40
0.0
 40
0.0
 40
0.0
 40
1.0
 40
1.0
 40
1.0
 40
2.0
 40
2.0
 40
2.0
 40
3.0
 40
3.0
 40
3.0
 40
4.0
 40
4.0
 40
4.0
 40
4.0
 10
-110.4342907764551
 20
-83.68005160694474
 30
0.0
 10
-110.4818836581428
 20
-83.85823627719954
 30
0.0
 10
-110.5041407065875
 20
-84.03674165420497
 30
0.0
 10
-110.5022806074383
 20
-84.19805714941512
 30
0.0
 10
-110.5022806074383
 20
-85.3026994788385
 30
0.0
 10
-109.6068673616615
 20
-86.19804858326499
 30
0.0
 10
-108.5022250322381
 20
-86.19804858326499
 30
0.0
 10
-107.3982241163135
 20
-86.19804858326499
 30
0.0
 10
-106.5028108705381
 20
-85.3026994788385
 30
0.0
 10
-106.5028108705381
 20
-84.19805714941512
 30
0.0
 10
-106.5028108705381
 20
-83.27724392904505
 30
0.0
 10
-107.124789541333
 20
-82.50241642123903
 30
0.0
 10
-107.9848609032671
 20
-82.26599140519821
 30
0.0
  0
SPLINE
  5
C6
330
70
100
AcDbEntity
  8
Standardebene
 62
     7
370
     9
100
AcDbSpline
210
0.0
220
0.0
230
1.0
 70
     9
 71
     3
 72
    17
 73
    13
 74
     0
 42
0.0000000001
 43
0.0000000001
 40
0.0
 40
0.0
 40
0.0
 40
0.0
 40
1.0
 40
1.0
 40
1.0
 40
2.0
 40
2.0
 40
2.0
 40
3.0
 40
3.0
 40
3.0
 40
4.0
 40
4.0
 40
4.0
 40
4.0
 10
-89.50285161213782
 20
-82.18863693711744
 30
0.0
 10
-90.6121762601103
 20
-82.18863693711744
 30
0.0
 10
-91.51163041093612
 20
-83.08809108794198
 30
0.0
 10
-91.51163041093612
 20
-84.19805714941512
 30
0.0
 10
-91.51163041093612
 20
-85.30770250413763
 30
0.0
 10
-90.6121762601103
 20
-86.20715665496215
 30
0.0
 10
-89.50285161213782
 20
-86.20715665496215
 30
0.0
 10
-88.39262898526556
 20
-86.20715665496215
 30
0.0
 10
-87.49343139984015
 20
-85.30770250413763
 30
0.0
 10
-87.49343139984015
 20
-84.19805714941512
 30
0.0
 10
-87.49343139984015
 20
-83.08809108794198
 30
0.0
 10
-88.39262898526556
 20
-82.18863693711744
 30
0.0
 10
-89.50285161213782
 20
-82.18863693711744
 30
0.0
  0
LWPOLYLINE
  5
C7
330
70
100
AcDbEntity
  8
Standardebene
 62
     7
370
     9
100
AcDbPolyline
 90
        6
 70
     0
 43
0.0
 10
-126.5025327849878
 20
-126.1981338256646
 10
-126.5025327849878
 20
-125.4605083008497
 10
-126.5025327849878
 20
-124.7952983601654
 10
-126.5025327849878
 20
-124.2669660603474
 10
-126.5025327849878
 20
-123.9284280151325
 10
-126.5025327849878
 20
-123.8115624754615
  0
LWPOLYLINE
  5
C8
330
70
100
AcDbEntity
  8
Standardebene
 62
     7
370
     9
100
AcDbPolyline
 90
        6
 70
     0
 43
0.0
 10
-126.5025327849878
 20
-128.5846410345179
 10
-126.5025327849878
 20
-128.4674547880976
 10
-126.5025327849878
 20
-128.1285960361326
 10
-126.5025327849878
 20
-127.600584443064
 10
-126.5025327849878
 20
-126.9353745023804
 10
-126.5025327849878
 20
-126.1981338256646
  0
LWPOLYLINE
  5
C9
330
70
100
AcDbEntity
  8
Standardebene
 62
     7
370
     9
100
AcDbPolyline
 90
       13
 70
     0
 43
0.0
 10
-125.8889566310417
 20
-123.1977297561144
 10
-125.8889566310417
 20
-123.3001634920391
 10
-125.8889566310417
 20
-123.5998960205146
 10
-125.8889566310417
 20
-124.0765303922449
 10
-125.8889566310417
 20
-124.6976110841401
 10
-125.8889566310417
 20
-125.4213820773591
 10
-125.8889566310417
 20
-126.1981338256646
 10
-125.8889566310417
 20
-126.9745007258704
 10
-125.8889566310417
 20
-127.6976303055894
 10
-125.8889566310417
 20
-128.3193524109845
 10
-125.8889566310417
 20
-128.7959867827148
 10
-125.8889566310417
 20
-129.0953986044404
 10
-125.8889566310417
 20
-129.1981530471151
  0
LWPOLYLINE
  5
CA
330
70
100
AcDbEntity
  8
Standardebene
 62
     7
370
     9
100
AcDbPolyline
 90
        6
 70
     0
 43
0.0
 10
-126.5025327849878
 20
-108.1978260729149
 10
-126.5025327849878
 20
-107.4602646894496
 10
-126.5025327849878
 20
-106.7953754555154
 10
-126.5025327849878
 20
-106.2666583075978
 10
-126.5025327849878
 20
-105.9281202623822
 10
-126.5025327849878
 20
-105.8113188640614
  0
LWPOLYLINE
  5
CB
330
70
100
AcDbEntity
  8
Standardebene
 62
     7
370
     9
100
AcDbPolyline
 90
        6
 70
     0
 43
0.0
 10
-126.5025327849878
 20
-110.5843332817683
 10
-126.5025327849878
 20
-110.4674677420979
 10
-126.5025327849878
 20
-110.1282882833823
 10
-126.5025327849878
 20
-109.6005973970637
 10
-126.5025327849878
 20
-108.9357081631308
 10
-126.5025327849878
 20
-108.1978260729149
  0
LWPOLYLINE
  5
CC
330
70
100
AcDbEntity
  8
Standardebene
 62
     7
370
     9
100
AcDbPolyline
 90
       13
 70
     0
 43
0.0
 10
-125.8889566310417
 20
-105.1977427101147
 10
-125.8889566310417
 20
-105.2998557392887
 10
-125.8889566310417
 20
-105.5999089745143
 10
-125.8889566310417
 20
-106.0765433462446
 10
-125.8889566310417
 20
-106.6976240381398
 10
-125.8889566310417
 20
-107.4213950313587
 10
-125.8889566310417
 20
-108.1978260729149
 10
-125.8889566310417
 20
-108.9745136798707
 10
-125.8889566310417
 20
-109.6977074009399
 10
-125.8889566310417
 20
-110.3193653649842
 10
-125.8889566310417
 20
-110.7963204434652
 10
-125.8889566310417
 20
-111.0954756997903
 10
-125.8889566310417
 20
-111.1981660011148
  0
SPLINE
  5
CD
330
70
100
AcDbEntity
  8
Standardebene
 62
     7
370
     9
100
AcDbSpline
210
0.0
220
0.0
230
1.0
 70
     8
 71
     3
 72
    17
 73
    13
 74
     0
 42
0.0000000001
 43
0.0000000001
 40
0.0
 40
0.0
 40
0.0
 40
0.0
 40
1.0
 40
1.0
 40
1.0
 40
2.0
 40
2.0
 40
2.0
 40
3.0
 40
3.0
 40
3.0
 40
4.0
 40
4.0
 40
4.0
 40
4.0
 10
-22.16918663947177
 20
-125.5805167666687
 30
0.0
 10
-22.22614415825708
 20
-125.7925039283656
 30
0.0
 10
-22.25244211175083
 20
-126.0057739170626
 30
0.0
 10
-22.25026130585097
 20
-126.1981338256646
 30
0.0
 10
-22.25026130585097
 20
-127.5159820024353
 30
0.0
 10
-21.18230782861859
 20
-128.5846410345179
 30
0.0
 10
-19.86343339024754
 20
-128.5846410345179
 30
0.0
 10
-18.54584177887786
 20
-128.5846410345179
 30
0.0
 10
-17.47724688814416
 20
-127.5159820024353
 30
0.0
 10
-17.47724688814416
 20
-126.1981338256646
 30
0.0
 10
-17.47724688814416
 20
-125.0991359350397
 30
0.0
 10
-18.21923402475941
 20
-124.1746025163706
 30
0.0
 10
-19.24613703800172
 20
-123.892701283191
 30
0.0
  0
SPLINE
  5
CE
330
70
100
AcDbEntity
  8
Standardebene
 62
     7
370
     9
100
AcDbSpline
210
0.0
220
0.0
230
1.0
 70
     8
 71
     3
 72
    17
 73
    13
 74
     0
 42
0.0000000001
 43
0.0000000001
 40
0.0
 40
0.0
 40
0.0
 40
0.0
 40
1.0
 40
1.0
 40
1.0
 40
2.0
 40
2.0
 40
2.0
 40
3.0
 40
3.0
 40
3.0
 40
4.0
 40
4.0
 40
4.0
 40
4.0
 10
-22.16918663947177
 20
-107.5802090139196
 30
0.0
 10
-22.22614415825708
 20
-107.7925168823659
 30
0.0
 10
-22.25244211175083
 20
-108.0058510124132
 30
0.0
 10
-22.25026130585097
 20
-108.1978260729149
 30
0.0
 10
-22.25026130585097
 20
-109.5160590977852
 30
0.0
 10
-21.18230782861859
 20
-110.5843332817683
 30
0.0
 10
-19.86343339024754
 20
-110.5843332817683
 30
0.0
 10
-18.54584177887786
 20
-110.5843332817683
 30
0.0
 10
-17.47724688814416
 20
-109.5160590977852
 30
0.0
 10
-17.47724688814416
 20
-108.1978260729149
 30
0.0
 10
-17.47724688814416
 20
-107.0994695957894
 30
0.0
 10
-18.21923402475941
 20
-106.1746154703703
 30
0.0
 10
-19.24613703800172
 20
-105.8930349439413
 30
0.0
  0
SPLINE
  5
CF
330
70
100
AcDbEntity
  8
Standardebene
 62
     7
370
     9
100
AcDbSpline
210
0.0
220
0.0
230
1.0
 70
     9
 71
     3
 72
    17
 73
    13
 74
     0
 42
0.0000000001
 43
0.0000000001
 40
0.0
 40
0.0
 40
0.0
 40
0.0
 40
1.0
 40
1.0
 40
1.0
 40
2.0
 40
2.0
 40
2.0
 40
3.0
 40
3.0
 40
3.0
 40
4.0
 40
4.0
 40
4.0
 40
4.0
 10
-19.86343339024754
 20
-123.8115624754615
 30
0.0
 10
-21.18230782861859
 20
-123.8115624754615
 30
0.0
 10
-22.25026130585097
 20
-124.8802215075442
 30
0.0
 10
-22.25026130585097
 20
-126.1981338256646
 30
0.0
 10
-22.25026130585097
 20
-127.5159820024353
 30
0.0
 10
-21.18230782861859
 20
-128.5846410345179
 30
0.0
 10
-19.86343339024754
 20
-128.5846410345179
 30
0.0
 10
-18.54584177887786
 20
-128.5846410345179
 30
0.0
 10
-17.47724688814416
 20
-127.5159820024353
 30
0.0
 10
-17.47724688814416
 20
-126.1981338256646
 30
0.0
 10
-17.47724688814416
 20
-124.8802215075442
 30
0.0
 10
-18.54584177887786
 20
-123.8115624754615
 30
0.0
 10
-19.86343339024754
 20
-123.8115624754615
 30
0.0
  0
SPLINE
  5
D0
330
70
100
AcDbEntity
  8
Standardebene
 62
     7
370
     9
100
AcDbSpline
210
0.0
220
0.0
230
1.0
 70
     8
 71
     3
 72
     8
 73
     4
 74
     0
 42
0.0000000001
 43
0.0000000001
 40
0.0
 40
0.0
 40
0.0
 40
0.0
 40
1.0
 40
1.0
 40
1.0
 40
1.0
 10
-18.37452023307012
 20
-126.3744583967708
 30
0.0
 10
-18.35919045042402
 20
-126.2507297326521
 30
0.0
 10
-18.36079398417347
 20
-126.1286046022821
 30
0.0
 10
-18.37452023307012
 20
-126.0214885478089
 30
0.0
  0
LWPOLYLINE
  5
D1
330
70
100
AcDbEntity
  8
Standardebene
 62
     7
370
     9
100
AcDbPolyline
 90
        3
 70
     0
 43
0.0
 10
-18.37452023307012
 20
-126.3744583967708
 10
-18.37452023307012
 20
-127.0584617529997
 10
-18.96648075207161
 20
-127.3995013108639
  0
SPLINE
  5
D2
330
70
100
AcDbEntity
  8
Standardebene
 62
     7
370
     9
100
AcDbSpline
210
0.0
220
0.0
230
1.0
 70
     8
 71
     3
 72
     8
 73
     4
 74
     0
 42
0.0000000001
 43
0.0000000001
 40
0.0
 40
0.0
 40
0.0
 40
0.0
 40
1.0
 40
1.0
 40
1.0
 40
1.0
 10
-19.27185771934505
 20
-127.5764672954701
 30
0.0
 10
-19.15813510582393
 20
-127.5272708800329
 30
0.0
 10
-19.05198117160144
 20
-127.4652461945983
 30
0.0
 10
-18.96648075207161
 20
-127.3995013108639
 30
0.0
  0
LWPOLYLINE
  5
D3
330
70
100
AcDbEntity
  8
Standardebene
 62
     7
370
     9
100
AcDbPolyline
 90
        3
 70
     0
 43
0.0
 10
-19.27185771934505
 20
-127.5764672954701
 10
-19.8744015610952
 20
-127.9234719988828
 10
-21.37396218237091
 20
-127.0584617529997
  0
LINE
  5
D4
330
70
100
AcDbEntity
  8
Standardebene
 62
     7
370
     9
100
AcDbLine
 10
-21.37396218237091
 20
-125.3261963139823
 30
0.0
 11
-21.37396218237091
 21
-127.0584617529997
 31
0.0
  0
LINE
  5
D5
330
70
100
AcDbEntity
  8
Standardebene
 62
     7
370
     9
100
AcDbLine
 10
-19.8744015610952
 20
-124.4595825343492
 30
0.0
 11
-21.37396218237091
 21
-125.3261963139823
 31
0.0
  0
LINE
  5
D6
330
70
100
AcDbEntity
  8
Standardebene
 62
     7
370
     9
100
AcDbLine
 10
-18.37452023307012
 20
-125.3261963139823
 30
0.0
 11
-19.8744015610952
 21
-124.4595825343492
 31
0.0
  0
LINE
  5
D7
330
70
100
AcDbEntity
  8
Standardebene
 62
     7
370
     9
100
AcDbLine
 10
-18.37452023307012
 20
-125.3261963139823
 30
0.0
 11
-18.37452023307012
 21
-126.0214885478089
 31
0.0
  0
SPLINE
  5
D8
330
70
100
AcDbEntity
  8
Standardebene
 62
     7
370
     9
100
AcDbSpline
210
0.0
220
0.0
230
1.0
 70
     8
 71
     3
 72
    14
 73
    10
 74
     0
 42
0.0000000001
 43
0.0000000001
 40
0.0
 40
0.0
 40
0.0
 40
0.0
 40
1.0
 40
1.0
 40
1.0
 40
2.0
 40
2.0
 40
2.0
 40
3.0
 40
3.0
 40
3.0
 40
3.0
 10
-19.86343339024754
 20
-124.6976110841401
 30
0.0
 10
-20.69213963204115
 20
-124.6976110841401
 30
0.0
 10
-21.36395613177267
 20
-125.3691068771216
 30
0.0
 10
-21.36395613177267
 20
-126.1981338256646
 30
0.0
 10
-21.36395613177267
 20
-127.0261986539575
 30
0.0
 10
-20.69213963204115
 20
-127.6976303055894
 30
0.0
 10
-19.86343339024754
 20
-127.6976303055894
 30
0.0
 10
-19.64984269480184
 20
-127.6976303055894
 30
0.0
 10
-19.44657875670183
 20
-127.6531803500509
 30
0.0
 10
-19.27185771934505
 20
-127.5764672954701
 30
0.0
  0
SPLINE
  5
D9
330
70
100
AcDbEntity
  8
Standardebene
 62
     7
370
     9
100
AcDbSpline
210
0.0
220
0.0
230
1.0
 70
     8
 71
     3
 72
     8
 73
     4
 74
     0
 42
0.0000000001
 43
0.0000000001
 40
0.0
 40
0.0
 40
0.0
 40
0.0
 40
1.0
 40
1.0
 40
1.0
 40
1.0
 10
-18.96648075207161
 20
-127.3995013108639
 30
0.0
 10
-18.62319624695737
 20
-127.1433207590282
 30
0.0
 10
-18.42089442910805
 20
-126.7693766886225
 30
0.0
 10
-18.37452023307012
 20
-126.3744583967708
 30
0.0
  0
SPLINE
  5
DA
330
70
100
AcDbEntity
  8
Standardebene
 62
     7
370
     9
100
AcDbSpline
210
0.0
220
0.0
230
1.0
 70
     8
 71
     3
 72
     8
 73
     4
 74
     0
 42
0.0000000001
 43
0.0000000001
 40
0.0
 40
0.0
 40
0.0
 40
0.0
 40
1.0
 40
1.0
 40
1.0
 40
1.0
 10
-18.37452023307012
 20
-126.0214885478089
 30
0.0
 10
-18.46444640574737
 20
-125.2600665821496
 30
0.0
 10
-19.10958010388678
 20
-124.7007540102893
 30
0.0
 10
-19.86343339024754
 20
-124.6976110841401
 30
0.0
  0
SPLINE
  5
DB
330
70
100
AcDbEntity
  8
Standardebene
 62
     7
370
     9
100
AcDbSpline
210
0.0
220
0.0
230
1.0
 70
     9
 71
     3
 72
    17
 73
    13
 74
     0
 42
0.0000000001
 43
0.0000000001
 40
0.0
 40
0.0
 40
0.0
 40
0.0
 40
1.0
 40
1.0
 40
1.0
 40
2.0
 40
2.0
 40
2.0
 40
3.0
 40
3.0
 40
3.0
 40
4.0
 40
4.0
 40
4.0
 40
4.0
 10
-19.86343339024754
 20
-123.1977297561144
 30
0.0
 10
-21.52052516708345
 20
-123.1977297561144
 30
0.0
 10
-22.86383745979839
 20
-124.5410420488293
 30
0.0
 10
-22.86383745979839
 20
-126.1981338256646
 30
0.0
 10
-22.86383745979839
 20
-127.8549048957511
 30
0.0
 10
-21.52052516708345
 20
-129.1981530471151
 30
0.0
 10
-19.86343339024754
 20
-129.1981530471151
 30
0.0
 10
-18.20730373366106
 20
-129.1981530471151
 30
0.0
 10
-16.86373487554764
 20
-127.8549048957511
 30
0.0
 10
-16.86373487554764
 20
-126.1981338256646
 30
0.0
 10
-16.86373487554764
 20
-124.5410420488293
 30
0.0
 10
-18.20730373366106
 20
-123.1977297561144
 30
0.0
 10
-19.86343339024754
 20
-123.1977297561144
 30
0.0
  0
SPLINE
  5
DC
330
70
100
AcDbEntity
  8
Standardebene
 62
     7
370
     9
100
AcDbSpline
210
0.0
220
0.0
230
1.0
 70
     9
 71
     3
 72
    17
 73
    13
 74
     0
 42
0.0000000001
 43
0.0000000001
 40
0.0
 40
0.0
 40
0.0
 40
0.0
 40
1.0
 40
1.0
 40
1.0
 40
2.0
 40
2.0
 40
2.0
 40
3.0
 40
3.0
 40
3.0
 40
4.0
 40
4.0
 40
4.0
 40
4.0
 10
-19.86343339024754
 20
-105.8113188640614
 30
0.0
 10
-21.18230782861859
 20
-105.8113188640614
 30
0.0
 10
-22.25026130585097
 20
-106.8799137547945
 30
0.0
 10
-22.25026130585097
 20
-108.1978260729149
 30
0.0
 10
-22.25026130585097
 20
-109.5160590977852
 30
0.0
 10
-21.18230782861859
 20
-110.5843332817683
 30
0.0
 10
-19.86343339024754
 20
-110.5843332817683
 30
0.0
 10
-18.54584177887786
 20
-110.5843332817683
 30
0.0
 10
-17.47724688814416
 20
-109.5160590977852
 30
0.0
 10
-17.47724688814416
 20
-108.1978260729149
 30
0.0
 10
-17.47724688814416
 20
-106.8799137547945
 30
0.0
 10
-18.54584177887786
 20
-105.8113188640614
 30
0.0
 10
-19.86343339024754
 20
-105.8113188640614
 30
0.0
  0
SPLINE
  5
DD
330
70
100
AcDbEntity
  8
Standardebene
 62
     7
370
     9
100
AcDbSpline
210
0.0
220
0.0
230
1.0
 70
     8
 71
     3
 72
     8
 73
     4
 74
     0
 42
0.0000000001
 43
0.0000000001
 40
0.0
 40
0.0
 40
0.0
 40
0.0
 40
1.0
 40
1.0
 40
1.0
 40
1.0
 10
-18.37452023307012
 20
-108.3744713507711
 30
0.0
 10
-18.35919045042402
 20
-108.2504219799017
 30
0.0
 10
-18.36079398417347
 20
-108.1289382630318
 30
0.0
 10
-18.37452023307012
 20
-108.0211807950593
 30
0.0
  0
LWPOLYLINE
  5
DE
330
70
100
AcDbEntity
  8
Standardebene
 62
     7
370
     9
100
AcDbPolyline
 90
        3
 70
     0
 43
0.0
 10
-18.37452023307012
 20
-108.3744713507711
 10
-18.37452023307012
 20
-109.0581540002494
 10
-18.96648075207161
 20
-109.3998349716142
  0
SPLINE
  5
DF
330
70
100
AcDbEntity
  8
Standardebene
 62
     7
370
     9
100
AcDbSpline
210
0.0
220
0.0
230
1.0
 70
     8
 71
     3
 72
     8
 73
     4
 74
     0
 42
0.0000000001
 43
0.0000000001
 40
0.0
 40
0.0
 40
0.0
 40
0.0
 40
1.0
 40
1.0
 40
1.0
 40
1.0
 10
-19.27185771934505
 20
-109.5764802494705
 30
0.0
 10
-19.15813510582393
 20
-109.5272838340326
 30
0.0
 10
-19.05198117160144
 20
-109.4652591485979
 30
0.0
 10
-18.96648075207161
 20
-109.3991935581148
 30
0.0
  0
LWPOLYLINE
  5
E0
330
70
100
AcDbEntity
  8
Standardebene
 62
     7
370
     9
100
AcDbPolyline
 90
        3
 70
     0
 43
0.0
 10
-19.27185771934505
 20
-109.5764802494705
 10
-19.8744015610952
 20
-109.9241263663832
 10
-21.37396218237091
 20
-109.0581540002494
  0
LINE
  5
E1
330
70
100
AcDbEntity
  8
Standardebene
 62
     7
370
     9
100
AcDbLine
 10
-21.37396218237091
 20
-107.3258885612332
 30
0.0
 11
-21.37396218237091
 21
-109.0581540002494
 31
0.0
  0
LINE
  5
E2
330
70
100
AcDbEntity
  8
Standardebene
 62
     7
370
     9
100
AcDbLine
 10
-19.8744015610952
 20
-106.4595954883495
 30
0.0
 11
-21.37396218237091
 21
-107.3258885612332
 31
0.0
  0
LINE
  5
E3
330
70
100
AcDbEntity
  8
Standardebene
 62
     7
370
     9
100
AcDbLine
 10
-18.37452023307012
 20
-107.3258885612332
 30
0.0
 11
-19.8744015610952
 21
-106.4595954883495
 31
0.0
  0
LINE
  5
E4
330
70
100
AcDbEntity
  8
Standardebene
 62
     7
370
     9
100
AcDbLine
 10
-18.37452023307012
 20
-107.3258885612332
 30
0.0
 11
-18.37452023307012
 21
-108.0211807950593
 31
0.0
  0
SPLINE
  5
E5
330
70
100
AcDbEntity
  8
Standardebene
 62
     7
370
     9
100
AcDbSpline
210
0.0
220
0.0
230
1.0
 70
     8
 71
     3
 72
    14
 73
    10
 74
     0
 42
0.0000000001
 43
0.0000000001
 40
0.0
 40
0.0
 40
0.0
 40
0.0
 40
1.0
 40
1.0
 40
1.0
 40
2.0
 40
2.0
 40
2.0
 40
3.0
 40
3.0
 40
3.0
 40
3.0
 10
-19.86343339024754
 20
-106.6976240381398
 30
0.0
 10
-20.69213963204115
 20
-106.6976240381398
 30
0.0
 10
-21.36395613177267
 20
-107.3691198311225
 30
0.0
 10
-21.36395613177267
 20
-108.1978260729149
 30
0.0
 10
-21.36395613177267
 20
-109.0258909012078
 30
0.0
 10
-20.69213963204115
 20
-109.6977074009399
 30
0.0
 10
-19.86343339024754
 20
-109.6977074009399
 30
0.0
 10
-19.64984269480184
 20
-109.6977074009399
 30
0.0
 10
-19.44657875670183
 20
-109.6531933040512
 30
0.0
 10
-19.27185771934505
 20
-109.5764802494705
 30
0.0
  0
SPLINE
  5
E6
330
70
100
AcDbEntity
  8
Standardebene
 62
     7
370
     9
100
AcDbSpline
210
0.0
220
0.0
230
1.0
 70
     8
 71
     3
 72
     8
 73
     4
 74
     0
 42
0.0000000001
 43
0.0000000001
 40
0.0
 40
0.0
 40
0.0
 40
0.0
 40
1.0
 40
1.0
 40
1.0
 40
1.0
 10
-18.96648075207161
 20
-109.3991935581148
 30
0.0
 10
-18.62319624695737
 20
-109.1439751265286
 30
0.0
 10
-18.42089442910805
 20
-108.7690689358721
 30
0.0
 10
-18.37452023307012
 20
-108.3744713507711
 30
0.0
  0
SPLINE
  5
E7
330
70
100
AcDbEntity
  8
Standardebene
 62
     7
370
     9
100
AcDbSpline
210
0.0
220
0.0
230
1.0
 70
     8
 71
     3
 72
     8
 73
     4
 74
     0
 42
0.0000000001
 43
0.0000000001
 40
0.0
 40
0.0
 40
0.0
 40
0.0
 40
1.0
 40
1.0
 40
1.0
 40
1.0
 10
-18.37452023307012
 20
-108.0211807950593
 30
0.0
 10
-18.46444640574737
 20
-107.2604002428993
 30
0.0
 10
-19.10958010388678
 20
-106.700446257539
 30
0.0
 10
-19.86343339024754
 20
-106.6976240381398
 30
0.0
  0
SPLINE
  5
E8
330
70
100
AcDbEntity
  8
Standardebene
 62
     7
370
     9
100
AcDbSpline
210
0.0
220
0.0
230
1.0
 70
     9
 71
     3
 72
    17
 73
    13
 74
     0
 42
0.0000000001
 43
0.0000000001
 40
0.0
 40
0.0
 40
0.0
 40
0.0
 40
1.0
 40
1.0
 40
1.0
 40
2.0
 40
2.0
 40
2.0
 40
3.0
 40
3.0
 40
3.0
 40
4.0
 40
4.0
 40
4.0
 40
4.0
 10
-19.86343339024754
 20
-105.1977427101147
 30
0.0
 10
-21.52052516708345
 20
-105.1977427101147
 30
0.0
 10
-22.86383745979839
 20
-106.541055002829
 30
0.0
 10
-22.86383745979839
 20
-108.1978260729149
 30
0.0
 10
-22.86383745979839
 20
-109.8549178497501
 30
0.0
 10
-21.52052516708345
 20
-111.1981660011148
 30
0.0
 10
-19.86343339024754
 20
-111.1981660011148
 30
0.0
 10
-18.20730373366106
 20
-111.1981660011148
 30
0.0
 10
-16.86373487554764
 20
-109.8549178497501
 30
0.0
 10
-16.86373487554764
 20
-108.1978260729149
 30
0.0
 10
-16.86373487554764
 20
-106.541055002829
 30
0.0
 10
-18.20730373366106
 20
-105.1977427101147
 30
0.0
 10
-19.86343339024754
 20
-105.1977427101147
 30
0.0
  0
LINE
  5
E9
330
70
100
AcDbEntity
  8
Standardebene
  6
AI-Linetype-0
 62
     7
370
     9
100
AcDbLine
 10
-160.3148378530844
 20
-21.1979742057148
 30
0.0
 11
-94.69804439543885
 21
-21.1979742057148
 31
0.0
  0
LINE
  5
EB
330
70
100
AcDbEntity
  8
Standardebene
  6
AI-Linetype-1
 62
     7
370
     9
100
AcDbLine
 10
-108.5022250322381
 20
-50.1780623900698
 30
0.0
 11
-108.5022250322381
 21
-6.733907360280396
 31
0.0
  0
LINE
  5
ED
330
70
100
AcDbEntity
  8
Standardebene
  6
AI-Linetype-2
 62
     7
370
     9
100
AcDbLine
 10
-108.5022250322381
 20
-135.3213428819832
 30
0.0
 11
-108.5022250322381
 21
-59.79926488766498
 31
0.0
  0
LINE
  5
EF
330
70
100
AcDbEntity
  8
Standardebene
  6
AI-Linetype-3
 62
     7
370
     9
100
AcDbLine
 10
-19.86343339024754
 20
-49.5369695969801
 30
0.0
 11
-19.86343339024754
 21
-7.086877209242222
 31
0.0
  0
LINE
  5
F1
330
70
100
AcDbEntity
  8
Standardebene
  6
AI-Linetype-4
 62
     7
370
     9
100
AcDbLine
 10
-19.86343339024754
 20
-135.1450183108783
 30
0.0
 11
-19.86343339024754
 21
-60.44099909425408
 31
0.0
  0
LINE
  5
F3
330
70
100
AcDbEntity
  8
Standardebene
 62
     7
370
    35
100
AcDbLine
 10
-148.0030340063631
 20
-15.19819232821471
 30
0.0
 11
-149.0024203804632
 21
-16.19789940906476
 31
0.0
  0
LWPOLYLINE
  5
F4
330
70
100
AcDbEntity
  8
Standardebene
 62
     7
370
    35
100
AcDbPolyline
 90
        3
 70
     0
 43
0.0
 10
-149.0024203804632
 20
-26.19772829561484
 10
-148.0030340063631
 20
-27.19807678996492
 10
-136.5023616715379
 20
-27.19807678996492
  0
LINE
  5
F5
330
70
100
AcDbEntity
  8
Standardebene
 62
     7
370
    35
100
AcDbLine
 10
-136.5023616715379
 20
-15.19819232821471
 30
0.0
 11
-148.0030340063631
 21
-15.19819232821471
 31
0.0
  0
LINE
  5
F6
330
70
100
AcDbEntity
  8
Standardebene
 62
     7
370
    35
100
AcDbLine
 10
-157.8027418809631
 20
-27.19807678996492
 30
0.0
 11
-153.0027880962632
 21
-27.19807678996492
 31
0.0
  0
LINE
  5
F7
330
70
100
AcDbEntity
  8
Standardebene
 62
     7
370
    35
100
AcDbLine
 10
-153.0027880962632
 20
-15.19819232821471
 30
0.0
 11
-157.8027418809631
 21
-15.19819232821471
 31
0.0
  0
LINE
  5
F8
330
70
100
AcDbEntity
  8
Standardebene
 62
     7
370
    35
100
AcDbLine
 10
-153.0027880962632
 20
-27.19807678996492
 30
0.0
 11
-152.0027603086631
 21
-26.19772829561484
 31
0.0
  0
LINE
  5
F9
330
70
100
AcDbEntity
  8
Standardebene
 62
     7
370
    35
100
AcDbLine
 10
-152.0027603086631
 20
-16.19789940906476
 30
0.0
 11
-153.0027880962632
 21
-15.19819232821471
 31
0.0
  0
LINE
  5
FA
330
70
100
AcDbEntity
  8
Standardebene
 62
     7
370
    35
100
AcDbLine
 10
-152.0027603086631
 20
-26.19772829561484
 30
0.0
 11
-149.0024203804632
 21
-26.19772829561484
 31
0.0
  0
LINE
  5
FB
330
70
100
AcDbEntity
  8
Standardebene
 62
     7
370
    35
100
AcDbLine
 10
-149.0024203804632
 20
-16.19789940906476
 30
0.0
 11
-152.0027603086631
 21
-16.19789940906476
 31
0.0
  0
LINE
  5
FC
330
70
100
AcDbEntity
  8
Standardebene
 62
     7
370
    35
100
AcDbLine
 10
-129.5028727131878
 20
-12.69764179909018
 30
0.0
 11
-130.2620497315983
 21
-11.38287240711846
 31
0.0
  0
LINE
  5
FD
330
70
100
AcDbEntity
  8
Standardebene
 62
     7
370
    35
100
AcDbLine
 10
-134.9432778774774
 20
-11.38287240711846
 30
0.0
 11
-135.7021983304882
 21
-12.69764179909018
 31
0.0
  0
LINE
  5
FE
330
70
100
AcDbEntity
  8
Standardebene
 62
     7
370
    35
100
AcDbLine
 10
-130.2620497315983
 20
-31.01269115621087
 30
0.0
 11
-129.5028727131878
 21
-29.6979217642398
 31
0.0
  0
LINE
  5
FF
330
70
100
AcDbEntity
  8
Standardebene
 62
     7
370
    35
100
AcDbLine
 10
-135.7021983304882
 20
-29.6979217642398
 30
0.0
 11
-134.9432778774774
 21
-31.01269115621087
 31
0.0
  0
LINE
  5
100
330
70
100
AcDbEntity
  8
Standardebene
 62
     7
370
    35
100
AcDbLine
 10
-96.00216632331358
 20
-33.19785866746501
 30
0.0
 11
-96.00216632331358
 21
-9.198089743964604
 31
0.0
  0
LINE
  5
101
330
70
100
AcDbEntity
  8
Standardebene
 62
     7
370
    35
100
AcDbLine
 10
-92.003081434513
 20
-132.198172268565
 30
0.0
 11
-92.003081434513
 21
-94.19756532921518
 31
0.0
  0
LINE
  5
102
330
70
100
AcDbEntity
  8
Standardebene
 62
     7
370
    35
100
AcDbLine
 10
-125.0026514569634
 20
-129.6976858807901
 30
0.0
 11
-125.0026514569634
 21
-132.198172268565
 31
0.0
  0
LINE
  5
103
330
70
100
AcDbEntity
  8
Standardebene
 62
     7
370
    35
100
AcDbLine
 10
-125.0026514569634
 20
-111.6973781280398
 30
0.0
 11
-125.0026514569634
 21
-122.7060221671377
 31
0.0
  0
LINE
  5
104
330
70
100
AcDbEntity
  8
Standardebene
 62
     7
370
    35
100
AcDbLine
 10
-125.0026514569634
 20
-94.19756532921518
 30
0.0
 11
-125.0026514569634
 21
-104.7057144143874
 31
0.0
  0
LINE
  5
105
330
70
100
AcDbEntity
  8
Standardebene
 62
     7
370
    35
100
AcDbLine
 10
-92.003081434513
 20
-94.19756532921518
 30
0.0
 11
-93.00246780861366
 21
-93.19785824836449
 31
0.0
  0
LINE
  5
106
330
70
100
AcDbEntity
  8
Standardebene
 62
     7
370
    35
100
AcDbLine
 10
-124.0023029626133
 20
-93.19785824836449
 30
0.0
 11
-125.0026514569634
 21
-94.19756532921518
 31
0.0
  0
LINE
  5
107
330
70
100
AcDbEntity
  8
Standardebene
 62
     7
370
    35
100
AcDbLine
 10
-125.0026514569634
 20
-132.198172268565
 30
0.0
 11
-124.0023029626133
 21
-133.1975586426651
 31
0.0
  0
LINE
  5
108
330
70
100
AcDbEntity
  8
Standardebene
 62
     7
370
    35
100
AcDbLine
 10
-93.00246780861366
 20
-133.1975586426651
 30
0.0
 11
-92.003081434513
 21
-132.198172268565
 31
0.0
  0
LINE
  5
109
330
70
100
AcDbEntity
  8
Standardebene
 62
     7
370
    35
100
AcDbLine
 10
-94.25206958900076
 20
-38.69778700454008
 30
0.0
 11
-94.6494893935017
 21
-35.46474225859838
 31
0.0
  0
LINE
  5
10A
330
70
100
AcDbEntity
  8
Standardebene
 62
     7
370
    35
100
AcDbLine
 10
-122.3555379431244
 20
-35.46474225859838
 30
0.0
 11
-122.7523804754755
 21
-38.69778700454008
 31
0.0
  0
LINE
  5
10B
330
70
100
AcDbEntity
  8
Standardebene
 62
     7
370
    35
100
AcDbLine
 10
-94.25206958900076
 20
-93.19785824836449
 30
0.0
 11
-94.25206958900076
 21
-90.19783902691457
 31
0.0
  0
LINE
  5
10C
330
70
100
AcDbEntity
  8
Standardebene
 62
     7
370
    35
100
AcDbLine
 10
-94.25206958900076
 20
-78.197633858415
 30
0.0
 11
-94.25206958900076
 21
-38.69778700454008
 31
0.0
  0
LINE
  5
10D
330
70
100
AcDbEntity
  8
Standardebene
 62
     7
370
    35
100
AcDbLine
 10
-122.7523804754755
 20
-38.69778700454008
 30
0.0
 11
-122.7523804754755
 21
-78.197633858415
 31
0.0
  0
LINE
  5
10E
330
70
100
AcDbEntity
  8
Standardebene
 62
     7
370
    35
100
AcDbLine
 10
-122.7523804754755
 20
-90.19783902691457
 30
0.0
 11
-122.7523804754755
 21
-93.19785824836449
 31
0.0
  0
LINE
  5
10F
330
70
100
AcDbEntity
  8
Standardebene
 62
     7
370
    35
100
AcDbLine
 10
-122.6217886869078
 20
-34.94263166972867
 30
0.0
 11
-122.3555379431244
 21
-35.46474225859838
 31
0.0
  0
LINE
  5
110
330
70
100
AcDbEntity
  8
Standardebene
 62
     7
370
    35
100
AcDbLine
 10
-94.6494893935017
 20
-35.46474225859838
 30
0.0
 11
-94.38298208431783
 21
-34.94263166972867
 31
0.0
  0
LINE
  5
111
330
70
100
AcDbEntity
  8
Standardebene
 62
     7
370
    35
100
AcDbLine
 10
-98.00254260526308
 20
-8.798104285464813
 30
0.0
 11
-98.50271685243811
 21
-8.297673472890016
 31
0.0
  0
LWPOLYLINE
  5
112
330
70
100
AcDbEntity
  8
Standardebene
 62
     7
370
    35
100
AcDbPolyline
 90
        3
 70
     0
 43
0.0
 10
-118.5026953322876
 20
-8.297673472890016
 10
-119.0025488727126
 20
-8.798104285464813
 10
-119.0025488727126
 20
-9.198089743964604
  0
LINE
  5
113
330
70
100
AcDbEntity
  8
Standardebene
 62
     7
370
    35
100
AcDbLine
 10
-98.00254260526308
 20
-9.198089743964604
 30
0.0
 11
-98.00254260526308
 21
-8.798104285464813
 31
0.0
  0
SPLINE
  5
114
330
70
100
AcDbEntity
  8
Standardebene
 62
     7
370
    35
100
AcDbSpline
210
0.0
220
0.0
230
1.0
 70
     8
 71
     3
 72
     8
 73
     4
 74
     0
 42
0.0000000001
 43
0.0000000001
 40
0.0
 40
0.0
 40
0.0
 40
0.0
 40
1.0
 40
1.0
 40
1.0
 40
1.0
 10
-135.702775602638
 20
-27.99824013101528
 30
0.0
 10
-135.702775602638
 20
-27.55637037097524
 30
0.0
 10
-136.0610691836489
 20
-27.19807678996492
 30
0.0
 10
-136.5023616715379
 20
-27.19807678996492
 30
0.0
  0
SPLINE
  5
115
330
70
100
AcDbEntity
  8
Standardebene
 62
     7
370
    35
100
AcDbSpline
210
0.0
220
0.0
230
1.0
 70
     8
 71
     3
 72
     8
 73
     4
 74
     0
 42
0.0000000001
 43
0.0000000001
 40
0.0
 40
0.0
 40
0.0
 40
0.0
 40
1.0
 40
1.0
 40
1.0
 40
1.0
 10
-136.5023616715379
 20
-15.19819232821471
 30
0.0
 10
-136.0610691836489
 20
-15.19819232821471
 30
0.0
 10
-135.702775602638
 20
-14.83989874720439
 30
0.0
 10
-135.702775602638
 20
-14.39796484581473
 30
0.0
  0
SPLINE
  5
116
330
70
100
AcDbEntity
  8
Standardebene
 62
     7
370
    35
100
AcDbSpline
210
0.0
220
0.0
230
1.0
 70
     8
 71
     3
 72
     8
 73
     4
 74
     0
 42
0.0000000001
 43
0.0000000001
 40
0.0
 40
0.0
 40
0.0
 40
0.0
 40
1.0
 40
1.0
 40
1.0
 40
1.0
 10
-159.0022492670132
 20
-25.99760728366474
 30
0.0
 10
-159.0022492670132
 20
-26.66063641844911
 30
0.0
 10
-158.4654503089975
 20
-27.19807678996492
 30
0.0
 10
-157.8027418809631
 20
-27.19807678996492
 30
0.0
  0
SPLINE
  5
117
330
70
100
AcDbEntity
  8
Standardebene
 62
     7
370
    35
100
AcDbSpline
210
0.0
220
0.0
230
1.0
 70
     8
 71
     3
 72
     8
 73
     4
 74
     0
 42
0.0000000001
 43
0.0000000001
 40
0.0
 40
0.0
 40
0.0
 40
0.0
 40
1.0
 40
1.0
 40
1.0
 40
1.0
 10
-157.8027418809631
 20
-15.19819232821471
 30
0.0
 10
-158.4654503089975
 20
-15.19819232821471
 30
0.0
 10
-159.0022492670132
 20
-15.73499128623048
 30
0.0
 10
-159.0022492670132
 20
-16.39802042101421
 30
0.0
  0
SPLINE
  5
118
330
70
100
AcDbEntity
  8
Standardebene
 62
     7
370
    35
100
AcDbSpline
210
0.0
220
0.0
230
1.0
 70
     8
 71
     3
 72
    11
 73
     7
 74
     0
 42
0.0000000001
 43
0.0000000001
 40
0.0
 40
0.0
 40
0.0
 40
0.0
 40
1.0
 40
1.0
 40
1.0
 40
2.0
 40
2.0
 40
2.0
 40
2.0
 10
-94.38298208431783
 20
-34.94263166972867
 30
0.0
 10
-94.29279934624018
 20
-34.76566568512306
 30
0.0
 10
-94.25085090335095
 20
-34.57619213727059
 30
0.0
 10
-94.25206958900076
 20
-34.39800746701453
 30
0.0
 10
-94.25206958900076
 20
-33.73529903898017
 30
0.0
 10
-94.79015137401596
 20
-33.19785866746501
 30
0.0
 10
-95.45285980205031
 20
-33.19785866746501
 30
0.0
  0
SPLINE
  5
119
330
70
100
AcDbEntity
  8
Standardebene
 62
     7
370
    35
100
AcDbSpline
210
0.0
220
0.0
230
1.0
 70
     8
 71
     3
 72
    11
 73
     7
 74
     0
 42
0.0000000001
 43
0.0000000001
 40
0.0
 40
0.0
 40
0.0
 40
0.0
 40
1.0
 40
1.0
 40
1.0
 40
2.0
 40
2.0
 40
2.0
 40
2.0
 10
-121.552231675926
 20
-33.19785866746501
 30
0.0
 10
-122.2152608107098
 20
-33.19785866746501
 30
0.0
 10
-122.7523804754755
 20
-33.73529903898017
 30
0.0
 10
-122.7523804754755
 20
-34.39800746701453
 30
0.0
 10
-122.7523804754755
 20
-34.59652494521517
 30
0.0
 10
-122.7044668870378
 20
-34.78413839391843
 30
0.0
 10
-122.6217886869078
 20
-34.94263166972867
 30
0.0
  0
LWPOLYLINE
  5
11A
330
70
100
AcDbEntity
  8
Standardebene
 62
     7
370
    35
100
AcDbPolyline
 90
       14
 70
     0
 43
0.0
 10
-108.5022250322381
 20
-133.1975586426651
 10
-110.3710474053712
 20
-133.1975586426651
 10
-112.211968291261
 20
-133.1975586426651
 10
-113.9990104431639
 20
-133.1975586426651
 10
-115.705619342187
 20
-133.1975586426651
 10
-117.3075495580372
 20
-133.1975586426651
 10
-118.7808122258185
 20
-133.1975586426651
 10
-120.1050103962374
 20
-133.1975586426651
 10
-121.258784999749
 20
-133.1975586426651
 10
-122.2268703950575
 20
-133.1975586426651
 10
-122.9950913438149
 20
-133.1975586426651
 10
-123.5519665443755
 20
-133.1975586426651
 10
-123.889542469341
 20
-133.1975586426651
 10
-124.0023029626133
 20
-133.1975586426651
  0
LWPOLYLINE
  5
11B
330
70
100
AcDbEntity
  8
Standardebene
 62
     7
370
    35
100
AcDbPolyline
 90
       14
 70
     0
 43
0.0
 10
-93.00246780861366
 20
-133.1975586426651
 10
-93.11580557403514
 20
-133.1975586426651
 10
-93.45344564035022
 20
-133.1975586426651
 10
-94.00967942741143
 20
-133.1975586426651
 10
-94.77790037616889
 20
-133.1975586426651
 10
-95.74630647822734
 20
-133.1975586426651
 10
-96.90104320198834
 20
-133.1975586426651
 10
-98.22427925215782
 20
-133.1975586426651
 10
-99.69779848533889
 20
-133.1975586426651
 10
-101.2994721357886
 20
-133.1975586426651
 10
-103.0066583069622
 20
-133.1975586426651
 10
-104.7928024799653
 20
-133.1975586426651
 10
-106.6343647793551
 20
-133.1975586426651
 10
-108.5022250322381
 20
-133.1975586426651
  0
LWPOLYLINE
  5
11C
330
70
100
AcDbEntity
  8
Standardebene
 62
     7
370
    35
100
AcDbPolyline
 90
        5
 70
     0
 43
0.0
 10
-95.45285980205031
 20
-33.19785866746501
 10
-95.56966120037108
 20
-33.19785866746501
 10
-95.91762802403444
 20
-33.19785866746501
 10
-96.49105169289093
 20
-33.19785866746501
 10
-97.27934888419385
 20
-33.19785866746501
  0
LWPOLYLINE
  5
11D
330
70
100
AcDbEntity
  8
Standardebene
 62
     7
370
    35
100
AcDbPolyline
 90
       15
 70
     0
 43
0.0
 10
-125.0026514569634
 20
-111.6973781280398
 10
-124.9926454063658
 20
-111.649143832852
 10
-124.9625631132234
 20
-111.5057237742881
 10
-124.8607707907987
 20
-110.9526329133762
 10
-124.7370421266793
 20
-110.0879433742419
 10
-124.6847669264425
 20
-109.5630105659736
 10
-124.6468593886023
 20
-108.9970914350648
 10
-124.6283866798069
 20
-108.4167405004097
 10
-124.6315296059562
 20
-107.8297830067067
 10
-124.6944522702901
 20
-106.7223825992337
 10
-124.8084955905612
 20
-105.7709098135714
 10
-124.8707768413956
 20
-105.3822132326686
 10
-124.9268363812818
 20
-105.0721539468461
 10
-124.9707090646711
 20
-104.8517001269514
 10
-125.0004706510635
 20
-104.7073179481375
  0
LWPOLYLINE
  5
11E
330
70
100
AcDbEntity
  8
Standardebene
 62
     7
370
    35
100
AcDbPolyline
 90
       15
 70
     0
 43
0.0
 10
-125.0026514569634
 20
-129.6976858807901
 10
-124.9926454063658
 20
-129.6494515856023
 10
-124.9625631132234
 20
-129.5053901135377
 10
-124.8607707907987
 20
-128.9526199593765
 10
-124.7370421266793
 20
-128.0876097134922
 10
-124.6847669264425
 20
-127.5623561984732
 10
-124.6468593886023
 20
-126.9970784810651
 10
-124.6283866798069
 20
-126.41672754641
 10
-124.6315296059562
 20
-125.829449345957
 10
-124.6944522702901
 20
-124.722690351984
 10
-124.8084955905612
 20
-123.7708968595717
 10
-124.8707768413956
 20
-123.3815588651689
 10
-124.9268363812818
 20
-123.0724616995964
 10
-124.9707090646711
 20
-122.8516871729511
 10
-125.0004706510635
 20
-122.7076257008878
  0
LWPOLYLINE
  5
11F
330
70
100
AcDbEntity
  8
Standardebene
 62
     7
370
    35
100
AcDbPolyline
 90
       29
 70
     0
 43
0.0
 10
-125.0026514569634
 20
-132.198172268565
 10
-124.8989990353889
 20
-132.198172268565
 10
-124.5889397495663
 20
-132.198172268565
 10
-124.0768352112942
 20
-132.198172268565
 10
-123.3683940007213
 20
-132.198172268565
 10
-122.4736221684452
 20
-132.198172268565
 10
-121.4025257650629
 20
-132.198172268565
 10
-120.1697931597211
 20
-132.198172268565
 10
-118.7904975696661
 20
-132.198172268565
 10
-117.2809308977935
 20
-132.198172268565
 10
-115.6614259520483
 20
-132.198172268565
 10
-113.9520589749756
 20
-132.198172268565
 10
-112.1740607534202
 20
-132.198172268565
 10
-110.3500731839259
 20
-132.198172268565
 10
-108.5022250322381
 20
-132.198172268565
 10
-106.6553390007997
 20
-132.198172268565
 10
-104.8307100178061
 20
-132.198172268565
 10
-103.0530325030007
 20
-132.198172268565
 10
-101.343344819178
 20
-132.198172268565
 10
-99.72383987343288
 20
-132.198172268565
 10
-98.21485047370998
 20
-132.198172268565
 10
-96.83523417690498
 20
-132.198172268565
 10
-95.60224500616275
 20
-132.198172268565
 10
-94.53172587493087
 20
-132.198172268565
 10
-93.63631262915475
 20
-132.198172268565
 10
-92.92851283208191
 20
-132.198172268565
 10
-92.41647243515942
 20
-132.198172268565
 10
-92.10673385608689
 20
-132.198172268565
 10
-92.003081434513
 20
-132.198172268565
  0
LWPOLYLINE
  5
120
330
70
100
AcDbEntity
  8
Standardebene
 62
     7
370
    35
100
AcDbPolyline
 90
       15
 70
     0
 43
0.0
 10
-108.5022250322381
 20
-94.19756532921518
 10
-110.3500731839259
 20
-94.19756532921518
 10
-112.1740607534202
 20
-94.19756532921518
 10
-113.9520589749756
 20
-94.19756532921518
 10
-115.6614259520483
 20
-94.19756532921518
 10
-117.2809308977935
 20
-94.19756532921518
 10
-118.7904975696661
 20
-94.19756532921518
 10
-120.1697931597211
 20
-94.19756532921518
 10
-121.4025257650629
 20
-94.19756532921518
 10
-122.4736221684452
 20
-94.19756532921518
 10
-123.3683940007213
 20
-94.19756532921518
 10
-124.0768352112942
 20
-94.19756532921518
 10
-124.5889397495663
 20
-94.19756532921518
 10
-124.8989990353889
 20
-94.19756532921518
 10
-125.0026514569634
 20
-94.19756532921518
  0
LWPOLYLINE
  5
121
330
70
100
AcDbEntity
  8
Standardebene
 62
     7
370
    35
100
AcDbPolyline
 90
       15
 70
     0
 43
0.0
 10
-92.003081434513
 20
-94.19756532921518
 10
-92.10673385608689
 20
-94.19756532921518
 10
-92.41647243515942
 20
-94.19756532921518
 10
-92.92851283208191
 20
-94.19756532921518
 10
-93.63631262915475
 20
-94.19756532921518
 10
-94.53172587493087
 20
-94.19756532921518
 10
-95.60224500616275
 20
-94.19756532921518
 10
-96.83523417690498
 20
-94.19756532921518
 10
-98.21485047370998
 20
-94.19756532921518
 10
-99.72383987343288
 20
-94.19756532921518
 10
-101.343344819178
 20
-94.19756532921518
 10
-103.0530325030007
 20
-94.19756532921518
 10
-104.8307100178061
 20
-94.19756532921518
 10
-106.6553390007997
 20
-94.19756532921518
 10
-108.5022250322381
 20
-94.19756532921518
  0
LWPOLYLINE
  5
122
330
70
100
AcDbEntity
  8
Standardebene
 62
     7
370
    35
100
AcDbPolyline
 90
       28
 70
     0
 43
0.0
 10
-124.0023029626133
 20
-93.19785824836449
 10
-123.8976884207894
 20
-93.19785824836449
 10
-123.5848069155676
 20
-93.19785824836449
 10
-123.0677634933466
 20
-93.19785824836449
 10
-122.3536778439752
 20
-93.19785824836449
 10
-121.4526201594006
 20
-93.19785824836449
 10
-120.3762000239691
 20
-93.19785824836449
 10
-119.1394265135789
 20
-93.19785824836449
 10
-117.757950117624
 20
-93.19785824836449
 10
-116.2530657643005
 20
-93.19785824836449
 10
-114.6420274767531
 20
-93.19785824836449
 10
-112.9476695755771
 20
-93.19785824836449
 10
-111.194109208365
 20
-93.19785824836449
 10
-109.4042448370628
 20
-93.19785824836449
 10
-107.6014880544135
 20
-93.19785824836449
 10
-105.8109822696107
 20
-93.19785824836449
 10
-104.0567804888992
 20
-93.19785824836449
 10
-102.3637054147226
 20
-93.19785824836449
 10
-100.7529878339253
 20
-93.19785824836449
 10
-99.24682065360167
 20
-93.19785824836449
 10
-97.86598567114749
 20
-93.19785824836449
 10
-96.62857074725657
 20
-93.19785824836449
 10
-95.55240717722552
 20
-93.19785824836449
 10
-94.65141363400052
 20
-93.19785824836449
 10
-93.93732798462911
 20
-93.19785824836449
 10
-93.42054112780855
 20
-93.19785824836449
 10
-93.10701820908672
 20
-93.19785824836449
 10
-93.00246780861366
 20
-93.19785824836449
  0
LWPOLYLINE
  5
123
330
70
100
AcDbEntity
  8
Standardebene
 62
     7
370
    35
100
AcDbPolyline
 90
       14
 70
     0
 43
0.0
 10
-108.5022250322381
 20
-38.69778700454008
 10
-110.2203793742587
 20
-38.69778700454008
 10
-111.9128771762855
 20
-38.69778700454008
 10
-113.5558578561251
 20
-38.69778700454008
 10
-115.1249477007826
 20
-38.69778700454008
 10
-116.5975689550639
 20
-38.69778700454008
 10
-117.9521059840262
 20
-38.69778700454008
 10
-119.1685466864719
 20
-38.69778700454008
 10
-120.230599159506
 20
-38.69778700454008
 10
-121.1203679664836
 20
-38.69778700454008
 10
-121.8263076644066
 20
-38.69778700454008
 10
-122.3386687680791
 20
-38.69778700454008
 10
-122.6487280539016
 20
-38.69778700454008
 10
-122.7523804754755
 20
-38.69778700454008
  0
LWPOLYLINE
  5
124
330
70
100
AcDbEntity
  8
Standardebene
 62
     7
370
    35
100
AcDbPolyline
 90
       14
 70
     0
 43
0.0
 10
-94.25206958900076
 20
-38.69778700454008
 10
-94.35668413082472
 20
-38.69778700454008
 10
-94.66642270989725
 20
-38.69778700454008
 10
-95.17820654141869
 20
-38.69778700454008
 10
-95.88472351149276
 20
-38.69778700454008
 10
-96.77545443871977
 20
-38.69778700454008
 10
-97.83622408475444
 20
-38.69778700454008
 10
-99.05330620070015
 20
-38.69778700454008
 10
-100.4075225229118
 20
-38.69778700454008
 10
-101.8804644839431
 20
-38.69778700454008
 10
-103.4495543286012
 20
-38.69778700454008
 10
-105.0918935949408
 20
-38.69778700454008
 10
-106.7847121037176
 20
-38.69778700454008
 10
-108.5022250322381
 20
-38.69778700454008
  0
LWPOLYLINE
  5
125
330
70
100
AcDbEntity
  8
Standardebene
 62
     7
370
    35
100
AcDbPolyline
 90
       13
 70
     0
 43
0.0
 10
-108.5022250322381
 20
-35.46474225859838
 10
-110.3105621123357
 20
-35.46474225859838
 10
-112.0879189203916
 20
-35.46474225859838
 10
-113.804213163263
 20
-35.46474225859838
 10
-115.4287211343066
 20
-35.46474225859838
 10
-116.9355297281296
 20
-35.46474225859838
 10
-118.2982127085397
 20
-35.46474225859838
 10
-119.4927170692907
 20
-35.46474225859838
 10
-120.4999286880885
 20
-35.46474225859838
 10
-121.3010541493889
 20
-35.46474225859838
 10
-121.8839065966926
 20
-35.46474225859838
 10
-122.2371971524044
 20
-35.46474225859838
 10
-122.3555379431244
 20
-35.46474225859838
  0
LWPOLYLINE
  5
126
330
70
100
AcDbEntity
  8
Standardebene
 62
     7
370
    35
100
AcDbPolyline
 90
       13
 70
     0
 43
0.0
 10
-94.6494893935017
 20
-35.46474225859838
 10
-94.76789432557191
 20
-35.46474225859838
 10
-95.12182629478315
 20
-35.46474225859838
 10
-95.70403732858745
 20
-35.46474225859838
 10
-96.50580420338727
 20
-35.46474225859838
 10
-97.51205370193561
 20
-35.46474225859838
 10
-98.70719947618665
 20
-35.46474225859838
 10
-100.0695617498461
 20
-35.46474225859838
 10
-101.5760496369197
 20
-35.46474225859838
 10
-103.2014555868631
 20
-35.46474225859838
 10
-104.9171084162344
 20
-35.46474225859838
 10
-106.6944652242904
 20
-35.46474225859838
 10
-108.5022250322381
 20
-35.46474225859838
  0
LINE
  5
127
330
70
100
AcDbEntity
  8
Standardebene
 62
     7
370
    35
100
AcDbLine
 10
-108.2525868981002
 20
-78.39839628386449
 30
0.0
 11
-108.2525868981002
 21
-78.19795456516501
 31
0.0
  0
LWPOLYLINE
  5
128
330
70
100
AcDbEntity
  8
Standardebene
 62
     7
370
    35
100
AcDbPolyline
 90
        3
 70
     0
 43
0.0
 10
-108.7527611452759
 20
-78.39839628386449
 10
-108.5022250322381
 20
-78.39839628386449
 10
-108.2525868981002
 20
-78.39839628386449
  0
LINE
  5
129
330
70
100
AcDbEntity
  8
Standardebene
 62
     7
370
    35
100
AcDbLine
 10
-108.7527611452759
 20
-78.19795456516501
 30
0.0
 11
-108.7527611452759
 21
-78.39839628386449
 31
0.0
  0
LWPOLYLINE
  5
12A
330
70
100
AcDbEntity
  8
Standardebene
 62
     7
370
    35
100
AcDbPolyline
 90
       16
 70
     0
 43
0.0
 10
-108.7527611452759
 20
-78.19795456516501
 10
-111.2855747734427
 20
-78.19795456516501
 10
-113.7892040873663
 20
-78.19795456516501
 10
-116.2395960808036
 20
-78.19795456516501
 10
-118.6088492665114
 20
-78.19795456516501
 10
-120.8750914441454
 20
-78.19795456516501
 10
-123.0135640526103
 20
-78.19795456516501
 10
-125.0026514569634
 20
-78.19795456516501
 10
-125.0026514569634
 20
-90.19783902691457
 10
-123.0135640526103
 20
-90.19783902691457
 10
-120.8750914441454
 20
-90.19783902691457
 10
-118.6088492665114
 20
-90.19783902691457
 10
-116.2395960808036
 20
-90.19783902691457
 10
-113.7892040873663
 20
-90.19783902691457
 10
-111.2855747734427
 20
-90.19783902691457
 10
-108.7527611452759
 20
-90.19783902691457
  0
LINE
  5
12B
330
70
100
AcDbEntity
  8
Standardebene
 62
     7
370
    35
100
AcDbLine
 10
-108.7527611452759
 20
-89.99803872171449
 30
0.0
 11
-108.7527611452759
 21
-90.19783902691457
 31
0.0
  0
LWPOLYLINE
  5
12C
330
70
100
AcDbEntity
  8
Standardebene
 62
     7
370
    35
100
AcDbPolyline
 90
        3
 70
     0
 43
0.0
 10
-108.2525868981002
 20
-89.99803872171449
 10
-108.5022250322381
 20
-89.99803872171449
 10
-108.7527611452759
 20
-89.99803872171449
  0
LINE
  5
12D
330
70
100
AcDbEntity
  8
Standardebene
 62
     7
370
    35
100
AcDbLine
 10
-108.2525868981002
 20
-90.19783902691457
 30
0.0
 11
-108.2525868981002
 21
-89.99803872171449
 31
0.0
  0
LWPOLYLINE
  5
12E
330
70
100
AcDbEntity
  8
Standardebene
 62
     7
370
    35
100
AcDbPolyline
 90
       17
 70
     0
 43
0.0
 10
-108.2525868981002
 20
-90.19783902691457
 10
-105.8808321997438
 20
-90.19783902691457
 10
-103.5331305076303
 20
-90.19783902691457
 10
-101.2309050326563
 20
-90.19783902691457
 10
-98.99378302791534
 20
-90.19783902691457
 10
-96.84216144270292
 20
-90.19783902691457
 10
-94.79579581281447
 20
-90.19783902691457
 10
-92.87341541244517
 20
-90.19783902691457
 10
-91.09227426474053
 20
-90.19783902691457
 10
-89.46776629369692
 20
-90.19783902691457
 10
-88.01579855410961
 20
-90.19783902691457
 10
-86.74868618517654
 20
-90.19783902691457
 10
-85.677846347194
 20
-90.19783902691457
 10
-84.81251539456094
 20
-90.19783902691457
 10
-84.16141655087301
 20
-90.19783902691457
 10
-83.73013011358098
 20
-90.19783902691457
 10
-83.52282527043319
 20
-90.19783902691457
  0
LINE
  5
12F
330
70
100
AcDbEntity
  8
Standardebene
 62
     7
370
    35
100
AcDbLine
 10
-83.52282527043319
 20
-78.19795456516501
 30
0.0
 11
-83.52282527043319
 21
-90.19783902691457
 31
0.0
  0
LWPOLYLINE
  5
130
330
70
100
AcDbEntity
  8
Standardebene
 62
     7
370
    35
100
AcDbPolyline
 90
       17
 70
     0
 43
0.0
 10
-83.52282527043319
 20
-78.19795456516501
 10
-83.73013011358098
 20
-78.19795456516501
 10
-84.16141655087301
 20
-78.19795456516501
 10
-84.81251539456094
 20
-78.19795456516501
 10
-85.677846347194
 20
-78.19795456516501
 10
-86.74868618517654
 20
-78.19795456516501
 10
-88.01579855410961
 20
-78.19795456516501
 10
-89.46776629369692
 20
-78.19795456516501
 10
-91.09227426474053
 20
-78.19795456516501
 10
-92.87341541244517
 20
-78.19795456516501
 10
-94.79579581281447
 20
-78.19795456516501
 10
-96.84216144270292
 20
-78.19795456516501
 10
-98.99378302791534
 20
-78.19795456516501
 10
-101.2309050326563
 20
-78.19795456516501
 10
-103.5331305076303
 20
-78.19795456516501
 10
-105.8808321997438
 20
-78.19795456516501
 10
-108.2525868981002
 20
-78.19795456516501
  0
LWPOLYLINE
  5
131
330
70
100
AcDbEntity
  8
Standardebene
 62
     7
370
    35
100
AcDbPolyline
 90
       26
 70
     0
 43
0.0
 10
-87.40228654151309
 20
-84.19805714941512
 10
-87.44083549285392
 20
-83.79935451791412
 10
-87.57514747972001
 20
-83.36370646882365
 10
-87.89585422963956
 20
-82.84570092635327
 10
-88.22945339090621
 20
-82.52717498233231
 10
-88.59929241491396
 20
-82.30229540928894
 10
-89.47026780634617
 20
-82.09813349228978
 10
-89.92316987858284
 20
-82.140081935179
 10
-90.37947144236856
 20
-82.28978784604144
 10
-90.97733296556896
 20
-82.70317884668852
 10
-91.35191844947607
 20
-83.20335309386356
 10
-91.54831926312711
 20
-83.72264146333336
 10
-91.59995304986329
 20
-84.30607118278746
 10
-91.50855162613646
 20
-84.81939440670938
 10
-91.30304274078826
 20
-85.27826162449459
 10
-90.8808643751934
 20
-85.78183536321866
 10
-90.54418642912771
 20
-86.02172401215876
 10
-90.19153728691591
 20
-86.18150011496842
 10
-89.69418525914013
 20
-86.28919344159205
 10
-89.20812210896203
 20
-86.27732729184524
 10
-88.73463066338038
 20
-86.15263650747582
 10
-88.29423615439054
 20
-85.91557007793499
 10
-87.81099522361104
 20
-85.44201449100372
 10
-87.54884952622626
 20
-84.96691951167262
 10
-87.43390822705533
 20
-84.55699214392485
 10
-87.40228654151309
 20
-84.19805714941512
  0
LWPOLYLINE
  5
132
330
70
100
AcDbEntity
  8
Standardebene
 62
     7
370
    35
100
AcDbPolyline
 90
       20
 70
     0
 43
0.0
 10
-108.5022250322381
 20
-81.99755985551488
 10
-109.2294596583564
 20
-82.12128851963361
 10
-109.8740160843454
 20
-82.47740129474534
 10
-110.365723673322
 20
-83.02766993625736
 10
-110.647881471902
 20
-83.71167329248635
 10
-110.6886112291414
 20
-84.44827255570221
 10
-110.4831664851428
 20
-85.15517437387527
 10
-110.0563058009995
 20
-85.75553740972555
 10
-109.4533771111504
 20
-86.18182082171845
 10
-108.7417929744282
 20
-86.38508475981783
 10
-108.0061558314624
 20
-86.34089136967912
 10
-107.3271555005319
 20
-86.05777145084971
 10
-106.7790676649185
 20
-85.56478103487302
 10
-106.422954889808
 20
-84.91650441058498
 10
-106.3023691518379
 20
-84.18708897856747
 10
-106.429561448856
 20
-83.46235586509843
 10
-106.7875343231169
 20
-82.81998024500929
 10
-107.3403044772782
 20
-82.32987618978148
 10
-108.0249492470072
 20
-82.05015576250174
 10
-108.5022250322381
 20
-81.99755985551488
  0
SPLINE
  5
133
330
70
100
AcDbEntity
  8
Standardebene
 62
     7
370
    35
100
AcDbSpline
210
0.0
220
0.0
230
1.0
 70
     9
 71
     3
 72
    17
 73
    13
 74
     0
 42
0.0000000001
 43
0.0000000001
 40
0.0
 40
0.0
 40
0.0
 40
0.0
 40
1.0
 40
1.0
 40
1.0
 40
2.0
 40
2.0
 40
2.0
 40
3.0
 40
3.0
 40
3.0
 40
4.0
 40
4.0
 40
4.0
 40
4.0
 10
-108.5022250322381
 20
-82.54814920377693
 30
0.0
 10
-109.4136094741604
 20
-82.54814920377693
 30
0.0
 10
-110.1527102500255
 20
-83.28667270749289
 30
0.0
 10
-110.1527102500255
 20
-84.19805714941512
 30
0.0
 10
-110.1527102500255
 20
-85.10944159133671
 30
0.0
 10
-109.4136094741604
 20
-85.84764438830266
 30
0.0
 10
-108.5022250322381
 20
-85.84764438830266
 30
0.0
 10
-107.5914820038153
 20
-85.84764438830266
 30
0.0
 10
-106.8523170866006
 20
-85.10944159133671
 30
0.0
 10
-106.8523170866006
 20
-84.19805714941512
 30
0.0
 10
-106.8523170866006
 20
-83.28667270749289
 30
0.0
 10
-107.5914820038153
 20
-82.54814920377693
 30
0.0
 10
-108.5022250322381
 20
-82.54814920377693
 30
0.0
  0
LINE
  5
134
330
70
100
AcDbEntity
  8
Standardebene
 62
     7
370
    35
100
AcDbLine
 10
-129.5028727131878
 20
-9.198089743964604
 30
0.0
 11
-129.5028727131878
 21
-33.19785866746501
 31
0.0
  0
LWPOLYLINE
  5
135
330
70
100
AcDbEntity
  8
Standardebene
 62
     7
370
    35
100
AcDbPolyline
 90
       25
 70
     0
 43
0.0
 10
-96.00216632331358
 20
-9.198089743964604
 10
-96.10896167103611
 20
-9.198089743964604
 10
-96.426525494807
 20
-9.198089743964604
 10
-96.95081688957593
 20
-9.198089743964604
 10
-97.6765121232944
 20
-9.198089743964604
 10
-98.59540110316499
 20
-9.198089743964604
 10
-99.69529697268965
 20
-9.198089743964604
 10
-100.9649749956228
 20
-9.198089743964604
 10
-102.3881432690665
 20
-9.198089743964604
 10
-103.9481250420268
 20
-9.198089743964604
 10
-105.6261910403073
 20
-9.198089743964604
 10
-107.4038685551127
 20
-9.198089743964604
 10
-109.2589005379988
 20
-9.198089743964604
 10
-111.1703127675211
 20
-9.198089743964604
 10
-113.1152067817349
 20
-9.198089743964604
 10
-115.0707482600456
 20
-9.198089743964604
 10
-117.0131407616102
 20
-9.198089743964604
 10
-118.919870672584
 20
-9.198089743964604
 10
-120.7689375099216
 20
-9.198089743964604
 10
-122.5387897800292
 20
-9.198089743964604
 10
-124.2065290209621
 20
-9.198089743964604
 10
-125.754965350925
 20
-9.198089743964604
 10
-127.1642790927728
 20
-9.198089743964604
 10
-128.4186273330592
 20
-9.198089743964604
 10
-129.5028727131878
 20
-9.198089743964604
  0
LWPOLYLINE
  5
136
330
70
100
AcDbEntity
  8
Standardebene
 62
     7
370
    35
100
AcDbPolyline
 90
       25
 70
     0
 43
0.0
 10
-129.5028727131878
 20
-33.19785866746501
 10
-128.4186273330592
 20
-33.19785866746501
 10
-127.1642790927728
 20
-33.19785866746501
 10
-125.754965350925
 20
-33.19785866746501
 10
-124.2065290209621
 20
-33.19785866746501
 10
-122.5387897800292
 20
-33.19785866746501
 10
-120.7689375099216
 20
-33.19785866746501
 10
-118.919870672584
 20
-33.19785866746501
 10
-117.0131407616102
 20
-33.19785866746501
 10
-115.0707482600456
 20
-33.19785866746501
 10
-113.1152067817349
 20
-33.19785866746501
 10
-111.1703127675211
 20
-33.19785866746501
 10
-109.2589005379988
 20
-33.19785866746501
 10
-107.4038685551127
 20
-33.19785866746501
 10
-105.6261910403073
 20
-33.19785866746501
 10
-103.9481250420268
 20
-33.19785866746501
 10
-102.3881432690665
 20
-33.19785866746501
 10
-100.9649749956228
 20
-33.19785866746501
 10
-99.69529697268965
 20
-33.19785866746501
 10
-98.59540110316499
 20
-33.19785866746501
 10
-97.6765121232944
 20
-33.19785866746501
 10
-96.95081688957593
 20
-33.19785866746501
 10
-96.426525494807
 20
-33.19785866746501
 10
-96.10896167103611
 20
-33.19785866746501
 10
-96.00216632331358
 20
-33.19785866746501
  0
LWPOLYLINE
  5
137
330
70
100
AcDbEntity
  8
Standardebene
 62
     7
370
    35
100
AcDbPolyline
 90
       23
 70
     0
 43
0.0
 10
-118.5026953322876
 20
-8.297673472890016
 10
-118.4005823031135
 20
-8.297673472890016
 10
-118.0971295763396
 20
-8.297673472890016
 10
-117.5988154283144
 20
-8.297673472890016
 10
-116.9151327788348
 20
-8.297673472890016
 10
-116.0598078767987
 20
-8.297673472890016
 10
-115.0510568656011
 20
-8.297673472890016
 10
-113.9091484118363
 20
-8.297673472890016
 10
-112.6569809774497
 20
-8.297673472890016
 10
-111.3196979716335
 20
-8.297673472890016
 10
-109.9253933056825
 20
-8.297673472890016
 10
-108.5022250322381
 20
-8.297673472890016
 10
-107.0793774655438
 20
-8.297673472890016
 10
-105.6850727995928
 20
-8.297673472890016
 10
-104.3486877726764
 20
-8.297673472890016
 10
-103.0965844796394
 20
-8.297673472890016
 10
-101.9537139056259
 20
-8.297673472890016
 10
-100.9449628944276
 20
-8.297673472890016
 10
-100.0902794058916
 20
-8.297673472890016
 10
-99.40653261506174
 20
-8.297673472890016
 10
-98.90796190163678
 20
-8.297673472890016
 10
-98.60418846811214
 20
-8.297673472890016
 10
-98.50271685243811
 20
-8.297673472890016
  0
LWPOLYLINE
  5
138
330
70
100
AcDbEntity
  8
Standardebene
 62
     7
370
    35
100
AcDbPolyline
 90
       12
 70
     0
 43
0.0
 10
-108.5022250322381
 20
-8.798104285464813
 10
-109.9967826282141
 20
-8.798104285464813
 10
-111.4609372242989
 20
-8.798104285464813
 10
-112.8646706686971
 20
-8.798104285464813
 10
-114.1794400606688
 20
-8.798104285464813
 10
-115.3783060332189
 20
-8.798104285464813
 10
-116.4381777003545
 20
-8.798104285464813
 10
-117.3354510452798
 20
-8.798104285464813
 10
-118.0538983064503
 20
-8.798104285464813
 10
-118.5769068742191
 20
-8.798104285464813
 10
-118.8954328182401
 20
-8.798104285464813
 10
-119.0025488727126
 20
-8.798104285464813
  0
LWPOLYLINE
  5
139
330
70
100
AcDbEntity
  8
Standardebene
 62
     7
370
    35
100
AcDbPolyline
 90
       12
 70
     0
 43
0.0
 10
-98.00254260526308
 20
-8.798104285464813
 10
-98.10933795298623
 20
-8.798104285464813
 10
-98.42754319025718
 20
-8.798104285464813
 10
-98.95183458502547
 20
-8.798104285464813
 10
-99.66899901919653
 20
-8.798104285464813
 10
-100.5669137776219
 20
-8.798104285464813
 10
-101.6264647380067
 20
-8.798104285464813
 10
-102.8259721240569
 20
-8.798104285464813
 10
-104.1407415160286
 20
-8.798104285464813
 10
-105.5444749604275
 20
-8.798104285464813
 10
-107.0079881430122
 20
-8.798104285464813
 10
-108.5022250322381
 20
-8.798104285464813
  0
LWPOLYLINE
  5
13A
330
70
100
AcDbEntity
  8
Standardebene
 62
     7
370
    35
100
AcDbPolyline
 90
       18
 70
     0
 43
0.0
 10
-148.0030340063631
 20
-15.19819232821471
 10
-148.0030340063631
 20
-15.30030535738942
 10
-148.0030340063631
 20
-15.60311667066337
 10
-148.0030340063631
 20
-16.0967485001401
 10
-148.0030340063631
 20
-16.76413924672291
 10
-148.0030340063631
 20
-17.58187731766886
 10
-148.0030340063631
 20
-18.52334405273352
 10
-148.0030340063631
 20
-19.55589150477498
 10
-148.0030340063631
 20
-20.64456263805287
 10
-148.0030340063631
 20
-21.75170648012612
 10
-148.0030340063631
 20
-22.83967205855435
 10
-148.0030340063631
 20
-23.87228365194671
 10
-148.0030340063631
 20
-24.81375038701074
 10
-148.0030340063631
 20
-25.63212987145672
 10
-148.0030340063631
 20
-26.29919991128951
 10
-148.0030340063631
 20
-26.79276759941598
 10
-148.0030340063631
 20
-27.0959637607902
 10
-148.0030340063631
 20
-27.19807678996492
  0
LINE
  5
13B
330
70
100
AcDbEntity
  8
Standardebene
 62
     7
370
    35
100
AcDbLine
 10
-130.2620497315983
 20
-31.01269115621087
 30
0.0
 11
-134.9432778774774
 21
-31.01269115621087
 31
0.0
  0
LWPOLYLINE
  5
13C
330
70
100
AcDbEntity
  8
Standardebene
 62
     7
370
    35
100
AcDbPolyline
 90
        8
 70
     0
 43
0.0
 10
-130.2620497315983
 20
-26.10562131703773
 10
-134.9432778774774
 20
-26.10562131703773
 10
-135.4945086392401
 20
-27.30801506383736
 10
-135.6488968686517
 20
-27.93121242028147
 10
-135.7021983304882
 20
-28.55889967122454
 10
-135.6980932840889
 20
-28.7333000018313
 10
-135.4728930042955
 20
-29.87488774884606
 10
-134.9432778774774
 20
-31.01269115621087
  0
LWPOLYLINE
  5
13D
330
70
100
AcDbEntity
  8
Standardebene
 62
     7
370
    35
100
AcDbPolyline
 90
        4
 70
     0
 43
0.0
 10
-129.5028727131878
 20
-28.55889967122454
 10
-129.5063363460871
 20
-28.7333000018313
 10
-129.7321138980302
 20
-29.87488774884606
 10
-130.2620497315983
 20
-31.01269115621087
  0
LWPOLYLINE
  5
13E
330
70
100
AcDbEntity
  8
Standardebene
 62
     7
370
    35
100
AcDbPolyline
 90
        4
 70
     0
 43
0.0
 10
-130.2620497315983
 20
-26.10562131703773
 10
-129.7111396765856
 20
-27.30801506383736
 10
-129.5564307404241
 20
-27.93121242028147
 10
-129.5028727131878
 20
-28.55889967122454
  0
LWPOLYLINE
  5
13F
330
70
100
AcDbEntity
  8
Standardebene
 62
     7
370
    35
100
AcDbPolyline
 90
        8
 70
     0
 43
0.0
 10
-130.2620497315983
 20
-16.29058365979164
 10
-134.9432778774774
 20
-16.29058365979164
 10
-135.3792466333192
 20
-18.06229602904845
 10
-135.6438938433526
 20
-19.88384622724313
 10
-135.7021983304882
 20
-21.1979742057148
 10
-135.5881550102164
 20
-23.04453953040316
 10
-135.2589816020991
 20
-24.89174626859156
 10
-134.9432778774774
 20
-26.10562131703773
  0
LWPOLYLINE
  5
140
330
70
100
AcDbEntity
  8
Standardebene
 62
     7
370
    35
100
AcDbPolyline
 90
        4
 70
     0
 43
0.0
 10
-129.5028727131878
 20
-21.1979742057148
 10
-129.6168518921093
 20
-23.04453953040316
 10
-129.9457045934772
 20
-24.89174626859156
 10
-130.2620497315983
 20
-26.10562131703773
  0
LWPOLYLINE
  5
141
330
70
100
AcDbEntity
  8
Standardebene
 62
     7
370
    35
100
AcDbPolyline
 90
        4
 70
     0
 43
0.0
 10
-130.2620497315983
 20
-16.29058365979164
 10
-129.8254395622578
 20
-18.06229602904845
 10
-129.5605357868234
 20
-19.88384622724313
 10
-129.5028727131878
 20
-21.1979742057148
  0
LWPOLYLINE
  5
142
330
70
100
AcDbEntity
  8
Standardebene
 62
     7
370
    35
100
AcDbPolyline
 90
        8
 70
     0
 43
0.0
 10
-130.2620497315983
 20
-11.38287240711846
 10
-134.9432778774774
 20
-11.38287240711846
 10
-135.4945086392401
 20
-12.58520201256784
 10
-135.6488968686517
 20
-13.20910492386224
 10
-135.7021983304882
 20
-13.83672803345505
 10
-135.6980932840889
 20
-14.01151321216145
 10
-135.4728930042955
 20
-15.15278025242619
 10
-134.9432778774774
 20
-16.29058365979164
  0
LWPOLYLINE
  5
143
330
70
100
AcDbEntity
  8
Standardebene
 62
     7
370
    35
100
AcDbPolyline
 90
        4
 70
     0
 43
0.0
 10
-129.5028727131878
 20
-13.83672803345505
 10
-129.5063363460871
 20
-14.01151321216145
 10
-129.7321138980302
 20
-15.15278025242619
 10
-130.2620497315983
 20
-16.29058365979164
  0
LWPOLYLINE
  5
144
330
70
100
AcDbEntity
  8
Standardebene
 62
     7
370
    35
100
AcDbPolyline
 90
        4
 70
     0
 43
0.0
 10
-130.2620497315983
 20
-11.38287240711846
 10
-129.7111396765856
 20
-12.58520201256784
 10
-129.5564307404241
 20
-13.20910492386224
 10
-129.5028727131878
 20
-13.83672803345505
  0
LWPOLYLINE
  5
145
330
70
100
AcDbEntity
  8
Standardebene
 62
     7
370
    35
100
AcDbPolyline
 90
        4
 70
     0
 43
0.0
 10
-135.7021983304882
 20
-13.83672803345505
 10
-135.7021983304882
 20
-13.21096502301145
 10
-135.7021983304882
 20
-12.82733560875743
 10
-135.7021983304882
 20
-12.69764179909018
  0
LWPOLYLINE
  5
146
330
70
100
AcDbEntity
  8
Standardebene
 62
     7
370
    35
100
AcDbPolyline
 90
        7
 70
     0
 43
0.0
 10
-135.7021983304882
 20
-21.1979742057148
 10
-135.7021983304882
 20
-19.72221002528361
 10
-135.7021983304882
 20
-18.29063923499177
 10
-135.7021983304882
 20
-16.9479683557775
 10
-135.7021983304882
 20
-15.73434987273109
 10
-135.7021983304882
 20
-14.68672920344264
 10
-135.7021983304882
 20
-13.83672803345505
  0
LWPOLYLINE
  5
147
330
70
100
AcDbEntity
  8
Standardebene
 62
     7
370
    35
100
AcDbPolyline
 90
        7
 70
     0
 43
0.0
 10
-135.7021983304882
 20
-28.55889967122454
 10
-135.7021983304882
 20
-27.70915506663735
 10
-135.7021983304882
 20
-26.66185510409892
 10
-135.7021983304882
 20
-25.44798005565211
 10
-135.7021983304882
 20
-24.10498846968847
 10
-135.7021983304882
 20
-22.67373838614536
 10
-135.7021983304882
 20
-21.1979742057148
  0
LWPOLYLINE
  5
148
330
70
100
AcDbEntity
  8
Standardebene
 62
     7
370
    35
100
AcDbPolyline
 90
        4
 70
     0
 43
0.0
 10
-135.7021983304882
 20
-29.6979217642398
 10
-135.7021983304882
 20
-29.56893350942156
 10
-135.7021983304882
 20
-29.1849192470679
 10
-135.7021983304882
 20
-28.55889967122454
  0
LWPOLYLINE
  5
149
330
70
100
AcDbEntity
  8
Standardebene
 62
     7
370
    35
100
AcDbPolyline
 90
        8
 70
     0
 43
0.0
 10
-152.0027603086631
 20
-21.1979742057148
 10
-152.0027603086631
 20
-20.08518592484304
 10
-152.0027603086631
 20
-19.02852132520704
 10
-152.0027603086631
 20
-18.08044803109445
 10
-152.0027603086631
 20
-17.28875134824186
 10
-152.0027603086631
 20
-16.6927499241913
 10
-152.0027603086631
 20
-16.32316746558331
 10
-152.0027603086631
 20
-16.19789940906476
  0
LWPOLYLINE
  5
14A
330
70
100
AcDbEntity
  8
Standardebene
 62
     7
370
    35
100
AcDbPolyline
 90
        8
 70
     0
 43
0.0
 10
-152.0027603086631
 20
-26.19772829561484
 10
-152.0027603086631
 20
-26.07246023909629
 10
-152.0027603086631
 20
-25.70287778048829
 10
-152.0027603086631
 20
-25.10687635643773
 10
-152.0027603086631
 20
-24.31511553223553
 10
-152.0027603086631
 20
-23.36742708622256
 10
-152.0027603086631
 20
-22.31044177983656
 10
-152.0027603086631
 20
-21.1979742057148
  0
LWPOLYLINE
  5
14B
330
70
100
AcDbEntity
  8
Standardebene
 62
     7
370
    35
100
AcDbPolyline
 90
        8
 70
     0
 43
0.0
 10
-149.0024203804632
 20
-21.1979742057148
 10
-149.0024203804632
 20
-20.08518592484304
 10
-149.0024203804632
 20
-19.02852132520704
 10
-149.0024203804632
 20
-18.08044803109445
 10
-149.0024203804632
 20
-17.28875134824186
 10
-149.0024203804632
 20
-16.6927499241913
 10
-149.0024203804632
 20
-16.32316746558331
 10
-149.0024203804632
 20
-16.19789940906476
  0
LWPOLYLINE
  5
14C
330
70
100
AcDbEntity
  8
Standardebene
 62
     7
370
    35
100
AcDbPolyline
 90
        8
 70
     0
 43
0.0
 10
-149.0024203804632
 20
-26.19772829561484
 10
-149.0024203804632
 20
-26.07246023909629
 10
-149.0024203804632
 20
-25.70287778048829
 10
-149.0024203804632
 20
-25.10687635643773
 10
-149.0024203804632
 20
-24.31511553223553
 10
-149.0024203804632
 20
-23.36742708622256
 10
-149.0024203804632
 20
-22.31044177983656
 10
-149.0024203804632
 20
-21.1979742057148
  0
LWPOLYLINE
  5
14D
330
70
100
AcDbEntity
  8
Standardebene
 62
     7
370
    35
100
AcDbPolyline
 90
        8
 70
     0
 43
0.0
 10
-159.0022492670132
 20
-21.1979742057148
 10
-159.0022492670132
 20
-20.12937931498239
 10
-159.0022492670132
 20
-19.11491972363538
 10
-159.0022492670132
 20
-18.205716087613
 10
-159.0022492670132
 20
-17.44499967680262
 10
-159.0022492670132
 20
-16.87311540034595
 10
-159.0022492670132
 20
-16.51828545223428
 10
-159.0022492670132
 20
-16.39802042101421
  0
LWPOLYLINE
  5
14E
330
70
100
AcDbEntity
  8
Standardebene
 62
     7
370
    35
100
AcDbPolyline
 90
        8
 70
     0
 43
0.0
 10
-159.0022492670132
 20
-25.99760728366474
 10
-159.0022492670132
 20
-25.87734225244467
 10
-159.0022492670132
 20
-25.52251230433364
 10
-159.0022492670132
 20
-24.95094873462699
 10
-159.0022492670132
 20
-24.19113030271641
 10
-159.0022492670132
 20
-23.28064383969396
 10
-159.0022492670132
 20
-22.2662483896972
 10
-159.0022492670132
 20
-21.1979742057148
  0
LWPOLYLINE
  5
14F
330
70
100
AcDbEntity
  8
Standardebene
 62
     7
370
    35
100
AcDbPolyline
 90
        9
 70
     0
 43
0.0
 10
-153.0027880962632
 20
-21.1979742057148
 10
-153.0027880962632
 20
-20.02726628580768
 10
-153.0027880962632
 20
-18.90164973493905
 10
-153.0027880962632
 20
-17.86467652974824
 10
-153.0027880962632
 20
-16.95547289372586
 10
-153.0027880962632
 20
-16.20912414531153
 10
-153.0027880962632
 20
-15.65513530550046
 10
-153.0027880962632
 20
-15.31345433413566
 10
-153.0027880962632
 20
-15.19819232821471
  0
LWPOLYLINE
  5
150
330
70
100
AcDbEntity
  8
Standardebene
 62
     7
370
    35
100
AcDbPolyline
 90
        9
 70
     0
 43
0.0
 10
-153.0027880962632
 20
-27.19807678996492
 10
-153.0027880962632
 20
-27.08281478404397
 10
-153.0027880962632
 20
-26.74113381267853
 10
-153.0027880962632
 20
-26.1870808315172
 10
-153.0027880962632
 20
-25.44073208310415
 10
-153.0027880962632
 20
-24.53152844708177
 10
-153.0027880962632
 20
-23.49397796974054
 10
-153.0027880962632
 20
-22.36836141887192
 10
-153.0027880962632
 20
-21.1979742057148
  0
LINE
  5
151
330
70
100
AcDbEntity
  8
Standardebene
 62
     7
370
    35
100
AcDbLine
 10
-36.36353910822342
 20
-121.7000933753394
 30
0.0
 11
-36.36353910822342
 21
-122.8504043459517
 31
0.0
  0
LINE
  5
152
330
70
100
AcDbEntity
  8
Standardebene
 62
     7
370
    35
100
AcDbLine
 10
-9.364071670022466
 20
-8.798104285464813
 30
0.0
 11
-9.863604503697471
 21
-8.297673472890016
 31
0.0
  0
LWPOLYLINE
  5
153
330
70
100
AcDbEntity
  8
Standardebene
 62
     7
370
    35
100
AcDbPolyline
 90
        3
 70
     0
 43
0.0
 10
-29.8636471248979
 20
-8.297673472890016
 10
-30.3640779374727
 20
-8.798104285464813
 10
-30.3640779374727
 20
-9.198089743964604
  0
LINE
  5
154
330
70
100
AcDbEntity
  8
Standardebene
 62
     7
370
    35
100
AcDbLine
 10
-9.364071670022466
 20
-9.198089743964604
 30
0.0
 11
-9.364071670022466
 21
-8.798104285464813
 31
0.0
  0
LINE
  5
155
330
70
100
AcDbEntity
  8
Standardebene
 62
     7
370
    35
100
AcDbLine
 10
-37.86374114299788
 20
-9.198089743964604
 30
0.0
 11
-37.86374114299788
 21
-33.19785866746501
 31
0.0
  0
LINE
  5
156
330
70
100
AcDbEntity
  8
Standardebene
 62
     7
370
    35
100
AcDbLine
 10
-1.864087757747275
 20
-33.19785866746501
 30
0.0
 11
-1.864087757747275
 21
-9.198089743964604
 31
0.0
  0
LINE
  5
157
330
70
100
AcDbEntity
  8
Standardebene
 62
     7
370
    35
100
AcDbLine
 10
5.136042614102253
 20
-81.99755985551488
 30
0.0
 11
5.136042614102253
 21
-78.39839628386449
 31
0.0
  0
LINE
  5
158
330
70
100
AcDbEntity
  8
Standardebene
 62
     7
370
    35
100
AcDbLine
 10
5.136042614102253
 20
-89.99803872171449
 30
0.0
 11
5.136042614102253
 21
-86.39130647076674
 31
0.0
  0
LINE
  5
159
330
70
100
AcDbEntity
  8
Standardebene
 62
     7
370
    35
100
AcDbLine
 10
-36.36353910822342
 20
-132.198172268565
 30
0.0
 11
-35.36383202737337
 21
-133.1975586426651
 31
0.0
  0
LWPOLYLINE
  5
15A
330
70
100
AcDbEntity
  8
Standardebene
 62
     7
370
    35
100
AcDbPolyline
 90
        3
 70
     0
 43
0.0
 10
-4.363676166623044
 20
-133.1975586426651
 10
-3.363648379022982
 20
-132.198172268565
 10
-3.363648379022982
 20
-94.19756532921518
  0
LINE
  5
15B
330
70
100
AcDbEntity
  8
Standardebene
 62
     7
370
    35
100
AcDbLine
 10
-36.36353910822342
 20
-122.8504043459517
 30
0.0
 11
-36.36353910822342
 21
-132.198172268565
 31
0.0
  0
LINE
  5
15C
330
70
100
AcDbEntity
  8
Standardebene
 62
     7
370
    35
100
AcDbLine
 10
-36.36353910822342
 20
-94.19756532921518
 30
0.0
 11
-36.36353910822342
 21
-121.8580618548051
 31
0.0
  0
LINE
  5
15D
330
70
100
AcDbEntity
  8
Standardebene
 62
     7
370
    35
100
AcDbLine
 10
-3.363648379022982
 20
-94.19756532921518
 30
0.0
 11
-4.363676166623044
 21
-93.19785824836449
 31
0.0
  0
LINE
  5
15E
330
70
100
AcDbEntity
  8
Standardebene
 62
     7
370
    35
100
AcDbLine
 10
-35.36383202737337
 20
-93.19785824836449
 30
0.0
 11
-36.36353910822342
 21
-94.19756532921518
 31
0.0
  0
LINE
  5
15F
330
70
100
AcDbEntity
  8
Standardebene
 62
     7
370
    35
100
AcDbLine
 10
-5.6142400672602
 20
-93.19785824836449
 30
0.0
 11
-5.6142400672602
 21
-90.19783902691457
 31
0.0
  0
LINE
  5
160
330
70
100
AcDbEntity
  8
Standardebene
 62
     7
370
    35
100
AcDbLine
 10
-5.6142400672602
 20
-78.197633858415
 30
0.0
 11
-5.6142400672602
 21
-38.69778700454008
 31
0.0
  0
LINE
  5
161
330
70
100
AcDbEntity
  8
Standardebene
 62
     7
370
    35
100
AcDbLine
 10
-34.11358883348495
 20
-38.69778700454008
 30
0.0
 11
-34.11358883348495
 21
-78.197633858415
 31
0.0
  0
LINE
  5
162
330
70
100
AcDbEntity
  8
Standardebene
 62
     7
370
    35
100
AcDbLine
 10
-34.11358883348495
 20
-90.19783902691457
 30
0.0
 11
-34.11358883348495
 21
-93.19785824836449
 31
0.0
  0
LINE
  5
163
330
70
100
AcDbEntity
  8
Standardebene
 62
     7
370
    35
100
AcDbLine
 10
-5.6142400672602
 20
-38.69778700454008
 30
0.0
 11
-6.011082599611359
 21
-35.46474225859838
 31
0.0
  0
LINE
  5
164
330
70
100
AcDbEntity
  8
Standardebene
 62
     7
370
    35
100
AcDbLine
 10
-33.71681044248469
 20
-35.46474225859838
 30
0.0
 11
-34.11358883348495
 21
-38.69778700454008
 31
0.0
  0
LINE
  5
165
330
70
100
AcDbEntity
  8
Standardebene
 62
     7
370
    35
100
AcDbLine
 10
-33.98299704491855
 20
-34.94263166972867
 30
0.0
 11
-33.71681044248469
 21
-35.46474225859838
 31
0.0
  0
LINE
  5
166
330
70
100
AcDbEntity
  8
Standardebene
 62
     7
370
    35
100
AcDbLine
 10
-6.011082599611359
 20
-35.46474225859838
 30
0.0
 11
-5.744831855827887
 21
-34.94263166972867
 31
0.0
  0
SPLINE
  5
167
330
70
100
AcDbEntity
  8
Standardebene
 62
     7
370
    35
100
AcDbSpline
210
0.0
220
0.0
230
1.0
 70
     8
 71
     3
 72
    11
 73
     7
 74
     0
 42
0.0000000001
 43
0.0000000001
 40
0.0
 40
0.0
 40
0.0
 40
0.0
 40
1.0
 40
1.0
 40
1.0
 40
2.0
 40
2.0
 40
2.0
 40
2.0
 10
-5.744831855827887
 20
-34.94263166972867
 30
0.0
 10
-5.654328410999581
 20
-34.76566568512306
 30
0.0
 10
-5.612379968110996
 20
-34.57619213727059
 30
0.0
 10
-5.6142400672602
 20
-34.39800746701453
 30
0.0
 10
-5.6142400672602
 20
-33.73529903898017
 30
0.0
 10
-6.151039025275969
 20
-33.19785866746501
 30
0.0
 10
-6.813426746560304
 20
-33.19785866746501
 30
0.0
  0
SPLINE
  5
168
330
70
100
AcDbEntity
  8
Standardebene
 62
     7
370
    35
100
AcDbSpline
210
0.0
220
0.0
230
1.0
 70
     8
 71
     3
 72
    11
 73
     7
 74
     0
 42
0.0000000001
 43
0.0000000001
 40
0.0
 40
0.0
 40
0.0
 40
0.0
 40
1.0
 40
1.0
 40
1.0
 40
2.0
 40
2.0
 40
2.0
 40
2.0
 10
-32.91376074068481
 20
-33.19785866746501
 30
0.0
 10
-33.57646916871916
 20
-33.19785866746501
 30
0.0
 10
-34.11358883348495
 20
-33.73529903898017
 30
0.0
 10
-34.11358883348495
 20
-34.39800746701453
 30
0.0
 10
-34.11358883348495
 20
-34.59652494521517
 30
0.0
 10
-34.06535453829781
 20
-34.78413839391843
 30
0.0
 10
-33.98299704491855
 20
-34.94263166972867
 30
0.0
  0
LWPOLYLINE
  5
169
330
70
100
AcDbEntity
  8
Standardebene
 62
     7
370
    35
100
AcDbPolyline
 90
       28
 70
     0
 43
0.0
 10
-4.363676166623044
 20
-133.1975586426651
 10
-4.468611415197013
 20
-133.1975586426651
 10
-4.781749485818573
 20
-133.1975586426651
 10
-5.298857049388516
 20
-133.1975586426651
 10
-6.012621992010545
 20
-133.1975586426651
 10
-6.914321090085206
 20
-133.1975586426651
 10
-7.990420518766626
 20
-133.1975586426651
 10
-9.226873322407495
 20
-133.1975586426651
 10
-10.60802901161234
 20
-133.1975586426651
 10
-12.11355477843594
 20
-133.1975586426651
 10
-13.72491377273266
 20
-133.1975586426651
 10
-15.41805298825886
 20
-133.1975586426651
 10
-17.17219062762074
 20
-133.1975586426651
 10
-18.9626964124223
 20
-133.1975586426651
 10
-20.76481178157219
 20
-133.1975586426651
 10
-22.55531756637439
 20
-133.1975586426651
 10
-24.30951934708653
 20
-133.1975586426651
 10
-26.00323583476251
 20
-133.1975586426651
 10
-27.61363270881046
 20
-133.1975586426651
 10
-29.1197998891341
 20
-133.1975586426651
 10
-30.5003141648389
 20
-133.1975586426651
 10
-31.73740838197981
 20
-133.1975586426651
 10
-32.81357195201021
 20
-133.1975586426651
 10
-33.71552761548463
 20
-133.1975586426651
 10
-34.42929255810665
 20
-133.1975586426651
 10
-34.94575870817655
 20
-133.1975586426651
 10
-35.25896092014902
 20
-133.1975586426651
 10
-35.36383202737337
 20
-133.1975586426651
  0
LWPOLYLINE
  5
16A
330
70
100
AcDbEntity
  8
Standardebene
 62
     7
370
    35
100
AcDbPolyline
 90
       29
 70
     0
 43
0.0
 10
-19.86343339024754
 20
-111.6973781280398
 10
-19.28340316234248
 20
-111.649143832852
 10
-18.71966483733356
 20
-111.5057237742881
 10
-17.70526938733681
 20
-110.9526329133762
 10
-16.91819088168371
 20
-110.0879433742419
 10
-16.64103610840284
 20
-109.5630105659736
 10
-16.45624487909949
 20
-108.9970914350648
 10
-16.37138587307098
 20
-108.4167405004097
 10
-16.38325202281843
 20
-107.8297830067067
 10
-16.69023252384195
 20
-106.7223825992337
 10
-17.34229348777803
 20
-105.7709098135714
 10
-17.7860874883169
 20
-105.3822132326686
 10
-18.28876324814117
 20
-105.0721539468461
 10
-18.83903188965448
 20
-104.8517001269514
 10
-19.4199600964587
 20
-104.7264320704329
 10
-20.00249183701301
 20
-104.7010320958389
 10
-20.58162408601893
 20
-104.7721648529714
 10
-21.65143766240051
 20
-105.1890194865171
 10
-22.53652415083029
 20
-105.9384470197298
 10
-22.87916724244321
 20
-106.4216879505093
 10
-23.13630991452951
 20
-106.9566268093753
 10
-23.29820268188943
 20
-107.5250474529333
 10
-23.36272887997336
 20
-108.1132236322855
 10
-23.19987399236339
 20
-109.2567356198003
 10
-22.67808411024434
 20
-110.2789563144942
 10
-21.83622889170515
 20
-111.0895105542418
 10
-21.31944203488394
 20
-111.3804557177689
 10
-20.75916734277432
 20
-111.5815388499691
 10
-19.86343339024754
 20
-111.6973781280398
  0
LWPOLYLINE
  5
16B
330
70
100
AcDbEntity
  8
Standardebene
 62
     7
370
    35
100
AcDbPolyline
 90
       29
 70
     0
 43
0.0
 10
-19.86343339024754
 20
-129.6976858807901
 10
-19.28340316234248
 20
-129.6494515856023
 10
-18.71966483733356
 20
-129.5053901135377
 10
-17.70526938733681
 20
-128.9526199593765
 10
-16.91819088168371
 20
-128.0876097134922
 10
-16.64103610840284
 20
-127.5623561984732
 10
-16.45624487909949
 20
-126.9970784810651
 10
-16.37138587307098
 20
-126.41672754641
 10
-16.38325202281843
 20
-125.829449345957
 10
-16.69023252384195
 20
-124.722690351984
 10
-17.34229348777803
 20
-123.7708968595717
 10
-17.7860874883169
 20
-123.3815588651689
 10
-18.28876324814117
 20
-123.0724616995964
 10
-18.83903188965448
 20
-122.8516871729511
 10
-19.4199600964587
 20
-122.7264191164332
 10
-20.00249183701301
 20
-122.7010191418392
 10
-20.58162408601893
 20
-122.7720877576208
 10
-21.65143766240051
 20
-123.1889423911672
 10
-22.53652415083029
 20
-123.9384340657295
 10
-22.87916724244321
 20
-124.4219957032584
 10
-23.13630991452951
 20
-124.9569345621249
 10
-23.29820268188943
 20
-125.5247137921829
 10
-23.36272887997336
 20
-126.1135313850358
 10
-23.19987399236339
 20
-127.2564019590506
 10
-22.67808411024434
 20
-128.2792640672445
 10
-21.83622889170515
 20
-129.0888561867414
 10
-21.31944203488394
 20
-129.3804427637692
 10
-20.75916734277432
 20
-129.5815258959694
 10
-19.86343339024754
 20
-129.6976858807901
  0
LWPOLYLINE
  5
16C
330
70
100
AcDbEntity
  8
Standardebene
 62
     7
370
    35
100
AcDbPolyline
 90
       29
 70
     0
 43
0.0
 10
-36.36353910822342
 20
-132.198172268565
 10
-36.26020739339825
 20
-132.198172268565
 10
-35.94982740082633
 20
-132.198172268565
 10
-35.43746629715446
 20
-132.198172268565
 10
-34.72966650008161
 20
-132.198172268565
 10
-33.8348946678049
 20
-132.198172268565
 10
-32.76373412307298
 20
-132.198172268565
 10
-31.53074495233076
 20
-132.198172268565
 10
-30.15177006902578
 20
-132.198172268565
 10
-28.64245996255288
 20
-132.198172268565
 10
-27.022698451408
 20
-132.198172268565
 10
-25.31326733298564
 20
-132.198172268565
 10
-23.53558981817901
 20
-132.198172268565
 10
-21.71128154193533
 20
-132.198172268565
 10
-19.86343339024754
 20
-132.198172268565
 10
-18.01686806555919
 20
-132.198172268565
 10
-16.19255978931551
 20
-132.198172268565
 10
-14.41424086100949
 20
-132.198172268565
 10
-12.70455317718737
 20
-132.198172268565
 10
-11.08504823144226
 20
-132.198172268565
 10
-9.576122973070269
 20
-132.198172268565
 10
-8.196506676264613
 20
-132.198172268565
 10
-6.963453364173418
 20
-132.198172268565
 10
-5.89331908104053
 20
-132.198172268565
 10
-4.99790583526378
 20
-132.198172268565
 10
-4.289785331441549
 20
-132.198172268565
 10
-3.777680793169443
 20
-132.198172268565
 10
-3.467942214096274
 20
-132.198172268565
 10
-3.363648379022982
 20
-132.198172268565
  0
LWPOLYLINE
  5
16D
330
70
100
AcDbEntity
  8
Standardebene
 62
     7
370
    35
100
AcDbPolyline
 90
       29
 70
     0
 43
0.0
 10
-3.363648379022982
 20
-94.19756532921518
 10
-3.467942214096274
 20
-94.19756532921518
 10
-3.777680793169443
 20
-94.19756532921518
 10
-4.289785331441549
 20
-94.19756532921518
 10
-4.99790583526378
 20
-94.19756532921518
 10
-5.89331908104053
 20
-94.19756532921518
 10
-6.963453364173418
 20
-94.19756532921518
 10
-8.196506676264613
 20
-94.19756532921518
 10
-9.576122973070269
 20
-94.19756532921518
 10
-11.08504823144226
 20
-94.19756532921518
 10
-12.70455317718737
 20
-94.19756532921518
 10
-14.41424086100949
 20
-94.19756532921518
 10
-16.19255978931551
 20
-94.19756532921518
 10
-18.01686806555919
 20
-94.19756532921518
 10
-19.86343339024754
 20
-94.19756532921518
 10
-21.71128154193533
 20
-94.19756532921518
 10
-23.53558981817901
 20
-94.19756532921518
 10
-25.31326733298564
 20
-94.19756532921518
 10
-27.022698451408
 20
-94.19756532921518
 10
-28.64245996255288
 20
-94.19756532921518
 10
-30.15177006902578
 20
-94.19756532921518
 10
-31.53074495233076
 20
-94.19756532921518
 10
-32.76373412307298
 20
-94.19756532921518
 10
-33.8348946678049
 20
-94.19756532921518
 10
-34.72966650008161
 20
-94.19756532921518
 10
-35.43746629715446
 20
-94.19756532921518
 10
-35.94982740082633
 20
-94.19756532921518
 10
-36.26020739339825
 20
-94.19756532921518
 10
-36.36353910822342
 20
-94.19756532921518
  0
LWPOLYLINE
  5
16E
330
70
100
AcDbEntity
  8
Standardebene
 62
     7
370
    35
100
AcDbPolyline
 90
       28
 70
     0
 43
0.0
 10
-35.36383202737337
 20
-93.19785824836449
 10
-35.25896092014902
 20
-93.19785824836449
 10
-34.94575870817655
 20
-93.19785824836449
 10
-34.42929255810665
 20
-93.19785824836449
 10
-33.71552761548463
 20
-93.19785824836449
 10
-32.81357195201021
 20
-93.19785824836449
 10
-31.73740838197981
 20
-93.19785824836449
 10
-30.5003141648389
 20
-93.19785824836449
 10
-29.1197998891341
 20
-93.19785824836449
 10
-27.61363270881046
 20
-93.19785824836449
 10
-26.00323583476251
 20
-93.19785824836449
 10
-24.30951934708653
 20
-93.19785824836449
 10
-22.55531756637439
 20
-93.19785824836449
 10
-20.76481178157219
 20
-93.19785824836449
 10
-18.9626964124223
 20
-93.19785824836449
 10
-17.17219062762074
 20
-93.19785824836449
 10
-15.41805298825886
 20
-93.19785824836449
 10
-13.72491377273266
 20
-93.19785824836449
 10
-12.11355477843594
 20
-93.19785824836449
 10
-10.60802901161234
 20
-93.19785824836449
 10
-9.226873322407495
 20
-93.19785824836449
 10
-7.990420518766626
 20
-93.19785824836449
 10
-6.914321090085206
 20
-93.19785824836449
 10
-6.012621992010545
 20
-93.19785824836449
 10
-5.298857049388516
 20
-93.19785824836449
 10
-4.781749485818573
 20
-93.19785824836449
 10
-4.468611415197013
 20
-93.19785824836449
 10
-4.363676166623044
 20
-93.19785824836449
  0
LWPOLYLINE
  5
16F
330
70
100
AcDbEntity
  8
Standardebene
 62
     7
370
    35
100
AcDbPolyline
 90
       27
 70
     0
 43
0.0
 10
-5.6142400672602
 20
-38.69778700454008
 10
-5.717892488833458
 20
-38.69778700454008
 10
-6.027951774656644
 20
-38.69778700454008
 10
-6.540056312928749
 20
-38.69778700454008
 10
-7.24593186950214
 20
-38.69778700454008
 10
-8.13602138322911
 20
-38.69778700454008
 10
-9.197432442764467
 20
-38.69778700454008
 10
-10.41387314521077
 20
-38.69778700454008
 10
-11.76905158767124
 20
-38.69778700454008
 10
-13.2416728419538
 20
-38.69778700454008
 10
-14.81108339336129
 20
-38.69778700454008
 10
-16.45374336645025
 20
-38.69778700454008
 10
-18.14624116847706
 20
-38.69778700454008
 10
-19.86343339024754
 20
-38.69778700454008
 10
-21.58158773226809
 20
-38.69778700454008
 10
-23.2740855342949
 20
-38.69778700454008
 10
-24.91706621413387
 20
-38.69778700454008
 10
-26.48583535204261
 20
-38.69778700454008
 10
-27.95877731307391
 20
-38.69778700454008
 10
-29.31305777663522
 20
-38.69778700454008
 10
-30.53007575123066
 20
-38.69778700454008
 10
-31.5918075175154
 20
-38.69778700454008
 10
-32.48125561774362
 20
-38.69778700454008
 10
-33.18751602241729
 20
-38.69778700454008
 10
-33.6998771260885
 20
-38.69778700454008
 10
-34.01025711866107
 20
-38.69778700454008
 10
-34.11358883348495
 20
-38.69778700454008
  0
LWPOLYLINE
  5
170
330
70
100
AcDbEntity
  8
Standardebene
 62
     7
370
    35
100
AcDbPolyline
 90
       26
 70
     0
 43
0.0
 10
-6.011082599611359
 20
-35.46474225859838
 10
-6.120379459983131
 20
-35.46474225859838
 10
-6.446409941951809
 20
-35.46474225859838
 10
-6.983529606717596
 20
-35.46474225859838
 10
-7.724169774983154
 20
-35.46474225859838
 10
-8.656271872949611
 20
-35.46474225859838
 10
-9.765275814172069
 20
-35.46474225859838
 10
-11.03367101010585
 20
-35.46474225859838
 10
-12.44086808740404
 20
-35.46474225859838
 10
-13.96544383517215
 20
-35.46474225859838
 10
-15.58276797501869
 20
-35.46474225859838
 10
-17.2677612390965
 20
-35.46474225859838
 10
-18.99406153256479
 20
-35.46474225859838
 10
-20.73383150952998
 20
-35.46474225859838
 10
-22.45949038949952
 20
-35.46474225859838
 10
-24.14441951222771
 20
-35.46474225859838
 10
-25.76238506557236
 20
-35.46474225859838
 10
-27.28638354119197
 20
-35.46474225859838
 10
-28.69383718389057
 20
-35.46474225859838
 10
-29.96255308657308
 20
-35.46474225859838
 10
-31.07097975564576
 20
-35.46474225859838
 10
-32.00365912576328
 20
-35.46474225859838
 10
-32.74404272862844
 20
-35.46474225859838
 10
-33.28180380689298
 20
-35.46474225859838
 10
-33.60751358211228
 20
-35.46474225859838
 10
-33.71681044248469
 20
-35.46474225859838
  0
LWPOLYLINE
  5
171
330
70
100
AcDbEntity
  8
Standardebene
 62
     7
370
    35
100
AcDbPolyline
 90
        3
 70
     0
 43
0.0
 10
5.134759787102824
 20
-78.39839628386449
 10
5.136042614102253
 20
-78.39839628386449
 10
5.136042614102253
 20
-78.39839628386449
  0
LINE
  5
172
330
70
100
AcDbEntity
  8
Standardebene
 62
     7
370
    35
100
AcDbLine
 10
5.134759787102824
 20
-78.19795456516501
 30
0.0
 11
5.134759787102824
 21
-78.39839628386449
 31
0.0
  0
LWPOLYLINE
  5
173
330
70
100
AcDbEntity
  8
Standardebene
 62
     7
370
    35
100
AcDbPolyline
 90
       16
 70
     0
 43
0.0
 10
5.134759787102824
 20
-78.19795456516501
 10
4.98101297119066
 20
-78.19795456516501
 10
4.57070075534389
 20
-78.19795456516501
 10
3.909275154309609
 20
-78.19795456516501
 10
3.002252324186451
 20
-78.19795456516501
 10
1.859445891521238
 20
-78.19795456516501
 10
0.4939406917125113
 20
-78.19795456516501
 10
-1.082397125492925
 20
-78.19795456516501
 10
-1.082397125492925
 20
-90.19783902691457
 10
0.4939406917125113
 20
-90.19783902691457
 10
1.859445891521238
 20
-90.19783902691457
 10
3.002252324186451
 20
-90.19783902691457
 10
3.909275154309609
 20
-90.19783902691457
 10
4.57070075534389
 20
-90.19783902691457
 10
4.98101297119066
 20
-90.19783902691457
 10
5.134759787102824
 20
-90.19783902691457
  0
LINE
  5
174
330
70
100
AcDbEntity
  8
Standardebene
 62
     7
370
    35
100
AcDbLine
 10
5.134759787102824
 20
-89.99803872171449
 30
0.0
 11
5.134759787102824
 21
-90.19783902691457
 31
0.0
  0
LWPOLYLINE
  5
175
330
70
100
AcDbEntity
  8
Standardebene
 62
     7
370
    35
100
AcDbPolyline
 90
        3
 70
     0
 43
0.0
 10
5.136042614102253
 20
-89.99803872171449
 10
5.136042614102253
 20
-89.99803872171449
 10
5.134759787102824
 20
-89.99803872171449
  0
LWPOLYLINE
  5
176
330
70
100
AcDbEntity
  8
Standardebene
 62
     7
370
    35
100
AcDbPolyline
 90
       10
 70
     0
 43
0.0
 10
5.136042614102253
 20
-81.99755985551488
 10
5.125651715405016
 20
-82.12128851963361
 10
5.098776489761488
 20
-82.47740129474534
 10
5.066513390719203
 20
-83.02766993625736
 10
5.041754829625278
 20
-84.20055866206437
 10
5.040472002626491
 20
-84.44827255570221
 10
5.057405319022036
 20
-85.15517437387527
 10
5.087808318913834
 20
-85.75553740972555
 10
5.11846788420603
 20
-86.18182082171845
 10
5.133476960102753
 20
-86.37097366282153
  0
LWPOLYLINE
  5
177
330
70
100
AcDbEntity
  8
Standardebene
 62
     7
370
    35
100
AcDbPolyline
 90
       16
 70
     0
 43
0.0
 10
-44.7827327071173
 20
-90.19783902691457
 10
-44.4952511764901
 20
-90.19783902691457
 10
-44.00161934701401
 20
-90.19783902691457
 10
-43.30542913428756
 20
-90.19783902691457
 10
-42.41405679355987
 20
-90.19783902691457
 10
-41.33391645983003
 20
-90.19783902691457
 10
-40.07456519424445
 20
-90.19783902691457
 10
-38.6457524820016
 20
-90.19783902691457
 10
-38.6457524820016
 20
-78.19795456516501
 10
-40.07456519424445
 20
-78.19795456516501
 10
-41.33391645983003
 20
-78.19795456516501
 10
-42.41405679355987
 20
-78.19795456516501
 10
-43.30542913428756
 20
-78.19795456516501
 10
-44.00161934701401
 20
-78.19795456516501
 10
-44.4952511764901
 20
-78.19795456516501
 10
-44.7827327071173
 20
-78.19795456516501
  0
LINE
  5
178
330
70
100
AcDbEntity
  8
Standardebene
 62
     7
370
    35
100
AcDbLine
 10
-44.7827327071173
 20
-90.19783902691457
 30
0.0
 11
-44.7827327071173
 21
-78.19795456516501
 31
0.0
  0
LINE
  5
179
330
70
100
AcDbEntity
  8
Standardebene
 62
     7
370
    35
100
AcDbLine
 10
-38.6457524820016
 20
-78.19795456516501
 30
0.0
 11
-1.082397125492925
 21
-78.19795456516501
 31
0.0
  0
LINE
  5
17A
330
70
100
AcDbEntity
  8
Standardebene
 62
     7
370
    35
100
AcDbLine
 10
-1.082397125492925
 20
-90.19783902691457
 30
0.0
 11
-38.6457524820016
 21
-90.19783902691457
 31
0.0
  0
LINE
  5
17B
330
70
100
AcDbEntity
  8
Standardebene
 62
     7
370
    35
100
AcDbLine
 10
-10.71264355343565
 20
-9.198089743964604
 30
0.0
 11
-10.71264355343565
 21
-33.19785866746501
 31
0.0
  0
LINE
  5
17C
330
70
100
AcDbEntity
  8
Standardebene
 62
     7
370
    35
100
AcDbLine
 10
-29.01550605406016
 20
-9.198089743964604
 30
0.0
 11
-10.71264355343565
 21
-9.198089743964604
 31
0.0
  0
LINE
  5
17D
330
70
100
AcDbEntity
  8
Standardebene
 62
     7
370
    35
100
AcDbLine
 10
-29.01550605406016
 20
-33.19785866746501
 30
0.0
 11
-29.01550605406016
 21
-9.198089743964604
 31
0.0
  0
LINE
  5
17E
330
70
100
AcDbEntity
  8
Standardebene
 62
     7
370
    35
100
AcDbLine
 10
-10.71264355343565
 20
-33.19785866746501
 30
0.0
 11
-29.01550605406016
 21
-33.19785866746501
 31
0.0
  0
LWPOLYLINE
  5
17F
330
70
100
AcDbEntity
  8
Standardebene
 62
     7
370
    35
100
AcDbPolyline
 90
       10
 70
     0
 43
0.0
 10
-29.01550605406016
 20
-9.198089743964604
 10
-30.73712402897871
 20
-9.198089743964604
 10
-32.31525780398437
 20
-9.198089743964604
 10
-33.72809932008236
 20
-9.198089743964604
 10
-34.95608546552482
 20
-9.198089743964604
 10
-35.98427130576848
 20
-9.198089743964604
 10
-36.79860988516411
 20
-9.198089743964604
 10
-37.3880047501661
 20
-9.198089743964604
 10
-37.74475893877788
 20
-9.198089743964604
 10
-37.86374114299788
 20
-9.198089743964604
  0
LWPOLYLINE
  5
180
330
70
100
AcDbEntity
  8
Standardebene
 62
     7
370
    35
100
AcDbPolyline
 90
       10
 70
     0
 43
0.0
 10
-1.864087757747275
 20
-9.198089743964604
 10
-1.983134103318174
 20
-9.198089743964604
 10
-2.339824150579049
 20
-9.198089743964604
 10
-2.929603863681318
 20
-9.198089743964604
 10
-3.743236888227936
 20
-9.198089743964604
 10
-4.771422728470312
 20
-9.198089743964604
 10
-6.000114428763705
 20
-9.198089743964604
 10
-7.412250390010763
 20
-9.198089743964604
 10
-8.99012759961667
 20
-9.198089743964604
 10
-10.71264355343565
 20
-9.198089743964604
  0
LWPOLYLINE
  5
181
330
70
100
AcDbEntity
  8
Standardebene
 62
     7
370
    35
100
AcDbPolyline
 90
       10
 70
     0
 43
0.0
 10
-10.71264355343565
 20
-33.19785866746501
 10
-8.99012759961667
 20
-33.19785866746501
 10
-7.412250390010763
 20
-33.19785866746501
 10
-6.000114428763705
 20
-33.19785866746501
 10
-4.771422728470312
 20
-33.19785866746501
 10
-3.743236888227936
 20
-33.19785866746501
 10
-2.929603863681318
 20
-33.19785866746501
 10
-2.339824150579049
 20
-33.19785866746501
 10
-1.983134103318174
 20
-33.19785866746501
 10
-1.864087757747275
 20
-33.19785866746501
  0
LWPOLYLINE
  5
182
330
70
100
AcDbEntity
  8
Standardebene
 62
     7
370
    35
100
AcDbPolyline
 90
       10
 70
     0
 43
0.0
 10
-37.86374114299788
 20
-33.19785866746501
 10
-37.74475893877788
 20
-33.19785866746501
 10
-37.3880047501661
 20
-33.19785866746501
 10
-36.79860988516411
 20
-33.19785866746501
 10
-35.98427130576848
 20
-33.19785866746501
 10
-34.95608546552482
 20
-33.19785866746501
 10
-33.72809932008236
 20
-33.19785866746501
 10
-32.31525780398437
 20
-33.19785866746501
 10
-30.73712402897871
 20
-33.19785866746501
 10
-29.01550605406016
 20
-33.19785866746501
  0
LWPOLYLINE
  5
183
330
70
100
AcDbEntity
  8
Standardebene
 62
     7
370
    35
100
AcDbPolyline
 90
       20
 70
     0
 43
0.0
 10
-19.86343339024754
 20
-19.79802510096521
 10
-20.51299284153567
 20
-19.90603913433755
 10
-21.08834075089163
 20
-20.21706054041015
 10
-21.53995999612888
 20
-20.70626661673754
 10
-21.80864811121133
 20
-21.33106750693173
 10
-21.85406018700049
 20
-21.99627744761468
 10
-21.68588156734202
 20
-22.62236116480895
 10
-21.32418849478266
 20
-23.16448385487321
 10
-20.78892892916608
 20
-23.57101173107131
 10
-20.14251240402788
 20
-23.77863728096913
 10
-19.48198478189339
 20
-23.76112669242381
 10
-18.87469448024516
 20
-23.53624711938043
 10
-18.36483488922189
 20
-23.12221470523333
 10
-18.00872211411208
 20
-22.54654608912735
 10
-17.86562276229691
 20
-21.88601846699286
 10
-17.94451662277817
 20
-21.23645901570538
 10
-18.22359563655785
 20
-20.65302929625128
 10
-18.68804315179195
 20
-20.1801151228194
 10
-19.29815567283944
 20
-19.87974118084444
 10
-19.86343339024754
 20
-19.79802510096521
  0
LWPOLYLINE
  5
184
330
70
100
AcDbEntity
  8
Standardebene
 62
     7
370
    35
100
AcDbPolyline
 90
       23
 70
     0
 43
0.0
 10
-29.8636471248979
 20
-8.297673472890016
 10
-29.76185480247385
 20
-8.297673472890016
 10
-29.458979347849
 20
-8.297673472890016
 10
-28.96008792767404
 20
-8.297673472890016
 10
-28.27608457144505
 20
-8.297673472890016
 10
-27.42101623480808
 20
-8.297673472890016
 10
-26.41226522361113
 20
-8.297673472890016
 10
-25.27035676984636
 20
-8.297673472890016
 10
-24.01825347680873
 20
-8.297673472890016
 10
-22.6809063296436
 20
-8.297673472890016
 10
-21.28660166369188
 20
-8.297673472890016
 10
-19.86343339024754
 20
-8.297673472890016
 10
-18.44064996490349
 20
-8.297673472890016
 10
-17.04660186435217
 20
-8.297673472890016
 10
-15.7098961306858
 20
-8.297673472890016
 10
-14.45747213089879
 20
-8.297673472890016
 10
-13.31524297038528
 20
-8.297673472890016
 10
-12.30681266593707
 20
-8.297673472890016
 10
-11.45116705715032
 20
-8.297673472890016
 10
-10.76780511442137
 20
-8.297673472890016
 10
-10.26884955289678
 20
-8.297673472890016
 10
-9.965717532872183
 20
-8.297673472890016
 10
-9.863604503697471
 20
-8.297673472890016
  0
LWPOLYLINE
  5
185
330
70
100
AcDbEntity
  8
Standardebene
 62
     7
370
    35
100
AcDbPolyline
 90
       23
 70
     0
 43
0.0
 10
-9.364071670022466
 20
-8.798104285464813
 10
-9.471187724496299
 20
-8.798104285464813
 10
-9.789392961765958
 20
-8.798104285464813
 10
-10.3124015295361
 20
-8.798104285464813
 10
-11.03052808395657
 20
-8.798104285464813
 10
-11.92844284238128
 20
-8.798104285464813
 10
-12.98799380276679
 20
-8.798104285464813
 10
-14.18685977531688
 20
-8.798104285464813
 10
-15.50194987403861
 20
-8.798104285464813
 10
-16.90568331843751
 20
-8.798104285464813
 10
-18.36951720777164
 20
-8.798104285464813
 10
-19.86343339024754
 20
-8.798104285464813
 10
-21.35799098622478
 20
-8.798104285464813
 10
-22.82214558230828
 20
-8.798104285464813
 10
-24.22587902670783
 20
-8.798104285464813
 10
-25.54032771192824
 20
-8.798104285464813
 10
-26.73951439122834
 20
-8.798104285464813
 10
-27.79938605836387
 20
-8.798104285464813
 10
-28.69665940328983
 20
-8.798104285464813
 10
-29.4147859577103
 20
-8.798104285464813
 10
-29.93875664572921
 20
-8.798104285464813
 10
-30.25696188299951
 20
-8.798104285464813
 10
-30.3640779374727
 20
-8.798104285464813
  0
LWPOLYLINE
  5
186
330
70
100
AcDbEntity
  8
Standardebene
 62
     7
370
    35
100
AcDbPolyline
 90
        7
 70
     0
 43
0.0
 10
-19.86343339024754
 20
-31.01269115621087
 10
-21.94616716557696
 20
-29.81068225751151
 10
-23.02258730100839
 20
-29.18934500021725
 10
-24.11375994693488
 20
-28.55889967122454
 10
-24.41567328130966
 20
-28.38507661276755
 10
-26.39283039456571
 20
-27.2428474522534
 10
-28.36408650362283
 20
-26.10562131703773
  0
LWPOLYLINE
  5
187
330
70
100
AcDbEntity
  8
Standardebene
 62
     7
370
    35
100
AcDbPolyline
 90
        7
 70
     0
 43
0.0
 10
-11.36380653847321
 20
-26.10562131703773
 10
-13.44589890030259
 20
-27.30801506383736
 10
-14.52296044923278
 20
-27.92935232113162
 10
-15.61406895380963
 20
-28.55889967122454
 10
-15.91598228818442
 20
-28.7333000018313
 10
-17.89288283604071
 20
-29.87488774884606
 10
-19.86343339024754
 20
-31.01269115621087
  0
LWPOLYLINE
  5
188
330
70
100
AcDbEntity
  8
Standardebene
 62
     7
370
    35
100
AcDbPolyline
 90
        7
 70
     0
 43
0.0
 10
-11.36380653847321
 20
-16.29058365979164
 10
-11.36380653847321
 20
-18.06229602904845
 10
-11.36380653847321
 20
-19.88384622724313
 10
-11.36380653847321
 20
-21.1979742057148
 10
-11.36380653847321
 20
-23.04453953040316
 10
-11.36380653847321
 20
-24.89174626859156
 10
-11.36380653847321
 20
-26.10562131703773
  0
LWPOLYLINE
  5
189
330
70
100
AcDbEntity
  8
Standardebene
 62
     7
370
    35
100
AcDbPolyline
 90
        7
 70
     0
 43
0.0
 10
-19.86343339024754
 20
-11.38287240711846
 10
-17.78198244191757
 20
-12.58520201256784
 10
-16.704600186238
 20
-13.2072448247124
 10
-15.61406895380963
 20
-13.83672803345505
 10
-15.31125764053633
 20
-14.01151321216145
 10
-13.33467779942942
 20
-15.15278025242619
 10
-11.36380653847321
 20
-16.29058365979164
  0
LWPOLYLINE
  5
18A
330
70
100
AcDbEntity
  8
Standardebene
 62
     7
370
    35
100
AcDbPolyline
 90
        7
 70
     0
 43
0.0
 10
-28.36408650362283
 20
-16.29058365979164
 10
-26.2816734350428
 20
-15.08825405434226
 10
-25.20461188611197
 20
-14.46659609029735
 10
-24.11375994693488
 20
-13.83672803345505
 10
-23.81184661256073
 20
-13.66200699609892
 10
-21.83436879255466
 20
-12.52073995583417
 10
-19.86343339024754
 20
-11.38287240711846
  0
LWPOLYLINE
  5
18B
330
70
100
AcDbEntity
  8
Standardebene
 62
     7
370
    35
100
AcDbPolyline
 90
        7
 70
     0
 43
0.0
 10
-28.36408650362283
 20
-26.10562131703773
 10
-28.36408650362283
 20
-24.89174626859156
 10
-28.36408650362283
 20
-23.06865667799705
 10
-28.36408650362283
 20
-21.1979742057148
 10
-28.36408650362283
 20
-19.88384622724313
 10
-28.36408650362283
 20
-18.07922934544464
 10
-28.36408650362283
 20
-16.29058365979164
  0
SPLINE
  5
18C
330
70
100
AcDbEntity
  8
Standardebene
 62
     7
370
    35
100
AcDbSpline
210
0.0
220
0.0
230
1.0
 70
     9
 71
     3
 72
    17
 73
    13
 74
     0
 42
0.0000000001
 43
0.0000000001
 40
0.0
 40
0.0
 40
0.0
 40
0.0
 40
1.0
 40
1.0
 40
1.0
 40
2.0
 40
2.0
 40
2.0
 40
3.0
 40
3.0
 40
3.0
 40
4.0
 40
4.0
 40
4.0
 40
4.0
 10
-19.86343339024754
 20
-12.69764179909018
 30
0.0
 10
-24.55851606772379
 20
-12.69764179909018
 30
0.0
 10
-28.36408650362283
 20
-16.50321223498858
 30
0.0
 10
-28.36408650362283
 20
-21.1979742057148
 30
0.0
 10
-28.36408650362283
 20
-25.89203062159074
 30
0.0
 10
-24.55851606772379
 20
-29.6979217642398
 30
0.0
 10
-19.86343339024754
 20
-29.6979217642398
 30
0.0
 10
-15.16969768112163
 20
-29.6979217642398
 30
0.0
 10
-11.36380653847321
 20
-25.89203062159074
 30
0.0
 10
-11.36380653847321
 20
-21.1979742057148
 30
0.0
 10
-11.36380653847321
 20
-16.50321223498858
 30
0.0
 10
-15.16969768112163
 20
-12.69764179909018
 30
0.0
 10
-19.86343339024754
 20
-12.69764179909018
 30
0.0
  0
SPLINE
  5
18D
330
70
100
AcDbEntity
  8
Standardebene
 62
     7
370
    35
100
AcDbSpline
210
0.0
220
0.0
230
1.0
 70
     9
 71
     3
 72
    17
 73
    13
 74
     0
 42
0.0000000001
 43
0.0000000001
 40
0.0
 40
0.0
 40
0.0
 40
0.0
 40
1.0
 40
1.0
 40
1.0
 40
2.0
 40
2.0
 40
2.0
 40
3.0
 40
3.0
 40
3.0
 40
4.0
 40
4.0
 40
4.0
 40
4.0
 10
-19.86343339024754
 20
-17.69835800923961
 30
0.0
 10
-21.79710266821389
 20
-17.69835800923961
 30
0.0
 10
-23.36394756562253
 20
-19.26526704799787
 30
0.0
 10
-23.36394756562253
 20
-21.1979742057148
 30
0.0
 10
-23.36394756562253
 20
-23.13100207018176
 30
0.0
 10
-21.79710266821389
 20
-24.69816767433977
 30
0.0
 10
-19.86343339024754
 20
-24.69816767433977
 30
0.0
 10
-17.93104693928127
 20
-24.69816767433977
 30
0.0
 10
-16.36420204187199
 20
-23.13100207018176
 30
0.0
 10
-16.36420204187199
 20
-21.1979742057148
 30
0.0
 10
-16.36420204187199
 20
-19.26526704799787
 30
0.0
 10
-17.93104693928127
 20
-17.69835800923961
 30
0.0
 10
-19.86343339024754
 20
-17.69835800923961
 30
0.0
  0
SPLINE
  5
18E
330
70
100
AcDbEntity
  8
Standardebene
 62
     7
370
    35
100
AcDbSpline
210
0.0
220
0.0
230
1.0
 70
     9
 71
     3
 72
    17
 73
    13
 74
     0
 42
0.0000000001
 43
0.0000000001
 40
0.0
 40
0.0
 40
0.0
 40
0.0
 40
1.0
 40
1.0
 40
1.0
 40
2.0
 40
2.0
 40
2.0
 40
3.0
 40
3.0
 40
3.0
 40
4.0
 40
4.0
 40
4.0
 40
4.0
 10
-19.86343339024754
 20
-15.19819232821471
 30
0.0
 10
-23.17761694391998
 20
-15.19819232821471
 30
0.0
 10
-25.8635359744983
 20
-17.88411135879367
 30
0.0
 10
-25.8635359744983
 20
-21.1979742057148
 30
0.0
 10
-25.8635359744983
 20
-24.51183705263594
 30
0.0
 10
-23.17761694391998
 20
-27.19807678996492
 30
0.0
 10
-19.86343339024754
 20
-27.19807678996492
 30
0.0
 10
-16.55021195682644
 20
-27.19807678996492
 30
0.0
 10
-13.8636515127481
 20
-24.51183705263594
 30
0.0
 10
-13.8636515127481
 20
-21.1979742057148
 30
0.0
 10
-13.8636515127481
 20
-17.88411135879367
 30
0.0
 10
-16.55021195682644
 20
-15.19819232821471
 30
0.0
 10
-19.86343339024754
 20
-15.19819232821471
 30
0.0
  0
SPLINE
  5
18F
330
70
100
AcDbEntity
  8
Standardebene
 62
     7
370
    35
100
AcDbSpline
210
0.0
220
0.0
230
1.0
 70
     9
 71
     3
 72
    17
 73
    13
 74
     0
 42
0.0000000001
 43
0.0000000001
 40
0.0
 40
0.0
 40
0.0
 40
0.0
 40
1.0
 40
1.0
 40
1.0
 40
2.0
 40
2.0
 40
2.0
 40
3.0
 40
3.0
 40
3.0
 40
4.0
 40
4.0
 40
4.0
 40
4.0
 10
-19.86343339024754
 20
-18.19789084291526
 30
0.0
 10
-21.52052516708345
 20
-18.19789084291526
 30
0.0
 10
-22.86383745979839
 20
-19.5408824288789
 30
0.0
 10
-22.86383745979839
 20
-21.1979742057148
 30
0.0
 10
-22.86383745979839
 20
-22.85474527580069
 30
0.0
 10
-21.52052516708345
 20
-24.19767272041471
 30
0.0
 10
-19.86343339024754
 20
-24.19767272041471
 30
0.0
 10
-18.20730373366106
 20
-24.19767272041471
 30
0.0
 10
-16.86373487554764
 20
-22.85474527580069
 30
0.0
 10
-16.86373487554764
 20
-21.1979742057148
 30
0.0
 10
-16.86373487554764
 20
-19.5408824288789
 30
0.0
 10
-18.20730373366106
 20
-18.19789084291526
 30
0.0
 10
-19.86343339024754
 20
-18.19789084291526
 30
0.0
  0
LINE
  5
191
330
70
100
AcDbEntity
  8
Bemaßung
 62
     7
370
     9
100
AcDbLine
 10
-86.75387636720051
 20
-63.8184877618231
 30
0.0
 11
-102.4290630299481
 21
-63.8184877618231
 31
0.0
  0
LWPOLYLINE
  5
192
330
70
100
AcDbEntity
  8
Bemaßung
 62
     7
370
     9
100
AcDbPolyline
 90
        4
 70
     0
 43
0.0
 10
-86.75387636720051
 20
-63.8184877618231
 10
-88.12900414463456
 20
-63.63744220631302
 10
-88.12900414463456
 20
-63.99953331733351
 10
-86.75387636720051
 20
-63.8184877618231
  0
LINE
  5
193
330
70
100
AcDbEntity
  8
Bemaßung
 62
     7
370
     9
100
AcDbLine
 10
-88.12900414463456
 20
-63.65070665075402
 30
0.0
 11
-88.02736886688196
 21
-63.65070665075402
 31
0.0
  0
LINE
  5
194
330
70
100
AcDbEntity
  8
Bemaßung
 62
     7
370
     9
100
AcDbLine
 10
-88.12900414463456
 20
-63.65070665075402
 30
0.0
 11
-88.02736886688196
 21
-63.65070665075402
 31
0.0
  0
LINE
  5
195
330
70
100
AcDbEntity
  8
Bemaßung
 62
     7
370
     9
100
AcDbLine
 10
-88.12900414463456
 20
-63.67878776185812
 30
0.0
 11
-87.81531414471279
 21
-63.67878776185812
 31
0.0
  0
LINE
  5
196
330
70
100
AcDbEntity
  8
Bemaßung
 62
     7
370
     9
100
AcDbLine
 10
-88.12900414463456
 20
-63.70669248407335
 30
0.0
 11
-87.60308303365475
 21
-63.70669248407335
 31
0.0
  0
LINE
  5
197
330
70
100
AcDbEntity
  8
Bemaßung
 62
     7
370
     9
100
AcDbLine
 10
-88.12900414463456
 20
-63.73477359517744
 30
0.0
 11
-87.39106358926344
 21
-63.73477359517744
 31
0.0
  0
LINE
  5
198
330
70
100
AcDbEntity
  8
Bemaßung
 62
     7
370
     9
100
AcDbLine
 10
-88.12900414463456
 20
-63.76250192850378
 30
0.0
 11
-87.17847970042765
 21
-63.76250192850378
 31
0.0
  0
LINE
  5
199
330
70
100
AcDbEntity
  8
Bemaßung
 62
     7
370
     9
100
AcDbLine
 10
-88.12900414463456
 20
-63.79058303960788
 30
0.0
 11
-86.96642497825846
 21
-63.79058303960788
 31
0.0
  0
LINE
  5
19A
330
70
100
AcDbEntity
  8
Bemaßung
 62
     7
370
     9
100
AcDbLine
 10
-88.12900414463456
 20
-63.8184877618231
 30
0.0
 11
-86.75387636720051
 21
-63.8184877618231
 31
0.0
  0
LINE
  5
19B
330
70
100
AcDbEntity
  8
Bemaßung
 62
     7
370
     9
100
AcDbLine
 10
-88.12900414463456
 20
-63.98591609511474
 30
0.0
 11
-88.02736886688196
 21
-63.98591609511474
 31
0.0
  0
LINE
  5
19C
330
70
100
AcDbEntity
  8
Bemaßung
 62
     7
370
     9
100
AcDbLine
 10
-88.12900414463456
 20
-63.98591609511474
 30
0.0
 11
-88.02736886688196
 21
-63.98591609511474
 31
0.0
  0
LINE
  5
19D
330
70
100
AcDbEntity
  8
Bemaßung
 62
     7
370
     9
100
AcDbLine
 10
-88.12900414463456
 20
-63.95801137289952
 30
0.0
 11
-87.81531414471279
 21
-63.95801137289952
 31
0.0
  0
LINE
  5
19E
330
70
100
AcDbEntity
  8
Bemaßung
 62
     7
370
     9
100
AcDbLine
 10
-88.12900414463456
 20
-63.93028303957287
 30
0.0
 11
-87.60308303365475
 21
-63.93028303957287
 31
0.0
  0
LINE
  5
19F
330
70
100
AcDbEntity
  8
Bemaßung
 62
     7
370
     9
100
AcDbLine
 10
-88.12900414463456
 20
-63.90237831735764
 30
0.0
 11
-87.39106358926344
 21
-63.90237831735764
 31
0.0
  0
LINE
  5
1A0
330
70
100
AcDbEntity
  8
Bemaßung
 62
     7
370
     9
100
AcDbLine
 10
-88.12900414463456
 20
-63.87429720625354
 30
0.0
 11
-87.17847970042765
 21
-63.87429720625354
 31
0.0
  0
LINE
  5
1A1
330
70
100
AcDbEntity
  8
Bemaßung
 62
     7
370
     9
100
AcDbLine
 10
-88.12900414463456
 20
-63.84639248403832
 30
0.0
 11
-86.96642497825846
 21
-63.84639248403832
 31
0.0
  0
LINE
  5
1A2
330
70
100
AcDbEntity
  8
Bemaßung
 62
     7
370
     9
100
AcDbLine
 10
-88.12900414463456
 20
-63.8184877618231
 30
0.0
 11
-86.75387636720051
 21
-63.8184877618231
 31
0.0
  0
LWPOLYLINE
  5
1A3
330
70
100
AcDbEntity
  8
Bemaßung
 62
     7
370
     9
100
AcDbPolyline
 90
        4
 70
     0
 43
0.0
 10
-102.4290630299481
 20
-63.8184877618231
 10
-101.0542880302919
 20
-63.99953331733351
 10
-101.0542880302919
 20
-63.63744220631302
 10
-102.4290630299481
 20
-63.8184877618231
  0
LINE
  5
1A4
330
70
100
AcDbEntity
  8
Bemaßung
 62
     7
370
     9
100
AcDbLine
 10
-101.0542880302919
 20
-63.98591609511474
 30
0.0
 11
-101.1559233080445
 21
-63.98591609511474
 31
0.0
  0
LINE
  5
1A5
330
70
100
AcDbEntity
  8
Bemaßung
 62
     7
370
     9
100
AcDbLine
 10
-101.0542880302919
 20
-63.98591609511474
 30
0.0
 11
-101.1559233080445
 21
-63.98591609511474
 31
0.0
  0
LINE
  5
1A6
330
70
100
AcDbEntity
  8
Bemaßung
 62
     7
370
     9
100
AcDbLine
 10
-101.0542880302919
 20
-63.95801137289952
 30
0.0
 11
-101.3681544191025
 21
-63.95801137289952
 31
0.0
  0
LINE
  5
1A7
330
70
100
AcDbEntity
  8
Bemaßung
 62
     7
370
     9
100
AcDbLine
 10
-101.0542880302919
 20
-63.93028303957287
 30
0.0
 11
-101.5801738634938
 21
-63.93028303957287
 31
0.0
  0
LINE
  5
1A8
330
70
100
AcDbEntity
  8
Bemaßung
 62
     7
370
     9
100
AcDbLine
 10
-101.0542880302919
 20
-63.90237831735764
 30
0.0
 11
-101.7927577523296
 21
-63.90237831735764
 31
0.0
  0
LINE
  5
1A9
330
70
100
AcDbEntity
  8
Bemaßung
 62
     7
370
     9
100
AcDbLine
 10
-101.0542880302919
 20
-63.87429720625354
 30
0.0
 11
-102.0048124744988
 21
-63.87429720625354
 31
0.0
  0
LINE
  5
1AA
330
70
100
AcDbEntity
  8
Bemaßung
 62
     7
370
     9
100
AcDbLine
 10
-101.0542880302919
 20
-63.84639248403832
 30
0.0
 11
-102.217008307779
 21
-63.84639248403832
 31
0.0
  0
LINE
  5
1AB
330
70
100
AcDbEntity
  8
Bemaßung
 62
     7
370
     9
100
AcDbLine
 10
-101.0542880302919
 20
-63.8184877618231
 30
0.0
 11
-102.4290630299481
 21
-63.8184877618231
 31
0.0
  0
LINE
  5
1AC
330
70
100
AcDbEntity
  8
Bemaßung
 62
     7
370
     9
100
AcDbLine
 10
-101.0542880302919
 20
-63.65070665075402
 30
0.0
 11
-101.1559233080445
 21
-63.65070665075402
 31
0.0
  0
LINE
  5
1AD
330
70
100
AcDbEntity
  8
Bemaßung
 62
     7
370
     9
100
AcDbLine
 10
-101.0542880302919
 20
-63.65070665075402
 30
0.0
 11
-101.1559233080445
 21
-63.65070665075402
 31
0.0
  0
LINE
  5
1AE
330
70
100
AcDbEntity
  8
Bemaßung
 62
     7
370
     9
100
AcDbLine
 10
-101.0542880302919
 20
-63.67878776185812
 30
0.0
 11
-101.3681544191025
 21
-63.67878776185812
 31
0.0
  0
LINE
  5
1AF
330
70
100
AcDbEntity
  8
Bemaßung
 62
     7
370
     9
100
AcDbLine
 10
-101.0542880302919
 20
-63.70669248407335
 30
0.0
 11
-101.5801738634938
 21
-63.70669248407335
 31
0.0
  0
LINE
  5
1B0
330
70
100
AcDbEntity
  8
Bemaßung
 62
     7
370
     9
100
AcDbLine
 10
-101.0542880302919
 20
-63.73477359517744
 30
0.0
 11
-101.7927577523296
 21
-63.73477359517744
 31
0.0
  0
LINE
  5
1B1
330
70
100
AcDbEntity
  8
Bemaßung
 62
     7
370
     9
100
AcDbLine
 10
-101.0542880302919
 20
-63.76250192850378
 30
0.0
 11
-102.0048124744988
 21
-63.76250192850378
 31
0.0
  0
LINE
  5
1B2
330
70
100
AcDbEntity
  8
Bemaßung
 62
     7
370
     9
100
AcDbLine
 10
-101.0542880302919
 20
-63.79058303960788
 30
0.0
 11
-102.217008307779
 21
-63.79058303960788
 31
0.0
  0
LINE
  5
1B3
330
70
100
AcDbEntity
  8
Bemaßung
 62
     7
370
     9
100
AcDbLine
 10
-101.0542880302919
 20
-63.8184877618231
 30
0.0
 11
-102.4290630299481
 21
-63.8184877618231
 31
0.0
  0
LINE
  5
1B4
330
70
100
AcDbEntity
  8
Bemaßung
 62
     7
370
     9
100
AcDbLine
 10
-103.6667133074167
 20
-104.6714596960544
 30
0.0
 11
-103.6667133074167
 21
-117.2445302484667
 31
0.0
  0
LINE
  5
1B5
330
70
100
AcDbEntity
  8
Bemaßung
 62
     7
370
     9
100
AcDbLine
 10
-85.51693164528753
 20
-104.6714596960544
 30
0.0
 11
-85.51693164528753
 21
-117.2445302484667
 31
0.0
  0
LINE
  5
1B6
330
70
100
AcDbEntity
  8
Bemaßung
 62
     7
370
     9
100
AcDbLine
 10
-103.6667133074167
 20
-116.1443221931858
 30
0.0
 11
-85.51693164528753
 21
-116.1443221931858
 31
0.0
  0
LWPOLYLINE
  5
1B7
330
70
100
AcDbEntity
  8
Bemaßung
 62
     7
370
     9
100
AcDbPolyline
 90
        4
 70
     0
 43
0.0
 10
-103.6667133074167
 20
-116.1443221931858
 10
-102.2917619188715
 20
-116.3253677486965
 10
-102.2917619188715
 20
-115.9632766376757
 10
-103.6667133074167
 20
-116.1443221931858
  0
LINE
  5
1B8
330
70
100
AcDbEntity
  8
Bemaßung
 62
     7
370
     9
100
AcDbLine
 10
-102.2917619188715
 20
-116.3121033042555
 30
0.0
 11
-102.3933971966238
 21
-116.3121033042555
 31
0.0
  0
LINE
  5
1B9
330
70
100
AcDbEntity
  8
Bemaßung
 62
     7
370
     9
100
AcDbLine
 10
-102.2917619188715
 20
-116.3121033042555
 30
0.0
 11
-102.3933971966238
 21
-116.3121033042555
 31
0.0
  0
LINE
  5
1BA
330
70
100
AcDbEntity
  8
Bemaßung
 62
     7
370
     9
100
AcDbLine
 10
-102.2917619188715
 20
-116.28419858204
 30
0.0
 11
-102.605451918793
 21
-116.28419858204
 31
0.0
  0
LINE
  5
1BB
330
70
100
AcDbEntity
  8
Bemaßung
 62
     7
370
     9
100
AcDbLine
 10
-102.2917619188715
 20
-116.2564702487133
 30
0.0
 11
-102.8178241409623
 21
-116.2564702487133
 31
0.0
  0
LINE
  5
1BC
330
70
100
AcDbEntity
  8
Bemaßung
 62
     7
370
     9
100
AcDbLine
 10
-102.2917619188715
 20
-116.2283891376096
 30
0.0
 11
-103.0298788631315
 21
-116.2283891376096
 31
0.0
  0
LINE
  5
1BD
330
70
100
AcDbEntity
  8
Bemaßung
 62
     7
370
     9
100
AcDbLine
 10
-102.2917619188715
 20
-116.2003080265051
 30
0.0
 11
-103.2422863630784
 21
-116.2003080265051
 31
0.0
  0
LINE
  5
1BE
330
70
100
AcDbEntity
  8
Bemaßung
 62
     7
370
     9
100
AcDbLine
 10
-102.2917619188715
 20
-116.1724033042903
 30
0.0
 11
-103.4543058074697
 21
-116.1724033042903
 31
0.0
  0
LINE
  5
1BF
330
70
100
AcDbEntity
  8
Bemaßung
 62
     7
370
     9
100
AcDbLine
 10
-102.2917619188715
 20
-116.1443221931858
 30
0.0
 11
-103.6667133074167
 21
-116.1443221931858
 31
0.0
  0
LINE
  5
1C0
330
70
100
AcDbEntity
  8
Bemaßung
 62
     7
370
     9
100
AcDbLine
 10
-102.2917619188715
 20
-115.9768938598945
 30
0.0
 11
-102.3933971966238
 21
-115.9768938598945
 31
0.0
  0
LINE
  5
1C1
330
70
100
AcDbEntity
  8
Bemaßung
 62
     7
370
     9
100
AcDbLine
 10
-102.2917619188715
 20
-115.9768938598945
 30
0.0
 11
-102.3933971966238
 21
-115.9768938598945
 31
0.0
  0
LINE
  5
1C2
330
70
100
AcDbEntity
  8
Bemaßung
 62
     7
370
     9
100
AcDbLine
 10
-102.2917619188715
 20
-116.0047985821101
 30
0.0
 11
-102.605451918793
 21
-116.0047985821101
 31
0.0
  0
LINE
  5
1C3
330
70
100
AcDbEntity
  8
Bemaßung
 62
     7
370
     9
100
AcDbLine
 10
-102.2917619188715
 20
-116.0328796932138
 30
0.0
 11
-102.8178241409623
 21
-116.0328796932138
 31
0.0
  0
LINE
  5
1C4
330
70
100
AcDbEntity
  8
Bemaßung
 62
     7
370
     9
100
AcDbLine
 10
-102.2917619188715
 20
-116.0607844154294
 30
0.0
 11
-103.0298788631315
 21
-116.0607844154294
 31
0.0
  0
LINE
  5
1C5
330
70
100
AcDbEntity
  8
Bemaßung
 62
     7
370
     9
100
AcDbLine
 10
-102.2917619188715
 20
-116.0885127487554
 30
0.0
 11
-103.2422863630784
 21
-116.0885127487554
 31
0.0
  0
LINE
  5
1C6
330
70
100
AcDbEntity
  8
Bemaßung
 62
     7
370
     9
100
AcDbLine
 10
-102.2917619188715
 20
-116.1164174709709
 30
0.0
 11
-103.4543058074697
 21
-116.1164174709709
 31
0.0
  0
LINE
  5
1C7
330
70
100
AcDbEntity
  8
Bemaßung
 62
     7
370
     9
100
AcDbLine
 10
-102.2917619188715
 20
-116.1443221931858
 30
0.0
 11
-103.6667133074167
 21
-116.1443221931858
 31
0.0
  0
LWPOLYLINE
  5
1C8
330
70
100
AcDbEntity
  8
Bemaßung
 62
     7
370
     9
100
AcDbPolyline
 90
        4
 70
     0
 43
0.0
 10
-85.51693164528753
 20
-116.1443221931858
 10
-86.89167136716596
 20
-115.9632766376757
 10
-86.89167136716596
 20
-116.3253677486965
 10
-85.51693164528753
 20
-116.1443221931858
  0
LINE
  5
1C9
330
70
100
AcDbEntity
  8
Bemaßung
 62
     7
370
     9
100
AcDbLine
 10
-86.89167136716596
 20
-115.9768938598945
 30
0.0
 11
-86.7900360894137
 21
-115.9768938598945
 31
0.0
  0
LINE
  5
1CA
330
70
100
AcDbEntity
  8
Bemaßung
 62
     7
370
     9
100
AcDbLine
 10
-86.89167136716596
 20
-115.9768938598945
 30
0.0
 11
-86.7900360894137
 21
-115.9768938598945
 31
0.0
  0
LINE
  5
1CB
330
70
100
AcDbEntity
  8
Bemaßung
 62
     7
370
     9
100
AcDbLine
 10
-86.89167136716596
 20
-116.0047985821101
 30
0.0
 11
-86.5776638672446
 21
-116.0047985821101
 31
0.0
  0
LINE
  5
1CC
330
70
100
AcDbEntity
  8
Bemaßung
 62
     7
370
     9
100
AcDbLine
 10
-86.89167136716596
 20
-116.0328796932138
 30
0.0
 11
-86.36578553396402
 21
-116.0328796932138
 31
0.0
  0
LINE
  5
1CD
330
70
100
AcDbEntity
  8
Bemaßung
 62
     7
370
     9
100
AcDbLine
 10
-86.89167136716596
 20
-116.0607844154294
 30
0.0
 11
-86.15323692290605
 21
-116.0607844154294
 31
0.0
  0
LINE
  5
1CE
330
70
100
AcDbEntity
  8
Bemaßung
 62
     7
370
     9
100
AcDbLine
 10
-86.89167136716596
 20
-116.0885127487554
 30
0.0
 11
-85.94118220073688
 21
-116.0885127487554
 31
0.0
  0
LINE
  5
1CF
330
70
100
AcDbEntity
  8
Bemaßung
 62
     7
370
     9
100
AcDbLine
 10
-86.89167136716596
 20
-116.1164174709709
 30
0.0
 11
-85.72877470078998
 21
-116.1164174709709
 31
0.0
  0
LINE
  5
1D0
330
70
100
AcDbEntity
  8
Bemaßung
 62
     7
370
     9
100
AcDbLine
 10
-86.89167136716596
 20
-116.1443221931858
 30
0.0
 11
-85.51693164528753
 21
-116.1443221931858
 31
0.0
  0
LINE
  5
1D1
330
70
100
AcDbEntity
  8
Bemaßung
 62
     7
370
     9
100
AcDbLine
 10
-86.89167136716596
 20
-116.3121033042555
 30
0.0
 11
-86.7900360894137
 21
-116.3121033042555
 31
0.0
  0
LINE
  5
1D2
330
70
100
AcDbEntity
  8
Bemaßung
 62
     7
370
     9
100
AcDbLine
 10
-86.89167136716596
 20
-116.3121033042555
 30
0.0
 11
-86.7900360894137
 21
-116.3121033042555
 31
0.0
  0
LINE
  5
1D3
330
70
100
AcDbEntity
  8
Bemaßung
 62
     7
370
     9
100
AcDbLine
 10
-86.89167136716596
 20
-116.28419858204
 30
0.0
 11
-86.5776638672446
 21
-116.28419858204
 31
0.0
  0
LINE
  5
1D4
330
70
100
AcDbEntity
  8
Bemaßung
 62
     7
370
     9
100
AcDbLine
 10
-86.89167136716596
 20
-116.2564702487133
 30
0.0
 11
-86.36578553396402
 21
-116.2564702487133
 31
0.0
  0
LINE
  5
1D5
330
70
100
AcDbEntity
  8
Bemaßung
 62
     7
370
     9
100
AcDbLine
 10
-86.89167136716596
 20
-116.2283891376096
 30
0.0
 11
-86.15323692290605
 21
-116.2283891376096
 31
0.0
  0
LINE
  5
1D6
330
70
100
AcDbEntity
  8
Bemaßung
 62
     7
370
     9
100
AcDbLine
 10
-86.89167136716596
 20
-116.2003080265051
 30
0.0
 11
-85.94118220073688
 21
-116.2003080265051
 31
0.0
  0
LINE
  5
1D7
330
70
100
AcDbEntity
  8
Bemaßung
 62
     7
370
     9
100
AcDbLine
 10
-86.89167136716596
 20
-116.1724033042903
 30
0.0
 11
-85.72877470078998
 21
-116.1724033042903
 31
0.0
  0
LINE
  5
1D8
330
70
100
AcDbEntity
  8
Bemaßung
 62
     7
370
     9
100
AcDbLine
 10
-86.89167136716596
 20
-116.1443221931858
 30
0.0
 11
-85.51693164528753
 21
-116.1443221931858
 31
0.0
  0
LINE
  5
1D9
330
70
100
AcDbEntity
  8
Bemaßung
 62
     7
370
     9
100
AcDbLine
 10
-59.5457138740022
 20
-74.97131025903496
 30
0.0
 11
-59.54864192955749
 21
-62.76085998430987
 31
0.0
  0
LINE
  5
1DA
330
70
100
AcDbEntity
  8
Bemaßung
 62
     7
370
     9
100
AcDbLine
 10
-32.09035999197733
 20
-75.08155331456295
 30
0.0
 11
-32.07349721420366
 21
-62.77377165097313
 31
0.0
  0
LINE
  5
1DB
330
70
100
AcDbEntity
  8
Bemaßung
 62
     7
370
     9
100
AcDbLine
 10
-59.55294581844502
 20
-63.86071526181261
 30
0.0
 11
-32.07797749198072
 21
-63.87362692847618
 31
0.0
  0
LWPOLYLINE
  5
1DC
330
70
100
AcDbEntity
  8
Bemaßung
 62
     7
370
     9
100
AcDbPolyline
 90
        4
 70
     0
 43
0.0
 10
-59.55294581844502
 20
-63.86071526181261
 10
-58.17887637434394
 20
-64.04744053954376
 10
-58.17697137434442
 20
-63.68534942852327
 10
-59.55294581844502
 20
-63.86071526181261
  0
LINE
  5
1DD
330
70
100
AcDbEntity
  8
Bemaßung
 62
     7
370
     9
100
AcDbLine
 10
-58.17887637434394
 20
-64.03399970621387
 30
0.0
 11
-58.28051165209623
 21
-64.03329415065835
 31
0.0
  0
LINE
  5
1DE
330
70
100
AcDbEntity
  8
Bemaßung
 62
     7
370
     9
100
AcDbLine
 10
-58.17887637434394
 20
-64.03399970621387
 30
0.0
 11
-58.28051165209623
 21
-64.03329415065835
 31
0.0
  0
LINE
  5
1DF
330
70
100
AcDbEntity
  8
Bemaßung
 62
     7
370
     9
100
AcDbLine
 10
-58.17834720767795
 20
-64.00609498399834
 30
0.0
 11
-58.49238998537715
 21
-64.00471915066545
 31
0.0
  0
LINE
  5
1E0
330
70
100
AcDbEntity
  8
Bemaßung
 62
     7
370
     9
100
AcDbLine
 10
-58.17834720767795
 20
-63.97819026178311
 30
0.0
 11
-58.7044447075463
 21
-63.97575609511727
 31
0.0
  0
LINE
  5
1E1
330
70
100
AcDbEntity
  8
Bemaßung
 62
     7
370
     9
100
AcDbLine
 10
-58.17834720767795
 20
-63.95010915067901
 30
0.0
 11
-58.91664054082618
 21
-63.94718109512436
 31
0.0
  0
LINE
  5
1E2
330
70
100
AcDbEntity
  8
Bemaßung
 62
     7
370
     9
100
AcDbLine
 10
-58.17820609656658
 20
-63.9222044284638
 30
0.0
 11
-59.12887165188423
 21
-63.91839442846475
 31
0.0
  0
LINE
  5
1E3
330
70
100
AcDbEntity
  8
Bemaßung
 62
     7
370
     9
100
AcDbLine
 10
-58.17820609656658
 20
-63.89429970624857
 30
0.0
 11
-59.34106748516475
 21
-63.88964303958328
 31
0.0
  0
LINE
  5
1E4
330
70
100
AcDbEntity
  8
Bemaßung
 62
     7
370
     9
100
AcDbLine
 10
-58.17785331878882
 20
-63.86639498403336
 30
0.0
 11
-59.55294581844502
 21
-63.86071526181261
 31
0.0
  0
LINE
  5
1E5
330
70
100
AcDbEntity
  8
Bemaßung
 62
     7
370
     9
100
AcDbLine
 10
-58.17732415212218
 20
-63.69861387296428
 30
0.0
 11
-58.27913581876334
 21
-63.69826109518651
 31
0.0
  0
LINE
  5
1E6
330
70
100
AcDbEntity
  8
Bemaßung
 62
     7
370
     9
100
AcDbLine
 10
-58.17732415212218
 20
-63.69861387296428
 30
0.0
 11
-58.27913581876334
 21
-63.69826109518651
 31
0.0
  0
LINE
  5
1E7
330
70
100
AcDbEntity
  8
Bemaßung
 62
     7
370
     9
100
AcDbLine
 10
-58.17732415212218
 20
-63.72651859517949
 30
0.0
 11
-58.49133165204387
 21
-63.72549553962405
 31
0.0
  0
LINE
  5
1E8
330
70
100
AcDbEntity
  8
Bemaßung
 62
     7
370
     9
100
AcDbLine
 10
-58.17732415212218
 20
-63.75442331739471
 30
0.0
 11
-58.70338637421302
 21
-63.75251831739518
 31
0.0
  0
LINE
  5
1E9
330
70
100
AcDbEntity
  8
Bemaßung
 62
     7
370
     9
100
AcDbLine
 10
-58.17732415212218
 20
-63.78232803960994
 30
0.0
 11
-58.91611137416019
 21
-63.77957637294384
 31
0.0
  0
LINE
  5
1EA
330
70
100
AcDbEntity
  8
Bemaßung
 62
     7
370
     9
100
AcDbLine
 10
-58.17785331878882
 20
-63.81040915071404
 30
0.0
 11
-59.12834248521822
 21
-63.80659915071498
 31
0.0
  0
LINE
  5
1EB
330
70
100
AcDbEntity
  8
Bemaßung
 62
     7
370
     9
100
AcDbLine
 10
-58.17785331878882
 20
-63.83831387292925
 30
0.0
 11
-59.34057359627626
 21
-63.83365720626396
 31
0.0
  0
LINE
  5
1EC
330
70
100
AcDbEntity
  8
Bemaßung
 62
     7
370
     9
100
AcDbLine
 10
-58.17785331878882
 20
-63.86639498403336
 30
0.0
 11
-59.55294581844502
 21
-63.86071526181261
 31
0.0
  0
LWPOLYLINE
  5
1ED
330
70
100
AcDbEntity
  8
Bemaßung
 62
     7
370
     9
100
AcDbPolyline
 90
        4
 70
     0
 43
0.0
 10
-32.07797749198072
 20
-63.87362692847618
 10
-33.45239971385892
 20
-63.68725442852279
 10
-33.4537755471918
 20
-64.04899276176553
 10
-32.07797749198072
 20
-63.87362692847618
  0
LINE
  5
1EE
330
70
100
AcDbEntity
  8
Bemaßung
 62
     7
370
     9
100
AcDbLine
 10
-33.45239971385892
 20
-63.70034248407492
 30
0.0
 11
-33.35076443610664
 21
-63.70083637296372
 31
0.0
  0
LINE
  5
1EF
330
70
100
AcDbEntity
  8
Bemaßung
 62
     7
370
     9
100
AcDbLine
 10
-33.45239971385892
 20
-63.70034248407492
 30
0.0
 11
-33.35076443610664
 21
-63.70083637296372
 31
0.0
  0
LINE
  5
1F0
330
70
100
AcDbEntity
  8
Bemaßung
 62
     7
370
     9
100
AcDbLine
 10
-33.45239971385892
 20
-63.72824720629014
 30
0.0
 11
-33.13870971393747
 21
-63.7297994285119
 31
0.0
  0
LINE
  5
1F1
330
70
100
AcDbEntity
  8
Bemaßung
 62
     7
370
     9
100
AcDbLine
 10
-33.45239971385892
 20
-63.75632831739424
 30
0.0
 11
-32.92633749176872
 21
-63.75837442850481
 31
0.0
  0
LINE
  5
1F2
330
70
100
AcDbEntity
  8
Bemaßung
 62
     7
370
     9
100
AcDbLine
 10
-33.4525761027478
 20
-63.78423303960946
 30
0.0
 11
-32.71463554737668
 21
-63.78733748405331
 31
0.0
  0
LINE
  5
1F3
330
70
100
AcDbEntity
  8
Bemaßung
 62
     7
370
     9
100
AcDbLine
 10
-33.4525761027478
 20
-63.81213776182468
 30
0.0
 11
-32.50205165854087
 21
-63.81608887293477
 31
0.0
  0
LINE
  5
1F4
330
70
100
AcDbEntity
  8
Bemaßung
 62
     7
370
     9
100
AcDbLine
 10
-33.45306999163693
 20
-63.84004248403989
 30
0.0
 11
-32.29020860303876
 21
-63.84469915070551
 31
0.0
  0
LINE
  5
1F5
330
70
100
AcDbEntity
  8
Bemaßung
 62
     7
370
     9
100
AcDbLine
 10
-33.4537755471918
 20
-64.03586942843556
 30
0.0
 11
-33.35214026943952
 21
-64.03604581732444
 31
0.0
  0
LINE
  5
1F6
330
70
100
AcDbEntity
  8
Bemaßung
 62
     7
370
     9
100
AcDbLine
 10
-33.4537755471918
 20
-64.03586942843556
 30
0.0
 11
-33.35214026943952
 21
-64.03604581732444
 31
0.0
  0
LINE
  5
1F7
330
70
100
AcDbEntity
  8
Bemaßung
 62
     7
370
     9
100
AcDbLine
 10
-33.45342276941468
 20
-64.0078235951093
 30
0.0
 11
-33.13976804727076
 21
-64.00902303955331
 31
0.0
  0
LINE
  5
1F8
330
70
100
AcDbEntity
  8
Bemaßung
 62
     7
370
     9
100
AcDbLine
 10
-33.45342276941468
 20
-63.97991887289376
 30
0.0
 11
-32.92753693621272
 21
-63.98196498400465
 31
0.0
  0
LINE
  5
1F9
330
70
100
AcDbEntity
  8
Bemaßung
 62
     7
370
     9
100
AcDbLine
 10
-33.45342276941468
 20
-63.95201415067854
 30
0.0
 11
-32.7151294362658
 21
-63.95494220623351
 31
0.0
  0
LINE
  5
1FA
330
70
100
AcDbEntity
  8
Bemaßung
 62
     7
370
     9
100
AcDbLine
 10
-33.45342276941468
 20
-63.9240741506858
 30
0.0
 11
-32.5027572140964
 21
-63.92770776179597
 31
0.0
  0
LINE
  5
1FB
330
70
100
AcDbEntity
  8
Bemaßung
 62
     7
370
     9
100
AcDbLine
 10
-33.45306999163693
 20
-63.89616942847026
 30
0.0
 11
-32.29020860303876
 21
-63.90082609513587
 31
0.0
  0
LINE
  5
1FC
330
70
100
AcDbEntity
  8
Bemaßung
 62
     7
370
     9
100
AcDbLine
 10
-40.3401741565815
 20
-36.52611721309064
 30
0.0
 11
-19.96535249500854
 21
-36.53197332420027
 31
0.0
  0
LINE
  5
1FD
330
70
100
AcDbEntity
  8
Bemaßung
 62
     7
370
     9
100
AcDbLine
 10
-21.0652077725116
 20
-50.22708887633219
 30
0.0
 11
-21.0652077725116
 21
-36.53197332420027
 31
0.0
  0
LWPOLYLINE
  5
1FE
330
70
100
AcDbEntity
  8
Bemaßung
 62
     7
370
     9
100
AcDbPolyline
 90
        4
 70
     0
 43
0.0
 10
-21.0652077725116
 20
-50.22708887633219
 10
-20.88433860588975
 20
-48.85196109889815
 10
-21.24625332802169
 20
-48.85196109889815
 10
-21.0652077725116
 20
-50.22708887633219
  0
LINE
  5
1FF
330
70
100
AcDbEntity
  8
Bemaßung
 62
     7
370
     9
100
AcDbLine
 10
-20.8976030503314
 20
-48.85196109889815
 30
0.0
 11
-20.8976030503314
 21
-48.95377276553931
 31
0.0
  0
LINE
  5
200
330
70
100
AcDbEntity
  8
Bemaßung
 62
     7
370
     9
100
AcDbLine
 10
-20.8976030503314
 20
-48.85196109889815
 30
0.0
 11
-20.8976030503314
 21
-48.95377276553931
 31
0.0
  0
LINE
  5
201
330
70
100
AcDbEntity
  8
Bemaßung
 62
     7
370
     9
100
AcDbLine
 10
-20.9255077725463
 20
-48.85196109889815
 30
0.0
 11
-20.9255077725463
 21
-49.16618026548623
 31
0.0
  0
LINE
  5
202
330
70
100
AcDbEntity
  8
Bemaßung
 62
     7
370
     9
100
AcDbLine
 10
-20.95358888365072
 20
-48.85196109889815
 30
0.0
 11
-20.95358888365072
 21
-49.37819970987755
 31
0.0
  0
LINE
  5
203
330
70
100
AcDbEntity
  8
Bemaßung
 62
     7
370
     9
100
AcDbLine
 10
-20.98149360586562
 20
-48.85196109889815
 30
0.0
 11
-20.98149360586562
 21
-49.59043082093558
 31
0.0
  0
LINE
  5
204
330
70
100
AcDbEntity
  8
Bemaßung
 62
     7
370
     9
100
AcDbLine
 10
-21.00939832808116
 20
-48.85196109889815
 30
0.0
 11
-21.00939832808116
 21
-49.80266193199363
 31
0.0
  0
LINE
  5
205
330
70
100
AcDbEntity
  8
Bemaßung
 62
     7
370
     9
100
AcDbLine
 10
-21.03730305029606
 20
-48.85196109889815
 30
0.0
 11
-21.03730305029606
 21
-50.01503415416303
 31
0.0
  0
LINE
  5
206
330
70
100
AcDbEntity
  8
Bemaßung
 62
     7
370
     9
100
AcDbLine
 10
-21.0652077725116
 20
-48.85196109889815
 30
0.0
 11
-21.0652077725116
 21
-50.22708887633219
 31
0.0
  0
LINE
  5
207
330
70
100
AcDbEntity
  8
Bemaßung
 62
     7
370
     9
100
AcDbLine
 10
-21.23298888358068
 20
-48.85196109889815
 30
0.0
 11
-21.23298888358068
 21
-48.95377276553931
 31
0.0
  0
LINE
  5
208
330
70
100
AcDbEntity
  8
Bemaßung
 62
     7
370
     9
100
AcDbLine
 10
-21.23298888358068
 20
-48.85196109889815
 30
0.0
 11
-21.23298888358068
 21
-48.95377276553931
 31
0.0
  0
LINE
  5
209
330
70
100
AcDbEntity
  8
Bemaßung
 62
     7
370
     9
100
AcDbLine
 10
-21.20490777247626
 20
-48.85196109889815
 30
0.0
 11
-21.20490777247626
 21
-49.16618026548623
 31
0.0
  0
LINE
  5
20A
330
70
100
AcDbEntity
  8
Bemaßung
 62
     7
370
     9
100
AcDbLine
 10
-21.17700305026136
 20
-48.85196109889815
 30
0.0
 11
-21.17700305026136
 21
-49.37819970987755
 31
0.0
  0
LINE
  5
20B
330
70
100
AcDbEntity
  8
Bemaßung
 62
     7
370
     9
100
AcDbLine
 10
-21.14892193915693
 20
-48.85196109889815
 30
0.0
 11
-21.14892193915693
 21
-49.59043082093558
 31
0.0
  0
LINE
  5
20C
330
70
100
AcDbEntity
  8
Bemaßung
 62
     7
370
     9
100
AcDbLine
 10
-21.1213699947198
 20
-48.85196109889815
 30
0.0
 11
-21.1213699947198
 21
-49.80266193199363
 31
0.0
  0
LINE
  5
20D
330
70
100
AcDbEntity
  8
Bemaßung
 62
     7
370
     9
100
AcDbLine
 10
-21.09328888361538
 20
-48.85196109889815
 30
0.0
 11
-21.09328888361538
 21
-50.01503415416303
 31
0.0
  0
LINE
  5
20E
330
70
100
AcDbEntity
  8
Bemaßung
 62
     7
370
     9
100
AcDbLine
 10
-21.0652077725116
 20
-48.85196109889815
 30
0.0
 11
-21.0652077725116
 21
-50.22708887633219
 31
0.0
  0
LWPOLYLINE
  5
20F
330
70
100
AcDbEntity
  8
Bemaßung
 62
     7
370
     9
100
AcDbPolyline
 90
        4
 70
     0
 43
0.0
 10
-21.0652077725116
 20
-36.53197332420027
 10
-21.24625332802169
 20
-37.90706582385647
 10
-20.88433860588975
 20
-37.90706582385647
 10
-21.0652077725116
 20
-36.53197332420027
  0
LINE
  5
210
330
70
100
AcDbEntity
  8
Bemaßung
 62
     7
370
     9
100
AcDbLine
 10
-21.23298888358068
 20
-37.90706582385647
 30
0.0
 11
-21.23298888358068
 21
-37.80543054610419
 31
0.0
  0
LINE
  5
211
330
70
100
AcDbEntity
  8
Bemaßung
 62
     7
370
     9
100
AcDbLine
 10
-21.23298888358068
 20
-37.90706582385647
 30
0.0
 11
-21.23298888358068
 21
-37.80543054610419
 31
0.0
  0
LINE
  5
212
330
70
100
AcDbEntity
  8
Bemaßung
 62
     7
370
     9
100
AcDbLine
 10
-21.20490777247626
 20
-37.90706582385647
 30
0.0
 11
-21.20490777247626
 21
-37.59341110171287
 31
0.0
  0
LINE
  5
213
330
70
100
AcDbEntity
  8
Bemaßung
 62
     7
370
     9
100
AcDbLine
 10
-21.17700305026136
 20
-37.90706582385647
 30
0.0
 11
-21.17700305026136
 21
-37.38082721287707
 31
0.0
  0
LINE
  5
214
330
70
100
AcDbEntity
  8
Bemaßung
 62
     7
370
     9
100
AcDbLine
 10
-21.14892193915693
 20
-37.90706582385647
 30
0.0
 11
-21.14892193915693
 21
-37.16880776848543
 31
0.0
  0
LINE
  5
215
330
70
100
AcDbEntity
  8
Bemaßung
 62
     7
370
     9
100
AcDbLine
 10
-21.1213699947198
 20
-37.90706582385647
 30
0.0
 11
-21.1213699947198
 21
-36.95657665742738
 31
0.0
  0
LINE
  5
216
330
70
100
AcDbEntity
  8
Bemaßung
 62
     7
370
     9
100
AcDbLine
 10
-21.09328888361538
 20
-37.90706582385647
 30
0.0
 11
-21.09328888361538
 21
-36.74452193525823
 31
0.0
  0
LINE
  5
217
330
70
100
AcDbEntity
  8
Bemaßung
 62
     7
370
     9
100
AcDbLine
 10
-21.0652077725116
 20
-37.90706582385647
 30
0.0
 11
-21.0652077725116
 21
-36.53197332420027
 31
0.0
  0
LINE
  5
218
330
70
100
AcDbEntity
  8
Bemaßung
 62
     7
370
     9
100
AcDbLine
 10
-20.8976030503314
 20
-37.90706582385647
 30
0.0
 11
-20.8976030503314
 21
-37.80543054610419
 31
0.0
  0
LINE
  5
219
330
70
100
AcDbEntity
  8
Bemaßung
 62
     7
370
     9
100
AcDbLine
 10
-20.8976030503314
 20
-37.90706582385647
 30
0.0
 11
-20.8976030503314
 21
-37.80543054610419
 31
0.0
  0
LINE
  5
21A
330
70
100
AcDbEntity
  8
Bemaßung
 62
     7
370
     9
100
AcDbLine
 10
-20.9255077725463
 20
-37.90706582385647
 30
0.0
 11
-20.9255077725463
 21
-37.59341110171287
 31
0.0
  0
LINE
  5
21B
330
70
100
AcDbEntity
  8
Bemaßung
 62
     7
370
     9
100
AcDbLine
 10
-20.95358888365072
 20
-37.90706582385647
 30
0.0
 11
-20.95358888365072
 21
-37.38082721287707
 31
0.0
  0
LINE
  5
21C
330
70
100
AcDbEntity
  8
Bemaßung
 62
     7
370
     9
100
AcDbLine
 10
-20.98149360586562
 20
-37.90706582385647
 30
0.0
 11
-20.98149360586562
 21
-37.16880776848543
 31
0.0
  0
LINE
  5
21D
330
70
100
AcDbEntity
  8
Bemaßung
 62
     7
370
     9
100
AcDbLine
 10
-21.00939832808116
 20
-37.90706582385647
 30
0.0
 11
-21.00939832808116
 21
-36.95657665742738
 31
0.0
  0
LINE
  5
21E
330
70
100
AcDbEntity
  8
Bemaßung
 62
     7
370
     9
100
AcDbLine
 10
-21.03730305029606
 20
-37.90706582385647
 30
0.0
 11
-21.03730305029606
 21
-36.74452193525823
 31
0.0
  0
LINE
  5
21F
330
70
100
AcDbEntity
  8
Bemaßung
 62
     7
370
     9
100
AcDbLine
 10
-21.0652077725116
 20
-37.90706582385647
 30
0.0
 11
-21.0652077725116
 21
-36.53197332420027
 31
0.0
  0
LINE
  5
220
330
70
100
AcDbEntity
  8
Bemaßung
 62
     7
370
     9
100
AcDbLine
 10
-35.94043554657031
 20
-50.22123276522257
 30
0.0
 11
-19.96224805056501
 21
-50.22123276522257
 31
0.0
  0
LINE
  5
221
330
70
100
AcDbEntity
  8
Bemaßung
 62
     7
370
     9
100
AcDbLine
 10
-37.31521054622692
 20
-105.2211227514726
 30
0.0
 11
-19.96224805056501
 21
-105.2211227514726
 31
0.0
  0
LINE
  5
222
330
70
100
AcDbEntity
  8
Bemaßung
 62
     7
370
     9
100
AcDbLine
 10
-21.06227971695695
 20
-50.22123276522257
 30
0.0
 11
-21.06227971695695
 21
-105.2211227514726
 31
0.0
  0
LWPOLYLINE
  5
223
330
70
100
AcDbEntity
  8
Bemaßung
 62
     7
370
     9
100
AcDbPolyline
 90
        4
 70
     0
 43
0.0
 10
-21.06227971695695
 20
-50.22123276522257
 10
-21.24332527246703
 20
-51.5961488759899
 10
-20.88088138366845
 20
-51.5961488759899
 10
-21.06227971695695
 20
-50.22123276522257
  0
LINE
  5
224
330
70
100
AcDbEntity
  8
Bemaßung
 62
     7
370
     9
100
AcDbLine
 10
-21.22953166135939
 20
-51.5961488759899
 30
0.0
 11
-21.22953166135939
 21
-51.49454887601513
 31
0.0
  0
LINE
  5
225
330
70
100
AcDbEntity
  8
Bemaßung
 62
     7
370
     9
100
AcDbLine
 10
-21.22953166135939
 20
-51.5961488759899
 30
0.0
 11
-21.22953166135939
 21
-51.49454887601513
 31
0.0
  0
LINE
  5
226
330
70
100
AcDbEntity
  8
Bemaßung
 62
     7
370
     9
100
AcDbLine
 10
-21.20197971692161
 20
-51.5961488759899
 30
0.0
 11
-21.20197971692161
 21
-51.28231776495709
 31
0.0
  0
LINE
  5
227
330
70
100
AcDbEntity
  8
Bemaßung
 62
     7
370
     9
100
AcDbLine
 10
-21.17407499470671
 20
-51.5961488759899
 30
0.0
 11
-21.17407499470671
 21
-51.07008665389905
 31
0.0
  0
LINE
  5
228
330
70
100
AcDbEntity
  8
Bemaßung
 62
     7
370
     9
100
AcDbLine
 10
-21.14599388360229
 20
-51.5961488759899
 30
0.0
 11
-21.14599388360229
 21
-50.85806720950773
 31
0.0
  0
LINE
  5
229
330
70
100
AcDbEntity
  8
Bemaßung
 62
     7
370
     9
100
AcDbLine
 10
-21.11791277249851
 20
-51.5961488759899
 30
0.0
 11
-21.11791277249851
 21
-50.64565970956081
 31
0.0
  0
LINE
  5
22A
330
70
100
AcDbEntity
  8
Bemaßung
 62
     7
370
     9
100
AcDbLine
 10
-21.09000805028296
 20
-51.5961488759899
 30
0.0
 11
-21.09000805028296
 21
-50.43342859850277
 31
0.0
  0
LINE
  5
22B
330
70
100
AcDbEntity
  8
Bemaßung
 62
     7
370
     9
100
AcDbLine
 10
-21.06227971695695
 20
-51.5961488759899
 30
0.0
 11
-21.06227971695695
 21
-50.22123276522257
 31
0.0
  0
LINE
  5
22C
330
70
100
AcDbEntity
  8
Bemaßung
 62
     7
370
     9
100
AcDbLine
 10
-20.89467499477611
 20
-51.5961488759899
 30
0.0
 11
-20.89467499477611
 21
-51.49454887601513
 31
0.0
  0
LINE
  5
22D
330
70
100
AcDbEntity
  8
Bemaßung
 62
     7
370
     9
100
AcDbLine
 10
-20.89467499477611
 20
-51.5961488759899
 30
0.0
 11
-20.89467499477611
 21
-51.49454887601513
 31
0.0
  0
LINE
  5
22E
330
70
100
AcDbEntity
  8
Bemaßung
 62
     7
370
     9
100
AcDbLine
 10
-20.92222693921389
 20
-51.5961488759899
 30
0.0
 11
-20.92222693921389
 21
-51.28231776495709
 31
0.0
  0
LINE
  5
22F
330
70
100
AcDbEntity
  8
Bemaßung
 62
     7
370
     9
100
AcDbLine
 10
-20.95013166142943
 20
-51.5961488759899
 30
0.0
 11
-20.95013166142943
 21
-51.07008665389905
 31
0.0
  0
LINE
  5
230
330
70
100
AcDbEntity
  8
Bemaßung
 62
     7
370
     9
100
AcDbLine
 10
-20.9782127725332
 20
-51.5961488759899
 30
0.0
 11
-20.9782127725332
 21
-50.85806720950773
 31
0.0
  0
LINE
  5
231
330
70
100
AcDbEntity
  8
Bemaßung
 62
     7
370
     9
100
AcDbLine
 10
-21.00629388363763
 20
-51.5961488759899
 30
0.0
 11
-21.00629388363763
 21
-50.64565970956081
 31
0.0
  0
LINE
  5
232
330
70
100
AcDbEntity
  8
Bemaßung
 62
     7
370
     9
100
AcDbLine
 10
-21.03419860585253
 20
-51.5961488759899
 30
0.0
 11
-21.03419860585253
 21
-50.43342859850277
 31
0.0
  0
LINE
  5
233
330
70
100
AcDbEntity
  8
Bemaßung
 62
     7
370
     9
100
AcDbLine
 10
-21.06227971695695
 20
-51.5961488759899
 30
0.0
 11
-21.06227971695695
 21
-50.22123276522257
 31
0.0
  0
LWPOLYLINE
  5
234
330
70
100
AcDbEntity
  8
Bemaßung
 62
     7
370
     9
100
AcDbPolyline
 90
        4
 70
     0
 43
0.0
 10
-21.06227971695695
 20
-105.2211227514726
 10
-20.88088138366845
 20
-103.8462066407053
 10
-21.24332527246703
 20
-103.8462066407053
 10
-21.06227971695695
 20
-105.2211227514726
  0
LINE
  5
235
330
70
100
AcDbEntity
  8
Bemaßung
 62
     7
370
     9
100
AcDbLine
 10
-20.89467499477611
 20
-103.8462066407053
 30
0.0
 11
-20.89467499477611
 21
-103.9480183073465
 31
0.0
  0
LINE
  5
236
330
70
100
AcDbEntity
  8
Bemaßung
 62
     7
370
     9
100
AcDbLine
 10
-20.89467499477611
 20
-103.8462066407053
 30
0.0
 11
-20.89467499477611
 21
-103.9480183073465
 31
0.0
  0
LINE
  5
237
330
70
100
AcDbEntity
  8
Bemaßung
 62
     7
370
     9
100
AcDbLine
 10
-20.92222693921389
 20
-103.8462066407053
 30
0.0
 11
-20.92222693921389
 21
-104.1600377517375
 31
0.0
  0
LINE
  5
238
330
70
100
AcDbEntity
  8
Bemaßung
 62
     7
370
     9
100
AcDbLine
 10
-20.95013166142943
 20
-103.8462066407053
 30
0.0
 11
-20.95013166142943
 21
-104.3722688627955
 31
0.0
  0
LINE
  5
239
330
70
100
AcDbEntity
  8
Bemaßung
 62
     7
370
     9
100
AcDbLine
 10
-20.9782127725332
 20
-103.8462066407053
 30
0.0
 11
-20.9782127725332
 21
-104.5846410849649
 31
0.0
  0
LINE
  5
23A
330
70
100
AcDbEntity
  8
Bemaßung
 62
     7
370
     9
100
AcDbLine
 10
-21.00629388363763
 20
-103.8462066407053
 30
0.0
 11
-21.00629388363763
 21
-104.796872196023
 31
0.0
  0
LINE
  5
23B
330
70
100
AcDbEntity
  8
Bemaßung
 62
     7
370
     9
100
AcDbLine
 10
-21.03419860585253
 20
-103.8462066407053
 30
0.0
 11
-21.03419860585253
 21
-105.0092796959699
 31
0.0
  0
LINE
  5
23C
330
70
100
AcDbEntity
  8
Bemaßung
 62
     7
370
     9
100
AcDbLine
 10
-21.06227971695695
 20
-103.8462066407053
 30
0.0
 11
-21.06227971695695
 21
-105.2211227514726
 31
0.0
  0
LINE
  5
23D
330
70
100
AcDbEntity
  8
Bemaßung
 62
     7
370
     9
100
AcDbLine
 10
-21.22953166135939
 20
-103.8462066407053
 30
0.0
 11
-21.22953166135939
 21
-103.9480183073465
 31
0.0
  0
LINE
  5
23E
330
70
100
AcDbEntity
  8
Bemaßung
 62
     7
370
     9
100
AcDbLine
 10
-21.22953166135939
 20
-103.8462066407053
 30
0.0
 11
-21.22953166135939
 21
-103.9480183073465
 31
0.0
  0
LINE
  5
23F
330
70
100
AcDbEntity
  8
Bemaßung
 62
     7
370
     9
100
AcDbLine
 10
-21.20197971692161
 20
-103.8462066407053
 30
0.0
 11
-21.20197971692161
 21
-104.1600377517375
 31
0.0
  0
LINE
  5
240
330
70
100
AcDbEntity
  8
Bemaßung
 62
     7
370
     9
100
AcDbLine
 10
-21.17407499470671
 20
-103.8462066407053
 30
0.0
 11
-21.17407499470671
 21
-104.3722688627955
 31
0.0
  0
LINE
  5
241
330
70
100
AcDbEntity
  8
Bemaßung
 62
     7
370
     9
100
AcDbLine
 10
-21.14599388360229
 20
-103.8462066407053
 30
0.0
 11
-21.14599388360229
 21
-104.5846410849649
 31
0.0
  0
LINE
  5
242
330
70
100
AcDbEntity
  8
Bemaßung
 62
     7
370
     9
100
AcDbLine
 10
-21.11791277249851
 20
-103.8462066407053
 30
0.0
 11
-21.11791277249851
 21
-104.796872196023
 31
0.0
  0
LINE
  5
243
330
70
100
AcDbEntity
  8
Bemaßung
 62
     7
370
     9
100
AcDbLine
 10
-21.09000805028296
 20
-103.8462066407053
 30
0.0
 11
-21.09000805028296
 21
-105.0092796959699
 31
0.0
  0
LINE
  5
244
330
70
100
AcDbEntity
  8
Bemaßung
 62
     7
370
     9
100
AcDbLine
 10
-21.06227971695695
 20
-103.8462066407053
 30
0.0
 11
-21.06227971695695
 21
-105.2211227514726
 31
0.0
  0
LINE
  5
245
330
70
100
AcDbEntity
  8
Bemaßung
 62
     7
370
     9
100
AcDbLine
 10
-103.1165210853321
 20
-105.2211227514726
 30
0.0
 11
-111.319486361059
 21
-105.2211227514726
 31
0.0
  0
LINE
  5
246
330
70
100
AcDbEntity
  8
Bemaßung
 62
     7
370
     9
100
AcDbLine
 10
-100.0917338638658
 20
-85.42115247864487
 30
0.0
 11
-111.319486361059
 21
-85.42115247864487
 31
0.0
  0
LINE
  5
247
330
70
100
AcDbEntity
  8
Bemaßung
 62
     7
370
     9
100
AcDbLine
 10
-110.2192783057785
 20
-105.2211227514726
 30
0.0
 11
-110.2192783057785
 21
-85.42115247864487
 31
0.0
  0
LWPOLYLINE
  5
248
330
70
100
AcDbEntity
  8
Bemaßung
 62
     7
370
     9
100
AcDbPolyline
 90
        4
 70
     0
 43
0.0
 10
-110.2192783057785
 20
-105.2211227514726
 10
-110.0382327502681
 20
-103.8462066407053
 10
-110.4005002501775
 20
-103.8462066407053
 10
-110.2192783057785
 20
-105.2211227514726
  0
LINE
  5
249
330
70
100
AcDbEntity
  8
Bemaßung
 62
     7
370
     9
100
AcDbLine
 10
-110.0518499724869
 20
-103.8462066407053
 30
0.0
 11
-110.0518499724869
 21
-103.9480183073465
 31
0.0
  0
LINE
  5
24A
330
70
100
AcDbEntity
  8
Bemaßung
 62
     7
370
     9
100
AcDbLine
 10
-110.0518499724869
 20
-103.8462066407053
 30
0.0
 11
-110.0518499724869
 21
-103.9480183073465
 31
0.0
  0
LINE
  5
24B
330
70
100
AcDbEntity
  8
Bemaßung
 62
     7
370
     9
100
AcDbLine
 10
-110.0797546947021
 20
-103.8462066407053
 30
0.0
 11
-110.0797546947021
 21
-104.1600377517375
 31
0.0
  0
LINE
  5
24C
330
70
100
AcDbEntity
  8
Bemaßung
 62
     7
370
     9
100
AcDbLine
 10
-110.1076594169176
 20
-103.8462066407053
 30
0.0
 11
-110.1076594169176
 21
-104.3722688627955
 31
0.0
  0
LINE
  5
24D
330
70
100
AcDbEntity
  8
Bemaßung
 62
     7
370
     9
100
AcDbLine
 10
-110.1355641391329
 20
-103.8462066407053
 30
0.0
 11
-110.1355641391329
 21
-104.5846410849649
 31
0.0
  0
LINE
  5
24E
330
70
100
AcDbEntity
  8
Bemaßung
 62
     7
370
     9
100
AcDbLine
 10
-110.163645250237
 20
-103.8462066407053
 30
0.0
 11
-110.163645250237
 21
-104.796872196023
 31
0.0
  0
LINE
  5
24F
330
70
100
AcDbEntity
  8
Bemaßung
 62
     7
370
     9
100
AcDbLine
 10
-110.1915499724522
 20
-103.8462066407053
 30
0.0
 11
-110.1915499724522
 21
-105.0092796959699
 31
0.0
  0
LINE
  5
250
330
70
100
AcDbEntity
  8
Bemaßung
 62
     7
370
     9
100
AcDbLine
 10
-110.2192783057785
 20
-103.8462066407053
 30
0.0
 11
-110.2192783057785
 21
-105.2211227514726
 31
0.0
  0
LINE
  5
251
330
70
100
AcDbEntity
  8
Bemaßung
 62
     7
370
     9
100
AcDbLine
 10
-110.3868830279587
 20
-103.8462066407053
 30
0.0
 11
-110.3868830279587
 21
-103.9480183073465
 31
0.0
  0
LINE
  5
252
330
70
100
AcDbEntity
  8
Bemaßung
 62
     7
370
     9
100
AcDbLine
 10
-110.3868830279587
 20
-103.8462066407053
 30
0.0
 11
-110.3868830279587
 21
-103.9480183073465
 31
0.0
  0
LINE
  5
253
330
70
100
AcDbEntity
  8
Bemaßung
 62
     7
370
     9
100
AcDbLine
 10
-110.3589783057435
 20
-103.8462066407053
 30
0.0
 11
-110.3589783057435
 21
-104.1600377517375
 31
0.0
  0
LINE
  5
254
330
70
100
AcDbEntity
  8
Bemaßung
 62
     7
370
     9
100
AcDbLine
 10
-110.3310735835283
 20
-103.8462066407053
 30
0.0
 11
-110.3310735835283
 21
-104.3722688627955
 31
0.0
  0
LINE
  5
255
330
70
100
AcDbEntity
  8
Bemaßung
 62
     7
370
     9
100
AcDbLine
 10
-110.3031688613131
 20
-103.8462066407053
 30
0.0
 11
-110.3031688613131
 21
-104.5846410849649
 31
0.0
  0
LINE
  5
256
330
70
100
AcDbEntity
  8
Bemaßung
 62
     7
370
     9
100
AcDbLine
 10
-110.2752641390978
 20
-103.8462066407053
 30
0.0
 11
-110.2752641390978
 21
-104.796872196023
 31
0.0
  0
LINE
  5
257
330
70
100
AcDbEntity
  8
Bemaßung
 62
     7
370
     9
100
AcDbLine
 10
-110.2471830279937
 20
-103.8462066407053
 30
0.0
 11
-110.2471830279937
 21
-105.0092796959699
 31
0.0
  0
LINE
  5
258
330
70
100
AcDbEntity
  8
Bemaßung
 62
     7
370
     9
100
AcDbLine
 10
-110.2192783057785
 20
-103.8462066407053
 30
0.0
 11
-110.2192783057785
 21
-105.2211227514726
 31
0.0
  0
LWPOLYLINE
  5
259
330
70
100
AcDbEntity
  8
Bemaßung
 62
     7
370
     9
100
AcDbPolyline
 90
        4
 70
     0
 43
0.0
 10
-110.2192783057785
 20
-85.42115247864487
 10
-110.4005002501775
 20
-86.79624497830108
 10
-110.0382327502681
 20
-86.79624497830108
 10
-110.2192783057785
 20
-85.42115247864487
  0
LINE
  5
25A
330
70
100
AcDbEntity
  8
Bemaßung
 62
     7
370
     9
100
AcDbLine
 10
-110.3868830279587
 20
-86.79624497830108
 30
0.0
 11
-110.3868830279587
 21
-86.69460970054847
 31
0.0
  0
LINE
  5
25B
330
70
100
AcDbEntity
  8
Bemaßung
 62
     7
370
     9
100
AcDbLine
 10
-110.3868830279587
 20
-86.79624497830108
 30
0.0
 11
-110.3868830279587
 21
-86.69460970054847
 31
0.0
  0
LINE
  5
25C
330
70
100
AcDbEntity
  8
Bemaßung
 62
     7
370
     9
100
AcDbLine
 10
-110.3589783057435
 20
-86.79624497830108
 30
0.0
 11
-110.3589783057435
 21
-86.48259025615715
 31
0.0
  0
LINE
  5
25D
330
70
100
AcDbEntity
  8
Bemaßung
 62
     7
370
     9
100
AcDbLine
 10
-110.3310735835283
 20
-86.79624497830108
 30
0.0
 11
-110.3310735835283
 21
-86.27000636732134
 31
0.0
  0
LINE
  5
25E
330
70
100
AcDbEntity
  8
Bemaßung
 62
     7
370
     9
100
AcDbLine
 10
-110.3031688613131
 20
-86.79624497830108
 30
0.0
 11
-110.3031688613131
 21
-86.05795164515219
 31
0.0
  0
LINE
  5
25F
330
70
100
AcDbEntity
  8
Bemaßung
 62
     7
370
     9
100
AcDbLine
 10
-110.2752641390978
 20
-86.79624497830108
 30
0.0
 11
-110.2752641390978
 21
-85.84575581187198
 31
0.0
  0
LINE
  5
260
330
70
100
AcDbEntity
  8
Bemaßung
 62
     7
370
     9
100
AcDbLine
 10
-110.2471830279937
 20
-86.79624497830108
 30
0.0
 11
-110.2471830279937
 21
-85.63370108970282
 31
0.0
  0
LINE
  5
261
330
70
100
AcDbEntity
  8
Bemaßung
 62
     7
370
     9
100
AcDbLine
 10
-110.2192783057785
 20
-86.79624497830108
 30
0.0
 11
-110.2192783057785
 21
-85.42115247864487
 31
0.0
  0
LINE
  5
262
330
70
100
AcDbEntity
  8
Bemaßung
 62
     7
370
     9
100
AcDbLine
 10
-110.0518499724869
 20
-86.79624497830108
 30
0.0
 11
-110.0518499724869
 21
-86.69460970054847
 31
0.0
  0
LINE
  5
263
330
70
100
AcDbEntity
  8
Bemaßung
 62
     7
370
     9
100
AcDbLine
 10
-110.0518499724869
 20
-86.79624497830108
 30
0.0
 11
-110.0518499724869
 21
-86.69460970054847
 31
0.0
  0
LINE
  5
264
330
70
100
AcDbEntity
  8
Bemaßung
 62
     7
370
     9
100
AcDbLine
 10
-110.0797546947021
 20
-86.79624497830108
 30
0.0
 11
-110.0797546947021
 21
-86.48259025615715
 31
0.0
  0
LINE
  5
265
330
70
100
AcDbEntity
  8
Bemaßung
 62
     7
370
     9
100
AcDbLine
 10
-110.1076594169176
 20
-86.79624497830108
 30
0.0
 11
-110.1076594169176
 21
-86.27000636732134
 31
0.0
  0
LINE
  5
266
330
70
100
AcDbEntity
  8
Bemaßung
 62
     7
370
     9
100
AcDbLine
 10
-110.1355641391329
 20
-86.79624497830108
 30
0.0
 11
-110.1355641391329
 21
-86.05795164515219
 31
0.0
  0
LINE
  5
267
330
70
100
AcDbEntity
  8
Bemaßung
 62
     7
370
     9
100
AcDbLine
 10
-110.163645250237
 20
-86.79624497830108
 30
0.0
 11
-110.163645250237
 21
-85.84575581187198
 31
0.0
  0
LINE
  5
268
330
70
100
AcDbEntity
  8
Bemaßung
 62
     7
370
     9
100
AcDbLine
 10
-110.1915499724522
 20
-86.79624497830108
 30
0.0
 11
-110.1915499724522
 21
-85.63370108970282
 31
0.0
  0
LINE
  5
269
330
70
100
AcDbEntity
  8
Bemaßung
 62
     7
370
     9
100
AcDbLine
 10
-110.2192783057785
 20
-86.79624497830108
 30
0.0
 11
-110.2192783057785
 21
-85.42115247864487
 31
0.0
  0
LINE
  5
26A
330
70
100
AcDbEntity
  8
Bemaßung
 62
     7
370
     9
100
AcDbLine
 10
-100.0917338638658
 20
-105.2211227514726
 30
0.0
 11
-100.0917338638658
 21
-111.8262516387104
 31
0.0
  0
LINE
  5
26B
330
70
100
AcDbEntity
  8
Bemaßung
 62
     7
370
     9
100
AcDbLine
 10
-89.09173469994922
 20
-105.2211227514726
 30
0.0
 11
-89.09173469994922
 21
-111.8262516387104
 31
0.0
  0
LINE
  5
26C
330
70
100
AcDbEntity
  8
Bemaßung
 62
     7
370
     9
100
AcDbLine
 10
-89.09173469994922
 20
-110.7251969167633
 30
0.0
 11
-100.1266941416349
 21
-110.7251969167633
 31
0.0
  0
LWPOLYLINE
  5
26D
330
70
100
AcDbEntity
  8
Bemaßung
 62
     7
370
     9
100
AcDbPolyline
 90
        4
 70
     0
 43
0.0
 10
-100.0917338638658
 20
-110.7251969167633
 10
-98.71558303087663
 20
-110.9065952500511
 10
-98.71558303087663
 20
-110.5439749723637
 10
-100.0917338638658
 20
-110.7251969167633
  0
LINE
  5
26E
330
70
100
AcDbEntity
  8
Bemaßung
 62
     7
370
     9
100
AcDbLine
 10
-98.71558303087663
 20
-110.8928016389435
 30
0.0
 11
-98.81824136418437
 21
-110.8928016389435
 31
0.0
  0
LINE
  5
26F
330
70
100
AcDbEntity
  8
Bemaßung
 62
     7
370
     9
100
AcDbLine
 10
-98.71558303087663
 20
-110.8928016389435
 30
0.0
 11
-98.81824136418437
 21
-110.8928016389435
 31
0.0
  0
LINE
  5
270
330
70
100
AcDbEntity
  8
Bemaßung
 62
     7
370
     9
100
AcDbLine
 10
-98.71558303087663
 20
-110.864896916728
 30
0.0
 11
-99.03064886413128
 21
-110.864896916728
 31
0.0
  0
LINE
  5
271
330
70
100
AcDbEntity
  8
Bemaßung
 62
     7
370
     9
100
AcDbLine
 10
-98.71558303087663
 20
-110.8368158056242
 30
0.0
 11
-99.24252719741156
 21
-110.8368158056242
 31
0.0
  0
LINE
  5
272
330
70
100
AcDbEntity
  8
Bemaßung
 62
     7
370
     9
100
AcDbLine
 10
-98.71558303087663
 20
-110.8089110834086
 30
0.0
 11
-99.45507580846953
 21
-110.8089110834086
 31
0.0
  0
LINE
  5
273
330
70
100
AcDbEntity
  8
Bemaßung
 62
     7
370
     9
100
AcDbLine
 10
-98.71558303087663
 20
-110.7810063611937
 30
0.0
 11
-99.6671305306387
 21
-110.7810063611937
 31
0.0
  0
LINE
  5
274
330
70
100
AcDbEntity
  8
Bemaßung
 62
     7
370
     9
100
AcDbLine
 10
-98.71558303087663
 20
-110.7531016389782
 30
0.0
 11
-99.87950275280777
 21
-110.7531016389782
 31
0.0
  0
LINE
  5
275
330
70
100
AcDbEntity
  8
Bemaßung
 62
     7
370
     9
100
AcDbLine
 10
-98.71558303087663
 20
-110.7251969167633
 30
0.0
 11
-100.0917338638658
 21
-110.7251969167633
 31
0.0
  0
LINE
  5
276
330
70
100
AcDbEntity
  8
Bemaßung
 62
     7
370
     9
100
AcDbLine
 10
-98.71558303087663
 20
-110.5575921945831
 30
0.0
 11
-98.81824136418437
 21
-110.5575921945831
 31
0.0
  0
LINE
  5
277
330
70
100
AcDbEntity
  8
Bemaßung
 62
     7
370
     9
100
AcDbLine
 10
-98.71558303087663
 20
-110.5575921945831
 30
0.0
 11
-98.81824136418437
 21
-110.5575921945831
 31
0.0
  0
LINE
  5
278
330
70
100
AcDbEntity
  8
Bemaßung
 62
     7
370
     9
100
AcDbLine
 10
-98.71558303087663
 20
-110.5856733056869
 30
0.0
 11
-99.03064886413128
 21
-110.5856733056869
 31
0.0
  0
LINE
  5
279
330
70
100
AcDbEntity
  8
Bemaßung
 62
     7
370
     9
100
AcDbLine
 10
-98.71558303087663
 20
-110.6135780279024
 30
0.0
 11
-99.24252719741156
 21
-110.6135780279024
 31
0.0
  0
LINE
  5
27A
330
70
100
AcDbEntity
  8
Bemaßung
 62
     7
370
     9
100
AcDbLine
 10
-98.71558303087663
 20
-110.6414827501173
 30
0.0
 11
-99.45507580846953
 21
-110.6414827501173
 31
0.0
  0
LINE
  5
27B
330
70
100
AcDbEntity
  8
Bemaßung
 62
     7
370
     9
100
AcDbLine
 10
-98.71558303087663
 20
-110.6693874723329
 30
0.0
 11
-99.6671305306387
 21
-110.6693874723329
 31
0.0
  0
LINE
  5
27C
330
70
100
AcDbEntity
  8
Bemaßung
 62
     7
370
     9
100
AcDbLine
 10
-98.71558303087663
 20
-110.6972921945478
 30
0.0
 11
-99.87950275280777
 21
-110.6972921945478
 31
0.0
  0
LINE
  5
27D
330
70
100
AcDbEntity
  8
Bemaßung
 62
     7
370
     9
100
AcDbLine
 10
-98.71558303087663
 20
-110.7251969167633
 30
0.0
 11
-100.0917338638658
 21
-110.7251969167633
 31
0.0
  0
LWPOLYLINE
  5
27E
330
70
100
AcDbEntity
  8
Bemaßung
 62
     7
370
     9
100
AcDbPolyline
 90
        4
 70
     0
 43
0.0
 10
-89.09173469994922
 20
-110.7251969167633
 10
-90.46767386627198
 20
-110.5439749723637
 10
-90.46767386627198
 20
-110.9065952500511
 10
-89.09173469994922
 20
-110.7251969167633
  0
LINE
  5
27F
330
70
100
AcDbEntity
  8
Bemaßung
 62
     7
370
     9
100
AcDbLine
 10
-90.46767386627198
 20
-110.5575921945831
 30
0.0
 11
-90.36483914407538
 21
-110.5575921945831
 31
0.0
  0
LINE
  5
280
330
70
100
AcDbEntity
  8
Bemaßung
 62
     7
370
     9
100
AcDbLine
 10
-90.46767386627198
 20
-110.5575921945831
 30
0.0
 11
-90.36483914407538
 21
-110.5575921945831
 31
0.0
  0
LINE
  5
281
330
70
100
AcDbEntity
  8
Bemaßung
 62
     7
370
     9
100
AcDbLine
 10
-90.46767386627198
 20
-110.5856733056869
 30
0.0
 11
-90.15299608857294
 21
-110.5856733056869
 31
0.0
  0
LINE
  5
282
330
70
100
AcDbEntity
  8
Bemaßung
 62
     7
370
     9
100
AcDbLine
 10
-90.46767386627198
 20
-110.6135780279024
 30
0.0
 11
-89.94058858862601
 21
-110.6135780279024
 31
0.0
  0
LINE
  5
283
330
70
100
AcDbEntity
  8
Bemaßung
 62
     7
370
     9
100
AcDbLine
 10
-90.46767386627198
 20
-110.6414827501173
 30
0.0
 11
-89.72835747756796
 21
-110.6414827501173
 31
0.0
  0
LINE
  5
284
330
70
100
AcDbEntity
  8
Bemaßung
 62
     7
370
     9
100
AcDbLine
 10
-90.46767386627198
 20
-110.6693874723329
 30
0.0
 11
-89.51598525539889
 21
-110.6693874723329
 31
0.0
  0
LINE
  5
285
330
70
100
AcDbEntity
  8
Bemaßung
 62
     7
370
     9
100
AcDbLine
 10
-90.46767386627198
 20
-110.6972921945478
 30
0.0
 11
-89.30393053322973
 21
-110.6972921945478
 31
0.0
  0
LINE
  5
286
330
70
100
AcDbEntity
  8
Bemaßung
 62
     7
370
     9
100
AcDbLine
 10
-90.46767386627198
 20
-110.7251969167633
 30
0.0
 11
-89.09173469994922
 21
-110.7251969167633
 31
0.0
  0
LINE
  5
287
330
70
100
AcDbEntity
  8
Bemaßung
 62
     7
370
     9
100
AcDbLine
 10
-90.46767386627198
 20
-110.8928016389435
 30
0.0
 11
-90.36483914407538
 21
-110.8928016389435
 31
0.0
  0
LINE
  5
288
330
70
100
AcDbEntity
  8
Bemaßung
 62
     7
370
     9
100
AcDbLine
 10
-90.46767386627198
 20
-110.8928016389435
 30
0.0
 11
-90.36483914407538
 21
-110.8928016389435
 31
0.0
  0
LINE
  5
289
330
70
100
AcDbEntity
  8
Bemaßung
 62
     7
370
     9
100
AcDbLine
 10
-90.46767386627198
 20
-110.864896916728
 30
0.0
 11
-90.15299608857294
 21
-110.864896916728
 31
0.0
  0
LINE
  5
28A
330
70
100
AcDbEntity
  8
Bemaßung
 62
     7
370
     9
100
AcDbLine
 10
-90.46767386627198
 20
-110.8368158056242
 30
0.0
 11
-89.94058858862601
 21
-110.8368158056242
 31
0.0
  0
LINE
  5
28B
330
70
100
AcDbEntity
  8
Bemaßung
 62
     7
370
     9
100
AcDbLine
 10
-90.46767386627198
 20
-110.8089110834086
 30
0.0
 11
-89.72835747756796
 21
-110.8089110834086
 31
0.0
  0
LINE
  5
28C
330
70
100
AcDbEntity
  8
Bemaßung
 62
     7
370
     9
100
AcDbLine
 10
-90.46767386627198
 20
-110.7810063611937
 30
0.0
 11
-89.51598525539889
 21
-110.7810063611937
 31
0.0
  0
LINE
  5
28D
330
70
100
AcDbEntity
  8
Bemaßung
 62
     7
370
     9
100
AcDbLine
 10
-90.46767386627198
 20
-110.7531016389782
 30
0.0
 11
-89.30393053322973
 21
-110.7531016389782
 31
0.0
  0
LINE
  5
28E
330
70
100
AcDbEntity
  8
Bemaßung
 62
     7
370
     9
100
AcDbLine
 10
-90.46767386627198
 20
-110.7251969167633
 30
0.0
 11
-89.09173469994922
 21
-110.7251969167633
 31
0.0
  0
LINE
  5
28F
330
70
100
AcDbEntity
  8
Bemaßung
 62
     7
370
     9
100
AcDbLine
 10
-37.31521054622692
 20
-83.22126553475019
 30
0.0
 11
-25.63237471581411
 21
-83.22126553475019
 31
0.0
  0
LINE
  5
290
330
70
100
AcDbEntity
  8
Bemaßung
 62
     7
370
     9
100
AcDbLine
 10
-26.73272388220566
 20
-105.2211227514726
 30
0.0
 11
-26.73272388220566
 21
-83.22126553475019
 31
0.0
  0
LWPOLYLINE
  5
291
330
70
100
AcDbEntity
  8
Bemaßung
 62
     7
370
     9
100
AcDbPolyline
 90
        4
 70
     0
 43
0.0
 10
-26.73272388220566
 20
-105.2211227514726
 10
-26.55167832669557
 20
-103.8462066407053
 10
-26.91376943771575
 20
-103.8462066407053
 10
-26.73272388220566
 20
-105.2211227514726
  0
LINE
  5
292
330
70
100
AcDbEntity
  8
Bemaßung
 62
     7
370
     9
100
AcDbLine
 10
-26.56480166002521
 20
-103.8462066407053
 30
0.0
 11
-26.56480166002521
 21
-103.9480183073465
 31
0.0
  0
LINE
  5
293
330
70
100
AcDbEntity
  8
Bemaßung
 62
     7
370
     9
100
AcDbLine
 10
-26.56480166002521
 20
-103.8462066407053
 30
0.0
 11
-26.56480166002521
 21
-103.9480183073465
 31
0.0
  0
LINE
  5
294
330
70
100
AcDbEntity
  8
Bemaßung
 62
     7
370
     9
100
AcDbLine
 10
-26.59270638224076
 20
-103.8462066407053
 30
0.0
 11
-26.59270638224076
 21
-104.1600377517375
 31
0.0
  0
LINE
  5
295
330
70
100
AcDbEntity
  8
Bemaßung
 62
     7
370
     9
100
AcDbLine
 10
-26.62075221556702
 20
-103.8462066407053
 30
0.0
 11
-26.62075221556702
 21
-104.3722688627955
 31
0.0
  0
LINE
  5
296
330
70
100
AcDbEntity
  8
Bemaßung
 62
     7
370
     9
100
AcDbLine
 10
-26.64869221556007
 20
-103.8462066407053
 30
0.0
 11
-26.64869221556007
 21
-104.5846410849649
 31
0.0
  0
LINE
  5
297
330
70
100
AcDbEntity
  8
Bemaßung
 62
     7
370
     9
100
AcDbLine
 10
-26.67659693777562
 20
-103.8462066407053
 30
0.0
 11
-26.67659693777562
 21
-104.796872196023
 31
0.0
  0
LINE
  5
298
330
70
100
AcDbEntity
  8
Bemaßung
 62
     7
370
     9
100
AcDbLine
 10
-26.70464277110188
 20
-103.8462066407053
 30
0.0
 11
-26.70464277110188
 21
-105.0092796959699
 31
0.0
  0
LINE
  5
299
330
70
100
AcDbEntity
  8
Bemaßung
 62
     7
370
     9
100
AcDbLine
 10
-26.73272388220566
 20
-103.8462066407053
 30
0.0
 11
-26.73272388220566
 21
-105.2211227514726
 31
0.0
  0
LINE
  5
29A
330
70
100
AcDbEntity
  8
Bemaßung
 62
     7
370
     9
100
AcDbLine
 10
-26.90015221549697
 20
-103.8462066407053
 30
0.0
 11
-26.90015221549697
 21
-103.9480183073465
 31
0.0
  0
LINE
  5
29B
330
70
100
AcDbEntity
  8
Bemaßung
 62
     7
370
     9
100
AcDbLine
 10
-26.90015221549697
 20
-103.8462066407053
 30
0.0
 11
-26.90015221549697
 21
-103.9480183073465
 31
0.0
  0
LINE
  5
29C
330
70
100
AcDbEntity
  8
Bemaßung
 62
     7
370
     9
100
AcDbLine
 10
-26.87210638217071
 20
-103.8462066407053
 30
0.0
 11
-26.87210638217071
 21
-104.1600377517375
 31
0.0
  0
LINE
  5
29D
330
70
100
AcDbEntity
  8
Bemaßung
 62
     7
370
     9
100
AcDbLine
 10
-26.84420165995581
 20
-103.8462066407053
 30
0.0
 11
-26.84420165995581
 21
-104.3722688627955
 31
0.0
  0
LINE
  5
29E
330
70
100
AcDbEntity
  8
Bemaßung
 62
     7
370
     9
100
AcDbLine
 10
-26.81643804885164
 20
-103.8462066407053
 30
0.0
 11
-26.81643804885164
 21
-104.5846410849649
 31
0.0
  0
LINE
  5
29F
330
70
100
AcDbEntity
  8
Bemaßung
 62
     7
370
     9
100
AcDbLine
 10
-26.78853332663609
 20
-103.8462066407053
 30
0.0
 11
-26.78853332663609
 21
-104.796872196023
 31
0.0
  0
LINE
  5
2A0
330
70
100
AcDbEntity
  8
Bemaßung
 62
     7
370
     9
100
AcDbLine
 10
-26.76062860442119
 20
-103.8462066407053
 30
0.0
 11
-26.76062860442119
 21
-105.0092796959699
 31
0.0
  0
LINE
  5
2A1
330
70
100
AcDbEntity
  8
Bemaßung
 62
     7
370
     9
100
AcDbLine
 10
-26.73272388220566
 20
-103.8462066407053
 30
0.0
 11
-26.73272388220566
 21
-105.2211227514726
 31
0.0
  0
LWPOLYLINE
  5
2A2
330
70
100
AcDbEntity
  8
Bemaßung
 62
     7
370
     9
100
AcDbPolyline
 90
        4
 70
     0
 43
0.0
 10
-26.73272388220566
 20
-83.22126553475019
 10
-26.91376943771575
 20
-84.59639331218424
 10
-26.55167832669557
 20
-84.59639331218424
 10
-26.73272388220566
 20
-83.22126553475019
  0
LINE
  5
2A3
330
70
100
AcDbEntity
  8
Bemaßung
 62
     7
370
     9
100
AcDbLine
 10
-26.90015221549697
 20
-84.59639331218424
 30
0.0
 11
-26.90015221549697
 21
-84.49458164554306
 31
0.0
  0
LINE
  5
2A4
330
70
100
AcDbEntity
  8
Bemaßung
 62
     7
370
     9
100
AcDbLine
 10
-26.90015221549697
 20
-84.59639331218424
 30
0.0
 11
-26.90015221549697
 21
-84.49458164554306
 31
0.0
  0
LINE
  5
2A5
330
70
100
AcDbEntity
  8
Bemaßung
 62
     7
370
     9
100
AcDbLine
 10
-26.87210638217071
 20
-84.59639331218424
 30
0.0
 11
-26.87210638217071
 21
-84.28220942337398
 31
0.0
  0
LINE
  5
2A6
330
70
100
AcDbEntity
  8
Bemaßung
 62
     7
370
     9
100
AcDbLine
 10
-26.84420165995581
 20
-84.59639331218424
 30
0.0
 11
-26.84420165995581
 21
-84.07033109009338
 31
0.0
  0
LINE
  5
2A7
330
70
100
AcDbEntity
  8
Bemaßung
 62
     7
370
     9
100
AcDbLine
 10
-26.81643804885164
 20
-84.59639331218424
 30
0.0
 11
-26.81643804885164
 21
-83.85792359014677
 31
0.0
  0
LINE
  5
2A8
330
70
100
AcDbEntity
  8
Bemaßung
 62
     7
370
     9
100
AcDbLine
 10
-26.78853332663609
 20
-84.59639331218424
 30
0.0
 11
-26.78853332663609
 21
-83.64572775686626
 31
0.0
  0
LINE
  5
2A9
330
70
100
AcDbEntity
  8
Bemaßung
 62
     7
370
     9
100
AcDbLine
 10
-26.76062860442119
 20
-84.59639331218424
 30
0.0
 11
-26.76062860442119
 21
-83.43332025691934
 31
0.0
  0
LINE
  5
2AA
330
70
100
AcDbEntity
  8
Bemaßung
 62
     7
370
     9
100
AcDbLine
 10
-26.73272388220566
 20
-84.59639331218424
 30
0.0
 11
-26.73272388220566
 21
-83.22126553475019
 31
0.0
  0
LINE
  5
2AB
330
70
100
AcDbEntity
  8
Bemaßung
 62
     7
370
     9
100
AcDbLine
 10
-26.56480166002521
 20
-84.59639331218424
 30
0.0
 11
-26.56480166002521
 21
-84.49458164554306
 31
0.0
  0
LINE
  5
2AC
330
70
100
AcDbEntity
  8
Bemaßung
 62
     7
370
     9
100
AcDbLine
 10
-26.56480166002521
 20
-84.59639331218424
 30
0.0
 11
-26.56480166002521
 21
-84.49458164554306
 31
0.0
  0
LINE
  5
2AD
330
70
100
AcDbEntity
  8
Bemaßung
 62
     7
370
     9
100
AcDbLine
 10
-26.59270638224076
 20
-84.59639331218424
 30
0.0
 11
-26.59270638224076
 21
-84.28220942337398
 31
0.0
  0
LINE
  5
2AE
330
70
100
AcDbEntity
  8
Bemaßung
 62
     7
370
     9
100
AcDbLine
 10
-26.62075221556702
 20
-84.59639331218424
 30
0.0
 11
-26.62075221556702
 21
-84.07033109009338
 31
0.0
  0
LINE
  5
2AF
330
70
100
AcDbEntity
  8
Bemaßung
 62
     7
370
     9
100
AcDbLine
 10
-26.64869221556007
 20
-84.59639331218424
 30
0.0
 11
-26.64869221556007
 21
-83.85792359014677
 31
0.0
  0
LINE
  5
2B0
330
70
100
AcDbEntity
  8
Bemaßung
 62
     7
370
     9
100
AcDbLine
 10
-26.67659693777562
 20
-84.59639331218424
 30
0.0
 11
-26.67659693777562
 21
-83.64572775686626
 31
0.0
  0
LINE
  5
2B1
330
70
100
AcDbEntity
  8
Bemaßung
 62
     7
370
     9
100
AcDbLine
 10
-26.70464277110188
 20
-84.59639331218424
 30
0.0
 11
-26.70464277110188
 21
-83.43332025691934
 31
0.0
  0
LINE
  5
2B2
330
70
100
AcDbEntity
  8
Bemaßung
 62
     7
370
     9
100
AcDbLine
 10
-26.73272388220566
 20
-84.59639331218424
 30
0.0
 11
-26.73272388220566
 21
-83.22126553475019
 31
0.0
  0
MTEXT
  5
2B4
330
70
100
AcDbEntity
  8
Text
100
AcDbMText
 10
-99.04933740470816
 20
-63.17185463915496
 30
0.0
 40
0.2
 41
0.0
 46
0.0
 71
     7
 72
     1
  1
\C7;\FINDEX Univers 45 Light|b0|i0|c1;\H2.497667;\W1.000000;ø28,5
 73
     1
 44
1.0
  0
MTEXT
  5
2B5
330
70
100
AcDbEntity
  8
Text
100
AcDbMText
 10
-98.16093340644936
 20
-115.4631503346325
 30
0.0
 40
0.2
 41
0.0
 46
0.0
 71
     7
 72
     1
  1
\C7;\FINDEX Univers 45 Light|b0|i0|c1;\H2.497667;\W1.000000;ø33
 73
     1
 44
1.0
  0
MTEXT
  5
2B6
330
70
100
AcDbEntity
  8
Text
100
AcDbMText
 10
-48.5939569506125
 20
-62.83661582101654
 30
0.0
 40
0.2
 41
0.0
 46
0.0
 71
     7
 72
     1
  1
\C7;\FINDEX Univers 45 Light|b0|i0|c1;\H2.497662;\W0.999987;ø50
 11
0.999992968683656
 21
-0.0037500110997827
 31
0.0
 73
     1
 44
1.0
  0
MTEXT
  5
2B7
330
70
100
AcDbEntity
  8
Text
100
AcDbMText
 10
-21.74613172199402
 20
-45.70539278371254
 30
0.0
 40
0.2
 41
0.0
 46
0.0
 71
     7
 72
     1
  1
\C7;\FINDEX Univers 45 Light|b0|i0|c1;\H2.497667;\W1.000000;25
 11
0.0000000000000001
 21
1.0
 31
0.0
 73
     1
 44
1.0
  0
MTEXT
  5
2B8
330
70
100
AcDbEntity
  8
Text
100
AcDbMText
 10
-21.58145615779908
 20
-79.06166854577278
 30
0.0
 40
0.2
 41
0.0
 46
0.0
 71
     7
 72
     1
  1
\C7;\FINDEX Univers 45 Light|b0|i0|c1;\H2.497667;\W1.000000;100
 11
0.0000000000000001
 21
1.0
 31
0.0
 73
     1
 44
1.0
  0
MTEXT
  5
2B9
330
70
100
AcDbEntity
  8
Text
100
AcDbMText
 10
-110.9174329692324
 20
-97.35409204380385
 30
0.0
 40
0.2
 41
0.0
 46
0.0
 71
     7
 72
     1
  1
\C7;\FINDEX Univers 45 Light|b0|i0|c1;\H2.497667;\W1.000000;36
 11
0.0000000000000001
 21
1.0
 31
0.0
 73
     1
 44
1.0
  0
MTEXT
  5
2BA
330
70
100
AcDbEntity
  8
Text
100
AcDbMText
 10
-99.53345944777289
 20
-110.0349717606857
 30
0.0
 40
0.2
 41
0.0
 46
0.0
 71
     7
 72
     1
  1
\C7;\FINDEX Univers 45 Light|b0|i0|c1;\H2.497667;\W1.000000;ø20H5
 73
     1
 44
1.0
  0
MTEXT
  5
2BB
330
70
100
AcDbEntity
  8
Text
100
AcDbMText
 10
-27.47222492802778
 20
-95.75987410800449
 30
0.0
 40
0.2
 41
0.0
 46
0.0
 71
     7
 72
     1
  1
\C7;\FINDEX Univers 45 Light|b0|i0|c1;\H2.497667;\W1.000000;40
 11
0.0000000000000001
 21
1.0
 31
0.0
 73
     1
 44
1.0
  0
LINE
  5
2BC
330
70
100
AcDbEntity
  8
Text
 62
     7
370
     9
100
AcDbLine
 10
-68.96629266661205
 20
-105.2212168255471
 30
0.0
 11
-52.64498567252702
 21
-105.2212168255471
 31
0.0
  0
LINE
  5
2BD
330
70
100
AcDbEntity
  8
Text
 62
     7
370
     9
100
AcDbLine
 10
-68.96629266661141
 20
-91.49637571798107
 30
0.0
 11
-44.71714014992143
 21
-91.49637571798107
 31
0.0
  0
LINE
  5
2BE
330
70
100
AcDbEntity
  8
Text
 62
     7
370
     9
100
AcDbLine
 10
-67.55586951836441
 20
-105.2212168255471
 30
0.0
 11
-67.55586951836441
 21
-91.74637571780477
 31
0.0
  0
LWPOLYLINE
  5
2BF
330
70
100
AcDbEntity
  8
Text
 62
     7
370
     9
100
AcDbPolyline
 90
        4
 70
     0
 43
0.0
 10
-67.55586951836441
 20
-105.2212168255471
 10
-67.37484160174277
 20
-103.8463359925573
 10
-67.73689743498606
 20
-103.8463359925573
 10
-67.55586951836441
 20
-105.2212168255471
  0
LINE
  5
2C0
330
70
100
AcDbEntity
  8
Text
 62
     7
370
     9
100
AcDbLine
 10
-67.38803549062746
 20
-103.8463359925573
 30
0.0
 11
-67.38803549062746
 21
-103.9480065480877
 31
0.0
  0
LINE
  5
2C1
330
70
100
AcDbEntity
  8
Text
 62
     7
370
     9
100
AcDbLine
 10
-67.38803549062746
 20
-103.8463359925573
 30
0.0
 11
-67.38803549062746
 21
-103.9480065480877
 31
0.0
  0
LINE
  5
2C2
330
70
100
AcDbEntity
  8
Text
 62
     7
370
     9
100
AcDbLine
 10
-67.41597549062051
 20
-103.8463359925573
 30
0.0
 11
-67.41597549062051
 21
-104.160078909146
 31
0.0
  0
LINE
  5
2C3
330
70
100
AcDbEntity
  8
Text
 62
     7
370
     9
100
AcDbLine
 10
-67.44391549061358
 20
-103.8463359925573
 30
0.0
 11
-67.44391549061358
 21
-104.3723452979815
 31
0.0
  0
LINE
  5
2C4
330
70
100
AcDbEntity
  8
Text
 62
     7
370
     9
100
AcDbLine
 10
-67.47185549060663
 20
-103.8463359925573
 30
0.0
 11
-67.47185549060663
 21
-104.5846116868171
 31
0.0
  0
LINE
  5
2C5
330
70
100
AcDbEntity
  8
Text
 62
     7
370
     9
100
AcDbLine
 10
-67.49998951837766
 20
-103.8463359925573
 30
0.0
 11
-67.49998951837766
 21
-104.7968780756533
 31
0.0
  0
LINE
  5
2C6
330
70
100
AcDbEntity
  8
Text
 62
     7
370
     9
100
AcDbLine
 10
-67.52792951837071
 20
-103.8463359925573
 30
0.0
 11
-67.52792951837071
 21
-105.0089504367115
 31
0.0
  0
LINE
  5
2C7
330
70
100
AcDbEntity
  8
Text
 62
     7
370
     9
100
AcDbLine
 10
-67.55586951836441
 20
-103.8463359925573
 30
0.0
 11
-67.55586951836441
 21
-105.2212168255471
 31
0.0
  0
LINE
  5
2C8
330
70
100
AcDbEntity
  8
Text
 62
     7
370
     9
100
AcDbLine
 10
-67.72350951832213
 20
-103.8463359925573
 30
0.0
 11
-67.72350951832213
 21
-103.9480065480877
 31
0.0
  0
LINE
  5
2C9
330
70
100
AcDbEntity
  8
Text
 62
     7
370
     9
100
AcDbLine
 10
-67.72350951832213
 20
-103.8463359925573
 30
0.0
 11
-67.72350951832213
 21
-103.9480065480877
 31
0.0
  0
LINE
  5
2CA
330
70
100
AcDbEntity
  8
Text
 62
     7
370
     9
100
AcDbLine
 10
-67.69556951832908
 20
-103.8463359925573
 30
0.0
 11
-67.69556951832908
 21
-104.160078909146
 31
0.0
  0
LINE
  5
2CB
330
70
100
AcDbEntity
  8
Text
 62
     7
370
     9
100
AcDbLine
 10
-67.66762951833602
 20
-103.8463359925573
 30
0.0
 11
-67.66762951833602
 21
-104.3723452979815
 31
0.0
  0
LINE
  5
2CC
330
70
100
AcDbEntity
  8
Text
 62
     7
370
     9
100
AcDbLine
 10
-67.63968951834296
 20
-103.8463359925573
 30
0.0
 11
-67.63968951834296
 21
-104.5846116868171
 31
0.0
  0
LINE
  5
2CD
330
70
100
AcDbEntity
  8
Text
 62
     7
370
     9
100
AcDbLine
 10
-67.61174951834989
 20
-103.8463359925573
 30
0.0
 11
-67.61174951834989
 21
-104.7968780756533
 31
0.0
  0
LINE
  5
2CE
330
70
100
AcDbEntity
  8
Text
 62
     7
370
     9
100
AcDbLine
 10
-67.58380951835682
 20
-103.8463359925573
 30
0.0
 11
-67.58380951835682
 21
-105.0089504367115
 31
0.0
  0
LINE
  5
2CF
330
70
100
AcDbEntity
  8
Text
 62
     7
370
     9
100
AcDbLine
 10
-67.55586951836441
 20
-103.8463359925573
 30
0.0
 11
-67.55586951836441
 21
-105.2212168255471
 31
0.0
  0
LWPOLYLINE
  5
2D0
330
70
100
AcDbEntity
  8
Text
 62
     7
370
     9
100
AcDbPolyline
 90
        4
 70
     0
 43
0.0
 10
-67.55586951836441
 20
-91.49637571798107
 10
-67.73689743498606
 20
-92.87125655097087
 10
-67.37484160174277
 20
-92.87125655097087
 10
-67.55586951836441
 20
-91.49637571798107
  0
LINE
  5
2D1
330
70
100
AcDbEntity
  8
Text
 62
     7
370
     9
100
AcDbLine
 10
-67.72350951832213
 20
-92.87125655097087
 30
0.0
 11
-67.72350951832213
 21
-92.76958599544043
 31
0.0
  0
LINE
  5
2D2
330
70
100
AcDbEntity
  8
Text
 62
     7
370
     9
100
AcDbLine
 10
-67.72350951832213
 20
-92.87125655097087
 30
0.0
 11
-67.72350951832213
 21
-92.76958599544043
 31
0.0
  0
LINE
  5
2D3
330
70
100
AcDbEntity
  8
Text
 62
     7
370
     9
100
AcDbLine
 10
-67.69556951832908
 20
-92.87125655097087
 30
0.0
 11
-67.69556951832908
 21
-92.55751363438251
 31
0.0
  0
LINE
  5
2D4
330
70
100
AcDbEntity
  8
Text
 62
     7
370
     9
100
AcDbLine
 10
-67.66762951833602
 20
-92.87125655097087
 30
0.0
 11
-67.66762951833602
 21
-92.34524724554663
 31
0.0
  0
LINE
  5
2D5
330
70
100
AcDbEntity
  8
Text
 62
     7
370
     9
100
AcDbLine
 10
-67.63968951834296
 20
-92.87125655097087
 30
0.0
 11
-67.63968951834296
 21
-92.13298085671043
 31
0.0
  0
LINE
  5
2D6
330
70
100
AcDbEntity
  8
Text
 62
     7
370
     9
100
AcDbLine
 10
-67.61174951834989
 20
-92.87125655097087
 30
0.0
 11
-67.61174951834989
 21
-91.92071446787487
 31
0.0
  0
LINE
  5
2D7
330
70
100
AcDbEntity
  8
Text
 62
     7
370
     9
100
AcDbLine
 10
-67.58380951835682
 20
-92.87125655097087
 30
0.0
 11
-67.58380951835682
 21
-91.70864210681695
 31
0.0
  0
LINE
  5
2D8
330
70
100
AcDbEntity
  8
Text
 62
     7
370
     9
100
AcDbLine
 10
-67.55586951836441
 20
-92.87125655097087
 30
0.0
 11
-67.55586951836441
 21
-91.49637571798107
 31
0.0
  0
LINE
  5
2D9
330
70
100
AcDbEntity
  8
Text
 62
     7
370
     9
100
AcDbLine
 10
-67.38803549062746
 20
-92.87125655097087
 30
0.0
 11
-67.38803549062746
 21
-92.76958599544043
 31
0.0
  0
LINE
  5
2DA
330
70
100
AcDbEntity
  8
Text
 62
     7
370
     9
100
AcDbLine
 10
-67.38803549062746
 20
-92.87125655097087
 30
0.0
 11
-67.38803549062746
 21
-92.76958599544043
 31
0.0
  0
LINE
  5
2DB
330
70
100
AcDbEntity
  8
Text
 62
     7
370
     9
100
AcDbLine
 10
-67.41597549062051
 20
-92.87125655097087
 30
0.0
 11
-67.41597549062051
 21
-92.55751363438251
 31
0.0
  0
LINE
  5
2DC
330
70
100
AcDbEntity
  8
Text
 62
     7
370
     9
100
AcDbLine
 10
-67.44391549061358
 20
-92.87125655097087
 30
0.0
 11
-67.44391549061358
 21
-92.34524724554663
 31
0.0
  0
LINE
  5
2DD
330
70
100
AcDbEntity
  8
Text
 62
     7
370
     9
100
AcDbLine
 10
-67.47185549060663
 20
-92.87125655097087
 30
0.0
 11
-67.47185549060663
 21
-92.13298085671043
 31
0.0
  0
LINE
  5
2DE
330
70
100
AcDbEntity
  8
Text
 62
     7
370
     9
100
AcDbLine
 10
-67.49998951837766
 20
-92.87125655097087
 30
0.0
 11
-67.49998951837766
 21
-91.92071446787487
 31
0.0
  0
LINE
  5
2DF
330
70
100
AcDbEntity
  8
Text
 62
     7
370
     9
100
AcDbLine
 10
-67.52792951837071
 20
-92.87125655097087
 30
0.0
 11
-67.52792951837071
 21
-91.70864210681695
 31
0.0
  0
LINE
  5
2E0
330
70
100
AcDbEntity
  8
Text
 62
     7
370
     9
100
AcDbLine
 10
-67.55586951836441
 20
-92.87125655097087
 30
0.0
 11
-67.55586951836441
 21
-91.49637571798107
 31
0.0
  0
LINE
  5
2E1
330
70
100
AcDbEntity
  8
Text
 62
     7
370
     9
100
AcDbLine
 10
-61.95160327766479
 20
-101.3962550210616
 30
0.0
 11
-44.21943661086746
 21
-101.3962550210616
 31
0.0
  0
LINE
  5
2E2
330
70
100
AcDbEntity
  8
Text
 62
     7
370
     9
100
AcDbLine
 10
-61.01561574521018
 20
-91.49637571798107
 30
0.0
 11
-61.01561574521018
 21
-101.3962550210616
 31
0.0
  0
LWPOLYLINE
  5
2E3
330
70
100
AcDbEntity
  8
Text
 62
     7
370
     9
100
AcDbPolyline
 90
        4
 70
     0
 43
0.0
 10
-61.01561574521018
 20
-91.49637571798107
 10
-61.19664366183119
 20
-92.87125655097087
 10
-60.83458782858918
 20
-92.87125655097087
 10
-61.01561574521018
 20
-91.49637571798107
  0
LINE
  5
2E4
330
70
100
AcDbEntity
  8
Text
 62
     7
370
     9
100
AcDbLine
 10
-61.1834497729465
 20
-92.87125655097087
 30
0.0
 11
-61.1834497729465
 21
-92.76958599544043
 31
0.0
  0
LINE
  5
2E5
330
70
100
AcDbEntity
  8
Text
 62
     7
370
     9
100
AcDbLine
 10
-61.1834497729465
 20
-92.87125655097087
 30
0.0
 11
-61.1834497729465
 21
-92.76958599544043
 31
0.0
  0
LINE
  5
2E6
330
70
100
AcDbEntity
  8
Text
 62
     7
370
     9
100
AcDbLine
 10
-61.15531574517548
 20
-92.87125655097087
 30
0.0
 11
-61.15531574517548
 21
-92.55751363438251
 31
0.0
  0
LINE
  5
2E7
330
70
100
AcDbEntity
  8
Text
 62
     7
370
     9
100
AcDbLine
 10
-61.12737574518242
 20
-92.87125655097087
 30
0.0
 11
-61.12737574518242
 21
-92.34524724554663
 31
0.0
  0
LINE
  5
2E8
330
70
100
AcDbEntity
  8
Text
 62
     7
370
     9
100
AcDbLine
 10
-61.09943574518936
 20
-92.87125655097087
 30
0.0
 11
-61.09943574518936
 21
-92.13298085671043
 31
0.0
  0
LINE
  5
2E9
330
70
100
AcDbEntity
  8
Text
 62
     7
370
     9
100
AcDbLine
 10
-61.07149574519631
 20
-92.87125655097087
 30
0.0
 11
-61.07149574519631
 21
-91.92071446787487
 31
0.0
  0
LINE
  5
2EA
330
70
100
AcDbEntity
  8
Text
 62
     7
370
     9
100
AcDbLine
 10
-61.04355574520324
 20
-92.87125655097087
 30
0.0
 11
-61.04355574520324
 21
-91.70864210681695
 31
0.0
  0
LINE
  5
2EB
330
70
100
AcDbEntity
  8
Text
 62
     7
370
     9
100
AcDbLine
 10
-61.01561574521018
 20
-92.87125655097087
 30
0.0
 11
-61.01561574521018
 21
-91.49637571798107
 31
0.0
  0
LINE
  5
2EC
330
70
100
AcDbEntity
  8
Text
 62
     7
370
     9
100
AcDbLine
 10
-60.84816977302978
 20
-92.87125655097087
 30
0.0
 11
-60.84816977302978
 21
-92.76958599544043
 31
0.0
  0
LINE
  5
2ED
330
70
100
AcDbEntity
  8
Text
 62
     7
370
     9
100
AcDbLine
 10
-60.84816977302978
 20
-92.87125655097087
 30
0.0
 11
-60.84816977302978
 21
-92.76958599544043
 31
0.0
  0
LINE
  5
2EE
330
70
100
AcDbEntity
  8
Text
 62
     7
370
     9
100
AcDbLine
 10
-60.87610977302285
 20
-92.87125655097087
 30
0.0
 11
-60.87610977302285
 21
-92.55751363438251
 31
0.0
  0
LINE
  5
2EF
330
70
100
AcDbEntity
  8
Text
 62
     7
370
     9
100
AcDbLine
 10
-60.90385574523795
 20
-92.87125655097087
 30
0.0
 11
-60.90385574523795
 21
-92.34524724554663
 31
0.0
  0
LINE
  5
2F0
330
70
100
AcDbEntity
  8
Text
 62
     7
370
     9
100
AcDbLine
 10
-60.93179574523101
 20
-92.87125655097087
 30
0.0
 11
-60.93179574523101
 21
-92.13298085671043
 31
0.0
  0
LINE
  5
2F1
330
70
100
AcDbEntity
  8
Text
 62
     7
370
     9
100
AcDbLine
 10
-60.95973574522407
 20
-92.87125655097087
 30
0.0
 11
-60.95973574522407
 21
-91.92071446787487
 31
0.0
  0
LINE
  5
2F2
330
70
100
AcDbEntity
  8
Text
 62
     7
370
     9
100
AcDbLine
 10
-60.98767574521712
 20
-92.87125655097087
 30
0.0
 11
-60.98767574521712
 21
-91.70864210681695
 31
0.0
  0
LINE
  5
2F3
330
70
100
AcDbEntity
  8
Text
 62
     7
370
     9
100
AcDbLine
 10
-61.01561574521018
 20
-92.87125655097087
 30
0.0
 11
-61.01561574521018
 21
-91.49637571798107
 31
0.0
  0
LWPOLYLINE
  5
2F4
330
70
100
AcDbEntity
  8
Text
 62
     7
370
     9
100
AcDbPolyline
 90
        4
 70
     0
 43
0.0
 10
-61.01561574521018
 20
-101.3962550210616
 10
-60.83458782858918
 20
-100.0211801602945
 10
-61.19664366183119
 20
-100.0211801602945
 10
-61.01561574521018
 20
-101.3962550210616
  0
LINE
  5
2F5
330
70
100
AcDbEntity
  8
Text
 62
     7
370
     9
100
AcDbLine
 10
-60.84816977302978
 20
-100.0211801602945
 30
0.0
 11
-60.84816977302978
 21
-100.1228507158246
 31
0.0
  0
LINE
  5
2F6
330
70
100
AcDbEntity
  8
Text
 62
     7
370
     9
100
AcDbLine
 10
-60.84816977302978
 20
-100.0211801602945
 30
0.0
 11
-60.84816977302978
 21
-100.1228507158246
 31
0.0
  0
LINE
  5
2F7
330
70
100
AcDbEntity
  8
Text
 62
     7
370
     9
100
AcDbLine
 10
-60.87610977302285
 20
-100.0211801602945
 30
0.0
 11
-60.87610977302285
 21
-100.3351171046601
 31
0.0
  0
LINE
  5
2F8
330
70
100
AcDbEntity
  8
Text
 62
     7
370
     9
100
AcDbLine
 10
-60.90385574523795
 20
-100.0211801602945
 30
0.0
 11
-60.90385574523795
 21
-100.5473834934957
 31
0.0
  0
LINE
  5
2F9
330
70
100
AcDbEntity
  8
Text
 62
     7
370
     9
100
AcDbLine
 10
-60.93179574523101
 20
-100.0211801602945
 30
0.0
 11
-60.93179574523101
 21
-100.7594558545543
 31
0.0
  0
LINE
  5
2FA
330
70
100
AcDbEntity
  8
Text
 62
     7
370
     9
100
AcDbLine
 10
-60.95973574522407
 20
-100.0211801602945
 30
0.0
 11
-60.95973574522407
 21
-100.9717222433901
 31
0.0
  0
LINE
  5
2FB
330
70
100
AcDbEntity
  8
Text
 62
     7
370
     9
100
AcDbLine
 10
-60.98767574521712
 20
-100.0211801602945
 30
0.0
 11
-60.98767574521712
 21
-101.1839886322257
 31
0.0
  0
LINE
  5
2FC
330
70
100
AcDbEntity
  8
Text
 62
     7
370
     9
100
AcDbLine
 10
-61.01561574521018
 20
-100.0211801602945
 30
0.0
 11
-61.01561574521018
 21
-101.3962550210616
 31
0.0
  0
LINE
  5
2FD
330
70
100
AcDbEntity
  8
Text
 62
     7
370
     9
100
AcDbLine
 10
-61.1834497729465
 20
-100.0211801602945
 30
0.0
 11
-61.1834497729465
 21
-100.1228507158246
 31
0.0
  0
LINE
  5
2FE
330
70
100
AcDbEntity
  8
Text
 62
     7
370
     9
100
AcDbLine
 10
-61.1834497729465
 20
-100.0211801602945
 30
0.0
 11
-61.1834497729465
 21
-100.1228507158246
 31
0.0
  0
LINE
  5
2FF
330
70
100
AcDbEntity
  8
Text
 62
     7
370
     9
100
AcDbLine
 10
-61.15531574517548
 20
-100.0211801602945
 30
0.0
 11
-61.15531574517548
 21
-100.3351171046601
 31
0.0
  0
LINE
  5
300
330
70
100
AcDbEntity
  8
Text
 62
     7
370
     9
100
AcDbLine
 10
-61.12737574518242
 20
-100.0211801602945
 30
0.0
 11
-61.12737574518242
 21
-100.5473834934957
 31
0.0
  0
LINE
  5
301
330
70
100
AcDbEntity
  8
Text
 62
     7
370
     9
100
AcDbLine
 10
-61.09943574518936
 20
-100.0211801602945
 30
0.0
 11
-61.09943574518936
 21
-100.7594558545543
 31
0.0
  0
LINE
  5
302
330
70
100
AcDbEntity
  8
Text
 62
     7
370
     9
100
AcDbLine
 10
-61.07149574519631
 20
-100.0211801602945
 30
0.0
 11
-61.07149574519631
 21
-100.9717222433901
 31
0.0
  0
LINE
  5
303
330
70
100
AcDbEntity
  8
Text
 62
     7
370
     9
100
AcDbLine
 10
-61.04355574520324
 20
-100.0211801602945
 30
0.0
 11
-61.04355574520324
 21
-101.1839886322257
 31
0.0
  0
LINE
  5
304
330
70
100
AcDbEntity
  8
Text
 62
     7
370
     9
100
AcDbLine
 10
-61.01561574521018
 20
-100.0211801602945
 30
0.0
 11
-61.01561574521018
 21
-101.3962550210616
 31
0.0
  0
MTEXT
  5
305
330
70
100
AcDbEntity
  8
Text
100
AcDbMText
 10
-68.20135626677331
 20
-100.3790150709339
 30
0.0
 40
0.2
 41
0.0
 46
0.0
 71
     7
 72
     1
  1
\C7;\FINDEX Univers 45 Light|b0|i0|c1;\H2.497667;\W1.000000;25
 11
0.0000000000000001
 21
1.0
 31
0.0
 73
     1
 44
1.0
  0
MTEXT
  5
306
330
70
100
AcDbEntity
  8
Text
100
AcDbMText
 10
-61.66113451369849
 20
-98.92713340829232
 30
0.0
 40
0.2
 41
0.0
 46
0.0
 71
     7
 72
     1
  1
\C7;\FINDEX Univers 45 Light|b0|i0|c1;\H2.497667;\W1.000000;18
 11
0.0000000000000001
 21
1.0
 31
0.0
 73
     1
 44
1.0
  0
ENDSEC
  0
SECTION
  2
OBJECTS
  0
DICTIONARY
  5
C
330
0
100
AcDbDictionary
281
     1
  3
ACAD_COLOR
350
63
  3
ACAD_DETAILVIEWSTYLE
350
6A
  3
ACAD_GROUP
350
D
  3
ACAD_LAYOUT
350
62
  3
ACAD_MATERIAL
350
10
  3
ACAD_MLEADERSTYLE
350
66
  3
ACAD_MLINESTYLE
350
5F
  3
ACAD_PLOTSETTINGS
350
61
  3
ACAD_PLOTSTYLENAME
350
E
  3
ACAD_SCALELIST
350
42
  3
ACAD_SECTIONVIEWSTYLE
350
68
  3
ACAD_TABLESTYLE
350
64
  3
ACAD_VISUALSTYLE
350
29
  3
ACDB_RECOMPOSE_DATA
350
30F
  3
AcDbVariableDictionary
350
307
  0
DICTIONARY
  5
63
102
{ACAD_REACTORS
330
C
102
}
330
C
100
AcDbDictionary
281
     1
  0
DICTIONARY
  5
6A
102
{ACAD_REACTORS
330
C
102
}
330
C
100
AcDbDictionary
281
     1
  3
Imperial24
350
6B
  0
DICTIONARY
  5
D
102
{ACAD_REACTORS
330
C
102
}
330
C
100
AcDbDictionary
281
     1
  0
DICTIONARY
  5
62
102
{ACAD_REACTORS
330
C
102
}
330
C
100
AcDbDictionary
281
     1
  3
Layout1
350
6F
  3
Layout2
350
77
  3
Model
350
73
  0
DICTIONARY
  5
10
102
{ACAD_REACTORS
330
C
102
}
330
C
100
AcDbDictionary
281
     1
  3
ByBlock
350
19
  3
ByLayer
350
11
  3
Global
350
21
  0
DICTIONARY
  5
66
102
{ACAD_REACTORS
330
C
102
}
330
C
100
AcDbDictionary
281
     1
  3
Standard
350
67
  0
DICTIONARY
  5
5F
102
{ACAD_REACTORS
330
C
102
}
330
C
100
AcDbDictionary
281
     1
  3
Standard
350
60
  0
DICTIONARY
  5
61
102
{ACAD_REACTORS
330
C
102
}
330
C
100
AcDbDictionary
281
     1
  0
ACDBDICTIONARYWDFLT
  5
E
102
{ACAD_REACTORS
330
C
102
}
330
C
100
AcDbDictionary
281
     1
  3
Normal
350
F
100
AcDbDictionaryWithDefault
340
F
  0
DICTIONARY
  5
42
102
{ACAD_REACTORS
330
C
102
}
330
C
100
AcDbDictionary
281
     1
  3
A0
350
43
  3
A1
350
44
  3
A2
350
45
  3
A3
350
46
  3
A4
350
47
  3
A5
350
48
  3
A6
350
49
  3
A7
350
4A
  3
A8
350
4B
  3
A9
350
4C
  3
B0
350
4D
  3
B1
350
4E
  3
B2
350
4F
  3
B3
350
50
  3
B4
350
51
  3
B5
350
52
  3
B6
350
53
  0
DICTIONARY
  5
68
102
{ACAD_REACTORS
330
C
102
}
330
C
100
AcDbDictionary
281
     1
  3
Imperial24
350
69
  0
DICTIONARY
  5
64
102
{ACAD_REACTORS
330
C
102
}
330
C
100
AcDbDictionary
281
     1
  3
Standard
350
65
  0
DICTIONARY
  5
29
102
{ACAD_REACTORS
330
C
102
}
330
C
100
AcDbDictionary
281
     1
  3
2dWireframe
350
2F
  3
Basic
350
2E
  3
Brighten
350
35
  3
ColorChange
350
39
  3
Conceptual
350
32
  3
Dim
350
34
  3
EdgeColorOff
350
41
  3
Facepattern
350
38
  3
Flat
350
2A
  3
FlatWithEdges
350
2B
  3
Gouraud
350
2C
  3
GouraudWithEdges
350
2D
  3
Hidden
350
31
  3
JitterOff
350
3F
  3
Linepattern
350
37
  3
OverhangOff
350
40
  3
Realistic
350
33
  3
Shaded
350
3E
  3
Shaded with edges
350
3D
  3
Shades of Gray
350
3A
  3
Sketchy
350
3B
  3
Thicken
350
36
  3
Wireframe
350
30
  3
X-Ray
350
3C
  0
XRECORD
  5
30F
102
{ACAD_REACTORS
330
C
102
}
330
C
100
AcDbXrecord
280
     1
 90
        1
330
65
  0
DICTIONARY
  5
307
102
{ACAD_REACTORS
330
C
102
}
330
C
100
AcDbDictionary
281
     1
  3
CANNOSCALE
350
30C
  3
CMLEADERSTYLE
350
309
  3
CTABLESTYLE
350
308
  3
CVIEWDETAILSTYLE
350
30A
  3
CVIEWSECTIONSTYLE
350
30B
  0
ACDBDETAILVIEWSTYLE
  5
6B
102
{ACAD_REACTORS
330
6A
102
}
330
6A
100
AcDbModelDocViewStyle
 70
     0
  3
Imperial24
290
     1
300
Imperial24
 90
        0
100
AcDbDetailViewStyle
 70
     0
 71
     0
 90
        3
 71
     1
340
55
 62
   256
 40
0.24
340
0
 62
   256
 40
0.24
300

 40
0.36
280
     3
 71
     2
340
5D
 90
       25
 62
   256
 71
     3
340
55
 62
   256
 40
0.24
 90
        1
 40
0.75
 90
        1
300
%<\AcVar ViewType \f "%tc1">% %<\AcVar ViewDetailId>%\PSCALE %<\AcVar ViewScale \f "%sn">%
 71
     4
340
5D
 90
       25
 62
   256
340
5D
 90
       25
 62
   256
280
     0
  0
LAYOUT
  5
6F
102
{ACAD_REACTORS
330
62
102
}
330
62
100
AcDbPlotSettings
  1

  2

  4

  6

 40
0.0
 41
0.0
 42
0.0
 43
0.0
 44
0.0
 45
0.0
 46
0.0
 47
0.0
 48
0.0
 49
0.0
140
0.0
141
0.0
142
1.0
143
1.0
 70
   688
 72
     0
 73
     0
 74
     5
  7

 75
    16
147
1.0
 76
     0
 77
     2
 78
   300
148
0.0
149
0.0
100
AcDbLayout
  1
Layout1
 70
     1
 71
     1
 10
0.0
 20
0.0
 11
12.0
 21
9.0
 12
0.0
 22
0.0
 32
0.0
 14
0.0
 24
0.0
 34
0.0
 15
0.0
 25
0.0
 35
0.0
146
0.0
 13
0.0
 23
0.0
 33
0.0
 16
1.0
 26
0.0
 36
0.0
 17
0.0
 27
1.0
 37
0.0
 76
     0
330
6C
  0
LAYOUT
  5
77
102
{ACAD_REACTORS
330
62
102
}
330
62
100
AcDbPlotSettings
  1

  2

  4

  6

 40
0.0
 41
0.0
 42
0.0
 43
0.0
 44
0.0
 45
0.0
 46
0.0
 47
0.0
 48
0.0
 49
0.0
140
0.0
141
0.0
142
1.0
143
1.0
 70
   688
 72
     0
 73
     0
 74
     5
  7

 75
    16
147
1.0
 76
     0
 77
     2
 78
   300
148
0.0
149
0.0
100
AcDbLayout
  1
Layout2
 70
     1
 71
     2
 10
0.0
 20
0.0
 11
12.0
 21
9.0
 12
0.0
 22
0.0
 32
0.0
 14
0.0
 24
0.0
 34
0.0
 15
0.0
 25
0.0
 35
0.0
146
0.0
 13
0.0
 23
0.0
 33
0.0
 16
1.0
 26
0.0
 36
0.0
 17
0.0
 27
1.0
 37
0.0
 76
     0
330
74
  0
LAYOUT
  5
73
102
{ACAD_REACTORS
330
62
102
}
330
62
100
AcDbPlotSettings
  1

  2

  4

  6

 40
0.0
 41
0.0
 42
0.0
 43
0.0
 44
0.0
 45
0.0
 46
0.0
 47
0.0
 48
0.0
 49
0.0
140
0.0
141
0.0
142
1.0
143
1.0
 70
  1712
 72
     0
 73
     0
 74
     0
  7

 75
     0
147
1.0
 76
     0
 77
     2
 78
   300
148
0.0
149
0.0
100
AcDbLayout
  1
Model
 70
     1
 71
     0
 10
0.0
 20
0.0
 11
12.0
 21
9.0
 12
0.0
 22
0.0
 32
0.0
 14
0.0
 24
0.0
 34
0.0
 15
0.0
 25
0.0
 35
0.0
146
0.0
 13
0.0
 23
0.0
 33
0.0
 16
1.0
 26
0.0
 36
0.0
 17
0.0
 27
1.0
 37
0.0
 76
     0
330
70
  0
MATERIAL
  5
19
102
{ACAD_XDICTIONARY
360
1A
102
}
102
{ACAD_REACTORS
330
10
102
}
330
10
100
AcDbMaterial
  1
ByBlock
 72
     0
 43
0.0208333333333333
 43
0.0
 43
0.0
 43
0.0
 43
0.0
 43
0.0208333333333333
 43
0.0
 43
0.0
 43
0.0
 43
0.0
 43
1.0
 43
0.0
 43
0.0
 43
0.0
 43
0.0
 43
1.0
 77
     0
 47
0.0208333333333333
 47
0.0
 47
0.0
 47
0.0
 47
0.0
 47
0.0208333333333333
 47
0.0
 47
0.0
 47
0.0
 47
0.0
 47
1.0
 47
0.0
 47
0.0
 47
0.0
 47
0.0
 47
1.0
171
     0
 49
0.0208333333333333
 49
0.0
 49
0.0
 49
0.0
 49
0.0
 49
0.0208333333333333
 49
0.0
 49
0.0
 49
0.0
 49
0.0
 49
1.0
 49
0.0
 49
0.0
 49
0.0
 49
0.0
 49
1.0
175
     0
142
0.0208333333333333
142
0.0
142
0.0
142
0.0
142
0.0
142
0.0208333333333333
142
0.0
142
0.0
142
0.0
142
0.0
142
1.0
142
0.0
142
0.0
142
0.0
142
0.0
142
1.0
179
     0
144
0.0208333333333333
144
0.0
144
0.0
144
0.0
144
0.0
144
0.0208333333333333
144
0.0
144
0.0
144
0.0
144
0.0
144
1.0
144
0.0
144
0.0
144
0.0
144
0.0
144
1.0
147
0.0208333333333333
147
0.0
147
0.0
147
0.0
147
0.0
147
0.0208333333333333
147
0.0
147
0.0
147
0.0
147
0.0
147
1.0
147
0.0
147
0.0
147
0.0
147
0.0
147
1.0
  0
MATERIAL
  5
11
102
{ACAD_XDICTIONARY
360
12
102
}
102
{ACAD_REACTORS
330
10
102
}
330
10
100
AcDbMaterial
  1
ByLayer
 72
     0
 43
0.0208333333333333
 43
0.0
 43
0.0
 43
0.0
 43
0.0
 43
0.0208333333333333
 43
0.0
 43
0.0
 43
0.0
 43
0.0
 43
1.0
 43
0.0
 43
0.0
 43
0.0
 43
0.0
 43
1.0
 77
     0
 47
0.0208333333333333
 47
0.0
 47
0.0
 47
0.0
 47
0.0
 47
0.0208333333333333
 47
0.0
 47
0.0
 47
0.0
 47
0.0
 47
1.0
 47
0.0
 47
0.0
 47
0.0
 47
0.0
 47
1.0
171
     0
 49
0.0208333333333333
 49
0.0
 49
0.0
 49
0.0
 49
0.0
 49
0.0208333333333333
 49
0.0
 49
0.0
 49
0.0
 49
0.0
 49
1.0
 49
0.0
 49
0.0
 49
0.0
 49
0.0
 49
1.0
175
     0
142
0.0208333333333333
142
0.0
142
0.0
142
0.0
142
0.0
142
0.0208333333333333
142
0.0
142
0.0
142
0.0
142
0.0
142
1.0
142
0.0
142
0.0
142
0.0
142
0.0
142
1.0
179
     0
144
0.0208333333333333
144
0.0
144
0.0
144
0.0
144
0.0
144
0.0208333333333333
144
0.0
144
0.0
144
0.0
144
0.0
144
1.0
144
0.0
144
0.0
144
0.0
144
0.0
144
1.0
147
0.0208333333333333
147
0.0
147
0.0
147
0.0
147
0.0
147
0.0208333333333333
147
0.0
147
0.0
147
0.0
147
0.0
147
1.0
147
0.0
147
0.0
147
0.0
147
0.0
147
1.0
  0
MATERIAL
  5
21
102
{ACAD_XDICTIONARY
360
22
102
}
102
{ACAD_REACTORS
330
10
102
}
330
10
100
AcDbMaterial
  1
Global
 72
     0
 43
0.0208333333333333
 43
0.0
 43
0.0
 43
0.0
 43
0.0
 43
0.0208333333333333
 43
0.0
 43
0.0
 43
0.0
 43
0.0
 43
1.0
 43
0.0
 43
0.0
 43
0.0
 43
0.0
 43
1.0
 77
     0
 47
0.0208333333333333
 47
0.0
 47
0.0
 47
0.0
 47
0.0
 47
0.0208333333333333
 47
0.0
 47
0.0
 47
0.0
 47
0.0
 47
1.0
 47
0.0
 47
0.0
 47
0.0
 47
0.0
 47
1.0
171
     0
 49
0.0208333333333333
 49
0.0
 49
0.0
 49
0.0
 49
0.0
 49
0.0208333333333333
 49
0.0
 49
0.0
 49
0.0
 49
0.0
 49
1.0
 49
0.0
 49
0.0
 49
0.0
 49
0.0
 49
1.0
175
     0
142
0.0208333333333333
142
0.0
142
0.0
142
0.0
142
0.0
142
0.0208333333333333
142
0.0
142
0.0
142
0.0
142
0.0
142
1.0
142
0.0
142
0.0
142
0.0
142
0.0
142
1.0
179
     0
144
0.0208333333333333
144
0.0
144
0.0
144
0.0
144
0.0
144
0.0208333333333333
144
0.0
144
0.0
144
0.0
144
0.0
144
1.0
144
0.0
144
0.0
144
0.0
144
0.0
144
1.0
147
0.0208333333333333
147
0.0
147
0.0
147
0.0
147
0.0
147
0.0208333333333333
147
0.0
147
0.0
147
0.0
147
0.0
147
1.0
147
0.0
147
0.0
147
0.0
147
0.0
147
1.0
  0
MLEADERSTYLE
  5
67
102
{ACAD_REACTORS
330
66
102
}
330
66
100
AcDbMLeaderStyle
179
     2
170
     2
171
     1
172
     0
 90
        2
 40
0.0
 41
0.0
173
     1
 91
-1056964608
340
5B
 92
       -2
290
     1
 42
0.09
291
     1
 43
0.36
  3
Standard
 44
0.18
300

342
55
174
     1
178
     6
175
     1
176
     0
 93
-1056964608
 45
0.18
292
     0
297
     0
 46
0.18
 94
-1056964608
 47
1.0
 49
1.0
140
1.0
293
     1
141
0.0
294
     1
177
     0
142
1.0
295
     1
296
     0
143
0.125
271
     0
272
     9
273
     9
298
     1
  0
MLINESTYLE
  5
60
102
{ACAD_REACTORS
330
5F
102
}
330
5F
100
AcDbMlineStyle
  2
STANDARD
 70
     0
  3

 62
   256
 51
90.0
 52
90.0
 71
     2
 49
0.5
 62
   256
  6
BYLAYER
 49
-0.5
 62
   256
  6
BYLAYER
  0
ACDBPLACEHOLDER
  5
F
102
{ACAD_REACTORS
330
E
102
}
330
E
  0
SCALE
  5
43
102
{ACAD_REACTORS
330
42
102
}
330
42
100
AcDbScale
 70
     0
300
1:1
140
1.0
141
1.0
290
     1
  0
SCALE
  5
44
102
{ACAD_REACTORS
330
42
102
}
330
42
100
AcDbScale
 70
     0
300
1/128" = 1'-0"
140
0.0078125
141
12.0
290
     0
  0
SCALE
  5
45
102
{ACAD_REACTORS
330
42
102
}
330
42
100
AcDbScale
 70
     0
300
1/64" = 1'-0"
140
0.015625
141
12.0
290
     0
  0
SCALE
  5
46
102
{ACAD_REACTORS
330
42
102
}
330
42
100
AcDbScale
 70
     0
300
1/32" = 1'-0"
140
0.03125
141
12.0
290
     0
  0
SCALE
  5
47
102
{ACAD_REACTORS
330
42
102
}
330
42
100
AcDbScale
 70
     0
300
1/16" = 1'-0"
140
0.0625
141
12.0
290
     0
  0
SCALE
  5
48
102
{ACAD_REACTORS
330
42
102
}
330
42
100
AcDbScale
 70
     0
300
3/32" = 1'-0"
140
0.09375
141
12.0
290
     0
  0
SCALE
  5
49
102
{ACAD_REACTORS
330
42
102
}
330
42
100
AcDbScale
 70
     0
300
1/8" = 1'-0"
140
0.125
141
12.0
290
     0
  0
SCALE
  5
4A
102
{ACAD_REACTORS
330
42
102
}
330
42
100
AcDbScale
 70
     0
300
3/16" = 1'-0"
140
0.1875
141
12.0
290
     0
  0
SCALE
  5
4B
102
{ACAD_REACTORS
330
42
102
}
330
42
100
AcDbScale
 70
     0
300
1/4" = 1'-0"
140
0.25
141
12.0
290
     0
  0
SCALE
  5
4C
102
{ACAD_REACTORS
330
42
102
}
330
42
100
AcDbScale
 70
     0
300
3/8" = 1'-0"
140
0.375
141
12.0
290
     0
  0
SCALE
  5
4D
102
{ACAD_REACTORS
330
42
102
}
330
42
100
AcDbScale
 70
     0
300
1/2" = 1'-0"
140
0.5
141
12.0
290
     0
  0
SCALE
  5
4E
102
{ACAD_REACTORS
330
42
102
}
330
42
100
AcDbScale
 70
     0
300
3/4" = 1'-0"
140
0.75
141
12.0
290
     0
  0
SCALE
  5
4F
102
{ACAD_REACTORS
330
42
102
}
330
42
100
AcDbScale
 70
     0
300
1" = 1'-0"
140
1.0
141
12.0
290
     0
  0
SCALE
  5
50
102
{ACAD_REACTORS
330
42
102
}
330
42
100
AcDbScale
 70
     0
300
1-1/2" = 1'-0"
140
1.5
141
12.0
290
     0
  0
SCALE
  5
51
102
{ACAD_REACTORS
330
42
102
}
330
42
100
AcDbScale
 70
     0
300
3" = 1'-0"
140
3.0
141
12.0
290
     0
  0
SCALE
  5
52
102
{ACAD_REACTORS
330
42
102
}
330
42
100
AcDbScale
 70
     0
300
6" = 1'-0"
140
6.0
141
12.0
290
     0
  0
SCALE
  5
53
102
{ACAD_REACTORS
330
42
102
}
330
42
100
AcDbScale
 70
     0
300
1'-0" = 1'-0"
140
12.0
141
12.0
290
     0
  0
ACDBSECTIONVIEWSTYLE
  5
69
102
{ACAD_REACTORS
330
68
102
}
330
68
100
AcDbModelDocViewStyle
 70
     0
  3
Imperial24
290
     1
300
Imperial24
 90
        0
100
AcDbSectionViewStyle
 70
     0
 71
     0
 90
       78
 71
     1
340
55
 62
   256
 40
0.24
340
0
340
0
 62
   256
 40
0.24
300
I, O, Q, S, X, Z
 40
0.48
 90
        3
 40
0.18
 90
        1
 71
     2
340
5D
 90
       25
 62
   256
340
5D
 90
       50
 62
   256
 40
0.24
 40
0.0
 40
0.24
 71
     3
340
55
 62
   256
 40
0.24
 90
        1
 40
0.75
 90
        1
300
%<\AcVar ViewType \f "%tc1">% %<\AcVar ViewSectionStartId>%-%<\AcVar ViewSectionEndId>%\PSCALE %<\AcVar ViewScale \f "%sn">%
 71
     4
 62
   256
 62
   257
300
ANSI31
 40
1.0
 90
        0
290
     0
290
     0
 90
        6
 40
0.0
 40
1.570796326794896
 40
0.2617993877991494
 40
1.308996938995747
 40
-0.2617993877991494
 40
1.832595714594046
  0
TABLESTYLE
  5
65
102
{ACAD_XDICTIONARY
360
30D
102
}
102
{ACAD_REACTORS
330
64
102
}
330
64
100
AcDbTableStyle
280
     0
  3
Standard
 70
     0
 71
     0
 40
0.06
 41
0.06
280
     0
281
     0
  7
Standard
140
0.18
170
     2
 62
     0
 63
     7
283
     0
 90
      512
 91
        0
  1

274
    -2
284
     1
 64
     0
275
    -2
285
     1
 65
     0
276
    -2
286
     1
 66
     0
277
    -2
287
     1
 67
     0
278
    -2
288
     1
 68
     0
279
    -2
289
     1
 69
     0
  7
Standard
140
0.25
170
     5
 62
     0
 63
     7
283
     0
 90
      512
 91
        0
  1

274
    -2
284
     1
 64
     0
275
    -2
285
     1
 65
     0
276
    -2
286
     1
 66
     0
277
    -2
287
     1
 67
     0
278
    -2
288
     1
 68
     0
279
    -2
289
     1
 69
     0
  7
Standard
140
0.18
170
     5
 62
     0
 63
     7
283
     0
 90
      512
 91
        0
  1

274
    -2
284
     1
 64
     0
275
    -2
285
     1
 65
     0
276
    -2
286
     1
 66
     0
277
    -2
287
     1
 67
     0
278
    -2
288
     1
 68
     0
279
    -2
289
     1
 69
     0
  0
VISUALSTYLE
  5
2F
102
{ACAD_REACTORS
330
29
102
}
330
29
100
AcDbVisualStyle
  2
2dWireframe
 70
     4
177
     3
291
     0
 70
    58
 90
        0
176
     1
 90
        2
176
     1
 90
        0
176
     1
 90
        0
176
     1
 40
0.6
176
     1
 40
30.0
176
     1
 62
     7
420
 16777215
176
     1
 90
        1
176
     1
 90
        4
176
     1
 62
     7
176
     1
 62
   257
176
     1
 90
        1
176
     1
 90
        1
176
     1
 40
1.0
176
     1
 90
        0
176
     1
 62
   257
176
     1
 40
1.0
176
     1
 90
        1
176
     1
 90
        6
176
     1
 90
        2
176
     1
 62
     7
176
     1
 90
        5
176
     1
 90
        0
176
     1
 90
        0
176
     1
290
     0
176
     1
 90
        1
176
     1
 40
0.0
176
     1
 90
        0
176
     1
290
     1
176
     1
290
     1
176
     1
290
     0
176
     1
290
     0
176
     1
290
     0
176
     1
290
     0
176
     1
290
     0
176
     1
290
     0
176
     1
290
     0
176
     1
 90
       50
176
     1
 40
0.0
176
     1
 40
1.0
176
     1
 90
        0
176
     1
 62
    18
420
        0
176
     1
 90
       50
176
     1
 90
        3
176
     1
 62
     5
420
      255
176
     1
290
     0
176
     1
 90
       50
176
     1
 90
       50
176
     1
 90
       50
176
     1
290
     0
176
     1
 90
       50
176
     1
 62
   256
176
     0
 40
1.0
176
     0
 90
        2
176
     1
  1
strokes_ogs.tif
176
     1
290
     0
176
     1
 40
1.0
176
     1
 40
1.0
176
     1
  0
VISUALSTYLE
  5
2E
102
{ACAD_REACTORS
330
29
102
}
330
29
100
AcDbVisualStyle
  2
Basic
 70
     7
177
     3
291
     1
 70
    58
 90
        1
176
     1
 90
        0
176
     1
 90
        1
176
     1
 90
        0
176
     1
 40
0.6
176
     1
 40
30.0
176
     1
 62
     7
420
 16777215
176
     1
 90
        0
176
     1
 90
        4
176
     1
 62
     7
176
     1
 62
   257
176
     1
 90
        1
176
     1
 90
        1
176
     1
 40
1.0
176
     1
 90
        8
176
     1
 62
     7
176
     1
 40
1.0
176
     1
 90
        1
176
     1
 90
        6
176
     1
 90
        2
176
     1
 62
     7
176
     1
 90
        5
176
     1
 90
        0
176
     1
 90
        0
176
     1
290
     0
176
     1
 90
        1
176
     1
 40
0.0
176
     1
 90
        0
176
     1
290
     0
176
     1
290
     1
176
     1
290
     1
176
     1
290
     0
176
     1
290
     0
176
     1
290
     0
176
     1
290
     0
176
     1
290
     0
176
     1
290
     0
176
     1
 90
       50
176
     1
 40
0.0
176
     1
 40
1.0
176
     1
 90
        0
176
     1
 62
    18
420
        0
176
     1
 90
       50
176
     1
 90
        3
176
     1
 62
     5
420
      255
176
     1
290
     0
176
     1
 90
       50
176
     1
 90
       50
176
     1
 90
       50
176
     1
290
     0
176
     1
 90
       50
176
     1
 62
   256
176
     0
 40
1.0
176
     0
 90
        2
176
     1
  1
strokes_ogs.tif
176
     1
290
     0
176
     1
 40
1.0
176
     1
 40
1.0
176
     1
  0
VISUALSTYLE
  5
35
102
{ACAD_REACTORS
330
29
102
}
330
29
100
AcDbVisualStyle
  2
Brighten
 70
    12
177
     3
291
     1
 70
    58
 90
        2
176
     1
 90
        2
176
     1
 90
        0
176
     1
 90
        0
176
     1
 40
0.6
176
     1
 40
30.0
176
     1
 62
     7
420
 16777215
176
     1
 90
        1
176
     1
 90
        4
176
     1
 62
     7
176
     1
 62
   257
176
     1
 90
        1
176
     1
 90
        1
176
     1
 40
1.0
176
     1
 90
        8
176
     1
 62
     7
176
     1
 40
1.0
176
     1
 90
        1
176
     1
 90
        6
176
     1
 90
        2
176
     1
 62
     7
176
     1
 90
        5
176
     1
 90
        0
176
     1
 90
        0
176
     1
290
     0
176
     1
 90
        1
176
     1
 40
50.0
176
     1
 90
        0
176
     1
290
     0
176
     1
290
     1
176
     1
290
     1
176
     1
290
     0
176
     1
290
     0
176
     1
290
     0
176
     1
290
     0
176
     1
290
     0
176
     1
290
     0
176
     1
 90
       50
176
     1
 40
0.0
176
     1
 40
1.0
176
     1
 90
        0
176
     1
 62
    18
420
        0
176
     1
 90
       50
176
     1
 90
        3
176
     1
 62
     5
420
      255
176
     1
290
     0
176
     1
 90
       50
176
     1
 90
       50
176
     1
 90
       50
176
     1
290
     0
176
     1
 90
       50
176
     1
 62
   256
176
     0
 40
1.0
176
     0
 90
        2
176
     1
  1
strokes_ogs.tif
176
     1
290
     0
176
     1
 40
1.0
176
     1
 40
1.0
176
     1
  0
VISUALSTYLE
  5
39
102
{ACAD_REACTORS
330
29
102
}
330
29
100
AcDbVisualStyle
  2
ColorChange
 70
    16
177
     3
291
     1
 70
    58
 90
        2
176
     1
 90
        2
176
     1
 90
        3
176
     1
 90
        0
176
     1
 40
0.6
176
     1
 40
30.0
176
     1
 62
     8
420
  8421504
176
     1
 90
        1
176
     1
 90
        4
176
     1
 62
     7
176
     1
 62
   257
176
     1
 90
        1
176
     1
 90
        1
176
     1
 40
1.0
176
     1
 90
        8
176
     1
 62
     8
420
  8421504
176
     1
 40
1.0
176
     1
 90
        1
176
     1
 90
        6
176
     1
 90
        2
176
     1
 62
     7
176
     1
 90
        5
176
     1
 90
        0
176
     1
 90
        0
176
     1
290
     0
176
     1
 90
        1
176
     1
 40
0.0
176
     1
 90
        0
176
     1
290
     0
176
     1
290
     1
176
     1
290
     1
176
     1
290
     0
176
     1
290
     0
176
     1
290
     0
176
     1
290
     0
176
     1
290
     0
176
     1
290
     0
176
     1
 90
       50
176
     1
 40
0.0
176
     1
 40
1.0
176
     1
 90
        0
176
     1
 62
    18
420
        0
176
     1
 90
       50
176
     1
 90
        3
176
     1
 62
     5
420
      255
176
     1
290
     0
176
     1
 90
       50
176
     1
 90
       50
176
     1
 90
       50
176
     1
290
     0
176
     1
 90
       50
176
     1
 62
   256
176
     0
 40
1.0
176
     0
 90
        2
176
     1
  1
strokes_ogs.tif
176
     1
290
     0
176
     1
 40
1.0
176
     1
 40
1.0
176
     1
  0
VISUALSTYLE
  5
32
102
{ACAD_REACTORS
330
29
102
}
330
29
100
AcDbVisualStyle
  2
Conceptual
 70
     9
177
     3
291
     0
 70
    58
 90
        3
176
     1
 90
        2
176
     1
 90
        0
176
     1
 90
        0
176
     1
 40
0.6
176
     1
 40
30.0
176
     1
 62
     7
420
 16777215
176
     1
 90
        2
176
     1
 90
        2
176
     1
 62
     7
176
     1
 62
   257
176
     1
 90
        1
176
     1
 90
        1
176
     1
 40
179.0
176
     1
 90
        8
176
     1
 62
     7
176
     1
 40
1.0
176
     1
 90
        1
176
     1
 90
        6
176
     1
 90
        2
176
     1
 62
     7
176
     1
 90
        3
176
     1
 90
        0
176
     1
 90
        0
176
     1
290
     0
176
     1
 90
        1
176
     1
 40
0.0
176
     1
 90
        0
176
     1
290
     0
176
     1
290
     1
176
     1
290
     1
176
     1
290
     0
176
     1
290
     0
176
     1
290
     0
176
     1
290
     0
176
     1
290
     0
176
     1
290
     0
176
     1
 90
       50
176
     1
 40
0.0
176
     1
 40
1.0
176
     1
 90
        0
176
     1
 62
    18
420
        0
176
     1
 90
       50
176
     1
 90
        3
176
     1
 62
     5
420
      255
176
     1
290
     0
176
     1
 90
       50
176
     1
 90
       50
176
     1
 90
       50
176
     1
290
     0
176
     1
 90
       50
176
     1
 62
   256
176
     0
 40
1.0
176
     0
 90
        2
176
     1
  1
strokes_ogs.tif
176
     1
290
     0
176
     1
 40
1.0
176
     1
 40
1.0
176
     1
  0
VISUALSTYLE
  5
34
102
{ACAD_REACTORS
330
29
102
}
330
29
100
AcDbVisualStyle
  2
Dim
 70
    11
177
     3
291
     1
 70
    58
 90
        2
176
     1
 90
        2
176
     1
 90
        0
176
     1
 90
        0
176
     1
 40
0.6
176
     1
 40
30.0
176
     1
 62
     7
420
 16777215
176
     1
 90
        1
176
     1
 90
        4
176
     1
 62
     7
176
     1
 62
   257
176
     1
 90
        1
176
     1
 90
        1
176
     1
 40
1.0
176
     1
 90
        8
176
     1
 62
     7
176
     1
 40
1.0
176
     1
 90
        1
176
     1
 90
        6
176
     1
 90
        2
176
     1
 62
     7
176
     1
 90
        5
176
     1
 90
        0
176
     1
 90
        0
176
     1
290
     0
176
     1
 90
        1
176
     1
 40
-50.0
176
     1
 90
        0
176
     1
290
     0
176
     1
290
     1
176
     1
290
     1
176
     1
290
     0
176
     1
290
     0
176
     1
290
     0
176
     1
290
     0
176
     1
290
     0
176
     1
290
     0
176
     1
 90
       50
176
     1
 40
0.0
176
     1
 40
1.0
176
     1
 90
        0
176
     1
 62
    18
420
        0
176
     1
 90
       50
176
     1
 90
        3
176
     1
 62
     5
420
      255
176
     1
290
     0
176
     1
 90
       50
176
     1
 90
       50
176
     1
 90
       50
176
     1
290
     0
176
     1
 90
       50
176
     1
 62
   256
176
     0
 40
1.0
176
     0
 90
        2
176
     1
  1
strokes_ogs.tif
176
     1
290
     0
176
     1
 40
1.0
176
     1
 40
1.0
176
     1
  0
VISUALSTYLE
  5
41
102
{ACAD_REACTORS
330
29
102
}
330
29
100
AcDbVisualStyle
  2
EdgeColorOff
 70
    22
177
     3
291
     1
 70
    58
 90
        2
176
     0
 90
        2
176
     0
 90
        0
176
     0
 90
        0
176
     0
 40
0.6
176
     0
 40
30.0
176
     0
 62
     7
420
 16777215
176
     0
 90
        1
176
     0
 90
        4
176
     0
 62
     7
176
     0
 62
   257
176
     0
 90
        1
176
     0
 90
        1
176
     0
 40
1.0
176
     0
 90
        8
176
     2
 62
     7
176
     0
 40
1.0
176
     0
 90
        1
176
     0
 90
        6
176
     0
 90
        2
176
     0
 62
     7
176
     0
 90
        5
176
     0
 90
        0
176
     0
 90
        0
176
     0
290
     0
176
     0
 90
        1
176
     0
 40
0.0
176
     0
 90
        0
176
     0
290
     0
176
     0
290
     1
176
     0
290
     1
176
     0
290
     0
176
     0
290
     0
176
     0
290
     0
176
     0
290
     0
176
     0
290
     0
176
     0
290
     0
176
     0
 90
       50
176
     0
 40
0.0
176
     0
 40
1.0
176
     0
 90
        0
176
     0
 62
    18
420
        0
176
     0
 90
       50
176
     0
 90
        3
176
     0
 62
     5
420
      255
176
     0
290
     0
176
     0
 90
       50
176
     0
 90
       50
176
     0
 90
       50
176
     0
290
     0
176
     0
 90
       50
176
     0
 62
   256
176
     0
 40
1.0
176
     0
 90
        2
176
     0
  1
strokes_ogs.tif
176
     0
290
     0
176
     0
 40
1.0
176
     0
 40
1.0
176
     0
  0
VISUALSTYLE
  5
38
102
{ACAD_REACTORS
330
29
102
}
330
29
100
AcDbVisualStyle
  2
Facepattern
 70
    15
177
     3
291
     1
 70
    58
 90
        2
176
     1
 90
        2
176
     1
 90
        0
176
     1
 90
        0
176
     1
 40
0.6
176
     1
 40
30.0
176
     1
 62
     7
420
 16777215
176
     1
 90
        1
176
     1
 90
        4
176
     1
 62
     7
176
     1
 62
   257
176
     1
 90
        1
176
     1
 90
        1
176
     1
 40
1.0
176
     1
 90
        8
176
     1
 62
     7
176
     1
 40
1.0
176
     1
 90
        1
176
     1
 90
        6
176
     1
 90
        2
176
     1
 62
     7
176
     1
 90
        5
176
     1
 90
        0
176
     1
 90
        0
176
     1
290
     0
176
     1
 90
        1
176
     1
 40
0.0
176
     1
 90
        0
176
     1
290
     0
176
     1
290
     1
176
     1
290
     1
176
     1
290
     0
176
     1
290
     0
176
     1
290
     0
176
     1
290
     0
176
     1
290
     0
176
     1
290
     0
176
     1
 90
       50
176
     1
 40
0.0
176
     1
 40
1.0
176
     1
 90
        0
176
     1
 62
    18
420
        0
176
     1
 90
       50
176
     1
 90
        3
176
     1
 62
     5
420
      255
176
     1
290
     0
176
     1
 90
       50
176
     1
 90
       50
176
     1
 90
       50
176
     1
290
     0
176
     1
 90
       50
176
     1
 62
   256
176
     0
 40
1.0
176
     0
 90
        2
176
     1
  1
strokes_ogs.tif
176
     1
290
     0
176
     1
 40
1.0
176
     1
 40
1.0
176
     1
  0
VISUALSTYLE
  5
2A
102
{ACAD_REACTORS
330
29
102
}
330
29
100
AcDbVisualStyle
  2
Flat
 70
     0
177
     3
291
     1
 70
    58
 90
        2
176
     1
 90
        1
176
     1
 90
        1
176
     1
 90
        2
176
     1
 40
0.6
176
     1
 40
30.0
176
     1
 62
     7
420
 16777215
176
     1
 90
        0
176
     1
 90
        0
176
     1
 62
     7
176
     1
 62
   257
176
     1
 90
        1
176
     1
 90
        1
176
     1
 40
1.0
176
     1
 90
        8
176
     1
 62
     7
176
     1
 40
1.0
176
     1
 90
        1
176
     1
 90
        6
176
     1
 90
        2
176
     1
 62
     7
176
     1
 90
        5
176
     1
 90
        0
176
     1
 90
        0
176
     1
290
     0
176
     1
 90
       13
176
     1
 40
0.0
176
     1
 90
        0
176
     1
290
     0
176
     1
290
     1
176
     1
290
     1
176
     1
290
     0
176
     1
290
     0
176
     1
290
     0
176
     1
290
     0
176
     1
290
     0
176
     1
290
     0
176
     1
 90
       50
176
     1
 40
0.0
176
     1
 40
1.0
176
     1
 90
        0
176
     1
 62
    18
420
        0
176
     1
 90
       50
176
     1
 90
        3
176
     1
 62
     5
420
      255
176
     1
290
     0
176
     1
 90
       50
176
     1
 90
       50
176
     1
 90
       50
176
     1
290
     0
176
     1
 90
       50
176
     1
 62
   256
176
     0
 40
1.0
176
     0
 90
        2
176
     1
  1
strokes_ogs.tif
176
     1
290
     0
176
     1
 40
1.0
176
     1
 40
1.0
176
     1
  0
VISUALSTYLE
  5
2B
102
{ACAD_REACTORS
330
29
102
}
330
29
100
AcDbVisualStyle
  2
FlatWithEdges
 70
     1
177
     3
291
     1
 70
    58
 90
        2
176
     1
 90
        1
176
     1
 90
        1
176
     1
 90
        2
176
     1
 40
0.6
176
     1
 40
30.0
176
     1
 62
     7
420
 16777215
176
     1
 90
        1
176
     1
 90
        0
176
     1
 62
     7
176
     1
 62
   257
176
     1
 90
        1
176
     1
 90
        1
176
     1
 40
1.0
176
     1
 90
        0
176
     1
 62
   257
176
     1
 40
1.0
176
     1
 90
        1
176
     1
 90
        6
176
     1
 90
        2
176
     1
 62
     7
176
     1
 90
        5
176
     1
 90
        0
176
     1
 90
        0
176
     1
290
     0
176
     1
 90
       13
176
     1
 40
0.0
176
     1
 90
        0
176
     1
290
     0
176
     1
290
     1
176
     1
290
     1
176
     1
290
     0
176
     1
290
     0
176
     1
290
     0
176
     1
290
     0
176
     1
290
     0
176
     1
290
     0
176
     1
 90
       50
176
     1
 40
0.0
176
     1
 40
1.0
176
     1
 90
        0
176
     1
 62
    18
420
        0
176
     1
 90
       50
176
     1
 90
        3
176
     1
 62
     5
420
      255
176
     1
290
     0
176
     1
 90
       50
176
     1
 90
       50
176
     1
 90
       50
176
     1
290
     0
176
     1
 90
       50
176
     1
 62
   256
176
     0
 40
1.0
176
     0
 90
        2
176
     1
  1
strokes_ogs.tif
176
     1
290
     0
176
     1
 40
1.0
176
     1
 40
1.0
176
     1
  0
VISUALSTYLE
  5
2C
102
{ACAD_REACTORS
330
29
102
}
330
29
100
AcDbVisualStyle
  2
Gouraud
 70
     2
177
     3
291
     1
 70
    58
 90
        2
176
     1
 90
        2
176
     1
 90
        1
176
     1
 90
        2
176
     1
 40
0.6
176
     1
 40
30.0
176
     1
 62
     7
420
 16777215
176
     1
 90
        0
176
     1
 90
        0
176
     1
 62
     7
176
     1
 62
   257
176
     1
 90
        1
176
     1
 90
        1
176
     1
 40
1.0
176
     1
 90
        0
176
     1
 62
     7
176
     1
 40
1.0
176
     1
 90
        1
176
     1
 90
        6
176
     1
 90
        2
176
     1
 62
     7
176
     1
 90
        5
176
     1
 90
        0
176
     1
 90
        0
176
     1
290
     0
176
     1
 90
       13
176
     1
 40
0.0
176
     1
 90
        0
176
     1
290
     0
176
     1
290
     1
176
     1
290
     1
176
     1
290
     0
176
     1
290
     0
176
     1
290
     0
176
     1
290
     0
176
     1
290
     0
176
     1
290
     0
176
     1
 90
       50
176
     1
 40
0.0
176
     1
 40
1.0
176
     1
 90
        0
176
     1
 62
    18
420
        0
176
     1
 90
       50
176
     1
 90
        3
176
     1
 62
     5
420
      255
176
     1
290
     0
176
     1
 90
       50
176
     1
 90
       50
176
     1
 90
       50
176
     1
290
     0
176
     1
 90
       50
176
     1
 62
   256
176
     0
 40
1.0
176
     0
 90
        2
176
     1
  1
strokes_ogs.tif
176
     1
290
     0
176
     1
 40
1.0
176
     1
 40
1.0
176
     1
  0
VISUALSTYLE
  5
2D
102
{ACAD_REACTORS
330
29
102
}
330
29
100
AcDbVisualStyle
  2
GouraudWithEdges
 70
     3
177
     3
291
     1
 70
    58
 90
        2
176
     1
 90
        2
176
     1
 90
        1
176
     1
 90
        2
176
     1
 40
0.6
176
     1
 40
30.0
176
     1
 62
     7
420
 16777215
176
     1
 90
        1
176
     1
 90
        0
176
     1
 62
     7
176
     1
 62
   257
176
     1
 90
        1
176
     1
 90
        1
176
     1
 40
1.0
176
     1
 90
        0
176
     1
 62
   257
176
     1
 40
1.0
176
     1
 90
        1
176
     1
 90
        6
176
     1
 90
        2
176
     1
 62
     7
176
     1
 90
        5
176
     1
 90
        0
176
     1
 90
        0
176
     1
290
     0
176
     1
 90
       13
176
     1
 40
0.0
176
     1
 90
        0
176
     1
290
     0
176
     1
290
     1
176
     1
290
     1
176
     1
290
     0
176
     1
290
     0
176
     1
290
     0
176
     1
290
     0
176
     1
290
     0
176
     1
290
     0
176
     1
 90
       50
176
     1
 40
0.0
176
     1
 40
1.0
176
     1
 90
        0
176
     1
 62
    18
420
        0
176
     1
 90
       50
176
     1
 90
        3
176
     1
 62
     5
420
      255
176
     1
290
     0
176
     1
 90
       50
176
     1
 90
       50
176
     1
 90
       50
176
     1
290
     0
176
     1
 90
       50
176
     1
 62
   256
176
     0
 40
1.0
176
     0
 90
        2
176
     1
  1
strokes_ogs.tif
176
     1
290
     0
176
     1
 40
1.0
176
     1
 40
1.0
176
     1
  0
VISUALSTYLE
  5
31
102
{ACAD_REACTORS
330
29
102
}
330
29
100
AcDbVisualStyle
  2
Hidden
 70
     6
177
     3
291
     0
 70
    58
 90
        1
176
     1
 90
        2
176
     1
 90
        2
176
     1
 90
        0
176
     1
 40
0.6
176
     1
 40
30.0
176
     1
 62
     7
420
 16777215
176
     1
 90
        2
176
     1
 90
        2
176
     1
 62
     7
176
     1
 62
   257
176
     1
 90
        2
176
     1
 90
        1
176
     1
 40
40.0
176
     1
 90
        0
176
     1
 62
   257
176
     1
 40
1.0
176
     1
 90
        1
176
     1
 90
        6
176
     1
 90
        2
176
     1
 62
     7
176
     1
 90
        3
176
     1
 90
        0
176
     1
 90
        0
176
     1
290
     0
176
     1
 90
        1
176
     1
 40
0.0
176
     1
 90
        0
176
     1
290
     0
176
     1
290
     1
176
     1
290
     1
176
     1
290
     0
176
     1
290
     0
176
     1
290
     0
176
     1
290
     0
176
     1
290
     0
176
     1
290
     0
176
     1
 90
       50
176
     1
 40
0.0
176
     1
 40
1.0
176
     1
 90
        0
176
     1
 62
    18
420
        0
176
     1
 90
       50
176
     1
 90
        3
176
     1
 62
     5
420
      255
176
     1
290
     0
176
     1
 90
       50
176
     1
 90
       50
176
     1
 90
       50
176
     1
290
     0
176
     1
 90
       50
176
     1
 62
   256
176
     0
 40
1.0
176
     0
 90
        2
176
     1
  1
strokes_ogs.tif
176
     1
290
     0
176
     1
 40
1.0
176
     1
 40
1.0
176
     1
  0
VISUALSTYLE
  5
3F
102
{ACAD_REACTORS
330
29
102
}
330
29
100
AcDbVisualStyle
  2
JitterOff
 70
    20
177
     3
291
     1
 70
    58
 90
        2
176
     0
 90
        2
176
     0
 90
        0
176
     0
 90
        0
176
     0
 40
0.6
176
     0
 40
30.0
176
     0
 62
     7
420
 16777215
176
     0
 90
        1
176
     0
 90
        4
176
     0
 62
     7
176
     0
 62
   257
176
     0
 90
        1
176
     0
 90
        1
176
     0
 40
1.0
176
     0
 90
       10
176
     2
 62
     7
176
     0
 40
1.0
176
     0
 90
        1
176
     0
 90
        6
176
     0
 90
        2
176
     0
 62
     7
176
     0
 90
        5
176
     0
 90
        0
176
     0
 90
        0
176
     0
290
     0
176
     0
 90
        1
176
     0
 40
0.0
176
     0
 90
        0
176
     0
290
     0
176
     0
290
     1
176
     0
290
     1
176
     0
290
     0
176
     0
290
     0
176
     0
290
     0
176
     0
290
     0
176
     0
290
     0
176
     0
290
     0
176
     0
 90
       50
176
     0
 40
0.0
176
     0
 40
1.0
176
     0
 90
        0
176
     0
 62
    18
420
        0
176
     0
 90
       50
176
     0
 90
        3
176
     0
 62
     5
420
      255
176
     0
290
     0
176
     0
 90
       50
176
     0
 90
       50
176
     0
 90
       50
176
     0
290
     0
176
     0
 90
       50
176
     0
 62
   256
176
     0
 40
1.0
176
     0
 90
        2
176
     0
  1
strokes_ogs.tif
176
     0
290
     0
176
     0
 40
1.0
176
     0
 40
1.0
176
     0
  0
VISUALSTYLE
  5
37
102
{ACAD_REACTORS
330
29
102
}
330
29
100
AcDbVisualStyle
  2
Linepattern
 70
    14
177
     3
291
     1
 70
    58
 90
        2
176
     1
 90
        2
176
     1
 90
        0
176
     1
 90
        0
176
     1
 40
0.6
176
     1
 40
30.0
176
     1
 62
     7
420
 16777215
176
     1
 90
        1
176
     1
 90
        4
176
     1
 62
     7
176
     1
 62
   257
176
     1
 90
        7
176
     1
 90
        7
176
     1
 40
1.0
176
     1
 90
        8
176
     1
 62
     7
176
     1
 40
1.0
176
     1
 90
        1
176
     1
 90
        6
176
     1
 90
        2
176
     1
 62
     7
176
     1
 90
        5
176
     1
 90
        0
176
     1
 90
        0
176
     1
290
     0
176
     1
 90
        1
176
     1
 40
0.0
176
     1
 90
        0
176
     1
290
     0
176
     1
290
     1
176
     1
290
     1
176
     1
290
     0
176
     1
290
     0
176
     1
290
     0
176
     1
290
     0
176
     1
290
     0
176
     1
290
     0
176
     1
 90
       50
176
     1
 40
0.0
176
     1
 40
1.0
176
     1
 90
        0
176
     1
 62
    18
420
        0
176
     1
 90
       50
176
     1
 90
        3
176
     1
 62
     5
420
      255
176
     1
290
     0
176
     1
 90
       50
176
     1
 90
       50
176
     1
 90
       50
176
     1
290
     0
176
     1
 90
       50
176
     1
 62
   256
176
     0
 40
1.0
176
     0
 90
        2
176
     1
  1
strokes_ogs.tif
176
     1
290
     0
176
     1
 40
1.0
176
     1
 40
1.0
176
     1
  0
VISUALSTYLE
  5
40
102
{ACAD_REACTORS
330
29
102
}
330
29
100
AcDbVisualStyle
  2
OverhangOff
 70
    21
177
     3
291
     1
 70
    58
 90
        2
176
     0
 90
        2
176
     0
 90
        0
176
     0
 90
        0
176
     0
 40
0.6
176
     0
 40
30.0
176
     0
 62
     7
420
 16777215
176
     0
 90
        1
176
     0
 90
        4
176
     0
 62
     7
176
     0
 62
   257
176
     0
 90
        1
176
     0
 90
        1
176
     0
 40
1.0
176
     0
 90
        9
176
     2
 62
     7
176
     0
 40
1.0
176
     0
 90
        1
176
     0
 90
        6
176
     0
 90
        2
176
     0
 62
     7
176
     0
 90
        5
176
     0
 90
        0
176
     0
 90
        0
176
     0
290
     0
176
     0
 90
        1
176
     0
 40
0.0
176
     0
 90
        0
176
     0
290
     0
176
     0
290
     1
176
     0
290
     1
176
     0
290
     0
176
     0
290
     0
176
     0
290
     0
176
     0
290
     0
176
     0
290
     0
176
     0
290
     0
176
     0
 90
       50
176
     0
 40
0.0
176
     0
 40
1.0
176
     0
 90
        0
176
     0
 62
    18
420
        0
176
     0
 90
       50
176
     0
 90
        3
176
     0
 62
     5
420
      255
176
     0
290
     0
176
     0
 90
       50
176
     0
 90
       50
176
     0
 90
       50
176
     0
290
     0
176
     0
 90
       50
176
     0
 62
   256
176
     0
 40
1.0
176
     0
 90
        2
176
     0
  1
strokes_ogs.tif
176
     0
290
     0
176
     0
 40
1.0
176
     0
 40
1.0
176
     0
  0
VISUALSTYLE
  5
33
102
{ACAD_REACTORS
330
29
102
}
330
29
100
AcDbVisualStyle
  2
Realistic
 70
     8
177
     3
291
     0
 70
    58
 90
        2
176
     1
 90
        3
176
     1
 90
        0
176
     1
 90
        2
176
     1
 40
0.6
176
     1
 40
30.0
176
     1
 62
     7
420
 16777215
176
     1
 90
        0
176
     1
 90
        0
176
     1
 62
     7
176
     1
 62
   257
176
     1
 90
        1
176
     1
 90
        1
176
     1
 40
1.0
176
     1
 90
        8
176
     1
 62
   257
176
     1
 40
1.0
176
     1
 90
        1
176
     1
 90
        6
176
     1
 90
        2
176
     1
 62
     7
176
     1
 90
        3
176
     1
 90
        0
176
     1
 90
        0
176
     1
290
     0
176
     1
 90
       13
176
     1
 40
0.0
176
     1
 90
        0
176
     1
290
     0
176
     1
290
     1
176
     1
290
     1
176
     1
290
     0
176
     1
290
     0
176
     1
290
     0
176
     1
290
     0
176
     1
290
     0
176
     1
290
     0
176
     1
 90
       50
176
     1
 40
0.0
176
     1
 40
1.0
176
     1
 90
        0
176
     1
 62
    18
420
        0
176
     1
 90
       50
176
     1
 90
        3
176
     1
 62
     5
420
      255
176
     1
290
     0
176
     1
 90
       50
176
     1
 90
       50
176
     1
 90
       50
176
     1
290
     0
176
     1
 90
       50
176
     1
 62
   256
176
     0
 40
1.0
176
     0
 90
        2
176
     1
  1
strokes_ogs.tif
176
     1
290
     0
176
     1
 40
1.0
176
     1
 40
1.0
176
     1
  0
VISUALSTYLE
  5
3E
102
{ACAD_REACTORS
330
29
102
}
330
29
100
AcDbVisualStyle
  2
Shaded
 70
    27
177
     3
291
     0
 70
    58
 90
        2
176
     1
 90
        2
176
     1
 90
        1
176
     1
 90
        2
176
     1
 40
0.6
176
     1
 40
30.0
176
     1
 62
     7
420
 16777215
176
     1
 90
        0
176
     1
 90
        4
176
     1
 62
     7
176
     1
 62
   257
176
     1
 90
        1
176
     1
 90
        1
176
     1
 40
1.0
176
     1
 90
        8
176
     1
 62
   257
176
     1
 40
1.0
176
     1
 90
        1
176
     1
 90
        6
176
     1
 90
        2
176
     1
 62
     8
420
  7895160
176
     1
 90
        3
176
     1
 90
        0
176
     1
 90
        0
176
     1
290
     0
176
     1
 90
        5
176
     1
 40
0.0
176
     1
 90
        0
176
     1
290
     0
176
     1
290
     1
176
     1
290
     1
176
     1
290
     0
176
     1
290
     0
176
     1
290
     0
176
     1
290
     0
176
     1
290
     0
176
     1
290
     0
176
     1
 90
       50
176
     1
 40
0.0
176
     1
 40
1.0
176
     1
 90
        0
176
     1
 62
    18
420
        0
176
     1
 90
       50
176
     1
 90
        3
176
     1
 62
     5
420
      255
176
     1
290
     0
176
     1
 90
       50
176
     1
 90
       50
176
     1
 90
       50
176
     1
290
     0
176
     1
 90
       50
176
     1
 62
   256
176
     0
 40
1.0
176
     0
 90
        2
176
     1
  1
strokes_ogs.tif
176
     1
290
     0
176
     1
 40
1.0
176
     1
 40
1.0
176
     1
  0
VISUALSTYLE
  5
3D
102
{ACAD_REACTORS
330
29
102
}
330
29
100
AcDbVisualStyle
  2
Shaded with edges
 70
    26
177
     3
291
     0
 70
    58
 90
        2
176
     1
 90
        2
176
     1
 90
        1
176
     1
 90
        2
176
     1
 40
0.6
176
     1
 40
30.0
176
     1
 62
     7
420
 16777215
176
     1
 90
        1
176
     1
 90
        2
176
     1
 62
     7
176
     1
 62
   257
176
     1
 90
        2
176
     1
 90
        1
176
     1
 40
1.0
176
     1
 90
        8
176
     1
 62
   257
176
     1
 40
1.0
176
     1
 90
        1
176
     1
 90
        6
176
     1
 90
        2
176
     1
 62
     7
176
     1
 90
        3
176
     1
 90
        0
176
     1
 90
        0
176
     1
290
     0
176
     1
 90
        5
176
     1
 40
0.0
176
     1
 90
        0
176
     1
290
     0
176
     1
290
     1
176
     1
290
     1
176
     1
290
     0
176
     1
290
     0
176
     1
290
     0
176
     1
290
     0
176
     1
290
     0
176
     1
290
     0
176
     1
 90
       50
176
     1
 40
0.0
176
     1
 40
1.0
176
     1
 90
        0
176
     1
 62
    18
420
        0
176
     1
 90
       50
176
     1
 90
        3
176
     1
 62
     5
420
      255
176
     1
290
     0
176
     1
 90
       50
176
     1
 90
       50
176
     1
 90
       50
176
     1
290
     0
176
     1
 90
       50
176
     1
 62
   256
176
     0
 40
1.0
176
     0
 90
        2
176
     1
  1
strokes_ogs.tif
176
     1
290
     0
176
     1
 40
1.0
176
     1
 40
1.0
176
     1
  0
VISUALSTYLE
  5
3A
102
{ACAD_REACTORS
330
29
102
}
330
29
100
AcDbVisualStyle
  2
Shades of Gray
 70
    23
177
     3
291
     0
 70
    58
 90
        2
176
     1
 90
        2
176
     1
 90
        3
176
     1
 90
        0
176
     1
 40
0.6
176
     1
 40
30.0
176
     1
 62
     7
420
 16777215
176
     1
 90
        2
176
     1
 90
        2
176
     1
 62
     7
176
     1
 62
     7
176
     1
 90
        1
176
     1
 90
        1
176
     1
 40
40.0
176
     1
 90
        8
176
     1
 62
     7
176
     1
 40
1.0
176
     1
 90
        1
176
     1
 90
        6
176
     1
 90
        2
176
     1
 62
     7
176
     1
 90
        3
176
     1
 90
        0
176
     1
 90
        0
176
     1
290
     0
176
     1
 90
        1
176
     1
 40
0.0
176
     1
 90
        0
176
     1
290
     0
176
     1
290
     1
176
     1
290
     1
176
     1
290
     0
176
     1
290
     0
176
     1
290
     0
176
     1
290
     0
176
     1
290
     0
176
     1
290
     0
176
     1
 90
       50
176
     1
 40
0.0
176
     1
 40
1.0
176
     1
 90
        0
176
     1
 62
    18
420
        0
176
     1
 90
       50
176
     1
 90
        3
176
     1
 62
     5
420
      255
176
     1
290
     0
176
     1
 90
       50
176
     1
 90
       50
176
     1
 90
       50
176
     1
290
     0
176
     1
 90
       50
176
     1
 62
   256
176
     0
 40
1.0
176
     0
 90
        2
176
     1
  1
strokes_ogs.tif
176
     1
290
     0
176
     1
 40
1.0
176
     1
 40
1.0
176
     1
  0
VISUALSTYLE
  5
3B
102
{ACAD_REACTORS
330
29
102
}
330
29
100
AcDbVisualStyle
  2
Sketchy
 70
    24
177
     3
291
     0
 70
    58
 90
        1
176
     1
 90
        2
176
     1
 90
        2
176
     1
 90
        0
176
     1
 40
0.6
176
     1
 40
30.0
176
     1
 62
     7
420
 16777215
176
     1
 90
        2
176
     1
 90
        2
176
     1
 62
     7
176
     1
 62
     7
176
     1
 90
        1
176
     1
 90
        1
176
     1
 40
40.0
176
     1
 90
       11
176
     1
 62
     7
176
     1
 40
1.0
176
     1
 90
        1
176
     1
 90
        6
176
     1
 90
        2
176
     1
 62
     7
176
     1
 90
        6
176
     1
 90
        0
176
     1
 90
        0
176
     1
290
     0
176
     1
 90
        1
176
     1
 40
0.0
176
     1
 90
        0
176
     1
290
     0
176
     1
290
     1
176
     1
290
     1
176
     1
290
     0
176
     1
290
     0
176
     1
290
     0
176
     1
290
     0
176
     1
290
     0
176
     1
290
     0
176
     1
 90
       50
176
     1
 40
0.0
176
     1
 40
1.0
176
     1
 90
        0
176
     1
 62
    18
420
        0
176
     1
 90
       50
176
     1
 90
        3
176
     1
 62
     5
420
      255
176
     1
290
     0
176
     1
 90
       50
176
     1
 90
       50
176
     1
 90
       50
176
     1
290
     0
176
     1
 90
       50
176
     1
 62
   256
176
     0
 40
1.0
176
     0
 90
        2
176
     1
  1
strokes_ogs.tif
176
     1
290
     0
176
     1
 40
1.0
176
     1
 40
1.0
176
     1
  0
VISUALSTYLE
  5
36
102
{ACAD_REACTORS
330
29
102
}
330
29
100
AcDbVisualStyle
  2
Thicken
 70
    13
177
     3
291
     1
 70
    58
 90
        2
176
     1
 90
        2
176
     1
 90
        0
176
     1
 90
        0
176
     1
 40
0.6
176
     1
 40
30.0
176
     1
 62
     7
420
 16777215
176
     1
 90
        1
176
     1
 90
        4
176
     1
 62
     7
176
     1
 62
   257
176
     1
 90
        1
176
     1
 90
        1
176
     1
 40
1.0
176
     1
 90
       12
176
     1
 62
     7
176
     1
 40
1.0
176
     1
 90
        1
176
     1
 90
        6
176
     1
 90
        2
176
     1
 62
     7
176
     1
 90
        5
176
     1
 90
        0
176
     1
 90
        0
176
     1
290
     0
176
     1
 90
        1
176
     1
 40
0.0
176
     1
 90
        0
176
     1
290
     0
176
     1
290
     1
176
     1
290
     1
176
     1
290
     0
176
     1
290
     0
176
     1
290
     0
176
     1
290
     0
176
     1
290
     0
176
     1
290
     0
176
     1
 90
       50
176
     1
 40
0.0
176
     1
 40
1.0
176
     1
 90
        0
176
     1
 62
    18
420
        0
176
     1
 90
       50
176
     1
 90
        3
176
     1
 62
     5
420
      255
176
     1
290
     0
176
     1
 90
       50
176
     1
 90
       50
176
     1
 90
       50
176
     1
290
     0
176
     1
 90
       50
176
     1
 62
   256
176
     0
 40
1.0
176
     0
 90
        2
176
     1
  1
strokes_ogs.tif
176
     1
290
     0
176
     1
 40
1.0
176
     1
 40
1.0
176
     1
  0
VISUALSTYLE
  5
30
102
{ACAD_REACTORS
330
29
102
}
330
29
100
AcDbVisualStyle
  2
Wireframe
 70
     5
177
     3
291
     0
 70
    58
 90
        0
176
     1
 90
        2
176
     1
 90
        0
176
     1
 90
        0
176
     1
 40
0.6
176
     1
 40
30.0
176
     1
 62
     7
420
 16777215
176
     1
 90
        1
176
     1
 90
        4
176
     1
 62
     7
176
     1
 62
   257
176
     1
 90
        1
176
     1
 90
        1
176
     1
 40
1.0
176
     1
 90
        0
176
     1
 62
   257
176
     1
 40
1.0
176
     1
 90
        1
176
     1
 90
        6
176
     1
 90
        2
176
     1
 62
     7
176
     1
 90
        3
176
     1
 90
        0
176
     1
 90
        0
176
     1
290
     0
176
     1
 90
        1
176
     1
 40
0.0
176
     1
 90
        0
176
     1
290
     0
176
     1
290
     1
176
     1
290
     1
176
     1
290
     0
176
     1
290
     0
176
     1
290
     0
176
     1
290
     0
176
     1
290
     0
176
     1
290
     0
176
     1
 90
       50
176
     1
 40
0.0
176
     1
 40
1.0
176
     1
 90
        0
176
     1
 62
    18
420
        0
176
     1
 90
       50
176
     1
 90
        3
176
     1
 62
     5
420
      255
176
     1
290
     0
176
     1
 90
       50
176
     1
 90
       50
176
     1
 90
       50
176
     1
290
     0
176
     1
 90
       50
176
     1
 62
   256
176
     0
 40
1.0
176
     0
 90
        2
176
     1
  1
strokes_ogs.tif
176
     1
290
     0
176
     1
 40
1.0
176
     1
 40
1.0
176
     1
  0
VISUALSTYLE
  5
3C
102
{ACAD_REACTORS
330
29
102
}
330
29
100
AcDbVisualStyle
  2
X-Ray
 70
    25
177
     3
291
     0
 70
    58
 90
        2
176
     1
 90
        2
176
     1
 90
        1
176
     1
 90
        1
176
     1
 40
0.5
176
     1
 40
30.0
176
     1
 62
     7
420
 16777215
176
     1
 90
        1
176
     1
 90
        0
176
     1
 62
     7
176
     1
 62
   257
176
     1
 90
        1
176
     1
 90
        1
176
     1
 40
1.0
176
     1
 90
        8
176
     1
 62
     7
176
     1
 40
1.0
176
     1
 90
        1
176
     1
 90
        6
176
     1
 90
        2
176
     1
 62
     7
176
     1
 90
        3
176
     1
 90
        0
176
     1
 90
        0
176
     1
290
     0
176
     1
 90
       13
176
     1
 40
0.0
176
     1
 90
        0
176
     1
290
     0
176
     1
290
     1
176
     1
290
     1
176
     1
290
     0
176
     1
290
     0
176
     1
290
     0
176
     1
290
     0
176
     1
290
     0
176
     1
290
     0
176
     1
 90
       50
176
     1
 40
0.0
176
     1
 40
1.0
176
     1
 90
        0
176
     1
 62
    18
420
        0
176
     1
 90
       50
176
     1
 90
        3
176
     1
 62
     5
420
      255
176
     1
290
     0
176
     1
 90
       50
176
     1
 90
       50
176
     1
 90
       50
176
     1
290
     0
176
     1
 90
       50
176
     1
 62
   256
176
     0
 40
1.0
176
     0
 90
        2
176
     1
  1
strokes_ogs.tif
176
     1
290
     0
176
     1
 40
1.0
176
     1
 40
1.0
176
     1
  0
DICTIONARYVAR
  5
30C
102
{ACAD_REACTORS
330
307
102
}
330
307
100
DictionaryVariables
280
     0
  1
1:1
  0
DICTIONARYVAR
  5
309
102
{ACAD_REACTORS
330
307
102
}
330
307
100
DictionaryVariables
280
     0
  1
STANDARD
  0
DICTIONARYVAR
  5
308
102
{ACAD_REACTORS
330
307
102
}
330
307
100
DictionaryVariables
280
     0
  1
STANDARD
  0
DICTIONARYVAR
  5
30A
102
{ACAD_REACTORS
330
307
102
}
330
307
100
DictionaryVariables
280
     0
  1
Imperial24
  0
DICTIONARYVAR
  5
30B
102
{ACAD_REACTORS
330
307
102
}
330
307
100
DictionaryVariables
280
     0
  1
Imperial24
  0
DICTIONARY
  5
1A
330
19
100
AcDbDictionary
280
     1
281
     1
  3
BUMPTILE
360
1C
  3
DIFFUSETILE
360
1B
  3
OPACITYTILE
360
1F
  3
REFLECTIONTILE
360
1E
  3
REFRACTIONTILE
360
20
  3
SPECULARTILE
360
1D
  0
DICTIONARY
  5
12
330
11
100
AcDbDictionary
280
     1
281
     1
  3
BUMPTILE
360
14
  3
DIFFUSETILE
360
13
  3
OPACITYTILE
360
17
  3
REFLECTIONTILE
360
16
  3
REFRACTIONTILE
360
18
  3
SPECULARTILE
360
15
  0
DICTIONARY
  5
22
330
21
100
AcDbDictionary
280
     1
281
     1
  3
BUMPTILE
360
24
  3
DIFFUSETILE
360
23
  3
OPACITYTILE
360
27
  3
REFLECTIONTILE
360
26
  3
REFRACTIONTILE
360
28
  3
SPECULARTILE
360
25
  0
DICTIONARY
  5
30D
330
65
100
AcDbDictionary
280
     1
281
     1
  3
ACAD_ROUNDTRIP_2008_TABLESTYLE_CELLSTYLEMAP
360
30E
  0
XRECORD
  5
1C
102
{ACAD_REACTORS
330
1A
102
}
330
1A
100
AcDbXrecord
280
     1
270
     1
271
     1
  0
XRECORD
  5
1B
102
{ACAD_REACTORS
330
1A
102
}
330
1A
100
AcDbXrecord
280
     1
270
     1
271
     1
  0
XRECORD
  5
1F
102
{ACAD_REACTORS
330
1A
102
}
330
1A
100
AcDbXrecord
280
     1
270
     1
271
     1
  0
XRECORD
  5
1E
102
{ACAD_REACTORS
330
1A
102
}
330
1A
100
AcDbXrecord
280
     1
270
     1
271
     1
  0
XRECORD
  5
20
102
{ACAD_REACTORS
330
1A
102
}
330
1A
100
AcDbXrecord
280
     1
270
     1
271
     1
  0
XRECORD
  5
1D
102
{ACAD_REACTORS
330
1A
102
}
330
1A
100
AcDbXrecord
280
     1
270
     1
271
     1
  0
XRECORD
  5
14
102
{ACAD_REACTORS
330
12
102
}
330
12
100
AcDbXrecord
280
     1
270
     1
271
     1
  0
XRECORD
  5
13
102
{ACAD_REACTORS
330
12
102
}
330
12
100
AcDbXrecord
280
     1
270
     1
271
     1
  0
XRECORD
  5
17
102
{ACAD_REACTORS
330
12
102
}
330
12
100
AcDbXrecord
280
     1
270
     1
271
     1
  0
XRECORD
  5
16
102
{ACAD_REACTORS
330
12
102
}
330
12
100
AcDbXrecord
280
     1
270
     1
271
     1
  0
XRECORD
  5
18
102
{ACAD_REACTORS
330
12
102
}
330
12
100
AcDbXrecord
280
     1
270
     1
271
     1
  0
XRECORD
  5
15
102
{ACAD_REACTORS
330
12
102
}
330
12
100
AcDbXrecord
280
     1
270
     1
271
     1
  0
XRECORD
  5
24
102
{ACAD_REACTORS
330
22
102
}
330
22
100
AcDbXrecord
280
     1
270
     1
271
     1
  0
XRECORD
  5
23
102
{ACAD_REACTORS
330
22
102
}
330
22
100
AcDbXrecord
280
     1
270
     1
271
     1
  0
XRECORD
  5
27
102
{ACAD_REACTORS
330
22
102
}
330
22
100
AcDbXrecord
280
     1
270
     1
271
     1
  0
XRECORD
  5
26
102
{ACAD_REACTORS
330
22
102
}
330
22
100
AcDbXrecord
280
     1
270
     1
271
     1
  0
XRECORD
  5
28
102
{ACAD_REACTORS
330
22
102
}
330
22
100
AcDbXrecord
280
     1
270
     1
271
     1
  0
XRECORD
  5
25
102
{ACAD_REACTORS
330
22
102
}
330
22
100
AcDbXrecord
280
     1
270
     1
271
     1
  0
CELLSTYLEMAP
  5
30E
102
{ACAD_REACTORS
330
30D
102
}
330
30D
100
AcDbCellStyleMap
 90
        3
300
CELLSTYLE
  1
TABLEFORMAT_BEGIN
 90
        5
170
     1
 91
        0
 92
    32768
 62
   257
 93
        1
300
CONTENTFORMAT
  1
CONTENTFORMAT_BEGIN
 90
        0
 91
        0
 92
      512
 93
        0
300

 40
0.0
140
1.0
 94
        5
 62
     0
340
55
144
0.25
309
CONTENTFORMAT_END
171
     0
 94
        0
309
TABLEFORMAT_END
  1
CELLSTYLE_BEGIN
 90
        1
 91
        1
300
_TITLE
309
CELLSTYLE_END
300
CELLSTYLE
  1
TABLEFORMAT_BEGIN
 90
        5
170
     1
 91
        0
 92
        0
 62
   257
 93
        1
300
CONTENTFORMAT
  1
CONTENTFORMAT_BEGIN
 90
        0
 91
        0
 92
      512
 93
        0
300

 40
0.0
140
1.0
 94
        5
 62
     0
340
55
144
0.18
309
CONTENTFORMAT_END
171
     0
 94
        0
309
TABLEFORMAT_END
  1
CELLSTYLE_BEGIN
 90
        2
 91
        1
300
_HEADER
309
CELLSTYLE_END
300
CELLSTYLE
  1
TABLEFORMAT_BEGIN
 90
        5
170
     1
 91
        0
 92
        0
 62
   257
 93
        1
300
CONTENTFORMAT
  1
CONTENTFORMAT_BEGIN
 90
        0
 91
        0
 92
      512
 93
        0
300

 40
0.0
140
1.0
 94
        2
 62
     0
340
55
144
0.18
309
CONTENTFORMAT_END
171
     0
 94
        0
309
TABLEFORMAT_END
  1
CELLSTYLE_BEGIN
 90
        3
 91
        2
300
_DATA
309
CELLSTYLE_END
  0
ENDSEC
  0
EOF
