  0
SECTION
  2
HEADER
  9
$ACADVER
  1
AC1014
  9
$ACADMAINTVER
 70
     9
  9
$DWGCODEPAGE
  3
ASCII
  9
$INSBASE
 10
0.0
 20
0.0
 30
0.0
  9
$EXTMIN
 10
1.000000000000000E+20
 20
1.000000000000000E+20
 30
1.000000000000000E+20
  9
$EXTMAX
 10
-1.000000000000000E+20
 20
-1.000000000000000E+20
 30
-1.000000000000000E+20
  9
$LIMMIN
 10
0.0
 20
0.0
  9
$LIMMAX
 10
12.0
 20
9.0
  9
$ORTHOMODE
 70
     0
  9
$REGENMODE
 70
     1
  9
$FILLMODE
 70
     1
  9
$QTEXTMODE
 70
     0
  9
$MIRRTEXT
 70
     1
  9
$DRAGMODE
 70
     2
  9
$LTSCALE
 40
1.0
  9
$OSMODE
 70
    37
  9
$ATTMODE
 70
     1
  9
$TEXTSIZE
 40
0.2
  9
$TRACEWID
 40
0.05
  9
$TEXTSTYLE
  7
STANDARD
  9
$CLAYER
  8
0
  9
$CELTYPE
  6
BYLAYER
  9
$CECOLOR
 62
   256
  9
$CELTSCALE
 40
1.0
  9
$DELOBJ
 70
     1
  9
$DISPSILH
 70
     0
  9
$DIMSCALE
 40
1.0
  9
$DIMASZ
 40
0.18
  9
$DIMEXO
 40
0.0625
  9
$DIMDLI
 40
0.38
  9
$DIMRND
 40
0.0
  9
$DIMDLE
 40
0.0
  9
$DIMEXE
 40
0.18
  9
$DIMTP
 40
0.0
  9
$DIMTM
 40
0.0
  9
$DIMTXT
 40
0.18
  9
$DIMCEN
 40
0.09
  9
$DIMTSZ
 40
0.0
  9
$DIMTOL
 70
     0
  9
$DIMLIM
 70
     0
  9
$DIMTIH
 70
     1
  9
$DIMTOH
 70
     1
  9
$DIMSE1
 70
     0
  9
$DIMSE2
 70
     0
  9
$DIMTAD
 70
     0
  9
$DIMZIN
 70
     0
  9
$DIMBLK
  1

  9
$DIMASO
 70
     1
  9
$DIMSHO
 70
     1
  9
$DIMPOST
  1

  9
$DIMAPOST
  1

  9
$DIMALT
 70
     0
  9
$DIMALTD
 70
     2
  9
$DIMALTF
 40
25.4
  9
$DIMLFAC
 40
1.0
  9
$DIMTOFL
 70
     0
  9
$DIMTVP
 40
0.0
  9
$DIMTIX
 70
     0
  9
$DIMSOXD
 70
     0
  9
$DIMSAH
 70
     0
  9
$DIMBLK1
  1

  9
$DIMBLK2
  1

  9
$DIMSTYLE
  2
STANDARD
  9
$DIMCLRD
 70
     0
  9
$DIMCLRE
 70
     0
  9
$DIMCLRT
 70
     0
  9
$DIMTFAC
 40
1.0
  9
$DIMGAP
 40
0.09
  9
$DIMJUST
 70
     0
  9
$DIMSD1
 70
     0
  9
$DIMSD2
 70
     0
  9
$DIMTOLJ
 70
     1
  9
$DIMTZIN
 70
     0
  9
$DIMALTZ
 70
     0
  9
$DIMALTTZ
 70
     0
  9
$DIMFIT
 70
     3
  9
$DIMUPT
 70
     0
  9
$DIMUNIT
 70
     2
  9
$DIMDEC
 70
     4
  9
$DIMTDEC
 70
     4
  9
$DIMALTU
 70
     2
  9
$DIMALTTD
 70
     2
  9
$DIMTXSTY
  7
STANDARD
  9
$DIMAUNIT
 70
     0
  9
$LUNITS
 70
     2
  9
$LUPREC
 70
     4
  9
$SKETCHINC
 40
0.1
  9
$FILLETRAD
 40
0.5
  9
$AUNITS
 70
     0
  9
$AUPREC
 70
     0
  9
$MENU
  1
.
  9
$ELEVATION
 40
0.0
  9
$PELEVATION
 40
0.0
  9
$THICKNESS
 40
0.0
  9
$LIMCHECK
 70
     0
  9
$CHAMFERA
 40
0.5
  9
$CHAMFERB
 40
0.5
  9
$CHAMFERC
 40
1.0
  9
$CHAMFERD
 40
0.0
  9
$SKPOLY
 70
     0
  9
$TDCREATE
 40
2456035.50707787
  9
$TDUPDATE
 40
2456035.507077882
  9
$TDINDWG
 40
0.0000000116
  9
$TDUSRTIMER
 40
0.0000000116
  9
$USRTIMER
 70
     1
  9
$ANGBASE
 50
0.0
  9
$ANGDIR
 70
     0
  9
$PDMODE
 70
     0
  9
$PDSIZE
 40
0.0
  9
$PLINEWID
 40
0.0
  9
$COORDS
 70
     1
  9
$SPLFRAME
 70
     0
  9
$SPLINETYPE
 70
     6
  9
$SPLINESEGS
 70
     8
  9
$ATTDIA
 70
     0
  9
$ATTREQ
 70
     1
  9
$HANDLING
 70
     1
  9
$HANDSEED
  5
812
  9
$SURFTAB1
 70
     6
  9
$SURFTAB2
 70
     6
  9
$SURFTYPE
 70
     6
  9
$SURFU
 70
     6
  9
$SURFV
 70
     6
  9
$UCSNAME
  2

  9
$UCSORG
 10
0.0
 20
0.0
 30
0.0
  9
$UCSXDIR
 10
1.0
 20
0.0
 30
0.0
  9
$UCSYDIR
 10
0.0
 20
1.0
 30
0.0
  9
$PUCSNAME
  2

  9
$PUCSORG
 10
0.0
 20
0.0
 30
0.0
  9
$PUCSXDIR
 10
1.0
 20
0.0
 30
0.0
  9
$PUCSYDIR
 10
0.0
 20
1.0
 30
0.0
  9
$USERI1
 70
     0
  9
$USERI2
 70
     0
  9
$USERI3
 70
     0
  9
$USERI4
 70
     0
  9
$USERI5
 70
     0
  9
$USERR1
 40
0.0
  9
$USERR2
 40
0.0
  9
$USERR3
 40
0.0
  9
$USERR4
 40
0.0
  9
$USERR5
 40
0.0
  9
$WORLDVIEW
 70
     1
  9
$SHADEDGE
 70
     3
  9
$SHADEDIF
 70
    70
  9
$TILEMODE
 70
     1
  9
$MAXACTVP
 70
    64
  9
$PINSBASE
 10
0.0
 20
0.0
 30
0.0
  9
$PLIMCHECK
 70
     0
  9
$PEXTMIN
 10
1.000000000000000E+20
 20
1.000000000000000E+20
 30
1.000000000000000E+20
  9
$PEXTMAX
 10
-1.000000000000000E+20
 20
-1.000000000000000E+20
 30
-1.000000000000000E+20
  9
$PLIMMIN
 10
0.0
 20
0.0
  9
$PLIMMAX
 10
12.0
 20
9.0
  9
$UNITMODE
 70
     0
  9
$VISRETAIN
 70
     1
  9
$PLINEGEN
 70
     0
  9
$PSLTSCALE
 70
     1
  9
$TREEDEPTH
 70
  3020
  9
$PICKSTYLE
 70
     1
  9
$CMLSTYLE
  2
STANDARD
  9
$CMLJUST
 70
     0
  9
$CMLSCALE
 40
1.0
  9
$PROXYGRAPHICS
 70
     1
  9
$MEASUREMENT
 70
     0
  0
ENDSEC
  0
SECTION
  2
CLASSES
  0
CLASS
  1
ACDBDICTIONARYWDFLT
  2
AcDbDictionaryWithDefault
  3
ObjectDBX Classes
 90
        0
280
     0
281
     0
  0
CLASS
  1
VISUALSTYLE
  2
AcDbVisualStyle
  3
ObjectDBX Classes
 90
     4095
280
     0
281
     0
  0
CLASS
  1
XRECORD
  2
AcDbXrecord
  3
AutoCAD 2000
 90
        0
280
     0
281
     0
  0
CLASS
  1
LWPOLYLINE
  2
AcDbPolyline
  3
AutoCAD 2000
 90
        0
280
     0
281
     1
  0
CLASS
  1
HATCH
  2
AcDbHatch
  3
AutoCAD 2000
 90
        0
280
     0
281
     1
  0
CLASS
  1
ACDBPLACEHOLDER
  2
AcDbPlaceHolder
  3
ObjectDBX Classes
 90
        0
280
     0
281
     0
  0
CLASS
  1
LAYOUT
  2
AcDbLayout
  3
ObjectDBX Classes
 90
        0
280
     0
281
     0
  0
ENDSEC
  0
SECTION
  2
TABLES
  0
TABLE
  2
VPORT
  5
8
330
0
100
AcDbSymbolTable
 70
     1
  0
VPORT
  5
29
330
8
100
AcDbSymbolTableRecord
100
AcDbViewportTableRecord
  2
*ACTIVE
 70
     0
 10
0.0
 20
0.0
 11
1.0
 21
1.0
 12
0.0
 22
0.0
 13
0.0
 23
0.0
 14
0.5
 24
0.5
 15
0.5
 25
0.5
 16
0.0
 26
0.0
 36
1.0
 17
61.0973445709034
 27
-42.06343784049692
 37
0.0
 40
117.9635647695841
 41
1.321509639673991
 42
50.0
 43
0.0
 44
0.0
 50
0.0
 51
0.0
 71
     0
 72
   100
 73
     1
 74
     3
 75
     0
 76
     0
 77
     0
 78
     0
  0
ENDTAB
  0
TABLE
  2
LTYPE
  5
5
330
0
100
AcDbSymbolTable
 70
     5
  0
LTYPE
  5
14
330
5
100
AcDbSymbolTableRecord
100
AcDbLinetypeTableRecord
  2
BYBLOCK
 70
     0
  3

 72
    65
 73
     0
 40
0.0
  0
LTYPE
  5
15
330
5
100
AcDbSymbolTableRecord
100
AcDbLinetypeTableRecord
  2
BYLAYER
 70
     0
  3

 72
    65
 73
     0
 40
0.0
  0
LTYPE
  5
16
330
5
100
AcDbSymbolTableRecord
100
AcDbLinetypeTableRecord
  2
CONTINUOUS
 70
     0
  3
Solid line
 72
    65
 73
     0
 40
0.0
  0
LTYPE
  5
40
330
5
100
AcDbSymbolTableRecord
100
AcDbLinetypeTableRecord
  2
AI-LINETYPE-1
 70
     0
  3
Adobe Illustrator Linetype No. 1
 72
    65
 73
     4
 40
8.819450260381924
 49
7.055560208305538
 74
     0
 49
-0.7055560208305538
 74
     0
 49
0.3527780104152769
 74
     0
 49
-0.7055560208305538
 74
     0
  0
LTYPE
  5
45
330
5
100
AcDbSymbolTableRecord
100
AcDbLinetypeTableRecord
  2
AI-LINETYPE-2
 70
     0
  3
Adobe Illustrator Linetype No. 2
 72
    65
 73
     4
 40
8.819450260381924
 49
7.055560208305538
 74
     0
 49
-0.7055560208305538
 74
     0
 49
0.3527780104152769
 74
     0
 49
-0.7055560208305538
 74
     0
  0
LTYPE
  5
4A
330
5
100
AcDbSymbolTableRecord
100
AcDbLinetypeTableRecord
  2
AI-LINETYPE-3
 70
     0
  3
Adobe Illustrator Linetype No. 3
 72
    65
 73
     4
 40
8.819450260381924
 49
7.055560208305538
 74
     0
 49
-0.7055560208305538
 74
     0
 49
0.3527780104152769
 74
     0
 49
-0.7055560208305538
 74
     0
  0
LTYPE
  5
4F
330
5
100
AcDbSymbolTableRecord
100
AcDbLinetypeTableRecord
  2
AI-LINETYPE-4
 70
     0
  3
Adobe Illustrator Linetype No. 4
 72
    65
 73
     4
 40
8.819450260381924
 49
7.055560208305538
 74
     0
 49
-0.7055560208305538
 74
     0
 49
0.3527780104152769
 74
     0
 49
-0.7055560208305538
 74
     0
  0
ENDTAB
  0
TABLE
  2
LAYER
  5
2
330
0
100
AcDbSymbolTable
 70
     5
  0
LAYER
  5
10
330
2
100
AcDbSymbolTableRecord
100
AcDbLayerTableRecord
  2
0
 70
     0
 62
     7
  6
CONTINUOUS
  0
LAYER
  5
3B
330
2
100
AcDbSymbolTableRecord
100
AcDbLayerTableRecord
  2
GRAU_10_
 70
     0
 62
     7
  6
CONTINUOUS
  0
LAYER
  5
366
330
2
100
AcDbSymbolTableRecord
100
AcDbLayerTableRecord
  2
STANDARDEBENE
 70
     0
 62
     7
  6
CONTINUOUS
  0
LAYER
  5
464
330
2
100
AcDbSymbolTableRecord
100
AcDbLayerTableRecord
  2
BEMA_UNG
 70
     1
 62
     7
  6
CONTINUOUS
  0
LAYER
  5
7EB
330
2
100
AcDbSymbolTableRecord
100
AcDbLayerTableRecord
  2
TEXT
 70
     1
 62
     7
  6
CONTINUOUS
  0
ENDTAB
  0
TABLE
  2
STYLE
  5
3
330
0
100
AcDbSymbolTable
 70
     1
  0
STYLE
  5
11
330
3
100
AcDbSymbolTableRecord
100
AcDbTextStyleTableRecord
  2
STANDARD
 70
     0
 40
0.0
 41
1.0
 50
0.0
 71
     0
 42
0.2
  3
txt
  4

  0
ENDTAB
  0
TABLE
  2
VIEW
  5
6
330
0
100
AcDbSymbolTable
 70
     0
  0
ENDTAB
  0
TABLE
  2
UCS
  5
7
330
0
100
AcDbSymbolTable
 70
     0
  0
ENDTAB
  0
TABLE
  2
APPID
  5
9
330
0
100
AcDbSymbolTable
 70
     1
  0
APPID
  5
12
330
9
100
AcDbSymbolTableRecord
100
AcDbRegAppTableRecord
  2
ACAD
 70
     0
  0
ENDTAB
  0
TABLE
  2
DIMSTYLE
  5
A
330
0
100
AcDbSymbolTable
 70
     1
  0
DIMSTYLE
105
27
330
A
100
AcDbSymbolTableRecord
100
AcDbDimStyleTableRecord
  2
STANDARD
 70
     0
  3

  4

  5

  6

  7

 40
1.0
 41
0.18
 42
0.0625
 43
0.38
 44
0.18
 45
0.0
 46
0.0
 47
0.0
 48
0.0
140
0.18
141
0.09
142
0.0
143
25.4
144
1.0
145
0.0
146
1.0
147
0.09
 71
     0
 72
     0
 73
     1
 74
     1
 75
     0
 76
     0
 77
     0
 78
     0
170
     0
171
     2
172
     0
173
     0
174
     0
175
     0
176
     0
177
     0
178
     0
270
     2
271
     4
272
     4
273
     2
274
     2
340
11
275
     0
280
     0
281
     0
282
     0
283
     1
284
     0
285
     0
286
     0
287
     3
288
     0
  0
ENDTAB
  0
TABLE
  2
BLOCK_RECORD
  5
1
330
0
100
AcDbSymbolTable
 70
     1
  0
BLOCK_RECORD
  5
1F
330
1
100
AcDbSymbolTableRecord
100
AcDbBlockTableRecord
  2
*MODEL_SPACE
  0
BLOCK_RECORD
  5
1B
330
1
100
AcDbSymbolTableRecord
100
AcDbBlockTableRecord
  2
*PAPER_SPACE
  0
ENDTAB
  0
ENDSEC
  0
SECTION
  2
BLOCKS
  0
BLOCK
  5
20
330
1F
100
AcDbEntity
  8
0
100
AcDbBlockBegin
  2
*MODEL_SPACE
 70
     0
 71
     0
 10
0.0
 20
0.0
 30
0.0
  3
*MODEL_SPACE
  1

  0
ENDBLK
  5
21
330
1F
100
AcDbEntity
  8
0
100
AcDbBlockEnd
  0
BLOCK
  5
1C
330
1B
100
AcDbEntity
 67
     1
  8
0
100
AcDbBlockBegin
  2
*PAPER_SPACE
 70
     0
 71
     0
 10
0.0
 20
0.0
 30
0.0
  3
*PAPER_SPACE
  1

  0
ENDBLK
  5
1D
330
1B
100
AcDbEntity
 67
     1
  8
0
100
AcDbBlockEnd
  0
ENDSEC
  0
SECTION
  2
ENTITIES
  0
POLYLINE
  5
3C
330
1F
100
AcDbEntity
  8
GRAU_10_
  6
AI-LINETYPE-1
 62
     7
100
AcDb2dPolyline
 66
     1
 10
0.0
 20
0.0
 30
0.0
  0
VERTEX
  5
3D
330
3C
100
AcDbEntity
  8
GRAU_10_
  6
AI-LINETYPE-1
 62
     7
100
AcDbVertex
100
AcDb2dVertex
 10
59.00591184948882
 20
-17.58093675098614
 30
0.0
  0
VERTEX
  5
3E
330
3C
100
AcDbEntity
  8
GRAU_10_
  6
AI-LINETYPE-1
 62
     7
100
AcDbVertex
100
AcDb2dVertex
 10
-2.697339289596104
 20
-17.58093675098614
 30
0.0
  0
SEQEND
  5
3F
330
3C
100
AcDbEntity
  8
GRAU_10_
  6
AI-LINETYPE-1
  0
POLYLINE
  5
41
330
1F
100
AcDbEntity
  8
GRAU_10_
  6
AI-LINETYPE-2
 62
     7
100
AcDb2dPolyline
 66
     1
 10
0.0
 20
0.0
 30
0.0
  0
VERTEX
  5
42
330
41
100
AcDbEntity
  8
GRAU_10_
  6
AI-LINETYPE-2
 62
     7
100
AcDbVertex
100
AcDb2dVertex
 10
118.5439190476948
 20
-37.49317115478495
 30
0.0
  0
VERTEX
  5
43
330
41
100
AcDbEntity
  8
GRAU_10_
  6
AI-LINETYPE-2
 62
     7
100
AcDbVertex
100
AcDb2dVertex
 10
118.5439190476948
 20
2.096686495495484
 30
0.0
  0
SEQEND
  5
44
330
41
100
AcDbEntity
  8
GRAU_10_
  6
AI-LINETYPE-2
  0
POLYLINE
  5
46
330
1F
100
AcDbEntity
  8
GRAU_10_
  6
AI-LINETYPE-3
 62
     7
100
AcDb2dPolyline
 66
     1
 10
0.0
 20
0.0
 30
0.0
  0
VERTEX
  5
47
330
46
100
AcDbEntity
  8
GRAU_10_
  6
AI-LINETYPE-3
 62
     7
100
AcDbVertex
100
AcDb2dVertex
 10
99.66340529496158
 20
-17.58093675098614
 30
0.0
  0
VERTEX
  5
48
330
46
100
AcDbEntity
  8
GRAU_10_
  6
AI-LINETYPE-3
 62
     7
100
AcDbVertex
100
AcDb2dVertex
 10
137.4699080908331
 20
-17.58093675098614
 30
0.0
  0
SEQEND
  5
49
330
46
100
AcDbEntity
  8
GRAU_10_
  6
AI-LINETYPE-3
  0
POLYLINE
  5
4B
330
1F
100
AcDbEntity
  8
GRAU_10_
  6
AI-LINETYPE-4
 62
     7
100
AcDb2dPolyline
 66
     1
 10
0.0
 20
0.0
 30
0.0
  0
VERTEX
  5
4C
330
4B
100
AcDbEntity
  8
GRAU_10_
  6
AI-LINETYPE-4
 62
     7
100
AcDbVertex
100
AcDb2dVertex
 10
57.04427318610544
 20
-82.21260711178245
 30
0.0
  0
VERTEX
  5
4D
330
4B
100
AcDbEntity
  8
GRAU_10_
  6
AI-LINETYPE-4
 62
     7
100
AcDbVertex
100
AcDb2dVertex
 10
-2.340599416759171
 20
-82.21260711178245
 30
0.0
  0
SEQEND
  5
4E
330
4B
100
AcDbEntity
  8
GRAU_10_
  6
AI-LINETYPE-4
  0
POLYLINE
  5
50
330
1F
100
AcDbEntity
  8
GRAU_10_
 62
     7
100
AcDb2dPolyline
 66
     1
 10
0.0
 20
0.0
 30
0.0
  0
VERTEX
  5
51
330
50
100
AcDbEntity
  8
GRAU_10_
 62
     7
100
AcDbVertex
100
AcDb2dVertex
 10
121.5439101753279
 20
-21.51282682214782
 30
0.0
  0
VERTEX
  5
52
330
50
100
AcDbEntity
  8
GRAU_10_
 62
     7
100
AcDbVertex
100
AcDb2dVertex
 10
121.5439101753279
 20
-21.58069524797966
 30
0.0
  0
SEQEND
  5
53
330
50
100
AcDbEntity
  8
GRAU_10_
  0
POLYLINE
  5
54
330
1F
100
AcDbEntity
  8
GRAU_10_
 62
     7
100
AcDb2dPolyline
 66
     1
 10
0.0
 20
0.0
 30
0.0
  0
VERTEX
  5
55
330
54
100
AcDbEntity
  8
GRAU_10_
 62
     7
100
AcDbVertex
100
AcDb2dVertex
 10
121.5439101753279
 20
-13.64801315049708
 30
0.0
  0
VERTEX
  5
56
330
54
100
AcDbEntity
  8
GRAU_10_
 62
     7
100
AcDbVertex
100
AcDb2dVertex
 10
121.5439101753279
 20
-13.58031697955313
 30
0.0
  0
SEQEND
  5
57
330
54
100
AcDbEntity
  8
GRAU_10_
  0
SPLINE
  5
58
330
1F
100
AcDbEntity
  8
GRAU_10_
 62
     7
100
AcDbSpline
210
0.0
220
0.0
230
1.0
 70
    11
 71
     3
 72
    17
 73
    13
 74
     0
 42
0.0000000001
 43
0.0000000001
 40
0.0
 40
0.0
 40
0.0
 40
0.0
 40
1.0
 40
1.0
 40
1.0
 40
2.0
 40
2.0
 40
2.0
 40
3.0
 40
3.0
 40
3.0
 40
4.0
 40
4.0
 40
4.0
 40
4.0
 10
130.9147483318716
 20
-17.58093675098614
 30
0.0
 10
130.9147483318716
 20
-10.74861887739652
 30
0.0
 10
125.3758924115086
 20
-5.210279721697309
 30
0.0
 10
118.5439190476948
 20
-5.210279721697309
 30
0.0
 10
111.7121179387689
 20
-5.210279721697309
 30
0.0
 10
106.1730897635181
 20
-10.74861887739652
 30
0.0
 10
106.1730897635181
 20
-17.58093675098614
 30
0.0
 10
106.1730897635181
 20
-24.41265173246812
 30
0.0
 10
111.7121179387689
 20
-29.95099088816733
 30
0.0
 10
118.5439190476948
 20
-29.95099088816733
 30
0.0
 10
125.3758924115086
 20
-29.95099088816733
 30
0.0
 10
130.9147483318716
 20
-24.41265173246812
 30
0.0
 10
130.9147483318716
 20
-17.58093675098614
 30
0.0
  0
SPLINE
  5
59
330
1F
100
AcDbEntity
  8
GRAU_10_
 62
     7
100
AcDbSpline
210
0.0
220
0.0
230
1.0
 70
    11
 71
     3
 72
    17
 73
    13
 74
     0
 42
0.0000000001
 43
0.0000000001
 40
0.0
 40
0.0
 40
0.0
 40
0.0
 40
1.0
 40
1.0
 40
1.0
 40
2.0
 40
2.0
 40
2.0
 40
3.0
 40
3.0
 40
3.0
 40
4.0
 40
4.0
 40
4.0
 40
4.0
 10
123.5437894238246
 20
-17.58093675098614
 30
0.0
 10
123.5437894238246
 20
-14.81900187842825
 30
0.0
 10
121.3051649007011
 20
-12.58089411996844
 30
0.0
 10
118.5439190476948
 20
-12.58089411996844
 30
0.0
 10
115.7826731946885
 20
-12.58089411996844
 30
0.0
 10
113.544048671565
 20
-14.81900187842825
 30
0.0
 10
113.544048671565
 20
-17.58093675098614
 30
0.0
 10
113.544048671565
 20
-20.34252711376823
 30
0.0
 10
115.7826731946885
 20
-22.58080712711594
 30
0.0
 10
118.5439190476948
 20
-22.58080712711594
 30
0.0
 10
121.3051649007011
 20
-22.58080712711594
 30
0.0
 10
123.5437894238246
 20
-20.34252711376823
 30
0.0
 10
123.5437894238246
 20
-17.58093675098614
 30
0.0
  0
SPLINE
  5
5A
330
1F
100
AcDbEntity
  8
GRAU_10_
 62
     7
100
AcDbSpline
210
0.0
220
0.0
230
1.0
 70
    11
 71
     3
 72
    17
 73
    13
 74
     0
 42
0.0000000001
 43
0.0000000001
 40
0.0
 40
0.0
 40
0.0
 40
0.0
 40
1.0
 40
1.0
 40
1.0
 40
2.0
 40
2.0
 40
2.0
 40
3.0
 40
3.0
 40
3.0
 40
4.0
 40
4.0
 40
4.0
 40
4.0
 10
136.0438098739249
 20
-17.58093675098614
 30
0.0
 10
136.0438098739249
 20
-7.915714991024623
 30
0.0
 10
128.2086240429927
 20
-0.0808736698681506
 30
0.0
 10
118.5439190476948
 20
-0.0808736698681506
 30
0.0
 10
108.879214052397
 20
-0.0808736698681506
 30
0.0
 10
101.0440282214647
 20
-7.915714991024623
 30
0.0
 10
101.0440282214647
 20
-17.58093675098614
 30
0.0
 10
101.0440282214647
 20
-27.24555561884001
 30
0.0
 10
108.879214052397
 20
-35.08074144977228
 30
0.0
 10
118.5439190476948
 20
-35.08074144977228
 30
0.0
 10
128.2086240429927
 20
-35.08074144977228
 30
0.0
 10
136.0438098739249
 20
-27.24555561884001
 30
0.0
 10
136.0438098739249
 20
-17.58093675098614
 30
0.0
  0
POLYLINE
  5
5B
330
1F
100
AcDbEntity
  8
GRAU_10_
 62
     7
100
AcDb2dPolyline
 66
     1
 10
0.0
 20
0.0
 30
0.0
  0
VERTEX
  5
5C
330
5B
100
AcDbEntity
  8
GRAU_10_
 62
     7
100
AcDbVertex
100
AcDb2dVertex
 10
10.93594606798569
 20
-0.0808736698681506
 30
0.0
  0
VERTEX
  5
5D
330
5B
100
AcDbEntity
  8
GRAU_10_
 62
     7
100
AcDbVertex
100
AcDb2dVertex
 10
-0.0640788182980874
 20
-5.210279721697309
 30
0.0
  0
SEQEND
  5
5E
330
5B
100
AcDbEntity
  8
GRAU_10_
  0
POLYLINE
  5
5F
330
1F
100
AcDbEntity
  8
GRAU_10_
 62
     7
100
AcDb2dPolyline
 66
     1
 10
0.0
 20
0.0
 30
0.0
  0
VERTEX
  5
60
330
5F
100
AcDbEntity
  8
GRAU_10_
 62
     7
100
AcDbVertex
100
AcDb2dVertex
 10
-0.0640788182980874
 20
-29.95099088816733
 30
0.0
  0
VERTEX
  5
61
330
5F
100
AcDbEntity
  8
GRAU_10_
 62
     7
100
AcDbVertex
100
AcDb2dVertex
 10
10.93594606798569
 20
-35.08074144977228
 30
0.0
  0
VERTEX
  5
62
330
5F
100
AcDbEntity
  8
GRAU_10_
 62
     7
100
AcDbVertex
100
AcDb2dVertex
 10
29.93617696780809
 20
-35.08074144977228
 30
0.0
  0
SEQEND
  5
63
330
5F
100
AcDbEntity
  8
GRAU_10_
  0
POLYLINE
  5
64
330
1F
100
AcDbEntity
  8
GRAU_10_
 62
     7
100
AcDb2dPolyline
 66
     1
 10
0.0
 20
0.0
 30
0.0
  0
VERTEX
  5
65
330
64
100
AcDbEntity
  8
GRAU_10_
 62
     7
100
AcDbVertex
100
AcDb2dVertex
 10
29.93617696780809
 20
-0.0808736698681506
 30
0.0
  0
VERTEX
  5
66
330
64
100
AcDbEntity
  8
GRAU_10_
 62
     7
100
AcDbVertex
100
AcDb2dVertex
 10
10.93594606798569
 20
-0.0808736698681506
 30
0.0
  0
SEQEND
  5
67
330
64
100
AcDbEntity
  8
GRAU_10_
  0
POLYLINE
  5
68
330
1F
100
AcDbEntity
  8
GRAU_10_
 62
     7
100
AcDb2dPolyline
 66
     1
 10
0.0
 20
0.0
 30
0.0
  0
VERTEX
  5
69
330
68
100
AcDbEntity
  8
GRAU_10_
 62
     7
100
AcDbVertex
100
AcDb2dVertex
 10
29.93617696780809
 20
-33.58040137617996
 30
0.0
  0
VERTEX
  5
6A
330
68
100
AcDbEntity
  8
GRAU_10_
 62
     7
100
AcDbVertex
100
AcDb2dVertex
 10
36.93592659243465
 20
-33.58040137617996
 30
0.0
  0
SEQEND
  5
6B
330
68
100
AcDbEntity
  8
GRAU_10_
  0
POLYLINE
  5
6C
330
1F
100
AcDbEntity
  8
GRAU_10_
 62
     7
100
AcDb2dPolyline
 66
     1
 10
0.0
 20
0.0
 30
0.0
  0
VERTEX
  5
6D
330
6C
100
AcDbEntity
  8
GRAU_10_
 62
     7
100
AcDbVertex
100
AcDb2dVertex
 10
36.93592659243465
 20
-1.58086923368467
 30
0.0
  0
VERTEX
  5
6E
330
6C
100
AcDbEntity
  8
GRAU_10_
 62
     7
100
AcDbVertex
100
AcDb2dVertex
 10
29.93617696780809
 20
-1.58086923368467
 30
0.0
  0
SEQEND
  5
6F
330
6C
100
AcDbEntity
  8
GRAU_10_
  0
POLYLINE
  5
70
330
1F
100
AcDbEntity
  8
GRAU_10_
 62
     7
100
AcDb2dPolyline
 66
     1
 10
0.0
 20
0.0
 30
0.0
  0
VERTEX
  5
71
330
70
100
AcDbEntity
  8
GRAU_10_
 62
     7
100
AcDbVertex
100
AcDb2dVertex
 10
37.43615478689069
 20
-7.080795549382607
 30
0.0
  0
VERTEX
  5
72
330
70
100
AcDbEntity
  8
GRAU_10_
 62
     7
100
AcDbVertex
100
AcDb2dVertex
 10
36.93592659243465
 20
-7.080795549382607
 30
0.0
  0
SEQEND
  5
73
330
70
100
AcDbEntity
  8
GRAU_10_
  0
POLYLINE
  5
74
330
1F
100
AcDbEntity
  8
GRAU_10_
 62
     7
100
AcDb2dPolyline
 66
     1
 10
0.0
 20
0.0
 30
0.0
  0
VERTEX
  5
75
330
74
100
AcDbEntity
  8
GRAU_10_
 62
     7
100
AcDbVertex
100
AcDb2dVertex
 10
36.93592659243465
 20
-28.08099182514572
 30
0.0
  0
VERTEX
  5
76
330
74
100
AcDbEntity
  8
GRAU_10_
 62
     7
100
AcDbVertex
100
AcDb2dVertex
 10
37.43615478689069
 20
-28.08099182514572
 30
0.0
  0
SEQEND
  5
77
330
74
100
AcDbEntity
  8
GRAU_10_
  0
POLYLINE
  5
78
330
1F
100
AcDbEntity
  8
GRAU_10_
 62
     7
100
AcDb2dPolyline
 66
     1
 10
0.0
 20
0.0
 30
0.0
  0
VERTEX
  5
79
330
78
100
AcDbEntity
  8
GRAU_10_
 62
     7
100
AcDbVertex
100
AcDb2dVertex
 10
37.9114060226015
 20
-6.729395578070515
 30
0.0
  0
VERTEX
  5
7A
330
78
100
AcDbEntity
  8
GRAU_10_
 62
     7
100
AcDbVertex
100
AcDb2dVertex
 10
37.64820055389323
 20
-6.992945556554584
 30
0.0
  0
SEQEND
  5
7B
330
78
100
AcDbEntity
  8
GRAU_10_
  0
POLYLINE
  5
7C
330
1F
100
AcDbEntity
  8
GRAU_10_
 62
     7
100
AcDb2dPolyline
 66
     1
 10
0.0
 20
0.0
 30
0.0
  0
VERTEX
  5
7D
330
7C
100
AcDbEntity
  8
GRAU_10_
 62
     7
100
AcDbVertex
100
AcDb2dVertex
 10
37.64820055389323
 20
-28.16849730819795
 30
0.0
  0
VERTEX
  5
7E
330
7C
100
AcDbEntity
  8
GRAU_10_
 62
     7
100
AcDbVertex
100
AcDb2dVertex
 10
37.91278406170468
 20
-28.43308081600941
 30
0.0
  0
SEQEND
  5
7F
330
7C
100
AcDbEntity
  8
GRAU_10_
  0
SPLINE
  5
80
330
1F
100
AcDbEntity
  8
GRAU_10_
 62
     7
100
AcDbSpline
210
0.0
220
0.0
230
1.0
 70
     8
 71
     3
 72
     8
 73
     4
 74
     0
 42
0.0000000001
 43
0.0000000001
 40
0.0
 40
0.0
 40
0.0
 40
0.0
 40
1.0
 40
1.0
 40
1.0
 40
1.0
 10
37.43615478689069
 20
-7.080795549382607
 30
0.0
 10
37.51918164285757
 20
-7.080795549382607
 30
0.0
 10
37.59394026420533
 20
-7.04720584624248
 30
0.0
 10
37.64820055389323
 20
-6.992945556554584
 30
0.0
  0
SPLINE
  5
81
330
1F
100
AcDbEntity
  8
GRAU_10_
 62
     7
100
AcDbSpline
210
0.0
220
0.0
230
1.0
 70
     8
 71
     3
 72
     8
 73
     4
 74
     0
 42
0.0000000001
 43
0.0000000001
 40
0.0
 40
0.0
 40
0.0
 40
0.0
 40
1.0
 40
1.0
 40
1.0
 40
1.0
 10
37.64820055389323
 20
-28.16849730819795
 30
0.0
 10
37.58928938223208
 20
-28.1102751560884
 30
0.0
 10
37.51280821200533
 20
-28.08099182514572
 30
0.0
 10
37.43615478689069
 20
-28.08099182514572
 30
0.0
  0
POLYLINE
  5
82
330
1F
100
AcDbEntity
  8
GRAU_10_
 62
     7
100
AcDb2dPolyline
 66
     1
 10
0.0
 20
0.0
 30
0.0
  0
VERTEX
  5
83
330
82
100
AcDbEntity
  8
GRAU_10_
 62
     7
100
AcDbVertex
100
AcDb2dVertex
 10
54.90934610549657
 20
-6.960389382741846
 30
0.0
  0
VERTEX
  5
84
330
82
100
AcDbEntity
  8
GRAU_10_
 62
     7
100
AcDbVertex
100
AcDb2dVertex
 10
46.65816472029044
 20
-6.767463908295992
 30
0.0
  0
VERTEX
  5
85
330
82
100
AcDbEntity
  8
GRAU_10_
 62
     7
100
AcDbVertex
100
AcDb2dVertex
 10
38.4066388253085
 20
-6.575227453401729
 30
0.0
  0
SEQEND
  5
86
330
82
100
AcDbEntity
  8
GRAU_10_
  0
POLYLINE
  5
87
330
1F
100
AcDbEntity
  8
GRAU_10_
 62
     7
100
AcDb2dPolyline
 66
     1
 10
0.0
 20
0.0
 30
0.0
  0
VERTEX
  5
88
330
87
100
AcDbEntity
  8
GRAU_10_
 62
     7
100
AcDbVertex
100
AcDb2dVertex
 10
55.93305690427489
 20
-7.979966064210608
 30
0.0
  0
VERTEX
  5
89
330
87
100
AcDbEntity
  8
GRAU_10_
 62
     7
100
AcDbVertex
100
AcDb2dVertex
 10
55.42077086766599
 20
-7.468541302041196
 30
0.0
  0
VERTEX
  5
8A
330
87
100
AcDbEntity
  8
GRAU_10_
 62
     7
100
AcDbVertex
100
AcDb2dVertex
 10
54.90900159572078
 20
-6.95728879475968
 30
0.0
  0
SEQEND
  5
8B
330
87
100
AcDbEntity
  8
GRAU_10_
  0
POLYLINE
  5
8C
330
1F
100
AcDbEntity
  8
GRAU_10_
 62
     7
100
AcDb2dPolyline
 66
     1
 10
0.0
 20
0.0
 30
0.0
  0
VERTEX
  5
8D
330
8C
100
AcDbEntity
  8
GRAU_10_
 62
     7
100
AcDbVertex
100
AcDb2dVertex
 10
38.34893343786263
 20
-28.60395766480431
 30
0.0
  0
VERTEX
  5
8E
330
8C
100
AcDbEntity
  8
GRAU_10_
 62
     7
100
AcDbVertex
100
AcDb2dVertex
 10
46.62888138934776
 20
-28.40999866103106
 30
0.0
  0
VERTEX
  5
8F
330
8C
100
AcDbEntity
  8
GRAU_10_
 62
     7
100
AcDbVertex
100
AcDb2dVertex
 10
54.90934610549657
 20
-28.21603965725782
 30
0.0
  0
SEQEND
  5
90
330
8C
100
AcDbEntity
  8
GRAU_10_
  0
POLYLINE
  5
91
330
1F
100
AcDbEntity
  8
GRAU_10_
 62
     7
100
AcDb2dPolyline
 66
     1
 10
0.0
 20
0.0
 30
0.0
  0
VERTEX
  5
92
330
91
100
AcDbEntity
  8
GRAU_10_
 62
     7
100
AcDbVertex
100
AcDb2dVertex
 10
54.90900159572078
 20
-28.14438162389222
 30
0.0
  0
VERTEX
  5
93
330
91
100
AcDbEntity
  8
GRAU_10_
 62
     7
100
AcDbVertex
100
AcDb2dVertex
 10
55.42077086766599
 20
-27.63726323392026
 30
0.0
  0
VERTEX
  5
94
330
91
100
AcDbEntity
  8
GRAU_10_
 62
     7
100
AcDbVertex
100
AcDb2dVertex
 10
55.93305690427489
 20
-27.12876680484511
 30
0.0
  0
SEQEND
  5
95
330
91
100
AcDbEntity
  8
GRAU_10_
  0
POLYLINE
  5
96
330
1F
100
AcDbEntity
  8
GRAU_10_
 62
     7
100
AcDb2dPolyline
 66
     1
 10
0.0
 20
0.0
 30
0.0
  0
VERTEX
  5
97
330
96
100
AcDbEntity
  8
GRAU_10_
 62
     7
100
AcDbVertex
100
AcDb2dVertex
 10
55.93305690427489
 20
-27.16390680197632
 30
0.0
  0
VERTEX
  5
98
330
96
100
AcDbEntity
  8
GRAU_10_
 62
     7
100
AcDbVertex
100
AcDb2dVertex
 10
55.93305690427489
 20
-27.12325464843237
 30
0.0
  0
SEQEND
  5
99
330
96
100
AcDbEntity
  8
GRAU_10_
  0
POLYLINE
  5
9A
330
1F
100
AcDbEntity
  8
GRAU_10_
 62
     7
100
AcDb2dPolyline
 66
     1
 10
0.0
 20
0.0
 30
0.0
  0
VERTEX
  5
9B
330
9A
100
AcDbEntity
  8
GRAU_10_
 62
     7
100
AcDbVertex
100
AcDb2dVertex
 10
55.93305690427489
 20
-7.992368416139271
 30
0.0
  0
VERTEX
  5
9C
330
9A
100
AcDbEntity
  8
GRAU_10_
 62
     7
100
AcDbVertex
100
AcDb2dVertex
 10
55.93305690427489
 20
-7.96808047694564
 30
0.0
  0
VERTEX
  5
9D
330
9A
100
AcDbEntity
  8
GRAU_10_
 62
     7
100
AcDbVertex
100
AcDb2dVertex
 10
55.93305690427489
 20
-7.994090965018251
 30
0.0
  0
VERTEX
  5
9E
330
9A
100
AcDbEntity
  8
GRAU_10_
 62
     7
100
AcDbVertex
100
AcDb2dVertex
 10
55.93305690427489
 20
-8.141196639283216
 30
0.0
  0
VERTEX
  5
9F
330
9A
100
AcDbEntity
  8
GRAU_10_
 62
     7
100
AcDbVertex
100
AcDb2dVertex
 10
55.93305690427489
 20
-8.594571504230974
 30
0.0
  0
VERTEX
  5
A0
330
9A
100
AcDbEntity
  8
GRAU_10_
 62
     7
100
AcDbVertex
100
AcDb2dVertex
 10
55.93305690427489
 20
-9.30443389725898
 30
0.0
  0
VERTEX
  5
A1
330
9A
100
AcDbEntity
  8
GRAU_10_
 62
     7
100
AcDbVertex
100
AcDb2dVertex
 10
55.93305690427489
 20
-9.894579143197817
 30
0.0
  0
VERTEX
  5
A2
330
9A
100
AcDbEntity
  8
GRAU_10_
 62
     7
100
AcDbVertex
100
AcDb2dVertex
 10
55.93305690427489
 20
-10.57188536241308
 30
0.0
  0
VERTEX
  5
A3
330
9A
100
AcDbEntity
  8
GRAU_10_
 62
     7
100
AcDbVertex
100
AcDb2dVertex
 10
55.93305690427489
 20
-11.33704157445638
 30
0.0
  0
VERTEX
  5
A4
330
9A
100
AcDbEntity
  8
GRAU_10_
 62
     7
100
AcDbVertex
100
AcDb2dVertex
 10
55.93305690427489
 20
-11.86414153142451
 30
0.0
  0
VERTEX
  5
A5
330
9A
100
AcDbEntity
  8
GRAU_10_
 62
     7
100
AcDbVertex
100
AcDb2dVertex
 10
55.93305690427489
 20
-12.40743344785507
 30
0.0
  0
VERTEX
  5
A6
330
9A
100
AcDbEntity
  8
GRAU_10_
 62
     7
100
AcDbVertex
100
AcDb2dVertex
 10
55.93305690427489
 20
-12.96795085307544
 30
0.0
  0
VERTEX
  5
A7
330
9A
100
AcDbEntity
  8
GRAU_10_
 62
     7
100
AcDbVertex
100
AcDb2dVertex
 10
55.93305690427489
 20
-13.54431570798243
 30
0.0
  0
VERTEX
  5
A8
330
9A
100
AcDbEntity
  8
GRAU_10_
 62
     7
100
AcDbVertex
100
AcDb2dVertex
 10
55.93305690427489
 20
-14.13704477723974
 30
0.0
  0
VERTEX
  5
A9
330
9A
100
AcDbEntity
  8
GRAU_10_
 62
     7
100
AcDbVertex
100
AcDb2dVertex
 10
55.93305690427489
 20
-15.08771950354927
 30
0.0
  0
VERTEX
  5
AA
330
9A
100
AcDbEntity
  8
GRAU_10_
 62
     7
100
AcDbVertex
100
AcDb2dVertex
 10
55.93305690427489
 20
-15.99515825299637
 30
0.0
  0
VERTEX
  5
AB
330
9A
100
AcDbEntity
  8
GRAU_10_
 62
     7
100
AcDbVertex
100
AcDb2dVertex
 10
55.93305690427489
 20
-16.86022230002055
 30
0.0
  0
VERTEX
  5
AC
330
9A
100
AcDbEntity
  8
GRAU_10_
 62
     7
100
AcDbVertex
100
AcDb2dVertex
 10
55.93305690427489
 20
-17.6829116446218
 30
0.0
  0
VERTEX
  5
AD
330
9A
100
AcDbEntity
  8
GRAU_10_
 62
     7
100
AcDbVertex
100
AcDb2dVertex
 10
55.93305690427489
 20
-18.50370618545618
 30
0.0
  0
VERTEX
  5
AE
330
9A
100
AcDbEntity
  8
GRAU_10_
 62
     7
100
AcDbVertex
100
AcDb2dVertex
 10
55.93305690427489
 20
-19.36343033095552
 30
0.0
  0
VERTEX
  5
AF
330
9A
100
AcDbEntity
  8
GRAU_10_
 62
     7
100
AcDbVertex
100
AcDb2dVertex
 10
55.93305690427489
 20
-19.80784794173258
 30
0.0
  0
VERTEX
  5
B0
330
9A
100
AcDbEntity
  8
GRAU_10_
 62
     7
100
AcDbVertex
100
AcDb2dVertex
 10
55.93305690427489
 20
-20.26156731645613
 30
0.0
  0
VERTEX
  5
B1
330
9A
100
AcDbEntity
  8
GRAU_10_
 62
     7
100
AcDbVertex
100
AcDb2dVertex
 10
55.93305690427489
 20
-20.72596649422936
 30
0.0
  0
VERTEX
  5
B2
330
9A
100
AcDbEntity
  8
GRAU_10_
 62
     7
100
AcDbVertex
100
AcDb2dVertex
 10
55.93305690427489
 20
-21.1993229261733
 30
0.0
  0
VERTEX
  5
B3
330
9A
100
AcDbEntity
  8
GRAU_10_
 62
     7
100
AcDbVertex
100
AcDb2dVertex
 10
55.93305690427489
 20
-22.1704959841427
 30
0.0
  0
VERTEX
  5
B4
330
9A
100
AcDbEntity
  8
GRAU_10_
 62
     7
100
AcDbVertex
100
AcDb2dVertex
 10
55.93305690427489
 20
-23.09240414417325
 30
0.0
  0
VERTEX
  5
B5
330
9A
100
AcDbEntity
  8
GRAU_10_
 62
     7
100
AcDbVertex
100
AcDb2dVertex
 10
55.93305690427489
 20
-23.96582255326049
 30
0.0
  0
VERTEX
  5
B6
330
9A
100
AcDbEntity
  8
GRAU_10_
 62
     7
100
AcDbVertex
100
AcDb2dVertex
 10
55.93305690427489
 20
-25.06033011096492
 30
0.0
  0
VERTEX
  5
B7
330
9A
100
AcDbEntity
  8
GRAU_10_
 62
     7
100
AcDbVertex
100
AcDb2dVertex
 10
55.93305690427489
 20
-25.95467748893177
 30
0.0
  0
VERTEX
  5
B8
330
9A
100
AcDbEntity
  8
GRAU_10_
 62
     7
100
AcDbVertex
100
AcDb2dVertex
 10
55.93305690427489
 20
-26.63990743299035
 30
0.0
  0
VERTEX
  5
B9
330
9A
100
AcDbEntity
  8
GRAU_10_
 62
     7
100
AcDbVertex
100
AcDb2dVertex
 10
55.93305690427489
 20
-27.06089837901327
 30
0.0
  0
SEQEND
  5
BA
330
9A
100
AcDbEntity
  8
GRAU_10_
  0
POLYLINE
  5
BB
330
1F
100
AcDbEntity
  8
GRAU_10_
 62
     7
100
AcDb2dPolyline
 66
     1
 10
0.0
 20
0.0
 30
0.0
  0
VERTEX
  5
BC
330
BB
100
AcDbEntity
  8
GRAU_10_
 62
     7
100
AcDbVertex
100
AcDb2dVertex
 10
36.93592659243465
 20
-17.58093675098614
 30
0.0
  0
VERTEX
  5
BD
330
BB
100
AcDbEntity
  8
GRAU_10_
 62
     7
100
AcDbVertex
100
AcDb2dVertex
 10
36.93592659243465
 20
-15.65185426141549
 30
0.0
  0
VERTEX
  5
BE
330
BB
100
AcDbEntity
  8
GRAU_10_
 62
     7
100
AcDbVertex
100
AcDb2dVertex
 10
36.93592659243465
 20
-13.75171059301172
 30
0.0
  0
VERTEX
  5
BF
330
BB
100
AcDbEntity
  8
GRAU_10_
 62
     7
100
AcDbVertex
100
AcDb2dVertex
 10
36.93592659243465
 20
-11.90686074362324
 30
0.0
  0
VERTEX
  5
C0
330
BB
100
AcDbEntity
  8
GRAU_10_
 62
     7
100
AcDbVertex
100
AcDb2dVertex
 10
36.93592659243465
 20
-10.14538225997743
 30
0.0
  0
VERTEX
  5
C1
330
BB
100
AcDbEntity
  8
GRAU_10_
 62
     7
100
AcDbVertex
100
AcDb2dVertex
 10
36.93592659243465
 20
-8.491907591043715
 30
0.0
  0
VERTEX
  5
C2
330
BB
100
AcDbEntity
  8
GRAU_10_
 62
     7
100
AcDbVertex
100
AcDb2dVertex
 10
36.93592659243465
 20
-6.970724676015731
 30
0.0
  0
VERTEX
  5
C3
330
BB
100
AcDbEntity
  8
GRAU_10_
 62
     7
100
AcDbVertex
100
AcDb2dVertex
 10
36.93592659243465
 20
-5.604398905208126
 30
0.0
  0
VERTEX
  5
C4
330
BB
100
AcDbEntity
  8
GRAU_10_
 62
     7
100
AcDbVertex
100
AcDb2dVertex
 10
36.93592659243465
 20
-4.413084100504974
 30
0.0
  0
VERTEX
  5
C5
330
BB
100
AcDbEntity
  8
GRAU_10_
 62
     7
100
AcDbVertex
100
AcDb2dVertex
 10
36.93592659243465
 20
-3.413661240920288
 30
0.0
  0
VERTEX
  5
C6
330
BB
100
AcDbEntity
  8
GRAU_10_
 62
     7
100
AcDbVertex
100
AcDb2dVertex
 10
36.93592659243465
 20
-2.620599737037507
 30
0.0
  0
VERTEX
  5
C7
330
BB
100
AcDbEntity
  8
GRAU_10_
 62
     7
100
AcDbVertex
100
AcDb2dVertex
 10
36.93592659243465
 20
-2.045612921233702
 30
0.0
  0
VERTEX
  5
C8
330
BB
100
AcDbEntity
  8
GRAU_10_
 62
     7
100
AcDbVertex
100
AcDb2dVertex
 10
36.93592659243465
 20
-1.697313537903775
 30
0.0
  0
VERTEX
  5
C9
330
BB
100
AcDbEntity
  8
GRAU_10_
 62
     7
100
AcDbVertex
100
AcDb2dVertex
 10
36.93592659243465
 20
-1.58086923368467
 30
0.0
  0
SEQEND
  5
CA
330
BB
100
AcDbEntity
  8
GRAU_10_
  0
POLYLINE
  5
CB
330
1F
100
AcDbEntity
  8
GRAU_10_
 62
     7
100
AcDb2dPolyline
 66
     1
 10
0.0
 20
0.0
 30
0.0
  0
VERTEX
  5
CC
330
CB
100
AcDbEntity
  8
GRAU_10_
 62
     7
100
AcDbVertex
100
AcDb2dVertex
 10
36.93592659243465
 20
-33.58040137617996
 30
0.0
  0
VERTEX
  5
CD
330
CB
100
AcDbEntity
  8
GRAU_10_
 62
     7
100
AcDbVertex
100
AcDb2dVertex
 10
36.93592659243465
 20
-33.46430158173666
 30
0.0
  0
VERTEX
  5
CE
330
CB
100
AcDbEntity
  8
GRAU_10_
 62
     7
100
AcDbVertex
100
AcDb2dVertex
 10
36.93592659243465
 20
-33.11531317885514
 30
0.0
  0
VERTEX
  5
CF
330
CB
100
AcDbEntity
  8
GRAU_10_
 62
     7
100
AcDbVertex
100
AcDb2dVertex
 10
36.93592659243465
 20
-32.54067087282713
 30
0.0
  0
VERTEX
  5
D0
330
CB
100
AcDbEntity
  8
GRAU_10_
 62
     7
100
AcDbVertex
100
AcDb2dVertex
 10
36.93592659243465
 20
-31.74795387872014
 30
0.0
  0
VERTEX
  5
D1
330
CB
100
AcDbEntity
  8
GRAU_10_
 62
     7
100
AcDbVertex
100
AcDb2dVertex
 10
36.93592659243465
 20
-30.74818650935966
 30
0.0
  0
VERTEX
  5
D2
330
CB
100
AcDbEntity
  8
GRAU_10_
 62
     7
100
AcDbVertex
100
AcDb2dVertex
 10
36.93592659243465
 20
-29.55687170465651
 30
0.0
  0
VERTEX
  5
D3
330
CB
100
AcDbEntity
  8
GRAU_10_
 62
     7
100
AcDbVertex
100
AcDb2dVertex
 10
36.93592659243465
 20
-28.19020142407311
 30
0.0
  0
VERTEX
  5
D4
330
CB
100
AcDbEntity
  8
GRAU_10_
 62
     7
100
AcDbVertex
100
AcDb2dVertex
 10
36.93592659243465
 20
-26.66987978348461
 30
0.0
  0
VERTEX
  5
D5
330
CB
100
AcDbEntity
  8
GRAU_10_
 62
     7
100
AcDbVertex
100
AcDb2dVertex
 10
36.93592659243465
 20
-25.01623285966301
 30
0.0
  0
VERTEX
  5
D6
330
CB
100
AcDbEntity
  8
GRAU_10_
 62
     7
100
AcDbVertex
100
AcDb2dVertex
 10
36.93592659243465
 20
-23.25466824857324
 30
0.0
  0
VERTEX
  5
D7
330
CB
100
AcDbEntity
  8
GRAU_10_
 62
     7
100
AcDbVertex
100
AcDb2dVertex
 10
36.93592659243465
 20
-21.40947388940896
 30
0.0
  0
VERTEX
  5
D8
330
CB
100
AcDbEntity
  8
GRAU_10_
 62
     7
100
AcDbVertex
100
AcDb2dVertex
 10
36.93592659243465
 20
-19.50950247589309
 30
0.0
  0
VERTEX
  5
D9
330
CB
100
AcDbEntity
  8
GRAU_10_
 62
     7
100
AcDbVertex
100
AcDb2dVertex
 10
36.93592659243465
 20
-17.58093675098614
 30
0.0
  0
SEQEND
  5
DA
330
CB
100
AcDbEntity
  8
GRAU_10_
  0
POLYLINE
  5
DB
330
1F
100
AcDbEntity
  8
GRAU_10_
 62
     7
100
AcDb2dPolyline
 66
     1
 10
0.0
 20
0.0
 30
0.0
  0
VERTEX
  5
DC
330
DB
100
AcDbEntity
  8
GRAU_10_
 62
     7
100
AcDbVertex
100
AcDb2dVertex
 10
-0.0640788182980874
 20
-17.58093675098614
 30
0.0
  0
VERTEX
  5
DD
330
DB
100
AcDbEntity
  8
GRAU_10_
 62
     7
100
AcDbVertex
100
AcDb2dVertex
 10
-0.0640788182980874
 20
-15.9662194318295
 30
0.0
  0
VERTEX
  5
DE
330
DB
100
AcDbEntity
  8
GRAU_10_
 62
     7
100
AcDbVertex
100
AcDb2dVertex
 10
-0.0640788182980874
 20
-14.37906289473655
 30
0.0
  0
VERTEX
  5
DF
330
DB
100
AcDbEntity
  8
GRAU_10_
 62
     7
100
AcDbVertex
100
AcDb2dVertex
 10
-0.0640788182980874
 20
-12.84668341199519
 30
0.0
  0
VERTEX
  5
E0
330
DB
100
AcDbEntity
  8
GRAU_10_
 62
     7
100
AcDbVertex
100
AcDb2dVertex
 10
-0.0640788182980874
 20
-11.39560823634172
 30
0.0
  0
VERTEX
  5
E1
330
DB
100
AcDbEntity
  8
GRAU_10_
 62
     7
100
AcDbVertex
100
AcDb2dVertex
 10
-0.0640788182980874
 20
-10.04978079719399
 30
0.0
  0
VERTEX
  5
E2
330
DB
100
AcDbEntity
  8
GRAU_10_
 62
     7
100
AcDbVertex
100
AcDb2dVertex
 10
-0.0640788182980874
 20
-8.83314452396982
 30
0.0
  0
VERTEX
  5
E3
330
DB
100
AcDbEntity
  8
GRAU_10_
 62
     7
100
AcDbVertex
100
AcDb2dVertex
 10
-0.0640788182980874
 20
-7.766197748329085
 30
0.0
  0
VERTEX
  5
E4
330
DB
100
AcDbEntity
  8
GRAU_10_
 62
     7
100
AcDbVertex
100
AcDb2dVertex
 10
-0.0640788182980874
 20
-6.86737174327688
 30
0.0
  0
VERTEX
  5
E5
330
DB
100
AcDbEntity
  8
GRAU_10_
 62
     7
100
AcDbVertex
100
AcDb2dVertex
 10
-0.0640788182980874
 20
-6.151480429172442
 30
0.0
  0
VERTEX
  5
E6
330
DB
100
AcDbEntity
  8
GRAU_10_
 62
     7
100
AcDbVertex
100
AcDb2dVertex
 10
-0.0640788182980874
 20
-5.631270667720227
 30
0.0
  0
VERTEX
  5
E7
330
DB
100
AcDbEntity
  8
GRAU_10_
 62
     7
100
AcDbVertex
100
AcDb2dVertex
 10
-0.0640788182980874
 20
-5.315871967978834
 30
0.0
  0
VERTEX
  5
E8
330
DB
100
AcDbEntity
  8
GRAU_10_
 62
     7
100
AcDbVertex
100
AcDb2dVertex
 10
-0.0640788182980874
 20
-5.210279721697309
 30
0.0
  0
SEQEND
  5
E9
330
DB
100
AcDbEntity
  8
GRAU_10_
  0
POLYLINE
  5
EA
330
1F
100
AcDbEntity
  8
GRAU_10_
 62
     7
100
AcDb2dPolyline
 66
     1
 10
0.0
 20
0.0
 30
0.0
  0
VERTEX
  5
EB
330
EA
100
AcDbEntity
  8
GRAU_10_
 62
     7
100
AcDbVertex
100
AcDb2dVertex
 10
-0.0640788182980874
 20
-29.95099088816733
 30
0.0
  0
VERTEX
  5
EC
330
EA
100
AcDbEntity
  8
GRAU_10_
 62
     7
100
AcDbVertex
100
AcDb2dVertex
 10
-0.0640788182980874
 20
-29.8455708967737
 30
0.0
  0
VERTEX
  5
ED
330
EA
100
AcDbEntity
  8
GRAU_10_
 62
     7
100
AcDbVertex
100
AcDb2dVertex
 10
-0.0640788182980874
 20
-29.52999994214441
 30
0.0
  0
VERTEX
  5
EE
330
EA
100
AcDbEntity
  8
GRAU_10_
 62
     7
100
AcDbVertex
100
AcDb2dVertex
 10
-0.0640788182980874
 20
-29.0094456709164
 30
0.0
  0
VERTEX
  5
EF
330
EA
100
AcDbEntity
  8
GRAU_10_
 62
     7
100
AcDbVertex
100
AcDb2dVertex
 10
-0.0640788182980874
 20
-28.29355435681196
 30
0.0
  0
VERTEX
  5
F0
330
EA
100
AcDbEntity
  8
GRAU_10_
 62
     7
100
AcDbVertex
100
AcDb2dVertex
 10
-0.0640788182980874
 20
-27.39472835175975
 30
0.0
  0
VERTEX
  5
F1
330
EA
100
AcDbEntity
  8
GRAU_10_
 62
     7
100
AcDbVertex
100
AcDb2dVertex
 10
-0.0640788182980874
 20
-26.32812608589482
 30
0.0
  0
VERTEX
  5
F2
330
EA
100
AcDbEntity
  8
GRAU_10_
 62
     7
100
AcDbVertex
100
AcDb2dVertex
 10
-0.0640788182980874
 20
-25.11166206755854
 30
0.0
  0
VERTEX
  5
F3
330
EA
100
AcDbEntity
  8
GRAU_10_
 62
     7
100
AcDbVertex
100
AcDb2dVertex
 10
-0.0640788182980874
 20
-23.76574850096686
 30
0.0
  0
VERTEX
  5
F4
330
EA
100
AcDbEntity
  8
GRAU_10_
 62
     7
100
AcDbVertex
100
AcDb2dVertex
 10
-0.0640788182980874
 20
-22.3148455802013
 30
0.0
  0
VERTEX
  5
F5
330
EA
100
AcDbEntity
  8
GRAU_10_
 62
     7
100
AcDbVertex
100
AcDb2dVertex
 10
-0.0640788182980874
 20
-20.78229384257204
 30
0.0
  0
VERTEX
  5
F6
330
EA
100
AcDbEntity
  8
GRAU_10_
 62
     7
100
AcDbVertex
100
AcDb2dVertex
 10
-0.0640788182980874
 20
-19.19548181525488
 30
0.0
  0
VERTEX
  5
F7
330
EA
100
AcDbEntity
  8
GRAU_10_
 62
     7
100
AcDbVertex
100
AcDb2dVertex
 10
-0.0640788182980874
 20
-17.58093675098614
 30
0.0
  0
SEQEND
  5
F8
330
EA
100
AcDbEntity
  8
GRAU_10_
  0
POLYLINE
  5
F9
330
1F
100
AcDbEntity
  8
GRAU_10_
 62
     7
100
AcDb2dPolyline
 66
     1
 10
0.0
 20
0.0
 30
0.0
  0
VERTEX
  5
FA
330
F9
100
AcDbEntity
  8
GRAU_10_
 62
     7
100
AcDbVertex
100
AcDb2dVertex
 10
10.93594606798569
 20
-17.58093675098614
 30
0.0
  0
VERTEX
  5
FB
330
F9
100
AcDbEntity
  8
GRAU_10_
 62
     7
100
AcDbVertex
100
AcDb2dVertex
 10
10.93594606798569
 20
-15.62119289136963
 30
0.0
  0
VERTEX
  5
FC
330
F9
100
AcDbEntity
  8
GRAU_10_
 62
     7
100
AcDbVertex
100
AcDb2dVertex
 10
10.93594606798569
 20
-13.68625373561045
 30
0.0
  0
VERTEX
  5
FD
330
F9
100
AcDbEntity
  8
GRAU_10_
 62
     7
100
AcDbVertex
100
AcDb2dVertex
 10
10.93594606798569
 20
-11.80092398756592
 30
0.0
  0
VERTEX
  5
FE
330
F9
100
AcDbEntity
  8
GRAU_10_
 62
     7
100
AcDbVertex
100
AcDb2dVertex
 10
10.93594606798569
 20
-9.987941292438578
 30
0.0
  0
VERTEX
  5
FF
330
F9
100
AcDbEntity
  8
GRAU_10_
 62
     7
100
AcDbVertex
100
AcDb2dVertex
 10
10.93594606798569
 20
-8.270043295430982
 30
0.0
  0
VERTEX
  5
100
330
F9
100
AcDbEntity
  8
GRAU_10_
 62
     7
100
AcDbVertex
100
AcDb2dVertex
 10
10.93594606798569
 20
-6.669450877081982
 30
0.0
  0
VERTEX
  5
101
330
F9
100
AcDbEntity
  8
GRAU_10_
 62
     7
100
AcDbVertex
100
AcDb2dVertex
 10
10.93594606798569
 20
-5.206490114163551
 30
0.0
  0
VERTEX
  5
102
330
F9
100
AcDbEntity
  8
GRAU_10_
 62
     7
100
AcDbVertex
100
AcDb2dVertex
 10
10.93594606798569
 20
-3.898731005241294
 30
0.0
  0
VERTEX
  5
103
330
F9
100
AcDbEntity
  8
GRAU_10_
 62
     7
100
AcDbVertex
100
AcDb2dVertex
 10
10.93594606798569
 20
-2.763226784217121
 30
0.0
  0
VERTEX
  5
104
330
F9
100
AcDbEntity
  8
GRAU_10_
 62
     7
100
AcDbVertex
100
AcDb2dVertex
 10
10.93594606798569
 20
-1.813413332347084
 30
0.0
  0
VERTEX
  5
105
330
F9
100
AcDbEntity
  8
GRAU_10_
 62
     7
100
AcDbVertex
100
AcDb2dVertex
 10
10.93594606798569
 20
-1.062382021111436
 30
0.0
  0
VERTEX
  5
106
330
F9
100
AcDbEntity
  8
GRAU_10_
 62
     7
100
AcDbVertex
100
AcDb2dVertex
 10
10.93594606798569
 20
-0.5190901046808775
 30
0.0
  0
VERTEX
  5
107
330
F9
100
AcDbEntity
  8
GRAU_10_
 62
     7
100
AcDbVertex
100
AcDb2dVertex
 10
10.93594606798569
 20
-0.1907722883471285
 30
0.0
  0
VERTEX
  5
108
330
F9
100
AcDbEntity
  8
GRAU_10_
 62
     7
100
AcDbVertex
100
AcDb2dVertex
 10
10.93594606798569
 20
-0.0808736698681506
 30
0.0
  0
SEQEND
  5
109
330
F9
100
AcDbEntity
  8
GRAU_10_
  0
POLYLINE
  5
10A
330
1F
100
AcDbEntity
  8
GRAU_10_
 62
     7
100
AcDb2dPolyline
 66
     1
 10
0.0
 20
0.0
 30
0.0
  0
VERTEX
  5
10B
330
10A
100
AcDbEntity
  8
GRAU_10_
 62
     7
100
AcDbVertex
100
AcDb2dVertex
 10
10.93594606798569
 20
-35.08074144977228
 30
0.0
  0
VERTEX
  5
10C
330
10A
100
AcDbEntity
  8
GRAU_10_
 62
     7
100
AcDbVertex
100
AcDb2dVertex
 10
10.93594606798569
 20
-34.9708428312933
 30
0.0
  0
VERTEX
  5
10D
330
10A
100
AcDbEntity
  8
GRAU_10_
 62
     7
100
AcDbVertex
100
AcDb2dVertex
 10
10.93594606798569
 20
-34.64183599540796
 30
0.0
  0
VERTEX
  5
10E
330
10A
100
AcDbEntity
  8
GRAU_10_
 62
     7
100
AcDbVertex
100
AcDb2dVertex
 10
10.93594606798569
 20
-34.0988885887532
 30
0.0
  0
VERTEX
  5
10F
330
10A
100
AcDbEntity
  8
GRAU_10_
 62
     7
100
AcDbVertex
100
AcDb2dVertex
 10
10.93594606798569
 20
-33.34785727751756
 30
0.0
  0
VERTEX
  5
110
330
10A
100
AcDbEntity
  8
GRAU_10_
 62
     7
100
AcDbVertex
100
AcDb2dVertex
 10
10.93594606798569
 20
-32.39838833542331
 30
0.0
  0
VERTEX
  5
111
330
10A
100
AcDbEntity
  8
GRAU_10_
 62
     7
100
AcDbVertex
100
AcDb2dVertex
 10
10.93594606798569
 20
-31.26288411439914
 30
0.0
  0
VERTEX
  5
112
330
10A
100
AcDbEntity
  8
GRAU_10_
 62
     7
100
AcDbVertex
100
AcDb2dVertex
 10
10.93594606798569
 20
-29.95512500547688
 30
0.0
  0
VERTEX
  5
113
330
10A
100
AcDbEntity
  8
GRAU_10_
 62
     7
100
AcDbVertex
100
AcDb2dVertex
 10
10.93594606798569
 20
-28.49199198767055
 30
0.0
  0
VERTEX
  5
114
330
10A
100
AcDbEntity
  8
GRAU_10_
 62
     7
100
AcDbVertex
100
AcDb2dVertex
 10
10.93594606798569
 20
-26.89105505954576
 30
0.0
  0
VERTEX
  5
115
330
10A
100
AcDbEntity
  8
GRAU_10_
 62
     7
100
AcDbVertex
100
AcDb2dVertex
 10
10.93594606798569
 20
-25.17332931742606
 30
0.0
  0
VERTEX
  5
116
330
10A
100
AcDbEntity
  8
GRAU_10_
 62
     7
100
AcDbVertex
100
AcDb2dVertex
 10
10.93594606798569
 20
-23.36043274974267
 30
0.0
  0
VERTEX
  5
117
330
10A
100
AcDbEntity
  8
GRAU_10_
 62
     7
100
AcDbVertex
100
AcDb2dVertex
 10
10.93594606798569
 20
-21.47493074681024
 30
0.0
  0
VERTEX
  5
118
330
10A
100
AcDbEntity
  8
GRAU_10_
 62
     7
100
AcDbVertex
100
AcDb2dVertex
 10
10.93594606798569
 20
-19.54016384593895
 30
0.0
  0
VERTEX
  5
119
330
10A
100
AcDbEntity
  8
GRAU_10_
 62
     7
100
AcDbVertex
100
AcDb2dVertex
 10
10.93594606798569
 20
-17.58093675098614
 30
0.0
  0
SEQEND
  5
11A
330
10A
100
AcDbEntity
  8
GRAU_10_
  0
POLYLINE
  5
11B
330
1F
100
AcDbEntity
  8
GRAU_10_
 62
     7
100
AcDb2dPolyline
 66
     1
 10
0.0
 20
0.0
 30
0.0
  0
VERTEX
  5
11C
330
11B
100
AcDbEntity
  8
GRAU_10_
 62
     7
100
AcDbVertex
100
AcDb2dVertex
 10
14.93570456497921
 20
-17.58093675098614
 30
0.0
  0
VERTEX
  5
11D
330
11B
100
AcDbEntity
  8
GRAU_10_
 62
     7
100
AcDbVertex
100
AcDb2dVertex
 10
15.00443426525054
 20
-16.76031446503967
 30
0.0
  0
VERTEX
  5
11E
330
11B
100
AcDbEntity
  8
GRAU_10_
 62
     7
100
AcDbVertex
100
AcDb2dVertex
 10
15.20476669987601
 20
-15.96311884384733
 30
0.0
  0
VERTEX
  5
11F
330
11B
100
AcDbEntity
  8
GRAU_10_
 62
     7
100
AcDbVertex
100
AcDb2dVertex
 10
15.53256775154607
 20
-15.21312106193907
 30
0.0
  0
VERTEX
  5
120
330
11B
100
AcDbEntity
  8
GRAU_10_
 62
     7
100
AcDbVertex
100
AcDb2dVertex
 10
15.97629634277153
 20
-14.52823562765629
 30
0.0
  0
VERTEX
  5
121
330
11B
100
AcDbEntity
  8
GRAU_10_
 62
     7
100
AcDbVertex
100
AcDb2dVertex
 10
16.53905306153458
 20
-13.91259665830853
 30
0.0
  0
VERTEX
  5
122
330
11B
100
AcDbEntity
  8
GRAU_10_
 62
     7
100
AcDbVertex
100
AcDb2dVertex
 10
17.19586094908997
 20
-13.39858807282065
 30
0.0
  0
VERTEX
  5
123
330
11B
100
AcDbEntity
  8
GRAU_10_
 62
     7
100
AcDbVertex
100
AcDb2dVertex
 10
17.94706451521352
 20
-12.99378908626015
 30
0.0
  0
VERTEX
  5
124
330
11B
100
AcDbEntity
  8
GRAU_10_
 62
     7
100
AcDbVertex
100
AcDb2dVertex
 10
18.7580405274377
 20
-12.72162636338118
 30
0.0
  0
VERTEX
  5
125
330
11B
100
AcDbEntity
  8
GRAU_10_
 62
     7
100
AcDbVertex
100
AcDb2dVertex
 10
19.58451947957271
 20
-12.5932964718971
 30
0.0
  0
VERTEX
  5
126
330
11B
100
AcDbEntity
  8
GRAU_10_
 62
     7
100
AcDbVertex
100
AcDb2dVertex
 10
20.4216782347574
 20
-12.60449303961048
 30
0.0
  0
VERTEX
  5
127
330
11B
100
AcDbEntity
  8
GRAU_10_
 62
     7
100
AcDbVertex
100
AcDb2dVertex
 10
21.21715130707075
 20
-12.74815361611748
 30
0.0
  0
VERTEX
  5
128
330
11B
100
AcDbEntity
  8
GRAU_10_
 62
     7
100
AcDbVertex
100
AcDb2dVertex
 10
21.97851791158029
 20
-13.01687124123849
 30
0.0
  0
VERTEX
  5
129
330
11B
100
AcDbEntity
  8
GRAU_10_
 62
     7
100
AcDbVertex
100
AcDb2dVertex
 10
22.69148089259046
 20
-13.40892336609453
 30
0.0
  0
VERTEX
  5
12A
330
11B
100
AcDbEntity
  8
GRAU_10_
 62
     7
100
AcDbVertex
100
AcDb2dVertex
 10
23.33071878158025
 20
-13.90984058010216
 30
0.0
  0
VERTEX
  5
12B
330
11B
100
AcDbEntity
  8
GRAU_10_
 62
     7
100
AcDbVertex
100
AcDb2dVertex
 10
23.89864314698023
 20
-14.53254199985374
 30
0.0
  0
VERTEX
  5
12C
330
11B
100
AcDbEntity
  8
GRAU_10_
 62
     7
100
AcDbVertex
100
AcDb2dVertex
 10
24.35563536457385
 20
-15.24274890265754
 30
0.0
  0
VERTEX
  5
12D
330
11B
100
AcDbEntity
  8
GRAU_10_
 62
     7
100
AcDbVertex
100
AcDb2dVertex
 10
24.68757053355346
 20
-16.02650864259383
 30
0.0
  0
VERTEX
  5
12E
330
11B
100
AcDbEntity
  8
GRAU_10_
 62
     7
100
AcDbVertex
100
AcDb2dVertex
 10
24.88359659598148
 20
-16.85832749625368
 30
0.0
  0
VERTEX
  5
12F
330
11B
100
AcDbEntity
  8
GRAU_10_
 62
     7
100
AcDbVertex
100
AcDb2dVertex
 10
24.93441178791142
 20
-17.68463419350079
 30
0.0
  0
VERTEX
  5
130
330
11B
100
AcDbEntity
  8
GRAU_10_
 62
     7
100
AcDbVertex
100
AcDb2dVertex
 10
24.84914561840186
 20
-18.50732353810204
 30
0.0
  0
VERTEX
  5
131
330
11B
100
AcDbEntity
  8
GRAU_10_
 62
     7
100
AcDbVertex
100
AcDb2dVertex
 10
24.63503279274454
 20
-19.28763818028036
 30
0.0
  0
VERTEX
  5
132
330
11B
100
AcDbEntity
  8
GRAU_10_
 62
     7
100
AcDbVertex
100
AcDb2dVertex
 10
24.30016929067067
 20
-20.0214440027262
 30
0.0
  0
VERTEX
  5
133
330
11B
100
AcDbEntity
  8
GRAU_10_
 62
     7
100
AcDbVertex
100
AcDb2dVertex
 10
23.84128226931017
 20
-20.70253982947522
 30
0.0
  0
VERTEX
  5
134
330
11B
100
AcDbEntity
  8
GRAU_10_
 62
     7
100
AcDbVertex
100
AcDb2dVertex
 10
23.27818104077133
 20
-21.29923076115419
 30
0.0
  0
VERTEX
  5
135
330
11B
100
AcDbEntity
  8
GRAU_10_
 62
     7
100
AcDbVertex
100
AcDb2dVertex
 10
22.60156384110766
 20
-21.80996650377201
 30
0.0
  0
VERTEX
  5
136
330
11B
100
AcDbEntity
  8
GRAU_10_
 62
     7
100
AcDbVertex
100
AcDb2dVertex
 10
21.84657066745035
 20
-22.20115735418856
 30
0.0
  0
VERTEX
  5
137
330
11B
100
AcDbEntity
  8
GRAU_10_
 62
     7
100
AcDbVertex
100
AcDb2dVertex
 10
21.03800622365674
 20
-22.45730037249301
 30
0.0
  0
VERTEX
  5
138
330
11B
100
AcDbEntity
  8
GRAU_10_
 62
     7
100
AcDbVertex
100
AcDb2dVertex
 10
20.19602433161091
 20
-22.57408918648791
 30
0.0
  0
VERTEX
  5
139
330
11B
100
AcDbEntity
  8
GRAU_10_
 62
     7
100
AcDbVertex
100
AcDb2dVertex
 10
19.37712459454341
 20
-22.54911222774269
 30
0.0
  0
VERTEX
  5
13A
330
11B
100
AcDbEntity
  8
GRAU_10_
 62
     7
100
AcDbVertex
100
AcDb2dVertex
 10
18.57458907182624
 20
-22.39167126020384
 30
0.0
  0
VERTEX
  5
13B
330
11B
100
AcDbEntity
  8
GRAU_10_
 62
     7
100
AcDbVertex
100
AcDb2dVertex
 10
17.81856236884155
 20
-22.10986226360258
 30
0.0
  0
VERTEX
  5
13C
330
11B
100
AcDbEntity
  8
GRAU_10_
 62
     7
100
AcDbVertex
100
AcDb2dVertex
 10
17.11937977886322
 20
-21.711953472558
 30
0.0
  0
VERTEX
  5
13D
330
11B
100
AcDbEntity
  8
GRAU_10_
 62
     7
100
AcDbVertex
100
AcDb2dVertex
 10
16.47514649812438
 20
-21.18864312312362
 30
0.0
  0
VERTEX
  5
13E
330
11B
100
AcDbEntity
  8
GRAU_10_
 62
     7
100
AcDbVertex
100
AcDb2dVertex
 10
15.9258256606174
 20
-20.56783650713892
 30
0.0
  0
VERTEX
  5
13F
330
11B
100
AcDbEntity
  8
GRAU_10_
 62
     7
100
AcDbVertex
100
AcDb2dVertex
 10
15.47761844230658
 20
-19.84264342908799
 30
0.0
  0
VERTEX
  5
140
330
11B
100
AcDbEntity
  8
GRAU_10_
 62
     7
100
AcDbVertex
100
AcDb2dVertex
 10
15.15687984104035
 20
-19.0502709447568
 30
0.0
  0
VERTEX
  5
141
330
11B
100
AcDbEntity
  8
GRAU_10_
 62
     7
100
AcDbVertex
100
AcDb2dVertex
 10
14.99220416820978
 20
-18.32421659226637
 30
0.0
  0
VERTEX
  5
142
330
11B
100
AcDbEntity
  8
GRAU_10_
 62
     7
100
AcDbVertex
100
AcDb2dVertex
 10
14.93570456497921
 20
-17.58093675098614
 30
0.0
  0
SEQEND
  5
143
330
11B
100
AcDbEntity
  8
GRAU_10_
  0
POLYLINE
  5
144
330
1F
100
AcDbEntity
  8
GRAU_10_
 62
     7
100
AcDb2dPolyline
 66
     1
 10
0.0
 20
0.0
 30
0.0
  0
VERTEX
  5
145
330
144
100
AcDbEntity
  8
GRAU_10_
 62
     7
100
AcDbVertex
100
AcDb2dVertex
 10
29.93617696780809
 20
-17.58093675098614
 30
0.0
  0
VERTEX
  5
146
330
144
100
AcDbEntity
  8
GRAU_10_
 62
     7
100
AcDbVertex
100
AcDb2dVertex
 10
29.93617696780809
 20
-15.62119289136963
 30
0.0
  0
VERTEX
  5
147
330
144
100
AcDbEntity
  8
GRAU_10_
 62
     7
100
AcDbVertex
100
AcDb2dVertex
 10
29.93617696780809
 20
-13.68625373561045
 30
0.0
  0
VERTEX
  5
148
330
144
100
AcDbEntity
  8
GRAU_10_
 62
     7
100
AcDbVertex
100
AcDb2dVertex
 10
29.93617696780809
 20
-11.80092398756592
 30
0.0
  0
VERTEX
  5
149
330
144
100
AcDbEntity
  8
GRAU_10_
 62
     7
100
AcDbVertex
100
AcDb2dVertex
 10
29.93617696780809
 20
-9.987941292438578
 30
0.0
  0
VERTEX
  5
14A
330
144
100
AcDbEntity
  8
GRAU_10_
 62
     7
100
AcDbVertex
100
AcDb2dVertex
 10
29.93617696780809
 20
-8.270043295430982
 30
0.0
  0
VERTEX
  5
14B
330
144
100
AcDbEntity
  8
GRAU_10_
 62
     7
100
AcDbVertex
100
AcDb2dVertex
 10
29.93617696780809
 20
-6.669450877081982
 30
0.0
  0
VERTEX
  5
14C
330
144
100
AcDbEntity
  8
GRAU_10_
 62
     7
100
AcDbVertex
100
AcDb2dVertex
 10
29.93617696780809
 20
-5.206490114163551
 30
0.0
  0
VERTEX
  5
14D
330
144
100
AcDbEntity
  8
GRAU_10_
 62
     7
100
AcDbVertex
100
AcDb2dVertex
 10
29.93617696780809
 20
-3.898731005241294
 30
0.0
  0
VERTEX
  5
14E
330
144
100
AcDbEntity
  8
GRAU_10_
 62
     7
100
AcDbVertex
100
AcDb2dVertex
 10
29.93617696780809
 20
-2.763226784217121
 30
0.0
  0
VERTEX
  5
14F
330
144
100
AcDbEntity
  8
GRAU_10_
 62
     7
100
AcDbVertex
100
AcDb2dVertex
 10
29.93617696780809
 20
-1.813413332347084
 30
0.0
  0
VERTEX
  5
150
330
144
100
AcDbEntity
  8
GRAU_10_
 62
     7
100
AcDbVertex
100
AcDb2dVertex
 10
29.93617696780809
 20
-1.062382021111436
 30
0.0
  0
VERTEX
  5
151
330
144
100
AcDbEntity
  8
GRAU_10_
 62
     7
100
AcDbVertex
100
AcDb2dVertex
 10
29.93617696780809
 20
-0.5190901046808775
 30
0.0
  0
VERTEX
  5
152
330
144
100
AcDbEntity
  8
GRAU_10_
 62
     7
100
AcDbVertex
100
AcDb2dVertex
 10
29.93617696780809
 20
-0.1907722883471285
 30
0.0
  0
VERTEX
  5
153
330
144
100
AcDbEntity
  8
GRAU_10_
 62
     7
100
AcDbVertex
100
AcDb2dVertex
 10
29.93617696780809
 20
-0.0808736698681506
 30
0.0
  0
SEQEND
  5
154
330
144
100
AcDbEntity
  8
GRAU_10_
  0
POLYLINE
  5
155
330
1F
100
AcDbEntity
  8
GRAU_10_
 62
     7
100
AcDb2dPolyline
 66
     1
 10
0.0
 20
0.0
 30
0.0
  0
VERTEX
  5
156
330
155
100
AcDbEntity
  8
GRAU_10_
 62
     7
100
AcDbVertex
100
AcDb2dVertex
 10
29.93617696780809
 20
-35.08074144977228
 30
0.0
  0
VERTEX
  5
157
330
155
100
AcDbEntity
  8
GRAU_10_
 62
     7
100
AcDbVertex
100
AcDb2dVertex
 10
29.93617696780809
 20
-34.9708428312933
 30
0.0
  0
VERTEX
  5
158
330
155
100
AcDbEntity
  8
GRAU_10_
 62
     7
100
AcDbVertex
100
AcDb2dVertex
 10
29.93617696780809
 20
-34.64183599540796
 30
0.0
  0
VERTEX
  5
159
330
155
100
AcDbEntity
  8
GRAU_10_
 62
     7
100
AcDbVertex
100
AcDb2dVertex
 10
29.93617696780809
 20
-34.0988885887532
 30
0.0
  0
VERTEX
  5
15A
330
155
100
AcDbEntity
  8
GRAU_10_
 62
     7
100
AcDbVertex
100
AcDb2dVertex
 10
29.93617696780809
 20
-33.34785727751756
 30
0.0
  0
VERTEX
  5
15B
330
155
100
AcDbEntity
  8
GRAU_10_
 62
     7
100
AcDbVertex
100
AcDb2dVertex
 10
29.93617696780809
 20
-32.39838833542331
 30
0.0
  0
VERTEX
  5
15C
330
155
100
AcDbEntity
  8
GRAU_10_
 62
     7
100
AcDbVertex
100
AcDb2dVertex
 10
29.93617696780809
 20
-31.26288411439914
 30
0.0
  0
VERTEX
  5
15D
330
155
100
AcDbEntity
  8
GRAU_10_
 62
     7
100
AcDbVertex
100
AcDb2dVertex
 10
29.93617696780809
 20
-29.95512500547688
 30
0.0
  0
VERTEX
  5
15E
330
155
100
AcDbEntity
  8
GRAU_10_
 62
     7
100
AcDbVertex
100
AcDb2dVertex
 10
29.93617696780809
 20
-28.49199198767055
 30
0.0
  0
VERTEX
  5
15F
330
155
100
AcDbEntity
  8
GRAU_10_
 62
     7
100
AcDbVertex
100
AcDb2dVertex
 10
29.93617696780809
 20
-26.89105505954576
 30
0.0
  0
VERTEX
  5
160
330
155
100
AcDbEntity
  8
GRAU_10_
 62
     7
100
AcDbVertex
100
AcDb2dVertex
 10
29.93617696780809
 20
-25.17332931742606
 30
0.0
  0
VERTEX
  5
161
330
155
100
AcDbEntity
  8
GRAU_10_
 62
     7
100
AcDbVertex
100
AcDb2dVertex
 10
29.93617696780809
 20
-23.36043274974267
 30
0.0
  0
VERTEX
  5
162
330
155
100
AcDbEntity
  8
GRAU_10_
 62
     7
100
AcDbVertex
100
AcDb2dVertex
 10
29.93617696780809
 20
-21.47493074681024
 30
0.0
  0
VERTEX
  5
163
330
155
100
AcDbEntity
  8
GRAU_10_
 62
     7
100
AcDbVertex
100
AcDb2dVertex
 10
29.93617696780809
 20
-19.54016384593895
 30
0.0
  0
VERTEX
  5
164
330
155
100
AcDbEntity
  8
GRAU_10_
 62
     7
100
AcDbVertex
100
AcDb2dVertex
 10
29.93617696780809
 20
-17.58093675098614
 30
0.0
  0
SEQEND
  5
165
330
155
100
AcDbEntity
  8
GRAU_10_
  0
POLYLINE
  5
166
330
1F
100
AcDbEntity
  8
GRAU_10_
 62
     7
100
AcDb2dPolyline
 66
     1
 10
0.0
 20
0.0
 30
0.0
  0
VERTEX
  5
167
330
166
100
AcDbEntity
  8
GRAU_10_
 62
     7
100
AcDbVertex
100
AcDb2dVertex
 10
30.43571614271254
 20
-17.58093675098614
 30
0.0
  0
VERTEX
  5
168
330
166
100
AcDbEntity
  8
GRAU_10_
 62
     7
100
AcDbVertex
100
AcDb2dVertex
 10
30.57472583724629
 20
-16.75893642593648
 30
0.0
  0
VERTEX
  5
169
330
166
100
AcDbEntity
  8
GRAU_10_
 62
     7
100
AcDbVertex
100
AcDb2dVertex
 10
30.97504619672144
 20
-16.02960923057599
 30
0.0
  0
VERTEX
  5
16A
330
166
100
AcDbEntity
  8
GRAU_10_
 62
     7
100
AcDbVertex
100
AcDb2dVertex
 10
31.59705859692142
 20
-15.46943633513142
 30
0.0
  0
VERTEX
  5
16B
330
166
100
AcDbEntity
  8
GRAU_10_
 62
     7
100
AcDbVertex
100
AcDb2dVertex
 10
32.37530618044497
 20
-15.14421910677984
 30
0.0
  0
VERTEX
  5
16C
330
166
100
AcDbEntity
  8
GRAU_10_
 62
     7
100
AcDbVertex
100
AcDb2dVertex
 10
33.21057013186278
 20
-15.09564322839258
 30
0.0
  0
VERTEX
  5
16D
330
166
100
AcDbEntity
  8
GRAU_10_
 62
     7
100
AcDbVertex
100
AcDb2dVertex
 10
34.0086270274946
 20
-15.32233066086646
 30
0.0
  0
VERTEX
  5
16E
330
166
100
AcDbEntity
  8
GRAU_10_
 62
     7
100
AcDbVertex
100
AcDb2dVertex
 10
34.68955059935573
 20
-15.79895993568046
 30
0.0
  0
VERTEX
  5
16F
330
166
100
AcDbEntity
  8
GRAU_10_
 62
     7
100
AcDbVertex
100
AcDb2dVertex
 10
35.18082153964107
 20
-16.48057252709318
 30
0.0
  0
VERTEX
  5
170
330
166
100
AcDbEntity
  8
GRAU_10_
 62
     7
100
AcDbVertex
100
AcDb2dVertex
 10
35.41870553982832
 20
-17.28844795133519
 30
0.0
  0
VERTEX
  5
171
330
166
100
AcDbEntity
  8
GRAU_10_
 62
     7
100
AcDbVertex
100
AcDb2dVertex
 10
35.37701985695698
 20
-18.12130033432243
 30
0.0
  0
VERTEX
  5
172
330
166
100
AcDbEntity
  8
GRAU_10_
 62
     7
100
AcDbVertex
100
AcDb2dVertex
 10
35.06558301963725
 20
-18.88972938923579
 30
0.0
  0
VERTEX
  5
173
330
166
100
AcDbEntity
  8
GRAU_10_
 62
     7
100
AcDbVertex
100
AcDb2dVertex
 10
34.51660669190606
 20
-19.5175984556243
 30
0.0
  0
VERTEX
  5
174
330
166
100
AcDbEntity
  8
GRAU_10_
 62
     7
100
AcDbVertex
100
AcDb2dVertex
 10
33.7838343987876
 20
-19.93221597079499
 30
0.0
  0
VERTEX
  5
175
330
166
100
AcDbEntity
  8
GRAU_10_
 62
     7
100
AcDbVertex
100
AcDb2dVertex
 10
32.9570109368768
 20
-20.08035517438735
 30
0.0
  0
VERTEX
  5
176
330
166
100
AcDbEntity
  8
GRAU_10_
 62
     7
100
AcDbVertex
100
AcDb2dVertex
 10
32.13604414115453
 20
-19.949096949809
 30
0.0
  0
VERTEX
  5
177
330
166
100
AcDbEntity
  8
GRAU_10_
 62
     7
100
AcDbVertex
100
AcDb2dVertex
 10
31.40551116157875
 20
-19.55704482495296
 30
0.0
  0
VERTEX
  5
178
330
166
100
AcDbEntity
  8
GRAU_10_
 62
     7
100
AcDbVertex
100
AcDb2dVertex
 10
30.83896483528195
 20
-18.94157811049311
 30
0.0
  0
VERTEX
  5
179
330
166
100
AcDbEntity
  8
GRAU_10_
 62
     7
100
AcDbVertex
100
AcDb2dVertex
 10
30.50582388208706
 20
-18.16694787961542
 30
0.0
  0
VERTEX
  5
17A
330
166
100
AcDbEntity
  8
GRAU_10_
 62
     7
100
AcDbVertex
100
AcDb2dVertex
 10
30.43571614271254
 20
-17.58093675098614
 30
0.0
  0
SEQEND
  5
17B
330
166
100
AcDbEntity
  8
GRAU_10_
  0
POLYLINE
  5
17C
330
1F
100
AcDbEntity
  8
GRAU_10_
 62
     7
100
AcDb2dPolyline
 66
     1
 10
0.0
 20
0.0
 30
0.0
  0
VERTEX
  5
17D
330
17C
100
AcDbEntity
  8
GRAU_10_
 62
     7
100
AcDbVertex
100
AcDb2dVertex
 10
37.89969269022443
 20
-6.741453420223381
 30
0.0
  0
VERTEX
  5
17E
330
17C
100
AcDbEntity
  8
GRAU_10_
 62
     7
100
AcDbVertex
100
AcDb2dVertex
 10
37.91347308125628
 20
-6.731979401388986
 30
0.0
  0
SEQEND
  5
17F
330
17C
100
AcDbEntity
  8
GRAU_10_
  0
POLYLINE
  5
180
330
1F
100
AcDbEntity
  8
GRAU_10_
 62
     7
100
AcDb2dPolyline
 66
     1
 10
0.0
 20
0.0
 30
0.0
  0
VERTEX
  5
181
330
180
100
AcDbEntity
  8
GRAU_10_
 62
     7
100
AcDbVertex
100
AcDb2dVertex
 10
37.96756111605628
 20
-6.694427835827204
 30
0.0
  0
VERTEX
  5
182
330
180
100
AcDbEntity
  8
GRAU_10_
 62
     7
100
AcDbVertex
100
AcDb2dVertex
 10
38.14239982727283
 20
-6.574538433850138
 30
0.0
  0
VERTEX
  5
183
330
180
100
AcDbEntity
  8
GRAU_10_
 62
     7
100
AcDbVertex
100
AcDb2dVertex
 10
38.40853362907537
 20
-6.579189315823386
 30
0.0
  0
SEQEND
  5
184
330
180
100
AcDbEntity
  8
GRAU_10_
  0
POLYLINE
  5
185
330
1F
100
AcDbEntity
  8
GRAU_10_
 62
     7
100
AcDb2dPolyline
 66
     1
 10
0.0
 20
0.0
 30
0.0
  0
VERTEX
  5
186
330
185
100
AcDbEntity
  8
GRAU_10_
 62
     7
100
AcDbVertex
100
AcDb2dVertex
 10
37.64820055389323
 20
-7.141773779698529
 30
0.0
  0
VERTEX
  5
187
330
185
100
AcDbEntity
  8
GRAU_10_
 62
     7
100
AcDbVertex
100
AcDb2dVertex
 10
37.89969269022443
 20
-6.741453420223381
 30
0.0
  0
SEQEND
  5
188
330
185
100
AcDbEntity
  8
GRAU_10_
  0
POLYLINE
  5
189
330
1F
100
AcDbEntity
  8
GRAU_10_
 62
     7
100
AcDb2dPolyline
 66
     1
 10
0.0
 20
0.0
 30
0.0
  0
VERTEX
  5
18A
330
189
100
AcDbEntity
  8
GRAU_10_
 62
     7
100
AcDbVertex
100
AcDb2dVertex
 10
37.64820055389323
 20
-24.33203644493181
 30
0.0
  0
VERTEX
  5
18B
330
189
100
AcDbEntity
  8
GRAU_10_
 62
     7
100
AcDbVertex
100
AcDb2dVertex
 10
37.87006484950597
 20
-23.21901148677834
 30
0.0
  0
VERTEX
  5
18C
330
189
100
AcDbEntity
  8
GRAU_10_
 62
     7
100
AcDbVertex
100
AcDb2dVertex
 10
38.13533737686901
 20
-21.99617403758984
 30
0.0
  0
VERTEX
  5
18D
330
189
100
AcDbEntity
  8
GRAU_10_
 62
     7
100
AcDbVertex
100
AcDb2dVertex
 10
38.41163421705754
 20
-20.67256747898096
 30
0.0
  0
VERTEX
  5
18E
330
189
100
AcDbEntity
  8
GRAU_10_
 62
     7
100
AcDbVertex
100
AcDb2dVertex
 10
38.5859561636104
 20
-19.71483030226761
 30
0.0
  0
VERTEX
  5
18F
330
189
100
AcDbEntity
  8
GRAU_10_
 62
     7
100
AcDbVertex
100
AcDb2dVertex
 10
38.71928144684352
 20
-18.7086895020549
 30
0.0
  0
VERTEX
  5
190
330
189
100
AcDbEntity
  8
GRAU_10_
 62
     7
100
AcDbVertex
100
AcDb2dVertex
 10
38.77319722675562
 20
-17.84224741592753
 30
0.0
  0
VERTEX
  5
191
330
189
100
AcDbEntity
  8
GRAU_10_
 62
     7
100
AcDbVertex
100
AcDb2dVertex
 10
38.76062261993906
 20
-16.96874287939635
 30
0.0
  0
VERTEX
  5
192
330
189
100
AcDbEntity
  8
GRAU_10_
 62
     7
100
AcDbVertex
100
AcDb2dVertex
 10
38.65330782477855
 20
-15.90024580976453
 30
0.0
  0
VERTEX
  5
193
330
189
100
AcDbEntity
  8
GRAU_10_
 62
     7
100
AcDbVertex
100
AcDb2dVertex
 10
38.48639283840531
 20
-14.87963559896838
 30
0.0
  0
VERTEX
  5
194
330
189
100
AcDbEntity
  8
GRAU_10_
 62
     7
100
AcDbVertex
100
AcDb2dVertex
 10
38.1541131596499
 20
-13.25372171209836
 30
0.0
  0
VERTEX
  5
195
330
189
100
AcDbEntity
  8
GRAU_10_
 62
     7
100
AcDbVertex
100
AcDb2dVertex
 10
37.83458034259895
 20
-11.78300947922452
 30
0.0
  0
VERTEX
  5
196
330
189
100
AcDbEntity
  8
GRAU_10_
 62
     7
100
AcDbVertex
100
AcDb2dVertex
 10
37.64820055389323
 20
-10.82940641982072
 30
0.0
  0
SEQEND
  5
197
330
189
100
AcDbEntity
  8
GRAU_10_
  0
POLYLINE
  5
198
330
1F
100
AcDbEntity
  8
GRAU_10_
 62
     7
100
AcDb2dPolyline
 66
     1
 10
0.0
 20
0.0
 30
0.0
  0
VERTEX
  5
199
330
198
100
AcDbEntity
  8
GRAU_10_
 62
     7
100
AcDbVertex
100
AcDb2dVertex
 10
37.64820055389323
 20
-28.0203581046056
 30
0.0
  0
VERTEX
  5
19A
330
198
100
AcDbEntity
  8
GRAU_10_
 62
     7
100
AcDbVertex
100
AcDb2dVertex
 10
37.54553664070597
 20
-27.83983498208841
 30
0.0
  0
VERTEX
  5
19B
330
198
100
AcDbEntity
  8
GRAU_10_
 62
     7
100
AcDbVertex
100
AcDb2dVertex
 10
37.52021517218495
 20
-27.81192969024891
 30
0.0
  0
VERTEX
  5
19C
330
198
100
AcDbEntity
  8
GRAU_10_
 62
     7
100
AcDbVertex
100
AcDb2dVertex
 10
37.49902782097349
 20
-27.79332616235592
 30
0.0
  0
VERTEX
  5
19D
330
198
100
AcDbEntity
  8
GRAU_10_
 62
     7
100
AcDbVertex
100
AcDb2dVertex
 10
37.47353409756457
 20
-27.77782322244509
 30
0.0
  0
VERTEX
  5
19E
330
198
100
AcDbEntity
  8
GRAU_10_
 62
     7
100
AcDbVertex
100
AcDb2dVertex
 10
37.45872017720534
 20
-27.77265557580815
 30
0.0
  0
VERTEX
  5
19F
330
198
100
AcDbEntity
  8
GRAU_10_
 62
     7
100
AcDbVertex
100
AcDb2dVertex
 10
37.44459527639769
 20
-27.76955498782599
 30
0.0
  0
VERTEX
  5
1A0
330
198
100
AcDbEntity
  8
GRAU_10_
 62
     7
100
AcDbVertex
100
AcDb2dVertex
 10
37.43615478689069
 20
-27.7681769487228
 30
0.0
  0
SEQEND
  5
1A1
330
198
100
AcDbEntity
  8
GRAU_10_
  0
POLYLINE
  5
1A2
330
1F
100
AcDbEntity
  8
GRAU_10_
 62
     7
100
AcDb2dPolyline
 66
     1
 10
0.0
 20
0.0
 30
0.0
  0
VERTEX
  5
1A3
330
1A2
100
AcDbEntity
  8
GRAU_10_
 62
     7
100
AcDbVertex
100
AcDb2dVertex
 10
37.64820055389323
 20
-10.82940641982072
 30
0.0
  0
VERTEX
  5
1A4
330
1A2
100
AcDbEntity
  8
GRAU_10_
 62
     7
100
AcDbVertex
100
AcDb2dVertex
 10
37.54519213093018
 20
-10.43080860922455
 30
0.0
  0
VERTEX
  5
1A5
330
1A2
100
AcDbEntity
  8
GRAU_10_
 62
     7
100
AcDbVertex
100
AcDb2dVertex
 10
37.51987066240915
 20
-10.37361998644239
 30
0.0
  0
VERTEX
  5
1A6
330
1A2
100
AcDbEntity
  8
GRAU_10_
 62
     7
100
AcDbVertex
100
AcDb2dVertex
 10
37.49902782097349
 20
-10.3369296953201
 30
0.0
  0
VERTEX
  5
1A7
330
1A2
100
AcDbEntity
  8
GRAU_10_
 62
     7
100
AcDbVertex
100
AcDb2dVertex
 10
37.47318958778877
 20
-10.30557930572265
 30
0.0
  0
VERTEX
  5
1A8
330
1A2
100
AcDbEntity
  8
GRAU_10_
 62
     7
100
AcDbVertex
100
AcDb2dVertex
 10
37.45872017720534
 20
-10.29386597334558
 30
0.0
  0
VERTEX
  5
1A9
330
1A2
100
AcDbEntity
  8
GRAU_10_
 62
     7
100
AcDbVertex
100
AcDb2dVertex
 10
37.44459527639769
 20
-10.28680352294175
 30
0.0
  0
VERTEX
  5
1AA
330
1A2
100
AcDbEntity
  8
GRAU_10_
 62
     7
100
AcDbVertex
100
AcDb2dVertex
 10
37.43615478689069
 20
-10.28508097406277
 30
0.0
  0
SEQEND
  5
1AB
330
1A2
100
AcDbEntity
  8
GRAU_10_
  0
POLYLINE
  5
1AC
330
1F
100
AcDbEntity
  8
GRAU_10_
 62
     7
100
AcDb2dPolyline
 66
     1
 10
0.0
 20
0.0
 30
0.0
  0
VERTEX
  5
1AD
330
1AC
100
AcDbEntity
  8
GRAU_10_
 62
     7
100
AcDbVertex
100
AcDb2dVertex
 10
37.43615478689069
 20
-24.87636189068976
 30
0.0
  0
VERTEX
  5
1AE
330
1AC
100
AcDbEntity
  8
GRAU_10_
 62
     7
100
AcDbVertex
100
AcDb2dVertex
 10
37.45062419747413
 20
-24.87153875382861
 30
0.0
  0
VERTEX
  5
1AF
330
1AC
100
AcDbEntity
  8
GRAU_10_
 62
     7
100
AcDbVertex
100
AcDb2dVertex
 10
37.46871096070343
 20
-24.85948091167575
 30
0.0
  0
VERTEX
  5
1B0
330
1AC
100
AcDbEntity
  8
GRAU_10_
 62
     7
100
AcDbVertex
100
AcDb2dVertex
 10
37.5067792909289
 20
-24.81159405284008
 30
0.0
  0
VERTEX
  5
1B1
330
1AC
100
AcDbEntity
  8
GRAU_10_
 62
     7
100
AcDbVertex
100
AcDb2dVertex
 10
37.59962467550597
 20
-24.55872387740569
 30
0.0
  0
VERTEX
  5
1B2
330
1AC
100
AcDbEntity
  8
GRAU_10_
 62
     7
100
AcDbVertex
100
AcDb2dVertex
 10
37.64820055389323
 20
-24.33203644493181
 30
0.0
  0
SEQEND
  5
1B3
330
1AC
100
AcDbEntity
  8
GRAU_10_
  0
POLYLINE
  5
1B4
330
1F
100
AcDbEntity
  8
GRAU_10_
 62
     7
100
AcDb2dPolyline
 66
     1
 10
0.0
 20
0.0
 30
0.0
  0
VERTEX
  5
1B5
330
1B4
100
AcDbEntity
  8
GRAU_10_
 62
     7
100
AcDbVertex
100
AcDb2dVertex
 10
37.94516798062953
 20
-28.46443120560686
 30
0.0
  0
VERTEX
  5
1B6
330
1B4
100
AcDbEntity
  8
GRAU_10_
 62
     7
100
AcDbVertex
100
AcDb2dVertex
 10
37.64820055389323
 20
-28.0203581046056
 30
0.0
  0
SEQEND
  5
1B7
330
1B4
100
AcDbEntity
  8
GRAU_10_
  0
POLYLINE
  5
1B8
330
1F
100
AcDbEntity
  8
GRAU_10_
 62
     7
100
AcDb2dPolyline
 66
     1
 10
0.0
 20
0.0
 30
0.0
  0
VERTEX
  5
1B9
330
1B8
100
AcDbEntity
  8
GRAU_10_
 62
     7
100
AcDbVertex
100
AcDb2dVertex
 10
38.34738314387155
 20
-28.58259805870495
 30
0.0
  0
VERTEX
  5
1BA
330
1B8
100
AcDbEntity
  8
GRAU_10_
 62
     7
100
AcDbVertex
100
AcDb2dVertex
 10
38.24730305400277
 20
-28.60912531144125
 30
0.0
  0
VERTEX
  5
1BB
330
1B8
100
AcDbEntity
  8
GRAU_10_
 62
     7
100
AcDbVertex
100
AcDb2dVertex
 10
38.00631846583335
 20
-28.51335159376992
 30
0.0
  0
VERTEX
  5
1BC
330
1B8
100
AcDbEntity
  8
GRAU_10_
 62
     7
100
AcDbVertex
100
AcDb2dVertex
 10
37.97600160556328
 20
-28.49026943879157
 30
0.0
  0
VERTEX
  5
1BD
330
1B8
100
AcDbEntity
  8
GRAU_10_
 62
     7
100
AcDbVertex
100
AcDb2dVertex
 10
37.96084317542825
 20
-28.47717806731132
 30
0.0
  0
VERTEX
  5
1BE
330
1B8
100
AcDbEntity
  8
GRAU_10_
 62
     7
100
AcDbVertex
100
AcDb2dVertex
 10
37.94516798062953
 20
-28.46443120560686
 30
0.0
  0
SEQEND
  5
1BF
330
1B8
100
AcDbEntity
  8
GRAU_10_
  0
POLYLINE
  5
1C0
330
1F
100
AcDbEntity
  8
GRAU_10_
 62
     7
100
AcDb2dPolyline
 66
     1
 10
0.0
 20
0.0
 30
0.0
  0
VERTEX
  5
1C1
330
1C0
100
AcDbEntity
  8
GRAU_10_
 62
     7
100
AcDbVertex
100
AcDb2dVertex
 10
36.93592659243465
 20
-24.96076678575982
 30
0.0
  0
VERTEX
  5
1C2
330
1C0
100
AcDbEntity
  8
GRAU_10_
 62
     7
100
AcDbVertex
100
AcDb2dVertex
 10
37.43615478689069
 20
-24.87636189068976
 30
0.0
  0
SEQEND
  5
1C3
330
1C0
100
AcDbEntity
  8
GRAU_10_
  0
POLYLINE
  5
1C4
330
1F
100
AcDbEntity
  8
GRAU_10_
 62
     7
100
AcDb2dPolyline
 66
     1
 10
0.0
 20
0.0
 30
0.0
  0
VERTEX
  5
1C5
330
1C4
100
AcDbEntity
  8
GRAU_10_
 62
     7
100
AcDbVertex
100
AcDb2dVertex
 10
37.43615478689069
 20
-10.28508097406277
 30
0.0
  0
VERTEX
  5
1C6
330
1C4
100
AcDbEntity
  8
GRAU_10_
 62
     7
100
AcDbVertex
100
AcDb2dVertex
 10
36.93592659243465
 20
-10.20084833388061
 30
0.0
  0
SEQEND
  5
1C7
330
1C4
100
AcDbEntity
  8
GRAU_10_
  0
POLYLINE
  5
1C8
330
1F
100
AcDbEntity
  8
GRAU_10_
 62
     7
100
AcDb2dPolyline
 66
     1
 10
0.0
 20
0.0
 30
0.0
  0
VERTEX
  5
1C9
330
1C8
100
AcDbEntity
  8
GRAU_10_
 62
     7
100
AcDbVertex
100
AcDb2dVertex
 10
36.93592659243465
 20
-7.422376992084509
 30
0.0
  0
VERTEX
  5
1CA
330
1C8
100
AcDbEntity
  8
GRAU_10_
 62
     7
100
AcDbVertex
100
AcDb2dVertex
 10
37.43615478689069
 20
-7.393438170917631
 30
0.0
  0
SEQEND
  5
1CB
330
1C8
100
AcDbEntity
  8
GRAU_10_
  0
POLYLINE
  5
1CC
330
1F
100
AcDbEntity
  8
GRAU_10_
 62
     7
100
AcDb2dPolyline
 66
     1
 10
0.0
 20
0.0
 30
0.0
  0
VERTEX
  5
1CD
330
1CC
100
AcDbEntity
  8
GRAU_10_
 62
     7
100
AcDbVertex
100
AcDb2dVertex
 10
37.43615478689069
 20
-27.7681769487228
 30
0.0
  0
VERTEX
  5
1CE
330
1CC
100
AcDbEntity
  8
GRAU_10_
 62
     7
100
AcDbVertex
100
AcDb2dVertex
 10
36.93592659243465
 20
-27.73923812755592
 30
0.0
  0
SEQEND
  5
1CF
330
1CC
100
AcDbEntity
  8
GRAU_10_
  0
POLYLINE
  5
1D0
330
1F
100
AcDbEntity
  8
GRAU_10_
 62
     7
100
AcDb2dPolyline
 66
     1
 10
0.0
 20
0.0
 30
0.0
  0
VERTEX
  5
1D1
330
1D0
100
AcDbEntity
  8
GRAU_10_
 62
     7
100
AcDbVertex
100
AcDb2dVertex
 10
37.43615478689069
 20
-7.393438170917631
 30
0.0
  0
VERTEX
  5
1D2
330
1D0
100
AcDbEntity
  8
GRAU_10_
 62
     7
100
AcDbVertex
100
AcDb2dVertex
 10
37.45062419747413
 20
-7.391198857374955
 30
0.0
  0
VERTEX
  5
1D3
330
1D0
100
AcDbEntity
  8
GRAU_10_
 62
     7
100
AcDbVertex
100
AcDb2dVertex
 10
37.46871096070343
 20
-7.385169936298523
 30
0.0
  0
VERTEX
  5
1D4
330
1D0
100
AcDbEntity
  8
GRAU_10_
 62
     7
100
AcDbVertex
100
AcDb2dVertex
 10
37.5067792909289
 20
-7.361226506880689
 30
0.0
  0
VERTEX
  5
1D5
330
1D0
100
AcDbEntity
  8
GRAU_10_
 62
     7
100
AcDbVertex
100
AcDb2dVertex
 10
37.59962467550597
 20
-7.240475830464131
 30
0.0
  0
VERTEX
  5
1D6
330
1D0
100
AcDbEntity
  8
GRAU_10_
 62
     7
100
AcDbVertex
100
AcDb2dVertex
 10
37.64820055389323
 20
-7.141773779698529
 30
0.0
  0
SEQEND
  5
1D7
330
1D0
100
AcDbEntity
  8
GRAU_10_
  0
POLYLINE
  5
1D8
330
1F
100
AcDbEntity
  8
GRAU_10_
 62
     7
100
AcDb2dPolyline
 66
     1
 10
0.0
 20
0.0
 30
0.0
  0
VERTEX
  5
1D9
330
1D8
100
AcDbEntity
  8
GRAU_10_
 62
     7
100
AcDbVertex
100
AcDb2dVertex
 10
54.90900159572078
 20
-7.133333290191523
 30
0.0
  0
VERTEX
  5
1DA
330
1D8
100
AcDbEntity
  8
GRAU_10_
 62
     7
100
AcDbVertex
100
AcDb2dVertex
 10
54.90900159572078
 20
-6.974169773773693
 30
0.0
  0
VERTEX
  5
1DB
330
1D8
100
AcDbEntity
  8
GRAU_10_
 62
     7
100
AcDbVertex
100
AcDb2dVertex
 10
54.90900159572078
 20
-6.970380166239935
 30
0.0
  0
SEQEND
  5
1DC
330
1D8
100
AcDbEntity
  8
GRAU_10_
  0
POLYLINE
  5
1DD
330
1F
100
AcDbEntity
  8
GRAU_10_
 62
     7
100
AcDb2dPolyline
 66
     1
 10
0.0
 20
0.0
 30
0.0
  0
VERTEX
  5
1DE
330
1DD
100
AcDbEntity
  8
GRAU_10_
 62
     7
100
AcDbVertex
100
AcDb2dVertex
 10
54.90900159572078
 20
-28.07237908075082
 30
0.0
  0
VERTEX
  5
1DF
330
1DD
100
AcDbEntity
  8
GRAU_10_
 62
     7
100
AcDbVertex
100
AcDb2dVertex
 10
54.90900159572078
 20
-27.59695559015211
 30
0.0
  0
VERTEX
  5
1E0
330
1DD
100
AcDbEntity
  8
GRAU_10_
 62
     7
100
AcDbVertex
100
AcDb2dVertex
 10
54.90900159572078
 20
-26.84868035712283
 30
0.0
  0
VERTEX
  5
1E1
330
1DD
100
AcDbEntity
  8
GRAU_10_
 62
     7
100
AcDbVertex
100
AcDb2dVertex
 10
54.90900159572078
 20
-25.8616598494668
 30
0.0
  0
VERTEX
  5
1E2
330
1DD
100
AcDbEntity
  8
GRAU_10_
 62
     7
100
AcDbVertex
100
AcDb2dVertex
 10
54.90900159572078
 20
-24.64485132135474
 30
0.0
  0
VERTEX
  5
1E3
330
1DD
100
AcDbEntity
  8
GRAU_10_
 62
     7
100
AcDbVertex
100
AcDb2dVertex
 10
54.90900159572078
 20
-23.22951903494013
 30
0.0
  0
VERTEX
  5
1E4
330
1DD
100
AcDbEntity
  8
GRAU_10_
 62
     7
100
AcDbVertex
100
AcDb2dVertex
 10
54.90900159572078
 20
-21.60033230520004
 30
0.0
  0
VERTEX
  5
1E5
330
1DD
100
AcDbEntity
  8
GRAU_10_
 62
     7
100
AcDbVertex
100
AcDb2dVertex
 10
54.90900159572078
 20
-20.70150630014784
 30
0.0
  0
VERTEX
  5
1E6
330
1DD
100
AcDbEntity
  8
GRAU_10_
 62
     7
100
AcDbVertex
100
AcDb2dVertex
 10
54.90900159572078
 20
-19.7522096129415
 30
0.0
  0
VERTEX
  5
1E7
330
1DD
100
AcDbEntity
  8
GRAU_10_
 62
     7
100
AcDbVertex
100
AcDb2dVertex
 10
54.90900159572078
 20
-18.75278675335681
 30
0.0
  0
VERTEX
  5
1E8
330
1DD
100
AcDbEntity
  8
GRAU_10_
 62
     7
100
AcDbVertex
100
AcDb2dVertex
 10
54.90900159572078
 20
-17.72011870040779
 30
0.0
  0
VERTEX
  5
1E9
330
1DD
100
AcDbEntity
  8
GRAU_10_
 62
     7
100
AcDbVertex
100
AcDb2dVertex
 10
54.90900159572078
 20
-16.67728760907279
 30
0.0
  0
VERTEX
  5
1EA
330
1DD
100
AcDbEntity
  8
GRAU_10_
 62
     7
100
AcDbVertex
100
AcDb2dVertex
 10
54.90900159572078
 20
-15.66959651486899
 30
0.0
  0
VERTEX
  5
1EB
330
1DD
100
AcDbEntity
  8
GRAU_10_
 62
     7
100
AcDbVertex
100
AcDb2dVertex
 10
54.90900159572078
 20
-14.7070362012945
 30
0.0
  0
VERTEX
  5
1EC
330
1DD
100
AcDbEntity
  8
GRAU_10_
 62
     7
100
AcDbVertex
100
AcDb2dVertex
 10
54.90900159572078
 20
-13.80132000072637
 30
0.0
  0
VERTEX
  5
1ED
330
1DD
100
AcDbEntity
  8
GRAU_10_
 62
     7
100
AcDbVertex
100
AcDb2dVertex
 10
54.90900159572078
 20
-12.1349262152003
 30
0.0
  0
VERTEX
  5
1EE
330
1DD
100
AcDbEntity
  8
GRAU_10_
 62
     7
100
AcDbVertex
100
AcDb2dVertex
 10
54.90900159572078
 20
-10.68695162752901
 30
0.0
  0
VERTEX
  5
1EF
330
1DD
100
AcDbEntity
  8
GRAU_10_
 62
     7
100
AcDbVertex
100
AcDb2dVertex
 10
54.90900159572078
 20
-9.443271336904836
 30
0.0
  0
VERTEX
  5
1F0
330
1DD
100
AcDbEntity
  8
GRAU_10_
 62
     7
100
AcDbVertex
100
AcDb2dVertex
 10
54.90900159572078
 20
-8.425589459202952
 30
0.0
  0
VERTEX
  5
1F1
330
1DD
100
AcDbEntity
  8
GRAU_10_
 62
     7
100
AcDbVertex
100
AcDb2dVertex
 10
54.90900159572078
 20
-7.647341875679407
 30
0.0
  0
VERTEX
  5
1F2
330
1DD
100
AcDbEntity
  8
GRAU_10_
 62
     7
100
AcDbVertex
100
AcDb2dVertex
 10
54.90900159572078
 20
-7.133333290191523
 30
0.0
  0
SEQEND
  5
1F3
330
1DD
100
AcDbEntity
  8
GRAU_10_
  0
POLYLINE
  5
1F4
330
1F
100
AcDbEntity
  8
GRAU_10_
 62
     7
100
AcDb2dPolyline
 66
     1
 10
0.0
 20
0.0
 30
0.0
  0
VERTEX
  5
1F5
330
1F4
100
AcDbEntity
  8
GRAU_10_
 62
     7
100
AcDbVertex
100
AcDb2dVertex
 10
54.90900159572078
 20
-28.12129946891388
 30
0.0
  0
VERTEX
  5
1F6
330
1F4
100
AcDbEntity
  8
GRAU_10_
 62
     7
100
AcDbVertex
100
AcDb2dVertex
 10
54.90900159572078
 20
-28.07237908075082
 30
0.0
  0
SEQEND
  5
1F7
330
1F4
100
AcDbEntity
  8
GRAU_10_
  0
POLYLINE
  5
1F8
330
1F
100
AcDbEntity
  8
GRAU_10_
 62
     7
100
AcDb2dPolyline
 66
     1
 10
0.0
 20
0.0
 30
0.0
  0
VERTEX
  5
1F9
330
1F8
100
AcDbEntity
  8
GRAU_10_
 62
     7
100
AcDbVertex
100
AcDb2dVertex
 10
54.90900159572078
 20
-28.20053671734699
 30
0.0
  0
VERTEX
  5
1FA
330
1F8
100
AcDbEntity
  8
GRAU_10_
 62
     7
100
AcDbVertex
100
AcDb2dVertex
 10
54.90900159572078
 20
-28.21569514748202
 30
0.0
  0
VERTEX
  5
1FB
330
1F8
100
AcDbEntity
  8
GRAU_10_
 62
     7
100
AcDbVertex
100
AcDb2dVertex
 10
54.90900159572078
 20
-28.12129946891388
 30
0.0
  0
SEQEND
  5
1FC
330
1F8
100
AcDbEntity
  8
GRAU_10_
  0
SPLINE
  5
1FD
330
1F
100
AcDbEntity
  8
GRAU_10_
 62
     7
100
AcDbSpline
210
0.0
220
0.0
230
1.0
 70
    11
 71
     3
 72
    17
 73
    13
 74
     0
 42
0.0000000001
 43
0.0000000001
 40
0.0
 40
0.0
 40
0.0
 40
0.0
 40
1.0
 40
1.0
 40
1.0
 40
2.0
 40
2.0
 40
2.0
 40
3.0
 40
3.0
 40
3.0
 40
4.0
 40
4.0
 40
4.0
 40
4.0
 10
23.33571417332929
 20
-17.58093675098614
 30
0.0
 10
23.33571417332929
 20
-15.70266945334543
 30
0.0
 10
21.81384223874972
 20
-14.18079751876585
 30
0.0
 10
19.935574941109
 20
-14.18079751876585
 30
0.0
 10
18.05816891790778
 20
-14.18079751876585
 30
0.0
 10
16.53629698332821
 20
-15.70266945334543
 30
0.0
 10
16.53629698332821
 20
-17.58093675098614
 30
0.0
 10
16.53629698332821
 20
-19.45868728396316
 30
0.0
 10
18.05816891790778
 20
-20.98055921854273
 30
0.0
 10
19.935574941109
 20
-20.98055921854273
 30
0.0
 10
21.81384223874972
 20
-20.98055921854273
 30
0.0
 10
23.33571417332929
 20
-19.45868728396316
 30
0.0
 10
23.33571417332929
 20
-17.58093675098614
 30
0.0
  0
POLYLINE
  5
1FE
330
1F
100
AcDbEntity
  8
GRAU_10_
 62
     7
100
AcDb2dPolyline
 66
     1
 10
0.0
 20
0.0
 30
0.0
  0
VERTEX
  5
1FF
330
1FE
100
AcDbEntity
  8
GRAU_10_
 62
     7
100
AcDbVertex
100
AcDb2dVertex
 10
10.93594606798569
 20
-64.71254403066446
 30
0.0
  0
VERTEX
  5
200
330
1FE
100
AcDbEntity
  8
GRAU_10_
 62
     7
100
AcDbVertex
100
AcDb2dVertex
 10
-0.0640788182980874
 20
-69.84229459226941
 30
0.0
  0
SEQEND
  5
201
330
1FE
100
AcDbEntity
  8
GRAU_10_
  0
POLYLINE
  5
202
330
1F
100
AcDbEntity
  8
GRAU_10_
 62
     7
100
AcDb2dPolyline
 66
     1
 10
0.0
 20
0.0
 30
0.0
  0
VERTEX
  5
203
330
202
100
AcDbEntity
  8
GRAU_10_
 62
     7
100
AcDbVertex
100
AcDb2dVertex
 10
-0.0640788182980874
 20
-94.58326414107128
 30
0.0
  0
VERTEX
  5
204
330
202
100
AcDbEntity
  8
GRAU_10_
 62
     7
100
AcDbVertex
100
AcDb2dVertex
 10
10.93594606798569
 20
-99.71232568312465
 30
0.0
  0
SEQEND
  5
205
330
202
100
AcDbEntity
  8
GRAU_10_
  0
POLYLINE
  5
206
330
1F
100
AcDbEntity
  8
GRAU_10_
 62
     7
100
AcDb2dPolyline
 66
     1
 10
0.0
 20
0.0
 30
0.0
  0
VERTEX
  5
207
330
206
100
AcDbEntity
  8
GRAU_10_
 62
     7
100
AcDbVertex
100
AcDb2dVertex
 10
24.92958865105027
 20
-99.71232568312465
 30
0.0
  0
VERTEX
  5
208
330
206
100
AcDbEntity
  8
GRAU_10_
 62
     7
100
AcDbVertex
100
AcDb2dVertex
 10
29.93617696780809
 20
-99.71232568312465
 30
0.0
  0
SEQEND
  5
209
330
206
100
AcDbEntity
  8
GRAU_10_
  0
POLYLINE
  5
20A
330
1F
100
AcDbEntity
  8
GRAU_10_
 62
     7
100
AcDb2dPolyline
 66
     1
 10
0.0
 20
0.0
 30
0.0
  0
VERTEX
  5
20B
330
20A
100
AcDbEntity
  8
GRAU_10_
 62
     7
100
AcDbVertex
100
AcDb2dVertex
 10
10.93594606798569
 20
-99.71232568312465
 30
0.0
  0
VERTEX
  5
20C
330
20A
100
AcDbEntity
  8
GRAU_10_
 62
     7
100
AcDbVertex
100
AcDb2dVertex
 10
14.93570456497921
 20
-99.71232568312465
 30
0.0
  0
SEQEND
  5
20D
330
20A
100
AcDbEntity
  8
GRAU_10_
  0
POLYLINE
  5
20E
330
1F
100
AcDbEntity
  8
GRAU_10_
 62
     7
100
AcDb2dPolyline
 66
     1
 10
0.0
 20
0.0
 30
0.0
  0
VERTEX
  5
20F
330
20E
100
AcDbEntity
  8
GRAU_10_
 62
     7
100
AcDbVertex
100
AcDb2dVertex
 10
29.93617696780809
 20
-64.71254403066446
 30
0.0
  0
VERTEX
  5
210
330
20E
100
AcDbEntity
  8
GRAU_10_
 62
     7
100
AcDbVertex
100
AcDb2dVertex
 10
10.93594606798569
 20
-64.71254403066446
 30
0.0
  0
SEQEND
  5
211
330
20E
100
AcDbEntity
  8
GRAU_10_
  0
POLYLINE
  5
212
330
1F
100
AcDbEntity
  8
GRAU_10_
 62
     7
100
AcDb2dPolyline
 66
     1
 10
0.0
 20
0.0
 30
0.0
  0
VERTEX
  5
213
330
212
100
AcDbEntity
  8
GRAU_10_
 62
     7
100
AcDbVertex
100
AcDb2dVertex
 10
35.42886857821431
 20
-98.21267462908392
 30
0.0
  0
VERTEX
  5
214
330
212
100
AcDbEntity
  8
GRAU_10_
 62
     7
100
AcDbVertex
100
AcDb2dVertex
 10
36.93592659243465
 20
-98.21267462908392
 30
0.0
  0
SEQEND
  5
215
330
212
100
AcDbEntity
  8
GRAU_10_
  0
POLYLINE
  5
216
330
1F
100
AcDbEntity
  8
GRAU_10_
 62
     7
100
AcDb2dPolyline
 66
     1
 10
0.0
 20
0.0
 30
0.0
  0
VERTEX
  5
217
330
216
100
AcDbEntity
  8
GRAU_10_
 62
     7
100
AcDbVertex
100
AcDb2dVertex
 10
29.93617696780809
 20
-98.21267462908392
 30
0.0
  0
VERTEX
  5
218
330
216
100
AcDbEntity
  8
GRAU_10_
 62
     7
100
AcDbVertex
100
AcDb2dVertex
 10
30.43571614271254
 20
-98.21267462908392
 30
0.0
  0
SEQEND
  5
219
330
216
100
AcDbEntity
  8
GRAU_10_
  0
POLYLINE
  5
21A
330
1F
100
AcDbEntity
  8
GRAU_10_
 62
     7
100
AcDb2dPolyline
 66
     1
 10
0.0
 20
0.0
 30
0.0
  0
VERTEX
  5
21B
330
21A
100
AcDbEntity
  8
GRAU_10_
 62
     7
100
AcDbVertex
100
AcDb2dVertex
 10
36.93592659243465
 20
-66.21253959448097
 30
0.0
  0
VERTEX
  5
21C
330
21A
100
AcDbEntity
  8
GRAU_10_
 62
     7
100
AcDbVertex
100
AcDb2dVertex
 10
29.93617696780809
 20
-66.21253959448097
 30
0.0
  0
SEQEND
  5
21D
330
21A
100
AcDbEntity
  8
GRAU_10_
  0
POLYLINE
  5
21E
330
1F
100
AcDbEntity
  8
GRAU_10_
 62
     7
100
AcDb2dPolyline
 66
     1
 10
0.0
 20
0.0
 30
0.0
  0
VERTEX
  5
21F
330
21E
100
AcDbEntity
  8
GRAU_10_
 62
     7
100
AcDbVertex
100
AcDb2dVertex
 10
36.93592659243465
 20
-92.71257605849809
 30
0.0
  0
VERTEX
  5
220
330
21E
100
AcDbEntity
  8
GRAU_10_
 62
     7
100
AcDbVertex
100
AcDb2dVertex
 10
37.43615478689069
 20
-92.71257605849809
 30
0.0
  0
SEQEND
  5
221
330
21E
100
AcDbEntity
  8
GRAU_10_
  0
POLYLINE
  5
222
330
1F
100
AcDbEntity
  8
GRAU_10_
 62
     7
100
AcDb2dPolyline
 66
     1
 10
0.0
 20
0.0
 30
0.0
  0
VERTEX
  5
223
330
222
100
AcDbEntity
  8
GRAU_10_
 62
     7
100
AcDbVertex
100
AcDb2dVertex
 10
37.64820055389323
 20
-92.8007705611019
 30
0.0
  0
VERTEX
  5
224
330
222
100
AcDbEntity
  8
GRAU_10_
 62
     7
100
AcDbVertex
100
AcDb2dVertex
 10
38.7661347763518
 20
-93.91904929333626
 30
0.0
  0
SEQEND
  5
225
330
222
100
AcDbEntity
  8
GRAU_10_
  0
SPLINE
  5
226
330
1F
100
AcDbEntity
  8
GRAU_10_
 62
     7
100
AcDbSpline
210
0.0
220
0.0
230
1.0
 70
     8
 71
     3
 72
     8
 73
     4
 74
     0
 42
0.0000000001
 43
0.0000000001
 40
0.0
 40
0.0
 40
0.0
 40
0.0
 40
1.0
 40
1.0
 40
1.0
 40
1.0
 10
37.64820055389323
 20
-92.8007705611019
 30
0.0
 10
37.58928938223208
 20
-92.74220389921655
 30
0.0
 10
37.51280821200533
 20
-92.71257605849809
 30
0.0
 10
37.43615478689069
 20
-92.71257605849809
 30
0.0
  0
POLYLINE
  5
227
330
1F
100
AcDbEntity
  8
GRAU_10_
 62
     7
100
AcDb2dPolyline
 66
     1
 10
0.0
 20
0.0
 30
0.0
  0
VERTEX
  5
228
330
227
100
AcDbEntity
  8
GRAU_10_
 62
     7
100
AcDbVertex
100
AcDb2dVertex
 10
38.76975212899766
 20
-93.93041811593754
 30
0.0
  0
VERTEX
  5
229
330
227
100
AcDbEntity
  8
GRAU_10_
 62
     7
100
AcDbVertex
100
AcDb2dVertex
 10
46.83954911724712
 20
-93.74197126857703
 30
0.0
  0
VERTEX
  5
22A
330
227
100
AcDbEntity
  8
GRAU_10_
 62
     7
100
AcDbVertex
100
AcDb2dVertex
 10
54.90934610549657
 20
-93.55283540166494
 30
0.0
  0
VERTEX
  5
22B
330
227
100
AcDbEntity
  8
GRAU_10_
 62
     7
100
AcDbVertex
100
AcDb2dVertex
 10
55.42077086766599
 20
-93.04054936505604
 30
0.0
  0
VERTEX
  5
22C
330
227
100
AcDbEntity
  8
GRAU_10_
 62
     7
100
AcDbVertex
100
AcDb2dVertex
 10
55.93305690427489
 20
-92.52860783822292
 30
0.0
  0
SEQEND
  5
22D
330
227
100
AcDbEntity
  8
GRAU_10_
  0
POLYLINE
  5
22E
330
1F
100
AcDbEntity
  8
GRAU_10_
 62
     7
100
AcDb2dPolyline
 66
     1
 10
0.0
 20
0.0
 30
0.0
  0
VERTEX
  5
22F
330
22E
100
AcDbEntity
  8
GRAU_10_
 62
     7
100
AcDbVertex
100
AcDb2dVertex
 10
43.34673675533766
 20
-72.04302304005535
 30
0.0
  0
VERTEX
  5
230
330
22E
100
AcDbEntity
  8
GRAU_10_
 62
     7
100
AcDbVertex
100
AcDb2dVertex
 10
40.14124554644221
 20
-71.96826441870758
 30
0.0
  0
VERTEX
  5
231
330
22E
100
AcDbEntity
  8
GRAU_10_
 62
     7
100
AcDbVertex
100
AcDb2dVertex
 10
36.93592659243465
 20
-71.8938503071356
 30
0.0
  0
SEQEND
  5
232
330
22E
100
AcDbEntity
  8
GRAU_10_
  0
POLYLINE
  5
233
330
1F
100
AcDbEntity
  8
GRAU_10_
 62
     7
100
AcDb2dPolyline
 66
     1
 10
0.0
 20
0.0
 30
0.0
  0
VERTEX
  5
234
330
233
100
AcDbEntity
  8
GRAU_10_
 62
     7
100
AcDbVertex
100
AcDb2dVertex
 10
54.90900159572078
 20
-72.31311870427953
 30
0.0
  0
VERTEX
  5
235
330
233
100
AcDbEntity
  8
GRAU_10_
 62
     7
100
AcDbVertex
100
AcDb2dVertex
 10
46.54740482737196
 20
-72.1181261711789
 30
0.0
  0
SEQEND
  5
236
330
233
100
AcDbEntity
  8
GRAU_10_
  0
POLYLINE
  5
237
330
1F
100
AcDbEntity
  8
GRAU_10_
 62
     7
100
AcDb2dPolyline
 66
     1
 10
0.0
 20
0.0
 30
0.0
  0
VERTEX
  5
238
330
237
100
AcDbEntity
  8
GRAU_10_
 62
     7
100
AcDbVertex
100
AcDb2dVertex
 10
55.93305690427489
 20
-73.32735548422346
 30
0.0
  0
VERTEX
  5
239
330
237
100
AcDbEntity
  8
GRAU_10_
 62
     7
100
AcDbVertex
100
AcDb2dVertex
 10
55.42077086766599
 20
-72.81610297694195
 30
0.0
  0
VERTEX
  5
23A
330
237
100
AcDbEntity
  8
GRAU_10_
 62
     7
100
AcDbVertex
100
AcDb2dVertex
 10
54.90900159572078
 20
-72.30588399898781
 30
0.0
  0
SEQEND
  5
23B
330
237
100
AcDbEntity
  8
GRAU_10_
  0
POLYLINE
  5
23C
330
1F
100
AcDbEntity
  8
GRAU_10_
 62
     7
100
AcDb2dPolyline
 66
     1
 10
0.0
 20
0.0
 30
0.0
  0
VERTEX
  5
23D
330
23C
100
AcDbEntity
  8
GRAU_10_
 62
     7
100
AcDbVertex
100
AcDb2dVertex
 10
55.93305690427489
 20
-73.36146195202728
 30
0.0
  0
VERTEX
  5
23E
330
23C
100
AcDbEntity
  8
GRAU_10_
 62
     7
100
AcDbVertex
100
AcDb2dVertex
 10
55.93305690427489
 20
-73.2963496044018
 30
0.0
  0
VERTEX
  5
23F
330
23C
100
AcDbEntity
  8
GRAU_10_
 62
     7
100
AcDbVertex
100
AcDb2dVertex
 10
55.93305690427489
 20
-73.41589449660307
 30
0.0
  0
VERTEX
  5
240
330
23C
100
AcDbEntity
  8
GRAU_10_
 62
     7
100
AcDbVertex
100
AcDb2dVertex
 10
55.93305690427489
 20
-73.54956428961198
 30
0.0
  0
VERTEX
  5
241
330
23C
100
AcDbEntity
  8
GRAU_10_
 62
     7
100
AcDbVertex
100
AcDb2dVertex
 10
55.93305690427489
 20
-73.72698682414702
 30
0.0
  0
VERTEX
  5
242
330
23C
100
AcDbEntity
  8
GRAU_10_
 62
     7
100
AcDbVertex
100
AcDb2dVertex
 10
55.93305690427489
 20
-73.95022915886292
 30
0.0
  0
VERTEX
  5
243
330
23C
100
AcDbEntity
  8
GRAU_10_
 62
     7
100
AcDbVertex
100
AcDb2dVertex
 10
55.93305690427489
 20
-74.21791325465655
 30
0.0
  0
VERTEX
  5
244
330
23C
100
AcDbEntity
  8
GRAU_10_
 62
     7
100
AcDbVertex
100
AcDb2dVertex
 10
55.93305690427489
 20
-74.56931322596864
 30
0.0
  0
VERTEX
  5
245
330
23C
100
AcDbEntity
  8
GRAU_10_
 62
     7
100
AcDbVertex
100
AcDb2dVertex
 10
55.93305690427489
 20
-74.96584397791004
 30
0.0
  0
VERTEX
  5
246
330
23C
100
AcDbEntity
  8
GRAU_10_
 62
     7
100
AcDbVertex
100
AcDb2dVertex
 10
55.93305690427489
 20
-75.40785002025652
 30
0.0
  0
VERTEX
  5
247
330
23C
100
AcDbEntity
  8
GRAU_10_
 62
     7
100
AcDbVertex
100
AcDb2dVertex
 10
55.93305690427489
 20
-75.8953313530081
 30
0.0
  0
VERTEX
  5
248
330
23C
100
AcDbEntity
  8
GRAU_10_
 62
     7
100
AcDbVertex
100
AcDb2dVertex
 10
55.93305690427489
 20
-76.51269287123483
 30
0.0
  0
VERTEX
  5
249
330
23C
100
AcDbEntity
  8
GRAU_10_
 62
     7
100
AcDbVertex
100
AcDb2dVertex
 10
55.93305690427489
 20
-77.19620026641444
 30
0.0
  0
VERTEX
  5
24A
330
23C
100
AcDbEntity
  8
GRAU_10_
 62
     7
100
AcDbVertex
100
AcDb2dVertex
 10
55.93305690427489
 20
-77.91519216850104
 30
0.0
  0
VERTEX
  5
24B
330
23C
100
AcDbEntity
  8
GRAU_10_
 62
     7
100
AcDbVertex
100
AcDb2dVertex
 10
55.93305690427489
 20
-78.72444563184624
 30
0.0
  0
VERTEX
  5
24C
330
23C
100
AcDbEntity
  8
GRAU_10_
 62
     7
100
AcDbVertex
100
AcDb2dVertex
 10
55.93305690427489
 20
-79.82584338506659
 30
0.0
  0
VERTEX
  5
24D
330
23C
100
AcDbEntity
  8
GRAU_10_
 62
     7
100
AcDbVertex
100
AcDb2dVertex
 10
55.93305690427489
 20
-80.90415898330859
 30
0.0
  0
VERTEX
  5
24E
330
23C
100
AcDbEntity
  8
GRAU_10_
 62
     7
100
AcDbVertex
100
AcDb2dVertex
 10
55.93305690427489
 20
-82.04207477276334
 30
0.0
  0
VERTEX
  5
24F
330
23C
100
AcDbEntity
  8
GRAU_10_
 62
     7
100
AcDbVertex
100
AcDb2dVertex
 10
55.93305690427489
 20
-83.8442054099531
 30
0.0
  0
VERTEX
  5
250
330
23C
100
AcDbEntity
  8
GRAU_10_
 62
     7
100
AcDbVertex
100
AcDb2dVertex
 10
55.93305690427489
 20
-85.61705271620019
 30
0.0
  0
VERTEX
  5
251
330
23C
100
AcDbEntity
  8
GRAU_10_
 62
     7
100
AcDbVertex
100
AcDb2dVertex
 10
55.93305690427489
 20
-86.73395340933136
 30
0.0
  0
VERTEX
  5
252
330
23C
100
AcDbEntity
  8
GRAU_10_
 62
     7
100
AcDbVertex
100
AcDb2dVertex
 10
55.93305690427489
 20
-87.79159842102561
 30
0.0
  0
VERTEX
  5
253
330
23C
100
AcDbEntity
  8
GRAU_10_
 62
     7
100
AcDbVertex
100
AcDb2dVertex
 10
55.93305690427489
 20
-88.78895422195552
 30
0.0
  0
VERTEX
  5
254
330
23C
100
AcDbEntity
  8
GRAU_10_
 62
     7
100
AcDbVertex
100
AcDb2dVertex
 10
55.93305690427489
 20
-89.38667868296187
 30
0.0
  0
VERTEX
  5
255
330
23C
100
AcDbEntity
  8
GRAU_10_
 62
     7
100
AcDbVertex
100
AcDb2dVertex
 10
55.93305690427489
 20
-89.93754981445994
 30
0.0
  0
VERTEX
  5
256
330
23C
100
AcDbEntity
  8
GRAU_10_
 62
     7
100
AcDbVertex
100
AcDb2dVertex
 10
55.93305690427489
 20
-90.44260114577712
 30
0.0
  0
VERTEX
  5
257
330
23C
100
AcDbEntity
  8
GRAU_10_
 62
     7
100
AcDbVertex
100
AcDb2dVertex
 10
55.93305690427489
 20
-90.90045463781023
 30
0.0
  0
VERTEX
  5
258
330
23C
100
AcDbEntity
  8
GRAU_10_
 62
     7
100
AcDbVertex
100
AcDb2dVertex
 10
55.93305690427489
 20
-91.31248832966246
 30
0.0
  0
VERTEX
  5
259
330
23C
100
AcDbEntity
  8
GRAU_10_
 62
     7
100
AcDbVertex
100
AcDb2dVertex
 10
55.93305690427489
 20
-91.85956985362677
 30
0.0
  0
VERTEX
  5
25A
330
23C
100
AcDbEntity
  8
GRAU_10_
 62
     7
100
AcDbVertex
100
AcDb2dVertex
 10
55.93305690427489
 20
-92.2443872731911
 30
0.0
  0
VERTEX
  5
25B
330
23C
100
AcDbEntity
  8
GRAU_10_
 62
     7
100
AcDbVertex
100
AcDb2dVertex
 10
55.93305690427489
 20
-92.51827254494904
 30
0.0
  0
SEQEND
  5
25C
330
23C
100
AcDbEntity
  8
GRAU_10_
  0
POLYLINE
  5
25D
330
1F
100
AcDbEntity
  8
GRAU_10_
 62
     7
100
AcDb2dPolyline
 66
     1
 10
0.0
 20
0.0
 30
0.0
  0
VERTEX
  5
25E
330
25D
100
AcDbEntity
  8
GRAU_10_
 62
     7
100
AcDbVertex
100
AcDb2dVertex
 10
46.58616217714903
 20
-72.11605911252413
 30
0.0
  0
VERTEX
  5
25F
330
25D
100
AcDbEntity
  8
GRAU_10_
 62
     7
100
AcDbVertex
100
AcDb2dVertex
 10
46.54740482737196
 20
-72.11915970050629
 30
0.0
  0
SEQEND
  5
260
330
25D
100
AcDbEntity
  8
GRAU_10_
  0
POLYLINE
  5
261
330
1F
100
AcDbEntity
  8
GRAU_10_
 62
     7
100
AcDb2dPolyline
 66
     1
 10
0.0
 20
0.0
 30
0.0
  0
VERTEX
  5
262
330
261
100
AcDbEntity
  8
GRAU_10_
 62
     7
100
AcDbVertex
100
AcDb2dVertex
 10
42.96071355155805
 20
-71.99616971054706
 30
0.0
  0
VERTEX
  5
263
330
261
100
AcDbEntity
  8
GRAU_10_
 62
     7
100
AcDbVertex
100
AcDb2dVertex
 10
42.98603502007907
 20
-71.99961480830503
 30
0.0
  0
VERTEX
  5
264
330
261
100
AcDbEntity
  8
GRAU_10_
 62
     7
100
AcDbVertex
100
AcDb2dVertex
 10
43.23907745040135
 20
-72.03337676633305
 30
0.0
  0
VERTEX
  5
265
330
261
100
AcDbEntity
  8
GRAU_10_
 62
     7
100
AcDbVertex
100
AcDb2dVertex
 10
43.68177251229943
 20
-72.08367519359929
 30
0.0
  0
VERTEX
  5
266
330
261
100
AcDbEntity
  8
GRAU_10_
 62
     7
100
AcDbVertex
100
AcDb2dVertex
 10
44.26985069958349
 20
-72.13190656221074
 30
0.0
  0
VERTEX
  5
267
330
261
100
AcDbEntity
  8
GRAU_10_
 62
     7
100
AcDbVertex
100
AcDb2dVertex
 10
44.93337652776692
 20
-72.16153440292922
 30
0.0
  0
VERTEX
  5
268
330
261
100
AcDbEntity
  8
GRAU_10_
 62
     7
100
AcDbVertex
100
AcDb2dVertex
 10
45.59311274841658
 20
-72.1639459713598
 30
0.0
  0
VERTEX
  5
269
330
261
100
AcDbEntity
  8
GRAU_10_
 62
     7
100
AcDbVertex
100
AcDb2dVertex
 10
46.17774583794267
 20
-72.14361989458781
 30
0.0
  0
VERTEX
  5
26A
330
261
100
AcDbEntity
  8
GRAU_10_
 62
     7
100
AcDbVertex
100
AcDb2dVertex
 10
46.62578080136559
 20
-72.11330303431775
 30
0.0
  0
VERTEX
  5
26B
330
261
100
AcDbEntity
  8
GRAU_10_
 62
     7
100
AcDbVertex
100
AcDb2dVertex
 10
46.88502440765221
 20
-72.09090989889101
 30
0.0
  0
VERTEX
  5
26C
330
261
100
AcDbEntity
  8
GRAU_10_
 62
     7
100
AcDbVertex
100
AcDb2dVertex
 10
46.93618410935794
 20
-72.08608676202986
 30
0.0
  0
SEQEND
  5
26D
330
261
100
AcDbEntity
  8
GRAU_10_
  0
POLYLINE
  5
26E
330
1F
100
AcDbEntity
  8
GRAU_10_
 62
     7
100
AcDb2dPolyline
 66
     1
 10
0.0
 20
0.0
 30
0.0
  0
VERTEX
  5
26F
330
26E
100
AcDbEntity
  8
GRAU_10_
 62
     7
100
AcDbVertex
100
AcDb2dVertex
 10
36.93592659243465
 20
-98.21267462908392
 30
0.0
  0
VERTEX
  5
270
330
26E
100
AcDbEntity
  8
GRAU_10_
 62
     7
100
AcDbVertex
100
AcDb2dVertex
 10
36.93592659243465
 20
-98.10449855948391
 30
0.0
  0
VERTEX
  5
271
330
26E
100
AcDbEntity
  8
GRAU_10_
 62
     7
100
AcDbVertex
100
AcDb2dVertex
 10
36.93592659243465
 20
-97.78134838978711
 30
0.0
  0
VERTEX
  5
272
330
26E
100
AcDbEntity
  8
GRAU_10_
 62
     7
100
AcDbVertex
100
AcDb2dVertex
 10
36.93592659243465
 20
-97.24804725685465
 30
0.0
  0
VERTEX
  5
273
330
26E
100
AcDbEntity
  8
GRAU_10_
 62
     7
100
AcDbVertex
100
AcDb2dVertex
 10
36.93592659243465
 20
-96.51079633665084
 30
0.0
  0
VERTEX
  5
274
330
26E
100
AcDbEntity
  8
GRAU_10_
 62
     7
100
AcDbVertex
100
AcDb2dVertex
 10
36.93592659243465
 20
-95.58061994200119
 30
0.0
  0
VERTEX
  5
275
330
26E
100
AcDbEntity
  8
GRAU_10_
 62
     7
100
AcDbVertex
100
AcDb2dVertex
 10
36.93592659243465
 20
-94.46992042483434
 30
0.0
  0
VERTEX
  5
276
330
26E
100
AcDbEntity
  8
GRAU_10_
 62
     7
100
AcDbVertex
100
AcDb2dVertex
 10
36.93592659243465
 20
-93.19282268595794
 30
0.0
  0
VERTEX
  5
277
330
26E
100
AcDbEntity
  8
GRAU_10_
 62
     7
100
AcDbVertex
100
AcDb2dVertex
 10
36.93592659243465
 20
-91.76724123371339
 30
0.0
  0
VERTEX
  5
278
330
26E
100
AcDbEntity
  8
GRAU_10_
 62
     7
100
AcDbVertex
100
AcDb2dVertex
 10
36.93592659243465
 20
-90.21246861554529
 30
0.0
  0
VERTEX
  5
279
330
26E
100
AcDbEntity
  8
GRAU_10_
 62
     7
100
AcDbVertex
100
AcDb2dVertex
 10
36.93592659243465
 20
-88.54986443755297
 30
0.0
  0
VERTEX
  5
27A
330
26E
100
AcDbEntity
  8
GRAU_10_
 62
     7
100
AcDbVertex
100
AcDb2dVertex
 10
36.93592659243465
 20
-86.80182183516321
 30
0.0
  0
VERTEX
  5
27B
330
26E
100
AcDbEntity
  8
GRAU_10_
 62
     7
100
AcDbVertex
100
AcDb2dVertex
 10
36.93592659243465
 20
-84.99142296335434
 30
0.0
  0
VERTEX
  5
27C
330
26E
100
AcDbEntity
  8
GRAU_10_
 62
     7
100
AcDbVertex
100
AcDb2dVertex
 10
36.93592659243465
 20
-83.1427835064321
 30
0.0
  0
VERTEX
  5
27D
330
26E
100
AcDbEntity
  8
GRAU_10_
 62
     7
100
AcDbVertex
100
AcDb2dVertex
 10
36.93592659243465
 20
-81.282086207357
 30
0.0
  0
VERTEX
  5
27E
330
26E
100
AcDbEntity
  8
GRAU_10_
 62
     7
100
AcDbVertex
100
AcDb2dVertex
 10
36.93592659243465
 20
-79.43448027976214
 30
0.0
  0
VERTEX
  5
27F
330
26E
100
AcDbEntity
  8
GRAU_10_
 62
     7
100
AcDbVertex
100
AcDb2dVertex
 10
36.93592659243465
 20
-77.62339238840168
 30
0.0
  0
VERTEX
  5
280
330
26E
100
AcDbEntity
  8
GRAU_10_
 62
     7
100
AcDbVertex
100
AcDb2dVertex
 10
36.93592659243465
 20
-75.87500527623612
 30
0.0
  0
VERTEX
  5
281
330
26E
100
AcDbEntity
  8
GRAU_10_
 62
     7
100
AcDbVertex
100
AcDb2dVertex
 10
36.93592659243465
 20
-74.21274560801962
 30
0.0
  0
VERTEX
  5
282
330
26E
100
AcDbEntity
  8
GRAU_10_
 62
     7
100
AcDbVertex
100
AcDb2dVertex
 10
36.93592659243465
 20
-72.6579729898515
 30
0.0
  0
VERTEX
  5
283
330
26E
100
AcDbEntity
  8
GRAU_10_
 62
     7
100
AcDbVertex
100
AcDb2dVertex
 10
36.93592659243465
 20
-71.23308055715854
 30
0.0
  0
VERTEX
  5
284
330
26E
100
AcDbEntity
  8
GRAU_10_
 62
     7
100
AcDbVertex
100
AcDb2dVertex
 10
36.93592659243465
 20
-69.95598281828215
 30
0.0
  0
VERTEX
  5
285
330
26E
100
AcDbEntity
  8
GRAU_10_
 62
     7
100
AcDbVertex
100
AcDb2dVertex
 10
36.93592659243465
 20
-68.8449387913395
 30
0.0
  0
VERTEX
  5
286
330
26E
100
AcDbEntity
  8
GRAU_10_
 62
     7
100
AcDbVertex
100
AcDb2dVertex
 10
36.93592659243465
 20
-67.91476239668985
 30
0.0
  0
VERTEX
  5
287
330
26E
100
AcDbEntity
  8
GRAU_10_
 62
     7
100
AcDbVertex
100
AcDb2dVertex
 10
36.93592659243465
 20
-67.17785598626185
 30
0.0
  0
VERTEX
  5
288
330
26E
100
AcDbEntity
  8
GRAU_10_
 62
     7
100
AcDbVertex
100
AcDb2dVertex
 10
36.93592659243465
 20
-66.64352132400198
 30
0.0
  0
VERTEX
  5
289
330
26E
100
AcDbEntity
  8
GRAU_10_
 62
     7
100
AcDbVertex
100
AcDb2dVertex
 10
36.93592659243465
 20
-66.32037115430518
 30
0.0
  0
VERTEX
  5
28A
330
26E
100
AcDbEntity
  8
GRAU_10_
 62
     7
100
AcDbVertex
100
AcDb2dVertex
 10
36.93592659243465
 20
-66.21253959448097
 30
0.0
  0
SEQEND
  5
28B
330
26E
100
AcDbEntity
  8
GRAU_10_
  0
POLYLINE
  5
28C
330
1F
100
AcDbEntity
  8
GRAU_10_
 62
     7
100
AcDb2dPolyline
 66
     1
 10
0.0
 20
0.0
 30
0.0
  0
VERTEX
  5
28D
330
28C
100
AcDbEntity
  8
GRAU_10_
 62
     7
100
AcDbVertex
100
AcDb2dVertex
 10
-0.0640788182980874
 20
-94.58326414107128
 30
0.0
  0
VERTEX
  5
28E
330
28C
100
AcDbEntity
  8
GRAU_10_
 62
     7
100
AcDbVertex
100
AcDb2dVertex
 10
-0.0640788182980874
 20
-94.47715513012606
 30
0.0
  0
VERTEX
  5
28F
330
28C
100
AcDbEntity
  8
GRAU_10_
 62
     7
100
AcDbVertex
100
AcDb2dVertex
 10
-0.0640788182980874
 20
-94.16192868527256
 30
0.0
  0
VERTEX
  5
290
330
28C
100
AcDbEntity
  8
GRAU_10_
 62
     7
100
AcDbVertex
100
AcDb2dVertex
 10
-0.0640788182980874
 20
-93.64171892382035
 30
0.0
  0
VERTEX
  5
291
330
28C
100
AcDbEntity
  8
GRAU_10_
 62
     7
100
AcDbVertex
100
AcDb2dVertex
 10
-0.0640788182980874
 20
-92.92548309994011
 30
0.0
  0
VERTEX
  5
292
330
28C
100
AcDbEntity
  8
GRAU_10_
 62
     7
100
AcDbVertex
100
AcDb2dVertex
 10
-0.0640788182980874
 20
-92.02700160466371
 30
0.0
  0
VERTEX
  5
293
330
28C
100
AcDbEntity
  8
GRAU_10_
 62
     7
100
AcDbVertex
100
AcDb2dVertex
 10
-0.0640788182980874
 20
-90.96039933879877
 30
0.0
  0
VERTEX
  5
294
330
28C
100
AcDbEntity
  8
GRAU_10_
 62
     7
100
AcDbVertex
100
AcDb2dVertex
 10
-0.0640788182980874
 20
-89.7435908106867
 30
0.0
  0
VERTEX
  5
295
330
28C
100
AcDbEntity
  8
GRAU_10_
 62
     7
100
AcDbVertex
100
AcDb2dVertex
 10
-0.0640788182980874
 20
-88.39759111665107
 30
0.0
  0
VERTEX
  5
296
330
28C
100
AcDbEntity
  8
GRAU_10_
 62
     7
100
AcDbVertex
100
AcDb2dVertex
 10
-0.0640788182980874
 20
-86.9468604507734
 30
0.0
  0
VERTEX
  5
297
330
28C
100
AcDbEntity
  8
GRAU_10_
 62
     7
100
AcDbVertex
100
AcDb2dVertex
 10
-0.0640788182980874
 20
-85.41413645825624
 30
0.0
  0
VERTEX
  5
298
330
28C
100
AcDbEntity
  8
GRAU_10_
 62
     7
100
AcDbVertex
100
AcDb2dVertex
 10
-0.0640788182980874
 20
-83.8269799211633
 30
0.0
  0
VERTEX
  5
299
330
28C
100
AcDbEntity
  8
GRAU_10_
 62
     7
100
AcDbVertex
100
AcDb2dVertex
 10
-0.0640788182980874
 20
-82.21260711178245
 30
0.0
  0
VERTEX
  5
29A
330
28C
100
AcDbEntity
  8
GRAU_10_
 62
     7
100
AcDbVertex
100
AcDb2dVertex
 10
-0.0640788182980874
 20
-80.5978897926258
 30
0.0
  0
VERTEX
  5
29B
330
28C
100
AcDbEntity
  8
GRAU_10_
 62
     7
100
AcDbVertex
100
AcDb2dVertex
 10
-0.0640788182980874
 20
-79.01107776530866
 30
0.0
  0
VERTEX
  5
29C
330
28C
100
AcDbEntity
  8
GRAU_10_
 62
     7
100
AcDbVertex
100
AcDb2dVertex
 10
-0.0640788182980874
 20
-77.4786982825673
 30
0.0
  0
VERTEX
  5
29D
330
28C
100
AcDbEntity
  8
GRAU_10_
 62
     7
100
AcDbVertex
100
AcDb2dVertex
 10
-0.0640788182980874
 20
-76.02762310691382
 30
0.0
  0
VERTEX
  5
29E
330
28C
100
AcDbEntity
  8
GRAU_10_
 62
     7
100
AcDbVertex
100
AcDb2dVertex
 10
-0.0640788182980874
 20
-74.6816234128782
 30
0.0
  0
VERTEX
  5
29F
330
28C
100
AcDbEntity
  8
GRAU_10_
 62
     7
100
AcDbVertex
100
AcDb2dVertex
 10
-0.0640788182980874
 20
-73.46515939454193
 30
0.0
  0
VERTEX
  5
2A0
330
28C
100
AcDbEntity
  8
GRAU_10_
 62
     7
100
AcDbVertex
100
AcDb2dVertex
 10
-0.0640788182980874
 20
-72.39821261890118
 30
0.0
  0
VERTEX
  5
2A1
330
28C
100
AcDbEntity
  8
GRAU_10_
 62
     7
100
AcDbVertex
100
AcDb2dVertex
 10
-0.0640788182980874
 20
-71.49938661384898
 30
0.0
  0
VERTEX
  5
2A2
330
28C
100
AcDbEntity
  8
GRAU_10_
 62
     7
100
AcDbVertex
100
AcDb2dVertex
 10
-0.0640788182980874
 20
-70.78349529974454
 30
0.0
  0
VERTEX
  5
2A3
330
28C
100
AcDbEntity
  8
GRAU_10_
 62
     7
100
AcDbVertex
100
AcDb2dVertex
 10
-0.0640788182980874
 20
-70.26363004806812
 30
0.0
  0
VERTEX
  5
2A4
330
28C
100
AcDbEntity
  8
GRAU_10_
 62
     7
100
AcDbVertex
100
AcDb2dVertex
 10
-0.0640788182980874
 20
-69.94805909343884
 30
0.0
  0
VERTEX
  5
2A5
330
28C
100
AcDbEntity
  8
GRAU_10_
 62
     7
100
AcDbVertex
100
AcDb2dVertex
 10
-0.0640788182980874
 20
-69.84229459226941
 30
0.0
  0
SEQEND
  5
2A6
330
28C
100
AcDbEntity
  8
GRAU_10_
  0
POLYLINE
  5
2A7
330
1F
100
AcDbEntity
  8
GRAU_10_
 62
     7
100
AcDb2dPolyline
 66
     1
 10
0.0
 20
0.0
 30
0.0
  0
VERTEX
  5
2A8
330
2A7
100
AcDbEntity
  8
GRAU_10_
 62
     7
100
AcDbVertex
100
AcDb2dVertex
 10
10.93594606798569
 20
-99.71232568312465
 30
0.0
  0
VERTEX
  5
2A9
330
2A7
100
AcDbEntity
  8
GRAU_10_
 62
     7
100
AcDbVertex
100
AcDb2dVertex
 10
10.93594606798569
 20
-99.61035078948898
 30
0.0
  0
VERTEX
  5
2AA
330
2A7
100
AcDbEntity
  8
GRAU_10_
 62
     7
100
AcDbVertex
100
AcDb2dVertex
 10
10.93594606798569
 20
-99.30339257925459
 30
0.0
  0
VERTEX
  5
2AB
330
2A7
100
AcDbEntity
  8
GRAU_10_
 62
     7
100
AcDbVertex
100
AcDb2dVertex
 10
10.93594606798569
 20
-98.79696320883421
 30
0.0
  0
VERTEX
  5
2AC
330
2A7
100
AcDbEntity
  8
GRAU_10_
 62
     7
100
AcDbVertex
100
AcDb2dVertex
 10
10.93594606798569
 20
-98.09554130531322
 30
0.0
  0
VERTEX
  5
2AD
330
2A7
100
AcDbEntity
  8
GRAU_10_
 62
     7
100
AcDbVertex
100
AcDb2dVertex
 10
10.93594606798569
 20
-97.20808412286229
 30
0.0
  0
VERTEX
  5
2AE
330
2A7
100
AcDbEntity
  8
GRAU_10_
 62
     7
100
AcDbVertex
100
AcDb2dVertex
 10
10.93594606798569
 20
-96.14423793520372
 30
0.0
  0
VERTEX
  5
2AF
330
2A7
100
AcDbEntity
  8
GRAU_10_
 62
     7
100
AcDbVertex
100
AcDb2dVertex
 10
10.93594606798569
 20
-94.91743862359357
 30
0.0
  0
VERTEX
  5
2B0
330
2A7
100
AcDbEntity
  8
GRAU_10_
 62
     7
100
AcDbVertex
100
AcDb2dVertex
 10
10.93594606798569
 20
-93.54181108883947
 30
0.0
  0
VERTEX
  5
2B1
330
2A7
100
AcDbEntity
  8
GRAU_10_
 62
     7
100
AcDbVertex
100
AcDb2dVertex
 10
10.93594606798569
 20
-92.03320278062803
 30
0.0
  0
VERTEX
  5
2B2
330
2A7
100
AcDbEntity
  8
GRAU_10_
 62
     7
100
AcDbVertex
100
AcDb2dVertex
 10
10.93594606798569
 20
-90.40987271707648
 30
0.0
  0
VERTEX
  5
2B3
330
2A7
100
AcDbEntity
  8
GRAU_10_
 62
     7
100
AcDbVertex
100
AcDb2dVertex
 10
10.93594606798569
 20
-88.69007991630201
 30
0.0
  0
VERTEX
  5
2B4
330
2A7
100
AcDbEntity
  8
GRAU_10_
 62
     7
100
AcDbVertex
100
AcDb2dVertex
 10
10.93594606798569
 20
-86.89415045507658
 30
0.0
  0
VERTEX
  5
2B5
330
2A7
100
AcDbEntity
  8
GRAU_10_
 62
     7
100
AcDbVertex
100
AcDb2dVertex
 10
10.93594606798569
 20
-85.04378844927537
 30
0.0
  0
VERTEX
  5
2B6
330
2A7
100
AcDbEntity
  8
GRAU_10_
 62
     7
100
AcDbVertex
100
AcDb2dVertex
 10
10.93594606798569
 20
-83.1603535049977
 30
0.0
  0
VERTEX
  5
2B7
330
2A7
100
AcDbEntity
  8
GRAU_10_
 62
     7
100
AcDbVertex
100
AcDb2dVertex
 10
10.93594606798569
 20
-81.26486071856719
 30
0.0
  0
VERTEX
  5
2B8
330
2A7
100
AcDbEntity
  8
GRAU_10_
 62
     7
100
AcDbVertex
100
AcDb2dVertex
 10
10.93594606798569
 20
-79.38177028406533
 30
0.0
  0
VERTEX
  5
2B9
330
2A7
100
AcDbEntity
  8
GRAU_10_
 62
     7
100
AcDbVertex
100
AcDb2dVertex
 10
10.93594606798569
 20
-77.53106376848831
 30
0.0
  0
VERTEX
  5
2BA
330
2A7
100
AcDbEntity
  8
GRAU_10_
 62
     7
100
AcDbVertex
100
AcDb2dVertex
 10
10.93594606798569
 20
-75.73513430726288
 30
0.0
  0
VERTEX
  5
2BB
330
2A7
100
AcDbEntity
  8
GRAU_10_
 62
     7
100
AcDbVertex
100
AcDb2dVertex
 10
10.93594606798569
 20
-74.01534150648841
 30
0.0
  0
VERTEX
  5
2BC
330
2A7
100
AcDbEntity
  8
GRAU_10_
 62
     7
100
AcDbVertex
100
AcDb2dVertex
 10
10.93594606798569
 20
-72.39235595271265
 30
0.0
  0
VERTEX
  5
2BD
330
2A7
100
AcDbEntity
  8
GRAU_10_
 62
     7
100
AcDbVertex
100
AcDb2dVertex
 10
10.93594606798569
 20
-70.88374764450123
 30
0.0
  0
VERTEX
  5
2BE
330
2A7
100
AcDbEntity
  8
GRAU_10_
 62
     7
100
AcDbVertex
100
AcDb2dVertex
 10
10.93594606798569
 20
-69.50777559997134
 30
0.0
  0
VERTEX
  5
2BF
330
2A7
100
AcDbEntity
  8
GRAU_10_
 62
     7
100
AcDbVertex
100
AcDb2dVertex
 10
10.93594606798569
 20
-68.28097628836117
 30
0.0
  0
VERTEX
  5
2C0
330
2A7
100
AcDbEntity
  8
GRAU_10_
 62
     7
100
AcDbVertex
100
AcDb2dVertex
 10
10.93594606798569
 20
-67.21781912025419
 30
0.0
  0
VERTEX
  5
2C1
330
2A7
100
AcDbEntity
  8
GRAU_10_
 62
     7
100
AcDbVertex
100
AcDb2dVertex
 10
10.93594606798569
 20
-66.33036193780326
 30
0.0
  0
VERTEX
  5
2C2
330
2A7
100
AcDbEntity
  8
GRAU_10_
 62
     7
100
AcDbVertex
100
AcDb2dVertex
 10
10.93594606798569
 20
-65.62894003428227
 30
0.0
  0
VERTEX
  5
2C3
330
2A7
100
AcDbEntity
  8
GRAU_10_
 62
     7
100
AcDbVertex
100
AcDb2dVertex
 10
10.93594606798569
 20
-65.1221661540861
 30
0.0
  0
VERTEX
  5
2C4
330
2A7
100
AcDbEntity
  8
GRAU_10_
 62
     7
100
AcDbVertex
100
AcDb2dVertex
 10
10.93594606798569
 20
-64.81520794385172
 30
0.0
  0
VERTEX
  5
2C5
330
2A7
100
AcDbEntity
  8
GRAU_10_
 62
     7
100
AcDbVertex
100
AcDb2dVertex
 10
10.93594606798569
 20
-64.71254403066446
 30
0.0
  0
SEQEND
  5
2C6
330
2A7
100
AcDbEntity
  8
GRAU_10_
  0
POLYLINE
  5
2C7
330
1F
100
AcDbEntity
  8
GRAU_10_
 62
     7
100
AcDb2dPolyline
 66
     1
 10
0.0
 20
0.0
 30
0.0
  0
VERTEX
  5
2C8
330
2C7
100
AcDbEntity
  8
GRAU_10_
 62
     7
100
AcDbVertex
100
AcDb2dVertex
 10
14.93570456497921
 20
-99.71232568312465
 30
0.0
  0
VERTEX
  5
2C9
330
2C7
100
AcDbEntity
  8
GRAU_10_
 62
     7
100
AcDbVertex
100
AcDb2dVertex
 10
15.00443426525054
 20
-99.69337764545585
 30
0.0
  0
VERTEX
  5
2CA
330
2C7
100
AcDbEntity
  8
GRAU_10_
 62
     7
100
AcDbVertex
100
AcDb2dVertex
 10
15.20476669987601
 20
-99.63756706177688
 30
0.0
  0
VERTEX
  5
2CB
330
2C7
100
AcDbEntity
  8
GRAU_10_
 62
     7
100
AcDbVertex
100
AcDb2dVertex
 10
15.53256775154607
 20
-99.55178412760363
 30
0.0
  0
VERTEX
  5
2CC
330
2C7
100
AcDbEntity
  8
GRAU_10_
 62
     7
100
AcDbVertex
100
AcDb2dVertex
 10
15.97629634277153
 20
-99.44429707755522
 30
0.0
  0
VERTEX
  5
2CD
330
2C7
100
AcDbEntity
  8
GRAU_10_
 62
     7
100
AcDbVertex
100
AcDb2dVertex
 10
16.53905306153458
 20
-99.32371865602656
 30
0.0
  0
VERTEX
  5
2CE
330
2C7
100
AcDbEntity
  8
GRAU_10_
 62
     7
100
AcDbVertex
100
AcDb2dVertex
 10
17.19586094908997
 20
-99.20589631270427
 30
0.0
  0
VERTEX
  5
2CF
330
2C7
100
AcDbEntity
  8
GRAU_10_
 62
     7
100
AcDbVertex
100
AcDb2dVertex
 10
17.94706451521352
 20
-99.10082083108644
 30
0.0
  0
VERTEX
  5
2D0
330
2C7
100
AcDbEntity
  8
GRAU_10_
 62
     7
100
AcDbVertex
100
AcDb2dVertex
 10
18.7580405274377
 20
-99.0243396608597
 30
0.0
  0
VERTEX
  5
2D1
330
2C7
100
AcDbEntity
  8
GRAU_10_
 62
     7
100
AcDbVertex
100
AcDb2dVertex
 10
19.58451947957271
 20
-98.98713260507371
 30
0.0
  0
VERTEX
  5
2D2
330
2C7
100
AcDbEntity
  8
GRAU_10_
 62
     7
100
AcDbVertex
100
AcDb2dVertex
 10
20.4216782347574
 20
-98.99023319305587
 30
0.0
  0
VERTEX
  5
2D3
330
2C7
100
AcDbEntity
  8
GRAU_10_
 62
     7
100
AcDbVertex
100
AcDb2dVertex
 10
21.21715130707075
 20
-99.032263385703
 30
0.0
  0
VERTEX
  5
2D4
330
2C7
100
AcDbEntity
  8
GRAU_10_
 62
     7
100
AcDbVertex
100
AcDb2dVertex
 10
21.97851791158029
 20
-99.10736651682657
 30
0.0
  0
VERTEX
  5
2D5
330
2C7
100
AcDbEntity
  8
GRAU_10_
 62
     7
100
AcDbVertex
100
AcDb2dVertex
 10
22.69148089259046
 20
-99.20830788113484
 30
0.0
  0
VERTEX
  5
2D6
330
2C7
100
AcDbEntity
  8
GRAU_10_
 62
     7
100
AcDbVertex
100
AcDb2dVertex
 10
23.33071878158025
 20
-99.32371865602656
 30
0.0
  0
VERTEX
  5
2D7
330
2C7
100
AcDbEntity
  8
GRAU_10_
 62
     7
100
AcDbVertex
100
AcDb2dVertex
 10
23.89864314698023
 20
-99.4449860971068
 30
0.0
  0
VERTEX
  5
2D8
330
2C7
100
AcDbEntity
  8
GRAU_10_
 62
     7
100
AcDbVertex
100
AcDb2dVertex
 10
24.35563536457385
 20
-99.55626275468897
 30
0.0
  0
VERTEX
  5
2D9
330
2C7
100
AcDbEntity
  8
GRAU_10_
 62
     7
100
AcDbVertex
100
AcDb2dVertex
 10
24.68757053355346
 20
-99.6437682377412
 30
0.0
  0
VERTEX
  5
2DA
330
2C7
100
AcDbEntity
  8
GRAU_10_
 62
     7
100
AcDbVertex
100
AcDb2dVertex
 10
24.92803835705919
 20
-99.71060313424566
 30
0.0
  0
SEQEND
  5
2DB
330
2C7
100
AcDbEntity
  8
GRAU_10_
  0
POLYLINE
  5
2DC
330
1F
100
AcDbEntity
  8
GRAU_10_
 62
     7
100
AcDb2dPolyline
 66
     1
 10
0.0
 20
0.0
 30
0.0
  0
VERTEX
  5
2DD
330
2DC
100
AcDbEntity
  8
GRAU_10_
 62
     7
100
AcDbVertex
100
AcDb2dVertex
 10
29.93617696780809
 20
-99.71232568312465
 30
0.0
  0
VERTEX
  5
2DE
330
2DC
100
AcDbEntity
  8
GRAU_10_
 62
     7
100
AcDbVertex
100
AcDb2dVertex
 10
29.93617696780809
 20
-99.61035078948898
 30
0.0
  0
VERTEX
  5
2DF
330
2DC
100
AcDbEntity
  8
GRAU_10_
 62
     7
100
AcDbVertex
100
AcDb2dVertex
 10
29.93617696780809
 20
-99.30339257925459
 30
0.0
  0
VERTEX
  5
2E0
330
2DC
100
AcDbEntity
  8
GRAU_10_
 62
     7
100
AcDbVertex
100
AcDb2dVertex
 10
29.93617696780809
 20
-98.79696320883421
 30
0.0
  0
VERTEX
  5
2E1
330
2DC
100
AcDbEntity
  8
GRAU_10_
 62
     7
100
AcDbVertex
100
AcDb2dVertex
 10
29.93617696780809
 20
-98.09554130531322
 30
0.0
  0
VERTEX
  5
2E2
330
2DC
100
AcDbEntity
  8
GRAU_10_
 62
     7
100
AcDbVertex
100
AcDb2dVertex
 10
29.93617696780809
 20
-97.20808412286229
 30
0.0
  0
VERTEX
  5
2E3
330
2DC
100
AcDbEntity
  8
GRAU_10_
 62
     7
100
AcDbVertex
100
AcDb2dVertex
 10
29.93617696780809
 20
-96.14423793520372
 30
0.0
  0
VERTEX
  5
2E4
330
2DC
100
AcDbEntity
  8
GRAU_10_
 62
     7
100
AcDbVertex
100
AcDb2dVertex
 10
29.93617696780809
 20
-94.91743862359357
 30
0.0
  0
VERTEX
  5
2E5
330
2DC
100
AcDbEntity
  8
GRAU_10_
 62
     7
100
AcDbVertex
100
AcDb2dVertex
 10
29.93617696780809
 20
-93.54181108883947
 30
0.0
  0
VERTEX
  5
2E6
330
2DC
100
AcDbEntity
  8
GRAU_10_
 62
     7
100
AcDbVertex
100
AcDb2dVertex
 10
29.93617696780809
 20
-92.03320278062803
 30
0.0
  0
VERTEX
  5
2E7
330
2DC
100
AcDbEntity
  8
GRAU_10_
 62
     7
100
AcDbVertex
100
AcDb2dVertex
 10
29.93617696780809
 20
-90.40987271707648
 30
0.0
  0
VERTEX
  5
2E8
330
2DC
100
AcDbEntity
  8
GRAU_10_
 62
     7
100
AcDbVertex
100
AcDb2dVertex
 10
29.93617696780809
 20
-88.69007991630201
 30
0.0
  0
VERTEX
  5
2E9
330
2DC
100
AcDbEntity
  8
GRAU_10_
 62
     7
100
AcDbVertex
100
AcDb2dVertex
 10
29.93617696780809
 20
-86.89415045507658
 30
0.0
  0
VERTEX
  5
2EA
330
2DC
100
AcDbEntity
  8
GRAU_10_
 62
     7
100
AcDbVertex
100
AcDb2dVertex
 10
29.93617696780809
 20
-85.04378844927537
 30
0.0
  0
VERTEX
  5
2EB
330
2DC
100
AcDbEntity
  8
GRAU_10_
 62
     7
100
AcDbVertex
100
AcDb2dVertex
 10
29.93617696780809
 20
-83.1603535049977
 30
0.0
  0
VERTEX
  5
2EC
330
2DC
100
AcDbEntity
  8
GRAU_10_
 62
     7
100
AcDbVertex
100
AcDb2dVertex
 10
29.93617696780809
 20
-81.26486071856719
 30
0.0
  0
VERTEX
  5
2ED
330
2DC
100
AcDbEntity
  8
GRAU_10_
 62
     7
100
AcDbVertex
100
AcDb2dVertex
 10
29.93617696780809
 20
-79.38177028406533
 30
0.0
  0
VERTEX
  5
2EE
330
2DC
100
AcDbEntity
  8
GRAU_10_
 62
     7
100
AcDbVertex
100
AcDb2dVertex
 10
29.93617696780809
 20
-77.53106376848831
 30
0.0
  0
VERTEX
  5
2EF
330
2DC
100
AcDbEntity
  8
GRAU_10_
 62
     7
100
AcDbVertex
100
AcDb2dVertex
 10
29.93617696780809
 20
-75.73513430726288
 30
0.0
  0
VERTEX
  5
2F0
330
2DC
100
AcDbEntity
  8
GRAU_10_
 62
     7
100
AcDbVertex
100
AcDb2dVertex
 10
29.93617696780809
 20
-74.01534150648841
 30
0.0
  0
VERTEX
  5
2F1
330
2DC
100
AcDbEntity
  8
GRAU_10_
 62
     7
100
AcDbVertex
100
AcDb2dVertex
 10
29.93617696780809
 20
-72.39235595271265
 30
0.0
  0
VERTEX
  5
2F2
330
2DC
100
AcDbEntity
  8
GRAU_10_
 62
     7
100
AcDbVertex
100
AcDb2dVertex
 10
29.93617696780809
 20
-70.88374764450123
 30
0.0
  0
VERTEX
  5
2F3
330
2DC
100
AcDbEntity
  8
GRAU_10_
 62
     7
100
AcDbVertex
100
AcDb2dVertex
 10
29.93617696780809
 20
-69.50777559997134
 30
0.0
  0
VERTEX
  5
2F4
330
2DC
100
AcDbEntity
  8
GRAU_10_
 62
     7
100
AcDbVertex
100
AcDb2dVertex
 10
29.93617696780809
 20
-68.28097628836117
 30
0.0
  0
VERTEX
  5
2F5
330
2DC
100
AcDbEntity
  8
GRAU_10_
 62
     7
100
AcDbVertex
100
AcDb2dVertex
 10
29.93617696780809
 20
-67.21781912025419
 30
0.0
  0
VERTEX
  5
2F6
330
2DC
100
AcDbEntity
  8
GRAU_10_
 62
     7
100
AcDbVertex
100
AcDb2dVertex
 10
29.93617696780809
 20
-66.33036193780326
 30
0.0
  0
VERTEX
  5
2F7
330
2DC
100
AcDbEntity
  8
GRAU_10_
 62
     7
100
AcDbVertex
100
AcDb2dVertex
 10
29.93617696780809
 20
-65.62894003428227
 30
0.0
  0
VERTEX
  5
2F8
330
2DC
100
AcDbEntity
  8
GRAU_10_
 62
     7
100
AcDbVertex
100
AcDb2dVertex
 10
29.93617696780809
 20
-65.1221661540861
 30
0.0
  0
VERTEX
  5
2F9
330
2DC
100
AcDbEntity
  8
GRAU_10_
 62
     7
100
AcDbVertex
100
AcDb2dVertex
 10
29.93617696780809
 20
-64.81520794385172
 30
0.0
  0
VERTEX
  5
2FA
330
2DC
100
AcDbEntity
  8
GRAU_10_
 62
     7
100
AcDbVertex
100
AcDb2dVertex
 10
29.93617696780809
 20
-64.71254403066446
 30
0.0
  0
SEQEND
  5
2FB
330
2DC
100
AcDbEntity
  8
GRAU_10_
  0
POLYLINE
  5
2FC
330
1F
100
AcDbEntity
  8
GRAU_10_
 62
     7
100
AcDb2dPolyline
 66
     1
 10
0.0
 20
0.0
 30
0.0
  0
VERTEX
  5
2FD
330
2FC
100
AcDbEntity
  8
GRAU_10_
 62
     7
100
AcDbVertex
100
AcDb2dVertex
 10
30.43571614271254
 20
-98.21267462908392
 30
0.0
  0
VERTEX
  5
2FE
330
2FC
100
AcDbEntity
  8
GRAU_10_
 62
     7
100
AcDbVertex
100
AcDb2dVertex
 10
30.57472583724629
 20
-98.19165953276035
 30
0.0
  0
VERTEX
  5
2FF
330
2FC
100
AcDbEntity
  8
GRAU_10_
 62
     7
100
AcDbVertex
100
AcDb2dVertex
 10
30.97504619672144
 20
-98.13722698818455
 30
0.0
  0
VERTEX
  5
300
330
2FC
100
AcDbEntity
  8
GRAU_10_
 62
     7
100
AcDbVertex
100
AcDb2dVertex
 10
31.59705859692142
 20
-98.07314816988647
 30
0.0
  0
VERTEX
  5
301
330
2FC
100
AcDbEntity
  8
GRAU_10_
 62
     7
100
AcDbVertex
100
AcDb2dVertex
 10
32.37530618044497
 20
-98.0259503306024
 30
0.0
  0
VERTEX
  5
302
330
2FC
100
AcDbEntity
  8
GRAU_10_
 62
     7
100
AcDbVertex
100
AcDb2dVertex
 10
33.21057013186278
 20
-98.01871562531068
 30
0.0
  0
VERTEX
  5
303
330
2FC
100
AcDbEntity
  8
GRAU_10_
 62
     7
100
AcDbVertex
100
AcDb2dVertex
 10
34.0086270274946
 20
-98.0524775833387
 30
0.0
  0
VERTEX
  5
304
330
2FC
100
AcDbEntity
  8
GRAU_10_
 62
     7
100
AcDbVertex
100
AcDb2dVertex
 10
34.68955059935573
 20
-98.11276679410302
 30
0.0
  0
VERTEX
  5
305
330
2FC
100
AcDbEntity
  8
GRAU_10_
 62
     7
100
AcDbVertex
100
AcDb2dVertex
 10
35.18082153964107
 20
-98.17477855374634
 30
0.0
  0
VERTEX
  5
306
330
2FC
100
AcDbEntity
  8
GRAU_10_
 62
     7
100
AcDbVertex
100
AcDb2dVertex
 10
35.40423612924489
 20
-98.20785149222277
 30
0.0
  0
SEQEND
  5
307
330
2FC
100
AcDbEntity
  8
GRAU_10_
  0
POLYLINE
  5
308
330
1F
100
AcDbEntity
  8
GRAU_10_
 62
     7
100
AcDb2dPolyline
 66
     1
 10
0.0
 20
0.0
 30
0.0
  0
VERTEX
  5
309
330
308
100
AcDbEntity
  8
GRAU_10_
 62
     7
100
AcDbVertex
100
AcDb2dVertex
 10
37.89969269022443
 20
-82.29046632111238
 30
0.0
  0
VERTEX
  5
30A
330
308
100
AcDbEntity
  8
GRAU_10_
 62
     7
100
AcDbVertex
100
AcDb2dVertex
 10
38.14239982727283
 20
-80.91828388411624
 30
0.0
  0
VERTEX
  5
30B
330
308
100
AcDbEntity
  8
GRAU_10_
 62
     7
100
AcDbVertex
100
AcDb2dVertex
 10
38.39475323804353
 20
-79.53335458541564
 30
0.0
  0
VERTEX
  5
30C
330
308
100
AcDbEntity
  8
GRAU_10_
 62
     7
100
AcDbVertex
100
AcDb2dVertex
 10
38.62006263141422
 20
-78.16565077550486
 30
0.0
  0
VERTEX
  5
30D
330
308
100
AcDbEntity
  8
GRAU_10_
 62
     7
100
AcDbVertex
100
AcDb2dVertex
 10
38.73271732809957
 20
-77.2437426154743
 30
0.0
  0
VERTEX
  5
30E
330
308
100
AcDbEntity
  8
GRAU_10_
 62
     7
100
AcDbVertex
100
AcDb2dVertex
 10
38.77819261850466
 20
-76.36937680450363
 30
0.0
  0
VERTEX
  5
30F
330
308
100
AcDbEntity
  8
GRAU_10_
 62
     7
100
AcDbVertex
100
AcDb2dVertex
 10
38.73547340630594
 20
-75.57493726151766
 30
0.0
  0
VERTEX
  5
310
330
308
100
AcDbEntity
  8
GRAU_10_
 62
     7
100
AcDbVertex
100
AcDb2dVertex
 10
38.62367998406008
 20
-74.87696045575463
 30
0.0
  0
VERTEX
  5
311
330
308
100
AcDbEntity
  8
GRAU_10_
 62
     7
100
AcDbVertex
100
AcDb2dVertex
 10
38.36925951463461
 20
-73.94058288514064
 30
0.0
  0
VERTEX
  5
312
330
308
100
AcDbEntity
  8
GRAU_10_
 62
     7
100
AcDbVertex
100
AcDb2dVertex
 10
38.08779502780914
 20
-73.20298745516104
 30
0.0
  0
VERTEX
  5
313
330
308
100
AcDbEntity
  8
GRAU_10_
 62
     7
100
AcDbVertex
100
AcDb2dVertex
 10
37.8485329885187
 20
-72.67898808617507
 30
0.0
  0
VERTEX
  5
314
330
308
100
AcDbEntity
  8
GRAU_10_
 62
     7
100
AcDbVertex
100
AcDb2dVertex
 10
37.64820055389323
 20
-72.28762498087062
 30
0.0
  0
SEQEND
  5
315
330
308
100
AcDbEntity
  8
GRAU_10_
  0
POLYLINE
  5
316
330
1F
100
AcDbEntity
  8
GRAU_10_
 62
     7
100
AcDb2dPolyline
 66
     1
 10
0.0
 20
0.0
 30
0.0
  0
VERTEX
  5
317
330
316
100
AcDbEntity
  8
GRAU_10_
 62
     7
100
AcDbVertex
100
AcDb2dVertex
 10
37.64820055389323
 20
-83.98063128116839
 30
0.0
  0
VERTEX
  5
318
330
316
100
AcDbEntity
  8
GRAU_10_
 62
     7
100
AcDbVertex
100
AcDb2dVertex
 10
37.89969269022443
 20
-82.29046632111238
 30
0.0
  0
SEQEND
  5
319
330
316
100
AcDbEntity
  8
GRAU_10_
  0
POLYLINE
  5
31A
330
1F
100
AcDbEntity
  8
GRAU_10_
 62
     7
100
AcDb2dPolyline
 66
     1
 10
0.0
 20
0.0
 30
0.0
  0
VERTEX
  5
31B
330
31A
100
AcDbEntity
  8
GRAU_10_
 62
     7
100
AcDbVertex
100
AcDb2dVertex
 10
38.76940761922186
 20
-93.91422615647512
 30
0.0
  0
VERTEX
  5
31C
330
31A
100
AcDbEntity
  8
GRAU_10_
 62
     7
100
AcDbVertex
100
AcDb2dVertex
 10
38.76062261993906
 20
-93.89665615790952
 30
0.0
  0
VERTEX
  5
31D
330
31A
100
AcDbEntity
  8
GRAU_10_
 62
     7
100
AcDbVertex
100
AcDb2dVertex
 10
38.65330782477855
 20
-93.68340460669168
 30
0.0
  0
VERTEX
  5
31E
330
31A
100
AcDbEntity
  8
GRAU_10_
 62
     7
100
AcDbVertex
100
AcDb2dVertex
 10
38.48639283840531
 20
-93.31477914658979
 30
0.0
  0
VERTEX
  5
31F
330
31A
100
AcDbEntity
  8
GRAU_10_
 62
     7
100
AcDbVertex
100
AcDb2dVertex
 10
38.1541131596499
 20
-92.42766647391466
 30
0.0
  0
VERTEX
  5
320
330
31A
100
AcDbEntity
  8
GRAU_10_
 62
     7
100
AcDbVertex
100
AcDb2dVertex
 10
37.83458034259895
 20
-91.29354029199366
 30
0.0
  0
VERTEX
  5
321
330
31A
100
AcDbEntity
  8
GRAU_10_
 62
     7
100
AcDbVertex
100
AcDb2dVertex
 10
37.64820055389323
 20
-90.36887605375675
 30
0.0
  0
VERTEX
  5
322
330
31A
100
AcDbEntity
  8
GRAU_10_
 62
     7
100
AcDbVertex
100
AcDb2dVertex
 10
37.54519213093018
 20
-89.93100412871982
 30
0.0
  0
VERTEX
  5
323
330
31A
100
AcDbEntity
  8
GRAU_10_
 62
     7
100
AcDbVertex
100
AcDb2dVertex
 10
37.51987066240915
 20
-89.86554727131855
 30
0.0
  0
VERTEX
  5
324
330
31A
100
AcDbEntity
  8
GRAU_10_
 62
     7
100
AcDbVertex
100
AcDb2dVertex
 10
37.49902782097349
 20
-89.82248354934401
 30
0.0
  0
VERTEX
  5
325
330
31A
100
AcDbEntity
  8
GRAU_10_
 62
     7
100
AcDbVertex
100
AcDb2dVertex
 10
37.47318958778877
 20
-89.78699904243702
 30
0.0
  0
VERTEX
  5
326
330
31A
100
AcDbEntity
  8
GRAU_10_
 62
     7
100
AcDbVertex
100
AcDb2dVertex
 10
37.45872017720534
 20
-89.77390767095676
 30
0.0
  0
VERTEX
  5
327
330
31A
100
AcDbEntity
  8
GRAU_10_
 62
     7
100
AcDbVertex
100
AcDb2dVertex
 10
37.44459527639769
 20
-89.76563943633765
 30
0.0
  0
VERTEX
  5
328
330
31A
100
AcDbEntity
  8
GRAU_10_
 62
     7
100
AcDbVertex
100
AcDb2dVertex
 10
37.43615478689069
 20
-89.76391688745868
 30
0.0
  0
VERTEX
  5
329
330
31A
100
AcDbEntity
  8
GRAU_10_
 62
     7
100
AcDbVertex
100
AcDb2dVertex
 10
36.93592659243465
 20
-89.68192356081919
 30
0.0
  0
SEQEND
  5
32A
330
31A
100
AcDbEntity
  8
GRAU_10_
  0
POLYLINE
  5
32B
330
1F
100
AcDbEntity
  8
GRAU_10_
 62
     7
100
AcDb2dPolyline
 66
     1
 10
0.0
 20
0.0
 30
0.0
  0
VERTEX
  5
32C
330
32B
100
AcDbEntity
  8
GRAU_10_
 62
     7
100
AcDbVertex
100
AcDb2dVertex
 10
36.93592659243465
 20
-84.8691219929467
 30
0.0
  0
VERTEX
  5
32D
330
32B
100
AcDbEntity
  8
GRAU_10_
 62
     7
100
AcDbVertex
100
AcDb2dVertex
 10
37.43615478689069
 20
-84.75577827670976
 30
0.0
  0
SEQEND
  5
32E
330
32B
100
AcDbEntity
  8
GRAU_10_
  0
POLYLINE
  5
32F
330
1F
100
AcDbEntity
  8
GRAU_10_
 62
     7
100
AcDb2dPolyline
 66
     1
 10
0.0
 20
0.0
 30
0.0
  0
VERTEX
  5
330
330
32F
100
AcDbEntity
  8
GRAU_10_
 62
     7
100
AcDbVertex
100
AcDb2dVertex
 10
37.43615478689069
 20
-72.1184706809547
 30
0.0
  0
VERTEX
  5
331
330
32F
100
AcDbEntity
  8
GRAU_10_
 62
     7
100
AcDbVertex
100
AcDb2dVertex
 10
36.93592659243465
 20
-72.08712029135725
 30
0.0
  0
SEQEND
  5
332
330
32F
100
AcDbEntity
  8
GRAU_10_
  0
POLYLINE
  5
333
330
1F
100
AcDbEntity
  8
GRAU_10_
 62
     7
100
AcDb2dPolyline
 66
     1
 10
0.0
 20
0.0
 30
0.0
  0
VERTEX
  5
334
330
333
100
AcDbEntity
  8
GRAU_10_
 62
     7
100
AcDbVertex
100
AcDb2dVertex
 10
37.64820055389323
 20
-72.28762498087062
 30
0.0
  0
VERTEX
  5
335
330
333
100
AcDbEntity
  8
GRAU_10_
 62
     7
100
AcDbVertex
100
AcDb2dVertex
 10
37.54519213093018
 20
-72.1622234224808
 30
0.0
  0
VERTEX
  5
336
330
333
100
AcDbEntity
  8
GRAU_10_
 62
     7
100
AcDbVertex
100
AcDb2dVertex
 10
37.51987066240915
 20
-72.1453424434668
 30
0.0
  0
VERTEX
  5
337
330
333
100
AcDbEntity
  8
GRAU_10_
 62
     7
100
AcDbVertex
100
AcDb2dVertex
 10
37.49902782097349
 20
-72.13431813064132
 30
0.0
  0
VERTEX
  5
338
330
333
100
AcDbEntity
  8
GRAU_10_
 62
     7
100
AcDbVertex
100
AcDb2dVertex
 10
37.47318958778877
 20
-72.12501636669482
 30
0.0
  0
VERTEX
  5
339
330
333
100
AcDbEntity
  8
GRAU_10_
 62
     7
100
AcDbVertex
100
AcDb2dVertex
 10
37.45837566742954
 20
-72.12157126893686
 30
0.0
  0
VERTEX
  5
33A
330
333
100
AcDbEntity
  8
GRAU_10_
 62
     7
100
AcDbVertex
100
AcDb2dVertex
 10
37.44493978617349
 20
-72.11984872005789
 30
0.0
  0
VERTEX
  5
33B
330
333
100
AcDbEntity
  8
GRAU_10_
 62
     7
100
AcDbVertex
100
AcDb2dVertex
 10
37.43615478689069
 20
-72.1184706809547
 30
0.0
  0
SEQEND
  5
33C
330
333
100
AcDbEntity
  8
GRAU_10_
  0
POLYLINE
  5
33D
330
1F
100
AcDbEntity
  8
GRAU_10_
 62
     7
100
AcDb2dPolyline
 66
     1
 10
0.0
 20
0.0
 30
0.0
  0
VERTEX
  5
33E
330
33D
100
AcDbEntity
  8
GRAU_10_
 62
     7
100
AcDbVertex
100
AcDb2dVertex
 10
37.43615478689069
 20
-84.75577827670976
 30
0.0
  0
VERTEX
  5
33F
330
33D
100
AcDbEntity
  8
GRAU_10_
 62
     7
100
AcDbVertex
100
AcDb2dVertex
 10
37.45062419747413
 20
-84.74854357141804
 30
0.0
  0
VERTEX
  5
340
330
33D
100
AcDbEntity
  8
GRAU_10_
 62
     7
100
AcDbVertex
100
AcDb2dVertex
 10
37.46871096070343
 20
-84.73166259240404
 30
0.0
  0
VERTEX
  5
341
330
33D
100
AcDbEntity
  8
GRAU_10_
 62
     7
100
AcDbVertex
100
AcDb2dVertex
 10
37.5067792909289
 20
-84.6620716176932
 30
0.0
  0
VERTEX
  5
342
330
33D
100
AcDbEntity
  8
GRAU_10_
 62
     7
100
AcDbVertex
100
AcDb2dVertex
 10
37.59962467550597
 20
-84.30033635310723
 30
0.0
  0
VERTEX
  5
343
330
33D
100
AcDbEntity
  8
GRAU_10_
 62
     7
100
AcDbVertex
100
AcDb2dVertex
 10
37.64820055389323
 20
-83.98063128116839
 30
0.0
  0
SEQEND
  5
344
330
33D
100
AcDbEntity
  8
GRAU_10_
  0
POLYLINE
  5
345
330
1F
100
AcDbEntity
  8
GRAU_10_
 62
     7
100
AcDb2dPolyline
 66
     1
 10
0.0
 20
0.0
 30
0.0
  0
VERTEX
  5
346
330
345
100
AcDbEntity
  8
GRAU_10_
 62
     7
100
AcDbVertex
100
AcDb2dVertex
 10
54.90900159572078
 20
-82.22087534640156
 30
0.0
  0
VERTEX
  5
347
330
345
100
AcDbEntity
  8
GRAU_10_
 62
     7
100
AcDbVertex
100
AcDb2dVertex
 10
54.90900159572078
 20
-80.9851187806207
 30
0.0
  0
VERTEX
  5
348
330
345
100
AcDbEntity
  8
GRAU_10_
 62
     7
100
AcDbVertex
100
AcDb2dVertex
 10
54.90900159572078
 20
-79.73868241179017
 30
0.0
  0
VERTEX
  5
349
330
345
100
AcDbEntity
  8
GRAU_10_
 62
     7
100
AcDbVertex
100
AcDb2dVertex
 10
54.90900159572078
 20
-78.5029258460093
 30
0.0
  0
VERTEX
  5
34A
330
345
100
AcDbEntity
  8
GRAU_10_
 62
     7
100
AcDbVertex
100
AcDb2dVertex
 10
54.90900159572078
 20
-77.5947980770106
 30
0.0
  0
VERTEX
  5
34B
330
345
100
AcDbEntity
  8
GRAU_10_
 62
     7
100
AcDbVertex
100
AcDb2dVertex
 10
54.90900159572078
 20
-76.7314565788654
 30
0.0
  0
VERTEX
  5
34C
330
345
100
AcDbEntity
  8
GRAU_10_
 62
     7
100
AcDbVertex
100
AcDb2dVertex
 10
54.90900159572078
 20
-75.94631879982593
 30
0.0
  0
VERTEX
  5
34D
330
345
100
AcDbEntity
  8
GRAU_10_
 62
     7
100
AcDbVertex
100
AcDb2dVertex
 10
54.90900159572078
 20
-75.2559212091304
 30
0.0
  0
VERTEX
  5
34E
330
345
100
AcDbEntity
  8
GRAU_10_
 62
     7
100
AcDbVertex
100
AcDb2dVertex
 10
54.90900159572078
 20
-74.47801813538265
 30
0.0
  0
VERTEX
  5
34F
330
345
100
AcDbEntity
  8
GRAU_10_
 62
     7
100
AcDbVertex
100
AcDb2dVertex
 10
54.90900159572078
 20
-73.8358519132986
 30
0.0
  0
VERTEX
  5
350
330
345
100
AcDbEntity
  8
GRAU_10_
 62
     7
100
AcDbVertex
100
AcDb2dVertex
 10
54.90900159572078
 20
-73.32012077893174
 30
0.0
  0
VERTEX
  5
351
330
345
100
AcDbEntity
  8
GRAU_10_
 62
     7
100
AcDbVertex
100
AcDb2dVertex
 10
54.90900159572078
 20
-72.74685651200691
 30
0.0
  0
VERTEX
  5
352
330
345
100
AcDbEntity
  8
GRAU_10_
 62
     7
100
AcDbVertex
100
AcDb2dVertex
 10
54.90900159572078
 20
-72.40062418733176
 30
0.0
  0
SEQEND
  5
353
330
345
100
AcDbEntity
  8
GRAU_10_
  0
POLYLINE
  5
354
330
1F
100
AcDbEntity
  8
GRAU_10_
 62
     7
100
AcDb2dPolyline
 66
     1
 10
0.0
 20
0.0
 30
0.0
  0
VERTEX
  5
355
330
354
100
AcDbEntity
  8
GRAU_10_
 62
     7
100
AcDbVertex
100
AcDb2dVertex
 10
54.90900159572078
 20
-93.53871050085729
 30
0.0
  0
VERTEX
  5
356
330
354
100
AcDbEntity
  8
GRAU_10_
 62
     7
100
AcDbVertex
100
AcDb2dVertex
 10
54.90900159572078
 20
-93.4742871727834
 30
0.0
  0
VERTEX
  5
357
330
354
100
AcDbEntity
  8
GRAU_10_
 62
     7
100
AcDbVertex
100
AcDb2dVertex
 10
54.90900159572078
 20
-93.21108170407514
 30
0.0
  0
VERTEX
  5
358
330
354
100
AcDbEntity
  8
GRAU_10_
 62
     7
100
AcDbVertex
100
AcDb2dVertex
 10
54.90900159572078
 20
-92.81248389347897
 30
0.0
  0
VERTEX
  5
359
330
354
100
AcDbEntity
  8
GRAU_10_
 62
     7
100
AcDbVertex
100
AcDb2dVertex
 10
54.90900159572078
 20
-92.31156667947134
 30
0.0
  0
VERTEX
  5
35A
330
354
100
AcDbEntity
  8
GRAU_10_
 62
     7
100
AcDbVertex
100
AcDb2dVertex
 10
54.90900159572078
 20
-91.07167599638093
 30
0.0
  0
VERTEX
  5
35B
330
354
100
AcDbEntity
  8
GRAU_10_
 62
     7
100
AcDbVertex
100
AcDb2dVertex
 10
54.90900159572078
 20
-89.60613141014403
 30
0.0
  0
VERTEX
  5
35C
330
354
100
AcDbEntity
  8
GRAU_10_
 62
     7
100
AcDbVertex
100
AcDb2dVertex
 10
54.90900159572078
 20
-87.94903938856446
 30
0.0
  0
VERTEX
  5
35D
330
354
100
AcDbEntity
  8
GRAU_10_
 62
     7
100
AcDbVertex
100
AcDb2dVertex
 10
54.90900159572078
 20
-86.15173188823584
 30
0.0
  0
VERTEX
  5
35E
330
354
100
AcDbEntity
  8
GRAU_10_
 62
     7
100
AcDbVertex
100
AcDb2dVertex
 10
54.90900159572078
 20
-84.2393581227913
 30
0.0
  0
VERTEX
  5
35F
330
354
100
AcDbEntity
  8
GRAU_10_
 62
     7
100
AcDbVertex
100
AcDb2dVertex
 10
54.90900159572078
 20
-82.22087534640156
 30
0.0
  0
SEQEND
  5
360
330
354
100
AcDbEntity
  8
GRAU_10_
  0
POLYLINE
  5
361
330
1F
100
AcDbEntity
  8
GRAU_10_
 62
     7
100
AcDb2dPolyline
 66
     1
 10
0.0
 20
0.0
 30
0.0
  0
VERTEX
  5
362
330
361
100
AcDbEntity
  8
GRAU_10_
 62
     7
100
AcDbVertex
100
AcDb2dVertex
 10
54.90900159572078
 20
-72.40062418733176
 30
0.0
  0
VERTEX
  5
363
330
361
100
AcDbEntity
  8
GRAU_10_
 62
     7
100
AcDbVertex
100
AcDb2dVertex
 10
54.90900159572078
 20
-72.27453360939036
 30
0.0
  0
VERTEX
  5
364
330
361
100
AcDbEntity
  8
GRAU_10_
 62
     7
100
AcDbVertex
100
AcDb2dVertex
 10
54.90900159572078
 20
-72.34446909387698
 30
0.0
  0
SEQEND
  5
365
330
361
100
AcDbEntity
  8
GRAU_10_
  0
POLYLINE
  5
367
330
1F
100
AcDbEntity
  8
STANDARDEBENE
 62
     7
100
AcDb2dPolyline
 66
     1
 10
0.0
 20
0.0
 30
0.0
  0
VERTEX
  5
368
330
367
100
AcDbEntity
  8
STANDARDEBENE
 62
     7
100
AcDbVertex
100
AcDb2dVertex
 10
121.5439101753279
 20
-21.58069524797966
 30
0.0
  0
VERTEX
  5
369
330
367
100
AcDbEntity
  8
STANDARDEBENE
 62
     7
100
AcDbVertex
100
AcDb2dVertex
 10
121.4944730225011
 20
-21.55175642681278
 30
0.0
  0
SEQEND
  5
36A
330
367
100
AcDbEntity
  8
STANDARDEBENE
  0
POLYLINE
  5
36B
330
1F
100
AcDbEntity
  8
STANDARDEBENE
 62
     7
100
AcDb2dPolyline
 66
     1
 10
0.0
 20
0.0
 30
0.0
  0
VERTEX
  5
36C
330
36B
100
AcDbEntity
  8
STANDARDEBENE
 62
     7
100
AcDbVertex
100
AcDb2dVertex
 10
121.5439101753279
 20
-13.58031697955313
 30
0.0
  0
VERTEX
  5
36D
330
36B
100
AcDbEntity
  8
STANDARDEBENE
 62
     7
100
AcDbVertex
100
AcDb2dVertex
 10
121.4949897871648
 20
-13.60925580072001
 30
0.0
  0
SEQEND
  5
36E
330
36B
100
AcDbEntity
  8
STANDARDEBENE
  0
POLYLINE
  5
36F
330
1F
100
AcDbEntity
  8
STANDARDEBENE
 62
     7
100
AcDb2dPolyline
 66
     1
 10
0.0
 20
0.0
 30
0.0
  0
VERTEX
  5
370
330
36F
100
AcDbEntity
  8
STANDARDEBENE
 62
     7
100
AcDbVertex
100
AcDb2dVertex
 10
123.0435612293686
 20
-17.58093675098614
 30
0.0
  0
VERTEX
  5
371
330
36F
100
AcDbEntity
  8
STANDARDEBENE
 62
     7
100
AcDbVertex
100
AcDb2dVertex
 10
123.0435612293686
 20
-16.75497456351482
 30
0.0
  0
VERTEX
  5
372
330
36F
100
AcDbEntity
  8
STANDARDEBENE
 62
     7
100
AcDbVertex
100
AcDb2dVertex
 10
123.0435612293686
 20
-16.00532129138236
 30
0.0
  0
VERTEX
  5
373
330
36F
100
AcDbEntity
  8
STANDARDEBENE
 62
     7
100
AcDbVertex
100
AcDb2dVertex
 10
123.0435612293686
 20
-15.40139565441168
 30
0.0
  0
SEQEND
  5
374
330
36F
100
AcDbEntity
  8
STANDARDEBENE
  0
POLYLINE
  5
375
330
1F
100
AcDbEntity
  8
STANDARDEBENE
 62
     7
100
AcDb2dPolyline
 66
     1
 10
0.0
 20
0.0
 30
0.0
  0
VERTEX
  5
376
330
375
100
AcDbEntity
  8
STANDARDEBENE
 62
     7
100
AcDbVertex
100
AcDb2dVertex
 10
123.0435612293686
 20
-19.7603055926727
 30
0.0
  0
VERTEX
  5
377
330
375
100
AcDbEntity
  8
STANDARDEBENE
 62
     7
100
AcDbVertex
100
AcDb2dVertex
 10
123.0435612293686
 20
-19.15637995570202
 30
0.0
  0
VERTEX
  5
378
330
375
100
AcDbEntity
  8
STANDARDEBENE
 62
     7
100
AcDbVertex
100
AcDb2dVertex
 10
123.0435612293686
 20
-18.40672668356956
 30
0.0
  0
VERTEX
  5
379
330
375
100
AcDbEntity
  8
STANDARDEBENE
 62
     7
100
AcDbVertex
100
AcDb2dVertex
 10
123.0435612293686
 20
-17.58093675098614
 30
0.0
  0
SEQEND
  5
37A
330
375
100
AcDbEntity
  8
STANDARDEBENE
  0
POLYLINE
  5
37B
330
1F
100
AcDbEntity
  8
STANDARDEBENE
 62
     7
100
AcDb2dPolyline
 66
     1
 10
0.0
 20
0.0
 30
0.0
  0
VERTEX
  5
37C
330
37B
100
AcDbEntity
  8
STANDARDEBENE
 62
     7
100
AcDbVertex
100
AcDb2dVertex
 10
-0.0640788182980874
 20
-12.58089411996844
 30
0.0
  0
VERTEX
  5
37D
330
37B
100
AcDbEntity
  8
STANDARDEBENE
 62
     7
100
AcDbVertex
100
AcDb2dVertex
 10
0.4358048663821536
 20
-12.58089411996844
 30
0.0
  0
SEQEND
  5
37E
330
37B
100
AcDbEntity
  8
STANDARDEBENE
  0
POLYLINE
  5
37F
330
1F
100
AcDbEntity
  8
STANDARDEBENE
 62
     7
100
AcDb2dPolyline
 66
     1
 10
0.0
 20
0.0
 30
0.0
  0
VERTEX
  5
380
330
37F
100
AcDbEntity
  8
STANDARDEBENE
 62
     7
100
AcDbVertex
100
AcDb2dVertex
 10
1.436261255294228
 20
-12.58089411996844
 30
0.0
  0
VERTEX
  5
381
330
37F
100
AcDbEntity
  8
STANDARDEBENE
 62
     7
100
AcDbVertex
100
AcDb2dVertex
 10
2.435684114878914
 20
-12.58089411996844
 30
0.0
  0
SEQEND
  5
382
330
37F
100
AcDbEntity
  8
STANDARDEBENE
  0
POLYLINE
  5
383
330
1F
100
AcDbEntity
  8
STANDARDEBENE
 62
     7
100
AcDb2dPolyline
 66
     1
 10
0.0
 20
0.0
 30
0.0
  0
VERTEX
  5
384
330
383
100
AcDbEntity
  8
STANDARDEBENE
 62
     7
100
AcDbVertex
100
AcDb2dVertex
 10
3.435795994015192
 20
-12.58089411996844
 30
0.0
  0
VERTEX
  5
385
330
383
100
AcDbEntity
  8
STANDARDEBENE
 62
     7
100
AcDbVertex
100
AcDb2dVertex
 10
4.435907873151471
 20
-12.58089411996844
 30
0.0
  0
SEQEND
  5
386
330
383
100
AcDbEntity
  8
STANDARDEBENE
  0
POLYLINE
  5
387
330
1F
100
AcDbEntity
  8
STANDARDEBENE
 62
     7
100
AcDb2dPolyline
 66
     1
 10
0.0
 20
0.0
 30
0.0
  0
VERTEX
  5
388
330
387
100
AcDbEntity
  8
STANDARDEBENE
 62
     7
100
AcDbVertex
100
AcDb2dVertex
 10
5.435675242511952
 20
-12.58089411996844
 30
0.0
  0
VERTEX
  5
389
330
387
100
AcDbEntity
  8
STANDARDEBENE
 62
     7
100
AcDbVertex
100
AcDb2dVertex
 10
6.436131631424026
 20
-12.58089411996844
 30
0.0
  0
SEQEND
  5
38A
330
387
100
AcDbEntity
  8
STANDARDEBENE
  0
POLYLINE
  5
38B
330
1F
100
AcDbEntity
  8
STANDARDEBENE
 62
     7
100
AcDb2dPolyline
 66
     1
 10
0.0
 20
0.0
 30
0.0
  0
VERTEX
  5
38C
330
38B
100
AcDbEntity
  8
STANDARDEBENE
 62
     7
100
AcDbVertex
100
AcDb2dVertex
 10
7.435554491008713
 20
-12.58089411996844
 30
0.0
  0
VERTEX
  5
38D
330
38B
100
AcDbEntity
  8
STANDARDEBENE
 62
     7
100
AcDbVertex
100
AcDb2dVertex
 10
8.43566637014499
 20
-12.58089411996844
 30
0.0
  0
SEQEND
  5
38E
330
38B
100
AcDbEntity
  8
STANDARDEBENE
  0
POLYLINE
  5
38F
330
1F
100
AcDbEntity
  8
STANDARDEBENE
 62
     7
100
AcDb2dPolyline
 66
     1
 10
0.0
 20
0.0
 30
0.0
  0
VERTEX
  5
390
330
38F
100
AcDbEntity
  8
STANDARDEBENE
 62
     7
100
AcDbVertex
100
AcDb2dVertex
 10
9.436295013944962
 20
-12.58089411996844
 30
0.0
  0
VERTEX
  5
391
330
38F
100
AcDbEntity
  8
STANDARDEBENE
 62
     7
100
AcDbVertex
100
AcDb2dVertex
 10
10.43571787352965
 20
-12.58089411996844
 30
0.0
  0
SEQEND
  5
392
330
38F
100
AcDbEntity
  8
STANDARDEBENE
  0
POLYLINE
  5
393
330
1F
100
AcDbEntity
  8
STANDARDEBENE
 62
     7
100
AcDb2dPolyline
 66
     1
 10
0.0
 20
0.0
 30
0.0
  0
VERTEX
  5
394
330
393
100
AcDbEntity
  8
STANDARDEBENE
 62
     7
100
AcDbVertex
100
AcDb2dVertex
 10
11.43617426244172
 20
-12.58089411996844
 30
0.0
  0
VERTEX
  5
395
330
393
100
AcDbEntity
  8
STANDARDEBENE
 62
     7
100
AcDbVertex
100
AcDb2dVertex
 10
12.436286141578
 20
-12.58089411996844
 30
0.0
  0
SEQEND
  5
396
330
393
100
AcDbEntity
  8
STANDARDEBENE
  0
POLYLINE
  5
397
330
1F
100
AcDbEntity
  8
STANDARDEBENE
 62
     7
100
AcDb2dPolyline
 66
     1
 10
0.0
 20
0.0
 30
0.0
  0
VERTEX
  5
398
330
397
100
AcDbEntity
  8
STANDARDEBENE
 62
     7
100
AcDbVertex
100
AcDb2dVertex
 10
13.43570900116269
 20
-12.58089411996844
 30
0.0
  0
VERTEX
  5
399
330
397
100
AcDbEntity
  8
STANDARDEBENE
 62
     7
100
AcDbVertex
100
AcDb2dVertex
 10
14.43616539007476
 20
-12.58089411996844
 30
0.0
  0
SEQEND
  5
39A
330
397
100
AcDbEntity
  8
STANDARDEBENE
  0
POLYLINE
  5
39B
330
1F
100
AcDbEntity
  8
STANDARDEBENE
 62
     7
100
AcDb2dPolyline
 66
     1
 10
0.0
 20
0.0
 30
0.0
  0
VERTEX
  5
39C
330
39B
100
AcDbEntity
  8
STANDARDEBENE
 62
     7
100
AcDbVertex
100
AcDb2dVertex
 10
15.43593275943524
 20
-12.58089411996844
 30
0.0
  0
VERTEX
  5
39D
330
39B
100
AcDbEntity
  8
STANDARDEBENE
 62
     7
100
AcDbVertex
100
AcDb2dVertex
 10
16.43604463857152
 20
-12.58089411996844
 30
0.0
  0
SEQEND
  5
39E
330
39B
100
AcDbEntity
  8
STANDARDEBENE
  0
POLYLINE
  5
39F
330
1F
100
AcDbEntity
  8
STANDARDEBENE
 62
     7
100
AcDb2dPolyline
 66
     1
 10
0.0
 20
0.0
 30
0.0
  0
VERTEX
  5
3A0
330
39F
100
AcDbEntity
  8
STANDARDEBENE
 62
     7
100
AcDbVertex
100
AcDb2dVertex
 10
17.4361565177078
 20
-12.58089411996844
 30
0.0
  0
VERTEX
  5
3A1
330
39F
100
AcDbEntity
  8
STANDARDEBENE
 62
     7
100
AcDbVertex
100
AcDb2dVertex
 10
18.43592388706828
 20
-12.58089411996844
 30
0.0
  0
SEQEND
  5
3A2
330
39F
100
AcDbEntity
  8
STANDARDEBENE
  0
POLYLINE
  5
3A3
330
1F
100
AcDbEntity
  8
STANDARDEBENE
 62
     7
100
AcDb2dPolyline
 66
     1
 10
0.0
 20
0.0
 30
0.0
  0
VERTEX
  5
3A4
330
3A3
100
AcDbEntity
  8
STANDARDEBENE
 62
     7
100
AcDbVertex
100
AcDb2dVertex
 10
19.43603576620456
 20
-12.58089411996844
 30
0.0
  0
VERTEX
  5
3A5
330
3A3
100
AcDbEntity
  8
STANDARDEBENE
 62
     7
100
AcDbVertex
100
AcDb2dVertex
 10
20.43580313556504
 20
-12.58089411996844
 30
0.0
  0
SEQEND
  5
3A6
330
3A3
100
AcDbEntity
  8
STANDARDEBENE
  0
POLYLINE
  5
3A7
330
1F
100
AcDbEntity
  8
STANDARDEBENE
 62
     7
100
AcDb2dPolyline
 66
     1
 10
0.0
 20
0.0
 30
0.0
  0
VERTEX
  5
3A8
330
3A7
100
AcDbEntity
  8
STANDARDEBENE
 62
     7
100
AcDbVertex
100
AcDb2dVertex
 10
21.43591501470132
 20
-12.58089411996844
 30
0.0
  0
VERTEX
  5
3A9
330
3A7
100
AcDbEntity
  8
STANDARDEBENE
 62
     7
100
AcDbVertex
100
AcDb2dVertex
 10
22.4360268938376
 20
-12.58089411996844
 30
0.0
  0
SEQEND
  5
3AA
330
3A7
100
AcDbEntity
  8
STANDARDEBENE
  0
POLYLINE
  5
3AB
330
1F
100
AcDbEntity
  8
STANDARDEBENE
 62
     7
100
AcDb2dPolyline
 66
     1
 10
0.0
 20
0.0
 30
0.0
  0
VERTEX
  5
3AC
330
3AB
100
AcDbEntity
  8
STANDARDEBENE
 62
     7
100
AcDbVertex
100
AcDb2dVertex
 10
23.43579426319808
 20
-12.58089411996844
 30
0.0
  0
VERTEX
  5
3AD
330
3AB
100
AcDbEntity
  8
STANDARDEBENE
 62
     7
100
AcDbVertex
100
AcDb2dVertex
 10
24.43590614233436
 20
-12.58089411996844
 30
0.0
  0
SEQEND
  5
3AE
330
3AB
100
AcDbEntity
  8
STANDARDEBENE
  0
POLYLINE
  5
3AF
330
1F
100
AcDbEntity
  8
STANDARDEBENE
 62
     7
100
AcDb2dPolyline
 66
     1
 10
0.0
 20
0.0
 30
0.0
  0
VERTEX
  5
3B0
330
3AF
100
AcDbEntity
  8
STANDARDEBENE
 62
     7
100
AcDbVertex
100
AcDb2dVertex
 10
25.43567351169484
 20
-12.58089411996844
 30
0.0
  0
VERTEX
  5
3B1
330
3AF
100
AcDbEntity
  8
STANDARDEBENE
 62
     7
100
AcDbVertex
100
AcDb2dVertex
 10
26.43578539083112
 20
-12.58089411996844
 30
0.0
  0
SEQEND
  5
3B2
330
3AF
100
AcDbEntity
  8
STANDARDEBENE
  0
POLYLINE
  5
3B3
330
1F
100
AcDbEntity
  8
STANDARDEBENE
 62
     7
100
AcDb2dPolyline
 66
     1
 10
0.0
 20
0.0
 30
0.0
  0
VERTEX
  5
3B4
330
3B3
100
AcDbEntity
  8
STANDARDEBENE
 62
     7
100
AcDbVertex
100
AcDb2dVertex
 10
27.4357250150795
 20
-12.58089411996844
 30
0.0
  0
VERTEX
  5
3B5
330
3B3
100
AcDbEntity
  8
STANDARDEBENE
 62
     7
100
AcDbVertex
100
AcDb2dVertex
 10
28.43583689421578
 20
-12.58089411996844
 30
0.0
  0
SEQEND
  5
3B6
330
3B3
100
AcDbEntity
  8
STANDARDEBENE
  0
POLYLINE
  5
3B7
330
1F
100
AcDbEntity
  8
STANDARDEBENE
 62
     7
100
AcDb2dPolyline
 66
     1
 10
0.0
 20
0.0
 30
0.0
  0
VERTEX
  5
3B8
330
3B7
100
AcDbEntity
  8
STANDARDEBENE
 62
     7
100
AcDbVertex
100
AcDb2dVertex
 10
29.43629328312785
 20
-12.58089411996844
 30
0.0
  0
VERTEX
  5
3B9
330
3B7
100
AcDbEntity
  8
STANDARDEBENE
 62
     7
100
AcDbVertex
100
AcDb2dVertex
 10
30.43571614271254
 20
-12.58089411996844
 30
0.0
  0
SEQEND
  5
3BA
330
3B7
100
AcDbEntity
  8
STANDARDEBENE
  0
POLYLINE
  5
3BB
330
1F
100
AcDbEntity
  8
STANDARDEBENE
 62
     7
100
AcDb2dPolyline
 66
     1
 10
0.0
 20
0.0
 30
0.0
  0
VERTEX
  5
3BC
330
3BB
100
AcDbEntity
  8
STANDARDEBENE
 62
     7
100
AcDbVertex
100
AcDb2dVertex
 10
31.43582802184881
 20
-12.58089411996844
 30
0.0
  0
VERTEX
  5
3BD
330
3BB
100
AcDbEntity
  8
STANDARDEBENE
 62
     7
100
AcDbVertex
100
AcDb2dVertex
 10
32.43628441076089
 20
-12.58089411996844
 30
0.0
  0
SEQEND
  5
3BE
330
3BB
100
AcDbEntity
  8
STANDARDEBENE
  0
POLYLINE
  5
3BF
330
1F
100
AcDbEntity
  8
STANDARDEBENE
 62
     7
100
AcDb2dPolyline
 66
     1
 10
0.0
 20
0.0
 30
0.0
  0
VERTEX
  5
3C0
330
3BF
100
AcDbEntity
  8
STANDARDEBENE
 62
     7
100
AcDbVertex
100
AcDb2dVertex
 10
33.43570727034557
 20
-12.58089411996844
 30
0.0
  0
VERTEX
  5
3C1
330
3BF
100
AcDbEntity
  8
STANDARDEBENE
 62
     7
100
AcDbVertex
100
AcDb2dVertex
 10
34.43616365925765
 20
-12.58089411996844
 30
0.0
  0
SEQEND
  5
3C2
330
3BF
100
AcDbEntity
  8
STANDARDEBENE
  0
POLYLINE
  5
3C3
330
1F
100
AcDbEntity
  8
STANDARDEBENE
 62
     7
100
AcDb2dPolyline
 66
     1
 10
0.0
 20
0.0
 30
0.0
  0
VERTEX
  5
3C4
330
3C3
100
AcDbEntity
  8
STANDARDEBENE
 62
     7
100
AcDbVertex
100
AcDb2dVertex
 10
35.43558651884234
 20
-12.58089411996844
 30
0.0
  0
VERTEX
  5
3C5
330
3C3
100
AcDbEntity
  8
STANDARDEBENE
 62
     7
100
AcDbVertex
100
AcDb2dVertex
 10
36.43604290775441
 20
-12.58089411996844
 30
0.0
  0
SEQEND
  5
3C6
330
3C3
100
AcDbEntity
  8
STANDARDEBENE
  0
POLYLINE
  5
3C7
330
1F
100
AcDbEntity
  8
STANDARDEBENE
 62
     7
100
AcDb2dPolyline
 66
     1
 10
0.0
 20
0.0
 30
0.0
  0
VERTEX
  5
3C8
330
3C7
100
AcDbEntity
  8
STANDARDEBENE
 62
     7
100
AcDbVertex
100
AcDb2dVertex
 10
37.43615478689069
 20
-12.58089411996844
 30
0.0
  0
VERTEX
  5
3C9
330
3C7
100
AcDbEntity
  8
STANDARDEBENE
 62
     7
100
AcDbVertex
100
AcDb2dVertex
 10
37.93569396179513
 20
-12.58089411996844
 30
0.0
  0
VERTEX
  5
3CA
330
3C7
100
AcDbEntity
  8
STANDARDEBENE
 62
     7
100
AcDbVertex
100
AcDb2dVertex
 10
37.93569396179513
 20
-13.08043329487289
 30
0.0
  0
SEQEND
  5
3CB
330
3C7
100
AcDbEntity
  8
STANDARDEBENE
  0
POLYLINE
  5
3CC
330
1F
100
AcDbEntity
  8
STANDARDEBENE
 62
     7
100
AcDb2dPolyline
 66
     1
 10
0.0
 20
0.0
 30
0.0
  0
VERTEX
  5
3CD
330
3CC
100
AcDbEntity
  8
STANDARDEBENE
 62
     7
100
AcDbVertex
100
AcDb2dVertex
 10
37.93569396179513
 20
-14.08071742889706
 30
0.0
  0
VERTEX
  5
3CE
330
3CC
100
AcDbEntity
  8
STANDARDEBENE
 62
     7
100
AcDbVertex
100
AcDb2dVertex
 10
37.93569396179513
 20
-15.08082930803334
 30
0.0
  0
SEQEND
  5
3CF
330
3CC
100
AcDbEntity
  8
STANDARDEBENE
  0
POLYLINE
  5
3D0
330
1F
100
AcDbEntity
  8
STANDARDEBENE
 62
     7
100
AcDb2dPolyline
 66
     1
 10
0.0
 20
0.0
 30
0.0
  0
VERTEX
  5
3D1
330
3D0
100
AcDbEntity
  8
STANDARDEBENE
 62
     7
100
AcDbVertex
100
AcDb2dVertex
 10
37.93569396179513
 20
-16.08059667739382
 30
0.0
  0
VERTEX
  5
3D2
330
3D0
100
AcDbEntity
  8
STANDARDEBENE
 62
     7
100
AcDbVertex
100
AcDb2dVertex
 10
37.93569396179513
 20
-17.0810530663059
 30
0.0
  0
SEQEND
  5
3D3
330
3D0
100
AcDbEntity
  8
STANDARDEBENE
  0
POLYLINE
  5
3D4
330
1F
100
AcDbEntity
  8
STANDARDEBENE
 62
     7
100
AcDb2dPolyline
 66
     1
 10
0.0
 20
0.0
 30
0.0
  0
VERTEX
  5
3D5
330
3D4
100
AcDbEntity
  8
STANDARDEBENE
 62
     7
100
AcDbVertex
100
AcDb2dVertex
 10
37.93569396179513
 20
-18.08047592589059
 30
0.0
  0
VERTEX
  5
3D6
330
3D4
100
AcDbEntity
  8
STANDARDEBENE
 62
     7
100
AcDbVertex
100
AcDb2dVertex
 10
37.93569396179513
 20
-19.08058780502686
 30
0.0
  0
SEQEND
  5
3D7
330
3D4
100
AcDbEntity
  8
STANDARDEBENE
  0
POLYLINE
  5
3D8
330
1F
100
AcDbEntity
  8
STANDARDEBENE
 62
     7
100
AcDb2dPolyline
 66
     1
 10
0.0
 20
0.0
 30
0.0
  0
VERTEX
  5
3D9
330
3D8
100
AcDbEntity
  8
STANDARDEBENE
 62
     7
100
AcDbVertex
100
AcDb2dVertex
 10
37.93569396179513
 20
-20.08104419393894
 30
0.0
  0
VERTEX
  5
3DA
330
3D8
100
AcDbEntity
  8
STANDARDEBENE
 62
     7
100
AcDbVertex
100
AcDb2dVertex
 10
37.93569396179513
 20
-21.08046705352362
 30
0.0
  0
SEQEND
  5
3DB
330
3D8
100
AcDbEntity
  8
STANDARDEBENE
  0
POLYLINE
  5
3DC
330
1F
100
AcDbEntity
  8
STANDARDEBENE
 62
     7
100
AcDb2dPolyline
 66
     1
 10
0.0
 20
0.0
 30
0.0
  0
VERTEX
  5
3DD
330
3DC
100
AcDbEntity
  8
STANDARDEBENE
 62
     7
100
AcDbVertex
100
AcDb2dVertex
 10
37.93569396179513
 20
-22.0809234424357
 30
0.0
  0
VERTEX
  5
3DE
330
3DC
100
AcDbEntity
  8
STANDARDEBENE
 62
     7
100
AcDbVertex
100
AcDb2dVertex
 10
37.93569396179513
 20
-22.58080712711594
 30
0.0
  0
VERTEX
  5
3DF
330
3DC
100
AcDbEntity
  8
STANDARDEBENE
 62
     7
100
AcDbVertex
100
AcDb2dVertex
 10
37.43615478689069
 20
-22.58080712711594
 30
0.0
  0
SEQEND
  5
3E0
330
3DC
100
AcDbEntity
  8
STANDARDEBENE
  0
POLYLINE
  5
3E1
330
1F
100
AcDbEntity
  8
STANDARDEBENE
 62
     7
100
AcDb2dPolyline
 66
     1
 10
0.0
 20
0.0
 30
0.0
  0
VERTEX
  5
3E2
330
3E1
100
AcDbEntity
  8
STANDARDEBENE
 62
     7
100
AcDbVertex
100
AcDb2dVertex
 10
36.43604290775441
 20
-22.58080712711594
 30
0.0
  0
VERTEX
  5
3E3
330
3E1
100
AcDbEntity
  8
STANDARDEBENE
 62
     7
100
AcDbVertex
100
AcDb2dVertex
 10
35.43558651884234
 20
-22.58080712711594
 30
0.0
  0
SEQEND
  5
3E4
330
3E1
100
AcDbEntity
  8
STANDARDEBENE
  0
POLYLINE
  5
3E5
330
1F
100
AcDbEntity
  8
STANDARDEBENE
 62
     7
100
AcDb2dPolyline
 66
     1
 10
0.0
 20
0.0
 30
0.0
  0
VERTEX
  5
3E6
330
3E5
100
AcDbEntity
  8
STANDARDEBENE
 62
     7
100
AcDbVertex
100
AcDb2dVertex
 10
34.43616365925765
 20
-22.58080712711594
 30
0.0
  0
VERTEX
  5
3E7
330
3E5
100
AcDbEntity
  8
STANDARDEBENE
 62
     7
100
AcDbVertex
100
AcDb2dVertex
 10
33.43570727034557
 20
-22.58080712711594
 30
0.0
  0
SEQEND
  5
3E8
330
3E5
100
AcDbEntity
  8
STANDARDEBENE
  0
POLYLINE
  5
3E9
330
1F
100
AcDbEntity
  8
STANDARDEBENE
 62
     7
100
AcDb2dPolyline
 66
     1
 10
0.0
 20
0.0
 30
0.0
  0
VERTEX
  5
3EA
330
3E9
100
AcDbEntity
  8
STANDARDEBENE
 62
     7
100
AcDbVertex
100
AcDb2dVertex
 10
32.43628441076089
 20
-22.58080712711594
 30
0.0
  0
VERTEX
  5
3EB
330
3E9
100
AcDbEntity
  8
STANDARDEBENE
 62
     7
100
AcDbVertex
100
AcDb2dVertex
 10
31.43582802184881
 20
-22.58080712711594
 30
0.0
  0
SEQEND
  5
3EC
330
3E9
100
AcDbEntity
  8
STANDARDEBENE
  0
POLYLINE
  5
3ED
330
1F
100
AcDbEntity
  8
STANDARDEBENE
 62
     7
100
AcDb2dPolyline
 66
     1
 10
0.0
 20
0.0
 30
0.0
  0
VERTEX
  5
3EE
330
3ED
100
AcDbEntity
  8
STANDARDEBENE
 62
     7
100
AcDbVertex
100
AcDb2dVertex
 10
30.43571614271254
 20
-22.58080712711594
 30
0.0
  0
VERTEX
  5
3EF
330
3ED
100
AcDbEntity
  8
STANDARDEBENE
 62
     7
100
AcDbVertex
100
AcDb2dVertex
 10
29.43629328312785
 20
-22.58080712711594
 30
0.0
  0
SEQEND
  5
3F0
330
3ED
100
AcDbEntity
  8
STANDARDEBENE
  0
POLYLINE
  5
3F1
330
1F
100
AcDbEntity
  8
STANDARDEBENE
 62
     7
100
AcDb2dPolyline
 66
     1
 10
0.0
 20
0.0
 30
0.0
  0
VERTEX
  5
3F2
330
3F1
100
AcDbEntity
  8
STANDARDEBENE
 62
     7
100
AcDbVertex
100
AcDb2dVertex
 10
28.43583689421578
 20
-22.58080712711594
 30
0.0
  0
VERTEX
  5
3F3
330
3F1
100
AcDbEntity
  8
STANDARDEBENE
 62
     7
100
AcDbVertex
100
AcDb2dVertex
 10
27.4357250150795
 20
-22.58080712711594
 30
0.0
  0
SEQEND
  5
3F4
330
3F1
100
AcDbEntity
  8
STANDARDEBENE
  0
POLYLINE
  5
3F5
330
1F
100
AcDbEntity
  8
STANDARDEBENE
 62
     7
100
AcDb2dPolyline
 66
     1
 10
0.0
 20
0.0
 30
0.0
  0
VERTEX
  5
3F6
330
3F5
100
AcDbEntity
  8
STANDARDEBENE
 62
     7
100
AcDbVertex
100
AcDb2dVertex
 10
26.43578539083112
 20
-22.58080712711594
 30
0.0
  0
VERTEX
  5
3F7
330
3F5
100
AcDbEntity
  8
STANDARDEBENE
 62
     7
100
AcDbVertex
100
AcDb2dVertex
 10
25.43567351169484
 20
-22.58080712711594
 30
0.0
  0
SEQEND
  5
3F8
330
3F5
100
AcDbEntity
  8
STANDARDEBENE
  0
POLYLINE
  5
3F9
330
1F
100
AcDbEntity
  8
STANDARDEBENE
 62
     7
100
AcDb2dPolyline
 66
     1
 10
0.0
 20
0.0
 30
0.0
  0
VERTEX
  5
3FA
330
3F9
100
AcDbEntity
  8
STANDARDEBENE
 62
     7
100
AcDbVertex
100
AcDb2dVertex
 10
24.43590614233436
 20
-22.58080712711594
 30
0.0
  0
VERTEX
  5
3FB
330
3F9
100
AcDbEntity
  8
STANDARDEBENE
 62
     7
100
AcDbVertex
100
AcDb2dVertex
 10
23.43579426319808
 20
-22.58080712711594
 30
0.0
  0
SEQEND
  5
3FC
330
3F9
100
AcDbEntity
  8
STANDARDEBENE
  0
POLYLINE
  5
3FD
330
1F
100
AcDbEntity
  8
STANDARDEBENE
 62
     7
100
AcDb2dPolyline
 66
     1
 10
0.0
 20
0.0
 30
0.0
  0
VERTEX
  5
3FE
330
3FD
100
AcDbEntity
  8
STANDARDEBENE
 62
     7
100
AcDbVertex
100
AcDb2dVertex
 10
22.4360268938376
 20
-22.58080712711594
 30
0.0
  0
VERTEX
  5
3FF
330
3FD
100
AcDbEntity
  8
STANDARDEBENE
 62
     7
100
AcDbVertex
100
AcDb2dVertex
 10
21.43591501470132
 20
-22.58080712711594
 30
0.0
  0
SEQEND
  5
400
330
3FD
100
AcDbEntity
  8
STANDARDEBENE
  0
POLYLINE
  5
401
330
1F
100
AcDbEntity
  8
STANDARDEBENE
 62
     7
100
AcDb2dPolyline
 66
     1
 10
0.0
 20
0.0
 30
0.0
  0
VERTEX
  5
402
330
401
100
AcDbEntity
  8
STANDARDEBENE
 62
     7
100
AcDbVertex
100
AcDb2dVertex
 10
20.43580313556504
 20
-22.58080712711594
 30
0.0
  0
VERTEX
  5
403
330
401
100
AcDbEntity
  8
STANDARDEBENE
 62
     7
100
AcDbVertex
100
AcDb2dVertex
 10
19.43603576620456
 20
-22.58080712711594
 30
0.0
  0
SEQEND
  5
404
330
401
100
AcDbEntity
  8
STANDARDEBENE
  0
POLYLINE
  5
405
330
1F
100
AcDbEntity
  8
STANDARDEBENE
 62
     7
100
AcDb2dPolyline
 66
     1
 10
0.0
 20
0.0
 30
0.0
  0
VERTEX
  5
406
330
405
100
AcDbEntity
  8
STANDARDEBENE
 62
     7
100
AcDbVertex
100
AcDb2dVertex
 10
18.43592388706828
 20
-22.58080712711594
 30
0.0
  0
VERTEX
  5
407
330
405
100
AcDbEntity
  8
STANDARDEBENE
 62
     7
100
AcDbVertex
100
AcDb2dVertex
 10
17.4361565177078
 20
-22.58080712711594
 30
0.0
  0
SEQEND
  5
408
330
405
100
AcDbEntity
  8
STANDARDEBENE
  0
POLYLINE
  5
409
330
1F
100
AcDbEntity
  8
STANDARDEBENE
 62
     7
100
AcDb2dPolyline
 66
     1
 10
0.0
 20
0.0
 30
0.0
  0
VERTEX
  5
40A
330
409
100
AcDbEntity
  8
STANDARDEBENE
 62
     7
100
AcDbVertex
100
AcDb2dVertex
 10
16.43604463857152
 20
-22.58080712711594
 30
0.0
  0
VERTEX
  5
40B
330
409
100
AcDbEntity
  8
STANDARDEBENE
 62
     7
100
AcDbVertex
100
AcDb2dVertex
 10
15.43593275943524
 20
-22.58080712711594
 30
0.0
  0
SEQEND
  5
40C
330
409
100
AcDbEntity
  8
STANDARDEBENE
  0
POLYLINE
  5
40D
330
1F
100
AcDbEntity
  8
STANDARDEBENE
 62
     7
100
AcDb2dPolyline
 66
     1
 10
0.0
 20
0.0
 30
0.0
  0
VERTEX
  5
40E
330
40D
100
AcDbEntity
  8
STANDARDEBENE
 62
     7
100
AcDbVertex
100
AcDb2dVertex
 10
14.43616539007476
 20
-22.58080712711594
 30
0.0
  0
VERTEX
  5
40F
330
40D
100
AcDbEntity
  8
STANDARDEBENE
 62
     7
100
AcDbVertex
100
AcDb2dVertex
 10
13.43570900116269
 20
-22.58080712711594
 30
0.0
  0
SEQEND
  5
410
330
40D
100
AcDbEntity
  8
STANDARDEBENE
  0
POLYLINE
  5
411
330
1F
100
AcDbEntity
  8
STANDARDEBENE
 62
     7
100
AcDb2dPolyline
 66
     1
 10
0.0
 20
0.0
 30
0.0
  0
VERTEX
  5
412
330
411
100
AcDbEntity
  8
STANDARDEBENE
 62
     7
100
AcDbVertex
100
AcDb2dVertex
 10
12.436286141578
 20
-22.58080712711594
 30
0.0
  0
VERTEX
  5
413
330
411
100
AcDbEntity
  8
STANDARDEBENE
 62
     7
100
AcDbVertex
100
AcDb2dVertex
 10
11.43617426244172
 20
-22.58080712711594
 30
0.0
  0
SEQEND
  5
414
330
411
100
AcDbEntity
  8
STANDARDEBENE
  0
POLYLINE
  5
415
330
1F
100
AcDbEntity
  8
STANDARDEBENE
 62
     7
100
AcDb2dPolyline
 66
     1
 10
0.0
 20
0.0
 30
0.0
  0
VERTEX
  5
416
330
415
100
AcDbEntity
  8
STANDARDEBENE
 62
     7
100
AcDbVertex
100
AcDb2dVertex
 10
10.43571787352965
 20
-22.58080712711594
 30
0.0
  0
VERTEX
  5
417
330
415
100
AcDbEntity
  8
STANDARDEBENE
 62
     7
100
AcDbVertex
100
AcDb2dVertex
 10
9.436295013944962
 20
-22.58080712711594
 30
0.0
  0
SEQEND
  5
418
330
415
100
AcDbEntity
  8
STANDARDEBENE
  0
POLYLINE
  5
419
330
1F
100
AcDbEntity
  8
STANDARDEBENE
 62
     7
100
AcDb2dPolyline
 66
     1
 10
0.0
 20
0.0
 30
0.0
  0
VERTEX
  5
41A
330
419
100
AcDbEntity
  8
STANDARDEBENE
 62
     7
100
AcDbVertex
100
AcDb2dVertex
 10
8.43566637014499
 20
-22.58080712711594
 30
0.0
  0
VERTEX
  5
41B
330
419
100
AcDbEntity
  8
STANDARDEBENE
 62
     7
100
AcDbVertex
100
AcDb2dVertex
 10
7.435554491008713
 20
-22.58080712711594
 30
0.0
  0
SEQEND
  5
41C
330
419
100
AcDbEntity
  8
STANDARDEBENE
  0
POLYLINE
  5
41D
330
1F
100
AcDbEntity
  8
STANDARDEBENE
 62
     7
100
AcDb2dPolyline
 66
     1
 10
0.0
 20
0.0
 30
0.0
  0
VERTEX
  5
41E
330
41D
100
AcDbEntity
  8
STANDARDEBENE
 62
     7
100
AcDbVertex
100
AcDb2dVertex
 10
6.436131631424026
 20
-22.58080712711594
 30
0.0
  0
VERTEX
  5
41F
330
41D
100
AcDbEntity
  8
STANDARDEBENE
 62
     7
100
AcDbVertex
100
AcDb2dVertex
 10
5.435675242511952
 20
-22.58080712711594
 30
0.0
  0
SEQEND
  5
420
330
41D
100
AcDbEntity
  8
STANDARDEBENE
  0
POLYLINE
  5
421
330
1F
100
AcDbEntity
  8
STANDARDEBENE
 62
     7
100
AcDb2dPolyline
 66
     1
 10
0.0
 20
0.0
 30
0.0
  0
VERTEX
  5
422
330
421
100
AcDbEntity
  8
STANDARDEBENE
 62
     7
100
AcDbVertex
100
AcDb2dVertex
 10
4.435907873151471
 20
-22.58080712711594
 30
0.0
  0
VERTEX
  5
423
330
421
100
AcDbEntity
  8
STANDARDEBENE
 62
     7
100
AcDbVertex
100
AcDb2dVertex
 10
3.435795994015192
 20
-22.58080712711594
 30
0.0
  0
SEQEND
  5
424
330
421
100
AcDbEntity
  8
STANDARDEBENE
  0
POLYLINE
  5
425
330
1F
100
AcDbEntity
  8
STANDARDEBENE
 62
     7
100
AcDb2dPolyline
 66
     1
 10
0.0
 20
0.0
 30
0.0
  0
VERTEX
  5
426
330
425
100
AcDbEntity
  8
STANDARDEBENE
 62
     7
100
AcDbVertex
100
AcDb2dVertex
 10
2.435684114878914
 20
-22.58080712711594
 30
0.0
  0
VERTEX
  5
427
330
425
100
AcDbEntity
  8
STANDARDEBENE
 62
     7
100
AcDbVertex
100
AcDb2dVertex
 10
1.436261255294228
 20
-22.58080712711594
 30
0.0
  0
SEQEND
  5
428
330
425
100
AcDbEntity
  8
STANDARDEBENE
  0
POLYLINE
  5
429
330
1F
100
AcDbEntity
  8
STANDARDEBENE
 62
     7
100
AcDb2dPolyline
 66
     1
 10
0.0
 20
0.0
 30
0.0
  0
VERTEX
  5
42A
330
429
100
AcDbEntity
  8
STANDARDEBENE
 62
     7
100
AcDbVertex
100
AcDb2dVertex
 10
0.4358048663821536
 20
-22.58080712711594
 30
0.0
  0
VERTEX
  5
42B
330
429
100
AcDbEntity
  8
STANDARDEBENE
 62
     7
100
AcDbVertex
100
AcDb2dVertex
 10
-0.0640788182980874
 20
-22.58080712711594
 30
0.0
  0
SEQEND
  5
42C
330
429
100
AcDbEntity
  8
STANDARDEBENE
  0
POLYLINE
  5
42D
330
1F
100
AcDbEntity
  8
STANDARDEBENE
 62
     7
100
AcDb2dPolyline
 66
     1
 10
0.0
 20
0.0
 30
0.0
  0
VERTEX
  5
42E
330
42D
100
AcDbEntity
  8
STANDARDEBENE
 62
     7
100
AcDbVertex
100
AcDb2dVertex
 10
54.90900159572078
 20
-28.09890633348712
 30
0.0
  0
VERTEX
  5
42F
330
42D
100
AcDbEntity
  8
STANDARDEBENE
 62
     7
100
AcDbVertex
100
AcDb2dVertex
 10
55.93305690427489
 20
-27.08535857309479
 30
0.0
  0
SEQEND
  5
430
330
42D
100
AcDbEntity
  8
STANDARDEBENE
  0
POLYLINE
  5
431
330
1F
100
AcDbEntity
  8
STANDARDEBENE
 62
     7
100
AcDb2dPolyline
 66
     1
 10
0.0
 20
0.0
 30
0.0
  0
VERTEX
  5
432
330
431
100
AcDbEntity
  8
STANDARDEBENE
 62
     7
100
AcDbVertex
100
AcDb2dVertex
 10
40.97633724297212
 20
-28.42205650318393
 30
0.0
  0
VERTEX
  5
433
330
431
100
AcDbEntity
  8
STANDARDEBENE
 62
     7
100
AcDbVertex
100
AcDb2dVertex
 10
51.90918272297564
 20
-28.16849730819795
 30
0.0
  0
SEQEND
  5
434
330
431
100
AcDbEntity
  8
STANDARDEBENE
  0
POLYLINE
  5
435
330
1F
100
AcDbEntity
  8
STANDARDEBENE
 62
     7
100
AcDb2dPolyline
 66
     1
 10
0.0
 20
0.0
 30
0.0
  0
VERTEX
  5
436
330
435
100
AcDbEntity
  8
STANDARDEBENE
 62
     7
100
AcDbVertex
100
AcDb2dVertex
 10
37.56035056106521
 20
-21.69076612134653
 30
0.0
  0
VERTEX
  5
437
330
435
100
AcDbEntity
  8
STANDARDEBENE
 62
     7
100
AcDbVertex
100
AcDb2dVertex
 10
37.56035056106521
 20
-13.47024610618625
 30
0.0
  0
SEQEND
  5
438
330
435
100
AcDbEntity
  8
STANDARDEBENE
  0
SPLINE
  5
439
330
1F
100
AcDbEntity
  8
STANDARDEBENE
 62
     7
100
AcDbSpline
210
0.0
220
0.0
230
1.0
 70
     8
 71
     3
 72
    17
 73
    13
 74
     0
 42
0.0000000001
 43
0.0000000001
 40
0.0
 40
0.0
 40
0.0
 40
0.0
 40
1.0
 40
1.0
 40
1.0
 40
2.0
 40
2.0
 40
2.0
 40
3.0
 40
3.0
 40
3.0
 40
4.0
 40
4.0
 40
4.0
 40
4.0
 10
20.97134358204019
 20
-13.71725961543211
 30
0.0
 10
20.61546498364275
 20
-13.62165815264867
 30
0.0
 10
20.25838060103002
 20
-13.57721639157096
 30
0.0
 10
19.935574941109
 20
-13.58031697955313
 30
0.0
 10
17.72692276847977
 20
-13.58031697955313
 30
0.0
 10
15.93581644411548
 20
-15.37142330391741
 30
0.0
 10
15.93581644411548
 20
-17.58093675098614
 30
0.0
 10
15.93581644411548
 20
-19.78958892361538
 30
0.0
 10
17.72692276847977
 20
-21.58069524797966
 30
0.0
 10
19.935574941109
 20
-21.58069524797966
 30
0.0
 10
21.77715194762742
 20
-21.58069524797966
 30
0.0
 10
23.32727368382229
 20
-20.33701495735549
 30
0.0
 10
23.79994109621463
 20
-18.61584411747783
 30
0.0
  0
SPLINE
  5
43A
330
1F
100
AcDbEntity
  8
STANDARDEBENE
 62
     7
100
AcDbSpline
210
0.0
220
0.0
230
1.0
 70
     8
 71
     3
 72
    17
 73
    13
 74
     0
 42
0.0000000001
 43
0.0000000001
 40
0.0
 40
0.0
 40
0.0
 40
0.0
 40
1.0
 40
1.0
 40
1.0
 40
2.0
 40
2.0
 40
2.0
 40
3.0
 40
3.0
 40
3.0
 40
4.0
 40
4.0
 40
4.0
 40
4.0
 10
20.77307820606949
 20
-14.45726661384228
 30
0.0
 10
20.48524028839179
 20
-14.38078544361553
 30
0.0
 10
20.1963688413867
 20
-14.34530093670852
 30
0.0
 10
19.935574941109
 20
-14.3473679953633
 30
0.0
 10
18.15049753782116
 20
-14.3473679953633
 30
0.0
 10
16.70269520503776
 20
-15.7949980732588
 30
0.0
 10
16.70269520503776
 20
-17.58093675098614
 30
0.0
 10
16.70269520503776
 20
-19.36618640916189
 30
0.0
 10
18.15049753782116
 20
-20.81416099683318
 30
0.0
 10
19.935574941109
 20
-20.81416099683318
 30
0.0
 10
21.42402942743635
 20
-20.81416099683318
 30
0.0
 10
22.67735599178281
 20
-19.80836470639627
 30
0.0
 10
23.05907282336497
 20
-18.41775099639503
 30
0.0
  0
SPLINE
  5
43B
330
1F
100
AcDbEntity
  8
STANDARDEBENE
 62
     7
100
AcDbSpline
210
0.0
220
0.0
230
1.0
 70
    11
 71
     3
 72
    17
 73
    13
 74
     0
 42
0.0000000001
 43
0.0000000001
 40
0.0
 40
0.0
 40
0.0
 40
0.0
 40
1.0
 40
1.0
 40
1.0
 40
2.0
 40
2.0
 40
2.0
 40
3.0
 40
3.0
 40
3.0
 40
4.0
 40
4.0
 40
4.0
 40
4.0
 10
23.16914369673184
 20
-17.58093675098614
 30
0.0
 10
23.16914369673184
 20
-15.7949980732588
 30
0.0
 10
21.72134136394845
 20
-14.3473679953633
 30
0.0
 10
19.935574941109
 20
-14.3473679953633
 30
0.0
 10
18.15049753782116
 20
-14.3473679953633
 30
0.0
 10
16.70269520503776
 20
-15.7949980732588
 30
0.0
 10
16.70269520503776
 20
-17.58093675098614
 30
0.0
 10
16.70269520503776
 20
-19.36618640916189
 30
0.0
 10
18.15049753782116
 20
-20.81416099683318
 30
0.0
 10
19.935574941109
 20
-20.81416099683318
 30
0.0
 10
21.72134136394845
 20
-20.81416099683318
 30
0.0
 10
23.16914369673184
 20
-19.36618640916189
 30
0.0
 10
23.16914369673184
 20
-17.58093675098614
 30
0.0
  0
SPLINE
  5
43C
330
1F
100
AcDbEntity
  8
STANDARDEBENE
 62
     7
100
AcDbSpline
210
0.0
220
0.0
230
1.0
 70
     8
 71
     3
 72
     8
 73
     4
 74
     0
 42
0.0000000001
 43
0.0000000001
 40
0.0
 40
0.0
 40
0.0
 40
0.0
 40
1.0
 40
1.0
 40
1.0
 40
1.0
 10
21.35030433541597
 20
-18.99446036107782
 30
0.0
 10
21.47966775622743
 20
-18.86526919515426
 30
0.0
 10
21.58698255138794
 20
-18.72315891263834
 30
0.0
 10
21.66553078026947
 20
-18.58414921810458
 30
0.0
  0
POLYLINE
  5
43D
330
1F
100
AcDbEntity
  8
STANDARDEBENE
 62
     7
100
AcDb2dPolyline
 66
     1
 10
0.0
 20
0.0
 30
0.0
  0
VERTEX
  5
43E
330
43D
100
AcDbEntity
  8
STANDARDEBENE
 62
     7
100
AcDbVertex
100
AcDb2dVertex
 10
21.35030433541597
 20
-18.99446036107782
 30
0.0
  0
VERTEX
  5
43F
330
43D
100
AcDbEntity
  8
STANDARDEBENE
 62
     7
100
AcDbVertex
100
AcDb2dVertex
 10
20.81011300696758
 20
-19.6976048134778
 30
0.0
  0
VERTEX
  5
440
330
43D
100
AcDbEntity
  8
STANDARDEBENE
 62
     7
100
AcDbVertex
100
AcDb2dVertex
 10
19.93178533357525
 20
-19.5808159994829
 30
0.0
  0
SEQEND
  5
441
330
43D
100
AcDbEntity
  8
STANDARDEBENE
  0
SPLINE
  5
442
330
1F
100
AcDbEntity
  8
STANDARDEBENE
 62
     7
100
AcDbSpline
210
0.0
220
0.0
230
1.0
 70
     8
 71
     3
 72
     8
 73
     4
 74
     0
 42
0.0000000001
 43
0.0000000001
 40
0.0
 40
0.0
 40
0.0
 40
0.0
 40
1.0
 40
1.0
 40
1.0
 40
1.0
 10
19.41915478719055
 20
-19.51294757365105
 30
0.0
 10
19.59485477284659
 20
-19.55962864827143
 30
0.0
 10
19.77227730738162
 20
-19.58219403858608
 30
0.0
 10
19.93178533357525
 20
-19.5808159994829
 30
0.0
  0
POLYLINE
  5
443
330
1F
100
AcDbEntity
  8
STANDARDEBENE
 62
     7
100
AcDb2dPolyline
 66
     1
 10
0.0
 20
0.0
 30
0.0
  0
VERTEX
  5
444
330
443
100
AcDbEntity
  8
STANDARDEBENE
 62
     7
100
AcDbVertex
100
AcDb2dVertex
 10
19.41915478719055
 20
-19.51294757365105
 30
0.0
  0
VERTEX
  5
445
330
443
100
AcDbEntity
  8
STANDARDEBENE
 62
     7
100
AcDbVertex
100
AcDb2dVertex
 10
18.52101780168994
 20
-19.39374719122558
 30
0.0
  0
VERTEX
  5
446
330
443
100
AcDbEntity
  8
STANDARDEBENE
 62
     7
100
AcDbVertex
100
AcDb2dVertex
 10
17.63907277565174
 20
-17.25916462039252
 30
0.0
  0
SEQEND
  5
447
330
443
100
AcDbEntity
  8
STANDARDEBENE
  0
POLYLINE
  5
448
330
1F
100
AcDbEntity
  8
STANDARDEBENE
 62
     7
100
AcDb2dPolyline
 66
     1
 10
0.0
 20
0.0
 30
0.0
  0
VERTEX
  5
449
330
448
100
AcDbEntity
  8
STANDARDEBENE
 62
     7
100
AcDbVertex
100
AcDb2dVertex
 10
19.04656746466699
 20
-15.42861192669957
 30
0.0
  0
VERTEX
  5
44A
330
448
100
AcDbEntity
  8
STANDARDEBENE
 62
     7
100
AcDbVertex
100
AcDb2dVertex
 10
17.63907277565174
 20
-17.25916462039252
 30
0.0
  0
SEQEND
  5
44B
330
448
100
AcDbEntity
  8
STANDARDEBENE
  0
POLYLINE
  5
44C
330
1F
100
AcDbEntity
  8
STANDARDEBENE
 62
     7
100
AcDb2dPolyline
 66
     1
 10
0.0
 20
0.0
 30
0.0
  0
VERTEX
  5
44D
330
44C
100
AcDbEntity
  8
STANDARDEBENE
 62
     7
100
AcDbVertex
100
AcDb2dVertex
 10
21.33617943460833
 20
-15.73160827451231
 30
0.0
  0
VERTEX
  5
44E
330
44C
100
AcDbEntity
  8
STANDARDEBENE
 62
     7
100
AcDbVertex
100
AcDb2dVertex
 10
19.04656746466699
 20
-15.42861192669957
 30
0.0
  0
SEQEND
  5
44F
330
44C
100
AcDbEntity
  8
STANDARDEBENE
  0
POLYLINE
  5
450
330
1F
100
AcDbEntity
  8
STANDARDEBENE
 62
     7
100
AcDb2dPolyline
 66
     1
 10
0.0
 20
0.0
 30
0.0
  0
VERTEX
  5
451
330
450
100
AcDbEntity
  8
STANDARDEBENE
 62
     7
100
AcDbVertex
100
AcDb2dVertex
 10
22.21812446064652
 20
-17.86619084534537
 30
0.0
  0
VERTEX
  5
452
330
450
100
AcDbEntity
  8
STANDARDEBENE
 62
     7
100
AcDbVertex
100
AcDb2dVertex
 10
21.33617943460833
 20
-15.73160827451231
 30
0.0
  0
SEQEND
  5
453
330
450
100
AcDbEntity
  8
STANDARDEBENE
  0
POLYLINE
  5
454
330
1F
100
AcDbEntity
  8
STANDARDEBENE
 62
     7
100
AcDb2dPolyline
 66
     1
 10
0.0
 20
0.0
 30
0.0
  0
VERTEX
  5
455
330
454
100
AcDbEntity
  8
STANDARDEBENE
 62
     7
100
AcDbVertex
100
AcDb2dVertex
 10
22.21812446064652
 20
-17.86619084534537
 30
0.0
  0
VERTEX
  5
456
330
454
100
AcDbEntity
  8
STANDARDEBENE
 62
     7
100
AcDbVertex
100
AcDb2dVertex
 10
21.66553078026947
 20
-18.58414921810458
 30
0.0
  0
SEQEND
  5
457
330
454
100
AcDbEntity
  8
STANDARDEBENE
  0
SPLINE
  5
458
330
1F
100
AcDbEntity
  8
STANDARDEBENE
 62
     7
100
AcDbSpline
210
0.0
220
0.0
230
1.0
 70
     8
 71
     3
 72
     8
 73
     4
 74
     0
 42
0.0000000001
 43
0.0000000001
 40
0.0
 40
0.0
 40
0.0
 40
0.0
 40
1.0
 40
1.0
 40
1.0
 40
1.0
 10
21.93614320915736
 20
-17.58093675098614
 30
0.0
 10
21.93614320915736
 20
-17.30498442057341
 30
0.0
 10
21.88050488036627
 20
-17.04246797141673
 30
0.0
 10
21.78421439803125
 20
-16.81681406827024
 30
0.0
  0
SPLINE
  5
459
330
1F
100
AcDbEntity
  8
STANDARDEBENE
 62
     7
100
AcDbSpline
210
0.0
220
0.0
230
1.0
 70
     8
 71
     3
 72
    14
 73
    10
 74
     0
 42
0.0000000001
 43
0.0000000001
 40
0.0
 40
0.0
 40
0.0
 40
0.0
 40
1.0
 40
1.0
 40
1.0
 40
2.0
 40
2.0
 40
2.0
 40
3.0
 40
3.0
 40
3.0
 40
3.0
 10
21.78421439803125
 20
-16.81681406827024
 30
0.0
 10
21.46795442385037
 20
-16.05096883667535
 30
0.0
 10
20.73001448409497
 20
-15.58622514912632
 30
0.0
 10
19.935574941109
 20
-15.58071299271358
 30
0.0
 10
18.83107659990649
 20
-15.58071299271358
 30
0.0
 10
17.93569569261225
 20
-16.47592164511993
 30
0.0
 10
17.93569569261225
 20
-17.58093675098614
 30
0.0
 10
17.93569569261225
 20
-18.5012946170256
 30
0.0
 10
18.55805260258802
 20
-19.27695837723068
 30
0.0
 10
19.41915478719055
 20
-19.51294757365105
 30
0.0
  0
SPLINE
  5
45A
330
1F
100
AcDbEntity
  8
STANDARDEBENE
 62
     7
100
AcDbSpline
210
0.0
220
0.0
230
1.0
 70
     8
 71
     3
 72
     8
 73
     4
 74
     0
 42
0.0000000001
 43
0.0000000001
 40
0.0
 40
0.0
 40
0.0
 40
0.0
 40
1.0
 40
1.0
 40
1.0
 40
1.0
 10
19.93178533357525
 20
-19.5808159994829
 30
0.0
 10
20.48592930794338
 20
-19.58219403858608
 30
0.0
 10
20.98719103172681
 20
-19.35757366476698
 30
0.0
 10
21.35030433541597
 20
-18.99446036107782
 30
0.0
  0
SPLINE
  5
45B
330
1F
100
AcDbEntity
  8
STANDARDEBENE
 62
     7
100
AcDbSpline
210
0.0
220
0.0
230
1.0
 70
     8
 71
     3
 72
     8
 73
     4
 74
     0
 42
0.0000000001
 43
0.0000000001
 40
0.0
 40
0.0
 40
0.0
 40
0.0
 40
1.0
 40
1.0
 40
1.0
 40
1.0
 10
21.66553078026947
 20
-18.58414921810458
 30
0.0
 10
21.8515660591994
 20
-18.26478865594153
 30
0.0
 10
21.93838252270003
 20
-17.91493897862053
 30
0.0
 10
21.93614320915736
 20
-17.58093675098614
 30
0.0
  0
POLYLINE
  5
45C
330
1F
100
AcDbEntity
  8
STANDARDEBENE
 62
     7
100
AcDb2dPolyline
 66
     1
 10
0.0
 20
0.0
 30
0.0
  0
VERTEX
  5
45D
330
45C
100
AcDbEntity
  8
STANDARDEBENE
 62
     7
100
AcDbVertex
100
AcDb2dVertex
 10
37.56035056106521
 20
-92.73979233078597
 30
0.0
  0
VERTEX
  5
45E
330
45C
100
AcDbEntity
  8
STANDARDEBENE
 62
     7
100
AcDbVertex
100
AcDb2dVertex
 10
37.56035056106521
 20
-89.97510138002173
 30
0.0
  0
SEQEND
  5
45F
330
45C
100
AcDbEntity
  8
STANDARDEBENE
  0
POLYLINE
  5
460
330
1F
100
AcDbEntity
  8
STANDARDEBENE
 62
     7
100
AcDb2dPolyline
 66
     1
 10
0.0
 20
0.0
 30
0.0
  0
VERTEX
  5
461
330
460
100
AcDbEntity
  8
STANDARDEBENE
 62
     7
100
AcDbVertex
100
AcDb2dVertex
 10
40.97633724297212
 20
-81.83261282907927
 30
0.0
  0
VERTEX
  5
462
330
460
100
AcDbEntity
  8
STANDARDEBENE
 62
     7
100
AcDbVertex
100
AcDb2dVertex
 10
51.90883821319984
 20
-81.79643930262067
 30
0.0
  0
SEQEND
  5
463
330
460
100
AcDbEntity
  8
STANDARDEBENE
  0
POLYLINE
  5
465
330
1F
100
AcDbEntity
  8
BEMA_UNG
 62
     7
100
AcDb2dPolyline
 66
     1
 10
0.0
 20
0.0
 30
0.0
  0
VERTEX
  5
466
330
465
100
AcDbEntity
  8
BEMA_UNG
 62
     7
100
AcDbVertex
100
AcDb2dVertex
 10
36.93592659243465
 20
-1.58086923368467
 30
0.0
  0
VERTEX
  5
467
330
465
100
AcDbEntity
  8
BEMA_UNG
 62
     7
100
AcDbVertex
100
AcDb2dVertex
 10
73.00730590250882
 20
-1.58086923368467
 30
0.0
  0
SEQEND
  5
468
330
465
100
AcDbEntity
  8
BEMA_UNG
  0
POLYLINE
  5
469
330
1F
100
AcDbEntity
  8
BEMA_UNG
 62
     7
100
AcDb2dPolyline
 66
     1
 10
0.0
 20
0.0
 30
0.0
  0
VERTEX
  5
46A
330
469
100
AcDbEntity
  8
BEMA_UNG
 62
     7
100
AcDbVertex
100
AcDb2dVertex
 10
36.93592659243465
 20
-33.58040137617996
 30
0.0
  0
VERTEX
  5
46B
330
469
100
AcDbEntity
  8
BEMA_UNG
 62
     7
100
AcDbVertex
100
AcDb2dVertex
 10
73.00730590250882
 20
-33.58040137617996
 30
0.0
  0
SEQEND
  5
46C
330
469
100
AcDbEntity
  8
BEMA_UNG
  0
POLYLINE
  5
46D
330
1F
100
AcDbEntity
  8
BEMA_UNG
 62
     7
100
AcDb2dPolyline
 66
     1
 10
0.0
 20
0.0
 30
0.0
  0
VERTEX
  5
46E
330
46D
100
AcDbEntity
  8
BEMA_UNG
 62
     7
100
AcDbVertex
100
AcDb2dVertex
 10
71.00742665401205
 20
-1.58086923368467
 30
0.0
  0
VERTEX
  5
46F
330
46D
100
AcDbEntity
  8
BEMA_UNG
 62
     7
100
AcDbVertex
100
AcDb2dVertex
 10
71.00742665401205
 20
-33.58040137617996
 30
0.0
  0
SEQEND
  5
470
330
46D
100
AcDbEntity
  8
BEMA_UNG
  0
POLYLINE
  5
471
330
1F
100
AcDbEntity
  8
BEMA_UNG
 62
     7
100
AcDb2dPolyline
 66
     1
 10
0.0
 20
0.0
 30
0.0
  0
VERTEX
  5
472
330
471
100
AcDbEntity
  8
BEMA_UNG
 62
     7
100
AcDbVertex
100
AcDb2dVertex
 10
71.00742665401205
 20
-1.58086923368467
 30
0.0
  0
VERTEX
  5
473
330
471
100
AcDbEntity
  8
BEMA_UNG
 62
     7
100
AcDbVertex
100
AcDb2dVertex
 10
70.54698933866048
 20
-5.080916300885847
 30
0.0
  0
VERTEX
  5
474
330
471
100
AcDbEntity
  8
BEMA_UNG
 62
     7
100
AcDbVertex
100
AcDb2dVertex
 10
71.46855298891522
 20
-5.080916300885847
 30
0.0
  0
VERTEX
  5
475
330
471
100
AcDbEntity
  8
BEMA_UNG
 62
     7
100
AcDbVertex
100
AcDb2dVertex
 10
71.00742665401205
 20
-1.58086923368467
 30
0.0
  0
SEQEND
  5
476
330
471
100
AcDbEntity
  8
BEMA_UNG
  0
POLYLINE
  5
477
330
1F
100
AcDbEntity
  8
BEMA_UNG
 62
     7
100
AcDb2dPolyline
 66
     1
 10
0.0
 20
0.0
 30
0.0
  0
VERTEX
  5
478
330
477
100
AcDbEntity
  8
BEMA_UNG
 62
     7
100
AcDbVertex
100
AcDb2dVertex
 10
70.55060669130634
 20
-5.080916300885847
 30
0.0
  0
VERTEX
  5
479
330
477
100
AcDbEntity
  8
BEMA_UNG
 62
     7
100
AcDbVertex
100
AcDb2dVertex
 10
70.55060669130634
 20
-5.05370002859795
 30
0.0
  0
SEQEND
  5
47A
330
477
100
AcDbEntity
  8
BEMA_UNG
  0
POLYLINE
  5
47B
330
1F
100
AcDbEntity
  8
BEMA_UNG
 62
     7
100
AcDb2dPolyline
 66
     1
 10
0.0
 20
0.0
 30
0.0
  0
VERTEX
  5
47C
330
47B
100
AcDbEntity
  8
BEMA_UNG
 62
     7
100
AcDbVertex
100
AcDb2dVertex
 10
70.55060669130634
 20
-5.080916300885847
 30
0.0
  0
VERTEX
  5
47D
330
47B
100
AcDbEntity
  8
BEMA_UNG
 62
     7
100
AcDbVertex
100
AcDb2dVertex
 10
70.55060669130634
 20
-5.05370002859795
 30
0.0
  0
SEQEND
  5
47E
330
47B
100
AcDbEntity
  8
BEMA_UNG
  0
POLYLINE
  5
47F
330
1F
100
AcDbEntity
  8
BEMA_UNG
 62
     7
100
AcDb2dPolyline
 66
     1
 10
0.0
 20
0.0
 30
0.0
  0
VERTEX
  5
480
330
47F
100
AcDbEntity
  8
BEMA_UNG
 62
     7
100
AcDbVertex
100
AcDb2dVertex
 10
70.60142188323627
 20
-5.080916300885847
 30
0.0
  0
VERTEX
  5
481
330
47F
100
AcDbEntity
  8
BEMA_UNG
 62
     7
100
AcDbVertex
100
AcDb2dVertex
 10
70.60142188323627
 20
-4.667676824818343
 30
0.0
  0
SEQEND
  5
482
330
47F
100
AcDbEntity
  8
BEMA_UNG
  0
POLYLINE
  5
483
330
1F
100
AcDbEntity
  8
BEMA_UNG
 62
     7
100
AcDb2dPolyline
 66
     1
 10
0.0
 20
0.0
 30
0.0
  0
VERTEX
  5
484
330
483
100
AcDbEntity
  8
BEMA_UNG
 62
     7
100
AcDbVertex
100
AcDb2dVertex
 10
70.6522370751662
 20
-5.080916300885847
 30
0.0
  0
VERTEX
  5
485
330
483
100
AcDbEntity
  8
BEMA_UNG
 62
     7
100
AcDbVertex
100
AcDb2dVertex
 10
70.6522370751662
 20
-4.281481366150837
 30
0.0
  0
SEQEND
  5
486
330
483
100
AcDbEntity
  8
BEMA_UNG
  0
POLYLINE
  5
487
330
1F
100
AcDbEntity
  8
BEMA_UNG
 62
     7
100
AcDb2dPolyline
 66
     1
 10
0.0
 20
0.0
 30
0.0
  0
VERTEX
  5
488
330
487
100
AcDbEntity
  8
BEMA_UNG
 62
     7
100
AcDbVertex
100
AcDb2dVertex
 10
70.70305226709614
 20
-5.080916300885847
 30
0.0
  0
VERTEX
  5
489
330
487
100
AcDbEntity
  8
BEMA_UNG
 62
     7
100
AcDbVertex
100
AcDb2dVertex
 10
70.70305226709614
 20
-3.895974927034925
 30
0.0
  0
SEQEND
  5
48A
330
487
100
AcDbEntity
  8
BEMA_UNG
  0
POLYLINE
  5
48B
330
1F
100
AcDbEntity
  8
BEMA_UNG
 62
     7
100
AcDb2dPolyline
 66
     1
 10
0.0
 20
0.0
 30
0.0
  0
VERTEX
  5
48C
330
48B
100
AcDbEntity
  8
BEMA_UNG
 62
     7
100
AcDbVertex
100
AcDb2dVertex
 10
70.75386745902607
 20
-5.080916300885847
 30
0.0
  0
VERTEX
  5
48D
330
48B
100
AcDbEntity
  8
BEMA_UNG
 62
     7
100
AcDbVertex
100
AcDb2dVertex
 10
70.75386745902607
 20
-3.510296233031113
 30
0.0
  0
SEQEND
  5
48E
330
48B
100
AcDbEntity
  8
BEMA_UNG
  0
POLYLINE
  5
48F
330
1F
100
AcDbEntity
  8
BEMA_UNG
 62
     7
100
AcDb2dPolyline
 66
     1
 10
0.0
 20
0.0
 30
0.0
  0
VERTEX
  5
490
330
48F
100
AcDbEntity
  8
BEMA_UNG
 62
     7
100
AcDbVertex
100
AcDb2dVertex
 10
70.80468265095601
 20
-5.080916300885847
 30
0.0
  0
VERTEX
  5
491
330
48F
100
AcDbEntity
  8
BEMA_UNG
 62
     7
100
AcDbVertex
100
AcDb2dVertex
 10
70.80468265095601
 20
-3.124273029251506
 30
0.0
  0
SEQEND
  5
492
330
48F
100
AcDbEntity
  8
BEMA_UNG
  0
POLYLINE
  5
493
330
1F
100
AcDbEntity
  8
BEMA_UNG
 62
     7
100
AcDb2dPolyline
 66
     1
 10
0.0
 20
0.0
 30
0.0
  0
VERTEX
  5
494
330
493
100
AcDbEntity
  8
BEMA_UNG
 62
     7
100
AcDbVertex
100
AcDb2dVertex
 10
70.85498107822225
 20
-5.080916300885847
 30
0.0
  0
VERTEX
  5
495
330
493
100
AcDbEntity
  8
BEMA_UNG
 62
     7
100
AcDbVertex
100
AcDb2dVertex
 10
70.85498107822225
 20
-2.738077570584001
 30
0.0
  0
SEQEND
  5
496
330
493
100
AcDbEntity
  8
BEMA_UNG
  0
POLYLINE
  5
497
330
1F
100
AcDbEntity
  8
BEMA_UNG
 62
     7
100
AcDb2dPolyline
 66
     1
 10
0.0
 20
0.0
 30
0.0
  0
VERTEX
  5
498
330
497
100
AcDbEntity
  8
BEMA_UNG
 62
     7
100
AcDbVertex
100
AcDb2dVertex
 10
70.90579627015218
 20
-5.080916300885847
 30
0.0
  0
VERTEX
  5
499
330
497
100
AcDbEntity
  8
BEMA_UNG
 62
     7
100
AcDbVertex
100
AcDb2dVertex
 10
70.90579627015218
 20
-2.352571131468088
 30
0.0
  0
SEQEND
  5
49A
330
497
100
AcDbEntity
  8
BEMA_UNG
  0
POLYLINE
  5
49B
330
1F
100
AcDbEntity
  8
BEMA_UNG
 62
     7
100
AcDb2dPolyline
 66
     1
 10
0.0
 20
0.0
 30
0.0
  0
VERTEX
  5
49C
330
49B
100
AcDbEntity
  8
BEMA_UNG
 62
     7
100
AcDbVertex
100
AcDb2dVertex
 10
70.95661146208212
 20
-5.080916300885847
 30
0.0
  0
VERTEX
  5
49D
330
49B
100
AcDbEntity
  8
BEMA_UNG
 62
     7
100
AcDbVertex
100
AcDb2dVertex
 10
70.95661146208212
 20
-1.966203417912685
 30
0.0
  0
SEQEND
  5
49E
330
49B
100
AcDbEntity
  8
BEMA_UNG
  0
POLYLINE
  5
49F
330
1F
100
AcDbEntity
  8
BEMA_UNG
 62
     7
100
AcDb2dPolyline
 66
     1
 10
0.0
 20
0.0
 30
0.0
  0
VERTEX
  5
4A0
330
49F
100
AcDbEntity
  8
BEMA_UNG
 62
     7
100
AcDbVertex
100
AcDb2dVertex
 10
71.00742665401205
 20
-5.080916300885847
 30
0.0
  0
VERTEX
  5
4A1
330
49F
100
AcDbEntity
  8
BEMA_UNG
 62
     7
100
AcDbVertex
100
AcDb2dVertex
 10
71.00742665401205
 20
-1.58086923368467
 30
0.0
  0
SEQEND
  5
4A2
330
49F
100
AcDbEntity
  8
BEMA_UNG
  0
POLYLINE
  5
4A3
330
1F
100
AcDbEntity
  8
BEMA_UNG
 62
     7
100
AcDb2dPolyline
 66
     1
 10
0.0
 20
0.0
 30
0.0
  0
VERTEX
  5
4A4
330
4A3
100
AcDbEntity
  8
BEMA_UNG
 62
     7
100
AcDbVertex
100
AcDb2dVertex
 10
71.46493563626937
 20
-5.080916300885847
 30
0.0
  0
VERTEX
  5
4A5
330
4A3
100
AcDbEntity
  8
BEMA_UNG
 62
     7
100
AcDbVertex
100
AcDb2dVertex
 10
71.46493563626937
 20
-5.05370002859795
 30
0.0
  0
SEQEND
  5
4A6
330
4A3
100
AcDbEntity
  8
BEMA_UNG
  0
POLYLINE
  5
4A7
330
1F
100
AcDbEntity
  8
BEMA_UNG
 62
     7
100
AcDb2dPolyline
 66
     1
 10
0.0
 20
0.0
 30
0.0
  0
VERTEX
  5
4A8
330
4A7
100
AcDbEntity
  8
BEMA_UNG
 62
     7
100
AcDbVertex
100
AcDb2dVertex
 10
71.46493563626937
 20
-5.080916300885847
 30
0.0
  0
VERTEX
  5
4A9
330
4A7
100
AcDbEntity
  8
BEMA_UNG
 62
     7
100
AcDbVertex
100
AcDb2dVertex
 10
71.46493563626937
 20
-5.05370002859795
 30
0.0
  0
SEQEND
  5
4AA
330
4A7
100
AcDbEntity
  8
BEMA_UNG
  0
POLYLINE
  5
4AB
330
1F
100
AcDbEntity
  8
BEMA_UNG
 62
     7
100
AcDb2dPolyline
 66
     1
 10
0.0
 20
0.0
 30
0.0
  0
VERTEX
  5
4AC
330
4AB
100
AcDbEntity
  8
BEMA_UNG
 62
     7
100
AcDbVertex
100
AcDb2dVertex
 10
71.41412044433943
 20
-5.080916300885847
 30
0.0
  0
VERTEX
  5
4AD
330
4AB
100
AcDbEntity
  8
BEMA_UNG
 62
     7
100
AcDbVertex
100
AcDb2dVertex
 10
71.41412044433943
 20
-4.667676824818343
 30
0.0
  0
SEQEND
  5
4AE
330
4AB
100
AcDbEntity
  8
BEMA_UNG
  0
POLYLINE
  5
4AF
330
1F
100
AcDbEntity
  8
BEMA_UNG
 62
     7
100
AcDb2dPolyline
 66
     1
 10
0.0
 20
0.0
 30
0.0
  0
VERTEX
  5
4B0
330
4AF
100
AcDbEntity
  8
BEMA_UNG
 62
     7
100
AcDbVertex
100
AcDb2dVertex
 10
71.36347750729739
 20
-5.080916300885847
 30
0.0
  0
VERTEX
  5
4B1
330
4AF
100
AcDbEntity
  8
BEMA_UNG
 62
     7
100
AcDbVertex
100
AcDb2dVertex
 10
71.36347750729739
 20
-4.281481366150837
 30
0.0
  0
SEQEND
  5
4B2
330
4AF
100
AcDbEntity
  8
BEMA_UNG
  0
POLYLINE
  5
4B3
330
1F
100
AcDbEntity
  8
BEMA_UNG
 62
     7
100
AcDb2dPolyline
 66
     1
 10
0.0
 20
0.0
 30
0.0
  0
VERTEX
  5
4B4
330
4B3
100
AcDbEntity
  8
BEMA_UNG
 62
     7
100
AcDbVertex
100
AcDb2dVertex
 10
71.31231780559166
 20
-5.080916300885847
 30
0.0
  0
VERTEX
  5
4B5
330
4B3
100
AcDbEntity
  8
BEMA_UNG
 62
     7
100
AcDbVertex
100
AcDb2dVertex
 10
71.31231780559166
 20
-3.895974927034925
 30
0.0
  0
SEQEND
  5
4B6
330
4B3
100
AcDbEntity
  8
BEMA_UNG
  0
POLYLINE
  5
4B7
330
1F
100
AcDbEntity
  8
BEMA_UNG
 62
     7
100
AcDb2dPolyline
 66
     1
 10
0.0
 20
0.0
 30
0.0
  0
VERTEX
  5
4B8
330
4B7
100
AcDbEntity
  8
BEMA_UNG
 62
     7
100
AcDbVertex
100
AcDb2dVertex
 10
71.26150261366173
 20
-5.080916300885847
 30
0.0
  0
VERTEX
  5
4B9
330
4B7
100
AcDbEntity
  8
BEMA_UNG
 62
     7
100
AcDbVertex
100
AcDb2dVertex
 10
71.26150261366173
 20
-3.510296233031113
 30
0.0
  0
SEQEND
  5
4BA
330
4B7
100
AcDbEntity
  8
BEMA_UNG
  0
POLYLINE
  5
4BB
330
1F
100
AcDbEntity
  8
BEMA_UNG
 62
     7
100
AcDb2dPolyline
 66
     1
 10
0.0
 20
0.0
 30
0.0
  0
VERTEX
  5
4BC
330
4BB
100
AcDbEntity
  8
BEMA_UNG
 62
     7
100
AcDbVertex
100
AcDb2dVertex
 10
71.21068742173179
 20
-5.080916300885847
 30
0.0
  0
VERTEX
  5
4BD
330
4BB
100
AcDbEntity
  8
BEMA_UNG
 62
     7
100
AcDbVertex
100
AcDb2dVertex
 10
71.21068742173179
 20
-3.124273029251506
 30
0.0
  0
SEQEND
  5
4BE
330
4BB
100
AcDbEntity
  8
BEMA_UNG
  0
POLYLINE
  5
4BF
330
1F
100
AcDbEntity
  8
BEMA_UNG
 62
     7
100
AcDb2dPolyline
 66
     1
 10
0.0
 20
0.0
 30
0.0
  0
VERTEX
  5
4C0
330
4BF
100
AcDbEntity
  8
BEMA_UNG
 62
     7
100
AcDbVertex
100
AcDb2dVertex
 10
71.15987222980186
 20
-5.080916300885847
 30
0.0
  0
VERTEX
  5
4C1
330
4BF
100
AcDbEntity
  8
BEMA_UNG
 62
     7
100
AcDbVertex
100
AcDb2dVertex
 10
71.15987222980186
 20
-2.738077570584001
 30
0.0
  0
SEQEND
  5
4C2
330
4BF
100
AcDbEntity
  8
BEMA_UNG
  0
POLYLINE
  5
4C3
330
1F
100
AcDbEntity
  8
BEMA_UNG
 62
     7
100
AcDb2dPolyline
 66
     1
 10
0.0
 20
0.0
 30
0.0
  0
VERTEX
  5
4C4
330
4C3
100
AcDbEntity
  8
BEMA_UNG
 62
     7
100
AcDbVertex
100
AcDb2dVertex
 10
71.10905703787192
 20
-5.080916300885847
 30
0.0
  0
VERTEX
  5
4C5
330
4C3
100
AcDbEntity
  8
BEMA_UNG
 62
     7
100
AcDbVertex
100
AcDb2dVertex
 10
71.10905703787192
 20
-2.352571131468088
 30
0.0
  0
SEQEND
  5
4C6
330
4C3
100
AcDbEntity
  8
BEMA_UNG
  0
POLYLINE
  5
4C7
330
1F
100
AcDbEntity
  8
BEMA_UNG
 62
     7
100
AcDb2dPolyline
 66
     1
 10
0.0
 20
0.0
 30
0.0
  0
VERTEX
  5
4C8
330
4C7
100
AcDbEntity
  8
BEMA_UNG
 62
     7
100
AcDbVertex
100
AcDb2dVertex
 10
71.05824184594199
 20
-5.080916300885847
 30
0.0
  0
VERTEX
  5
4C9
330
4C7
100
AcDbEntity
  8
BEMA_UNG
 62
     7
100
AcDbVertex
100
AcDb2dVertex
 10
71.05824184594199
 20
-1.966203417912685
 30
0.0
  0
SEQEND
  5
4CA
330
4C7
100
AcDbEntity
  8
BEMA_UNG
  0
POLYLINE
  5
4CB
330
1F
100
AcDbEntity
  8
BEMA_UNG
 62
     7
100
AcDb2dPolyline
 66
     1
 10
0.0
 20
0.0
 30
0.0
  0
VERTEX
  5
4CC
330
4CB
100
AcDbEntity
  8
BEMA_UNG
 62
     7
100
AcDbVertex
100
AcDb2dVertex
 10
71.00742665401205
 20
-5.080916300885847
 30
0.0
  0
VERTEX
  5
4CD
330
4CB
100
AcDbEntity
  8
BEMA_UNG
 62
     7
100
AcDbVertex
100
AcDb2dVertex
 10
71.00742665401205
 20
-1.58086923368467
 30
0.0
  0
SEQEND
  5
4CE
330
4CB
100
AcDbEntity
  8
BEMA_UNG
  0
POLYLINE
  5
4CF
330
1F
100
AcDbEntity
  8
BEMA_UNG
 62
     7
100
AcDb2dPolyline
 66
     1
 10
0.0
 20
0.0
 30
0.0
  0
VERTEX
  5
4D0
330
4CF
100
AcDbEntity
  8
BEMA_UNG
 62
     7
100
AcDbVertex
100
AcDb2dVertex
 10
71.00742665401205
 20
-33.58040137617996
 30
0.0
  0
VERTEX
  5
4D1
330
4CF
100
AcDbEntity
  8
BEMA_UNG
 62
     7
100
AcDbVertex
100
AcDb2dVertex
 10
71.46855298891522
 20
-30.08087107364248
 30
0.0
  0
VERTEX
  5
4D2
330
4CF
100
AcDbEntity
  8
BEMA_UNG
 62
     7
100
AcDbVertex
100
AcDb2dVertex
 10
70.54698933866048
 20
-30.08087107364248
 30
0.0
  0
VERTEX
  5
4D3
330
4CF
100
AcDbEntity
  8
BEMA_UNG
 62
     7
100
AcDbVertex
100
AcDb2dVertex
 10
71.00742665401205
 20
-33.58040137617996
 30
0.0
  0
SEQEND
  5
4D4
330
4CF
100
AcDbEntity
  8
BEMA_UNG
  0
POLYLINE
  5
4D5
330
1F
100
AcDbEntity
  8
BEMA_UNG
 62
     7
100
AcDb2dPolyline
 66
     1
 10
0.0
 20
0.0
 30
0.0
  0
VERTEX
  5
4D6
330
4D5
100
AcDbEntity
  8
BEMA_UNG
 62
     7
100
AcDbVertex
100
AcDb2dVertex
 10
71.46493563626937
 20
-30.08087107364248
 30
0.0
  0
VERTEX
  5
4D7
330
4D5
100
AcDbEntity
  8
BEMA_UNG
 62
     7
100
AcDbVertex
100
AcDb2dVertex
 10
71.46493563626937
 20
-30.10808734593038
 30
0.0
  0
SEQEND
  5
4D8
330
4D5
100
AcDbEntity
  8
BEMA_UNG
  0
POLYLINE
  5
4D9
330
1F
100
AcDbEntity
  8
BEMA_UNG
 62
     7
100
AcDb2dPolyline
 66
     1
 10
0.0
 20
0.0
 30
0.0
  0
VERTEX
  5
4DA
330
4D9
100
AcDbEntity
  8
BEMA_UNG
 62
     7
100
AcDbVertex
100
AcDb2dVertex
 10
71.46493563626937
 20
-30.08087107364248
 30
0.0
  0
VERTEX
  5
4DB
330
4D9
100
AcDbEntity
  8
BEMA_UNG
 62
     7
100
AcDbVertex
100
AcDb2dVertex
 10
71.46493563626937
 20
-30.10808734593038
 30
0.0
  0
SEQEND
  5
4DC
330
4D9
100
AcDbEntity
  8
BEMA_UNG
  0
POLYLINE
  5
4DD
330
1F
100
AcDbEntity
  8
BEMA_UNG
 62
     7
100
AcDb2dPolyline
 66
     1
 10
0.0
 20
0.0
 30
0.0
  0
VERTEX
  5
4DE
330
4DD
100
AcDbEntity
  8
BEMA_UNG
 62
     7
100
AcDbVertex
100
AcDb2dVertex
 10
71.41412044433943
 20
-30.08087107364248
 30
0.0
  0
VERTEX
  5
4DF
330
4DD
100
AcDbEntity
  8
BEMA_UNG
 62
     7
100
AcDbVertex
100
AcDb2dVertex
 10
71.41412044433943
 20
-30.49359378504629
 30
0.0
  0
SEQEND
  5
4E0
330
4DD
100
AcDbEntity
  8
BEMA_UNG
  0
POLYLINE
  5
4E1
330
1F
100
AcDbEntity
  8
BEMA_UNG
 62
     7
100
AcDb2dPolyline
 66
     1
 10
0.0
 20
0.0
 30
0.0
  0
VERTEX
  5
4E2
330
4E1
100
AcDbEntity
  8
BEMA_UNG
 62
     7
100
AcDbVertex
100
AcDb2dVertex
 10
71.36347750729739
 20
-30.08087107364248
 30
0.0
  0
VERTEX
  5
4E3
330
4E1
100
AcDbEntity
  8
BEMA_UNG
 62
     7
100
AcDbVertex
100
AcDb2dVertex
 10
71.36347750729739
 20
-30.8797892437138
 30
0.0
  0
SEQEND
  5
4E4
330
4E1
100
AcDbEntity
  8
BEMA_UNG
  0
POLYLINE
  5
4E5
330
1F
100
AcDbEntity
  8
BEMA_UNG
 62
     7
100
AcDb2dPolyline
 66
     1
 10
0.0
 20
0.0
 30
0.0
  0
VERTEX
  5
4E6
330
4E5
100
AcDbEntity
  8
BEMA_UNG
 62
     7
100
AcDbVertex
100
AcDb2dVertex
 10
71.31231780559166
 20
-30.08087107364248
 30
0.0
  0
VERTEX
  5
4E7
330
4E5
100
AcDbEntity
  8
BEMA_UNG
 62
     7
100
AcDbVertex
100
AcDb2dVertex
 10
71.31231780559166
 20
-31.26564019260551
 30
0.0
  0
SEQEND
  5
4E8
330
4E5
100
AcDbEntity
  8
BEMA_UNG
  0
POLYLINE
  5
4E9
330
1F
100
AcDbEntity
  8
BEMA_UNG
 62
     7
100
AcDb2dPolyline
 66
     1
 10
0.0
 20
0.0
 30
0.0
  0
VERTEX
  5
4EA
330
4E9
100
AcDbEntity
  8
BEMA_UNG
 62
     7
100
AcDbVertex
100
AcDb2dVertex
 10
71.26150261366173
 20
-30.08087107364248
 30
0.0
  0
VERTEX
  5
4EB
330
4E9
100
AcDbEntity
  8
BEMA_UNG
 62
     7
100
AcDbVertex
100
AcDb2dVertex
 10
71.26150261366173
 20
-31.65149114149722
 30
0.0
  0
SEQEND
  5
4EC
330
4E9
100
AcDbEntity
  8
BEMA_UNG
  0
POLYLINE
  5
4ED
330
1F
100
AcDbEntity
  8
BEMA_UNG
 62
     7
100
AcDb2dPolyline
 66
     1
 10
0.0
 20
0.0
 30
0.0
  0
VERTEX
  5
4EE
330
4ED
100
AcDbEntity
  8
BEMA_UNG
 62
     7
100
AcDbVertex
100
AcDb2dVertex
 10
71.21068742173179
 20
-30.08087107364248
 30
0.0
  0
VERTEX
  5
4EF
330
4ED
100
AcDbEntity
  8
BEMA_UNG
 62
     7
100
AcDbVertex
100
AcDb2dVertex
 10
71.21068742173179
 20
-32.03699758061313
 30
0.0
  0
SEQEND
  5
4F0
330
4ED
100
AcDbEntity
  8
BEMA_UNG
  0
POLYLINE
  5
4F1
330
1F
100
AcDbEntity
  8
BEMA_UNG
 62
     7
100
AcDb2dPolyline
 66
     1
 10
0.0
 20
0.0
 30
0.0
  0
VERTEX
  5
4F2
330
4F1
100
AcDbEntity
  8
BEMA_UNG
 62
     7
100
AcDbVertex
100
AcDb2dVertex
 10
71.15987222980186
 20
-30.08087107364248
 30
0.0
  0
VERTEX
  5
4F3
330
4F1
100
AcDbEntity
  8
BEMA_UNG
 62
     7
100
AcDbVertex
100
AcDb2dVertex
 10
71.15987222980186
 20
-32.42319303928063
 30
0.0
  0
SEQEND
  5
4F4
330
4F1
100
AcDbEntity
  8
BEMA_UNG
  0
POLYLINE
  5
4F5
330
1F
100
AcDbEntity
  8
BEMA_UNG
 62
     7
100
AcDb2dPolyline
 66
     1
 10
0.0
 20
0.0
 30
0.0
  0
VERTEX
  5
4F6
330
4F5
100
AcDbEntity
  8
BEMA_UNG
 62
     7
100
AcDbVertex
100
AcDb2dVertex
 10
71.10905703787192
 20
-30.08087107364248
 30
0.0
  0
VERTEX
  5
4F7
330
4F5
100
AcDbEntity
  8
BEMA_UNG
 62
     7
100
AcDbVertex
100
AcDb2dVertex
 10
71.10905703787192
 20
-32.80904398817234
 30
0.0
  0
SEQEND
  5
4F8
330
4F5
100
AcDbEntity
  8
BEMA_UNG
  0
POLYLINE
  5
4F9
330
1F
100
AcDbEntity
  8
BEMA_UNG
 62
     7
100
AcDb2dPolyline
 66
     1
 10
0.0
 20
0.0
 30
0.0
  0
VERTEX
  5
4FA
330
4F9
100
AcDbEntity
  8
BEMA_UNG
 62
     7
100
AcDbVertex
100
AcDb2dVertex
 10
71.05824184594199
 20
-30.08087107364248
 30
0.0
  0
VERTEX
  5
4FB
330
4F9
100
AcDbEntity
  8
BEMA_UNG
 62
     7
100
AcDbVertex
100
AcDb2dVertex
 10
71.05824184594199
 20
-33.19523944683985
 30
0.0
  0
SEQEND
  5
4FC
330
4F9
100
AcDbEntity
  8
BEMA_UNG
  0
POLYLINE
  5
4FD
330
1F
100
AcDbEntity
  8
BEMA_UNG
 62
     7
100
AcDb2dPolyline
 66
     1
 10
0.0
 20
0.0
 30
0.0
  0
VERTEX
  5
4FE
330
4FD
100
AcDbEntity
  8
BEMA_UNG
 62
     7
100
AcDbVertex
100
AcDb2dVertex
 10
71.00742665401205
 20
-30.08087107364248
 30
0.0
  0
VERTEX
  5
4FF
330
4FD
100
AcDbEntity
  8
BEMA_UNG
 62
     7
100
AcDbVertex
100
AcDb2dVertex
 10
71.00742665401205
 20
-33.58040137617996
 30
0.0
  0
SEQEND
  5
500
330
4FD
100
AcDbEntity
  8
BEMA_UNG
  0
POLYLINE
  5
501
330
1F
100
AcDbEntity
  8
BEMA_UNG
 62
     7
100
AcDb2dPolyline
 66
     1
 10
0.0
 20
0.0
 30
0.0
  0
VERTEX
  5
502
330
501
100
AcDbEntity
  8
BEMA_UNG
 62
     7
100
AcDbVertex
100
AcDb2dVertex
 10
70.55060669130634
 20
-30.08087107364248
 30
0.0
  0
VERTEX
  5
503
330
501
100
AcDbEntity
  8
BEMA_UNG
 62
     7
100
AcDbVertex
100
AcDb2dVertex
 10
70.55060669130634
 20
-30.10808734593038
 30
0.0
  0
SEQEND
  5
504
330
501
100
AcDbEntity
  8
BEMA_UNG
  0
POLYLINE
  5
505
330
1F
100
AcDbEntity
  8
BEMA_UNG
 62
     7
100
AcDb2dPolyline
 66
     1
 10
0.0
 20
0.0
 30
0.0
  0
VERTEX
  5
506
330
505
100
AcDbEntity
  8
BEMA_UNG
 62
     7
100
AcDbVertex
100
AcDb2dVertex
 10
70.55060669130634
 20
-30.08087107364248
 30
0.0
  0
VERTEX
  5
507
330
505
100
AcDbEntity
  8
BEMA_UNG
 62
     7
100
AcDbVertex
100
AcDb2dVertex
 10
70.55060669130634
 20
-30.10808734593038
 30
0.0
  0
SEQEND
  5
508
330
505
100
AcDbEntity
  8
BEMA_UNG
  0
POLYLINE
  5
509
330
1F
100
AcDbEntity
  8
BEMA_UNG
 62
     7
100
AcDb2dPolyline
 66
     1
 10
0.0
 20
0.0
 30
0.0
  0
VERTEX
  5
50A
330
509
100
AcDbEntity
  8
BEMA_UNG
 62
     7
100
AcDbVertex
100
AcDb2dVertex
 10
70.60142188323627
 20
-30.08087107364248
 30
0.0
  0
VERTEX
  5
50B
330
509
100
AcDbEntity
  8
BEMA_UNG
 62
     7
100
AcDbVertex
100
AcDb2dVertex
 10
70.60142188323627
 20
-30.49359378504629
 30
0.0
  0
SEQEND
  5
50C
330
509
100
AcDbEntity
  8
BEMA_UNG
  0
POLYLINE
  5
50D
330
1F
100
AcDbEntity
  8
BEMA_UNG
 62
     7
100
AcDb2dPolyline
 66
     1
 10
0.0
 20
0.0
 30
0.0
  0
VERTEX
  5
50E
330
50D
100
AcDbEntity
  8
BEMA_UNG
 62
     7
100
AcDbVertex
100
AcDb2dVertex
 10
70.6522370751662
 20
-30.08087107364248
 30
0.0
  0
VERTEX
  5
50F
330
50D
100
AcDbEntity
  8
BEMA_UNG
 62
     7
100
AcDbVertex
100
AcDb2dVertex
 10
70.6522370751662
 20
-30.8797892437138
 30
0.0
  0
SEQEND
  5
510
330
50D
100
AcDbEntity
  8
BEMA_UNG
  0
POLYLINE
  5
511
330
1F
100
AcDbEntity
  8
BEMA_UNG
 62
     7
100
AcDb2dPolyline
 66
     1
 10
0.0
 20
0.0
 30
0.0
  0
VERTEX
  5
512
330
511
100
AcDbEntity
  8
BEMA_UNG
 62
     7
100
AcDbVertex
100
AcDb2dVertex
 10
70.70305226709614
 20
-30.08087107364248
 30
0.0
  0
VERTEX
  5
513
330
511
100
AcDbEntity
  8
BEMA_UNG
 62
     7
100
AcDbVertex
100
AcDb2dVertex
 10
70.70305226709614
 20
-31.26564019260551
 30
0.0
  0
SEQEND
  5
514
330
511
100
AcDbEntity
  8
BEMA_UNG
  0
POLYLINE
  5
515
330
1F
100
AcDbEntity
  8
BEMA_UNG
 62
     7
100
AcDb2dPolyline
 66
     1
 10
0.0
 20
0.0
 30
0.0
  0
VERTEX
  5
516
330
515
100
AcDbEntity
  8
BEMA_UNG
 62
     7
100
AcDbVertex
100
AcDb2dVertex
 10
70.75386745902607
 20
-30.08087107364248
 30
0.0
  0
VERTEX
  5
517
330
515
100
AcDbEntity
  8
BEMA_UNG
 62
     7
100
AcDbVertex
100
AcDb2dVertex
 10
70.75386745902607
 20
-31.65149114149722
 30
0.0
  0
SEQEND
  5
518
330
515
100
AcDbEntity
  8
BEMA_UNG
  0
POLYLINE
  5
519
330
1F
100
AcDbEntity
  8
BEMA_UNG
 62
     7
100
AcDb2dPolyline
 66
     1
 10
0.0
 20
0.0
 30
0.0
  0
VERTEX
  5
51A
330
519
100
AcDbEntity
  8
BEMA_UNG
 62
     7
100
AcDbVertex
100
AcDb2dVertex
 10
70.80468265095601
 20
-30.08087107364248
 30
0.0
  0
VERTEX
  5
51B
330
519
100
AcDbEntity
  8
BEMA_UNG
 62
     7
100
AcDbVertex
100
AcDb2dVertex
 10
70.80468265095601
 20
-32.03699758061313
 30
0.0
  0
SEQEND
  5
51C
330
519
100
AcDbEntity
  8
BEMA_UNG
  0
POLYLINE
  5
51D
330
1F
100
AcDbEntity
  8
BEMA_UNG
 62
     7
100
AcDb2dPolyline
 66
     1
 10
0.0
 20
0.0
 30
0.0
  0
VERTEX
  5
51E
330
51D
100
AcDbEntity
  8
BEMA_UNG
 62
     7
100
AcDbVertex
100
AcDb2dVertex
 10
70.85498107822225
 20
-30.08087107364248
 30
0.0
  0
VERTEX
  5
51F
330
51D
100
AcDbEntity
  8
BEMA_UNG
 62
     7
100
AcDbVertex
100
AcDb2dVertex
 10
70.85498107822225
 20
-32.42319303928063
 30
0.0
  0
SEQEND
  5
520
330
51D
100
AcDbEntity
  8
BEMA_UNG
  0
POLYLINE
  5
521
330
1F
100
AcDbEntity
  8
BEMA_UNG
 62
     7
100
AcDb2dPolyline
 66
     1
 10
0.0
 20
0.0
 30
0.0
  0
VERTEX
  5
522
330
521
100
AcDbEntity
  8
BEMA_UNG
 62
     7
100
AcDbVertex
100
AcDb2dVertex
 10
70.90579627015218
 20
-30.08087107364248
 30
0.0
  0
VERTEX
  5
523
330
521
100
AcDbEntity
  8
BEMA_UNG
 62
     7
100
AcDbVertex
100
AcDb2dVertex
 10
70.90579627015218
 20
-32.80904398817234
 30
0.0
  0
SEQEND
  5
524
330
521
100
AcDbEntity
  8
BEMA_UNG
  0
POLYLINE
  5
525
330
1F
100
AcDbEntity
  8
BEMA_UNG
 62
     7
100
AcDb2dPolyline
 66
     1
 10
0.0
 20
0.0
 30
0.0
  0
VERTEX
  5
526
330
525
100
AcDbEntity
  8
BEMA_UNG
 62
     7
100
AcDbVertex
100
AcDb2dVertex
 10
70.95661146208212
 20
-30.08087107364248
 30
0.0
  0
VERTEX
  5
527
330
525
100
AcDbEntity
  8
BEMA_UNG
 62
     7
100
AcDbVertex
100
AcDb2dVertex
 10
70.95661146208212
 20
-33.19523944683985
 30
0.0
  0
SEQEND
  5
528
330
525
100
AcDbEntity
  8
BEMA_UNG
  0
POLYLINE
  5
529
330
1F
100
AcDbEntity
  8
BEMA_UNG
 62
     7
100
AcDb2dPolyline
 66
     1
 10
0.0
 20
0.0
 30
0.0
  0
VERTEX
  5
52A
330
529
100
AcDbEntity
  8
BEMA_UNG
 62
     7
100
AcDbVertex
100
AcDb2dVertex
 10
71.00742665401205
 20
-30.08087107364248
 30
0.0
  0
VERTEX
  5
52B
330
529
100
AcDbEntity
  8
BEMA_UNG
 62
     7
100
AcDbVertex
100
AcDb2dVertex
 10
71.00742665401205
 20
-33.58040137617996
 30
0.0
  0
SEQEND
  5
52C
330
529
100
AcDbEntity
  8
BEMA_UNG
  0
POLYLINE
  5
52D
330
1F
100
AcDbEntity
  8
BEMA_UNG
 62
     7
100
AcDb2dPolyline
 66
     1
 10
0.0
 20
0.0
 30
0.0
  0
VERTEX
  5
52E
330
52D
100
AcDbEntity
  8
BEMA_UNG
 62
     7
100
AcDbVertex
100
AcDb2dVertex
 10
55.93305690427489
 20
-8.141196639283216
 30
0.0
  0
VERTEX
  5
52F
330
52D
100
AcDbEntity
  8
BEMA_UNG
 62
     7
100
AcDbVertex
100
AcDb2dVertex
 10
55.93305690427489
 20
-46.85367401805476
 30
0.0
  0
SEQEND
  5
530
330
52D
100
AcDbEntity
  8
BEMA_UNG
  0
POLYLINE
  5
531
330
1F
100
AcDbEntity
  8
BEMA_UNG
 62
     7
100
AcDb2dPolyline
 66
     1
 10
0.0
 20
0.0
 30
0.0
  0
VERTEX
  5
532
330
531
100
AcDbEntity
  8
BEMA_UNG
 62
     7
100
AcDbVertex
100
AcDb2dVertex
 10
-0.0640788182980874
 20
-29.95099088816733
 30
0.0
  0
VERTEX
  5
533
330
531
100
AcDbEntity
  8
BEMA_UNG
 62
     7
100
AcDbVertex
100
AcDb2dVertex
 10
-0.0640788182980874
 20
-46.85367401805476
 30
0.0
  0
SEQEND
  5
534
330
531
100
AcDbEntity
  8
BEMA_UNG
  0
POLYLINE
  5
535
330
1F
100
AcDbEntity
  8
BEMA_UNG
 62
     7
100
AcDb2dPolyline
 66
     1
 10
0.0
 20
0.0
 30
0.0
  0
VERTEX
  5
536
330
535
100
AcDbEntity
  8
BEMA_UNG
 62
     7
100
AcDbVertex
100
AcDb2dVertex
 10
55.93305690427489
 20
-44.853794769558
 30
0.0
  0
VERTEX
  5
537
330
535
100
AcDbEntity
  8
BEMA_UNG
 62
     7
100
AcDbVertex
100
AcDb2dVertex
 10
-0.0640788182980874
 20
-44.853794769558
 30
0.0
  0
SEQEND
  5
538
330
535
100
AcDbEntity
  8
BEMA_UNG
  0
POLYLINE
  5
539
330
1F
100
AcDbEntity
  8
BEMA_UNG
 62
     7
100
AcDb2dPolyline
 66
     1
 10
0.0
 20
0.0
 30
0.0
  0
VERTEX
  5
53A
330
539
100
AcDbEntity
  8
BEMA_UNG
 62
     7
100
AcDbVertex
100
AcDb2dVertex
 10
55.93305690427489
 20
-44.853794769558
 30
0.0
  0
VERTEX
  5
53B
330
539
100
AcDbEntity
  8
BEMA_UNG
 62
     7
100
AcDbVertex
100
AcDb2dVertex
 10
52.43283758218582
 20
-44.39318519931852
 30
0.0
  0
VERTEX
  5
53C
330
539
100
AcDbEntity
  8
BEMA_UNG
 62
     7
100
AcDbVertex
100
AcDb2dVertex
 10
52.43283758218582
 20
-45.31405983002168
 30
0.0
  0
VERTEX
  5
53D
330
539
100
AcDbEntity
  8
BEMA_UNG
 62
     7
100
AcDbVertex
100
AcDb2dVertex
 10
55.93305690427489
 20
-44.853794769558
 30
0.0
  0
SEQEND
  5
53E
330
539
100
AcDbEntity
  8
BEMA_UNG
  0
POLYLINE
  5
53F
330
1F
100
AcDbEntity
  8
BEMA_UNG
 62
     7
100
AcDb2dPolyline
 66
     1
 10
0.0
 20
0.0
 30
0.0
  0
VERTEX
  5
540
330
53F
100
AcDbEntity
  8
BEMA_UNG
 62
     7
100
AcDbVertex
100
AcDb2dVertex
 10
52.43283758218582
 20
-44.39628578730068
 30
0.0
  0
VERTEX
  5
541
330
53F
100
AcDbEntity
  8
BEMA_UNG
 62
     7
100
AcDbVertex
100
AcDb2dVertex
 10
52.46039836424951
 20
-44.39628578730068
 30
0.0
  0
SEQEND
  5
542
330
53F
100
AcDbEntity
  8
BEMA_UNG
  0
POLYLINE
  5
543
330
1F
100
AcDbEntity
  8
BEMA_UNG
 62
     7
100
AcDb2dPolyline
 66
     1
 10
0.0
 20
0.0
 30
0.0
  0
VERTEX
  5
544
330
543
100
AcDbEntity
  8
BEMA_UNG
 62
     7
100
AcDbVertex
100
AcDb2dVertex
 10
52.43283758218582
 20
-44.39628578730068
 30
0.0
  0
VERTEX
  5
545
330
543
100
AcDbEntity
  8
BEMA_UNG
 62
     7
100
AcDbVertex
100
AcDb2dVertex
 10
52.46039836424951
 20
-44.39628578730068
 30
0.0
  0
SEQEND
  5
546
330
543
100
AcDbEntity
  8
BEMA_UNG
  0
POLYLINE
  5
547
330
1F
100
AcDbEntity
  8
BEMA_UNG
 62
     7
100
AcDb2dPolyline
 66
     1
 10
0.0
 20
0.0
 30
0.0
  0
VERTEX
  5
548
330
547
100
AcDbEntity
  8
BEMA_UNG
 62
     7
100
AcDbVertex
100
AcDb2dVertex
 10
52.43283758218582
 20
-44.44727323411852
 30
0.0
  0
VERTEX
  5
549
330
547
100
AcDbEntity
  8
BEMA_UNG
 62
     7
100
AcDbVertex
100
AcDb2dVertex
 10
52.84556029358963
 20
-44.44727323411852
 30
0.0
  0
SEQEND
  5
54A
330
547
100
AcDbEntity
  8
BEMA_UNG
  0
POLYLINE
  5
54B
330
1F
100
AcDbEntity
  8
BEMA_UNG
 62
     7
100
AcDb2dPolyline
 66
     1
 10
0.0
 20
0.0
 30
0.0
  0
VERTEX
  5
54C
330
54B
100
AcDbEntity
  8
BEMA_UNG
 62
     7
100
AcDbVertex
100
AcDb2dVertex
 10
52.43283758218582
 20
-44.49826068093635
 30
0.0
  0
VERTEX
  5
54D
330
54B
100
AcDbEntity
  8
BEMA_UNG
 62
     7
100
AcDbVertex
100
AcDb2dVertex
 10
53.23175575225713
 20
-44.49826068093635
 30
0.0
  0
SEQEND
  5
54E
330
54B
100
AcDbEntity
  8
BEMA_UNG
  0
POLYLINE
  5
54F
330
1F
100
AcDbEntity
  8
BEMA_UNG
 62
     7
100
AcDb2dPolyline
 66
     1
 10
0.0
 20
0.0
 30
0.0
  0
VERTEX
  5
550
330
54F
100
AcDbEntity
  8
BEMA_UNG
 62
     7
100
AcDbVertex
100
AcDb2dVertex
 10
52.43283758218582
 20
-44.54890361797839
 30
0.0
  0
VERTEX
  5
551
330
54F
100
AcDbEntity
  8
BEMA_UNG
 62
     7
100
AcDbVertex
100
AcDb2dVertex
 10
53.61743444626094
 20
-44.54890361797839
 30
0.0
  0
SEQEND
  5
552
330
54F
100
AcDbEntity
  8
BEMA_UNG
  0
POLYLINE
  5
553
330
1F
100
AcDbEntity
  8
BEMA_UNG
 62
     7
100
AcDb2dPolyline
 66
     1
 10
0.0
 20
0.0
 30
0.0
  0
VERTEX
  5
554
330
553
100
AcDbEntity
  8
BEMA_UNG
 62
     7
100
AcDbVertex
100
AcDb2dVertex
 10
52.43283758218582
 20
-44.59989106479622
 30
0.0
  0
VERTEX
  5
555
330
553
100
AcDbEntity
  8
BEMA_UNG
 62
     7
100
AcDbVertex
100
AcDb2dVertex
 10
54.00380215981635
 20
-44.59989106479622
 30
0.0
  0
SEQEND
  5
556
330
553
100
AcDbEntity
  8
BEMA_UNG
  0
POLYLINE
  5
557
330
1F
100
AcDbEntity
  8
BEMA_UNG
 62
     7
100
AcDb2dPolyline
 66
     1
 10
0.0
 20
0.0
 30
0.0
  0
VERTEX
  5
558
330
557
100
AcDbEntity
  8
BEMA_UNG
 62
     7
100
AcDbVertex
100
AcDb2dVertex
 10
52.43283758218582
 20
-44.65053400183826
 30
0.0
  0
VERTEX
  5
559
330
557
100
AcDbEntity
  8
BEMA_UNG
 62
     7
100
AcDbVertex
100
AcDb2dVertex
 10
54.38965310870805
 20
-44.65053400183826
 30
0.0
  0
SEQEND
  5
55A
330
557
100
AcDbEntity
  8
BEMA_UNG
  0
POLYLINE
  5
55B
330
1F
100
AcDbEntity
  8
BEMA_UNG
 62
     7
100
AcDb2dPolyline
 66
     1
 10
0.0
 20
0.0
 30
0.0
  0
VERTEX
  5
55C
330
55B
100
AcDbEntity
  8
BEMA_UNG
 62
     7
100
AcDbVertex
100
AcDb2dVertex
 10
52.43283758218582
 20
-44.7015214486561
 30
0.0
  0
VERTEX
  5
55D
330
55B
100
AcDbEntity
  8
BEMA_UNG
 62
     7
100
AcDbVertex
100
AcDb2dVertex
 10
54.77515954782397
 20
-44.7015214486561
 30
0.0
  0
SEQEND
  5
55E
330
55B
100
AcDbEntity
  8
BEMA_UNG
  0
POLYLINE
  5
55F
330
1F
100
AcDbEntity
  8
BEMA_UNG
 62
     7
100
AcDb2dPolyline
 66
     1
 10
0.0
 20
0.0
 30
0.0
  0
VERTEX
  5
560
330
55F
100
AcDbEntity
  8
BEMA_UNG
 62
     7
100
AcDbVertex
100
AcDb2dVertex
 10
52.43283758218582
 20
-44.75216438569813
 30
0.0
  0
VERTEX
  5
561
330
55F
100
AcDbEntity
  8
BEMA_UNG
 62
     7
100
AcDbVertex
100
AcDb2dVertex
 10
55.16083824182778
 20
-44.75216438569813
 30
0.0
  0
SEQEND
  5
562
330
55F
100
AcDbEntity
  8
BEMA_UNG
  0
POLYLINE
  5
563
330
1F
100
AcDbEntity
  8
BEMA_UNG
 62
     7
100
AcDb2dPolyline
 66
     1
 10
0.0
 20
0.0
 30
0.0
  0
VERTEX
  5
564
330
563
100
AcDbEntity
  8
BEMA_UNG
 62
     7
100
AcDbVertex
100
AcDb2dVertex
 10
52.43283758218582
 20
-44.80315183251597
 30
0.0
  0
VERTEX
  5
565
330
563
100
AcDbEntity
  8
BEMA_UNG
 62
     7
100
AcDbVertex
100
AcDb2dVertex
 10
55.54720595538318
 20
-44.80315183251597
 30
0.0
  0
SEQEND
  5
566
330
563
100
AcDbEntity
  8
BEMA_UNG
  0
POLYLINE
  5
567
330
1F
100
AcDbEntity
  8
BEMA_UNG
 62
     7
100
AcDb2dPolyline
 66
     1
 10
0.0
 20
0.0
 30
0.0
  0
VERTEX
  5
568
330
567
100
AcDbEntity
  8
BEMA_UNG
 62
     7
100
AcDbVertex
100
AcDb2dVertex
 10
52.43283758218582
 20
-44.853794769558
 30
0.0
  0
VERTEX
  5
569
330
567
100
AcDbEntity
  8
BEMA_UNG
 62
     7
100
AcDbVertex
100
AcDb2dVertex
 10
55.93305690427489
 20
-44.853794769558
 30
0.0
  0
SEQEND
  5
56A
330
567
100
AcDbEntity
  8
BEMA_UNG
  0
POLYLINE
  5
56B
330
1F
100
AcDbEntity
  8
BEMA_UNG
 62
     7
100
AcDb2dPolyline
 66
     1
 10
0.0
 20
0.0
 30
0.0
  0
VERTEX
  5
56C
330
56B
100
AcDbEntity
  8
BEMA_UNG
 62
     7
100
AcDbVertex
100
AcDb2dVertex
 10
52.43283758218582
 20
-45.31061473226372
 30
0.0
  0
VERTEX
  5
56D
330
56B
100
AcDbEntity
  8
BEMA_UNG
 62
     7
100
AcDbVertex
100
AcDb2dVertex
 10
52.46039836424951
 20
-45.31061473226372
 30
0.0
  0
SEQEND
  5
56E
330
56B
100
AcDbEntity
  8
BEMA_UNG
  0
POLYLINE
  5
56F
330
1F
100
AcDbEntity
  8
BEMA_UNG
 62
     7
100
AcDb2dPolyline
 66
     1
 10
0.0
 20
0.0
 30
0.0
  0
VERTEX
  5
570
330
56F
100
AcDbEntity
  8
BEMA_UNG
 62
     7
100
AcDbVertex
100
AcDb2dVertex
 10
52.43283758218582
 20
-45.31061473226372
 30
0.0
  0
VERTEX
  5
571
330
56F
100
AcDbEntity
  8
BEMA_UNG
 62
     7
100
AcDbVertex
100
AcDb2dVertex
 10
52.46039836424951
 20
-45.31061473226372
 30
0.0
  0
SEQEND
  5
572
330
56F
100
AcDbEntity
  8
BEMA_UNG
  0
POLYLINE
  5
573
330
1F
100
AcDbEntity
  8
BEMA_UNG
 62
     7
100
AcDb2dPolyline
 66
     1
 10
0.0
 20
0.0
 30
0.0
  0
VERTEX
  5
574
330
573
100
AcDbEntity
  8
BEMA_UNG
 62
     7
100
AcDbVertex
100
AcDb2dVertex
 10
52.43283758218582
 20
-45.25997179522168
 30
0.0
  0
VERTEX
  5
575
330
573
100
AcDbEntity
  8
BEMA_UNG
 62
     7
100
AcDbVertex
100
AcDb2dVertex
 10
52.84556029358963
 20
-45.25997179522168
 30
0.0
  0
SEQEND
  5
576
330
573
100
AcDbEntity
  8
BEMA_UNG
  0
POLYLINE
  5
577
330
1F
100
AcDbEntity
  8
BEMA_UNG
 62
     7
100
AcDb2dPolyline
 66
     1
 10
0.0
 20
0.0
 30
0.0
  0
VERTEX
  5
578
330
577
100
AcDbEntity
  8
BEMA_UNG
 62
     7
100
AcDbVertex
100
AcDb2dVertex
 10
52.43283758218582
 20
-45.20898434840385
 30
0.0
  0
VERTEX
  5
579
330
577
100
AcDbEntity
  8
BEMA_UNG
 62
     7
100
AcDbVertex
100
AcDb2dVertex
 10
53.23175575225713
 20
-45.20898434840385
 30
0.0
  0
SEQEND
  5
57A
330
577
100
AcDbEntity
  8
BEMA_UNG
  0
POLYLINE
  5
57B
330
1F
100
AcDbEntity
  8
BEMA_UNG
 62
     7
100
AcDb2dPolyline
 66
     1
 10
0.0
 20
0.0
 30
0.0
  0
VERTEX
  5
57C
330
57B
100
AcDbEntity
  8
BEMA_UNG
 62
     7
100
AcDbVertex
100
AcDb2dVertex
 10
52.43283758218582
 20
-45.15834141136181
 30
0.0
  0
VERTEX
  5
57D
330
57B
100
AcDbEntity
  8
BEMA_UNG
 62
     7
100
AcDbVertex
100
AcDb2dVertex
 10
53.61743444626094
 20
-45.15834141136181
 30
0.0
  0
SEQEND
  5
57E
330
57B
100
AcDbEntity
  8
BEMA_UNG
  0
POLYLINE
  5
57F
330
1F
100
AcDbEntity
  8
BEMA_UNG
 62
     7
100
AcDb2dPolyline
 66
     1
 10
0.0
 20
0.0
 30
0.0
  0
VERTEX
  5
580
330
57F
100
AcDbEntity
  8
BEMA_UNG
 62
     7
100
AcDbVertex
100
AcDb2dVertex
 10
52.43283758218582
 20
-45.10735396454398
 30
0.0
  0
VERTEX
  5
581
330
57F
100
AcDbEntity
  8
BEMA_UNG
 62
     7
100
AcDbVertex
100
AcDb2dVertex
 10
54.00380215981635
 20
-45.10735396454398
 30
0.0
  0
SEQEND
  5
582
330
57F
100
AcDbEntity
  8
BEMA_UNG
  0
POLYLINE
  5
583
330
1F
100
AcDbEntity
  8
BEMA_UNG
 62
     7
100
AcDb2dPolyline
 66
     1
 10
0.0
 20
0.0
 30
0.0
  0
VERTEX
  5
584
330
583
100
AcDbEntity
  8
BEMA_UNG
 62
     7
100
AcDbVertex
100
AcDb2dVertex
 10
52.43283758218582
 20
-45.05671102750194
 30
0.0
  0
VERTEX
  5
585
330
583
100
AcDbEntity
  8
BEMA_UNG
 62
     7
100
AcDbVertex
100
AcDb2dVertex
 10
54.38965310870805
 20
-45.05671102750194
 30
0.0
  0
SEQEND
  5
586
330
583
100
AcDbEntity
  8
BEMA_UNG
  0
POLYLINE
  5
587
330
1F
100
AcDbEntity
  8
BEMA_UNG
 62
     7
100
AcDb2dPolyline
 66
     1
 10
0.0
 20
0.0
 30
0.0
  0
VERTEX
  5
588
330
587
100
AcDbEntity
  8
BEMA_UNG
 62
     7
100
AcDbVertex
100
AcDb2dVertex
 10
52.43283758218582
 20
-45.00572358068411
 30
0.0
  0
VERTEX
  5
589
330
587
100
AcDbEntity
  8
BEMA_UNG
 62
     7
100
AcDbVertex
100
AcDb2dVertex
 10
54.77515954782397
 20
-45.00572358068411
 30
0.0
  0
SEQEND
  5
58A
330
587
100
AcDbEntity
  8
BEMA_UNG
  0
POLYLINE
  5
58B
330
1F
100
AcDbEntity
  8
BEMA_UNG
 62
     7
100
AcDb2dPolyline
 66
     1
 10
0.0
 20
0.0
 30
0.0
  0
VERTEX
  5
58C
330
58B
100
AcDbEntity
  8
BEMA_UNG
 62
     7
100
AcDbVertex
100
AcDb2dVertex
 10
52.43283758218582
 20
-44.95542515341787
 30
0.0
  0
VERTEX
  5
58D
330
58B
100
AcDbEntity
  8
BEMA_UNG
 62
     7
100
AcDbVertex
100
AcDb2dVertex
 10
55.16083824182778
 20
-44.95542515341787
 30
0.0
  0
SEQEND
  5
58E
330
58B
100
AcDbEntity
  8
BEMA_UNG
  0
POLYLINE
  5
58F
330
1F
100
AcDbEntity
  8
BEMA_UNG
 62
     7
100
AcDb2dPolyline
 66
     1
 10
0.0
 20
0.0
 30
0.0
  0
VERTEX
  5
590
330
58F
100
AcDbEntity
  8
BEMA_UNG
 62
     7
100
AcDbVertex
100
AcDb2dVertex
 10
52.43283758218582
 20
-44.90443770660004
 30
0.0
  0
VERTEX
  5
591
330
58F
100
AcDbEntity
  8
BEMA_UNG
 62
     7
100
AcDbVertex
100
AcDb2dVertex
 10
55.54720595538318
 20
-44.90443770660004
 30
0.0
  0
SEQEND
  5
592
330
58F
100
AcDbEntity
  8
BEMA_UNG
  0
POLYLINE
  5
593
330
1F
100
AcDbEntity
  8
BEMA_UNG
 62
     7
100
AcDb2dPolyline
 66
     1
 10
0.0
 20
0.0
 30
0.0
  0
VERTEX
  5
594
330
593
100
AcDbEntity
  8
BEMA_UNG
 62
     7
100
AcDbVertex
100
AcDb2dVertex
 10
52.43283758218582
 20
-44.853794769558
 30
0.0
  0
VERTEX
  5
595
330
593
100
AcDbEntity
  8
BEMA_UNG
 62
     7
100
AcDbVertex
100
AcDb2dVertex
 10
55.93305690427489
 20
-44.853794769558
 30
0.0
  0
SEQEND
  5
596
330
593
100
AcDbEntity
  8
BEMA_UNG
  0
POLYLINE
  5
597
330
1F
100
AcDbEntity
  8
BEMA_UNG
 62
     7
100
AcDb2dPolyline
 66
     1
 10
0.0
 20
0.0
 30
0.0
  0
VERTEX
  5
598
330
597
100
AcDbEntity
  8
BEMA_UNG
 62
     7
100
AcDbVertex
100
AcDb2dVertex
 10
-0.0640788182980874
 20
-44.853794769558
 30
0.0
  0
VERTEX
  5
599
330
597
100
AcDbEntity
  8
BEMA_UNG
 62
     7
100
AcDbVertex
100
AcDb2dVertex
 10
3.435795994015192
 20
-45.31405983002168
 30
0.0
  0
VERTEX
  5
59A
330
597
100
AcDbEntity
  8
BEMA_UNG
 62
     7
100
AcDbVertex
100
AcDb2dVertex
 10
3.435795994015192
 20
-44.39318519931852
 30
0.0
  0
VERTEX
  5
59B
330
597
100
AcDbEntity
  8
BEMA_UNG
 62
     7
100
AcDbVertex
100
AcDb2dVertex
 10
-0.0640788182980874
 20
-44.853794769558
 30
0.0
  0
SEQEND
  5
59C
330
597
100
AcDbEntity
  8
BEMA_UNG
  0
POLYLINE
  5
59D
330
1F
100
AcDbEntity
  8
BEMA_UNG
 62
     7
100
AcDb2dPolyline
 66
     1
 10
0.0
 20
0.0
 30
0.0
  0
VERTEX
  5
59E
330
59D
100
AcDbEntity
  8
BEMA_UNG
 62
     7
100
AcDbVertex
100
AcDb2dVertex
 10
3.435795994015192
 20
-45.31061473226372
 30
0.0
  0
VERTEX
  5
59F
330
59D
100
AcDbEntity
  8
BEMA_UNG
 62
     7
100
AcDbVertex
100
AcDb2dVertex
 10
3.408579721727294
 20
-45.31061473226372
 30
0.0
  0
SEQEND
  5
5A0
330
59D
100
AcDbEntity
  8
BEMA_UNG
  0
POLYLINE
  5
5A1
330
1F
100
AcDbEntity
  8
BEMA_UNG
 62
     7
100
AcDb2dPolyline
 66
     1
 10
0.0
 20
0.0
 30
0.0
  0
VERTEX
  5
5A2
330
5A1
100
AcDbEntity
  8
BEMA_UNG
 62
     7
100
AcDbVertex
100
AcDb2dVertex
 10
3.435795994015192
 20
-45.31061473226372
 30
0.0
  0
VERTEX
  5
5A3
330
5A1
100
AcDbEntity
  8
BEMA_UNG
 62
     7
100
AcDbVertex
100
AcDb2dVertex
 10
3.408579721727294
 20
-45.31061473226372
 30
0.0
  0
SEQEND
  5
5A4
330
5A1
100
AcDbEntity
  8
BEMA_UNG
  0
POLYLINE
  5
5A5
330
1F
100
AcDbEntity
  8
BEMA_UNG
 62
     7
100
AcDb2dPolyline
 66
     1
 10
0.0
 20
0.0
 30
0.0
  0
VERTEX
  5
5A6
330
5A5
100
AcDbEntity
  8
BEMA_UNG
 62
     7
100
AcDbVertex
100
AcDb2dVertex
 10
3.435795994015192
 20
-45.25997179522168
 30
0.0
  0
VERTEX
  5
5A7
330
5A5
100
AcDbEntity
  8
BEMA_UNG
 62
     7
100
AcDbVertex
100
AcDb2dVertex
 10
3.022728772835586
 20
-45.25997179522168
 30
0.0
  0
SEQEND
  5
5A8
330
5A5
100
AcDbEntity
  8
BEMA_UNG
  0
POLYLINE
  5
5A9
330
1F
100
AcDbEntity
  8
BEMA_UNG
 62
     7
100
AcDb2dPolyline
 66
     1
 10
0.0
 20
0.0
 30
0.0
  0
VERTEX
  5
5AA
330
5A9
100
AcDbEntity
  8
BEMA_UNG
 62
     7
100
AcDbVertex
100
AcDb2dVertex
 10
3.435795994015192
 20
-45.20898434840385
 30
0.0
  0
VERTEX
  5
5AB
330
5A9
100
AcDbEntity
  8
BEMA_UNG
 62
     7
100
AcDbVertex
100
AcDb2dVertex
 10
2.637050078831774
 20
-45.20898434840385
 30
0.0
  0
SEQEND
  5
5AC
330
5A9
100
AcDbEntity
  8
BEMA_UNG
  0
POLYLINE
  5
5AD
330
1F
100
AcDbEntity
  8
BEMA_UNG
 62
     7
100
AcDb2dPolyline
 66
     1
 10
0.0
 20
0.0
 30
0.0
  0
VERTEX
  5
5AE
330
5AD
100
AcDbEntity
  8
BEMA_UNG
 62
     7
100
AcDbVertex
100
AcDb2dVertex
 10
3.435795994015192
 20
-45.15834141136181
 30
0.0
  0
VERTEX
  5
5AF
330
5AD
100
AcDbEntity
  8
BEMA_UNG
 62
     7
100
AcDbVertex
100
AcDb2dVertex
 10
2.250854620164269
 20
-45.15834141136181
 30
0.0
  0
SEQEND
  5
5B0
330
5AD
100
AcDbEntity
  8
BEMA_UNG
  0
POLYLINE
  5
5B1
330
1F
100
AcDbEntity
  8
BEMA_UNG
 62
     7
100
AcDb2dPolyline
 66
     1
 10
0.0
 20
0.0
 30
0.0
  0
VERTEX
  5
5B2
330
5B1
100
AcDbEntity
  8
BEMA_UNG
 62
     7
100
AcDbVertex
100
AcDb2dVertex
 10
3.435795994015192
 20
-45.10735396454398
 30
0.0
  0
VERTEX
  5
5B3
330
5B1
100
AcDbEntity
  8
BEMA_UNG
 62
     7
100
AcDbVertex
100
AcDb2dVertex
 10
1.865175926160458
 20
-45.10735396454398
 30
0.0
  0
SEQEND
  5
5B4
330
5B1
100
AcDbEntity
  8
BEMA_UNG
  0
POLYLINE
  5
5B5
330
1F
100
AcDbEntity
  8
BEMA_UNG
 62
     7
100
AcDb2dPolyline
 66
     1
 10
0.0
 20
0.0
 30
0.0
  0
VERTEX
  5
5B6
330
5B5
100
AcDbEntity
  8
BEMA_UNG
 62
     7
100
AcDbVertex
100
AcDb2dVertex
 10
3.435795994015192
 20
-45.05671102750194
 30
0.0
  0
VERTEX
  5
5B7
330
5B5
100
AcDbEntity
  8
BEMA_UNG
 62
     7
100
AcDbVertex
100
AcDb2dVertex
 10
1.479324977268749
 20
-45.05671102750194
 30
0.0
  0
SEQEND
  5
5B8
330
5B5
100
AcDbEntity
  8
BEMA_UNG
  0
POLYLINE
  5
5B9
330
1F
100
AcDbEntity
  8
BEMA_UNG
 62
     7
100
AcDb2dPolyline
 66
     1
 10
0.0
 20
0.0
 30
0.0
  0
VERTEX
  5
5BA
330
5B9
100
AcDbEntity
  8
BEMA_UNG
 62
     7
100
AcDbVertex
100
AcDb2dVertex
 10
3.435795994015192
 20
-45.00572358068411
 30
0.0
  0
VERTEX
  5
5BB
330
5B9
100
AcDbEntity
  8
BEMA_UNG
 62
     7
100
AcDbVertex
100
AcDb2dVertex
 10
1.093646283264938
 20
-45.00572358068411
 30
0.0
  0
SEQEND
  5
5BC
330
5B9
100
AcDbEntity
  8
BEMA_UNG
  0
POLYLINE
  5
5BD
330
1F
100
AcDbEntity
  8
BEMA_UNG
 62
     7
100
AcDb2dPolyline
 66
     1
 10
0.0
 20
0.0
 30
0.0
  0
VERTEX
  5
5BE
330
5BD
100
AcDbEntity
  8
BEMA_UNG
 62
     7
100
AcDbVertex
100
AcDb2dVertex
 10
3.435795994015192
 20
-44.95542515341787
 30
0.0
  0
VERTEX
  5
5BF
330
5BD
100
AcDbEntity
  8
BEMA_UNG
 62
     7
100
AcDbVertex
100
AcDb2dVertex
 10
0.7074508245974327
 20
-44.95542515341787
 30
0.0
  0
SEQEND
  5
5C0
330
5BD
100
AcDbEntity
  8
BEMA_UNG
  0
POLYLINE
  5
5C1
330
1F
100
AcDbEntity
  8
BEMA_UNG
 62
     7
100
AcDb2dPolyline
 66
     1
 10
0.0
 20
0.0
 30
0.0
  0
VERTEX
  5
5C2
330
5C1
100
AcDbEntity
  8
BEMA_UNG
 62
     7
100
AcDbVertex
100
AcDb2dVertex
 10
3.435795994015192
 20
-44.90443770660004
 30
0.0
  0
VERTEX
  5
5C3
330
5C1
100
AcDbEntity
  8
BEMA_UNG
 62
     7
100
AcDbVertex
100
AcDb2dVertex
 10
0.3217721305936217
 20
-44.90443770660004
 30
0.0
  0
SEQEND
  5
5C4
330
5C1
100
AcDbEntity
  8
BEMA_UNG
  0
POLYLINE
  5
5C5
330
1F
100
AcDbEntity
  8
BEMA_UNG
 62
     7
100
AcDb2dPolyline
 66
     1
 10
0.0
 20
0.0
 30
0.0
  0
VERTEX
  5
5C6
330
5C5
100
AcDbEntity
  8
BEMA_UNG
 62
     7
100
AcDbVertex
100
AcDb2dVertex
 10
3.435795994015192
 20
-44.853794769558
 30
0.0
  0
VERTEX
  5
5C7
330
5C5
100
AcDbEntity
  8
BEMA_UNG
 62
     7
100
AcDbVertex
100
AcDb2dVertex
 10
-0.0640788182980874
 20
-44.853794769558
 30
0.0
  0
SEQEND
  5
5C8
330
5C5
100
AcDbEntity
  8
BEMA_UNG
  0
POLYLINE
  5
5C9
330
1F
100
AcDbEntity
  8
BEMA_UNG
 62
     7
100
AcDb2dPolyline
 66
     1
 10
0.0
 20
0.0
 30
0.0
  0
VERTEX
  5
5CA
330
5C9
100
AcDbEntity
  8
BEMA_UNG
 62
     7
100
AcDbVertex
100
AcDb2dVertex
 10
3.435795994015192
 20
-44.39628578730068
 30
0.0
  0
VERTEX
  5
5CB
330
5C9
100
AcDbEntity
  8
BEMA_UNG
 62
     7
100
AcDbVertex
100
AcDb2dVertex
 10
3.408579721727294
 20
-44.39628578730068
 30
0.0
  0
SEQEND
  5
5CC
330
5C9
100
AcDbEntity
  8
BEMA_UNG
  0
POLYLINE
  5
5CD
330
1F
100
AcDbEntity
  8
BEMA_UNG
 62
     7
100
AcDb2dPolyline
 66
     1
 10
0.0
 20
0.0
 30
0.0
  0
VERTEX
  5
5CE
330
5CD
100
AcDbEntity
  8
BEMA_UNG
 62
     7
100
AcDbVertex
100
AcDb2dVertex
 10
3.435795994015192
 20
-44.39628578730068
 30
0.0
  0
VERTEX
  5
5CF
330
5CD
100
AcDbEntity
  8
BEMA_UNG
 62
     7
100
AcDbVertex
100
AcDb2dVertex
 10
3.408579721727294
 20
-44.39628578730068
 30
0.0
  0
SEQEND
  5
5D0
330
5CD
100
AcDbEntity
  8
BEMA_UNG
  0
POLYLINE
  5
5D1
330
1F
100
AcDbEntity
  8
BEMA_UNG
 62
     7
100
AcDb2dPolyline
 66
     1
 10
0.0
 20
0.0
 30
0.0
  0
VERTEX
  5
5D2
330
5D1
100
AcDbEntity
  8
BEMA_UNG
 62
     7
100
AcDbVertex
100
AcDb2dVertex
 10
3.435795994015192
 20
-44.44727323411852
 30
0.0
  0
VERTEX
  5
5D3
330
5D1
100
AcDbEntity
  8
BEMA_UNG
 62
     7
100
AcDbVertex
100
AcDb2dVertex
 10
3.022728772835586
 20
-44.44727323411852
 30
0.0
  0
SEQEND
  5
5D4
330
5D1
100
AcDbEntity
  8
BEMA_UNG
  0
POLYLINE
  5
5D5
330
1F
100
AcDbEntity
  8
BEMA_UNG
 62
     7
100
AcDb2dPolyline
 66
     1
 10
0.0
 20
0.0
 30
0.0
  0
VERTEX
  5
5D6
330
5D5
100
AcDbEntity
  8
BEMA_UNG
 62
     7
100
AcDbVertex
100
AcDb2dVertex
 10
3.435795994015192
 20
-44.49826068093635
 30
0.0
  0
VERTEX
  5
5D7
330
5D5
100
AcDbEntity
  8
BEMA_UNG
 62
     7
100
AcDbVertex
100
AcDb2dVertex
 10
2.637050078831774
 20
-44.49826068093635
 30
0.0
  0
SEQEND
  5
5D8
330
5D5
100
AcDbEntity
  8
BEMA_UNG
  0
POLYLINE
  5
5D9
330
1F
100
AcDbEntity
  8
BEMA_UNG
 62
     7
100
AcDb2dPolyline
 66
     1
 10
0.0
 20
0.0
 30
0.0
  0
VERTEX
  5
5DA
330
5D9
100
AcDbEntity
  8
BEMA_UNG
 62
     7
100
AcDbVertex
100
AcDb2dVertex
 10
3.435795994015192
 20
-44.54890361797839
 30
0.0
  0
VERTEX
  5
5DB
330
5D9
100
AcDbEntity
  8
BEMA_UNG
 62
     7
100
AcDbVertex
100
AcDb2dVertex
 10
2.250854620164269
 20
-44.54890361797839
 30
0.0
  0
SEQEND
  5
5DC
330
5D9
100
AcDbEntity
  8
BEMA_UNG
  0
POLYLINE
  5
5DD
330
1F
100
AcDbEntity
  8
BEMA_UNG
 62
     7
100
AcDb2dPolyline
 66
     1
 10
0.0
 20
0.0
 30
0.0
  0
VERTEX
  5
5DE
330
5DD
100
AcDbEntity
  8
BEMA_UNG
 62
     7
100
AcDbVertex
100
AcDb2dVertex
 10
3.435795994015192
 20
-44.59989106479622
 30
0.0
  0
VERTEX
  5
5DF
330
5DD
100
AcDbEntity
  8
BEMA_UNG
 62
     7
100
AcDbVertex
100
AcDb2dVertex
 10
1.865175926160458
 20
-44.59989106479622
 30
0.0
  0
SEQEND
  5
5E0
330
5DD
100
AcDbEntity
  8
BEMA_UNG
  0
POLYLINE
  5
5E1
330
1F
100
AcDbEntity
  8
BEMA_UNG
 62
     7
100
AcDb2dPolyline
 66
     1
 10
0.0
 20
0.0
 30
0.0
  0
VERTEX
  5
5E2
330
5E1
100
AcDbEntity
  8
BEMA_UNG
 62
     7
100
AcDbVertex
100
AcDb2dVertex
 10
3.435795994015192
 20
-44.65053400183826
 30
0.0
  0
VERTEX
  5
5E3
330
5E1
100
AcDbEntity
  8
BEMA_UNG
 62
     7
100
AcDbVertex
100
AcDb2dVertex
 10
1.479324977268749
 20
-44.65053400183826
 30
0.0
  0
SEQEND
  5
5E4
330
5E1
100
AcDbEntity
  8
BEMA_UNG
  0
POLYLINE
  5
5E5
330
1F
100
AcDbEntity
  8
BEMA_UNG
 62
     7
100
AcDb2dPolyline
 66
     1
 10
0.0
 20
0.0
 30
0.0
  0
VERTEX
  5
5E6
330
5E5
100
AcDbEntity
  8
BEMA_UNG
 62
     7
100
AcDbVertex
100
AcDb2dVertex
 10
3.435795994015192
 20
-44.7015214486561
 30
0.0
  0
VERTEX
  5
5E7
330
5E5
100
AcDbEntity
  8
BEMA_UNG
 62
     7
100
AcDbVertex
100
AcDb2dVertex
 10
1.093646283264938
 20
-44.7015214486561
 30
0.0
  0
SEQEND
  5
5E8
330
5E5
100
AcDbEntity
  8
BEMA_UNG
  0
POLYLINE
  5
5E9
330
1F
100
AcDbEntity
  8
BEMA_UNG
 62
     7
100
AcDb2dPolyline
 66
     1
 10
0.0
 20
0.0
 30
0.0
  0
VERTEX
  5
5EA
330
5E9
100
AcDbEntity
  8
BEMA_UNG
 62
     7
100
AcDbVertex
100
AcDb2dVertex
 10
3.435795994015192
 20
-44.75216438569813
 30
0.0
  0
VERTEX
  5
5EB
330
5E9
100
AcDbEntity
  8
BEMA_UNG
 62
     7
100
AcDbVertex
100
AcDb2dVertex
 10
0.7074508245974327
 20
-44.75216438569813
 30
0.0
  0
SEQEND
  5
5EC
330
5E9
100
AcDbEntity
  8
BEMA_UNG
  0
POLYLINE
  5
5ED
330
1F
100
AcDbEntity
  8
BEMA_UNG
 62
     7
100
AcDb2dPolyline
 66
     1
 10
0.0
 20
0.0
 30
0.0
  0
VERTEX
  5
5EE
330
5ED
100
AcDbEntity
  8
BEMA_UNG
 62
     7
100
AcDbVertex
100
AcDb2dVertex
 10
3.435795994015192
 20
-44.80315183251597
 30
0.0
  0
VERTEX
  5
5EF
330
5ED
100
AcDbEntity
  8
BEMA_UNG
 62
     7
100
AcDbVertex
100
AcDb2dVertex
 10
0.3217721305936217
 20
-44.80315183251597
 30
0.0
  0
SEQEND
  5
5F0
330
5ED
100
AcDbEntity
  8
BEMA_UNG
  0
POLYLINE
  5
5F1
330
1F
100
AcDbEntity
  8
BEMA_UNG
 62
     7
100
AcDb2dPolyline
 66
     1
 10
0.0
 20
0.0
 30
0.0
  0
VERTEX
  5
5F2
330
5F1
100
AcDbEntity
  8
BEMA_UNG
 62
     7
100
AcDbVertex
100
AcDb2dVertex
 10
3.435795994015192
 20
-44.853794769558
 30
0.0
  0
VERTEX
  5
5F3
330
5F1
100
AcDbEntity
  8
BEMA_UNG
 62
     7
100
AcDbVertex
100
AcDb2dVertex
 10
-0.0640788182980874
 20
-44.853794769558
 30
0.0
  0
SEQEND
  5
5F4
330
5F1
100
AcDbEntity
  8
BEMA_UNG
  0
POLYLINE
  5
5F5
330
1F
100
AcDbEntity
  8
BEMA_UNG
 62
     7
100
AcDb2dPolyline
 66
     1
 10
0.0
 20
0.0
 30
0.0
  0
VERTEX
  5
5F6
330
5F5
100
AcDbEntity
  8
BEMA_UNG
 62
     7
100
AcDbVertex
100
AcDb2dVertex
 10
36.93592659243465
 20
-1.58086923368467
 30
0.0
  0
VERTEX
  5
5F7
330
5F5
100
AcDbEntity
  8
BEMA_UNG
 62
     7
100
AcDbVertex
100
AcDb2dVertex
 10
36.93592659243465
 20
11.97093956192133
 30
0.0
  0
SEQEND
  5
5F8
330
5F5
100
AcDbEntity
  8
BEMA_UNG
  0
POLYLINE
  5
5F9
330
1F
100
AcDbEntity
  8
BEMA_UNG
 62
     7
100
AcDb2dPolyline
 66
     1
 10
0.0
 20
0.0
 30
0.0
  0
VERTEX
  5
5FA
330
5F9
100
AcDbEntity
  8
BEMA_UNG
 62
     7
100
AcDbVertex
100
AcDb2dVertex
 10
-0.0640788182980874
 20
-5.210279721697309
 30
0.0
  0
VERTEX
  5
5FB
330
5F9
100
AcDbEntity
  8
BEMA_UNG
 62
     7
100
AcDbVertex
100
AcDb2dVertex
 10
-0.0640788182980874
 20
11.97093956192133
 30
0.0
  0
SEQEND
  5
5FC
330
5F9
100
AcDbEntity
  8
BEMA_UNG
  0
POLYLINE
  5
5FD
330
1F
100
AcDbEntity
  8
BEMA_UNG
 62
     7
100
AcDb2dPolyline
 66
     1
 10
0.0
 20
0.0
 30
0.0
  0
VERTEX
  5
5FE
330
5FD
100
AcDbEntity
  8
BEMA_UNG
 62
     7
100
AcDbVertex
100
AcDb2dVertex
 10
36.93592659243465
 20
9.971060313424566
 30
0.0
  0
VERTEX
  5
5FF
330
5FD
100
AcDbEntity
  8
BEMA_UNG
 62
     7
100
AcDbVertex
100
AcDb2dVertex
 10
-0.0640788182980874
 20
9.971060313424566
 30
0.0
  0
SEQEND
  5
600
330
5FD
100
AcDbEntity
  8
BEMA_UNG
  0
POLYLINE
  5
601
330
1F
100
AcDbEntity
  8
BEMA_UNG
 62
     7
100
AcDb2dPolyline
 66
     1
 10
0.0
 20
0.0
 30
0.0
  0
VERTEX
  5
602
330
601
100
AcDbEntity
  8
BEMA_UNG
 62
     7
100
AcDbVertex
100
AcDb2dVertex
 10
36.93592659243465
 20
9.971060313424566
 30
0.0
  0
VERTEX
  5
603
330
601
100
AcDbEntity
  8
BEMA_UNG
 62
     7
100
AcDbVertex
100
AcDb2dVertex
 10
33.43570727034557
 20
10.43132537388825
 30
0.0
  0
VERTEX
  5
604
330
601
100
AcDbEntity
  8
BEMA_UNG
 62
     7
100
AcDbVertex
100
AcDb2dVertex
 10
33.43570727034557
 20
9.509933978521394
 30
0.0
  0
VERTEX
  5
605
330
601
100
AcDbEntity
  8
BEMA_UNG
 62
     7
100
AcDbVertex
100
AcDb2dVertex
 10
36.93592659243465
 20
9.971060313424566
 30
0.0
  0
SEQEND
  5
606
330
601
100
AcDbEntity
  8
BEMA_UNG
  0
POLYLINE
  5
607
330
1F
100
AcDbEntity
  8
BEMA_UNG
 62
     7
100
AcDb2dPolyline
 66
     1
 10
0.0
 20
0.0
 30
0.0
  0
VERTEX
  5
608
330
607
100
AcDbEntity
  8
BEMA_UNG
 62
     7
100
AcDbVertex
100
AcDb2dVertex
 10
33.43570727034557
 20
10.42788027613028
 30
0.0
  0
VERTEX
  5
609
330
607
100
AcDbEntity
  8
BEMA_UNG
 62
     7
100
AcDbVertex
100
AcDb2dVertex
 10
33.46292354263348
 20
10.42788027613028
 30
0.0
  0
SEQEND
  5
60A
330
607
100
AcDbEntity
  8
BEMA_UNG
  0
POLYLINE
  5
60B
330
1F
100
AcDbEntity
  8
BEMA_UNG
 62
     7
100
AcDb2dPolyline
 66
     1
 10
0.0
 20
0.0
 30
0.0
  0
VERTEX
  5
60C
330
60B
100
AcDbEntity
  8
BEMA_UNG
 62
     7
100
AcDbVertex
100
AcDb2dVertex
 10
33.43570727034557
 20
10.42788027613028
 30
0.0
  0
VERTEX
  5
60D
330
60B
100
AcDbEntity
  8
BEMA_UNG
 62
     7
100
AcDbVertex
100
AcDb2dVertex
 10
33.46292354263348
 20
10.42788027613028
 30
0.0
  0
SEQEND
  5
60E
330
60B
100
AcDbEntity
  8
BEMA_UNG
  0
POLYLINE
  5
60F
330
1F
100
AcDbEntity
  8
BEMA_UNG
 62
     7
100
AcDb2dPolyline
 66
     1
 10
0.0
 20
0.0
 30
0.0
  0
VERTEX
  5
610
330
60F
100
AcDbEntity
  8
BEMA_UNG
 62
     7
100
AcDbVertex
100
AcDb2dVertex
 10
33.43570727034557
 20
10.37706508420035
 30
0.0
  0
VERTEX
  5
611
330
60F
100
AcDbEntity
  8
BEMA_UNG
 62
     7
100
AcDbVertex
100
AcDb2dVertex
 10
33.84911900130098
 20
10.37706508420035
 30
0.0
  0
SEQEND
  5
612
330
60F
100
AcDbEntity
  8
BEMA_UNG
  0
POLYLINE
  5
613
330
1F
100
AcDbEntity
  8
BEMA_UNG
 62
     7
100
AcDb2dPolyline
 66
     1
 10
0.0
 20
0.0
 30
0.0
  0
VERTEX
  5
614
330
613
100
AcDbEntity
  8
BEMA_UNG
 62
     7
100
AcDbVertex
100
AcDb2dVertex
 10
33.43570727034557
 20
10.32624989227042
 30
0.0
  0
VERTEX
  5
615
330
613
100
AcDbEntity
  8
BEMA_UNG
 62
     7
100
AcDbVertex
100
AcDb2dVertex
 10
34.23479769530479
 20
10.32624989227042
 30
0.0
  0
SEQEND
  5
616
330
613
100
AcDbEntity
  8
BEMA_UNG
  0
POLYLINE
  5
617
330
1F
100
AcDbEntity
  8
BEMA_UNG
 62
     7
100
AcDb2dPolyline
 66
     1
 10
0.0
 20
0.0
 30
0.0
  0
VERTEX
  5
618
330
617
100
AcDbEntity
  8
BEMA_UNG
 62
     7
100
AcDbVertex
100
AcDb2dVertex
 10
33.43570727034557
 20
10.27543470034048
 30
0.0
  0
VERTEX
  5
619
330
617
100
AcDbEntity
  8
BEMA_UNG
 62
     7
100
AcDbVertex
100
AcDb2dVertex
 10
34.62099315397229
 20
10.27543470034048
 30
0.0
  0
SEQEND
  5
61A
330
617
100
AcDbEntity
  8
BEMA_UNG
  0
POLYLINE
  5
61B
330
1F
100
AcDbEntity
  8
BEMA_UNG
 62
     7
100
AcDb2dPolyline
 66
     1
 10
0.0
 20
0.0
 30
0.0
  0
VERTEX
  5
61C
330
61B
100
AcDbEntity
  8
BEMA_UNG
 62
     7
100
AcDbVertex
100
AcDb2dVertex
 10
33.43570727034557
 20
10.22496401818634
 30
0.0
  0
VERTEX
  5
61D
330
61B
100
AcDbEntity
  8
BEMA_UNG
 62
     7
100
AcDbVertex
100
AcDb2dVertex
 10
35.00667184797611
 20
10.22496401818634
 30
0.0
  0
SEQEND
  5
61E
330
61B
100
AcDbEntity
  8
BEMA_UNG
  0
POLYLINE
  5
61F
330
1F
100
AcDbEntity
  8
BEMA_UNG
 62
     7
100
AcDb2dPolyline
 66
     1
 10
0.0
 20
0.0
 30
0.0
  0
VERTEX
  5
620
330
61F
100
AcDbEntity
  8
BEMA_UNG
 62
     7
100
AcDbVertex
100
AcDb2dVertex
 10
33.43570727034557
 20
10.17414882625641
 30
0.0
  0
VERTEX
  5
621
330
61F
100
AcDbEntity
  8
BEMA_UNG
 62
     7
100
AcDbVertex
100
AcDb2dVertex
 10
35.39252279686782
 20
10.17414882625641
 30
0.0
  0
SEQEND
  5
622
330
61F
100
AcDbEntity
  8
BEMA_UNG
  0
POLYLINE
  5
623
330
1F
100
AcDbEntity
  8
BEMA_UNG
 62
     7
100
AcDb2dPolyline
 66
     1
 10
0.0
 20
0.0
 30
0.0
  0
VERTEX
  5
624
330
623
100
AcDbEntity
  8
BEMA_UNG
 62
     7
100
AcDbVertex
100
AcDb2dVertex
 10
33.43570727034557
 20
10.12333363432647
 30
0.0
  0
VERTEX
  5
625
330
623
100
AcDbEntity
  8
BEMA_UNG
 62
     7
100
AcDbVertex
100
AcDb2dVertex
 10
35.77820149087162
 20
10.12333363432647
 30
0.0
  0
SEQEND
  5
626
330
623
100
AcDbEntity
  8
BEMA_UNG
  0
POLYLINE
  5
627
330
1F
100
AcDbEntity
  8
BEMA_UNG
 62
     7
100
AcDb2dPolyline
 66
     1
 10
0.0
 20
0.0
 30
0.0
  0
VERTEX
  5
628
330
627
100
AcDbEntity
  8
BEMA_UNG
 62
     7
100
AcDbVertex
100
AcDb2dVertex
 10
33.43570727034557
 20
10.07251844239654
 30
0.0
  0
VERTEX
  5
629
330
627
100
AcDbEntity
  8
BEMA_UNG
 62
     7
100
AcDbVertex
100
AcDb2dVertex
 10
36.16439694953913
 20
10.07251844239654
 30
0.0
  0
SEQEND
  5
62A
330
627
100
AcDbEntity
  8
BEMA_UNG
  0
POLYLINE
  5
62B
330
1F
100
AcDbEntity
  8
BEMA_UNG
 62
     7
100
AcDb2dPolyline
 66
     1
 10
0.0
 20
0.0
 30
0.0
  0
VERTEX
  5
62C
330
62B
100
AcDbEntity
  8
BEMA_UNG
 62
     7
100
AcDbVertex
100
AcDb2dVertex
 10
33.43570727034557
 20
10.0217032504666
 30
0.0
  0
VERTEX
  5
62D
330
62B
100
AcDbEntity
  8
BEMA_UNG
 62
     7
100
AcDbVertex
100
AcDb2dVertex
 10
36.55007564354294
 20
10.0217032504666
 30
0.0
  0
SEQEND
  5
62E
330
62B
100
AcDbEntity
  8
BEMA_UNG
  0
POLYLINE
  5
62F
330
1F
100
AcDbEntity
  8
BEMA_UNG
 62
     7
100
AcDb2dPolyline
 66
     1
 10
0.0
 20
0.0
 30
0.0
  0
VERTEX
  5
630
330
62F
100
AcDbEntity
  8
BEMA_UNG
 62
     7
100
AcDbVertex
100
AcDb2dVertex
 10
33.43570727034557
 20
9.971060313424566
 30
0.0
  0
VERTEX
  5
631
330
62F
100
AcDbEntity
  8
BEMA_UNG
 62
     7
100
AcDbVertex
100
AcDb2dVertex
 10
36.93592659243465
 20
9.971060313424566
 30
0.0
  0
SEQEND
  5
632
330
62F
100
AcDbEntity
  8
BEMA_UNG
  0
POLYLINE
  5
633
330
1F
100
AcDbEntity
  8
BEMA_UNG
 62
     7
100
AcDb2dPolyline
 66
     1
 10
0.0
 20
0.0
 30
0.0
  0
VERTEX
  5
634
330
633
100
AcDbEntity
  8
BEMA_UNG
 62
     7
100
AcDbVertex
100
AcDb2dVertex
 10
33.43570727034557
 20
9.513379076279355
 30
0.0
  0
VERTEX
  5
635
330
633
100
AcDbEntity
  8
BEMA_UNG
 62
     7
100
AcDbVertex
100
AcDb2dVertex
 10
33.46292354263348
 20
9.513379076279355
 30
0.0
  0
SEQEND
  5
636
330
633
100
AcDbEntity
  8
BEMA_UNG
  0
POLYLINE
  5
637
330
1F
100
AcDbEntity
  8
BEMA_UNG
 62
     7
100
AcDb2dPolyline
 66
     1
 10
0.0
 20
0.0
 30
0.0
  0
VERTEX
  5
638
330
637
100
AcDbEntity
  8
BEMA_UNG
 62
     7
100
AcDbVertex
100
AcDb2dVertex
 10
33.43570727034557
 20
9.513379076279355
 30
0.0
  0
VERTEX
  5
639
330
637
100
AcDbEntity
  8
BEMA_UNG
 62
     7
100
AcDbVertex
100
AcDb2dVertex
 10
33.46292354263348
 20
9.513379076279355
 30
0.0
  0
SEQEND
  5
63A
330
637
100
AcDbEntity
  8
BEMA_UNG
  0
POLYLINE
  5
63B
330
1F
100
AcDbEntity
  8
BEMA_UNG
 62
     7
100
AcDb2dPolyline
 66
     1
 10
0.0
 20
0.0
 30
0.0
  0
VERTEX
  5
63C
330
63B
100
AcDbEntity
  8
BEMA_UNG
 62
     7
100
AcDbVertex
100
AcDb2dVertex
 10
33.43570727034557
 20
9.56419426820929
 30
0.0
  0
VERTEX
  5
63D
330
63B
100
AcDbEntity
  8
BEMA_UNG
 62
     7
100
AcDbVertex
100
AcDb2dVertex
 10
33.84911900130098
 20
9.56419426820929
 30
0.0
  0
SEQEND
  5
63E
330
63B
100
AcDbEntity
  8
BEMA_UNG
  0
POLYLINE
  5
63F
330
1F
100
AcDbEntity
  8
BEMA_UNG
 62
     7
100
AcDb2dPolyline
 66
     1
 10
0.0
 20
0.0
 30
0.0
  0
VERTEX
  5
640
330
63F
100
AcDbEntity
  8
BEMA_UNG
 62
     7
100
AcDbVertex
100
AcDb2dVertex
 10
33.43570727034557
 20
9.615009460139225
 30
0.0
  0
VERTEX
  5
641
330
63F
100
AcDbEntity
  8
BEMA_UNG
 62
     7
100
AcDbVertex
100
AcDb2dVertex
 10
34.23479769530479
 20
9.615009460139225
 30
0.0
  0
SEQEND
  5
642
330
63F
100
AcDbEntity
  8
BEMA_UNG
  0
POLYLINE
  5
643
330
1F
100
AcDbEntity
  8
BEMA_UNG
 62
     7
100
AcDb2dPolyline
 66
     1
 10
0.0
 20
0.0
 30
0.0
  0
VERTEX
  5
644
330
643
100
AcDbEntity
  8
BEMA_UNG
 62
     7
100
AcDbVertex
100
AcDb2dVertex
 10
33.43570727034557
 20
9.66582465206916
 30
0.0
  0
VERTEX
  5
645
330
643
100
AcDbEntity
  8
BEMA_UNG
 62
     7
100
AcDbVertex
100
AcDb2dVertex
 10
34.62099315397229
 20
9.66582465206916
 30
0.0
  0
SEQEND
  5
646
330
643
100
AcDbEntity
  8
BEMA_UNG
  0
POLYLINE
  5
647
330
1F
100
AcDbEntity
  8
BEMA_UNG
 62
     7
100
AcDb2dPolyline
 66
     1
 10
0.0
 20
0.0
 30
0.0
  0
VERTEX
  5
648
330
647
100
AcDbEntity
  8
BEMA_UNG
 62
     7
100
AcDbVertex
100
AcDb2dVertex
 10
33.43570727034557
 20
9.716639843999095
 30
0.0
  0
VERTEX
  5
649
330
647
100
AcDbEntity
  8
BEMA_UNG
 62
     7
100
AcDbVertex
100
AcDb2dVertex
 10
35.00667184797611
 20
9.716639843999095
 30
0.0
  0
SEQEND
  5
64A
330
647
100
AcDbEntity
  8
BEMA_UNG
  0
POLYLINE
  5
64B
330
1F
100
AcDbEntity
  8
BEMA_UNG
 62
     7
100
AcDb2dPolyline
 66
     1
 10
0.0
 20
0.0
 30
0.0
  0
VERTEX
  5
64C
330
64B
100
AcDbEntity
  8
BEMA_UNG
 62
     7
100
AcDbVertex
100
AcDb2dVertex
 10
33.43570727034557
 20
9.767799545704825
 30
0.0
  0
VERTEX
  5
64D
330
64B
100
AcDbEntity
  8
BEMA_UNG
 62
     7
100
AcDbVertex
100
AcDb2dVertex
 10
35.39252279686782
 20
9.767799545704825
 30
0.0
  0
SEQEND
  5
64E
330
64B
100
AcDbEntity
  8
BEMA_UNG
  0
POLYLINE
  5
64F
330
1F
100
AcDbEntity
  8
BEMA_UNG
 62
     7
100
AcDb2dPolyline
 66
     1
 10
0.0
 20
0.0
 30
0.0
  0
VERTEX
  5
650
330
64F
100
AcDbEntity
  8
BEMA_UNG
 62
     7
100
AcDbVertex
100
AcDb2dVertex
 10
33.43570727034557
 20
9.81861473763476
 30
0.0
  0
VERTEX
  5
651
330
64F
100
AcDbEntity
  8
BEMA_UNG
 62
     7
100
AcDbVertex
100
AcDb2dVertex
 10
35.77820149087162
 20
9.81861473763476
 30
0.0
  0
SEQEND
  5
652
330
64F
100
AcDbEntity
  8
BEMA_UNG
  0
POLYLINE
  5
653
330
1F
100
AcDbEntity
  8
BEMA_UNG
 62
     7
100
AcDb2dPolyline
 66
     1
 10
0.0
 20
0.0
 30
0.0
  0
VERTEX
  5
654
330
653
100
AcDbEntity
  8
BEMA_UNG
 62
     7
100
AcDbVertex
100
AcDb2dVertex
 10
33.43570727034557
 20
9.869429929564696
 30
0.0
  0
VERTEX
  5
655
330
653
100
AcDbEntity
  8
BEMA_UNG
 62
     7
100
AcDbVertex
100
AcDb2dVertex
 10
36.16439694953913
 20
9.869429929564696
 30
0.0
  0
SEQEND
  5
656
330
653
100
AcDbEntity
  8
BEMA_UNG
  0
POLYLINE
  5
657
330
1F
100
AcDbEntity
  8
BEMA_UNG
 62
     7
100
AcDb2dPolyline
 66
     1
 10
0.0
 20
0.0
 30
0.0
  0
VERTEX
  5
658
330
657
100
AcDbEntity
  8
BEMA_UNG
 62
     7
100
AcDbVertex
100
AcDb2dVertex
 10
33.43570727034557
 20
9.920072866606732
 30
0.0
  0
VERTEX
  5
659
330
657
100
AcDbEntity
  8
BEMA_UNG
 62
     7
100
AcDbVertex
100
AcDb2dVertex
 10
36.55007564354294
 20
9.920072866606732
 30
0.0
  0
SEQEND
  5
65A
330
657
100
AcDbEntity
  8
BEMA_UNG
  0
POLYLINE
  5
65B
330
1F
100
AcDbEntity
  8
BEMA_UNG
 62
     7
100
AcDb2dPolyline
 66
     1
 10
0.0
 20
0.0
 30
0.0
  0
VERTEX
  5
65C
330
65B
100
AcDbEntity
  8
BEMA_UNG
 62
     7
100
AcDbVertex
100
AcDb2dVertex
 10
33.43570727034557
 20
9.971060313424566
 30
0.0
  0
VERTEX
  5
65D
330
65B
100
AcDbEntity
  8
BEMA_UNG
 62
     7
100
AcDbVertex
100
AcDb2dVertex
 10
36.93592659243465
 20
9.971060313424566
 30
0.0
  0
SEQEND
  5
65E
330
65B
100
AcDbEntity
  8
BEMA_UNG
  0
POLYLINE
  5
65F
330
1F
100
AcDbEntity
  8
BEMA_UNG
 62
     7
100
AcDb2dPolyline
 66
     1
 10
0.0
 20
0.0
 30
0.0
  0
VERTEX
  5
660
330
65F
100
AcDbEntity
  8
BEMA_UNG
 62
     7
100
AcDbVertex
100
AcDb2dVertex
 10
-0.0640788182980874
 20
9.971060313424566
 30
0.0
  0
VERTEX
  5
661
330
65F
100
AcDbEntity
  8
BEMA_UNG
 62
     7
100
AcDbVertex
100
AcDb2dVertex
 10
3.435795994015192
 20
9.509933978521394
 30
0.0
  0
VERTEX
  5
662
330
65F
100
AcDbEntity
  8
BEMA_UNG
 62
     7
100
AcDbVertex
100
AcDb2dVertex
 10
3.435795994015192
 20
10.43132537388825
 30
0.0
  0
VERTEX
  5
663
330
65F
100
AcDbEntity
  8
BEMA_UNG
 62
     7
100
AcDbVertex
100
AcDb2dVertex
 10
-0.0640788182980874
 20
9.971060313424566
 30
0.0
  0
SEQEND
  5
664
330
65F
100
AcDbEntity
  8
BEMA_UNG
  0
POLYLINE
  5
665
330
1F
100
AcDbEntity
  8
BEMA_UNG
 62
     7
100
AcDb2dPolyline
 66
     1
 10
0.0
 20
0.0
 30
0.0
  0
VERTEX
  5
666
330
665
100
AcDbEntity
  8
BEMA_UNG
 62
     7
100
AcDbVertex
100
AcDb2dVertex
 10
3.435795994015192
 20
9.513379076279355
 30
0.0
  0
VERTEX
  5
667
330
665
100
AcDbEntity
  8
BEMA_UNG
 62
     7
100
AcDbVertex
100
AcDb2dVertex
 10
3.408579721727294
 20
9.513379076279355
 30
0.0
  0
SEQEND
  5
668
330
665
100
AcDbEntity
  8
BEMA_UNG
  0
POLYLINE
  5
669
330
1F
100
AcDbEntity
  8
BEMA_UNG
 62
     7
100
AcDb2dPolyline
 66
     1
 10
0.0
 20
0.0
 30
0.0
  0
VERTEX
  5
66A
330
669
100
AcDbEntity
  8
BEMA_UNG
 62
     7
100
AcDbVertex
100
AcDb2dVertex
 10
3.435795994015192
 20
9.513379076279355
 30
0.0
  0
VERTEX
  5
66B
330
669
100
AcDbEntity
  8
BEMA_UNG
 62
     7
100
AcDbVertex
100
AcDb2dVertex
 10
3.408579721727294
 20
9.513379076279355
 30
0.0
  0
SEQEND
  5
66C
330
669
100
AcDbEntity
  8
BEMA_UNG
  0
POLYLINE
  5
66D
330
1F
100
AcDbEntity
  8
BEMA_UNG
 62
     7
100
AcDb2dPolyline
 66
     1
 10
0.0
 20
0.0
 30
0.0
  0
VERTEX
  5
66E
330
66D
100
AcDbEntity
  8
BEMA_UNG
 62
     7
100
AcDbVertex
100
AcDb2dVertex
 10
3.435795994015192
 20
9.56419426820929
 30
0.0
  0
VERTEX
  5
66F
330
66D
100
AcDbEntity
  8
BEMA_UNG
 62
     7
100
AcDbVertex
100
AcDb2dVertex
 10
3.022728772835586
 20
9.56419426820929
 30
0.0
  0
SEQEND
  5
670
330
66D
100
AcDbEntity
  8
BEMA_UNG
  0
POLYLINE
  5
671
330
1F
100
AcDbEntity
  8
BEMA_UNG
 62
     7
100
AcDb2dPolyline
 66
     1
 10
0.0
 20
0.0
 30
0.0
  0
VERTEX
  5
672
330
671
100
AcDbEntity
  8
BEMA_UNG
 62
     7
100
AcDbVertex
100
AcDb2dVertex
 10
3.435795994015192
 20
9.615009460139225
 30
0.0
  0
VERTEX
  5
673
330
671
100
AcDbEntity
  8
BEMA_UNG
 62
     7
100
AcDbVertex
100
AcDb2dVertex
 10
2.637050078831774
 20
9.615009460139225
 30
0.0
  0
SEQEND
  5
674
330
671
100
AcDbEntity
  8
BEMA_UNG
  0
POLYLINE
  5
675
330
1F
100
AcDbEntity
  8
BEMA_UNG
 62
     7
100
AcDb2dPolyline
 66
     1
 10
0.0
 20
0.0
 30
0.0
  0
VERTEX
  5
676
330
675
100
AcDbEntity
  8
BEMA_UNG
 62
     7
100
AcDbVertex
100
AcDb2dVertex
 10
3.435795994015192
 20
9.66582465206916
 30
0.0
  0
VERTEX
  5
677
330
675
100
AcDbEntity
  8
BEMA_UNG
 62
     7
100
AcDbVertex
100
AcDb2dVertex
 10
2.250854620164269
 20
9.66582465206916
 30
0.0
  0
SEQEND
  5
678
330
675
100
AcDbEntity
  8
BEMA_UNG
  0
POLYLINE
  5
679
330
1F
100
AcDbEntity
  8
BEMA_UNG
 62
     7
100
AcDb2dPolyline
 66
     1
 10
0.0
 20
0.0
 30
0.0
  0
VERTEX
  5
67A
330
679
100
AcDbEntity
  8
BEMA_UNG
 62
     7
100
AcDbVertex
100
AcDb2dVertex
 10
3.435795994015192
 20
9.716639843999095
 30
0.0
  0
VERTEX
  5
67B
330
679
100
AcDbEntity
  8
BEMA_UNG
 62
     7
100
AcDbVertex
100
AcDb2dVertex
 10
1.865175926160458
 20
9.716639843999095
 30
0.0
  0
SEQEND
  5
67C
330
679
100
AcDbEntity
  8
BEMA_UNG
  0
POLYLINE
  5
67D
330
1F
100
AcDbEntity
  8
BEMA_UNG
 62
     7
100
AcDb2dPolyline
 66
     1
 10
0.0
 20
0.0
 30
0.0
  0
VERTEX
  5
67E
330
67D
100
AcDbEntity
  8
BEMA_UNG
 62
     7
100
AcDbVertex
100
AcDb2dVertex
 10
3.435795994015192
 20
9.767799545704825
 30
0.0
  0
VERTEX
  5
67F
330
67D
100
AcDbEntity
  8
BEMA_UNG
 62
     7
100
AcDbVertex
100
AcDb2dVertex
 10
1.479324977268749
 20
9.767799545704825
 30
0.0
  0
SEQEND
  5
680
330
67D
100
AcDbEntity
  8
BEMA_UNG
  0
POLYLINE
  5
681
330
1F
100
AcDbEntity
  8
BEMA_UNG
 62
     7
100
AcDb2dPolyline
 66
     1
 10
0.0
 20
0.0
 30
0.0
  0
VERTEX
  5
682
330
681
100
AcDbEntity
  8
BEMA_UNG
 62
     7
100
AcDbVertex
100
AcDb2dVertex
 10
3.435795994015192
 20
9.81861473763476
 30
0.0
  0
VERTEX
  5
683
330
681
100
AcDbEntity
  8
BEMA_UNG
 62
     7
100
AcDbVertex
100
AcDb2dVertex
 10
1.093646283264938
 20
9.81861473763476
 30
0.0
  0
SEQEND
  5
684
330
681
100
AcDbEntity
  8
BEMA_UNG
  0
POLYLINE
  5
685
330
1F
100
AcDbEntity
  8
BEMA_UNG
 62
     7
100
AcDb2dPolyline
 66
     1
 10
0.0
 20
0.0
 30
0.0
  0
VERTEX
  5
686
330
685
100
AcDbEntity
  8
BEMA_UNG
 62
     7
100
AcDbVertex
100
AcDb2dVertex
 10
3.435795994015192
 20
9.869429929564696
 30
0.0
  0
VERTEX
  5
687
330
685
100
AcDbEntity
  8
BEMA_UNG
 62
     7
100
AcDbVertex
100
AcDb2dVertex
 10
0.7074508245974327
 20
9.869429929564696
 30
0.0
  0
SEQEND
  5
688
330
685
100
AcDbEntity
  8
BEMA_UNG
  0
POLYLINE
  5
689
330
1F
100
AcDbEntity
  8
BEMA_UNG
 62
     7
100
AcDb2dPolyline
 66
     1
 10
0.0
 20
0.0
 30
0.0
  0
VERTEX
  5
68A
330
689
100
AcDbEntity
  8
BEMA_UNG
 62
     7
100
AcDbVertex
100
AcDb2dVertex
 10
3.435795994015192
 20
9.920072866606732
 30
0.0
  0
VERTEX
  5
68B
330
689
100
AcDbEntity
  8
BEMA_UNG
 62
     7
100
AcDbVertex
100
AcDb2dVertex
 10
0.3217721305936217
 20
9.920072866606732
 30
0.0
  0
SEQEND
  5
68C
330
689
100
AcDbEntity
  8
BEMA_UNG
  0
POLYLINE
  5
68D
330
1F
100
AcDbEntity
  8
BEMA_UNG
 62
     7
100
AcDb2dPolyline
 66
     1
 10
0.0
 20
0.0
 30
0.0
  0
VERTEX
  5
68E
330
68D
100
AcDbEntity
  8
BEMA_UNG
 62
     7
100
AcDbVertex
100
AcDb2dVertex
 10
3.435795994015192
 20
9.971060313424566
 30
0.0
  0
VERTEX
  5
68F
330
68D
100
AcDbEntity
  8
BEMA_UNG
 62
     7
100
AcDbVertex
100
AcDb2dVertex
 10
-0.0640788182980874
 20
9.971060313424566
 30
0.0
  0
SEQEND
  5
690
330
68D
100
AcDbEntity
  8
BEMA_UNG
  0
POLYLINE
  5
691
330
1F
100
AcDbEntity
  8
BEMA_UNG
 62
     7
100
AcDb2dPolyline
 66
     1
 10
0.0
 20
0.0
 30
0.0
  0
VERTEX
  5
692
330
691
100
AcDbEntity
  8
BEMA_UNG
 62
     7
100
AcDbVertex
100
AcDb2dVertex
 10
3.435795994015192
 20
10.42788027613028
 30
0.0
  0
VERTEX
  5
693
330
691
100
AcDbEntity
  8
BEMA_UNG
 62
     7
100
AcDbVertex
100
AcDb2dVertex
 10
3.408579721727294
 20
10.42788027613028
 30
0.0
  0
SEQEND
  5
694
330
691
100
AcDbEntity
  8
BEMA_UNG
  0
POLYLINE
  5
695
330
1F
100
AcDbEntity
  8
BEMA_UNG
 62
     7
100
AcDb2dPolyline
 66
     1
 10
0.0
 20
0.0
 30
0.0
  0
VERTEX
  5
696
330
695
100
AcDbEntity
  8
BEMA_UNG
 62
     7
100
AcDbVertex
100
AcDb2dVertex
 10
3.435795994015192
 20
10.42788027613028
 30
0.0
  0
VERTEX
  5
697
330
695
100
AcDbEntity
  8
BEMA_UNG
 62
     7
100
AcDbVertex
100
AcDb2dVertex
 10
3.408579721727294
 20
10.42788027613028
 30
0.0
  0
SEQEND
  5
698
330
695
100
AcDbEntity
  8
BEMA_UNG
  0
POLYLINE
  5
699
330
1F
100
AcDbEntity
  8
BEMA_UNG
 62
     7
100
AcDb2dPolyline
 66
     1
 10
0.0
 20
0.0
 30
0.0
  0
VERTEX
  5
69A
330
699
100
AcDbEntity
  8
BEMA_UNG
 62
     7
100
AcDbVertex
100
AcDb2dVertex
 10
3.435795994015192
 20
10.37706508420035
 30
0.0
  0
VERTEX
  5
69B
330
699
100
AcDbEntity
  8
BEMA_UNG
 62
     7
100
AcDbVertex
100
AcDb2dVertex
 10
3.022728772835586
 20
10.37706508420035
 30
0.0
  0
SEQEND
  5
69C
330
699
100
AcDbEntity
  8
BEMA_UNG
  0
POLYLINE
  5
69D
330
1F
100
AcDbEntity
  8
BEMA_UNG
 62
     7
100
AcDb2dPolyline
 66
     1
 10
0.0
 20
0.0
 30
0.0
  0
VERTEX
  5
69E
330
69D
100
AcDbEntity
  8
BEMA_UNG
 62
     7
100
AcDbVertex
100
AcDb2dVertex
 10
3.435795994015192
 20
10.32624989227042
 30
0.0
  0
VERTEX
  5
69F
330
69D
100
AcDbEntity
  8
BEMA_UNG
 62
     7
100
AcDbVertex
100
AcDb2dVertex
 10
2.637050078831774
 20
10.32624989227042
 30
0.0
  0
SEQEND
  5
6A0
330
69D
100
AcDbEntity
  8
BEMA_UNG
  0
POLYLINE
  5
6A1
330
1F
100
AcDbEntity
  8
BEMA_UNG
 62
     7
100
AcDb2dPolyline
 66
     1
 10
0.0
 20
0.0
 30
0.0
  0
VERTEX
  5
6A2
330
6A1
100
AcDbEntity
  8
BEMA_UNG
 62
     7
100
AcDbVertex
100
AcDb2dVertex
 10
3.435795994015192
 20
10.27543470034048
 30
0.0
  0
VERTEX
  5
6A3
330
6A1
100
AcDbEntity
  8
BEMA_UNG
 62
     7
100
AcDbVertex
100
AcDb2dVertex
 10
2.250854620164269
 20
10.27543470034048
 30
0.0
  0
SEQEND
  5
6A4
330
6A1
100
AcDbEntity
  8
BEMA_UNG
  0
POLYLINE
  5
6A5
330
1F
100
AcDbEntity
  8
BEMA_UNG
 62
     7
100
AcDb2dPolyline
 66
     1
 10
0.0
 20
0.0
 30
0.0
  0
VERTEX
  5
6A6
330
6A5
100
AcDbEntity
  8
BEMA_UNG
 62
     7
100
AcDbVertex
100
AcDb2dVertex
 10
3.435795994015192
 20
10.22496401818634
 30
0.0
  0
VERTEX
  5
6A7
330
6A5
100
AcDbEntity
  8
BEMA_UNG
 62
     7
100
AcDbVertex
100
AcDb2dVertex
 10
1.865175926160458
 20
10.22496401818634
 30
0.0
  0
SEQEND
  5
6A8
330
6A5
100
AcDbEntity
  8
BEMA_UNG
  0
POLYLINE
  5
6A9
330
1F
100
AcDbEntity
  8
BEMA_UNG
 62
     7
100
AcDb2dPolyline
 66
     1
 10
0.0
 20
0.0
 30
0.0
  0
VERTEX
  5
6AA
330
6A9
100
AcDbEntity
  8
BEMA_UNG
 62
     7
100
AcDbVertex
100
AcDb2dVertex
 10
3.435795994015192
 20
10.17414882625641
 30
0.0
  0
VERTEX
  5
6AB
330
6A9
100
AcDbEntity
  8
BEMA_UNG
 62
     7
100
AcDbVertex
100
AcDb2dVertex
 10
1.479324977268749
 20
10.17414882625641
 30
0.0
  0
SEQEND
  5
6AC
330
6A9
100
AcDbEntity
  8
BEMA_UNG
  0
POLYLINE
  5
6AD
330
1F
100
AcDbEntity
  8
BEMA_UNG
 62
     7
100
AcDb2dPolyline
 66
     1
 10
0.0
 20
0.0
 30
0.0
  0
VERTEX
  5
6AE
330
6AD
100
AcDbEntity
  8
BEMA_UNG
 62
     7
100
AcDbVertex
100
AcDb2dVertex
 10
3.435795994015192
 20
10.12333363432647
 30
0.0
  0
VERTEX
  5
6AF
330
6AD
100
AcDbEntity
  8
BEMA_UNG
 62
     7
100
AcDbVertex
100
AcDb2dVertex
 10
1.093646283264938
 20
10.12333363432647
 30
0.0
  0
SEQEND
  5
6B0
330
6AD
100
AcDbEntity
  8
BEMA_UNG
  0
POLYLINE
  5
6B1
330
1F
100
AcDbEntity
  8
BEMA_UNG
 62
     7
100
AcDb2dPolyline
 66
     1
 10
0.0
 20
0.0
 30
0.0
  0
VERTEX
  5
6B2
330
6B1
100
AcDbEntity
  8
BEMA_UNG
 62
     7
100
AcDbVertex
100
AcDb2dVertex
 10
3.435795994015192
 20
10.07251844239654
 30
0.0
  0
VERTEX
  5
6B3
330
6B1
100
AcDbEntity
  8
BEMA_UNG
 62
     7
100
AcDbVertex
100
AcDb2dVertex
 10
0.7074508245974327
 20
10.07251844239654
 30
0.0
  0
SEQEND
  5
6B4
330
6B1
100
AcDbEntity
  8
BEMA_UNG
  0
POLYLINE
  5
6B5
330
1F
100
AcDbEntity
  8
BEMA_UNG
 62
     7
100
AcDb2dPolyline
 66
     1
 10
0.0
 20
0.0
 30
0.0
  0
VERTEX
  5
6B6
330
6B5
100
AcDbEntity
  8
BEMA_UNG
 62
     7
100
AcDbVertex
100
AcDb2dVertex
 10
3.435795994015192
 20
10.0217032504666
 30
0.0
  0
VERTEX
  5
6B7
330
6B5
100
AcDbEntity
  8
BEMA_UNG
 62
     7
100
AcDbVertex
100
AcDb2dVertex
 10
0.3217721305936217
 20
10.0217032504666
 30
0.0
  0
SEQEND
  5
6B8
330
6B5
100
AcDbEntity
  8
BEMA_UNG
  0
POLYLINE
  5
6B9
330
1F
100
AcDbEntity
  8
BEMA_UNG
 62
     7
100
AcDb2dPolyline
 66
     1
 10
0.0
 20
0.0
 30
0.0
  0
VERTEX
  5
6BA
330
6B9
100
AcDbEntity
  8
BEMA_UNG
 62
     7
100
AcDbVertex
100
AcDb2dVertex
 10
3.435795994015192
 20
9.971060313424566
 30
0.0
  0
VERTEX
  5
6BB
330
6B9
100
AcDbEntity
  8
BEMA_UNG
 62
     7
100
AcDbVertex
100
AcDb2dVertex
 10
-0.0640788182980874
 20
9.971060313424566
 30
0.0
  0
SEQEND
  5
6BC
330
6B9
100
AcDbEntity
  8
BEMA_UNG
  0
POLYLINE
  5
6BD
330
1F
100
AcDbEntity
  8
BEMA_UNG
 62
     7
100
AcDb2dPolyline
 66
     1
 10
0.0
 20
0.0
 30
0.0
  0
VERTEX
  5
6BE
330
6BD
100
AcDbEntity
  8
BEMA_UNG
 62
     7
100
AcDbVertex
100
AcDb2dVertex
 10
83.67918522734674
 20
9.845055862927117
 30
0.0
  0
VERTEX
  5
6BF
330
6BD
100
AcDbEntity
  8
BEMA_UNG
 62
     7
100
AcDbVertex
100
AcDb2dVertex
 10
58.62195570436399
 20
9.845055862927117
 30
0.0
  0
SEQEND
  5
6C0
330
6BD
100
AcDbEntity
  8
BEMA_UNG
  0
POLYLINE
  5
6C1
330
1F
100
AcDbEntity
  8
BEMA_UNG
 62
     7
100
AcDb2dPolyline
 66
     1
 10
0.0
 20
0.0
 30
0.0
  0
VERTEX
  5
6C2
330
6C1
100
AcDbEntity
  8
BEMA_UNG
 62
     7
100
AcDbVertex
100
AcDb2dVertex
 10
49.46316331482284
 20
-6.833437530360958
 30
0.0
  0
VERTEX
  5
6C3
330
6C1
100
AcDbEntity
  8
BEMA_UNG
 62
     7
100
AcDbVertex
100
AcDb2dVertex
 10
58.62195570436399
 20
9.845055862927117
 30
0.0
  0
SEQEND
  5
6C4
330
6C1
100
AcDbEntity
  8
BEMA_UNG
  0
POLYLINE
  5
6C5
330
1F
100
AcDbEntity
  8
BEMA_UNG
 62
     7
100
AcDb2dPolyline
 66
     1
 10
0.0
 20
0.0
 30
0.0
  0
VERTEX
  5
6C6
330
6C5
100
AcDbEntity
  8
BEMA_UNG
 62
     7
100
AcDbVertex
100
AcDb2dVertex
 10
49.46316331482284
 20
-6.833437530360958
 30
0.0
  0
VERTEX
  5
6C7
330
6C5
100
AcDbEntity
  8
BEMA_UNG
 62
     7
100
AcDbVertex
100
AcDb2dVertex
 10
51.68525136870813
 20
-4.089589421032372
 30
0.0
  0
VERTEX
  5
6C8
330
6C5
100
AcDbEntity
  8
BEMA_UNG
 62
     7
100
AcDbVertex
100
AcDb2dVertex
 10
50.89925231522917
 20
-3.607964754469327
 30
0.0
  0
VERTEX
  5
6C9
330
6C5
100
AcDbEntity
  8
BEMA_UNG
 62
     7
100
AcDbVertex
100
AcDb2dVertex
 10
49.46316331482284
 20
-6.833437530360958
 30
0.0
  0
SEQEND
  5
6CA
330
6C5
100
AcDbEntity
  8
BEMA_UNG
  0
POLYLINE
  5
6CB
330
1F
100
AcDbEntity
  8
BEMA_UNG
 62
     7
100
AcDb2dPolyline
 66
     1
 10
0.0
 20
0.0
 30
0.0
  0
VERTEX
  5
6CC
330
6CB
100
AcDbEntity
  8
BEMA_UNG
 62
     7
100
AcDbVertex
100
AcDb2dVertex
 10
51.68180627095017
 20
-4.08786687215339
 30
0.0
  0
VERTEX
  5
6CD
330
6CB
100
AcDbEntity
  8
BEMA_UNG
 62
     7
100
AcDbVertex
100
AcDb2dVertex
 10
51.66802587991832
 20
-4.111121282019631
 30
0.0
  0
SEQEND
  5
6CE
330
6CB
100
AcDbEntity
  8
BEMA_UNG
  0
POLYLINE
  5
6CF
330
1F
100
AcDbEntity
  8
BEMA_UNG
 62
     7
100
AcDb2dPolyline
 66
     1
 10
0.0
 20
0.0
 30
0.0
  0
VERTEX
  5
6D0
330
6CF
100
AcDbEntity
  8
BEMA_UNG
 62
     7
100
AcDbVertex
100
AcDb2dVertex
 10
51.68180627095017
 20
-4.08786687215339
 30
0.0
  0
VERTEX
  5
6D1
330
6CF
100
AcDbEntity
  8
BEMA_UNG
 62
     7
100
AcDbVertex
100
AcDb2dVertex
 10
51.66802587991832
 20
-4.111121282019631
 30
0.0
  0
SEQEND
  5
6D2
330
6CF
100
AcDbEntity
  8
BEMA_UNG
  0
POLYLINE
  5
6D3
330
1F
100
AcDbEntity
  8
BEMA_UNG
 62
     7
100
AcDb2dPolyline
 66
     1
 10
0.0
 20
0.0
 30
0.0
  0
VERTEX
  5
6D4
330
6D3
100
AcDbEntity
  8
BEMA_UNG
 62
     7
100
AcDbVertex
100
AcDb2dVertex
 10
51.63874254897565
 20
-4.060995109641289
 30
0.0
  0
VERTEX
  5
6D5
330
6D3
100
AcDbEntity
  8
BEMA_UNG
 62
     7
100
AcDbVertex
100
AcDb2dVertex
 10
51.42239040977565
 20
-4.41342861028077
 30
0.0
  0
SEQEND
  5
6D6
330
6D3
100
AcDbEntity
  8
BEMA_UNG
  0
POLYLINE
  5
6D7
330
1F
100
AcDbEntity
  8
BEMA_UNG
 62
     7
100
AcDb2dPolyline
 66
     1
 10
0.0
 20
0.0
 30
0.0
  0
VERTEX
  5
6D8
330
6D7
100
AcDbEntity
  8
BEMA_UNG
 62
     7
100
AcDbVertex
100
AcDb2dVertex
 10
51.59533431722533
 20
-4.03481236668078
 30
0.0
  0
VERTEX
  5
6D9
330
6D7
100
AcDbEntity
  8
BEMA_UNG
 62
     7
100
AcDbVertex
100
AcDb2dVertex
 10
51.17796072384827
 20
-4.715735938541909
 30
0.0
  0
SEQEND
  5
6DA
330
6D7
100
AcDbEntity
  8
BEMA_UNG
  0
POLYLINE
  5
6DB
330
1F
100
AcDbEntity
  8
BEMA_UNG
 62
     7
100
AcDb2dPolyline
 66
     1
 10
0.0
 20
0.0
 30
0.0
  0
VERTEX
  5
6DC
330
6DB
100
AcDbEntity
  8
BEMA_UNG
 62
     7
100
AcDbVertex
100
AcDb2dVertex
 10
51.55227059525081
 20
-4.008112859056578
 30
0.0
  0
VERTEX
  5
6DD
330
6DB
100
AcDbEntity
  8
BEMA_UNG
 62
     7
100
AcDbVertex
100
AcDb2dVertex
 10
50.93318652814509
 20
-5.018387776578843
 30
0.0
  0
SEQEND
  5
6DE
330
6DB
100
AcDbEntity
  8
BEMA_UNG
  0
POLYLINE
  5
6DF
330
1F
100
AcDbEntity
  8
BEMA_UNG
 62
     7
100
AcDb2dPolyline
 66
     1
 10
0.0
 20
0.0
 30
0.0
  0
VERTEX
  5
6E0
330
6DF
100
AcDbEntity
  8
BEMA_UNG
 62
     7
100
AcDbVertex
100
AcDb2dVertex
 10
51.50886236350049
 20
-3.981930116096069
 30
0.0
  0
VERTEX
  5
6E1
330
6DF
100
AcDbEntity
  8
BEMA_UNG
 62
     7
100
AcDbVertex
100
AcDb2dVertex
 10
50.68789556777822
 20
-5.320867359727878
 30
0.0
  0
SEQEND
  5
6E2
330
6DF
100
AcDbEntity
  8
BEMA_UNG
  0
POLYLINE
  5
6E3
330
1F
100
AcDbEntity
  8
BEMA_UNG
 62
     7
100
AcDb2dPolyline
 66
     1
 10
0.0
 20
0.0
 30
0.0
  0
VERTEX
  5
6E4
330
6E3
100
AcDbEntity
  8
BEMA_UNG
 62
     7
100
AcDbVertex
100
AcDb2dVertex
 10
51.46510962197438
 20
-3.955230608471866
 30
0.0
  0
VERTEX
  5
6E5
330
6E3
100
AcDbEntity
  8
BEMA_UNG
 62
     7
100
AcDbVertex
100
AcDb2dVertex
 10
50.44312137207504
 20
-5.623002433101119
 30
0.0
  0
SEQEND
  5
6E6
330
6E3
100
AcDbEntity
  8
BEMA_UNG
  0
POLYLINE
  5
6E7
330
1F
100
AcDbEntity
  8
BEMA_UNG
 62
     7
100
AcDb2dPolyline
 66
     1
 10
0.0
 20
0.0
 30
0.0
  0
VERTEX
  5
6E8
330
6E7
100
AcDbEntity
  8
BEMA_UNG
 62
     7
100
AcDbVertex
100
AcDb2dVertex
 10
51.42204589999986
 20
-3.928358845959764
 30
0.0
  0
VERTEX
  5
6E9
330
6E7
100
AcDbEntity
  8
BEMA_UNG
 62
     7
100
AcDbVertex
100
AcDb2dVertex
 10
50.19800266659607
 20
-5.926171035801747
 30
0.0
  0
SEQEND
  5
6EA
330
6E7
100
AcDbEntity
  8
BEMA_UNG
  0
POLYLINE
  5
6EB
330
1F
100
AcDbEntity
  8
BEMA_UNG
 62
     7
100
AcDb2dPolyline
 66
     1
 10
0.0
 20
0.0
 30
0.0
  0
VERTEX
  5
6EC
330
6EB
100
AcDbEntity
  8
BEMA_UNG
 62
     7
100
AcDbVertex
100
AcDb2dVertex
 10
51.37863766824954
 20
-3.902176102999256
 30
0.0
  0
VERTEX
  5
6ED
330
6EB
100
AcDbEntity
  8
BEMA_UNG
 62
     7
100
AcDbVertex
100
AcDb2dVertex
 10
49.95340072578079
 20
-6.22813385428709
 30
0.0
  0
SEQEND
  5
6EE
330
6EB
100
AcDbEntity
  8
BEMA_UNG
  0
POLYLINE
  5
6EF
330
1F
100
AcDbEntity
  8
BEMA_UNG
 62
     7
100
AcDb2dPolyline
 66
     1
 10
0.0
 20
0.0
 30
0.0
  0
VERTEX
  5
6F0
330
6EF
100
AcDbEntity
  8
BEMA_UNG
 62
     7
100
AcDbVertex
100
AcDb2dVertex
 10
51.33557394627502
 20
-3.875476595375052
 30
0.0
  0
VERTEX
  5
6F1
330
6EF
100
AcDbEntity
  8
BEMA_UNG
 62
     7
100
AcDbVertex
100
AcDb2dVertex
 10
49.70793751052602
 20
-6.530441182548228
 30
0.0
  0
SEQEND
  5
6F2
330
6EF
100
AcDbEntity
  8
BEMA_UNG
  0
POLYLINE
  5
6F3
330
1F
100
AcDbEntity
  8
BEMA_UNG
 62
     7
100
AcDb2dPolyline
 66
     1
 10
0.0
 20
0.0
 30
0.0
  0
VERTEX
  5
6F4
330
6F3
100
AcDbEntity
  8
BEMA_UNG
 62
     7
100
AcDbVertex
100
AcDb2dVertex
 10
51.29182120474891
 20
-3.848604832862951
 30
0.0
  0
VERTEX
  5
6F5
330
6F3
100
AcDbEntity
  8
BEMA_UNG
 62
     7
100
AcDbVertex
100
AcDb2dVertex
 10
49.46316331482284
 20
-6.833437530360958
 30
0.0
  0
SEQEND
  5
6F6
330
6F3
100
AcDbEntity
  8
BEMA_UNG
  0
POLYLINE
  5
6F7
330
1F
100
AcDbEntity
  8
BEMA_UNG
 62
     7
100
AcDb2dPolyline
 66
     1
 10
0.0
 20
0.0
 30
0.0
  0
VERTEX
  5
6F8
330
6F7
100
AcDbEntity
  8
BEMA_UNG
 62
     7
100
AcDbVertex
100
AcDb2dVertex
 10
50.90218064832344
 20
-3.609687303348308
 30
0.0
  0
VERTEX
  5
6F9
330
6F7
100
AcDbEntity
  8
BEMA_UNG
 62
     7
100
AcDbVertex
100
AcDb2dVertex
 10
50.88805574751579
 20
-3.633113968102448
 30
0.0
  0
SEQEND
  5
6FA
330
6F7
100
AcDbEntity
  8
BEMA_UNG
  0
POLYLINE
  5
6FB
330
1F
100
AcDbEntity
  8
BEMA_UNG
 62
     7
100
AcDb2dPolyline
 66
     1
 10
0.0
 20
0.0
 30
0.0
  0
VERTEX
  5
6FC
330
6FB
100
AcDbEntity
  8
BEMA_UNG
 62
     7
100
AcDbVertex
100
AcDb2dVertex
 10
50.90218064832344
 20
-3.609687303348308
 30
0.0
  0
VERTEX
  5
6FD
330
6FB
100
AcDbEntity
  8
BEMA_UNG
 62
     7
100
AcDbVertex
100
AcDb2dVertex
 10
50.88805574751579
 20
-3.633113968102448
 30
0.0
  0
SEQEND
  5
6FE
330
6FB
100
AcDbEntity
  8
BEMA_UNG
  0
POLYLINE
  5
6FF
330
1F
100
AcDbEntity
  8
BEMA_UNG
 62
     7
100
AcDb2dPolyline
 66
     1
 10
0.0
 20
0.0
 30
0.0
  0
VERTEX
  5
700
330
6FF
100
AcDbEntity
  8
BEMA_UNG
 62
     7
100
AcDbVertex
100
AcDb2dVertex
 10
50.94541662518586
 20
-3.636559065860409
 30
0.0
  0
VERTEX
  5
701
330
6FF
100
AcDbEntity
  8
BEMA_UNG
 62
     7
100
AcDbVertex
100
AcDb2dVertex
 10
50.72992576042535
 20
-3.98899256649989
 30
0.0
  0
SEQEND
  5
702
330
6FF
100
AcDbEntity
  8
BEMA_UNG
  0
POLYLINE
  5
703
330
1F
100
AcDbEntity
  8
BEMA_UNG
 62
     7
100
AcDb2dPolyline
 66
     1
 10
0.0
 20
0.0
 30
0.0
  0
VERTEX
  5
704
330
703
100
AcDbEntity
  8
BEMA_UNG
 62
     7
100
AcDbVertex
100
AcDb2dVertex
 10
50.98916936671197
 20
-3.663430828372511
 30
0.0
  0
VERTEX
  5
705
330
703
100
AcDbEntity
  8
BEMA_UNG
 62
     7
100
AcDbVertex
100
AcDb2dVertex
 10
50.57110675378332
 20
-4.34418214534574
 30
0.0
  0
SEQEND
  5
706
330
703
100
AcDbEntity
  8
BEMA_UNG
  0
POLYLINE
  5
707
330
1F
100
AcDbEntity
  8
BEMA_UNG
 62
     7
100
AcDb2dPolyline
 66
     1
 10
0.0
 20
0.0
 30
0.0
  0
VERTEX
  5
708
330
707
100
AcDbEntity
  8
BEMA_UNG
 62
     7
100
AcDbVertex
100
AcDb2dVertex
 10
51.03223308868649
 20
-3.689613571333019
 30
0.0
  0
VERTEX
  5
709
330
707
100
AcDbEntity
  8
BEMA_UNG
 62
     7
100
AcDbVertex
100
AcDb2dVertex
 10
50.41314902158078
 20
-4.699888488855285
 30
0.0
  0
SEQEND
  5
70A
330
707
100
AcDbEntity
  8
BEMA_UNG
  0
POLYLINE
  5
70B
330
1F
100
AcDbEntity
  8
BEMA_UNG
 62
     7
100
AcDb2dPolyline
 66
     1
 10
0.0
 20
0.0
 30
0.0
  0
VERTEX
  5
70C
330
70B
100
AcDbEntity
  8
BEMA_UNG
 62
     7
100
AcDbVertex
100
AcDb2dVertex
 10
51.07564132043681
 20
-3.716313078957223
 30
0.0
  0
VERTEX
  5
70D
330
70B
100
AcDbEntity
  8
BEMA_UNG
 62
     7
100
AcDbVertex
100
AcDb2dVertex
 10
50.25519128937823
 20
-5.055594832364829
 30
0.0
  0
SEQEND
  5
70E
330
70B
100
AcDbEntity
  8
BEMA_UNG
  0
POLYLINE
  5
70F
330
1F
100
AcDbEntity
  8
BEMA_UNG
 62
     7
100
AcDb2dPolyline
 66
     1
 10
0.0
 20
0.0
 30
0.0
  0
VERTEX
  5
710
330
70F
100
AcDbEntity
  8
BEMA_UNG
 62
     7
100
AcDbVertex
100
AcDb2dVertex
 10
51.11870504241133
 20
-3.742840331693527
 30
0.0
  0
VERTEX
  5
711
330
70F
100
AcDbEntity
  8
BEMA_UNG
 62
     7
100
AcDbVertex
100
AcDb2dVertex
 10
50.0963722827362
 20
-5.410784411210678
 30
0.0
  0
SEQEND
  5
712
330
70F
100
AcDbEntity
  8
BEMA_UNG
  0
POLYLINE
  5
713
330
1F
100
AcDbEntity
  8
BEMA_UNG
 62
     7
100
AcDb2dPolyline
 66
     1
 10
0.0
 20
0.0
 30
0.0
  0
VERTEX
  5
714
330
713
100
AcDbEntity
  8
BEMA_UNG
 62
     7
100
AcDbVertex
100
AcDb2dVertex
 10
51.16245778393744
 20
-3.769195329541934
 30
0.0
  0
VERTEX
  5
715
330
713
100
AcDbEntity
  8
BEMA_UNG
 62
     7
100
AcDbVertex
100
AcDb2dVertex
 10
49.93824229564576
 20
-5.766663009608122
 30
0.0
  0
SEQEND
  5
716
330
713
100
AcDbEntity
  8
BEMA_UNG
  0
POLYLINE
  5
717
330
1F
100
AcDbEntity
  8
BEMA_UNG
 62
     7
100
AcDb2dPolyline
 66
     1
 10
0.0
 20
0.0
 30
0.0
  0
VERTEX
  5
718
330
717
100
AcDbEntity
  8
BEMA_UNG
 62
     7
100
AcDbVertex
100
AcDb2dVertex
 10
51.20517699613617
 20
-3.795722582278239
 30
0.0
  0
VERTEX
  5
719
330
717
100
AcDbEntity
  8
BEMA_UNG
 62
     7
100
AcDbVertex
100
AcDb2dVertex
 10
49.78028456344321
 20
-6.122197098229767
 30
0.0
  0
SEQEND
  5
71A
330
717
100
AcDbEntity
  8
BEMA_UNG
  0
POLYLINE
  5
71B
330
1F
100
AcDbEntity
  8
BEMA_UNG
 62
     7
100
AcDb2dPolyline
 66
     1
 10
0.0
 20
0.0
 30
0.0
  0
VERTEX
  5
71C
330
71B
100
AcDbEntity
  8
BEMA_UNG
 62
     7
100
AcDbVertex
100
AcDb2dVertex
 10
51.24892973766228
 20
-3.82259434479034
 30
0.0
  0
VERTEX
  5
71D
330
71B
100
AcDbEntity
  8
BEMA_UNG
 62
     7
100
AcDbVertex
100
AcDb2dVertex
 10
49.62146555680118
 20
-6.477558931963515
 30
0.0
  0
SEQEND
  5
71E
330
71B
100
AcDbEntity
  8
BEMA_UNG
  0
POLYLINE
  5
71F
330
1F
100
AcDbEntity
  8
BEMA_UNG
 62
     7
100
AcDb2dPolyline
 66
     1
 10
0.0
 20
0.0
 30
0.0
  0
VERTEX
  5
720
330
71F
100
AcDbEntity
  8
BEMA_UNG
 62
     7
100
AcDbVertex
100
AcDb2dVertex
 10
51.29182120474891
 20
-3.848604832862951
 30
0.0
  0
VERTEX
  5
721
330
71F
100
AcDbEntity
  8
BEMA_UNG
 62
     7
100
AcDbVertex
100
AcDb2dVertex
 10
49.46316331482284
 20
-6.833437530360958
 30
0.0
  0
SEQEND
  5
722
330
71F
100
AcDbEntity
  8
BEMA_UNG
  0
POLYLINE
  5
723
330
1F
100
AcDbEntity
  8
BEMA_UNG
 62
     7
100
AcDb2dPolyline
 66
     1
 10
0.0
 20
0.0
 30
0.0
  0
VERTEX
  5
724
330
723
100
AcDbEntity
  8
BEMA_UNG
 62
     7
100
AcDbVertex
100
AcDb2dVertex
 10
-0.0640788182980874
 20
-12.58089411996844
 30
0.0
  0
VERTEX
  5
725
330
723
100
AcDbEntity
  8
BEMA_UNG
 62
     7
100
AcDbVertex
100
AcDb2dVertex
 10
-11.90143471465445
 20
-12.58089411996844
 30
0.0
  0
SEQEND
  5
726
330
723
100
AcDbEntity
  8
BEMA_UNG
  0
POLYLINE
  5
727
330
1F
100
AcDbEntity
  8
BEMA_UNG
 62
     7
100
AcDb2dPolyline
 66
     1
 10
0.0
 20
0.0
 30
0.0
  0
VERTEX
  5
728
330
727
100
AcDbEntity
  8
BEMA_UNG
 62
     7
100
AcDbVertex
100
AcDb2dVertex
 10
-0.0640788182980874
 20
-22.58080712711594
 30
0.0
  0
VERTEX
  5
729
330
727
100
AcDbEntity
  8
BEMA_UNG
 62
     7
100
AcDbVertex
100
AcDb2dVertex
 10
-11.90143471465445
 20
-22.58080712711594
 30
0.0
  0
SEQEND
  5
72A
330
727
100
AcDbEntity
  8
BEMA_UNG
  0
POLYLINE
  5
72B
330
1F
100
AcDbEntity
  8
BEMA_UNG
 62
     7
100
AcDb2dPolyline
 66
     1
 10
0.0
 20
0.0
 30
0.0
  0
VERTEX
  5
72C
330
72B
100
AcDbEntity
  8
BEMA_UNG
 62
     7
100
AcDbVertex
100
AcDb2dVertex
 10
-9.90138321126979
 20
-3.831034834297347
 30
0.0
  0
VERTEX
  5
72D
330
72B
100
AcDbEntity
  8
BEMA_UNG
 62
     7
100
AcDbVertex
100
AcDb2dVertex
 10
-9.90138321126979
 20
-31.33075254023098
 30
0.0
  0
SEQEND
  5
72E
330
72B
100
AcDbEntity
  8
BEMA_UNG
  0
POLYLINE
  5
72F
330
1F
100
AcDbEntity
  8
BEMA_UNG
 62
     7
100
AcDb2dPolyline
 66
     1
 10
0.0
 20
0.0
 30
0.0
  0
VERTEX
  5
730
330
72F
100
AcDbEntity
  8
BEMA_UNG
 62
     7
100
AcDbVertex
100
AcDb2dVertex
 10
-9.90138321126979
 20
-12.58089411996844
 30
0.0
  0
VERTEX
  5
731
330
72F
100
AcDbEntity
  8
BEMA_UNG
 62
     7
100
AcDbVertex
100
AcDb2dVertex
 10
-9.441118150806108
 20
-9.080674797879368
 30
0.0
  0
VERTEX
  5
732
330
72F
100
AcDbEntity
  8
BEMA_UNG
 62
     7
100
AcDbVertex
100
AcDb2dVertex
 10
-10.36216503639717
 20
-9.080674797879368
 30
0.0
  0
VERTEX
  5
733
330
72F
100
AcDbEntity
  8
BEMA_UNG
 62
     7
100
AcDbVertex
100
AcDb2dVertex
 10
-9.90138321126979
 20
-12.58089411996844
 30
0.0
  0
SEQEND
  5
734
330
72F
100
AcDbEntity
  8
BEMA_UNG
  0
POLYLINE
  5
735
330
1F
100
AcDbEntity
  8
BEMA_UNG
 62
     7
100
AcDb2dPolyline
 66
     1
 10
0.0
 20
0.0
 30
0.0
  0
VERTEX
  5
736
330
735
100
AcDbEntity
  8
BEMA_UNG
 62
     7
100
AcDbVertex
100
AcDb2dVertex
 10
-9.444563248564071
 20
-9.080674797879368
 30
0.0
  0
VERTEX
  5
737
330
735
100
AcDbEntity
  8
BEMA_UNG
 62
     7
100
AcDbVertex
100
AcDb2dVertex
 10
-9.444563248564071
 20
-9.107891070167264
 30
0.0
  0
SEQEND
  5
738
330
735
100
AcDbEntity
  8
BEMA_UNG
  0
POLYLINE
  5
739
330
1F
100
AcDbEntity
  8
BEMA_UNG
 62
     7
100
AcDb2dPolyline
 66
     1
 10
0.0
 20
0.0
 30
0.0
  0
VERTEX
  5
73A
330
739
100
AcDbEntity
  8
BEMA_UNG
 62
     7
100
AcDbVertex
100
AcDb2dVertex
 10
-9.444563248564071
 20
-9.080674797879368
 30
0.0
  0
VERTEX
  5
73B
330
739
100
AcDbEntity
  8
BEMA_UNG
 62
     7
100
AcDbVertex
100
AcDb2dVertex
 10
-9.444563248564071
 20
-9.107891070167264
 30
0.0
  0
SEQEND
  5
73C
330
739
100
AcDbEntity
  8
BEMA_UNG
  0
POLYLINE
  5
73D
330
1F
100
AcDbEntity
  8
BEMA_UNG
 62
     7
100
AcDb2dPolyline
 66
     1
 10
0.0
 20
0.0
 30
0.0
  0
VERTEX
  5
73E
330
73D
100
AcDbEntity
  8
BEMA_UNG
 62
     7
100
AcDbVertex
100
AcDb2dVertex
 10
-9.495378440494006
 20
-9.080674797879368
 30
0.0
  0
VERTEX
  5
73F
330
73D
100
AcDbEntity
  8
BEMA_UNG
 62
     7
100
AcDbVertex
100
AcDb2dVertex
 10
-9.495378440494006
 20
-9.493397509283177
 30
0.0
  0
SEQEND
  5
740
330
73D
100
AcDbEntity
  8
BEMA_UNG
  0
POLYLINE
  5
741
330
1F
100
AcDbEntity
  8
BEMA_UNG
 62
     7
100
AcDb2dPolyline
 66
     1
 10
0.0
 20
0.0
 30
0.0
  0
VERTEX
  5
742
330
741
100
AcDbEntity
  8
BEMA_UNG
 62
     7
100
AcDbVertex
100
AcDb2dVertex
 10
-9.546193632423941
 20
-9.080674797879368
 30
0.0
  0
VERTEX
  5
743
330
741
100
AcDbEntity
  8
BEMA_UNG
 62
     7
100
AcDbVertex
100
AcDb2dVertex
 10
-9.546193632423941
 20
-9.87976522283858
 30
0.0
  0
SEQEND
  5
744
330
741
100
AcDbEntity
  8
BEMA_UNG
  0
POLYLINE
  5
745
330
1F
100
AcDbEntity
  8
BEMA_UNG
 62
     7
100
AcDb2dPolyline
 66
     1
 10
0.0
 20
0.0
 30
0.0
  0
VERTEX
  5
746
330
745
100
AcDbEntity
  8
BEMA_UNG
 62
     7
100
AcDbVertex
100
AcDb2dVertex
 10
-9.597008824353875
 20
-9.080674797879368
 30
0.0
  0
VERTEX
  5
747
330
745
100
AcDbEntity
  8
BEMA_UNG
 62
     7
100
AcDbVertex
100
AcDb2dVertex
 10
-9.597008824353875
 20
-10.26561617173029
 30
0.0
  0
SEQEND
  5
748
330
745
100
AcDbEntity
  8
BEMA_UNG
  0
POLYLINE
  5
749
330
1F
100
AcDbEntity
  8
BEMA_UNG
 62
     7
100
AcDb2dPolyline
 66
     1
 10
0.0
 20
0.0
 30
0.0
  0
VERTEX
  5
74A
330
749
100
AcDbEntity
  8
BEMA_UNG
 62
     7
100
AcDbVertex
100
AcDb2dVertex
 10
-9.64782401628381
 20
-9.080674797879368
 30
0.0
  0
VERTEX
  5
74B
330
749
100
AcDbEntity
  8
BEMA_UNG
 62
     7
100
AcDbVertex
100
AcDb2dVertex
 10
-9.64782401628381
 20
-10.6512948657341
 30
0.0
  0
SEQEND
  5
74C
330
749
100
AcDbEntity
  8
BEMA_UNG
  0
POLYLINE
  5
74D
330
1F
100
AcDbEntity
  8
BEMA_UNG
 62
     7
100
AcDb2dPolyline
 66
     1
 10
0.0
 20
0.0
 30
0.0
  0
VERTEX
  5
74E
330
74D
100
AcDbEntity
  8
BEMA_UNG
 62
     7
100
AcDbVertex
100
AcDb2dVertex
 10
-9.69829469843795
 20
-9.080674797879368
 30
0.0
  0
VERTEX
  5
74F
330
74D
100
AcDbEntity
  8
BEMA_UNG
 62
     7
100
AcDbVertex
100
AcDb2dVertex
 10
-9.69829469843795
 20
-11.03749032440161
 30
0.0
  0
SEQEND
  5
750
330
74D
100
AcDbEntity
  8
BEMA_UNG
  0
POLYLINE
  5
751
330
1F
100
AcDbEntity
  8
BEMA_UNG
 62
     7
100
AcDb2dPolyline
 66
     1
 10
0.0
 20
0.0
 30
0.0
  0
VERTEX
  5
752
330
751
100
AcDbEntity
  8
BEMA_UNG
 62
     7
100
AcDbVertex
100
AcDb2dVertex
 10
-9.749109890367885
 20
-9.080674797879368
 30
0.0
  0
VERTEX
  5
753
330
751
100
AcDbEntity
  8
BEMA_UNG
 62
     7
100
AcDbVertex
100
AcDb2dVertex
 10
-9.749109890367885
 20
-11.42316901840542
 30
0.0
  0
SEQEND
  5
754
330
751
100
AcDbEntity
  8
BEMA_UNG
  0
POLYLINE
  5
755
330
1F
100
AcDbEntity
  8
BEMA_UNG
 62
     7
100
AcDb2dPolyline
 66
     1
 10
0.0
 20
0.0
 30
0.0
  0
VERTEX
  5
756
330
755
100
AcDbEntity
  8
BEMA_UNG
 62
     7
100
AcDbVertex
100
AcDb2dVertex
 10
-9.799925082297818
 20
-9.080674797879368
 30
0.0
  0
VERTEX
  5
757
330
755
100
AcDbEntity
  8
BEMA_UNG
 62
     7
100
AcDbVertex
100
AcDb2dVertex
 10
-9.799925082297818
 20
-11.80901996729713
 30
0.0
  0
SEQEND
  5
758
330
755
100
AcDbEntity
  8
BEMA_UNG
  0
POLYLINE
  5
759
330
1F
100
AcDbEntity
  8
BEMA_UNG
 62
     7
100
AcDb2dPolyline
 66
     1
 10
0.0
 20
0.0
 30
0.0
  0
VERTEX
  5
75A
330
759
100
AcDbEntity
  8
BEMA_UNG
 62
     7
100
AcDbVertex
100
AcDb2dVertex
 10
-9.850740274227753
 20
-9.080674797879368
 30
0.0
  0
VERTEX
  5
75B
330
759
100
AcDbEntity
  8
BEMA_UNG
 62
     7
100
AcDbVertex
100
AcDb2dVertex
 10
-9.850740274227753
 20
-12.19469866130094
 30
0.0
  0
SEQEND
  5
75C
330
759
100
AcDbEntity
  8
BEMA_UNG
  0
POLYLINE
  5
75D
330
1F
100
AcDbEntity
  8
BEMA_UNG
 62
     7
100
AcDb2dPolyline
 66
     1
 10
0.0
 20
0.0
 30
0.0
  0
VERTEX
  5
75E
330
75D
100
AcDbEntity
  8
BEMA_UNG
 62
     7
100
AcDbVertex
100
AcDb2dVertex
 10
-9.90138321126979
 20
-9.080674797879368
 30
0.0
  0
VERTEX
  5
75F
330
75D
100
AcDbEntity
  8
BEMA_UNG
 62
     7
100
AcDbVertex
100
AcDb2dVertex
 10
-9.90138321126979
 20
-12.58089411996844
 30
0.0
  0
SEQEND
  5
760
330
75D
100
AcDbEntity
  8
BEMA_UNG
  0
POLYLINE
  5
761
330
1F
100
AcDbEntity
  8
BEMA_UNG
 62
     7
100
AcDb2dPolyline
 66
     1
 10
0.0
 20
0.0
 30
0.0
  0
VERTEX
  5
762
330
761
100
AcDbEntity
  8
BEMA_UNG
 62
     7
100
AcDbVertex
100
AcDb2dVertex
 10
-10.3587199386392
 20
-9.080674797879368
 30
0.0
  0
VERTEX
  5
763
330
761
100
AcDbEntity
  8
BEMA_UNG
 62
     7
100
AcDbVertex
100
AcDb2dVertex
 10
-10.3587199386392
 20
-9.107891070167264
 30
0.0
  0
SEQEND
  5
764
330
761
100
AcDbEntity
  8
BEMA_UNG
  0
POLYLINE
  5
765
330
1F
100
AcDbEntity
  8
BEMA_UNG
 62
     7
100
AcDb2dPolyline
 66
     1
 10
0.0
 20
0.0
 30
0.0
  0
VERTEX
  5
766
330
765
100
AcDbEntity
  8
BEMA_UNG
 62
     7
100
AcDbVertex
100
AcDb2dVertex
 10
-10.3587199386392
 20
-9.080674797879368
 30
0.0
  0
VERTEX
  5
767
330
765
100
AcDbEntity
  8
BEMA_UNG
 62
     7
100
AcDbVertex
100
AcDb2dVertex
 10
-10.3587199386392
 20
-9.107891070167264
 30
0.0
  0
SEQEND
  5
768
330
765
100
AcDbEntity
  8
BEMA_UNG
  0
POLYLINE
  5
769
330
1F
100
AcDbEntity
  8
BEMA_UNG
 62
     7
100
AcDb2dPolyline
 66
     1
 10
0.0
 20
0.0
 30
0.0
  0
VERTEX
  5
76A
330
769
100
AcDbEntity
  8
BEMA_UNG
 62
     7
100
AcDbVertex
100
AcDb2dVertex
 10
-10.30790474670927
 20
-9.080674797879368
 30
0.0
  0
VERTEX
  5
76B
330
769
100
AcDbEntity
  8
BEMA_UNG
 62
     7
100
AcDbVertex
100
AcDb2dVertex
 10
-10.30790474670927
 20
-9.493397509283177
 30
0.0
  0
SEQEND
  5
76C
330
769
100
AcDbEntity
  8
BEMA_UNG
  0
POLYLINE
  5
76D
330
1F
100
AcDbEntity
  8
BEMA_UNG
 62
     7
100
AcDb2dPolyline
 66
     1
 10
0.0
 20
0.0
 30
0.0
  0
VERTEX
  5
76E
330
76D
100
AcDbEntity
  8
BEMA_UNG
 62
     7
100
AcDbVertex
100
AcDb2dVertex
 10
-10.25708955477934
 20
-9.080674797879368
 30
0.0
  0
VERTEX
  5
76F
330
76D
100
AcDbEntity
  8
BEMA_UNG
 62
     7
100
AcDbVertex
100
AcDb2dVertex
 10
-10.25708955477934
 20
-9.87976522283858
 30
0.0
  0
SEQEND
  5
770
330
76D
100
AcDbEntity
  8
BEMA_UNG
  0
POLYLINE
  5
771
330
1F
100
AcDbEntity
  8
BEMA_UNG
 62
     7
100
AcDb2dPolyline
 66
     1
 10
0.0
 20
0.0
 30
0.0
  0
VERTEX
  5
772
330
771
100
AcDbEntity
  8
BEMA_UNG
 62
     7
100
AcDbVertex
100
AcDb2dVertex
 10
-10.2066188726252
 20
-9.080674797879368
 30
0.0
  0
VERTEX
  5
773
330
771
100
AcDbEntity
  8
BEMA_UNG
 62
     7
100
AcDbVertex
100
AcDb2dVertex
 10
-10.2066188726252
 20
-10.26561617173029
 30
0.0
  0
SEQEND
  5
774
330
771
100
AcDbEntity
  8
BEMA_UNG
  0
POLYLINE
  5
775
330
1F
100
AcDbEntity
  8
BEMA_UNG
 62
     7
100
AcDb2dPolyline
 66
     1
 10
0.0
 20
0.0
 30
0.0
  0
VERTEX
  5
776
330
775
100
AcDbEntity
  8
BEMA_UNG
 62
     7
100
AcDbVertex
100
AcDb2dVertex
 10
-10.15580368069526
 20
-9.080674797879368
 30
0.0
  0
VERTEX
  5
777
330
775
100
AcDbEntity
  8
BEMA_UNG
 62
     7
100
AcDbVertex
100
AcDb2dVertex
 10
-10.15580368069526
 20
-10.6512948657341
 30
0.0
  0
SEQEND
  5
778
330
775
100
AcDbEntity
  8
BEMA_UNG
  0
POLYLINE
  5
779
330
1F
100
AcDbEntity
  8
BEMA_UNG
 62
     7
100
AcDb2dPolyline
 66
     1
 10
0.0
 20
0.0
 30
0.0
  0
VERTEX
  5
77A
330
779
100
AcDbEntity
  8
BEMA_UNG
 62
     7
100
AcDbVertex
100
AcDb2dVertex
 10
-10.10498848876533
 20
-9.080674797879368
 30
0.0
  0
VERTEX
  5
77B
330
779
100
AcDbEntity
  8
BEMA_UNG
 62
     7
100
AcDbVertex
100
AcDb2dVertex
 10
-10.10498848876533
 20
-11.03749032440161
 30
0.0
  0
SEQEND
  5
77C
330
779
100
AcDbEntity
  8
BEMA_UNG
  0
POLYLINE
  5
77D
330
1F
100
AcDbEntity
  8
BEMA_UNG
 62
     7
100
AcDb2dPolyline
 66
     1
 10
0.0
 20
0.0
 30
0.0
  0
VERTEX
  5
77E
330
77D
100
AcDbEntity
  8
BEMA_UNG
 62
     7
100
AcDbVertex
100
AcDb2dVertex
 10
-10.05417329683539
 20
-9.080674797879368
 30
0.0
  0
VERTEX
  5
77F
330
77D
100
AcDbEntity
  8
BEMA_UNG
 62
     7
100
AcDbVertex
100
AcDb2dVertex
 10
-10.05417329683539
 20
-11.42316901840542
 30
0.0
  0
SEQEND
  5
780
330
77D
100
AcDbEntity
  8
BEMA_UNG
  0
POLYLINE
  5
781
330
1F
100
AcDbEntity
  8
BEMA_UNG
 62
     7
100
AcDb2dPolyline
 66
     1
 10
0.0
 20
0.0
 30
0.0
  0
VERTEX
  5
782
330
781
100
AcDbEntity
  8
BEMA_UNG
 62
     7
100
AcDbVertex
100
AcDb2dVertex
 10
-10.00335810490546
 20
-9.080674797879368
 30
0.0
  0
VERTEX
  5
783
330
781
100
AcDbEntity
  8
BEMA_UNG
 62
     7
100
AcDbVertex
100
AcDb2dVertex
 10
-10.00335810490546
 20
-11.80901996729713
 30
0.0
  0
SEQEND
  5
784
330
781
100
AcDbEntity
  8
BEMA_UNG
  0
POLYLINE
  5
785
330
1F
100
AcDbEntity
  8
BEMA_UNG
 62
     7
100
AcDb2dPolyline
 66
     1
 10
0.0
 20
0.0
 30
0.0
  0
VERTEX
  5
786
330
785
100
AcDbEntity
  8
BEMA_UNG
 62
     7
100
AcDbVertex
100
AcDb2dVertex
 10
-9.952198403199725
 20
-9.080674797879368
 30
0.0
  0
VERTEX
  5
787
330
785
100
AcDbEntity
  8
BEMA_UNG
 62
     7
100
AcDbVertex
100
AcDb2dVertex
 10
-9.952198403199725
 20
-12.19469866130094
 30
0.0
  0
SEQEND
  5
788
330
785
100
AcDbEntity
  8
BEMA_UNG
  0
POLYLINE
  5
789
330
1F
100
AcDbEntity
  8
BEMA_UNG
 62
     7
100
AcDb2dPolyline
 66
     1
 10
0.0
 20
0.0
 30
0.0
  0
VERTEX
  5
78A
330
789
100
AcDbEntity
  8
BEMA_UNG
 62
     7
100
AcDbVertex
100
AcDb2dVertex
 10
-9.90138321126979
 20
-9.080674797879368
 30
0.0
  0
VERTEX
  5
78B
330
789
100
AcDbEntity
  8
BEMA_UNG
 62
     7
100
AcDbVertex
100
AcDb2dVertex
 10
-9.90138321126979
 20
-12.58089411996844
 30
0.0
  0
SEQEND
  5
78C
330
789
100
AcDbEntity
  8
BEMA_UNG
  0
POLYLINE
  5
78D
330
1F
100
AcDbEntity
  8
BEMA_UNG
 62
     7
100
AcDb2dPolyline
 66
     1
 10
0.0
 20
0.0
 30
0.0
  0
VERTEX
  5
78E
330
78D
100
AcDbEntity
  8
BEMA_UNG
 62
     7
100
AcDbVertex
100
AcDb2dVertex
 10
-9.90138321126979
 20
-22.58080712711594
 30
0.0
  0
VERTEX
  5
78F
330
78D
100
AcDbEntity
  8
BEMA_UNG
 62
     7
100
AcDbVertex
100
AcDb2dVertex
 10
-10.36216503639717
 20
-26.08042355709737
 30
0.0
  0
VERTEX
  5
790
330
78D
100
AcDbEntity
  8
BEMA_UNG
 62
     7
100
AcDbVertex
100
AcDb2dVertex
 10
-9.441118150806108
 20
-26.08042355709737
 30
0.0
  0
VERTEX
  5
791
330
78D
100
AcDbEntity
  8
BEMA_UNG
 62
     7
100
AcDbVertex
100
AcDb2dVertex
 10
-9.90138321126979
 20
-22.58080712711594
 30
0.0
  0
SEQEND
  5
792
330
78D
100
AcDbEntity
  8
BEMA_UNG
  0
POLYLINE
  5
793
330
1F
100
AcDbEntity
  8
BEMA_UNG
 62
     7
100
AcDb2dPolyline
 66
     1
 10
0.0
 20
0.0
 30
0.0
  0
VERTEX
  5
794
330
793
100
AcDbEntity
  8
BEMA_UNG
 62
     7
100
AcDbVertex
100
AcDb2dVertex
 10
-10.3587199386392
 20
-26.08042355709737
 30
0.0
  0
VERTEX
  5
795
330
793
100
AcDbEntity
  8
BEMA_UNG
 62
     7
100
AcDbVertex
100
AcDb2dVertex
 10
-10.3587199386392
 20
-26.05320728480947
 30
0.0
  0
SEQEND
  5
796
330
793
100
AcDbEntity
  8
BEMA_UNG
  0
POLYLINE
  5
797
330
1F
100
AcDbEntity
  8
BEMA_UNG
 62
     7
100
AcDb2dPolyline
 66
     1
 10
0.0
 20
0.0
 30
0.0
  0
VERTEX
  5
798
330
797
100
AcDbEntity
  8
BEMA_UNG
 62
     7
100
AcDbVertex
100
AcDb2dVertex
 10
-10.3587199386392
 20
-26.08042355709737
 30
0.0
  0
VERTEX
  5
799
330
797
100
AcDbEntity
  8
BEMA_UNG
 62
     7
100
AcDbVertex
100
AcDb2dVertex
 10
-10.3587199386392
 20
-26.05320728480947
 30
0.0
  0
SEQEND
  5
79A
330
797
100
AcDbEntity
  8
BEMA_UNG
  0
POLYLINE
  5
79B
330
1F
100
AcDbEntity
  8
BEMA_UNG
 62
     7
100
AcDb2dPolyline
 66
     1
 10
0.0
 20
0.0
 30
0.0
  0
VERTEX
  5
79C
330
79B
100
AcDbEntity
  8
BEMA_UNG
 62
     7
100
AcDbVertex
100
AcDb2dVertex
 10
-10.30790474670927
 20
-26.08042355709737
 30
0.0
  0
VERTEX
  5
79D
330
79B
100
AcDbEntity
  8
BEMA_UNG
 62
     7
100
AcDbVertex
100
AcDb2dVertex
 10
-10.30790474670927
 20
-25.66804535546936
 30
0.0
  0
SEQEND
  5
79E
330
79B
100
AcDbEntity
  8
BEMA_UNG
  0
POLYLINE
  5
79F
330
1F
100
AcDbEntity
  8
BEMA_UNG
 62
     7
100
AcDb2dPolyline
 66
     1
 10
0.0
 20
0.0
 30
0.0
  0
VERTEX
  5
7A0
330
79F
100
AcDbEntity
  8
BEMA_UNG
 62
     7
100
AcDbVertex
100
AcDb2dVertex
 10
-10.25708955477934
 20
-26.08042355709737
 30
0.0
  0
VERTEX
  5
7A1
330
79F
100
AcDbEntity
  8
BEMA_UNG
 62
     7
100
AcDbVertex
100
AcDb2dVertex
 10
-10.25708955477934
 20
-25.28184989680185
 30
0.0
  0
SEQEND
  5
7A2
330
79F
100
AcDbEntity
  8
BEMA_UNG
  0
POLYLINE
  5
7A3
330
1F
100
AcDbEntity
  8
BEMA_UNG
 62
     7
100
AcDb2dPolyline
 66
     1
 10
0.0
 20
0.0
 30
0.0
  0
VERTEX
  5
7A4
330
7A3
100
AcDbEntity
  8
BEMA_UNG
 62
     7
100
AcDbVertex
100
AcDb2dVertex
 10
-10.2066188726252
 20
-26.08042355709737
 30
0.0
  0
VERTEX
  5
7A5
330
7A3
100
AcDbEntity
  8
BEMA_UNG
 62
     7
100
AcDbVertex
100
AcDb2dVertex
 10
-10.2066188726252
 20
-24.89599894791014
 30
0.0
  0
SEQEND
  5
7A6
330
7A3
100
AcDbEntity
  8
BEMA_UNG
  0
POLYLINE
  5
7A7
330
1F
100
AcDbEntity
  8
BEMA_UNG
 62
     7
100
AcDb2dPolyline
 66
     1
 10
0.0
 20
0.0
 30
0.0
  0
VERTEX
  5
7A8
330
7A7
100
AcDbEntity
  8
BEMA_UNG
 62
     7
100
AcDbVertex
100
AcDb2dVertex
 10
-10.15580368069526
 20
-26.08042355709737
 30
0.0
  0
VERTEX
  5
7A9
330
7A7
100
AcDbEntity
  8
BEMA_UNG
 62
     7
100
AcDbVertex
100
AcDb2dVertex
 10
-10.15580368069526
 20
-24.50980348924264
 30
0.0
  0
SEQEND
  5
7AA
330
7A7
100
AcDbEntity
  8
BEMA_UNG
  0
POLYLINE
  5
7AB
330
1F
100
AcDbEntity
  8
BEMA_UNG
 62
     7
100
AcDb2dPolyline
 66
     1
 10
0.0
 20
0.0
 30
0.0
  0
VERTEX
  5
7AC
330
7AB
100
AcDbEntity
  8
BEMA_UNG
 62
     7
100
AcDbVertex
100
AcDb2dVertex
 10
-10.10498848876533
 20
-26.08042355709737
 30
0.0
  0
VERTEX
  5
7AD
330
7AB
100
AcDbEntity
  8
BEMA_UNG
 62
     7
100
AcDbVertex
100
AcDb2dVertex
 10
-10.10498848876533
 20
-24.12429705012672
 30
0.0
  0
SEQEND
  5
7AE
330
7AB
100
AcDbEntity
  8
BEMA_UNG
  0
POLYLINE
  5
7AF
330
1F
100
AcDbEntity
  8
BEMA_UNG
 62
     7
100
AcDb2dPolyline
 66
     1
 10
0.0
 20
0.0
 30
0.0
  0
VERTEX
  5
7B0
330
7AF
100
AcDbEntity
  8
BEMA_UNG
 62
     7
100
AcDbVertex
100
AcDb2dVertex
 10
-10.05417329683539
 20
-26.08042355709737
 30
0.0
  0
VERTEX
  5
7B1
330
7AF
100
AcDbEntity
  8
BEMA_UNG
 62
     7
100
AcDbVertex
100
AcDb2dVertex
 10
-10.05417329683539
 20
-23.73835997379107
 30
0.0
  0
SEQEND
  5
7B2
330
7AF
100
AcDbEntity
  8
BEMA_UNG
  0
POLYLINE
  5
7B3
330
1F
100
AcDbEntity
  8
BEMA_UNG
 62
     7
100
AcDb2dPolyline
 66
     1
 10
0.0
 20
0.0
 30
0.0
  0
VERTEX
  5
7B4
330
7B3
100
AcDbEntity
  8
BEMA_UNG
 62
     7
100
AcDbVertex
100
AcDb2dVertex
 10
-10.00335810490546
 20
-26.08042355709737
 30
0.0
  0
VERTEX
  5
7B5
330
7B3
100
AcDbEntity
  8
BEMA_UNG
 62
     7
100
AcDbVertex
100
AcDb2dVertex
 10
-10.00335810490546
 20
-23.35268127978726
 30
0.0
  0
SEQEND
  5
7B6
330
7B3
100
AcDbEntity
  8
BEMA_UNG
  0
POLYLINE
  5
7B7
330
1F
100
AcDbEntity
  8
BEMA_UNG
 62
     7
100
AcDb2dPolyline
 66
     1
 10
0.0
 20
0.0
 30
0.0
  0
VERTEX
  5
7B8
330
7B7
100
AcDbEntity
  8
BEMA_UNG
 62
     7
100
AcDbVertex
100
AcDb2dVertex
 10
-9.952198403199725
 20
-26.08042355709737
 30
0.0
  0
VERTEX
  5
7B9
330
7B7
100
AcDbEntity
  8
BEMA_UNG
 62
     7
100
AcDbVertex
100
AcDb2dVertex
 10
-9.952198403199725
 20
-22.96631356623185
 30
0.0
  0
SEQEND
  5
7BA
330
7B7
100
AcDbEntity
  8
BEMA_UNG
  0
POLYLINE
  5
7BB
330
1F
100
AcDbEntity
  8
BEMA_UNG
 62
     7
100
AcDb2dPolyline
 66
     1
 10
0.0
 20
0.0
 30
0.0
  0
VERTEX
  5
7BC
330
7BB
100
AcDbEntity
  8
BEMA_UNG
 62
     7
100
AcDbVertex
100
AcDb2dVertex
 10
-9.90138321126979
 20
-26.08042355709737
 30
0.0
  0
VERTEX
  5
7BD
330
7BB
100
AcDbEntity
  8
BEMA_UNG
 62
     7
100
AcDbVertex
100
AcDb2dVertex
 10
-9.90138321126979
 20
-22.58080712711594
 30
0.0
  0
SEQEND
  5
7BE
330
7BB
100
AcDbEntity
  8
BEMA_UNG
  0
POLYLINE
  5
7BF
330
1F
100
AcDbEntity
  8
BEMA_UNG
 62
     7
100
AcDb2dPolyline
 66
     1
 10
0.0
 20
0.0
 30
0.0
  0
VERTEX
  5
7C0
330
7BF
100
AcDbEntity
  8
BEMA_UNG
 62
     7
100
AcDbVertex
100
AcDb2dVertex
 10
-9.444563248564071
 20
-26.08042355709737
 30
0.0
  0
VERTEX
  5
7C1
330
7BF
100
AcDbEntity
  8
BEMA_UNG
 62
     7
100
AcDbVertex
100
AcDb2dVertex
 10
-9.444563248564071
 20
-26.05320728480947
 30
0.0
  0
SEQEND
  5
7C2
330
7BF
100
AcDbEntity
  8
BEMA_UNG
  0
POLYLINE
  5
7C3
330
1F
100
AcDbEntity
  8
BEMA_UNG
 62
     7
100
AcDb2dPolyline
 66
     1
 10
0.0
 20
0.0
 30
0.0
  0
VERTEX
  5
7C4
330
7C3
100
AcDbEntity
  8
BEMA_UNG
 62
     7
100
AcDbVertex
100
AcDb2dVertex
 10
-9.444563248564071
 20
-26.08042355709737
 30
0.0
  0
VERTEX
  5
7C5
330
7C3
100
AcDbEntity
  8
BEMA_UNG
 62
     7
100
AcDbVertex
100
AcDb2dVertex
 10
-9.444563248564071
 20
-26.05320728480947
 30
0.0
  0
SEQEND
  5
7C6
330
7C3
100
AcDbEntity
  8
BEMA_UNG
  0
POLYLINE
  5
7C7
330
1F
100
AcDbEntity
  8
BEMA_UNG
 62
     7
100
AcDb2dPolyline
 66
     1
 10
0.0
 20
0.0
 30
0.0
  0
VERTEX
  5
7C8
330
7C7
100
AcDbEntity
  8
BEMA_UNG
 62
     7
100
AcDbVertex
100
AcDb2dVertex
 10
-9.495378440494006
 20
-26.08042355709737
 30
0.0
  0
VERTEX
  5
7C9
330
7C7
100
AcDbEntity
  8
BEMA_UNG
 62
     7
100
AcDbVertex
100
AcDb2dVertex
 10
-9.495378440494006
 20
-25.66804535546936
 30
0.0
  0
SEQEND
  5
7CA
330
7C7
100
AcDbEntity
  8
BEMA_UNG
  0
POLYLINE
  5
7CB
330
1F
100
AcDbEntity
  8
BEMA_UNG
 62
     7
100
AcDb2dPolyline
 66
     1
 10
0.0
 20
0.0
 30
0.0
  0
VERTEX
  5
7CC
330
7CB
100
AcDbEntity
  8
BEMA_UNG
 62
     7
100
AcDbVertex
100
AcDb2dVertex
 10
-9.546193632423941
 20
-26.08042355709737
 30
0.0
  0
VERTEX
  5
7CD
330
7CB
100
AcDbEntity
  8
BEMA_UNG
 62
     7
100
AcDbVertex
100
AcDb2dVertex
 10
-9.546193632423941
 20
-25.28184989680185
 30
0.0
  0
SEQEND
  5
7CE
330
7CB
100
AcDbEntity
  8
BEMA_UNG
  0
POLYLINE
  5
7CF
330
1F
100
AcDbEntity
  8
BEMA_UNG
 62
     7
100
AcDb2dPolyline
 66
     1
 10
0.0
 20
0.0
 30
0.0
  0
VERTEX
  5
7D0
330
7CF
100
AcDbEntity
  8
BEMA_UNG
 62
     7
100
AcDbVertex
100
AcDb2dVertex
 10
-9.597008824353875
 20
-26.08042355709737
 30
0.0
  0
VERTEX
  5
7D1
330
7CF
100
AcDbEntity
  8
BEMA_UNG
 62
     7
100
AcDbVertex
100
AcDb2dVertex
 10
-9.597008824353875
 20
-24.89599894791014
 30
0.0
  0
SEQEND
  5
7D2
330
7CF
100
AcDbEntity
  8
BEMA_UNG
  0
POLYLINE
  5
7D3
330
1F
100
AcDbEntity
  8
BEMA_UNG
 62
     7
100
AcDb2dPolyline
 66
     1
 10
0.0
 20
0.0
 30
0.0
  0
VERTEX
  5
7D4
330
7D3
100
AcDbEntity
  8
BEMA_UNG
 62
     7
100
AcDbVertex
100
AcDb2dVertex
 10
-9.64782401628381
 20
-26.08042355709737
 30
0.0
  0
VERTEX
  5
7D5
330
7D3
100
AcDbEntity
  8
BEMA_UNG
 62
     7
100
AcDbVertex
100
AcDb2dVertex
 10
-9.64782401628381
 20
-24.50980348924264
 30
0.0
  0
SEQEND
  5
7D6
330
7D3
100
AcDbEntity
  8
BEMA_UNG
  0
POLYLINE
  5
7D7
330
1F
100
AcDbEntity
  8
BEMA_UNG
 62
     7
100
AcDb2dPolyline
 66
     1
 10
0.0
 20
0.0
 30
0.0
  0
VERTEX
  5
7D8
330
7D7
100
AcDbEntity
  8
BEMA_UNG
 62
     7
100
AcDbVertex
100
AcDb2dVertex
 10
-9.69829469843795
 20
-26.08042355709737
 30
0.0
  0
VERTEX
  5
7D9
330
7D7
100
AcDbEntity
  8
BEMA_UNG
 62
     7
100
AcDbVertex
100
AcDb2dVertex
 10
-9.69829469843795
 20
-24.12429705012672
 30
0.0
  0
SEQEND
  5
7DA
330
7D7
100
AcDbEntity
  8
BEMA_UNG
  0
POLYLINE
  5
7DB
330
1F
100
AcDbEntity
  8
BEMA_UNG
 62
     7
100
AcDb2dPolyline
 66
     1
 10
0.0
 20
0.0
 30
0.0
  0
VERTEX
  5
7DC
330
7DB
100
AcDbEntity
  8
BEMA_UNG
 62
     7
100
AcDbVertex
100
AcDb2dVertex
 10
-9.749109890367885
 20
-26.08042355709737
 30
0.0
  0
VERTEX
  5
7DD
330
7DB
100
AcDbEntity
  8
BEMA_UNG
 62
     7
100
AcDbVertex
100
AcDb2dVertex
 10
-9.749109890367885
 20
-23.73835997379107
 30
0.0
  0
SEQEND
  5
7DE
330
7DB
100
AcDbEntity
  8
BEMA_UNG
  0
POLYLINE
  5
7DF
330
1F
100
AcDbEntity
  8
BEMA_UNG
 62
     7
100
AcDb2dPolyline
 66
     1
 10
0.0
 20
0.0
 30
0.0
  0
VERTEX
  5
7E0
330
7DF
100
AcDbEntity
  8
BEMA_UNG
 62
     7
100
AcDbVertex
100
AcDb2dVertex
 10
-9.799925082297818
 20
-26.08042355709737
 30
0.0
  0
VERTEX
  5
7E1
330
7DF
100
AcDbEntity
  8
BEMA_UNG
 62
     7
100
AcDbVertex
100
AcDb2dVertex
 10
-9.799925082297818
 20
-23.35268127978726
 30
0.0
  0
SEQEND
  5
7E2
330
7DF
100
AcDbEntity
  8
BEMA_UNG
  0
POLYLINE
  5
7E3
330
1F
100
AcDbEntity
  8
BEMA_UNG
 62
     7
100
AcDb2dPolyline
 66
     1
 10
0.0
 20
0.0
 30
0.0
  0
VERTEX
  5
7E4
330
7E3
100
AcDbEntity
  8
BEMA_UNG
 62
     7
100
AcDbVertex
100
AcDb2dVertex
 10
-9.850740274227753
 20
-26.08042355709737
 30
0.0
  0
VERTEX
  5
7E5
330
7E3
100
AcDbEntity
  8
BEMA_UNG
 62
     7
100
AcDbVertex
100
AcDb2dVertex
 10
-9.850740274227753
 20
-22.96631356623185
 30
0.0
  0
SEQEND
  5
7E6
330
7E3
100
AcDbEntity
  8
BEMA_UNG
  0
POLYLINE
  5
7E7
330
1F
100
AcDbEntity
  8
BEMA_UNG
 62
     7
100
AcDb2dPolyline
 66
     1
 10
0.0
 20
0.0
 30
0.0
  0
VERTEX
  5
7E8
330
7E7
100
AcDbEntity
  8
BEMA_UNG
 62
     7
100
AcDbVertex
100
AcDb2dVertex
 10
-9.90138321126979
 20
-26.08042355709737
 30
0.0
  0
VERTEX
  5
7E9
330
7E7
100
AcDbEntity
  8
BEMA_UNG
 62
     7
100
AcDbVertex
100
AcDb2dVertex
 10
-9.90138321126979
 20
-22.58080712711594
 30
0.0
  0
SEQEND
  5
7EA
330
7E7
100
AcDbEntity
  8
BEMA_UNG
  0
MTEXT
  5
7EC
330
1F
100
AcDbEntity
  8
TEXT
 62
     7
100
AcDbMText
 10
70.14632446940954
 20
-21.38062119568604
 30
0.0
 40
3.311188396084465
 41
0.0
 71
     7
 72
     1
  1
\fINDEX Univers 45 Light|b0|i0|c0|p34;\W1;\U+00F832
 11
-4.371139000186241E-8
 21
0.999999999999999
 31
0.0
  0
MTEXT
  5
7ED
330
1F
100
AcDbEntity
  8
TEXT
 62
     7
100
AcDbMText
 10
25.43791282523751
 20
-44.08588247930834
 30
0.0
 40
3.311188396084465
 41
0.0
 71
     7
 72
     1
  1
\fINDEX Univers 45 Light|b0|i0|c0|p34;\W1;56
  0
MTEXT
  5
7EE
330
1F
100
AcDbEntity
  8
TEXT
 62
     7
100
AcDbMText
 10
16.76229539625049
 20
11.56200645805127
 30
0.0
 40
3.311188396084465
 41
0.0
 71
     7
 72
     1
  1
\fINDEX Univers 45 Light|b0|i0|c0|p34;\W1;37
  0
MTEXT
  5
7EF
330
1F
100
AcDbEntity
  8
TEXT
 62
     7
100
AcDbMText
 10
60.27146851087605
 20
10.63587805326722
 30
0.0
 40
3.311188396084465
 41
0.0
 71
     7
 72
     1
  1
\fINDEX Univers 45 Light|b0|i0|c0|p34;\W1;Capto C3
  0
MTEXT
  5
7F0
330
1F
100
AcDbEntity
  8
TEXT
 62
     7
100
AcDbMText
 10
-11.11939752359715
 20
-21.33902164025865
 30
0.0
 40
3.311188396084465
 41
0.0
 71
     7
 72
     1
  1
\fINDEX Univers 45 Light|b0|i0|c0|p34;\W1;\U+00F810
 11
-4.371139000186241E-8
 21
0.999999999999999
 31
0.0
  0
ENDSEC
  0
SECTION
  2
OBJECTS
  0
DICTIONARY
  5
C
330
0
100
AcDbDictionary
  3
ACAD_GROUP
350
D
  3
ACAD_LAYOUT
350
1A
  3
ACAD_MLINESTYLE
350
17
  3
ACAD_PLOTSETTINGS
350
19
  3
ACAD_TABLESTYLE
350
811
  3
ACAD_VISUALSTYLE
350
2A
  3
ACDBHEADERROUNDTRIPXREC
350
7F1
  0
DICTIONARY
  5
D
102
{ACAD_REACTORS
330
C
102
}
330
C
100
AcDbDictionary
  0
DICTIONARY
  5
1A
102
{ACAD_REACTORS
330
C
102
}
330
C
100
AcDbDictionary
  0
DICTIONARY
  5
17
102
{ACAD_REACTORS
330
C
102
}
330
C
100
AcDbDictionary
  3
STANDARD
350
18
  0
DICTIONARY
  5
19
102
{ACAD_REACTORS
330
C
102
}
330
C
100
AcDbDictionary
  0
DICTIONARY
  5
811
102
{ACAD_REACTORS
330
C
102
}
330
C
100
AcDbDictionary
  0
DICTIONARY
  5
2A
102
{ACAD_REACTORS
330
C
102
}
330
C
100
AcDbDictionary
  3
2DWIREFRAME
350
2F
  3
3D_HIDDEN
350
31
  3
3DWIREFRAME
350
30
  3
BASIC
350
32
  3
BRIGHTEN
350
36
  3
COLORCHANGE
350
3A
  3
CONCEPTUAL
350
34
  3
DIM
350
35
  3
FACEPATTERN
350
39
  3
FLAT
350
2B
  3
FLATWITHEDGES
350
2C
  3
GOURAUD
350
2D
  3
GOURAUDWITHEDGES
350
2E
  3
LINEPATTERN
350
38
  3
REALISTIC
350
33
  3
THICKEN
350
37
  0
DICTIONARY
  5
7F1
102
{ACAD_REACTORS
330
C
102
}
330
C
100
AcDbDictionary
  3
CEPSNTYPE
350
7FA
  3
DIMSTYLEDATA
350
810
  3
FINGERPRINTGUID
350
7FB
  3
HYPERLINKBASE
350
7F4
  3
INSUNITS
350
7F9
  3
LAYOUTDICT
350
7F6
  3
LWETCUNION
350
7F8
  3
PLOTSETDICT
350
7F7
  3
PSVPSCALE
350
7FD
  3
PUCSBASE
350
800
  3
PUCSORGBACK
350
806
  3
PUCSORGBOTTOM
350
802
  3
PUCSORGFRONT
350
805
  3
PUCSORGLEFT
350
803
  3
PUCSORGRIGHT
350
804
  3
PUCSORGTOP
350
801
  3
PUCSORTHOREF
350
7FE
  3
PUCSORTHOVIEW
350
7FF
  3
STYLESHEET
350
7F5
  3
TSTACKALIGN
350
7F2
  3
TSTACKSIZE
350
7F3
  3
UCSBASE
350
809
  3
UCSORGBACK
350
80F
  3
UCSORGBOTTOM
350
80B
  3
UCSORGFRONT
350
80E
  3
UCSORGLEFT
350
80C
  3
UCSORGRIGHT
350
80D
  3
UCSORGTOP
350
80A
  3
UCSORTHOREF
350
807
  3
UCSORTHOVIEW
350
808
  3
VERSIONGUID
350
7FC
  0
MLINESTYLE
  5
18
102
{ACAD_REACTORS
330
17
102
}
330
17
100
AcDbMlineStyle
  2
Standard
 70
     0
  3

 62
   256
 51
90.0
 52
90.0
 71
     2
 49
0.5
 62
   256
  6
BYLAYER
 49
-0.5
 62
   256
  6
BYLAYER
  0
VISUALSTYLE
  5
2F
102
{ACAD_REACTORS
330
2A
102
}
330
2A
100
AcDbVisualStyle
  2
2dWireframe
 70
     4
 71
     0
 72
     2
 73
     0
 90
        0
 40
-0.6
 41
-30.0
 62
     5
 63
     7
 74
     1
 91
        4
 64
     7
 65
   257
 75
     1
175
     1
 42
1.0
 92
        0
 66
   257
 43
1.0
 76
     1
 77
     6
 78
     2
 67
     7
 79
     5
170
     0
171
     0
290
     0
174
     0
 93
        1
 44
0.0
173
     0
291
     0
 45
0.0
1001
ACAD
1000
AcDbSavedByObjectVersion
1070
     0
  0
VISUALSTYLE
  5
31
102
{ACAD_REACTORS
330
2A
102
}
330
2A
100
AcDbVisualStyle
  2
3D Hidden
 70
     6
 71
     1
 72
     2
 73
     2
 90
        0
 40
-0.6
 41
-30.0
 62
     5
 63
     7
 74
     2
 91
        2
 64
     7
 65
   257
 75
     2
175
     1
 42
40.0
 92
        0
 66
   257
 43
1.0
 76
     1
 77
     6
 78
     2
 67
     7
 79
     3
170
     0
171
     0
290
     0
174
     0
 93
        1
 44
0.0
173
     0
291
     0
 45
0.0
1001
ACAD
1000
AcDbSavedByObjectVersion
1070
     0
  0
VISUALSTYLE
  5
30
102
{ACAD_REACTORS
330
2A
102
}
330
2A
100
AcDbVisualStyle
  2
3dWireframe
 70
     5
 71
     0
 72
     2
 73
     0
 90
        0
 40
-0.6
 41
-30.0
 62
     5
 63
     7
 74
     1
 91
        4
 64
     7
 65
   257
 75
     1
175
     1
 42
1.0
 92
        0
 66
   257
 43
1.0
 76
     1
 77
     6
 78
     2
 67
     7
 79
     5
170
     0
171
     0
290
     0
174
     0
 93
        1
 44
0.0
173
     0
291
     0
 45
0.0
1001
ACAD
1000
AcDbSavedByObjectVersion
1070
     0
  0
VISUALSTYLE
  5
32
102
{ACAD_REACTORS
330
2A
102
}
330
2A
100
AcDbVisualStyle
  2
Basic
 70
     7
 71
     1
 72
     0
 73
     1
 90
        0
 40
-0.6
 41
-30.0
 62
     5
 63
     7
 74
     0
 91
        4
 64
     7
 65
   257
 75
     1
175
     1
 42
1.0
 92
        8
 66
     7
 43
1.0
 76
     1
 77
     6
 78
     2
 67
     7
 79
     5
170
     0
171
     0
290
     0
174
     0
 93
        1
 44
0.0
173
     0
291
     1
 45
0.0
1001
ACAD
1000
AcDbSavedByObjectVersion
1070
     0
  0
VISUALSTYLE
  5
36
102
{ACAD_REACTORS
330
2A
102
}
330
2A
100
AcDbVisualStyle
  2
Brighten
 70
    12
 71
     2
 72
     2
 73
     0
 90
        0
 40
-0.6
 41
-30.0
 62
     5
 63
     7
 74
     1
 91
        4
 64
     7
 65
   257
 75
     1
175
     1
 42
1.0
 92
        8
 66
     7
 43
1.0
 76
     1
 77
     6
 78
     2
 67
     7
 79
     5
170
     0
171
     0
290
     0
174
     0
 93
        1
 44
50.0
173
     0
291
     1
 45
0.0
1001
ACAD
1000
AcDbSavedByObjectVersion
1070
     0
  0
VISUALSTYLE
  5
3A
102
{ACAD_REACTORS
330
2A
102
}
330
2A
100
AcDbVisualStyle
  2
ColorChange
 70
    16
 71
     2
 72
     2
 73
     3
 90
        0
 40
-0.6
 41
-30.0
 62
     5
 63
     8
 74
     1
 91
        4
 64
     7
 65
   257
 75
     1
175
     1
 42
1.0
 92
        8
 66
     8
 43
1.0
 76
     1
 77
     6
 78
     2
 67
     7
 79
     5
170
     0
171
     0
290
     0
174
     0
 93
        1
 44
0.0
173
     0
291
     1
 45
0.0
1001
ACAD
1000
AcDbSavedByObjectVersion
1070
     0
  0
VISUALSTYLE
  5
34
102
{ACAD_REACTORS
330
2A
102
}
330
2A
100
AcDbVisualStyle
  2
Conceptual
 70
     9
 71
     3
 72
     2
 73
     0
 90
        0
 40
-0.6
 41
-30.0
 62
     5
 63
     7
 74
     2
 91
        2
 64
     7
 65
   257
 75
     1
175
     1
 42
40.0
 92
        8
 66
     7
 43
1.0
 76
     1
 77
     6
 78
     2
 67
     7
 79
     3
170
     0
171
     0
290
     0
174
     0
 93
        1
 44
0.0
173
     0
291
     0
 45
0.0
1001
ACAD
1000
AcDbSavedByObjectVersion
1070
     0
  0
VISUALSTYLE
  5
35
102
{ACAD_REACTORS
330
2A
102
}
330
2A
100
AcDbVisualStyle
  2
Dim
 70
    11
 71
     2
 72
     2
 73
     0
 90
        0
 40
-0.6
 41
-30.0
 62
     5
 63
     7
 74
     1
 91
        4
 64
     7
 65
   257
 75
     1
175
     1
 42
1.0
 92
        8
 66
     7
 43
1.0
 76
     1
 77
     6
 78
     2
 67
     7
 79
     5
170
     0
171
     0
290
     0
174
     0
 93
        1
 44
-50.0
173
     0
291
     1
 45
0.0
1001
ACAD
1000
AcDbSavedByObjectVersion
1070
     0
  0
VISUALSTYLE
  5
39
102
{ACAD_REACTORS
330
2A
102
}
330
2A
100
AcDbVisualStyle
  2
Facepattern
 70
    15
 71
     2
 72
     2
 73
     0
 90
        0
 40
-0.6
 41
-30.0
 62
     5
 63
     7
 74
     1
 91
        4
 64
     7
 65
   257
 75
     1
175
     1
 42
1.0
 92
        8
 66
     7
 43
1.0
 76
     1
 77
     6
 78
     2
 67
     7
 79
     5
170
     0
171
     0
290
     0
174
     0
 93
        1
 44
0.0
173
     0
291
     1
 45
0.0
1001
ACAD
1000
AcDbSavedByObjectVersion
1070
     0
  0
VISUALSTYLE
  5
2B
102
{ACAD_REACTORS
330
2A
102
}
330
2A
100
AcDbVisualStyle
  2
Flat
 70
     0
 71
     2
 72
     1
 73
     1
 90
        2
 40
-0.6
 41
30.0
 62
     5
 63
     7
 74
     0
 91
        4
 64
     7
 65
   257
 75
     1
175
     1
 42
1.0
 92
        8
 66
     7
 43
1.0
 76
     1
 77
     6
 78
     2
 67
     7
 79
     5
170
     0
171
     0
290
     0
174
     0
 93
       13
 44
0.0
173
     0
291
     1
 45
0.0
1001
ACAD
1000
AcDbSavedByObjectVersion
1070
     0
  0
VISUALSTYLE
  5
2C
102
{ACAD_REACTORS
330
2A
102
}
330
2A
100
AcDbVisualStyle
  2
FlatWithEdges
 70
     1
 71
     2
 72
     1
 73
     1
 90
        2
 40
-0.6
 41
30.0
 62
     5
 63
     7
 74
     1
 91
        4
 64
     7
 65
   257
 75
     1
175
     1
 42
1.0
 92
        0
 66
   257
 43
1.0
 76
     1
 77
     6
 78
     2
 67
     7
 79
     5
170
     0
171
     0
290
     0
174
     0
 93
       13
 44
0.0
173
     0
291
     1
 45
0.0
1001
ACAD
1000
AcDbSavedByObjectVersion
1070
     0
  0
VISUALSTYLE
  5
2D
102
{ACAD_REACTORS
330
2A
102
}
330
2A
100
AcDbVisualStyle
  2
Gouraud
 70
     2
 71
     2
 72
     2
 73
     1
 90
        2
 40
-0.6
 41
30.0
 62
     5
 63
     7
 74
     0
 91
        4
 64
     7
 65
   257
 75
     1
175
     1
 42
1.0
 92
        0
 66
     7
 43
1.0
 76
     1
 77
     6
 78
     2
 67
     7
 79
     5
170
     0
171
     0
290
     0
174
     0
 93
       13
 44
0.0
173
     0
291
     1
 45
0.0
1001
ACAD
1000
AcDbSavedByObjectVersion
1070
     0
  0
VISUALSTYLE
  5
2E
102
{ACAD_REACTORS
330
2A
102
}
330
2A
100
AcDbVisualStyle
  2
GouraudWithEdges
 70
     3
 71
     2
 72
     2
 73
     1
 90
        2
 40
-0.6
 41
30.0
 62
     5
 63
     7
 74
     1
 91
        4
 64
     7
 65
   257
 75
     1
175
     1
 42
1.0
 92
        0
 66
   257
 43
1.0
 76
     1
 77
     6
 78
     2
 67
     7
 79
     5
170
     0
171
     0
290
     0
174
     0
 93
       13
 44
0.0
173
     0
291
     1
 45
0.0
1001
ACAD
1000
AcDbSavedByObjectVersion
1070
     0
  0
VISUALSTYLE
  5
38
102
{ACAD_REACTORS
330
2A
102
}
330
2A
100
AcDbVisualStyle
  2
Linepattern
 70
    14
 71
     2
 72
     2
 73
     0
 90
        0
 40
-0.6
 41
-30.0
 62
     5
 63
     7
 74
     1
 91
        4
 64
     7
 65
   257
 75
     7
175
     7
 42
1.0
 92
        8
 66
     7
 43
1.0
 76
     1
 77
     6
 78
     2
 67
     7
 79
     5
170
     0
171
     0
290
     0
174
     0
 93
        1
 44
0.0
173
     0
291
     1
 45
0.0
1001
ACAD
1000
AcDbSavedByObjectVersion
1070
     0
  0
VISUALSTYLE
  5
33
102
{ACAD_REACTORS
330
2A
102
}
330
2A
100
AcDbVisualStyle
  2
Realistic
 70
     8
 71
     2
 72
     2
 73
     0
 90
        0
 40
-0.6
 41
-30.0
 62
     5
 63
     7
 74
     1
 91
        0
 64
     7
 65
   257
 75
     1
175
     1
 42
1.0
 92
        8
 66
     8
 43
1.0
 76
     1
 77
     6
 78
     2
 67
     7
 79
     5
170
     0
171
     0
290
     0
174
     0
 93
       13
 44
0.0
173
     0
291
     0
 45
0.0
1001
ACAD
1000
AcDbSavedByObjectVersion
1070
     0
  0
VISUALSTYLE
  5
37
102
{ACAD_REACTORS
330
2A
102
}
330
2A
100
AcDbVisualStyle
  2
Thicken
 70
    13
 71
     2
 72
     2
 73
     0
 90
        0
 40
-0.6
 41
-30.0
 62
     5
 63
     7
 74
     1
 91
        4
 64
     7
 65
   257
 75
     1
175
     1
 42
1.0
 92
       12
 66
     7
 43
1.0
 76
     1
 77
     6
 78
     2
 67
     7
 79
     5
170
     0
171
     0
290
     0
174
     0
 93
        1
 44
0.0
173
     0
291
     1
 45
0.0
1001
ACAD
1000
AcDbSavedByObjectVersion
1070
     0
  0
XRECORD
  5
7FA
102
{ACAD_REACTORS
330
7F1
102
}
330
7F1
100
AcDbXrecord
 90
        0
  0
XRECORD
  5
810
102
{ACAD_REACTORS
330
7F1
102
}
330
7F1
100
AcDbXrecord
1000
DSTYLE
1002
{
1070
   340
340
11
1002
}
  0
XRECORD
  5
7FB
102
{ACAD_REACTORS
330
7F1
102
}
330
7F1
100
AcDbXrecord
  1
{7B028E0E-F949-4E03-8C64-FD37F29838C7}
  0
XRECORD
  5
7F4
102
{ACAD_REACTORS
330
7F1
102
}
330
7F1
100
AcDbXrecord
  1

  0
XRECORD
  5
7F9
102
{ACAD_REACTORS
330
7F1
102
}
330
7F1
100
AcDbXrecord
 90
        1
  0
XRECORD
  5
7F6
102
{ACAD_REACTORS
330
7F1
102
}
330
7F1
100
AcDbXrecord
340
1A
  0
XRECORD
  5
7F8
102
{ACAD_REACTORS
330
7F1
102
}
330
7F1
100
AcDbXrecord
 90
    10269
  0
XRECORD
  5
7F7
102
{ACAD_REACTORS
330
7F1
102
}
330
7F1
100
AcDbXrecord
340
19
  0
XRECORD
  5
7FD
102
{ACAD_REACTORS
330
7F1
102
}
330
7F1
100
AcDbXrecord
 40
0.0
  0
XRECORD
  5
800
102
{ACAD_REACTORS
330
7F1
102
}
330
7F1
100
AcDbXrecord
340
0
  0
XRECORD
  5
806
102
{ACAD_REACTORS
330
7F1
102
}
330
7F1
100
AcDbXrecord
 10
0.0
 20
0.0
 30
0.0
  0
XRECORD
  5
802
102
{ACAD_REACTORS
330
7F1
102
}
330
7F1
100
AcDbXrecord
 10
0.0
 20
0.0
 30
0.0
  0
XRECORD
  5
805
102
{ACAD_REACTORS
330
7F1
102
}
330
7F1
100
AcDbXrecord
 10
0.0
 20
0.0
 30
0.0
  0
XRECORD
  5
803
102
{ACAD_REACTORS
330
7F1
102
}
330
7F1
100
AcDbXrecord
 10
0.0
 20
0.0
 30
0.0
  0
XRECORD
  5
804
102
{ACAD_REACTORS
330
7F1
102
}
330
7F1
100
AcDbXrecord
 10
0.0
 20
0.0
 30
0.0
  0
XRECORD
  5
801
102
{ACAD_REACTORS
330
7F1
102
}
330
7F1
100
AcDbXrecord
 10
0.0
 20
0.0
 30
0.0
  0
XRECORD
  5
7FE
102
{ACAD_REACTORS
330
7F1
102
}
330
7F1
100
AcDbXrecord
340
0
  0
XRECORD
  5
7FF
102
{ACAD_REACTORS
330
7F1
102
}
330
7F1
100
AcDbXrecord
 70
     0
  0
XRECORD
  5
7F5
102
{ACAD_REACTORS
330
7F1
102
}
330
7F1
100
AcDbXrecord
  1

  0
XRECORD
  5
7F2
102
{ACAD_REACTORS
330
7F1
102
}
330
7F1
100
AcDbXrecord
 90
        1
  0
XRECORD
  5
7F3
102
{ACAD_REACTORS
330
7F1
102
}
330
7F1
100
AcDbXrecord
 90
       70
  0
XRECORD
  5
809
102
{ACAD_REACTORS
330
7F1
102
}
330
7F1
100
AcDbXrecord
340
0
  0
XRECORD
  5
80F
102
{ACAD_REACTORS
330
7F1
102
}
330
7F1
100
AcDbXrecord
 10
0.0
 20
0.0
 30
0.0
  0
XRECORD
  5
80B
102
{ACAD_REACTORS
330
7F1
102
}
330
7F1
100
AcDbXrecord
 10
0.0
 20
0.0
 30
0.0
  0
XRECORD
  5
80E
102
{ACAD_REACTORS
330
7F1
102
}
330
7F1
100
AcDbXrecord
 10
0.0
 20
0.0
 30
0.0
  0
XRECORD
  5
80C
102
{ACAD_REACTORS
330
7F1
102
}
330
7F1
100
AcDbXrecord
 10
0.0
 20
0.0
 30
0.0
  0
XRECORD
  5
80D
102
{ACAD_REACTORS
330
7F1
102
}
330
7F1
100
AcDbXrecord
 10
0.0
 20
0.0
 30
0.0
  0
XRECORD
  5
80A
102
{ACAD_REACTORS
330
7F1
102
}
330
7F1
100
AcDbXrecord
 10
0.0
 20
0.0
 30
0.0
  0
XRECORD
  5
807
102
{ACAD_REACTORS
330
7F1
102
}
330
7F1
100
AcDbXrecord
340
0
  0
XRECORD
  5
808
102
{ACAD_REACTORS
330
7F1
102
}
330
7F1
100
AcDbXrecord
 70
     0
  0
XRECORD
  5
7FC
102
{ACAD_REACTORS
330
7F1
102
}
330
7F1
100
AcDbXrecord
  1
{FAEB1C32-E019-11D5-929B-00C0DF256EC4}
  0
ENDSEC
  0
EOF
