  0
SECTION
  2
HEADER
  9
$ACADVER
  1
AC1014
  9
$ACADMAINTVER
 70
     9
  9
$DWGCODEPAGE
  3
ANSI_1252
  9
$INSBASE
 10
0.0
 20
0.0
 30
0.0
  9
$EXTMIN
 10
1.000000000000000E+20
 20
1.000000000000000E+20
 30
1.000000000000000E+20
  9
$EXTMAX
 10
-1.000000000000000E+20
 20
-1.000000000000000E+20
 30
-1.000000000000000E+20
  9
$LIMMIN
 10
0.0
 20
0.0
  9
$LIMMAX
 10
12.0
 20
9.0
  9
$ORTHOMODE
 70
     0
  9
$REGENMODE
 70
     1
  9
$FILLMODE
 70
     1
  9
$QTEXTMODE
 70
     0
  9
$MIRRTEXT
 70
     1
  9
$DRAGMODE
 70
     2
  9
$LTSCALE
 40
1.0
  9
$OSMODE
 70
    37
  9
$ATTMODE
 70
     1
  9
$TEXTSIZE
 40
0.2
  9
$TRACEWID
 40
0.05
  9
$TEXTSTYLE
  7
STANDARD
  9
$CLAYER
  8
0
  9
$CELTYPE
  6
BYLAYER
  9
$CECOLOR
 62
   256
  9
$CELTSCALE
 40
1.0
  9
$DELOBJ
 70
     1
  9
$DISPSILH
 70
     0
  9
$DIMSCALE
 40
1.0
  9
$DIMASZ
 40
0.18
  9
$DIMEXO
 40
0.0625
  9
$DIMDLI
 40
0.38
  9
$DIMRND
 40
0.0
  9
$DIMDLE
 40
0.0
  9
$DIMEXE
 40
0.18
  9
$DIMTP
 40
0.0
  9
$DIMTM
 40
0.0
  9
$DIMTXT
 40
0.18
  9
$DIMCEN
 40
0.09
  9
$DIMTSZ
 40
0.0
  9
$DIMTOL
 70
     0
  9
$DIMLIM
 70
     0
  9
$DIMTIH
 70
     1
  9
$DIMTOH
 70
     1
  9
$DIMSE1
 70
     0
  9
$DIMSE2
 70
     0
  9
$DIMTAD
 70
     0
  9
$DIMZIN
 70
     0
  9
$DIMBLK
  1

  9
$DIMASO
 70
     1
  9
$DIMSHO
 70
     1
  9
$DIMPOST
  1

  9
$DIMAPOST
  1

  9
$DIMALT
 70
     0
  9
$DIMALTD
 70
     2
  9
$DIMALTF
 40
25.4
  9
$DIMLFAC
 40
1.0
  9
$DIMTOFL
 70
     0
  9
$DIMTVP
 40
0.0
  9
$DIMTIX
 70
     0
  9
$DIMSOXD
 70
     0
  9
$DIMSAH
 70
     0
  9
$DIMBLK1
  1

  9
$DIMBLK2
  1

  9
$DIMSTYLE
  2
STANDARD
  9
$DIMCLRD
 70
     0
  9
$DIMCLRE
 70
     0
  9
$DIMCLRT
 70
     0
  9
$DIMTFAC
 40
1.0
  9
$DIMGAP
 40
0.09
  9
$DIMJUST
 70
     0
  9
$DIMSD1
 70
     0
  9
$DIMSD2
 70
     0
  9
$DIMTOLJ
 70
     1
  9
$DIMTZIN
 70
     0
  9
$DIMALTZ
 70
     0
  9
$DIMALTTZ
 70
     0
  9
$DIMFIT
 70
     3
  9
$DIMUPT
 70
     0
  9
$DIMUNIT
 70
     2
  9
$DIMDEC
 70
     4
  9
$DIMTDEC
 70
     4
  9
$DIMALTU
 70
     2
  9
$DIMALTTD
 70
     2
  9
$DIMTXSTY
  7
STANDARD
  9
$DIMAUNIT
 70
     0
  9
$LUNITS
 70
     2
  9
$LUPREC
 70
     4
  9
$SKETCHINC
 40
0.1
  9
$FILLETRAD
 40
0.5
  9
$AUNITS
 70
     0
  9
$AUPREC
 70
     0
  9
$MENU
  1
.
  9
$ELEVATION
 40
0.0
  9
$PELEVATION
 40
0.0
  9
$THICKNESS
 40
0.0
  9
$LIMCHECK
 70
     0
  9
$CHAMFERA
 40
0.5
  9
$CHAMFERB
 40
0.5
  9
$CHAMFERC
 40
1.0
  9
$CHAMFERD
 40
0.0
  9
$SKPOLY
 70
     0
  9
$TDCREATE
 40
2458417.406821759
  9
$TDUPDATE
 40
2458417.406821771
  9
$TDINDWG
 40
0.0000000116
  9
$TDUSRTIMER
 40
0.0000000116
  9
$USRTIMER
 70
     1
  9
$ANGBASE
 50
0.0
  9
$ANGDIR
 70
     0
  9
$PDMODE
 70
     0
  9
$PDSIZE
 40
0.0
  9
$PLINEWID
 40
0.0
  9
$COORDS
 70
     1
  9
$SPLFRAME
 70
     0
  9
$SPLINETYPE
 70
     6
  9
$SPLINESEGS
 70
     8
  9
$ATTDIA
 70
     0
  9
$ATTREQ
 70
     1
  9
$HANDLING
 70
     1
  9
$HANDSEED
  5
428
  9
$SURFTAB1
 70
     6
  9
$SURFTAB2
 70
     6
  9
$SURFTYPE
 70
     6
  9
$SURFU
 70
     6
  9
$SURFV
 70
     6
  9
$UCSNAME
  2

  9
$UCSORG
 10
0.0
 20
0.0
 30
0.0
  9
$UCSXDIR
 10
1.0
 20
0.0
 30
0.0
  9
$UCSYDIR
 10
0.0
 20
1.0
 30
0.0
  9
$PUCSNAME
  2

  9
$PUCSORG
 10
0.0
 20
0.0
 30
0.0
  9
$PUCSXDIR
 10
1.0
 20
0.0
 30
0.0
  9
$PUCSYDIR
 10
0.0
 20
1.0
 30
0.0
  9
$USERI1
 70
     0
  9
$USERI2
 70
     0
  9
$USERI3
 70
     0
  9
$USERI4
 70
     0
  9
$USERI5
 70
     0
  9
$USERR1
 40
0.0
  9
$USERR2
 40
0.0
  9
$USERR3
 40
0.0
  9
$USERR4
 40
0.0
  9
$USERR5
 40
0.0
  9
$WORLDVIEW
 70
     1
  9
$SHADEDGE
 70
     3
  9
$SHADEDIF
 70
    70
  9
$TILEMODE
 70
     1
  9
$MAXACTVP
 70
    64
  9
$PINSBASE
 10
0.0
 20
0.0
 30
0.0
  9
$PLIMCHECK
 70
     0
  9
$PEXTMIN
 10
1.000000000000000E+20
 20
1.000000000000000E+20
 30
1.000000000000000E+20
  9
$PEXTMAX
 10
-1.000000000000000E+20
 20
-1.000000000000000E+20
 30
-1.000000000000000E+20
  9
$PLIMMIN
 10
0.0
 20
0.0
  9
$PLIMMAX
 10
12.0
 20
9.0
  9
$UNITMODE
 70
     0
  9
$VISRETAIN
 70
     1
  9
$PLINEGEN
 70
     0
  9
$PSLTSCALE
 70
     1
  9
$TREEDEPTH
 70
  3020
  9
$PICKSTYLE
 70
     1
  9
$CMLSTYLE
  2
STANDARD
  9
$CMLJUST
 70
     0
  9
$CMLSCALE
 40
1.0
  9
$PROXYGRAPHICS
 70
     1
  9
$MEASUREMENT
 70
     0
  0
ENDSEC
  0
SECTION
  2
CLASSES
  0
CLASS
  1
ACDBDICTIONARYWDFLT
  2
AcDbDictionaryWithDefault
  3
ObjectDBX Classes
 90
        0
280
     0
281
     0
  0
CLASS
  1
VISUALSTYLE
  2
AcDbVisualStyle
  3
ObjectDBX Classes
 90
     4095
280
     0
281
     0
  0
CLASS
  1
XRECORD
  2
AcDbXrecord
  3
AutoCAD 2000
 90
        0
280
     0
281
     0
  0
CLASS
  1
LWPOLYLINE
  2
AcDbPolyline
  3
AutoCAD 2000
 90
        0
280
     0
281
     1
  0
CLASS
  1
HATCH
  2
AcDbHatch
  3
AutoCAD 2000
 90
        0
280
     0
281
     1
  0
CLASS
  1
ACDBPLACEHOLDER
  2
AcDbPlaceHolder
  3
ObjectDBX Classes
 90
        0
280
     0
281
     0
  0
CLASS
  1
LAYOUT
  2
AcDbLayout
  3
ObjectDBX Classes
 90
        0
280
     0
281
     0
  0
ENDSEC
  0
SECTION
  2
TABLES
  0
TABLE
  2
VPORT
  5
8
330
0
100
AcDbSymbolTable
 70
     1
  0
VPORT
  5
29
330
8
100
AcDbSymbolTableRecord
100
AcDbViewportTableRecord
  2
*ACTIVE
 70
     0
 10
0.0
 20
0.0
 11
1.0
 21
1.0
 12
0.0
 22
0.0
 13
0.0
 23
0.0
 14
0.5
 24
0.5
 15
0.5
 25
0.5
 16
0.0
 26
0.0
 36
1.0
 17
99.99303518550522
 27
127.3042018995976
 37
0.0
 40
209.9999294179862
 41
1.414285995518093
 42
50.0
 43
0.0
 44
0.0
 50
0.0
 51
0.0
 71
     0
 72
   100
 73
     1
 74
     3
 75
     0
 76
     0
 77
     0
 78
     0
  0
ENDTAB
  0
TABLE
  2
LTYPE
  5
5
330
0
100
AcDbSymbolTable
 70
     1
  0
LTYPE
  5
14
330
5
100
AcDbSymbolTableRecord
100
AcDbLinetypeTableRecord
  2
BYBLOCK
 70
     0
  3

 72
    65
 73
     0
 40
0.0
  0
LTYPE
  5
15
330
5
100
AcDbSymbolTableRecord
100
AcDbLinetypeTableRecord
  2
BYLAYER
 70
     0
  3

 72
    65
 73
     0
 40
0.0
  0
LTYPE
  5
16
330
5
100
AcDbSymbolTableRecord
100
AcDbLinetypeTableRecord
  2
CONTINUOUS
 70
     0
  3
Solid line
 72
    65
 73
     0
 40
0.0
  0
ENDTAB
  0
TABLE
  2
LAYER
  5
2
330
0
100
AcDbSymbolTable
 70
     5
  0
LAYER
  5
10
330
2
100
AcDbSymbolTableRecord
100
AcDbLayerTableRecord
  2
0
 70
     0
 62
     7
  6
CONTINUOUS
  0
LAYER
  5
3B
330
2
100
AcDbSymbolTableRecord
100
AcDbLayerTableRecord
  2
GRAU_10_
 70
     1
 62
     7
  6
CONTINUOUS
  0
LAYER
  5
4C
330
2
100
AcDbSymbolTableRecord
100
AcDbLayerTableRecord
  2
EBENE_3
 70
     1
 62
     7
  6
CONTINUOUS
  0
LAYER
  5
E5
330
2
100
AcDbSymbolTableRecord
100
AcDbLayerTableRecord
  2
STANDARDEBENE
 70
     0
 62
     7
  6
CONTINUOUS
  0
LAYER
  5
365
330
2
100
AcDbSymbolTableRecord
100
AcDbLayerTableRecord
  2
EBENE_2
 70
     1
 62
     7
  6
CONTINUOUS
  0
ENDTAB
  0
TABLE
  2
STYLE
  5
3
330
0
100
AcDbSymbolTable
 70
     1
  0
STYLE
  5
11
330
3
100
AcDbSymbolTableRecord
100
AcDbTextStyleTableRecord
  2
STANDARD
 70
     0
 40
0.0
 41
1.0
 50
0.0
 71
     0
 42
0.2
  3
txt
  4

  0
ENDTAB
  0
TABLE
  2
VIEW
  5
6
330
0
100
AcDbSymbolTable
 70
     0
  0
ENDTAB
  0
TABLE
  2
UCS
  5
7
330
0
100
AcDbSymbolTable
 70
     0
  0
ENDTAB
  0
TABLE
  2
APPID
  5
9
330
0
100
AcDbSymbolTable
 70
     1
  0
APPID
  5
12
330
9
100
AcDbSymbolTableRecord
100
AcDbRegAppTableRecord
  2
ACAD
 70
     0
  0
ENDTAB
  0
TABLE
  2
DIMSTYLE
  5
A
330
0
100
AcDbSymbolTable
 70
     1
  0
DIMSTYLE
105
27
330
A
100
AcDbSymbolTableRecord
100
AcDbDimStyleTableRecord
  2
STANDARD
 70
     0
  3

  4

  5

  6

  7

 40
1.0
 41
0.18
 42
0.0625
 43
0.38
 44
0.18
 45
0.0
 46
0.0
 47
0.0
 48
0.0
140
0.18
141
0.09
142
0.0
143
25.4
144
1.0
145
0.0
146
1.0
147
0.09
 71
     0
 72
     0
 73
     1
 74
     1
 75
     0
 76
     0
 77
     0
 78
     0
170
     0
171
     2
172
     0
173
     0
174
     0
175
     0
176
     0
177
     0
178
     0
270
     2
271
     4
272
     4
273
     2
274
     2
340
11
275
     0
280
     0
281
     0
282
     0
283
     1
284
     0
285
     0
286
     0
287
     3
288
     0
  0
ENDTAB
  0
TABLE
  2
BLOCK_RECORD
  5
1
330
0
100
AcDbSymbolTable
 70
     1
  0
BLOCK_RECORD
  5
1F
330
1
100
AcDbSymbolTableRecord
100
AcDbBlockTableRecord
  2
*MODEL_SPACE
  0
BLOCK_RECORD
  5
1B
330
1
100
AcDbSymbolTableRecord
100
AcDbBlockTableRecord
  2
*PAPER_SPACE
  0
ENDTAB
  0
ENDSEC
  0
SECTION
  2
BLOCKS
  0
BLOCK
  5
20
330
1F
100
AcDbEntity
  8
0
100
AcDbBlockBegin
  2
*MODEL_SPACE
 70
     0
 71
     0
 10
0.0
 20
0.0
 30
0.0
  3
*MODEL_SPACE
  1

  0
ENDBLK
  5
21
330
1F
100
AcDbEntity
  8
0
100
AcDbBlockEnd
  0
BLOCK
  5
1C
330
1B
100
AcDbEntity
 67
     1
  8
0
100
AcDbBlockBegin
  2
*PAPER_SPACE
 70
     0
 71
     0
 10
0.0
 20
0.0
 30
0.0
  3
*PAPER_SPACE
  1

  0
ENDBLK
  5
1D
330
1B
100
AcDbEntity
 67
     1
  8
0
100
AcDbBlockEnd
  0
ENDSEC
  0
SECTION
  2
ENTITIES
  0
POLYLINE
  5
3C
330
1F
100
AcDbEntity
  8
GRAU_10_
100
AcDb2dPolyline
 66
     1
 10
0.0
 20
0.0
 30
0.0
  0
VERTEX
  5
3D
330
3C
100
AcDbEntity
  8
GRAU_10_
100
AcDbVertex
100
AcDb2dVertex
 10
81.99378931326892
 20
159.6584716397729
 30
0.0
  0
VERTEX
  5
3E
330
3C
100
AcDbEntity
  8
GRAU_10_
100
AcDbVertex
100
AcDb2dVertex
 10
86.28775632608432
 20
161.9262057429386
 30
0.0
  0
VERTEX
  5
3F
330
3C
100
AcDbEntity
  8
GRAU_10_
100
AcDbVertex
100
AcDb2dVertex
 10
86.25743948581412
 20
160.2329413119383
 30
0.0
  0
VERTEX
  5
40
330
3C
100
AcDbEntity
  8
GRAU_10_
100
AcDbVertex
100
AcDb2dVertex
 10
89.82535262511311
 20
160.2329413119383
 30
0.0
  0
VERTEX
  5
41
330
3C
100
AcDbEntity
  8
GRAU_10_
100
AcDbVertex
100
AcDb2dVertex
 10
89.94644773141964
 20
161.7751383059104
 30
0.0
  0
VERTEX
  5
42
330
3C
100
AcDbEntity
  8
GRAU_10_
100
AcDbVertex
100
AcDb2dVertex
 10
111.8987684182059
 20
158.7513779985066
 30
0.0
  0
VERTEX
  5
43
330
3C
100
AcDbEntity
  8
GRAU_10_
100
AcDbVertex
100
AcDb2dVertex
 10
111.838479247214
 20
146.746598270605
 30
0.0
  0
VERTEX
  5
44
330
3C
100
AcDbEntity
  8
GRAU_10_
100
AcDbVertex
100
AcDb2dVertex
 10
89.79520803961718
 20
143.5715982713988
 30
0.0
  0
VERTEX
  5
45
330
3C
100
AcDbEntity
  8
GRAU_10_
100
AcDbVertex
100
AcDb2dVertex
 10
89.58367917682284
 20
144.9930446686129
 30
0.0
  0
VERTEX
  5
46
330
3C
100
AcDbEntity
  8
GRAU_10_
100
AcDbVertex
100
AcDb2dVertex
 10
86.13651663428185
 20
145.053506094379
 30
0.0
  0
VERTEX
  5
47
330
3C
100
AcDbEntity
  8
GRAU_10_
100
AcDbVertex
100
AcDb2dVertex
 10
86.16683347455205
 20
143.299435728064
 30
0.0
  0
VERTEX
  5
48
330
3C
100
AcDbEntity
  8
GRAU_10_
100
AcDbVertex
100
AcDb2dVertex
 10
81.99378931326892
 20
145.5978311810485
 30
0.0
  0
VERTEX
  5
49
330
3C
100
AcDbEntity
  8
GRAU_10_
100
AcDbVertex
100
AcDb2dVertex
 10
81.99378931326892
 20
159.6584716397729
 30
0.0
  0
SEQEND
  5
4A
330
3C
100
AcDbEntity
  8
GRAU_10_
  0
HATCH
  5
4B
330
1F
100
AcDbEntity
  8
GRAU_10_
 62
   255
100
AcDbHatch
 10
0.0
 20
0.0
 30
0.0
210
0.0
220
0.0
230
1.0
  2
SOLID
 70
     1
 71
     0
 91
        1
 92
        1
 93
       12
 72
     1
 10
81.99378931326892
 20
159.6584716397729
 11
86.28775632608432
 21
161.9262057429386
 72
     1
 10
86.28775632608432
 20
161.9262057429386
 11
86.25743948581412
 21
160.2329413119383
 72
     1
 10
86.25743948581412
 20
160.2329413119383
 11
89.82535262511311
 21
160.2329413119383
 72
     1
 10
89.82535262511311
 20
160.2329413119383
 11
89.94644773141964
 21
161.7751383059104
 72
     1
 10
89.94644773141964
 20
161.7751383059104
 11
111.8987684182059
 21
158.7513779985066
 72
     1
 10
111.8987684182059
 20
158.7513779985066
 11
111.838479247214
 21
146.746598270605
 72
     1
 10
111.838479247214
 20
146.746598270605
 11
89.79520803961718
 21
143.5715982713988
 72
     1
 10
89.79520803961718
 20
143.5715982713988
 11
89.58367917682284
 21
144.9930446686129
 72
     1
 10
89.58367917682284
 20
144.9930446686129
 11
86.13651663428185
 21
145.053506094379
 72
     1
 10
86.13651663428185
 20
145.053506094379
 11
86.16683347455205
 21
143.299435728064
 72
     1
 10
86.16683347455205
 20
143.299435728064
 11
81.99378931326892
 21
145.5978311810485
 72
     1
 10
81.99378931326892
 20
145.5978311810485
 11
81.99378931326892
 21
159.6584716397729
 97
        0
 75
     2
 76
     1
 98
        0
  0
POLYLINE
  5
4D
330
1F
100
AcDbEntity
  8
EBENE_3
 62
     7
100
AcDb2dPolyline
 66
     1
 10
0.0
 20
0.0
 30
0.0
  0
VERTEX
  5
4E
330
4D
100
AcDbEntity
  8
EBENE_3
 62
     7
100
AcDbVertex
100
AcDb2dVertex
 10
99.45904538529149
 20
154.0226399354527
 30
0.0
  0
VERTEX
  5
4F
330
4D
100
AcDbEntity
  8
EBENE_3
 62
     7
100
AcDbVertex
100
AcDb2dVertex
 10
98.99688582594523
 20
154.0226399354527
 30
0.0
  0
SEQEND
  5
50
330
4D
100
AcDbEntity
  8
EBENE_3
  0
POLYLINE
  5
51
330
1F
100
AcDbEntity
  8
EBENE_3
 62
     7
100
AcDb2dPolyline
 66
     1
 10
0.0
 20
0.0
 30
0.0
  0
VERTEX
  5
52
330
51
100
AcDbEntity
  8
EBENE_3
 62
     7
100
AcDbVertex
100
AcDb2dVertex
 10
98.07222219770416
 20
154.0226399354527
 30
0.0
  0
VERTEX
  5
53
330
51
100
AcDbEntity
  8
EBENE_3
 62
     7
100
AcDbVertex
100
AcDb2dVertex
 10
97.14721405991459
 20
154.0226399354527
 30
0.0
  0
SEQEND
  5
54
330
51
100
AcDbEntity
  8
EBENE_3
  0
POLYLINE
  5
55
330
1F
100
AcDbEntity
  8
EBENE_3
 62
     7
100
AcDb2dPolyline
 66
     1
 10
0.0
 20
0.0
 30
0.0
  0
VERTEX
  5
56
330
55
100
AcDbEntity
  8
EBENE_3
 62
     7
100
AcDbVertex
100
AcDb2dVertex
 10
96.22255043167354
 20
154.0226399354527
 30
0.0
  0
VERTEX
  5
57
330
55
100
AcDbEntity
  8
EBENE_3
 62
     7
100
AcDbVertex
100
AcDb2dVertex
 10
95.29754229388395
 20
154.0226399354527
 30
0.0
  0
SEQEND
  5
58
330
55
100
AcDbEntity
  8
EBENE_3
  0
POLYLINE
  5
59
330
1F
100
AcDbEntity
  8
EBENE_3
 62
     7
100
AcDb2dPolyline
 66
     1
 10
0.0
 20
0.0
 30
0.0
  0
VERTEX
  5
5A
330
59
100
AcDbEntity
  8
EBENE_3
 62
     7
100
AcDbVertex
100
AcDb2dVertex
 10
94.37253415609437
 20
154.0226399354527
 30
0.0
  0
VERTEX
  5
5B
330
59
100
AcDbEntity
  8
EBENE_3
 62
     7
100
AcDbVertex
100
AcDb2dVertex
 10
93.44804278262758
 20
154.0226399354527
 30
0.0
  0
SEQEND
  5
5C
330
59
100
AcDbEntity
  8
EBENE_3
  0
POLYLINE
  5
5D
330
1F
100
AcDbEntity
  8
EBENE_3
 62
     7
100
AcDb2dPolyline
 66
     1
 10
0.0
 20
0.0
 30
0.0
  0
VERTEX
  5
5E
330
5D
100
AcDbEntity
  8
EBENE_3
 62
     7
100
AcDbVertex
100
AcDb2dVertex
 10
92.52372366393504
 20
154.0226399354527
 30
0.0
  0
VERTEX
  5
5F
330
5D
100
AcDbEntity
  8
EBENE_3
 62
     7
100
AcDbVertex
100
AcDb2dVertex
 10
91.59871552614547
 20
154.0226399354527
 30
0.0
  0
SEQEND
  5
60
330
5D
100
AcDbEntity
  8
EBENE_3
  0
POLYLINE
  5
61
330
1F
100
AcDbEntity
  8
EBENE_3
 62
     7
100
AcDb2dPolyline
 66
     1
 10
0.0
 20
0.0
 30
0.0
  0
VERTEX
  5
62
330
61
100
AcDbEntity
  8
EBENE_3
 62
     7
100
AcDbVertex
100
AcDb2dVertex
 10
90.6740518979044
 20
154.0226399354527
 30
0.0
  0
VERTEX
  5
63
330
61
100
AcDbEntity
  8
EBENE_3
 62
     7
100
AcDbVertex
100
AcDb2dVertex
 10
90.21120331946109
 20
154.0226399354527
 30
0.0
  0
SEQEND
  5
64
330
61
100
AcDbEntity
  8
EBENE_3
  0
POLYLINE
  5
65
330
1F
100
AcDbEntity
  8
EBENE_3
 62
     7
100
AcDb2dPolyline
 66
     1
 10
0.0
 20
0.0
 30
0.0
  0
VERTEX
  5
66
330
65
100
AcDbEntity
  8
EBENE_3
 62
     7
100
AcDbVertex
100
AcDb2dVertex
 10
91.20924748153797
 20
154.6785861158442
 30
0.0
  0
VERTEX
  5
67
330
65
100
AcDbEntity
  8
EBENE_3
 62
     7
100
AcDbVertex
100
AcDb2dVertex
 10
90.1092284930977
 20
154.6785861158442
 30
0.0
  0
SEQEND
  5
68
330
65
100
AcDbEntity
  8
EBENE_3
  0
POLYLINE
  5
69
330
1F
100
AcDbEntity
  8
EBENE_3
 62
     7
100
AcDb2dPolyline
 66
     1
 10
0.0
 20
0.0
 30
0.0
  0
VERTEX
  5
6A
330
69
100
AcDbEntity
  8
EBENE_3
 62
     7
100
AcDbVertex
100
AcDb2dVertex
 10
89.00938175943169
 20
154.6785861158442
 30
0.0
  0
VERTEX
  5
6B
330
69
100
AcDbEntity
  8
EBENE_3
 62
     7
100
AcDbVertex
100
AcDb2dVertex
 10
88.45902775566303
 20
154.6785861158442
 30
0.0
  0
SEQEND
  5
6C
330
69
100
AcDbEntity
  8
EBENE_3
  0
POLYLINE
  5
6D
330
1F
100
AcDbEntity
  8
EBENE_3
 62
     7
100
AcDb2dPolyline
 66
     1
 10
0.0
 20
0.0
 30
0.0
  0
VERTEX
  5
6E
330
6D
100
AcDbEntity
  8
EBENE_3
 62
     7
100
AcDbVertex
100
AcDb2dVertex
 10
99.45904538529149
 20
154.1638888503479
 30
0.0
  0
VERTEX
  5
6F
330
6D
100
AcDbEntity
  8
EBENE_3
 62
     7
100
AcDbVertex
100
AcDb2dVertex
 10
98.99688582594523
 20
154.1638888503479
 30
0.0
  0
SEQEND
  5
70
330
6D
100
AcDbEntity
  8
EBENE_3
  0
POLYLINE
  5
71
330
1F
100
AcDbEntity
  8
EBENE_3
 62
     7
100
AcDb2dPolyline
 66
     1
 10
0.0
 20
0.0
 30
0.0
  0
VERTEX
  5
72
330
71
100
AcDbEntity
  8
EBENE_3
 62
     7
100
AcDbVertex
100
AcDb2dVertex
 10
98.07222219770416
 20
154.1638888503479
 30
0.0
  0
VERTEX
  5
73
330
71
100
AcDbEntity
  8
EBENE_3
 62
     7
100
AcDbVertex
100
AcDb2dVertex
 10
97.14721405991459
 20
154.1638888503479
 30
0.0
  0
SEQEND
  5
74
330
71
100
AcDbEntity
  8
EBENE_3
  0
POLYLINE
  5
75
330
1F
100
AcDbEntity
  8
EBENE_3
 62
     7
100
AcDb2dPolyline
 66
     1
 10
0.0
 20
0.0
 30
0.0
  0
VERTEX
  5
76
330
75
100
AcDbEntity
  8
EBENE_3
 62
     7
100
AcDbVertex
100
AcDb2dVertex
 10
96.22255043167354
 20
154.1638888503479
 30
0.0
  0
VERTEX
  5
77
330
75
100
AcDbEntity
  8
EBENE_3
 62
     7
100
AcDbVertex
100
AcDb2dVertex
 10
95.29754229388395
 20
154.1638888503479
 30
0.0
  0
SEQEND
  5
78
330
75
100
AcDbEntity
  8
EBENE_3
  0
POLYLINE
  5
79
330
1F
100
AcDbEntity
  8
EBENE_3
 62
     7
100
AcDb2dPolyline
 66
     1
 10
0.0
 20
0.0
 30
0.0
  0
VERTEX
  5
7A
330
79
100
AcDbEntity
  8
EBENE_3
 62
     7
100
AcDbVertex
100
AcDb2dVertex
 10
94.37253415609437
 20
154.1638888503479
 30
0.0
  0
VERTEX
  5
7B
330
79
100
AcDbEntity
  8
EBENE_3
 62
     7
100
AcDbVertex
100
AcDb2dVertex
 10
93.44804278262758
 20
154.1638888503479
 30
0.0
  0
SEQEND
  5
7C
330
79
100
AcDbEntity
  8
EBENE_3
  0
POLYLINE
  5
7D
330
1F
100
AcDbEntity
  8
EBENE_3
 62
     7
100
AcDb2dPolyline
 66
     1
 10
0.0
 20
0.0
 30
0.0
  0
VERTEX
  5
7E
330
7D
100
AcDbEntity
  8
EBENE_3
 62
     7
100
AcDbVertex
100
AcDb2dVertex
 10
92.52372366393504
 20
154.1638888503479
 30
0.0
  0
VERTEX
  5
7F
330
7D
100
AcDbEntity
  8
EBENE_3
 62
     7
100
AcDbVertex
100
AcDb2dVertex
 10
91.59871552614547
 20
154.1638888503479
 30
0.0
  0
SEQEND
  5
80
330
7D
100
AcDbEntity
  8
EBENE_3
  0
POLYLINE
  5
81
330
1F
100
AcDbEntity
  8
EBENE_3
 62
     7
100
AcDb2dPolyline
 66
     1
 10
0.0
 20
0.0
 30
0.0
  0
VERTEX
  5
82
330
81
100
AcDbEntity
  8
EBENE_3
 62
     7
100
AcDbVertex
100
AcDb2dVertex
 10
90.6740518979044
 20
154.1638888503479
 30
0.0
  0
VERTEX
  5
83
330
81
100
AcDbEntity
  8
EBENE_3
 62
     7
100
AcDbVertex
100
AcDb2dVertex
 10
90.21120331946109
 20
154.1638888503479
 30
0.0
  0
SEQEND
  5
84
330
81
100
AcDbEntity
  8
EBENE_3
  0
POLYLINE
  5
85
330
1F
100
AcDbEntity
  8
EBENE_3
 62
     7
100
AcDb2dPolyline
 66
     1
 10
0.0
 20
0.0
 30
0.0
  0
VERTEX
  5
86
330
85
100
AcDbEntity
  8
EBENE_3
 62
     7
100
AcDbVertex
100
AcDb2dVertex
 10
90.21120331946109
 20
154.0226399354527
 30
0.0
  0
VERTEX
  5
87
330
85
100
AcDbEntity
  8
EBENE_3
 62
     7
100
AcDbVertex
100
AcDb2dVertex
 10
90.20706920487879
 20
154.0581244189507
 30
0.0
  0
SEQEND
  5
88
330
85
100
AcDbEntity
  8
EBENE_3
  0
POLYLINE
  5
89
330
1F
100
AcDbEntity
  8
EBENE_3
 62
     7
100
AcDb2dPolyline
 66
     1
 10
0.0
 20
0.0
 30
0.0
  0
VERTEX
  5
8A
330
89
100
AcDbEntity
  8
EBENE_3
 62
     7
100
AcDbVertex
100
AcDb2dVertex
 10
90.20638018578174
 20
154.1285766216241
 30
0.0
  0
VERTEX
  5
8B
330
89
100
AcDbEntity
  8
EBENE_3
 62
     7
100
AcDbVertex
100
AcDb2dVertex
 10
90.21120331946109
 20
154.1638888503479
 30
0.0
  0
SEQEND
  5
8C
330
89
100
AcDbEntity
  8
EBENE_3
  0
POLYLINE
  5
8D
330
1F
100
AcDbEntity
  8
EBENE_3
 62
     7
100
AcDb2dPolyline
 66
     1
 10
0.0
 20
0.0
 30
0.0
  0
VERTEX
  5
8E
330
8D
100
AcDbEntity
  8
EBENE_3
 62
     7
100
AcDbVertex
100
AcDb2dVertex
 10
99.45904538529149
 20
151.1973171279993
 30
0.0
  0
VERTEX
  5
8F
330
8D
100
AcDbEntity
  8
EBENE_3
 62
     7
100
AcDbVertex
100
AcDb2dVertex
 10
98.99688582594523
 20
151.1973171279993
 30
0.0
  0
SEQEND
  5
90
330
8D
100
AcDbEntity
  8
EBENE_3
  0
POLYLINE
  5
91
330
1F
100
AcDbEntity
  8
EBENE_3
 62
     7
100
AcDb2dPolyline
 66
     1
 10
0.0
 20
0.0
 30
0.0
  0
VERTEX
  5
92
330
91
100
AcDbEntity
  8
EBENE_3
 62
     7
100
AcDbVertex
100
AcDb2dVertex
 10
98.07222219770416
 20
151.1973171279993
 30
0.0
  0
VERTEX
  5
93
330
91
100
AcDbEntity
  8
EBENE_3
 62
     7
100
AcDbVertex
100
AcDb2dVertex
 10
97.14721405991459
 20
151.1973171279993
 30
0.0
  0
SEQEND
  5
94
330
91
100
AcDbEntity
  8
EBENE_3
  0
POLYLINE
  5
95
330
1F
100
AcDbEntity
  8
EBENE_3
 62
     7
100
AcDb2dPolyline
 66
     1
 10
0.0
 20
0.0
 30
0.0
  0
VERTEX
  5
96
330
95
100
AcDbEntity
  8
EBENE_3
 62
     7
100
AcDbVertex
100
AcDb2dVertex
 10
96.22255043167354
 20
151.1973171279993
 30
0.0
  0
VERTEX
  5
97
330
95
100
AcDbEntity
  8
EBENE_3
 62
     7
100
AcDbVertex
100
AcDb2dVertex
 10
95.29754229388395
 20
151.1973171279993
 30
0.0
  0
SEQEND
  5
98
330
95
100
AcDbEntity
  8
EBENE_3
  0
POLYLINE
  5
99
330
1F
100
AcDbEntity
  8
EBENE_3
 62
     7
100
AcDb2dPolyline
 66
     1
 10
0.0
 20
0.0
 30
0.0
  0
VERTEX
  5
9A
330
99
100
AcDbEntity
  8
EBENE_3
 62
     7
100
AcDbVertex
100
AcDb2dVertex
 10
94.37253415609437
 20
151.1973171279993
 30
0.0
  0
VERTEX
  5
9B
330
99
100
AcDbEntity
  8
EBENE_3
 62
     7
100
AcDbVertex
100
AcDb2dVertex
 10
93.44804278262758
 20
151.1973171279993
 30
0.0
  0
SEQEND
  5
9C
330
99
100
AcDbEntity
  8
EBENE_3
  0
POLYLINE
  5
9D
330
1F
100
AcDbEntity
  8
EBENE_3
 62
     7
100
AcDb2dPolyline
 66
     1
 10
0.0
 20
0.0
 30
0.0
  0
VERTEX
  5
9E
330
9D
100
AcDbEntity
  8
EBENE_3
 62
     7
100
AcDbVertex
100
AcDb2dVertex
 10
92.52372366393504
 20
151.1973171279993
 30
0.0
  0
VERTEX
  5
9F
330
9D
100
AcDbEntity
  8
EBENE_3
 62
     7
100
AcDbVertex
100
AcDb2dVertex
 10
91.59871552614547
 20
151.1973171279993
 30
0.0
  0
SEQEND
  5
A0
330
9D
100
AcDbEntity
  8
EBENE_3
  0
POLYLINE
  5
A1
330
1F
100
AcDbEntity
  8
EBENE_3
 62
     7
100
AcDb2dPolyline
 66
     1
 10
0.0
 20
0.0
 30
0.0
  0
VERTEX
  5
A2
330
A1
100
AcDbEntity
  8
EBENE_3
 62
     7
100
AcDbVertex
100
AcDb2dVertex
 10
90.6740518979044
 20
151.1973171279993
 30
0.0
  0
VERTEX
  5
A3
330
A1
100
AcDbEntity
  8
EBENE_3
 62
     7
100
AcDbVertex
100
AcDb2dVertex
 10
90.21120331946109
 20
151.1973171279993
 30
0.0
  0
SEQEND
  5
A4
330
A1
100
AcDbEntity
  8
EBENE_3
  0
POLYLINE
  5
A5
330
1F
100
AcDbEntity
  8
EBENE_3
 62
     7
100
AcDb2dPolyline
 66
     1
 10
0.0
 20
0.0
 30
0.0
  0
VERTEX
  5
A6
330
A5
100
AcDbEntity
  8
EBENE_3
 62
     7
100
AcDbVertex
100
AcDb2dVertex
 10
99.45904538529149
 20
151.3392550619916
 30
0.0
  0
VERTEX
  5
A7
330
A5
100
AcDbEntity
  8
EBENE_3
 62
     7
100
AcDbVertex
100
AcDb2dVertex
 10
98.99688582594523
 20
151.3392550619916
 30
0.0
  0
SEQEND
  5
A8
330
A5
100
AcDbEntity
  8
EBENE_3
  0
POLYLINE
  5
A9
330
1F
100
AcDbEntity
  8
EBENE_3
 62
     7
100
AcDb2dPolyline
 66
     1
 10
0.0
 20
0.0
 30
0.0
  0
VERTEX
  5
AA
330
A9
100
AcDbEntity
  8
EBENE_3
 62
     7
100
AcDbVertex
100
AcDb2dVertex
 10
98.07222219770416
 20
151.3392550619916
 30
0.0
  0
VERTEX
  5
AB
330
A9
100
AcDbEntity
  8
EBENE_3
 62
     7
100
AcDbVertex
100
AcDb2dVertex
 10
97.14721405991459
 20
151.3392550619916
 30
0.0
  0
SEQEND
  5
AC
330
A9
100
AcDbEntity
  8
EBENE_3
  0
POLYLINE
  5
AD
330
1F
100
AcDbEntity
  8
EBENE_3
 62
     7
100
AcDb2dPolyline
 66
     1
 10
0.0
 20
0.0
 30
0.0
  0
VERTEX
  5
AE
330
AD
100
AcDbEntity
  8
EBENE_3
 62
     7
100
AcDbVertex
100
AcDb2dVertex
 10
96.22255043167354
 20
151.3392550619916
 30
0.0
  0
VERTEX
  5
AF
330
AD
100
AcDbEntity
  8
EBENE_3
 62
     7
100
AcDbVertex
100
AcDb2dVertex
 10
95.29754229388395
 20
151.3392550619916
 30
0.0
  0
SEQEND
  5
B0
330
AD
100
AcDbEntity
  8
EBENE_3
  0
POLYLINE
  5
B1
330
1F
100
AcDbEntity
  8
EBENE_3
 62
     7
100
AcDb2dPolyline
 66
     1
 10
0.0
 20
0.0
 30
0.0
  0
VERTEX
  5
B2
330
B1
100
AcDbEntity
  8
EBENE_3
 62
     7
100
AcDbVertex
100
AcDb2dVertex
 10
94.37253415609437
 20
151.3392550619916
 30
0.0
  0
VERTEX
  5
B3
330
B1
100
AcDbEntity
  8
EBENE_3
 62
     7
100
AcDbVertex
100
AcDb2dVertex
 10
93.44804278262758
 20
151.3392550619916
 30
0.0
  0
SEQEND
  5
B4
330
B1
100
AcDbEntity
  8
EBENE_3
  0
POLYLINE
  5
B5
330
1F
100
AcDbEntity
  8
EBENE_3
 62
     7
100
AcDb2dPolyline
 66
     1
 10
0.0
 20
0.0
 30
0.0
  0
VERTEX
  5
B6
330
B5
100
AcDbEntity
  8
EBENE_3
 62
     7
100
AcDbVertex
100
AcDb2dVertex
 10
92.52372366393504
 20
151.3392550619916
 30
0.0
  0
VERTEX
  5
B7
330
B5
100
AcDbEntity
  8
EBENE_3
 62
     7
100
AcDbVertex
100
AcDb2dVertex
 10
91.59871552614547
 20
151.3392550619916
 30
0.0
  0
SEQEND
  5
B8
330
B5
100
AcDbEntity
  8
EBENE_3
  0
POLYLINE
  5
B9
330
1F
100
AcDbEntity
  8
EBENE_3
 62
     7
100
AcDb2dPolyline
 66
     1
 10
0.0
 20
0.0
 30
0.0
  0
VERTEX
  5
BA
330
B9
100
AcDbEntity
  8
EBENE_3
 62
     7
100
AcDbVertex
100
AcDb2dVertex
 10
90.6740518979044
 20
151.3392550619916
 30
0.0
  0
VERTEX
  5
BB
330
B9
100
AcDbEntity
  8
EBENE_3
 62
     7
100
AcDbVertex
100
AcDb2dVertex
 10
90.21120331946109
 20
151.3392550619916
 30
0.0
  0
SEQEND
  5
BC
330
B9
100
AcDbEntity
  8
EBENE_3
  0
POLYLINE
  5
BD
330
1F
100
AcDbEntity
  8
EBENE_3
 62
     7
100
AcDb2dPolyline
 66
     1
 10
0.0
 20
0.0
 30
0.0
  0
VERTEX
  5
BE
330
BD
100
AcDbEntity
  8
EBENE_3
 62
     7
100
AcDbVertex
100
AcDb2dVertex
 10
90.21120331946109
 20
151.1973171279993
 30
0.0
  0
VERTEX
  5
BF
330
BD
100
AcDbEntity
  8
EBENE_3
 62
     7
100
AcDbVertex
100
AcDb2dVertex
 10
90.20638018578174
 20
151.2329738662716
 30
0.0
  0
SEQEND
  5
C0
330
BD
100
AcDbEntity
  8
EBENE_3
  0
POLYLINE
  5
C1
330
1F
100
AcDbEntity
  8
EBENE_3
 62
     7
100
AcDb2dPolyline
 66
     1
 10
0.0
 20
0.0
 30
0.0
  0
VERTEX
  5
C2
330
C1
100
AcDbEntity
  8
EBENE_3
 62
     7
100
AcDbVertex
100
AcDb2dVertex
 10
90.20706920487879
 20
151.3039428332678
 30
0.0
  0
VERTEX
  5
C3
330
C1
100
AcDbEntity
  8
EBENE_3
 62
     7
100
AcDbVertex
100
AcDb2dVertex
 10
90.21120331946109
 20
151.3392550619916
 30
0.0
  0
SEQEND
  5
C4
330
C1
100
AcDbEntity
  8
EBENE_3
  0
POLYLINE
  5
C5
330
1F
100
AcDbEntity
  8
EBENE_3
 62
     7
100
AcDb2dPolyline
 66
     1
 10
0.0
 20
0.0
 30
0.0
  0
VERTEX
  5
C6
330
C5
100
AcDbEntity
  8
EBENE_3
 62
     7
100
AcDbVertex
100
AcDb2dVertex
 10
89.74559866462958
 20
151.0502115507791
 30
0.0
  0
VERTEX
  5
C7
330
C5
100
AcDbEntity
  8
EBENE_3
 62
     7
100
AcDbVertex
100
AcDb2dVertex
 10
90.21120331946109
 20
151.1973171279993
 30
0.0
  0
SEQEND
  5
C8
330
C5
100
AcDbEntity
  8
EBENE_3
  0
POLYLINE
  5
C9
330
1F
100
AcDbEntity
  8
EBENE_3
 62
     7
100
AcDb2dPolyline
 66
     1
 10
0.0
 20
0.0
 30
0.0
  0
VERTEX
  5
CA
330
C9
100
AcDbEntity
  8
EBENE_3
 62
     7
100
AcDbVertex
100
AcDb2dVertex
 10
89.74559866462958
 20
151.1921494847714
 30
0.0
  0
VERTEX
  5
CB
330
C9
100
AcDbEntity
  8
EBENE_3
 62
     7
100
AcDbVertex
100
AcDb2dVertex
 10
90.21120331946109
 20
151.3392550619916
 30
0.0
  0
SEQEND
  5
CC
330
C9
100
AcDbEntity
  8
EBENE_3
  0
POLYLINE
  5
CD
330
1F
100
AcDbEntity
  8
EBENE_3
 62
     7
100
AcDb2dPolyline
 66
     1
 10
0.0
 20
0.0
 30
0.0
  0
VERTEX
  5
CE
330
CD
100
AcDbEntity
  8
EBENE_3
 62
     7
100
AcDbVertex
100
AcDb2dVertex
 10
88.45902775566303
 20
154.8439506991362
 30
0.0
  0
VERTEX
  5
CF
330
CD
100
AcDbEntity
  8
EBENE_3
 62
     7
100
AcDbVertex
100
AcDb2dVertex
 10
88.86709931589087
 20
154.5752332512868
 30
0.0
  0
SEQEND
  5
D0
330
CD
100
AcDbEntity
  8
EBENE_3
  0
POLYLINE
  5
D1
330
1F
100
AcDbEntity
  8
EBENE_3
 62
     7
100
AcDb2dPolyline
 66
     1
 10
0.0
 20
0.0
 30
0.0
  0
VERTEX
  5
D2
330
D1
100
AcDbEntity
  8
EBENE_3
 62
     7
100
AcDbVertex
100
AcDb2dVertex
 10
89.74559866462958
 20
154.1697455126728
 30
0.0
  0
VERTEX
  5
D3
330
D1
100
AcDbEntity
  8
EBENE_3
 62
     7
100
AcDbVertex
100
AcDb2dVertex
 10
90.21120331946109
 20
154.0226399354527
 30
0.0
  0
SEQEND
  5
D4
330
D1
100
AcDbEntity
  8
EBENE_3
  0
POLYLINE
  5
D5
330
1F
100
AcDbEntity
  8
EBENE_3
 62
     7
100
AcDb2dPolyline
 66
     1
 10
0.0
 20
0.0
 30
0.0
  0
VERTEX
  5
D6
330
D5
100
AcDbEntity
  8
EBENE_3
 62
     7
100
AcDbVertex
100
AcDb2dVertex
 10
88.45902775566303
 20
154.9858886331285
 30
0.0
  0
VERTEX
  5
D7
330
D5
100
AcDbEntity
  8
EBENE_3
 62
     7
100
AcDbVertex
100
AcDb2dVertex
 10
88.86709931589087
 20
154.7166544209562
 30
0.0
  0
SEQEND
  5
D8
330
D5
100
AcDbEntity
  8
EBENE_3
  0
POLYLINE
  5
D9
330
1F
100
AcDbEntity
  8
EBENE_3
 62
     7
100
AcDb2dPolyline
 66
     1
 10
0.0
 20
0.0
 30
0.0
  0
VERTEX
  5
DA
330
D9
100
AcDbEntity
  8
EBENE_3
 62
     7
100
AcDbVertex
100
AcDb2dVertex
 10
89.74559866462958
 20
154.3109944275681
 30
0.0
  0
VERTEX
  5
DB
330
D9
100
AcDbEntity
  8
EBENE_3
 62
     7
100
AcDbVertex
100
AcDb2dVertex
 10
90.21120331946109
 20
154.1638888503479
 30
0.0
  0
SEQEND
  5
DC
330
D9
100
AcDbEntity
  8
EBENE_3
  0
POLYLINE
  5
DD
330
1F
100
AcDbEntity
  8
EBENE_3
 62
     7
100
AcDb2dPolyline
 66
     1
 10
0.0
 20
0.0
 30
0.0
  0
VERTEX
  5
DE
330
DD
100
AcDbEntity
  8
EBENE_3
 62
     7
100
AcDbVertex
100
AcDb2dVertex
 10
88.45902775566303
 20
150.3760063643157
 30
0.0
  0
VERTEX
  5
DF
330
DD
100
AcDbEntity
  8
EBENE_3
 62
     7
100
AcDbVertex
100
AcDb2dVertex
 10
88.86709931589087
 20
150.6448960669395
 30
0.0
  0
SEQEND
  5
E0
330
DD
100
AcDbEntity
  8
EBENE_3
  0
POLYLINE
  5
E1
330
1F
100
AcDbEntity
  8
EBENE_3
 62
     7
100
AcDb2dPolyline
 66
     1
 10
0.0
 20
0.0
 30
0.0
  0
VERTEX
  5
E2
330
E1
100
AcDbEntity
  8
EBENE_3
 62
     7
100
AcDbVertex
100
AcDb2dVertex
 10
88.45902775566303
 20
150.517255279211
 30
0.0
  0
VERTEX
  5
E3
330
E1
100
AcDbEntity
  8
EBENE_3
 62
     7
100
AcDbVertex
100
AcDb2dVertex
 10
88.86709931589087
 20
150.7866617461575
 30
0.0
  0
SEQEND
  5
E4
330
E1
100
AcDbEntity
  8
EBENE_3
  0
POLYLINE
  5
E6
330
1F
100
AcDbEntity
  8
STANDARDEBENE
 62
     7
100
AcDb2dPolyline
 66
     1
 10
0.0
 20
0.0
 30
0.0
  0
VERTEX
  5
E7
330
E6
100
AcDbEntity
  8
STANDARDEBENE
 62
     7
100
AcDbVertex
100
AcDb2dVertex
 10
109.7293917911441
 20
150.2032348257304
 30
0.0
  0
VERTEX
  5
E8
330
E6
100
AcDbEntity
  8
STANDARDEBENE
 62
     7
100
AcDbVertex
100
AcDb2dVertex
 10
110.2664821772945
 20
149.8926594677352
 30
0.0
  0
SEQEND
  5
E9
330
E6
100
AcDbEntity
  8
STANDARDEBENE
  0
POLYLINE
  5
EA
330
1F
100
AcDbEntity
  8
STANDARDEBENE
 62
     7
100
AcDb2dPolyline
 66
     1
 10
0.0
 20
0.0
 30
0.0
  0
VERTEX
  5
EB
330
EA
100
AcDbEntity
  8
STANDARDEBENE
 62
     7
100
AcDbVertex
100
AcDb2dVertex
 10
111.3420409877895
 20
149.2720255160674
 30
0.0
  0
VERTEX
  5
EC
330
EA
100
AcDbEntity
  8
STANDARDEBENE
 62
     7
100
AcDbVertex
100
AcDb2dVertex
 10
111.8808539216826
 20
148.9612779032979
 30
0.0
  0
SEQEND
  5
ED
330
EA
100
AcDbEntity
  8
STANDARDEBENE
  0
POLYLINE
  5
EE
330
1F
100
AcDbEntity
  8
STANDARDEBENE
 62
     7
100
AcDb2dPolyline
 66
     1
 10
0.0
 20
0.0
 30
0.0
  0
VERTEX
  5
EF
330
EE
100
AcDbEntity
  8
STANDARDEBENE
 62
     7
100
AcDbVertex
100
AcDb2dVertex
 10
111.8808539216826
 20
156.4131916926675
 30
0.0
  0
VERTEX
  5
F0
330
EE
100
AcDbEntity
  8
STANDARDEBENE
 62
     7
100
AcDbVertex
100
AcDb2dVertex
 10
111.3420409877895
 20
156.1029608442208
 30
0.0
  0
SEQEND
  5
F1
330
EE
100
AcDbEntity
  8
STANDARDEBENE
  0
POLYLINE
  5
F2
330
1F
100
AcDbEntity
  8
STANDARDEBENE
 62
     7
100
AcDb2dPolyline
 66
     1
 10
0.0
 20
0.0
 30
0.0
  0
VERTEX
  5
F3
330
F2
100
AcDbEntity
  8
STANDARDEBENE
 62
     7
100
AcDbVertex
100
AcDb2dVertex
 10
110.2664821772945
 20
155.4821546377788
 30
0.0
  0
VERTEX
  5
F4
330
F2
100
AcDbEntity
  8
STANDARDEBENE
 62
     7
100
AcDbVertex
100
AcDb2dVertex
 10
109.7293917911441
 20
155.1710625154607
 30
0.0
  0
SEQEND
  5
F5
330
F2
100
AcDbEntity
  8
STANDARDEBENE
  0
POLYLINE
  5
F6
330
1F
100
AcDbEntity
  8
STANDARDEBENE
 62
     7
100
AcDb2dPolyline
 66
     1
 10
0.0
 20
0.0
 30
0.0
  0
VERTEX
  5
F7
330
F6
100
AcDbEntity
  8
STANDARDEBENE
 62
     7
100
AcDbVertex
100
AcDb2dVertex
 10
100.2881076138169
 20
155.995473865081
 30
0.0
  0
VERTEX
  5
F8
330
F6
100
AcDbEntity
  8
STANDARDEBENE
 62
     7
100
AcDbVertex
100
AcDb2dVertex
 10
99.3777411318396
 20
155.995473865081
 30
0.0
  0
SEQEND
  5
F9
330
F6
100
AcDbEntity
  8
STANDARDEBENE
  0
POLYLINE
  5
FA
330
1F
100
AcDbEntity
  8
STANDARDEBENE
 62
     7
100
AcDb2dPolyline
 66
     1
 10
0.0
 20
0.0
 30
0.0
  0
VERTEX
  5
FB
330
FA
100
AcDbEntity
  8
STANDARDEBENE
 62
     7
100
AcDbVertex
100
AcDb2dVertex
 10
97.55597463923948
 20
155.995473865081
 30
0.0
  0
VERTEX
  5
FC
330
FA
100
AcDbEntity
  8
STANDARDEBENE
 62
     7
100
AcDbVertex
100
AcDb2dVertex
 10
95.73455265618789
 20
155.995473865081
 30
0.0
  0
SEQEND
  5
FD
330
FA
100
AcDbEntity
  8
STANDARDEBENE
  0
POLYLINE
  5
FE
330
1F
100
AcDbEntity
  8
STANDARDEBENE
 62
     7
100
AcDb2dPolyline
 66
     1
 10
0.0
 20
0.0
 30
0.0
  0
VERTEX
  5
FF
330
FE
100
AcDbEntity
  8
STANDARDEBENE
 62
     7
100
AcDbVertex
100
AcDb2dVertex
 10
93.91295841836204
 20
155.995473865081
 30
0.0
  0
VERTEX
  5
100
330
FE
100
AcDbEntity
  8
STANDARDEBENE
 62
     7
100
AcDbVertex
100
AcDb2dVertex
 10
92.09101967098766
 20
155.995473865081
 30
0.0
  0
SEQEND
  5
101
330
FE
100
AcDbEntity
  8
STANDARDEBENE
  0
POLYLINE
  5
102
330
1F
100
AcDbEntity
  8
STANDARDEBENE
 62
     7
100
AcDb2dPolyline
 66
     1
 10
0.0
 20
0.0
 30
0.0
  0
VERTEX
  5
103
330
102
100
AcDbEntity
  8
STANDARDEBENE
 62
     7
100
AcDbVertex
100
AcDb2dVertex
 10
90.26908092361329
 20
155.995473865081
 30
0.0
  0
VERTEX
  5
104
330
102
100
AcDbEntity
  8
STANDARDEBENE
 62
     7
100
AcDbVertex
100
AcDb2dVertex
 10
88.44783119533597
 20
155.995473865081
 30
0.0
  0
SEQEND
  5
105
330
102
100
AcDbEntity
  8
STANDARDEBENE
  0
POLYLINE
  5
106
330
1F
100
AcDbEntity
  8
STANDARDEBENE
 62
     7
100
AcDb2dPolyline
 66
     1
 10
0.0
 20
0.0
 30
0.0
  0
VERTEX
  5
107
330
106
100
AcDbEntity
  8
STANDARDEBENE
 62
     7
100
AcDbVertex
100
AcDb2dVertex
 10
90.26908092361329
 20
149.3791679856587
 30
0.0
  0
VERTEX
  5
108
330
106
100
AcDbEntity
  8
STANDARDEBENE
 62
     7
100
AcDbVertex
100
AcDb2dVertex
 10
88.44783119533597
 20
149.3791679856587
 30
0.0
  0
SEQEND
  5
109
330
106
100
AcDbEntity
  8
STANDARDEBENE
  0
POLYLINE
  5
10A
330
1F
100
AcDbEntity
  8
STANDARDEBENE
 62
     7
100
AcDb2dPolyline
 66
     1
 10
0.0
 20
0.0
 30
0.0
  0
VERTEX
  5
10B
330
10A
100
AcDbEntity
  8
STANDARDEBENE
 62
     7
100
AcDbVertex
100
AcDb2dVertex
 10
86.62623695751012
 20
149.3791679856587
 30
0.0
  0
VERTEX
  5
10C
330
10A
100
AcDbEntity
  8
STANDARDEBENE
 62
     7
100
AcDbVertex
100
AcDb2dVertex
 10
84.80464271968425
 20
149.3791679856587
 30
0.0
  0
SEQEND
  5
10D
330
10A
100
AcDbEntity
  8
STANDARDEBENE
  0
POLYLINE
  5
10E
330
1F
100
AcDbEntity
  8
STANDARDEBENE
 62
     7
100
AcDb2dPolyline
 66
     1
 10
0.0
 20
0.0
 30
0.0
  0
VERTEX
  5
10F
330
10E
100
AcDbEntity
  8
STANDARDEBENE
 62
     7
100
AcDbVertex
100
AcDb2dVertex
 10
105.2562798130957
 20
155.1710625154607
 30
0.0
  0
VERTEX
  5
110
330
10E
100
AcDbEntity
  8
STANDARDEBENE
 62
     7
100
AcDbVertex
100
AcDb2dVertex
 10
105.2562798130957
 20
155.2079250371529
 30
0.0
  0
SEQEND
  5
111
330
10E
100
AcDbEntity
  8
STANDARDEBENE
  0
POLYLINE
  5
112
330
1F
100
AcDbEntity
  8
STANDARDEBENE
 62
     7
100
AcDb2dPolyline
 66
     1
 10
0.0
 20
0.0
 30
0.0
  0
VERTEX
  5
113
330
112
100
AcDbEntity
  8
STANDARDEBENE
 62
     7
100
AcDbVertex
100
AcDb2dVertex
 10
105.2562798130957
 20
155.2828558639571
 30
0.0
  0
VERTEX
  5
114
330
112
100
AcDbEntity
  8
STANDARDEBENE
 62
     7
100
AcDbVertex
100
AcDb2dVertex
 10
105.2562798130957
 20
155.3193738761007
 30
0.0
  0
SEQEND
  5
115
330
112
100
AcDbEntity
  8
STANDARDEBENE
  0
POLYLINE
  5
116
330
1F
100
AcDbEntity
  8
STANDARDEBENE
 62
     7
100
AcDb2dPolyline
 66
     1
 10
0.0
 20
0.0
 30
0.0
  0
VERTEX
  5
117
330
116
100
AcDbEntity
  8
STANDARDEBENE
 62
     7
100
AcDbVertex
100
AcDb2dVertex
 10
105.2562798130957
 20
156.2471380902785
 30
0.0
  0
VERTEX
  5
118
330
116
100
AcDbEntity
  8
STANDARDEBENE
 62
     7
100
AcDbVertex
100
AcDb2dVertex
 10
105.2562798130957
 20
156.0159721832182
 30
0.0
  0
SEQEND
  5
119
330
116
100
AcDbEntity
  8
STANDARDEBENE
  0
POLYLINE
  5
11A
330
1F
100
AcDbEntity
  8
STANDARDEBENE
 62
     7
100
AcDb2dPolyline
 66
     1
 10
0.0
 20
0.0
 30
0.0
  0
VERTEX
  5
11B
330
11A
100
AcDbEntity
  8
STANDARDEBENE
 62
     7
100
AcDbVertex
100
AcDb2dVertex
 10
105.2562798130957
 20
155.5510565474838
 30
0.0
  0
VERTEX
  5
11C
330
11A
100
AcDbEntity
  8
STANDARDEBENE
 62
     7
100
AcDbVertex
100
AcDb2dVertex
 10
105.2562798130957
 20
155.3193738761007
 30
0.0
  0
SEQEND
  5
11D
330
11A
100
AcDbEntity
  8
STANDARDEBENE
  0
POLYLINE
  5
11E
330
1F
100
AcDbEntity
  8
STANDARDEBENE
 62
     7
100
AcDb2dPolyline
 66
     1
 10
0.0
 20
0.0
 30
0.0
  0
VERTEX
  5
11F
330
11E
100
AcDbEntity
  8
STANDARDEBENE
 62
     7
100
AcDbVertex
100
AcDb2dVertex
 10
111.8808539216826
 20
155.4368516321478
 30
0.0
  0
VERTEX
  5
120
330
11E
100
AcDbEntity
  8
STANDARDEBENE
 62
     7
100
AcDbVertex
100
AcDb2dVertex
 10
111.7179009052303
 20
155.3701890345081
 30
0.0
  0
SEQEND
  5
121
330
11E
100
AcDbEntity
  8
STANDARDEBENE
  0
POLYLINE
  5
122
330
1F
100
AcDbEntity
  8
STANDARDEBENE
 62
     7
100
AcDb2dPolyline
 66
     1
 10
0.0
 20
0.0
 30
0.0
  0
VERTEX
  5
123
330
122
100
AcDbEntity
  8
STANDARDEBENE
 62
     7
100
AcDbVertex
100
AcDb2dVertex
 10
111.3933729105197
 20
155.2380696226488
 30
0.0
  0
VERTEX
  5
124
330
122
100
AcDbEntity
  8
STANDARDEBENE
 62
     7
100
AcDbVertex
100
AcDb2dVertex
 10
111.2317979322615
 20
155.1710625154607
 30
0.0
  0
SEQEND
  5
125
330
122
100
AcDbEntity
  8
STANDARDEBENE
  0
POLYLINE
  5
126
330
1F
100
AcDbEntity
  8
STANDARDEBENE
 62
     7
100
AcDb2dPolyline
 66
     1
 10
0.0
 20
0.0
 30
0.0
  0
VERTEX
  5
127
330
126
100
AcDbEntity
  8
STANDARDEBENE
 62
     7
100
AcDbVertex
100
AcDb2dVertex
 10
100.2881076138169
 20
155.3193738761007
 30
0.0
  0
VERTEX
  5
128
330
126
100
AcDbEntity
  8
STANDARDEBENE
 62
     7
100
AcDbVertex
100
AcDb2dVertex
 10
100.2881076138169
 20
155.2752766538895
 30
0.0
  0
SEQEND
  5
129
330
126
100
AcDbEntity
  8
STANDARDEBENE
  0
POLYLINE
  5
12A
330
1F
100
AcDbEntity
  8
STANDARDEBENE
 62
     7
100
AcDb2dPolyline
 66
     1
 10
0.0
 20
0.0
 30
0.0
  0
VERTEX
  5
12B
330
12A
100
AcDbEntity
  8
STANDARDEBENE
 62
     7
100
AcDbVertex
100
AcDb2dVertex
 10
100.2881076138169
 20
155.1875989737899
 30
0.0
  0
VERTEX
  5
12C
330
12A
100
AcDbEntity
  8
STANDARDEBENE
 62
     7
100
AcDbVertex
100
AcDb2dVertex
 10
100.2881076138169
 20
155.1431572420302
 30
0.0
  0
SEQEND
  5
12D
330
12A
100
AcDbEntity
  8
STANDARDEBENE
  0
POLYLINE
  5
12E
330
1F
100
AcDbEntity
  8
STANDARDEBENE
 62
     7
100
AcDb2dPolyline
 66
     1
 10
0.0
 20
0.0
 30
0.0
  0
VERTEX
  5
12F
330
12E
100
AcDbEntity
  8
STANDARDEBENE
 62
     7
100
AcDbVertex
100
AcDb2dVertex
 10
105.2562798130957
 20
155.3193738761007
 30
0.0
  0
VERTEX
  5
130
330
12E
100
AcDbEntity
  8
STANDARDEBENE
 62
     7
100
AcDbVertex
100
AcDb2dVertex
 10
104.6354736066536
 20
155.3193738761007
 30
0.0
  0
SEQEND
  5
131
330
12E
100
AcDbEntity
  8
STANDARDEBENE
  0
POLYLINE
  5
132
330
1F
100
AcDbEntity
  8
STANDARDEBENE
 62
     7
100
AcDb2dPolyline
 66
     1
 10
0.0
 20
0.0
 30
0.0
  0
VERTEX
  5
133
330
132
100
AcDbEntity
  8
STANDARDEBENE
 62
     7
100
AcDbVertex
100
AcDb2dVertex
 10
103.392827665124
 20
155.3193738761007
 30
0.0
  0
VERTEX
  5
134
330
132
100
AcDbEntity
  8
STANDARDEBENE
 62
     7
100
AcDbVertex
100
AcDb2dVertex
 10
102.1515597617885
 20
155.3193738761007
 30
0.0
  0
SEQEND
  5
135
330
132
100
AcDbEntity
  8
STANDARDEBENE
  0
POLYLINE
  5
136
330
1F
100
AcDbEntity
  8
STANDARDEBENE
 62
     7
100
AcDb2dPolyline
 66
     1
 10
0.0
 20
0.0
 30
0.0
  0
VERTEX
  5
137
330
136
100
AcDbEntity
  8
STANDARDEBENE
 62
     7
100
AcDbVertex
100
AcDb2dVertex
 10
100.9096028393559
 20
155.3193738761007
 30
0.0
  0
VERTEX
  5
138
330
136
100
AcDbEntity
  8
STANDARDEBENE
 62
     7
100
AcDbVertex
100
AcDb2dVertex
 10
100.2881076138169
 20
155.3193738761007
 30
0.0
  0
SEQEND
  5
139
330
136
100
AcDbEntity
  8
STANDARDEBENE
  0
POLYLINE
  5
13A
330
1F
100
AcDbEntity
  8
STANDARDEBENE
 62
     7
100
AcDb2dPolyline
 66
     1
 10
0.0
 20
0.0
 30
0.0
  0
VERTEX
  5
13B
330
13A
100
AcDbEntity
  8
STANDARDEBENE
 62
     7
100
AcDbVertex
100
AcDb2dVertex
 10
105.2256184632769
 20
156.2436929947933
 30
0.0
  0
VERTEX
  5
13C
330
13A
100
AcDbEntity
  8
STANDARDEBENE
 62
     7
100
AcDbVertex
100
AcDb2dVertex
 10
103.9908962413634
 20
156.2436929947933
 30
0.0
  0
SEQEND
  5
13D
330
13A
100
AcDbEntity
  8
STANDARDEBENE
  0
POLYLINE
  5
13E
330
1F
100
AcDbEntity
  8
STANDARDEBENE
 62
     7
100
AcDb2dPolyline
 66
     1
 10
0.0
 20
0.0
 30
0.0
  0
VERTEX
  5
13F
330
13E
100
AcDbEntity
  8
STANDARDEBENE
 62
     7
100
AcDbVertex
100
AcDb2dVertex
 10
101.5224853261819
 20
156.2436929947933
 30
0.0
  0
VERTEX
  5
140
330
13E
100
AcDbEntity
  8
STANDARDEBENE
 62
     7
100
AcDbVertex
100
AcDb2dVertex
 10
100.2881076138169
 20
156.2436929947933
 30
0.0
  0
SEQEND
  5
141
330
13E
100
AcDbEntity
  8
STANDARDEBENE
  0
POLYLINE
  5
142
330
1F
100
AcDbEntity
  8
STANDARDEBENE
 62
     7
100
AcDb2dPolyline
 66
     1
 10
0.0
 20
0.0
 30
0.0
  0
VERTEX
  5
143
330
142
100
AcDbEntity
  8
STANDARDEBENE
 62
     7
100
AcDbVertex
100
AcDb2dVertex
 10
105.2562798130957
 20
155.1710625154607
 30
0.0
  0
VERTEX
  5
144
330
142
100
AcDbEntity
  8
STANDARDEBENE
 62
     7
100
AcDbVertex
100
AcDb2dVertex
 10
106.0028320047493
 20
155.1710625154607
 30
0.0
  0
SEQEND
  5
145
330
142
100
AcDbEntity
  8
STANDARDEBENE
  0
POLYLINE
  5
146
330
1F
100
AcDbEntity
  8
STANDARDEBENE
 62
     7
100
AcDb2dPolyline
 66
     1
 10
0.0
 20
0.0
 30
0.0
  0
VERTEX
  5
147
330
146
100
AcDbEntity
  8
STANDARDEBENE
 62
     7
100
AcDbVertex
100
AcDb2dVertex
 10
107.4976589357992
 20
155.1710625154607
 30
0.0
  0
VERTEX
  5
148
330
146
100
AcDbEntity
  8
STANDARDEBENE
 62
     7
100
AcDbVertex
100
AcDb2dVertex
 10
108.9907633191065
 20
155.1710625154607
 30
0.0
  0
SEQEND
  5
149
330
146
100
AcDbEntity
  8
STANDARDEBENE
  0
POLYLINE
  5
14A
330
1F
100
AcDbEntity
  8
STANDARDEBENE
 62
     7
100
AcDb2dPolyline
 66
     1
 10
0.0
 20
0.0
 30
0.0
  0
VERTEX
  5
14B
330
14A
100
AcDbEntity
  8
STANDARDEBENE
 62
     7
100
AcDbVertex
100
AcDb2dVertex
 10
110.4842122119623
 20
155.1710625154607
 30
0.0
  0
VERTEX
  5
14C
330
14A
100
AcDbEntity
  8
STANDARDEBENE
 62
     7
100
AcDbVertex
100
AcDb2dVertex
 10
111.2317979322615
 20
155.1710625154607
 30
0.0
  0
SEQEND
  5
14D
330
14A
100
AcDbEntity
  8
STANDARDEBENE
  0
POLYLINE
  5
14E
330
1F
100
AcDbEntity
  8
STANDARDEBENE
 62
     7
100
AcDb2dPolyline
 66
     1
 10
0.0
 20
0.0
 30
0.0
  0
VERTEX
  5
14F
330
14E
100
AcDbEntity
  8
STANDARDEBENE
 62
     7
100
AcDbVertex
100
AcDb2dVertex
 10
100.2881076138169
 20
156.2436929947933
 30
0.0
  0
VERTEX
  5
150
330
14E
100
AcDbEntity
  8
STANDARDEBENE
 62
     7
100
AcDbVertex
100
AcDb2dVertex
 10
100.2881076138169
 20
156.01321610683
 30
0.0
  0
SEQEND
  5
151
330
14E
100
AcDbEntity
  8
STANDARDEBENE
  0
POLYLINE
  5
152
330
1F
100
AcDbEntity
  8
STANDARDEBENE
 62
     7
100
AcDb2dPolyline
 66
     1
 10
0.0
 20
0.0
 30
0.0
  0
VERTEX
  5
153
330
152
100
AcDbEntity
  8
STANDARDEBENE
 62
     7
100
AcDbVertex
100
AcDb2dVertex
 10
100.2881076138169
 20
155.5496785092897
 30
0.0
  0
VERTEX
  5
154
330
152
100
AcDbEntity
  8
STANDARDEBENE
 62
     7
100
AcDbVertex
100
AcDb2dVertex
 10
100.2881076138169
 20
155.3193738761007
 30
0.0
  0
SEQEND
  5
155
330
152
100
AcDbEntity
  8
STANDARDEBENE
  0
POLYLINE
  5
156
330
1F
100
AcDbEntity
  8
STANDARDEBENE
 62
     7
100
AcDb2dPolyline
 66
     1
 10
0.0
 20
0.0
 30
0.0
  0
VERTEX
  5
157
330
156
100
AcDbEntity
  8
STANDARDEBENE
 62
     7
100
AcDbVertex
100
AcDb2dVertex
 10
105.2562798130957
 20
152.5216118325293
 30
0.0
  0
VERTEX
  5
158
330
156
100
AcDbEntity
  8
STANDARDEBENE
 62
     7
100
AcDbVertex
100
AcDb2dVertex
 10
105.2562798130957
 20
151.9631618543703
 30
0.0
  0
SEQEND
  5
159
330
156
100
AcDbEntity
  8
STANDARDEBENE
  0
POLYLINE
  5
15A
330
1F
100
AcDbEntity
  8
STANDARDEBENE
 62
     7
100
AcDb2dPolyline
 66
     1
 10
0.0
 20
0.0
 30
0.0
  0
VERTEX
  5
15B
330
15A
100
AcDbEntity
  8
STANDARDEBENE
 62
     7
100
AcDbVertex
100
AcDb2dVertex
 10
105.2562798130957
 20
150.8481567005692
 30
0.0
  0
VERTEX
  5
15C
330
15A
100
AcDbEntity
  8
STANDARDEBENE
 62
     7
100
AcDbVertex
100
AcDb2dVertex
 10
105.2562798130957
 20
150.2895344676359
 30
0.0
  0
SEQEND
  5
15D
330
15A
100
AcDbEntity
  8
STANDARDEBENE
  0
POLYLINE
  5
15E
330
1F
100
AcDbEntity
  8
STANDARDEBENE
 62
     7
100
AcDb2dPolyline
 66
     1
 10
0.0
 20
0.0
 30
0.0
  0
VERTEX
  5
15F
330
15E
100
AcDbEntity
  8
STANDARDEBENE
 62
     7
100
AcDbVertex
100
AcDb2dVertex
 10
105.2562798130957
 20
155.0847628735552
 30
0.0
  0
VERTEX
  5
160
330
15E
100
AcDbEntity
  8
STANDARDEBENE
 62
     7
100
AcDbVertex
100
AcDb2dVertex
 10
105.2562798130957
 20
154.5273464240418
 30
0.0
  0
SEQEND
  5
161
330
15E
100
AcDbEntity
  8
STANDARDEBENE
  0
POLYLINE
  5
162
330
1F
100
AcDbEntity
  8
STANDARDEBENE
 62
     7
100
AcDb2dPolyline
 66
     1
 10
0.0
 20
0.0
 30
0.0
  0
VERTEX
  5
163
330
162
100
AcDbEntity
  8
STANDARDEBENE
 62
     7
100
AcDbVertex
100
AcDb2dVertex
 10
105.2562798130957
 20
153.4104464677238
 30
0.0
  0
VERTEX
  5
164
330
162
100
AcDbEntity
  8
STANDARDEBENE
 62
     7
100
AcDbVertex
100
AcDb2dVertex
 10
105.2562798130957
 20
152.8532022729846
 30
0.0
  0
SEQEND
  5
165
330
162
100
AcDbEntity
  8
STANDARDEBENE
  0
POLYLINE
  5
166
330
1F
100
AcDbEntity
  8
STANDARDEBENE
 62
     7
100
AcDb2dPolyline
 66
     1
 10
0.0
 20
0.0
 30
0.0
  0
VERTEX
  5
167
330
166
100
AcDbEntity
  8
STANDARDEBENE
 62
     7
100
AcDbVertex
100
AcDb2dVertex
 10
111.8808539216826
 20
155.2024128843765
 30
0.0
  0
VERTEX
  5
168
330
166
100
AcDbEntity
  8
STANDARDEBENE
 62
     7
100
AcDbVertex
100
AcDb2dVertex
 10
111.7179009052303
 20
155.1360947962854
 30
0.0
  0
SEQEND
  5
169
330
166
100
AcDbEntity
  8
STANDARDEBENE
  0
POLYLINE
  5
16A
330
1F
100
AcDbEntity
  8
STANDARDEBENE
 62
     7
100
AcDb2dPolyline
 66
     1
 10
0.0
 20
0.0
 30
0.0
  0
VERTEX
  5
16B
330
16A
100
AcDbEntity
  8
STANDARDEBENE
 62
     7
100
AcDbVertex
100
AcDb2dVertex
 10
111.3933729105197
 20
155.0029418557805
 30
0.0
  0
VERTEX
  5
16C
330
16A
100
AcDbEntity
  8
STANDARDEBENE
 62
     7
100
AcDbVertex
100
AcDb2dVertex
 10
111.2317979322615
 20
154.9374850415608
 30
0.0
  0
SEQEND
  5
16D
330
16A
100
AcDbEntity
  8
STANDARDEBENE
  0
POLYLINE
  5
16E
330
1F
100
AcDbEntity
  8
STANDARDEBENE
 62
     7
100
AcDb2dPolyline
 66
     1
 10
0.0
 20
0.0
 30
0.0
  0
VERTEX
  5
16F
330
16E
100
AcDbEntity
  8
STANDARDEBENE
 62
     7
100
AcDbVertex
100
AcDb2dVertex
 10
111.8808539216826
 20
150.1724012211374
 30
0.0
  0
VERTEX
  5
170
330
16E
100
AcDbEntity
  8
STANDARDEBENE
 62
     7
100
AcDbVertex
100
AcDb2dVertex
 10
111.7179009052303
 20
150.2388915640028
 30
0.0
  0
SEQEND
  5
171
330
16E
100
AcDbEntity
  8
STANDARDEBENE
  0
POLYLINE
  5
172
330
1F
100
AcDbEntity
  8
STANDARDEBENE
 62
     7
100
AcDb2dPolyline
 66
     1
 10
0.0
 20
0.0
 30
0.0
  0
VERTEX
  5
173
330
172
100
AcDbEntity
  8
STANDARDEBENE
 62
     7
100
AcDbVertex
100
AcDb2dVertex
 10
111.3933729105197
 20
150.3708387210879
 30
0.0
  0
VERTEX
  5
174
330
172
100
AcDbEntity
  8
STANDARDEBENE
 62
     7
100
AcDbVertex
100
AcDb2dVertex
 10
111.2317979322615
 20
150.437845828276
 30
0.0
  0
SEQEND
  5
175
330
172
100
AcDbEntity
  8
STANDARDEBENE
  0
POLYLINE
  5
176
330
1F
100
AcDbEntity
  8
STANDARDEBENE
 62
     7
100
AcDb2dPolyline
 66
     1
 10
0.0
 20
0.0
 30
0.0
  0
VERTEX
  5
177
330
176
100
AcDbEntity
  8
STANDARDEBENE
 62
     7
100
AcDbVertex
100
AcDb2dVertex
 10
111.2317979322615
 20
154.9374850415608
 30
0.0
  0
VERTEX
  5
178
330
176
100
AcDbEntity
  8
STANDARDEBENE
 62
     7
100
AcDbVertex
100
AcDb2dVertex
 10
111.0430066996698
 20
154.772292713043
 30
0.0
  0
VERTEX
  5
179
330
176
100
AcDbEntity
  8
STANDARDEBENE
 62
     7
100
AcDbVertex
100
AcDb2dVertex
 10
110.7377712396767
 20
154.4496595208494
 30
0.0
  0
SEQEND
  5
17A
330
176
100
AcDbEntity
  8
STANDARDEBENE
  0
POLYLINE
  5
17B
330
1F
100
AcDbEntity
  8
STANDARDEBENE
 62
     7
100
AcDb2dPolyline
 66
     1
 10
0.0
 20
0.0
 30
0.0
  0
VERTEX
  5
17C
330
17B
100
AcDbEntity
  8
STANDARDEBENE
 62
     7
100
AcDbVertex
100
AcDb2dVertex
 10
109.8933783362419
 20
153.3567029781539
 30
0.0
  0
VERTEX
  5
17D
330
17B
100
AcDbEntity
  8
STANDARDEBENE
 62
     7
100
AcDbVertex
100
AcDb2dVertex
 10
109.8544487572586
 20
153.2914184187084
 30
0.0
  0
VERTEX
  5
17E
330
17B
100
AcDbEntity
  8
STANDARDEBENE
 62
     7
100
AcDbVertex
100
AcDb2dVertex
 10
109.7324923770808
 20
152.7779269366319
 30
0.0
  0
VERTEX
  5
17F
330
17B
100
AcDbEntity
  8
STANDARDEBENE
 62
     7
100
AcDbVertex
100
AcDb2dVertex
 10
109.7951931149123
 20
152.2518608560343
 30
0.0
  0
VERTEX
  5
180
330
17B
100
AcDbEntity
  8
STANDARDEBENE
 62
     7
100
AcDbVertex
100
AcDb2dVertex
 10
109.9092257754741
 20
152.0231065158137
 30
0.0
  0
SEQEND
  5
181
330
17B
100
AcDbEntity
  8
STANDARDEBENE
  0
POLYLINE
  5
182
330
1F
100
AcDbEntity
  8
STANDARDEBENE
 62
     7
100
AcDb2dPolyline
 66
     1
 10
0.0
 20
0.0
 30
0.0
  0
VERTEX
  5
183
330
182
100
AcDbEntity
  8
STANDARDEBENE
 62
     7
100
AcDbVertex
100
AcDb2dVertex
 10
110.7219238004445
 20
150.9094794002067
 30
0.0
  0
VERTEX
  5
184
330
182
100
AcDbEntity
  8
STANDARDEBENE
 62
     7
100
AcDbVertex
100
AcDb2dVertex
 10
111.2317979322615
 20
150.437845828276
 30
0.0
  0
SEQEND
  5
185
330
182
100
AcDbEntity
  8
STANDARDEBENE
  0
POLYLINE
  5
186
330
1F
100
AcDbEntity
  8
STANDARDEBENE
 62
     7
100
AcDb2dPolyline
 66
     1
 10
0.0
 20
0.0
 30
0.0
  0
VERTEX
  5
187
330
186
100
AcDbEntity
  8
STANDARDEBENE
 62
     7
100
AcDbVertex
100
AcDb2dVertex
 10
105.2562798130957
 20
150.2895344676359
 30
0.0
  0
VERTEX
  5
188
330
186
100
AcDbEntity
  8
STANDARDEBENE
 62
     7
100
AcDbVertex
100
AcDb2dVertex
 10
104.6354736066536
 20
150.2895344676359
 30
0.0
  0
SEQEND
  5
189
330
186
100
AcDbEntity
  8
STANDARDEBENE
  0
POLYLINE
  5
18A
330
1F
100
AcDbEntity
  8
STANDARDEBENE
 62
     7
100
AcDb2dPolyline
 66
     1
 10
0.0
 20
0.0
 30
0.0
  0
VERTEX
  5
18B
330
18A
100
AcDbEntity
  8
STANDARDEBENE
 62
     7
100
AcDbVertex
100
AcDb2dVertex
 10
103.392827665124
 20
150.2895344676359
 30
0.0
  0
VERTEX
  5
18C
330
18A
100
AcDbEntity
  8
STANDARDEBENE
 62
     7
100
AcDbVertex
100
AcDb2dVertex
 10
102.1515597617885
 20
150.2895344676359
 30
0.0
  0
SEQEND
  5
18D
330
18A
100
AcDbEntity
  8
STANDARDEBENE
  0
POLYLINE
  5
18E
330
1F
100
AcDbEntity
  8
STANDARDEBENE
 62
     7
100
AcDb2dPolyline
 66
     1
 10
0.0
 20
0.0
 30
0.0
  0
VERTEX
  5
18F
330
18E
100
AcDbEntity
  8
STANDARDEBENE
 62
     7
100
AcDbVertex
100
AcDb2dVertex
 10
100.9096028393559
 20
150.2895344676359
 30
0.0
  0
VERTEX
  5
190
330
18E
100
AcDbEntity
  8
STANDARDEBENE
 62
     7
100
AcDbVertex
100
AcDb2dVertex
 10
100.2881076138169
 20
150.2895344676359
 30
0.0
  0
SEQEND
  5
191
330
18E
100
AcDbEntity
  8
STANDARDEBENE
  0
POLYLINE
  5
192
330
1F
100
AcDbEntity
  8
STANDARDEBENE
 62
     7
100
AcDb2dPolyline
 66
     1
 10
0.0
 20
0.0
 30
0.0
  0
VERTEX
  5
193
330
192
100
AcDbEntity
  8
STANDARDEBENE
 62
     7
100
AcDbVertex
100
AcDb2dVertex
 10
105.2562798130957
 20
154.9374850415608
 30
0.0
  0
VERTEX
  5
194
330
192
100
AcDbEntity
  8
STANDARDEBENE
 62
     7
100
AcDbVertex
100
AcDb2dVertex
 10
106.0028320047493
 20
154.9374850415608
 30
0.0
  0
SEQEND
  5
195
330
192
100
AcDbEntity
  8
STANDARDEBENE
  0
POLYLINE
  5
196
330
1F
100
AcDbEntity
  8
STANDARDEBENE
 62
     7
100
AcDb2dPolyline
 66
     1
 10
0.0
 20
0.0
 30
0.0
  0
VERTEX
  5
197
330
196
100
AcDbEntity
  8
STANDARDEBENE
 62
     7
100
AcDbVertex
100
AcDb2dVertex
 10
107.4976589357992
 20
154.9374850415608
 30
0.0
  0
VERTEX
  5
198
330
196
100
AcDbEntity
  8
STANDARDEBENE
 62
     7
100
AcDbVertex
100
AcDb2dVertex
 10
108.9907633191065
 20
154.9374850415608
 30
0.0
  0
SEQEND
  5
199
330
196
100
AcDbEntity
  8
STANDARDEBENE
  0
POLYLINE
  5
19A
330
1F
100
AcDbEntity
  8
STANDARDEBENE
 62
     7
100
AcDb2dPolyline
 66
     1
 10
0.0
 20
0.0
 30
0.0
  0
VERTEX
  5
19B
330
19A
100
AcDbEntity
  8
STANDARDEBENE
 62
     7
100
AcDbVertex
100
AcDb2dVertex
 10
110.4842122119623
 20
154.9374850415608
 30
0.0
  0
VERTEX
  5
19C
330
19A
100
AcDbEntity
  8
STANDARDEBENE
 62
     7
100
AcDbVertex
100
AcDb2dVertex
 10
111.2317979322615
 20
154.9374850415608
 30
0.0
  0
SEQEND
  5
19D
330
19A
100
AcDbEntity
  8
STANDARDEBENE
  0
POLYLINE
  5
19E
330
1F
100
AcDbEntity
  8
STANDARDEBENE
 62
     7
100
AcDb2dPolyline
 66
     1
 10
0.0
 20
0.0
 30
0.0
  0
VERTEX
  5
19F
330
19E
100
AcDbEntity
  8
STANDARDEBENE
 62
     7
100
AcDbVertex
100
AcDb2dVertex
 10
105.2562798130957
 20
150.437845828276
 30
0.0
  0
VERTEX
  5
1A0
330
19E
100
AcDbEntity
  8
STANDARDEBENE
 62
     7
100
AcDbVertex
100
AcDb2dVertex
 10
106.0028320047493
 20
150.437845828276
 30
0.0
  0
SEQEND
  5
1A1
330
19E
100
AcDbEntity
  8
STANDARDEBENE
  0
POLYLINE
  5
1A2
330
1F
100
AcDbEntity
  8
STANDARDEBENE
 62
     7
100
AcDb2dPolyline
 66
     1
 10
0.0
 20
0.0
 30
0.0
  0
VERTEX
  5
1A3
330
1A2
100
AcDbEntity
  8
STANDARDEBENE
 62
     7
100
AcDbVertex
100
AcDb2dVertex
 10
107.4976589357992
 20
150.437845828276
 30
0.0
  0
VERTEX
  5
1A4
330
1A2
100
AcDbEntity
  8
STANDARDEBENE
 62
     7
100
AcDbVertex
100
AcDb2dVertex
 10
108.9907633191065
 20
150.437845828276
 30
0.0
  0
SEQEND
  5
1A5
330
1A2
100
AcDbEntity
  8
STANDARDEBENE
  0
POLYLINE
  5
1A6
330
1F
100
AcDbEntity
  8
STANDARDEBENE
 62
     7
100
AcDb2dPolyline
 66
     1
 10
0.0
 20
0.0
 30
0.0
  0
VERTEX
  5
1A7
330
1A6
100
AcDbEntity
  8
STANDARDEBENE
 62
     7
100
AcDbVertex
100
AcDb2dVertex
 10
110.4842122119623
 20
150.437845828276
 30
0.0
  0
VERTEX
  5
1A8
330
1A6
100
AcDbEntity
  8
STANDARDEBENE
 62
     7
100
AcDbVertex
100
AcDb2dVertex
 10
111.2317979322615
 20
150.437845828276
 30
0.0
  0
SEQEND
  5
1A9
330
1A6
100
AcDbEntity
  8
STANDARDEBENE
  0
POLYLINE
  5
1AA
330
1F
100
AcDbEntity
  8
STANDARDEBENE
 62
     7
100
AcDb2dPolyline
 66
     1
 10
0.0
 20
0.0
 30
0.0
  0
VERTEX
  5
1AB
330
1AA
100
AcDbEntity
  8
STANDARDEBENE
 62
     7
100
AcDbVertex
100
AcDb2dVertex
 10
100.2881076138169
 20
152.5216118325293
 30
0.0
  0
VERTEX
  5
1AC
330
1AA
100
AcDbEntity
  8
STANDARDEBENE
 62
     7
100
AcDbVertex
100
AcDb2dVertex
 10
100.2881076138169
 20
151.9631618543703
 30
0.0
  0
SEQEND
  5
1AD
330
1AA
100
AcDbEntity
  8
STANDARDEBENE
  0
POLYLINE
  5
1AE
330
1F
100
AcDbEntity
  8
STANDARDEBENE
 62
     7
100
AcDb2dPolyline
 66
     1
 10
0.0
 20
0.0
 30
0.0
  0
VERTEX
  5
1AF
330
1AE
100
AcDbEntity
  8
STANDARDEBENE
 62
     7
100
AcDbVertex
100
AcDb2dVertex
 10
100.2881076138169
 20
150.8481567005692
 30
0.0
  0
VERTEX
  5
1B0
330
1AE
100
AcDbEntity
  8
STANDARDEBENE
 62
     7
100
AcDbVertex
100
AcDb2dVertex
 10
100.2881076138169
 20
150.2895344676359
 30
0.0
  0
SEQEND
  5
1B1
330
1AE
100
AcDbEntity
  8
STANDARDEBENE
  0
POLYLINE
  5
1B2
330
1F
100
AcDbEntity
  8
STANDARDEBENE
 62
     7
100
AcDb2dPolyline
 66
     1
 10
0.0
 20
0.0
 30
0.0
  0
VERTEX
  5
1B3
330
1B2
100
AcDbEntity
  8
STANDARDEBENE
 62
     7
100
AcDbVertex
100
AcDb2dVertex
 10
105.2562798130957
 20
150.2032348257304
 30
0.0
  0
VERTEX
  5
1B4
330
1B2
100
AcDbEntity
  8
STANDARDEBENE
 62
     7
100
AcDbVertex
100
AcDb2dVertex
 10
105.2562798130957
 20
150.1656832849412
 30
0.0
  0
SEQEND
  5
1B5
330
1B2
100
AcDbEntity
  8
STANDARDEBENE
  0
POLYLINE
  5
1B6
330
1F
100
AcDbEntity
  8
STANDARDEBENE
 62
     7
100
AcDb2dPolyline
 66
     1
 10
0.0
 20
0.0
 30
0.0
  0
VERTEX
  5
1B7
330
1B6
100
AcDbEntity
  8
STANDARDEBENE
 62
     7
100
AcDbVertex
100
AcDb2dVertex
 10
105.2562798130957
 20
150.0928195154282
 30
0.0
  0
VERTEX
  5
1B8
330
1B6
100
AcDbEntity
  8
STANDARDEBENE
 62
     7
100
AcDbVertex
100
AcDb2dVertex
 10
105.2562798130957
 20
150.055267974639
 30
0.0
  0
VERTEX
  5
1B9
330
1B6
100
AcDbEntity
  8
STANDARDEBENE
 62
     7
100
AcDbVertex
100
AcDb2dVertex
 10
105.2562798130957
 20
149.8228962841589
 30
0.0
  0
SEQEND
  5
1BA
330
1B6
100
AcDbEntity
  8
STANDARDEBENE
  0
POLYLINE
  5
1BB
330
1F
100
AcDbEntity
  8
STANDARDEBENE
 62
     7
100
AcDb2dPolyline
 66
     1
 10
0.0
 20
0.0
 30
0.0
  0
VERTEX
  5
1BC
330
1BB
100
AcDbEntity
  8
STANDARDEBENE
 62
     7
100
AcDbVertex
100
AcDb2dVertex
 10
105.2562798130957
 20
149.3588419222957
 30
0.0
  0
VERTEX
  5
1BD
330
1BB
100
AcDbEntity
  8
STANDARDEBENE
 62
     7
100
AcDbVertex
100
AcDb2dVertex
 10
105.2562798130957
 20
149.1266424865899
 30
0.0
  0
SEQEND
  5
1BE
330
1BB
100
AcDbEntity
  8
STANDARDEBENE
  0
POLYLINE
  5
1BF
330
1F
100
AcDbEntity
  8
STANDARDEBENE
 62
     7
100
AcDb2dPolyline
 66
     1
 10
0.0
 20
0.0
 30
0.0
  0
VERTEX
  5
1C0
330
1BF
100
AcDbEntity
  8
STANDARDEBENE
 62
     7
100
AcDbVertex
100
AcDb2dVertex
 10
111.8808539216826
 20
149.938479237689
 30
0.0
  0
VERTEX
  5
1C1
330
1BF
100
AcDbEntity
  8
STANDARDEBENE
 62
     7
100
AcDbVertex
100
AcDb2dVertex
 10
111.7179009052303
 20
150.0039360519087
 30
0.0
  0
SEQEND
  5
1C2
330
1BF
100
AcDbEntity
  8
STANDARDEBENE
  0
POLYLINE
  5
1C3
330
1F
100
AcDbEntity
  8
STANDARDEBENE
 62
     7
100
AcDb2dPolyline
 66
     1
 10
0.0
 20
0.0
 30
0.0
  0
VERTEX
  5
1C4
330
1C3
100
AcDbEntity
  8
STANDARDEBENE
 62
     7
100
AcDbVertex
100
AcDb2dVertex
 10
111.3933729105197
 20
150.1369167376394
 30
0.0
  0
VERTEX
  5
1C5
330
1C3
100
AcDbEntity
  8
STANDARDEBENE
 62
     7
100
AcDbVertex
100
AcDb2dVertex
 10
111.2317979322615
 20
150.2032348257304
 30
0.0
  0
SEQEND
  5
1C6
330
1C3
100
AcDbEntity
  8
STANDARDEBENE
  0
POLYLINE
  5
1C7
330
1F
100
AcDbEntity
  8
STANDARDEBENE
 62
     7
100
AcDb2dPolyline
 66
     1
 10
0.0
 20
0.0
 30
0.0
  0
VERTEX
  5
1C8
330
1C7
100
AcDbEntity
  8
STANDARDEBENE
 62
     7
100
AcDbVertex
100
AcDb2dVertex
 10
105.2562798130957
 20
150.2032348257304
 30
0.0
  0
VERTEX
  5
1C9
330
1C7
100
AcDbEntity
  8
STANDARDEBENE
 62
     7
100
AcDbVertex
100
AcDb2dVertex
 10
106.0028320047493
 20
150.2032348257304
 30
0.0
  0
SEQEND
  5
1CA
330
1C7
100
AcDbEntity
  8
STANDARDEBENE
  0
POLYLINE
  5
1CB
330
1F
100
AcDbEntity
  8
STANDARDEBENE
 62
     7
100
AcDb2dPolyline
 66
     1
 10
0.0
 20
0.0
 30
0.0
  0
VERTEX
  5
1CC
330
1CB
100
AcDbEntity
  8
STANDARDEBENE
 62
     7
100
AcDbVertex
100
AcDb2dVertex
 10
107.4976589357992
 20
150.2032348257304
 30
0.0
  0
VERTEX
  5
1CD
330
1CB
100
AcDbEntity
  8
STANDARDEBENE
 62
     7
100
AcDbVertex
100
AcDb2dVertex
 10
108.9907633191065
 20
150.2032348257304
 30
0.0
  0
SEQEND
  5
1CE
330
1CB
100
AcDbEntity
  8
STANDARDEBENE
  0
POLYLINE
  5
1CF
330
1F
100
AcDbEntity
  8
STANDARDEBENE
 62
     7
100
AcDb2dPolyline
 66
     1
 10
0.0
 20
0.0
 30
0.0
  0
VERTEX
  5
1D0
330
1CF
100
AcDbEntity
  8
STANDARDEBENE
 62
     7
100
AcDbVertex
100
AcDb2dVertex
 10
110.4842122119623
 20
150.2032348257304
 30
0.0
  0
VERTEX
  5
1D1
330
1CF
100
AcDbEntity
  8
STANDARDEBENE
 62
     7
100
AcDbVertex
100
AcDb2dVertex
 10
111.2317979322615
 20
150.2032348257304
 30
0.0
  0
SEQEND
  5
1D2
330
1CF
100
AcDbEntity
  8
STANDARDEBENE
  0
POLYLINE
  5
1D3
330
1F
100
AcDbEntity
  8
STANDARDEBENE
 62
     7
100
AcDb2dPolyline
 66
     1
 10
0.0
 20
0.0
 30
0.0
  0
VERTEX
  5
1D4
330
1D3
100
AcDbEntity
  8
STANDARDEBENE
 62
     7
100
AcDbVertex
100
AcDb2dVertex
 10
100.2881076138169
 20
155.0847628735552
 30
0.0
  0
VERTEX
  5
1D5
330
1D3
100
AcDbEntity
  8
STANDARDEBENE
 62
     7
100
AcDbVertex
100
AcDb2dVertex
 10
100.2881076138169
 20
154.5273464240418
 30
0.0
  0
SEQEND
  5
1D6
330
1D3
100
AcDbEntity
  8
STANDARDEBENE
  0
POLYLINE
  5
1D7
330
1F
100
AcDbEntity
  8
STANDARDEBENE
 62
     7
100
AcDb2dPolyline
 66
     1
 10
0.0
 20
0.0
 30
0.0
  0
VERTEX
  5
1D8
330
1D7
100
AcDbEntity
  8
STANDARDEBENE
 62
     7
100
AcDbVertex
100
AcDb2dVertex
 10
100.2881076138169
 20
153.4104464677238
 30
0.0
  0
VERTEX
  5
1D9
330
1D7
100
AcDbEntity
  8
STANDARDEBENE
 62
     7
100
AcDbVertex
100
AcDb2dVertex
 10
100.2881076138169
 20
152.8532022729846
 30
0.0
  0
SEQEND
  5
1DA
330
1D7
100
AcDbEntity
  8
STANDARDEBENE
  0
POLYLINE
  5
1DB
330
1F
100
AcDbEntity
  8
STANDARDEBENE
 62
     7
100
AcDb2dPolyline
 66
     1
 10
0.0
 20
0.0
 30
0.0
  0
VERTEX
  5
1DC
330
1DB
100
AcDbEntity
  8
STANDARDEBENE
 62
     7
100
AcDbVertex
100
AcDb2dVertex
 10
100.2881076138169
 20
150.055267974639
 30
0.0
  0
VERTEX
  5
1DD
330
1DB
100
AcDbEntity
  8
STANDARDEBENE
 62
     7
100
AcDbVertex
100
AcDb2dVertex
 10
100.2881076138169
 20
150.0993651968502
 30
0.0
  0
SEQEND
  5
1DE
330
1DB
100
AcDbEntity
  8
STANDARDEBENE
  0
POLYLINE
  5
1DF
330
1F
100
AcDbEntity
  8
STANDARDEBENE
 62
     7
100
AcDb2dPolyline
 66
     1
 10
0.0
 20
0.0
 30
0.0
  0
VERTEX
  5
1E0
330
1DF
100
AcDbEntity
  8
STANDARDEBENE
 62
     7
100
AcDbVertex
100
AcDb2dVertex
 10
100.2881076138169
 20
150.1870428769498
 30
0.0
  0
VERTEX
  5
1E1
330
1DF
100
AcDbEntity
  8
STANDARDEBENE
 62
     7
100
AcDbVertex
100
AcDb2dVertex
 10
100.2881076138169
 20
150.2306233348382
 30
0.0
  0
SEQEND
  5
1E2
330
1DF
100
AcDbEntity
  8
STANDARDEBENE
  0
POLYLINE
  5
1E3
330
1F
100
AcDbEntity
  8
STANDARDEBENE
 62
     7
100
AcDb2dPolyline
 66
     1
 10
0.0
 20
0.0
 30
0.0
  0
VERTEX
  5
1E4
330
1E3
100
AcDbEntity
  8
STANDARDEBENE
 62
     7
100
AcDbVertex
100
AcDb2dVertex
 10
105.2562798130957
 20
155.0847628735552
 30
0.0
  0
VERTEX
  5
1E5
330
1E3
100
AcDbEntity
  8
STANDARDEBENE
 62
     7
100
AcDbVertex
100
AcDb2dVertex
 10
104.6354736066536
 20
155.0847628735552
 30
0.0
  0
SEQEND
  5
1E6
330
1E3
100
AcDbEntity
  8
STANDARDEBENE
  0
POLYLINE
  5
1E7
330
1F
100
AcDbEntity
  8
STANDARDEBENE
 62
     7
100
AcDb2dPolyline
 66
     1
 10
0.0
 20
0.0
 30
0.0
  0
VERTEX
  5
1E8
330
1E7
100
AcDbEntity
  8
STANDARDEBENE
 62
     7
100
AcDbVertex
100
AcDb2dVertex
 10
103.392827665124
 20
155.0847628735552
 30
0.0
  0
VERTEX
  5
1E9
330
1E7
100
AcDbEntity
  8
STANDARDEBENE
 62
     7
100
AcDbVertex
100
AcDb2dVertex
 10
102.1515597617885
 20
155.0847628735552
 30
0.0
  0
SEQEND
  5
1EA
330
1E7
100
AcDbEntity
  8
STANDARDEBENE
  0
POLYLINE
  5
1EB
330
1F
100
AcDbEntity
  8
STANDARDEBENE
 62
     7
100
AcDb2dPolyline
 66
     1
 10
0.0
 20
0.0
 30
0.0
  0
VERTEX
  5
1EC
330
1EB
100
AcDbEntity
  8
STANDARDEBENE
 62
     7
100
AcDbVertex
100
AcDb2dVertex
 10
100.9096028393559
 20
155.0847628735552
 30
0.0
  0
VERTEX
  5
1ED
330
1EB
100
AcDbEntity
  8
STANDARDEBENE
 62
     7
100
AcDbVertex
100
AcDb2dVertex
 10
100.2881076138169
 20
155.0847628735552
 30
0.0
  0
SEQEND
  5
1EE
330
1EB
100
AcDbEntity
  8
STANDARDEBENE
  0
POLYLINE
  5
1EF
330
1F
100
AcDbEntity
  8
STANDARDEBENE
 62
     7
100
AcDb2dPolyline
 66
     1
 10
0.0
 20
0.0
 30
0.0
  0
VERTEX
  5
1F0
330
1EF
100
AcDbEntity
  8
STANDARDEBENE
 62
     7
100
AcDbVertex
100
AcDb2dVertex
 10
100.2881076138169
 20
150.055267974639
 30
0.0
  0
VERTEX
  5
1F1
330
1EF
100
AcDbEntity
  8
STANDARDEBENE
 62
     7
100
AcDbVertex
100
AcDb2dVertex
 10
100.2881076138169
 20
149.8241020675787
 30
0.0
  0
SEQEND
  5
1F2
330
1EF
100
AcDbEntity
  8
STANDARDEBENE
  0
POLYLINE
  5
1F3
330
1F
100
AcDbEntity
  8
STANDARDEBENE
 62
     7
100
AcDb2dPolyline
 66
     1
 10
0.0
 20
0.0
 30
0.0
  0
VERTEX
  5
1F4
330
1F3
100
AcDbEntity
  8
STANDARDEBENE
 62
     7
100
AcDbVertex
100
AcDb2dVertex
 10
100.2881076138169
 20
149.3619425082324
 30
0.0
  0
VERTEX
  5
1F5
330
1F3
100
AcDbEntity
  8
STANDARDEBENE
 62
     7
100
AcDbVertex
100
AcDb2dVertex
 10
100.2881076138169
 20
149.131293365495
 30
0.0
  0
SEQEND
  5
1F6
330
1F3
100
AcDbEntity
  8
STANDARDEBENE
  0
POLYLINE
  5
1F7
330
1F
100
AcDbEntity
  8
STANDARDEBENE
 62
     7
100
AcDb2dPolyline
 66
     1
 10
0.0
 20
0.0
 30
0.0
  0
VERTEX
  5
1F8
330
1F7
100
AcDbEntity
  8
STANDARDEBENE
 62
     7
100
AcDbVertex
100
AcDb2dVertex
 10
105.2562798130957
 20
150.055267974639
 30
0.0
  0
VERTEX
  5
1F9
330
1F7
100
AcDbEntity
  8
STANDARDEBENE
 62
     7
100
AcDbVertex
100
AcDb2dVertex
 10
104.6354736066536
 20
150.055267974639
 30
0.0
  0
SEQEND
  5
1FA
330
1F7
100
AcDbEntity
  8
STANDARDEBENE
  0
POLYLINE
  5
1FB
330
1F
100
AcDbEntity
  8
STANDARDEBENE
 62
     7
100
AcDb2dPolyline
 66
     1
 10
0.0
 20
0.0
 30
0.0
  0
VERTEX
  5
1FC
330
1FB
100
AcDbEntity
  8
STANDARDEBENE
 62
     7
100
AcDbVertex
100
AcDb2dVertex
 10
103.392827665124
 20
150.055267974639
 30
0.0
  0
VERTEX
  5
1FD
330
1FB
100
AcDbEntity
  8
STANDARDEBENE
 62
     7
100
AcDbVertex
100
AcDb2dVertex
 10
102.1515597617885
 20
150.055267974639
 30
0.0
  0
SEQEND
  5
1FE
330
1FB
100
AcDbEntity
  8
STANDARDEBENE
  0
POLYLINE
  5
1FF
330
1F
100
AcDbEntity
  8
STANDARDEBENE
 62
     7
100
AcDb2dPolyline
 66
     1
 10
0.0
 20
0.0
 30
0.0
  0
VERTEX
  5
200
330
1FF
100
AcDbEntity
  8
STANDARDEBENE
 62
     7
100
AcDbVertex
100
AcDb2dVertex
 10
100.9096028393559
 20
150.055267974639
 30
0.0
  0
VERTEX
  5
201
330
1FF
100
AcDbEntity
  8
STANDARDEBENE
 62
     7
100
AcDbVertex
100
AcDb2dVertex
 10
100.2881076138169
 20
150.055267974639
 30
0.0
  0
SEQEND
  5
202
330
1FF
100
AcDbEntity
  8
STANDARDEBENE
  0
POLYLINE
  5
203
330
1F
100
AcDbEntity
  8
STANDARDEBENE
 62
     7
100
AcDb2dPolyline
 66
     1
 10
0.0
 20
0.0
 30
0.0
  0
VERTEX
  5
204
330
203
100
AcDbEntity
  8
STANDARDEBENE
 62
     7
100
AcDbVertex
100
AcDb2dVertex
 10
105.2256184632769
 20
149.131293365495
 30
0.0
  0
VERTEX
  5
205
330
203
100
AcDbEntity
  8
STANDARDEBENE
 62
     7
100
AcDbVertex
100
AcDb2dVertex
 10
103.9908962413634
 20
149.131293365495
 30
0.0
  0
SEQEND
  5
206
330
203
100
AcDbEntity
  8
STANDARDEBENE
  0
POLYLINE
  5
207
330
1F
100
AcDbEntity
  8
STANDARDEBENE
 62
     7
100
AcDb2dPolyline
 66
     1
 10
0.0
 20
0.0
 30
0.0
  0
VERTEX
  5
208
330
207
100
AcDbEntity
  8
STANDARDEBENE
 62
     7
100
AcDbVertex
100
AcDb2dVertex
 10
101.5224853261819
 20
149.131293365495
 30
0.0
  0
VERTEX
  5
209
330
207
100
AcDbEntity
  8
STANDARDEBENE
 62
     7
100
AcDbVertex
100
AcDb2dVertex
 10
100.2881076138169
 20
149.131293365495
 30
0.0
  0
SEQEND
  5
20A
330
207
100
AcDbEntity
  8
STANDARDEBENE
  0
POLYLINE
  5
20B
330
1F
100
AcDbEntity
  8
STANDARDEBENE
 62
     7
100
AcDb2dPolyline
 66
     1
 10
0.0
 20
0.0
 30
0.0
  0
VERTEX
  5
20C
330
20B
100
AcDbEntity
  8
STANDARDEBENE
 62
     7
100
AcDbVertex
100
AcDb2dVertex
 10
105.2562798130957
 20
149.1266424865899
 30
0.0
  0
VERTEX
  5
20D
330
20B
100
AcDbEntity
  8
STANDARDEBENE
 62
     7
100
AcDbVertex
100
AcDb2dVertex
 10
106.1082519265979
 20
149.080822716636
 30
0.0
  0
SEQEND
  5
20E
330
20B
100
AcDbEntity
  8
STANDARDEBENE
  0
POLYLINE
  5
20F
330
1F
100
AcDbEntity
  8
STANDARDEBENE
 62
     7
100
AcDb2dPolyline
 66
     1
 10
0.0
 20
0.0
 30
0.0
  0
VERTEX
  5
210
330
20F
100
AcDbEntity
  8
STANDARDEBENE
 62
     7
100
AcDbVertex
100
AcDb2dVertex
 10
107.7811902942353
 20
148.7955688104574
 30
0.0
  0
VERTEX
  5
211
330
20F
100
AcDbEntity
  8
STANDARDEBENE
 62
     7
100
AcDbVertex
100
AcDb2dVertex
 10
108.6011230197247
 20
148.5568236933296
 30
0.0
  0
VERTEX
  5
212
330
20F
100
AcDbEntity
  8
STANDARDEBENE
 62
     7
100
AcDbVertex
100
AcDb2dVertex
 10
109.3452636445387
 20
148.1379000823232
 30
0.0
  0
SEQEND
  5
213
330
20F
100
AcDbEntity
  8
STANDARDEBENE
  0
POLYLINE
  5
214
330
1F
100
AcDbEntity
  8
STANDARDEBENE
 62
     7
100
AcDb2dPolyline
 66
     1
 10
0.0
 20
0.0
 30
0.0
  0
VERTEX
  5
215
330
214
100
AcDbEntity
  8
STANDARDEBENE
 62
     7
100
AcDbVertex
100
AcDb2dVertex
 10
110.7191677240563
 20
147.142956506183
 30
0.0
  0
VERTEX
  5
216
330
214
100
AcDbEntity
  8
STANDARDEBENE
 62
     7
100
AcDbVertex
100
AcDb2dVertex
 10
111.3482421596629
 20
146.5653862480809
 30
0.0
  0
SEQEND
  5
217
330
214
100
AcDbEntity
  8
STANDARDEBENE
  0
POLYLINE
  5
218
330
1F
100
AcDbEntity
  8
STANDARDEBENE
 62
     7
100
AcDb2dPolyline
 66
     1
 10
0.0
 20
0.0
 30
0.0
  0
VERTEX
  5
219
330
218
100
AcDbEntity
  8
STANDARDEBENE
 62
     7
100
AcDbVertex
100
AcDb2dVertex
 10
105.2256184632769
 20
156.2436929947933
 30
0.0
  0
VERTEX
  5
21A
330
218
100
AcDbEntity
  8
STANDARDEBENE
 62
     7
100
AcDbVertex
100
AcDb2dVertex
 10
105.2321641446989
 20
156.244209759116
 30
0.0
  0
VERTEX
  5
21B
330
218
100
AcDbEntity
  8
STANDARDEBENE
 62
     7
100
AcDbVertex
100
AcDb2dVertex
 10
105.2562798130957
 20
156.2471380902785
 30
0.0
  0
VERTEX
  5
21C
330
218
100
AcDbEntity
  8
STANDARDEBENE
 62
     7
100
AcDbVertex
100
AcDb2dVertex
 10
106.1082519265979
 20
156.2938191341036
 30
0.0
  0
SEQEND
  5
21D
330
218
100
AcDbEntity
  8
STANDARDEBENE
  0
POLYLINE
  5
21E
330
1F
100
AcDbEntity
  8
STANDARDEBENE
 62
     7
100
AcDb2dPolyline
 66
     1
 10
0.0
 20
0.0
 30
0.0
  0
VERTEX
  5
21F
330
21E
100
AcDbEntity
  8
STANDARDEBENE
 62
     7
100
AcDbVertex
100
AcDb2dVertex
 10
107.7811902942353
 20
156.5787285307338
 30
0.0
  0
VERTEX
  5
220
330
21E
100
AcDbEntity
  8
STANDARDEBENE
 62
     7
100
AcDbVertex
100
AcDb2dVertex
 10
108.6011230197247
 20
156.8169568835388
 30
0.0
  0
VERTEX
  5
221
330
21E
100
AcDbEntity
  8
STANDARDEBENE
 62
     7
100
AcDbVertex
100
AcDb2dVertex
 10
109.3452636445387
 20
157.2355359849967
 30
0.0
  0
SEQEND
  5
222
330
21E
100
AcDbEntity
  8
STANDARDEBENE
  0
POLYLINE
  5
223
330
1F
100
AcDbEntity
  8
STANDARDEBENE
 62
     7
100
AcDb2dPolyline
 66
     1
 10
0.0
 20
0.0
 30
0.0
  0
VERTEX
  5
224
330
223
100
AcDbEntity
  8
STANDARDEBENE
 62
     7
100
AcDbVertex
100
AcDb2dVertex
 10
110.7191677240563
 20
158.2320298541052
 30
0.0
  0
VERTEX
  5
225
330
223
100
AcDbEntity
  8
STANDARDEBENE
 62
     7
100
AcDbVertex
100
AcDb2dVertex
 10
111.3482421596629
 20
158.8083943287875
 30
0.0
  0
SEQEND
  5
226
330
223
100
AcDbEntity
  8
STANDARDEBENE
  0
POLYLINE
  5
227
330
1F
100
AcDbEntity
  8
STANDARDEBENE
 62
     7
100
AcDb2dPolyline
 66
     1
 10
0.0
 20
0.0
 30
0.0
  0
VERTEX
  5
228
330
227
100
AcDbEntity
  8
STANDARDEBENE
 62
     7
100
AcDbVertex
100
AcDb2dVertex
 10
105.2256184632769
 20
149.131293365495
 30
0.0
  0
VERTEX
  5
229
330
227
100
AcDbEntity
  8
STANDARDEBENE
 62
     7
100
AcDbVertex
100
AcDb2dVertex
 10
105.2321641446989
 20
149.1293985629781
 30
0.0
  0
VERTEX
  5
22A
330
227
100
AcDbEntity
  8
STANDARDEBENE
 62
     7
100
AcDbVertex
100
AcDb2dVertex
 10
105.2562798130957
 20
149.1266424865899
 30
0.0
  0
SEQEND
  5
22B
330
227
100
AcDbEntity
  8
STANDARDEBENE
  0
POLYLINE
  5
22C
330
1F
100
AcDbEntity
  8
STANDARDEBENE
 62
     7
100
AcDb2dPolyline
 66
     1
 10
0.0
 20
0.0
 30
0.0
  0
VERTEX
  5
22D
330
22C
100
AcDbEntity
  8
STANDARDEBENE
 62
     7
100
AcDbVertex
100
AcDb2dVertex
 10
111.3492756883085
 20
146.564180464661
 30
0.0
  0
VERTEX
  5
22E
330
22C
100
AcDbEntity
  8
STANDARDEBENE
 62
     7
100
AcDbVertex
100
AcDb2dVertex
 10
111.8808539216826
 20
146.6382500175939
 30
0.0
  0
SEQEND
  5
22F
330
22C
100
AcDbEntity
  8
STANDARDEBENE
  0
POLYLINE
  5
230
330
1F
100
AcDbEntity
  8
STANDARDEBENE
 62
     7
100
AcDb2dPolyline
 66
     1
 10
0.0
 20
0.0
 30
0.0
  0
VERTEX
  5
231
330
230
100
AcDbEntity
  8
STANDARDEBENE
 62
     7
100
AcDbVertex
100
AcDb2dVertex
 10
111.8808539216826
 20
158.735875068823
 30
0.0
  0
VERTEX
  5
232
330
230
100
AcDbEntity
  8
STANDARDEBENE
 62
     7
100
AcDbVertex
100
AcDb2dVertex
 10
111.3492756883085
 20
158.8108058956272
 30
0.0
  0
SEQEND
  5
233
330
230
100
AcDbEntity
  8
STANDARDEBENE
  0
POLYLINE
  5
234
330
1F
100
AcDbEntity
  8
STANDARDEBENE
 62
     7
100
AcDb2dPolyline
 66
     1
 10
0.0
 20
0.0
 30
0.0
  0
VERTEX
  5
235
330
234
100
AcDbEntity
  8
STANDARDEBENE
 62
     7
100
AcDbVertex
100
AcDb2dVertex
 10
82.07199298078409
 20
157.4939181463904
 30
0.0
  0
VERTEX
  5
236
330
234
100
AcDbEntity
  8
STANDARDEBENE
 62
     7
100
AcDbVertex
100
AcDb2dVertex
 10
82.07199298078409
 20
157.7287014037102
 30
0.0
  0
SEQEND
  5
237
330
234
100
AcDbEntity
  8
STANDARDEBENE
  0
POLYLINE
  5
238
330
1F
100
AcDbEntity
  8
STANDARDEBENE
 62
     7
100
AcDb2dPolyline
 66
     1
 10
0.0
 20
0.0
 30
0.0
  0
VERTEX
  5
239
330
238
100
AcDbEntity
  8
STANDARDEBENE
 62
     7
100
AcDbVertex
100
AcDb2dVertex
 10
82.07199298078409
 20
159.6514091940281
 30
0.0
  0
VERTEX
  5
23A
330
238
100
AcDbEntity
  8
STANDARDEBENE
 62
     7
100
AcDbVertex
100
AcDb2dVertex
 10
82.07199298078409
 20
159.4014675165733
 30
0.0
  0
VERTEX
  5
23B
330
238
100
AcDbEntity
  8
STANDARDEBENE
 62
     7
100
AcDbVertex
100
AcDb2dVertex
 10
82.07199298078409
 20
158.74707162915
 30
0.0
  0
VERTEX
  5
23C
330
238
100
AcDbEntity
  8
STANDARDEBENE
 62
     7
100
AcDbVertex
100
AcDb2dVertex
 10
82.07199298078409
 20
157.7287014037102
 30
0.0
  0
SEQEND
  5
23D
330
238
100
AcDbEntity
  8
STANDARDEBENE
  0
POLYLINE
  5
23E
330
1F
100
AcDbEntity
  8
STANDARDEBENE
 62
     7
100
AcDb2dPolyline
 66
     1
 10
0.0
 20
0.0
 30
0.0
  0
VERTEX
  5
23F
330
23E
100
AcDbEntity
  8
STANDARDEBENE
 62
     7
100
AcDbVertex
100
AcDb2dVertex
 10
82.07199298078409
 20
157.4944349107132
 30
0.0
  0
VERTEX
  5
240
330
23E
100
AcDbEntity
  8
STANDARDEBENE
 62
     7
100
AcDbVertex
100
AcDb2dVertex
 10
82.07199298078409
 20
156.122770143261
 30
0.0
  0
VERTEX
  5
241
330
23E
100
AcDbEntity
  8
STANDARDEBENE
 62
     7
100
AcDbVertex
100
AcDb2dVertex
 10
82.07199298078409
 20
154.5435383728225
 30
0.0
  0
VERTEX
  5
242
330
23E
100
AcDbEntity
  8
STANDARDEBENE
 62
     7
100
AcDbVertex
100
AcDb2dVertex
 10
82.07199298078409
 20
152.8532022729846
 30
0.0
  0
SEQEND
  5
243
330
23E
100
AcDbEntity
  8
STANDARDEBENE
  0
POLYLINE
  5
244
330
1F
100
AcDbEntity
  8
STANDARDEBENE
 62
     7
100
AcDb2dPolyline
 66
     1
 10
0.0
 20
0.0
 30
0.0
  0
VERTEX
  5
245
330
244
100
AcDbEntity
  8
STANDARDEBENE
 62
     7
100
AcDbVertex
100
AcDb2dVertex
 10
82.07199298078409
 20
147.879862430478
 30
0.0
  0
VERTEX
  5
246
330
244
100
AcDbEntity
  8
STANDARDEBENE
 62
     7
100
AcDbVertex
100
AcDb2dVertex
 10
82.07199298078409
 20
147.6461127018038
 30
0.0
  0
SEQEND
  5
247
330
244
100
AcDbEntity
  8
STANDARDEBENE
  0
POLYLINE
  5
248
330
1F
100
AcDbEntity
  8
STANDARDEBENE
 62
     7
100
AcDb2dPolyline
 66
     1
 10
0.0
 20
0.0
 30
0.0
  0
VERTEX
  5
249
330
248
100
AcDbEntity
  8
STANDARDEBENE
 62
     7
100
AcDbVertex
100
AcDb2dVertex
 10
82.07199298078409
 20
152.5216118325293
 30
0.0
  0
VERTEX
  5
24A
330
248
100
AcDbEntity
  8
STANDARDEBENE
 62
     7
100
AcDbVertex
100
AcDb2dVertex
 10
82.07199298078409
 20
150.8312757326915
 30
0.0
  0
VERTEX
  5
24B
330
248
100
AcDbEntity
  8
STANDARDEBENE
 62
     7
100
AcDbVertex
100
AcDb2dVertex
 10
82.07199298078409
 20
149.252043962253
 30
0.0
  0
VERTEX
  5
24C
330
248
100
AcDbEntity
  8
STANDARDEBENE
 62
     7
100
AcDbVertex
100
AcDb2dVertex
 10
82.07199298078409
 20
147.879862430478
 30
0.0
  0
SEQEND
  5
24D
330
248
100
AcDbEntity
  8
STANDARDEBENE
  0
POLYLINE
  5
24E
330
1F
100
AcDbEntity
  8
STANDARDEBENE
 62
     7
100
AcDb2dPolyline
 66
     1
 10
0.0
 20
0.0
 30
0.0
  0
VERTEX
  5
24F
330
24E
100
AcDbEntity
  8
STANDARDEBENE
 62
     7
100
AcDbVertex
100
AcDb2dVertex
 10
82.07199298078409
 20
147.6461127018038
 30
0.0
  0
VERTEX
  5
250
330
24E
100
AcDbEntity
  8
STANDARDEBENE
 62
     7
100
AcDbVertex
100
AcDb2dVertex
 10
82.07199298078409
 20
146.6265366929441
 30
0.0
  0
VERTEX
  5
251
330
24E
100
AcDbEntity
  8
STANDARDEBENE
 62
     7
100
AcDbVertex
100
AcDb2dVertex
 10
82.07199298078409
 20
145.9723130602951
 30
0.0
  0
VERTEX
  5
252
330
24E
100
AcDbEntity
  8
STANDARDEBENE
 62
     7
100
AcDbVertex
100
AcDb2dVertex
 10
82.07199298078409
 20
145.722888147163
 30
0.0
  0
SEQEND
  5
253
330
24E
100
AcDbEntity
  8
STANDARDEBENE
  0
POLYLINE
  5
254
330
1F
100
AcDbEntity
  8
STANDARDEBENE
 62
     7
100
AcDb2dPolyline
 66
     1
 10
0.0
 20
0.0
 30
0.0
  0
VERTEX
  5
255
330
254
100
AcDbEntity
  8
STANDARDEBENE
 62
     7
100
AcDbVertex
100
AcDb2dVertex
 10
111.8808539216826
 20
157.0803344333862
 30
0.0
  0
VERTEX
  5
256
330
254
100
AcDbEntity
  8
STANDARDEBENE
 62
     7
100
AcDbVertex
100
AcDb2dVertex
 10
111.8808539216826
 20
156.8455511760664
 30
0.0
  0
SEQEND
  5
257
330
254
100
AcDbEntity
  8
STANDARDEBENE
  0
POLYLINE
  5
258
330
1F
100
AcDbEntity
  8
STANDARDEBENE
 62
     7
100
AcDb2dPolyline
 66
     1
 10
0.0
 20
0.0
 30
0.0
  0
VERTEX
  5
259
330
258
100
AcDbEntity
  8
STANDARDEBENE
 62
     7
100
AcDbVertex
100
AcDb2dVertex
 10
111.8808539216826
 20
158.735875068823
 30
0.0
  0
VERTEX
  5
25A
330
258
100
AcDbEntity
  8
STANDARDEBENE
 62
     7
100
AcDbVertex
100
AcDb2dVertex
 10
111.8808539216826
 20
158.543638740746
 30
0.0
  0
VERTEX
  5
25B
330
258
100
AcDbEntity
  8
STANDARDEBENE
 62
     7
100
AcDbVertex
100
AcDb2dVertex
 10
111.8808539216826
 20
157.9800211193592
 30
0.0
  0
VERTEX
  5
25C
330
258
100
AcDbEntity
  8
STANDARDEBENE
 62
     7
100
AcDbVertex
100
AcDb2dVertex
 10
111.8808539216826
 20
157.0803344333862
 30
0.0
  0
SEQEND
  5
25D
330
258
100
AcDbEntity
  8
STANDARDEBENE
  0
POLYLINE
  5
25E
330
1F
100
AcDbEntity
  8
STANDARDEBENE
 62
     7
100
AcDb2dPolyline
 66
     1
 10
0.0
 20
0.0
 30
0.0
  0
VERTEX
  5
25F
330
25E
100
AcDbEntity
  8
STANDARDEBENE
 62
     7
100
AcDbVertex
100
AcDb2dVertex
 10
90.03446992106778
 20
161.8047661270835
 30
0.0
  0
VERTEX
  5
260
330
25E
100
AcDbEntity
  8
STANDARDEBENE
 62
     7
100
AcDbVertex
100
AcDb2dVertex
 10
90.03446992106778
 20
161.48092715147
 30
0.0
  0
VERTEX
  5
261
330
25E
100
AcDbEntity
  8
STANDARDEBENE
 62
     7
100
AcDbVertex
100
AcDb2dVertex
 10
90.03446992106778
 20
160.6117295605415
 30
0.0
  0
VERTEX
  5
262
330
25E
100
AcDbEntity
  8
STANDARDEBENE
 62
     7
100
AcDbVertex
100
AcDb2dVertex
 10
90.03446992106778
 20
159.2519503725134
 30
0.0
  0
VERTEX
  5
263
330
25E
100
AcDbEntity
  8
STANDARDEBENE
 62
     7
100
AcDbVertex
100
AcDb2dVertex
 10
105.8887993441875
 20
157.6758191880116
 30
0.0
  0
VERTEX
  5
264
330
25E
100
AcDbEntity
  8
STANDARDEBENE
 62
     7
100
AcDbVertex
100
AcDb2dVertex
 10
111.8808539216826
 20
157.0803344333862
 30
0.0
  0
SEQEND
  5
265
330
25E
100
AcDbEntity
  8
STANDARDEBENE
  0
POLYLINE
  5
266
330
1F
100
AcDbEntity
  8
STANDARDEBENE
 62
     7
100
AcDb2dPolyline
 66
     1
 10
0.0
 20
0.0
 30
0.0
  0
VERTEX
  5
267
330
266
100
AcDbEntity
  8
STANDARDEBENE
 62
     7
100
AcDbVertex
100
AcDb2dVertex
 10
111.3492756883085
 20
158.8108058956272
 30
0.0
  0
VERTEX
  5
268
330
266
100
AcDbEntity
  8
STANDARDEBENE
 62
     7
100
AcDbVertex
100
AcDb2dVertex
 10
111.3482421596629
 20
158.8083943287875
 30
0.0
  0
SEQEND
  5
269
330
266
100
AcDbEntity
  8
STANDARDEBENE
  0
POLYLINE
  5
26A
330
1F
100
AcDbEntity
  8
STANDARDEBENE
 62
     7
100
AcDb2dPolyline
 66
     1
 10
0.0
 20
0.0
 30
0.0
  0
VERTEX
  5
26B
330
26A
100
AcDbEntity
  8
STANDARDEBENE
 62
     7
100
AcDbVertex
100
AcDb2dVertex
 10
90.03446992106778
 20
161.8047661270835
 30
0.0
  0
VERTEX
  5
26C
330
26A
100
AcDbEntity
  8
STANDARDEBENE
 62
     7
100
AcDbVertex
100
AcDb2dVertex
 10
99.24958357978831
 20
160.5097547341781
 30
0.0
  0
VERTEX
  5
26D
330
26A
100
AcDbEntity
  8
STANDARDEBENE
 62
     7
100
AcDbVertex
100
AcDb2dVertex
 10
110.1810438092603
 20
158.9728976382082
 30
0.0
  0
VERTEX
  5
26E
330
26A
100
AcDbEntity
  8
STANDARDEBENE
 62
     7
100
AcDbVertex
100
AcDb2dVertex
 10
111.3482421596629
 20
158.8083943287875
 30
0.0
  0
SEQEND
  5
26F
330
26A
100
AcDbEntity
  8
STANDARDEBENE
  0
POLYLINE
  5
270
330
1F
100
AcDbEntity
  8
STANDARDEBENE
 62
     7
100
AcDb2dPolyline
 66
     1
 10
0.0
 20
0.0
 30
0.0
  0
VERTEX
  5
271
330
270
100
AcDbEntity
  8
STANDARDEBENE
 62
     7
100
AcDbVertex
100
AcDb2dVertex
 10
89.52442353447654
 20
161.2933417022982
 30
0.0
  0
VERTEX
  5
272
330
270
100
AcDbEntity
  8
STANDARDEBENE
 62
     7
100
AcDbVertex
100
AcDb2dVertex
 10
89.52442353447654
 20
160.987417223208
 30
0.0
  0
VERTEX
  5
273
330
270
100
AcDbEntity
  8
STANDARDEBENE
 62
     7
100
AcDbVertex
100
AcDb2dVertex
 10
89.52442353447654
 20
160.1700683193325
 30
0.0
  0
VERTEX
  5
274
330
270
100
AcDbEntity
  8
STANDARDEBENE
 62
     7
100
AcDbVertex
100
AcDb2dVertex
 10
89.52442353447654
 20
158.8896985822394
 30
0.0
  0
SEQEND
  5
275
330
270
100
AcDbEntity
  8
STANDARDEBENE
  0
POLYLINE
  5
276
330
1F
100
AcDbEntity
  8
STANDARDEBENE
 62
     7
100
AcDb2dPolyline
 66
     1
 10
0.0
 20
0.0
 30
0.0
  0
VERTEX
  5
277
330
276
100
AcDbEntity
  8
STANDARDEBENE
 62
     7
100
AcDbVertex
100
AcDb2dVertex
 10
89.52442353447654
 20
158.6562933631137
 30
0.0
  0
VERTEX
  5
278
330
276
100
AcDbEntity
  8
STANDARDEBENE
 62
     7
100
AcDbVertex
100
AcDb2dVertex
 10
89.52442353447654
 20
158.8896985822394
 30
0.0
  0
VERTEX
  5
279
330
276
100
AcDbEntity
  8
STANDARDEBENE
 62
     7
100
AcDbVertex
100
AcDb2dVertex
 10
90.03446992106778
 20
159.2519503725134
 30
0.0
  0
SEQEND
  5
27A
330
276
100
AcDbEntity
  8
STANDARDEBENE
  0
POLYLINE
  5
27B
330
1F
100
AcDbEntity
  8
STANDARDEBENE
 62
     7
100
AcDb2dPolyline
 66
     1
 10
0.0
 20
0.0
 30
0.0
  0
VERTEX
  5
27C
330
27B
100
AcDbEntity
  8
STANDARDEBENE
 62
     7
100
AcDbVertex
100
AcDb2dVertex
 10
86.21213648018308
 20
158.1314330659359
 30
0.0
  0
VERTEX
  5
27D
330
27B
100
AcDbEntity
  8
STANDARDEBENE
 62
     7
100
AcDbVertex
100
AcDb2dVertex
 10
89.52442353447654
 20
158.1314330659359
 30
0.0
  0
SEQEND
  5
27E
330
27B
100
AcDbEntity
  8
STANDARDEBENE
  0
POLYLINE
  5
27F
330
1F
100
AcDbEntity
  8
STANDARDEBENE
 62
     7
100
AcDb2dPolyline
 66
     1
 10
0.0
 20
0.0
 30
0.0
  0
VERTEX
  5
280
330
27F
100
AcDbEntity
  8
STANDARDEBENE
 62
     7
100
AcDbVertex
100
AcDb2dVertex
 10
86.21213648018308
 20
160.2205389681914
 30
0.0
  0
VERTEX
  5
281
330
27F
100
AcDbEntity
  8
STANDARDEBENE
 62
     7
100
AcDbVertex
100
AcDb2dVertex
 10
89.52442353447654
 20
160.2205389681914
 30
0.0
  0
SEQEND
  5
282
330
27F
100
AcDbEntity
  8
STANDARDEBENE
  0
POLYLINE
  5
283
330
1F
100
AcDbEntity
  8
STANDARDEBENE
 62
     7
100
AcDb2dPolyline
 66
     1
 10
0.0
 20
0.0
 30
0.0
  0
VERTEX
  5
284
330
283
100
AcDbEntity
  8
STANDARDEBENE
 62
     7
100
AcDbVertex
100
AcDb2dVertex
 10
89.52442353447654
 20
161.2933417022982
 30
0.0
  0
VERTEX
  5
285
330
283
100
AcDbEntity
  8
STANDARDEBENE
 62
     7
100
AcDbVertex
100
AcDb2dVertex
 10
90.03446992106778
 20
161.8047661270835
 30
0.0
  0
SEQEND
  5
286
330
283
100
AcDbEntity
  8
STANDARDEBENE
  0
POLYLINE
  5
287
330
1F
100
AcDbEntity
  8
STANDARDEBENE
 62
     7
100
AcDb2dPolyline
 66
     1
 10
0.0
 20
0.0
 30
0.0
  0
VERTEX
  5
288
330
287
100
AcDbEntity
  8
STANDARDEBENE
 62
     7
100
AcDbVertex
100
AcDb2dVertex
 10
86.21213648018308
 20
159.4193820130965
 30
0.0
  0
VERTEX
  5
289
330
287
100
AcDbEntity
  8
STANDARDEBENE
 62
     7
100
AcDbVertex
100
AcDb2dVertex
 10
86.21213648018308
 20
159.1845987557768
 30
0.0
  0
SEQEND
  5
28A
330
287
100
AcDbEntity
  8
STANDARDEBENE
  0
POLYLINE
  5
28B
330
1F
100
AcDbEntity
  8
STANDARDEBENE
 62
     7
100
AcDb2dPolyline
 66
     1
 10
0.0
 20
0.0
 30
0.0
  0
VERTEX
  5
28C
330
28B
100
AcDbEntity
  8
STANDARDEBENE
 62
     7
100
AcDbVertex
100
AcDb2dVertex
 10
86.21213648018308
 20
162.0426499703401
 30
0.0
  0
VERTEX
  5
28D
330
28B
100
AcDbEntity
  8
STANDARDEBENE
 62
     7
100
AcDbVertex
100
AcDb2dVertex
 10
86.21213648018308
 20
161.7103705107877
 30
0.0
  0
VERTEX
  5
28E
330
28B
100
AcDbEntity
  8
STANDARDEBENE
 62
     7
100
AcDbVertex
100
AcDb2dVertex
 10
86.21213648018308
 20
160.8179185253337
 30
0.0
  0
VERTEX
  5
28F
330
28B
100
AcDbEntity
  8
STANDARDEBENE
 62
     7
100
AcDbVertex
100
AcDb2dVertex
 10
86.21213648018308
 20
159.4193820130965
 30
0.0
  0
SEQEND
  5
290
330
28B
100
AcDbEntity
  8
STANDARDEBENE
  0
POLYLINE
  5
291
330
1F
100
AcDbEntity
  8
STANDARDEBENE
 62
     7
100
AcDb2dPolyline
 66
     1
 10
0.0
 20
0.0
 30
0.0
  0
VERTEX
  5
292
330
291
100
AcDbEntity
  8
STANDARDEBENE
 62
     7
100
AcDbVertex
100
AcDb2dVertex
 10
82.07199298078409
 20
159.6514091940281
 30
0.0
  0
VERTEX
  5
293
330
291
100
AcDbEntity
  8
STANDARDEBENE
 62
     7
100
AcDbVertex
100
AcDb2dVertex
 10
84.9596720165205
 20
161.3186631541148
 30
0.0
  0
VERTEX
  5
294
330
291
100
AcDbEntity
  8
STANDARDEBENE
 62
     7
100
AcDbVertex
100
AcDb2dVertex
 10
86.21213648018308
 20
162.0426499703401
 30
0.0
  0
SEQEND
  5
295
330
291
100
AcDbEntity
  8
STANDARDEBENE
  0
POLYLINE
  5
296
330
1F
100
AcDbEntity
  8
STANDARDEBENE
 62
     7
100
AcDb2dPolyline
 66
     1
 10
0.0
 20
0.0
 30
0.0
  0
VERTEX
  5
297
330
296
100
AcDbEntity
  8
STANDARDEBENE
 62
     7
100
AcDbVertex
100
AcDb2dVertex
 10
82.07199298078409
 20
157.7287014037102
 30
0.0
  0
VERTEX
  5
298
330
296
100
AcDbEntity
  8
STANDARDEBENE
 62
     7
100
AcDbVertex
100
AcDb2dVertex
 10
86.21213648018308
 20
159.4193820130965
 30
0.0
  0
SEQEND
  5
299
330
296
100
AcDbEntity
  8
STANDARDEBENE
  0
POLYLINE
  5
29A
330
1F
100
AcDbEntity
  8
STANDARDEBENE
 62
     7
100
AcDb2dPolyline
 66
     1
 10
0.0
 20
0.0
 30
0.0
  0
VERTEX
  5
29B
330
29A
100
AcDbEntity
  8
STANDARDEBENE
 62
     7
100
AcDbVertex
100
AcDb2dVertex
 10
111.8808539216826
 20
156.8455511760664
 30
0.0
  0
VERTEX
  5
29C
330
29A
100
AcDbEntity
  8
STANDARDEBENE
 62
     7
100
AcDbVertex
100
AcDb2dVertex
 10
111.8808539216826
 20
155.6149630687352
 30
0.0
  0
VERTEX
  5
29D
330
29A
100
AcDbEntity
  8
STANDARDEBENE
 62
     7
100
AcDbVertex
100
AcDb2dVertex
 10
111.8808539216826
 20
154.1988565695232
 30
0.0
  0
VERTEX
  5
29E
330
29A
100
AcDbEntity
  8
STANDARDEBENE
 62
     7
100
AcDbVertex
100
AcDb2dVertex
 10
111.8808539216826
 20
152.6878376896926
 30
0.0
  0
VERTEX
  5
29F
330
29A
100
AcDbEntity
  8
STANDARDEBENE
 62
     7
100
AcDbVertex
100
AcDb2dVertex
 10
111.8808539216826
 20
151.1747517525709
 30
0.0
  0
VERTEX
  5
2A0
330
29A
100
AcDbEntity
  8
STANDARDEBENE
 62
     7
100
AcDbVertex
100
AcDb2dVertex
 10
111.8808539216826
 20
149.7588175081332
 30
0.0
  0
VERTEX
  5
2A1
330
29A
100
AcDbEntity
  8
STANDARDEBENE
 62
     7
100
AcDbVertex
100
AcDb2dVertex
 10
111.8808539216826
 20
148.5280571460277
 30
0.0
  0
SEQEND
  5
2A2
330
29A
100
AcDbEntity
  8
STANDARDEBENE
  0
POLYLINE
  5
2A3
330
1F
100
AcDbEntity
  8
STANDARDEBENE
 62
     7
100
AcDb2dPolyline
 66
     1
 10
0.0
 20
0.0
 30
0.0
  0
VERTEX
  5
2A4
330
2A3
100
AcDbEntity
  8
STANDARDEBENE
 62
     7
100
AcDbVertex
100
AcDb2dVertex
 10
90.03446992106778
 20
159.0176838795164
 30
0.0
  0
VERTEX
  5
2A5
330
2A3
100
AcDbEntity
  8
STANDARDEBENE
 62
     7
100
AcDbVertex
100
AcDb2dVertex
 10
105.8887993441875
 20
157.4406914211433
 30
0.0
  0
VERTEX
  5
2A6
330
2A3
100
AcDbEntity
  8
STANDARDEBENE
 62
     7
100
AcDbVertex
100
AcDb2dVertex
 10
111.8808539216826
 20
156.8455511760664
 30
0.0
  0
SEQEND
  5
2A7
330
2A3
100
AcDbEntity
  8
STANDARDEBENE
  0
POLYLINE
  5
2A8
330
1F
100
AcDbEntity
  8
STANDARDEBENE
 62
     7
100
AcDb2dPolyline
 66
     1
 10
0.0
 20
0.0
 30
0.0
  0
VERTEX
  5
2A9
330
2A8
100
AcDbEntity
  8
STANDARDEBENE
 62
     7
100
AcDbVertex
100
AcDb2dVertex
 10
90.03446992106778
 20
159.0176838795164
 30
0.0
  0
VERTEX
  5
2AA
330
2A8
100
AcDbEntity
  8
STANDARDEBENE
 62
     7
100
AcDbVertex
100
AcDb2dVertex
 10
90.03446992106778
 20
157.198328953756
 30
0.0
  0
VERTEX
  5
2AB
330
2A8
100
AcDbEntity
  8
STANDARDEBENE
 62
     7
100
AcDbVertex
100
AcDb2dVertex
 10
90.03446992106778
 20
155.1004380580131
 30
0.0
  0
VERTEX
  5
2AC
330
2A8
100
AcDbEntity
  8
STANDARDEBENE
 62
     7
100
AcDbVertex
100
AcDb2dVertex
 10
90.03446992106778
 20
152.8532022729846
 30
0.0
  0
VERTEX
  5
2AD
330
2A8
100
AcDbEntity
  8
STANDARDEBENE
 62
     7
100
AcDbVertex
100
AcDb2dVertex
 10
99.24958357978831
 20
152.8532022729846
 30
0.0
  0
VERTEX
  5
2AE
330
2A8
100
AcDbEntity
  8
STANDARDEBENE
 62
     7
100
AcDbVertex
100
AcDb2dVertex
 10
110.1810438092603
 20
152.8532022729846
 30
0.0
  0
VERTEX
  5
2AF
330
2A8
100
AcDbEntity
  8
STANDARDEBENE
 62
     7
100
AcDbVertex
100
AcDb2dVertex
 10
111.3482421596629
 20
152.8532022729846
 30
0.0
  0
VERTEX
  5
2B0
330
2A8
100
AcDbEntity
  8
STANDARDEBENE
 62
     7
100
AcDbVertex
100
AcDb2dVertex
 10
111.3492756883085
 20
152.6878376896926
 30
0.0
  0
VERTEX
  5
2B1
330
2A8
100
AcDbEntity
  8
STANDARDEBENE
 62
     7
100
AcDbVertex
100
AcDb2dVertex
 10
111.3482421596629
 20
152.5216118325293
 30
0.0
  0
SEQEND
  5
2B2
330
2A8
100
AcDbEntity
  8
STANDARDEBENE
  0
POLYLINE
  5
2B3
330
1F
100
AcDbEntity
  8
STANDARDEBENE
 62
     7
100
AcDb2dPolyline
 66
     1
 10
0.0
 20
0.0
 30
0.0
  0
VERTEX
  5
2B4
330
2B3
100
AcDbEntity
  8
STANDARDEBENE
 62
     7
100
AcDbVertex
100
AcDb2dVertex
 10
90.03446992106778
 20
152.5216118325293
 30
0.0
  0
VERTEX
  5
2B5
330
2B3
100
AcDbEntity
  8
STANDARDEBENE
 62
     7
100
AcDbVertex
100
AcDb2dVertex
 10
99.24958357978831
 20
152.5216118325293
 30
0.0
  0
VERTEX
  5
2B6
330
2B3
100
AcDbEntity
  8
STANDARDEBENE
 62
     7
100
AcDbVertex
100
AcDb2dVertex
 10
110.1810438092603
 20
152.5216118325293
 30
0.0
  0
VERTEX
  5
2B7
330
2B3
100
AcDbEntity
  8
STANDARDEBENE
 62
     7
100
AcDbVertex
100
AcDb2dVertex
 10
111.3482421596629
 20
152.5216118325293
 30
0.0
  0
SEQEND
  5
2B8
330
2B3
100
AcDbEntity
  8
STANDARDEBENE
  0
POLYLINE
  5
2B9
330
1F
100
AcDbEntity
  8
STANDARDEBENE
 62
     7
100
AcDb2dPolyline
 66
     1
 10
0.0
 20
0.0
 30
0.0
  0
VERTEX
  5
2BA
330
2B9
100
AcDbEntity
  8
STANDARDEBENE
 62
     7
100
AcDbVertex
100
AcDb2dVertex
 10
90.03446992106778
 20
152.5216118325293
 30
0.0
  0
VERTEX
  5
2BB
330
2B9
100
AcDbEntity
  8
STANDARDEBENE
 62
     7
100
AcDbVertex
100
AcDb2dVertex
 10
90.03446992106778
 20
150.2733425188553
 30
0.0
  0
VERTEX
  5
2BC
330
2B9
100
AcDbEntity
  8
STANDARDEBENE
 62
     7
100
AcDbVertex
100
AcDb2dVertex
 10
90.03446992106778
 20
148.1756238778867
 30
0.0
  0
VERTEX
  5
2BD
330
2B9
100
AcDbEntity
  8
STANDARDEBENE
 62
     7
100
AcDbVertex
100
AcDb2dVertex
 10
90.03446992106778
 20
146.3573024807718
 30
0.0
  0
VERTEX
  5
2BE
330
2B9
100
AcDbEntity
  8
STANDARDEBENE
 62
     7
100
AcDbVertex
100
AcDb2dVertex
 10
105.8887993441875
 20
147.9330891557251
 30
0.0
  0
VERTEX
  5
2BF
330
2B9
100
AcDbEntity
  8
STANDARDEBENE
 62
     7
100
AcDbVertex
100
AcDb2dVertex
 10
111.8808539216826
 20
148.5280571460277
 30
0.0
  0
SEQEND
  5
2C0
330
2B9
100
AcDbEntity
  8
STANDARDEBENE
  0
POLYLINE
  5
2C1
330
1F
100
AcDbEntity
  8
STANDARDEBENE
 62
     7
100
AcDb2dPolyline
 66
     1
 10
0.0
 20
0.0
 30
0.0
  0
VERTEX
  5
2C2
330
2C1
100
AcDbEntity
  8
STANDARDEBENE
 62
     7
100
AcDbVertex
100
AcDb2dVertex
 10
89.52442353447654
 20
152.5216118325293
 30
0.0
  0
VERTEX
  5
2C3
330
2C1
100
AcDbEntity
  8
STANDARDEBENE
 62
     7
100
AcDbVertex
100
AcDb2dVertex
 10
89.52442353447654
 20
150.4061509498117
 30
0.0
  0
VERTEX
  5
2C4
330
2C1
100
AcDbEntity
  8
STANDARDEBENE
 62
     7
100
AcDbVertex
100
AcDb2dVertex
 10
89.52442353447654
 20
148.4305609437951
 30
0.0
  0
VERTEX
  5
2C5
330
2C1
100
AcDbEntity
  8
STANDARDEBENE
 62
     7
100
AcDbVertex
100
AcDb2dVertex
 10
89.52442353447654
 20
146.719037506723
 30
0.0
  0
VERTEX
  5
2C6
330
2C1
100
AcDbEntity
  8
STANDARDEBENE
 62
     7
100
AcDbVertex
100
AcDb2dVertex
 10
90.03446992106778
 20
146.3573024807718
 30
0.0
  0
SEQEND
  5
2C7
330
2C1
100
AcDbEntity
  8
STANDARDEBENE
  0
POLYLINE
  5
2C8
330
1F
100
AcDbEntity
  8
STANDARDEBENE
 62
     7
100
AcDb2dPolyline
 66
     1
 10
0.0
 20
0.0
 30
0.0
  0
VERTEX
  5
2C9
330
2C8
100
AcDbEntity
  8
STANDARDEBENE
 62
     7
100
AcDbVertex
100
AcDb2dVertex
 10
86.21213648018308
 20
147.4779920421236
 30
0.0
  0
VERTEX
  5
2CA
330
2C8
100
AcDbEntity
  8
STANDARDEBENE
 62
     7
100
AcDbVertex
100
AcDb2dVertex
 10
89.52442353447654
 20
147.4779920421236
 30
0.0
  0
SEQEND
  5
2CB
330
2C8
100
AcDbEntity
  8
STANDARDEBENE
  0
POLYLINE
  5
2CC
330
1F
100
AcDbEntity
  8
STANDARDEBENE
 62
     7
100
AcDb2dPolyline
 66
     1
 10
0.0
 20
0.0
 30
0.0
  0
VERTEX
  5
2CD
330
2CC
100
AcDbEntity
  8
STANDARDEBENE
 62
     7
100
AcDbVertex
100
AcDb2dVertex
 10
86.21213648018308
 20
152.5216118325293
 30
0.0
  0
VERTEX
  5
2CE
330
2CC
100
AcDbEntity
  8
STANDARDEBENE
 62
     7
100
AcDbVertex
100
AcDb2dVertex
 10
89.52442353447654
 20
152.5216118325293
 30
0.0
  0
VERTEX
  5
2CF
330
2CC
100
AcDbEntity
  8
STANDARDEBENE
 62
     7
100
AcDbVertex
100
AcDb2dVertex
 10
90.03446992106778
 20
152.5216118325293
 30
0.0
  0
SEQEND
  5
2D0
330
2CC
100
AcDbEntity
  8
STANDARDEBENE
  0
POLYLINE
  5
2D1
330
1F
100
AcDbEntity
  8
STANDARDEBENE
 62
     7
100
AcDb2dPolyline
 66
     1
 10
0.0
 20
0.0
 30
0.0
  0
VERTEX
  5
2D2
330
2D1
100
AcDbEntity
  8
STANDARDEBENE
 62
     7
100
AcDbVertex
100
AcDb2dVertex
 10
86.21213648018308
 20
152.5216118325293
 30
0.0
  0
VERTEX
  5
2D3
330
2D1
100
AcDbEntity
  8
STANDARDEBENE
 62
     7
100
AcDbVertex
100
AcDb2dVertex
 10
86.21213648018308
 20
150.2123643287664
 30
0.0
  0
VERTEX
  5
2D4
330
2D1
100
AcDbEntity
  8
STANDARDEBENE
 62
     7
100
AcDbVertex
100
AcDb2dVertex
 10
86.21213648018308
 20
148.0569403384198
 30
0.0
  0
VERTEX
  5
2D5
330
2D1
100
AcDbEntity
  8
STANDARDEBENE
 62
     7
100
AcDbVertex
100
AcDb2dVertex
 10
86.21213648018308
 20
146.1890095663173
 30
0.0
  0
SEQEND
  5
2D6
330
2D1
100
AcDbEntity
  8
STANDARDEBENE
  0
POLYLINE
  5
2D7
330
1F
100
AcDbEntity
  8
STANDARDEBENE
 62
     7
100
AcDb2dPolyline
 66
     1
 10
0.0
 20
0.0
 30
0.0
  0
VERTEX
  5
2D8
330
2D7
100
AcDbEntity
  8
STANDARDEBENE
 62
     7
100
AcDbVertex
100
AcDb2dVertex
 10
82.07199298078409
 20
147.879862430478
 30
0.0
  0
VERTEX
  5
2D9
330
2D7
100
AcDbEntity
  8
STANDARDEBENE
 62
     7
100
AcDbVertex
100
AcDb2dVertex
 10
86.21213648018308
 20
146.1890095663173
 30
0.0
  0
SEQEND
  5
2DA
330
2D7
100
AcDbEntity
  8
STANDARDEBENE
  0
POLYLINE
  5
2DB
330
1F
100
AcDbEntity
  8
STANDARDEBENE
 62
     7
100
AcDb2dPolyline
 66
     1
 10
0.0
 20
0.0
 30
0.0
  0
VERTEX
  5
2DC
330
2DB
100
AcDbEntity
  8
STANDARDEBENE
 62
     7
100
AcDbVertex
100
AcDb2dVertex
 10
111.8808539216826
 20
148.2944796721278
 30
0.0
  0
VERTEX
  5
2DD
330
2DB
100
AcDbEntity
  8
STANDARDEBENE
 62
     7
100
AcDbVertex
100
AcDb2dVertex
 10
111.8808539216826
 20
148.5280571460277
 30
0.0
  0
SEQEND
  5
2DE
330
2DB
100
AcDbEntity
  8
STANDARDEBENE
  0
POLYLINE
  5
2DF
330
1F
100
AcDbEntity
  8
STANDARDEBENE
 62
     7
100
AcDb2dPolyline
 66
     1
 10
0.0
 20
0.0
 30
0.0
  0
VERTEX
  5
2E0
330
2DF
100
AcDbEntity
  8
STANDARDEBENE
 62
     7
100
AcDbVertex
100
AcDb2dVertex
 10
82.07199298078409
 20
152.5216118325293
 30
0.0
  0
VERTEX
  5
2E1
330
2DF
100
AcDbEntity
  8
STANDARDEBENE
 62
     7
100
AcDbVertex
100
AcDb2dVertex
 10
84.9596720165205
 20
152.5216118325293
 30
0.0
  0
VERTEX
  5
2E2
330
2DF
100
AcDbEntity
  8
STANDARDEBENE
 62
     7
100
AcDbVertex
100
AcDb2dVertex
 10
86.21213648018308
 20
152.5216118325293
 30
0.0
  0
SEQEND
  5
2E3
330
2DF
100
AcDbEntity
  8
STANDARDEBENE
  0
POLYLINE
  5
2E4
330
1F
100
AcDbEntity
  8
STANDARDEBENE
 62
     7
100
AcDb2dPolyline
 66
     1
 10
0.0
 20
0.0
 30
0.0
  0
VERTEX
  5
2E5
330
2E4
100
AcDbEntity
  8
STANDARDEBENE
 62
     7
100
AcDbVertex
100
AcDb2dVertex
 10
105.2256184632769
 20
152.5216118325293
 30
0.0
  0
VERTEX
  5
2E6
330
2E4
100
AcDbEntity
  8
STANDARDEBENE
 62
     7
100
AcDbVertex
100
AcDb2dVertex
 10
105.2562798130957
 20
152.6878376896926
 30
0.0
  0
SEQEND
  5
2E7
330
2E4
100
AcDbEntity
  8
STANDARDEBENE
  0
POLYLINE
  5
2E8
330
1F
100
AcDbEntity
  8
STANDARDEBENE
 62
     7
100
AcDb2dPolyline
 66
     1
 10
0.0
 20
0.0
 30
0.0
  0
VERTEX
  5
2E9
330
2E8
100
AcDbEntity
  8
STANDARDEBENE
 62
     7
100
AcDbVertex
100
AcDb2dVertex
 10
111.8808539216826
 20
148.2944796721278
 30
0.0
  0
VERTEX
  5
2EA
330
2E8
100
AcDbEntity
  8
STANDARDEBENE
 62
     7
100
AcDbVertex
100
AcDb2dVertex
 10
111.8808539216826
 20
147.3941039670577
 30
0.0
  0
VERTEX
  5
2EB
330
2E8
100
AcDbEntity
  8
STANDARDEBENE
 62
     7
100
AcDbVertex
100
AcDb2dVertex
 10
111.8808539216826
 20
146.8301418361223
 30
0.0
  0
VERTEX
  5
2EC
330
2E8
100
AcDbEntity
  8
STANDARDEBENE
 62
     7
100
AcDbVertex
100
AcDb2dVertex
 10
111.8808539216826
 20
146.6382500175939
 30
0.0
  0
SEQEND
  5
2ED
330
2E8
100
AcDbEntity
  8
STANDARDEBENE
  0
POLYLINE
  5
2EE
330
1F
100
AcDbEntity
  8
STANDARDEBENE
 62
     7
100
AcDb2dPolyline
 66
     1
 10
0.0
 20
0.0
 30
0.0
  0
VERTEX
  5
2EF
330
2EE
100
AcDbEntity
  8
STANDARDEBENE
 62
     7
100
AcDbVertex
100
AcDb2dVertex
 10
90.03446992106778
 20
146.1232082425491
 30
0.0
  0
VERTEX
  5
2F0
330
2EE
100
AcDbEntity
  8
STANDARDEBENE
 62
     7
100
AcDbVertex
100
AcDb2dVertex
 10
105.8887993441875
 20
147.6991671722766
 30
0.0
  0
VERTEX
  5
2F1
330
2EE
100
AcDbEntity
  8
STANDARDEBENE
 62
     7
100
AcDbVertex
100
AcDb2dVertex
 10
111.8808539216826
 20
148.2944796721278
 30
0.0
  0
SEQEND
  5
2F2
330
2EE
100
AcDbEntity
  8
STANDARDEBENE
  0
POLYLINE
  5
2F3
330
1F
100
AcDbEntity
  8
STANDARDEBENE
 62
     7
100
AcDb2dPolyline
 66
     1
 10
0.0
 20
0.0
 30
0.0
  0
VERTEX
  5
2F4
330
2F3
100
AcDbEntity
  8
STANDARDEBENE
 62
     7
100
AcDbVertex
100
AcDb2dVertex
 10
90.03446992106778
 20
146.1232082425491
 30
0.0
  0
VERTEX
  5
2F5
330
2F3
100
AcDbEntity
  8
STANDARDEBENE
 62
     7
100
AcDbVertex
100
AcDb2dVertex
 10
90.03446992106778
 20
144.7620510163269
 30
0.0
  0
VERTEX
  5
2F6
330
2F3
100
AcDbEntity
  8
STANDARDEBENE
 62
     7
100
AcDbVertex
100
AcDb2dVertex
 10
90.03446992106778
 20
143.8938869540439
 30
0.0
  0
VERTEX
  5
2F7
330
2F3
100
AcDbEntity
  8
STANDARDEBENE
 62
     7
100
AcDbVertex
100
AcDb2dVertex
 10
90.03446992106778
 20
143.5702202332047
 30
0.0
  0
VERTEX
  5
2F8
330
2F3
100
AcDbEntity
  8
STANDARDEBENE
 62
     7
100
AcDbVertex
100
AcDb2dVertex
 10
99.24958357978831
 20
144.8654038808843
 30
0.0
  0
VERTEX
  5
2F9
330
2F3
100
AcDbEntity
  8
STANDARDEBENE
 62
     7
100
AcDbVertex
100
AcDb2dVertex
 10
110.1810438092603
 20
146.4024332316286
 30
0.0
  0
VERTEX
  5
2FA
330
2F3
100
AcDbEntity
  8
STANDARDEBENE
 62
     7
100
AcDbVertex
100
AcDb2dVertex
 10
111.3482421596629
 20
146.5653862480809
 30
0.0
  0
VERTEX
  5
2FB
330
2F3
100
AcDbEntity
  8
STANDARDEBENE
 62
     7
100
AcDbVertex
100
AcDb2dVertex
 10
111.3492756883085
 20
146.564180464661
 30
0.0
  0
SEQEND
  5
2FC
330
2F3
100
AcDbEntity
  8
STANDARDEBENE
  0
POLYLINE
  5
2FD
330
1F
100
AcDbEntity
  8
STANDARDEBENE
 62
     7
100
AcDb2dPolyline
 66
     1
 10
0.0
 20
0.0
 30
0.0
  0
VERTEX
  5
2FE
330
2FD
100
AcDbEntity
  8
STANDARDEBENE
 62
     7
100
AcDbVertex
100
AcDb2dVertex
 10
89.52442353447654
 20
158.6562933631137
 30
0.0
  0
VERTEX
  5
2FF
330
2FD
100
AcDbEntity
  8
STANDARDEBENE
 62
     7
100
AcDbVertex
100
AcDb2dVertex
 10
90.03446992106778
 20
159.0176838795164
 30
0.0
  0
SEQEND
  5
300
330
2FD
100
AcDbEntity
  8
STANDARDEBENE
  0
POLYLINE
  5
301
330
1F
100
AcDbEntity
  8
STANDARDEBENE
 62
     7
100
AcDb2dPolyline
 66
     1
 10
0.0
 20
0.0
 30
0.0
  0
VERTEX
  5
302
330
301
100
AcDbEntity
  8
STANDARDEBENE
 62
     7
100
AcDbVertex
100
AcDb2dVertex
 10
89.52442353447654
 20
158.6562933631137
 30
0.0
  0
VERTEX
  5
303
330
301
100
AcDbEntity
  8
STANDARDEBENE
 62
     7
100
AcDbVertex
100
AcDb2dVertex
 10
89.52442353447654
 20
156.943047378299
 30
0.0
  0
VERTEX
  5
304
330
301
100
AcDbEntity
  8
STANDARDEBENE
 62
     7
100
AcDbVertex
100
AcDb2dVertex
 10
89.52442353447654
 20
154.9686631557023
 30
0.0
  0
VERTEX
  5
305
330
301
100
AcDbEntity
  8
STANDARDEBENE
 62
     7
100
AcDbVertex
100
AcDb2dVertex
 10
89.52442353447654
 20
152.8532022729846
 30
0.0
  0
SEQEND
  5
306
330
301
100
AcDbEntity
  8
STANDARDEBENE
  0
POLYLINE
  5
307
330
1F
100
AcDbEntity
  8
STANDARDEBENE
 62
     7
100
AcDb2dPolyline
 66
     1
 10
0.0
 20
0.0
 30
0.0
  0
VERTEX
  5
308
330
307
100
AcDbEntity
  8
STANDARDEBENE
 62
     7
100
AcDbVertex
100
AcDb2dVertex
 10
86.21213648018308
 20
157.8969943181646
 30
0.0
  0
VERTEX
  5
309
330
307
100
AcDbEntity
  8
STANDARDEBENE
 62
     7
100
AcDbVertex
100
AcDb2dVertex
 10
89.52442353447654
 20
157.8969943181646
 30
0.0
  0
SEQEND
  5
30A
330
307
100
AcDbEntity
  8
STANDARDEBENE
  0
POLYLINE
  5
30B
330
1F
100
AcDbEntity
  8
STANDARDEBENE
 62
     7
100
AcDb2dPolyline
 66
     1
 10
0.0
 20
0.0
 30
0.0
  0
VERTEX
  5
30C
330
30B
100
AcDbEntity
  8
STANDARDEBENE
 62
     7
100
AcDbVertex
100
AcDb2dVertex
 10
86.21213648018308
 20
152.8532022729846
 30
0.0
  0
VERTEX
  5
30D
330
30B
100
AcDbEntity
  8
STANDARDEBENE
 62
     7
100
AcDbVertex
100
AcDb2dVertex
 10
89.52442353447654
 20
152.8532022729846
 30
0.0
  0
VERTEX
  5
30E
330
30B
100
AcDbEntity
  8
STANDARDEBENE
 62
     7
100
AcDbVertex
100
AcDb2dVertex
 10
90.03446992106778
 20
152.8532022729846
 30
0.0
  0
SEQEND
  5
30F
330
30B
100
AcDbEntity
  8
STANDARDEBENE
  0
POLYLINE
  5
310
330
1F
100
AcDbEntity
  8
STANDARDEBENE
 62
     7
100
AcDb2dPolyline
 66
     1
 10
0.0
 20
0.0
 30
0.0
  0
VERTEX
  5
311
330
310
100
AcDbEntity
  8
STANDARDEBENE
 62
     7
100
AcDbVertex
100
AcDb2dVertex
 10
86.21213648018308
 20
159.1845987557768
 30
0.0
  0
VERTEX
  5
312
330
310
100
AcDbEntity
  8
STANDARDEBENE
 62
     7
100
AcDbVertex
100
AcDb2dVertex
 10
86.21213648018308
 20
157.3173570027714
 30
0.0
  0
VERTEX
  5
313
330
310
100
AcDbEntity
  8
STANDARDEBENE
 62
     7
100
AcDbVertex
100
AcDb2dVertex
 10
86.21213648018308
 20
155.1626220315219
 30
0.0
  0
VERTEX
  5
314
330
310
100
AcDbEntity
  8
STANDARDEBENE
 62
     7
100
AcDbVertex
100
AcDb2dVertex
 10
86.21213648018308
 20
152.8532022729846
 30
0.0
  0
SEQEND
  5
315
330
310
100
AcDbEntity
  8
STANDARDEBENE
  0
POLYLINE
  5
316
330
1F
100
AcDbEntity
  8
STANDARDEBENE
 62
     7
100
AcDb2dPolyline
 66
     1
 10
0.0
 20
0.0
 30
0.0
  0
VERTEX
  5
317
330
316
100
AcDbEntity
  8
STANDARDEBENE
 62
     7
100
AcDbVertex
100
AcDb2dVertex
 10
82.07199298078409
 20
157.4944349107132
 30
0.0
  0
VERTEX
  5
318
330
316
100
AcDbEntity
  8
STANDARDEBENE
 62
     7
100
AcDbVertex
100
AcDb2dVertex
 10
86.21213648018308
 20
159.1845987557768
 30
0.0
  0
SEQEND
  5
319
330
316
100
AcDbEntity
  8
STANDARDEBENE
  0
POLYLINE
  5
31A
330
1F
100
AcDbEntity
  8
STANDARDEBENE
 62
     7
100
AcDb2dPolyline
 66
     1
 10
0.0
 20
0.0
 30
0.0
  0
VERTEX
  5
31B
330
31A
100
AcDbEntity
  8
STANDARDEBENE
 62
     7
100
AcDbVertex
100
AcDb2dVertex
 10
82.07199298078409
 20
152.8532022729846
 30
0.0
  0
VERTEX
  5
31C
330
31A
100
AcDbEntity
  8
STANDARDEBENE
 62
     7
100
AcDbVertex
100
AcDb2dVertex
 10
84.9596720165205
 20
152.8532022729846
 30
0.0
  0
VERTEX
  5
31D
330
31A
100
AcDbEntity
  8
STANDARDEBENE
 62
     7
100
AcDbVertex
100
AcDb2dVertex
 10
86.21213648018308
 20
152.8532022729846
 30
0.0
  0
SEQEND
  5
31E
330
31A
100
AcDbEntity
  8
STANDARDEBENE
  0
POLYLINE
  5
31F
330
1F
100
AcDbEntity
  8
STANDARDEBENE
 62
     7
100
AcDb2dPolyline
 66
     1
 10
0.0
 20
0.0
 30
0.0
  0
VERTEX
  5
320
330
31F
100
AcDbEntity
  8
STANDARDEBENE
 62
     7
100
AcDbVertex
100
AcDb2dVertex
 10
89.52442353447654
 20
146.719037506723
 30
0.0
  0
VERTEX
  5
321
330
31F
100
AcDbEntity
  8
STANDARDEBENE
 62
     7
100
AcDbVertex
100
AcDb2dVertex
 10
89.52442353447654
 20
146.4839097398547
 30
0.0
  0
VERTEX
  5
322
330
31F
100
AcDbEntity
  8
STANDARDEBENE
 62
     7
100
AcDbVertex
100
AcDb2dVertex
 10
90.03446992106778
 20
146.1232082425491
 30
0.0
  0
SEQEND
  5
323
330
31F
100
AcDbEntity
  8
STANDARDEBENE
  0
POLYLINE
  5
324
330
1F
100
AcDbEntity
  8
STANDARDEBENE
 62
     7
100
AcDb2dPolyline
 66
     1
 10
0.0
 20
0.0
 30
0.0
  0
VERTEX
  5
325
330
324
100
AcDbEntity
  8
STANDARDEBENE
 62
     7
100
AcDbVertex
100
AcDb2dVertex
 10
86.21213648018308
 20
147.2430365300295
 30
0.0
  0
VERTEX
  5
326
330
324
100
AcDbEntity
  8
STANDARDEBENE
 62
     7
100
AcDbVertex
100
AcDb2dVertex
 10
89.52442353447654
 20
147.2430365300295
 30
0.0
  0
SEQEND
  5
327
330
324
100
AcDbEntity
  8
STANDARDEBENE
  0
POLYLINE
  5
328
330
1F
100
AcDbEntity
  8
STANDARDEBENE
 62
     7
100
AcDb2dPolyline
 66
     1
 10
0.0
 20
0.0
 30
0.0
  0
VERTEX
  5
329
330
328
100
AcDbEntity
  8
STANDARDEBENE
 62
     7
100
AcDbVertex
100
AcDb2dVertex
 10
89.52442353447654
 20
146.4839097398547
 30
0.0
  0
VERTEX
  5
32A
330
328
100
AcDbEntity
  8
STANDARDEBENE
 62
     7
100
AcDbVertex
100
AcDb2dVertex
 10
89.52442353447654
 20
145.2056070600528
 30
0.0
  0
VERTEX
  5
32B
330
328
100
AcDbEntity
  8
STANDARDEBENE
 62
     7
100
AcDbVertex
100
AcDb2dVertex
 10
89.52442353447654
 20
144.3860188441118
 30
0.0
  0
VERTEX
  5
32C
330
328
100
AcDbEntity
  8
STANDARDEBENE
 62
     7
100
AcDbVertex
100
AcDb2dVertex
 10
89.52442353447654
 20
144.0802666197959
 30
0.0
  0
SEQEND
  5
32D
330
328
100
AcDbEntity
  8
STANDARDEBENE
  0
POLYLINE
  5
32E
330
1F
100
AcDbEntity
  8
STANDARDEBENE
 62
     7
100
AcDb2dPolyline
 66
     1
 10
0.0
 20
0.0
 30
0.0
  0
VERTEX
  5
32F
330
32E
100
AcDbEntity
  8
STANDARDEBENE
 62
     7
100
AcDbVertex
100
AcDb2dVertex
 10
86.21213648018308
 20
145.1544473920968
 30
0.0
  0
VERTEX
  5
330
330
32E
100
AcDbEntity
  8
STANDARDEBENE
 62
     7
100
AcDbVertex
100
AcDb2dVertex
 10
89.52442353447654
 20
145.1544473920968
 30
0.0
  0
SEQEND
  5
331
330
32E
100
AcDbEntity
  8
STANDARDEBENE
  0
POLYLINE
  5
332
330
1F
100
AcDbEntity
  8
STANDARDEBENE
 62
     7
100
AcDb2dPolyline
 66
     1
 10
0.0
 20
0.0
 30
0.0
  0
VERTEX
  5
333
330
332
100
AcDbEntity
  8
STANDARDEBENE
 62
     7
100
AcDbVertex
100
AcDb2dVertex
 10
86.21213648018308
 20
145.9554320924174
 30
0.0
  0
VERTEX
  5
334
330
332
100
AcDbEntity
  8
STANDARDEBENE
 62
     7
100
AcDbVertex
100
AcDb2dVertex
 10
86.21213648018308
 20
146.1890095663173
 30
0.0
  0
SEQEND
  5
335
330
332
100
AcDbEntity
  8
STANDARDEBENE
  0
POLYLINE
  5
336
330
1F
100
AcDbEntity
  8
STANDARDEBENE
 62
     7
100
AcDb2dPolyline
 66
     1
 10
0.0
 20
0.0
 30
0.0
  0
VERTEX
  5
337
330
336
100
AcDbEntity
  8
STANDARDEBENE
 62
     7
100
AcDbVertex
100
AcDb2dVertex
 10
89.52442353447654
 20
144.0802666197959
 30
0.0
  0
VERTEX
  5
338
330
336
100
AcDbEntity
  8
STANDARDEBENE
 62
     7
100
AcDbVertex
100
AcDb2dVertex
 10
90.03446992106778
 20
143.5702202332047
 30
0.0
  0
SEQEND
  5
339
330
336
100
AcDbEntity
  8
STANDARDEBENE
  0
POLYLINE
  5
33A
330
1F
100
AcDbEntity
  8
STANDARDEBENE
 62
     7
100
AcDb2dPolyline
 66
     1
 10
0.0
 20
0.0
 30
0.0
  0
VERTEX
  5
33B
330
33A
100
AcDbEntity
  8
STANDARDEBENE
 62
     7
100
AcDbVertex
100
AcDb2dVertex
 10
86.21213648018308
 20
145.9554320924174
 30
0.0
  0
VERTEX
  5
33C
330
33A
100
AcDbEntity
  8
STANDARDEBENE
 62
     7
100
AcDbVertex
100
AcDb2dVertex
 10
86.21213648018308
 20
144.5568955801802
 30
0.0
  0
VERTEX
  5
33D
330
33A
100
AcDbEntity
  8
STANDARDEBENE
 62
     7
100
AcDbVertex
100
AcDb2dVertex
 10
86.21213648018308
 20
143.6632378113064
 30
0.0
  0
VERTEX
  5
33E
330
33A
100
AcDbEntity
  8
STANDARDEBENE
 62
     7
100
AcDbVertex
100
AcDb2dVertex
 10
86.21213648018308
 20
143.3325086447224
 30
0.0
  0
SEQEND
  5
33F
330
33A
100
AcDbEntity
  8
STANDARDEBENE
  0
POLYLINE
  5
340
330
1F
100
AcDbEntity
  8
STANDARDEBENE
 62
     7
100
AcDb2dPolyline
 66
     1
 10
0.0
 20
0.0
 30
0.0
  0
VERTEX
  5
341
330
340
100
AcDbEntity
  8
STANDARDEBENE
 62
     7
100
AcDbVertex
100
AcDb2dVertex
 10
82.07199298078409
 20
147.6461127018038
 30
0.0
  0
VERTEX
  5
342
330
340
100
AcDbEntity
  8
STANDARDEBENE
 62
     7
100
AcDbVertex
100
AcDb2dVertex
 10
86.21213648018308
 20
145.9554320924174
 30
0.0
  0
SEQEND
  5
343
330
340
100
AcDbEntity
  8
STANDARDEBENE
  0
POLYLINE
  5
344
330
1F
100
AcDbEntity
  8
STANDARDEBENE
 62
     7
100
AcDb2dPolyline
 66
     1
 10
0.0
 20
0.0
 30
0.0
  0
VERTEX
  5
345
330
344
100
AcDbEntity
  8
STANDARDEBENE
 62
     7
100
AcDbVertex
100
AcDb2dVertex
 10
82.07199298078409
 20
145.722888147163
 30
0.0
  0
VERTEX
  5
346
330
344
100
AcDbEntity
  8
STANDARDEBENE
 62
     7
100
AcDbVertex
100
AcDb2dVertex
 10
82.45147024848436
 20
145.5039523290754
 30
0.0
  0
VERTEX
  5
347
330
344
100
AcDbEntity
  8
STANDARDEBENE
 62
     7
100
AcDbVertex
100
AcDb2dVertex
 10
86.21213648018308
 20
143.3325086447224
 30
0.0
  0
SEQEND
  5
348
330
344
100
AcDbEntity
  8
STANDARDEBENE
  0
POLYLINE
  5
349
330
1F
100
AcDbEntity
  8
STANDARDEBENE
 62
     7
100
AcDb2dPolyline
 66
     1
 10
0.0
 20
0.0
 30
0.0
  0
VERTEX
  5
34A
330
349
100
AcDbEntity
  8
STANDARDEBENE
 62
     7
100
AcDbVertex
100
AcDb2dVertex
 10
105.2256184632769
 20
152.8532022729846
 30
0.0
  0
VERTEX
  5
34B
330
349
100
AcDbEntity
  8
STANDARDEBENE
 62
     7
100
AcDbVertex
100
AcDb2dVertex
 10
105.2562798130957
 20
152.6878376896926
 30
0.0
  0
SEQEND
  5
34C
330
349
100
AcDbEntity
  8
STANDARDEBENE
  0
POLYLINE
  5
34D
330
1F
100
AcDbEntity
  8
STANDARDEBENE
 62
     7
100
AcDb2dPolyline
 66
     1
 10
0.0
 20
0.0
 30
0.0
  0
VERTEX
  5
34E
330
34D
100
AcDbEntity
  8
STANDARDEBENE
 62
     7
100
AcDbVertex
100
AcDb2dVertex
 10
105.2562798130957
 20
152.5216118325293
 30
0.0
  0
VERTEX
  5
34F
330
34D
100
AcDbEntity
  8
STANDARDEBENE
 62
     7
100
AcDbVertex
100
AcDb2dVertex
 10
105.2562798130957
 20
152.6878376896926
 30
0.0
  0
SEQEND
  5
350
330
34D
100
AcDbEntity
  8
STANDARDEBENE
  0
POLYLINE
  5
351
330
1F
100
AcDbEntity
  8
STANDARDEBENE
 62
     7
100
AcDb2dPolyline
 66
     1
 10
0.0
 20
0.0
 30
0.0
  0
VERTEX
  5
352
330
351
100
AcDbEntity
  8
STANDARDEBENE
 62
     7
100
AcDbVertex
100
AcDb2dVertex
 10
105.2562798130957
 20
152.8532022729846
 30
0.0
  0
VERTEX
  5
353
330
351
100
AcDbEntity
  8
STANDARDEBENE
 62
     7
100
AcDbVertex
100
AcDb2dVertex
 10
105.2562798130957
 20
152.6878376896926
 30
0.0
  0
SEQEND
  5
354
330
351
100
AcDbEntity
  8
STANDARDEBENE
  0
POLYLINE
  5
355
330
1F
100
AcDbEntity
  8
STANDARDEBENE
 62
     7
100
AcDb2dPolyline
 66
     1
 10
0.0
 20
0.0
 30
0.0
  0
VERTEX
  5
356
330
355
100
AcDbEntity
  8
STANDARDEBENE
 62
     7
100
AcDbVertex
100
AcDb2dVertex
 10
100.2881076138169
 20
149.3791679856587
 30
0.0
  0
VERTEX
  5
357
330
355
100
AcDbEntity
  8
STANDARDEBENE
 62
     7
100
AcDbVertex
100
AcDb2dVertex
 10
99.3777411318396
 20
149.3791679856587
 30
0.0
  0
SEQEND
  5
358
330
355
100
AcDbEntity
  8
STANDARDEBENE
  0
POLYLINE
  5
359
330
1F
100
AcDbEntity
  8
STANDARDEBENE
 62
     7
100
AcDb2dPolyline
 66
     1
 10
0.0
 20
0.0
 30
0.0
  0
VERTEX
  5
35A
330
359
100
AcDbEntity
  8
STANDARDEBENE
 62
     7
100
AcDbVertex
100
AcDb2dVertex
 10
97.55597463923948
 20
149.3791679856587
 30
0.0
  0
VERTEX
  5
35B
330
359
100
AcDbEntity
  8
STANDARDEBENE
 62
     7
100
AcDbVertex
100
AcDb2dVertex
 10
95.73455265618789
 20
149.3791679856587
 30
0.0
  0
SEQEND
  5
35C
330
359
100
AcDbEntity
  8
STANDARDEBENE
  0
POLYLINE
  5
35D
330
1F
100
AcDbEntity
  8
STANDARDEBENE
 62
     7
100
AcDb2dPolyline
 66
     1
 10
0.0
 20
0.0
 30
0.0
  0
VERTEX
  5
35E
330
35D
100
AcDbEntity
  8
STANDARDEBENE
 62
     7
100
AcDbVertex
100
AcDb2dVertex
 10
93.91295841836204
 20
149.3791679856587
 30
0.0
  0
VERTEX
  5
35F
330
35D
100
AcDbEntity
  8
STANDARDEBENE
 62
     7
100
AcDbVertex
100
AcDb2dVertex
 10
92.09101967098766
 20
149.3791679856587
 30
0.0
  0
SEQEND
  5
360
330
35D
100
AcDbEntity
  8
STANDARDEBENE
  0
POLYLINE
  5
361
330
1F
100
AcDbEntity
  8
STANDARDEBENE
 62
     7
100
AcDb2dPolyline
 66
     1
 10
0.0
 20
0.0
 30
0.0
  0
VERTEX
  5
362
330
361
100
AcDbEntity
  8
STANDARDEBENE
 62
     7
100
AcDbVertex
100
AcDb2dVertex
 10
82.98322073663267
 20
149.3791679856587
 30
0.0
  0
VERTEX
  5
363
330
361
100
AcDbEntity
  8
STANDARDEBENE
 62
     7
100
AcDbVertex
100
AcDb2dVertex
 10
82.07199298078409
 20
149.3791679856587
 30
0.0
  0
SEQEND
  5
364
330
361
100
AcDbEntity
  8
STANDARDEBENE
  0
POLYLINE
  5
366
330
1F
100
AcDbEntity
  8
EBENE_2
 62
     7
100
AcDb2dPolyline
 66
     1
 10
0.0
 20
0.0
 30
0.0
  0
VERTEX
  5
367
330
366
100
AcDbEntity
  8
EBENE_2
 62
     7
100
AcDbVertex
100
AcDb2dVertex
 10
84.97965357033495
 20
156.0015027821802
 30
0.0
  0
VERTEX
  5
368
330
366
100
AcDbEntity
  8
EBENE_2
 62
     7
100
AcDbVertex
100
AcDb2dVertex
 10
72.08707273588449
 20
156.0015027821802
 30
0.0
  0
SEQEND
  5
369
330
366
100
AcDbEntity
  8
EBENE_2
  0
POLYLINE
  5
36A
330
1F
100
AcDbEntity
  8
EBENE_2
 62
     7
100
AcDb2dPolyline
 66
     1
 10
0.0
 20
0.0
 30
0.0
  0
VERTEX
  5
36B
330
36A
100
AcDbEntity
  8
EBENE_2
 62
     7
100
AcDbVertex
100
AcDb2dVertex
 10
84.97965357033495
 20
149.3803737690785
 30
0.0
  0
VERTEX
  5
36C
330
36A
100
AcDbEntity
  8
EBENE_2
 62
     7
100
AcDbVertex
100
AcDb2dVertex
 10
72.08707273588449
 20
149.3803737690785
 30
0.0
  0
SEQEND
  5
36D
330
36A
100
AcDbEntity
  8
EBENE_2
  0
POLYLINE
  5
36E
330
1F
100
AcDbEntity
  8
EBENE_2
 62
     7
100
AcDb2dPolyline
 66
     1
 10
0.0
 20
0.0
 30
0.0
  0
VERTEX
  5
36F
330
36E
100
AcDbEntity
  8
EBENE_2
 62
     7
100
AcDbVertex
100
AcDb2dVertex
 10
74.40631101655468
 20
161.569466105441
 30
0.0
  0
VERTEX
  5
370
330
36E
100
AcDbEntity
  8
EBENE_2
 62
     7
100
AcDbVertex
100
AcDb2dVertex
 10
74.40631101655468
 20
143.5321519280927
 30
0.0
  0
SEQEND
  5
371
330
36E
100
AcDbEntity
  8
EBENE_2
  0
POLYLINE
  5
372
330
1F
100
AcDbEntity
  8
EBENE_2
 62
     7
100
AcDb2dPolyline
 66
     1
 10
0.0
 20
0.0
 30
0.0
  0
VERTEX
  5
373
330
372
100
AcDbEntity
  8
EBENE_2
 62
     7
100
AcDbVertex
100
AcDb2dVertex
 10
74.40837807384582
 20
156.0369872656782
 30
0.0
  0
VERTEX
  5
374
330
372
100
AcDbEntity
  8
EBENE_2
 62
     7
100
AcDbVertex
100
AcDb2dVertex
 10
74.70810138106256
 20
158.3140231266541
 30
0.0
  0
VERTEX
  5
375
330
372
100
AcDbEntity
  8
EBENE_2
 62
     7
100
AcDbVertex
100
AcDb2dVertex
 10
74.10899927617761
 20
158.3140231266541
 30
0.0
  0
VERTEX
  5
376
330
372
100
AcDbEntity
  8
EBENE_2
 62
     7
100
AcDbVertex
100
AcDb2dVertex
 10
74.40837807384582
 20
156.0369872656782
 30
0.0
  0
SEQEND
  5
377
330
372
100
AcDbEntity
  8
EBENE_2
  0
POLYLINE
  5
378
330
1F
100
AcDbEntity
  8
EBENE_2
 62
     7
100
AcDb2dPolyline
 66
     1
 10
0.0
 20
0.0
 30
0.0
  0
VERTEX
  5
379
330
378
100
AcDbEntity
  8
EBENE_2
 62
     7
100
AcDbVertex
100
AcDb2dVertex
 10
74.68639727950548
 20
158.3140231266541
 30
0.0
  0
VERTEX
  5
37A
330
378
100
AcDbEntity
  8
EBENE_2
 62
     7
100
AcDbVertex
100
AcDb2dVertex
 10
74.68639727950548
 20
158.1455579574254
 30
0.0
  0
SEQEND
  5
37B
330
378
100
AcDbEntity
  8
EBENE_2
  0
POLYLINE
  5
37C
330
1F
100
AcDbEntity
  8
EBENE_2
 62
     7
100
AcDb2dPolyline
 66
     1
 10
0.0
 20
0.0
 30
0.0
  0
VERTEX
  5
37D
330
37C
100
AcDbEntity
  8
EBENE_2
 62
     7
100
AcDbVertex
100
AcDb2dVertex
 10
74.68639727950548
 20
158.3140231266541
 30
0.0
  0
VERTEX
  5
37E
330
37C
100
AcDbEntity
  8
EBENE_2
 62
     7
100
AcDbVertex
100
AcDb2dVertex
 10
74.68639727950548
 20
158.1455579574254
 30
0.0
  0
SEQEND
  5
37F
330
37C
100
AcDbEntity
  8
EBENE_2
  0
POLYLINE
  5
380
330
1F
100
AcDbEntity
  8
EBENE_2
 62
     7
100
AcDb2dPolyline
 66
     1
 10
0.0
 20
0.0
 30
0.0
  0
VERTEX
  5
381
330
380
100
AcDbEntity
  8
EBENE_2
 62
     7
100
AcDbVertex
100
AcDb2dVertex
 10
74.63954398090608
 20
158.3140231266541
 30
0.0
  0
VERTEX
  5
382
330
380
100
AcDbEntity
  8
EBENE_2
 62
     7
100
AcDbVertex
100
AcDb2dVertex
 10
74.63954398090608
 20
157.7941582179299
 30
0.0
  0
SEQEND
  5
383
330
380
100
AcDbEntity
  8
EBENE_2
  0
POLYLINE
  5
384
330
1F
100
AcDbEntity
  8
EBENE_2
 62
     7
100
AcDb2dPolyline
 66
     1
 10
0.0
 20
0.0
 30
0.0
  0
VERTEX
  5
385
330
384
100
AcDbEntity
  8
EBENE_2
 62
     7
100
AcDbVertex
100
AcDb2dVertex
 10
74.59320744662948
 20
158.3140231266541
 30
0.0
  0
VERTEX
  5
386
330
384
100
AcDbEntity
  8
EBENE_2
 62
     7
100
AcDbVertex
100
AcDb2dVertex
 10
74.59320744662948
 20
157.4429307332087
 30
0.0
  0
SEQEND
  5
387
330
384
100
AcDbEntity
  8
EBENE_2
  0
POLYLINE
  5
388
330
1F
100
AcDbEntity
  8
EBENE_2
 62
     7
100
AcDb2dPolyline
 66
     1
 10
0.0
 20
0.0
 30
0.0
  0
VERTEX
  5
389
330
388
100
AcDbEntity
  8
EBENE_2
 62
     7
100
AcDbVertex
100
AcDb2dVertex
 10
74.54738767667565
 20
158.3140231266541
 30
0.0
  0
VERTEX
  5
38A
330
388
100
AcDbEntity
  8
EBENE_2
 62
     7
100
AcDbVertex
100
AcDb2dVertex
 10
74.54738767667565
 20
157.0915309937132
 30
0.0
  0
SEQEND
  5
38B
330
388
100
AcDbEntity
  8
EBENE_2
  0
POLYLINE
  5
38C
330
1F
100
AcDbEntity
  8
EBENE_2
 62
     7
100
AcDb2dPolyline
 66
     1
 10
0.0
 20
0.0
 30
0.0
  0
VERTEX
  5
38D
330
38C
100
AcDbEntity
  8
EBENE_2
 62
     7
100
AcDbVertex
100
AcDb2dVertex
 10
74.5012233971733
 20
158.3140231266541
 30
0.0
  0
VERTEX
  5
38E
330
38C
100
AcDbEntity
  8
EBENE_2
 62
     7
100
AcDbVertex
100
AcDb2dVertex
 10
74.5012233971733
 20
156.7399589994435
 30
0.0
  0
SEQEND
  5
38F
330
38C
100
AcDbEntity
  8
EBENE_2
  0
POLYLINE
  5
390
330
1F
100
AcDbEntity
  8
EBENE_2
 62
     7
100
AcDb2dPolyline
 66
     1
 10
0.0
 20
0.0
 30
0.0
  0
VERTEX
  5
391
330
390
100
AcDbEntity
  8
EBENE_2
 62
     7
100
AcDbVertex
100
AcDb2dVertex
 10
74.45471460812243
 20
158.3140231266541
 30
0.0
  0
VERTEX
  5
392
330
390
100
AcDbEntity
  8
EBENE_2
 62
     7
100
AcDbVertex
100
AcDb2dVertex
 10
74.45471460812243
 20
156.388559259948
 30
0.0
  0
SEQEND
  5
393
330
390
100
AcDbEntity
  8
EBENE_2
  0
POLYLINE
  5
394
330
1F
100
AcDbEntity
  8
EBENE_2
 62
     7
100
AcDb2dPolyline
 66
     1
 10
0.0
 20
0.0
 30
0.0
  0
VERTEX
  5
395
330
394
100
AcDbEntity
  8
EBENE_2
 62
     7
100
AcDbVertex
100
AcDb2dVertex
 10
74.40837807384582
 20
158.3140231266541
 30
0.0
  0
VERTEX
  5
396
330
394
100
AcDbEntity
  8
EBENE_2
 62
     7
100
AcDbVertex
100
AcDb2dVertex
 10
74.40837807384582
 20
156.0369872656782
 30
0.0
  0
SEQEND
  5
397
330
394
100
AcDbEntity
  8
EBENE_2
  0
POLYLINE
  5
398
330
1F
100
AcDbEntity
  8
EBENE_2
 62
     7
100
AcDb2dPolyline
 66
     1
 10
0.0
 20
0.0
 30
0.0
  0
VERTEX
  5
399
330
398
100
AcDbEntity
  8
EBENE_2
 62
     7
100
AcDbVertex
100
AcDb2dVertex
 10
74.13053112296042
 20
158.3140231266541
 30
0.0
  0
VERTEX
  5
39A
330
398
100
AcDbEntity
  8
EBENE_2
 62
     7
100
AcDbVertex
100
AcDb2dVertex
 10
74.13053112296042
 20
158.1455579574254
 30
0.0
  0
SEQEND
  5
39B
330
398
100
AcDbEntity
  8
EBENE_2
  0
POLYLINE
  5
39C
330
1F
100
AcDbEntity
  8
EBENE_2
 62
     7
100
AcDb2dPolyline
 66
     1
 10
0.0
 20
0.0
 30
0.0
  0
VERTEX
  5
39D
330
39C
100
AcDbEntity
  8
EBENE_2
 62
     7
100
AcDbVertex
100
AcDb2dVertex
 10
74.13053112296042
 20
158.3140231266541
 30
0.0
  0
VERTEX
  5
39E
330
39C
100
AcDbEntity
  8
EBENE_2
 62
     7
100
AcDbVertex
100
AcDb2dVertex
 10
74.13053112296042
 20
158.1455579574254
 30
0.0
  0
SEQEND
  5
39F
330
39C
100
AcDbEntity
  8
EBENE_2
  0
POLYLINE
  5
3A0
330
1F
100
AcDbEntity
  8
EBENE_2
 62
     7
100
AcDb2dPolyline
 66
     1
 10
0.0
 20
0.0
 30
0.0
  0
VERTEX
  5
3A1
330
3A0
100
AcDbEntity
  8
EBENE_2
 62
     7
100
AcDbVertex
100
AcDb2dVertex
 10
74.17669540246277
 20
158.3140231266541
 30
0.0
  0
VERTEX
  5
3A2
330
3A0
100
AcDbEntity
  8
EBENE_2
 62
     7
100
AcDbVertex
100
AcDb2dVertex
 10
74.17669540246277
 20
157.7941582179299
 30
0.0
  0
SEQEND
  5
3A3
330
3A0
100
AcDbEntity
  8
EBENE_2
  0
POLYLINE
  5
3A4
330
1F
100
AcDbEntity
  8
EBENE_2
 62
     7
100
AcDb2dPolyline
 66
     1
 10
0.0
 20
0.0
 30
0.0
  0
VERTEX
  5
3A5
330
3A4
100
AcDbEntity
  8
EBENE_2
 62
     7
100
AcDbVertex
100
AcDb2dVertex
 10
74.22354870106217
 20
158.3140231266541
 30
0.0
  0
VERTEX
  5
3A6
330
3A4
100
AcDbEntity
  8
EBENE_2
 62
     7
100
AcDbVertex
100
AcDb2dVertex
 10
74.22354870106217
 20
157.4429307332087
 30
0.0
  0
SEQEND
  5
3A7
330
3A4
100
AcDbEntity
  8
EBENE_2
  0
POLYLINE
  5
3A8
330
1F
100
AcDbEntity
  8
EBENE_2
 62
     7
100
AcDb2dPolyline
 66
     1
 10
0.0
 20
0.0
 30
0.0
  0
VERTEX
  5
3A9
330
3A8
100
AcDbEntity
  8
EBENE_2
 62
     7
100
AcDbVertex
100
AcDb2dVertex
 10
74.26988523533878
 20
158.3140231266541
 30
0.0
  0
VERTEX
  5
3AA
330
3A8
100
AcDbEntity
  8
EBENE_2
 62
     7
100
AcDbVertex
100
AcDb2dVertex
 10
74.26988523533878
 20
157.0915309937132
 30
0.0
  0
SEQEND
  5
3AB
330
3A8
100
AcDbEntity
  8
EBENE_2
  0
POLYLINE
  5
3AC
330
1F
100
AcDbEntity
  8
EBENE_2
 62
     7
100
AcDb2dPolyline
 66
     1
 10
0.0
 20
0.0
 30
0.0
  0
VERTEX
  5
3AD
330
3AC
100
AcDbEntity
  8
EBENE_2
 62
     7
100
AcDbVertex
100
AcDb2dVertex
 10
74.31604951484113
 20
158.3140231266541
 30
0.0
  0
VERTEX
  5
3AE
330
3AC
100
AcDbEntity
  8
EBENE_2
 62
     7
100
AcDbVertex
100
AcDb2dVertex
 10
74.31604951484113
 20
156.7399589994435
 30
0.0
  0
SEQEND
  5
3AF
330
3AC
100
AcDbEntity
  8
EBENE_2
  0
POLYLINE
  5
3B0
330
1F
100
AcDbEntity
  8
EBENE_2
 62
     7
100
AcDb2dPolyline
 66
     1
 10
0.0
 20
0.0
 30
0.0
  0
VERTEX
  5
3B1
330
3B0
100
AcDbEntity
  8
EBENE_2
 62
     7
100
AcDbVertex
100
AcDb2dVertex
 10
74.36204153956922
 20
158.3140231266541
 30
0.0
  0
VERTEX
  5
3B2
330
3B0
100
AcDbEntity
  8
EBENE_2
 62
     7
100
AcDbVertex
100
AcDb2dVertex
 10
74.36204153956922
 20
156.388559259948
 30
0.0
  0
SEQEND
  5
3B3
330
3B0
100
AcDbEntity
  8
EBENE_2
  0
POLYLINE
  5
3B4
330
1F
100
AcDbEntity
  8
EBENE_2
 62
     7
100
AcDb2dPolyline
 66
     1
 10
0.0
 20
0.0
 30
0.0
  0
VERTEX
  5
3B5
330
3B4
100
AcDbEntity
  8
EBENE_2
 62
     7
100
AcDbVertex
100
AcDb2dVertex
 10
74.40837807384582
 20
158.3140231266541
 30
0.0
  0
VERTEX
  5
3B6
330
3B4
100
AcDbEntity
  8
EBENE_2
 62
     7
100
AcDbVertex
100
AcDb2dVertex
 10
74.40837807384582
 20
156.0369872656782
 30
0.0
  0
SEQEND
  5
3B7
330
3B4
100
AcDbEntity
  8
EBENE_2
  0
POLYLINE
  5
3B8
330
1F
100
AcDbEntity
  8
EBENE_2
 62
     7
100
AcDb2dPolyline
 66
     1
 10
0.0
 20
0.0
 30
0.0
  0
VERTEX
  5
3B9
330
3B8
100
AcDbEntity
  8
EBENE_2
 62
     7
100
AcDbVertex
100
AcDb2dVertex
 10
74.41165091455682
 20
149.3269747890571
 30
0.0
  0
VERTEX
  5
3BA
330
3B8
100
AcDbEntity
  8
EBENE_2
 62
     7
100
AcDbVertex
100
AcDb2dVertex
 10
74.11244437166286
 20
147.0501111828555
 30
0.0
  0
VERTEX
  5
3BB
330
3B8
100
AcDbEntity
  8
EBENE_2
 62
     7
100
AcDbVertex
100
AcDb2dVertex
 10
74.71137422177355
 20
147.0501111828555
 30
0.0
  0
VERTEX
  5
3BC
330
3B8
100
AcDbEntity
  8
EBENE_2
 62
     7
100
AcDbVertex
100
AcDb2dVertex
 10
74.41165091455682
 20
149.3269747890571
 30
0.0
  0
SEQEND
  5
3BD
330
3B8
100
AcDbEntity
  8
EBENE_2
  0
POLYLINE
  5
3BE
330
1F
100
AcDbEntity
  8
EBENE_2
 62
     7
100
AcDb2dPolyline
 66
     1
 10
0.0
 20
0.0
 30
0.0
  0
VERTEX
  5
3BF
330
3BE
100
AcDbEntity
  8
EBENE_2
 62
     7
100
AcDbVertex
100
AcDb2dVertex
 10
74.13397621844568
 20
147.0501111828555
 30
0.0
  0
VERTEX
  5
3C0
330
3BE
100
AcDbEntity
  8
EBENE_2
 62
     7
100
AcDbVertex
100
AcDb2dVertex
 10
74.13397621844568
 20
147.2182318425357
 30
0.0
  0
SEQEND
  5
3C1
330
3BE
100
AcDbEntity
  8
EBENE_2
  0
POLYLINE
  5
3C2
330
1F
100
AcDbEntity
  8
EBENE_2
 62
     7
100
AcDb2dPolyline
 66
     1
 10
0.0
 20
0.0
 30
0.0
  0
VERTEX
  5
3C3
330
3C2
100
AcDbEntity
  8
EBENE_2
 62
     7
100
AcDbVertex
100
AcDb2dVertex
 10
74.13397621844568
 20
147.0501111828555
 30
0.0
  0
VERTEX
  5
3C4
330
3C2
100
AcDbEntity
  8
EBENE_2
 62
     7
100
AcDbVertex
100
AcDb2dVertex
 10
74.13397621844568
 20
147.2182318425357
 30
0.0
  0
SEQEND
  5
3C5
330
3C2
100
AcDbEntity
  8
EBENE_2
  0
POLYLINE
  5
3C6
330
1F
100
AcDbEntity
  8
EBENE_2
 62
     7
100
AcDb2dPolyline
 66
     1
 10
0.0
 20
0.0
 30
0.0
  0
VERTEX
  5
3C7
330
3C6
100
AcDbEntity
  8
EBENE_2
 62
     7
100
AcDbVertex
100
AcDb2dVertex
 10
74.18031275272229
 20
147.0501111828555
 30
0.0
  0
VERTEX
  5
3C8
330
3C6
100
AcDbEntity
  8
EBENE_2
 62
     7
100
AcDbVertex
100
AcDb2dVertex
 10
74.18031275272229
 20
147.5696315820312
 30
0.0
  0
SEQEND
  5
3C9
330
3C6
100
AcDbEntity
  8
EBENE_2
  0
POLYLINE
  5
3CA
330
1F
100
AcDbEntity
  8
EBENE_2
 62
     7
100
AcDb2dPolyline
 66
     1
 10
0.0
 20
0.0
 30
0.0
  0
VERTEX
  5
3CB
330
3CA
100
AcDbEntity
  8
EBENE_2
 62
     7
100
AcDbVertex
100
AcDb2dVertex
 10
74.22699379654742
 20
147.0501111828555
 30
0.0
  0
VERTEX
  5
3CC
330
3CA
100
AcDbEntity
  8
EBENE_2
 62
     7
100
AcDbVertex
100
AcDb2dVertex
 10
74.22699379654742
 20
147.921203576301
 30
0.0
  0
SEQEND
  5
3CD
330
3CA
100
AcDbEntity
  8
EBENE_2
  0
POLYLINE
  5
3CE
330
1F
100
AcDbEntity
  8
EBENE_2
 62
     7
100
AcDb2dPolyline
 66
     1
 10
0.0
 20
0.0
 30
0.0
  0
VERTEX
  5
3CF
330
3CE
100
AcDbEntity
  8
EBENE_2
 62
     7
100
AcDbVertex
100
AcDb2dVertex
 10
74.27315807604977
 20
147.0501111828555
 30
0.0
  0
VERTEX
  5
3D0
330
3CE
100
AcDbEntity
  8
EBENE_2
 62
     7
100
AcDbVertex
100
AcDb2dVertex
 10
74.27315807604977
 20
148.2722588062479
 30
0.0
  0
SEQEND
  5
3D1
330
3CE
100
AcDbEntity
  8
EBENE_2
  0
POLYLINE
  5
3D2
330
1F
100
AcDbEntity
  8
EBENE_2
 62
     7
100
AcDb2dPolyline
 66
     1
 10
0.0
 20
0.0
 30
0.0
  0
VERTEX
  5
3D3
330
3D2
100
AcDbEntity
  8
EBENE_2
 62
     7
100
AcDbVertex
100
AcDb2dVertex
 10
74.31932235555212
 20
147.0501111828555
 30
0.0
  0
VERTEX
  5
3D4
330
3D2
100
AcDbEntity
  8
EBENE_2
 62
     7
100
AcDbVertex
100
AcDb2dVertex
 10
74.31932235555212
 20
148.6238308005177
 30
0.0
  0
SEQEND
  5
3D5
330
3D2
100
AcDbEntity
  8
EBENE_2
  0
POLYLINE
  5
3D6
330
1F
100
AcDbEntity
  8
EBENE_2
 62
     7
100
AcDb2dPolyline
 66
     1
 10
0.0
 20
0.0
 30
0.0
  0
VERTEX
  5
3D7
330
3D6
100
AcDbEntity
  8
EBENE_2
 62
     7
100
AcDbVertex
100
AcDb2dVertex
 10
74.36548663505447
 20
147.0501111828555
 30
0.0
  0
VERTEX
  5
3D8
330
3D6
100
AcDbEntity
  8
EBENE_2
 62
     7
100
AcDbVertex
100
AcDb2dVertex
 10
74.36548663505447
 20
148.9755750495617
 30
0.0
  0
SEQEND
  5
3D9
330
3D6
100
AcDbEntity
  8
EBENE_2
  0
POLYLINE
  5
3DA
330
1F
100
AcDbEntity
  8
EBENE_2
 62
     7
100
AcDb2dPolyline
 66
     1
 10
0.0
 20
0.0
 30
0.0
  0
VERTEX
  5
3DB
330
3DA
100
AcDbEntity
  8
EBENE_2
 62
     7
100
AcDbVertex
100
AcDb2dVertex
 10
74.41165091455682
 20
147.0501111828555
 30
0.0
  0
VERTEX
  5
3DC
330
3DA
100
AcDbEntity
  8
EBENE_2
 62
     7
100
AcDbVertex
100
AcDb2dVertex
 10
74.41165091455682
 20
149.3269747890571
 30
0.0
  0
SEQEND
  5
3DD
330
3DA
100
AcDbEntity
  8
EBENE_2
  0
POLYLINE
  5
3DE
330
1F
100
AcDbEntity
  8
EBENE_2
 62
     7
100
AcDb2dPolyline
 66
     1
 10
0.0
 20
0.0
 30
0.0
  0
VERTEX
  5
3DF
330
3DE
100
AcDbEntity
  8
EBENE_2
 62
     7
100
AcDbVertex
100
AcDb2dVertex
 10
74.68984237499073
 20
147.0501111828555
 30
0.0
  0
VERTEX
  5
3E0
330
3DE
100
AcDbEntity
  8
EBENE_2
 62
     7
100
AcDbVertex
100
AcDb2dVertex
 10
74.68984237499073
 20
147.2182318425357
 30
0.0
  0
SEQEND
  5
3E1
330
3DE
100
AcDbEntity
  8
EBENE_2
  0
POLYLINE
  5
3E2
330
1F
100
AcDbEntity
  8
EBENE_2
 62
     7
100
AcDb2dPolyline
 66
     1
 10
0.0
 20
0.0
 30
0.0
  0
VERTEX
  5
3E3
330
3E2
100
AcDbEntity
  8
EBENE_2
 62
     7
100
AcDbVertex
100
AcDb2dVertex
 10
74.68984237499073
 20
147.0501111828555
 30
0.0
  0
VERTEX
  5
3E4
330
3E2
100
AcDbEntity
  8
EBENE_2
 62
     7
100
AcDbVertex
100
AcDb2dVertex
 10
74.68984237499073
 20
147.2182318425357
 30
0.0
  0
SEQEND
  5
3E5
330
3E2
100
AcDbEntity
  8
EBENE_2
  0
POLYLINE
  5
3E6
330
1F
100
AcDbEntity
  8
EBENE_2
 62
     7
100
AcDb2dPolyline
 66
     1
 10
0.0
 20
0.0
 30
0.0
  0
VERTEX
  5
3E7
330
3E6
100
AcDbEntity
  8
EBENE_2
 62
     7
100
AcDbVertex
100
AcDb2dVertex
 10
74.64281682161707
 20
147.0501111828555
 30
0.0
  0
VERTEX
  5
3E8
330
3E6
100
AcDbEntity
  8
EBENE_2
 62
     7
100
AcDbVertex
100
AcDb2dVertex
 10
74.64281682161707
 20
147.5696315820312
 30
0.0
  0
SEQEND
  5
3E9
330
3E6
100
AcDbEntity
  8
EBENE_2
  0
POLYLINE
  5
3EA
330
1F
100
AcDbEntity
  8
EBENE_2
 62
     7
100
AcDb2dPolyline
 66
     1
 10
0.0
 20
0.0
 30
0.0
  0
VERTEX
  5
3EB
330
3EA
100
AcDbEntity
  8
EBENE_2
 62
     7
100
AcDbVertex
100
AcDb2dVertex
 10
74.59665254211473
 20
147.0501111828555
 30
0.0
  0
VERTEX
  5
3EC
330
3EA
100
AcDbEntity
  8
EBENE_2
 62
     7
100
AcDbVertex
100
AcDb2dVertex
 10
74.59665254211473
 20
147.921203576301
 30
0.0
  0
SEQEND
  5
3ED
330
3EA
100
AcDbEntity
  8
EBENE_2
  0
POLYLINE
  5
3EE
330
1F
100
AcDbEntity
  8
EBENE_2
 62
     7
100
AcDb2dPolyline
 66
     1
 10
0.0
 20
0.0
 30
0.0
  0
VERTEX
  5
3EF
330
3EE
100
AcDbEntity
  8
EBENE_2
 62
     7
100
AcDbVertex
100
AcDb2dVertex
 10
74.55100502693517
 20
147.0501111828555
 30
0.0
  0
VERTEX
  5
3F0
330
3EE
100
AcDbEntity
  8
EBENE_2
 62
     7
100
AcDbVertex
100
AcDb2dVertex
 10
74.55100502693517
 20
148.2722588062479
 30
0.0
  0
SEQEND
  5
3F1
330
3EE
100
AcDbEntity
  8
EBENE_2
  0
POLYLINE
  5
3F2
330
1F
100
AcDbEntity
  8
EBENE_2
 62
     7
100
AcDb2dPolyline
 66
     1
 10
0.0
 20
0.0
 30
0.0
  0
VERTEX
  5
3F3
330
3F2
100
AcDbEntity
  8
EBENE_2
 62
     7
100
AcDbVertex
100
AcDb2dVertex
 10
74.50466849265855
 20
147.0501111828555
 30
0.0
  0
VERTEX
  5
3F4
330
3F2
100
AcDbEntity
  8
EBENE_2
 62
     7
100
AcDbVertex
100
AcDb2dVertex
 10
74.50466849265855
 20
148.6238308005177
 30
0.0
  0
SEQEND
  5
3F5
330
3F2
100
AcDbEntity
  8
EBENE_2
  0
POLYLINE
  5
3F6
330
1F
100
AcDbEntity
  8
EBENE_2
 62
     7
100
AcDb2dPolyline
 66
     1
 10
0.0
 20
0.0
 30
0.0
  0
VERTEX
  5
3F7
330
3F6
100
AcDbEntity
  8
EBENE_2
 62
     7
100
AcDbVertex
100
AcDb2dVertex
 10
74.45815970360769
 20
147.0501111828555
 30
0.0
  0
VERTEX
  5
3F8
330
3F6
100
AcDbEntity
  8
EBENE_2
 62
     7
100
AcDbVertex
100
AcDb2dVertex
 10
74.45815970360769
 20
148.9755750495617
 30
0.0
  0
SEQEND
  5
3F9
330
3F6
100
AcDbEntity
  8
EBENE_2
  0
POLYLINE
  5
3FA
330
1F
100
AcDbEntity
  8
EBENE_2
 62
     7
100
AcDb2dPolyline
 66
     1
 10
0.0
 20
0.0
 30
0.0
  0
VERTEX
  5
3FB
330
3FA
100
AcDbEntity
  8
EBENE_2
 62
     7
100
AcDbVertex
100
AcDb2dVertex
 10
74.41165091455682
 20
147.0501111828555
 30
0.0
  0
VERTEX
  5
3FC
330
3FA
100
AcDbEntity
  8
EBENE_2
 62
     7
100
AcDbVertex
100
AcDb2dVertex
 10
74.41165091455682
 20
149.3269747890571
 30
0.0
  0
SEQEND
  5
3FD
330
3FA
100
AcDbEntity
  8
EBENE_2
  0
MTEXT
  5
3FE
330
1F
100
AcDbEntity
  8
EBENE_2
 62
     7
100
AcDbMText
 10
73.69593232749617
 20
151.7211438965315
 30
0.0
 40
2.398888888289167
 41
0.0
 71
     7
 72
     1
  1
\fINDEX Univers 45 Light|b0|i0|c0|p34;\W1;d
 11
-4.371139000186241E-8
 21
0.999999999999999
 31
0.0
  0
POLYLINE
  5
3FF
330
1F
100
AcDbEntity
  8
EBENE_2
 62
     7
100
AcDb2dPolyline
 66
     1
 10
0.0
 20
0.0
 30
0.0
  0
VERTEX
  5
400
330
3FF
100
AcDbEntity
  8
EBENE_2
 62
     7
100
AcDbVertex
100
AcDb2dVertex
 10
109.5295762529996
 20
154.0476168777207
 30
0.0
  0
VERTEX
  5
401
330
3FF
100
AcDbEntity
  8
EBENE_2
 62
     7
100
AcDbVertex
100
AcDb2dVertex
 10
117.1914686121952
 20
160.4010619716185
 30
0.0
  0
VERTEX
  5
402
330
3FF
100
AcDbEntity
  8
EBENE_2
 62
     7
100
AcDbVertex
100
AcDb2dVertex
 10
122.1303574998494
 20
160.4010619716185
 30
0.0
  0
SEQEND
  5
403
330
3FF
100
AcDbEntity
  8
EBENE_2
  0
SPLINE
  5
404
330
1F
100
AcDbEntity
  8
EBENE_2
 62
     7
100
AcDbSpline
210
0.0
220
0.0
230
1.0
 70
    11
 71
     3
 72
    17
 73
    13
 74
     0
 42
0.0000000001
 43
0.0000000001
 40
0.0
 40
0.0
 40
0.0
 40
0.0
 40
1.0
 40
1.0
 40
1.0
 40
2.0
 40
2.0
 40
2.0
 40
3.0
 40
3.0
 40
3.0
 40
4.0
 40
4.0
 40
4.0
 40
4.0
 10
110.150037949893
 20
154.0476168777207
 30
0.0
 10
110.150037949893
 20
153.7050021317126
 30
0.0
 10
109.8723632537819
 20
153.426982926053
 30
0.0
 10
109.5295762529996
 20
153.426982926053
 30
0.0
 10
109.1861002331201
 20
153.426982926053
 30
0.0
 10
108.908425537009
 20
153.7050021317126
 30
0.0
 10
108.908425537009
 20
154.0476168777207
 30
0.0
 10
108.908425537009
 20
154.3907483880516
 30
0.0
 10
109.1861002331201
 20
154.6682508293885
 30
0.0
 10
109.5295762529996
 20
154.6682508293885
 30
0.0
 10
109.8723632537819
 20
154.6682508293885
 30
0.0
 10
110.150037949893
 20
154.3907483880516
 30
0.0
 10
110.150037949893
 20
154.0476168777207
 30
0.0
  0
HATCH
  5
405
330
1F
100
AcDbEntity
  8
EBENE_2
 62
     7
100
AcDbHatch
 10
0.0
 20
0.0
 30
0.0
210
0.0
220
0.0
230
1.0
  2
SOLID
 70
     1
 71
     0
 91
        1
 92
        1
 93
        1
 72
     4
 94
        3
 73
     0
 74
     1
 95
       17
 96
       13
 40
0.0
 40
0.0
 40
0.0
 40
0.0
 40
1.0
 40
1.0
 40
1.0
 40
2.0
 40
2.0
 40
2.0
 40
3.0
 40
3.0
 40
3.0
 40
4.0
 40
4.0
 40
4.0
 40
4.0
 10
110.150037949893
 20
154.0476168777207
 10
110.150037949893
 20
153.7050021317126
 10
109.8723632537819
 20
153.426982926053
 10
109.5295762529996
 20
153.426982926053
 10
109.1861002331201
 20
153.426982926053
 10
108.908425537009
 20
153.7050021317126
 10
108.908425537009
 20
154.0476168777207
 10
108.908425537009
 20
154.3907483880516
 10
109.1861002331201
 20
154.6682508293885
 10
109.5295762529996
 20
154.6682508293885
 10
109.8723632537819
 20
154.6682508293885
 10
110.150037949893
 20
154.3907483880516
 10
110.150037949893
 20
154.0476168777207
 97
        0
 75
     0
 76
     1
 98
        0
  0
MTEXT
  5
406
330
1F
100
AcDbEntity
  8
EBENE_2
 62
     7
100
AcDbMText
 10
118.7903374268996
 20
161.0874972470545
 30
0.0
 40
2.398888888289167
 41
0.0
 71
     7
 72
     1
  1
\fINDEX Univers 45 Light|b0|i0|c0|p34;\W1;s
  0
ENDSEC
  0
SECTION
  2
OBJECTS
  0
DICTIONARY
  5
C
330
0
100
AcDbDictionary
  3
ACAD_GROUP
350
D
  3
ACAD_LAYOUT
350
1A
  3
ACAD_MLINESTYLE
350
17
  3
ACAD_PLOTSETTINGS
350
19
  3
ACAD_TABLESTYLE
350
427
  3
ACAD_VISUALSTYLE
350
2A
  3
ACDBHEADERROUNDTRIPXREC
350
407
  0
DICTIONARY
  5
D
102
{ACAD_REACTORS
330
C
102
}
330
C
100
AcDbDictionary
  0
DICTIONARY
  5
1A
102
{ACAD_REACTORS
330
C
102
}
330
C
100
AcDbDictionary
  0
DICTIONARY
  5
17
102
{ACAD_REACTORS
330
C
102
}
330
C
100
AcDbDictionary
  3
STANDARD
350
18
  0
DICTIONARY
  5
19
102
{ACAD_REACTORS
330
C
102
}
330
C
100
AcDbDictionary
  0
DICTIONARY
  5
427
102
{ACAD_REACTORS
330
C
102
}
330
C
100
AcDbDictionary
  0
DICTIONARY
  5
2A
102
{ACAD_REACTORS
330
C
102
}
330
C
100
AcDbDictionary
  3
2DWIREFRAME
350
2F
  3
3D_HIDDEN
350
31
  3
3DWIREFRAME
350
30
  3
BASIC
350
32
  3
BRIGHTEN
350
36
  3
COLORCHANGE
350
3A
  3
CONCEPTUAL
350
34
  3
DIM
350
35
  3
FACEPATTERN
350
39
  3
FLAT
350
2B
  3
FLATWITHEDGES
350
2C
  3
GOURAUD
350
2D
  3
GOURAUDWITHEDGES
350
2E
  3
LINEPATTERN
350
38
  3
REALISTIC
350
33
  3
THICKEN
350
37
  0
DICTIONARY
  5
407
102
{ACAD_REACTORS
330
C
102
}
330
C
100
AcDbDictionary
  3
CEPSNTYPE
350
410
  3
DIMSTYLEDATA
350
426
  3
FINGERPRINTGUID
350
411
  3
HYPERLINKBASE
350
40A
  3
INSUNITS
350
40F
  3
LAYOUTDICT
350
40C
  3
LWETCUNION
350
40E
  3
PLOTSETDICT
350
40D
  3
PSVPSCALE
350
413
  3
PUCSBASE
350
416
  3
PUCSORGBACK
350
41C
  3
PUCSORGBOTTOM
350
418
  3
PUCSORGFRONT
350
41B
  3
PUCSORGLEFT
350
419
  3
PUCSORGRIGHT
350
41A
  3
PUCSORGTOP
350
417
  3
PUCSORTHOREF
350
414
  3
PUCSORTHOVIEW
350
415
  3
STYLESHEET
350
40B
  3
TSTACKALIGN
350
408
  3
TSTACKSIZE
350
409
  3
UCSBASE
350
41F
  3
UCSORGBACK
350
425
  3
UCSORGBOTTOM
350
421
  3
UCSORGFRONT
350
424
  3
UCSORGLEFT
350
422
  3
UCSORGRIGHT
350
423
  3
UCSORGTOP
350
420
  3
UCSORTHOREF
350
41D
  3
UCSORTHOVIEW
350
41E
  3
VERSIONGUID
350
412
  0
MLINESTYLE
  5
18
102
{ACAD_REACTORS
330
17
102
}
330
17
100
AcDbMlineStyle
  2
Standard
 70
     0
  3

 62
   256
 51
90.0
 52
90.0
 71
     2
 49
0.5
 62
   256
  6
BYLAYER
 49
-0.5
 62
   256
  6
BYLAYER
  0
VISUALSTYLE
  5
2F
102
{ACAD_REACTORS
330
2A
102
}
330
2A
100
AcDbVisualStyle
  2
2dWireframe
 70
     4
 71
     0
 72
     2
 73
     0
 90
        0
 40
-0.6
 41
-30.0
 62
     5
 63
     7
 74
     1
 91
        4
 64
     7
 65
   257
 75
     1
175
     1
 42
1.0
 92
        0
 66
   257
 43
1.0
 76
     1
 77
     6
 78
     2
 67
     7
 79
     5
170
     0
171
     0
290
     0
174
     0
 93
        1
 44
0.0
173
     0
291
     0
 45
0.0
1001
ACAD
1000
AcDbSavedByObjectVersion
1070
     0
  0
VISUALSTYLE
  5
31
102
{ACAD_REACTORS
330
2A
102
}
330
2A
100
AcDbVisualStyle
  2
3D Hidden
 70
     6
 71
     1
 72
     2
 73
     2
 90
        0
 40
-0.6
 41
-30.0
 62
     5
 63
     7
 74
     2
 91
        2
 64
     7
 65
   257
 75
     2
175
     1
 42
40.0
 92
        0
 66
   257
 43
1.0
 76
     1
 77
     6
 78
     2
 67
     7
 79
     3
170
     0
171
     0
290
     0
174
     0
 93
        1
 44
0.0
173
     0
291
     0
 45
0.0
1001
ACAD
1000
AcDbSavedByObjectVersion
1070
     0
  0
VISUALSTYLE
  5
30
102
{ACAD_REACTORS
330
2A
102
}
330
2A
100
AcDbVisualStyle
  2
3dWireframe
 70
     5
 71
     0
 72
     2
 73
     0
 90
        0
 40
-0.6
 41
-30.0
 62
     5
 63
     7
 74
     1
 91
        4
 64
     7
 65
   257
 75
     1
175
     1
 42
1.0
 92
        0
 66
   257
 43
1.0
 76
     1
 77
     6
 78
     2
 67
     7
 79
     5
170
     0
171
     0
290
     0
174
     0
 93
        1
 44
0.0
173
     0
291
     0
 45
0.0
1001
ACAD
1000
AcDbSavedByObjectVersion
1070
     0
  0
VISUALSTYLE
  5
32
102
{ACAD_REACTORS
330
2A
102
}
330
2A
100
AcDbVisualStyle
  2
Basic
 70
     7
 71
     1
 72
     0
 73
     1
 90
        0
 40
-0.6
 41
-30.0
 62
     5
 63
     7
 74
     0
 91
        4
 64
     7
 65
   257
 75
     1
175
     1
 42
1.0
 92
        8
 66
     7
 43
1.0
 76
     1
 77
     6
 78
     2
 67
     7
 79
     5
170
     0
171
     0
290
     0
174
     0
 93
        1
 44
0.0
173
     0
291
     1
 45
0.0
1001
ACAD
1000
AcDbSavedByObjectVersion
1070
     0
  0
VISUALSTYLE
  5
36
102
{ACAD_REACTORS
330
2A
102
}
330
2A
100
AcDbVisualStyle
  2
Brighten
 70
    12
 71
     2
 72
     2
 73
     0
 90
        0
 40
-0.6
 41
-30.0
 62
     5
 63
     7
 74
     1
 91
        4
 64
     7
 65
   257
 75
     1
175
     1
 42
1.0
 92
        8
 66
     7
 43
1.0
 76
     1
 77
     6
 78
     2
 67
     7
 79
     5
170
     0
171
     0
290
     0
174
     0
 93
        1
 44
50.0
173
     0
291
     1
 45
0.0
1001
ACAD
1000
AcDbSavedByObjectVersion
1070
     0
  0
VISUALSTYLE
  5
3A
102
{ACAD_REACTORS
330
2A
102
}
330
2A
100
AcDbVisualStyle
  2
ColorChange
 70
    16
 71
     2
 72
     2
 73
     3
 90
        0
 40
-0.6
 41
-30.0
 62
     5
 63
     8
 74
     1
 91
        4
 64
     7
 65
   257
 75
     1
175
     1
 42
1.0
 92
        8
 66
     8
 43
1.0
 76
     1
 77
     6
 78
     2
 67
     7
 79
     5
170
     0
171
     0
290
     0
174
     0
 93
        1
 44
0.0
173
     0
291
     1
 45
0.0
1001
ACAD
1000
AcDbSavedByObjectVersion
1070
     0
  0
VISUALSTYLE
  5
34
102
{ACAD_REACTORS
330
2A
102
}
330
2A
100
AcDbVisualStyle
  2
Conceptual
 70
     9
 71
     3
 72
     2
 73
     0
 90
        0
 40
-0.6
 41
-30.0
 62
     5
 63
     7
 74
     2
 91
        2
 64
     7
 65
   257
 75
     1
175
     1
 42
40.0
 92
        8
 66
     7
 43
1.0
 76
     1
 77
     6
 78
     2
 67
     7
 79
     3
170
     0
171
     0
290
     0
174
     0
 93
        1
 44
0.0
173
     0
291
     0
 45
0.0
1001
ACAD
1000
AcDbSavedByObjectVersion
1070
     0
  0
VISUALSTYLE
  5
35
102
{ACAD_REACTORS
330
2A
102
}
330
2A
100
AcDbVisualStyle
  2
Dim
 70
    11
 71
     2
 72
     2
 73
     0
 90
        0
 40
-0.6
 41
-30.0
 62
     5
 63
     7
 74
     1
 91
        4
 64
     7
 65
   257
 75
     1
175
     1
 42
1.0
 92
        8
 66
     7
 43
1.0
 76
     1
 77
     6
 78
     2
 67
     7
 79
     5
170
     0
171
     0
290
     0
174
     0
 93
        1
 44
-50.0
173
     0
291
     1
 45
0.0
1001
ACAD
1000
AcDbSavedByObjectVersion
1070
     0
  0
VISUALSTYLE
  5
39
102
{ACAD_REACTORS
330
2A
102
}
330
2A
100
AcDbVisualStyle
  2
Facepattern
 70
    15
 71
     2
 72
     2
 73
     0
 90
        0
 40
-0.6
 41
-30.0
 62
     5
 63
     7
 74
     1
 91
        4
 64
     7
 65
   257
 75
     1
175
     1
 42
1.0
 92
        8
 66
     7
 43
1.0
 76
     1
 77
     6
 78
     2
 67
     7
 79
     5
170
     0
171
     0
290
     0
174
     0
 93
        1
 44
0.0
173
     0
291
     1
 45
0.0
1001
ACAD
1000
AcDbSavedByObjectVersion
1070
     0
  0
VISUALSTYLE
  5
2B
102
{ACAD_REACTORS
330
2A
102
}
330
2A
100
AcDbVisualStyle
  2
Flat
 70
     0
 71
     2
 72
     1
 73
     1
 90
        2
 40
-0.6
 41
30.0
 62
     5
 63
     7
 74
     0
 91
        4
 64
     7
 65
   257
 75
     1
175
     1
 42
1.0
 92
        8
 66
     7
 43
1.0
 76
     1
 77
     6
 78
     2
 67
     7
 79
     5
170
     0
171
     0
290
     0
174
     0
 93
       13
 44
0.0
173
     0
291
     1
 45
0.0
1001
ACAD
1000
AcDbSavedByObjectVersion
1070
     0
  0
VISUALSTYLE
  5
2C
102
{ACAD_REACTORS
330
2A
102
}
330
2A
100
AcDbVisualStyle
  2
FlatWithEdges
 70
     1
 71
     2
 72
     1
 73
     1
 90
        2
 40
-0.6
 41
30.0
 62
     5
 63
     7
 74
     1
 91
        4
 64
     7
 65
   257
 75
     1
175
     1
 42
1.0
 92
        0
 66
   257
 43
1.0
 76
     1
 77
     6
 78
     2
 67
     7
 79
     5
170
     0
171
     0
290
     0
174
     0
 93
       13
 44
0.0
173
     0
291
     1
 45
0.0
1001
ACAD
1000
AcDbSavedByObjectVersion
1070
     0
  0
VISUALSTYLE
  5
2D
102
{ACAD_REACTORS
330
2A
102
}
330
2A
100
AcDbVisualStyle
  2
Gouraud
 70
     2
 71
     2
 72
     2
 73
     1
 90
        2
 40
-0.6
 41
30.0
 62
     5
 63
     7
 74
     0
 91
        4
 64
     7
 65
   257
 75
     1
175
     1
 42
1.0
 92
        0
 66
     7
 43
1.0
 76
     1
 77
     6
 78
     2
 67
     7
 79
     5
170
     0
171
     0
290
     0
174
     0
 93
       13
 44
0.0
173
     0
291
     1
 45
0.0
1001
ACAD
1000
AcDbSavedByObjectVersion
1070
     0
  0
VISUALSTYLE
  5
2E
102
{ACAD_REACTORS
330
2A
102
}
330
2A
100
AcDbVisualStyle
  2
GouraudWithEdges
 70
     3
 71
     2
 72
     2
 73
     1
 90
        2
 40
-0.6
 41
30.0
 62
     5
 63
     7
 74
     1
 91
        4
 64
     7
 65
   257
 75
     1
175
     1
 42
1.0
 92
        0
 66
   257
 43
1.0
 76
     1
 77
     6
 78
     2
 67
     7
 79
     5
170
     0
171
     0
290
     0
174
     0
 93
       13
 44
0.0
173
     0
291
     1
 45
0.0
1001
ACAD
1000
AcDbSavedByObjectVersion
1070
     0
  0
VISUALSTYLE
  5
38
102
{ACAD_REACTORS
330
2A
102
}
330
2A
100
AcDbVisualStyle
  2
Linepattern
 70
    14
 71
     2
 72
     2
 73
     0
 90
        0
 40
-0.6
 41
-30.0
 62
     5
 63
     7
 74
     1
 91
        4
 64
     7
 65
   257
 75
     7
175
     7
 42
1.0
 92
        8
 66
     7
 43
1.0
 76
     1
 77
     6
 78
     2
 67
     7
 79
     5
170
     0
171
     0
290
     0
174
     0
 93
        1
 44
0.0
173
     0
291
     1
 45
0.0
1001
ACAD
1000
AcDbSavedByObjectVersion
1070
     0
  0
VISUALSTYLE
  5
33
102
{ACAD_REACTORS
330
2A
102
}
330
2A
100
AcDbVisualStyle
  2
Realistic
 70
     8
 71
     2
 72
     2
 73
     0
 90
        0
 40
-0.6
 41
-30.0
 62
     5
 63
     7
 74
     1
 91
        0
 64
     7
 65
   257
 75
     1
175
     1
 42
1.0
 92
        8
 66
     8
 43
1.0
 76
     1
 77
     6
 78
     2
 67
     7
 79
     5
170
     0
171
     0
290
     0
174
     0
 93
       13
 44
0.0
173
     0
291
     0
 45
0.0
1001
ACAD
1000
AcDbSavedByObjectVersion
1070
     0
  0
VISUALSTYLE
  5
37
102
{ACAD_REACTORS
330
2A
102
}
330
2A
100
AcDbVisualStyle
  2
Thicken
 70
    13
 71
     2
 72
     2
 73
     0
 90
        0
 40
-0.6
 41
-30.0
 62
     5
 63
     7
 74
     1
 91
        4
 64
     7
 65
   257
 75
     1
175
     1
 42
1.0
 92
       12
 66
     7
 43
1.0
 76
     1
 77
     6
 78
     2
 67
     7
 79
     5
170
     0
171
     0
290
     0
174
     0
 93
        1
 44
0.0
173
     0
291
     1
 45
0.0
1001
ACAD
1000
AcDbSavedByObjectVersion
1070
     0
  0
XRECORD
  5
410
102
{ACAD_REACTORS
330
407
102
}
330
407
100
AcDbXrecord
 90
        0
  0
XRECORD
  5
426
102
{ACAD_REACTORS
330
407
102
}
330
407
100
AcDbXrecord
1000
DSTYLE
1002
{
1070
   340
340
11
1002
}
  0
XRECORD
  5
411
102
{ACAD_REACTORS
330
407
102
}
330
407
100
AcDbXrecord
  1
{7CAF0A0C-3F74-4A81-886D-16BD53BA0454}
  0
XRECORD
  5
40A
102
{ACAD_REACTORS
330
407
102
}
330
407
100
AcDbXrecord
  1

  0
XRECORD
  5
40F
102
{ACAD_REACTORS
330
407
102
}
330
407
100
AcDbXrecord
 90
        1
  0
XRECORD
  5
40C
102
{ACAD_REACTORS
330
407
102
}
330
407
100
AcDbXrecord
340
1A
  0
XRECORD
  5
40E
102
{ACAD_REACTORS
330
407
102
}
330
407
100
AcDbXrecord
 90
    10269
  0
XRECORD
  5
40D
102
{ACAD_REACTORS
330
407
102
}
330
407
100
AcDbXrecord
340
19
  0
XRECORD
  5
413
102
{ACAD_REACTORS
330
407
102
}
330
407
100
AcDbXrecord
 40
0.0
  0
XRECORD
  5
416
102
{ACAD_REACTORS
330
407
102
}
330
407
100
AcDbXrecord
340
0
  0
XRECORD
  5
41C
102
{ACAD_REACTORS
330
407
102
}
330
407
100
AcDbXrecord
 10
0.0
 20
0.0
 30
0.0
  0
XRECORD
  5
418
102
{ACAD_REACTORS
330
407
102
}
330
407
100
AcDbXrecord
 10
0.0
 20
0.0
 30
0.0
  0
XRECORD
  5
41B
102
{ACAD_REACTORS
330
407
102
}
330
407
100
AcDbXrecord
 10
0.0
 20
0.0
 30
0.0
  0
XRECORD
  5
419
102
{ACAD_REACTORS
330
407
102
}
330
407
100
AcDbXrecord
 10
0.0
 20
0.0
 30
0.0
  0
XRECORD
  5
41A
102
{ACAD_REACTORS
330
407
102
}
330
407
100
AcDbXrecord
 10
0.0
 20
0.0
 30
0.0
  0
XRECORD
  5
417
102
{ACAD_REACTORS
330
407
102
}
330
407
100
AcDbXrecord
 10
0.0
 20
0.0
 30
0.0
  0
XRECORD
  5
414
102
{ACAD_REACTORS
330
407
102
}
330
407
100
AcDbXrecord
340
0
  0
XRECORD
  5
415
102
{ACAD_REACTORS
330
407
102
}
330
407
100
AcDbXrecord
 70
     0
  0
XRECORD
  5
40B
102
{ACAD_REACTORS
330
407
102
}
330
407
100
AcDbXrecord
  1

  0
XRECORD
  5
408
102
{ACAD_REACTORS
330
407
102
}
330
407
100
AcDbXrecord
 90
        1
  0
XRECORD
  5
409
102
{ACAD_REACTORS
330
407
102
}
330
407
100
AcDbXrecord
 90
       70
  0
XRECORD
  5
41F
102
{ACAD_REACTORS
330
407
102
}
330
407
100
AcDbXrecord
340
0
  0
XRECORD
  5
425
102
{ACAD_REACTORS
330
407
102
}
330
407
100
AcDbXrecord
 10
0.0
 20
0.0
 30
0.0
  0
XRECORD
  5
421
102
{ACAD_REACTORS
330
407
102
}
330
407
100
AcDbXrecord
 10
0.0
 20
0.0
 30
0.0
  0
XRECORD
  5
424
102
{ACAD_REACTORS
330
407
102
}
330
407
100
AcDbXrecord
 10
0.0
 20
0.0
 30
0.0
  0
XRECORD
  5
422
102
{ACAD_REACTORS
330
407
102
}
330
407
100
AcDbXrecord
 10
0.0
 20
0.0
 30
0.0
  0
XRECORD
  5
423
102
{ACAD_REACTORS
330
407
102
}
330
407
100
AcDbXrecord
 10
0.0
 20
0.0
 30
0.0
  0
XRECORD
  5
420
102
{ACAD_REACTORS
330
407
102
}
330
407
100
AcDbXrecord
 10
0.0
 20
0.0
 30
0.0
  0
XRECORD
  5
41D
102
{ACAD_REACTORS
330
407
102
}
330
407
100
AcDbXrecord
340
0
  0
XRECORD
  5
41E
102
{ACAD_REACTORS
330
407
102
}
330
407
100
AcDbXrecord
 70
     0
  0
XRECORD
  5
412
102
{ACAD_REACTORS
330
407
102
}
330
407
100
AcDbXrecord
  1
{FAEB1C32-E019-11D5-929B-00C0DF256EC4}
  0
ENDSEC
  0
EOF
