  0
SECTION
  2
HEADER
  9
$ACADVER
  1
AC1014
  9
$ACADMAINTVER
 70
     9
  9
$DWGCODEPAGE
  3
ANSI_1252
  9
$INSBASE
 10
0.0
 20
0.0
 30
0.0
  9
$EXTMIN
 10
1.000000000000000E+20
 20
1.000000000000000E+20
 30
1.000000000000000E+20
  9
$EXTMAX
 10
-1.000000000000000E+20
 20
-1.000000000000000E+20
 30
-1.000000000000000E+20
  9
$LIMMIN
 10
0.0
 20
0.0
  9
$LIMMAX
 10
12.0
 20
9.0
  9
$ORTHOMODE
 70
     0
  9
$REGENMODE
 70
     1
  9
$FILLMODE
 70
     1
  9
$QTEXTMODE
 70
     0
  9
$MIRRTEXT
 70
     1
  9
$DRAGMODE
 70
     2
  9
$LTSCALE
 40
1.0
  9
$OSMODE
 70
    37
  9
$ATTMODE
 70
     1
  9
$TEXTSIZE
 40
0.2
  9
$TRACEWID
 40
0.05
  9
$TEXTSTYLE
  7
STANDARD
  9
$CLAYER
  8
0
  9
$CELTYPE
  6
BYLAYER
  9
$CECOLOR
 62
   256
  9
$CELTSCALE
 40
1.0
  9
$DELOBJ
 70
     1
  9
$DISPSILH
 70
     0
  9
$DIMSCALE
 40
1.0
  9
$DIMASZ
 40
0.18
  9
$DIMEXO
 40
0.0625
  9
$DIMDLI
 40
0.38
  9
$DIMRND
 40
0.0
  9
$DIMDLE
 40
0.0
  9
$DIMEXE
 40
0.18
  9
$DIMTP
 40
0.0
  9
$DIMTM
 40
0.0
  9
$DIMTXT
 40
0.18
  9
$DIMCEN
 40
0.09
  9
$DIMTSZ
 40
0.0
  9
$DIMTOL
 70
     0
  9
$DIMLIM
 70
     0
  9
$DIMTIH
 70
     1
  9
$DIMTOH
 70
     1
  9
$DIMSE1
 70
     0
  9
$DIMSE2
 70
     0
  9
$DIMTAD
 70
     0
  9
$DIMZIN
 70
     0
  9
$DIMBLK
  1

  9
$DIMASO
 70
     1
  9
$DIMSHO
 70
     1
  9
$DIMPOST
  1

  9
$DIMAPOST
  1

  9
$DIMALT
 70
     0
  9
$DIMALTD
 70
     2
  9
$DIMALTF
 40
25.4
  9
$DIMLFAC
 40
1.0
  9
$DIMTOFL
 70
     0
  9
$DIMTVP
 40
0.0
  9
$DIMTIX
 70
     0
  9
$DIMSOXD
 70
     0
  9
$DIMSAH
 70
     0
  9
$DIMBLK1
  1

  9
$DIMBLK2
  1

  9
$DIMSTYLE
  2
STANDARD
  9
$DIMCLRD
 70
     0
  9
$DIMCLRE
 70
     0
  9
$DIMCLRT
 70
     0
  9
$DIMTFAC
 40
1.0
  9
$DIMGAP
 40
0.09
  9
$DIMJUST
 70
     0
  9
$DIMSD1
 70
     0
  9
$DIMSD2
 70
     0
  9
$DIMTOLJ
 70
     1
  9
$DIMTZIN
 70
     0
  9
$DIMALTZ
 70
     0
  9
$DIMALTTZ
 70
     0
  9
$DIMFIT
 70
     3
  9
$DIMUPT
 70
     0
  9
$DIMUNIT
 70
     2
  9
$DIMDEC
 70
     4
  9
$DIMTDEC
 70
     4
  9
$DIMALTU
 70
     2
  9
$DIMALTTD
 70
     2
  9
$DIMTXSTY
  7
STANDARD
  9
$DIMAUNIT
 70
     0
  9
$LUNITS
 70
     2
  9
$LUPREC
 70
     4
  9
$SKETCHINC
 40
0.1
  9
$FILLETRAD
 40
0.5
  9
$AUNITS
 70
     0
  9
$AUPREC
 70
     0
  9
$MENU
  1
.
  9
$ELEVATION
 40
0.0
  9
$PELEVATION
 40
0.0
  9
$THICKNESS
 40
0.0
  9
$LIMCHECK
 70
     0
  9
$CHAMFERA
 40
0.5
  9
$CHAMFERB
 40
0.5
  9
$CHAMFERC
 40
1.0
  9
$CHAMFERD
 40
0.0
  9
$SKPOLY
 70
     0
  9
$TDCREATE
 40
2458283.525441412
  9
$TDUPDATE
 40
2458283.525441424
  9
$TDINDWG
 40
0.0000000116
  9
$TDUSRTIMER
 40
0.0000000116
  9
$USRTIMER
 70
     1
  9
$ANGBASE
 50
0.0
  9
$ANGDIR
 70
     0
  9
$PDMODE
 70
     0
  9
$PDSIZE
 40
0.0
  9
$PLINEWID
 40
0.0
  9
$COORDS
 70
     1
  9
$SPLFRAME
 70
     0
  9
$SPLINETYPE
 70
     6
  9
$SPLINESEGS
 70
     8
  9
$ATTDIA
 70
     0
  9
$ATTREQ
 70
     1
  9
$HANDLING
 70
     1
  9
$HANDSEED
  5
53C
  9
$SURFTAB1
 70
     6
  9
$SURFTAB2
 70
     6
  9
$SURFTYPE
 70
     6
  9
$SURFU
 70
     6
  9
$SURFV
 70
     6
  9
$UCSNAME
  2

  9
$UCSORG
 10
0.0
 20
0.0
 30
0.0
  9
$UCSXDIR
 10
1.0
 20
0.0
 30
0.0
  9
$UCSYDIR
 10
0.0
 20
1.0
 30
0.0
  9
$PUCSNAME
  2

  9
$PUCSORG
 10
0.0
 20
0.0
 30
0.0
  9
$PUCSXDIR
 10
1.0
 20
0.0
 30
0.0
  9
$PUCSYDIR
 10
0.0
 20
1.0
 30
0.0
  9
$USERI1
 70
     0
  9
$USERI2
 70
     0
  9
$USERI3
 70
     0
  9
$USERI4
 70
     0
  9
$USERI5
 70
     0
  9
$USERR1
 40
0.0
  9
$USERR2
 40
0.0
  9
$USERR3
 40
0.0
  9
$USERR4
 40
0.0
  9
$USERR5
 40
0.0
  9
$WORLDVIEW
 70
     1
  9
$SHADEDGE
 70
     3
  9
$SHADEDIF
 70
    70
  9
$TILEMODE
 70
     1
  9
$MAXACTVP
 70
    64
  9
$PINSBASE
 10
0.0
 20
0.0
 30
0.0
  9
$PLIMCHECK
 70
     0
  9
$PEXTMIN
 10
1.000000000000000E+20
 20
1.000000000000000E+20
 30
1.000000000000000E+20
  9
$PEXTMAX
 10
-1.000000000000000E+20
 20
-1.000000000000000E+20
 30
-1.000000000000000E+20
  9
$PLIMMIN
 10
0.0
 20
0.0
  9
$PLIMMAX
 10
12.0
 20
9.0
  9
$UNITMODE
 70
     0
  9
$VISRETAIN
 70
     1
  9
$PLINEGEN
 70
     0
  9
$PSLTSCALE
 70
     1
  9
$TREEDEPTH
 70
  3020
  9
$PICKSTYLE
 70
     1
  9
$CMLSTYLE
  2
STANDARD
  9
$CMLJUST
 70
     0
  9
$CMLSCALE
 40
1.0
  9
$PROXYGRAPHICS
 70
     1
  9
$MEASUREMENT
 70
     0
  0
ENDSEC
  0
SECTION
  2
CLASSES
  0
CLASS
  1
ACDBDICTIONARYWDFLT
  2
AcDbDictionaryWithDefault
  3
ObjectDBX Classes
 90
        0
280
     0
281
     0
  0
CLASS
  1
VISUALSTYLE
  2
AcDbVisualStyle
  3
ObjectDBX Classes
 90
     4095
280
     0
281
     0
  0
CLASS
  1
XRECORD
  2
AcDbXrecord
  3
AutoCAD 2000
 90
        0
280
     0
281
     0
  0
CLASS
  1
LWPOLYLINE
  2
AcDbPolyline
  3
AutoCAD 2000
 90
        0
280
     0
281
     1
  0
CLASS
  1
HATCH
  2
AcDbHatch
  3
AutoCAD 2000
 90
        0
280
     0
281
     1
  0
CLASS
  1
ACDBPLACEHOLDER
  2
AcDbPlaceHolder
  3
ObjectDBX Classes
 90
        0
280
     0
281
     0
  0
CLASS
  1
LAYOUT
  2
AcDbLayout
  3
ObjectDBX Classes
 90
        0
280
     0
281
     0
  0
ENDSEC
  0
SECTION
  2
TABLES
  0
TABLE
  2
VPORT
  5
8
330
0
100
AcDbSymbolTable
 70
     1
  0
VPORT
  5
29
330
8
100
AcDbSymbolTableRecord
100
AcDbViewportTableRecord
  2
*ACTIVE
 70
     0
 10
0.0
 20
0.0
 11
1.0
 21
1.0
 12
0.0
 22
0.0
 13
0.0
 23
0.0
 14
0.5
 24
0.5
 15
0.5
 25
0.5
 16
0.0
 26
0.0
 36
1.0
 17
-14.57034233576714
 27
-95.80311005634437
 37
0.0
 40
296.9999592356459
 41
0.7070705664688927
 42
50.0
 43
0.0
 44
0.0
 50
0.0
 51
0.0
 71
     0
 72
   100
 73
     1
 74
     3
 75
     0
 76
     0
 77
     0
 78
     0
  0
ENDTAB
  0
TABLE
  2
LTYPE
  5
5
330
0
100
AcDbSymbolTable
 70
     2
  0
LTYPE
  5
14
330
5
100
AcDbSymbolTableRecord
100
AcDbLinetypeTableRecord
  2
BYBLOCK
 70
     0
  3

 72
    65
 73
     0
 40
0.0
  0
LTYPE
  5
15
330
5
100
AcDbSymbolTableRecord
100
AcDbLinetypeTableRecord
  2
BYLAYER
 70
     0
  3

 72
    65
 73
     0
 40
0.0
  0
LTYPE
  5
16
330
5
100
AcDbSymbolTableRecord
100
AcDbLinetypeTableRecord
  2
CONTINUOUS
 70
     0
  3
Solid line
 72
    65
 73
     0
 40
0.0
  0
LTYPE
  5
E6
330
5
100
AcDbSymbolTableRecord
100
AcDbLinetypeTableRecord
  2
AI-LINETYPE-1
 70
     0
  3
Adobe Illustrator Linetype No. 1
 72
    65
 73
     4
 40
8.819444442239584
 49
7.055555553791667
 74
     0
 49
-0.7055555553791667
 74
     0
 49
0.3527777776895833
 74
     0
 49
-0.7055555553791667
 74
     0
  0
ENDTAB
  0
TABLE
  2
LAYER
  5
2
330
0
100
AcDbSymbolTable
 70
     5
  0
LAYER
  5
10
330
2
100
AcDbSymbolTableRecord
100
AcDbLayerTableRecord
  2
0
 70
     0
 62
     7
  6
CONTINUOUS
  0
LAYER
  5
3B
330
2
100
AcDbSymbolTableRecord
100
AcDbLayerTableRecord
  2
GRAU_10_
 70
     1
 62
     7
  6
CONTINUOUS
  0
LAYER
  5
51
330
2
100
AcDbSymbolTableRecord
100
AcDbLayerTableRecord
  2
STANDARDEBENE
 70
     0
 62
     7
  6
CONTINUOUS
  0
LAYER
  5
2B8
330
2
100
AcDbSymbolTableRecord
100
AcDbLayerTableRecord
  2
BEMAßUNG
 70
     1
 62
     7
  6
CONTINUOUS
  0
LAYER
  5
516
330
2
100
AcDbSymbolTableRecord
100
AcDbLayerTableRecord
  2
TEXT
 70
     1
 62
     7
  6
CONTINUOUS
  0
ENDTAB
  0
TABLE
  2
STYLE
  5
3
330
0
100
AcDbSymbolTable
 70
     1
  0
STYLE
  5
11
330
3
100
AcDbSymbolTableRecord
100
AcDbTextStyleTableRecord
  2
STANDARD
 70
     0
 40
0.0
 41
1.0
 50
0.0
 71
     0
 42
0.2
  3
txt
  4

  0
ENDTAB
  0
TABLE
  2
VIEW
  5
6
330
0
100
AcDbSymbolTable
 70
     0
  0
ENDTAB
  0
TABLE
  2
UCS
  5
7
330
0
100
AcDbSymbolTable
 70
     0
  0
ENDTAB
  0
TABLE
  2
APPID
  5
9
330
0
100
AcDbSymbolTable
 70
     1
  0
APPID
  5
12
330
9
100
AcDbSymbolTableRecord
100
AcDbRegAppTableRecord
  2
ACAD
 70
     0
  0
ENDTAB
  0
TABLE
  2
DIMSTYLE
  5
A
330
0
100
AcDbSymbolTable
 70
     1
  0
DIMSTYLE
105
27
330
A
100
AcDbSymbolTableRecord
100
AcDbDimStyleTableRecord
  2
STANDARD
 70
     0
  3

  4

  5

  6

  7

 40
1.0
 41
0.18
 42
0.0625
 43
0.38
 44
0.18
 45
0.0
 46
0.0
 47
0.0
 48
0.0
140
0.18
141
0.09
142
0.0
143
25.4
144
1.0
145
0.0
146
1.0
147
0.09
 71
     0
 72
     0
 73
     1
 74
     1
 75
     0
 76
     0
 77
     0
 78
     0
170
     0
171
     2
172
     0
173
     0
174
     0
175
     0
176
     0
177
     0
178
     0
270
     2
271
     4
272
     4
273
     2
274
     2
340
11
275
     0
280
     0
281
     0
282
     0
283
     1
284
     0
285
     0
286
     0
287
     3
288
     0
  0
ENDTAB
  0
TABLE
  2
BLOCK_RECORD
  5
1
330
0
100
AcDbSymbolTable
 70
     1
  0
BLOCK_RECORD
  5
1F
330
1
100
AcDbSymbolTableRecord
100
AcDbBlockTableRecord
  2
*MODEL_SPACE
  0
BLOCK_RECORD
  5
1B
330
1
100
AcDbSymbolTableRecord
100
AcDbBlockTableRecord
  2
*PAPER_SPACE
  0
ENDTAB
  0
ENDSEC
  0
SECTION
  2
BLOCKS
  0
BLOCK
  5
20
330
1F
100
AcDbEntity
  8
0
100
AcDbBlockBegin
  2
*MODEL_SPACE
 70
     0
 71
     0
 10
0.0
 20
0.0
 30
0.0
  3
*MODEL_SPACE
  1

  0
ENDBLK
  5
21
330
1F
100
AcDbEntity
  8
0
100
AcDbBlockEnd
  0
BLOCK
  5
1C
330
1B
100
AcDbEntity
 67
     1
  8
0
100
AcDbBlockBegin
  2
*PAPER_SPACE
 70
     0
 71
     0
 10
0.0
 20
0.0
 30
0.0
  3
*PAPER_SPACE
  1

  0
ENDBLK
  5
1D
330
1B
100
AcDbEntity
 67
     1
  8
0
100
AcDbBlockEnd
  0
ENDSEC
  0
SECTION
  2
ENTITIES
  0
POLYLINE
  5
3C
330
1F
100
AcDbEntity
  8
GRAU_10_
100
AcDb2dPolyline
 66
     1
 10
0.0
 20
0.0
 30
0.0
  0
VERTEX
  5
3D
330
3C
100
AcDbEntity
  8
GRAU_10_
100
AcDbVertex
100
AcDb2dVertex
 10
-31.5548353328231
 20
10.92543131237281
 30
0.0
  0
VERTEX
  5
3E
330
3C
100
AcDbEntity
  8
GRAU_10_
100
AcDbVertex
100
AcDb2dVertex
 10
-31.60289441484233
 20
18.36907687257787
 30
0.0
  0
VERTEX
  5
3F
330
3C
100
AcDbEntity
  8
GRAU_10_
100
AcDbVertex
100
AcDb2dVertex
 10
-26.77648789478157
 20
20.96237249909969
 30
0.0
  0
VERTEX
  5
40
330
3C
100
AcDbEntity
  8
GRAU_10_
100
AcDbVertex
100
AcDb2dVertex
 10
-26.72842881276234
 20
19.18539224780782
 30
0.0
  0
VERTEX
  5
41
330
3C
100
AcDbEntity
  8
GRAU_10_
100
AcDbVertex
100
AcDb2dVertex
 10
-23.94306911293785
 20
19.20950791620457
 30
0.0
  0
VERTEX
  5
42
330
3C
100
AcDbEntity
  8
GRAU_10_
100
AcDbVertex
100
AcDb2dVertex
 10
-23.91912569931536
 20
21.08243407676064
 30
0.0
  0
VERTEX
  5
43
330
3C
100
AcDbEntity
  8
GRAU_10_
100
AcDbVertex
100
AcDb2dVertex
 10
0.0447862413082479
 20
17.60064832459289
 30
0.0
  0
VERTEX
  5
44
330
3C
100
AcDbEntity
  8
GRAU_10_
100
AcDbVertex
100
AcDb2dVertex
 10
-0.0513319227302226
 20
3.409783256526027
 30
0.0
  0
VERTEX
  5
45
330
3C
100
AcDbEntity
  8
GRAU_10_
100
AcDbVertex
100
AcDb2dVertex
 10
-23.91929795408962
 20
-0.0961181640384705
 30
0.0
  0
VERTEX
  5
46
330
3C
100
AcDbEntity
  8
GRAU_10_
100
AcDbVertex
100
AcDb2dVertex
 10
-24.01524386335383
 20
1.776807996517604
 30
0.0
  0
VERTEX
  5
47
330
3C
100
AcDbEntity
  8
GRAU_10_
100
AcDbVertex
100
AcDb2dVertex
 10
-26.70465765391411
 20
1.776807996517604
 30
0.0
  0
VERTEX
  5
48
330
3C
100
AcDbEntity
  8
GRAU_10_
100
AcDbVertex
100
AcDb2dVertex
 10
-26.65659857189488
 20
0.0239434136224864
 30
0.0
  0
VERTEX
  5
49
330
3C
100
AcDbEntity
  8
GRAU_10_
100
AcDbVertex
100
AcDb2dVertex
 10
-27.01678330487775
 20
0.0239434136224864
 30
0.0
  0
VERTEX
  5
4A
330
3C
100
AcDbEntity
  8
GRAU_10_
100
AcDbVertex
100
AcDb2dVertex
 10
-31.6030666696166
 20
2.497177462483345
 30
0.0
  0
VERTEX
  5
4B
330
3C
100
AcDbEntity
  8
GRAU_10_
100
AcDbVertex
100
AcDb2dVertex
 10
-31.48300509195564
 20
10.01282551833013
 30
0.0
  0
VERTEX
  5
4C
330
3C
100
AcDbEntity
  8
GRAU_10_
100
AcDbVertex
100
AcDb2dVertex
 10
-4.253314886089449
 20
10.0607123455751
 30
0.0
  0
VERTEX
  5
4D
330
3C
100
AcDbEntity
  8
GRAU_10_
100
AcDbVertex
100
AcDb2dVertex
 10
-4.229543727241225
 20
10.85325656195683
 30
0.0
  0
VERTEX
  5
4E
330
3C
100
AcDbEntity
  8
GRAU_10_
100
AcDbVertex
100
AcDb2dVertex
 10
-31.5548353328231
 20
10.92543131237281
 30
0.0
  0
SEQEND
  5
4F
330
3C
100
AcDbEntity
  8
GRAU_10_
  0
HATCH
  5
50
330
1F
100
AcDbEntity
  8
GRAU_10_
 62
   255
100
AcDbHatch
 10
0.0
 20
0.0
 30
0.0
210
0.0
220
0.0
230
1.0
  2
SOLID
 70
     1
 71
     0
 91
        1
 92
        1
 93
       17
 72
     1
 10
-31.5548353328231
 20
10.92543131237281
 11
-31.60289441484233
 21
18.36907687257787
 72
     1
 10
-31.60289441484233
 20
18.36907687257787
 11
-26.77648789478157
 21
20.96237249909969
 72
     1
 10
-26.77648789478157
 20
20.96237249909969
 11
-26.72842881276234
 21
19.18539224780782
 72
     1
 10
-26.72842881276234
 20
19.18539224780782
 11
-23.94306911293785
 21
19.20950791620457
 72
     1
 10
-23.94306911293785
 20
19.20950791620457
 11
-23.91912569931536
 21
21.08243407676064
 72
     1
 10
-23.91912569931536
 20
21.08243407676064
 11
0.0447862413082483
 21
17.60064832459289
 72
     1
 10
0.0447862413082479
 20
17.60064832459289
 11
-0.0513319227302226
 21
3.409783256526026
 72
     1
 10
-0.0513319227302226
 20
3.409783256526027
 11
-23.91929795408962
 21
-0.0961181640384705
 72
     1
 10
-23.91929795408962
 20
-0.0961181640384705
 11
-24.01524386335383
 21
1.776807996517604
 72
     1
 10
-24.01524386335383
 20
1.776807996517604
 11
-26.70465765391411
 21
1.776807996517604
 72
     1
 10
-26.70465765391411
 20
1.776807996517604
 11
-26.65659857189488
 21
0.0239434136224863
 72
     1
 10
-26.65659857189488
 20
0.0239434136224864
 11
-27.01678330487775
 21
0.0239434136224864
 72
     1
 10
-27.01678330487775
 20
0.0239434136224864
 11
-31.6030666696166
 21
2.497177462483345
 72
     1
 10
-31.6030666696166
 20
2.497177462483345
 11
-31.48300509195564
 21
10.01282551833013
 72
     1
 10
-31.48300509195564
 20
10.01282551833013
 11
-4.253314886089449
 21
10.0607123455751
 72
     1
 10
-4.253314886089449
 20
10.0607123455751
 11
-4.229543727241225
 21
10.85325656195683
 72
     1
 10
-4.229543727241225
 20
10.85325656195683
 11
-31.5548353328231
 21
10.92543131237281
 97
        0
 75
     0
 76
     1
 98
        0
  0
POLYLINE
  5
52
330
1F
100
AcDbEntity
  8
STANDARDEBENE
 62
     7
100
AcDb2dPolyline
 66
     1
 10
0.0
 20
0.0
 30
0.0
  0
VERTEX
  5
53
330
52
100
AcDbEntity
  8
STANDARDEBENE
 62
     7
100
AcDbVertex
100
AcDb2dVertex
 10
-0.0458197699538228
 20
16.9677842839525
 30
0.0
  0
VERTEX
  5
54
330
52
100
AcDbEntity
  8
STANDARDEBENE
 62
     7
100
AcDbVertex
100
AcDb2dVertex
 10
-0.5377794052474996
 20
16.9677842839525
 30
0.0
  0
SEQEND
  5
55
330
52
100
AcDbEntity
  8
STANDARDEBENE
  0
POLYLINE
  5
56
330
1F
100
AcDbEntity
  8
STANDARDEBENE
 62
     7
100
AcDb2dPolyline
 66
     1
 10
0.0
 20
0.0
 30
0.0
  0
VERTEX
  5
57
330
56
100
AcDbEntity
  8
STANDARDEBENE
 62
     7
100
AcDbVertex
100
AcDb2dVertex
 10
-1.522043185383378
 20
16.9677842839525
 30
0.0
  0
VERTEX
  5
58
330
56
100
AcDbEntity
  8
STANDARDEBENE
 62
     7
100
AcDbVertex
100
AcDb2dVertex
 10
-2.506651475067782
 20
16.9677842839525
 30
0.0
  0
SEQEND
  5
59
330
56
100
AcDbEntity
  8
STANDARDEBENE
  0
POLYLINE
  5
5A
330
1F
100
AcDbEntity
  8
STANDARDEBENE
 62
     7
100
AcDb2dPolyline
 66
     1
 10
0.0
 20
0.0
 30
0.0
  0
VERTEX
  5
5B
330
5A
100
AcDbEntity
  8
STANDARDEBENE
 62
     7
100
AcDbVertex
100
AcDb2dVertex
 10
-3.490570745655135
 20
16.9677842839525
 30
0.0
  0
VERTEX
  5
5C
330
5A
100
AcDbEntity
  8
STANDARDEBENE
 62
     7
100
AcDbVertex
100
AcDb2dVertex
 10
-4.475179035339539
 20
16.9677842839525
 30
0.0
  0
SEQEND
  5
5D
330
5A
100
AcDbEntity
  8
STANDARDEBENE
  0
POLYLINE
  5
5E
330
1F
100
AcDbEntity
  8
STANDARDEBENE
 62
     7
100
AcDb2dPolyline
 66
     1
 10
0.0
 20
0.0
 30
0.0
  0
VERTEX
  5
5F
330
5E
100
AcDbEntity
  8
STANDARDEBENE
 62
     7
100
AcDbVertex
100
AcDb2dVertex
 10
-5.459787325023942
 20
16.9677842839525
 30
0.0
  0
VERTEX
  5
60
330
5E
100
AcDbEntity
  8
STANDARDEBENE
 62
     7
100
AcDbVertex
100
AcDb2dVertex
 10
-6.444051105159821
 20
16.9677842839525
 30
0.0
  0
SEQEND
  5
61
330
5E
100
AcDbEntity
  8
STANDARDEBENE
  0
POLYLINE
  5
62
330
1F
100
AcDbEntity
  8
STANDARDEBENE
 62
     7
100
AcDb2dPolyline
 66
     1
 10
0.0
 20
0.0
 30
0.0
  0
VERTEX
  5
63
330
62
100
AcDbEntity
  8
STANDARDEBENE
 62
     7
100
AcDbVertex
100
AcDb2dVertex
 10
-7.428659394844225
 20
16.9677842839525
 30
0.0
  0
VERTEX
  5
64
330
62
100
AcDbEntity
  8
STANDARDEBENE
 62
     7
100
AcDbVertex
100
AcDb2dVertex
 10
-8.412578665431578
 20
16.9677842839525
 30
0.0
  0
SEQEND
  5
65
330
62
100
AcDbEntity
  8
STANDARDEBENE
  0
POLYLINE
  5
66
330
1F
100
AcDbEntity
  8
STANDARDEBENE
 62
     7
100
AcDb2dPolyline
 66
     1
 10
0.0
 20
0.0
 30
0.0
  0
VERTEX
  5
67
330
66
100
AcDbEntity
  8
STANDARDEBENE
 62
     7
100
AcDbVertex
100
AcDb2dVertex
 10
-9.397186955115982
 20
16.9677842839525
 30
0.0
  0
VERTEX
  5
68
330
66
100
AcDbEntity
  8
STANDARDEBENE
 62
     7
100
AcDbVertex
100
AcDb2dVertex
 10
-10.38110622570333
 20
16.9677842839525
 30
0.0
  0
SEQEND
  5
69
330
66
100
AcDbEntity
  8
STANDARDEBENE
  0
POLYLINE
  5
6A
330
1F
100
AcDbEntity
  8
STANDARDEBENE
 62
     7
100
AcDb2dPolyline
 66
     1
 10
0.0
 20
0.0
 30
0.0
  0
VERTEX
  5
6B
330
6A
100
AcDbEntity
  8
STANDARDEBENE
 62
     7
100
AcDbVertex
100
AcDb2dVertex
 10
-11.36605902493626
 20
16.9677842839525
 30
0.0
  0
VERTEX
  5
6C
330
6A
100
AcDbEntity
  8
STANDARDEBENE
 62
     7
100
AcDbVertex
100
AcDb2dVertex
 10
-12.35066731462067
 20
16.9677842839525
 30
0.0
  0
SEQEND
  5
6D
330
6A
100
AcDbEntity
  8
STANDARDEBENE
  0
POLYLINE
  5
6E
330
1F
100
AcDbEntity
  8
STANDARDEBENE
 62
     7
100
AcDb2dPolyline
 66
     1
 10
0.0
 20
0.0
 30
0.0
  0
VERTEX
  5
6F
330
6E
100
AcDbEntity
  8
STANDARDEBENE
 62
     7
100
AcDbVertex
100
AcDb2dVertex
 10
-13.3342420756595
 20
16.9677842839525
 30
0.0
  0
VERTEX
  5
70
330
6E
100
AcDbEntity
  8
STANDARDEBENE
 62
     7
100
AcDbVertex
100
AcDb2dVertex
 10
-14.31902262011816
 20
16.9677842839525
 30
0.0
  0
SEQEND
  5
71
330
6E
100
AcDbEntity
  8
STANDARDEBENE
  0
POLYLINE
  5
72
330
1F
100
AcDbEntity
  8
STANDARDEBENE
 62
     7
100
AcDb2dPolyline
 66
     1
 10
0.0
 20
0.0
 30
0.0
  0
VERTEX
  5
73
330
72
100
AcDbEntity
  8
STANDARDEBENE
 62
     7
100
AcDbVertex
100
AcDb2dVertex
 10
-15.30328640025404
 20
16.9677842839525
 30
0.0
  0
VERTEX
  5
74
330
72
100
AcDbEntity
  8
STANDARDEBENE
 62
     7
100
AcDbVertex
100
AcDb2dVertex
 10
-16.28789468993844
 20
16.9677842839525
 30
0.0
  0
SEQEND
  5
75
330
72
100
AcDbEntity
  8
STANDARDEBENE
  0
POLYLINE
  5
76
330
1F
100
AcDbEntity
  8
STANDARDEBENE
 62
     7
100
AcDb2dPolyline
 66
     1
 10
0.0
 20
0.0
 30
0.0
  0
VERTEX
  5
77
330
76
100
AcDbEntity
  8
STANDARDEBENE
 62
     7
100
AcDbVertex
100
AcDb2dVertex
 10
-17.2718139605258
 20
16.9677842839525
 30
0.0
  0
VERTEX
  5
78
330
76
100
AcDbEntity
  8
STANDARDEBENE
 62
     7
100
AcDbVertex
100
AcDb2dVertex
 10
-18.2564222502102
 20
16.9677842839525
 30
0.0
  0
SEQEND
  5
79
330
76
100
AcDbEntity
  8
STANDARDEBENE
  0
POLYLINE
  5
7A
330
1F
100
AcDbEntity
  8
STANDARDEBENE
 62
     7
100
AcDb2dPolyline
 66
     1
 10
0.0
 20
0.0
 30
0.0
  0
VERTEX
  5
7B
330
7A
100
AcDbEntity
  8
STANDARDEBENE
 62
     7
100
AcDbVertex
100
AcDb2dVertex
 10
-19.24068603034608
 20
16.9677842839525
 30
0.0
  0
VERTEX
  5
7C
330
7A
100
AcDbEntity
  8
STANDARDEBENE
 62
     7
100
AcDbVertex
100
AcDb2dVertex
 10
-20.22529432003048
 20
16.9677842839525
 30
0.0
  0
SEQEND
  5
7D
330
7A
100
AcDbEntity
  8
STANDARDEBENE
  0
POLYLINE
  5
7E
330
1F
100
AcDbEntity
  8
STANDARDEBENE
 62
     7
100
AcDb2dPolyline
 66
     1
 10
0.0
 20
0.0
 30
0.0
  0
VERTEX
  5
7F
330
7E
100
AcDbEntity
  8
STANDARDEBENE
 62
     7
100
AcDbVertex
100
AcDb2dVertex
 10
-21.20990260971489
 20
16.9677842839525
 30
0.0
  0
VERTEX
  5
80
330
7E
100
AcDbEntity
  8
STANDARDEBENE
 62
     7
100
AcDbVertex
100
AcDb2dVertex
 10
-22.19382188030224
 20
16.9677842839525
 30
0.0
  0
SEQEND
  5
81
330
7E
100
AcDbEntity
  8
STANDARDEBENE
  0
POLYLINE
  5
82
330
1F
100
AcDbEntity
  8
STANDARDEBENE
 62
     7
100
AcDb2dPolyline
 66
     1
 10
0.0
 20
0.0
 30
0.0
  0
VERTEX
  5
83
330
82
100
AcDbEntity
  8
STANDARDEBENE
 62
     7
100
AcDbVertex
100
AcDb2dVertex
 10
-23.17843016998664
 20
16.9677842839525
 30
0.0
  0
VERTEX
  5
84
330
82
100
AcDbEntity
  8
STANDARDEBENE
 62
     7
100
AcDbVertex
100
AcDb2dVertex
 10
-24.16269395012252
 20
16.9677842839525
 30
0.0
  0
SEQEND
  5
85
330
82
100
AcDbEntity
  8
STANDARDEBENE
  0
POLYLINE
  5
86
330
1F
100
AcDbEntity
  8
STANDARDEBENE
 62
     7
100
AcDb2dPolyline
 66
     1
 10
0.0
 20
0.0
 30
0.0
  0
VERTEX
  5
87
330
86
100
AcDbEntity
  8
STANDARDEBENE
 62
     7
100
AcDbVertex
100
AcDb2dVertex
 10
-25.14678547548414
 20
16.9677842839525
 30
0.0
  0
VERTEX
  5
88
330
86
100
AcDbEntity
  8
STANDARDEBENE
 62
     7
100
AcDbVertex
100
AcDb2dVertex
 10
-26.13139376516854
 20
16.9677842839525
 30
0.0
  0
SEQEND
  5
89
330
86
100
AcDbEntity
  8
STANDARDEBENE
  0
POLYLINE
  5
8A
330
1F
100
AcDbEntity
  8
STANDARDEBENE
 62
     7
100
AcDb2dPolyline
 66
     1
 10
0.0
 20
0.0
 30
0.0
  0
VERTEX
  5
8B
330
8A
100
AcDbEntity
  8
STANDARDEBENE
 62
     7
100
AcDbVertex
100
AcDb2dVertex
 10
-27.11600205485295
 20
16.9677842839525
 30
0.0
  0
VERTEX
  5
8C
330
8A
100
AcDbEntity
  8
STANDARDEBENE
 62
     7
100
AcDbVertex
100
AcDb2dVertex
 10
-28.0999213254403
 20
16.9677842839525
 30
0.0
  0
SEQEND
  5
8D
330
8A
100
AcDbEntity
  8
STANDARDEBENE
  0
POLYLINE
  5
8E
330
1F
100
AcDbEntity
  8
STANDARDEBENE
 62
     7
100
AcDb2dPolyline
 66
     1
 10
0.0
 20
0.0
 30
0.0
  0
VERTEX
  5
8F
330
8E
100
AcDbEntity
  8
STANDARDEBENE
 62
     7
100
AcDbVertex
100
AcDb2dVertex
 10
-29.0845296151247
 20
16.9677842839525
 30
0.0
  0
VERTEX
  5
90
330
8E
100
AcDbEntity
  8
STANDARDEBENE
 62
     7
100
AcDbVertex
100
AcDb2dVertex
 10
-30.06879339526058
 20
16.9677842839525
 30
0.0
  0
SEQEND
  5
91
330
8E
100
AcDbEntity
  8
STANDARDEBENE
  0
POLYLINE
  5
92
330
1F
100
AcDbEntity
  8
STANDARDEBENE
 62
     7
100
AcDb2dPolyline
 66
     1
 10
0.0
 20
0.0
 30
0.0
  0
VERTEX
  5
93
330
92
100
AcDbEntity
  8
STANDARDEBENE
 62
     7
100
AcDbVertex
100
AcDb2dVertex
 10
-31.05340168494498
 20
16.9677842839525
 30
0.0
  0
VERTEX
  5
94
330
92
100
AcDbEntity
  8
STANDARDEBENE
 62
     7
100
AcDbVertex
100
AcDb2dVertex
 10
-31.5451890654644
 20
16.9677842839525
 30
0.0
  0
SEQEND
  5
95
330
92
100
AcDbEntity
  8
STANDARDEBENE
  0
POLYLINE
  5
96
330
1F
100
AcDbEntity
  8
STANDARDEBENE
 62
     7
100
AcDb2dPolyline
 66
     1
 10
0.0
 20
0.0
 30
0.0
  0
VERTEX
  5
97
330
96
100
AcDbEntity
  8
STANDARDEBENE
 62
     7
100
AcDbVertex
100
AcDb2dVertex
 10
-0.0458197699538228
 20
3.9678887251365
 30
0.0
  0
VERTEX
  5
98
330
96
100
AcDbEntity
  8
STANDARDEBENE
 62
     7
100
AcDbVertex
100
AcDb2dVertex
 10
-0.5377794052474996
 20
3.9678887251365
 30
0.0
  0
SEQEND
  5
99
330
96
100
AcDbEntity
  8
STANDARDEBENE
  0
POLYLINE
  5
9A
330
1F
100
AcDbEntity
  8
STANDARDEBENE
 62
     7
100
AcDb2dPolyline
 66
     1
 10
0.0
 20
0.0
 30
0.0
  0
VERTEX
  5
9B
330
9A
100
AcDbEntity
  8
STANDARDEBENE
 62
     7
100
AcDbVertex
100
AcDb2dVertex
 10
-1.522043185383378
 20
3.9678887251365
 30
0.0
  0
VERTEX
  5
9C
330
9A
100
AcDbEntity
  8
STANDARDEBENE
 62
     7
100
AcDbVertex
100
AcDb2dVertex
 10
-2.506651475067782
 20
3.9678887251365
 30
0.0
  0
SEQEND
  5
9D
330
9A
100
AcDbEntity
  8
STANDARDEBENE
  0
POLYLINE
  5
9E
330
1F
100
AcDbEntity
  8
STANDARDEBENE
 62
     7
100
AcDb2dPolyline
 66
     1
 10
0.0
 20
0.0
 30
0.0
  0
VERTEX
  5
9F
330
9E
100
AcDbEntity
  8
STANDARDEBENE
 62
     7
100
AcDbVertex
100
AcDb2dVertex
 10
-3.490570745655135
 20
3.9678887251365
 30
0.0
  0
VERTEX
  5
A0
330
9E
100
AcDbEntity
  8
STANDARDEBENE
 62
     7
100
AcDbVertex
100
AcDb2dVertex
 10
-4.475179035339539
 20
3.9678887251365
 30
0.0
  0
SEQEND
  5
A1
330
9E
100
AcDbEntity
  8
STANDARDEBENE
  0
POLYLINE
  5
A2
330
1F
100
AcDbEntity
  8
STANDARDEBENE
 62
     7
100
AcDb2dPolyline
 66
     1
 10
0.0
 20
0.0
 30
0.0
  0
VERTEX
  5
A3
330
A2
100
AcDbEntity
  8
STANDARDEBENE
 62
     7
100
AcDbVertex
100
AcDb2dVertex
 10
-5.459787325023942
 20
3.9678887251365
 30
0.0
  0
VERTEX
  5
A4
330
A2
100
AcDbEntity
  8
STANDARDEBENE
 62
     7
100
AcDbVertex
100
AcDb2dVertex
 10
-6.444051105159821
 20
3.9678887251365
 30
0.0
  0
SEQEND
  5
A5
330
A2
100
AcDbEntity
  8
STANDARDEBENE
  0
POLYLINE
  5
A6
330
1F
100
AcDbEntity
  8
STANDARDEBENE
 62
     7
100
AcDb2dPolyline
 66
     1
 10
0.0
 20
0.0
 30
0.0
  0
VERTEX
  5
A7
330
A6
100
AcDbEntity
  8
STANDARDEBENE
 62
     7
100
AcDbVertex
100
AcDb2dVertex
 10
-7.428659394844225
 20
3.9678887251365
 30
0.0
  0
VERTEX
  5
A8
330
A6
100
AcDbEntity
  8
STANDARDEBENE
 62
     7
100
AcDbVertex
100
AcDb2dVertex
 10
-8.412578665431578
 20
3.9678887251365
 30
0.0
  0
SEQEND
  5
A9
330
A6
100
AcDbEntity
  8
STANDARDEBENE
  0
POLYLINE
  5
AA
330
1F
100
AcDbEntity
  8
STANDARDEBENE
 62
     7
100
AcDb2dPolyline
 66
     1
 10
0.0
 20
0.0
 30
0.0
  0
VERTEX
  5
AB
330
AA
100
AcDbEntity
  8
STANDARDEBENE
 62
     7
100
AcDbVertex
100
AcDb2dVertex
 10
-9.397186955115982
 20
3.9678887251365
 30
0.0
  0
VERTEX
  5
AC
330
AA
100
AcDbEntity
  8
STANDARDEBENE
 62
     7
100
AcDbVertex
100
AcDb2dVertex
 10
-10.38110622570333
 20
3.9678887251365
 30
0.0
  0
SEQEND
  5
AD
330
AA
100
AcDbEntity
  8
STANDARDEBENE
  0
POLYLINE
  5
AE
330
1F
100
AcDbEntity
  8
STANDARDEBENE
 62
     7
100
AcDb2dPolyline
 66
     1
 10
0.0
 20
0.0
 30
0.0
  0
VERTEX
  5
AF
330
AE
100
AcDbEntity
  8
STANDARDEBENE
 62
     7
100
AcDbVertex
100
AcDb2dVertex
 10
-11.36605902493626
 20
3.9678887251365
 30
0.0
  0
VERTEX
  5
B0
330
AE
100
AcDbEntity
  8
STANDARDEBENE
 62
     7
100
AcDbVertex
100
AcDb2dVertex
 10
-12.35066731462067
 20
3.9678887251365
 30
0.0
  0
SEQEND
  5
B1
330
AE
100
AcDbEntity
  8
STANDARDEBENE
  0
POLYLINE
  5
B2
330
1F
100
AcDbEntity
  8
STANDARDEBENE
 62
     7
100
AcDb2dPolyline
 66
     1
 10
0.0
 20
0.0
 30
0.0
  0
VERTEX
  5
B3
330
B2
100
AcDbEntity
  8
STANDARDEBENE
 62
     7
100
AcDbVertex
100
AcDb2dVertex
 10
-13.3342420756595
 20
3.9678887251365
 30
0.0
  0
VERTEX
  5
B4
330
B2
100
AcDbEntity
  8
STANDARDEBENE
 62
     7
100
AcDbVertex
100
AcDb2dVertex
 10
-14.31902262011816
 20
3.9678887251365
 30
0.0
  0
SEQEND
  5
B5
330
B2
100
AcDbEntity
  8
STANDARDEBENE
  0
POLYLINE
  5
B6
330
1F
100
AcDbEntity
  8
STANDARDEBENE
 62
     7
100
AcDb2dPolyline
 66
     1
 10
0.0
 20
0.0
 30
0.0
  0
VERTEX
  5
B7
330
B6
100
AcDbEntity
  8
STANDARDEBENE
 62
     7
100
AcDbVertex
100
AcDb2dVertex
 10
-15.30328640025404
 20
3.9678887251365
 30
0.0
  0
VERTEX
  5
B8
330
B6
100
AcDbEntity
  8
STANDARDEBENE
 62
     7
100
AcDbVertex
100
AcDb2dVertex
 10
-16.28789468993844
 20
3.9678887251365
 30
0.0
  0
SEQEND
  5
B9
330
B6
100
AcDbEntity
  8
STANDARDEBENE
  0
POLYLINE
  5
BA
330
1F
100
AcDbEntity
  8
STANDARDEBENE
 62
     7
100
AcDb2dPolyline
 66
     1
 10
0.0
 20
0.0
 30
0.0
  0
VERTEX
  5
BB
330
BA
100
AcDbEntity
  8
STANDARDEBENE
 62
     7
100
AcDbVertex
100
AcDb2dVertex
 10
-17.2718139605258
 20
3.9678887251365
 30
0.0
  0
VERTEX
  5
BC
330
BA
100
AcDbEntity
  8
STANDARDEBENE
 62
     7
100
AcDbVertex
100
AcDb2dVertex
 10
-18.2564222502102
 20
3.9678887251365
 30
0.0
  0
SEQEND
  5
BD
330
BA
100
AcDbEntity
  8
STANDARDEBENE
  0
POLYLINE
  5
BE
330
1F
100
AcDbEntity
  8
STANDARDEBENE
 62
     7
100
AcDb2dPolyline
 66
     1
 10
0.0
 20
0.0
 30
0.0
  0
VERTEX
  5
BF
330
BE
100
AcDbEntity
  8
STANDARDEBENE
 62
     7
100
AcDbVertex
100
AcDb2dVertex
 10
-19.24068603034608
 20
3.9678887251365
 30
0.0
  0
VERTEX
  5
C0
330
BE
100
AcDbEntity
  8
STANDARDEBENE
 62
     7
100
AcDbVertex
100
AcDb2dVertex
 10
-20.22529432003048
 20
3.9678887251365
 30
0.0
  0
SEQEND
  5
C1
330
BE
100
AcDbEntity
  8
STANDARDEBENE
  0
POLYLINE
  5
C2
330
1F
100
AcDbEntity
  8
STANDARDEBENE
 62
     7
100
AcDb2dPolyline
 66
     1
 10
0.0
 20
0.0
 30
0.0
  0
VERTEX
  5
C3
330
C2
100
AcDbEntity
  8
STANDARDEBENE
 62
     7
100
AcDbVertex
100
AcDb2dVertex
 10
-21.20990260971489
 20
3.9678887251365
 30
0.0
  0
VERTEX
  5
C4
330
C2
100
AcDbEntity
  8
STANDARDEBENE
 62
     7
100
AcDbVertex
100
AcDb2dVertex
 10
-22.19382188030224
 20
3.9678887251365
 30
0.0
  0
SEQEND
  5
C5
330
C2
100
AcDbEntity
  8
STANDARDEBENE
  0
POLYLINE
  5
C6
330
1F
100
AcDbEntity
  8
STANDARDEBENE
 62
     7
100
AcDb2dPolyline
 66
     1
 10
0.0
 20
0.0
 30
0.0
  0
VERTEX
  5
C7
330
C6
100
AcDbEntity
  8
STANDARDEBENE
 62
     7
100
AcDbVertex
100
AcDb2dVertex
 10
-23.17843016998664
 20
3.9678887251365
 30
0.0
  0
VERTEX
  5
C8
330
C6
100
AcDbEntity
  8
STANDARDEBENE
 62
     7
100
AcDbVertex
100
AcDb2dVertex
 10
-24.16269395012252
 20
3.9678887251365
 30
0.0
  0
SEQEND
  5
C9
330
C6
100
AcDbEntity
  8
STANDARDEBENE
  0
POLYLINE
  5
CA
330
1F
100
AcDbEntity
  8
STANDARDEBENE
 62
     7
100
AcDb2dPolyline
 66
     1
 10
0.0
 20
0.0
 30
0.0
  0
VERTEX
  5
CB
330
CA
100
AcDbEntity
  8
STANDARDEBENE
 62
     7
100
AcDbVertex
100
AcDb2dVertex
 10
-25.14678547548414
 20
3.9678887251365
 30
0.0
  0
VERTEX
  5
CC
330
CA
100
AcDbEntity
  8
STANDARDEBENE
 62
     7
100
AcDbVertex
100
AcDb2dVertex
 10
-26.13139376516854
 20
3.9678887251365
 30
0.0
  0
SEQEND
  5
CD
330
CA
100
AcDbEntity
  8
STANDARDEBENE
  0
POLYLINE
  5
CE
330
1F
100
AcDbEntity
  8
STANDARDEBENE
 62
     7
100
AcDb2dPolyline
 66
     1
 10
0.0
 20
0.0
 30
0.0
  0
VERTEX
  5
CF
330
CE
100
AcDbEntity
  8
STANDARDEBENE
 62
     7
100
AcDbVertex
100
AcDb2dVertex
 10
-27.11600205485295
 20
3.9678887251365
 30
0.0
  0
VERTEX
  5
D0
330
CE
100
AcDbEntity
  8
STANDARDEBENE
 62
     7
100
AcDbVertex
100
AcDb2dVertex
 10
-28.0999213254403
 20
3.9678887251365
 30
0.0
  0
SEQEND
  5
D1
330
CE
100
AcDbEntity
  8
STANDARDEBENE
  0
POLYLINE
  5
D2
330
1F
100
AcDbEntity
  8
STANDARDEBENE
 62
     7
100
AcDb2dPolyline
 66
     1
 10
0.0
 20
0.0
 30
0.0
  0
VERTEX
  5
D3
330
D2
100
AcDbEntity
  8
STANDARDEBENE
 62
     7
100
AcDbVertex
100
AcDb2dVertex
 10
-29.0845296151247
 20
3.9678887251365
 30
0.0
  0
VERTEX
  5
D4
330
D2
100
AcDbEntity
  8
STANDARDEBENE
 62
     7
100
AcDbVertex
100
AcDb2dVertex
 10
-30.06879339526058
 20
3.9678887251365
 30
0.0
  0
SEQEND
  5
D5
330
D2
100
AcDbEntity
  8
STANDARDEBENE
  0
POLYLINE
  5
D6
330
1F
100
AcDbEntity
  8
STANDARDEBENE
 62
     7
100
AcDb2dPolyline
 66
     1
 10
0.0
 20
0.0
 30
0.0
  0
VERTEX
  5
D7
330
D6
100
AcDbEntity
  8
STANDARDEBENE
 62
     7
100
AcDbVertex
100
AcDb2dVertex
 10
-31.05340168494498
 20
3.9678887251365
 30
0.0
  0
VERTEX
  5
D8
330
D6
100
AcDbEntity
  8
STANDARDEBENE
 62
     7
100
AcDbVertex
100
AcDb2dVertex
 10
-31.5451890654644
 20
3.9678887251365
 30
0.0
  0
SEQEND
  5
D9
330
D6
100
AcDbEntity
  8
STANDARDEBENE
  0
POLYLINE
  5
DA
330
1F
100
AcDbEntity
  8
STANDARDEBENE
 62
     7
100
AcDb2dPolyline
 66
     1
 10
0.0
 20
0.0
 30
0.0
  0
VERTEX
  5
DB
330
DA
100
AcDbEntity
  8
STANDARDEBENE
 62
     7
100
AcDbVertex
100
AcDb2dVertex
 10
-0.0458197699538228
 20
17.59358587884813
 30
0.0
  0
VERTEX
  5
DC
330
DA
100
AcDbEntity
  8
STANDARDEBENE
 62
     7
100
AcDbVertex
100
AcDb2dVertex
 10
-23.94565293455178
 20
20.95737711064607
 30
0.0
  0
SEQEND
  5
DD
330
DA
100
AcDbEntity
  8
STANDARDEBENE
  0
POLYLINE
  5
DE
330
1F
100
AcDbEntity
  8
STANDARDEBENE
 62
     7
100
AcDb2dPolyline
 66
     1
 10
0.0
 20
0.0
 30
0.0
  0
VERTEX
  5
DF
330
DE
100
AcDbEntity
  8
STANDARDEBENE
 62
     7
100
AcDbVertex
100
AcDb2dVertex
 10
-0.0458197699538228
 20
3.34225938501513
 30
0.0
  0
VERTEX
  5
E0
330
DE
100
AcDbEntity
  8
STANDARDEBENE
 62
     7
100
AcDbVertex
100
AcDb2dVertex
 10
-23.94565293455178
 20
-0.0215318467828115
 30
0.0
  0
SEQEND
  5
E1
330
DE
100
AcDbEntity
  8
STANDARDEBENE
  0
POLYLINE
  5
E2
330
1F
100
AcDbEntity
  8
STANDARDEBENE
  6
AI-LINETYPE-1
 62
     7
100
AcDb2dPolyline
 66
     1
 10
0.0
 20
0.0
 30
0.0
  0
VERTEX
  5
E3
330
E2
100
AcDbEntity
  8
STANDARDEBENE
  6
AI-LINETYPE-1
 62
     7
100
AcDbVertex
100
AcDb2dVertex
 10
0.9394775388276306
 20
10.46826714148016
 30
0.0
  0
VERTEX
  5
E4
330
E2
100
AcDbEntity
  8
STANDARDEBENE
  6
AI-LINETYPE-1
 62
     7
100
AcDbVertex
100
AcDb2dVertex
 10
-32.63504502222318
 20
10.46826714148016
 30
0.0
  0
SEQEND
  5
E5
330
E2
100
AcDbEntity
  8
STANDARDEBENE
  6
AI-LINETYPE-1
  0
POLYLINE
  5
E7
330
1F
100
AcDbEntity
  8
STANDARDEBENE
 62
     7
100
AcDb2dPolyline
 66
     1
 10
0.0
 20
0.0
 30
0.0
  0
VERTEX
  5
E8
330
E7
100
AcDbEntity
  8
STANDARDEBENE
 62
     7
100
AcDbVertex
100
AcDb2dVertex
 10
-23.94565293455178
 20
20.95737711064607
 30
0.0
  0
VERTEX
  5
E9
330
E7
100
AcDbEntity
  8
STANDARDEBENE
 62
     7
100
AcDbVertex
100
AcDb2dVertex
 10
-16.39297010223856
 20
19.89525417254355
 30
0.0
  0
VERTEX
  5
EA
330
E7
100
AcDbEntity
  8
STANDARDEBENE
 62
     7
100
AcDbVertex
100
AcDb2dVertex
 10
-3.206350368122024
 20
18.03851996076815
 30
0.0
  0
VERTEX
  5
EB
330
E7
100
AcDbEntity
  8
STANDARDEBENE
 62
     7
100
AcDbVertex
100
AcDb2dVertex
 10
-0.0458197699538228
 20
17.59358587884813
 30
0.0
  0
SEQEND
  5
EC
330
E7
100
AcDbEntity
  8
STANDARDEBENE
  0
POLYLINE
  5
ED
330
1F
100
AcDbEntity
  8
STANDARDEBENE
 62
     7
100
AcDb2dPolyline
 66
     1
 10
0.0
 20
0.0
 30
0.0
  0
VERTEX
  5
EE
330
ED
100
AcDbEntity
  8
STANDARDEBENE
 62
     7
100
AcDbVertex
100
AcDb2dVertex
 10
-23.94565293455178
 20
20.95737711064607
 30
0.0
  0
VERTEX
  5
EF
330
ED
100
AcDbEntity
  8
STANDARDEBENE
 62
     7
100
AcDbVertex
100
AcDb2dVertex
 10
-23.94565293455178
 20
20.78029920270423
 30
0.0
  0
VERTEX
  5
F0
330
ED
100
AcDbEntity
  8
STANDARDEBENE
 62
     7
100
AcDbVertex
100
AcDb2dVertex
 10
-23.94565293455178
 20
20.38704155306296
 30
0.0
  0
VERTEX
  5
F1
330
ED
100
AcDbEntity
  8
STANDARDEBENE
 62
     7
100
AcDbVertex
100
AcDb2dVertex
 10
-23.94565293455178
 20
19.78535562656408
 30
0.0
  0
SEQEND
  5
F2
330
ED
100
AcDbEntity
  8
STANDARDEBENE
  0
POLYLINE
  5
F3
330
1F
100
AcDbEntity
  8
STANDARDEBENE
 62
     7
100
AcDb2dPolyline
 66
     1
 10
0.0
 20
0.0
 30
0.0
  0
VERTEX
  5
F4
330
F3
100
AcDbEntity
  8
STANDARDEBENE
 62
     7
100
AcDbVertex
100
AcDb2dVertex
 10
-4.2457356760219
 20
17.38481309244199
 30
0.0
  0
VERTEX
  5
F5
330
F3
100
AcDbEntity
  8
STANDARDEBENE
 62
     7
100
AcDbVertex
100
AcDb2dVertex
 10
-17.68625894740135
 20
19.02312825045255
 30
0.0
  0
VERTEX
  5
F6
330
F3
100
AcDbEntity
  8
STANDARDEBENE
 62
     7
100
AcDbVertex
100
AcDb2dVertex
 10
-23.94565293455178
 20
19.78535562656408
 30
0.0
  0
SEQEND
  5
F7
330
F3
100
AcDbEntity
  8
STANDARDEBENE
  0
POLYLINE
  5
F8
330
1F
100
AcDbEntity
  8
STANDARDEBENE
 62
     7
100
AcDb2dPolyline
 66
     1
 10
0.0
 20
0.0
 30
0.0
  0
VERTEX
  5
F9
330
F8
100
AcDbEntity
  8
STANDARDEBENE
 62
     7
100
AcDbVertex
100
AcDb2dVertex
 10
-4.2457356760219
 20
16.9181749089649
 30
0.0
  0
VERTEX
  5
FA
330
F8
100
AcDbEntity
  8
STANDARDEBENE
 62
     7
100
AcDbVertex
100
AcDb2dVertex
 10
-4.2457356760219
 20
17.16312119796617
 30
0.0
  0
VERTEX
  5
FB
330
F8
100
AcDbEntity
  8
STANDARDEBENE
 62
     7
100
AcDbVertex
100
AcDb2dVertex
 10
-4.2457356760219
 20
17.38481309244199
 30
0.0
  0
SEQEND
  5
FC
330
F8
100
AcDbEntity
  8
STANDARDEBENE
  0
POLYLINE
  5
FD
330
1F
100
AcDbEntity
  8
STANDARDEBENE
 62
     7
100
AcDb2dPolyline
 66
     1
 10
0.0
 20
0.0
 30
0.0
  0
VERTEX
  5
FE
330
FD
100
AcDbEntity
  8
STANDARDEBENE
 62
     7
100
AcDbVertex
100
AcDb2dVertex
 10
-23.94565293455178
 20
19.31871744308699
 30
0.0
  0
VERTEX
  5
FF
330
FD
100
AcDbEntity
  8
STANDARDEBENE
 62
     7
100
AcDbVertex
100
AcDb2dVertex
 10
-4.2457356760219
 20
16.9181749089649
 30
0.0
  0
SEQEND
  5
100
330
FD
100
AcDbEntity
  8
STANDARDEBENE
  0
POLYLINE
  5
101
330
1F
100
AcDbEntity
  8
STANDARDEBENE
 62
     7
100
AcDb2dPolyline
 66
     1
 10
0.0
 20
0.0
 30
0.0
  0
VERTEX
  5
102
330
101
100
AcDbEntity
  8
STANDARDEBENE
 62
     7
100
AcDbVertex
100
AcDb2dVertex
 10
-23.94565293455178
 20
19.31871744308699
 30
0.0
  0
VERTEX
  5
103
330
101
100
AcDbEntity
  8
STANDARDEBENE
 62
     7
100
AcDbVertex
100
AcDb2dVertex
 10
-23.94565293455178
 20
18.41059027317513
 30
0.0
  0
VERTEX
  5
104
330
101
100
AcDbEntity
  8
STANDARDEBENE
 62
     7
100
AcDbVertex
100
AcDb2dVertex
 10
-23.94565293455178
 20
17.33589273655144
 30
0.0
  0
VERTEX
  5
105
330
101
100
AcDbEntity
  8
STANDARDEBENE
 62
     7
100
AcDbVertex
100
AcDb2dVertex
 10
-23.94565293455178
 20
16.11701795387005
 30
0.0
  0
SEQEND
  5
106
330
101
100
AcDbEntity
  8
STANDARDEBENE
  0
POLYLINE
  5
107
330
1F
100
AcDbEntity
  8
STANDARDEBENE
 62
     7
100
AcDb2dPolyline
 66
     1
 10
0.0
 20
0.0
 30
0.0
  0
VERTEX
  5
108
330
107
100
AcDbEntity
  8
STANDARDEBENE
 62
     7
100
AcDbVertex
100
AcDb2dVertex
 10
-0.0458197699538228
 20
14.43512233797108
 30
0.0
  0
VERTEX
  5
109
330
107
100
AcDbEntity
  8
STANDARDEBENE
 62
     7
100
AcDbVertex
100
AcDb2dVertex
 10
-12.45987684150309
 20
15.30914306257896
 30
0.0
  0
VERTEX
  5
10A
330
107
100
AcDbEntity
  8
STANDARDEBENE
 62
     7
100
AcDbVertex
100
AcDb2dVertex
 10
-23.94565293455178
 20
16.11701795387005
 30
0.0
  0
SEQEND
  5
10B
330
107
100
AcDbEntity
  8
STANDARDEBENE
  0
POLYLINE
  5
10C
330
1F
100
AcDbEntity
  8
STANDARDEBENE
 62
     7
100
AcDb2dPolyline
 66
     1
 10
0.0
 20
0.0
 30
0.0
  0
VERTEX
  5
10D
330
10C
100
AcDbEntity
  8
STANDARDEBENE
 62
     7
100
AcDbVertex
100
AcDb2dVertex
 10
-0.0458197699538228
 20
14.43512233797108
 30
0.0
  0
VERTEX
  5
10E
330
10C
100
AcDbEntity
  8
STANDARDEBENE
 62
     7
100
AcDbVertex
100
AcDb2dVertex
 10
-0.0458197699538228
 20
15.45073648702273
 30
0.0
  0
VERTEX
  5
10F
330
10C
100
AcDbEntity
  8
STANDARDEBENE
 62
     7
100
AcDbVertex
100
AcDb2dVertex
 10
-0.0458197699538228
 20
16.29943575981403
 30
0.0
  0
VERTEX
  5
110
330
10C
100
AcDbEntity
  8
STANDARDEBENE
 62
     7
100
AcDbVertex
100
AcDb2dVertex
 10
-0.0458197699538228
 20
16.95297037336593
 30
0.0
  0
VERTEX
  5
111
330
10C
100
AcDbEntity
  8
STANDARDEBENE
 62
     7
100
AcDbVertex
100
AcDb2dVertex
 10
-0.0458197699538228
 20
17.38929171657282
 30
0.0
  0
VERTEX
  5
112
330
10C
100
AcDbEntity
  8
STANDARDEBENE
 62
     7
100
AcDbVertex
100
AcDb2dVertex
 10
-0.0458197699538228
 20
17.59358587884813
 30
0.0
  0
SEQEND
  5
113
330
10C
100
AcDbEntity
  8
STANDARDEBENE
  0
POLYLINE
  5
114
330
1F
100
AcDbEntity
  8
STANDARDEBENE
 62
     7
100
AcDb2dPolyline
 66
     1
 10
0.0
 20
0.0
 30
0.0
  0
VERTEX
  5
115
330
114
100
AcDbEntity
  8
STANDARDEBENE
 62
     7
100
AcDbVertex
100
AcDb2dVertex
 10
-26.74530978064006
 20
15.30879855303044
 30
0.0
  0
VERTEX
  5
116
330
114
100
AcDbEntity
  8
STANDARDEBENE
 62
     7
100
AcDbVertex
100
AcDb2dVertex
 10
-26.74530978064006
 20
16.11701795387005
 30
0.0
  0
VERTEX
  5
117
330
114
100
AcDbEntity
  8
STANDARDEBENE
 62
     7
100
AcDbVertex
100
AcDb2dVertex
 10
-26.74530978064006
 20
17.33589273655144
 30
0.0
  0
VERTEX
  5
118
330
114
100
AcDbEntity
  8
STANDARDEBENE
 62
     7
100
AcDbVertex
100
AcDb2dVertex
 10
-26.74530978064006
 20
18.41059027317513
 30
0.0
  0
VERTEX
  5
119
330
114
100
AcDbEntity
  8
STANDARDEBENE
 62
     7
100
AcDbVertex
100
AcDb2dVertex
 10
-26.74530978064006
 20
19.31871744308699
 30
0.0
  0
SEQEND
  5
11A
330
114
100
AcDbEntity
  8
STANDARDEBENE
  0
POLYLINE
  5
11B
330
1F
100
AcDbEntity
  8
STANDARDEBENE
 62
     7
100
AcDb2dPolyline
 66
     1
 10
0.0
 20
0.0
 30
0.0
  0
VERTEX
  5
11C
330
11B
100
AcDbEntity
  8
STANDARDEBENE
 62
     7
100
AcDbVertex
100
AcDb2dVertex
 10
-23.94565293455178
 20
16.11701795387005
 30
0.0
  0
VERTEX
  5
11D
330
11B
100
AcDbEntity
  8
STANDARDEBENE
 62
     7
100
AcDbVertex
100
AcDb2dVertex
 10
-23.94565293455178
 20
15.30879855303044
 30
0.0
  0
SEQEND
  5
11E
330
11B
100
AcDbEntity
  8
STANDARDEBENE
  0
POLYLINE
  5
11F
330
1F
100
AcDbEntity
  8
STANDARDEBENE
 62
     7
100
AcDb2dPolyline
 66
     1
 10
0.0
 20
0.0
 30
0.0
  0
VERTEX
  5
120
330
11F
100
AcDbEntity
  8
STANDARDEBENE
 62
     7
100
AcDbVertex
100
AcDb2dVertex
 10
-23.94565293455178
 20
15.21543646538017
 30
0.0
  0
VERTEX
  5
121
330
11F
100
AcDbEntity
  8
STANDARDEBENE
 62
     7
100
AcDbVertex
100
AcDb2dVertex
 10
-26.74530978064006
 20
15.21543646538017
 30
0.0
  0
SEQEND
  5
122
330
11F
100
AcDbEntity
  8
STANDARDEBENE
  0
POLYLINE
  5
123
330
1F
100
AcDbEntity
  8
STANDARDEBENE
 62
     7
100
AcDb2dPolyline
 66
     1
 10
0.0
 20
0.0
 30
0.0
  0
VERTEX
  5
124
330
123
100
AcDbEntity
  8
STANDARDEBENE
 62
     7
100
AcDbVertex
100
AcDb2dVertex
 10
-26.74530978064006
 20
17.75791693349455
 30
0.0
  0
VERTEX
  5
125
330
123
100
AcDbEntity
  8
STANDARDEBENE
 62
     7
100
AcDbVertex
100
AcDb2dVertex
 10
-23.94565293455178
 20
17.75791693349455
 30
0.0
  0
SEQEND
  5
126
330
123
100
AcDbEntity
  8
STANDARDEBENE
  0
POLYLINE
  5
127
330
1F
100
AcDbEntity
  8
STANDARDEBENE
 62
     7
100
AcDb2dPolyline
 66
     1
 10
0.0
 20
0.0
 30
0.0
  0
VERTEX
  5
128
330
127
100
AcDbEntity
  8
STANDARDEBENE
 62
     7
100
AcDbVertex
100
AcDb2dVertex
 10
-26.74530978064006
 20
16.11701795387005
 30
0.0
  0
VERTEX
  5
129
330
127
100
AcDbEntity
  8
STANDARDEBENE
 62
     7
100
AcDbVertex
100
AcDb2dVertex
 10
-27.00524223500216
 20
16.11701795387005
 30
0.0
  0
SEQEND
  5
12A
330
127
100
AcDbEntity
  8
STANDARDEBENE
  0
POLYLINE
  5
12B
330
1F
100
AcDbEntity
  8
STANDARDEBENE
 62
     7
100
AcDb2dPolyline
 66
     1
 10
0.0
 20
0.0
 30
0.0
  0
VERTEX
  5
12C
330
12B
100
AcDbEntity
  8
STANDARDEBENE
 62
     7
100
AcDbVertex
100
AcDb2dVertex
 10
-27.00524223500216
 20
19.31871744308699
 30
0.0
  0
VERTEX
  5
12D
330
12B
100
AcDbEntity
  8
STANDARDEBENE
 62
     7
100
AcDbVertex
100
AcDb2dVertex
 10
-26.74530978064006
 20
19.31871744308699
 30
0.0
  0
SEQEND
  5
12E
330
12B
100
AcDbEntity
  8
STANDARDEBENE
  0
POLYLINE
  5
12F
330
1F
100
AcDbEntity
  8
STANDARDEBENE
 62
     7
100
AcDb2dPolyline
 66
     1
 10
0.0
 20
0.0
 30
0.0
  0
VERTEX
  5
130
330
12F
100
AcDbEntity
  8
STANDARDEBENE
 62
     7
100
AcDbVertex
100
AcDb2dVertex
 10
-27.00524223500216
 20
16.11701795387005
 30
0.0
  0
VERTEX
  5
131
330
12F
100
AcDbEntity
  8
STANDARDEBENE
 62
     7
100
AcDbVertex
100
AcDb2dVertex
 10
-27.00524223500216
 20
17.33589273655144
 30
0.0
  0
VERTEX
  5
132
330
12F
100
AcDbEntity
  8
STANDARDEBENE
 62
     7
100
AcDbVertex
100
AcDb2dVertex
 10
-27.00524223500216
 20
18.41059027317513
 30
0.0
  0
VERTEX
  5
133
330
12F
100
AcDbEntity
  8
STANDARDEBENE
 62
     7
100
AcDbVertex
100
AcDb2dVertex
 10
-27.00524223500216
 20
19.31871744308699
 30
0.0
  0
SEQEND
  5
134
330
12F
100
AcDbEntity
  8
STANDARDEBENE
  0
POLYLINE
  5
135
330
1F
100
AcDbEntity
  8
STANDARDEBENE
 62
     7
100
AcDb2dPolyline
 66
     1
 10
0.0
 20
0.0
 30
0.0
  0
VERTEX
  5
136
330
135
100
AcDbEntity
  8
STANDARDEBENE
 62
     7
100
AcDbVertex
100
AcDb2dVertex
 10
-27.00524223500216
 20
16.11701795387005
 30
0.0
  0
VERTEX
  5
137
330
135
100
AcDbEntity
  8
STANDARDEBENE
 62
     7
100
AcDbVertex
100
AcDb2dVertex
 10
-31.5451890654644
 20
14.80460882876413
 30
0.0
  0
SEQEND
  5
138
330
135
100
AcDbEntity
  8
STANDARDEBENE
  0
POLYLINE
  5
139
330
1F
100
AcDbEntity
  8
STANDARDEBENE
 62
     7
100
AcDb2dPolyline
 66
     1
 10
0.0
 20
0.0
 30
0.0
  0
VERTEX
  5
13A
330
139
100
AcDbEntity
  8
STANDARDEBENE
 62
     7
100
AcDbVertex
100
AcDb2dVertex
 10
-31.5451890654644
 20
17.04564344191915
 30
0.0
  0
VERTEX
  5
13B
330
139
100
AcDbEntity
  8
STANDARDEBENE
 62
     7
100
AcDbVertex
100
AcDb2dVertex
 10
-27.00524223500216
 20
19.31871744308699
 30
0.0
  0
SEQEND
  5
13C
330
139
100
AcDbEntity
  8
STANDARDEBENE
  0
POLYLINE
  5
13D
330
1F
100
AcDbEntity
  8
STANDARDEBENE
 62
     7
100
AcDb2dPolyline
 66
     1
 10
0.0
 20
0.0
 30
0.0
  0
VERTEX
  5
13E
330
13D
100
AcDbEntity
  8
STANDARDEBENE
 62
     7
100
AcDbVertex
100
AcDb2dVertex
 10
-31.5451890654644
 20
14.80460882876413
 30
0.0
  0
VERTEX
  5
13F
330
13D
100
AcDbEntity
  8
STANDARDEBENE
 62
     7
100
AcDbVertex
100
AcDb2dVertex
 10
-31.5451890654644
 20
16.03933105067767
 30
0.0
  0
VERTEX
  5
140
330
13D
100
AcDbEntity
  8
STANDARDEBENE
 62
     7
100
AcDbVertex
100
AcDb2dVertex
 10
-31.5451890654644
 20
17.04564344191915
 30
0.0
  0
SEQEND
  5
141
330
13D
100
AcDbEntity
  8
STANDARDEBENE
  0
POLYLINE
  5
142
330
1F
100
AcDbEntity
  8
STANDARDEBENE
 62
     7
100
AcDb2dPolyline
 66
     1
 10
0.0
 20
0.0
 30
0.0
  0
VERTEX
  5
143
330
142
100
AcDbEntity
  8
STANDARDEBENE
 62
     7
100
AcDbVertex
100
AcDb2dVertex
 10
-23.94565293455178
 20
15.30879855303044
 30
0.0
  0
VERTEX
  5
144
330
142
100
AcDbEntity
  8
STANDARDEBENE
 62
     7
100
AcDbVertex
100
AcDb2dVertex
 10
-5.690953232084206
 20
14.02395019180651
 30
0.0
  0
VERTEX
  5
145
330
142
100
AcDbEntity
  8
STANDARDEBENE
 62
     7
100
AcDbVertex
100
AcDb2dVertex
 10
-0.0458197699538228
 20
13.62655842758294
 30
0.0
  0
SEQEND
  5
146
330
142
100
AcDbEntity
  8
STANDARDEBENE
  0
POLYLINE
  5
147
330
1F
100
AcDbEntity
  8
STANDARDEBENE
 62
     7
100
AcDb2dPolyline
 66
     1
 10
0.0
 20
0.0
 30
0.0
  0
VERTEX
  5
148
330
147
100
AcDbEntity
  8
STANDARDEBENE
 62
     7
100
AcDbVertex
100
AcDb2dVertex
 10
-23.94565293455178
 20
15.30879855303044
 30
0.0
  0
VERTEX
  5
149
330
147
100
AcDbEntity
  8
STANDARDEBENE
 62
     7
100
AcDbVertex
100
AcDb2dVertex
 10
-23.94565293455178
 20
13.91267360763294
 30
0.0
  0
VERTEX
  5
14A
330
147
100
AcDbEntity
  8
STANDARDEBENE
 62
     7
100
AcDbVertex
100
AcDb2dVertex
 10
-23.94565293455178
 20
12.44437391181946
 30
0.0
  0
VERTEX
  5
14B
330
147
100
AcDbEntity
  8
STANDARDEBENE
 62
     7
100
AcDbVertex
100
AcDb2dVertex
 10
-23.94565293455178
 20
10.93490532495725
 30
0.0
  0
SEQEND
  5
14C
330
147
100
AcDbEntity
  8
STANDARDEBENE
  0
POLYLINE
  5
14D
330
1F
100
AcDbEntity
  8
STANDARDEBENE
 62
     7
100
AcDb2dPolyline
 66
     1
 10
0.0
 20
0.0
 30
0.0
  0
VERTEX
  5
14E
330
14D
100
AcDbEntity
  8
STANDARDEBENE
 62
     7
100
AcDbVertex
100
AcDb2dVertex
 10
-4.2457356760219
 20
10.93490532495725
 30
0.0
  0
VERTEX
  5
14F
330
14D
100
AcDbEntity
  8
STANDARDEBENE
 62
     7
100
AcDbVertex
100
AcDb2dVertex
 10
-6.681762693642059
 20
10.93490532495725
 30
0.0
  0
VERTEX
  5
150
330
14D
100
AcDbEntity
  8
STANDARDEBENE
 62
     7
100
AcDbVertex
100
AcDb2dVertex
 10
-20.71811522919547
 20
10.93490532495725
 30
0.0
  0
VERTEX
  5
151
330
14D
100
AcDbEntity
  8
STANDARDEBENE
 62
     7
100
AcDbVertex
100
AcDb2dVertex
 10
-23.94565293455178
 20
10.93490532495725
 30
0.0
  0
SEQEND
  5
152
330
14D
100
AcDbEntity
  8
STANDARDEBENE
  0
POLYLINE
  5
153
330
1F
100
AcDbEntity
  8
STANDARDEBENE
 62
     7
100
AcDb2dPolyline
 66
     1
 10
0.0
 20
0.0
 30
0.0
  0
VERTEX
  5
154
330
153
100
AcDbEntity
  8
STANDARDEBENE
 62
     7
100
AcDbVertex
100
AcDb2dVertex
 10
-4.2457356760219
 20
10.0014567032288
 30
0.0
  0
VERTEX
  5
155
330
153
100
AcDbEntity
  8
STANDARDEBENE
 62
     7
100
AcDbVertex
100
AcDb2dVertex
 10
-4.2457356760219
 20
10.46826714148016
 30
0.0
  0
VERTEX
  5
156
330
153
100
AcDbEntity
  8
STANDARDEBENE
 62
     7
100
AcDbVertex
100
AcDb2dVertex
 10
-4.2457356760219
 20
10.93490532495725
 30
0.0
  0
SEQEND
  5
157
330
153
100
AcDbEntity
  8
STANDARDEBENE
  0
POLYLINE
  5
158
330
1F
100
AcDbEntity
  8
STANDARDEBENE
 62
     7
100
AcDb2dPolyline
 66
     1
 10
0.0
 20
0.0
 30
0.0
  0
VERTEX
  5
159
330
158
100
AcDbEntity
  8
STANDARDEBENE
 62
     7
100
AcDbVertex
100
AcDb2dVertex
 10
-23.94565293455178
 20
10.0014567032288
 30
0.0
  0
VERTEX
  5
15A
330
158
100
AcDbEntity
  8
STANDARDEBENE
 62
     7
100
AcDbVertex
100
AcDb2dVertex
 10
-20.71811522919547
 20
10.0014567032288
 30
0.0
  0
VERTEX
  5
15B
330
158
100
AcDbEntity
  8
STANDARDEBENE
 62
     7
100
AcDbVertex
100
AcDb2dVertex
 10
-6.681762693642059
 20
10.0014567032288
 30
0.0
  0
VERTEX
  5
15C
330
158
100
AcDbEntity
  8
STANDARDEBENE
 62
     7
100
AcDbVertex
100
AcDb2dVertex
 10
-4.2457356760219
 20
10.0014567032288
 30
0.0
  0
SEQEND
  5
15D
330
158
100
AcDbEntity
  8
STANDARDEBENE
  0
POLYLINE
  5
15E
330
1F
100
AcDbEntity
  8
STANDARDEBENE
 62
     7
100
AcDb2dPolyline
 66
     1
 10
0.0
 20
0.0
 30
0.0
  0
VERTEX
  5
15F
330
15E
100
AcDbEntity
  8
STANDARDEBENE
 62
     7
100
AcDbVertex
100
AcDb2dVertex
 10
-23.94565293455178
 20
10.0014567032288
 30
0.0
  0
VERTEX
  5
160
330
15E
100
AcDbEntity
  8
STANDARDEBENE
 62
     7
100
AcDbVertex
100
AcDb2dVertex
 10
-23.94565293455178
 20
8.491988116366587
 30
0.0
  0
VERTEX
  5
161
330
15E
100
AcDbEntity
  8
STANDARDEBENE
 62
     7
100
AcDbVertex
100
AcDb2dVertex
 10
-23.94565293455178
 20
7.023688420553106
 30
0.0
  0
VERTEX
  5
162
330
15E
100
AcDbEntity
  8
STANDARDEBENE
 62
     7
100
AcDbVertex
100
AcDb2dVertex
 10
-23.94565293455178
 20
5.627391220381347
 30
0.0
  0
SEQEND
  5
163
330
15E
100
AcDbEntity
  8
STANDARDEBENE
  0
POLYLINE
  5
164
330
1F
100
AcDbEntity
  8
STANDARDEBENE
 62
     7
100
AcDb2dPolyline
 66
     1
 10
0.0
 20
0.0
 30
0.0
  0
VERTEX
  5
165
330
164
100
AcDbEntity
  8
STANDARDEBENE
 62
     7
100
AcDbVertex
100
AcDb2dVertex
 10
-0.0458197699538228
 20
7.309114581506055
 30
0.0
  0
VERTEX
  5
166
330
164
100
AcDbEntity
  8
STANDARDEBENE
 62
     7
100
AcDbVertex
100
AcDb2dVertex
 10
-12.45987684150309
 20
6.435266111672433
 30
0.0
  0
VERTEX
  5
167
330
164
100
AcDbEntity
  8
STANDARDEBENE
 62
     7
100
AcDbVertex
100
AcDb2dVertex
 10
-23.94565293455178
 20
5.627391220381347
 30
0.0
  0
SEQEND
  5
168
330
164
100
AcDbEntity
  8
STANDARDEBENE
  0
POLYLINE
  5
169
330
1F
100
AcDbEntity
  8
STANDARDEBENE
 62
     7
100
AcDb2dPolyline
 66
     1
 10
0.0
 20
0.0
 30
0.0
  0
VERTEX
  5
16A
330
169
100
AcDbEntity
  8
STANDARDEBENE
 62
     7
100
AcDbVertex
100
AcDb2dVertex
 10
-0.0458197699538228
 20
7.309114581506055
 30
0.0
  0
VERTEX
  5
16B
330
169
100
AcDbEntity
  8
STANDARDEBENE
 62
     7
100
AcDbVertex
100
AcDb2dVertex
 10
-0.0458197699538228
 20
8.529711911930072
 30
0.0
  0
VERTEX
  5
16C
330
169
100
AcDbEntity
  8
STANDARDEBENE
 62
     7
100
AcDbVertex
100
AcDb2dVertex
 10
-0.0458197699538228
 20
9.814215763605475
 30
0.0
  0
VERTEX
  5
16D
330
169
100
AcDbEntity
  8
STANDARDEBENE
 62
     7
100
AcDbVertex
100
AcDb2dVertex
 10
-0.0458197699538228
 20
11.12145724548352
 30
0.0
  0
VERTEX
  5
16E
330
169
100
AcDbEntity
  8
STANDARDEBENE
 62
     7
100
AcDbVertex
100
AcDb2dVertex
 10
-0.0458197699538228
 20
12.40665011625598
 30
0.0
  0
VERTEX
  5
16F
330
169
100
AcDbEntity
  8
STANDARDEBENE
 62
     7
100
AcDbVertex
100
AcDb2dVertex
 10
-0.0458197699538228
 20
13.62655842758294
 30
0.0
  0
SEQEND
  5
170
330
169
100
AcDbEntity
  8
STANDARDEBENE
  0
POLYLINE
  5
171
330
1F
100
AcDbEntity
  8
STANDARDEBENE
 62
     7
100
AcDb2dPolyline
 66
     1
 10
0.0
 20
0.0
 30
0.0
  0
VERTEX
  5
172
330
171
100
AcDbEntity
  8
STANDARDEBENE
 62
     7
100
AcDbVertex
100
AcDb2dVertex
 10
-26.74530978064006
 20
5.627391220381347
 30
0.0
  0
VERTEX
  5
173
330
171
100
AcDbEntity
  8
STANDARDEBENE
 62
     7
100
AcDbVertex
100
AcDb2dVertex
 10
-26.74530978064006
 20
7.023688420553106
 30
0.0
  0
VERTEX
  5
174
330
171
100
AcDbEntity
  8
STANDARDEBENE
 62
     7
100
AcDbVertex
100
AcDb2dVertex
 10
-26.74530978064006
 20
8.491988116366587
 30
0.0
  0
VERTEX
  5
175
330
171
100
AcDbEntity
  8
STANDARDEBENE
 62
     7
100
AcDbVertex
100
AcDb2dVertex
 10
-26.74530978064006
 20
10.0014567032288
 30
0.0
  0
SEQEND
  5
176
330
171
100
AcDbEntity
  8
STANDARDEBENE
  0
POLYLINE
  5
177
330
1F
100
AcDbEntity
  8
STANDARDEBENE
 62
     7
100
AcDb2dPolyline
 66
     1
 10
0.0
 20
0.0
 30
0.0
  0
VERTEX
  5
178
330
177
100
AcDbEntity
  8
STANDARDEBENE
 62
     7
100
AcDbVertex
100
AcDb2dVertex
 10
-23.94565293455178
 20
6.528283689774179
 30
0.0
  0
VERTEX
  5
179
330
177
100
AcDbEntity
  8
STANDARDEBENE
 62
     7
100
AcDbVertex
100
AcDb2dVertex
 10
-26.74530978064006
 20
6.528283689774179
 30
0.0
  0
SEQEND
  5
17A
330
177
100
AcDbEntity
  8
STANDARDEBENE
  0
POLYLINE
  5
17B
330
1F
100
AcDbEntity
  8
STANDARDEBENE
 62
     7
100
AcDb2dPolyline
 66
     1
 10
0.0
 20
0.0
 30
0.0
  0
VERTEX
  5
17C
330
17B
100
AcDbEntity
  8
STANDARDEBENE
 62
     7
100
AcDbVertex
100
AcDb2dVertex
 10
-26.74530978064006
 20
10.0014567032288
 30
0.0
  0
VERTEX
  5
17D
330
17B
100
AcDbEntity
  8
STANDARDEBENE
 62
     7
100
AcDbVertex
100
AcDb2dVertex
 10
-23.94565293455178
 20
10.0014567032288
 30
0.0
  0
SEQEND
  5
17E
330
17B
100
AcDbEntity
  8
STANDARDEBENE
  0
POLYLINE
  5
17F
330
1F
100
AcDbEntity
  8
STANDARDEBENE
 62
     7
100
AcDb2dPolyline
 66
     1
 10
0.0
 20
0.0
 30
0.0
  0
VERTEX
  5
180
330
17F
100
AcDbEntity
  8
STANDARDEBENE
 62
     7
100
AcDbVertex
100
AcDb2dVertex
 10
-26.74530978064006
 20
5.627391220381347
 30
0.0
  0
VERTEX
  5
181
330
17F
100
AcDbEntity
  8
STANDARDEBENE
 62
     7
100
AcDbVertex
100
AcDb2dVertex
 10
-27.00524223500216
 20
5.627391220381347
 30
0.0
  0
SEQEND
  5
182
330
17F
100
AcDbEntity
  8
STANDARDEBENE
  0
POLYLINE
  5
183
330
1F
100
AcDbEntity
  8
STANDARDEBENE
 62
     7
100
AcDb2dPolyline
 66
     1
 10
0.0
 20
0.0
 30
0.0
  0
VERTEX
  5
184
330
183
100
AcDbEntity
  8
STANDARDEBENE
 62
     7
100
AcDbVertex
100
AcDb2dVertex
 10
-27.00524223500216
 20
10.0014567032288
 30
0.0
  0
VERTEX
  5
185
330
183
100
AcDbEntity
  8
STANDARDEBENE
 62
     7
100
AcDbVertex
100
AcDb2dVertex
 10
-26.74530978064006
 20
10.0014567032288
 30
0.0
  0
SEQEND
  5
186
330
183
100
AcDbEntity
  8
STANDARDEBENE
  0
POLYLINE
  5
187
330
1F
100
AcDbEntity
  8
STANDARDEBENE
 62
     7
100
AcDb2dPolyline
 66
     1
 10
0.0
 20
0.0
 30
0.0
  0
VERTEX
  5
188
330
187
100
AcDbEntity
  8
STANDARDEBENE
 62
     7
100
AcDbVertex
100
AcDb2dVertex
 10
-27.00524223500216
 20
5.627391220381347
 30
0.0
  0
VERTEX
  5
189
330
187
100
AcDbEntity
  8
STANDARDEBENE
 62
     7
100
AcDbVertex
100
AcDb2dVertex
 10
-27.00524223500216
 20
7.023688420553106
 30
0.0
  0
VERTEX
  5
18A
330
187
100
AcDbEntity
  8
STANDARDEBENE
 62
     7
100
AcDbVertex
100
AcDb2dVertex
 10
-27.00524223500216
 20
8.491988116366587
 30
0.0
  0
VERTEX
  5
18B
330
187
100
AcDbEntity
  8
STANDARDEBENE
 62
     7
100
AcDbVertex
100
AcDb2dVertex
 10
-27.00524223500216
 20
10.0014567032288
 30
0.0
  0
SEQEND
  5
18C
330
187
100
AcDbEntity
  8
STANDARDEBENE
  0
POLYLINE
  5
18D
330
1F
100
AcDbEntity
  8
STANDARDEBENE
 62
     7
100
AcDb2dPolyline
 66
     1
 10
0.0
 20
0.0
 30
0.0
  0
VERTEX
  5
18E
330
18D
100
AcDbEntity
  8
STANDARDEBENE
 62
     7
100
AcDbVertex
100
AcDb2dVertex
 10
-27.00524223500216
 20
5.627391220381347
 30
0.0
  0
VERTEX
  5
18F
330
18D
100
AcDbEntity
  8
STANDARDEBENE
 62
     7
100
AcDbVertex
100
AcDb2dVertex
 10
-31.5451890654644
 20
6.939455835938747
 30
0.0
  0
SEQEND
  5
190
330
18D
100
AcDbEntity
  8
STANDARDEBENE
  0
POLYLINE
  5
191
330
1F
100
AcDbEntity
  8
STANDARDEBENE
 62
     7
100
AcDb2dPolyline
 66
     1
 10
0.0
 20
0.0
 30
0.0
  0
VERTEX
  5
192
330
191
100
AcDbEntity
  8
STANDARDEBENE
 62
     7
100
AcDbVertex
100
AcDb2dVertex
 10
-31.5451890654644
 20
10.0014567032288
 30
0.0
  0
VERTEX
  5
193
330
191
100
AcDbEntity
  8
STANDARDEBENE
 62
     7
100
AcDbVertex
100
AcDb2dVertex
 10
-31.25976290451145
 20
10.0014567032288
 30
0.0
  0
VERTEX
  5
194
330
191
100
AcDbEntity
  8
STANDARDEBENE
 62
     7
100
AcDbVertex
100
AcDb2dVertex
 10
-27.00524223500216
 20
10.0014567032288
 30
0.0
  0
SEQEND
  5
195
330
191
100
AcDbEntity
  8
STANDARDEBENE
  0
POLYLINE
  5
196
330
1F
100
AcDbEntity
  8
STANDARDEBENE
 62
     7
100
AcDb2dPolyline
 66
     1
 10
0.0
 20
0.0
 30
0.0
  0
VERTEX
  5
197
330
196
100
AcDbEntity
  8
STANDARDEBENE
 62
     7
100
AcDbVertex
100
AcDb2dVertex
 10
-31.5451890654644
 20
6.939455835938747
 30
0.0
  0
VERTEX
  5
198
330
196
100
AcDbEntity
  8
STANDARDEBENE
 62
     7
100
AcDbVertex
100
AcDb2dVertex
 10
-31.5451890654644
 20
8.428426104663727
 30
0.0
  0
VERTEX
  5
199
330
196
100
AcDbEntity
  8
STANDARDEBENE
 62
     7
100
AcDbVertex
100
AcDb2dVertex
 10
-31.5451890654644
 20
10.0014567032288
 30
0.0
  0
SEQEND
  5
19A
330
196
100
AcDbEntity
  8
STANDARDEBENE
  0
POLYLINE
  5
19B
330
1F
100
AcDbEntity
  8
STANDARDEBENE
 62
     7
100
AcDb2dPolyline
 66
     1
 10
0.0
 20
0.0
 30
0.0
  0
VERTEX
  5
19C
330
19B
100
AcDbEntity
  8
STANDARDEBENE
 62
     7
100
AcDbVertex
100
AcDb2dVertex
 10
-23.94565293455178
 20
4.81882730999321
 30
0.0
  0
VERTEX
  5
19D
330
19B
100
AcDbEntity
  8
STANDARDEBENE
 62
     7
100
AcDbVertex
100
AcDb2dVertex
 10
-5.690953232084206
 20
6.103331161668612
 30
0.0
  0
VERTEX
  5
19E
330
19B
100
AcDbEntity
  8
STANDARDEBENE
 62
     7
100
AcDbVertex
100
AcDb2dVertex
 10
-0.0458197699538228
 20
6.501239690214968
 30
0.0
  0
SEQEND
  5
19F
330
19B
100
AcDbEntity
  8
STANDARDEBENE
  0
POLYLINE
  5
1A0
330
1F
100
AcDbEntity
  8
STANDARDEBENE
 62
     7
100
AcDb2dPolyline
 66
     1
 10
0.0
 20
0.0
 30
0.0
  0
VERTEX
  5
1A1
330
1A0
100
AcDbEntity
  8
STANDARDEBENE
 62
     7
100
AcDbVertex
100
AcDb2dVertex
 10
-23.94565293455178
 20
4.81882730999321
 30
0.0
  0
VERTEX
  5
1A2
330
1A0
100
AcDbEntity
  8
STANDARDEBENE
 62
     7
100
AcDbVertex
100
AcDb2dVertex
 10
-23.94565293455178
 20
3.599952527311818
 30
0.0
  0
VERTEX
  5
1A3
330
1A0
100
AcDbEntity
  8
STANDARDEBENE
 62
     7
100
AcDbVertex
100
AcDb2dVertex
 10
-23.94565293455178
 20
2.525427245462393
 30
0.0
  0
VERTEX
  5
1A4
330
1A0
100
AcDbEntity
  8
STANDARDEBENE
 62
     7
100
AcDbVertex
100
AcDb2dVertex
 10
-23.94565293455178
 20
1.616611056453486
 30
0.0
  0
SEQEND
  5
1A5
330
1A0
100
AcDbEntity
  8
STANDARDEBENE
  0
POLYLINE
  5
1A6
330
1F
100
AcDbEntity
  8
STANDARDEBENE
 62
     7
100
AcDb2dPolyline
 66
     1
 10
0.0
 20
0.0
 30
0.0
  0
VERTEX
  5
1A7
330
1A6
100
AcDbEntity
  8
STANDARDEBENE
 62
     7
100
AcDbVertex
100
AcDb2dVertex
 10
-4.2457356760219
 20
4.018014864446886
 30
0.0
  0
VERTEX
  5
1A8
330
1A6
100
AcDbEntity
  8
STANDARDEBENE
 62
     7
100
AcDbVertex
100
AcDb2dVertex
 10
-17.68625894740135
 20
2.379871961210588
 30
0.0
  0
VERTEX
  5
1A9
330
1A6
100
AcDbEntity
  8
STANDARDEBENE
 62
     7
100
AcDbVertex
100
AcDb2dVertex
 10
-23.94565293455178
 20
1.616611056453486
 30
0.0
  0
SEQEND
  5
1AA
330
1A6
100
AcDbEntity
  8
STANDARDEBENE
  0
POLYLINE
  5
1AB
330
1F
100
AcDbEntity
  8
STANDARDEBENE
 62
     7
100
AcDb2dPolyline
 66
     1
 10
0.0
 20
0.0
 30
0.0
  0
VERTEX
  5
1AC
330
1AB
100
AcDbEntity
  8
STANDARDEBENE
 62
     7
100
AcDbVertex
100
AcDb2dVertex
 10
-4.2457356760219
 20
3.551376680969795
 30
0.0
  0
VERTEX
  5
1AD
330
1AB
100
AcDbEntity
  8
STANDARDEBENE
 62
     7
100
AcDbVertex
100
AcDb2dVertex
 10
-4.2457356760219
 20
3.772379556348572
 30
0.0
  0
VERTEX
  5
1AE
330
1AB
100
AcDbEntity
  8
STANDARDEBENE
 62
     7
100
AcDbVertex
100
AcDb2dVertex
 10
-4.2457356760219
 20
4.018014864446886
 30
0.0
  0
SEQEND
  5
1AF
330
1AB
100
AcDbEntity
  8
STANDARDEBENE
  0
POLYLINE
  5
1B0
330
1F
100
AcDbEntity
  8
STANDARDEBENE
 62
     7
100
AcDb2dPolyline
 66
     1
 10
0.0
 20
0.0
 30
0.0
  0
VERTEX
  5
1B1
330
1B0
100
AcDbEntity
  8
STANDARDEBENE
 62
     7
100
AcDbVertex
100
AcDb2dVertex
 10
-23.94565293455178
 20
1.150317382524921
 30
0.0
  0
VERTEX
  5
1B2
330
1B0
100
AcDbEntity
  8
STANDARDEBENE
 62
     7
100
AcDbVertex
100
AcDb2dVertex
 10
-4.2457356760219
 20
3.551376680969795
 30
0.0
  0
SEQEND
  5
1B3
330
1B0
100
AcDbEntity
  8
STANDARDEBENE
  0
POLYLINE
  5
1B4
330
1F
100
AcDbEntity
  8
STANDARDEBENE
 62
     7
100
AcDb2dPolyline
 66
     1
 10
0.0
 20
0.0
 30
0.0
  0
VERTEX
  5
1B5
330
1B4
100
AcDbEntity
  8
STANDARDEBENE
 62
     7
100
AcDbVertex
100
AcDb2dVertex
 10
-23.94565293455178
 20
1.150317382524921
 30
0.0
  0
VERTEX
  5
1B6
330
1B4
100
AcDbEntity
  8
STANDARDEBENE
 62
     7
100
AcDbVertex
100
AcDb2dVertex
 10
-23.94565293455178
 20
0.5488037108002991
 30
0.0
  0
VERTEX
  5
1B7
330
1B4
100
AcDbEntity
  8
STANDARDEBENE
 62
     7
100
AcDbVertex
100
AcDb2dVertex
 10
-23.94565293455178
 20
0.1557183159332927
 30
0.0
  0
VERTEX
  5
1B8
330
1B4
100
AcDbEntity
  8
STANDARDEBENE
 62
     7
100
AcDbVertex
100
AcDb2dVertex
 10
-23.94565293455178
 20
-0.0215318467828115
 30
0.0
  0
SEQEND
  5
1B9
330
1B4
100
AcDbEntity
  8
STANDARDEBENE
  0
POLYLINE
  5
1BA
330
1F
100
AcDbEntity
  8
STANDARDEBENE
 62
     7
100
AcDb2dPolyline
 66
     1
 10
0.0
 20
0.0
 30
0.0
  0
VERTEX
  5
1BB
330
1BA
100
AcDbEntity
  8
STANDARDEBENE
 62
     7
100
AcDbVertex
100
AcDb2dVertex
 10
-0.0458197699538228
 20
3.34225938501513
 30
0.0
  0
VERTEX
  5
1BC
330
1BA
100
AcDbEntity
  8
STANDARDEBENE
 62
     7
100
AcDbVertex
100
AcDb2dVertex
 10
-3.206350368122024
 20
2.897325303095113
 30
0.0
  0
VERTEX
  5
1BD
330
1BA
100
AcDbEntity
  8
STANDARDEBENE
 62
     7
100
AcDbVertex
100
AcDb2dVertex
 10
-16.39297010223856
 20
1.040591091319713
 30
0.0
  0
VERTEX
  5
1BE
330
1BA
100
AcDbEntity
  8
STANDARDEBENE
 62
     7
100
AcDbVertex
100
AcDb2dVertex
 10
-23.94565293455178
 20
-0.0215318467828115
 30
0.0
  0
SEQEND
  5
1BF
330
1BA
100
AcDbEntity
  8
STANDARDEBENE
  0
POLYLINE
  5
1C0
330
1F
100
AcDbEntity
  8
STANDARDEBENE
 62
     7
100
AcDb2dPolyline
 66
     1
 10
0.0
 20
0.0
 30
0.0
  0
VERTEX
  5
1C1
330
1C0
100
AcDbEntity
  8
STANDARDEBENE
 62
     7
100
AcDbVertex
100
AcDb2dVertex
 10
-0.0458197699538228
 20
3.34225938501513
 30
0.0
  0
VERTEX
  5
1C2
330
1C0
100
AcDbEntity
  8
STANDARDEBENE
 62
     7
100
AcDbVertex
100
AcDb2dVertex
 10
-0.0458197699538228
 20
3.546725802064707
 30
0.0
  0
VERTEX
  5
1C3
330
1C0
100
AcDbEntity
  8
STANDARDEBENE
 62
     7
100
AcDbVertex
100
AcDb2dVertex
 10
-0.0458197699538228
 20
3.982874890497337
 30
0.0
  0
VERTEX
  5
1C4
330
1C0
100
AcDbEntity
  8
STANDARDEBENE
 62
     7
100
AcDbVertex
100
AcDb2dVertex
 10
-0.0458197699538228
 20
4.636064994500706
 30
0.0
  0
VERTEX
  5
1C5
330
1C0
100
AcDbEntity
  8
STANDARDEBENE
 62
     7
100
AcDbVertex
100
AcDb2dVertex
 10
-0.0458197699538228
 20
5.485281031614791
 30
0.0
  0
VERTEX
  5
1C6
330
1C0
100
AcDbEntity
  8
STANDARDEBENE
 62
     7
100
AcDbVertex
100
AcDb2dVertex
 10
-0.0458197699538228
 20
6.501239690214968
 30
0.0
  0
SEQEND
  5
1C7
330
1C0
100
AcDbEntity
  8
STANDARDEBENE
  0
POLYLINE
  5
1C8
330
1F
100
AcDbEntity
  8
STANDARDEBENE
 62
     7
100
AcDb2dPolyline
 66
     1
 10
0.0
 20
0.0
 30
0.0
  0
VERTEX
  5
1C9
330
1C8
100
AcDbEntity
  8
STANDARDEBENE
 62
     7
100
AcDbVertex
100
AcDb2dVertex
 10
-26.74530978064006
 20
1.150317382524921
 30
0.0
  0
VERTEX
  5
1CA
330
1C8
100
AcDbEntity
  8
STANDARDEBENE
 62
     7
100
AcDbVertex
100
AcDb2dVertex
 10
-26.74530978064006
 20
1.616611056453486
 30
0.0
  0
SEQEND
  5
1CB
330
1C8
100
AcDbEntity
  8
STANDARDEBENE
  0
POLYLINE
  5
1CC
330
1F
100
AcDbEntity
  8
STANDARDEBENE
 62
     7
100
AcDb2dPolyline
 66
     1
 10
0.0
 20
0.0
 30
0.0
  0
VERTEX
  5
1CD
330
1CC
100
AcDbEntity
  8
STANDARDEBENE
 62
     7
100
AcDbVertex
100
AcDb2dVertex
 10
-26.74530978064006
 20
-0.0215318467828115
 30
0.0
  0
VERTEX
  5
1CE
330
1CC
100
AcDbEntity
  8
STANDARDEBENE
 62
     7
100
AcDbVertex
100
AcDb2dVertex
 10
-26.74530978064006
 20
0.1557183159332927
 30
0.0
  0
VERTEX
  5
1CF
330
1CC
100
AcDbEntity
  8
STANDARDEBENE
 62
     7
100
AcDbVertex
100
AcDb2dVertex
 10
-26.74530978064006
 20
0.5488037108002991
 30
0.0
  0
VERTEX
  5
1D0
330
1CC
100
AcDbEntity
  8
STANDARDEBENE
 62
     7
100
AcDbVertex
100
AcDb2dVertex
 10
-26.74530978064006
 20
1.150317382524921
 30
0.0
  0
SEQEND
  5
1D1
330
1CC
100
AcDbEntity
  8
STANDARDEBENE
  0
POLYLINE
  5
1D2
330
1F
100
AcDbEntity
  8
STANDARDEBENE
 62
     7
100
AcDb2dPolyline
 66
     1
 10
0.0
 20
0.0
 30
0.0
  0
VERTEX
  5
1D3
330
1D2
100
AcDbEntity
  8
STANDARDEBENE
 62
     7
100
AcDbVertex
100
AcDb2dVertex
 10
-23.94565293455178
 20
1.616611056453486
 30
0.0
  0
VERTEX
  5
1D4
330
1D2
100
AcDbEntity
  8
STANDARDEBENE
 62
     7
100
AcDbVertex
100
AcDb2dVertex
 10
-23.94565293455178
 20
1.150317382524921
 30
0.0
  0
SEQEND
  5
1D5
330
1D2
100
AcDbEntity
  8
STANDARDEBENE
  0
POLYLINE
  5
1D6
330
1F
100
AcDbEntity
  8
STANDARDEBENE
 62
     7
100
AcDb2dPolyline
 66
     1
 10
0.0
 20
0.0
 30
0.0
  0
VERTEX
  5
1D7
330
1D6
100
AcDbEntity
  8
STANDARDEBENE
 62
     7
100
AcDbVertex
100
AcDb2dVertex
 10
-23.94565293455178
 20
1.780769856325641
 30
0.0
  0
VERTEX
  5
1D8
330
1D6
100
AcDbEntity
  8
STANDARDEBENE
 62
     7
100
AcDbVertex
100
AcDb2dVertex
 10
-26.74530978064006
 20
1.780769856325641
 30
0.0
  0
SEQEND
  5
1D9
330
1D6
100
AcDbEntity
  8
STANDARDEBENE
  0
POLYLINE
  5
1DA
330
1F
100
AcDbEntity
  8
STANDARDEBENE
 62
     7
100
AcDb2dPolyline
 66
     1
 10
0.0
 20
0.0
 30
0.0
  0
VERTEX
  5
1DB
330
1DA
100
AcDbEntity
  8
STANDARDEBENE
 62
     7
100
AcDbVertex
100
AcDb2dVertex
 10
-26.74530978064006
 20
2.710945637343097
 30
0.0
  0
VERTEX
  5
1DC
330
1DA
100
AcDbEntity
  8
STANDARDEBENE
 62
     7
100
AcDbVertex
100
AcDb2dVertex
 10
-23.94565293455178
 20
2.710945637343097
 30
0.0
  0
SEQEND
  5
1DD
330
1DA
100
AcDbEntity
  8
STANDARDEBENE
  0
POLYLINE
  5
1DE
330
1F
100
AcDbEntity
  8
STANDARDEBENE
 62
     7
100
AcDb2dPolyline
 66
     1
 10
0.0
 20
0.0
 30
0.0
  0
VERTEX
  5
1DF
330
1DE
100
AcDbEntity
  8
STANDARDEBENE
 62
     7
100
AcDbVertex
100
AcDb2dVertex
 10
-26.74530978064006
 20
-0.0215318467828115
 30
0.0
  0
VERTEX
  5
1E0
330
1DE
100
AcDbEntity
  8
STANDARDEBENE
 62
     7
100
AcDbVertex
100
AcDb2dVertex
 10
-27.00524223500216
 20
-0.0215318467828115
 30
0.0
  0
SEQEND
  5
1E1
330
1DE
100
AcDbEntity
  8
STANDARDEBENE
  0
POLYLINE
  5
1E2
330
1F
100
AcDbEntity
  8
STANDARDEBENE
 62
     7
100
AcDb2dPolyline
 66
     1
 10
0.0
 20
0.0
 30
0.0
  0
VERTEX
  5
1E3
330
1E2
100
AcDbEntity
  8
STANDARDEBENE
 62
     7
100
AcDbVertex
100
AcDb2dVertex
 10
-27.00524223500216
 20
1.150317382524921
 30
0.0
  0
VERTEX
  5
1E4
330
1E2
100
AcDbEntity
  8
STANDARDEBENE
 62
     7
100
AcDbVertex
100
AcDb2dVertex
 10
-26.74530978064006
 20
1.150317382524921
 30
0.0
  0
SEQEND
  5
1E5
330
1E2
100
AcDbEntity
  8
STANDARDEBENE
  0
POLYLINE
  5
1E6
330
1F
100
AcDbEntity
  8
STANDARDEBENE
 62
     7
100
AcDb2dPolyline
 66
     1
 10
0.0
 20
0.0
 30
0.0
  0
VERTEX
  5
1E7
330
1E6
100
AcDbEntity
  8
STANDARDEBENE
 62
     7
100
AcDbVertex
100
AcDb2dVertex
 10
-27.00524223500216
 20
-0.0215318467828115
 30
0.0
  0
VERTEX
  5
1E8
330
1E6
100
AcDbEntity
  8
STANDARDEBENE
 62
     7
100
AcDbVertex
100
AcDb2dVertex
 10
-27.00524223500216
 20
0.1557183159332927
 30
0.0
  0
VERTEX
  5
1E9
330
1E6
100
AcDbEntity
  8
STANDARDEBENE
 62
     7
100
AcDbVertex
100
AcDb2dVertex
 10
-27.00524223500216
 20
0.5488037108002991
 30
0.0
  0
VERTEX
  5
1EA
330
1E6
100
AcDbEntity
  8
STANDARDEBENE
 62
     7
100
AcDbVertex
100
AcDb2dVertex
 10
-27.00524223500216
 20
1.150317382524921
 30
0.0
  0
SEQEND
  5
1EB
330
1E6
100
AcDbEntity
  8
STANDARDEBENE
  0
POLYLINE
  5
1EC
330
1F
100
AcDbEntity
  8
STANDARDEBENE
 62
     7
100
AcDb2dPolyline
 66
     1
 10
0.0
 20
0.0
 30
0.0
  0
VERTEX
  5
1ED
330
1EC
100
AcDbEntity
  8
STANDARDEBENE
 62
     7
100
AcDbVertex
100
AcDb2dVertex
 10
-27.00524223500216
 20
-0.0215318467828115
 30
0.0
  0
VERTEX
  5
1EE
330
1EC
100
AcDbEntity
  8
STANDARDEBENE
 62
     7
100
AcDbVertex
100
AcDb2dVertex
 10
-27.79485812022143
 20
0.434598795464267
 30
0.0
  0
VERTEX
  5
1EF
330
1EC
100
AcDbEntity
  8
STANDARDEBENE
 62
     7
100
AcDbVertex
100
AcDb2dVertex
 10
-31.5451890654644
 20
2.603458658203302
 30
0.0
  0
SEQEND
  5
1F0
330
1EC
100
AcDbEntity
  8
STANDARDEBENE
  0
POLYLINE
  5
1F1
330
1F
100
AcDbEntity
  8
STANDARDEBENE
 62
     7
100
AcDb2dPolyline
 66
     1
 10
0.0
 20
0.0
 30
0.0
  0
VERTEX
  5
1F2
330
1F1
100
AcDbEntity
  8
STANDARDEBENE
 62
     7
100
AcDbVertex
100
AcDb2dVertex
 10
-31.5451890654644
 20
3.423391383692763
 30
0.0
  0
VERTEX
  5
1F3
330
1F1
100
AcDbEntity
  8
STANDARDEBENE
 62
     7
100
AcDbVertex
100
AcDb2dVertex
 10
-27.00524223500216
 20
1.150317382524921
 30
0.0
  0
SEQEND
  5
1F4
330
1F1
100
AcDbEntity
  8
STANDARDEBENE
  0
POLYLINE
  5
1F5
330
1F
100
AcDbEntity
  8
STANDARDEBENE
 62
     7
100
AcDb2dPolyline
 66
     1
 10
0.0
 20
0.0
 30
0.0
  0
VERTEX
  5
1F6
330
1F5
100
AcDbEntity
  8
STANDARDEBENE
 62
     7
100
AcDbVertex
100
AcDb2dVertex
 10
-31.5451890654644
 20
2.603458658203302
 30
0.0
  0
VERTEX
  5
1F7
330
1F5
100
AcDbEntity
  8
STANDARDEBENE
 62
     7
100
AcDbVertex
100
AcDb2dVertex
 10
-31.5451890654644
 20
2.85770670501474
 30
0.0
  0
VERTEX
  5
1F8
330
1F5
100
AcDbEntity
  8
STANDARDEBENE
 62
     7
100
AcDbVertex
100
AcDb2dVertex
 10
-31.5451890654644
 20
3.423391383692763
 30
0.0
  0
SEQEND
  5
1F9
330
1F5
100
AcDbEntity
  8
STANDARDEBENE
  0
POLYLINE
  5
1FA
330
1F
100
AcDbEntity
  8
STANDARDEBENE
 62
     7
100
AcDb2dPolyline
 66
     1
 10
0.0
 20
0.0
 30
0.0
  0
VERTEX
  5
1FB
330
1FA
100
AcDbEntity
  8
STANDARDEBENE
 62
     7
100
AcDbVertex
100
AcDb2dVertex
 10
-31.5451890654644
 20
3.889857312395591
 30
0.0
  0
VERTEX
  5
1FC
330
1FA
100
AcDbEntity
  8
STANDARDEBENE
 62
     7
100
AcDbVertex
100
AcDb2dVertex
 10
-31.5451890654644
 20
3.423391383692763
 30
0.0
  0
SEQEND
  5
1FD
330
1FA
100
AcDbEntity
  8
STANDARDEBENE
  0
POLYLINE
  5
1FE
330
1F
100
AcDbEntity
  8
STANDARDEBENE
 62
     7
100
AcDb2dPolyline
 66
     1
 10
0.0
 20
0.0
 30
0.0
  0
VERTEX
  5
1FF
330
1FE
100
AcDbEntity
  8
STANDARDEBENE
 62
     7
100
AcDbVertex
100
AcDb2dVertex
 10
-26.74530978064006
 20
19.78535562656408
 30
0.0
  0
VERTEX
  5
200
330
1FE
100
AcDbEntity
  8
STANDARDEBENE
 62
     7
100
AcDbVertex
100
AcDb2dVertex
 10
-26.74530978064006
 20
20.38704155306296
 30
0.0
  0
VERTEX
  5
201
330
1FE
100
AcDbEntity
  8
STANDARDEBENE
 62
     7
100
AcDbVertex
100
AcDb2dVertex
 10
-26.74530978064006
 20
20.78029920270423
 30
0.0
  0
VERTEX
  5
202
330
1FE
100
AcDbEntity
  8
STANDARDEBENE
 62
     7
100
AcDbVertex
100
AcDb2dVertex
 10
-26.74530978064006
 20
20.95737711064607
 30
0.0
  0
SEQEND
  5
203
330
1FE
100
AcDbEntity
  8
STANDARDEBENE
  0
POLYLINE
  5
204
330
1F
100
AcDbEntity
  8
STANDARDEBENE
 62
     7
100
AcDb2dPolyline
 66
     1
 10
0.0
 20
0.0
 30
0.0
  0
VERTEX
  5
205
330
204
100
AcDbEntity
  8
STANDARDEBENE
 62
     7
100
AcDbVertex
100
AcDb2dVertex
 10
-26.74530978064006
 20
19.31871744308699
 30
0.0
  0
VERTEX
  5
206
330
204
100
AcDbEntity
  8
STANDARDEBENE
 62
     7
100
AcDbVertex
100
AcDb2dVertex
 10
-26.74530978064006
 20
19.78535562656408
 30
0.0
  0
SEQEND
  5
207
330
204
100
AcDbEntity
  8
STANDARDEBENE
  0
POLYLINE
  5
208
330
1F
100
AcDbEntity
  8
STANDARDEBENE
 62
     7
100
AcDb2dPolyline
 66
     1
 10
0.0
 20
0.0
 30
0.0
  0
VERTEX
  5
209
330
208
100
AcDbEntity
  8
STANDARDEBENE
 62
     7
100
AcDbVertex
100
AcDb2dVertex
 10
-23.94565293455178
 20
19.78535562656408
 30
0.0
  0
VERTEX
  5
20A
330
208
100
AcDbEntity
  8
STANDARDEBENE
 62
     7
100
AcDbVertex
100
AcDb2dVertex
 10
-23.94565293455178
 20
19.31871744308699
 30
0.0
  0
SEQEND
  5
20B
330
208
100
AcDbEntity
  8
STANDARDEBENE
  0
POLYLINE
  5
20C
330
1F
100
AcDbEntity
  8
STANDARDEBENE
 62
     7
100
AcDb2dPolyline
 66
     1
 10
0.0
 20
0.0
 30
0.0
  0
VERTEX
  5
20D
330
20C
100
AcDbEntity
  8
STANDARDEBENE
 62
     7
100
AcDbVertex
100
AcDb2dVertex
 10
-26.74530978064006
 20
19.15576442663467
 30
0.0
  0
VERTEX
  5
20E
330
20C
100
AcDbEntity
  8
STANDARDEBENE
 62
     7
100
AcDbVertex
100
AcDb2dVertex
 10
-23.94565293455178
 20
19.15576442663467
 30
0.0
  0
SEQEND
  5
20F
330
20C
100
AcDbEntity
  8
STANDARDEBENE
  0
POLYLINE
  5
210
330
1F
100
AcDbEntity
  8
STANDARDEBENE
 62
     7
100
AcDb2dPolyline
 66
     1
 10
0.0
 20
0.0
 30
0.0
  0
VERTEX
  5
211
330
210
100
AcDbEntity
  8
STANDARDEBENE
 62
     7
100
AcDbVertex
100
AcDb2dVertex
 10
-23.94565293455178
 20
18.22489962652017
 30
0.0
  0
VERTEX
  5
212
330
210
100
AcDbEntity
  8
STANDARDEBENE
 62
     7
100
AcDbVertex
100
AcDb2dVertex
 10
-26.74530978064006
 20
18.22489962652017
 30
0.0
  0
SEQEND
  5
213
330
210
100
AcDbEntity
  8
STANDARDEBENE
  0
POLYLINE
  5
214
330
1F
100
AcDbEntity
  8
STANDARDEBENE
 62
     7
100
AcDb2dPolyline
 66
     1
 10
0.0
 20
0.0
 30
0.0
  0
VERTEX
  5
215
330
214
100
AcDbEntity
  8
STANDARDEBENE
 62
     7
100
AcDbVertex
100
AcDb2dVertex
 10
-27.00524223500216
 20
20.95737711064607
 30
0.0
  0
VERTEX
  5
216
330
214
100
AcDbEntity
  8
STANDARDEBENE
 62
     7
100
AcDbVertex
100
AcDb2dVertex
 10
-26.74530978064006
 20
20.95737711064607
 30
0.0
  0
SEQEND
  5
217
330
214
100
AcDbEntity
  8
STANDARDEBENE
  0
POLYLINE
  5
218
330
1F
100
AcDbEntity
  8
STANDARDEBENE
 62
     7
100
AcDb2dPolyline
 66
     1
 10
0.0
 20
0.0
 30
0.0
  0
VERTEX
  5
219
330
218
100
AcDbEntity
  8
STANDARDEBENE
 62
     7
100
AcDbVertex
100
AcDb2dVertex
 10
-27.00524223500216
 20
19.78535562656408
 30
0.0
  0
VERTEX
  5
21A
330
218
100
AcDbEntity
  8
STANDARDEBENE
 62
     7
100
AcDbVertex
100
AcDb2dVertex
 10
-27.00524223500216
 20
20.38704155306296
 30
0.0
  0
VERTEX
  5
21B
330
218
100
AcDbEntity
  8
STANDARDEBENE
 62
     7
100
AcDbVertex
100
AcDb2dVertex
 10
-27.00524223500216
 20
20.78029920270423
 30
0.0
  0
VERTEX
  5
21C
330
218
100
AcDbEntity
  8
STANDARDEBENE
 62
     7
100
AcDbVertex
100
AcDb2dVertex
 10
-27.00524223500216
 20
20.95737711064607
 30
0.0
  0
SEQEND
  5
21D
330
218
100
AcDbEntity
  8
STANDARDEBENE
  0
POLYLINE
  5
21E
330
1F
100
AcDbEntity
  8
STANDARDEBENE
 62
     7
100
AcDb2dPolyline
 66
     1
 10
0.0
 20
0.0
 30
0.0
  0
VERTEX
  5
21F
330
21E
100
AcDbEntity
  8
STANDARDEBENE
 62
     7
100
AcDbVertex
100
AcDb2dVertex
 10
-26.74530978064006
 20
19.78535562656408
 30
0.0
  0
VERTEX
  5
220
330
21E
100
AcDbEntity
  8
STANDARDEBENE
 62
     7
100
AcDbVertex
100
AcDb2dVertex
 10
-27.00524223500216
 20
19.78535562656408
 30
0.0
  0
SEQEND
  5
221
330
21E
100
AcDbEntity
  8
STANDARDEBENE
  0
POLYLINE
  5
222
330
1F
100
AcDbEntity
  8
STANDARDEBENE
 62
     7
100
AcDb2dPolyline
 66
     1
 10
0.0
 20
0.0
 30
0.0
  0
VERTEX
  5
223
330
222
100
AcDbEntity
  8
STANDARDEBENE
 62
     7
100
AcDbVertex
100
AcDb2dVertex
 10
-31.5451890654644
 20
17.04564344191915
 30
0.0
  0
VERTEX
  5
224
330
222
100
AcDbEntity
  8
STANDARDEBENE
 62
     7
100
AcDbVertex
100
AcDb2dVertex
 10
-31.5451890654644
 20
17.5124538801705
 30
0.0
  0
VERTEX
  5
225
330
222
100
AcDbEntity
  8
STANDARDEBENE
 62
     7
100
AcDbVertex
100
AcDb2dVertex
 10
-31.5451890654644
 20
18.07831081362279
 30
0.0
  0
VERTEX
  5
226
330
222
100
AcDbEntity
  8
STANDARDEBENE
 62
     7
100
AcDbVertex
100
AcDb2dVertex
 10
-31.5451890654644
 20
18.33307562475701
 30
0.0
  0
VERTEX
  5
227
330
222
100
AcDbEntity
  8
STANDARDEBENE
 62
     7
100
AcDbVertex
100
AcDb2dVertex
 10
-27.79485812022143
 20
20.50159097794752
 30
0.0
  0
VERTEX
  5
228
330
222
100
AcDbEntity
  8
STANDARDEBENE
 62
     7
100
AcDbVertex
100
AcDb2dVertex
 10
-27.00524223500216
 20
20.95737711064607
 30
0.0
  0
SEQEND
  5
229
330
222
100
AcDbEntity
  8
STANDARDEBENE
  0
POLYLINE
  5
22A
330
1F
100
AcDbEntity
  8
STANDARDEBENE
 62
     7
100
AcDb2dPolyline
 66
     1
 10
0.0
 20
0.0
 30
0.0
  0
VERTEX
  5
22B
330
22A
100
AcDbEntity
  8
STANDARDEBENE
 62
     7
100
AcDbVertex
100
AcDb2dVertex
 10
-27.00524223500216
 20
19.78535562656408
 30
0.0
  0
VERTEX
  5
22C
330
22A
100
AcDbEntity
  8
STANDARDEBENE
 62
     7
100
AcDbVertex
100
AcDb2dVertex
 10
-31.5451890654644
 20
17.5124538801705
 30
0.0
  0
SEQEND
  5
22D
330
22A
100
AcDbEntity
  8
STANDARDEBENE
  0
POLYLINE
  5
22E
330
1F
100
AcDbEntity
  8
STANDARDEBENE
 62
     7
100
AcDb2dPolyline
 66
     1
 10
0.0
 20
0.0
 30
0.0
  0
VERTEX
  5
22F
330
22E
100
AcDbEntity
  8
STANDARDEBENE
 62
     7
100
AcDbVertex
100
AcDb2dVertex
 10
-26.74530978064006
 20
10.93490532495725
 30
0.0
  0
VERTEX
  5
230
330
22E
100
AcDbEntity
  8
STANDARDEBENE
 62
     7
100
AcDbVertex
100
AcDb2dVertex
 10
-26.74530978064006
 20
12.44437391181946
 30
0.0
  0
VERTEX
  5
231
330
22E
100
AcDbEntity
  8
STANDARDEBENE
 62
     7
100
AcDbVertex
100
AcDb2dVertex
 10
-26.74530978064006
 20
13.91267360763294
 30
0.0
  0
VERTEX
  5
232
330
22E
100
AcDbEntity
  8
STANDARDEBENE
 62
     7
100
AcDbVertex
100
AcDb2dVertex
 10
-26.74530978064006
 20
15.30879855303044
 30
0.0
  0
SEQEND
  5
233
330
22E
100
AcDbEntity
  8
STANDARDEBENE
  0
POLYLINE
  5
234
330
1F
100
AcDbEntity
  8
STANDARDEBENE
 62
     7
100
AcDb2dPolyline
 66
     1
 10
0.0
 20
0.0
 30
0.0
  0
VERTEX
  5
235
330
234
100
AcDbEntity
  8
STANDARDEBENE
 62
     7
100
AcDbVertex
100
AcDb2dVertex
 10
-26.74530978064006
 20
14.40773382886334
 30
0.0
  0
VERTEX
  5
236
330
234
100
AcDbEntity
  8
STANDARDEBENE
 62
     7
100
AcDbVertex
100
AcDb2dVertex
 10
-23.94565293455178
 20
14.40773382886334
 30
0.0
  0
SEQEND
  5
237
330
234
100
AcDbEntity
  8
STANDARDEBENE
  0
POLYLINE
  5
238
330
1F
100
AcDbEntity
  8
STANDARDEBENE
 62
     7
100
AcDb2dPolyline
 66
     1
 10
0.0
 20
0.0
 30
0.0
  0
VERTEX
  5
239
330
238
100
AcDbEntity
  8
STANDARDEBENE
 62
     7
100
AcDbVertex
100
AcDb2dVertex
 10
-23.94565293455178
 20
10.93490532495725
 30
0.0
  0
VERTEX
  5
23A
330
238
100
AcDbEntity
  8
STANDARDEBENE
 62
     7
100
AcDbVertex
100
AcDb2dVertex
 10
-26.74530978064006
 20
10.93490532495725
 30
0.0
  0
SEQEND
  5
23B
330
238
100
AcDbEntity
  8
STANDARDEBENE
  0
POLYLINE
  5
23C
330
1F
100
AcDbEntity
  8
STANDARDEBENE
 62
     7
100
AcDb2dPolyline
 66
     1
 10
0.0
 20
0.0
 30
0.0
  0
VERTEX
  5
23D
330
23C
100
AcDbEntity
  8
STANDARDEBENE
 62
     7
100
AcDbVertex
100
AcDb2dVertex
 10
-27.00524223500216
 20
15.30879855303044
 30
0.0
  0
VERTEX
  5
23E
330
23C
100
AcDbEntity
  8
STANDARDEBENE
 62
     7
100
AcDbVertex
100
AcDb2dVertex
 10
-26.74530978064006
 20
15.30879855303044
 30
0.0
  0
SEQEND
  5
23F
330
23C
100
AcDbEntity
  8
STANDARDEBENE
  0
POLYLINE
  5
240
330
1F
100
AcDbEntity
  8
STANDARDEBENE
 62
     7
100
AcDb2dPolyline
 66
     1
 10
0.0
 20
0.0
 30
0.0
  0
VERTEX
  5
241
330
240
100
AcDbEntity
  8
STANDARDEBENE
 62
     7
100
AcDbVertex
100
AcDb2dVertex
 10
-27.00524223500216
 20
10.93490532495725
 30
0.0
  0
VERTEX
  5
242
330
240
100
AcDbEntity
  8
STANDARDEBENE
 62
     7
100
AcDbVertex
100
AcDb2dVertex
 10
-27.00524223500216
 20
12.44437391181946
 30
0.0
  0
VERTEX
  5
243
330
240
100
AcDbEntity
  8
STANDARDEBENE
 62
     7
100
AcDbVertex
100
AcDb2dVertex
 10
-27.00524223500216
 20
13.91267360763294
 30
0.0
  0
VERTEX
  5
244
330
240
100
AcDbEntity
  8
STANDARDEBENE
 62
     7
100
AcDbVertex
100
AcDb2dVertex
 10
-27.00524223500216
 20
15.30879855303044
 30
0.0
  0
SEQEND
  5
245
330
240
100
AcDbEntity
  8
STANDARDEBENE
  0
POLYLINE
  5
246
330
1F
100
AcDbEntity
  8
STANDARDEBENE
 62
     7
100
AcDb2dPolyline
 66
     1
 10
0.0
 20
0.0
 30
0.0
  0
VERTEX
  5
247
330
246
100
AcDbEntity
  8
STANDARDEBENE
 62
     7
100
AcDbVertex
100
AcDb2dVertex
 10
-26.74530978064006
 20
10.93490532495725
 30
0.0
  0
VERTEX
  5
248
330
246
100
AcDbEntity
  8
STANDARDEBENE
 62
     7
100
AcDbVertex
100
AcDb2dVertex
 10
-27.00524223500216
 20
10.93490532495725
 30
0.0
  0
SEQEND
  5
249
330
246
100
AcDbEntity
  8
STANDARDEBENE
  0
POLYLINE
  5
24A
330
1F
100
AcDbEntity
  8
STANDARDEBENE
 62
     7
100
AcDb2dPolyline
 66
     1
 10
0.0
 20
0.0
 30
0.0
  0
VERTEX
  5
24B
330
24A
100
AcDbEntity
  8
STANDARDEBENE
 62
     7
100
AcDbVertex
100
AcDb2dVertex
 10
-31.5451890654644
 20
14.80460882876413
 30
0.0
  0
VERTEX
  5
24C
330
24A
100
AcDbEntity
  8
STANDARDEBENE
 62
     7
100
AcDbVertex
100
AcDb2dVertex
 10
-31.5451890654644
 20
14.42168646557861
 30
0.0
  0
SEQEND
  5
24D
330
24A
100
AcDbEntity
  8
STANDARDEBENE
  0
POLYLINE
  5
24E
330
1F
100
AcDbEntity
  8
STANDARDEBENE
 62
     7
100
AcDb2dPolyline
 66
     1
 10
0.0
 20
0.0
 30
0.0
  0
VERTEX
  5
24F
330
24E
100
AcDbEntity
  8
STANDARDEBENE
 62
     7
100
AcDbVertex
100
AcDb2dVertex
 10
-31.5451890654644
 20
10.93490532495725
 30
0.0
  0
VERTEX
  5
250
330
24E
100
AcDbEntity
  8
STANDARDEBENE
 62
     7
100
AcDbVertex
100
AcDb2dVertex
 10
-31.5451890654644
 20
12.50707464965101
 30
0.0
  0
VERTEX
  5
251
330
24E
100
AcDbEntity
  8
STANDARDEBENE
 62
     7
100
AcDbVertex
100
AcDb2dVertex
 10
-31.5451890654644
 20
13.99638942792451
 30
0.0
  0
VERTEX
  5
252
330
24E
100
AcDbEntity
  8
STANDARDEBENE
 62
     7
100
AcDbVertex
100
AcDb2dVertex
 10
-31.5451890654644
 20
14.42168646557861
 30
0.0
  0
SEQEND
  5
253
330
24E
100
AcDbEntity
  8
STANDARDEBENE
  0
POLYLINE
  5
254
330
1F
100
AcDbEntity
  8
STANDARDEBENE
 62
     7
100
AcDb2dPolyline
 66
     1
 10
0.0
 20
0.0
 30
0.0
  0
VERTEX
  5
255
330
254
100
AcDbEntity
  8
STANDARDEBENE
 62
     7
100
AcDbVertex
100
AcDb2dVertex
 10
-31.5451890654644
 20
13.99638942792451
 30
0.0
  0
VERTEX
  5
256
330
254
100
AcDbEntity
  8
STANDARDEBENE
 62
     7
100
AcDbVertex
100
AcDb2dVertex
 10
-27.00524223500216
 20
15.30879855303044
 30
0.0
  0
SEQEND
  5
257
330
254
100
AcDbEntity
  8
STANDARDEBENE
  0
POLYLINE
  5
258
330
1F
100
AcDbEntity
  8
STANDARDEBENE
 62
     7
100
AcDb2dPolyline
 66
     1
 10
0.0
 20
0.0
 30
0.0
  0
VERTEX
  5
259
330
258
100
AcDbEntity
  8
STANDARDEBENE
 62
     7
100
AcDbVertex
100
AcDb2dVertex
 10
-27.00524223500216
 20
10.93490532495725
 30
0.0
  0
VERTEX
  5
25A
330
258
100
AcDbEntity
  8
STANDARDEBENE
 62
     7
100
AcDbVertex
100
AcDb2dVertex
 10
-31.25976290451145
 20
10.93490532495725
 30
0.0
  0
VERTEX
  5
25B
330
258
100
AcDbEntity
  8
STANDARDEBENE
 62
     7
100
AcDbVertex
100
AcDb2dVertex
 10
-31.5451890654644
 20
10.93490532495725
 30
0.0
  0
SEQEND
  5
25C
330
258
100
AcDbEntity
  8
STANDARDEBENE
  0
POLYLINE
  5
25D
330
1F
100
AcDbEntity
  8
STANDARDEBENE
 62
     7
100
AcDb2dPolyline
 66
     1
 10
0.0
 20
0.0
 30
0.0
  0
VERTEX
  5
25E
330
25D
100
AcDbEntity
  8
STANDARDEBENE
 62
     7
100
AcDbVertex
100
AcDb2dVertex
 10
-26.74530978064006
 20
4.81882730999321
 30
0.0
  0
VERTEX
  5
25F
330
25D
100
AcDbEntity
  8
STANDARDEBENE
 62
     7
100
AcDbVertex
100
AcDb2dVertex
 10
-26.74530978064006
 20
5.627391220381347
 30
0.0
  0
SEQEND
  5
260
330
25D
100
AcDbEntity
  8
STANDARDEBENE
  0
POLYLINE
  5
261
330
1F
100
AcDbEntity
  8
STANDARDEBENE
 62
     7
100
AcDb2dPolyline
 66
     1
 10
0.0
 20
0.0
 30
0.0
  0
VERTEX
  5
262
330
261
100
AcDbEntity
  8
STANDARDEBENE
 62
     7
100
AcDbVertex
100
AcDb2dVertex
 10
-26.74530978064006
 20
1.616611056453486
 30
0.0
  0
VERTEX
  5
263
330
261
100
AcDbEntity
  8
STANDARDEBENE
 62
     7
100
AcDbVertex
100
AcDb2dVertex
 10
-26.74530978064006
 20
2.525427245462393
 30
0.0
  0
VERTEX
  5
264
330
261
100
AcDbEntity
  8
STANDARDEBENE
 62
     7
100
AcDbVertex
100
AcDb2dVertex
 10
-26.74530978064006
 20
3.599952527311818
 30
0.0
  0
VERTEX
  5
265
330
261
100
AcDbEntity
  8
STANDARDEBENE
 62
     7
100
AcDbVertex
100
AcDb2dVertex
 10
-26.74530978064006
 20
4.81882730999321
 30
0.0
  0
SEQEND
  5
266
330
261
100
AcDbEntity
  8
STANDARDEBENE
  0
POLYLINE
  5
267
330
1F
100
AcDbEntity
  8
STANDARDEBENE
 62
     7
100
AcDb2dPolyline
 66
     1
 10
0.0
 20
0.0
 30
0.0
  0
VERTEX
  5
268
330
267
100
AcDbEntity
  8
STANDARDEBENE
 62
     7
100
AcDbVertex
100
AcDb2dVertex
 10
-23.94565293455178
 20
5.627391220381347
 30
0.0
  0
VERTEX
  5
269
330
267
100
AcDbEntity
  8
STANDARDEBENE
 62
     7
100
AcDbVertex
100
AcDb2dVertex
 10
-23.94565293455178
 20
4.81882730999321
 30
0.0
  0
SEQEND
  5
26A
330
267
100
AcDbEntity
  8
STANDARDEBENE
  0
POLYLINE
  5
26B
330
1F
100
AcDbEntity
  8
STANDARDEBENE
 62
     7
100
AcDb2dPolyline
 66
     1
 10
0.0
 20
0.0
 30
0.0
  0
VERTEX
  5
26C
330
26B
100
AcDbEntity
  8
STANDARDEBENE
 62
     7
100
AcDbVertex
100
AcDb2dVertex
 10
-0.0458197699538228
 20
14.43512233797108
 30
0.0
  0
VERTEX
  5
26D
330
26B
100
AcDbEntity
  8
STANDARDEBENE
 62
     7
100
AcDbVertex
100
AcDb2dVertex
 10
-0.0458197699538228
 20
14.42168646557861
 30
0.0
  0
SEQEND
  5
26E
330
26B
100
AcDbEntity
  8
STANDARDEBENE
  0
POLYLINE
  5
26F
330
1F
100
AcDbEntity
  8
STANDARDEBENE
 62
     7
100
AcDb2dPolyline
 66
     1
 10
0.0
 20
0.0
 30
0.0
  0
VERTEX
  5
270
330
26F
100
AcDbEntity
  8
STANDARDEBENE
 62
     7
100
AcDbVertex
100
AcDb2dVertex
 10
-0.0458197699538228
 20
13.62655842758294
 30
0.0
  0
VERTEX
  5
271
330
26F
100
AcDbEntity
  8
STANDARDEBENE
 62
     7
100
AcDbVertex
100
AcDb2dVertex
 10
-0.0458197699538228
 20
14.42168646557861
 30
0.0
  0
SEQEND
  5
272
330
26F
100
AcDbEntity
  8
STANDARDEBENE
  0
POLYLINE
  5
273
330
1F
100
AcDbEntity
  8
STANDARDEBENE
 62
     7
100
AcDb2dPolyline
 66
     1
 10
0.0
 20
0.0
 30
0.0
  0
VERTEX
  5
274
330
273
100
AcDbEntity
  8
STANDARDEBENE
 62
     7
100
AcDbVertex
100
AcDb2dVertex
 10
-0.0458197699538228
 20
6.513469779187605
 30
0.0
  0
VERTEX
  5
275
330
273
100
AcDbEntity
  8
STANDARDEBENE
 62
     7
100
AcDbVertex
100
AcDb2dVertex
 10
-0.0458197699538228
 20
7.309114581506055
 30
0.0
  0
SEQEND
  5
276
330
273
100
AcDbEntity
  8
STANDARDEBENE
  0
POLYLINE
  5
277
330
1F
100
AcDbEntity
  8
STANDARDEBENE
 62
     7
100
AcDb2dPolyline
 66
     1
 10
0.0
 20
0.0
 30
0.0
  0
VERTEX
  5
278
330
277
100
AcDbEntity
  8
STANDARDEBENE
 62
     7
100
AcDbVertex
100
AcDb2dVertex
 10
-0.0458197699538228
 20
6.501239690214968
 30
0.0
  0
VERTEX
  5
279
330
277
100
AcDbEntity
  8
STANDARDEBENE
 62
     7
100
AcDbVertex
100
AcDb2dVertex
 10
-0.0458197699538228
 20
6.513469779187605
 30
0.0
  0
SEQEND
  5
27A
330
277
100
AcDbEntity
  8
STANDARDEBENE
  0
POLYLINE
  5
27B
330
1F
100
AcDbEntity
  8
STANDARDEBENE
 62
     7
100
AcDb2dPolyline
 66
     1
 10
0.0
 20
0.0
 30
0.0
  0
VERTEX
  5
27C
330
27B
100
AcDbEntity
  8
STANDARDEBENE
 62
     7
100
AcDbVertex
100
AcDb2dVertex
 10
-26.74530978064006
 20
5.719719779386042
 30
0.0
  0
VERTEX
  5
27D
330
27B
100
AcDbEntity
  8
STANDARDEBENE
 62
     7
100
AcDbVertex
100
AcDb2dVertex
 10
-23.94565293455178
 20
5.719719779386042
 30
0.0
  0
SEQEND
  5
27E
330
27B
100
AcDbEntity
  8
STANDARDEBENE
  0
POLYLINE
  5
27F
330
1F
100
AcDbEntity
  8
STANDARDEBENE
 62
     7
100
AcDb2dPolyline
 66
     1
 10
0.0
 20
0.0
 30
0.0
  0
VERTEX
  5
280
330
27F
100
AcDbEntity
  8
STANDARDEBENE
 62
     7
100
AcDbVertex
100
AcDb2dVertex
 10
-23.94565293455178
 20
3.17775607559445
 30
0.0
  0
VERTEX
  5
281
330
27F
100
AcDbEntity
  8
STANDARDEBENE
 62
     7
100
AcDbVertex
100
AcDb2dVertex
 10
-26.74530978064006
 20
3.17775607559445
 30
0.0
  0
SEQEND
  5
282
330
27F
100
AcDbEntity
  8
STANDARDEBENE
  0
POLYLINE
  5
283
330
1F
100
AcDbEntity
  8
STANDARDEBENE
 62
     7
100
AcDb2dPolyline
 66
     1
 10
0.0
 20
0.0
 30
0.0
  0
VERTEX
  5
284
330
283
100
AcDbEntity
  8
STANDARDEBENE
 62
     7
100
AcDbVertex
100
AcDb2dVertex
 10
-27.00524223500216
 20
4.81882730999321
 30
0.0
  0
VERTEX
  5
285
330
283
100
AcDbEntity
  8
STANDARDEBENE
 62
     7
100
AcDbVertex
100
AcDb2dVertex
 10
-26.74530978064006
 20
4.81882730999321
 30
0.0
  0
SEQEND
  5
286
330
283
100
AcDbEntity
  8
STANDARDEBENE
  0
POLYLINE
  5
287
330
1F
100
AcDbEntity
  8
STANDARDEBENE
 62
     7
100
AcDb2dPolyline
 66
     1
 10
0.0
 20
0.0
 30
0.0
  0
VERTEX
  5
288
330
287
100
AcDbEntity
  8
STANDARDEBENE
 62
     7
100
AcDbVertex
100
AcDb2dVertex
 10
-27.00524223500216
 20
1.616611056453486
 30
0.0
  0
VERTEX
  5
289
330
287
100
AcDbEntity
  8
STANDARDEBENE
 62
     7
100
AcDbVertex
100
AcDb2dVertex
 10
-27.00524223500216
 20
2.525427245462393
 30
0.0
  0
VERTEX
  5
28A
330
287
100
AcDbEntity
  8
STANDARDEBENE
 62
     7
100
AcDbVertex
100
AcDb2dVertex
 10
-27.00524223500216
 20
3.599952527311818
 30
0.0
  0
VERTEX
  5
28B
330
287
100
AcDbEntity
  8
STANDARDEBENE
 62
     7
100
AcDbVertex
100
AcDb2dVertex
 10
-27.00524223500216
 20
4.81882730999321
 30
0.0
  0
SEQEND
  5
28C
330
287
100
AcDbEntity
  8
STANDARDEBENE
  0
POLYLINE
  5
28D
330
1F
100
AcDbEntity
  8
STANDARDEBENE
 62
     7
100
AcDb2dPolyline
 66
     1
 10
0.0
 20
0.0
 30
0.0
  0
VERTEX
  5
28E
330
28D
100
AcDbEntity
  8
STANDARDEBENE
 62
     7
100
AcDbVertex
100
AcDb2dVertex
 10
-26.74530978064006
 20
1.616611056453486
 30
0.0
  0
VERTEX
  5
28F
330
28D
100
AcDbEntity
  8
STANDARDEBENE
 62
     7
100
AcDbVertex
100
AcDb2dVertex
 10
-27.00524223500216
 20
1.616611056453486
 30
0.0
  0
SEQEND
  5
290
330
28D
100
AcDbEntity
  8
STANDARDEBENE
  0
POLYLINE
  5
291
330
1F
100
AcDbEntity
  8
STANDARDEBENE
 62
     7
100
AcDb2dPolyline
 66
     1
 10
0.0
 20
0.0
 30
0.0
  0
VERTEX
  5
292
330
291
100
AcDbEntity
  8
STANDARDEBENE
 62
     7
100
AcDbVertex
100
AcDb2dVertex
 10
-31.5451890654644
 20
3.889857312395591
 30
0.0
  0
VERTEX
  5
293
330
291
100
AcDbEntity
  8
STANDARDEBENE
 62
     7
100
AcDbVertex
100
AcDb2dVertex
 10
-31.5451890654644
 20
4.896686467959857
 30
0.0
  0
VERTEX
  5
294
330
291
100
AcDbEntity
  8
STANDARDEBENE
 62
     7
100
AcDbVertex
100
AcDb2dVertex
 10
-31.5451890654644
 20
6.131408689873398
 30
0.0
  0
VERTEX
  5
295
330
291
100
AcDbEntity
  8
STANDARDEBENE
 62
     7
100
AcDbVertex
100
AcDb2dVertex
 10
-31.5451890654644
 20
6.513469779187605
 30
0.0
  0
VERTEX
  5
296
330
291
100
AcDbEntity
  8
STANDARDEBENE
 62
     7
100
AcDbVertex
100
AcDb2dVertex
 10
-31.5451890654644
 20
6.939455835938747
 30
0.0
  0
SEQEND
  5
297
330
291
100
AcDbEntity
  8
STANDARDEBENE
  0
POLYLINE
  5
298
330
1F
100
AcDbEntity
  8
STANDARDEBENE
 62
     7
100
AcDb2dPolyline
 66
     1
 10
0.0
 20
0.0
 30
0.0
  0
VERTEX
  5
299
330
298
100
AcDbEntity
  8
STANDARDEBENE
 62
     7
100
AcDbVertex
100
AcDb2dVertex
 10
-31.5451890654644
 20
6.131408689873398
 30
0.0
  0
VERTEX
  5
29A
330
298
100
AcDbEntity
  8
STANDARDEBENE
 62
     7
100
AcDbVertex
100
AcDb2dVertex
 10
-27.00524223500216
 20
4.81882730999321
 30
0.0
  0
SEQEND
  5
29B
330
298
100
AcDbEntity
  8
STANDARDEBENE
  0
POLYLINE
  5
29C
330
1F
100
AcDbEntity
  8
STANDARDEBENE
 62
     7
100
AcDb2dPolyline
 66
     1
 10
0.0
 20
0.0
 30
0.0
  0
VERTEX
  5
29D
330
29C
100
AcDbEntity
  8
STANDARDEBENE
 62
     7
100
AcDbVertex
100
AcDb2dVertex
 10
-27.00524223500216
 20
1.616611056453486
 30
0.0
  0
VERTEX
  5
29E
330
29C
100
AcDbEntity
  8
STANDARDEBENE
 62
     7
100
AcDbVertex
100
AcDb2dVertex
 10
-31.5451890654644
 20
3.889857312395591
 30
0.0
  0
SEQEND
  5
29F
330
29C
100
AcDbEntity
  8
STANDARDEBENE
  0
POLYLINE
  5
2A0
330
1F
100
AcDbEntity
  8
STANDARDEBENE
 62
     7
100
AcDb2dPolyline
 66
     1
 10
0.0
 20
0.0
 30
0.0
  0
VERTEX
  5
2A1
330
2A0
100
AcDbEntity
  8
STANDARDEBENE
 62
     7
100
AcDbVertex
100
AcDb2dVertex
 10
-31.5451890654644
 20
6.513469779187605
 30
0.0
  0
VERTEX
  5
2A2
330
2A0
100
AcDbEntity
  8
STANDARDEBENE
 62
     7
100
AcDbVertex
100
AcDb2dVertex
 10
-30.07172172642304
 20
6.513469779187605
 30
0.0
  0
SEQEND
  5
2A3
330
2A0
100
AcDbEntity
  8
STANDARDEBENE
  0
POLYLINE
  5
2A4
330
1F
100
AcDbEntity
  8
STANDARDEBENE
 62
     7
100
AcDb2dPolyline
 66
     1
 10
0.0
 20
0.0
 30
0.0
  0
VERTEX
  5
2A5
330
2A4
100
AcDbEntity
  8
STANDARDEBENE
 62
     7
100
AcDbVertex
100
AcDb2dVertex
 10
-26.74496527109154
 20
6.513469779187605
 30
0.0
  0
VERTEX
  5
2A6
330
2A4
100
AcDbEntity
  8
STANDARDEBENE
 62
     7
100
AcDbVertex
100
AcDb2dVertex
 10
-23.94496391545473
 20
6.513469779187605
 30
0.0
  0
SEQEND
  5
2A7
330
2A4
100
AcDbEntity
  8
STANDARDEBENE
  0
POLYLINE
  5
2A8
330
1F
100
AcDbEntity
  8
STANDARDEBENE
 62
     7
100
AcDb2dPolyline
 66
     1
 10
0.0
 20
0.0
 30
0.0
  0
VERTEX
  5
2A9
330
2A8
100
AcDbEntity
  8
STANDARDEBENE
 62
     7
100
AcDbVertex
100
AcDb2dVertex
 10
-11.34538845202476
 20
6.513469779187605
 30
0.0
  0
VERTEX
  5
2AA
330
2A8
100
AcDbEntity
  8
STANDARDEBENE
 62
     7
100
AcDbVertex
100
AcDb2dVertex
 10
-0.0458197699538228
 20
6.513469779187605
 30
0.0
  0
SEQEND
  5
2AB
330
2A8
100
AcDbEntity
  8
STANDARDEBENE
  0
POLYLINE
  5
2AC
330
1F
100
AcDbEntity
  8
STANDARDEBENE
 62
     7
100
AcDb2dPolyline
 66
     1
 10
0.0
 20
0.0
 30
0.0
  0
VERTEX
  5
2AD
330
2AC
100
AcDbEntity
  8
STANDARDEBENE
 62
     7
100
AcDbVertex
100
AcDb2dVertex
 10
-31.5451890654644
 20
14.42168646557861
 30
0.0
  0
VERTEX
  5
2AE
330
2AC
100
AcDbEntity
  8
STANDARDEBENE
 62
     7
100
AcDbVertex
100
AcDb2dVertex
 10
-30.07172172642304
 20
14.42168646557861
 30
0.0
  0
SEQEND
  5
2AF
330
2AC
100
AcDbEntity
  8
STANDARDEBENE
  0
POLYLINE
  5
2B0
330
1F
100
AcDbEntity
  8
STANDARDEBENE
 62
     7
100
AcDb2dPolyline
 66
     1
 10
0.0
 20
0.0
 30
0.0
  0
VERTEX
  5
2B1
330
2B0
100
AcDbEntity
  8
STANDARDEBENE
 62
     7
100
AcDbVertex
100
AcDb2dVertex
 10
-26.74496527109154
 20
14.42168646557861
 30
0.0
  0
VERTEX
  5
2B2
330
2B0
100
AcDbEntity
  8
STANDARDEBENE
 62
     7
100
AcDbVertex
100
AcDb2dVertex
 10
-23.94496391545473
 20
14.42168646557861
 30
0.0
  0
SEQEND
  5
2B3
330
2B0
100
AcDbEntity
  8
STANDARDEBENE
  0
POLYLINE
  5
2B4
330
1F
100
AcDbEntity
  8
STANDARDEBENE
 62
     7
100
AcDb2dPolyline
 66
     1
 10
0.0
 20
0.0
 30
0.0
  0
VERTEX
  5
2B5
330
2B4
100
AcDbEntity
  8
STANDARDEBENE
 62
     7
100
AcDbVertex
100
AcDb2dVertex
 10
-11.34676649021887
 20
14.42168646557861
 30
0.0
  0
VERTEX
  5
2B6
330
2B4
100
AcDbEntity
  8
STANDARDEBENE
 62
     7
100
AcDbVertex
100
AcDb2dVertex
 10
-0.0458197699538228
 20
14.42168646557861
 30
0.0
  0
SEQEND
  5
2B7
330
2B4
100
AcDbEntity
  8
STANDARDEBENE
  0
POLYLINE
  5
2B9
330
1F
100
AcDbEntity
  8
BEMAßUNG
 62
     7
100
AcDb2dPolyline
 66
     1
 10
0.0
 20
0.0
 30
0.0
  0
VERTEX
  5
2BA
330
2B9
100
AcDbEntity
  8
BEMAßUNG
 62
     7
100
AcDbVertex
100
AcDb2dVertex
 10
-0.0458197699538228
 20
13.62655842758294
 30
0.0
  0
VERTEX
  5
2BB
330
2B9
100
AcDbEntity
  8
BEMAßUNG
 62
     7
100
AcDbVertex
100
AcDb2dVertex
 10
-0.0458197699538228
 20
-11.64046088033641
 30
0.0
  0
SEQEND
  5
2BC
330
2B9
100
AcDbEntity
  8
BEMAßUNG
  0
POLYLINE
  5
2BD
330
1F
100
AcDbEntity
  8
BEMAßUNG
 62
     7
100
AcDb2dPolyline
 66
     1
 10
0.0
 20
0.0
 30
0.0
  0
VERTEX
  5
2BE
330
2BD
100
AcDbEntity
  8
BEMAßUNG
 62
     7
100
AcDbVertex
100
AcDb2dVertex
 10
-31.5451890654644
 20
13.99638942792451
 30
0.0
  0
VERTEX
  5
2BF
330
2BD
100
AcDbEntity
  8
BEMAßUNG
 62
     7
100
AcDbVertex
100
AcDb2dVertex
 10
-31.5451890654644
 20
-11.64046088033641
 30
0.0
  0
SEQEND
  5
2C0
330
2BD
100
AcDbEntity
  8
BEMAßUNG
  0
POLYLINE
  5
2C1
330
1F
100
AcDbEntity
  8
BEMAßUNG
 62
     7
100
AcDb2dPolyline
 66
     1
 10
0.0
 20
0.0
 30
0.0
  0
VERTEX
  5
2C2
330
2C1
100
AcDbEntity
  8
BEMAßUNG
 62
     7
100
AcDbVertex
100
AcDb2dVertex
 10
-0.0458197699538228
 20
-9.973895939346804
 30
0.0
  0
VERTEX
  5
2C3
330
2C1
100
AcDbEntity
  8
BEMAßUNG
 62
     7
100
AcDbVertex
100
AcDb2dVertex
 10
-31.5451890654644
 20
-9.973895939346804
 30
0.0
  0
SEQEND
  5
2C4
330
2C1
100
AcDbEntity
  8
BEMAßUNG
  0
POLYLINE
  5
2C5
330
1F
100
AcDbEntity
  8
BEMAßUNG
 62
     7
100
AcDb2dPolyline
 66
     1
 10
0.0
 20
0.0
 30
0.0
  0
VERTEX
  5
2C6
330
2C5
100
AcDbEntity
  8
BEMAßUNG
 62
     7
100
AcDbVertex
100
AcDb2dVertex
 10
-0.0458197699538228
 20
-9.973895939346804
 30
0.0
  0
VERTEX
  5
2C7
330
2C5
100
AcDbEntity
  8
BEMAßUNG
 62
     7
100
AcDbVertex
100
AcDb2dVertex
 10
-2.54592556359963
 20
-9.644889320505445
 30
0.0
  0
VERTEX
  5
2C8
330
2C5
100
AcDbEntity
  8
BEMAßUNG
 62
     7
100
AcDbVertex
100
AcDb2dVertex
 10
-2.54592556359963
 20
-10.3027303034139
 30
0.0
  0
VERTEX
  5
2C9
330
2C5
100
AcDbEntity
  8
BEMAßUNG
 62
     7
100
AcDbVertex
100
AcDb2dVertex
 10
-0.0458197699538228
 20
-9.973895939346804
 30
0.0
  0
SEQEND
  5
2CA
330
2C5
100
AcDbEntity
  8
BEMAßUNG
  0
POLYLINE
  5
2CB
330
1F
100
AcDbEntity
  8
BEMAßUNG
 62
     7
100
AcDb2dPolyline
 66
     1
 10
0.0
 20
0.0
 30
0.0
  0
VERTEX
  5
2CC
330
2CB
100
AcDbEntity
  8
BEMAßUNG
 62
     7
100
AcDbVertex
100
AcDb2dVertex
 10
-2.54592556359963
 20
-9.668832734127932
 30
0.0
  0
VERTEX
  5
2CD
330
2CB
100
AcDbEntity
  8
BEMAßUNG
 62
     7
100
AcDbVertex
100
AcDb2dVertex
 10
-2.360923936041714
 20
-9.668832734127932
 30
0.0
  0
SEQEND
  5
2CE
330
2CB
100
AcDbEntity
  8
BEMAßUNG
  0
POLYLINE
  5
2CF
330
1F
100
AcDbEntity
  8
BEMAßUNG
 62
     7
100
AcDb2dPolyline
 66
     1
 10
0.0
 20
0.0
 30
0.0
  0
VERTEX
  5
2D0
330
2CF
100
AcDbEntity
  8
BEMAßUNG
 62
     7
100
AcDbVertex
100
AcDb2dVertex
 10
-2.54592556359963
 20
-9.668832734127932
 30
0.0
  0
VERTEX
  5
2D1
330
2CF
100
AcDbEntity
  8
BEMAßUNG
 62
     7
100
AcDbVertex
100
AcDb2dVertex
 10
-2.360923936041714
 20
-9.668832734127932
 30
0.0
  0
SEQEND
  5
2D2
330
2CF
100
AcDbEntity
  8
BEMAßUNG
  0
POLYLINE
  5
2D3
330
1F
100
AcDbEntity
  8
BEMAßUNG
 62
     7
100
AcDb2dPolyline
 66
     1
 10
0.0
 20
0.0
 30
0.0
  0
VERTEX
  5
2D4
330
2D3
100
AcDbEntity
  8
BEMAßUNG
 62
     7
100
AcDbVertex
100
AcDb2dVertex
 10
-2.54592556359963
 20
-9.719647892535367
 30
0.0
  0
VERTEX
  5
2D5
330
2D3
100
AcDbEntity
  8
BEMAßUNG
 62
     7
100
AcDbVertex
100
AcDb2dVertex
 10
-1.975073241693732
 20
-9.719647892535367
 30
0.0
  0
SEQEND
  5
2D6
330
2D3
100
AcDbEntity
  8
BEMAßUNG
  0
POLYLINE
  5
2D7
330
1F
100
AcDbEntity
  8
BEMAßUNG
 62
     7
100
AcDb2dPolyline
 66
     1
 10
0.0
 20
0.0
 30
0.0
  0
VERTEX
  5
2D8
330
2D7
100
AcDbEntity
  8
BEMAßUNG
 62
     7
100
AcDbVertex
100
AcDb2dVertex
 10
-2.54592556359963
 20
-9.770463050942801
 30
0.0
  0
VERTEX
  5
2D9
330
2D7
100
AcDbEntity
  8
BEMAßUNG
 62
     7
100
AcDbVertex
100
AcDb2dVertex
 10
-1.588878037797225
 20
-9.770463050942801
 30
0.0
  0
SEQEND
  5
2DA
330
2D7
100
AcDbEntity
  8
BEMAßUNG
  0
POLYLINE
  5
2DB
330
1F
100
AcDbEntity
  8
BEMAßUNG
 62
     7
100
AcDb2dPolyline
 66
     1
 10
0.0
 20
0.0
 30
0.0
  0
VERTEX
  5
2DC
330
2DB
100
AcDbEntity
  8
BEMAßUNG
 62
     7
100
AcDbVertex
100
AcDb2dVertex
 10
-2.54592556359963
 20
-9.821278209350236
 30
0.0
  0
VERTEX
  5
2DD
330
2DB
100
AcDbEntity
  8
BEMAßUNG
 62
     7
100
AcDbVertex
100
AcDb2dVertex
 10
-1.203027343449243
 20
-9.821278209350236
 30
0.0
  0
SEQEND
  5
2DE
330
2DB
100
AcDbEntity
  8
BEMAßUNG
  0
POLYLINE
  5
2DF
330
1F
100
AcDbEntity
  8
BEMAßUNG
 62
     7
100
AcDb2dPolyline
 66
     1
 10
0.0
 20
0.0
 30
0.0
  0
VERTEX
  5
2E0
330
2DF
100
AcDbEntity
  8
BEMAßUNG
 62
     7
100
AcDbVertex
100
AcDb2dVertex
 10
-2.54592556359963
 20
-9.87192111298341
 30
0.0
  0
VERTEX
  5
2E1
330
2DF
100
AcDbEntity
  8
BEMAßUNG
 62
     7
100
AcDbVertex
100
AcDb2dVertex
 10
-0.8175211586497864
 20
-9.87192111298341
 30
0.0
  0
SEQEND
  5
2E2
330
2DF
100
AcDbEntity
  8
BEMAßUNG
  0
POLYLINE
  5
2E3
330
1F
100
AcDbEntity
  8
BEMAßUNG
 62
     7
100
AcDb2dPolyline
 66
     1
 10
0.0
 20
0.0
 30
0.0
  0
VERTEX
  5
2E4
330
2E3
100
AcDbEntity
  8
BEMAßUNG
 62
     7
100
AcDbVertex
100
AcDb2dVertex
 10
-2.54592556359963
 20
-9.922908526165106
 30
0.0
  0
VERTEX
  5
2E5
330
2E3
100
AcDbEntity
  8
BEMAßUNG
 62
     7
100
AcDbVertex
100
AcDb2dVertex
 10
-0.4316704643018046
 20
-9.922908526165106
 30
0.0
  0
SEQEND
  5
2E6
330
2E3
100
AcDbEntity
  8
BEMAßUNG
  0
POLYLINE
  5
2E7
330
1F
100
AcDbEntity
  8
BEMAßUNG
 62
     7
100
AcDb2dPolyline
 66
     1
 10
0.0
 20
0.0
 30
0.0
  0
VERTEX
  5
2E8
330
2E7
100
AcDbEntity
  8
BEMAßUNG
 62
     7
100
AcDbVertex
100
AcDb2dVertex
 10
-2.54592556359963
 20
-9.973895939346804
 30
0.0
  0
VERTEX
  5
2E9
330
2E7
100
AcDbEntity
  8
BEMAßUNG
 62
     7
100
AcDbVertex
100
AcDb2dVertex
 10
-0.0458197699538228
 20
-9.973895939346804
 30
0.0
  0
SEQEND
  5
2EA
330
2E7
100
AcDbEntity
  8
BEMAßUNG
  0
POLYLINE
  5
2EB
330
1F
100
AcDbEntity
  8
BEMAßUNG
 62
     7
100
AcDb2dPolyline
 66
     1
 10
0.0
 20
0.0
 30
0.0
  0
VERTEX
  5
2EC
330
2EB
100
AcDbEntity
  8
BEMAßUNG
 62
     7
100
AcDbVertex
100
AcDb2dVertex
 10
-2.54592556359963
 20
-10.27878688979141
 30
0.0
  0
VERTEX
  5
2ED
330
2EB
100
AcDbEntity
  8
BEMAßUNG
 62
     7
100
AcDbVertex
100
AcDb2dVertex
 10
-2.360923936041714
 20
-10.27878688979141
 30
0.0
  0
SEQEND
  5
2EE
330
2EB
100
AcDbEntity
  8
BEMAßUNG
  0
POLYLINE
  5
2EF
330
1F
100
AcDbEntity
  8
BEMAßUNG
 62
     7
100
AcDb2dPolyline
 66
     1
 10
0.0
 20
0.0
 30
0.0
  0
VERTEX
  5
2F0
330
2EF
100
AcDbEntity
  8
BEMAßUNG
 62
     7
100
AcDbVertex
100
AcDb2dVertex
 10
-2.54592556359963
 20
-10.27878688979141
 30
0.0
  0
VERTEX
  5
2F1
330
2EF
100
AcDbEntity
  8
BEMAßUNG
 62
     7
100
AcDbVertex
100
AcDb2dVertex
 10
-2.360923936041714
 20
-10.27878688979141
 30
0.0
  0
SEQEND
  5
2F2
330
2EF
100
AcDbEntity
  8
BEMAßUNG
  0
POLYLINE
  5
2F3
330
1F
100
AcDbEntity
  8
BEMAßUNG
 62
     7
100
AcDb2dPolyline
 66
     1
 10
0.0
 20
0.0
 30
0.0
  0
VERTEX
  5
2F4
330
2F3
100
AcDbEntity
  8
BEMAßUNG
 62
     7
100
AcDbVertex
100
AcDb2dVertex
 10
-2.54592556359963
 20
-10.22797173138398
 30
0.0
  0
VERTEX
  5
2F5
330
2F3
100
AcDbEntity
  8
BEMAßUNG
 62
     7
100
AcDbVertex
100
AcDb2dVertex
 10
-1.975073241693732
 20
-10.22797173138398
 30
0.0
  0
SEQEND
  5
2F6
330
2F3
100
AcDbEntity
  8
BEMAßUNG
  0
POLYLINE
  5
2F7
330
1F
100
AcDbEntity
  8
BEMAßUNG
 62
     7
100
AcDb2dPolyline
 66
     1
 10
0.0
 20
0.0
 30
0.0
  0
VERTEX
  5
2F8
330
2F7
100
AcDbEntity
  8
BEMAßUNG
 62
     7
100
AcDbVertex
100
AcDb2dVertex
 10
-2.54592556359963
 20
-10.17715657297654
 30
0.0
  0
VERTEX
  5
2F9
330
2F7
100
AcDbEntity
  8
BEMAßUNG
 62
     7
100
AcDbVertex
100
AcDb2dVertex
 10
-1.588878037797225
 20
-10.17715657297654
 30
0.0
  0
SEQEND
  5
2FA
330
2F7
100
AcDbEntity
  8
BEMAßUNG
  0
POLYLINE
  5
2FB
330
1F
100
AcDbEntity
  8
BEMAßUNG
 62
     7
100
AcDb2dPolyline
 66
     1
 10
0.0
 20
0.0
 30
0.0
  0
VERTEX
  5
2FC
330
2FB
100
AcDbEntity
  8
BEMAßUNG
 62
     7
100
AcDbVertex
100
AcDb2dVertex
 10
-2.54592556359963
 20
-10.12634141456911
 30
0.0
  0
VERTEX
  5
2FD
330
2FB
100
AcDbEntity
  8
BEMAßUNG
 62
     7
100
AcDbVertex
100
AcDb2dVertex
 10
-1.203027343449243
 20
-10.12634141456911
 30
0.0
  0
SEQEND
  5
2FE
330
2FB
100
AcDbEntity
  8
BEMAßUNG
  0
POLYLINE
  5
2FF
330
1F
100
AcDbEntity
  8
BEMAßUNG
 62
     7
100
AcDb2dPolyline
 66
     1
 10
0.0
 20
0.0
 30
0.0
  0
VERTEX
  5
300
330
2FF
100
AcDbEntity
  8
BEMAßUNG
 62
     7
100
AcDbVertex
100
AcDb2dVertex
 10
-2.54592556359963
 20
-10.07552625616167
 30
0.0
  0
VERTEX
  5
301
330
2FF
100
AcDbEntity
  8
BEMAßUNG
 62
     7
100
AcDbVertex
100
AcDb2dVertex
 10
-0.8175211586497864
 20
-10.07552625616167
 30
0.0
  0
SEQEND
  5
302
330
2FF
100
AcDbEntity
  8
BEMAßUNG
  0
POLYLINE
  5
303
330
1F
100
AcDbEntity
  8
BEMAßUNG
 62
     7
100
AcDb2dPolyline
 66
     1
 10
0.0
 20
0.0
 30
0.0
  0
VERTEX
  5
304
330
303
100
AcDbEntity
  8
BEMAßUNG
 62
     7
100
AcDbVertex
100
AcDb2dVertex
 10
-2.54592556359963
 20
-10.02471109775424
 30
0.0
  0
VERTEX
  5
305
330
303
100
AcDbEntity
  8
BEMAßUNG
 62
     7
100
AcDbVertex
100
AcDb2dVertex
 10
-0.4316704643018046
 20
-10.02471109775424
 30
0.0
  0
SEQEND
  5
306
330
303
100
AcDbEntity
  8
BEMAßUNG
  0
POLYLINE
  5
307
330
1F
100
AcDbEntity
  8
BEMAßUNG
 62
     7
100
AcDb2dPolyline
 66
     1
 10
0.0
 20
0.0
 30
0.0
  0
VERTEX
  5
308
330
307
100
AcDbEntity
  8
BEMAßUNG
 62
     7
100
AcDbVertex
100
AcDb2dVertex
 10
-2.54592556359963
 20
-9.973895939346804
 30
0.0
  0
VERTEX
  5
309
330
307
100
AcDbEntity
  8
BEMAßUNG
 62
     7
100
AcDbVertex
100
AcDb2dVertex
 10
-0.0458197699538228
 20
-9.973895939346804
 30
0.0
  0
SEQEND
  5
30A
330
307
100
AcDbEntity
  8
BEMAßUNG
  0
POLYLINE
  5
30B
330
1F
100
AcDbEntity
  8
BEMAßUNG
 62
     7
100
AcDb2dPolyline
 66
     1
 10
0.0
 20
0.0
 30
0.0
  0
VERTEX
  5
30C
330
30B
100
AcDbEntity
  8
BEMAßUNG
 62
     7
100
AcDbVertex
100
AcDb2dVertex
 10
-31.5451890654644
 20
-9.973895939346804
 30
0.0
  0
VERTEX
  5
30D
330
30B
100
AcDbEntity
  8
BEMAßUNG
 62
     7
100
AcDbVertex
100
AcDb2dVertex
 10
-29.04577229091564
 20
-10.3027303034139
 30
0.0
  0
VERTEX
  5
30E
330
30B
100
AcDbEntity
  8
BEMAßUNG
 62
     7
100
AcDbVertex
100
AcDb2dVertex
 10
-29.04577229091564
 20
-9.644889320505445
 30
0.0
  0
VERTEX
  5
30F
330
30B
100
AcDbEntity
  8
BEMAßUNG
 62
     7
100
AcDbVertex
100
AcDb2dVertex
 10
-31.5451890654644
 20
-9.973895939346804
 30
0.0
  0
SEQEND
  5
310
330
30B
100
AcDbEntity
  8
BEMAßUNG
  0
POLYLINE
  5
311
330
1F
100
AcDbEntity
  8
BEMAßUNG
 62
     7
100
AcDb2dPolyline
 66
     1
 10
0.0
 20
0.0
 30
0.0
  0
VERTEX
  5
312
330
311
100
AcDbEntity
  8
BEMAßUNG
 62
     7
100
AcDbVertex
100
AcDb2dVertex
 10
-29.04577229091564
 20
-10.27878688979141
 30
0.0
  0
VERTEX
  5
313
330
311
100
AcDbEntity
  8
BEMAßUNG
 62
     7
100
AcDbVertex
100
AcDb2dVertex
 10
-29.2306016636993
 20
-10.27878688979141
 30
0.0
  0
SEQEND
  5
314
330
311
100
AcDbEntity
  8
BEMAßUNG
  0
POLYLINE
  5
315
330
1F
100
AcDbEntity
  8
BEMAßUNG
 62
     7
100
AcDb2dPolyline
 66
     1
 10
0.0
 20
0.0
 30
0.0
  0
VERTEX
  5
316
330
315
100
AcDbEntity
  8
BEMAßUNG
 62
     7
100
AcDbVertex
100
AcDb2dVertex
 10
-29.04577229091564
 20
-10.27878688979141
 30
0.0
  0
VERTEX
  5
317
330
315
100
AcDbEntity
  8
BEMAßUNG
 62
     7
100
AcDbVertex
100
AcDb2dVertex
 10
-29.2306016636993
 20
-10.27878688979141
 30
0.0
  0
SEQEND
  5
318
330
315
100
AcDbEntity
  8
BEMAßUNG
  0
POLYLINE
  5
319
330
1F
100
AcDbEntity
  8
BEMAßUNG
 62
     7
100
AcDb2dPolyline
 66
     1
 10
0.0
 20
0.0
 30
0.0
  0
VERTEX
  5
31A
330
319
100
AcDbEntity
  8
BEMAßUNG
 62
     7
100
AcDbVertex
100
AcDb2dVertex
 10
-29.04577229091564
 20
-10.22797173138398
 30
0.0
  0
VERTEX
  5
31B
330
319
100
AcDbEntity
  8
BEMAßUNG
 62
     7
100
AcDbVertex
100
AcDb2dVertex
 10
-29.61662461282154
 20
-10.22797173138398
 30
0.0
  0
SEQEND
  5
31C
330
319
100
AcDbEntity
  8
BEMAßUNG
  0
POLYLINE
  5
31D
330
1F
100
AcDbEntity
  8
BEMAßUNG
 62
     7
100
AcDb2dPolyline
 66
     1
 10
0.0
 20
0.0
 30
0.0
  0
VERTEX
  5
31E
330
31D
100
AcDbEntity
  8
BEMAßUNG
 62
     7
100
AcDbVertex
100
AcDb2dVertex
 10
-29.04577229091564
 20
-10.17715657297654
 30
0.0
  0
VERTEX
  5
31F
330
31D
100
AcDbEntity
  8
BEMAßUNG
 62
     7
100
AcDbVertex
100
AcDb2dVertex
 10
-30.00178628807247
 20
-10.17715657297654
 30
0.0
  0
SEQEND
  5
320
330
31D
100
AcDbEntity
  8
BEMAßUNG
  0
POLYLINE
  5
321
330
1F
100
AcDbEntity
  8
BEMAßUNG
 62
     7
100
AcDb2dPolyline
 66
     1
 10
0.0
 20
0.0
 30
0.0
  0
VERTEX
  5
322
330
321
100
AcDbEntity
  8
BEMAßUNG
 62
     7
100
AcDbVertex
100
AcDb2dVertex
 10
-29.04577229091564
 20
-10.12634141456911
 30
0.0
  0
VERTEX
  5
323
330
321
100
AcDbEntity
  8
BEMAßUNG
 62
     7
100
AcDbVertex
100
AcDb2dVertex
 10
-30.38815374674324
 20
-10.12634141456911
 30
0.0
  0
SEQEND
  5
324
330
321
100
AcDbEntity
  8
BEMAßUNG
  0
POLYLINE
  5
325
330
1F
100
AcDbEntity
  8
BEMAßUNG
 62
     7
100
AcDb2dPolyline
 66
     1
 10
0.0
 20
0.0
 30
0.0
  0
VERTEX
  5
326
330
325
100
AcDbEntity
  8
BEMAßUNG
 62
     7
100
AcDbVertex
100
AcDb2dVertex
 10
-29.04577229091564
 20
-10.07552625616167
 30
0.0
  0
VERTEX
  5
327
330
325
100
AcDbEntity
  8
BEMAßUNG
 62
     7
100
AcDbVertex
100
AcDb2dVertex
 10
-30.77400444109122
 20
-10.07552625616167
 30
0.0
  0
SEQEND
  5
328
330
325
100
AcDbEntity
  8
BEMAßUNG
  0
POLYLINE
  5
329
330
1F
100
AcDbEntity
  8
BEMAßUNG
 62
     7
100
AcDb2dPolyline
 66
     1
 10
0.0
 20
0.0
 30
0.0
  0
VERTEX
  5
32A
330
329
100
AcDbEntity
  8
BEMAßUNG
 62
     7
100
AcDbVertex
100
AcDb2dVertex
 10
-29.04577229091564
 20
-10.02471109775424
 30
0.0
  0
VERTEX
  5
32B
330
329
100
AcDbEntity
  8
BEMAßUNG
 62
     7
100
AcDbVertex
100
AcDb2dVertex
 10
-31.16002739021347
 20
-10.02471109775424
 30
0.0
  0
SEQEND
  5
32C
330
329
100
AcDbEntity
  8
BEMAßUNG
  0
POLYLINE
  5
32D
330
1F
100
AcDbEntity
  8
BEMAßUNG
 62
     7
100
AcDb2dPolyline
 66
     1
 10
0.0
 20
0.0
 30
0.0
  0
VERTEX
  5
32E
330
32D
100
AcDbEntity
  8
BEMAßUNG
 62
     7
100
AcDbVertex
100
AcDb2dVertex
 10
-29.04577229091564
 20
-9.973895939346804
 30
0.0
  0
VERTEX
  5
32F
330
32D
100
AcDbEntity
  8
BEMAßUNG
 62
     7
100
AcDbVertex
100
AcDb2dVertex
 10
-31.5451890654644
 20
-9.973895939346804
 30
0.0
  0
SEQEND
  5
330
330
32D
100
AcDbEntity
  8
BEMAßUNG
  0
POLYLINE
  5
331
330
1F
100
AcDbEntity
  8
BEMAßUNG
 62
     7
100
AcDb2dPolyline
 66
     1
 10
0.0
 20
0.0
 30
0.0
  0
VERTEX
  5
332
330
331
100
AcDbEntity
  8
BEMAßUNG
 62
     7
100
AcDbVertex
100
AcDb2dVertex
 10
-29.04577229091564
 20
-9.668832734127932
 30
0.0
  0
VERTEX
  5
333
330
331
100
AcDbEntity
  8
BEMAßUNG
 62
     7
100
AcDbVertex
100
AcDb2dVertex
 10
-29.2306016636993
 20
-9.668832734127932
 30
0.0
  0
SEQEND
  5
334
330
331
100
AcDbEntity
  8
BEMAßUNG
  0
POLYLINE
  5
335
330
1F
100
AcDbEntity
  8
BEMAßUNG
 62
     7
100
AcDb2dPolyline
 66
     1
 10
0.0
 20
0.0
 30
0.0
  0
VERTEX
  5
336
330
335
100
AcDbEntity
  8
BEMAßUNG
 62
     7
100
AcDbVertex
100
AcDb2dVertex
 10
-29.04577229091564
 20
-9.668832734127932
 30
0.0
  0
VERTEX
  5
337
330
335
100
AcDbEntity
  8
BEMAßUNG
 62
     7
100
AcDbVertex
100
AcDb2dVertex
 10
-29.2306016636993
 20
-9.668832734127932
 30
0.0
  0
SEQEND
  5
338
330
335
100
AcDbEntity
  8
BEMAßUNG
  0
POLYLINE
  5
339
330
1F
100
AcDbEntity
  8
BEMAßUNG
 62
     7
100
AcDb2dPolyline
 66
     1
 10
0.0
 20
0.0
 30
0.0
  0
VERTEX
  5
33A
330
339
100
AcDbEntity
  8
BEMAßUNG
 62
     7
100
AcDbVertex
100
AcDb2dVertex
 10
-29.04577229091564
 20
-9.719647892535367
 30
0.0
  0
VERTEX
  5
33B
330
339
100
AcDbEntity
  8
BEMAßUNG
 62
     7
100
AcDbVertex
100
AcDb2dVertex
 10
-29.61662461282154
 20
-9.719647892535367
 30
0.0
  0
SEQEND
  5
33C
330
339
100
AcDbEntity
  8
BEMAßUNG
  0
POLYLINE
  5
33D
330
1F
100
AcDbEntity
  8
BEMAßUNG
 62
     7
100
AcDb2dPolyline
 66
     1
 10
0.0
 20
0.0
 30
0.0
  0
VERTEX
  5
33E
330
33D
100
AcDbEntity
  8
BEMAßUNG
 62
     7
100
AcDbVertex
100
AcDb2dVertex
 10
-29.04577229091564
 20
-9.770463050942801
 30
0.0
  0
VERTEX
  5
33F
330
33D
100
AcDbEntity
  8
BEMAßUNG
 62
     7
100
AcDbVertex
100
AcDb2dVertex
 10
-30.00178628807247
 20
-9.770463050942801
 30
0.0
  0
SEQEND
  5
340
330
33D
100
AcDbEntity
  8
BEMAßUNG
  0
POLYLINE
  5
341
330
1F
100
AcDbEntity
  8
BEMAßUNG
 62
     7
100
AcDb2dPolyline
 66
     1
 10
0.0
 20
0.0
 30
0.0
  0
VERTEX
  5
342
330
341
100
AcDbEntity
  8
BEMAßUNG
 62
     7
100
AcDbVertex
100
AcDb2dVertex
 10
-29.04577229091564
 20
-9.821278209350236
 30
0.0
  0
VERTEX
  5
343
330
341
100
AcDbEntity
  8
BEMAßUNG
 62
     7
100
AcDbVertex
100
AcDb2dVertex
 10
-30.38815374674324
 20
-9.821278209350236
 30
0.0
  0
SEQEND
  5
344
330
341
100
AcDbEntity
  8
BEMAßUNG
  0
POLYLINE
  5
345
330
1F
100
AcDbEntity
  8
BEMAßUNG
 62
     7
100
AcDb2dPolyline
 66
     1
 10
0.0
 20
0.0
 30
0.0
  0
VERTEX
  5
346
330
345
100
AcDbEntity
  8
BEMAßUNG
 62
     7
100
AcDbVertex
100
AcDb2dVertex
 10
-29.04577229091564
 20
-9.87192111298341
 30
0.0
  0
VERTEX
  5
347
330
345
100
AcDbEntity
  8
BEMAßUNG
 62
     7
100
AcDbVertex
100
AcDb2dVertex
 10
-30.77400444109122
 20
-9.87192111298341
 30
0.0
  0
SEQEND
  5
348
330
345
100
AcDbEntity
  8
BEMAßUNG
  0
POLYLINE
  5
349
330
1F
100
AcDbEntity
  8
BEMAßUNG
 62
     7
100
AcDb2dPolyline
 66
     1
 10
0.0
 20
0.0
 30
0.0
  0
VERTEX
  5
34A
330
349
100
AcDbEntity
  8
BEMAßUNG
 62
     7
100
AcDbVertex
100
AcDb2dVertex
 10
-29.04577229091564
 20
-9.922908526165106
 30
0.0
  0
VERTEX
  5
34B
330
349
100
AcDbEntity
  8
BEMAßUNG
 62
     7
100
AcDbVertex
100
AcDb2dVertex
 10
-31.16002739021347
 20
-9.922908526165106
 30
0.0
  0
SEQEND
  5
34C
330
349
100
AcDbEntity
  8
BEMAßUNG
  0
POLYLINE
  5
34D
330
1F
100
AcDbEntity
  8
BEMAßUNG
 62
     7
100
AcDb2dPolyline
 66
     1
 10
0.0
 20
0.0
 30
0.0
  0
VERTEX
  5
34E
330
34D
100
AcDbEntity
  8
BEMAßUNG
 62
     7
100
AcDbVertex
100
AcDb2dVertex
 10
-29.04577229091564
 20
-9.973895939346804
 30
0.0
  0
VERTEX
  5
34F
330
34D
100
AcDbEntity
  8
BEMAßUNG
 62
     7
100
AcDbVertex
100
AcDb2dVertex
 10
-31.5451890654644
 20
-9.973895939346804
 30
0.0
  0
SEQEND
  5
350
330
34D
100
AcDbEntity
  8
BEMAßUNG
  0
POLYLINE
  5
351
330
1F
100
AcDbEntity
  8
BEMAßUNG
 62
     7
100
AcDb2dPolyline
 66
     1
 10
0.0
 20
0.0
 30
0.0
  0
VERTEX
  5
352
330
351
100
AcDbEntity
  8
BEMAßUNG
 62
     7
100
AcDbVertex
100
AcDb2dVertex
 10
-27.00524223500216
 20
20.95737711064607
 30
0.0
  0
VERTEX
  5
353
330
351
100
AcDbEntity
  8
BEMAßUNG
 62
     7
100
AcDbVertex
100
AcDb2dVertex
 10
-53.66631943102787
 20
20.95737711064607
 30
0.0
  0
SEQEND
  5
354
330
351
100
AcDbEntity
  8
BEMAßUNG
  0
POLYLINE
  5
355
330
1F
100
AcDbEntity
  8
BEMAßUNG
 62
     7
100
AcDb2dPolyline
 66
     1
 10
0.0
 20
0.0
 30
0.0
  0
VERTEX
  5
356
330
355
100
AcDbEntity
  8
BEMAßUNG
 62
     7
100
AcDbVertex
100
AcDb2dVertex
 10
-26.74530978064006
 20
-0.0215318467828115
 30
0.0
  0
VERTEX
  5
357
330
355
100
AcDbEntity
  8
BEMAßUNG
 62
     7
100
AcDbVertex
100
AcDb2dVertex
 10
-53.66631943102787
 20
-0.0215318467828115
 30
0.0
  0
SEQEND
  5
358
330
355
100
AcDbEntity
  8
BEMAßUNG
  0
POLYLINE
  5
359
330
1F
100
AcDbEntity
  8
BEMAßUNG
 62
     7
100
AcDb2dPolyline
 66
     1
 10
0.0
 20
0.0
 30
0.0
  0
VERTEX
  5
35A
330
359
100
AcDbEntity
  8
BEMAßUNG
 62
     7
100
AcDbVertex
100
AcDb2dVertex
 10
-51.66678601138886
 20
20.95737711064607
 30
0.0
  0
VERTEX
  5
35B
330
359
100
AcDbEntity
  8
BEMAßUNG
 62
     7
100
AcDbVertex
100
AcDb2dVertex
 10
-51.66678601138886
 20
-0.0215318467828115
 30
0.0
  0
SEQEND
  5
35C
330
359
100
AcDbEntity
  8
BEMAßUNG
  0
POLYLINE
  5
35D
330
1F
100
AcDbEntity
  8
BEMAßUNG
 62
     7
100
AcDb2dPolyline
 66
     1
 10
0.0
 20
0.0
 30
0.0
  0
VERTEX
  5
35E
330
35D
100
AcDbEntity
  8
BEMAßUNG
 62
     7
100
AcDbVertex
100
AcDb2dVertex
 10
-51.66678601138886
 20
20.95737711064607
 30
0.0
  0
VERTEX
  5
35F
330
35D
100
AcDbEntity
  8
BEMAßUNG
 62
     7
100
AcDbVertex
100
AcDb2dVertex
 10
-51.99544812068169
 20
18.45727131700027
 30
0.0
  0
VERTEX
  5
360
330
35D
100
AcDbEntity
  8
BEMAßUNG
 62
     7
100
AcDbVertex
100
AcDb2dVertex
 10
-51.33760713777324
 20
18.45727131700027
 30
0.0
  0
VERTEX
  5
361
330
35D
100
AcDbEntity
  8
BEMAßUNG
 62
     7
100
AcDbVertex
100
AcDb2dVertex
 10
-51.66678601138886
 20
20.95737711064607
 30
0.0
  0
SEQEND
  5
362
330
35D
100
AcDbEntity
  8
BEMAßUNG
  0
POLYLINE
  5
363
330
1F
100
AcDbEntity
  8
BEMAßUNG
 62
     7
100
AcDb2dPolyline
 66
     1
 10
0.0
 20
0.0
 30
0.0
  0
VERTEX
  5
364
330
363
100
AcDbEntity
  8
BEMAßUNG
 62
     7
100
AcDbVertex
100
AcDb2dVertex
 10
-51.97150470705921
 20
18.45727131700027
 30
0.0
  0
VERTEX
  5
365
330
363
100
AcDbEntity
  8
BEMAßUNG
 62
     7
100
AcDbVertex
100
AcDb2dVertex
 10
-51.97150470705921
 20
18.64210068978392
 30
0.0
  0
SEQEND
  5
366
330
363
100
AcDbEntity
  8
BEMAßUNG
  0
POLYLINE
  5
367
330
1F
100
AcDbEntity
  8
BEMAßUNG
 62
     7
100
AcDb2dPolyline
 66
     1
 10
0.0
 20
0.0
 30
0.0
  0
VERTEX
  5
368
330
367
100
AcDbEntity
  8
BEMAßUNG
 62
     7
100
AcDbVertex
100
AcDb2dVertex
 10
-51.97150470705921
 20
18.45727131700027
 30
0.0
  0
VERTEX
  5
369
330
367
100
AcDbEntity
  8
BEMAßUNG
 62
     7
100
AcDbVertex
100
AcDb2dVertex
 10
-51.97150470705921
 20
18.64210068978392
 30
0.0
  0
SEQEND
  5
36A
330
367
100
AcDbEntity
  8
BEMAßUNG
  0
POLYLINE
  5
36B
330
1F
100
AcDbEntity
  8
BEMAßUNG
 62
     7
100
AcDb2dPolyline
 66
     1
 10
0.0
 20
0.0
 30
0.0
  0
VERTEX
  5
36C
330
36B
100
AcDbEntity
  8
BEMAßUNG
 62
     7
100
AcDbVertex
100
AcDb2dVertex
 10
-51.92068954865177
 20
18.45727131700027
 30
0.0
  0
VERTEX
  5
36D
330
36B
100
AcDbEntity
  8
BEMAßUNG
 62
     7
100
AcDbVertex
100
AcDb2dVertex
 10
-51.92068954865177
 20
19.02829589368043
 30
0.0
  0
SEQEND
  5
36E
330
36B
100
AcDbEntity
  8
BEMAßUNG
  0
POLYLINE
  5
36F
330
1F
100
AcDbEntity
  8
BEMAßUNG
 62
     7
100
AcDb2dPolyline
 66
     1
 10
0.0
 20
0.0
 30
0.0
  0
VERTEX
  5
370
330
36F
100
AcDbEntity
  8
BEMAßUNG
 62
     7
100
AcDbVertex
100
AcDb2dVertex
 10
-51.86952988069581
 20
18.45727131700027
 30
0.0
  0
VERTEX
  5
371
330
36F
100
AcDbEntity
  8
BEMAßUNG
 62
     7
100
AcDbVertex
100
AcDb2dVertex
 10
-51.86952988069581
 20
19.41397433325415
 30
0.0
  0
SEQEND
  5
372
330
36F
100
AcDbEntity
  8
BEMAßUNG
  0
POLYLINE
  5
373
330
1F
100
AcDbEntity
  8
BEMAßUNG
 62
     7
100
AcDb2dPolyline
 66
     1
 10
0.0
 20
0.0
 30
0.0
  0
VERTEX
  5
374
330
373
100
AcDbEntity
  8
BEMAßUNG
 62
     7
100
AcDbVertex
100
AcDb2dVertex
 10
-51.81871472228838
 20
18.45727131700027
 30
0.0
  0
VERTEX
  5
375
330
373
100
AcDbEntity
  8
BEMAßUNG
 62
     7
100
AcDbVertex
100
AcDb2dVertex
 10
-51.81871472228838
 20
19.80016953715065
 30
0.0
  0
SEQEND
  5
376
330
373
100
AcDbEntity
  8
BEMAßUNG
  0
POLYLINE
  5
377
330
1F
100
AcDbEntity
  8
BEMAßUNG
 62
     7
100
AcDb2dPolyline
 66
     1
 10
0.0
 20
0.0
 30
0.0
  0
VERTEX
  5
378
330
377
100
AcDbEntity
  8
BEMAßUNG
 62
     7
100
AcDbVertex
100
AcDb2dVertex
 10
-51.76789956388095
 20
18.45727131700027
 30
0.0
  0
VERTEX
  5
379
330
377
100
AcDbEntity
  8
BEMAßUNG
 62
     7
100
AcDbVertex
100
AcDb2dVertex
 10
-51.76789956388095
 20
20.1861924862729
 30
0.0
  0
SEQEND
  5
37A
330
377
100
AcDbEntity
  8
BEMAßUNG
  0
POLYLINE
  5
37B
330
1F
100
AcDbEntity
  8
BEMAßUNG
 62
     7
100
AcDb2dPolyline
 66
     1
 10
0.0
 20
0.0
 30
0.0
  0
VERTEX
  5
37C
330
37B
100
AcDbEntity
  8
BEMAßUNG
 62
     7
100
AcDbVertex
100
AcDb2dVertex
 10
-51.7176011697963
 20
18.45727131700027
 30
0.0
  0
VERTEX
  5
37D
330
37B
100
AcDbEntity
  8
BEMAßUNG
 62
     7
100
AcDbVertex
100
AcDb2dVertex
 10
-51.7176011697963
 20
20.57169867107235
 30
0.0
  0
SEQEND
  5
37E
330
37B
100
AcDbEntity
  8
BEMAßUNG
  0
POLYLINE
  5
37F
330
1F
100
AcDbEntity
  8
BEMAßUNG
 62
     7
100
AcDb2dPolyline
 66
     1
 10
0.0
 20
0.0
 30
0.0
  0
VERTEX
  5
380
330
37F
100
AcDbEntity
  8
BEMAßUNG
 62
     7
100
AcDbVertex
100
AcDb2dVertex
 10
-51.66678601138886
 20
18.45727131700027
 30
0.0
  0
VERTEX
  5
381
330
37F
100
AcDbEntity
  8
BEMAßUNG
 62
     7
100
AcDbVertex
100
AcDb2dVertex
 10
-51.66678601138886
 20
20.95737711064607
 30
0.0
  0
SEQEND
  5
382
330
37F
100
AcDbEntity
  8
BEMAßUNG
  0
POLYLINE
  5
383
330
1F
100
AcDbEntity
  8
BEMAßUNG
 62
     7
100
AcDb2dPolyline
 66
     1
 10
0.0
 20
0.0
 30
0.0
  0
VERTEX
  5
384
330
383
100
AcDbEntity
  8
BEMAßUNG
 62
     7
100
AcDbVertex
100
AcDb2dVertex
 10
-51.36155055139572
 20
18.45727131700027
 30
0.0
  0
VERTEX
  5
385
330
383
100
AcDbEntity
  8
BEMAßUNG
 62
     7
100
AcDbVertex
100
AcDb2dVertex
 10
-51.36155055139572
 20
18.64210068978392
 30
0.0
  0
SEQEND
  5
386
330
383
100
AcDbEntity
  8
BEMAßUNG
  0
POLYLINE
  5
387
330
1F
100
AcDbEntity
  8
BEMAßUNG
 62
     7
100
AcDb2dPolyline
 66
     1
 10
0.0
 20
0.0
 30
0.0
  0
VERTEX
  5
388
330
387
100
AcDbEntity
  8
BEMAßUNG
 62
     7
100
AcDbVertex
100
AcDb2dVertex
 10
-51.36155055139572
 20
18.45727131700027
 30
0.0
  0
VERTEX
  5
389
330
387
100
AcDbEntity
  8
BEMAßUNG
 62
     7
100
AcDbVertex
100
AcDb2dVertex
 10
-51.36155055139572
 20
18.64210068978392
 30
0.0
  0
SEQEND
  5
38A
330
387
100
AcDbEntity
  8
BEMAßUNG
  0
POLYLINE
  5
38B
330
1F
100
AcDbEntity
  8
BEMAßUNG
 62
     7
100
AcDb2dPolyline
 66
     1
 10
0.0
 20
0.0
 30
0.0
  0
VERTEX
  5
38C
330
38B
100
AcDbEntity
  8
BEMAßUNG
 62
     7
100
AcDbVertex
100
AcDb2dVertex
 10
-51.41271021935169
 20
18.45727131700027
 30
0.0
  0
VERTEX
  5
38D
330
38B
100
AcDbEntity
  8
BEMAßUNG
 62
     7
100
AcDbVertex
100
AcDb2dVertex
 10
-51.41271021935169
 20
19.02829589368043
 30
0.0
  0
SEQEND
  5
38E
330
38B
100
AcDbEntity
  8
BEMAßUNG
  0
POLYLINE
  5
38F
330
1F
100
AcDbEntity
  8
BEMAßUNG
 62
     7
100
AcDb2dPolyline
 66
     1
 10
0.0
 20
0.0
 30
0.0
  0
VERTEX
  5
390
330
38F
100
AcDbEntity
  8
BEMAßUNG
 62
     7
100
AcDbVertex
100
AcDb2dVertex
 10
-51.46352537775912
 20
18.45727131700027
 30
0.0
  0
VERTEX
  5
391
330
38F
100
AcDbEntity
  8
BEMAßUNG
 62
     7
100
AcDbVertex
100
AcDb2dVertex
 10
-51.46352537775912
 20
19.41397433325415
 30
0.0
  0
SEQEND
  5
392
330
38F
100
AcDbEntity
  8
BEMAßUNG
  0
POLYLINE
  5
393
330
1F
100
AcDbEntity
  8
BEMAßUNG
 62
     7
100
AcDb2dPolyline
 66
     1
 10
0.0
 20
0.0
 30
0.0
  0
VERTEX
  5
394
330
393
100
AcDbEntity
  8
BEMAßUNG
 62
     7
100
AcDbVertex
100
AcDb2dVertex
 10
-51.51399602661803
 20
18.45727131700027
 30
0.0
  0
VERTEX
  5
395
330
393
100
AcDbEntity
  8
BEMAßUNG
 62
     7
100
AcDbVertex
100
AcDb2dVertex
 10
-51.51399602661803
 20
19.80016953715065
 30
0.0
  0
SEQEND
  5
396
330
393
100
AcDbEntity
  8
BEMAßUNG
  0
POLYLINE
  5
397
330
1F
100
AcDbEntity
  8
BEMAßUNG
 62
     7
100
AcDb2dPolyline
 66
     1
 10
0.0
 20
0.0
 30
0.0
  0
VERTEX
  5
398
330
397
100
AcDbEntity
  8
BEMAßUNG
 62
     7
100
AcDbVertex
100
AcDb2dVertex
 10
-51.56481118502547
 20
18.45727131700027
 30
0.0
  0
VERTEX
  5
399
330
397
100
AcDbEntity
  8
BEMAßUNG
 62
     7
100
AcDbVertex
100
AcDb2dVertex
 10
-51.56481118502547
 20
20.1861924862729
 30
0.0
  0
SEQEND
  5
39A
330
397
100
AcDbEntity
  8
BEMAßUNG
  0
POLYLINE
  5
39B
330
1F
100
AcDbEntity
  8
BEMAßUNG
 62
     7
100
AcDb2dPolyline
 66
     1
 10
0.0
 20
0.0
 30
0.0
  0
VERTEX
  5
39C
330
39B
100
AcDbEntity
  8
BEMAßUNG
 62
     7
100
AcDbVertex
100
AcDb2dVertex
 10
-51.6156263434329
 20
18.45727131700027
 30
0.0
  0
VERTEX
  5
39D
330
39B
100
AcDbEntity
  8
BEMAßUNG
 62
     7
100
AcDbVertex
100
AcDb2dVertex
 10
-51.6156263434329
 20
20.57169867107235
 30
0.0
  0
SEQEND
  5
39E
330
39B
100
AcDbEntity
  8
BEMAßUNG
  0
POLYLINE
  5
39F
330
1F
100
AcDbEntity
  8
BEMAßUNG
 62
     7
100
AcDb2dPolyline
 66
     1
 10
0.0
 20
0.0
 30
0.0
  0
VERTEX
  5
3A0
330
39F
100
AcDbEntity
  8
BEMAßUNG
 62
     7
100
AcDbVertex
100
AcDb2dVertex
 10
-51.66678601138886
 20
18.45727131700027
 30
0.0
  0
VERTEX
  5
3A1
330
39F
100
AcDbEntity
  8
BEMAßUNG
 62
     7
100
AcDbVertex
100
AcDb2dVertex
 10
-51.66678601138886
 20
20.95737711064607
 30
0.0
  0
SEQEND
  5
3A2
330
39F
100
AcDbEntity
  8
BEMAßUNG
  0
POLYLINE
  5
3A3
330
1F
100
AcDbEntity
  8
BEMAßUNG
 62
     7
100
AcDb2dPolyline
 66
     1
 10
0.0
 20
0.0
 30
0.0
  0
VERTEX
  5
3A4
330
3A3
100
AcDbEntity
  8
BEMAßUNG
 62
     7
100
AcDbVertex
100
AcDb2dVertex
 10
-51.66678601138886
 20
-0.0215318467828115
 30
0.0
  0
VERTEX
  5
3A5
330
3A3
100
AcDbEntity
  8
BEMAßUNG
 62
     7
100
AcDbVertex
100
AcDb2dVertex
 10
-51.33760713777324
 20
2.478401692088733
 30
0.0
  0
VERTEX
  5
3A6
330
3A3
100
AcDbEntity
  8
BEMAßUNG
 62
     7
100
AcDbVertex
100
AcDb2dVertex
 10
-51.99544812068169
 20
2.478401692088733
 30
0.0
  0
VERTEX
  5
3A7
330
3A3
100
AcDbEntity
  8
BEMAßUNG
 62
     7
100
AcDbVertex
100
AcDb2dVertex
 10
-51.66678601138886
 20
-0.0215318467828115
 30
0.0
  0
SEQEND
  5
3A8
330
3A3
100
AcDbEntity
  8
BEMAßUNG
  0
POLYLINE
  5
3A9
330
1F
100
AcDbEntity
  8
BEMAßUNG
 62
     7
100
AcDb2dPolyline
 66
     1
 10
0.0
 20
0.0
 30
0.0
  0
VERTEX
  5
3AA
330
3A9
100
AcDbEntity
  8
BEMAßUNG
 62
     7
100
AcDbVertex
100
AcDb2dVertex
 10
-51.36155055139572
 20
2.478401692088733
 30
0.0
  0
VERTEX
  5
3AB
330
3A9
100
AcDbEntity
  8
BEMAßUNG
 62
     7
100
AcDbVertex
100
AcDb2dVertex
 10
-51.36155055139572
 20
2.293744574079342
 30
0.0
  0
SEQEND
  5
3AC
330
3A9
100
AcDbEntity
  8
BEMAßUNG
  0
POLYLINE
  5
3AD
330
1F
100
AcDbEntity
  8
BEMAßUNG
 62
     7
100
AcDb2dPolyline
 66
     1
 10
0.0
 20
0.0
 30
0.0
  0
VERTEX
  5
3AE
330
3AD
100
AcDbEntity
  8
BEMAßUNG
 62
     7
100
AcDbVertex
100
AcDb2dVertex
 10
-51.36155055139572
 20
2.478401692088733
 30
0.0
  0
VERTEX
  5
3AF
330
3AD
100
AcDbEntity
  8
BEMAßUNG
 62
     7
100
AcDbVertex
100
AcDb2dVertex
 10
-51.36155055139572
 20
2.293744574079342
 30
0.0
  0
SEQEND
  5
3B0
330
3AD
100
AcDbEntity
  8
BEMAßUNG
  0
POLYLINE
  5
3B1
330
1F
100
AcDbEntity
  8
BEMAßUNG
 62
     7
100
AcDb2dPolyline
 66
     1
 10
0.0
 20
0.0
 30
0.0
  0
VERTEX
  5
3B2
330
3B1
100
AcDbEntity
  8
BEMAßUNG
 62
     7
100
AcDbVertex
100
AcDb2dVertex
 10
-51.41271021935169
 20
2.478401692088733
 30
0.0
  0
VERTEX
  5
3B3
330
3B1
100
AcDbEntity
  8
BEMAßUNG
 62
     7
100
AcDbVertex
100
AcDb2dVertex
 10
-51.41271021935169
 20
1.907377115408573
 30
0.0
  0
SEQEND
  5
3B4
330
3B1
100
AcDbEntity
  8
BEMAßUNG
  0
POLYLINE
  5
3B5
330
1F
100
AcDbEntity
  8
BEMAßUNG
 62
     7
100
AcDb2dPolyline
 66
     1
 10
0.0
 20
0.0
 30
0.0
  0
VERTEX
  5
3B6
330
3B5
100
AcDbEntity
  8
BEMAßUNG
 62
     7
100
AcDbVertex
100
AcDb2dVertex
 10
-51.46352537775912
 20
2.478401692088733
 30
0.0
  0
VERTEX
  5
3B7
330
3B5
100
AcDbEntity
  8
BEMAßUNG
 62
     7
100
AcDbVertex
100
AcDb2dVertex
 10
-51.46352537775912
 20
1.521698675834853
 30
0.0
  0
SEQEND
  5
3B8
330
3B5
100
AcDbEntity
  8
BEMAßUNG
  0
POLYLINE
  5
3B9
330
1F
100
AcDbEntity
  8
BEMAßUNG
 62
     7
100
AcDb2dPolyline
 66
     1
 10
0.0
 20
0.0
 30
0.0
  0
VERTEX
  5
3BA
330
3B9
100
AcDbEntity
  8
BEMAßUNG
 62
     7
100
AcDbVertex
100
AcDb2dVertex
 10
-51.51399602661803
 20
2.478401692088733
 30
0.0
  0
VERTEX
  5
3BB
330
3B9
100
AcDbEntity
  8
BEMAßUNG
 62
     7
100
AcDbVertex
100
AcDb2dVertex
 10
-51.51399602661803
 20
1.136192491035396
 30
0.0
  0
SEQEND
  5
3BC
330
3B9
100
AcDbEntity
  8
BEMAßUNG
  0
POLYLINE
  5
3BD
330
1F
100
AcDbEntity
  8
BEMAßUNG
 62
     7
100
AcDb2dPolyline
 66
     1
 10
0.0
 20
0.0
 30
0.0
  0
VERTEX
  5
3BE
330
3BD
100
AcDbEntity
  8
BEMAßUNG
 62
     7
100
AcDbVertex
100
AcDb2dVertex
 10
-51.56481118502547
 20
2.478401692088733
 30
0.0
  0
VERTEX
  5
3BF
330
3BD
100
AcDbEntity
  8
BEMAßUNG
 62
     7
100
AcDbVertex
100
AcDb2dVertex
 10
-51.56481118502547
 20
0.7503417966874146
 30
0.0
  0
SEQEND
  5
3C0
330
3BD
100
AcDbEntity
  8
BEMAßUNG
  0
POLYLINE
  5
3C1
330
1F
100
AcDbEntity
  8
BEMAßUNG
 62
     7
100
AcDb2dPolyline
 66
     1
 10
0.0
 20
0.0
 30
0.0
  0
VERTEX
  5
3C2
330
3C1
100
AcDbEntity
  8
BEMAßUNG
 62
     7
100
AcDbVertex
100
AcDb2dVertex
 10
-51.6156263434329
 20
2.478401692088733
 30
0.0
  0
VERTEX
  5
3C3
330
3C1
100
AcDbEntity
  8
BEMAßUNG
 62
     7
100
AcDbVertex
100
AcDb2dVertex
 10
-51.6156263434329
 20
0.3639743380166453
 30
0.0
  0
SEQEND
  5
3C4
330
3C1
100
AcDbEntity
  8
BEMAßUNG
  0
POLYLINE
  5
3C5
330
1F
100
AcDbEntity
  8
BEMAßUNG
 62
     7
100
AcDb2dPolyline
 66
     1
 10
0.0
 20
0.0
 30
0.0
  0
VERTEX
  5
3C6
330
3C5
100
AcDbEntity
  8
BEMAßUNG
 62
     7
100
AcDbVertex
100
AcDb2dVertex
 10
-51.66678601138886
 20
2.478401692088733
 30
0.0
  0
VERTEX
  5
3C7
330
3C5
100
AcDbEntity
  8
BEMAßUNG
 62
     7
100
AcDbVertex
100
AcDb2dVertex
 10
-51.66678601138886
 20
-0.0215318467828115
 30
0.0
  0
SEQEND
  5
3C8
330
3C5
100
AcDbEntity
  8
BEMAßUNG
  0
POLYLINE
  5
3C9
330
1F
100
AcDbEntity
  8
BEMAßUNG
 62
     7
100
AcDb2dPolyline
 66
     1
 10
0.0
 20
0.0
 30
0.0
  0
VERTEX
  5
3CA
330
3C9
100
AcDbEntity
  8
BEMAßUNG
 62
     7
100
AcDbVertex
100
AcDb2dVertex
 10
-51.97150470705921
 20
2.478401692088733
 30
0.0
  0
VERTEX
  5
3CB
330
3C9
100
AcDbEntity
  8
BEMAßUNG
 62
     7
100
AcDbVertex
100
AcDb2dVertex
 10
-51.97150470705921
 20
2.293744574079342
 30
0.0
  0
SEQEND
  5
3CC
330
3C9
100
AcDbEntity
  8
BEMAßUNG
  0
POLYLINE
  5
3CD
330
1F
100
AcDbEntity
  8
BEMAßUNG
 62
     7
100
AcDb2dPolyline
 66
     1
 10
0.0
 20
0.0
 30
0.0
  0
VERTEX
  5
3CE
330
3CD
100
AcDbEntity
  8
BEMAßUNG
 62
     7
100
AcDbVertex
100
AcDb2dVertex
 10
-51.97150470705921
 20
2.478401692088733
 30
0.0
  0
VERTEX
  5
3CF
330
3CD
100
AcDbEntity
  8
BEMAßUNG
 62
     7
100
AcDbVertex
100
AcDb2dVertex
 10
-51.97150470705921
 20
2.293744574079342
 30
0.0
  0
SEQEND
  5
3D0
330
3CD
100
AcDbEntity
  8
BEMAßUNG
  0
POLYLINE
  5
3D1
330
1F
100
AcDbEntity
  8
BEMAßUNG
 62
     7
100
AcDb2dPolyline
 66
     1
 10
0.0
 20
0.0
 30
0.0
  0
VERTEX
  5
3D2
330
3D1
100
AcDbEntity
  8
BEMAßUNG
 62
     7
100
AcDbVertex
100
AcDb2dVertex
 10
-51.92068954865177
 20
2.478401692088733
 30
0.0
  0
VERTEX
  5
3D3
330
3D1
100
AcDbEntity
  8
BEMAßUNG
 62
     7
100
AcDbVertex
100
AcDb2dVertex
 10
-51.92068954865177
 20
1.907377115408573
 30
0.0
  0
SEQEND
  5
3D4
330
3D1
100
AcDbEntity
  8
BEMAßUNG
  0
POLYLINE
  5
3D5
330
1F
100
AcDbEntity
  8
BEMAßUNG
 62
     7
100
AcDb2dPolyline
 66
     1
 10
0.0
 20
0.0
 30
0.0
  0
VERTEX
  5
3D6
330
3D5
100
AcDbEntity
  8
BEMAßUNG
 62
     7
100
AcDbVertex
100
AcDb2dVertex
 10
-51.86952988069581
 20
2.478401692088733
 30
0.0
  0
VERTEX
  5
3D7
330
3D5
100
AcDbEntity
  8
BEMAßUNG
 62
     7
100
AcDbVertex
100
AcDb2dVertex
 10
-51.86952988069581
 20
1.521698675834853
 30
0.0
  0
SEQEND
  5
3D8
330
3D5
100
AcDbEntity
  8
BEMAßUNG
  0
POLYLINE
  5
3D9
330
1F
100
AcDbEntity
  8
BEMAßUNG
 62
     7
100
AcDb2dPolyline
 66
     1
 10
0.0
 20
0.0
 30
0.0
  0
VERTEX
  5
3DA
330
3D9
100
AcDbEntity
  8
BEMAßUNG
 62
     7
100
AcDbVertex
100
AcDb2dVertex
 10
-51.81871472228838
 20
2.478401692088733
 30
0.0
  0
VERTEX
  5
3DB
330
3D9
100
AcDbEntity
  8
BEMAßUNG
 62
     7
100
AcDbVertex
100
AcDb2dVertex
 10
-51.81871472228838
 20
1.136192491035396
 30
0.0
  0
SEQEND
  5
3DC
330
3D9
100
AcDbEntity
  8
BEMAßUNG
  0
POLYLINE
  5
3DD
330
1F
100
AcDbEntity
  8
BEMAßUNG
 62
     7
100
AcDb2dPolyline
 66
     1
 10
0.0
 20
0.0
 30
0.0
  0
VERTEX
  5
3DE
330
3DD
100
AcDbEntity
  8
BEMAßUNG
 62
     7
100
AcDbVertex
100
AcDb2dVertex
 10
-51.76789956388095
 20
2.478401692088733
 30
0.0
  0
VERTEX
  5
3DF
330
3DD
100
AcDbEntity
  8
BEMAßUNG
 62
     7
100
AcDbVertex
100
AcDb2dVertex
 10
-51.76789956388095
 20
0.7503417966874146
 30
0.0
  0
SEQEND
  5
3E0
330
3DD
100
AcDbEntity
  8
BEMAßUNG
  0
POLYLINE
  5
3E1
330
1F
100
AcDbEntity
  8
BEMAßUNG
 62
     7
100
AcDb2dPolyline
 66
     1
 10
0.0
 20
0.0
 30
0.0
  0
VERTEX
  5
3E2
330
3E1
100
AcDbEntity
  8
BEMAßUNG
 62
     7
100
AcDbVertex
100
AcDb2dVertex
 10
-51.7176011697963
 20
2.478401692088733
 30
0.0
  0
VERTEX
  5
3E3
330
3E1
100
AcDbEntity
  8
BEMAßUNG
 62
     7
100
AcDbVertex
100
AcDb2dVertex
 10
-51.7176011697963
 20
0.3639743380166453
 30
0.0
  0
SEQEND
  5
3E4
330
3E1
100
AcDbEntity
  8
BEMAßUNG
  0
POLYLINE
  5
3E5
330
1F
100
AcDbEntity
  8
BEMAßUNG
 62
     7
100
AcDb2dPolyline
 66
     1
 10
0.0
 20
0.0
 30
0.0
  0
VERTEX
  5
3E6
330
3E5
100
AcDbEntity
  8
BEMAßUNG
 62
     7
100
AcDbVertex
100
AcDb2dVertex
 10
-51.66678601138886
 20
2.478401692088733
 30
0.0
  0
VERTEX
  5
3E7
330
3E5
100
AcDbEntity
  8
BEMAßUNG
 62
     7
100
AcDbVertex
100
AcDb2dVertex
 10
-51.66678601138886
 20
-0.0215318467828115
 30
0.0
  0
SEQEND
  5
3E8
330
3E5
100
AcDbEntity
  8
BEMAßUNG
  0
POLYLINE
  5
3E9
330
1F
100
AcDbEntity
  8
BEMAßUNG
 62
     7
100
AcDb2dPolyline
 66
     1
 10
0.0
 20
0.0
 30
0.0
  0
VERTEX
  5
3EA
330
3E9
100
AcDbEntity
  8
BEMAßUNG
 62
     7
100
AcDbVertex
100
AcDb2dVertex
 10
-31.5451890654644
 20
16.9677842839525
 30
0.0
  0
VERTEX
  5
3EB
330
3E9
100
AcDbEntity
  8
BEMAßUNG
 62
     7
100
AcDbVertex
100
AcDb2dVertex
 10
-43.66624076599317
 20
16.9677842839525
 30
0.0
  0
SEQEND
  5
3EC
330
3E9
100
AcDbEntity
  8
BEMAßUNG
  0
POLYLINE
  5
3ED
330
1F
100
AcDbEntity
  8
BEMAßUNG
 62
     7
100
AcDb2dPolyline
 66
     1
 10
0.0
 20
0.0
 30
0.0
  0
VERTEX
  5
3EE
330
3ED
100
AcDbEntity
  8
BEMAßUNG
 62
     7
100
AcDbVertex
100
AcDb2dVertex
 10
-31.5451890654644
 20
3.9678887251365
 30
0.0
  0
VERTEX
  5
3EF
330
3ED
100
AcDbEntity
  8
BEMAßUNG
 62
     7
100
AcDbVertex
100
AcDb2dVertex
 10
-43.66624076599317
 20
3.9678887251365
 30
0.0
  0
SEQEND
  5
3F0
330
3ED
100
AcDbEntity
  8
BEMAßUNG
  0
POLYLINE
  5
3F1
330
1F
100
AcDbEntity
  8
BEMAßUNG
 62
     7
100
AcDb2dPolyline
 66
     1
 10
0.0
 20
0.0
 30
0.0
  0
VERTEX
  5
3F2
330
3F1
100
AcDbEntity
  8
BEMAßUNG
 62
     7
100
AcDbVertex
100
AcDb2dVertex
 10
-41.66619058203137
 20
16.9677842839525
 30
0.0
  0
VERTEX
  5
3F3
330
3F1
100
AcDbEntity
  8
BEMAßUNG
 62
     7
100
AcDbVertex
100
AcDb2dVertex
 10
-41.66619058203137
 20
3.9678887251365
 30
0.0
  0
SEQEND
  5
3F4
330
3F1
100
AcDbEntity
  8
BEMAßUNG
  0
POLYLINE
  5
3F5
330
1F
100
AcDbEntity
  8
BEMAßUNG
 62
     7
100
AcDb2dPolyline
 66
     1
 10
0.0
 20
0.0
 30
0.0
  0
VERTEX
  5
3F6
330
3F5
100
AcDbEntity
  8
BEMAßUNG
 62
     7
100
AcDbVertex
100
AcDb2dVertex
 10
-41.66619058203137
 20
16.9677842839525
 30
0.0
  0
VERTEX
  5
3F7
330
3F5
100
AcDbEntity
  8
BEMAßUNG
 62
     7
100
AcDbVertex
100
AcDb2dVertex
 10
-41.99571396519552
 20
14.46767849030669
 30
0.0
  0
VERTEX
  5
3F8
330
3F5
100
AcDbEntity
  8
BEMAßUNG
 62
     7
100
AcDbVertex
100
AcDb2dVertex
 10
-41.33718396319001
 20
14.46767849030669
 30
0.0
  0
VERTEX
  5
3F9
330
3F5
100
AcDbEntity
  8
BEMAßUNG
 62
     7
100
AcDbVertex
100
AcDb2dVertex
 10
-41.66619058203137
 20
16.9677842839525
 30
0.0
  0
SEQEND
  5
3FA
330
3F5
100
AcDbEntity
  8
BEMAßUNG
  0
POLYLINE
  5
3FB
330
1F
100
AcDbEntity
  8
BEMAßUNG
 62
     7
100
AcDb2dPolyline
 66
     1
 10
0.0
 20
0.0
 30
0.0
  0
VERTEX
  5
3FC
330
3FB
100
AcDbEntity
  8
BEMAßUNG
 62
     7
100
AcDbVertex
100
AcDb2dVertex
 10
-41.97108153247598
 20
14.46767849030669
 30
0.0
  0
VERTEX
  5
3FD
330
3FB
100
AcDbEntity
  8
BEMAßUNG
 62
     7
100
AcDbVertex
100
AcDb2dVertex
 10
-41.97108153247598
 20
14.65250786309035
 30
0.0
  0
SEQEND
  5
3FE
330
3FB
100
AcDbEntity
  8
BEMAßUNG
  0
POLYLINE
  5
3FF
330
1F
100
AcDbEntity
  8
BEMAßUNG
 62
     7
100
AcDb2dPolyline
 66
     1
 10
0.0
 20
0.0
 30
0.0
  0
VERTEX
  5
400
330
3FF
100
AcDbEntity
  8
BEMAßUNG
 62
     7
100
AcDbVertex
100
AcDb2dVertex
 10
-41.97108153247598
 20
14.46767849030669
 30
0.0
  0
VERTEX
  5
401
330
3FF
100
AcDbEntity
  8
BEMAßUNG
 62
     7
100
AcDbVertex
100
AcDb2dVertex
 10
-41.97108153247598
 20
14.65250786309035
 30
0.0
  0
SEQEND
  5
402
330
3FF
100
AcDbEntity
  8
BEMAßUNG
  0
POLYLINE
  5
403
330
1F
100
AcDbEntity
  8
BEMAßUNG
 62
     7
100
AcDb2dPolyline
 66
     1
 10
0.0
 20
0.0
 30
0.0
  0
VERTEX
  5
404
330
403
100
AcDbEntity
  8
BEMAßUNG
 62
     7
100
AcDbVertex
100
AcDb2dVertex
 10
-41.92061088361707
 20
14.46767849030669
 30
0.0
  0
VERTEX
  5
405
330
403
100
AcDbEntity
  8
BEMAßUNG
 62
     7
100
AcDbVertex
100
AcDb2dVertex
 10
-41.92061088361707
 20
15.03870306698685
 30
0.0
  0
SEQEND
  5
406
330
403
100
AcDbEntity
  8
BEMAßUNG
  0
POLYLINE
  5
407
330
1F
100
AcDbEntity
  8
BEMAßUNG
 62
     7
100
AcDb2dPolyline
 66
     1
 10
0.0
 20
0.0
 30
0.0
  0
VERTEX
  5
408
330
407
100
AcDbEntity
  8
BEMAßUNG
 62
     7
100
AcDbVertex
100
AcDb2dVertex
 10
-41.86979572520963
 20
14.46767849030669
 30
0.0
  0
VERTEX
  5
409
330
407
100
AcDbEntity
  8
BEMAßUNG
 62
     7
100
AcDbVertex
100
AcDb2dVertex
 10
-41.86979572520963
 20
15.42438150656057
 30
0.0
  0
SEQEND
  5
40A
330
407
100
AcDbEntity
  8
BEMAßUNG
  0
POLYLINE
  5
40B
330
1F
100
AcDbEntity
  8
BEMAßUNG
 62
     7
100
AcDb2dPolyline
 66
     1
 10
0.0
 20
0.0
 30
0.0
  0
VERTEX
  5
40C
330
40B
100
AcDbEntity
  8
BEMAßUNG
 62
     7
100
AcDbVertex
100
AcDb2dVertex
 10
-41.8189805668022
 20
14.46767849030669
 30
0.0
  0
VERTEX
  5
40D
330
40B
100
AcDbEntity
  8
BEMAßUNG
 62
     7
100
AcDbVertex
100
AcDb2dVertex
 10
-41.8189805668022
 20
15.81057671045708
 30
0.0
  0
SEQEND
  5
40E
330
40B
100
AcDbEntity
  8
BEMAßUNG
  0
POLYLINE
  5
40F
330
1F
100
AcDbEntity
  8
BEMAßUNG
 62
     7
100
AcDb2dPolyline
 66
     1
 10
0.0
 20
0.0
 30
0.0
  0
VERTEX
  5
410
330
40F
100
AcDbEntity
  8
BEMAßUNG
 62
     7
100
AcDbVertex
100
AcDb2dVertex
 10
-41.76782089884624
 20
14.46767849030669
 30
0.0
  0
VERTEX
  5
411
330
40F
100
AcDbEntity
  8
BEMAßUNG
 62
     7
100
AcDbVertex
100
AcDb2dVertex
 10
-41.76782089884624
 20
16.19591064048227
 30
0.0
  0
SEQEND
  5
412
330
40F
100
AcDbEntity
  8
BEMAßUNG
  0
POLYLINE
  5
413
330
1F
100
AcDbEntity
  8
BEMAßUNG
 62
     7
100
AcDb2dPolyline
 66
     1
 10
0.0
 20
0.0
 30
0.0
  0
VERTEX
  5
414
330
413
100
AcDbEntity
  8
BEMAßUNG
 62
     7
100
AcDbVertex
100
AcDb2dVertex
 10
-41.71700574043881
 20
14.46767849030669
 30
0.0
  0
VERTEX
  5
415
330
413
100
AcDbEntity
  8
BEMAßUNG
 62
     7
100
AcDbVertex
100
AcDb2dVertex
 10
-41.71700574043881
 20
16.58210584437878
 30
0.0
  0
SEQEND
  5
416
330
413
100
AcDbEntity
  8
BEMAßUNG
  0
POLYLINE
  5
417
330
1F
100
AcDbEntity
  8
BEMAßUNG
 62
     7
100
AcDb2dPolyline
 66
     1
 10
0.0
 20
0.0
 30
0.0
  0
VERTEX
  5
418
330
417
100
AcDbEntity
  8
BEMAßUNG
 62
     7
100
AcDbVertex
100
AcDb2dVertex
 10
-41.66619058203137
 20
14.46767849030669
 30
0.0
  0
VERTEX
  5
419
330
417
100
AcDbEntity
  8
BEMAßUNG
 62
     7
100
AcDbVertex
100
AcDb2dVertex
 10
-41.66619058203137
 20
16.9677842839525
 30
0.0
  0
SEQEND
  5
41A
330
417
100
AcDbEntity
  8
BEMAßUNG
  0
POLYLINE
  5
41B
330
1F
100
AcDbEntity
  8
BEMAßUNG
 62
     7
100
AcDb2dPolyline
 66
     1
 10
0.0
 20
0.0
 30
0.0
  0
VERTEX
  5
41C
330
41B
100
AcDbEntity
  8
BEMAßUNG
 62
     7
100
AcDbVertex
100
AcDb2dVertex
 10
-41.36181639590955
 20
14.46767849030669
 30
0.0
  0
VERTEX
  5
41D
330
41B
100
AcDbEntity
  8
BEMAßUNG
 62
     7
100
AcDbVertex
100
AcDb2dVertex
 10
-41.36181639590955
 20
14.65250786309035
 30
0.0
  0
SEQEND
  5
41E
330
41B
100
AcDbEntity
  8
BEMAßUNG
  0
POLYLINE
  5
41F
330
1F
100
AcDbEntity
  8
BEMAßUNG
 62
     7
100
AcDb2dPolyline
 66
     1
 10
0.0
 20
0.0
 30
0.0
  0
VERTEX
  5
420
330
41F
100
AcDbEntity
  8
BEMAßUNG
 62
     7
100
AcDbVertex
100
AcDb2dVertex
 10
-41.36181639590955
 20
14.46767849030669
 30
0.0
  0
VERTEX
  5
421
330
41F
100
AcDbEntity
  8
BEMAßUNG
 62
     7
100
AcDbVertex
100
AcDb2dVertex
 10
-41.36181639590955
 20
14.65250786309035
 30
0.0
  0
SEQEND
  5
422
330
41F
100
AcDbEntity
  8
BEMAßUNG
  0
POLYLINE
  5
423
330
1F
100
AcDbEntity
  8
BEMAßUNG
 62
     7
100
AcDb2dPolyline
 66
     1
 10
0.0
 20
0.0
 30
0.0
  0
VERTEX
  5
424
330
423
100
AcDbEntity
  8
BEMAßUNG
 62
     7
100
AcDbVertex
100
AcDb2dVertex
 10
-41.41228704476845
 20
14.46767849030669
 30
0.0
  0
VERTEX
  5
425
330
423
100
AcDbEntity
  8
BEMAßUNG
 62
     7
100
AcDbVertex
100
AcDb2dVertex
 10
-41.41228704476845
 20
15.03870306698685
 30
0.0
  0
SEQEND
  5
426
330
423
100
AcDbEntity
  8
BEMAßUNG
  0
POLYLINE
  5
427
330
1F
100
AcDbEntity
  8
BEMAßUNG
 62
     7
100
AcDb2dPolyline
 66
     1
 10
0.0
 20
0.0
 30
0.0
  0
VERTEX
  5
428
330
427
100
AcDbEntity
  8
BEMAßUNG
 62
     7
100
AcDbVertex
100
AcDb2dVertex
 10
-41.46310220317589
 20
14.46767849030669
 30
0.0
  0
VERTEX
  5
429
330
427
100
AcDbEntity
  8
BEMAßUNG
 62
     7
100
AcDbVertex
100
AcDb2dVertex
 10
-41.46310220317589
 20
15.42438150656057
 30
0.0
  0
SEQEND
  5
42A
330
427
100
AcDbEntity
  8
BEMAßUNG
  0
POLYLINE
  5
42B
330
1F
100
AcDbEntity
  8
BEMAßUNG
 62
     7
100
AcDb2dPolyline
 66
     1
 10
0.0
 20
0.0
 30
0.0
  0
VERTEX
  5
42C
330
42B
100
AcDbEntity
  8
BEMAßUNG
 62
     7
100
AcDbVertex
100
AcDb2dVertex
 10
-41.51391736158333
 20
14.46767849030669
 30
0.0
  0
VERTEX
  5
42D
330
42B
100
AcDbEntity
  8
BEMAßUNG
 62
     7
100
AcDbVertex
100
AcDb2dVertex
 10
-41.51391736158333
 20
15.81057671045708
 30
0.0
  0
SEQEND
  5
42E
330
42B
100
AcDbEntity
  8
BEMAßUNG
  0
POLYLINE
  5
42F
330
1F
100
AcDbEntity
  8
BEMAßUNG
 62
     7
100
AcDb2dPolyline
 66
     1
 10
0.0
 20
0.0
 30
0.0
  0
VERTEX
  5
430
330
42F
100
AcDbEntity
  8
BEMAßUNG
 62
     7
100
AcDbVertex
100
AcDb2dVertex
 10
-41.56507702953929
 20
14.46767849030669
 30
0.0
  0
VERTEX
  5
431
330
42F
100
AcDbEntity
  8
BEMAßUNG
 62
     7
100
AcDbVertex
100
AcDb2dVertex
 10
-41.56507702953929
 20
16.19591064048227
 30
0.0
  0
SEQEND
  5
432
330
42F
100
AcDbEntity
  8
BEMAßUNG
  0
POLYLINE
  5
433
330
1F
100
AcDbEntity
  8
BEMAßUNG
 62
     7
100
AcDb2dPolyline
 66
     1
 10
0.0
 20
0.0
 30
0.0
  0
VERTEX
  5
434
330
433
100
AcDbEntity
  8
BEMAßUNG
 62
     7
100
AcDbVertex
100
AcDb2dVertex
 10
-41.61589218794672
 20
14.46767849030669
 30
0.0
  0
VERTEX
  5
435
330
433
100
AcDbEntity
  8
BEMAßUNG
 62
     7
100
AcDbVertex
100
AcDb2dVertex
 10
-41.61589218794672
 20
16.58210584437878
 30
0.0
  0
SEQEND
  5
436
330
433
100
AcDbEntity
  8
BEMAßUNG
  0
POLYLINE
  5
437
330
1F
100
AcDbEntity
  8
BEMAßUNG
 62
     7
100
AcDb2dPolyline
 66
     1
 10
0.0
 20
0.0
 30
0.0
  0
VERTEX
  5
438
330
437
100
AcDbEntity
  8
BEMAßUNG
 62
     7
100
AcDbVertex
100
AcDb2dVertex
 10
-41.66619058203137
 20
14.46767849030669
 30
0.0
  0
VERTEX
  5
439
330
437
100
AcDbEntity
  8
BEMAßUNG
 62
     7
100
AcDbVertex
100
AcDb2dVertex
 10
-41.66619058203137
 20
16.9677842839525
 30
0.0
  0
SEQEND
  5
43A
330
437
100
AcDbEntity
  8
BEMAßUNG
  0
POLYLINE
  5
43B
330
1F
100
AcDbEntity
  8
BEMAßUNG
 62
     7
100
AcDb2dPolyline
 66
     1
 10
0.0
 20
0.0
 30
0.0
  0
VERTEX
  5
43C
330
43B
100
AcDbEntity
  8
BEMAßUNG
 62
     7
100
AcDbVertex
100
AcDb2dVertex
 10
-41.66619058203137
 20
3.9678887251365
 30
0.0
  0
VERTEX
  5
43D
330
43B
100
AcDbEntity
  8
BEMAßUNG
 62
     7
100
AcDbVertex
100
AcDb2dVertex
 10
-41.33718396319001
 20
6.467650009233783
 30
0.0
  0
VERTEX
  5
43E
330
43B
100
AcDbEntity
  8
BEMAßUNG
 62
     7
100
AcDbVertex
100
AcDb2dVertex
 10
-41.99571396519552
 20
6.467650009233783
 30
0.0
  0
VERTEX
  5
43F
330
43B
100
AcDbEntity
  8
BEMAßUNG
 62
     7
100
AcDbVertex
100
AcDb2dVertex
 10
-41.66619058203137
 20
3.9678887251365
 30
0.0
  0
SEQEND
  5
440
330
43B
100
AcDbEntity
  8
BEMAßUNG
  0
POLYLINE
  5
441
330
1F
100
AcDbEntity
  8
BEMAßUNG
 62
     7
100
AcDb2dPolyline
 66
     1
 10
0.0
 20
0.0
 30
0.0
  0
VERTEX
  5
442
330
441
100
AcDbEntity
  8
BEMAßUNG
 62
     7
100
AcDbVertex
100
AcDb2dVertex
 10
-41.36181639590955
 20
6.467650009233783
 30
0.0
  0
VERTEX
  5
443
330
441
100
AcDbEntity
  8
BEMAßUNG
 62
     7
100
AcDbVertex
100
AcDb2dVertex
 10
-41.36181639590955
 20
6.282820636450128
 30
0.0
  0
SEQEND
  5
444
330
441
100
AcDbEntity
  8
BEMAßUNG
  0
POLYLINE
  5
445
330
1F
100
AcDbEntity
  8
BEMAßUNG
 62
     7
100
AcDb2dPolyline
 66
     1
 10
0.0
 20
0.0
 30
0.0
  0
VERTEX
  5
446
330
445
100
AcDbEntity
  8
BEMAßUNG
 62
     7
100
AcDbVertex
100
AcDb2dVertex
 10
-41.36181639590955
 20
6.467650009233783
 30
0.0
  0
VERTEX
  5
447
330
445
100
AcDbEntity
  8
BEMAßUNG
 62
     7
100
AcDbVertex
100
AcDb2dVertex
 10
-41.36181639590955
 20
6.282820636450128
 30
0.0
  0
SEQEND
  5
448
330
445
100
AcDbEntity
  8
BEMAßUNG
  0
POLYLINE
  5
449
330
1F
100
AcDbEntity
  8
BEMAßUNG
 62
     7
100
AcDb2dPolyline
 66
     1
 10
0.0
 20
0.0
 30
0.0
  0
VERTEX
  5
44A
330
449
100
AcDbEntity
  8
BEMAßUNG
 62
     7
100
AcDbVertex
100
AcDb2dVertex
 10
-41.41228704476845
 20
6.467650009233783
 30
0.0
  0
VERTEX
  5
44B
330
449
100
AcDbEntity
  8
BEMAßUNG
 62
     7
100
AcDbVertex
100
AcDb2dVertex
 10
-41.41228704476845
 20
5.897314451650671
 30
0.0
  0
SEQEND
  5
44C
330
449
100
AcDbEntity
  8
BEMAßUNG
  0
POLYLINE
  5
44D
330
1F
100
AcDbEntity
  8
BEMAßUNG
 62
     7
100
AcDb2dPolyline
 66
     1
 10
0.0
 20
0.0
 30
0.0
  0
VERTEX
  5
44E
330
44D
100
AcDbEntity
  8
BEMAßUNG
 62
     7
100
AcDbVertex
100
AcDb2dVertex
 10
-41.46310220317589
 20
6.467650009233783
 30
0.0
  0
VERTEX
  5
44F
330
44D
100
AcDbEntity
  8
BEMAßUNG
 62
     7
100
AcDbVertex
100
AcDb2dVertex
 10
-41.46310220317589
 20
5.511291502528428
 30
0.0
  0
SEQEND
  5
450
330
44D
100
AcDbEntity
  8
BEMAßUNG
  0
POLYLINE
  5
451
330
1F
100
AcDbEntity
  8
BEMAßUNG
 62
     7
100
AcDb2dPolyline
 66
     1
 10
0.0
 20
0.0
 30
0.0
  0
VERTEX
  5
452
330
451
100
AcDbEntity
  8
BEMAßUNG
 62
     7
100
AcDbVertex
100
AcDb2dVertex
 10
-41.51391736158333
 20
6.467650009233783
 30
0.0
  0
VERTEX
  5
453
330
451
100
AcDbEntity
  8
BEMAßUNG
 62
     7
100
AcDbVertex
100
AcDb2dVertex
 10
-41.51391736158333
 20
5.125785317728971
 30
0.0
  0
SEQEND
  5
454
330
451
100
AcDbEntity
  8
BEMAßUNG
  0
POLYLINE
  5
455
330
1F
100
AcDbEntity
  8
BEMAßUNG
 62
     7
100
AcDb2dPolyline
 66
     1
 10
0.0
 20
0.0
 30
0.0
  0
VERTEX
  5
456
330
455
100
AcDbEntity
  8
BEMAßUNG
 62
     7
100
AcDbVertex
100
AcDb2dVertex
 10
-41.56507702953929
 20
6.467650009233783
 30
0.0
  0
VERTEX
  5
457
330
455
100
AcDbEntity
  8
BEMAßUNG
 62
     7
100
AcDbVertex
100
AcDb2dVertex
 10
-41.56507702953929
 20
4.739417859058201
 30
0.0
  0
SEQEND
  5
458
330
455
100
AcDbEntity
  8
BEMAßUNG
  0
POLYLINE
  5
459
330
1F
100
AcDbEntity
  8
BEMAßUNG
 62
     7
100
AcDb2dPolyline
 66
     1
 10
0.0
 20
0.0
 30
0.0
  0
VERTEX
  5
45A
330
459
100
AcDbEntity
  8
BEMAßUNG
 62
     7
100
AcDbVertex
100
AcDb2dVertex
 10
-41.61589218794672
 20
6.467650009233783
 30
0.0
  0
VERTEX
  5
45B
330
459
100
AcDbEntity
  8
BEMAßUNG
 62
     7
100
AcDbVertex
100
AcDb2dVertex
 10
-41.61589218794672
 20
4.353911674258745
 30
0.0
  0
SEQEND
  5
45C
330
459
100
AcDbEntity
  8
BEMAßUNG
  0
POLYLINE
  5
45D
330
1F
100
AcDbEntity
  8
BEMAßUNG
 62
     7
100
AcDb2dPolyline
 66
     1
 10
0.0
 20
0.0
 30
0.0
  0
VERTEX
  5
45E
330
45D
100
AcDbEntity
  8
BEMAßUNG
 62
     7
100
AcDbVertex
100
AcDb2dVertex
 10
-41.66619058203137
 20
6.467650009233783
 30
0.0
  0
VERTEX
  5
45F
330
45D
100
AcDbEntity
  8
BEMAßUNG
 62
     7
100
AcDbVertex
100
AcDb2dVertex
 10
-41.66619058203137
 20
3.9678887251365
 30
0.0
  0
SEQEND
  5
460
330
45D
100
AcDbEntity
  8
BEMAßUNG
  0
POLYLINE
  5
461
330
1F
100
AcDbEntity
  8
BEMAßUNG
 62
     7
100
AcDb2dPolyline
 66
     1
 10
0.0
 20
0.0
 30
0.0
  0
VERTEX
  5
462
330
461
100
AcDbEntity
  8
BEMAßUNG
 62
     7
100
AcDbVertex
100
AcDb2dVertex
 10
-41.97108153247598
 20
6.467650009233783
 30
0.0
  0
VERTEX
  5
463
330
461
100
AcDbEntity
  8
BEMAßUNG
 62
     7
100
AcDbVertex
100
AcDb2dVertex
 10
-41.97108153247598
 20
6.282820636450128
 30
0.0
  0
SEQEND
  5
464
330
461
100
AcDbEntity
  8
BEMAßUNG
  0
POLYLINE
  5
465
330
1F
100
AcDbEntity
  8
BEMAßUNG
 62
     7
100
AcDb2dPolyline
 66
     1
 10
0.0
 20
0.0
 30
0.0
  0
VERTEX
  5
466
330
465
100
AcDbEntity
  8
BEMAßUNG
 62
     7
100
AcDbVertex
100
AcDb2dVertex
 10
-41.97108153247598
 20
6.467650009233783
 30
0.0
  0
VERTEX
  5
467
330
465
100
AcDbEntity
  8
BEMAßUNG
 62
     7
100
AcDbVertex
100
AcDb2dVertex
 10
-41.97108153247598
 20
6.282820636450128
 30
0.0
  0
SEQEND
  5
468
330
465
100
AcDbEntity
  8
BEMAßUNG
  0
POLYLINE
  5
469
330
1F
100
AcDbEntity
  8
BEMAßUNG
 62
     7
100
AcDb2dPolyline
 66
     1
 10
0.0
 20
0.0
 30
0.0
  0
VERTEX
  5
46A
330
469
100
AcDbEntity
  8
BEMAßUNG
 62
     7
100
AcDbVertex
100
AcDb2dVertex
 10
-41.92061088361707
 20
6.467650009233783
 30
0.0
  0
VERTEX
  5
46B
330
469
100
AcDbEntity
  8
BEMAßUNG
 62
     7
100
AcDbVertex
100
AcDb2dVertex
 10
-41.92061088361707
 20
5.897314451650671
 30
0.0
  0
SEQEND
  5
46C
330
469
100
AcDbEntity
  8
BEMAßUNG
  0
POLYLINE
  5
46D
330
1F
100
AcDbEntity
  8
BEMAßUNG
 62
     7
100
AcDb2dPolyline
 66
     1
 10
0.0
 20
0.0
 30
0.0
  0
VERTEX
  5
46E
330
46D
100
AcDbEntity
  8
BEMAßUNG
 62
     7
100
AcDbVertex
100
AcDb2dVertex
 10
-41.86979572520963
 20
6.467650009233783
 30
0.0
  0
VERTEX
  5
46F
330
46D
100
AcDbEntity
  8
BEMAßUNG
 62
     7
100
AcDbVertex
100
AcDb2dVertex
 10
-41.86979572520963
 20
5.511291502528428
 30
0.0
  0
SEQEND
  5
470
330
46D
100
AcDbEntity
  8
BEMAßUNG
  0
POLYLINE
  5
471
330
1F
100
AcDbEntity
  8
BEMAßUNG
 62
     7
100
AcDb2dPolyline
 66
     1
 10
0.0
 20
0.0
 30
0.0
  0
VERTEX
  5
472
330
471
100
AcDbEntity
  8
BEMAßUNG
 62
     7
100
AcDbVertex
100
AcDb2dVertex
 10
-41.8189805668022
 20
6.467650009233783
 30
0.0
  0
VERTEX
  5
473
330
471
100
AcDbEntity
  8
BEMAßUNG
 62
     7
100
AcDbVertex
100
AcDb2dVertex
 10
-41.8189805668022
 20
5.125785317728971
 30
0.0
  0
SEQEND
  5
474
330
471
100
AcDbEntity
  8
BEMAßUNG
  0
POLYLINE
  5
475
330
1F
100
AcDbEntity
  8
BEMAßUNG
 62
     7
100
AcDb2dPolyline
 66
     1
 10
0.0
 20
0.0
 30
0.0
  0
VERTEX
  5
476
330
475
100
AcDbEntity
  8
BEMAßUNG
 62
     7
100
AcDbVertex
100
AcDb2dVertex
 10
-41.76782089884624
 20
6.467650009233783
 30
0.0
  0
VERTEX
  5
477
330
475
100
AcDbEntity
  8
BEMAßUNG
 62
     7
100
AcDbVertex
100
AcDb2dVertex
 10
-41.76782089884624
 20
4.739417859058201
 30
0.0
  0
SEQEND
  5
478
330
475
100
AcDbEntity
  8
BEMAßUNG
  0
POLYLINE
  5
479
330
1F
100
AcDbEntity
  8
BEMAßUNG
 62
     7
100
AcDb2dPolyline
 66
     1
 10
0.0
 20
0.0
 30
0.0
  0
VERTEX
  5
47A
330
479
100
AcDbEntity
  8
BEMAßUNG
 62
     7
100
AcDbVertex
100
AcDb2dVertex
 10
-41.71700574043881
 20
6.467650009233783
 30
0.0
  0
VERTEX
  5
47B
330
479
100
AcDbEntity
  8
BEMAßUNG
 62
     7
100
AcDbVertex
100
AcDb2dVertex
 10
-41.71700574043881
 20
4.353911674258745
 30
0.0
  0
SEQEND
  5
47C
330
479
100
AcDbEntity
  8
BEMAßUNG
  0
POLYLINE
  5
47D
330
1F
100
AcDbEntity
  8
BEMAßUNG
 62
     7
100
AcDb2dPolyline
 66
     1
 10
0.0
 20
0.0
 30
0.0
  0
VERTEX
  5
47E
330
47D
100
AcDbEntity
  8
BEMAßUNG
 62
     7
100
AcDbVertex
100
AcDb2dVertex
 10
-41.66619058203137
 20
6.467650009233783
 30
0.0
  0
VERTEX
  5
47F
330
47D
100
AcDbEntity
  8
BEMAßUNG
 62
     7
100
AcDbVertex
100
AcDb2dVertex
 10
-41.66619058203137
 20
3.9678887251365
 30
0.0
  0
SEQEND
  5
480
330
47D
100
AcDbEntity
  8
BEMAßUNG
  0
POLYLINE
  5
481
330
1F
100
AcDbEntity
  8
BEMAßUNG
 62
     7
100
AcDb2dPolyline
 66
     1
 10
0.0
 20
0.0
 30
0.0
  0
VERTEX
  5
482
330
481
100
AcDbEntity
  8
BEMAßUNG
 62
     7
100
AcDbVertex
100
AcDb2dVertex
 10
-0.0458197699538228
 20
17.59358587884813
 30
0.0
  0
VERTEX
  5
483
330
481
100
AcDbEntity
  8
BEMAßUNG
 62
     7
100
AcDbVertex
100
AcDb2dVertex
 10
14.19689398516605
 20
15.58905707075551
 30
0.0
  0
SEQEND
  5
484
330
481
100
AcDbEntity
  8
BEMAßUNG
  0
POLYLINE
  5
485
330
1F
100
AcDbEntity
  8
BEMAßUNG
 62
     7
100
AcDb2dPolyline
 66
     1
 10
0.0
 20
0.0
 30
0.0
  0
VERTEX
  5
486
330
485
100
AcDbEntity
  8
BEMAßUNG
 62
     7
100
AcDbVertex
100
AcDb2dVertex
 10
-0.0458197699538228
 20
3.34225938501513
 30
0.0
  0
VERTEX
  5
487
330
485
100
AcDbEntity
  8
BEMAßUNG
 62
     7
100
AcDbVertex
100
AcDb2dVertex
 10
14.19689398516605
 20
5.346615938333485
 30
0.0
  0
SEQEND
  5
488
330
485
100
AcDbEntity
  8
BEMAßUNG
  0
SPLINE
  5
489
330
1F
100
AcDbEntity
  8
BEMAßUNG
 62
     7
100
AcDbSpline
210
0.0
220
0.0
230
1.0
 70
     8
 71
     3
 72
     8
 73
     4
 74
     0
 42
0.0000000001
 43
0.0000000001
 40
0.0
 40
0.0
 40
0.0
 40
0.0
 40
1.0
 40
1.0
 40
1.0
 40
1.0
 10
12.21665310024445
 20
15.86810980506075
 30
0.0
 10
11.68541937641892
 20
12.09538573916366
 30
0.0
 10
11.71711425488322
 20
8.373821341222516
 30
0.0
 10
12.21665310024445
 20
5.068252223125298
 30
0.0
  0
POLYLINE
  5
48A
330
1F
100
AcDbEntity
  8
BEMAßUNG
 62
     7
100
AcDb2dPolyline
 66
     1
 10
0.0
 20
0.0
 30
0.0
  0
VERTEX
  5
48B
330
48A
100
AcDbEntity
  8
BEMAßUNG
 62
     7
100
AcDbVertex
100
AcDb2dVertex
 10
12.21665310024445
 20
15.86810980506075
 30
0.0
  0
VERTEX
  5
48C
330
48A
100
AcDbEntity
  8
BEMAßUNG
 62
     7
100
AcDbVertex
100
AcDb2dVertex
 10
11.5817220023129
 20
13.42760416330977
 30
0.0
  0
VERTEX
  5
48D
330
48A
100
AcDbEntity
  8
BEMAßUNG
 62
     7
100
AcDbVertex
100
AcDb2dVertex
 10
12.23456759676775
 20
13.3466444194064
 30
0.0
  0
VERTEX
  5
48E
330
48A
100
AcDbEntity
  8
BEMAßUNG
 62
     7
100
AcDbVertex
100
AcDb2dVertex
 10
12.21665310024445
 20
15.86810980506075
 30
0.0
  0
SEQEND
  5
48F
330
48A
100
AcDbEntity
  8
BEMAßUNG
  0
POLYLINE
  5
490
330
1F
100
AcDbEntity
  8
BEMAßUNG
 62
     7
100
AcDb2dPolyline
 66
     1
 10
0.0
 20
0.0
 30
0.0
  0
VERTEX
  5
491
330
490
100
AcDbEntity
  8
BEMAßUNG
 62
     7
100
AcDbVertex
100
AcDb2dVertex
 10
11.6051486516126
 20
13.42450357737304
 30
0.0
  0
VERTEX
  5
492
330
490
100
AcDbEntity
  8
BEMAßUNG
 62
     7
100
AcDbVertex
100
AcDb2dVertex
 10
11.62788628181525
 20
13.6079549119626
 30
0.0
  0
SEQEND
  5
493
330
490
100
AcDbEntity
  8
BEMAßUNG
  0
POLYLINE
  5
494
330
1F
100
AcDbEntity
  8
BEMAßUNG
 62
     7
100
AcDb2dPolyline
 66
     1
 10
0.0
 20
0.0
 30
0.0
  0
VERTEX
  5
495
330
494
100
AcDbEntity
  8
BEMAßUNG
 62
     7
100
AcDbVertex
100
AcDb2dVertex
 10
11.6051486516126
 20
13.42450357737304
 30
0.0
  0
VERTEX
  5
496
330
494
100
AcDbEntity
  8
BEMAßUNG
 62
     7
100
AcDbVertex
100
AcDb2dVertex
 10
11.62788628181525
 20
13.6079549119626
 30
0.0
  0
SEQEND
  5
497
330
494
100
AcDbEntity
  8
BEMAßUNG
  0
POLYLINE
  5
498
330
1F
100
AcDbEntity
  8
BEMAßUNG
 62
     7
100
AcDb2dPolyline
 66
     1
 10
0.0
 20
0.0
 30
0.0
  0
VERTEX
  5
499
330
498
100
AcDbEntity
  8
BEMAßUNG
 62
     7
100
AcDbVertex
100
AcDb2dVertex
 10
11.65579155524578
 20
13.41830240549959
 30
0.0
  0
VERTEX
  5
49A
330
498
100
AcDbEntity
  8
BEMAßUNG
 62
     7
100
AcDbVertex
100
AcDb2dVertex
 10
11.7264160126934
 20
13.98467610327467
 30
0.0
  0
SEQEND
  5
49B
330
498
100
AcDbEntity
  8
BEMAßUNG
  0
POLYLINE
  5
49C
330
1F
100
AcDbEntity
  8
BEMAßUNG
 62
     7
100
AcDb2dPolyline
 66
     1
 10
0.0
 20
0.0
 30
0.0
  0
VERTEX
  5
49D
330
49C
100
AcDbEntity
  8
BEMAßUNG
 62
     7
100
AcDbVertex
100
AcDb2dVertex
 10
11.70608994933042
 20
13.41210123362614
 30
0.0
  0
VERTEX
  5
49E
330
49C
100
AcDbEntity
  8
BEMAßUNG
 62
     7
100
AcDbVertex
100
AcDb2dVertex
 10
11.82460123402302
 20
14.36105278503821
 30
0.0
  0
SEQEND
  5
49F
330
49C
100
AcDbEntity
  8
BEMAßUNG
  0
POLYLINE
  5
4A0
330
1F
100
AcDbEntity
  8
BEMAßUNG
 62
     7
100
AcDb2dPolyline
 66
     1
 10
0.0
 20
0.0
 30
0.0
  0
VERTEX
  5
4A1
330
4A0
100
AcDbEntity
  8
BEMAßUNG
 62
     7
100
AcDbVertex
100
AcDb2dVertex
 10
11.75707736251212
 20
13.40607231652695
 30
0.0
  0
VERTEX
  5
4A2
330
4A0
100
AcDbEntity
  8
BEMAßUNG
 62
     7
100
AcDbVertex
100
AcDb2dVertex
 10
11.92209743625559
 20
14.73777397635028
 30
0.0
  0
SEQEND
  5
4A3
330
4A0
100
AcDbEntity
  8
BEMAßUNG
  0
POLYLINE
  5
4A4
330
1F
100
AcDbEntity
  8
BEMAßUNG
 62
     7
100
AcDb2dPolyline
 66
     1
 10
0.0
 20
0.0
 30
0.0
  0
VERTEX
  5
4A5
330
4A4
100
AcDbEntity
  8
BEMAßUNG
 62
     7
100
AcDbVertex
100
AcDb2dVertex
 10
11.80703124704824
 20
13.39952663510498
 30
0.0
  0
VERTEX
  5
4A6
330
4A4
100
AcDbEntity
  8
BEMAßUNG
 62
     7
100
AcDbVertex
100
AcDb2dVertex
 10
12.02062716713373
 20
15.11501193198514
 30
0.0
  0
SEQEND
  5
4A7
330
4A4
100
AcDbEntity
  8
BEMAßUNG
  0
POLYLINE
  5
4A8
330
1F
100
AcDbEntity
  8
BEMAßUNG
 62
     7
100
AcDb2dPolyline
 66
     1
 10
0.0
 20
0.0
 30
0.0
  0
VERTEX
  5
4A9
330
4A8
100
AcDbEntity
  8
BEMAßUNG
 62
     7
100
AcDbVertex
100
AcDb2dVertex
 10
11.85767415068142
 20
13.39349771800579
 30
0.0
  0
VERTEX
  5
4AA
330
4A8
100
AcDbEntity
  8
BEMAßUNG
 62
     7
100
AcDbVertex
100
AcDb2dVertex
 10
12.1181233693663
 20
15.49121635897442
 30
0.0
  0
SEQEND
  5
4AB
330
4A8
100
AcDbEntity
  8
BEMAßUNG
  0
POLYLINE
  5
4AC
330
1F
100
AcDbEntity
  8
BEMAßUNG
 62
     7
100
AcDb2dPolyline
 66
     1
 10
0.0
 20
0.0
 30
0.0
  0
VERTEX
  5
4AD
330
4AC
100
AcDbEntity
  8
BEMAßUNG
 62
     7
100
AcDbVertex
100
AcDb2dVertex
 10
11.90797254476606
 20
13.38712429135808
 30
0.0
  0
VERTEX
  5
4AE
330
4AC
100
AcDbEntity
  8
BEMAßUNG
 62
     7
100
AcDbVertex
100
AcDb2dVertex
 10
12.21665310024445
 20
15.86810980506075
 30
0.0
  0
SEQEND
  5
4AF
330
4AC
100
AcDbEntity
  8
BEMAßUNG
  0
POLYLINE
  5
4B0
330
1F
100
AcDbEntity
  8
BEMAßUNG
 62
     7
100
AcDb2dPolyline
 66
     1
 10
0.0
 20
0.0
 30
0.0
  0
VERTEX
  5
4B1
330
4B0
100
AcDbEntity
  8
BEMAßUNG
 62
     7
100
AcDbVertex
100
AcDb2dVertex
 10
12.210451928371
 20
13.34974500534312
 30
0.0
  0
VERTEX
  5
4B2
330
4B0
100
AcDbEntity
  8
BEMAßUNG
 62
     7
100
AcDbVertex
100
AcDb2dVertex
 10
12.23353406812217
 20
13.53319633993267
 30
0.0
  0
SEQEND
  5
4B3
330
4B0
100
AcDbEntity
  8
BEMAßUNG
  0
POLYLINE
  5
4B4
330
1F
100
AcDbEntity
  8
BEMAßUNG
 62
     7
100
AcDb2dPolyline
 66
     1
 10
0.0
 20
0.0
 30
0.0
  0
VERTEX
  5
4B5
330
4B4
100
AcDbEntity
  8
BEMAßUNG
 62
     7
100
AcDbVertex
100
AcDb2dVertex
 10
12.210451928371
 20
13.34974500534312
 30
0.0
  0
VERTEX
  5
4B6
330
4B4
100
AcDbEntity
  8
BEMAßUNG
 62
     7
100
AcDbVertex
100
AcDb2dVertex
 10
12.23353406812217
 20
13.53319633993267
 30
0.0
  0
SEQEND
  5
4B7
330
4B4
100
AcDbEntity
  8
BEMAßUNG
  0
POLYLINE
  5
4B8
330
1F
100
AcDbEntity
  8
BEMAßUNG
 62
     7
100
AcDb2dPolyline
 66
     1
 10
0.0
 20
0.0
 30
0.0
  0
VERTEX
  5
4B9
330
4B8
100
AcDbEntity
  8
BEMAßUNG
 62
     7
100
AcDbVertex
100
AcDb2dVertex
 10
12.15980902473783
 20
13.35542941289378
 30
0.0
  0
VERTEX
  5
4BA
330
4B8
100
AcDbEntity
  8
BEMAßUNG
 62
     7
100
AcDbVertex
100
AcDb2dVertex
 10
12.23043348218545
 20
13.92180311066886
 30
0.0
  0
SEQEND
  5
4BB
330
4B8
100
AcDbEntity
  8
BEMAßUNG
  0
POLYLINE
  5
4BC
330
1F
100
AcDbEntity
  8
BEMAßUNG
 62
     7
100
AcDb2dPolyline
 66
     1
 10
0.0
 20
0.0
 30
0.0
  0
VERTEX
  5
4BD
330
4BC
100
AcDbEntity
  8
BEMAßUNG
 62
     7
100
AcDbVertex
100
AcDb2dVertex
 10
12.1098551402017
 20
13.36197509431576
 30
0.0
  0
VERTEX
  5
4BE
330
4BC
100
AcDbEntity
  8
BEMAßUNG
 62
     7
100
AcDbVertex
100
AcDb2dVertex
 10
12.22733289624872
 20
14.31127115527635
 30
0.0
  0
SEQEND
  5
4BF
330
4BC
100
AcDbEntity
  8
BEMAßUNG
  0
POLYLINE
  5
4C0
330
1F
100
AcDbEntity
  8
BEMAßUNG
 62
     7
100
AcDb2dPolyline
 66
     1
 10
0.0
 20
0.0
 30
0.0
  0
VERTEX
  5
4C1
330
4C0
100
AcDbEntity
  8
BEMAßUNG
 62
     7
100
AcDbVertex
100
AcDb2dVertex
 10
12.05955674611705
 20
13.36852077573773
 30
0.0
  0
VERTEX
  5
4C2
330
4C0
100
AcDbEntity
  8
BEMAßUNG
 62
     7
100
AcDbVertex
100
AcDb2dVertex
 10
12.22492132940905
 20
14.70022243556106
 30
0.0
  0
SEQEND
  5
4C3
330
4C0
100
AcDbEntity
  8
BEMAßUNG
  0
POLYLINE
  5
4C4
330
1F
100
AcDbEntity
  8
BEMAßUNG
 62
     7
100
AcDb2dPolyline
 66
     1
 10
0.0
 20
0.0
 30
0.0
  0
VERTEX
  5
4C5
330
4C4
100
AcDbEntity
  8
BEMAßUNG
 62
     7
100
AcDbVertex
100
AcDb2dVertex
 10
12.00856933293536
 20
13.37454969283692
 30
0.0
  0
VERTEX
  5
4C6
330
4C4
100
AcDbEntity
  8
BEMAßUNG
 62
     7
100
AcDbVertex
100
AcDb2dVertex
 10
12.22182074347232
 20
15.08969048016855
 30
0.0
  0
SEQEND
  5
4C7
330
4C4
100
AcDbEntity
  8
BEMAßUNG
  0
POLYLINE
  5
4C8
330
1F
100
AcDbEntity
  8
BEMAßUNG
 62
     7
100
AcDb2dPolyline
 66
     1
 10
0.0
 20
0.0
 30
0.0
  0
VERTEX
  5
4C9
330
4C8
100
AcDbEntity
  8
BEMAßUNG
 62
     7
100
AcDbVertex
100
AcDb2dVertex
 10
11.95861544839924
 20
13.38075086471037
 30
0.0
  0
VERTEX
  5
4CA
330
4C8
100
AcDbEntity
  8
BEMAßUNG
 62
     7
100
AcDbVertex
100
AcDb2dVertex
 10
12.21906466708412
 20
15.47864176045326
 30
0.0
  0
SEQEND
  5
4CB
330
4C8
100
AcDbEntity
  8
BEMAßUNG
  0
POLYLINE
  5
4CC
330
1F
100
AcDbEntity
  8
BEMAßUNG
 62
     7
100
AcDb2dPolyline
 66
     1
 10
0.0
 20
0.0
 30
0.0
  0
VERTEX
  5
4CD
330
4CC
100
AcDbEntity
  8
BEMAßUNG
 62
     7
100
AcDbVertex
100
AcDb2dVertex
 10
11.90797254476606
 20
13.38712429135808
 30
0.0
  0
VERTEX
  5
4CE
330
4CC
100
AcDbEntity
  8
BEMAßUNG
 62
     7
100
AcDbVertex
100
AcDb2dVertex
 10
12.21665310024445
 20
15.86810980506075
 30
0.0
  0
SEQEND
  5
4CF
330
4CC
100
AcDbEntity
  8
BEMAßUNG
  0
POLYLINE
  5
4D0
330
1F
100
AcDbEntity
  8
BEMAßUNG
 62
     7
100
AcDb2dPolyline
 66
     1
 10
0.0
 20
0.0
 30
0.0
  0
VERTEX
  5
4D1
330
4D0
100
AcDbEntity
  8
BEMAßUNG
 62
     7
100
AcDbVertex
100
AcDb2dVertex
 10
12.21665310024445
 20
5.068252223125298
 30
0.0
  0
VERTEX
  5
4D2
330
4D0
100
AcDbEntity
  8
BEMAßUNG
 62
     7
100
AcDbVertex
100
AcDb2dVertex
 10
12.23456759676775
 20
7.589200844456867
 30
0.0
  0
VERTEX
  5
4D3
330
4D0
100
AcDbEntity
  8
BEMAßUNG
 62
     7
100
AcDbVertex
100
AcDb2dVertex
 10
11.5817220023129
 20
7.508413355327758
 30
0.0
  0
VERTEX
  5
4D4
330
4D0
100
AcDbEntity
  8
BEMAßUNG
 62
     7
100
AcDbVertex
100
AcDb2dVertex
 10
12.21665310024445
 20
5.068252223125298
 30
0.0
  0
SEQEND
  5
4D5
330
4D0
100
AcDbEntity
  8
BEMAßUNG
  0
POLYLINE
  5
4D6
330
1F
100
AcDbEntity
  8
BEMAßUNG
 62
     7
100
AcDb2dPolyline
 66
     1
 10
0.0
 20
0.0
 30
0.0
  0
VERTEX
  5
4D7
330
4D6
100
AcDbEntity
  8
BEMAßUNG
 62
     7
100
AcDbVertex
100
AcDb2dVertex
 10
12.210451928371
 20
7.58661702284293
 30
0.0
  0
VERTEX
  5
4D8
330
4D6
100
AcDbEntity
  8
BEMAßUNG
 62
     7
100
AcDbVertex
100
AcDb2dVertex
 10
12.23353406812217
 20
7.403337943027638
 30
0.0
  0
SEQEND
  5
4D9
330
4D6
100
AcDbEntity
  8
BEMAßUNG
  0
POLYLINE
  5
4DA
330
1F
100
AcDbEntity
  8
BEMAßUNG
 62
     7
100
AcDb2dPolyline
 66
     1
 10
0.0
 20
0.0
 30
0.0
  0
VERTEX
  5
4DB
330
4DA
100
AcDbEntity
  8
BEMAßUNG
 62
     7
100
AcDbVertex
100
AcDb2dVertex
 10
12.210451928371
 20
7.58661702284293
 30
0.0
  0
VERTEX
  5
4DC
330
4DA
100
AcDbEntity
  8
BEMAßUNG
 62
     7
100
AcDbVertex
100
AcDb2dVertex
 10
12.23353406812217
 20
7.403337943027638
 30
0.0
  0
SEQEND
  5
4DD
330
4DA
100
AcDbEntity
  8
BEMAßUNG
  0
POLYLINE
  5
4DE
330
1F
100
AcDbEntity
  8
BEMAßUNG
 62
     7
100
AcDb2dPolyline
 66
     1
 10
0.0
 20
0.0
 30
0.0
  0
VERTEX
  5
4DF
330
4DE
100
AcDbEntity
  8
BEMAßUNG
 62
     7
100
AcDbVertex
100
AcDb2dVertex
 10
12.15980902473783
 20
7.580071341420955
 30
0.0
  0
VERTEX
  5
4E0
330
4DE
100
AcDbEntity
  8
BEMAßUNG
 62
     7
100
AcDbVertex
100
AcDb2dVertex
 10
12.23043348218545
 20
7.013869898420144
 30
0.0
  0
SEQEND
  5
4E1
330
4DE
100
AcDbEntity
  8
BEMAßUNG
  0
POLYLINE
  5
4E2
330
1F
100
AcDbEntity
  8
BEMAßUNG
 62
     7
100
AcDb2dPolyline
 66
     1
 10
0.0
 20
0.0
 30
0.0
  0
VERTEX
  5
4E3
330
4E2
100
AcDbEntity
  8
BEMAßUNG
 62
     7
100
AcDbVertex
100
AcDb2dVertex
 10
12.1098551402017
 20
7.573697914773242
 30
0.0
  0
VERTEX
  5
4E4
330
4E2
100
AcDbEntity
  8
BEMAßUNG
 62
     7
100
AcDbVertex
100
AcDb2dVertex
 10
12.22733289624872
 20
6.624746363361175
 30
0.0
  0
SEQEND
  5
4E5
330
4E2
100
AcDbEntity
  8
BEMAßUNG
  0
POLYLINE
  5
4E6
330
1F
100
AcDbEntity
  8
BEMAßUNG
 62
     7
100
AcDb2dPolyline
 66
     1
 10
0.0
 20
0.0
 30
0.0
  0
VERTEX
  5
4E7
330
4E6
100
AcDbEntity
  8
BEMAßUNG
 62
     7
100
AcDbVertex
100
AcDb2dVertex
 10
12.05955674611705
 20
7.567668997674056
 30
0.0
  0
VERTEX
  5
4E8
330
4E6
100
AcDbEntity
  8
BEMAßUNG
 62
     7
100
AcDbVertex
100
AcDb2dVertex
 10
12.22492132940905
 20
6.23527831875368
 30
0.0
  0
SEQEND
  5
4E9
330
4E6
100
AcDbEntity
  8
BEMAßUNG
  0
POLYLINE
  5
4EA
330
1F
100
AcDbEntity
  8
BEMAßUNG
 62
     7
100
AcDb2dPolyline
 66
     1
 10
0.0
 20
0.0
 30
0.0
  0
VERTEX
  5
4EB
330
4EA
100
AcDbEntity
  8
BEMAßUNG
 62
     7
100
AcDbVertex
100
AcDb2dVertex
 10
12.00856933293536
 20
7.561295571026343
 30
0.0
  0
VERTEX
  5
4EC
330
4EA
100
AcDbEntity
  8
BEMAßUNG
 62
     7
100
AcDbVertex
100
AcDb2dVertex
 10
12.22182074347232
 20
5.846499293243236
 30
0.0
  0
SEQEND
  5
4ED
330
4EA
100
AcDbEntity
  8
BEMAßUNG
  0
POLYLINE
  5
4EE
330
1F
100
AcDbEntity
  8
BEMAßUNG
 62
     7
100
AcDb2dPolyline
 66
     1
 10
0.0
 20
0.0
 30
0.0
  0
VERTEX
  5
4EF
330
4EE
100
AcDbEntity
  8
BEMAßUNG
 62
     7
100
AcDbVertex
100
AcDb2dVertex
 10
11.95861544839924
 20
7.555094399152893
 30
0.0
  0
VERTEX
  5
4F0
330
4EE
100
AcDbEntity
  8
BEMAßUNG
 62
     7
100
AcDbVertex
100
AcDb2dVertex
 10
12.21906466708412
 20
5.457031248635743
 30
0.0
  0
SEQEND
  5
4F1
330
4EE
100
AcDbEntity
  8
BEMAßUNG
  0
POLYLINE
  5
4F2
330
1F
100
AcDbEntity
  8
BEMAßUNG
 62
     7
100
AcDb2dPolyline
 66
     1
 10
0.0
 20
0.0
 30
0.0
  0
VERTEX
  5
4F3
330
4F2
100
AcDbEntity
  8
BEMAßUNG
 62
     7
100
AcDbVertex
100
AcDb2dVertex
 10
11.90797254476606
 20
7.549065482053706
 30
0.0
  0
VERTEX
  5
4F4
330
4F2
100
AcDbEntity
  8
BEMAßUNG
 62
     7
100
AcDbVertex
100
AcDb2dVertex
 10
12.21665310024445
 20
5.068252223125298
 30
0.0
  0
SEQEND
  5
4F5
330
4F2
100
AcDbEntity
  8
BEMAßUNG
  0
POLYLINE
  5
4F6
330
1F
100
AcDbEntity
  8
BEMAßUNG
 62
     7
100
AcDb2dPolyline
 66
     1
 10
0.0
 20
0.0
 30
0.0
  0
VERTEX
  5
4F7
330
4F6
100
AcDbEntity
  8
BEMAßUNG
 62
     7
100
AcDbVertex
100
AcDb2dVertex
 10
11.6051486516126
 20
7.511513941264483
 30
0.0
  0
VERTEX
  5
4F8
330
4F6
100
AcDbEntity
  8
BEMAßUNG
 62
     7
100
AcDbVertex
100
AcDb2dVertex
 10
11.62788628181525
 20
7.327718097126404
 30
0.0
  0
SEQEND
  5
4F9
330
4F6
100
AcDbEntity
  8
BEMAßUNG
  0
POLYLINE
  5
4FA
330
1F
100
AcDbEntity
  8
BEMAßUNG
 62
     7
100
AcDb2dPolyline
 66
     1
 10
0.0
 20
0.0
 30
0.0
  0
VERTEX
  5
4FB
330
4FA
100
AcDbEntity
  8
BEMAßUNG
 62
     7
100
AcDbVertex
100
AcDb2dVertex
 10
11.6051486516126
 20
7.511513941264483
 30
0.0
  0
VERTEX
  5
4FC
330
4FA
100
AcDbEntity
  8
BEMAßUNG
 62
     7
100
AcDbVertex
100
AcDb2dVertex
 10
11.62788628181525
 20
7.327718097126404
 30
0.0
  0
SEQEND
  5
4FD
330
4FA
100
AcDbEntity
  8
BEMAßUNG
  0
POLYLINE
  5
4FE
330
1F
100
AcDbEntity
  8
BEMAßUNG
 62
     7
100
AcDb2dPolyline
 66
     1
 10
0.0
 20
0.0
 30
0.0
  0
VERTEX
  5
4FF
330
4FE
100
AcDbEntity
  8
BEMAßUNG
 62
     7
100
AcDbVertex
100
AcDb2dVertex
 10
11.65579155524578
 20
7.517198348815145
 30
0.0
  0
VERTEX
  5
500
330
4FE
100
AcDbEntity
  8
BEMAßUNG
 62
     7
100
AcDbVertex
100
AcDb2dVertex
 10
11.7264160126934
 20
6.951169160588597
 30
0.0
  0
SEQEND
  5
501
330
4FE
100
AcDbEntity
  8
BEMAßUNG
  0
POLYLINE
  5
502
330
1F
100
AcDbEntity
  8
BEMAßUNG
 62
     7
100
AcDb2dPolyline
 66
     1
 10
0.0
 20
0.0
 30
0.0
  0
VERTEX
  5
503
330
502
100
AcDbEntity
  8
BEMAßUNG
 62
     7
100
AcDbVertex
100
AcDb2dVertex
 10
11.70608994933042
 20
7.524088539785645
 30
0.0
  0
VERTEX
  5
504
330
502
100
AcDbEntity
  8
BEMAßUNG
 62
     7
100
AcDbVertex
100
AcDb2dVertex
 10
11.82460123402302
 20
6.574275714502265
 30
0.0
  0
SEQEND
  5
505
330
502
100
AcDbEntity
  8
BEMAßUNG
  0
POLYLINE
  5
506
330
1F
100
AcDbEntity
  8
BEMAßUNG
 62
     7
100
AcDb2dPolyline
 66
     1
 10
0.0
 20
0.0
 30
0.0
  0
VERTEX
  5
507
330
506
100
AcDbEntity
  8
BEMAßUNG
 62
     7
100
AcDbVertex
100
AcDb2dVertex
 10
11.75707736251212
 20
7.530289711659095
 30
0.0
  0
VERTEX
  5
508
330
506
100
AcDbEntity
  8
BEMAßUNG
 62
     7
100
AcDbVertex
100
AcDb2dVertex
 10
11.92209743625559
 20
6.197726777964458
 30
0.0
  0
SEQEND
  5
509
330
506
100
AcDbEntity
  8
BEMAßUNG
  0
POLYLINE
  5
50A
330
1F
100
AcDbEntity
  8
BEMAßUNG
 62
     7
100
AcDb2dPolyline
 66
     1
 10
0.0
 20
0.0
 30
0.0
  0
VERTEX
  5
50B
330
50A
100
AcDbEntity
  8
BEMAßUNG
 62
     7
100
AcDbVertex
100
AcDb2dVertex
 10
11.80703124704824
 20
7.536318628758282
 30
0.0
  0
VERTEX
  5
50C
330
50A
100
AcDbEntity
  8
BEMAßUNG
 62
     7
100
AcDbVertex
100
AcDb2dVertex
 10
12.02062716713373
 20
5.821350096200913
 30
0.0
  0
SEQEND
  5
50D
330
50A
100
AcDbEntity
  8
BEMAßUNG
  0
POLYLINE
  5
50E
330
1F
100
AcDbEntity
  8
BEMAßUNG
 62
     7
100
AcDb2dPolyline
 66
     1
 10
0.0
 20
0.0
 30
0.0
  0
VERTEX
  5
50F
330
50E
100
AcDbEntity
  8
BEMAßUNG
 62
     7
100
AcDbVertex
100
AcDb2dVertex
 10
11.85767415068142
 20
7.542519800631731
 30
0.0
  0
VERTEX
  5
510
330
50E
100
AcDbEntity
  8
BEMAßUNG
 62
     7
100
AcDbVertex
100
AcDb2dVertex
 10
12.1181233693663
 20
5.444628904888843
 30
0.0
  0
SEQEND
  5
511
330
50E
100
AcDbEntity
  8
BEMAßUNG
  0
POLYLINE
  5
512
330
1F
100
AcDbEntity
  8
BEMAßUNG
 62
     7
100
AcDb2dPolyline
 66
     1
 10
0.0
 20
0.0
 30
0.0
  0
VERTEX
  5
513
330
512
100
AcDbEntity
  8
BEMAßUNG
 62
     7
100
AcDbVertex
100
AcDb2dVertex
 10
11.90797254476606
 20
7.549065482053706
 30
0.0
  0
VERTEX
  5
514
330
512
100
AcDbEntity
  8
BEMAßUNG
 62
     7
100
AcDbVertex
100
AcDb2dVertex
 10
12.21665310024445
 20
5.068252223125298
 30
0.0
  0
SEQEND
  5
515
330
512
100
AcDbEntity
  8
BEMAßUNG
  0
MTEXT
  5
517
330
1F
100
AcDbEntity
  8
TEXT
 62
     7
100
AcDbMText
 10
-19.36798230852606
 20
-9.23802354369744
 30
0.0
 40
2.398888888289167
 41
0.0
 71
     7
 72
     1
  1
\fINDEX Univers 45 Light|b0|i0|c0|p34;\W1;31,5
  0
MTEXT
  5
518
330
1F
100
AcDbEntity
  8
TEXT
 62
     7
100
AcDbMText
 10
-52.40765379549184
 20
8.38777397793778
 30
0.0
 40
2.398888888289167
 41
0.0
 71
     7
 72
     1
  1
\fINDEX Univers 45 Light|b0|i0|c0|p34;\W1;21
 11
-4.371139000186241E-8
 21
0.999999999999999
 31
0.0
  0
MTEXT
  5
519
330
1F
100
AcDbEntity
  8
TEXT
 62
     7
100
AcDbMText
 10
-42.33040499158754
 20
9.551699487629437
 30
0.0
 40
2.398888888289167
 41
0.0
 71
     7
 72
     1
  1
\fINDEX Univers 45 Light|b0|i0|c0|p34;\W1;D
 11
-4.371139000186241E-8
 21
0.999999999999999
 31
0.0
  0
MTEXT
  5
51A
330
1F
100
AcDbEntity
  8
TEXT
 62
     7
100
AcDbMText
 10
11.24892577843777
 20
8.497155759594461
 30
0.0
 40
2.398890032168527
 41
0.0
 71
     7
 72
     1
  1
\fINDEX Univers 45 Light|b0|i0|c0|p34;\W1;16°
 11
0.01124997646396119
 21
0.9999367170124119
 31
0.0
  0
ENDSEC
  0
SECTION
  2
OBJECTS
  0
DICTIONARY
  5
C
330
0
100
AcDbDictionary
  3
ACAD_GROUP
350
D
  3
ACAD_LAYOUT
350
1A
  3
ACAD_MLINESTYLE
350
17
  3
ACAD_PLOTSETTINGS
350
19
  3
ACAD_TABLESTYLE
350
53B
  3
ACAD_VISUALSTYLE
350
2A
  3
ACDBHEADERROUNDTRIPXREC
350
51B
  0
DICTIONARY
  5
D
102
{ACAD_REACTORS
330
C
102
}
330
C
100
AcDbDictionary
  0
DICTIONARY
  5
1A
102
{ACAD_REACTORS
330
C
102
}
330
C
100
AcDbDictionary
  0
DICTIONARY
  5
17
102
{ACAD_REACTORS
330
C
102
}
330
C
100
AcDbDictionary
  3
STANDARD
350
18
  0
DICTIONARY
  5
19
102
{ACAD_REACTORS
330
C
102
}
330
C
100
AcDbDictionary
  0
DICTIONARY
  5
53B
102
{ACAD_REACTORS
330
C
102
}
330
C
100
AcDbDictionary
  0
DICTIONARY
  5
2A
102
{ACAD_REACTORS
330
C
102
}
330
C
100
AcDbDictionary
  3
2DWIREFRAME
350
2F
  3
3D_HIDDEN
350
31
  3
3DWIREFRAME
350
30
  3
BASIC
350
32
  3
BRIGHTEN
350
36
  3
COLORCHANGE
350
3A
  3
CONCEPTUAL
350
34
  3
DIM
350
35
  3
FACEPATTERN
350
39
  3
FLAT
350
2B
  3
FLATWITHEDGES
350
2C
  3
GOURAUD
350
2D
  3
GOURAUDWITHEDGES
350
2E
  3
LINEPATTERN
350
38
  3
REALISTIC
350
33
  3
THICKEN
350
37
  0
DICTIONARY
  5
51B
102
{ACAD_REACTORS
330
C
102
}
330
C
100
AcDbDictionary
  3
CEPSNTYPE
350
524
  3
DIMSTYLEDATA
350
53A
  3
FINGERPRINTGUID
350
525
  3
HYPERLINKBASE
350
51E
  3
INSUNITS
350
523
  3
LAYOUTDICT
350
520
  3
LWETCUNION
350
522
  3
PLOTSETDICT
350
521
  3
PSVPSCALE
350
527
  3
PUCSBASE
350
52A
  3
PUCSORGBACK
350
530
  3
PUCSORGBOTTOM
350
52C
  3
PUCSORGFRONT
350
52F
  3
PUCSORGLEFT
350
52D
  3
PUCSORGRIGHT
350
52E
  3
PUCSORGTOP
350
52B
  3
PUCSORTHOREF
350
528
  3
PUCSORTHOVIEW
350
529
  3
STYLESHEET
350
51F
  3
TSTACKALIGN
350
51C
  3
TSTACKSIZE
350
51D
  3
UCSBASE
350
533
  3
UCSORGBACK
350
539
  3
UCSORGBOTTOM
350
535
  3
UCSORGFRONT
350
538
  3
UCSORGLEFT
350
536
  3
UCSORGRIGHT
350
537
  3
UCSORGTOP
350
534
  3
UCSORTHOREF
350
531
  3
UCSORTHOVIEW
350
532
  3
VERSIONGUID
350
526
  0
MLINESTYLE
  5
18
102
{ACAD_REACTORS
330
17
102
}
330
17
100
AcDbMlineStyle
  2
Standard
 70
     0
  3

 62
   256
 51
90.0
 52
90.0
 71
     2
 49
0.5
 62
   256
  6
BYLAYER
 49
-0.5
 62
   256
  6
BYLAYER
  0
VISUALSTYLE
  5
2F
102
{ACAD_REACTORS
330
2A
102
}
330
2A
100
AcDbVisualStyle
  2
2dWireframe
 70
     4
 71
     0
 72
     2
 73
     0
 90
        0
 40
-0.6
 41
-30.0
 62
     5
 63
     7
 74
     1
 91
        4
 64
     7
 65
   257
 75
     1
175
     1
 42
1.0
 92
        0
 66
   257
 43
1.0
 76
     1
 77
     6
 78
     2
 67
     7
 79
     5
170
     0
171
     0
290
     0
174
     0
 93
        1
 44
0.0
173
     0
291
     0
 45
0.0
1001
ACAD
1000
AcDbSavedByObjectVersion
1070
     0
  0
VISUALSTYLE
  5
31
102
{ACAD_REACTORS
330
2A
102
}
330
2A
100
AcDbVisualStyle
  2
3D Hidden
 70
     6
 71
     1
 72
     2
 73
     2
 90
        0
 40
-0.6
 41
-30.0
 62
     5
 63
     7
 74
     2
 91
        2
 64
     7
 65
   257
 75
     2
175
     1
 42
40.0
 92
        0
 66
   257
 43
1.0
 76
     1
 77
     6
 78
     2
 67
     7
 79
     3
170
     0
171
     0
290
     0
174
     0
 93
        1
 44
0.0
173
     0
291
     0
 45
0.0
1001
ACAD
1000
AcDbSavedByObjectVersion
1070
     0
  0
VISUALSTYLE
  5
30
102
{ACAD_REACTORS
330
2A
102
}
330
2A
100
AcDbVisualStyle
  2
3dWireframe
 70
     5
 71
     0
 72
     2
 73
     0
 90
        0
 40
-0.6
 41
-30.0
 62
     5
 63
     7
 74
     1
 91
        4
 64
     7
 65
   257
 75
     1
175
     1
 42
1.0
 92
        0
 66
   257
 43
1.0
 76
     1
 77
     6
 78
     2
 67
     7
 79
     5
170
     0
171
     0
290
     0
174
     0
 93
        1
 44
0.0
173
     0
291
     0
 45
0.0
1001
ACAD
1000
AcDbSavedByObjectVersion
1070
     0
  0
VISUALSTYLE
  5
32
102
{ACAD_REACTORS
330
2A
102
}
330
2A
100
AcDbVisualStyle
  2
Basic
 70
     7
 71
     1
 72
     0
 73
     1
 90
        0
 40
-0.6
 41
-30.0
 62
     5
 63
     7
 74
     0
 91
        4
 64
     7
 65
   257
 75
     1
175
     1
 42
1.0
 92
        8
 66
     7
 43
1.0
 76
     1
 77
     6
 78
     2
 67
     7
 79
     5
170
     0
171
     0
290
     0
174
     0
 93
        1
 44
0.0
173
     0
291
     1
 45
0.0
1001
ACAD
1000
AcDbSavedByObjectVersion
1070
     0
  0
VISUALSTYLE
  5
36
102
{ACAD_REACTORS
330
2A
102
}
330
2A
100
AcDbVisualStyle
  2
Brighten
 70
    12
 71
     2
 72
     2
 73
     0
 90
        0
 40
-0.6
 41
-30.0
 62
     5
 63
     7
 74
     1
 91
        4
 64
     7
 65
   257
 75
     1
175
     1
 42
1.0
 92
        8
 66
     7
 43
1.0
 76
     1
 77
     6
 78
     2
 67
     7
 79
     5
170
     0
171
     0
290
     0
174
     0
 93
        1
 44
50.0
173
     0
291
     1
 45
0.0
1001
ACAD
1000
AcDbSavedByObjectVersion
1070
     0
  0
VISUALSTYLE
  5
3A
102
{ACAD_REACTORS
330
2A
102
}
330
2A
100
AcDbVisualStyle
  2
ColorChange
 70
    16
 71
     2
 72
     2
 73
     3
 90
        0
 40
-0.6
 41
-30.0
 62
     5
 63
     8
 74
     1
 91
        4
 64
     7
 65
   257
 75
     1
175
     1
 42
1.0
 92
        8
 66
     8
 43
1.0
 76
     1
 77
     6
 78
     2
 67
     7
 79
     5
170
     0
171
     0
290
     0
174
     0
 93
        1
 44
0.0
173
     0
291
     1
 45
0.0
1001
ACAD
1000
AcDbSavedByObjectVersion
1070
     0
  0
VISUALSTYLE
  5
34
102
{ACAD_REACTORS
330
2A
102
}
330
2A
100
AcDbVisualStyle
  2
Conceptual
 70
     9
 71
     3
 72
     2
 73
     0
 90
        0
 40
-0.6
 41
-30.0
 62
     5
 63
     7
 74
     2
 91
        2
 64
     7
 65
   257
 75
     1
175
     1
 42
40.0
 92
        8
 66
     7
 43
1.0
 76
     1
 77
     6
 78
     2
 67
     7
 79
     3
170
     0
171
     0
290
     0
174
     0
 93
        1
 44
0.0
173
     0
291
     0
 45
0.0
1001
ACAD
1000
AcDbSavedByObjectVersion
1070
     0
  0
VISUALSTYLE
  5
35
102
{ACAD_REACTORS
330
2A
102
}
330
2A
100
AcDbVisualStyle
  2
Dim
 70
    11
 71
     2
 72
     2
 73
     0
 90
        0
 40
-0.6
 41
-30.0
 62
     5
 63
     7
 74
     1
 91
        4
 64
     7
 65
   257
 75
     1
175
     1
 42
1.0
 92
        8
 66
     7
 43
1.0
 76
     1
 77
     6
 78
     2
 67
     7
 79
     5
170
     0
171
     0
290
     0
174
     0
 93
        1
 44
-50.0
173
     0
291
     1
 45
0.0
1001
ACAD
1000
AcDbSavedByObjectVersion
1070
     0
  0
VISUALSTYLE
  5
39
102
{ACAD_REACTORS
330
2A
102
}
330
2A
100
AcDbVisualStyle
  2
Facepattern
 70
    15
 71
     2
 72
     2
 73
     0
 90
        0
 40
-0.6
 41
-30.0
 62
     5
 63
     7
 74
     1
 91
        4
 64
     7
 65
   257
 75
     1
175
     1
 42
1.0
 92
        8
 66
     7
 43
1.0
 76
     1
 77
     6
 78
     2
 67
     7
 79
     5
170
     0
171
     0
290
     0
174
     0
 93
        1
 44
0.0
173
     0
291
     1
 45
0.0
1001
ACAD
1000
AcDbSavedByObjectVersion
1070
     0
  0
VISUALSTYLE
  5
2B
102
{ACAD_REACTORS
330
2A
102
}
330
2A
100
AcDbVisualStyle
  2
Flat
 70
     0
 71
     2
 72
     1
 73
     1
 90
        2
 40
-0.6
 41
30.0
 62
     5
 63
     7
 74
     0
 91
        4
 64
     7
 65
   257
 75
     1
175
     1
 42
1.0
 92
        8
 66
     7
 43
1.0
 76
     1
 77
     6
 78
     2
 67
     7
 79
     5
170
     0
171
     0
290
     0
174
     0
 93
       13
 44
0.0
173
     0
291
     1
 45
0.0
1001
ACAD
1000
AcDbSavedByObjectVersion
1070
     0
  0
VISUALSTYLE
  5
2C
102
{ACAD_REACTORS
330
2A
102
}
330
2A
100
AcDbVisualStyle
  2
FlatWithEdges
 70
     1
 71
     2
 72
     1
 73
     1
 90
        2
 40
-0.6
 41
30.0
 62
     5
 63
     7
 74
     1
 91
        4
 64
     7
 65
   257
 75
     1
175
     1
 42
1.0
 92
        0
 66
   257
 43
1.0
 76
     1
 77
     6
 78
     2
 67
     7
 79
     5
170
     0
171
     0
290
     0
174
     0
 93
       13
 44
0.0
173
     0
291
     1
 45
0.0
1001
ACAD
1000
AcDbSavedByObjectVersion
1070
     0
  0
VISUALSTYLE
  5
2D
102
{ACAD_REACTORS
330
2A
102
}
330
2A
100
AcDbVisualStyle
  2
Gouraud
 70
     2
 71
     2
 72
     2
 73
     1
 90
        2
 40
-0.6
 41
30.0
 62
     5
 63
     7
 74
     0
 91
        4
 64
     7
 65
   257
 75
     1
175
     1
 42
1.0
 92
        0
 66
     7
 43
1.0
 76
     1
 77
     6
 78
     2
 67
     7
 79
     5
170
     0
171
     0
290
     0
174
     0
 93
       13
 44
0.0
173
     0
291
     1
 45
0.0
1001
ACAD
1000
AcDbSavedByObjectVersion
1070
     0
  0
VISUALSTYLE
  5
2E
102
{ACAD_REACTORS
330
2A
102
}
330
2A
100
AcDbVisualStyle
  2
GouraudWithEdges
 70
     3
 71
     2
 72
     2
 73
     1
 90
        2
 40
-0.6
 41
30.0
 62
     5
 63
     7
 74
     1
 91
        4
 64
     7
 65
   257
 75
     1
175
     1
 42
1.0
 92
        0
 66
   257
 43
1.0
 76
     1
 77
     6
 78
     2
 67
     7
 79
     5
170
     0
171
     0
290
     0
174
     0
 93
       13
 44
0.0
173
     0
291
     1
 45
0.0
1001
ACAD
1000
AcDbSavedByObjectVersion
1070
     0
  0
VISUALSTYLE
  5
38
102
{ACAD_REACTORS
330
2A
102
}
330
2A
100
AcDbVisualStyle
  2
Linepattern
 70
    14
 71
     2
 72
     2
 73
     0
 90
        0
 40
-0.6
 41
-30.0
 62
     5
 63
     7
 74
     1
 91
        4
 64
     7
 65
   257
 75
     7
175
     7
 42
1.0
 92
        8
 66
     7
 43
1.0
 76
     1
 77
     6
 78
     2
 67
     7
 79
     5
170
     0
171
     0
290
     0
174
     0
 93
        1
 44
0.0
173
     0
291
     1
 45
0.0
1001
ACAD
1000
AcDbSavedByObjectVersion
1070
     0
  0
VISUALSTYLE
  5
33
102
{ACAD_REACTORS
330
2A
102
}
330
2A
100
AcDbVisualStyle
  2
Realistic
 70
     8
 71
     2
 72
     2
 73
     0
 90
        0
 40
-0.6
 41
-30.0
 62
     5
 63
     7
 74
     1
 91
        0
 64
     7
 65
   257
 75
     1
175
     1
 42
1.0
 92
        8
 66
     8
 43
1.0
 76
     1
 77
     6
 78
     2
 67
     7
 79
     5
170
     0
171
     0
290
     0
174
     0
 93
       13
 44
0.0
173
     0
291
     0
 45
0.0
1001
ACAD
1000
AcDbSavedByObjectVersion
1070
     0
  0
VISUALSTYLE
  5
37
102
{ACAD_REACTORS
330
2A
102
}
330
2A
100
AcDbVisualStyle
  2
Thicken
 70
    13
 71
     2
 72
     2
 73
     0
 90
        0
 40
-0.6
 41
-30.0
 62
     5
 63
     7
 74
     1
 91
        4
 64
     7
 65
   257
 75
     1
175
     1
 42
1.0
 92
       12
 66
     7
 43
1.0
 76
     1
 77
     6
 78
     2
 67
     7
 79
     5
170
     0
171
     0
290
     0
174
     0
 93
        1
 44
0.0
173
     0
291
     1
 45
0.0
1001
ACAD
1000
AcDbSavedByObjectVersion
1070
     0
  0
XRECORD
  5
524
102
{ACAD_REACTORS
330
51B
102
}
330
51B
100
AcDbXrecord
 90
        0
  0
XRECORD
  5
53A
102
{ACAD_REACTORS
330
51B
102
}
330
51B
100
AcDbXrecord
1000
DSTYLE
1002
{
1070
   340
340
11
1002
}
  0
XRECORD
  5
525
102
{ACAD_REACTORS
330
51B
102
}
330
51B
100
AcDbXrecord
  1
{4C4CD842-206D-4D91-9C73-873C5E927E25}
  0
XRECORD
  5
51E
102
{ACAD_REACTORS
330
51B
102
}
330
51B
100
AcDbXrecord
  1

  0
XRECORD
  5
523
102
{ACAD_REACTORS
330
51B
102
}
330
51B
100
AcDbXrecord
 90
        1
  0
XRECORD
  5
520
102
{ACAD_REACTORS
330
51B
102
}
330
51B
100
AcDbXrecord
340
1A
  0
XRECORD
  5
522
102
{ACAD_REACTORS
330
51B
102
}
330
51B
100
AcDbXrecord
 90
    10269
  0
XRECORD
  5
521
102
{ACAD_REACTORS
330
51B
102
}
330
51B
100
AcDbXrecord
340
19
  0
XRECORD
  5
527
102
{ACAD_REACTORS
330
51B
102
}
330
51B
100
AcDbXrecord
 40
0.0
  0
XRECORD
  5
52A
102
{ACAD_REACTORS
330
51B
102
}
330
51B
100
AcDbXrecord
340
0
  0
XRECORD
  5
530
102
{ACAD_REACTORS
330
51B
102
}
330
51B
100
AcDbXrecord
 10
0.0
 20
0.0
 30
0.0
  0
XRECORD
  5
52C
102
{ACAD_REACTORS
330
51B
102
}
330
51B
100
AcDbXrecord
 10
0.0
 20
0.0
 30
0.0
  0
XRECORD
  5
52F
102
{ACAD_REACTORS
330
51B
102
}
330
51B
100
AcDbXrecord
 10
0.0
 20
0.0
 30
0.0
  0
XRECORD
  5
52D
102
{ACAD_REACTORS
330
51B
102
}
330
51B
100
AcDbXrecord
 10
0.0
 20
0.0
 30
0.0
  0
XRECORD
  5
52E
102
{ACAD_REACTORS
330
51B
102
}
330
51B
100
AcDbXrecord
 10
0.0
 20
0.0
 30
0.0
  0
XRECORD
  5
52B
102
{ACAD_REACTORS
330
51B
102
}
330
51B
100
AcDbXrecord
 10
0.0
 20
0.0
 30
0.0
  0
XRECORD
  5
528
102
{ACAD_REACTORS
330
51B
102
}
330
51B
100
AcDbXrecord
340
0
  0
XRECORD
  5
529
102
{ACAD_REACTORS
330
51B
102
}
330
51B
100
AcDbXrecord
 70
     0
  0
XRECORD
  5
51F
102
{ACAD_REACTORS
330
51B
102
}
330
51B
100
AcDbXrecord
  1

  0
XRECORD
  5
51C
102
{ACAD_REACTORS
330
51B
102
}
330
51B
100
AcDbXrecord
 90
        1
  0
XRECORD
  5
51D
102
{ACAD_REACTORS
330
51B
102
}
330
51B
100
AcDbXrecord
 90
       70
  0
XRECORD
  5
533
102
{ACAD_REACTORS
330
51B
102
}
330
51B
100
AcDbXrecord
340
0
  0
XRECORD
  5
539
102
{ACAD_REACTORS
330
51B
102
}
330
51B
100
AcDbXrecord
 10
0.0
 20
0.0
 30
0.0
  0
XRECORD
  5
535
102
{ACAD_REACTORS
330
51B
102
}
330
51B
100
AcDbXrecord
 10
0.0
 20
0.0
 30
0.0
  0
XRECORD
  5
538
102
{ACAD_REACTORS
330
51B
102
}
330
51B
100
AcDbXrecord
 10
0.0
 20
0.0
 30
0.0
  0
XRECORD
  5
536
102
{ACAD_REACTORS
330
51B
102
}
330
51B
100
AcDbXrecord
 10
0.0
 20
0.0
 30
0.0
  0
XRECORD
  5
537
102
{ACAD_REACTORS
330
51B
102
}
330
51B
100
AcDbXrecord
 10
0.0
 20
0.0
 30
0.0
  0
XRECORD
  5
534
102
{ACAD_REACTORS
330
51B
102
}
330
51B
100
AcDbXrecord
 10
0.0
 20
0.0
 30
0.0
  0
XRECORD
  5
531
102
{ACAD_REACTORS
330
51B
102
}
330
51B
100
AcDbXrecord
340
0
  0
XRECORD
  5
532
102
{ACAD_REACTORS
330
51B
102
}
330
51B
100
AcDbXrecord
 70
     0
  0
XRECORD
  5
526
102
{ACAD_REACTORS
330
51B
102
}
330
51B
100
AcDbXrecord
  1
{FAEB1C32-E019-11D5-929B-00C0DF256EC4}
  0
ENDSEC
  0
EOF
