  0
SECTION
  2
HEADER
  9
$ACADVER
  1
AC1032
  9
$ACADMAINTVER
 90
      228
  9
$DWGCODEPAGE
  3
ANSI_1252
  9
$REQUIREDVERSIONS
160
                 0
  9
$INSBASE
 10
0.0
 20
0.0
 30
0.0
  9
$EXTMIN
 10
1.000000000000000E+20
 20
1.000000000000000E+20
 30
1.000000000000000E+20
  9
$EXTMAX
 10
-1.000000000000000E+20
 20
-1.000000000000000E+20
 30
-1.000000000000000E+20
  9
$LIMMIN
 10
0.0
 20
0.0
  9
$LIMMAX
 10
12.0
 20
9.0
  9
$ORTHOMODE
 70
     0
  9
$REGENMODE
 70
     1
  9
$FILLMODE
 70
     1
  9
$QTEXTMODE
 70
     0
  9
$MIRRTEXT
 70
     0
  9
$LTSCALE
 40
1.0
  9
$ATTMODE
 70
     1
  9
$TEXTSIZE
 40
0.2
  9
$TRACEWID
 40
0.05
  9
$TEXTSTYLE
  7
Standard
  9
$CLAYER
  8
0
  9
$CELTYPE
  6
ByLayer
  9
$CECOLOR
 62
   256
  9
$CELTSCALE
 40
1.0
  9
$DISPSILH
 70
     0
  9
$DIMSCALE
 40
1.0
  9
$DIMASZ
 40
0.18
  9
$DIMEXO
 40
0.0625
  9
$DIMDLI
 40
0.38
  9
$DIMRND
 40
0.0
  9
$DIMDLE
 40
0.0
  9
$DIMEXE
 40
0.18
  9
$DIMTP
 40
0.0
  9
$DIMTM
 40
0.0
  9
$DIMTXT
 40
0.18
  9
$DIMCEN
 40
0.09
  9
$DIMTSZ
 40
0.0
  9
$DIMTOL
 70
     0
  9
$DIMLIM
 70
     0
  9
$DIMTIH
 70
     1
  9
$DIMTOH
 70
     1
  9
$DIMSE1
 70
     0
  9
$DIMSE2
 70
     0
  9
$DIMTAD
 70
     0
  9
$DIMZIN
 70
     0
  9
$DIMBLK
  1

  9
$DIMASO
 70
     1
  9
$DIMSHO
 70
     1
  9
$DIMPOST
  1

  9
$DIMAPOST
  1

  9
$DIMALT
 70
     0
  9
$DIMALTD
 70
     2
  9
$DIMALTF
 40
25.4
  9
$DIMLFAC
 40
1.0
  9
$DIMTOFL
 70
     0
  9
$DIMTVP
 40
0.0
  9
$DIMTIX
 70
     0
  9
$DIMSOXD
 70
     0
  9
$DIMSAH
 70
     0
  9
$DIMBLK1
  1

  9
$DIMBLK2
  1

  9
$DIMSTYLE
  2
Standard
  9
$DIMCLRD
 70
     0
  9
$DIMCLRE
 70
     0
  9
$DIMCLRT
 70
     0
  9
$DIMTFAC
 40
1.0
  9
$DIMGAP
 40
0.09
  9
$DIMJUST
 70
     0
  9
$DIMSD1
 70
     0
  9
$DIMSD2
 70
     0
  9
$DIMTOLJ
 70
     1
  9
$DIMTZIN
 70
     0
  9
$DIMALTZ
 70
     0
  9
$DIMALTTZ
 70
     0
  9
$DIMUPT
 70
     0
  9
$DIMDEC
 70
     4
  9
$DIMTDEC
 70
     4
  9
$DIMALTU
 70
     2
  9
$DIMALTTD
 70
     2
  9
$DIMTXSTY
  7
Standard
  9
$DIMAUNIT
 70
     0
  9
$DIMADEC
 70
     0
  9
$DIMALTRND
 40
0.0
  9
$DIMAZIN
 70
     0
  9
$DIMDSEP
 70
    46
  9
$DIMATFIT
 70
     3
  9
$DIMFRAC
 70
     0
  9
$DIMLDRBLK
  1

  9
$DIMLUNIT
 70
     2
  9
$DIMLWD
 70
    -2
  9
$DIMLWE
 70
    -2
  9
$DIMTMOVE
 70
     0
  9
$DIMFXL
 40
1.0
  9
$DIMFXLON
 70
     0
  9
$DIMJOGANG
 40
0.7853981633974483
  9
$DIMTFILL
 70
     0
  9
$DIMTFILLCLR
 70
     0
  9
$DIMARCSYM
 70
     0
  9
$DIMLTYPE
  6

  9
$DIMLTEX1
  6

  9
$DIMLTEX2
  6

  9
$DIMTXTDIRECTION
 70
     0
  9
$LUNITS
 70
     2
  9
$LUPREC
 70
     4
  9
$SKETCHINC
 40
0.1
  9
$FILLETRAD
 40
0.0
  9
$AUNITS
 70
     0
  9
$AUPREC
 70
     0
  9
$MENU
  1
.
  9
$ELEVATION
 40
0.0
  9
$PELEVATION
 40
0.0
  9
$THICKNESS
 40
0.0
  9
$LIMCHECK
 70
     0
  9
$CHAMFERA
 40
0.0
  9
$CHAMFERB
 40
0.0
  9
$CHAMFERC
 40
0.0
  9
$CHAMFERD
 40
0.0
  9
$SKPOLY
 70
     0
  9
$TDCREATE
 40
2460425.423645834
  9
$TDUCREATE
 40
2460425.340312500
  9
$TDUPDATE
 40
2460425.423645834
  9
$TDUUPDATE
 40
2460425.340312500
  9
$TDINDWG
 40
0.0000000000
  9
$TDUSRTIMER
 40
0.0000000000
  9
$USRTIMER
 70
     1
  9
$ANGBASE
 50
0.0
  9
$ANGDIR
 70
     0
  9
$PDMODE
 70
     0
  9
$PDSIZE
 40
0.0
  9
$PLINEWID
 40
0.0
  9
$SPLFRAME
 70
     0
  9
$SPLINETYPE
 70
     6
  9
$SPLINESEGS
 70
     8
  9
$HANDSEED
  5
26A
  9
$SURFTAB1
 70
     6
  9
$SURFTAB2
 70
     6
  9
$SURFTYPE
 70
     6
  9
$SURFU
 70
     6
  9
$SURFV
 70
     6
  9
$UCSBASE
  2

  9
$UCSNAME
  2

  9
$UCSORG
 10
0.0
 20
0.0
 30
0.0
  9
$UCSXDIR
 10
1.0
 20
0.0
 30
0.0
  9
$UCSYDIR
 10
0.0
 20
1.0
 30
0.0
  9
$UCSORTHOREF
  2

  9
$UCSORTHOVIEW
 70
     0
  9
$UCSORGTOP
 10
0.0
 20
0.0
 30
0.0
  9
$UCSORGBOTTOM
 10
0.0
 20
0.0
 30
0.0
  9
$UCSORGLEFT
 10
0.0
 20
0.0
 30
0.0
  9
$UCSORGRIGHT
 10
0.0
 20
0.0
 30
0.0
  9
$UCSORGFRONT
 10
0.0
 20
0.0
 30
0.0
  9
$UCSORGBACK
 10
0.0
 20
0.0
 30
0.0
  9
$PUCSBASE
  2

  9
$PUCSNAME
  2

  9
$PUCSORG
 10
0.0
 20
0.0
 30
0.0
  9
$PUCSXDIR
 10
1.0
 20
0.0
 30
0.0
  9
$PUCSYDIR
 10
0.0
 20
1.0
 30
0.0
  9
$PUCSORTHOREF
  2

  9
$PUCSORTHOVIEW
 70
     0
  9
$PUCSORGTOP
 10
0.0
 20
0.0
 30
0.0
  9
$PUCSORGBOTTOM
 10
0.0
 20
0.0
 30
0.0
  9
$PUCSORGLEFT
 10
0.0
 20
0.0
 30
0.0
  9
$PUCSORGRIGHT
 10
0.0
 20
0.0
 30
0.0
  9
$PUCSORGFRONT
 10
0.0
 20
0.0
 30
0.0
  9
$PUCSORGBACK
 10
0.0
 20
0.0
 30
0.0
  9
$USERI1
 70
     0
  9
$USERI2
 70
     0
  9
$USERI3
 70
     0
  9
$USERI4
 70
     0
  9
$USERI5
 70
     0
  9
$USERR1
 40
0.0
  9
$USERR2
 40
0.0
  9
$USERR3
 40
0.0
  9
$USERR4
 40
0.0
  9
$USERR5
 40
0.0
  9
$WORLDVIEW
 70
     1
  9
$SHADEDGE
 70
     3
  9
$SHADEDIF
 70
    70
  9
$TILEMODE
 70
     1
  9
$MAXACTVP
 70
    64
  9
$PINSBASE
 10
0.0
 20
0.0
 30
0.0
  9
$PLIMCHECK
 70
     0
  9
$PEXTMIN
 10
1.000000000000000E+20
 20
1.000000000000000E+20
 30
1.000000000000000E+20
  9
$PEXTMAX
 10
-1.000000000000000E+20
 20
-1.000000000000000E+20
 30
-1.000000000000000E+20
  9
$PLIMMIN
 10
0.0
 20
0.0
  9
$PLIMMAX
 10
12.0
 20
9.0
  9
$UNITMODE
 70
     0
  9
$VISRETAIN
 70
     1
  9
$PLINEGEN
 70
     0
  9
$PSLTSCALE
 70
     1
  9
$TREEDEPTH
 70
  3020
  9
$CMLSTYLE
  2
Standard
  9
$CMLJUST
 70
     0
  9
$CMLSCALE
 40
1.0
  9
$PROXYGRAPHICS
 70
     1
  9
$MEASUREMENT
 70
     0
  9
$CELWEIGHT
370
    -1
  9
$ENDCAPS
280
     0
  9
$JOINSTYLE
280
     0
  9
$LWDISPLAY
290
     1
  9
$INSUNITS
 70
     4
  9
$HYPERLINKBASE
  1

  9
$STYLESHEET
  1

  9
$XEDIT
290
     1
  9
$CEPSNTYPE
380
     0
  9
$PSTYLEMODE
290
     1
  9
$FINGERPRINTGUID
  2
{B6BFCE8D-73EE-5848-91EA-EF1586A3A90D}
  9
$VERSIONGUID
  2
{51A9E42E-BAE1-0246-9303-26C75FBF2C82}
  9
$EXTNAMES
290
     1
  9
$PSVPSCALE
 40
0.0
  9
$OLESTARTUP
290
     0
  9
$SORTENTS
280
   127
  9
$INDEXCTL
280
     0
  9
$HIDETEXT
280
     1
  9
$XCLIPFRAME
280
     2
  9
$HALOGAP
280
     0
  9
$OBSCOLOR
 70
   257
  9
$OBSLTYPE
280
     0
  9
$INTERSECTIONDISPLAY
280
     0
  9
$INTERSECTIONCOLOR
 70
   257
  9
$DIMASSOC
280
     2
  9
$PROJECTNAME
  1

  9
$CAMERADISPLAY
290
     0
  9
$LENSLENGTH
 40
50.0
  9
$CAMERAHEIGHT
 40
0.0
  9
$STEPSPERSEC
 40
2.0
  9
$STEPSIZE
 40
6.0
  9
$3DDWFPREC
 40
2.0
  9
$PSOLWIDTH
 40
0.25
  9
$PSOLHEIGHT
 40
4.0
  9
$LOFTANG1
 40
1.570796326794896
  9
$LOFTANG2
 40
1.570796326794896
  9
$LOFTMAG1
 40
0.0
  9
$LOFTMAG2
 40
0.0
  9
$LOFTPARAM
 70
     7
  9
$LOFTNORMALS
280
     1
  9
$LATITUDE
 40
37.795
  9
$LONGITUDE
 40
-122.394
  9
$NORTHDIRECTION
 40
0.0
  9
$TIMEZONE
 70
 -8000
  9
$LIGHTGLYPHDISPLAY
280
     1
  9
$TILEMODELIGHTSYNCH
280
     1
  9
$CMATERIAL
347
11
  9
$SOLIDHIST
280
     0
  9
$SHOWHIST
280
     1
  9
$DWFFRAME
280
     2
  9
$DGNFRAME
280
     0
  9
$REALWORLDSCALE
290
     1
  9
$INTERFERECOLOR
 62
     1
  9
$INTERFEREOBJVS
345
33
  9
$INTERFEREVPVS
346
30
  9
$CSHADOW
280
     0
  9
$SHADOWPLANELOCATION
 40
0.0
  0
ENDSEC
  0
SECTION
  2
CLASSES
  0
CLASS
  1
ACDBDICTIONARYWDFLT
  2
AcDbDictionaryWithDefault
  3
ObjectDBX Classes
 90
        0
 91
        1
280
     0
281
     0
  0
CLASS
  1
MATERIAL
  2
AcDbMaterial
  3
ObjectDBX Classes
 90
     1153
 91
        3
280
     0
281
     0
  0
CLASS
  1
VISUALSTYLE
  2
AcDbVisualStyle
  3
ObjectDBX Classes
 90
     4095
 91
       24
280
     0
281
     0
  0
CLASS
  1
SCALE
  2
AcDbScale
  3
ObjectDBX Classes
 90
     1153
 91
       17
280
     0
281
     0
  0
CLASS
  1
TABLESTYLE
  2
AcDbTableStyle
  3
ObjectDBX Classes
 90
     4095
 91
        1
280
     0
281
     0
  0
CLASS
  1
MLEADERSTYLE
  2
AcDbMLeaderStyle
  3
ACDB_MLEADERSTYLE_CLASS
 90
     4095
 91
        1
280
     0
281
     0
  0
CLASS
  1
ACDBSECTIONVIEWSTYLE
  2
AcDbSectionViewStyle
  3
ObjectDBX Classes
 90
     1025
 91
        1
280
     0
281
     0
  0
CLASS
  1
ACDBDETAILVIEWSTYLE
  2
AcDbDetailViewStyle
  3
ObjectDBX Classes
 90
     1025
 91
        1
280
     0
281
     0
  0
CLASS
  1
DICTIONARYVAR
  2
AcDbDictionaryVar
  3
ObjectDBX Classes
 90
        0
 91
        5
280
     0
281
     0
  0
CLASS
  1
CELLSTYLEMAP
  2
AcDbCellStyleMap
  3
ObjectDBX Classes
 90
     1152
 91
        1
280
     0
281
     0
  0
ENDSEC
  0
SECTION
  2
TABLES
  0
TABLE
  2
VPORT
  5
8
330
0
100
AcDbSymbolTable
 70
     1
  0
VPORT
  5
57
330
8
100
AcDbSymbolTableRecord
100
AcDbViewportTableRecord
  2
*Active
 70
     0
 10
0.0
 20
0.0
 11
1.0
 21
1.0
 12
0.0
 22
0.0
 13
0.0
 23
0.0
 14
1.0
 24
1.0
 15
0.0
 25
0.0
 16
0.0
 26
0.0
 36
1.0
 17
81.58033236993015
 27
132.9574386697736
 37
0.0
 40
97.31030369991128
 41
0.8369749300401883
 42
50.0
 43
0.0
 44
0.0
 50
0.0
 51
0.0
 71
     0
 72
   100
 73
     1
 74
     1
 75
     0
 76
     0
 77
     0
 78
     0
281
     0
 65
     1
110
0.0
120
0.0
130
0.0
111
1.0
121
0.0
131
0.0
112
0.0
122
1.0
132
0.0
 79
     0
146
0.0
 60
     3
 61
     5
292
     1
282
     1
141
0.0
142
0.0
 63
   250
421
  3355443
  0
ENDTAB
  0
TABLE
  2
LTYPE
  5
5
330
0
100
AcDbSymbolTable
 70
     3
  0
LTYPE
  5
5B
330
5
100
AcDbSymbolTableRecord
100
AcDbLinetypeTableRecord
  2
ByBlock
 70
     0
  3

 72
    65
 73
     0
 40
0.0
  0
LTYPE
  5
5C
330
5
100
AcDbSymbolTableRecord
100
AcDbLinetypeTableRecord
  2
ByLayer
 70
     0
  3

 72
    65
 73
     0
 40
0.0
  0
LTYPE
  5
5D
330
5
100
AcDbSymbolTableRecord
100
AcDbLinetypeTableRecord
  2
Continuous
 70
     0
  3
Solid line
 72
    65
 73
     0
 40
0.0
  0
LTYPE
  5
7E
330
5
100
AcDbSymbolTableRecord
100
AcDbLinetypeTableRecord
  2
AI-Linetype-0
 70
     0
  3
Adobe Illustrator Linetype No. 0
 72
    65
 73
     4
 40
8.819444442239584
 49
7.055555553791666
 74
     0
 49
-0.7055555553791667
 74
     0
 49
0.3527777776895833
 74
     0
 49
-0.7055555553791667
 74
     0
  0
LTYPE
  5
80
330
5
100
AcDbSymbolTableRecord
100
AcDbLinetypeTableRecord
  2
AI-Linetype-1
 70
     0
  3
Adobe Illustrator Linetype No. 1
 72
    65
 73
     4
 40
8.819444442239584
 49
7.055555553791666
 74
     0
 49
-0.7055555553791667
 74
     0
 49
0.3527777776895833
 74
     0
 49
-0.7055555553791667
 74
     0
  0
ENDTAB
  0
TABLE
  2
LAYER
  5
2
330
0
100
AcDbSymbolTable
 70
     5
  0
LAYER
  5
54
330
2
100
AcDbSymbolTableRecord
100
AcDbLayerTableRecord
  2
0
 70
     0
 62
     7
  6
Continuous
370
    -3
390
F
347
21
348
0
  0
LAYER
  5
78
330
2
100
AcDbSymbolTableRecord
100
AcDbLayerTableRecord
  2
grau 10%
 70
     0
 62
     7
  6
Continuous
370
     0
390
F
347
21
348
0
  0
LAYER
  5
79
330
2
100
AcDbSymbolTableRecord
100
AcDbLayerTableRecord
  2
Standardebene
 70
     0
 62
     7
  6
Continuous
370
     0
390
F
347
21
348
0
  0
LAYER
  5
101
330
2
100
AcDbSymbolTableRecord
100
AcDbLayerTableRecord
  2
Bemaßung
 70
     1
 62
     7
  6
Continuous
370
     0
390
F
347
21
348
0
  0
LAYER
  5
259
330
2
100
AcDbSymbolTableRecord
100
AcDbLayerTableRecord
  2
Text
 70
     1
 62
     7
  6
Continuous
370
     0
390
F
347
21
348
0
  0
ENDTAB
  0
TABLE
  2
STYLE
  5
3
330
0
100
AcDbSymbolTable
 70
     2
  0
STYLE
  5
55
330
3
100
AcDbSymbolTableRecord
100
AcDbTextStyleTableRecord
  2
Standard
 70
     0
 40
0.0
 41
1.0
 50
0.0
 71
     0
 42
0.2
  3
txt
  4

  0
STYLE
  5
5A
330
3
100
AcDbSymbolTableRecord
100
AcDbTextStyleTableRecord
  2
Annotative
 70
     0
 40
0.0
 41
1.0
 50
0.0
 71
     0
 42
0.2
  3
txt
  4

1001
AcadAnnotative
1000
AnnotativeData
1002
{
1070
     1
1070
     1
1002
}
  0
ENDTAB
  0
TABLE
  2
VIEW
  5
6
330
0
100
AcDbSymbolTable
 70
     0
  0
ENDTAB
  0
TABLE
  2
UCS
  5
7
330
0
100
AcDbSymbolTable
 70
     0
  0
ENDTAB
  0
TABLE
  2
APPID
  5
9
330
0
100
AcDbSymbolTable
 70
     2
  0
APPID
  5
56
330
9
100
AcDbSymbolTableRecord
100
AcDbRegAppTableRecord
  2
ACAD
 70
     0
  0
APPID
  5
5E
330
9
100
AcDbSymbolTableRecord
100
AcDbRegAppTableRecord
  2
AcadAnnotative
 70
     0
  0
ENDTAB
  0
TABLE
  2
DIMSTYLE
  5
A
330
0
100
AcDbSymbolTable
 70
     2
100
AcDbDimStyleTable
 71
     0
  0
DIMSTYLE
105
58
330
A
100
AcDbSymbolTableRecord
100
AcDbDimStyleTableRecord
  2
Standard
 70
     0
340
55
  0
DIMSTYLE
105
59
330
A
100
AcDbSymbolTableRecord
100
AcDbDimStyleTableRecord
  2
Annotative
 70
     0
340
55
1001
AcadAnnotative
1000
AnnotativeData
1002
{
1070
     1
1070
     1
1002
}
  0
ENDTAB
  0
TABLE
  2
BLOCK_RECORD
  5
1
330
0
100
AcDbSymbolTable
 70
     1
  0
BLOCK_RECORD
  5
70
330
1
100
AcDbSymbolTableRecord
100
AcDbBlockTableRecord
  2
*Model_Space
340
73
 70
     0
280
     1
281
     0
  0
BLOCK_RECORD
  5
6C
330
1
100
AcDbSymbolTableRecord
100
AcDbBlockTableRecord
  2
*Paper_Space
340
6F
 70
     0
280
     1
281
     0
  0
BLOCK_RECORD
  5
74
330
1
100
AcDbSymbolTableRecord
100
AcDbBlockTableRecord
  2
*Paper_Space0
340
77
 70
     0
280
     1
281
     0
  0
ENDTAB
  0
ENDSEC
  0
SECTION
  2
BLOCKS
  0
BLOCK
  5
71
330
70
100
AcDbEntity
  8
0
100
AcDbBlockBegin
  2
*Model_Space
 70
     0
 10
0.0
 20
0.0
 30
0.0
  3
*Model_Space
  1

  0
ENDBLK
  5
72
330
70
100
AcDbEntity
  8
0
100
AcDbBlockEnd
  0
BLOCK
  5
6D
330
6C
100
AcDbEntity
 67
     1
  8
0
100
AcDbBlockBegin
  2
*Paper_Space
 70
     0
 10
0.0
 20
0.0
 30
0.0
  3
*Paper_Space
  1

  0
ENDBLK
  5
6E
330
6C
100
AcDbEntity
 67
     1
  8
0
100
AcDbBlockEnd
  0
BLOCK
  5
75
330
74
100
AcDbEntity
 67
     1
  8
0
100
AcDbBlockBegin
  2
*Paper_Space0
 70
     0
 10
0.0
 20
0.0
 30
0.0
  3
*Paper_Space0
  1

  0
ENDBLK
  5
76
330
74
100
AcDbEntity
 67
     1
  8
0
100
AcDbBlockEnd
  0
ENDSEC
  0
SECTION
  2
ENTITIES
  0
LINE
  5
7A
330
70
100
AcDbEntity
  8
Standardebene
 62
     7
370
     9
100
AcDbLine
 10
120.5288455881919
 20
145.3213121678728
 30
0.0
 11
120.5288455881919
 21
144.9939343901769
 31
0.0
  0
LINE
  5
7B
330
70
100
AcDbEntity
  8
Standardebene
 62
     7
370
     9
100
AcDbLine
 10
120.5288455881919
 20
134.3425149483952
 30
0.0
 11
120.5288455881919
 21
133.9424649484952
 31
0.0
  0
LINE
  5
7C
330
70
100
AcDbEntity
  8
Standardebene
 62
     7
370
     9
100
AcDbLine
 10
57.78117848040146
 20
86.2324455159783
 30
0.0
 11
57.61078681377765
 21
86.2324455159783
 31
0.0
  0
LWPOLYLINE
  5
7D
330
70
100
AcDbEntity
  8
Standardebene
  6
AI-Linetype-0
 62
     7
370
     9
100
AcDbPolyline
 90
        6
 70
     0
 43
0.0
 10
68.91061181095267
 20
153.789037165756
 10
68.91061181095267
 20
156.289173276242
 10
68.91061181095267
 20
158.7889566089504
 10
68.91061181095267
 20
160.5655454973952
 10
68.91061181095267
 20
163.8424982743537
 10
68.91061181095267
 20
167.3427593845899
  0
LWPOLYLINE
  5
7F
330
70
100
AcDbEntity
  8
Standardebene
  6
AI-Linetype-1
 62
     7
370
     9
100
AcDbPolyline
 90
        6
 70
     0
 43
0.0
 10
112.528903923525
 20
153.4422566102871
 10
112.528903923525
 20
157.865384386959
 10
112.528903923525
 20
158.4421760534815
 10
112.528903923525
 20
158.6153899423271
 10
112.528903923525
 20
158.7889566089504
 10
112.528903923525
 20
162.2888649414089
  0
LINE
  5
81
330
70
100
AcDbEntity
  8
Standardebene
 62
     7
370
    35
100
AcDbLine
 10
68.13555903336862
 20
153.7925649435327
 30
0.0
 11
58.20098403585224
 21
146.8357871674943
 31
0.0
  0
LINE
  5
82
330
70
100
AcDbEntity
  8
Standardebene
 62
     7
370
    35
100
AcDbLine
 10
58.20098403585224
 20
154.8325538321617
 30
0.0
 11
58.81093681347763
 21
155.4428593875648
 31
0.0
  0
LINE
  5
83
330
70
100
AcDbEntity
  8
Standardebene
 62
     7
370
    35
100
AcDbLine
 10
71.41074792143858
 20
155.4428593875648
 30
0.0
 11
58.81093681347763
 21
155.4428593875648
 31
0.0
  0
LINE
  5
84
330
70
100
AcDbEntity
  8
Standardebene
 62
     7
370
    35
100
AcDbLine
 10
71.41074792143858
 20
155.4428593875648
 30
0.0
 11
71.91098681020261
 21
154.9426204988008
 31
0.0
  0
LINE
  5
85
330
70
100
AcDbEntity
  8
Standardebene
 62
     7
370
    35
100
AcDbLine
 10
71.91098681020261
 20
145.442667723398
 30
0.0
 11
68.13555903336862
 21
145.442667723398
 31
0.0
  0
LINE
  5
86
330
70
100
AcDbEntity
  8
Standardebene
 62
     7
370
    35
100
AcDbLine
 10
68.13555903336862
 20
153.7925649435327
 30
0.0
 11
68.13555903336862
 21
145.442667723398
 31
0.0
  0
LINE
  5
87
330
70
100
AcDbEntity
  8
Standardebene
 62
     7
370
    35
100
AcDbLine
 10
71.91098681020261
 20
145.442667723398
 30
0.0
 11
71.91098681020261
 21
154.9426204988008
 31
0.0
  0
LINE
  5
88
330
70
100
AcDbEntity
  8
Standardebene
 62
     7
370
    35
100
AcDbLine
 10
58.20098403585224
 20
146.8357871674943
 30
0.0
 11
58.20098403585224
 21
154.8325538321617
 31
0.0
  0
SPLINE
  5
89
330
70
100
AcDbEntity
  8
Standardebene
 62
     7
370
    35
100
AcDbSpline
210
0.0
220
0.0
230
1.0
 70
     9
 71
     3
 72
    17
 73
    13
 74
     0
 42
0.0000000001
 43
0.0000000001
 40
0.0
 40
0.0
 40
0.0
 40
0.0
 40
1.0
 40
1.0
 40
1.0
 40
2.0
 40
2.0
 40
2.0
 40
3.0
 40
3.0
 40
3.0
 40
4.0
 40
4.0
 40
4.0
 40
4.0
 10
65.22337847854107
 20
142.7227510574113
 30
0.0
 10
65.22337847854107
 20
144.2968455014624
 30
0.0
 10
63.94738125663778
 20
145.5724899455879
 30
0.0
 10
62.37328681258702
 20
145.5724899455879
 30
0.0
 10
60.79954514631371
 20
145.5724899455879
 30
0.0
 10
59.52319514663265
 20
144.2968455014624
 30
0.0
 10
59.52319514663265
 20
142.7227510574113
 30
0.0
 10
59.52319514663265
 20
141.1490093911383
 30
0.0
 10
60.79954514631371
 20
139.8726593914573
 30
0.0
 10
62.37328681258702
 20
139.8726593914573
 30
0.0
 10
63.94738125663778
 20
139.8726593914573
 30
0.0
 10
65.22337847854107
 20
141.1490093911383
 30
0.0
 10
65.22337847854107
 20
142.7227510574113
 30
0.0
  0
SPLINE
  5
8A
330
70
100
AcDbEntity
  8
Standardebene
 62
     7
370
    35
100
AcDbSpline
210
0.0
220
0.0
230
1.0
 70
    11
 71
     3
 72
    17
 73
    13
 74
     0
 42
0.0000000001
 43
0.0000000001
 40
0.0
 40
0.0
 40
0.0
 40
0.0
 40
1.0
 40
1.0
 40
1.0
 40
2.0
 40
2.0
 40
2.0
 40
3.0
 40
3.0
 40
3.0
 40
4.0
 40
4.0
 40
4.0
 40
4.0
 10
64.47372570095071
 20
142.7227510574113
 30
0.0
 10
64.47372570095071
 20
143.8826843904548
 30
0.0
 10
63.53322014563022
 20
144.8224843902198
 30
0.0
 10
62.37328681258702
 20
144.8224843902198
 30
0.0
 10
61.2133534795435
 20
144.8224843902198
 30
0.0
 10
60.27355347977854
 20
143.8826843904548
 30
0.0
 10
60.27355347977854
 20
142.7227510574113
 30
0.0
 10
60.27355347977854
 20
141.5628177243681
 30
0.0
 10
61.2133534795435
 20
140.6230177246031
 30
0.0
 10
62.37328681258702
 20
140.6230177246031
 30
0.0
 10
63.53322014563022
 20
140.6230177246031
 30
0.0
 10
64.47372570095071
 20
141.5628177243681
 30
0.0
 10
64.47372570095071
 20
142.7227510574113
 30
0.0
  0
SPLINE
  5
8B
330
70
100
AcDbEntity
  8
Standardebene
 62
     7
370
    35
100
AcDbSpline
210
0.0
220
0.0
230
1.0
 70
    11
 71
     3
 72
    17
 73
    13
 74
     0
 42
0.0000000001
 43
0.0000000001
 40
0.0
 40
0.0
 40
0.0
 40
0.0
 40
1.0
 40
1.0
 40
1.0
 40
2.0
 40
2.0
 40
2.0
 40
3.0
 40
3.0
 40
3.0
 40
4.0
 40
4.0
 40
4.0
 40
4.0
 10
64.1234173677048
 20
142.7227510574113
 30
0.0
 10
64.1234173677048
 20
143.689362168281
 30
0.0
 10
63.3398979234564
 20
144.4728816125294
 30
0.0
 10
62.37328681258702
 20
144.4728816125294
 30
0.0
 10
61.40667570171732
 20
144.4728816125294
 30
0.0
 10
60.62315625746891
 20
143.689362168281
 30
0.0
 10
60.62315625746891
 20
142.7227510574113
 30
0.0
 10
60.62315625746891
 20
141.7561399465419
 30
0.0
 10
61.40667570171732
 20
140.9726205022935
 30
0.0
 10
62.37328681258702
 20
140.9726205022935
 30
0.0
 10
63.3398979234564
 20
140.9726205022935
 30
0.0
 10
64.1234173677048
 20
141.7561399465419
 30
0.0
 10
64.1234173677048
 20
142.7227510574113
 30
0.0
  0
LWPOLYLINE
  5
8C
330
70
100
AcDbEntity
  8
Standardebene
 62
     7
370
    35
100
AcDbPolyline
 90
       29
 70
     0
 43
0.0
 10
62.04414514600264
 20
144.068951057075
 10
62.08153959043766
 20
144.028028834863
 10
62.12246181264965
 20
143.9913399459832
 10
62.14433403486636
 20
143.9744066126542
 10
62.16797014597156
 20
143.9585316126581
 10
62.17996459041289
 20
143.9514760571042
 10
62.19195903485453
 20
143.9440677237728
 10
62.20395347929585
 20
143.9370121682189
 10
62.2166534792927
 20
143.930309390443
 10
62.26815903483529
 20
143.907378834893
 10
62.32248681259964
 20
143.8897399460084
 10
62.35035625703702
 20
143.8830371682326
 10
62.37928403480768
 20
143.8770399460116
 10
62.40750625702283
 20
143.8735121682349
 10
62.43608125701573
 20
143.8710427237909
 10
62.46500903478607
 20
143.869984390458
 10
62.49393681255673
 20
143.8710427237909
 10
62.52251181254964
 20
143.8728066126794
 10
62.5514395903203
 20
143.8770399460116
 10
62.60753125697282
 20
143.8886816126755
 10
62.66150625695941
 20
143.9056149460045
 10
62.68796459028607
 20
143.9165510571129
 10
62.71336459027976
 20
143.9285455015545
 10
62.73805903471792
 20
143.9412455015514
 10
62.76169514582313
 20
143.9557093904364
 10
62.78462570137282
 20
143.971231612655
 10
62.8068507013673
 20
143.988164945984
 10
62.82872292358401
 20
144.0058038348685
 10
62.84918403469
 20
144.024501057086
  0
LWPOLYLINE
  5
8D
330
70
100
AcDbEntity
  8
Standardebene
 62
     7
370
    35
100
AcDbPolyline
 90
       45
 70
     0
 43
0.0
 10
62.04414514600264
 20
144.068951057075
 10
62.0265062571181
 20
144.0883538348477
 10
62.00710347934506
 20
144.1066982792878
 10
61.98664236823908
 20
144.123278834839
 10
61.9644173682446
 20
144.1377427237244
 10
61.95277570158104
 20
144.1444455015005
 10
61.94078125713939
 20
144.150795501499
 10
61.92878681269807
 20
144.1564399459419
 10
61.91608681270122
 20
144.1620843903851
 10
61.8910395904853
 20
144.1709038348272
 10
61.86458125715864
 20
144.1779593903808
 10
61.85117570160628
 20
144.1800760570471
 10
61.83812292383167
 20
144.1825455014908
 10
61.82471736827962
 20
144.1836038348241
 10
61.81095903494981
 20
144.184662168157
 10
61.78379514606763
 20
144.184662168157
 10
61.75592570163026
 20
144.1828982792685
 10
61.74252014607788
 20
144.1807816126026
 10
61.72876181274808
 20
144.1779593903808
 10
61.7153562571957
 20
144.1744316126042
 10
61.70195070164366
 20
144.171256612605
 10
61.6761979238722
 20
144.1620843903851
 10
61.65079792387851
 20
144.150795501499
 10
61.63880347943719
 20
144.1440927237228
 10
61.62716181277331
 20
144.1370371681688
 10
61.61516736833199
 20
144.1292760570597
 10
61.60423125722363
 20
144.1215149459505
 10
61.58306459056211
 20
144.103876057066
 10
61.56260347945612
 20
144.0848260570707
 10
61.54496459057189
 20
144.0643649459651
 10
61.52873681279808
 20
144.0421399459706
 10
61.52168125724413
 20
144.0304982793067
 10
61.51427292391275
 20
144.0185038348654
 10
61.50827570169209
 20
144.0068621682015
 10
61.50227847947142
 20
143.9941621682046
 10
61.49240070169603
 20
143.968762168211
 10
61.48463959058688
 20
143.9430093904398
 10
61.48146459058767
 20
143.930309390443
 10
61.47864236836621
 20
143.9169038348906
 10
61.47687847947773
 20
143.903851057116
 10
61.47546736836701
 20
143.890445501564
 10
61.47440903503373
 20
143.8639871682373
 10
61.47511459058925
 20
143.8371760571329
 10
61.47864236836621
 20
143.8114232793614
 10
61.48393403503136
 20
143.7853177238126
  0
LWPOLYLINE
  5
8E
330
70
100
AcDbEntity
  8
Standardebene
 62
     7
370
    35
100
AcDbPolyline
 90
       29
 70
     0
 43
0.0
 10
61.04296181291938
 20
143.1104538350922
 10
61.09693681290597
 20
143.1228010573113
 10
61.14950070178184
 20
143.1400871684181
 10
61.17490070177553
 20
143.1503177239712
 10
61.2003007017689
 20
143.1630177239681
 10
61.21300070176575
 20
143.1690149461887
 10
61.22499514620739
 20
143.1764232795201
 10
61.23698959064871
 20
143.1831260572963
 10
61.24898403509003
 20
143.1908871684055
 10
61.29484514618972
 20
143.2240482795083
 10
61.33717847951243
 20
143.2621482794988
 10
61.35728681284098
 20
143.2826093906048
 10
61.37668959061369
 20
143.3051871683771
 10
61.39397570172048
 20
143.3274121683712
 10
61.41020347949429
 20
143.3510482794764
 10
61.42537292393483
 20
143.3757427239149
 10
61.43948403504271
 20
143.4011427239086
 10
61.45218403503957
 20
143.4272482794575
 10
61.46276736837016
 20
143.4537066127842
 10
61.48111181280991
 20
143.5080343905485
 10
61.49310625725155
 20
143.5637732794233
 10
61.4966340350282
 20
143.5919955016384
 10
61.49910347947221
 20
143.6198649460761
 10
61.50051459058293
 20
143.6480871682913
 10
61.49980903502742
 20
143.6759566127286
 10
61.49804514613893
 20
143.7031205016108
 10
61.49487014613971
 20
143.7309899460482
 10
61.48993125725233
 20
143.7581538349304
 10
61.48393403503136
 20
143.7853177238126
  0
LWPOLYLINE
  5
8F
330
70
100
AcDbEntity
  8
Standardebene
 62
     7
370
    35
100
AcDbPolyline
 90
       45
 70
     0
 43
0.0
 10
61.04296181291938
 20
143.1104538350922
 10
61.01720903514824
 20
143.1051621684271
 10
60.99180903515455
 20
143.0974010573179
 10
60.96746736849382
 20
143.0875232795425
 10
60.94347847961086
 20
143.0762343906564
 10
60.9318368129473
 20
143.0695316128802
 10
60.92054792406118
 20
143.0621232795489
 10
60.90961181295282
 20
143.0543621684397
 10
60.89867570184446
 20
143.0466010573305
 10
60.87821459073847
 20
143.028962168446
 10
60.85951736852096
 20
143.009559390673
 10
60.85034514630109
 20
142.9993288351201
 10
60.84187847963642
 20
142.989098279567
 10
60.83341181297175
 20
142.9781621684586
 10
60.82635625741812
 20
142.9668732795725
 10
60.81224514631055
 20
142.9432371684673
 10
60.80095625742443
 20
142.9178371684739
 10
60.79531181298153
 20
142.9051371684771
 10
60.79107847964904
 20
142.8924371684802
 10
60.78684514631686
 20
142.8786788351501
 10
60.78331736853989
 20
142.8659788351533
 10
60.77837847965219
 20
142.8388149462714
 10
60.77555625743074
 20
142.8109455018337
 10
60.77555625743074
 20
142.7975399462816
 10
60.77555625743074
 20
142.7830760573963
 10
60.77590903520849
 20
142.7693177240665
 10
60.77732014631923
 20
142.7559121685141
 10
60.7815534796514
 20
142.7287482796323
 10
60.78825625742759
 20
142.7015843907501
 10
60.79778125742522
 20
142.6754788352009
 10
60.80871736853358
 20
142.6507843907627
 10
60.81471459075424
 20
142.6387899463214
 10
60.82141736853042
 20
142.6267955018797
 10
60.82917847963957
 20
142.6151538352162
 10
60.83658681297095
 20
142.6042177241078
 10
60.85352014630029
 20
142.5826982796686
 10
60.8722173685178
 20
142.5632955018959
 10
60.88174236851544
 20
142.5541232796756
 10
60.89197292406828
 20
142.5453038352335
 10
60.90220347962143
 20
142.5371899463466
 10
60.91313959072979
 20
142.5287232796823
 10
60.93607014627948
 20
142.5149649463521
 10
60.95900070182948
 20
142.5022649463553
 10
60.98334236848988
 20
142.4920343908025
 10
61.00874236848357
 20
142.4835677241378
  0
LWPOLYLINE
  5
90
330
70
100
AcDbEntity
  8
Standardebene
 62
     7
370
    35
100
AcDbPolyline
 90
       29
 70
     0
 43
0.0
 10
61.37245625728152
 20
141.7646066132066
 10
61.38868403505533
 20
141.8171705020821
 10
61.39997292394145
 20
141.8711455020687
 10
61.40385347949587
 20
141.8986621687287
 10
61.40561736838435
 20
141.9265316131661
 10
61.40667570171732
 20
141.9409955020514
 10
61.40667570171732
 20
141.9551066131589
 10
61.40667570171732
 20
141.9688649464888
 10
61.40561736838435
 20
141.9833288353741
 10
61.39997292394145
 20
142.0394205020266
 10
61.38868403505533
 20
142.0951593909017
 10
61.38021736839067
 20
142.1230288353391
 10
61.37104514617079
 20
142.1501927242213
 10
61.36010903506243
 20
142.1773566131034
 10
61.34740903506559
 20
142.2031093908745
 10
61.33365070173578
 20
142.2285093908683
 10
61.31918681285045
 20
142.252851057529
 10
61.30295903507663
 20
142.2768399464116
 10
61.28532014619208
 20
142.2997705019616
 10
61.24722014620187
 20
142.3428093908398
 10
61.20488681287884
 20
142.3809093908301
 10
61.18266181288468
 20
142.3978427241594
 10
61.15902570177947
 20
142.4140705019329
 10
61.13538959067427
 20
142.4292399463738
 10
61.1114007017913
 20
142.4429982797036
 10
61.08670625735314
 20
142.4546399463675
 10
61.06060070180392
 20
142.4659288352533
 10
61.03520070181023
 20
142.4758066130286
 10
61.00874236848357
 20
142.4835677241378
  0
LWPOLYLINE
  5
91
330
70
100
AcDbEntity
  8
Standardebene
 62
     7
370
    35
100
AcDbPolyline
 90
       45
 70
     0
 43
0.0
 10
61.37245625728152
 20
141.7646066132066
 10
61.36434236839461
 20
141.7392066132129
 10
61.35834514617394
 20
141.7138066132192
 10
61.35411181284177
 20
141.6873482798925
 10
61.35234792395329
 20
141.6608899465659
 10
61.35234792395329
 20
141.6474843910135
 10
61.35305347950849
 20
141.6340788354615
 10
61.35411181284177
 20
141.6210260576869
 10
61.35587570173026
 20
141.6076205021345
 10
61.36081459061795
 20
141.5811621688078
 10
61.36751736839382
 20
141.555056613259
 10
61.37245625728152
 20
141.5423566132621
 10
61.37704236839145
 20
141.5289510577097
 10
61.38268681283467
 20
141.5169566132684
 10
61.38868403505533
 20
141.5042566132716
 10
61.40244236838515
 20
141.4806205021664
 10
61.41761181282568
 20
141.4583955021719
 10
61.42607847949035
 20
141.4474593910635
 10
61.43560347948799
 20
141.4372288355107
 10
61.44477570170785
 20
141.4269982799575
 10
61.45500625726101
 20
141.4174732799599
 10
61.47546736836701
 20
141.3998343910754
 10
61.49804514613893
 20
141.3836066133018
 10
61.51003959058058
 20
141.3761982799701
 10
61.52203403502189
 20
141.3694955021943
 10
61.53402847946353
 20
141.3627927244181
 10
61.54672847946006
 20
141.3575010577526
 10
61.57283403500928
 20
141.3472705021998
 10
61.59893959055817
 20
141.3395093910907
 10
61.62610347944035
 20
141.3345705022029
 10
61.65326736832252
 20
141.3313955022037
 10
61.66702570165234
 20
141.331042724426
 10
61.6804312572047
 20
141.331042724426
 10
61.69418959053452
 20
141.3313955022037
 10
61.70759514608656
 20
141.3328066133145
 10
61.73475903496874
 20
141.3363343910915
 10
61.76086459051795
 20
141.3430371688673
 10
61.77391736829224
 20
141.3465649466443
 10
61.78661736828908
 20
141.3507982799765
 10
61.79861181273072
 20
141.3557371688642
 10
61.81095903494981
 20
141.3617343910852
 10
61.83494792383245
 20
141.3737288355265
 10
61.8568201460495
 20
141.3878399466341
 10
61.87798681271068
 20
141.4033621688523
 10
61.89774236826148
 20
141.4210010577369
  0
LWPOLYLINE
  5
92
330
70
100
AcDbEntity
  8
Standardebene
 62
     7
370
    35
100
AcDbPolyline
 90
       29
 70
     0
 43
0.0
 10
62.7031340347266
 20
141.3769038355257
 10
62.66573959029159
 20
141.4174732799599
 10
62.62446459030184
 20
141.4541621688397
 10
62.60223959030736
 20
141.4710955021687
 10
62.57930903475767
 20
141.4869705021648
 10
62.56731459031604
 20
141.4940260577187
 10
62.55496736809695
 20
141.5017871688279
 10
62.54226736810011
 20
141.5084899466037
 10
62.53027292365878
 20
141.5151927243799
 10
62.47841459033844
 20
141.5381232799299
 10
62.42408681257408
 20
141.5557621688142
 10
62.39621736813671
 20
141.5628177243681
 10
62.3676423681438
 20
141.568462168811
 10
62.33942014592866
 20
141.571989946588
 10
62.31049236815799
 20
141.5744593910317
 10
62.28191736816541
 20
141.5755177243649
 10
62.25298959039475
 20
141.5744593910317
 10
62.22406181262408
 20
141.5726955021435
 10
62.19548681263151
 20
141.5688149465888
 10
62.13939514597867
 20
141.5575260577026
 10
62.08577292376983
 20
141.5398871688181
 10
62.05896181266542
 20
141.5289510577097
 10
62.03320903489428
 20
141.5169566132684
 10
62.00886736823356
 20
141.5042566132716
 10
61.98487847935059
 20
141.4897927243862
 10
61.96194792380091
 20
141.4742705021679
 10
61.93937014602867
 20
141.4576899466167
 10
61.91855625714492
 20
141.4396982799544
 10
61.89774236826148
 20
141.4210010577369
  0
LWPOLYLINE
  5
93
330
70
100
AcDbEntity
  8
Standardebene
 62
     7
370
    35
100
AcDbPolyline
 90
       45
 70
     0
 43
0.0
 10
62.7031340347266
 20
141.3769038355257
 10
62.72042014583338
 20
141.3567955021975
 10
62.73982292360642
 20
141.3388038355352
 10
62.7602840347124
 20
141.3225760577613
 10
62.78286181248464
 20
141.3081121688763
 10
62.79415070137044
 20
141.3007038355446
 10
62.80579236803433
 20
141.2947066133239
 10
62.81778681247565
 20
141.2887093911033
 10
62.8304868124725
 20
141.2837705022156
 10
62.85588681246618
 20
141.2745982799957
 10
62.8819923680154
 20
141.2675427244418
 10
62.89504514578969
 20
141.2650732799981
 10
62.90915625689726
 20
141.2633093911096
 10
62.92220903467186
 20
141.2615455022211
 10
62.93632014577944
 20
141.2608399466659
 10
62.96348403466161
 20
141.2608399466659
 10
62.99064792354379
 20
141.2633093911096
 10
63.0044062568736
 20
141.2650732799981
 10
63.01781181242565
 20
141.2675427244418
 10
63.03157014575578
 20
141.2710705022188
 10
63.04427014575263
 20
141.274245502218
 10
63.07037570130152
 20
141.2837705022156
 10
63.09577570129521
 20
141.2954121688795
 10
63.10777014573653
 20
141.3014093911001
 10
63.11976459017818
 20
141.3084649466537
 10
63.13140625684173
 20
141.3158732799855
 10
63.14269514572785
 20
141.3243399466498
 10
63.16386181238938
 20
141.3412732799791
 10
63.18397014571761
 20
141.3610288355296
 10
63.20196181237959
 20
141.3818427244134
 10
63.21783681237564
 20
141.4033621688523
 10
63.2255979234848
 20
141.4150038355162
 10
63.23230070126098
 20
141.4269982799575
 10
63.23900347903716
 20
141.4389927243989
 10
63.24429514570262
 20
141.4509871688405
 10
63.25452570125546
 20
141.4763871688342
 10
63.26193403458685
 20
141.5024927243831
 10
63.26546181236381
 20
141.5151927243799
 10
63.26793125680783
 20
141.5285982799323
 10
63.26969514569599
 20
141.5416510577066
 10
63.27145903458448
 20
141.555056613259
 10
63.27216459014
 20
141.5815149465856
 10
63.27145903458448
 20
141.60832605769
 10
63.26793125680783
 20
141.6340788354615
 10
63.26299236792013
 20
141.6601843910104
  0
LWPOLYLINE
  5
94
330
70
100
AcDbEntity
  8
Standardebene
 62
     7
370
    35
100
AcDbPolyline
 90
       29
 70
     0
 43
0.0
 10
63.7039645900321
 20
142.3354010575081
 10
63.65034236782328
 20
142.3234066130668
 10
63.59777847894741
 20
142.3054149464045
 10
63.57167292339852
 20
142.2951843908517
 10
63.54697847896003
 20
142.2828371686326
 10
63.53427847896318
 20
142.2764871686342
 10
63.52157847896665
 20
142.2690788353025
 10
63.50958403452501
 20
142.2623760575266
 10
63.49794236786113
 20
142.2546149464175
 10
63.45208125676176
 20
142.2214538353146
 10
63.40939514566129
 20
142.1833538353241
 10
63.38928681233306
 20
142.1628927242181
 10
63.37058959011524
 20
142.1410205020014
 10
63.35295070123101
 20
142.1180899464514
 10
63.3367229234572
 20
142.0944538353462
 10
63.32155347901633
 20
142.069759390908
 10
63.30779514568653
 20
142.0443593909143
 10
63.29509514568968
 20
142.0182538353654
 10
63.28345347902612
 20
141.9917955020388
 10
63.26616736791934
 20
141.9374677242744
 10
63.25382014570026
 20
141.8817288353993
 10
63.25029236792328
 20
141.8535066131842
 10
63.24782292347927
 20
141.8256371687468
 10
63.24676459014631
 20
141.7974149465317
 10
63.24676459014631
 20
141.7695455020943
 10
63.24923403459
 20
141.7423816132121
 10
63.25205625681177
 20
141.7145121687747
 10
63.25699514569947
 20
141.6873482798925
 10
63.26299236792013
 20
141.6601843910104
  0
LWPOLYLINE
  5
95
330
70
100
AcDbEntity
  8
Standardebene
 62
     7
370
    35
100
AcDbPolyline
 90
       45
 70
     0
 43
0.0
 10
63.7039645900321
 20
142.3354010575081
 10
63.7293645900258
 20
142.3403399463959
 10
63.75476459001917
 20
142.348101057505
 10
63.77945903445766
 20
142.3579788352804
 10
63.80309514556286
 20
142.3692677241665
 10
63.81508959000418
 20
142.3759705019427
 10
63.82673125666807
 20
142.3837316130519
 10
63.83766736777642
 20
142.3911399463832
 10
63.84789792332926
 20
142.3989010574924
 10
63.86835903443525
 20
142.4165399463769
 10
63.88776181220829
 20
142.43594272415
 10
63.89658125665039
 20
142.4461732797028
 10
63.90504792331507
 20
142.4564038352556
 10
63.91351458997974
 20
142.4676927241417
 10
63.92092292331112
 20
142.4793343908056
 10
63.93468125664093
 20
142.5022649463553
 10
63.94632292330482
 20
142.527664946349
 10
63.95161458996995
 20
142.5403649463459
 10
63.95584792330245
 20
142.5530649463427
 10
63.96008125663462
 20
142.5668232796725
 10
63.96325625663383
 20
142.5802288352249
 10
63.96854792329929
 20
142.6066871685515
 10
63.97101736774299
 20
142.6345566129889
 10
63.97172292329851
 20
142.648314946319
 10
63.97101736774299
 20
142.6624260574266
 10
63.97031181218778
 20
142.6761843907564
 10
63.96925347885449
 20
142.6895899463084
 10
63.96502014552233
 20
142.7167538351906
 10
63.95831736774614
 20
142.7439177240728
 10
63.94914514552627
 20
142.7700232796217
 10
63.93856181219567
 20
142.7947177240602
 10
63.93185903441948
 20
142.8067121685015
 10
63.9251562566433
 20
142.8187066129428
 10
63.91774792331191
 20
142.8303482796067
 10
63.90998681220277
 20
142.8416371684928
 10
63.89305347887375
 20
142.862803835154
 10
63.87506181221144
 20
142.8822066129271
 10
63.86518403443605
 20
142.8913788351469
 10
63.85495347888321
 20
142.9001982795894
 10
63.84472292333005
 20
142.9086649462537
 10
63.83378681222169
 20
142.9167788351406
 10
63.81085625667201
 20
142.9305371684704
 10
63.787925701122
 20
142.9432371684673
 10
63.76323125668384
 20
142.9534677240204
 10
63.73853681224566
 20
142.9619343906851
  0
LWPOLYLINE
  5
96
330
70
100
AcDbEntity
  8
Standardebene
 62
     7
370
    35
100
AcDbPolyline
 90
       29
 70
     0
 43
0.0
 10
63.37411736789221
 20
143.6808955016163
 10
63.35788959011839
 20
143.6283316127405
 10
63.34695347901003
 20
143.5743566127542
 10
63.34342570123338
 20
143.547192723872
 10
63.34095625678937
 20
143.5189705016569
 10
63.34025070123416
 20
143.5045066127715
 10
63.34025070123416
 20
143.490395501664
 10
63.34025070123416
 20
143.4766371683342
 10
63.34095625678937
 20
143.4621732794488
 10
63.34695347901003
 20
143.4064343905737
 10
63.35859514567391
 20
143.3503427239212
 10
63.36635625678305
 20
143.3224732794838
 10
63.37588125678069
 20
143.2953093906017
 10
63.38681736788905
 20
143.268851057275
 10
63.3995173678859
 20
143.2427455017258
 10
63.41292292343794
 20
143.2173455017321
 10
63.4280923678788
 20
143.192651057294
 10
63.44432014565262
 20
143.1690149461887
 10
63.46195903453684
 20
143.1457316128613
 10
63.49970625674962
 20
143.1026927239831
 10
63.54203959007232
 20
143.0645927239925
 10
63.56461736784456
 20
143.0476593906635
 10
63.58754792339457
 20
143.0314316128897
 10
63.61153681227722
 20
143.0162621684492
 10
63.63587847893795
 20
143.0028566128971
 10
63.66057292337611
 20
142.9908621684555
 10
63.6859729233698
 20
142.9795732795693
 10
63.71172570114126
 20
142.9704010573495
 10
63.73853681224566
 20
142.9619343906851
  0
LWPOLYLINE
  5
97
330
70
100
AcDbEntity
  8
Standardebene
 62
     7
370
    35
100
AcDbPolyline
 90
       45
 70
     0
 43
0.0
 10
63.37411736789221
 20
143.6808955016163
 10
63.38258403455688
 20
143.70629550161
 10
63.38858125677754
 20
143.7320482793812
 10
63.39281459010972
 20
143.7581538349304
 10
63.39422570122044
 20
143.784612168257
 10
63.39422570122044
 20
143.7980177238094
 10
63.39352014566523
 20
143.8117760571392
 10
63.39281459010972
 20
143.8244760571361
 10
63.39105070122123
 20
143.8378816126881
 10
63.38611181233385
 20
143.8643399460147
 10
63.3790562567799
 20
143.890445501564
 10
63.37482292344773
 20
143.903851057116
 10
63.36988403456003
 20
143.9165510571129
 10
63.36388681233938
 20
143.9285455015545
 10
63.35788959011839
 20
143.9412455015514
 10
63.34448403456634
 20
143.9645288348788
 10
63.32896181234804
 20
143.987106612651
 10
63.32049514568337
 20
143.9980427237594
 10
63.31132292346349
 20
144.0082732793122
 10
63.30179792346587
 20
144.0185038348654
 10
63.29192014569048
 20
144.028028834863
 10
63.27145903458448
 20
144.0456677237472
 10
63.24852847903479
 20
144.0622482792988
 10
63.23723959014867
 20
144.0693038348524
 10
63.22489236792959
 20
144.0763593904064
 10
63.21219236793275
 20
144.0827093904048
 10
63.20019792349143
 20
144.0880010570699
 10
63.17409236794221
 20
144.0982316126231
 10
63.14763403461555
 20
144.1056399459545
 10
63.12047014573337
 20
144.1112843903977
 10
63.0933062568512
 20
144.1137538348414
 10
63.07990070129915
 20
144.1148121681747
 10
63.06614236796934
 20
144.1148121681747
 10
63.05273681241697
 20
144.1137538348414
 10
63.03897847908717
 20
144.1130482792862
 10
63.01181459020499
 20
144.1088149459537
 10
62.98570903465609
 20
144.1031705015108
 10
62.97300903465925
 20
144.0989371681786
 10
62.96030903466241
 20
144.0947038348461
 10
62.94760903466556
 20
144.0897649459584
 10
62.93561459022424
 20
144.0844732792933
 10
62.91197847911903
 20
144.0717732792965
 10
62.88975347912455
 20
144.0576621681889
 10
62.86858681246304
 20
144.0421399459706
 10
62.84918403469
 20
144.024501057086
  0
SPLINE
  5
98
330
70
100
AcDbEntity
  8
Standardebene
 62
     7
370
    35
100
AcDbSpline
210
0.0
220
0.0
230
1.0
 70
    11
 71
     3
 72
    17
 73
    13
 74
     0
 42
0.0000000001
 43
0.0000000001
 40
0.0
 40
0.0
 40
0.0
 40
0.0
 40
1.0
 40
1.0
 40
1.0
 40
2.0
 40
2.0
 40
2.0
 40
3.0
 40
3.0
 40
3.0
 40
4.0
 40
4.0
 40
4.0
 40
4.0
 10
65.42375625626883
 20
142.7227510574113
 30
0.0
 10
65.42375625626883
 20
144.4069121681015
 30
0.0
 10
64.05815347883242
 20
145.7725149455379
 30
0.0
 10
62.37328681258702
 20
145.7725149455379
 30
0.0
 10
60.68912570189683
 20
145.7725149455379
 30
0.0
 10
59.32317014668266
 20
144.4069121681015
 30
0.0
 10
59.32317014668266
 20
142.7227510574113
 30
0.0
 10
59.32317014668266
 20
141.0385899467214
 30
0.0
 10
60.68912570189683
 20
139.6726343915072
 30
0.0
 10
62.37328681258702
 20
139.6726343915072
 30
0.0
 10
64.05815347883242
 20
139.6726343915072
 30
0.0
 10
65.42375625626883
 20
141.0385899467214
 30
0.0
 10
65.42375625626883
 20
142.7227510574113
 30
0.0
  0
SPLINE
  5
99
330
70
100
AcDbEntity
  8
Standardebene
 62
     7
370
    35
100
AcDbSpline
210
0.0
220
0.0
230
1.0
 70
     8
 71
     3
 72
     8
 73
     4
 74
     0
 42
0.0000000001
 43
0.0000000001
 40
0.0
 40
0.0
 40
0.0
 40
0.0
 40
1.0
 40
1.0
 40
1.0
 40
1.0
 10
57.78117848040146
 20
145.3213121678728
 30
0.0
 10
57.67111181376234
 20
145.2437010567813
 30
0.0
 10
57.61149236933285
 20
145.1209343901453
 30
0.0
 10
57.61078681377765
 20
144.9939343901769
 30
0.0
  0
LINE
  5
9A
330
70
100
AcDbEntity
  8
Standardebene
 62
     7
370
    35
100
AcDbLine
 10
66.50678403377574
 20
151.430717721901
 30
0.0
 11
57.78117848040146
 21
145.3213121678728
 31
0.0
  0
SPLINE
  5
9B
330
70
100
AcDbEntity
  8
Standardebene
 62
     7
370
    35
100
AcDbSpline
210
0.0
220
0.0
230
1.0
 70
     8
 71
     3
 72
    11
 73
     7
 74
     0
 42
0.0000000001
 43
0.0000000001
 40
0.0
 40
0.0
 40
0.0
 40
0.0
 40
1.0
 40
1.0
 40
1.0
 40
2.0
 40
2.0
 40
2.0
 40
2.0
 10
67.1357868113964
 20
151.1029871664274
 30
0.0
 10
67.1357868113964
 20
151.3238260552611
 30
0.0
 10
66.9569284781076
 20
151.5033899441052
 30
0.0
 10
66.7357368114964
 20
151.5033899441052
 30
0.0
 10
66.6500118115177
 20
151.5033899441052
 30
0.0
 10
66.57028403375997
 20
151.4762260552229
 30
0.0
 10
66.50678403377574
 20
151.430717721901
 30
0.0
  0
LINE
  5
9C
330
70
100
AcDbEntity
  8
Standardebene
 62
     7
370
    35
100
AcDbLine
 10
67.1357868113964
 20
140.4519205024235
 30
0.0
 11
67.1357868113964
 21
151.1029871664274
 31
0.0
  0
SPLINE
  5
9D
330
70
100
AcDbEntity
  8
Standardebene
 62
     7
370
    35
100
AcDbSpline
210
0.0
220
0.0
230
1.0
 70
     8
 71
     3
 72
     8
 73
     4
 74
     0
 42
0.0000000001
 43
0.0000000001
 40
0.0
 40
0.0
 40
0.0
 40
0.0
 40
1.0
 40
1.0
 40
1.0
 40
1.0
 10
66.96539514477227
 20
140.1241899469498
 30
0.0
 10
67.07581458918915
 20
140.2014482802639
 30
0.0
 10
67.13508125584088
 20
140.3245677246776
 30
0.0
 10
67.1357868113964
 20
140.4519205024235
 30
0.0
  0
LINE
  5
9E
330
70
100
AcDbEntity
  8
Standardebene
 62
     7
370
    35
100
AcDbLine
 10
58.24014236917574
 20
134.0151371706993
 30
0.0
 11
66.96539514477227
 21
140.1241899469498
 31
0.0
  0
SPLINE
  5
9F
330
70
100
AcDbEntity
  8
Standardebene
 62
     7
370
    35
100
AcDbSpline
210
0.0
220
0.0
230
1.0
 70
     8
 71
     3
 72
    11
 73
     7
 74
     0
 42
0.0000000001
 43
0.0000000001
 40
0.0
 40
0.0
 40
0.0
 40
0.0
 40
1.0
 40
1.0
 40
1.0
 40
2.0
 40
2.0
 40
2.0
 40
2.0
 10
57.61078681377765
 20
134.3425149483952
 30
0.0
 10
57.61078681377765
 20
134.121323281784
 30
0.0
 10
57.78999792484388
 20
133.9424649484952
 30
0.0
 10
58.01118959145508
 20
133.9424649484952
 30
0.0
 10
58.09691459143379
 20
133.9424649484952
 30
0.0
 10
58.17664236919151
 20
133.9696288373774
 30
0.0
 10
58.24014236917574
 20
134.0151371706993
 30
0.0
  0
LINE
  5
A0
330
70
100
AcDbEntity
  8
Standardebene
 62
     7
370
    35
100
AcDbLine
 10
57.61078681377765
 20
144.9939343901769
 30
0.0
 11
57.61078681377765
 21
134.3425149483952
 31
0.0
  0
LINE
  5
A1
330
70
100
AcDbEntity
  8
Standardebene
 62
     7
370
    35
100
AcDbLine
 10
71.91098681020261
 20
140.9426343911899
 30
0.0
 11
71.41074792143858
 21
140.4423955024259
 31
0.0
  0
LINE
  5
A2
330
70
100
AcDbEntity
  8
Standardebene
 62
     7
370
    35
100
AcDbLine
 10
67.1357868113964
 20
140.4423955024259
 30
0.0
 11
71.41074792143858
 21
140.4423955024259
 31
0.0
  0
LINE
  5
A3
330
70
100
AcDbEntity
  8
Standardebene
 62
     7
370
    35
100
AcDbLine
 10
67.1110923669579
 20
151.8240649440249
 30
0.0
 11
67.1110923669579
 21
151.2409232775042
 31
0.0
  0
LINE
  5
A4
330
70
100
AcDbEntity
  8
Standardebene
 62
     7
370
    35
100
AcDbLine
 10
66.63378403374387
 20
151.4896316107753
 30
0.0
 11
67.1110923669579
 21
151.8240649440249
 31
0.0
  0
LINE
  5
A5
330
70
100
AcDbEntity
  8
Standardebene
 62
     7
370
    35
100
AcDbLine
 10
71.91098681020261
 20
140.9426343911899
 30
0.0
 11
71.91098681020261
 21
145.442667723398
 31
0.0
  0
LINE
  5
A6
330
70
100
AcDbEntity
  8
Standardebene
 62
     7
370
    35
100
AcDbLine
 10
58.20098403585224
 20
146.8357871674943
 30
0.0
 11
58.20098403585224
 21
145.6148232789106
 31
0.0
  0
LINE
  5
A7
330
70
100
AcDbEntity
  8
Standardebene
 62
     7
370
    35
100
AcDbLine
 10
66.92059236700555
 20
151.4575288330055
 30
0.0
 11
67.1110923669579
 21
151.8240649440249
 31
0.0
  0
SPLINE
  5
A8
330
70
100
AcDbEntity
  8
Standardebene
 62
     7
370
    35
100
AcDbSpline
210
0.0
220
0.0
230
1.0
 70
     8
 71
     3
 72
    11
 73
     7
 74
     0
 42
0.0000000001
 43
0.0000000001
 40
0.0
 40
0.0
 40
0.0
 40
0.0
 40
1.0
 40
1.0
 40
1.0
 40
2.0
 40
2.0
 40
2.0
 40
2.0
 10
63.52334236785482
 20
142.7227510574113
 30
0.0
 10
63.52334236785482
 20
143.3581038350304
 30
0.0
 10
63.00863959020578
 20
143.8728066126794
 30
0.0
 10
62.37328681258702
 20
143.8728066126794
 30
0.0
 10
61.97217847935374
 20
143.8728066126794
 30
0.0
 10
61.61940070166416
 20
143.6674899460643
 30
0.0
 10
61.41090903504982
 20
143.3521066128097
 30
0.0
  0
SPLINE
  5
A9
330
70
100
AcDbEntity
  8
Standardebene
 62
     7
370
    35
100
AcDbSpline
210
0.0
220
0.0
230
1.0
 70
     8
 71
     3
 72
    11
 73
     7
 74
     0
 42
0.0000000001
 43
0.0000000001
 40
0.0
 40
0.0
 40
0.0
 40
0.0
 40
1.0
 40
1.0
 40
1.0
 40
2.0
 40
2.0
 40
2.0
 40
2.0
 10
61.34740903506559
 20
142.2038149464301
 30
0.0
 10
61.54884514612631
 20
141.8058816131963
 30
0.0
 10
61.94924792380406
 20
141.5755177243649
 30
0.0
 10
62.37328681258702
 20
141.5726955021435
 30
0.0
 10
63.00863959020578
 20
141.5726955021435
 30
0.0
 10
63.52334236785482
 20
142.0877510575703
 30
0.0
 10
63.52334236785482
 20
142.7227510574113
 30
0.0
  0
SPLINE
  5
AA
330
70
100
AcDbEntity
  8
Standardebene
 62
     7
370
    35
100
AcDbSpline
210
0.0
220
0.0
230
1.0
 70
     8
 71
     3
 72
     8
 73
     4
 74
     0
 42
0.0000000001
 43
0.0000000001
 40
0.0
 40
0.0
 40
0.0
 40
0.0
 40
1.0
 40
1.0
 40
1.0
 40
1.0
 10
61.41090903504982
 20
143.3521066128097
 30
0.0
 10
61.17913403510771
 20
142.9975649462317
 30
0.0
 10
61.16819792399935
 20
142.5625899463403
 30
0.0
 10
61.34740903506559
 20
142.2038149464301
 30
0.0
  0
LINE
  5
AB
330
70
100
AcDbEntity
  8
Standardebene
 62
     7
370
    35
100
AcDbLine
 10
66.4108284782442
 20
158.7889566089504
 30
0.0
 11
67.01125625587195
 21
158.4421760534815
 31
0.0
  0
LINE
  5
AC
330
70
100
AcDbEntity
  8
Standardebene
 62
     7
370
    35
100
AcDbLine
 10
70.81102569936636
 20
158.4421760534815
 30
0.0
 11
71.41074792143858
 21
158.7889566089504
 31
0.0
  0
LWPOLYLINE
  5
AD
330
70
100
AcDbEntity
  8
Standardebene
 62
     7
370
    35
100
AcDbPolyline
 90
       10
 70
     0
 43
0.0
 10
70.81102569936636
 20
158.4421760534815
 10
70.69602014383955
 20
158.4421760534815
 10
70.36617292169964
 20
158.4421760534815
 10
69.86064236627048
 20
158.4421760534815
 10
69.24081181087001
 20
158.4421760534815
 10
68.58076458881277
 20
158.4421760534815
 10
67.96093403341231
 20
158.4421760534815
 10
67.45540347798314
 20
158.4421760534815
 10
67.12555625584323
 20
158.4421760534815
 10
67.01125625587195
 20
158.4421760534815
  0
LWPOLYLINE
  5
AE
330
70
100
AcDbEntity
  8
Standardebene
 62
     7
370
    35
100
AcDbPolyline
 90
       12
 70
     0
 43
0.0
 10
66.4108284782442
 20
158.7889566089504
 10
66.51242847821865
 20
158.7889566089504
 10
66.80770347814498
 20
158.7889566089504
 10
67.27407570025064
 20
158.7889566089504
 10
67.87273958898992
 20
158.7889566089504
 10
68.55536458881909
 20
158.7889566089504
 10
69.26691736641891
 20
158.7889566089504
 10
69.94954236624839
 20
158.7889566089504
 10
70.54820625498766
 20
158.7889566089504
 10
71.01387292153781
 20
158.7889566089504
 10
71.30985347701934
 20
158.7889566089504
 10
71.41074792143858
 20
158.7889566089504
  0
LINE
  5
AF
330
70
100
AcDbEntity
  8
Standardebene
 62
     7
370
    35
100
AcDbLine
 10
66.4108284782442
 20
163.8424982743537
 30
0.0
 11
66.4108284782442
 21
158.7889566089504
 31
0.0
  0
LWPOLYLINE
  5
B0
330
70
100
AcDbEntity
  8
Standardebene
 62
     7
370
    35
100
AcDbPolyline
 90
       13
 70
     0
 43
0.0
 10
71.41074792143858
 20
158.7889566089504
 10
71.41074792143858
 20
163.8424982743537
 10
71.30985347701934
 20
163.8424982743537
 10
71.01387292153781
 20
163.8424982743537
 10
70.54820625498766
 20
163.8424982743537
 10
69.94954236624839
 20
163.8424982743537
 10
69.26691736641891
 20
163.8424982743537
 10
68.55536458881909
 20
163.8424982743537
 10
67.87273958898992
 20
163.8424982743537
 10
67.27407570025064
 20
163.8424982743537
 10
66.80770347814498
 20
163.8424982743537
 10
66.51242847821865
 20
163.8424982743537
 10
66.4108284782442
 20
163.8424982743537
  0
LINE
  5
B1
330
70
100
AcDbEntity
  8
Standardebene
 62
     7
370
    35
100
AcDbLine
 10
71.41074792143858
 20
163.8424982743537
 30
0.0
 11
70.81102569936636
 21
164.4422204964259
 31
0.0
  0
LINE
  5
B2
330
70
100
AcDbEntity
  8
Standardebene
 62
     7
370
    35
100
AcDbLine
 10
67.01125625587195
 20
164.4422204964259
 30
0.0
 11
66.4108284782442
 21
163.8424982743537
 31
0.0
  0
LWPOLYLINE
  5
B3
330
70
100
AcDbEntity
  8
Standardebene
 62
     7
370
    35
100
AcDbPolyline
 90
        4
 70
     0
 43
0.0
 10
68.1831840333568
 20
164.4422204964259
 10
67.56688125573298
 20
164.4422204964259
 10
67.15518958916911
 20
164.4422204964259
 10
67.01125625587195
 20
164.4422204964259
  0
LWPOLYLINE
  5
B4
330
70
100
AcDbEntity
  8
Standardebene
 62
     7
370
    35
100
AcDbPolyline
 90
        7
 70
     0
 43
0.0
 10
70.81102569936636
 20
164.4422204964259
 10
70.71013125494712
 20
164.4422204964259
 10
70.41838403279776
 20
164.4422204964259
 10
69.96647569957741
 20
164.4422204964259
 10
69.40238403305172
 20
164.4422204964259
 10
68.78608125542823
 20
164.4422204964259
 10
68.1831840333568
 20
164.4422204964259
  0
LINE
  5
B5
330
70
100
AcDbEntity
  8
Standardebene
 62
     7
370
    35
100
AcDbLine
 10
67.01125625587195
 20
158.4421760534815
 30
0.0
 11
67.01125625587195
 21
155.4428593875648
 31
0.0
  0
LINE
  5
B6
330
70
100
AcDbEntity
  8
Standardebene
 62
     7
370
    35
100
AcDbLine
 10
70.81102569936636
 20
155.4428593875648
 30
0.0
 11
70.81102569936636
 21
158.4421760534815
 31
0.0
  0
LINE
  5
B7
330
70
100
AcDbEntity
  8
Standardebene
 62
     7
370
    35
100
AcDbLine
 10
116.558684478073
 20
134.5104371705756
 30
0.0
 11
117.2709428112284
 21
134.3425149483952
 31
0.0
  0
LINE
  5
B8
330
70
100
AcDbEntity
  8
Standardebene
 62
     7
370
    35
100
AcDbLine
 10
116.558684478073
 20
144.9480732790772
 30
0.0
 11
116.558684478073
 21
134.5104371705756
 31
0.0
  0
LINE
  5
B9
330
70
100
AcDbEntity
  8
Standardebene
 62
     7
370
    35
100
AcDbLine
 10
116.558684478073
 20
144.9480732790772
 30
0.0
 11
117.2709428112284
 21
144.9939343901769
 31
0.0
  0
LINE
  5
BA
330
70
100
AcDbEntity
  8
Standardebene
 62
     7
370
    35
100
AcDbLine
 10
120.5288455881919
 20
144.9939343901769
 30
0.0
 11
120.5288455881919
 21
134.3425149483952
 31
0.0
  0
LWPOLYLINE
  5
BB
330
70
100
AcDbEntity
  8
Standardebene
 62
     7
370
    35
100
AcDbPolyline
 90
        3
 70
     0
 43
0.0
 10
120.5288455881919
 20
145.3213121678728
 10
120.5288455881919
 20
145.1787899456863
 10
120.5288455881919
 20
144.9939343901769
  0
LINE
  5
BC
330
70
100
AcDbEntity
  8
Standardebene
 62
     7
370
    35
100
AcDbLine
 10
117.2709428112284
 20
134.3425149483952
 30
0.0
 11
120.5288455881919
 21
133.9424649484952
 31
0.0
  0
LWPOLYLINE
  5
BD
330
70
100
AcDbEntity
  8
Standardebene
 62
     7
370
    35
100
AcDbPolyline
 90
        3
 70
     0
 43
0.0
 10
120.5288455881919
 20
134.3425149483952
 10
120.5288455881919
 20
134.0595871706883
 10
120.5288455881919
 20
133.9424649484952
  0
LINE
  5
BE
330
70
100
AcDbEntity
  8
Standardebene
 62
     7
370
    35
100
AcDbLine
 10
116.558684478073
 20
145.0196871679483
 30
0.0
 11
116.558684478073
 21
144.9480732790772
 31
0.0
  0
LINE
  5
BF
330
70
100
AcDbEntity
  8
Standardebene
 62
     7
370
    35
100
AcDbLine
 10
116.558684478073
 20
145.0196871679483
 30
0.0
 11
120.3288205882419
 21
145.5851899455848
 31
0.0
  0
LINE
  5
C0
330
70
100
AcDbEntity
  8
Standardebene
 62
     7
370
    35
100
AcDbLine
 10
120.5288455881919
 20
146.8357871674943
 30
0.0
 11
120.5288455881919
 21
145.3213121678728
 31
0.0
  0
LWPOLYLINE
  5
C1
330
70
100
AcDbEntity
  8
Standardebene
 62
     7
370
    35
100
AcDbPolyline
 90
        3
 70
     0
 43
0.0
 10
109.4191678131914
 20
154.8325538321617
 10
110.0287678130391
 20
155.4428593875648
 10
121.3285928102141
 20
155.4428593875648
  0
LINE
  5
C2
330
70
100
AcDbEntity
  8
Standardebene
 62
     7
370
    35
100
AcDbLine
 10
121.3285928102141
 20
154.8325538321617
 30
0.0
 11
109.4191678131914
 21
154.8325538321617
 31
0.0
  0
LINE
  5
C3
330
70
100
AcDbEntity
  8
Standardebene
 62
     7
370
    35
100
AcDbLine
 10
121.3285928102141
 20
154.8325538321617
 30
0.0
 11
121.3285928102141
 21
155.4428593875648
 31
0.0
  0
LINE
  5
C4
330
70
100
AcDbEntity
  8
Standardebene
 62
     7
370
    35
100
AcDbLine
 10
108.5287567023028
 20
141.0036649467301
 30
0.0
 11
112.625565034612
 21
137.4423732809537
 31
0.0
  0
LINE
  5
C5
330
70
100
AcDbEntity
  8
Standardebene
 62
     7
370
    35
100
AcDbLine
 10
108.5287567023028
 20
153.9421427212734
 30
0.0
 11
108.5287567023028
 21
141.0036649467301
 31
0.0
  0
LINE
  5
C6
330
70
100
AcDbEntity
  8
Standardebene
 62
     7
370
    35
100
AcDbLine
 10
108.5287567023028
 20
153.9421427212734
 30
0.0
 11
109.4191678131914
 21
154.8325538321617
 31
0.0
  0
LINE
  5
C7
330
70
100
AcDbEntity
  8
Standardebene
 62
     7
370
    35
100
AcDbLine
 10
120.3288205882419
 20
146.8357871674943
 30
0.0
 11
120.3288205882419
 21
145.5851899455848
 31
0.0
  0
LINE
  5
C8
330
70
100
AcDbEntity
  8
Standardebene
 62
     7
370
    35
100
AcDbLine
 10
120.3288205882419
 20
146.8357871674943
 30
0.0
 11
121.3285928102141
 21
146.8357871674943
 31
0.0
  0
LINE
  5
C9
330
70
100
AcDbEntity
  8
Standardebene
 62
     7
370
    35
100
AcDbLine
 10
116.558684478073
 20
135.1422621704178
 30
0.0
 11
116.4592011447648
 21
135.1422621704178
 31
0.0
  0
LINE
  5
CA
330
70
100
AcDbEntity
  8
Standardebene
 62
     7
370
    35
100
AcDbLine
 10
121.3285928102141
 20
146.8357871674943
 30
0.0
 11
121.3285928102141
 21
154.8325538321617
 31
0.0
  0
LINE
  5
CB
330
70
100
AcDbEntity
  8
Standardebene
 62
     7
370
    35
100
AcDbLine
 10
116.4592011447648
 20
135.1422621704178
 30
0.0
 11
112.625565034612
 21
137.4423732809537
 31
0.0
  0
LINE
  5
CC
330
70
100
AcDbEntity
  8
Standardebene
 62
     7
370
    35
100
AcDbLine
 10
120.5288455881919
 20
140.2966982802402
 30
0.0
 11
120.7461566992487
 21
140.6230177246031
 31
0.0
  0
LINE
  5
CD
330
70
100
AcDbEntity
  8
Standardebene
 62
     7
370
    35
100
AcDbLine
 10
120.7461566992487
 20
144.8224843902198
 30
0.0
 11
120.5288455881919
 21
145.1491566123605
 31
0.0
  0
LWPOLYLINE
  5
CE
330
70
100
AcDbEntity
  8
Standardebene
 62
     7
370
    35
100
AcDbPolyline
 90
        9
 70
     0
 43
0.0
 10
120.7461566992487
 20
140.9648593911843
 10
120.7461566992487
 20
141.4160621688492
 10
120.7461566992487
 20
142.0002621687031
 10
120.7461566992487
 20
142.6574871685389
 10
120.7461566992487
 20
143.3221205017061
 10
120.7461566992487
 20
143.9253705015553
 10
120.7461566992487
 20
144.4065593903237
 10
120.7461566992487
 20
144.7159455013576
 10
120.7461566992487
 20
144.8224843902198
  0
LWPOLYLINE
  5
CF
330
70
100
AcDbEntity
  8
Standardebene
 62
     7
370
    35
100
AcDbPolyline
 90
        3
 70
     0
 43
0.0
 10
120.7461566992487
 20
140.6230177246031
 10
120.7461566992487
 20
140.7098010579148
 10
120.7461566992487
 20
140.9648593911843
  0
LINE
  5
D0
330
70
100
AcDbEntity
  8
Standardebene
 62
     7
370
    35
100
AcDbLine
 10
106.5288594805806
 20
144.3183649459013
 30
0.0
 11
108.5287567023028
 21
144.3183649459013
 31
0.0
  0
LINE
  5
D1
330
70
100
AcDbEntity
  8
Standardebene
 62
     7
370
    35
100
AcDbLine
 10
108.5287567023028
 20
141.127489946699
 30
0.0
 11
108.3869400356716
 21
141.127489946699
 31
0.0
  0
LWPOLYLINE
  5
D2
330
70
100
AcDbEntity
  8
Standardebene
 62
     7
370
    35
100
AcDbPolyline
 90
        8
 70
     0
 43
0.0
 10
106.5288594805806
 20
144.3183649459013
 10
106.5288594805806
 20
143.9610010571018
 10
106.5288594805806
 20
143.4064343905737
 10
106.5288594805806
 20
142.7421538351843
 10
107.1218789248767
 20
142.2274510575353
 10
107.6612761469642
 20
141.7586093909859
 10
108.0962511468555
 20
141.3797260577471
 10
108.3869400356716
 20
141.127489946699
  0
LINE
  5
D3
330
70
100
AcDbEntity
  8
Standardebene
 62
     7
370
    35
100
AcDbLine
 10
106.5288594805806
 20
150.4425871665927
 30
0.0
 11
108.5287567023028
 21
150.4425871665927
 31
0.0
  0
LINE
  5
D4
330
70
100
AcDbEntity
  8
Standardebene
 62
     7
370
    35
100
AcDbLine
 10
106.5288594805806
 20
144.3183649459013
 30
0.0
 11
106.5288594805806
 21
150.4425871665927
 31
0.0
  0
LINE
  5
D5
330
70
100
AcDbEntity
  8
Standardebene
 62
     7
370
    35
100
AcDbLine
 10
108.5287567023028
 20
141.0036649467301
 30
0.0
 11
108.3869400356716
 21
141.127489946699
 31
0.0
  0
LINE
  5
D6
330
70
100
AcDbEntity
  8
Standardebene
 62
     7
370
    35
100
AcDbLine
 10
110.0287678130391
 20
158.7889566089504
 30
0.0
 11
110.6291955906668
 21
158.4421760534815
 31
0.0
  0
LINE
  5
D7
330
70
100
AcDbEntity
  8
Standardebene
 62
     7
370
    35
100
AcDbLine
 10
114.4289650341612
 20
158.4421760534815
 30
0.0
 11
115.0286872562335
 21
158.7889566089504
 31
0.0
  0
LWPOLYLINE
  5
D8
330
70
100
AcDbEntity
  8
Standardebene
 62
     7
370
    35
100
AcDbPolyline
 90
       10
 70
     0
 43
0.0
 10
114.4289650341612
 20
158.4421760534815
 10
114.3146650341896
 20
158.4421760534815
 10
113.9841122564945
 20
158.4421760534815
 10
113.4792872566209
 20
158.4421760534815
 10
112.8587511456649
 20
158.4421760534815
 10
112.1990567013854
 20
158.4421760534815
 10
111.5788733682069
 20
158.4421760534815
 10
111.0736955905555
 20
158.4421760534815
 10
110.7434955906381
 20
158.4421760534815
 10
110.6291955906668
 20
158.4421760534815
  0
LWPOLYLINE
  5
D9
330
70
100
AcDbEntity
  8
Standardebene
 62
     7
370
    35
100
AcDbPolyline
 90
       12
 70
     0
 43
0.0
 10
110.0287678130391
 20
158.7889566089504
 10
110.1303678130135
 20
158.7889566089504
 10
110.4256428129399
 20
158.7889566089504
 10
110.8920150350455
 20
158.7889566089504
 10
111.4906789237845
 20
158.7889566089504
 10
112.173303923614
 20
158.7889566089504
 10
112.8848567012138
 20
158.7889566089504
 10
113.5674817010433
 20
158.7889566089504
 10
114.1661455897825
 20
158.7889566089504
 10
114.6318122563327
 20
158.7889566089504
 10
114.9277928118142
 20
158.7889566089504
 10
115.0286872562335
 20
158.7889566089504
  0
LINE
  5
DA
330
70
100
AcDbEntity
  8
Standardebene
 62
     7
370
    35
100
AcDbLine
 10
110.0287678130391
 20
163.8424982743537
 30
0.0
 11
110.0287678130391
 21
158.7889566089504
 31
0.0
  0
LWPOLYLINE
  5
DB
330
70
100
AcDbEntity
  8
Standardebene
 62
     7
370
    35
100
AcDbPolyline
 90
       13
 70
     0
 43
0.0
 10
115.0286872562335
 20
158.7889566089504
 10
115.0286872562335
 20
163.8424982743537
 10
114.9277928118142
 20
163.8424982743537
 10
114.6318122563327
 20
163.8424982743537
 10
114.1661455897825
 20
163.8424982743537
 10
113.5674817010433
 20
163.8424982743537
 10
112.8848567012138
 20
163.8424982743537
 10
112.173303923614
 20
163.8424982743537
 10
111.4906789237845
 20
163.8424982743537
 10
110.8920150350455
 20
163.8424982743537
 10
110.4256428129399
 20
163.8424982743537
 10
110.1303678130135
 20
163.8424982743537
 10
110.0287678130391
 20
163.8424982743537
  0
LINE
  5
DC
330
70
100
AcDbEntity
  8
Standardebene
 62
     7
370
    35
100
AcDbLine
 10
115.0286872562335
 20
163.8424982743537
 30
0.0
 11
114.4289650341612
 21
164.4422204964259
 31
0.0
  0
LINE
  5
DD
330
70
100
AcDbEntity
  8
Standardebene
 62
     7
370
    35
100
AcDbLine
 10
110.6291955906668
 20
164.4422204964259
 30
0.0
 11
110.0287678130391
 21
163.8424982743537
 31
0.0
  0
LWPOLYLINE
  5
DE
330
70
100
AcDbEntity
  8
Standardebene
 62
     7
370
    35
100
AcDbPolyline
 90
        9
 70
     0
 43
0.0
 10
114.2843261453086
 20
164.4422204964259
 10
113.9364872565067
 20
164.4422204964259
 10
113.4242539233013
 20
164.4422204964259
 10
112.8068928123445
 20
164.4422204964259
 10
112.1581344791734
 20
164.4422204964259
 10
111.551709479325
 20
164.4422204964259
 10
111.0599372572257
 20
164.4422204964259
 10
110.7396150350834
 20
164.4422204964259
 10
110.6291955906668
 20
164.4422204964259
  0
LWPOLYLINE
  5
DF
330
70
100
AcDbEntity
  8
Standardebene
 62
     7
370
    35
100
AcDbPolyline
 90
        3
 70
     0
 43
0.0
 10
114.4289650341612
 20
164.4422204964259
 10
114.3926289230592
 20
164.4422204964259
 10
114.2843261453086
 20
164.4422204964259
  0
LWPOLYLINE
  5
E0
330
70
100
AcDbEntity
  8
Standardebene
 62
     7
370
    35
100
AcDbPolyline
 90
       10
 70
     0
 43
0.0
 10
110.6291955906668
 20
155.4428593875648
 10
110.7434955906381
 20
155.4428593875648
 10
111.0736955905555
 20
155.4428593875648
 10
111.5788733682069
 20
155.4428593875648
 10
112.1990567013854
 20
155.4428593875648
 10
112.8587511456649
 20
155.4428593875648
 10
113.4792872566209
 20
155.4428593875648
 10
113.9841122564945
 20
155.4428593875648
 10
114.3146650341896
 20
155.4428593875648
 10
114.4289650341612
 20
155.4428593875648
  0
LINE
  5
E1
330
70
100
AcDbEntity
  8
Standardebene
 62
     7
370
    35
100
AcDbLine
 10
110.6291955906668
 20
158.4421760534815
 30
0.0
 11
110.6291955906668
 21
155.4428593875648
 31
0.0
  0
LINE
  5
E2
330
70
100
AcDbEntity
  8
Standardebene
 62
     7
370
    35
100
AcDbLine
 10
114.4289650341612
 20
155.4428593875648
 30
0.0
 11
114.4289650341612
 21
158.4421760534815
 31
0.0
  0
LINE
  5
E3
330
70
100
AcDbEntity
  8
Standardebene
 62
     7
370
    35
100
AcDbLine
 10
121.3285928102141
 20
145.442667723398
 30
0.0
 11
120.5288455881919
 21
145.442667723398
 31
0.0
  0
LINE
  5
E4
330
70
100
AcDbEntity
  8
Standardebene
 62
     7
370
    35
100
AcDbLine
 10
121.3285928102141
 20
146.8357871674943
 30
0.0
 11
121.3285928102141
 21
145.442667723398
 31
0.0
  0
SPLINE
  5
E5
330
70
100
AcDbEntity
  8
Standardebene
 62
     7
370
    35
100
AcDbSpline
210
0.0
220
0.0
230
1.0
 70
     9
 71
     3
 72
    17
 73
    13
 74
     0
 42
0.0000000001
 43
0.0000000001
 40
0.0
 40
0.0
 40
0.0
 40
0.0
 40
1.0
 40
1.0
 40
1.0
 40
2.0
 40
2.0
 40
2.0
 40
3.0
 40
3.0
 40
3.0
 40
4.0
 40
4.0
 40
4.0
 40
4.0
 10
70.81102569936636
 20
94.23273995842295
 30
0.0
 10
70.81102569936636
 20
95.28190106927151
 30
0.0
 10
69.96047847735676
 20
96.13244829128113
 30
0.0
 10
68.91061181095267
 20
96.13244829128113
 30
0.0
 10
67.86180347788157
 20
96.13244829128113
 30
0.0
 10
67.01125625587195
 20
95.28190106927151
 30
0.0
 10
67.01125625587195
 20
94.23273995842295
 30
0.0
 10
67.01125625587195
 20
93.18287329201856
 30
0.0
 10
67.86180347788157
 20
92.33232607000894
 30
0.0
 10
68.91061181095267
 20
92.33232607000894
 30
0.0
 10
69.96047847735676
 20
92.33232607000894
 30
0.0
 10
70.81102569936636
 20
93.18287329201856
 30
0.0
 10
70.81102569936636
 20
94.23273995842295
 30
0.0
  0
LINE
  5
E6
330
70
100
AcDbEntity
  8
Standardebene
 62
     7
370
    35
100
AcDbLine
 10
69.48563958858674
 20
95.6191566247428
 30
0.0
 11
67.99727014451436
 21
95.4240705136805
 31
0.0
  0
LINE
  5
E7
330
70
100
AcDbEntity
  8
Standardebene
 62
     7
370
    35
100
AcDbLine
 10
67.42259514465775
 20
94.03694829180514
 30
0.0
 11
67.99727014451436
 21
95.4240705136805
 31
0.0
  0
LWPOLYLINE
  5
E8
330
70
100
AcDbEntity
  8
Standardebene
 62
     7
370
    35
100
AcDbPolyline
 90
        3
 70
     0
 43
0.0
 10
67.42259514465775
 20
94.03694829180514
 10
68.33593681109637
 20
92.84561773654727
 10
69.82395347739099
 20
93.04140940316509
  0
LINE
  5
E9
330
70
100
AcDbEntity
  8
Standardebene
 62
     7
370
    35
100
AcDbLine
 10
70.39898125502505
 20
94.42782606948524
 30
0.0
 11
69.82395347739099
 21
93.04140940316509
 31
0.0
  0
LINE
  5
EA
330
70
100
AcDbEntity
  8
Standardebene
 62
     7
370
    35
100
AcDbLine
 10
70.39898125502505
 20
94.42782606948524
 30
0.0
 11
69.48563958858674
 21
95.6191566247428
 31
0.0
  0
SPLINE
  5
EB
330
70
100
AcDbEntity
  8
Standardebene
 62
     7
370
    35
100
AcDbSpline
210
0.0
220
0.0
230
1.0
 70
    11
 71
     3
 72
    17
 73
    13
 74
     0
 42
0.0000000001
 43
0.0000000001
 40
0.0
 40
0.0
 40
0.0
 40
0.0
 40
1.0
 40
1.0
 40
1.0
 40
2.0
 40
2.0
 40
2.0
 40
3.0
 40
3.0
 40
3.0
 40
4.0
 40
4.0
 40
4.0
 40
4.0
 10
71.41074792143858
 20
94.23273995842295
 30
0.0
 10
71.41074792143858
 20
95.61351218029988
 30
0.0
 10
70.29138403282963
 20
96.73252329113111
 30
0.0
 10
68.91061181095267
 20
96.73252329113111
 30
0.0
 10
67.53019236685317
 20
96.73252329113111
 30
0.0
 10
66.4108284782442
 20
95.61351218029988
 30
0.0
 10
66.4108284782442
 20
94.23273995842295
 30
0.0
 10
66.4108284782442
 20
92.85196773654568
 30
0.0
 10
67.53019236685317
 20
91.73260384793671
 30
0.0
 10
68.91061181095267
 20
91.73260384793671
 30
0.0
 10
70.29138403282963
 20
91.73260384793671
 30
0.0
 10
71.41074792143858
 20
92.85196773654568
 30
0.0
 10
71.41074792143858
 20
94.23273995842295
 30
0.0
  0
LINE
  5
EC
330
70
100
AcDbEntity
  8
Standardebene
 62
     7
370
    35
100
AcDbLine
 10
71.41074792143858
 20
96.73252329113111
 30
0.0
 11
71.41074792143858
 21
85.43269829395608
 31
0.0
  0
LINE
  5
ED
330
70
100
AcDbEntity
  8
Standardebene
 62
     7
370
    35
100
AcDbLine
 10
71.91098681020261
 20
97.23240940211738
 30
0.0
 11
71.41074792143858
 21
96.73252329113111
 31
0.0
  0
LINE
  5
EE
330
70
100
AcDbEntity
  8
Standardebene
 62
     7
370
    35
100
AcDbLine
 10
71.91098681020261
 20
97.23240940211738
 30
0.0
 11
71.91098681020261
 21
85.43269829395608
 31
0.0
  0
LINE
  5
EF
330
70
100
AcDbEntity
  8
Standardebene
 62
     7
370
    35
100
AcDbLine
 10
71.41074792143858
 20
85.43269829395608
 30
0.0
 11
71.91098681020261
 21
85.43269829395608
 31
0.0
  0
LINE
  5
F0
330
70
100
AcDbEntity
  8
Standardebene
 62
     7
370
    35
100
AcDbLine
 10
58.81093681347763
 20
96.73252329113111
 30
0.0
 11
58.81093681347763
 21
85.43269829395608
 31
0.0
  0
LINE
  5
F1
330
70
100
AcDbEntity
  8
Standardebene
 62
     7
370
    35
100
AcDbLine
 10
71.41074792143858
 20
96.73252329113111
 30
0.0
 11
58.81093681347763
 21
96.73252329113111
 31
0.0
  0
LINE
  5
F2
330
70
100
AcDbEntity
  8
Standardebene
 62
     7
370
    35
100
AcDbLine
 10
71.41074792143858
 20
85.43269829395608
 30
0.0
 11
58.81093681347763
 21
85.43269829395608
 31
0.0
  0
LINE
  5
F3
330
70
100
AcDbEntity
  8
Standardebene
 62
     7
370
    35
100
AcDbLine
 10
58.20098403585224
 20
97.34247606875648
 30
0.0
 11
58.81093681347763
 21
96.73252329113111
 31
0.0
  0
LINE
  5
F4
330
70
100
AcDbEntity
  8
Standardebene
 62
     7
370
    35
100
AcDbLine
 10
58.20098403585224
 20
85.43269829395608
 30
0.0
 11
58.20098403585224
 21
97.34247606875648
 31
0.0
  0
LINE
  5
F5
330
70
100
AcDbEntity
  8
Standardebene
 62
     7
370
    35
100
AcDbLine
 10
58.20098403585224
 20
85.43269829395608
 30
0.0
 11
58.81093681347763
 21
85.43269829395608
 31
0.0
  0
LINE
  5
F6
330
70
100
AcDbEntity
  8
Standardebene
 62
     7
370
    35
100
AcDbLine
 10
58.20098403585224
 20
98.23218162408959
 30
0.0
 11
58.20098403585224
 21
97.34247606875648
 31
0.0
  0
LINE
  5
F7
330
70
100
AcDbEntity
  8
Standardebene
 62
     7
370
    35
100
AcDbLine
 10
71.91098681020261
 20
98.23218162408959
 30
0.0
 11
58.20098403585224
 21
98.23218162408959
 31
0.0
  0
LINE
  5
F8
330
70
100
AcDbEntity
  8
Standardebene
 62
     7
370
    35
100
AcDbLine
 10
71.91098681020261
 20
97.23240940211738
 30
0.0
 11
71.91098681020261
 21
98.23218162408959
 31
0.0
  0
LINE
  5
F9
330
70
100
AcDbEntity
  8
Standardebene
 62
     7
370
    35
100
AcDbLine
 10
58.09832570254451
 20
90.2022538483194
 30
0.0
 11
58.01118959145508
 21
89.48999551516406
 31
0.0
  0
LINE
  5
FA
330
70
100
AcDbEntity
  8
Standardebene
 62
     7
370
    35
100
AcDbLine
 10
58.20098403585224
 20
90.2022538483194
 30
0.0
 11
58.09832570254451
 21
90.2022538483194
 31
0.0
  0
LINE
  5
FB
330
70
100
AcDbEntity
  8
Standardebene
 62
     7
370
    35
100
AcDbLine
 10
58.20098403585224
 20
86.2324455159783
 30
0.0
 11
57.78117848040146
 21
86.2324455159783
 31
0.0
  0
LINE
  5
FC
330
70
100
AcDbEntity
  8
Standardebene
 62
     7
370
    35
100
AcDbLine
 10
62.96101459021761
 20
100.2324316235895
 30
0.0
 11
62.96101459021761
 21
98.23218162408959
 31
0.0
  0
LINE
  5
FD
330
70
100
AcDbEntity
  8
Standardebene
 62
     7
370
    35
100
AcDbLine
 10
67.26067014469828
 20
98.23218162408959
 30
0.0
 11
67.26067014469828
 21
100.2324316235895
 31
0.0
  0
LINE
  5
FE
330
70
100
AcDbEntity
  8
Standardebene
 62
     7
370
    35
100
AcDbLine
 10
62.96101459021761
 20
100.2324316235895
 30
0.0
 11
67.26067014469828
 21
100.2324316235895
 31
0.0
  0
LINE
  5
FF
330
70
100
AcDbEntity
  8
Standardebene
 62
     7
370
    35
100
AcDbLine
 10
58.01118959145508
 20
89.48999551516406
 30
0.0
 11
57.61078681377765
 21
86.2324455159783
 31
0.0
  0
LWPOLYLINE
  5
100
330
70
100
AcDbEntity
  8
Standardebene
 62
     7
370
    35
100
AcDbPolyline
 90
        3
 70
     0
 43
0.0
 10
57.78117848040146
 20
86.2324455159783
 10
57.6559423693218
 20
86.2324455159783
 10
57.61078681377765
 20
86.2324455159783
  0
LINE
  5
102
330
70
100
AcDbEntity
  8
Bemaßung
 62
     7
370
     9
100
AcDbLine
 10
66.4108284782442
 20
163.8424982743537
 30
0.0
 11
66.4108284782442
 21
175.6951316050653
 31
0.0
  0
LINE
  5
103
330
70
100
AcDbEntity
  8
Bemaßung
 62
     7
370
     9
100
AcDbLine
 10
71.41074792143858
 20
163.8424982743537
 30
0.0
 11
71.41074792143858
 21
175.6951316050653
 31
0.0
  0
LINE
  5
104
330
70
100
AcDbEntity
  8
Bemaßung
 62
     7
370
     9
100
AcDbLine
 10
66.4108284782442
 20
174.4452343828142
 30
0.0
 11
64.35448681209172
 21
174.4452343828142
 31
0.0
  0
LINE
  5
105
330
70
100
AcDbEntity
  8
Bemaßung
 62
     7
370
     9
100
AcDbLine
 10
59.14410991904983
 20
174.4452343828142
 30
0.0
 11
81.29872801968561
 21
174.4452343828142
 31
0.0
  0
LWPOLYLINE
  5
106
330
70
100
AcDbEntity
  8
Bemaßung
 62
     7
370
     9
100
AcDbPolyline
 90
        4
 70
     0
 43
0.0
 10
66.4108284782442
 20
174.4452343828142
 10
62.91092014578574
 20
174.9056093826989
 10
62.91092014578574
 20
173.984153827374
 10
66.4108284782442
 20
174.4452343828142
  0
LINE
  5
107
330
70
100
AcDbEntity
  8
Bemaßung
 62
     7
370
     9
100
AcDbLine
 10
62.91092014578574
 20
174.9020816049222
 30
0.0
 11
62.93808403466792
 21
174.9020816049222
 31
0.0
  0
LINE
  5
108
330
70
100
AcDbEntity
  8
Bemaßung
 62
     7
370
     9
100
AcDbLine
 10
62.91092014578574
 20
174.9020816049222
 30
0.0
 11
62.93808403466792
 21
174.9020816049222
 31
0.0
  0
LINE
  5
109
330
70
100
AcDbEntity
  8
Bemaßung
 62
     7
370
     9
100
AcDbLine
 10
62.91092014578574
 20
174.8512816049348
 30
0.0
 11
63.32402292346035
 21
174.8512816049348
 31
0.0
  0
LINE
  5
10A
330
70
100
AcDbEntity
  8
Bemaßung
 62
     7
370
     9
100
AcDbLine
 10
62.91092014578574
 20
174.8004816049474
 30
0.0
 11
63.70996181225277
 21
174.8004816049474
 31
0.0
  0
LINE
  5
10B
330
70
100
AcDbEntity
  8
Bemaßung
 62
     7
370
     9
100
AcDbLine
 10
62.91092014578574
 20
174.7496816049604
 30
0.0
 11
64.09554792326743
 21
174.7496816049604
 31
0.0
  0
LINE
  5
10C
330
70
100
AcDbEntity
  8
Bemaßung
 62
     7
370
     9
100
AcDbLine
 10
62.91092014578574
 20
174.698881604973
 30
0.0
 11
64.48148681205985
 21
174.698881604973
 31
0.0
  0
LINE
  5
10D
330
70
100
AcDbEntity
  8
Bemaßung
 62
     7
370
     9
100
AcDbLine
 10
62.91092014578574
 20
174.6480816049856
 30
0.0
 11
64.86742570085228
 21
174.6480816049856
 31
0.0
  0
LINE
  5
10E
330
70
100
AcDbEntity
  8
Bemaßung
 62
     7
370
     9
100
AcDbLine
 10
62.91092014578574
 20
174.597634382776
 30
0.0
 11
65.25336458964471
 21
174.597634382776
 31
0.0
  0
LINE
  5
10F
330
70
100
AcDbEntity
  8
Bemaßung
 62
     7
370
     9
100
AcDbLine
 10
62.91092014578574
 20
174.5468343827886
 30
0.0
 11
65.63895070065936
 21
174.5468343827886
 31
0.0
  0
LINE
  5
110
330
70
100
AcDbEntity
  8
Bemaßung
 62
     7
370
     9
100
AcDbLine
 10
62.91092014578574
 20
174.4960343828013
 30
0.0
 11
66.02488958945177
 21
174.4960343828013
 31
0.0
  0
LINE
  5
111
330
70
100
AcDbEntity
  8
Bemaßung
 62
     7
370
     9
100
AcDbLine
 10
62.91092014578574
 20
174.4452343828142
 30
0.0
 11
66.4108284782442
 21
174.4452343828142
 31
0.0
  0
LINE
  5
112
330
70
100
AcDbEntity
  8
Bemaßung
 62
     7
370
     9
100
AcDbLine
 10
62.91092014578574
 20
173.9876816051509
 30
0.0
 11
62.93808403466792
 21
173.9876816051509
 31
0.0
  0
LINE
  5
113
330
70
100
AcDbEntity
  8
Bemaßung
 62
     7
370
     9
100
AcDbLine
 10
62.91092014578574
 20
173.9876816051509
 30
0.0
 11
62.93808403466792
 21
173.9876816051509
 31
0.0
  0
LINE
  5
114
330
70
100
AcDbEntity
  8
Bemaßung
 62
     7
370
     9
100
AcDbLine
 10
62.91092014578574
 20
174.038481605138
 30
0.0
 11
63.32402292346035
 21
174.038481605138
 31
0.0
  0
LINE
  5
115
330
70
100
AcDbEntity
  8
Bemaßung
 62
     7
370
     9
100
AcDbLine
 10
62.91092014578574
 20
174.0896343829028
 30
0.0
 11
63.70996181225277
 21
174.0896343829028
 31
0.0
  0
LINE
  5
116
330
70
100
AcDbEntity
  8
Bemaßung
 62
     7
370
     9
100
AcDbLine
 10
62.91092014578574
 20
174.1404343828902
 30
0.0
 11
64.09554792326743
 21
174.1404343828902
 31
0.0
  0
LINE
  5
117
330
70
100
AcDbEntity
  8
Bemaßung
 62
     7
370
     9
100
AcDbLine
 10
62.91092014578574
 20
174.1912343828776
 30
0.0
 11
64.48148681205985
 21
174.1912343828776
 31
0.0
  0
LINE
  5
118
330
70
100
AcDbEntity
  8
Bemaßung
 62
     7
370
     9
100
AcDbLine
 10
62.91092014578574
 20
174.242034382865
 30
0.0
 11
64.86742570085228
 21
174.242034382865
 31
0.0
  0
LINE
  5
119
330
70
100
AcDbEntity
  8
Bemaßung
 62
     7
370
     9
100
AcDbLine
 10
62.91092014578574
 20
174.2928343828524
 30
0.0
 11
65.25336458964471
 21
174.2928343828524
 31
0.0
  0
LINE
  5
11A
330
70
100
AcDbEntity
  8
Bemaßung
 62
     7
370
     9
100
AcDbLine
 10
62.91092014578574
 20
174.3436343828397
 30
0.0
 11
65.63895070065936
 21
174.3436343828397
 31
0.0
  0
LINE
  5
11B
330
70
100
AcDbEntity
  8
Bemaßung
 62
     7
370
     9
100
AcDbLine
 10
62.91092014578574
 20
174.3944343828268
 30
0.0
 11
66.02488958945177
 21
174.3944343828268
 31
0.0
  0
LINE
  5
11C
330
70
100
AcDbEntity
  8
Bemaßung
 62
     7
370
     9
100
AcDbLine
 10
62.91092014578574
 20
174.4452343828142
 30
0.0
 11
66.4108284782442
 21
174.4452343828142
 31
0.0
  0
LWPOLYLINE
  5
11D
330
70
100
AcDbEntity
  8
Bemaßung
 62
     7
370
     9
100
AcDbPolyline
 90
        4
 70
     0
 43
0.0
 10
71.41074792143858
 20
174.4452343828142
 10
74.91065625389705
 20
173.984153827374
 10
74.91065625389705
 20
174.9056093826989
 10
71.41074792143858
 20
174.4452343828142
  0
LINE
  5
11E
330
70
100
AcDbEntity
  8
Bemaßung
 62
     7
370
     9
100
AcDbLine
 10
74.91065625389705
 20
173.9876816051509
 30
0.0
 11
74.88349236501486
 21
173.9876816051509
 31
0.0
  0
LINE
  5
11F
330
70
100
AcDbEntity
  8
Bemaßung
 62
     7
370
     9
100
AcDbLine
 10
74.91065625389705
 20
173.9876816051509
 30
0.0
 11
74.88349236501486
 21
173.9876816051509
 31
0.0
  0
LINE
  5
120
330
70
100
AcDbEntity
  8
Bemaßung
 62
     7
370
     9
100
AcDbLine
 10
74.91065625389705
 20
174.038481605138
 30
0.0
 11
74.49755347622243
 21
174.038481605138
 31
0.0
  0
LINE
  5
121
330
70
100
AcDbEntity
  8
Bemaßung
 62
     7
370
     9
100
AcDbLine
 10
74.91065625389705
 20
174.0896343829028
 30
0.0
 11
74.11232014298554
 21
174.0896343829028
 31
0.0
  0
LINE
  5
122
330
70
100
AcDbEntity
  8
Bemaßung
 62
     7
370
     9
100
AcDbLine
 10
74.91065625389705
 20
174.1404343828902
 30
0.0
 11
73.72602847641537
 21
174.1404343828902
 31
0.0
  0
LINE
  5
123
330
70
100
AcDbEntity
  8
Bemaßung
 62
     7
370
     9
100
AcDbLine
 10
74.91065625389705
 20
174.1912343828776
 30
0.0
 11
73.34008958762294
 21
174.1912343828776
 31
0.0
  0
LINE
  5
124
330
70
100
AcDbEntity
  8
Bemaßung
 62
     7
370
     9
100
AcDbLine
 10
74.91065625389705
 20
174.242034382865
 30
0.0
 11
72.95415069883052
 21
174.242034382865
 31
0.0
  0
LINE
  5
125
330
70
100
AcDbEntity
  8
Bemaßung
 62
     7
370
     9
100
AcDbLine
 10
74.91065625389705
 20
174.2928343828524
 30
0.0
 11
72.56821181003809
 21
174.2928343828524
 31
0.0
  0
LINE
  5
126
330
70
100
AcDbEntity
  8
Bemaßung
 62
     7
370
     9
100
AcDbLine
 10
74.91065625389705
 20
174.3436343828397
 30
0.0
 11
72.18262569902343
 21
174.3436343828397
 31
0.0
  0
LINE
  5
127
330
70
100
AcDbEntity
  8
Bemaßung
 62
     7
370
     9
100
AcDbLine
 10
74.91065625389705
 20
174.3944343828268
 30
0.0
 11
71.79668681023101
 21
174.3944343828268
 31
0.0
  0
LINE
  5
128
330
70
100
AcDbEntity
  8
Bemaßung
 62
     7
370
     9
100
AcDbLine
 10
74.91065625389705
 20
174.4452343828142
 30
0.0
 11
71.41074792143858
 21
174.4452343828142
 31
0.0
  0
LINE
  5
129
330
70
100
AcDbEntity
  8
Bemaßung
 62
     7
370
     9
100
AcDbLine
 10
74.91065625389705
 20
174.9020816049222
 30
0.0
 11
74.88349236501486
 21
174.9020816049222
 31
0.0
  0
LINE
  5
12A
330
70
100
AcDbEntity
  8
Bemaßung
 62
     7
370
     9
100
AcDbLine
 10
74.91065625389705
 20
174.9020816049222
 30
0.0
 11
74.88349236501486
 21
174.9020816049222
 31
0.0
  0
LINE
  5
12B
330
70
100
AcDbEntity
  8
Bemaßung
 62
     7
370
     9
100
AcDbLine
 10
74.91065625389705
 20
174.8512816049348
 30
0.0
 11
74.49755347622243
 21
174.8512816049348
 31
0.0
  0
LINE
  5
12C
330
70
100
AcDbEntity
  8
Bemaßung
 62
     7
370
     9
100
AcDbLine
 10
74.91065625389705
 20
174.8004816049474
 30
0.0
 11
74.11232014298554
 21
174.8004816049474
 31
0.0
  0
LINE
  5
12D
330
70
100
AcDbEntity
  8
Bemaßung
 62
     7
370
     9
100
AcDbLine
 10
74.91065625389705
 20
174.7496816049604
 30
0.0
 11
73.72602847641537
 21
174.7496816049604
 31
0.0
  0
LINE
  5
12E
330
70
100
AcDbEntity
  8
Bemaßung
 62
     7
370
     9
100
AcDbLine
 10
74.91065625389705
 20
174.698881604973
 30
0.0
 11
73.34008958762294
 21
174.698881604973
 31
0.0
  0
LINE
  5
12F
330
70
100
AcDbEntity
  8
Bemaßung
 62
     7
370
     9
100
AcDbLine
 10
74.91065625389705
 20
174.6480816049856
 30
0.0
 11
72.95415069883052
 21
174.6480816049856
 31
0.0
  0
LINE
  5
130
330
70
100
AcDbEntity
  8
Bemaßung
 62
     7
370
     9
100
AcDbLine
 10
74.91065625389705
 20
174.597634382776
 30
0.0
 11
72.56821181003809
 21
174.597634382776
 31
0.0
  0
LINE
  5
131
330
70
100
AcDbEntity
  8
Bemaßung
 62
     7
370
     9
100
AcDbLine
 10
74.91065625389705
 20
174.5468343827886
 30
0.0
 11
72.18262569902343
 21
174.5468343827886
 31
0.0
  0
LINE
  5
132
330
70
100
AcDbEntity
  8
Bemaßung
 62
     7
370
     9
100
AcDbLine
 10
74.91065625389705
 20
174.4960343828013
 30
0.0
 11
71.79668681023101
 21
174.4960343828013
 31
0.0
  0
LINE
  5
133
330
70
100
AcDbEntity
  8
Bemaßung
 62
     7
370
     9
100
AcDbLine
 10
74.91065625389705
 20
174.4452343828142
 30
0.0
 11
71.41074792143858
 21
174.4452343828142
 31
0.0
  0
LINE
  5
134
330
70
100
AcDbEntity
  8
Bemaßung
 62
     7
370
     9
100
AcDbLine
 10
57.61078681377765
 20
134.3425149483952
 30
0.0
 11
57.61078681377765
 21
111.9397149539959
 31
0.0
  0
LINE
  5
135
330
70
100
AcDbEntity
  8
Bemaßung
 62
     7
370
     9
100
AcDbLine
 10
71.91098681020261
 20
145.442667723398
 30
0.0
 11
71.91098681020261
 21
111.9397149539959
 31
0.0
  0
LINE
  5
136
330
70
100
AcDbEntity
  8
Bemaßung
 62
     7
370
     9
100
AcDbLine
 10
57.61078681377765
 20
113.9399649534959
 30
0.0
 11
71.91098681020261
 21
113.9399649534959
 31
0.0
  0
LWPOLYLINE
  5
137
330
70
100
AcDbEntity
  8
Bemaßung
 62
     7
370
     9
100
AcDbPolyline
 90
        4
 70
     0
 43
0.0
 10
57.61078681377765
 20
113.9399649534959
 10
61.11069514623578
 20
113.4788843980557
 10
61.11069514623578
 20
114.4003399533809
 10
57.61078681377765
 20
113.9399649534959
  0
LINE
  5
138
330
70
100
AcDbEntity
  8
Bemaßung
 62
     7
370
     9
100
AcDbLine
 10
61.11069514623578
 20
113.4827649536104
 30
0.0
 11
61.08353125735392
 21
113.4827649536104
 31
0.0
  0
LINE
  5
139
330
70
100
AcDbEntity
  8
Bemaßung
 62
     7
370
     9
100
AcDbLine
 10
61.11069514623578
 20
113.4827649536104
 30
0.0
 11
61.08353125735392
 21
113.4827649536104
 31
0.0
  0
LINE
  5
13A
330
70
100
AcDbEntity
  8
Bemaßung
 62
     7
370
     9
100
AcDbLine
 10
61.11069514623578
 20
113.5335649535975
 30
0.0
 11
60.6975923685615
 21
113.5335649535975
 31
0.0
  0
LINE
  5
13B
330
70
100
AcDbEntity
  8
Bemaßung
 62
     7
370
     9
100
AcDbLine
 10
61.11069514623578
 20
113.5840121758071
 30
0.0
 11
60.31165347976908
 21
113.5840121758071
 31
0.0
  0
LINE
  5
13C
330
70
100
AcDbEntity
  8
Bemaßung
 62
     7
370
     9
100
AcDbLine
 10
61.11069514623578
 20
113.6348121757945
 30
0.0
 11
59.92606736875409
 21
113.6348121757945
 31
0.0
  0
LINE
  5
13D
330
70
100
AcDbEntity
  8
Bemaßung
 62
     7
370
     9
100
AcDbLine
 10
61.11069514623578
 20
113.6856121757819
 30
0.0
 11
59.540128479962
 21
113.6856121757819
 31
0.0
  0
LINE
  5
13E
330
70
100
AcDbEntity
  8
Bemaßung
 62
     7
370
     9
100
AcDbLine
 10
61.11069514623578
 20
113.7364121757693
 30
0.0
 11
59.15418959116958
 21
113.7364121757693
 31
0.0
  0
LINE
  5
13F
330
70
100
AcDbEntity
  8
Bemaßung
 62
     7
370
     9
100
AcDbLine
 10
61.11069514623578
 20
113.7872121757563
 30
0.0
 11
58.76825070237715
 21
113.7872121757563
 31
0.0
  0
LINE
  5
140
330
70
100
AcDbEntity
  8
Bemaßung
 62
     7
370
     9
100
AcDbLine
 10
61.11069514623578
 20
113.8383649535215
 30
0.0
 11
58.38266459136217
 21
113.8383649535215
 31
0.0
  0
LINE
  5
141
330
70
100
AcDbEntity
  8
Bemaßung
 62
     7
370
     9
100
AcDbLine
 10
61.11069514623578
 20
113.8891649535088
 30
0.0
 11
57.99672570257007
 21
113.8891649535088
 31
0.0
  0
LINE
  5
142
330
70
100
AcDbEntity
  8
Bemaßung
 62
     7
370
     9
100
AcDbLine
 10
61.11069514623578
 20
113.9399649534959
 30
0.0
 11
57.61078681377765
 21
113.9399649534959
 31
0.0
  0
LINE
  5
143
330
70
100
AcDbEntity
  8
Bemaßung
 62
     7
370
     9
100
AcDbLine
 10
61.11069514623578
 20
114.3971649533817
 30
0.0
 11
61.08353125735392
 21
114.3971649533817
 31
0.0
  0
LINE
  5
144
330
70
100
AcDbEntity
  8
Bemaßung
 62
     7
370
     9
100
AcDbLine
 10
61.11069514623578
 20
114.3971649533817
 30
0.0
 11
61.08353125735392
 21
114.3971649533817
 31
0.0
  0
LINE
  5
145
330
70
100
AcDbEntity
  8
Bemaßung
 62
     7
370
     9
100
AcDbLine
 10
61.11069514623578
 20
114.3463649533943
 30
0.0
 11
60.6975923685615
 21
114.3463649533943
 31
0.0
  0
LINE
  5
146
330
70
100
AcDbEntity
  8
Bemaßung
 62
     7
370
     9
100
AcDbLine
 10
61.11069514623578
 20
114.2952121756295
 30
0.0
 11
60.31165347976908
 21
114.2952121756295
 31
0.0
  0
LINE
  5
147
330
70
100
AcDbEntity
  8
Bemaßung
 62
     7
370
     9
100
AcDbLine
 10
61.11069514623578
 20
114.2444121756421
 30
0.0
 11
59.92606736875409
 21
114.2444121756421
 31
0.0
  0
LINE
  5
148
330
70
100
AcDbEntity
  8
Bemaßung
 62
     7
370
     9
100
AcDbLine
 10
61.11069514623578
 20
114.1936121756547
 30
0.0
 11
59.540128479962
 21
114.1936121756547
 31
0.0
  0
LINE
  5
149
330
70
100
AcDbEntity
  8
Bemaßung
 62
     7
370
     9
100
AcDbLine
 10
61.11069514623578
 20
114.1428121756673
 30
0.0
 11
59.15418959116958
 21
114.1428121756673
 31
0.0
  0
LINE
  5
14A
330
70
100
AcDbEntity
  8
Bemaßung
 62
     7
370
     9
100
AcDbLine
 10
61.11069514623578
 20
114.0920121756803
 30
0.0
 11
58.76825070237715
 21
114.0920121756803
 31
0.0
  0
LINE
  5
14B
330
70
100
AcDbEntity
  8
Bemaßung
 62
     7
370
     9
100
AcDbLine
 10
61.11069514623578
 20
114.0415649534707
 30
0.0
 11
58.38266459136217
 21
114.0415649534707
 31
0.0
  0
LINE
  5
14C
330
70
100
AcDbEntity
  8
Bemaßung
 62
     7
370
     9
100
AcDbLine
 10
61.11069514623578
 20
113.9907649534833
 30
0.0
 11
57.99672570257007
 21
113.9907649534833
 31
0.0
  0
LINE
  5
14D
330
70
100
AcDbEntity
  8
Bemaßung
 62
     7
370
     9
100
AcDbLine
 10
61.11069514623578
 20
113.9399649534959
 30
0.0
 11
57.61078681377765
 21
113.9399649534959
 31
0.0
  0
LWPOLYLINE
  5
14E
330
70
100
AcDbEntity
  8
Bemaßung
 62
     7
370
     9
100
AcDbPolyline
 90
        4
 70
     0
 43
0.0
 10
71.91098681020261
 20
113.9399649534959
 10
68.41107847774416
 20
114.4003399533809
 10
68.41107847774416
 20
113.4788843980557
 10
71.91098681020261
 20
113.9399649534959
  0
LINE
  5
14F
330
70
100
AcDbEntity
  8
Bemaßung
 62
     7
370
     9
100
AcDbLine
 10
68.41107847774416
 20
114.3971649533817
 30
0.0
 11
68.43824236662634
 21
114.3971649533817
 31
0.0
  0
LINE
  5
150
330
70
100
AcDbEntity
  8
Bemaßung
 62
     7
370
     9
100
AcDbLine
 10
68.41107847774416
 20
114.3971649533817
 30
0.0
 11
68.43824236662634
 21
114.3971649533817
 31
0.0
  0
LINE
  5
151
330
70
100
AcDbEntity
  8
Bemaßung
 62
     7
370
     9
100
AcDbLine
 10
68.41107847774416
 20
114.3463649533943
 30
0.0
 11
68.82418125541876
 21
114.3463649533943
 31
0.0
  0
LINE
  5
152
330
70
100
AcDbEntity
  8
Bemaßung
 62
     7
370
     9
100
AcDbLine
 10
68.41107847774416
 20
114.2952121756295
 30
0.0
 11
69.21012014421119
 21
114.2952121756295
 31
0.0
  0
LINE
  5
153
330
70
100
AcDbEntity
  8
Bemaßung
 62
     7
370
     9
100
AcDbLine
 10
68.41107847774416
 20
114.2444121756421
 30
0.0
 11
69.59605903300328
 21
114.2444121756421
 31
0.0
  0
LINE
  5
154
330
70
100
AcDbEntity
  8
Bemaßung
 62
     7
370
     9
100
AcDbLine
 10
68.41107847774416
 20
114.1936121756547
 30
0.0
 11
69.98164514401827
 21
114.1936121756547
 31
0.0
  0
LINE
  5
155
330
70
100
AcDbEntity
  8
Bemaßung
 62
     7
370
     9
100
AcDbLine
 10
68.41107847774416
 20
114.1428121756673
 30
0.0
 11
70.36758403281069
 21
114.1428121756673
 31
0.0
  0
LINE
  5
156
330
70
100
AcDbEntity
  8
Bemaßung
 62
     7
370
     9
100
AcDbLine
 10
68.41107847774416
 20
114.0920121756803
 30
0.0
 11
70.75352292160312
 21
114.0920121756803
 31
0.0
  0
LINE
  5
157
330
70
100
AcDbEntity
  8
Bemaßung
 62
     7
370
     9
100
AcDbLine
 10
68.41107847774416
 20
114.0415649534707
 30
0.0
 11
71.13946181039522
 21
114.0415649534707
 31
0.0
  0
LINE
  5
158
330
70
100
AcDbEntity
  8
Bemaßung
 62
     7
370
     9
100
AcDbLine
 10
68.41107847774416
 20
113.9907649534833
 30
0.0
 11
71.52504792141019
 21
113.9907649534833
 31
0.0
  0
LINE
  5
159
330
70
100
AcDbEntity
  8
Bemaßung
 62
     7
370
     9
100
AcDbLine
 10
68.41107847774416
 20
113.9399649534959
 30
0.0
 11
71.91098681020261
 21
113.9399649534959
 31
0.0
  0
LINE
  5
15A
330
70
100
AcDbEntity
  8
Bemaßung
 62
     7
370
     9
100
AcDbLine
 10
68.41107847774416
 20
113.4827649536104
 30
0.0
 11
68.43824236662634
 21
113.4827649536104
 31
0.0
  0
LINE
  5
15B
330
70
100
AcDbEntity
  8
Bemaßung
 62
     7
370
     9
100
AcDbLine
 10
68.41107847774416
 20
113.4827649536104
 30
0.0
 11
68.43824236662634
 21
113.4827649536104
 31
0.0
  0
LINE
  5
15C
330
70
100
AcDbEntity
  8
Bemaßung
 62
     7
370
     9
100
AcDbLine
 10
68.41107847774416
 20
113.5335649535975
 30
0.0
 11
68.82418125541876
 21
113.5335649535975
 31
0.0
  0
LINE
  5
15D
330
70
100
AcDbEntity
  8
Bemaßung
 62
     7
370
     9
100
AcDbLine
 10
68.41107847774416
 20
113.5840121758071
 30
0.0
 11
69.21012014421119
 21
113.5840121758071
 31
0.0
  0
LINE
  5
15E
330
70
100
AcDbEntity
  8
Bemaßung
 62
     7
370
     9
100
AcDbLine
 10
68.41107847774416
 20
113.6348121757945
 30
0.0
 11
69.59605903300328
 21
113.6348121757945
 31
0.0
  0
LINE
  5
15F
330
70
100
AcDbEntity
  8
Bemaßung
 62
     7
370
     9
100
AcDbLine
 10
68.41107847774416
 20
113.6856121757819
 30
0.0
 11
69.98164514401827
 21
113.6856121757819
 31
0.0
  0
LINE
  5
160
330
70
100
AcDbEntity
  8
Bemaßung
 62
     7
370
     9
100
AcDbLine
 10
68.41107847774416
 20
113.7364121757693
 30
0.0
 11
70.36758403281069
 21
113.7364121757693
 31
0.0
  0
LINE
  5
161
330
70
100
AcDbEntity
  8
Bemaßung
 62
     7
370
     9
100
AcDbLine
 10
68.41107847774416
 20
113.7872121757563
 30
0.0
 11
70.75352292160312
 21
113.7872121757563
 31
0.0
  0
LINE
  5
162
330
70
100
AcDbEntity
  8
Bemaßung
 62
     7
370
     9
100
AcDbLine
 10
68.41107847774416
 20
113.8383649535215
 30
0.0
 11
71.13946181039522
 21
113.8383649535215
 31
0.0
  0
LINE
  5
163
330
70
100
AcDbEntity
  8
Bemaßung
 62
     7
370
     9
100
AcDbLine
 10
68.41107847774416
 20
113.8891649535088
 30
0.0
 11
71.52504792141019
 21
113.8891649535088
 31
0.0
  0
LINE
  5
164
330
70
100
AcDbEntity
  8
Bemaßung
 62
     7
370
     9
100
AcDbLine
 10
68.41107847774416
 20
113.9399649534959
 30
0.0
 11
71.91098681020261
 21
113.9399649534959
 31
0.0
  0
LINE
  5
165
330
70
100
AcDbEntity
  8
Bemaßung
 62
     7
370
     9
100
AcDbLine
 10
68.91061181095267
 20
153.789037165756
 30
0.0
 11
68.91061181095267
 21
121.939553840385
 31
0.0
  0
LINE
  5
166
330
70
100
AcDbEntity
  8
Bemaßung
 62
     7
370
     9
100
AcDbLine
 10
68.91061181095267
 20
123.939803839885
 30
0.0
 11
57.61078681377765
 21
123.939803839885
 31
0.0
  0
LWPOLYLINE
  5
167
330
70
100
AcDbEntity
  8
Bemaßung
 62
     7
370
     9
100
AcDbPolyline
 90
        4
 70
     0
 43
0.0
 10
68.91061181095267
 20
123.939803839885
 10
65.41105625627197
 20
124.4005316175474
 10
65.41105625627197
 20
123.4787232844448
 10
68.91061181095267
 20
123.939803839885
  0
LINE
  5
168
330
70
100
AcDbEntity
  8
Bemaßung
 62
     7
370
     9
100
AcDbLine
 10
65.41105625627197
 20
124.3970038397708
 30
0.0
 11
65.43822014515384
 21
124.3970038397708
 31
0.0
  0
LINE
  5
169
330
70
100
AcDbEntity
  8
Bemaßung
 62
     7
370
     9
100
AcDbLine
 10
65.41105625627197
 20
124.3970038397708
 30
0.0
 11
65.43822014515384
 21
124.3970038397708
 31
0.0
  0
LINE
  5
16A
330
70
100
AcDbEntity
  8
Bemaßung
 62
     7
370
     9
100
AcDbLine
 10
65.41105625627197
 20
124.3462038397834
 30
0.0
 11
65.82380625616882
 21
124.3462038397834
 31
0.0
  0
LINE
  5
16B
330
70
100
AcDbEntity
  8
Bemaßung
 62
     7
370
     9
100
AcDbLine
 10
65.41105625627197
 20
124.295403839796
 30
0.0
 11
66.20974514496125
 21
124.295403839796
 31
0.0
  0
LINE
  5
16C
330
70
100
AcDbEntity
  8
Bemaßung
 62
     7
370
     9
100
AcDbLine
 10
65.41105625627197
 20
124.2442510620309
 30
0.0
 11
66.59568403375367
 21
124.2442510620309
 31
0.0
  0
LINE
  5
16D
330
70
100
AcDbEntity
  8
Bemaßung
 62
     7
370
     9
100
AcDbLine
 10
65.41105625627197
 20
124.1934510620438
 30
0.0
 11
66.98162292254576
 21
124.1934510620438
 31
0.0
  0
LINE
  5
16E
330
70
100
AcDbEntity
  8
Bemaßung
 62
     7
370
     9
100
AcDbLine
 10
65.41105625627197
 20
124.1426510620564
 30
0.0
 11
67.36720903356074
 21
124.1426510620564
 31
0.0
  0
LINE
  5
16F
330
70
100
AcDbEntity
  8
Bemaßung
 62
     7
370
     9
100
AcDbLine
 10
65.41105625627197
 20
124.0918510620691
 30
0.0
 11
67.75314792235317
 21
124.0918510620691
 31
0.0
  0
LINE
  5
170
330
70
100
AcDbEntity
  8
Bemaßung
 62
     7
370
     9
100
AcDbLine
 10
65.41105625627197
 20
124.041051062082
 30
0.0
 11
68.13908681114559
 21
124.041051062082
 31
0.0
  0
LINE
  5
171
330
70
100
AcDbEntity
  8
Bemaßung
 62
     7
370
     9
100
AcDbLine
 10
65.41105625627197
 20
123.9906038398724
 30
0.0
 11
68.5250256999377
 21
123.9906038398724
 31
0.0
  0
LINE
  5
172
330
70
100
AcDbEntity
  8
Bemaßung
 62
     7
370
     9
100
AcDbLine
 10
65.41105625627197
 20
123.939803839885
 30
0.0
 11
68.91061181095267
 21
123.939803839885
 31
0.0
  0
LINE
  5
173
330
70
100
AcDbEntity
  8
Bemaßung
 62
     7
370
     9
100
AcDbLine
 10
65.41105625627197
 20
123.4826038399992
 30
0.0
 11
65.43822014515384
 21
123.4826038399992
 31
0.0
  0
LINE
  5
174
330
70
100
AcDbEntity
  8
Bemaßung
 62
     7
370
     9
100
AcDbLine
 10
65.41105625627197
 20
123.4826038399992
 30
0.0
 11
65.43822014515384
 21
123.4826038399992
 31
0.0
  0
LINE
  5
175
330
70
100
AcDbEntity
  8
Bemaßung
 62
     7
370
     9
100
AcDbLine
 10
65.41105625627197
 20
123.5330510622088
 30
0.0
 11
65.82380625616882
 21
123.5330510622088
 31
0.0
  0
LINE
  5
176
330
70
100
AcDbEntity
  8
Bemaßung
 62
     7
370
     9
100
AcDbLine
 10
65.41105625627197
 20
123.5838510621962
 30
0.0
 11
66.20974514496125
 21
123.5838510621962
 31
0.0
  0
LINE
  5
177
330
70
100
AcDbEntity
  8
Bemaßung
 62
     7
370
     9
100
AcDbLine
 10
65.41105625627197
 20
123.6346510621836
 30
0.0
 11
66.59568403375367
 21
123.6346510621836
 31
0.0
  0
LINE
  5
178
330
70
100
AcDbEntity
  8
Bemaßung
 62
     7
370
     9
100
AcDbLine
 10
65.41105625627197
 20
123.6854510621707
 30
0.0
 11
66.98162292254576
 21
123.6854510621707
 31
0.0
  0
LINE
  5
179
330
70
100
AcDbEntity
  8
Bemaßung
 62
     7
370
     9
100
AcDbLine
 10
65.41105625627197
 20
123.736251062158
 30
0.0
 11
67.36720903356074
 21
123.736251062158
 31
0.0
  0
LINE
  5
17A
330
70
100
AcDbEntity
  8
Bemaßung
 62
     7
370
     9
100
AcDbLine
 10
65.41105625627197
 20
123.7874038399232
 30
0.0
 11
67.75314792235317
 21
123.7874038399232
 31
0.0
  0
LINE
  5
17B
330
70
100
AcDbEntity
  8
Bemaßung
 62
     7
370
     9
100
AcDbLine
 10
65.41105625627197
 20
123.8382038399102
 30
0.0
 11
68.13908681114559
 21
123.8382038399102
 31
0.0
  0
LINE
  5
17C
330
70
100
AcDbEntity
  8
Bemaßung
 62
     7
370
     9
100
AcDbLine
 10
65.41105625627197
 20
123.8890038398976
 30
0.0
 11
68.5250256999377
 21
123.8890038398976
 31
0.0
  0
LINE
  5
17D
330
70
100
AcDbEntity
  8
Bemaßung
 62
     7
370
     9
100
AcDbLine
 10
65.41105625627197
 20
123.939803839885
 30
0.0
 11
68.91061181095267
 21
123.939803839885
 31
0.0
  0
LWPOLYLINE
  5
17E
330
70
100
AcDbEntity
  8
Bemaßung
 62
     7
370
     9
100
AcDbPolyline
 90
        4
 70
     0
 43
0.0
 10
57.61078681377765
 20
123.939803839885
 10
61.11069514623578
 20
123.4787232844448
 10
61.11069514623578
 20
124.4005316175474
 10
57.61078681377765
 20
123.939803839885
  0
LINE
  5
17F
330
70
100
AcDbEntity
  8
Bemaßung
 62
     7
370
     9
100
AcDbLine
 10
61.11069514623578
 20
123.4826038399992
 30
0.0
 11
61.08353125735392
 21
123.4826038399992
 31
0.0
  0
LINE
  5
180
330
70
100
AcDbEntity
  8
Bemaßung
 62
     7
370
     9
100
AcDbLine
 10
61.11069514623578
 20
123.4826038399992
 30
0.0
 11
61.08353125735392
 21
123.4826038399992
 31
0.0
  0
LINE
  5
181
330
70
100
AcDbEntity
  8
Bemaßung
 62
     7
370
     9
100
AcDbLine
 10
61.11069514623578
 20
123.5330510622088
 30
0.0
 11
60.6975923685615
 21
123.5330510622088
 31
0.0
  0
LINE
  5
182
330
70
100
AcDbEntity
  8
Bemaßung
 62
     7
370
     9
100
AcDbLine
 10
61.11069514623578
 20
123.5838510621962
 30
0.0
 11
60.31165347976908
 21
123.5838510621962
 31
0.0
  0
LINE
  5
183
330
70
100
AcDbEntity
  8
Bemaßung
 62
     7
370
     9
100
AcDbLine
 10
61.11069514623578
 20
123.6346510621836
 30
0.0
 11
59.92606736875409
 21
123.6346510621836
 31
0.0
  0
LINE
  5
184
330
70
100
AcDbEntity
  8
Bemaßung
 62
     7
370
     9
100
AcDbLine
 10
61.11069514623578
 20
123.6854510621707
 30
0.0
 11
59.540128479962
 21
123.6854510621707
 31
0.0
  0
LINE
  5
185
330
70
100
AcDbEntity
  8
Bemaßung
 62
     7
370
     9
100
AcDbLine
 10
61.11069514623578
 20
123.736251062158
 30
0.0
 11
59.15418959116958
 21
123.736251062158
 31
0.0
  0
LINE
  5
186
330
70
100
AcDbEntity
  8
Bemaßung
 62
     7
370
     9
100
AcDbLine
 10
61.11069514623578
 20
123.7874038399232
 30
0.0
 11
58.76825070237715
 21
123.7874038399232
 31
0.0
  0
LINE
  5
187
330
70
100
AcDbEntity
  8
Bemaßung
 62
     7
370
     9
100
AcDbLine
 10
61.11069514623578
 20
123.8382038399102
 30
0.0
 11
58.38266459136217
 21
123.8382038399102
 31
0.0
  0
LINE
  5
188
330
70
100
AcDbEntity
  8
Bemaßung
 62
     7
370
     9
100
AcDbLine
 10
61.11069514623578
 20
123.8890038398976
 30
0.0
 11
57.99672570257007
 21
123.8890038398976
 31
0.0
  0
LINE
  5
189
330
70
100
AcDbEntity
  8
Bemaßung
 62
     7
370
     9
100
AcDbLine
 10
61.11069514623578
 20
123.939803839885
 30
0.0
 11
57.61078681377765
 21
123.939803839885
 31
0.0
  0
LINE
  5
18A
330
70
100
AcDbEntity
  8
Bemaßung
 62
     7
370
     9
100
AcDbLine
 10
61.11069514623578
 20
124.3970038397708
 30
0.0
 11
61.08353125735392
 21
124.3970038397708
 31
0.0
  0
LINE
  5
18B
330
70
100
AcDbEntity
  8
Bemaßung
 62
     7
370
     9
100
AcDbLine
 10
61.11069514623578
 20
124.3970038397708
 30
0.0
 11
61.08353125735392
 21
124.3970038397708
 31
0.0
  0
LINE
  5
18C
330
70
100
AcDbEntity
  8
Bemaßung
 62
     7
370
     9
100
AcDbLine
 10
61.11069514623578
 20
124.3462038397834
 30
0.0
 11
60.6975923685615
 21
124.3462038397834
 31
0.0
  0
LINE
  5
18D
330
70
100
AcDbEntity
  8
Bemaßung
 62
     7
370
     9
100
AcDbLine
 10
61.11069514623578
 20
124.295403839796
 30
0.0
 11
60.31165347976908
 21
124.295403839796
 31
0.0
  0
LINE
  5
18E
330
70
100
AcDbEntity
  8
Bemaßung
 62
     7
370
     9
100
AcDbLine
 10
61.11069514623578
 20
124.2442510620309
 30
0.0
 11
59.92606736875409
 21
124.2442510620309
 31
0.0
  0
LINE
  5
18F
330
70
100
AcDbEntity
  8
Bemaßung
 62
     7
370
     9
100
AcDbLine
 10
61.11069514623578
 20
124.1934510620438
 30
0.0
 11
59.540128479962
 21
124.1934510620438
 31
0.0
  0
LINE
  5
190
330
70
100
AcDbEntity
  8
Bemaßung
 62
     7
370
     9
100
AcDbLine
 10
61.11069514623578
 20
124.1426510620564
 30
0.0
 11
59.15418959116958
 21
124.1426510620564
 31
0.0
  0
LINE
  5
191
330
70
100
AcDbEntity
  8
Bemaßung
 62
     7
370
     9
100
AcDbLine
 10
61.11069514623578
 20
124.0918510620691
 30
0.0
 11
58.76825070237715
 21
124.0918510620691
 31
0.0
  0
LINE
  5
192
330
70
100
AcDbEntity
  8
Bemaßung
 62
     7
370
     9
100
AcDbLine
 10
61.11069514623578
 20
124.041051062082
 30
0.0
 11
58.38266459136217
 21
124.041051062082
 31
0.0
  0
LINE
  5
193
330
70
100
AcDbEntity
  8
Bemaßung
 62
     7
370
     9
100
AcDbLine
 10
61.11069514623578
 20
123.9906038398724
 30
0.0
 11
57.99672570257007
 21
123.9906038398724
 31
0.0
  0
LINE
  5
194
330
70
100
AcDbEntity
  8
Bemaßung
 62
     7
370
     9
100
AcDbLine
 10
61.11069514623578
 20
123.939803839885
 30
0.0
 11
57.61078681377765
 21
123.939803839885
 31
0.0
  0
LINE
  5
195
330
70
100
AcDbEntity
  8
Bemaßung
 62
     7
370
     9
100
AcDbLine
 10
58.81093681347763
 20
155.4428593875648
 30
0.0
 11
45.61105070566635
 21
155.4428593875648
 31
0.0
  0
LINE
  5
196
330
70
100
AcDbEntity
  8
Bemaßung
 62
     7
370
     9
100
AcDbLine
 10
58.01118959145508
 20
133.9424649484952
 30
0.0
 11
45.61105070566635
 21
133.9424649484952
 31
0.0
  0
LINE
  5
197
330
70
100
AcDbEntity
  8
Bemaßung
 62
     7
370
     9
100
AcDbLine
 10
47.61094792738855
 20
155.4428593875648
 30
0.0
 11
47.61094792738855
 21
133.9424649484952
 31
0.0
  0
LWPOLYLINE
  5
198
330
70
100
AcDbEntity
  8
Bemaßung
 62
     7
370
     9
100
AcDbPolyline
 90
        4
 70
     0
 43
0.0
 10
47.61094792738855
 20
155.4428593875648
 10
47.14986737194834
 20
151.9425982773286
 10
48.07202848282877
 20
151.9425982773286
 10
47.61094792738855
 20
155.4428593875648
  0
LINE
  5
199
330
70
100
AcDbEntity
  8
Bemaßung
 62
     7
370
     9
100
AcDbLine
 10
47.15374792750275
 20
151.9425982773286
 30
0.0
 11
47.15374792750275
 21
151.9697621662108
 31
0.0
  0
LINE
  5
19A
330
70
100
AcDbEntity
  8
Bemaßung
 62
     7
370
     9
100
AcDbLine
 10
47.15374792750275
 20
151.9425982773286
 30
0.0
 11
47.15374792750275
 21
151.9697621662108
 31
0.0
  0
LINE
  5
19B
330
70
100
AcDbEntity
  8
Bemaßung
 62
     7
370
     9
100
AcDbLine
 10
47.20454792749014
 20
151.9425982773286
 30
0.0
 11
47.20454792749014
 21
152.3557010550032
 31
0.0
  0
LINE
  5
19C
330
70
100
AcDbEntity
  8
Bemaßung
 62
     7
370
     9
100
AcDbLine
 10
47.25499514969976
 20
151.9425982773286
 30
0.0
 11
47.25499514969976
 21
152.7412871660179
 31
0.0
  0
LINE
  5
19D
330
70
100
AcDbEntity
  8
Bemaßung
 62
     7
370
     9
100
AcDbLine
 10
47.30579514968714
 20
151.9425982773286
 30
0.0
 11
47.30579514968714
 21
153.1275788325881
 31
0.0
  0
LINE
  5
19E
330
70
100
AcDbEntity
  8
Bemaßung
 62
     7
370
     9
100
AcDbLine
 10
47.35659514967452
 20
151.9425982773286
 30
0.0
 11
47.35659514967452
 21
153.5131649436027
 31
0.0
  0
LINE
  5
19F
330
70
100
AcDbEntity
  8
Bemaßung
 62
     7
370
     9
100
AcDbLine
 10
47.40739514966159
 20
151.9425982773286
 30
0.0
 11
47.40739514966159
 21
153.8991038323952
 31
0.0
  0
LINE
  5
1A0
330
70
100
AcDbEntity
  8
Bemaßung
 62
     7
370
     9
100
AcDbLine
 10
47.45819514964897
 20
151.9425982773286
 30
0.0
 11
47.45819514964897
 21
154.2846899434098
 31
0.0
  0
LINE
  5
1A1
330
70
100
AcDbEntity
  8
Bemaßung
 62
     7
370
     9
100
AcDbLine
 10
47.50934792741411
 20
151.9425982773286
 30
0.0
 11
47.50934792741411
 21
154.67098160998
 31
0.0
  0
LINE
  5
1A2
330
70
100
AcDbEntity
  8
Bemaßung
 62
     7
370
     9
100
AcDbLine
 10
47.56014792740117
 20
151.9425982773286
 30
0.0
 11
47.56014792740117
 21
155.0565677209946
 31
0.0
  0
LINE
  5
1A3
330
70
100
AcDbEntity
  8
Bemaßung
 62
     7
370
     9
100
AcDbLine
 10
47.61094792738855
 20
151.9425982773286
 30
0.0
 11
47.61094792738855
 21
155.4428593875648
 31
0.0
  0
LINE
  5
1A4
330
70
100
AcDbEntity
  8
Bemaßung
 62
     7
370
     9
100
AcDbLine
 10
48.06814792727435
 20
151.9425982773286
 30
0.0
 11
48.06814792727435
 21
151.9697621662108
 31
0.0
  0
LINE
  5
1A5
330
70
100
AcDbEntity
  8
Bemaßung
 62
     7
370
     9
100
AcDbLine
 10
48.06814792727435
 20
151.9425982773286
 30
0.0
 11
48.06814792727435
 21
151.9697621662108
 31
0.0
  0
LINE
  5
1A6
330
70
100
AcDbEntity
  8
Bemaßung
 62
     7
370
     9
100
AcDbLine
 10
48.01699514950922
 20
151.9425982773286
 30
0.0
 11
48.01699514950922
 21
152.3557010550032
 31
0.0
  0
LINE
  5
1A7
330
70
100
AcDbEntity
  8
Bemaßung
 62
     7
370
     9
100
AcDbLine
 10
47.96619514952214
 20
151.9425982773286
 30
0.0
 11
47.96619514952214
 21
152.7412871660179
 31
0.0
  0
LINE
  5
1A8
330
70
100
AcDbEntity
  8
Bemaßung
 62
     7
370
     9
100
AcDbLine
 10
47.91539514953476
 20
151.9425982773286
 30
0.0
 11
47.91539514953476
 21
153.1275788325881
 31
0.0
  0
LINE
  5
1A9
330
70
100
AcDbEntity
  8
Bemaßung
 62
     7
370
     9
100
AcDbLine
 10
47.86459514954738
 20
151.9425982773286
 30
0.0
 11
47.86459514954738
 21
153.5131649436027
 31
0.0
  0
LINE
  5
1AA
330
70
100
AcDbEntity
  8
Bemaßung
 62
     7
370
     9
100
AcDbLine
 10
47.81379514955999
 20
151.9425982773286
 30
0.0
 11
47.81379514955999
 21
153.8991038323952
 31
0.0
  0
LINE
  5
1AB
330
70
100
AcDbEntity
  8
Bemaßung
 62
     7
370
     9
100
AcDbLine
 10
47.76334792735037
 20
151.9425982773286
 30
0.0
 11
47.76334792735037
 21
154.2846899434098
 31
0.0
  0
LINE
  5
1AC
330
70
100
AcDbEntity
  8
Bemaßung
 62
     7
370
     9
100
AcDbLine
 10
47.71254792736332
 20
151.9425982773286
 30
0.0
 11
47.71254792736332
 21
154.67098160998
 31
0.0
  0
LINE
  5
1AD
330
70
100
AcDbEntity
  8
Bemaßung
 62
     7
370
     9
100
AcDbLine
 10
47.66174792737594
 20
151.9425982773286
 30
0.0
 11
47.66174792737594
 21
155.0565677209946
 31
0.0
  0
LINE
  5
1AE
330
70
100
AcDbEntity
  8
Bemaßung
 62
     7
370
     9
100
AcDbLine
 10
47.61094792738855
 20
151.9425982773286
 30
0.0
 11
47.61094792738855
 21
155.4428593875648
 31
0.0
  0
LWPOLYLINE
  5
1AF
330
70
100
AcDbEntity
  8
Bemaßung
 62
     7
370
     9
100
AcDbPolyline
 90
        4
 70
     0
 43
0.0
 10
47.61094792738855
 20
133.9424649484952
 10
48.07202848282877
 20
137.4423732809537
 10
47.14986737194834
 20
137.4423732809537
 10
47.61094792738855
 20
133.9424649484952
  0
LINE
  5
1B0
330
70
100
AcDbEntity
  8
Bemaßung
 62
     7
370
     9
100
AcDbLine
 10
48.06814792727435
 20
137.4423732809537
 30
0.0
 11
48.06814792727435
 21
137.4152093920715
 31
0.0
  0
LINE
  5
1B1
330
70
100
AcDbEntity
  8
Bemaßung
 62
     7
370
     9
100
AcDbLine
 10
48.06814792727435
 20
137.4423732809537
 30
0.0
 11
48.06814792727435
 21
137.4152093920715
 31
0.0
  0
LINE
  5
1B2
330
70
100
AcDbEntity
  8
Bemaßung
 62
     7
370
     9
100
AcDbLine
 10
48.01699514950922
 20
137.4423732809537
 30
0.0
 11
48.01699514950922
 21
137.0292705032791
 31
0.0
  0
LINE
  5
1B3
330
70
100
AcDbEntity
  8
Bemaßung
 62
     7
370
     9
100
AcDbLine
 10
47.96619514952214
 20
137.4423732809537
 30
0.0
 11
47.96619514952214
 21
136.643331614487
 31
0.0
  0
LINE
  5
1B4
330
70
100
AcDbEntity
  8
Bemaßung
 62
     7
370
     9
100
AcDbLine
 10
47.91539514953476
 20
137.4423732809537
 30
0.0
 11
47.91539514953476
 21
136.2573927256945
 31
0.0
  0
LINE
  5
1B5
330
70
100
AcDbEntity
  8
Bemaßung
 62
     7
370
     9
100
AcDbLine
 10
47.86459514954738
 20
137.4423732809537
 30
0.0
 11
47.86459514954738
 21
135.8718066146796
 31
0.0
  0
LINE
  5
1B6
330
70
100
AcDbEntity
  8
Bemaßung
 62
     7
370
     9
100
AcDbLine
 10
47.81379514955999
 20
137.4423732809537
 30
0.0
 11
47.81379514955999
 21
135.4858677258871
 31
0.0
  0
LINE
  5
1B7
330
70
100
AcDbEntity
  8
Bemaßung
 62
     7
370
     9
100
AcDbLine
 10
47.76334792735037
 20
137.4423732809537
 30
0.0
 11
47.76334792735037
 21
135.099928837095
 31
0.0
  0
LINE
  5
1B8
330
70
100
AcDbEntity
  8
Bemaßung
 62
     7
370
     9
100
AcDbLine
 10
47.71254792736332
 20
137.4423732809537
 30
0.0
 11
47.71254792736332
 21
134.7139899483026
 31
0.0
  0
LINE
  5
1B9
330
70
100
AcDbEntity
  8
Bemaßung
 62
     7
370
     9
100
AcDbLine
 10
47.66174792737594
 20
137.4423732809537
 30
0.0
 11
47.66174792737594
 21
134.3280510595102
 31
0.0
  0
LINE
  5
1BA
330
70
100
AcDbEntity
  8
Bemaßung
 62
     7
370
     9
100
AcDbLine
 10
47.61094792738855
 20
137.4423732809537
 30
0.0
 11
47.61094792738855
 21
133.9424649484952
 31
0.0
  0
LINE
  5
1BB
330
70
100
AcDbEntity
  8
Bemaßung
 62
     7
370
     9
100
AcDbLine
 10
47.15374792750275
 20
137.4423732809537
 30
0.0
 11
47.15374792750275
 21
137.4152093920715
 31
0.0
  0
LINE
  5
1BC
330
70
100
AcDbEntity
  8
Bemaßung
 62
     7
370
     9
100
AcDbLine
 10
47.15374792750275
 20
137.4423732809537
 30
0.0
 11
47.15374792750275
 21
137.4152093920715
 31
0.0
  0
LINE
  5
1BD
330
70
100
AcDbEntity
  8
Bemaßung
 62
     7
370
     9
100
AcDbLine
 10
47.20454792749014
 20
137.4423732809537
 30
0.0
 11
47.20454792749014
 21
137.0292705032791
 31
0.0
  0
LINE
  5
1BE
330
70
100
AcDbEntity
  8
Bemaßung
 62
     7
370
     9
100
AcDbLine
 10
47.25499514969976
 20
137.4423732809537
 30
0.0
 11
47.25499514969976
 21
136.643331614487
 31
0.0
  0
LINE
  5
1BF
330
70
100
AcDbEntity
  8
Bemaßung
 62
     7
370
     9
100
AcDbLine
 10
47.30579514968714
 20
137.4423732809537
 30
0.0
 11
47.30579514968714
 21
136.2573927256945
 31
0.0
  0
LINE
  5
1C0
330
70
100
AcDbEntity
  8
Bemaßung
 62
     7
370
     9
100
AcDbLine
 10
47.35659514967452
 20
137.4423732809537
 30
0.0
 11
47.35659514967452
 21
135.8718066146796
 31
0.0
  0
LINE
  5
1C1
330
70
100
AcDbEntity
  8
Bemaßung
 62
     7
370
     9
100
AcDbLine
 10
47.40739514966159
 20
137.4423732809537
 30
0.0
 11
47.40739514966159
 21
135.4858677258871
 31
0.0
  0
LINE
  5
1C2
330
70
100
AcDbEntity
  8
Bemaßung
 62
     7
370
     9
100
AcDbLine
 10
47.45819514964897
 20
137.4423732809537
 30
0.0
 11
47.45819514964897
 21
135.099928837095
 31
0.0
  0
LINE
  5
1C3
330
70
100
AcDbEntity
  8
Bemaßung
 62
     7
370
     9
100
AcDbLine
 10
47.50934792741411
 20
137.4423732809537
 30
0.0
 11
47.50934792741411
 21
134.7139899483026
 31
0.0
  0
LINE
  5
1C4
330
70
100
AcDbEntity
  8
Bemaßung
 62
     7
370
     9
100
AcDbLine
 10
47.56014792740117
 20
137.4423732809537
 30
0.0
 11
47.56014792740117
 21
134.3280510595102
 31
0.0
  0
LINE
  5
1C5
330
70
100
AcDbEntity
  8
Bemaßung
 62
     7
370
     9
100
AcDbLine
 10
47.61094792738855
 20
137.4423732809537
 30
0.0
 11
47.61094792738855
 21
133.9424649484952
 31
0.0
  0
LINE
  5
1C6
330
70
100
AcDbEntity
  8
Bemaßung
 62
     7
370
     9
100
AcDbLine
 10
114.4289650341612
 20
164.4422204964259
 30
0.0
 11
94.5263011502479
 21
164.4422204964259
 31
0.0
  0
LINE
  5
1C7
330
70
100
AcDbEntity
  8
Bemaßung
 62
     7
370
     9
100
AcDbLine
 10
120.5288455881919
 20
133.9424649484952
 30
0.0
 11
94.5263011502479
 21
133.9424649484952
 31
0.0
  0
LINE
  5
1C8
330
70
100
AcDbEntity
  8
Bemaßung
 62
     7
370
     9
100
AcDbLine
 10
96.52655114974788
 20
164.4422204964259
 30
0.0
 11
96.52655114974788
 21
133.9424649484952
 31
0.0
  0
LWPOLYLINE
  5
1C9
330
70
100
AcDbEntity
  8
Bemaßung
 62
     7
370
     9
100
AcDbPolyline
 90
        4
 70
     0
 43
0.0
 10
96.52655114974788
 20
164.4422204964259
 10
96.06547059430766
 20
160.9423121639677
 10
96.98692614963288
 20
160.9423121639677
 10
96.52655114974788
 20
164.4422204964259
  0
LINE
  5
1CA
330
70
100
AcDbEntity
  8
Bemaßung
 62
     7
370
     9
100
AcDbLine
 10
96.06935114986207
 20
160.9423121639677
 30
0.0
 11
96.06935114986207
 21
160.9694760528496
 31
0.0
  0
LINE
  5
1CB
330
70
100
AcDbEntity
  8
Bemaßung
 62
     7
370
     9
100
AcDbLine
 10
96.06935114986207
 20
160.9423121639677
 30
0.0
 11
96.06935114986207
 21
160.9694760528496
 31
0.0
  0
LINE
  5
1CC
330
70
100
AcDbEntity
  8
Bemaßung
 62
     7
370
     9
100
AcDbLine
 10
96.12015114984947
 20
160.9423121639677
 30
0.0
 11
96.12015114984947
 21
161.355414941642
 31
0.0
  0
LINE
  5
1CD
330
70
100
AcDbEntity
  8
Bemaßung
 62
     7
370
     9
100
AcDbLine
 10
96.17059837205907
 20
160.9423121639677
 30
0.0
 11
96.17059837205907
 21
161.7417066082122
 31
0.0
  0
LINE
  5
1CE
330
70
100
AcDbEntity
  8
Bemaßung
 62
     7
370
     9
100
AcDbLine
 10
96.22139837204647
 20
160.9423121639677
 30
0.0
 11
96.22139837204647
 21
162.1272927192269
 31
0.0
  0
LINE
  5
1CF
330
70
100
AcDbEntity
  8
Bemaßung
 62
     7
370
     9
100
AcDbLine
 10
96.27219837203384
 20
160.9423121639677
 30
0.0
 11
96.27219837203384
 21
162.5128788302415
 31
0.0
  0
LINE
  5
1D0
330
70
100
AcDbEntity
  8
Bemaßung
 62
     7
370
     9
100
AcDbLine
 10
96.3229983720209
 20
160.9423121639677
 30
0.0
 11
96.3229983720209
 21
162.898817719034
 31
0.0
  0
LINE
  5
1D1
330
70
100
AcDbEntity
  8
Bemaßung
 62
     7
370
     9
100
AcDbLine
 10
96.37379837200828
 20
160.9423121639677
 30
0.0
 11
96.37379837200828
 21
163.2851093856041
 31
0.0
  0
LINE
  5
1D2
330
70
100
AcDbEntity
  8
Bemaßung
 62
     7
370
     9
100
AcDbLine
 10
96.42495114977343
 20
160.9423121639677
 30
0.0
 11
96.42495114977343
 21
163.6706954966188
 31
0.0
  0
LINE
  5
1D3
330
70
100
AcDbEntity
  8
Bemaßung
 62
     7
370
     9
100
AcDbLine
 10
96.47575114976049
 20
160.9423121639677
 30
0.0
 11
96.47575114976049
 21
164.0562816076335
 31
0.0
  0
LINE
  5
1D4
330
70
100
AcDbEntity
  8
Bemaßung
 62
     7
370
     9
100
AcDbLine
 10
96.52655114974788
 20
160.9423121639677
 30
0.0
 11
96.52655114974788
 21
164.4422204964259
 31
0.0
  0
LINE
  5
1D5
330
70
100
AcDbEntity
  8
Bemaßung
 62
     7
370
     9
100
AcDbLine
 10
96.98375114963369
 20
160.9423121639677
 30
0.0
 11
96.98375114963369
 21
160.9694760528496
 31
0.0
  0
LINE
  5
1D6
330
70
100
AcDbEntity
  8
Bemaßung
 62
     7
370
     9
100
AcDbLine
 10
96.98375114963369
 20
160.9423121639677
 30
0.0
 11
96.98375114963369
 21
160.9694760528496
 31
0.0
  0
LINE
  5
1D7
330
70
100
AcDbEntity
  8
Bemaßung
 62
     7
370
     9
100
AcDbLine
 10
96.93259837186852
 20
160.9423121639677
 30
0.0
 11
96.93259837186852
 21
161.355414941642
 31
0.0
  0
LINE
  5
1D8
330
70
100
AcDbEntity
  8
Bemaßung
 62
     7
370
     9
100
AcDbLine
 10
96.88179837188146
 20
160.9423121639677
 30
0.0
 11
96.88179837188146
 21
161.7417066082122
 31
0.0
  0
LINE
  5
1D9
330
70
100
AcDbEntity
  8
Bemaßung
 62
     7
370
     9
100
AcDbLine
 10
96.83099837189409
 20
160.9423121639677
 30
0.0
 11
96.83099837189409
 21
162.1272927192269
 31
0.0
  0
LINE
  5
1DA
330
70
100
AcDbEntity
  8
Bemaßung
 62
     7
370
     9
100
AcDbLine
 10
96.78019837190671
 20
160.9423121639677
 30
0.0
 11
96.78019837190671
 21
162.5128788302415
 31
0.0
  0
LINE
  5
1DB
330
70
100
AcDbEntity
  8
Bemaßung
 62
     7
370
     9
100
AcDbLine
 10
96.72939837191933
 20
160.9423121639677
 30
0.0
 11
96.72939837191933
 21
162.898817719034
 31
0.0
  0
LINE
  5
1DC
330
70
100
AcDbEntity
  8
Bemaßung
 62
     7
370
     9
100
AcDbLine
 10
96.67895114970971
 20
160.9423121639677
 30
0.0
 11
96.67895114970971
 21
163.2851093856041
 31
0.0
  0
LINE
  5
1DD
330
70
100
AcDbEntity
  8
Bemaßung
 62
     7
370
     9
100
AcDbLine
 10
96.62815114972264
 20
160.9423121639677
 30
0.0
 11
96.62815114972264
 21
163.6706954966188
 31
0.0
  0
LINE
  5
1DE
330
70
100
AcDbEntity
  8
Bemaßung
 62
     7
370
     9
100
AcDbLine
 10
96.57735114973526
 20
160.9423121639677
 30
0.0
 11
96.57735114973526
 21
164.0562816076335
 31
0.0
  0
LINE
  5
1DF
330
70
100
AcDbEntity
  8
Bemaßung
 62
     7
370
     9
100
AcDbLine
 10
96.52655114974788
 20
160.9423121639677
 30
0.0
 11
96.52655114974788
 21
164.4422204964259
 31
0.0
  0
LWPOLYLINE
  5
1E0
330
70
100
AcDbEntity
  8
Bemaßung
 62
     7
370
     9
100
AcDbPolyline
 90
        4
 70
     0
 43
0.0
 10
96.52655114974788
 20
133.9424649484952
 10
96.98692614963288
 20
137.4423732809537
 10
96.06547059430766
 20
137.4423732809537
 10
96.52655114974788
 20
133.9424649484952
  0
LINE
  5
1E1
330
70
100
AcDbEntity
  8
Bemaßung
 62
     7
370
     9
100
AcDbLine
 10
96.98375114963369
 20
137.4423732809537
 30
0.0
 11
96.98375114963369
 21
137.4152093920715
 31
0.0
  0
LINE
  5
1E2
330
70
100
AcDbEntity
  8
Bemaßung
 62
     7
370
     9
100
AcDbLine
 10
96.98375114963369
 20
137.4423732809537
 30
0.0
 11
96.98375114963369
 21
137.4152093920715
 31
0.0
  0
LINE
  5
1E3
330
70
100
AcDbEntity
  8
Bemaßung
 62
     7
370
     9
100
AcDbLine
 10
96.93259837186852
 20
137.4423732809537
 30
0.0
 11
96.93259837186852
 21
137.0292705032791
 31
0.0
  0
LINE
  5
1E4
330
70
100
AcDbEntity
  8
Bemaßung
 62
     7
370
     9
100
AcDbLine
 10
96.88179837188146
 20
137.4423732809537
 30
0.0
 11
96.88179837188146
 21
136.643331614487
 31
0.0
  0
LINE
  5
1E5
330
70
100
AcDbEntity
  8
Bemaßung
 62
     7
370
     9
100
AcDbLine
 10
96.83099837189409
 20
137.4423732809537
 30
0.0
 11
96.83099837189409
 21
136.2573927256945
 31
0.0
  0
LINE
  5
1E6
330
70
100
AcDbEntity
  8
Bemaßung
 62
     7
370
     9
100
AcDbLine
 10
96.78019837190671
 20
137.4423732809537
 30
0.0
 11
96.78019837190671
 21
135.8718066146796
 31
0.0
  0
LINE
  5
1E7
330
70
100
AcDbEntity
  8
Bemaßung
 62
     7
370
     9
100
AcDbLine
 10
96.72939837191933
 20
137.4423732809537
 30
0.0
 11
96.72939837191933
 21
135.4858677258871
 31
0.0
  0
LINE
  5
1E8
330
70
100
AcDbEntity
  8
Bemaßung
 62
     7
370
     9
100
AcDbLine
 10
96.67895114970971
 20
137.4423732809537
 30
0.0
 11
96.67895114970971
 21
135.099928837095
 31
0.0
  0
LINE
  5
1E9
330
70
100
AcDbEntity
  8
Bemaßung
 62
     7
370
     9
100
AcDbLine
 10
96.62815114972264
 20
137.4423732809537
 30
0.0
 11
96.62815114972264
 21
134.7139899483026
 31
0.0
  0
LINE
  5
1EA
330
70
100
AcDbEntity
  8
Bemaßung
 62
     7
370
     9
100
AcDbLine
 10
96.57735114973526
 20
137.4423732809537
 30
0.0
 11
96.57735114973526
 21
134.3280510595102
 31
0.0
  0
LINE
  5
1EB
330
70
100
AcDbEntity
  8
Bemaßung
 62
     7
370
     9
100
AcDbLine
 10
96.52655114974788
 20
137.4423732809537
 30
0.0
 11
96.52655114974788
 21
133.9424649484952
 31
0.0
  0
LINE
  5
1EC
330
70
100
AcDbEntity
  8
Bemaßung
 62
     7
370
     9
100
AcDbLine
 10
96.06935114986207
 20
137.4423732809537
 30
0.0
 11
96.06935114986207
 21
137.4152093920715
 31
0.0
  0
LINE
  5
1ED
330
70
100
AcDbEntity
  8
Bemaßung
 62
     7
370
     9
100
AcDbLine
 10
96.06935114986207
 20
137.4423732809537
 30
0.0
 11
96.06935114986207
 21
137.4152093920715
 31
0.0
  0
LINE
  5
1EE
330
70
100
AcDbEntity
  8
Bemaßung
 62
     7
370
     9
100
AcDbLine
 10
96.12015114984947
 20
137.4423732809537
 30
0.0
 11
96.12015114984947
 21
137.0292705032791
 31
0.0
  0
LINE
  5
1EF
330
70
100
AcDbEntity
  8
Bemaßung
 62
     7
370
     9
100
AcDbLine
 10
96.17059837205907
 20
137.4423732809537
 30
0.0
 11
96.17059837205907
 21
136.643331614487
 31
0.0
  0
LINE
  5
1F0
330
70
100
AcDbEntity
  8
Bemaßung
 62
     7
370
     9
100
AcDbLine
 10
96.22139837204647
 20
137.4423732809537
 30
0.0
 11
96.22139837204647
 21
136.2573927256945
 31
0.0
  0
LINE
  5
1F1
330
70
100
AcDbEntity
  8
Bemaßung
 62
     7
370
     9
100
AcDbLine
 10
96.27219837203384
 20
137.4423732809537
 30
0.0
 11
96.27219837203384
 21
135.8718066146796
 31
0.0
  0
LINE
  5
1F2
330
70
100
AcDbEntity
  8
Bemaßung
 62
     7
370
     9
100
AcDbLine
 10
96.3229983720209
 20
137.4423732809537
 30
0.0
 11
96.3229983720209
 21
135.4858677258871
 31
0.0
  0
LINE
  5
1F3
330
70
100
AcDbEntity
  8
Bemaßung
 62
     7
370
     9
100
AcDbLine
 10
96.37379837200828
 20
137.4423732809537
 30
0.0
 11
96.37379837200828
 21
135.099928837095
 31
0.0
  0
LINE
  5
1F4
330
70
100
AcDbEntity
  8
Bemaßung
 62
     7
370
     9
100
AcDbLine
 10
96.42495114977343
 20
137.4423732809537
 30
0.0
 11
96.42495114977343
 21
134.7139899483026
 31
0.0
  0
LINE
  5
1F5
330
70
100
AcDbEntity
  8
Bemaßung
 62
     7
370
     9
100
AcDbLine
 10
96.47575114976049
 20
137.4423732809537
 30
0.0
 11
96.47575114976049
 21
134.3280510595102
 31
0.0
  0
LINE
  5
1F6
330
70
100
AcDbEntity
  8
Bemaßung
 62
     7
370
     9
100
AcDbLine
 10
96.52655114974788
 20
137.4423732809537
 30
0.0
 11
96.52655114974788
 21
133.9424649484952
 31
0.0
  0
LINE
  5
1F7
330
70
100
AcDbEntity
  8
Bemaßung
 62
     7
370
     9
100
AcDbLine
 10
112.528903923525
 20
153.4422566102871
 30
0.0
 11
112.528903923525
 21
121.939553840385
 31
0.0
  0
LINE
  5
1F8
330
70
100
AcDbEntity
  8
Bemaßung
 62
     7
370
     9
100
AcDbLine
 10
120.5288455881919
 20
133.9424649484952
 30
0.0
 11
120.5288455881919
 21
121.939553840385
 31
0.0
  0
LINE
  5
1F9
330
70
100
AcDbEntity
  8
Bemaßung
 62
     7
370
     9
100
AcDbLine
 10
112.528903923525
 20
123.939803839885
 30
0.0
 11
120.5288455881919
 21
123.939803839885
 31
0.0
  0
LWPOLYLINE
  5
1FA
330
70
100
AcDbEntity
  8
Bemaßung
 62
     7
370
     9
100
AcDbPolyline
 90
        4
 70
     0
 43
0.0
 10
112.528903923525
 20
123.939803839885
 10
116.0291650337612
 20
123.4787232844448
 10
116.0291650337612
 20
124.4005316175474
 10
112.528903923525
 20
123.939803839885
  0
LINE
  5
1FB
330
70
100
AcDbEntity
  8
Bemaßung
 62
     7
370
     9
100
AcDbLine
 10
116.0291650337612
 20
123.4826038399992
 30
0.0
 11
116.0016483671013
 21
123.4826038399992
 31
0.0
  0
LINE
  5
1FC
330
70
100
AcDbEntity
  8
Bemaßung
 62
     7
370
     9
100
AcDbLine
 10
116.0291650337612
 20
123.4826038399992
 30
0.0
 11
116.0016483671013
 21
123.4826038399992
 31
0.0
  0
LINE
  5
1FD
330
70
100
AcDbEntity
  8
Bemaßung
 62
     7
370
     9
100
AcDbLine
 10
116.0291650337612
 20
123.5330510622088
 30
0.0
 11
115.6157094783089
 21
123.5330510622088
 31
0.0
  0
LINE
  5
1FE
330
70
100
AcDbEntity
  8
Bemaßung
 62
     7
370
     9
100
AcDbLine
 10
116.0291650337612
 20
123.5838510621962
 30
0.0
 11
115.2297705895164
 21
123.5838510621962
 31
0.0
  0
LINE
  5
1FF
330
70
100
AcDbEntity
  8
Bemaßung
 62
     7
370
     9
100
AcDbLine
 10
116.0291650337612
 20
123.6346510621836
 30
0.0
 11
114.843831700724
 21
123.6346510621836
 31
0.0
  0
LINE
  5
200
330
70
100
AcDbEntity
  8
Bemaßung
 62
     7
370
     9
100
AcDbLine
 10
116.0291650337612
 20
123.6854510621707
 30
0.0
 11
114.4578928119316
 21
123.6854510621707
 31
0.0
  0
LINE
  5
201
330
70
100
AcDbEntity
  8
Bemaßung
 62
     7
370
     9
100
AcDbLine
 10
116.0291650337612
 20
123.736251062158
 30
0.0
 11
114.0723067009169
 21
123.736251062158
 31
0.0
  0
LINE
  5
202
330
70
100
AcDbEntity
  8
Bemaßung
 62
     7
370
     9
100
AcDbLine
 10
116.0291650337612
 20
123.7874038399232
 30
0.0
 11
113.6863678121245
 21
123.7874038399232
 31
0.0
  0
LINE
  5
203
330
70
100
AcDbEntity
  8
Bemaßung
 62
     7
370
     9
100
AcDbLine
 10
116.0291650337612
 20
123.8382038399102
 30
0.0
 11
113.3004289233321
 21
123.8382038399102
 31
0.0
  0
LINE
  5
204
330
70
100
AcDbEntity
  8
Bemaßung
 62
     7
370
     9
100
AcDbLine
 10
116.0291650337612
 20
123.8890038398976
 30
0.0
 11
112.9144900345397
 21
123.8890038398976
 31
0.0
  0
LINE
  5
205
330
70
100
AcDbEntity
  8
Bemaßung
 62
     7
370
     9
100
AcDbLine
 10
116.0291650337612
 20
123.939803839885
 30
0.0
 11
112.528903923525
 21
123.939803839885
 31
0.0
  0
LINE
  5
206
330
70
100
AcDbEntity
  8
Bemaßung
 62
     7
370
     9
100
AcDbLine
 10
116.0291650337612
 20
124.3970038397708
 30
0.0
 11
116.0016483671013
 21
124.3970038397708
 31
0.0
  0
LINE
  5
207
330
70
100
AcDbEntity
  8
Bemaßung
 62
     7
370
     9
100
AcDbLine
 10
116.0291650337612
 20
124.3970038397708
 30
0.0
 11
116.0016483671013
 21
124.3970038397708
 31
0.0
  0
LINE
  5
208
330
70
100
AcDbEntity
  8
Bemaßung
 62
     7
370
     9
100
AcDbLine
 10
116.0291650337612
 20
124.3462038397834
 30
0.0
 11
115.6157094783089
 21
124.3462038397834
 31
0.0
  0
LINE
  5
209
330
70
100
AcDbEntity
  8
Bemaßung
 62
     7
370
     9
100
AcDbLine
 10
116.0291650337612
 20
124.295403839796
 30
0.0
 11
115.2297705895164
 21
124.295403839796
 31
0.0
  0
LINE
  5
20A
330
70
100
AcDbEntity
  8
Bemaßung
 62
     7
370
     9
100
AcDbLine
 10
116.0291650337612
 20
124.2442510620309
 30
0.0
 11
114.843831700724
 21
124.2442510620309
 31
0.0
  0
LINE
  5
20B
330
70
100
AcDbEntity
  8
Bemaßung
 62
     7
370
     9
100
AcDbLine
 10
116.0291650337612
 20
124.1934510620438
 30
0.0
 11
114.4578928119316
 21
124.1934510620438
 31
0.0
  0
LINE
  5
20C
330
70
100
AcDbEntity
  8
Bemaßung
 62
     7
370
     9
100
AcDbLine
 10
116.0291650337612
 20
124.1426510620564
 30
0.0
 11
114.0723067009169
 21
124.1426510620564
 31
0.0
  0
LINE
  5
20D
330
70
100
AcDbEntity
  8
Bemaßung
 62
     7
370
     9
100
AcDbLine
 10
116.0291650337612
 20
124.0918510620691
 30
0.0
 11
113.6863678121245
 21
124.0918510620691
 31
0.0
  0
LINE
  5
20E
330
70
100
AcDbEntity
  8
Bemaßung
 62
     7
370
     9
100
AcDbLine
 10
116.0291650337612
 20
124.041051062082
 30
0.0
 11
113.3004289233321
 21
124.041051062082
 31
0.0
  0
LINE
  5
20F
330
70
100
AcDbEntity
  8
Bemaßung
 62
     7
370
     9
100
AcDbLine
 10
116.0291650337612
 20
123.9906038398724
 30
0.0
 11
112.9144900345397
 21
123.9906038398724
 31
0.0
  0
LINE
  5
210
330
70
100
AcDbEntity
  8
Bemaßung
 62
     7
370
     9
100
AcDbLine
 10
116.0291650337612
 20
123.939803839885
 30
0.0
 11
112.528903923525
 21
123.939803839885
 31
0.0
  0
LWPOLYLINE
  5
211
330
70
100
AcDbEntity
  8
Bemaßung
 62
     7
370
     9
100
AcDbPolyline
 90
        4
 70
     0
 43
0.0
 10
120.5288455881919
 20
123.939803839885
 10
117.0285844779557
 20
124.4005316175474
 10
117.0285844779557
 20
123.4787232844448
 10
120.5288455881919
 20
123.939803839885
  0
LINE
  5
212
330
70
100
AcDbEntity
  8
Bemaßung
 62
     7
370
     9
100
AcDbLine
 10
117.0285844779557
 20
124.3970038397708
 30
0.0
 11
117.056453922393
 21
124.3970038397708
 31
0.0
  0
LINE
  5
213
330
70
100
AcDbEntity
  8
Bemaßung
 62
     7
370
     9
100
AcDbLine
 10
117.0285844779557
 20
124.3970038397708
 30
0.0
 11
117.056453922393
 21
124.3970038397708
 31
0.0
  0
LINE
  5
214
330
70
100
AcDbEntity
  8
Bemaßung
 62
     7
370
     9
100
AcDbLine
 10
117.0285844779557
 20
124.3462038397834
 30
0.0
 11
117.442040033408
 21
124.3462038397834
 31
0.0
  0
LINE
  5
215
330
70
100
AcDbEntity
  8
Bemaßung
 62
     7
370
     9
100
AcDbLine
 10
117.0285844779557
 20
124.295403839796
 30
0.0
 11
117.8279789222004
 21
124.295403839796
 31
0.0
  0
LINE
  5
216
330
70
100
AcDbEntity
  8
Bemaßung
 62
     7
370
     9
100
AcDbLine
 10
117.0285844779557
 20
124.2442510620309
 30
0.0
 11
118.2139178109929
 21
124.2442510620309
 31
0.0
  0
LINE
  5
217
330
70
100
AcDbEntity
  8
Bemaßung
 62
     7
370
     9
100
AcDbLine
 10
117.0285844779557
 20
124.1934510620438
 30
0.0
 11
118.599856699785
 21
124.1934510620438
 31
0.0
  0
LINE
  5
218
330
70
100
AcDbEntity
  8
Bemaßung
 62
     7
370
     9
100
AcDbLine
 10
117.0285844779557
 20
124.1426510620564
 30
0.0
 11
118.9854428108
 21
124.1426510620564
 31
0.0
  0
LINE
  5
219
330
70
100
AcDbEntity
  8
Bemaßung
 62
     7
370
     9
100
AcDbLine
 10
117.0285844779557
 20
124.0918510620691
 30
0.0
 11
119.3713816995924
 21
124.0918510620691
 31
0.0
  0
LINE
  5
21A
330
70
100
AcDbEntity
  8
Bemaßung
 62
     7
370
     9
100
AcDbLine
 10
117.0285844779557
 20
124.041051062082
 30
0.0
 11
119.7573205883848
 21
124.041051062082
 31
0.0
  0
LINE
  5
21B
330
70
100
AcDbEntity
  8
Bemaßung
 62
     7
370
     9
100
AcDbLine
 10
117.0285844779557
 20
123.9906038398724
 30
0.0
 11
120.1432594771769
 21
123.9906038398724
 31
0.0
  0
LINE
  5
21C
330
70
100
AcDbEntity
  8
Bemaßung
 62
     7
370
     9
100
AcDbLine
 10
117.0285844779557
 20
123.939803839885
 30
0.0
 11
120.5288455881919
 21
123.939803839885
 31
0.0
  0
LINE
  5
21D
330
70
100
AcDbEntity
  8
Bemaßung
 62
     7
370
     9
100
AcDbLine
 10
117.0285844779557
 20
123.4826038399992
 30
0.0
 11
117.056453922393
 21
123.4826038399992
 31
0.0
  0
LINE
  5
21E
330
70
100
AcDbEntity
  8
Bemaßung
 62
     7
370
     9
100
AcDbLine
 10
117.0285844779557
 20
123.4826038399992
 30
0.0
 11
117.056453922393
 21
123.4826038399992
 31
0.0
  0
LINE
  5
21F
330
70
100
AcDbEntity
  8
Bemaßung
 62
     7
370
     9
100
AcDbLine
 10
117.0285844779557
 20
123.5330510622088
 30
0.0
 11
117.442040033408
 21
123.5330510622088
 31
0.0
  0
LINE
  5
220
330
70
100
AcDbEntity
  8
Bemaßung
 62
     7
370
     9
100
AcDbLine
 10
117.0285844779557
 20
123.5838510621962
 30
0.0
 11
117.8279789222004
 21
123.5838510621962
 31
0.0
  0
LINE
  5
221
330
70
100
AcDbEntity
  8
Bemaßung
 62
     7
370
     9
100
AcDbLine
 10
117.0285844779557
 20
123.6346510621836
 30
0.0
 11
118.2139178109929
 21
123.6346510621836
 31
0.0
  0
LINE
  5
222
330
70
100
AcDbEntity
  8
Bemaßung
 62
     7
370
     9
100
AcDbLine
 10
117.0285844779557
 20
123.6854510621707
 30
0.0
 11
118.599856699785
 21
123.6854510621707
 31
0.0
  0
LINE
  5
223
330
70
100
AcDbEntity
  8
Bemaßung
 62
     7
370
     9
100
AcDbLine
 10
117.0285844779557
 20
123.736251062158
 30
0.0
 11
118.9854428108
 21
123.736251062158
 31
0.0
  0
LINE
  5
224
330
70
100
AcDbEntity
  8
Bemaßung
 62
     7
370
     9
100
AcDbLine
 10
117.0285844779557
 20
123.7874038399232
 30
0.0
 11
119.3713816995924
 21
123.7874038399232
 31
0.0
  0
LINE
  5
225
330
70
100
AcDbEntity
  8
Bemaßung
 62
     7
370
     9
100
AcDbLine
 10
117.0285844779557
 20
123.8382038399102
 30
0.0
 11
119.7573205883848
 21
123.8382038399102
 31
0.0
  0
LINE
  5
226
330
70
100
AcDbEntity
  8
Bemaßung
 62
     7
370
     9
100
AcDbLine
 10
117.0285844779557
 20
123.8890038398976
 30
0.0
 11
120.1432594771769
 21
123.8890038398976
 31
0.0
  0
LINE
  5
227
330
70
100
AcDbEntity
  8
Bemaßung
 62
     7
370
     9
100
AcDbLine
 10
117.0285844779557
 20
123.939803839885
 30
0.0
 11
120.5288455881919
 21
123.939803839885
 31
0.0
  0
LINE
  5
228
330
70
100
AcDbEntity
  8
Bemaßung
 62
     7
370
     9
100
AcDbLine
 10
121.3285928102141
 20
146.8357871674943
 30
0.0
 11
121.3285928102141
 21
176.7031279502189
 31
0.0
  0
LINE
  5
229
330
70
100
AcDbEntity
  8
Bemaßung
 62
     7
370
     9
100
AcDbLine
 10
112.528903923525
 20
163.7892288299226
 30
0.0
 11
112.528903923525
 21
176.7031279502189
 31
0.0
  0
LINE
  5
22A
330
70
100
AcDbEntity
  8
Bemaßung
 62
     7
370
     9
100
AcDbLine
 10
121.3285928102141
 20
174.7035835062745
 30
0.0
 11
112.528903923525
 21
174.7035835062745
 31
0.0
  0
LWPOLYLINE
  5
22B
330
70
100
AcDbEntity
  8
Bemaßung
 62
     7
370
     9
100
AcDbPolyline
 90
        4
 70
     0
 43
0.0
 10
121.3285928102141
 20
174.7035835062745
 10
117.8290372555334
 20
175.1643112839373
 10
117.8290372555334
 20
174.2425029508343
 10
121.3285928102141
 20
174.7035835062745
  0
LINE
  5
22C
330
70
100
AcDbEntity
  8
Bemaßung
 62
     7
370
     9
100
AcDbLine
 10
117.8290372555334
 20
175.1607835061603
 30
0.0
 11
117.8562011444156
 21
175.1607835061603
 31
0.0
  0
LINE
  5
22D
330
70
100
AcDbEntity
  8
Bemaßung
 62
     7
370
     9
100
AcDbLine
 10
117.8290372555334
 20
175.1607835061603
 30
0.0
 11
117.8562011444156
 21
175.1607835061603
 31
0.0
  0
LINE
  5
22E
330
70
100
AcDbEntity
  8
Bemaßung
 62
     7
370
     9
100
AcDbLine
 10
117.8290372555334
 20
175.1099835061729
 30
0.0
 11
118.2417872554303
 21
175.1099835061729
 31
0.0
  0
LINE
  5
22F
330
70
100
AcDbEntity
  8
Bemaßung
 62
     7
370
     9
100
AcDbLine
 10
117.8290372555334
 20
175.0591835061855
 30
0.0
 11
118.6277261442227
 21
175.0591835061855
 31
0.0
  0
LINE
  5
230
330
70
100
AcDbEntity
  8
Bemaßung
 62
     7
370
     9
100
AcDbLine
 10
117.8290372555334
 20
175.0083835061981
 30
0.0
 11
119.0136650330151
 21
175.0083835061981
 31
0.0
  0
LINE
  5
231
330
70
100
AcDbEntity
  8
Bemaßung
 62
     7
370
     9
100
AcDbLine
 10
117.8290372555334
 20
174.9575835062111
 30
0.0
 11
119.3996039218075
 21
174.9575835062111
 31
0.0
  0
LINE
  5
232
330
70
100
AcDbEntity
  8
Bemaßung
 62
     7
370
     9
100
AcDbLine
 10
117.8290372555334
 20
174.9067835062237
 30
0.0
 11
119.7851900328222
 21
174.9067835062237
 31
0.0
  0
LINE
  5
233
330
70
100
AcDbEntity
  8
Bemaßung
 62
     7
370
     9
100
AcDbLine
 10
117.8290372555334
 20
174.8559835062363
 30
0.0
 11
120.1711289216146
 21
174.8559835062363
 31
0.0
  0
LINE
  5
234
330
70
100
AcDbEntity
  8
Bemaßung
 62
     7
370
     9
100
AcDbLine
 10
117.8290372555334
 20
174.8051835062492
 30
0.0
 11
120.557067810407
 21
174.8051835062492
 31
0.0
  0
LINE
  5
235
330
70
100
AcDbEntity
  8
Bemaßung
 62
     7
370
     9
100
AcDbLine
 10
117.8290372555334
 20
174.7543835062619
 30
0.0
 11
120.9430066991995
 21
174.7543835062619
 31
0.0
  0
LINE
  5
236
330
70
100
AcDbEntity
  8
Bemaßung
 62
     7
370
     9
100
AcDbLine
 10
117.8290372555334
 20
174.7035835062745
 30
0.0
 11
121.3285928102141
 21
174.7035835062745
 31
0.0
  0
LINE
  5
237
330
70
100
AcDbEntity
  8
Bemaßung
 62
     7
370
     9
100
AcDbLine
 10
117.8290372555334
 20
174.2460307286109
 30
0.0
 11
117.8562011444156
 21
174.2460307286109
 31
0.0
  0
LINE
  5
238
330
70
100
AcDbEntity
  8
Bemaßung
 62
     7
370
     9
100
AcDbLine
 10
117.8290372555334
 20
174.2460307286109
 30
0.0
 11
117.8562011444156
 21
174.2460307286109
 31
0.0
  0
LINE
  5
239
330
70
100
AcDbEntity
  8
Bemaßung
 62
     7
370
     9
100
AcDbLine
 10
117.8290372555334
 20
174.2968307285983
 30
0.0
 11
118.2417872554303
 21
174.2968307285983
 31
0.0
  0
LINE
  5
23A
330
70
100
AcDbEntity
  8
Bemaßung
 62
     7
370
     9
100
AcDbLine
 10
117.8290372555334
 20
174.3476307285857
 30
0.0
 11
118.6277261442227
 21
174.3476307285857
 31
0.0
  0
LINE
  5
23B
330
70
100
AcDbEntity
  8
Bemaßung
 62
     7
370
     9
100
AcDbLine
 10
117.8290372555334
 20
174.3984307285731
 30
0.0
 11
119.0136650330151
 21
174.3984307285731
 31
0.0
  0
LINE
  5
23C
330
70
100
AcDbEntity
  8
Bemaßung
 62
     7
370
     9
100
AcDbLine
 10
117.8290372555334
 20
174.4492307285605
 30
0.0
 11
119.3996039218075
 21
174.4492307285605
 31
0.0
  0
LINE
  5
23D
330
70
100
AcDbEntity
  8
Bemaßung
 62
     7
370
     9
100
AcDbLine
 10
117.8290372555334
 20
174.5000307285475
 30
0.0
 11
119.7851900328222
 21
174.5000307285475
 31
0.0
  0
LINE
  5
23E
330
70
100
AcDbEntity
  8
Bemaßung
 62
     7
370
     9
100
AcDbLine
 10
117.8290372555334
 20
174.5508307285349
 30
0.0
 11
120.1711289216146
 21
174.5508307285349
 31
0.0
  0
LINE
  5
23F
330
70
100
AcDbEntity
  8
Bemaßung
 62
     7
370
     9
100
AcDbLine
 10
117.8290372555334
 20
174.6016307285223
 30
0.0
 11
120.557067810407
 21
174.6016307285223
 31
0.0
  0
LINE
  5
240
330
70
100
AcDbEntity
  8
Bemaßung
 62
     7
370
     9
100
AcDbLine
 10
117.8290372555334
 20
174.6524307285093
 30
0.0
 11
120.9430066991995
 21
174.6524307285093
 31
0.0
  0
LINE
  5
241
330
70
100
AcDbEntity
  8
Bemaßung
 62
     7
370
     9
100
AcDbLine
 10
117.8290372555334
 20
174.7035835062745
 30
0.0
 11
121.3285928102141
 21
174.7035835062745
 31
0.0
  0
LWPOLYLINE
  5
242
330
70
100
AcDbEntity
  8
Bemaßung
 62
     7
370
     9
100
AcDbPolyline
 90
        4
 70
     0
 43
0.0
 10
112.528903923525
 20
174.7035835062745
 10
116.0291650337612
 20
174.2425029508343
 10
116.0291650337612
 20
175.1643112839373
 10
112.528903923525
 20
174.7035835062745
  0
LINE
  5
243
330
70
100
AcDbEntity
  8
Bemaßung
 62
     7
370
     9
100
AcDbLine
 10
116.0291650337612
 20
174.2460307286109
 30
0.0
 11
116.0016483671013
 21
174.2460307286109
 31
0.0
  0
LINE
  5
244
330
70
100
AcDbEntity
  8
Bemaßung
 62
     7
370
     9
100
AcDbLine
 10
116.0291650337612
 20
174.2460307286109
 30
0.0
 11
116.0016483671013
 21
174.2460307286109
 31
0.0
  0
LINE
  5
245
330
70
100
AcDbEntity
  8
Bemaßung
 62
     7
370
     9
100
AcDbLine
 10
116.0291650337612
 20
174.2968307285983
 30
0.0
 11
115.6157094783089
 21
174.2968307285983
 31
0.0
  0
LINE
  5
246
330
70
100
AcDbEntity
  8
Bemaßung
 62
     7
370
     9
100
AcDbLine
 10
116.0291650337612
 20
174.3476307285857
 30
0.0
 11
115.2297705895164
 21
174.3476307285857
 31
0.0
  0
LINE
  5
247
330
70
100
AcDbEntity
  8
Bemaßung
 62
     7
370
     9
100
AcDbLine
 10
116.0291650337612
 20
174.3984307285731
 30
0.0
 11
114.843831700724
 21
174.3984307285731
 31
0.0
  0
LINE
  5
248
330
70
100
AcDbEntity
  8
Bemaßung
 62
     7
370
     9
100
AcDbLine
 10
116.0291650337612
 20
174.4492307285605
 30
0.0
 11
114.4578928119316
 21
174.4492307285605
 31
0.0
  0
LINE
  5
249
330
70
100
AcDbEntity
  8
Bemaßung
 62
     7
370
     9
100
AcDbLine
 10
116.0291650337612
 20
174.5000307285475
 30
0.0
 11
114.0723067009169
 21
174.5000307285475
 31
0.0
  0
LINE
  5
24A
330
70
100
AcDbEntity
  8
Bemaßung
 62
     7
370
     9
100
AcDbLine
 10
116.0291650337612
 20
174.5508307285349
 30
0.0
 11
113.6863678121245
 21
174.5508307285349
 31
0.0
  0
LINE
  5
24B
330
70
100
AcDbEntity
  8
Bemaßung
 62
     7
370
     9
100
AcDbLine
 10
116.0291650337612
 20
174.6016307285223
 30
0.0
 11
113.3004289233321
 21
174.6016307285223
 31
0.0
  0
LINE
  5
24C
330
70
100
AcDbEntity
  8
Bemaßung
 62
     7
370
     9
100
AcDbLine
 10
116.0291650337612
 20
174.6524307285093
 30
0.0
 11
112.9144900345397
 21
174.6524307285093
 31
0.0
  0
LINE
  5
24D
330
70
100
AcDbEntity
  8
Bemaßung
 62
     7
370
     9
100
AcDbLine
 10
116.0291650337612
 20
174.7035835062745
 30
0.0
 11
112.528903923525
 21
174.7035835062745
 31
0.0
  0
LINE
  5
24E
330
70
100
AcDbEntity
  8
Bemaßung
 62
     7
370
     9
100
AcDbLine
 10
116.0291650337612
 20
175.1607835061603
 30
0.0
 11
116.0016483671013
 21
175.1607835061603
 31
0.0
  0
LINE
  5
24F
330
70
100
AcDbEntity
  8
Bemaßung
 62
     7
370
     9
100
AcDbLine
 10
116.0291650337612
 20
175.1607835061603
 30
0.0
 11
116.0016483671013
 21
175.1607835061603
 31
0.0
  0
LINE
  5
250
330
70
100
AcDbEntity
  8
Bemaßung
 62
     7
370
     9
100
AcDbLine
 10
116.0291650337612
 20
175.1099835061729
 30
0.0
 11
115.6157094783089
 21
175.1099835061729
 31
0.0
  0
LINE
  5
251
330
70
100
AcDbEntity
  8
Bemaßung
 62
     7
370
     9
100
AcDbLine
 10
116.0291650337612
 20
175.0591835061855
 30
0.0
 11
115.2297705895164
 21
175.0591835061855
 31
0.0
  0
LINE
  5
252
330
70
100
AcDbEntity
  8
Bemaßung
 62
     7
370
     9
100
AcDbLine
 10
116.0291650337612
 20
175.0083835061981
 30
0.0
 11
114.843831700724
 21
175.0083835061981
 31
0.0
  0
LINE
  5
253
330
70
100
AcDbEntity
  8
Bemaßung
 62
     7
370
     9
100
AcDbLine
 10
116.0291650337612
 20
174.9575835062111
 30
0.0
 11
114.4578928119316
 21
174.9575835062111
 31
0.0
  0
LINE
  5
254
330
70
100
AcDbEntity
  8
Bemaßung
 62
     7
370
     9
100
AcDbLine
 10
116.0291650337612
 20
174.9067835062237
 30
0.0
 11
114.0723067009169
 21
174.9067835062237
 31
0.0
  0
LINE
  5
255
330
70
100
AcDbEntity
  8
Bemaßung
 62
     7
370
     9
100
AcDbLine
 10
116.0291650337612
 20
174.8559835062363
 30
0.0
 11
113.6863678121245
 21
174.8559835062363
 31
0.0
  0
LINE
  5
256
330
70
100
AcDbEntity
  8
Bemaßung
 62
     7
370
     9
100
AcDbLine
 10
116.0291650337612
 20
174.8051835062492
 30
0.0
 11
113.3004289233321
 21
174.8051835062492
 31
0.0
  0
LINE
  5
257
330
70
100
AcDbEntity
  8
Bemaßung
 62
     7
370
     9
100
AcDbLine
 10
116.0291650337612
 20
174.7543835062619
 30
0.0
 11
112.9144900345397
 21
174.7543835062619
 31
0.0
  0
LINE
  5
258
330
70
100
AcDbEntity
  8
Bemaßung
 62
     7
370
     9
100
AcDbLine
 10
116.0291650337612
 20
174.7035835062745
 30
0.0
 11
112.528903923525
 21
174.7035835062745
 31
0.0
  0
MTEXT
  5
25A
330
70
100
AcDbEntity
  8
Text
100
AcDbMText
 10
75.68034500773193
 20
175.3717620835035
 30
0.0
 40
0.2
 41
0.0
 46
0.0
 71
     7
 72
     1
  1
\C7;\FINDEX Univers 45 Light|b0|i0|c1;\H3.447529;\W1.000000;ø5
 73
     1
 44
1.0
  0
MTEXT
  5
25B
330
70
100
AcDbEntity
  8
Text
100
AcDbMText
 10
61.56022282226999
 20
115.6953874510702
 30
0.0
 40
0.2
 41
0.0
 46
0.0
 71
     7
 72
     1
  1
\C7;\FINDEX Univers 45 Light|b0|i0|c1;\H3.447529;\W1.000000;14,3
 73
     1
 44
1.0
  0
MTEXT
  5
25C
330
70
100
AcDbEntity
  8
Text
100
AcDbMText
 10
60.53220632947144
 20
125.6951216065564
 30
0.0
 40
0.2
 41
0.0
 46
0.0
 71
     7
 72
     1
  1
\C7;\FINDEX Univers 45 Light|b0|i0|c1;\H3.447529;\W1.000000;11,3
 73
     1
 44
1.0
  0
MTEXT
  5
25D
330
70
100
AcDbEntity
  8
Text
100
AcDbMText
 10
45.85558279798434
 20
143.8530141258884
 30
0.0
 40
0.2
 41
0.0
 46
0.0
 71
     7
 72
     1
  1
\C7;\FINDEX Univers 45 Light|b0|i0|c1;\H3.447529;\W1.000000;21,5
 11
0.0000000000000001
 21
1.0
 31
0.0
 73
     1
 44
1.0
  0
MTEXT
  5
25E
330
70
100
AcDbEntity
  8
Text
100
AcDbMText
 10
94.77118553335474
 20
145.8441070615885
 30
0.0
 40
0.2
 41
0.0
 46
0.0
 71
     7
 72
     1
  1
\C7;\FINDEX Univers 45 Light|b0|i0|c1;\H3.447529;\W1.000000;30,5
 11
0.0000000000000001
 21
1.0
 31
0.0
 73
     1
 44
1.0
  0
MTEXT
  5
25F
330
70
100
AcDbEntity
  8
Text
100
AcDbMText
 10
115.9099469212992
 20
125.6951216065564
 30
0.0
 40
0.2
 41
0.0
 46
0.0
 71
     7
 72
     1
  1
\C7;\FINDEX Univers 45 Light|b0|i0|c1;\H3.447529;\W1.000000;8
 73
     1
 44
1.0
  0
MTEXT
  5
260
330
70
100
AcDbEntity
  8
Text
100
AcDbMText
 10
114.6724686229974
 20
176.4586627942913
 30
0.0
 40
0.2
 41
0.0
 46
0.0
 71
     7
 72
     1
  1
\C7;\FINDEX Univers 45 Light|b0|i0|c1;\H3.447529;\W1.000000;8,8
 73
     1
 44
1.0
  0
ENDSEC
  0
SECTION
  2
OBJECTS
  0
DICTIONARY
  5
C
330
0
100
AcDbDictionary
281
     1
  3
ACAD_COLOR
350
63
  3
ACAD_DETAILVIEWSTYLE
350
6A
  3
ACAD_GROUP
350
D
  3
ACAD_LAYOUT
350
62
  3
ACAD_MATERIAL
350
10
  3
ACAD_MLEADERSTYLE
350
66
  3
ACAD_MLINESTYLE
350
5F
  3
ACAD_PLOTSETTINGS
350
61
  3
ACAD_PLOTSTYLENAME
350
E
  3
ACAD_SCALELIST
350
42
  3
ACAD_SECTIONVIEWSTYLE
350
68
  3
ACAD_TABLESTYLE
350
64
  3
ACAD_VISUALSTYLE
350
29
  3
ACDB_RECOMPOSE_DATA
350
269
  3
AcDbVariableDictionary
350
261
  0
DICTIONARY
  5
63
102
{ACAD_REACTORS
330
C
102
}
330
C
100
AcDbDictionary
281
     1
  0
DICTIONARY
  5
6A
102
{ACAD_REACTORS
330
C
102
}
330
C
100
AcDbDictionary
281
     1
  3
Imperial24
350
6B
  0
DICTIONARY
  5
D
102
{ACAD_REACTORS
330
C
102
}
330
C
100
AcDbDictionary
281
     1
  0
DICTIONARY
  5
62
102
{ACAD_REACTORS
330
C
102
}
330
C
100
AcDbDictionary
281
     1
  3
Layout1
350
6F
  3
Layout2
350
77
  3
Model
350
73
  0
DICTIONARY
  5
10
102
{ACAD_REACTORS
330
C
102
}
330
C
100
AcDbDictionary
281
     1
  3
ByBlock
350
19
  3
ByLayer
350
11
  3
Global
350
21
  0
DICTIONARY
  5
66
102
{ACAD_REACTORS
330
C
102
}
330
C
100
AcDbDictionary
281
     1
  3
Standard
350
67
  0
DICTIONARY
  5
5F
102
{ACAD_REACTORS
330
C
102
}
330
C
100
AcDbDictionary
281
     1
  3
Standard
350
60
  0
DICTIONARY
  5
61
102
{ACAD_REACTORS
330
C
102
}
330
C
100
AcDbDictionary
281
     1
  0
ACDBDICTIONARYWDFLT
  5
E
102
{ACAD_REACTORS
330
C
102
}
330
C
100
AcDbDictionary
281
     1
  3
Normal
350
F
100
AcDbDictionaryWithDefault
340
F
  0
DICTIONARY
  5
42
102
{ACAD_REACTORS
330
C
102
}
330
C
100
AcDbDictionary
281
     1
  3
A0
350
43
  3
A1
350
44
  3
A2
350
45
  3
A3
350
46
  3
A4
350
47
  3
A5
350
48
  3
A6
350
49
  3
A7
350
4A
  3
A8
350
4B
  3
A9
350
4C
  3
B0
350
4D
  3
B1
350
4E
  3
B2
350
4F
  3
B3
350
50
  3
B4
350
51
  3
B5
350
52
  3
B6
350
53
  0
DICTIONARY
  5
68
102
{ACAD_REACTORS
330
C
102
}
330
C
100
AcDbDictionary
281
     1
  3
Imperial24
350
69
  0
DICTIONARY
  5
64
102
{ACAD_REACTORS
330
C
102
}
330
C
100
AcDbDictionary
281
     1
  3
Standard
350
65
  0
DICTIONARY
  5
29
102
{ACAD_REACTORS
330
C
102
}
330
C
100
AcDbDictionary
281
     1
  3
2dWireframe
350
2F
  3
Basic
350
2E
  3
Brighten
350
35
  3
ColorChange
350
39
  3
Conceptual
350
32
  3
Dim
350
34
  3
EdgeColorOff
350
41
  3
Facepattern
350
38
  3
Flat
350
2A
  3
FlatWithEdges
350
2B
  3
Gouraud
350
2C
  3
GouraudWithEdges
350
2D
  3
Hidden
350
31
  3
JitterOff
350
3F
  3
Linepattern
350
37
  3
OverhangOff
350
40
  3
Realistic
350
33
  3
Shaded
350
3E
  3
Shaded with edges
350
3D
  3
Shades of Gray
350
3A
  3
Sketchy
350
3B
  3
Thicken
350
36
  3
Wireframe
350
30
  3
X-Ray
350
3C
  0
XRECORD
  5
269
102
{ACAD_REACTORS
330
C
102
}
330
C
100
AcDbXrecord
280
     1
 90
        1
330
65
  0
DICTIONARY
  5
261
102
{ACAD_REACTORS
330
C
102
}
330
C
100
AcDbDictionary
281
     1
  3
CANNOSCALE
350
266
  3
CMLEADERSTYLE
350
263
  3
CTABLESTYLE
350
262
  3
CVIEWDETAILSTYLE
350
264
  3
CVIEWSECTIONSTYLE
350
265
  0
ACDBDETAILVIEWSTYLE
  5
6B
102
{ACAD_REACTORS
330
6A
102
}
330
6A
100
AcDbModelDocViewStyle
 70
     0
  3
Imperial24
290
     1
300
Imperial24
 90
        0
100
AcDbDetailViewStyle
 70
     0
 71
     0
 90
        3
 71
     1
340
55
 62
   256
 40
0.24
340
0
 62
   256
 40
0.24
300

 40
0.36
280
     3
 71
     2
340
5D
 90
       25
 62
   256
 71
     3
340
55
 62
   256
 40
0.24
 90
        1
 40
0.75
 90
        1
300
%<\AcVar ViewType \f "%tc1">% %<\AcVar ViewDetailId>%\PSCALE %<\AcVar ViewScale \f "%sn">%
 71
     4
340
5D
 90
       25
 62
   256
340
5D
 90
       25
 62
   256
280
     0
  0
LAYOUT
  5
6F
102
{ACAD_REACTORS
330
62
102
}
330
62
100
AcDbPlotSettings
  1

  2

  4

  6

 40
0.0
 41
0.0
 42
0.0
 43
0.0
 44
0.0
 45
0.0
 46
0.0
 47
0.0
 48
0.0
 49
0.0
140
0.0
141
0.0
142
1.0
143
1.0
 70
   688
 72
     0
 73
     0
 74
     5
  7

 75
    16
147
1.0
 76
     0
 77
     2
 78
   300
148
0.0
149
0.0
100
AcDbLayout
  1
Layout1
 70
     1
 71
     1
 10
0.0
 20
0.0
 11
12.0
 21
9.0
 12
0.0
 22
0.0
 32
0.0
 14
0.0
 24
0.0
 34
0.0
 15
0.0
 25
0.0
 35
0.0
146
0.0
 13
0.0
 23
0.0
 33
0.0
 16
1.0
 26
0.0
 36
0.0
 17
0.0
 27
1.0
 37
0.0
 76
     0
330
6C
  0
LAYOUT
  5
77
102
{ACAD_REACTORS
330
62
102
}
330
62
100
AcDbPlotSettings
  1

  2

  4

  6

 40
0.0
 41
0.0
 42
0.0
 43
0.0
 44
0.0
 45
0.0
 46
0.0
 47
0.0
 48
0.0
 49
0.0
140
0.0
141
0.0
142
1.0
143
1.0
 70
   688
 72
     0
 73
     0
 74
     5
  7

 75
    16
147
1.0
 76
     0
 77
     2
 78
   300
148
0.0
149
0.0
100
AcDbLayout
  1
Layout2
 70
     1
 71
     2
 10
0.0
 20
0.0
 11
12.0
 21
9.0
 12
0.0
 22
0.0
 32
0.0
 14
0.0
 24
0.0
 34
0.0
 15
0.0
 25
0.0
 35
0.0
146
0.0
 13
0.0
 23
0.0
 33
0.0
 16
1.0
 26
0.0
 36
0.0
 17
0.0
 27
1.0
 37
0.0
 76
     0
330
74
  0
LAYOUT
  5
73
102
{ACAD_REACTORS
330
62
102
}
330
62
100
AcDbPlotSettings
  1

  2

  4

  6

 40
0.0
 41
0.0
 42
0.0
 43
0.0
 44
0.0
 45
0.0
 46
0.0
 47
0.0
 48
0.0
 49
0.0
140
0.0
141
0.0
142
1.0
143
1.0
 70
  1712
 72
     0
 73
     0
 74
     0
  7

 75
     0
147
1.0
 76
     0
 77
     2
 78
   300
148
0.0
149
0.0
100
AcDbLayout
  1
Model
 70
     1
 71
     0
 10
0.0
 20
0.0
 11
12.0
 21
9.0
 12
0.0
 22
0.0
 32
0.0
 14
0.0
 24
0.0
 34
0.0
 15
0.0
 25
0.0
 35
0.0
146
0.0
 13
0.0
 23
0.0
 33
0.0
 16
1.0
 26
0.0
 36
0.0
 17
0.0
 27
1.0
 37
0.0
 76
     0
330
70
  0
MATERIAL
  5
19
102
{ACAD_XDICTIONARY
360
1A
102
}
102
{ACAD_REACTORS
330
10
102
}
330
10
100
AcDbMaterial
  1
ByBlock
 72
     0
 43
0.0208333333333333
 43
0.0
 43
0.0
 43
0.0
 43
0.0
 43
0.0208333333333333
 43
0.0
 43
0.0
 43
0.0
 43
0.0
 43
1.0
 43
0.0
 43
0.0
 43
0.0
 43
0.0
 43
1.0
 77
     0
 47
0.0208333333333333
 47
0.0
 47
0.0
 47
0.0
 47
0.0
 47
0.0208333333333333
 47
0.0
 47
0.0
 47
0.0
 47
0.0
 47
1.0
 47
0.0
 47
0.0
 47
0.0
 47
0.0
 47
1.0
171
     0
 49
0.0208333333333333
 49
0.0
 49
0.0
 49
0.0
 49
0.0
 49
0.0208333333333333
 49
0.0
 49
0.0
 49
0.0
 49
0.0
 49
1.0
 49
0.0
 49
0.0
 49
0.0
 49
0.0
 49
1.0
175
     0
142
0.0208333333333333
142
0.0
142
0.0
142
0.0
142
0.0
142
0.0208333333333333
142
0.0
142
0.0
142
0.0
142
0.0
142
1.0
142
0.0
142
0.0
142
0.0
142
0.0
142
1.0
179
     0
144
0.0208333333333333
144
0.0
144
0.0
144
0.0
144
0.0
144
0.0208333333333333
144
0.0
144
0.0
144
0.0
144
0.0
144
1.0
144
0.0
144
0.0
144
0.0
144
0.0
144
1.0
147
0.0208333333333333
147
0.0
147
0.0
147
0.0
147
0.0
147
0.0208333333333333
147
0.0
147
0.0
147
0.0
147
0.0
147
1.0
147
0.0
147
0.0
147
0.0
147
0.0
147
1.0
  0
MATERIAL
  5
11
102
{ACAD_XDICTIONARY
360
12
102
}
102
{ACAD_REACTORS
330
10
102
}
330
10
100
AcDbMaterial
  1
ByLayer
 72
     0
 43
0.0208333333333333
 43
0.0
 43
0.0
 43
0.0
 43
0.0
 43
0.0208333333333333
 43
0.0
 43
0.0
 43
0.0
 43
0.0
 43
1.0
 43
0.0
 43
0.0
 43
0.0
 43
0.0
 43
1.0
 77
     0
 47
0.0208333333333333
 47
0.0
 47
0.0
 47
0.0
 47
0.0
 47
0.0208333333333333
 47
0.0
 47
0.0
 47
0.0
 47
0.0
 47
1.0
 47
0.0
 47
0.0
 47
0.0
 47
0.0
 47
1.0
171
     0
 49
0.0208333333333333
 49
0.0
 49
0.0
 49
0.0
 49
0.0
 49
0.0208333333333333
 49
0.0
 49
0.0
 49
0.0
 49
0.0
 49
1.0
 49
0.0
 49
0.0
 49
0.0
 49
0.0
 49
1.0
175
     0
142
0.0208333333333333
142
0.0
142
0.0
142
0.0
142
0.0
142
0.0208333333333333
142
0.0
142
0.0
142
0.0
142
0.0
142
1.0
142
0.0
142
0.0
142
0.0
142
0.0
142
1.0
179
     0
144
0.0208333333333333
144
0.0
144
0.0
144
0.0
144
0.0
144
0.0208333333333333
144
0.0
144
0.0
144
0.0
144
0.0
144
1.0
144
0.0
144
0.0
144
0.0
144
0.0
144
1.0
147
0.0208333333333333
147
0.0
147
0.0
147
0.0
147
0.0
147
0.0208333333333333
147
0.0
147
0.0
147
0.0
147
0.0
147
1.0
147
0.0
147
0.0
147
0.0
147
0.0
147
1.0
  0
MATERIAL
  5
21
102
{ACAD_XDICTIONARY
360
22
102
}
102
{ACAD_REACTORS
330
10
102
}
330
10
100
AcDbMaterial
  1
Global
 72
     0
 43
0.0208333333333333
 43
0.0
 43
0.0
 43
0.0
 43
0.0
 43
0.0208333333333333
 43
0.0
 43
0.0
 43
0.0
 43
0.0
 43
1.0
 43
0.0
 43
0.0
 43
0.0
 43
0.0
 43
1.0
 77
     0
 47
0.0208333333333333
 47
0.0
 47
0.0
 47
0.0
 47
0.0
 47
0.0208333333333333
 47
0.0
 47
0.0
 47
0.0
 47
0.0
 47
1.0
 47
0.0
 47
0.0
 47
0.0
 47
0.0
 47
1.0
171
     0
 49
0.0208333333333333
 49
0.0
 49
0.0
 49
0.0
 49
0.0
 49
0.0208333333333333
 49
0.0
 49
0.0
 49
0.0
 49
0.0
 49
1.0
 49
0.0
 49
0.0
 49
0.0
 49
0.0
 49
1.0
175
     0
142
0.0208333333333333
142
0.0
142
0.0
142
0.0
142
0.0
142
0.0208333333333333
142
0.0
142
0.0
142
0.0
142
0.0
142
1.0
142
0.0
142
0.0
142
0.0
142
0.0
142
1.0
179
     0
144
0.0208333333333333
144
0.0
144
0.0
144
0.0
144
0.0
144
0.0208333333333333
144
0.0
144
0.0
144
0.0
144
0.0
144
1.0
144
0.0
144
0.0
144
0.0
144
0.0
144
1.0
147
0.0208333333333333
147
0.0
147
0.0
147
0.0
147
0.0
147
0.0208333333333333
147
0.0
147
0.0
147
0.0
147
0.0
147
1.0
147
0.0
147
0.0
147
0.0
147
0.0
147
1.0
  0
MLEADERSTYLE
  5
67
102
{ACAD_REACTORS
330
66
102
}
330
66
100
AcDbMLeaderStyle
179
     2
170
     2
171
     1
172
     0
 90
        2
 40
0.0
 41
0.0
173
     1
 91
-1056964608
340
5B
 92
       -2
290
     1
 42
0.09
291
     1
 43
0.36
  3
Standard
 44
0.18
300

342
55
174
     1
178
     6
175
     1
176
     0
 93
-1056964608
 45
0.18
292
     0
297
     0
 46
0.18
 94
-1056964608
 47
1.0
 49
1.0
140
1.0
293
     1
141
0.0
294
     1
177
     0
142
1.0
295
     1
296
     0
143
0.125
271
     0
272
     9
273
     9
298
     1
  0
MLINESTYLE
  5
60
102
{ACAD_REACTORS
330
5F
102
}
330
5F
100
AcDbMlineStyle
  2
STANDARD
 70
     0
  3

 62
   256
 51
90.0
 52
90.0
 71
     2
 49
0.5
 62
   256
  6
BYLAYER
 49
-0.5
 62
   256
  6
BYLAYER
  0
ACDBPLACEHOLDER
  5
F
102
{ACAD_REACTORS
330
E
102
}
330
E
  0
SCALE
  5
43
102
{ACAD_REACTORS
330
42
102
}
330
42
100
AcDbScale
 70
     0
300
1:1
140
1.0
141
1.0
290
     1
  0
SCALE
  5
44
102
{ACAD_REACTORS
330
42
102
}
330
42
100
AcDbScale
 70
     0
300
1/128" = 1'-0"
140
0.0078125
141
12.0
290
     0
  0
SCALE
  5
45
102
{ACAD_REACTORS
330
42
102
}
330
42
100
AcDbScale
 70
     0
300
1/64" = 1'-0"
140
0.015625
141
12.0
290
     0
  0
SCALE
  5
46
102
{ACAD_REACTORS
330
42
102
}
330
42
100
AcDbScale
 70
     0
300
1/32" = 1'-0"
140
0.03125
141
12.0
290
     0
  0
SCALE
  5
47
102
{ACAD_REACTORS
330
42
102
}
330
42
100
AcDbScale
 70
     0
300
1/16" = 1'-0"
140
0.0625
141
12.0
290
     0
  0
SCALE
  5
48
102
{ACAD_REACTORS
330
42
102
}
330
42
100
AcDbScale
 70
     0
300
3/32" = 1'-0"
140
0.09375
141
12.0
290
     0
  0
SCALE
  5
49
102
{ACAD_REACTORS
330
42
102
}
330
42
100
AcDbScale
 70
     0
300
1/8" = 1'-0"
140
0.125
141
12.0
290
     0
  0
SCALE
  5
4A
102
{ACAD_REACTORS
330
42
102
}
330
42
100
AcDbScale
 70
     0
300
3/16" = 1'-0"
140
0.1875
141
12.0
290
     0
  0
SCALE
  5
4B
102
{ACAD_REACTORS
330
42
102
}
330
42
100
AcDbScale
 70
     0
300
1/4" = 1'-0"
140
0.25
141
12.0
290
     0
  0
SCALE
  5
4C
102
{ACAD_REACTORS
330
42
102
}
330
42
100
AcDbScale
 70
     0
300
3/8" = 1'-0"
140
0.375
141
12.0
290
     0
  0
SCALE
  5
4D
102
{ACAD_REACTORS
330
42
102
}
330
42
100
AcDbScale
 70
     0
300
1/2" = 1'-0"
140
0.5
141
12.0
290
     0
  0
SCALE
  5
4E
102
{ACAD_REACTORS
330
42
102
}
330
42
100
AcDbScale
 70
     0
300
3/4" = 1'-0"
140
0.75
141
12.0
290
     0
  0
SCALE
  5
4F
102
{ACAD_REACTORS
330
42
102
}
330
42
100
AcDbScale
 70
     0
300
1" = 1'-0"
140
1.0
141
12.0
290
     0
  0
SCALE
  5
50
102
{ACAD_REACTORS
330
42
102
}
330
42
100
AcDbScale
 70
     0
300
1-1/2" = 1'-0"
140
1.5
141
12.0
290
     0
  0
SCALE
  5
51
102
{ACAD_REACTORS
330
42
102
}
330
42
100
AcDbScale
 70
     0
300
3" = 1'-0"
140
3.0
141
12.0
290
     0
  0
SCALE
  5
52
102
{ACAD_REACTORS
330
42
102
}
330
42
100
AcDbScale
 70
     0
300
6" = 1'-0"
140
6.0
141
12.0
290
     0
  0
SCALE
  5
53
102
{ACAD_REACTORS
330
42
102
}
330
42
100
AcDbScale
 70
     0
300
1'-0" = 1'-0"
140
12.0
141
12.0
290
     0
  0
ACDBSECTIONVIEWSTYLE
  5
69
102
{ACAD_REACTORS
330
68
102
}
330
68
100
AcDbModelDocViewStyle
 70
     0
  3
Imperial24
290
     1
300
Imperial24
 90
        0
100
AcDbSectionViewStyle
 70
     0
 71
     0
 90
       78
 71
     1
340
55
 62
   256
 40
0.24
340
0
340
0
 62
   256
 40
0.24
300
I, O, Q, S, X, Z
 40
0.48
 90
        3
 40
0.18
 90
        1
 71
     2
340
5D
 90
       25
 62
   256
340
5D
 90
       50
 62
   256
 40
0.24
 40
0.0
 40
0.24
 71
     3
340
55
 62
   256
 40
0.24
 90
        1
 40
0.75
 90
        1
300
%<\AcVar ViewType \f "%tc1">% %<\AcVar ViewSectionStartId>%-%<\AcVar ViewSectionEndId>%\PSCALE %<\AcVar ViewScale \f "%sn">%
 71
     4
 62
   256
 62
   257
300
ANSI31
 40
1.0
 90
        0
290
     0
290
     0
 90
        6
 40
0.0
 40
1.570796326794896
 40
0.2617993877991494
 40
1.308996938995747
 40
-0.2617993877991494
 40
1.832595714594046
  0
TABLESTYLE
  5
65
102
{ACAD_XDICTIONARY
360
267
102
}
102
{ACAD_REACTORS
330
64
102
}
330
64
100
AcDbTableStyle
280
     0
  3
Standard
 70
     0
 71
     0
 40
0.06
 41
0.06
280
     0
281
     0
  7
Standard
140
0.18
170
     2
 62
     0
 63
     7
283
     0
 90
      512
 91
        0
  1

274
    -2
284
     1
 64
     0
275
    -2
285
     1
 65
     0
276
    -2
286
     1
 66
     0
277
    -2
287
     1
 67
     0
278
    -2
288
     1
 68
     0
279
    -2
289
     1
 69
     0
  7
Standard
140
0.25
170
     5
 62
     0
 63
     7
283
     0
 90
      512
 91
        0
  1

274
    -2
284
     1
 64
     0
275
    -2
285
     1
 65
     0
276
    -2
286
     1
 66
     0
277
    -2
287
     1
 67
     0
278
    -2
288
     1
 68
     0
279
    -2
289
     1
 69
     0
  7
Standard
140
0.18
170
     5
 62
     0
 63
     7
283
     0
 90
      512
 91
        0
  1

274
    -2
284
     1
 64
     0
275
    -2
285
     1
 65
     0
276
    -2
286
     1
 66
     0
277
    -2
287
     1
 67
     0
278
    -2
288
     1
 68
     0
279
    -2
289
     1
 69
     0
  0
VISUALSTYLE
  5
2F
102
{ACAD_REACTORS
330
29
102
}
330
29
100
AcDbVisualStyle
  2
2dWireframe
 70
     4
177
     3
291
     0
 70
    58
 90
        0
176
     1
 90
        2
176
     1
 90
        0
176
     1
 90
        0
176
     1
 40
0.6
176
     1
 40
30.0
176
     1
 62
     7
420
 16777215
176
     1
 90
        1
176
     1
 90
        4
176
     1
 62
     7
176
     1
 62
   257
176
     1
 90
        1
176
     1
 90
        1
176
     1
 40
1.0
176
     1
 90
        0
176
     1
 62
   257
176
     1
 40
1.0
176
     1
 90
        1
176
     1
 90
        6
176
     1
 90
        2
176
     1
 62
     7
176
     1
 90
        5
176
     1
 90
        0
176
     1
 90
        0
176
     1
290
     0
176
     1
 90
        1
176
     1
 40
0.0
176
     1
 90
        0
176
     1
290
     1
176
     1
290
     1
176
     1
290
     0
176
     1
290
     0
176
     1
290
     0
176
     1
290
     0
176
     1
290
     0
176
     1
290
     0
176
     1
290
     0
176
     1
 90
       50
176
     1
 40
0.0
176
     1
 40
1.0
176
     1
 90
        0
176
     1
 62
    18
420
        0
176
     1
 90
       50
176
     1
 90
        3
176
     1
 62
     5
420
      255
176
     1
290
     0
176
     1
 90
       50
176
     1
 90
       50
176
     1
 90
       50
176
     1
290
     0
176
     1
 90
       50
176
     1
 62
   256
176
     0
 40
1.0
176
     0
 90
        2
176
     1
  1
strokes_ogs.tif
176
     1
290
     0
176
     1
 40
1.0
176
     1
 40
1.0
176
     1
  0
VISUALSTYLE
  5
2E
102
{ACAD_REACTORS
330
29
102
}
330
29
100
AcDbVisualStyle
  2
Basic
 70
     7
177
     3
291
     1
 70
    58
 90
        1
176
     1
 90
        0
176
     1
 90
        1
176
     1
 90
        0
176
     1
 40
0.6
176
     1
 40
30.0
176
     1
 62
     7
420
 16777215
176
     1
 90
        0
176
     1
 90
        4
176
     1
 62
     7
176
     1
 62
   257
176
     1
 90
        1
176
     1
 90
        1
176
     1
 40
1.0
176
     1
 90
        8
176
     1
 62
     7
176
     1
 40
1.0
176
     1
 90
        1
176
     1
 90
        6
176
     1
 90
        2
176
     1
 62
     7
176
     1
 90
        5
176
     1
 90
        0
176
     1
 90
        0
176
     1
290
     0
176
     1
 90
        1
176
     1
 40
0.0
176
     1
 90
        0
176
     1
290
     0
176
     1
290
     1
176
     1
290
     1
176
     1
290
     0
176
     1
290
     0
176
     1
290
     0
176
     1
290
     0
176
     1
290
     0
176
     1
290
     0
176
     1
 90
       50
176
     1
 40
0.0
176
     1
 40
1.0
176
     1
 90
        0
176
     1
 62
    18
420
        0
176
     1
 90
       50
176
     1
 90
        3
176
     1
 62
     5
420
      255
176
     1
290
     0
176
     1
 90
       50
176
     1
 90
       50
176
     1
 90
       50
176
     1
290
     0
176
     1
 90
       50
176
     1
 62
   256
176
     0
 40
1.0
176
     0
 90
        2
176
     1
  1
strokes_ogs.tif
176
     1
290
     0
176
     1
 40
1.0
176
     1
 40
1.0
176
     1
  0
VISUALSTYLE
  5
35
102
{ACAD_REACTORS
330
29
102
}
330
29
100
AcDbVisualStyle
  2
Brighten
 70
    12
177
     3
291
     1
 70
    58
 90
        2
176
     1
 90
        2
176
     1
 90
        0
176
     1
 90
        0
176
     1
 40
0.6
176
     1
 40
30.0
176
     1
 62
     7
420
 16777215
176
     1
 90
        1
176
     1
 90
        4
176
     1
 62
     7
176
     1
 62
   257
176
     1
 90
        1
176
     1
 90
        1
176
     1
 40
1.0
176
     1
 90
        8
176
     1
 62
     7
176
     1
 40
1.0
176
     1
 90
        1
176
     1
 90
        6
176
     1
 90
        2
176
     1
 62
     7
176
     1
 90
        5
176
     1
 90
        0
176
     1
 90
        0
176
     1
290
     0
176
     1
 90
        1
176
     1
 40
50.0
176
     1
 90
        0
176
     1
290
     0
176
     1
290
     1
176
     1
290
     1
176
     1
290
     0
176
     1
290
     0
176
     1
290
     0
176
     1
290
     0
176
     1
290
     0
176
     1
290
     0
176
     1
 90
       50
176
     1
 40
0.0
176
     1
 40
1.0
176
     1
 90
        0
176
     1
 62
    18
420
        0
176
     1
 90
       50
176
     1
 90
        3
176
     1
 62
     5
420
      255
176
     1
290
     0
176
     1
 90
       50
176
     1
 90
       50
176
     1
 90
       50
176
     1
290
     0
176
     1
 90
       50
176
     1
 62
   256
176
     0
 40
1.0
176
     0
 90
        2
176
     1
  1
strokes_ogs.tif
176
     1
290
     0
176
     1
 40
1.0
176
     1
 40
1.0
176
     1
  0
VISUALSTYLE
  5
39
102
{ACAD_REACTORS
330
29
102
}
330
29
100
AcDbVisualStyle
  2
ColorChange
 70
    16
177
     3
291
     1
 70
    58
 90
        2
176
     1
 90
        2
176
     1
 90
        3
176
     1
 90
        0
176
     1
 40
0.6
176
     1
 40
30.0
176
     1
 62
     8
420
  8421504
176
     1
 90
        1
176
     1
 90
        4
176
     1
 62
     7
176
     1
 62
   257
176
     1
 90
        1
176
     1
 90
        1
176
     1
 40
1.0
176
     1
 90
        8
176
     1
 62
     8
420
  8421504
176
     1
 40
1.0
176
     1
 90
        1
176
     1
 90
        6
176
     1
 90
        2
176
     1
 62
     7
176
     1
 90
        5
176
     1
 90
        0
176
     1
 90
        0
176
     1
290
     0
176
     1
 90
        1
176
     1
 40
0.0
176
     1
 90
        0
176
     1
290
     0
176
     1
290
     1
176
     1
290
     1
176
     1
290
     0
176
     1
290
     0
176
     1
290
     0
176
     1
290
     0
176
     1
290
     0
176
     1
290
     0
176
     1
 90
       50
176
     1
 40
0.0
176
     1
 40
1.0
176
     1
 90
        0
176
     1
 62
    18
420
        0
176
     1
 90
       50
176
     1
 90
        3
176
     1
 62
     5
420
      255
176
     1
290
     0
176
     1
 90
       50
176
     1
 90
       50
176
     1
 90
       50
176
     1
290
     0
176
     1
 90
       50
176
     1
 62
   256
176
     0
 40
1.0
176
     0
 90
        2
176
     1
  1
strokes_ogs.tif
176
     1
290
     0
176
     1
 40
1.0
176
     1
 40
1.0
176
     1
  0
VISUALSTYLE
  5
32
102
{ACAD_REACTORS
330
29
102
}
330
29
100
AcDbVisualStyle
  2
Conceptual
 70
     9
177
     3
291
     0
 70
    58
 90
        3
176
     1
 90
        2
176
     1
 90
        0
176
     1
 90
        0
176
     1
 40
0.6
176
     1
 40
30.0
176
     1
 62
     7
420
 16777215
176
     1
 90
        2
176
     1
 90
        2
176
     1
 62
     7
176
     1
 62
   257
176
     1
 90
        1
176
     1
 90
        1
176
     1
 40
179.0
176
     1
 90
        8
176
     1
 62
     7
176
     1
 40
1.0
176
     1
 90
        1
176
     1
 90
        6
176
     1
 90
        2
176
     1
 62
     7
176
     1
 90
        3
176
     1
 90
        0
176
     1
 90
        0
176
     1
290
     0
176
     1
 90
        1
176
     1
 40
0.0
176
     1
 90
        0
176
     1
290
     0
176
     1
290
     1
176
     1
290
     1
176
     1
290
     0
176
     1
290
     0
176
     1
290
     0
176
     1
290
     0
176
     1
290
     0
176
     1
290
     0
176
     1
 90
       50
176
     1
 40
0.0
176
     1
 40
1.0
176
     1
 90
        0
176
     1
 62
    18
420
        0
176
     1
 90
       50
176
     1
 90
        3
176
     1
 62
     5
420
      255
176
     1
290
     0
176
     1
 90
       50
176
     1
 90
       50
176
     1
 90
       50
176
     1
290
     0
176
     1
 90
       50
176
     1
 62
   256
176
     0
 40
1.0
176
     0
 90
        2
176
     1
  1
strokes_ogs.tif
176
     1
290
     0
176
     1
 40
1.0
176
     1
 40
1.0
176
     1
  0
VISUALSTYLE
  5
34
102
{ACAD_REACTORS
330
29
102
}
330
29
100
AcDbVisualStyle
  2
Dim
 70
    11
177
     3
291
     1
 70
    58
 90
        2
176
     1
 90
        2
176
     1
 90
        0
176
     1
 90
        0
176
     1
 40
0.6
176
     1
 40
30.0
176
     1
 62
     7
420
 16777215
176
     1
 90
        1
176
     1
 90
        4
176
     1
 62
     7
176
     1
 62
   257
176
     1
 90
        1
176
     1
 90
        1
176
     1
 40
1.0
176
     1
 90
        8
176
     1
 62
     7
176
     1
 40
1.0
176
     1
 90
        1
176
     1
 90
        6
176
     1
 90
        2
176
     1
 62
     7
176
     1
 90
        5
176
     1
 90
        0
176
     1
 90
        0
176
     1
290
     0
176
     1
 90
        1
176
     1
 40
-50.0
176
     1
 90
        0
176
     1
290
     0
176
     1
290
     1
176
     1
290
     1
176
     1
290
     0
176
     1
290
     0
176
     1
290
     0
176
     1
290
     0
176
     1
290
     0
176
     1
290
     0
176
     1
 90
       50
176
     1
 40
0.0
176
     1
 40
1.0
176
     1
 90
        0
176
     1
 62
    18
420
        0
176
     1
 90
       50
176
     1
 90
        3
176
     1
 62
     5
420
      255
176
     1
290
     0
176
     1
 90
       50
176
     1
 90
       50
176
     1
 90
       50
176
     1
290
     0
176
     1
 90
       50
176
     1
 62
   256
176
     0
 40
1.0
176
     0
 90
        2
176
     1
  1
strokes_ogs.tif
176
     1
290
     0
176
     1
 40
1.0
176
     1
 40
1.0
176
     1
  0
VISUALSTYLE
  5
41
102
{ACAD_REACTORS
330
29
102
}
330
29
100
AcDbVisualStyle
  2
EdgeColorOff
 70
    22
177
     3
291
     1
 70
    58
 90
        2
176
     0
 90
        2
176
     0
 90
        0
176
     0
 90
        0
176
     0
 40
0.6
176
     0
 40
30.0
176
     0
 62
     7
420
 16777215
176
     0
 90
        1
176
     0
 90
        4
176
     0
 62
     7
176
     0
 62
   257
176
     0
 90
        1
176
     0
 90
        1
176
     0
 40
1.0
176
     0
 90
        8
176
     2
 62
     7
176
     0
 40
1.0
176
     0
 90
        1
176
     0
 90
        6
176
     0
 90
        2
176
     0
 62
     7
176
     0
 90
        5
176
     0
 90
        0
176
     0
 90
        0
176
     0
290
     0
176
     0
 90
        1
176
     0
 40
0.0
176
     0
 90
        0
176
     0
290
     0
176
     0
290
     1
176
     0
290
     1
176
     0
290
     0
176
     0
290
     0
176
     0
290
     0
176
     0
290
     0
176
     0
290
     0
176
     0
290
     0
176
     0
 90
       50
176
     0
 40
0.0
176
     0
 40
1.0
176
     0
 90
        0
176
     0
 62
    18
420
        0
176
     0
 90
       50
176
     0
 90
        3
176
     0
 62
     5
420
      255
176
     0
290
     0
176
     0
 90
       50
176
     0
 90
       50
176
     0
 90
       50
176
     0
290
     0
176
     0
 90
       50
176
     0
 62
   256
176
     0
 40
1.0
176
     0
 90
        2
176
     0
  1
strokes_ogs.tif
176
     0
290
     0
176
     0
 40
1.0
176
     0
 40
1.0
176
     0
  0
VISUALSTYLE
  5
38
102
{ACAD_REACTORS
330
29
102
}
330
29
100
AcDbVisualStyle
  2
Facepattern
 70
    15
177
     3
291
     1
 70
    58
 90
        2
176
     1
 90
        2
176
     1
 90
        0
176
     1
 90
        0
176
     1
 40
0.6
176
     1
 40
30.0
176
     1
 62
     7
420
 16777215
176
     1
 90
        1
176
     1
 90
        4
176
     1
 62
     7
176
     1
 62
   257
176
     1
 90
        1
176
     1
 90
        1
176
     1
 40
1.0
176
     1
 90
        8
176
     1
 62
     7
176
     1
 40
1.0
176
     1
 90
        1
176
     1
 90
        6
176
     1
 90
        2
176
     1
 62
     7
176
     1
 90
        5
176
     1
 90
        0
176
     1
 90
        0
176
     1
290
     0
176
     1
 90
        1
176
     1
 40
0.0
176
     1
 90
        0
176
     1
290
     0
176
     1
290
     1
176
     1
290
     1
176
     1
290
     0
176
     1
290
     0
176
     1
290
     0
176
     1
290
     0
176
     1
290
     0
176
     1
290
     0
176
     1
 90
       50
176
     1
 40
0.0
176
     1
 40
1.0
176
     1
 90
        0
176
     1
 62
    18
420
        0
176
     1
 90
       50
176
     1
 90
        3
176
     1
 62
     5
420
      255
176
     1
290
     0
176
     1
 90
       50
176
     1
 90
       50
176
     1
 90
       50
176
     1
290
     0
176
     1
 90
       50
176
     1
 62
   256
176
     0
 40
1.0
176
     0
 90
        2
176
     1
  1
strokes_ogs.tif
176
     1
290
     0
176
     1
 40
1.0
176
     1
 40
1.0
176
     1
  0
VISUALSTYLE
  5
2A
102
{ACAD_REACTORS
330
29
102
}
330
29
100
AcDbVisualStyle
  2
Flat
 70
     0
177
     3
291
     1
 70
    58
 90
        2
176
     1
 90
        1
176
     1
 90
        1
176
     1
 90
        2
176
     1
 40
0.6
176
     1
 40
30.0
176
     1
 62
     7
420
 16777215
176
     1
 90
        0
176
     1
 90
        0
176
     1
 62
     7
176
     1
 62
   257
176
     1
 90
        1
176
     1
 90
        1
176
     1
 40
1.0
176
     1
 90
        8
176
     1
 62
     7
176
     1
 40
1.0
176
     1
 90
        1
176
     1
 90
        6
176
     1
 90
        2
176
     1
 62
     7
176
     1
 90
        5
176
     1
 90
        0
176
     1
 90
        0
176
     1
290
     0
176
     1
 90
       13
176
     1
 40
0.0
176
     1
 90
        0
176
     1
290
     0
176
     1
290
     1
176
     1
290
     1
176
     1
290
     0
176
     1
290
     0
176
     1
290
     0
176
     1
290
     0
176
     1
290
     0
176
     1
290
     0
176
     1
 90
       50
176
     1
 40
0.0
176
     1
 40
1.0
176
     1
 90
        0
176
     1
 62
    18
420
        0
176
     1
 90
       50
176
     1
 90
        3
176
     1
 62
     5
420
      255
176
     1
290
     0
176
     1
 90
       50
176
     1
 90
       50
176
     1
 90
       50
176
     1
290
     0
176
     1
 90
       50
176
     1
 62
   256
176
     0
 40
1.0
176
     0
 90
        2
176
     1
  1
strokes_ogs.tif
176
     1
290
     0
176
     1
 40
1.0
176
     1
 40
1.0
176
     1
  0
VISUALSTYLE
  5
2B
102
{ACAD_REACTORS
330
29
102
}
330
29
100
AcDbVisualStyle
  2
FlatWithEdges
 70
     1
177
     3
291
     1
 70
    58
 90
        2
176
     1
 90
        1
176
     1
 90
        1
176
     1
 90
        2
176
     1
 40
0.6
176
     1
 40
30.0
176
     1
 62
     7
420
 16777215
176
     1
 90
        1
176
     1
 90
        0
176
     1
 62
     7
176
     1
 62
   257
176
     1
 90
        1
176
     1
 90
        1
176
     1
 40
1.0
176
     1
 90
        0
176
     1
 62
   257
176
     1
 40
1.0
176
     1
 90
        1
176
     1
 90
        6
176
     1
 90
        2
176
     1
 62
     7
176
     1
 90
        5
176
     1
 90
        0
176
     1
 90
        0
176
     1
290
     0
176
     1
 90
       13
176
     1
 40
0.0
176
     1
 90
        0
176
     1
290
     0
176
     1
290
     1
176
     1
290
     1
176
     1
290
     0
176
     1
290
     0
176
     1
290
     0
176
     1
290
     0
176
     1
290
     0
176
     1
290
     0
176
     1
 90
       50
176
     1
 40
0.0
176
     1
 40
1.0
176
     1
 90
        0
176
     1
 62
    18
420
        0
176
     1
 90
       50
176
     1
 90
        3
176
     1
 62
     5
420
      255
176
     1
290
     0
176
     1
 90
       50
176
     1
 90
       50
176
     1
 90
       50
176
     1
290
     0
176
     1
 90
       50
176
     1
 62
   256
176
     0
 40
1.0
176
     0
 90
        2
176
     1
  1
strokes_ogs.tif
176
     1
290
     0
176
     1
 40
1.0
176
     1
 40
1.0
176
     1
  0
VISUALSTYLE
  5
2C
102
{ACAD_REACTORS
330
29
102
}
330
29
100
AcDbVisualStyle
  2
Gouraud
 70
     2
177
     3
291
     1
 70
    58
 90
        2
176
     1
 90
        2
176
     1
 90
        1
176
     1
 90
        2
176
     1
 40
0.6
176
     1
 40
30.0
176
     1
 62
     7
420
 16777215
176
     1
 90
        0
176
     1
 90
        0
176
     1
 62
     7
176
     1
 62
   257
176
     1
 90
        1
176
     1
 90
        1
176
     1
 40
1.0
176
     1
 90
        0
176
     1
 62
     7
176
     1
 40
1.0
176
     1
 90
        1
176
     1
 90
        6
176
     1
 90
        2
176
     1
 62
     7
176
     1
 90
        5
176
     1
 90
        0
176
     1
 90
        0
176
     1
290
     0
176
     1
 90
       13
176
     1
 40
0.0
176
     1
 90
        0
176
     1
290
     0
176
     1
290
     1
176
     1
290
     1
176
     1
290
     0
176
     1
290
     0
176
     1
290
     0
176
     1
290
     0
176
     1
290
     0
176
     1
290
     0
176
     1
 90
       50
176
     1
 40
0.0
176
     1
 40
1.0
176
     1
 90
        0
176
     1
 62
    18
420
        0
176
     1
 90
       50
176
     1
 90
        3
176
     1
 62
     5
420
      255
176
     1
290
     0
176
     1
 90
       50
176
     1
 90
       50
176
     1
 90
       50
176
     1
290
     0
176
     1
 90
       50
176
     1
 62
   256
176
     0
 40
1.0
176
     0
 90
        2
176
     1
  1
strokes_ogs.tif
176
     1
290
     0
176
     1
 40
1.0
176
     1
 40
1.0
176
     1
  0
VISUALSTYLE
  5
2D
102
{ACAD_REACTORS
330
29
102
}
330
29
100
AcDbVisualStyle
  2
GouraudWithEdges
 70
     3
177
     3
291
     1
 70
    58
 90
        2
176
     1
 90
        2
176
     1
 90
        1
176
     1
 90
        2
176
     1
 40
0.6
176
     1
 40
30.0
176
     1
 62
     7
420
 16777215
176
     1
 90
        1
176
     1
 90
        0
176
     1
 62
     7
176
     1
 62
   257
176
     1
 90
        1
176
     1
 90
        1
176
     1
 40
1.0
176
     1
 90
        0
176
     1
 62
   257
176
     1
 40
1.0
176
     1
 90
        1
176
     1
 90
        6
176
     1
 90
        2
176
     1
 62
     7
176
     1
 90
        5
176
     1
 90
        0
176
     1
 90
        0
176
     1
290
     0
176
     1
 90
       13
176
     1
 40
0.0
176
     1
 90
        0
176
     1
290
     0
176
     1
290
     1
176
     1
290
     1
176
     1
290
     0
176
     1
290
     0
176
     1
290
     0
176
     1
290
     0
176
     1
290
     0
176
     1
290
     0
176
     1
 90
       50
176
     1
 40
0.0
176
     1
 40
1.0
176
     1
 90
        0
176
     1
 62
    18
420
        0
176
     1
 90
       50
176
     1
 90
        3
176
     1
 62
     5
420
      255
176
     1
290
     0
176
     1
 90
       50
176
     1
 90
       50
176
     1
 90
       50
176
     1
290
     0
176
     1
 90
       50
176
     1
 62
   256
176
     0
 40
1.0
176
     0
 90
        2
176
     1
  1
strokes_ogs.tif
176
     1
290
     0
176
     1
 40
1.0
176
     1
 40
1.0
176
     1
  0
VISUALSTYLE
  5
31
102
{ACAD_REACTORS
330
29
102
}
330
29
100
AcDbVisualStyle
  2
Hidden
 70
     6
177
     3
291
     0
 70
    58
 90
        1
176
     1
 90
        2
176
     1
 90
        2
176
     1
 90
        0
176
     1
 40
0.6
176
     1
 40
30.0
176
     1
 62
     7
420
 16777215
176
     1
 90
        2
176
     1
 90
        2
176
     1
 62
     7
176
     1
 62
   257
176
     1
 90
        2
176
     1
 90
        1
176
     1
 40
40.0
176
     1
 90
        0
176
     1
 62
   257
176
     1
 40
1.0
176
     1
 90
        1
176
     1
 90
        6
176
     1
 90
        2
176
     1
 62
     7
176
     1
 90
        3
176
     1
 90
        0
176
     1
 90
        0
176
     1
290
     0
176
     1
 90
        1
176
     1
 40
0.0
176
     1
 90
        0
176
     1
290
     0
176
     1
290
     1
176
     1
290
     1
176
     1
290
     0
176
     1
290
     0
176
     1
290
     0
176
     1
290
     0
176
     1
290
     0
176
     1
290
     0
176
     1
 90
       50
176
     1
 40
0.0
176
     1
 40
1.0
176
     1
 90
        0
176
     1
 62
    18
420
        0
176
     1
 90
       50
176
     1
 90
        3
176
     1
 62
     5
420
      255
176
     1
290
     0
176
     1
 90
       50
176
     1
 90
       50
176
     1
 90
       50
176
     1
290
     0
176
     1
 90
       50
176
     1
 62
   256
176
     0
 40
1.0
176
     0
 90
        2
176
     1
  1
strokes_ogs.tif
176
     1
290
     0
176
     1
 40
1.0
176
     1
 40
1.0
176
     1
  0
VISUALSTYLE
  5
3F
102
{ACAD_REACTORS
330
29
102
}
330
29
100
AcDbVisualStyle
  2
JitterOff
 70
    20
177
     3
291
     1
 70
    58
 90
        2
176
     0
 90
        2
176
     0
 90
        0
176
     0
 90
        0
176
     0
 40
0.6
176
     0
 40
30.0
176
     0
 62
     7
420
 16777215
176
     0
 90
        1
176
     0
 90
        4
176
     0
 62
     7
176
     0
 62
   257
176
     0
 90
        1
176
     0
 90
        1
176
     0
 40
1.0
176
     0
 90
       10
176
     2
 62
     7
176
     0
 40
1.0
176
     0
 90
        1
176
     0
 90
        6
176
     0
 90
        2
176
     0
 62
     7
176
     0
 90
        5
176
     0
 90
        0
176
     0
 90
        0
176
     0
290
     0
176
     0
 90
        1
176
     0
 40
0.0
176
     0
 90
        0
176
     0
290
     0
176
     0
290
     1
176
     0
290
     1
176
     0
290
     0
176
     0
290
     0
176
     0
290
     0
176
     0
290
     0
176
     0
290
     0
176
     0
290
     0
176
     0
 90
       50
176
     0
 40
0.0
176
     0
 40
1.0
176
     0
 90
        0
176
     0
 62
    18
420
        0
176
     0
 90
       50
176
     0
 90
        3
176
     0
 62
     5
420
      255
176
     0
290
     0
176
     0
 90
       50
176
     0
 90
       50
176
     0
 90
       50
176
     0
290
     0
176
     0
 90
       50
176
     0
 62
   256
176
     0
 40
1.0
176
     0
 90
        2
176
     0
  1
strokes_ogs.tif
176
     0
290
     0
176
     0
 40
1.0
176
     0
 40
1.0
176
     0
  0
VISUALSTYLE
  5
37
102
{ACAD_REACTORS
330
29
102
}
330
29
100
AcDbVisualStyle
  2
Linepattern
 70
    14
177
     3
291
     1
 70
    58
 90
        2
176
     1
 90
        2
176
     1
 90
        0
176
     1
 90
        0
176
     1
 40
0.6
176
     1
 40
30.0
176
     1
 62
     7
420
 16777215
176
     1
 90
        1
176
     1
 90
        4
176
     1
 62
     7
176
     1
 62
   257
176
     1
 90
        7
176
     1
 90
        7
176
     1
 40
1.0
176
     1
 90
        8
176
     1
 62
     7
176
     1
 40
1.0
176
     1
 90
        1
176
     1
 90
        6
176
     1
 90
        2
176
     1
 62
     7
176
     1
 90
        5
176
     1
 90
        0
176
     1
 90
        0
176
     1
290
     0
176
     1
 90
        1
176
     1
 40
0.0
176
     1
 90
        0
176
     1
290
     0
176
     1
290
     1
176
     1
290
     1
176
     1
290
     0
176
     1
290
     0
176
     1
290
     0
176
     1
290
     0
176
     1
290
     0
176
     1
290
     0
176
     1
 90
       50
176
     1
 40
0.0
176
     1
 40
1.0
176
     1
 90
        0
176
     1
 62
    18
420
        0
176
     1
 90
       50
176
     1
 90
        3
176
     1
 62
     5
420
      255
176
     1
290
     0
176
     1
 90
       50
176
     1
 90
       50
176
     1
 90
       50
176
     1
290
     0
176
     1
 90
       50
176
     1
 62
   256
176
     0
 40
1.0
176
     0
 90
        2
176
     1
  1
strokes_ogs.tif
176
     1
290
     0
176
     1
 40
1.0
176
     1
 40
1.0
176
     1
  0
VISUALSTYLE
  5
40
102
{ACAD_REACTORS
330
29
102
}
330
29
100
AcDbVisualStyle
  2
OverhangOff
 70
    21
177
     3
291
     1
 70
    58
 90
        2
176
     0
 90
        2
176
     0
 90
        0
176
     0
 90
        0
176
     0
 40
0.6
176
     0
 40
30.0
176
     0
 62
     7
420
 16777215
176
     0
 90
        1
176
     0
 90
        4
176
     0
 62
     7
176
     0
 62
   257
176
     0
 90
        1
176
     0
 90
        1
176
     0
 40
1.0
176
     0
 90
        9
176
     2
 62
     7
176
     0
 40
1.0
176
     0
 90
        1
176
     0
 90
        6
176
     0
 90
        2
176
     0
 62
     7
176
     0
 90
        5
176
     0
 90
        0
176
     0
 90
        0
176
     0
290
     0
176
     0
 90
        1
176
     0
 40
0.0
176
     0
 90
        0
176
     0
290
     0
176
     0
290
     1
176
     0
290
     1
176
     0
290
     0
176
     0
290
     0
176
     0
290
     0
176
     0
290
     0
176
     0
290
     0
176
     0
290
     0
176
     0
 90
       50
176
     0
 40
0.0
176
     0
 40
1.0
176
     0
 90
        0
176
     0
 62
    18
420
        0
176
     0
 90
       50
176
     0
 90
        3
176
     0
 62
     5
420
      255
176
     0
290
     0
176
     0
 90
       50
176
     0
 90
       50
176
     0
 90
       50
176
     0
290
     0
176
     0
 90
       50
176
     0
 62
   256
176
     0
 40
1.0
176
     0
 90
        2
176
     0
  1
strokes_ogs.tif
176
     0
290
     0
176
     0
 40
1.0
176
     0
 40
1.0
176
     0
  0
VISUALSTYLE
  5
33
102
{ACAD_REACTORS
330
29
102
}
330
29
100
AcDbVisualStyle
  2
Realistic
 70
     8
177
     3
291
     0
 70
    58
 90
        2
176
     1
 90
        3
176
     1
 90
        0
176
     1
 90
        2
176
     1
 40
0.6
176
     1
 40
30.0
176
     1
 62
     7
420
 16777215
176
     1
 90
        0
176
     1
 90
        0
176
     1
 62
     7
176
     1
 62
   257
176
     1
 90
        1
176
     1
 90
        1
176
     1
 40
1.0
176
     1
 90
        8
176
     1
 62
   257
176
     1
 40
1.0
176
     1
 90
        1
176
     1
 90
        6
176
     1
 90
        2
176
     1
 62
     7
176
     1
 90
        3
176
     1
 90
        0
176
     1
 90
        0
176
     1
290
     0
176
     1
 90
       13
176
     1
 40
0.0
176
     1
 90
        0
176
     1
290
     0
176
     1
290
     1
176
     1
290
     1
176
     1
290
     0
176
     1
290
     0
176
     1
290
     0
176
     1
290
     0
176
     1
290
     0
176
     1
290
     0
176
     1
 90
       50
176
     1
 40
0.0
176
     1
 40
1.0
176
     1
 90
        0
176
     1
 62
    18
420
        0
176
     1
 90
       50
176
     1
 90
        3
176
     1
 62
     5
420
      255
176
     1
290
     0
176
     1
 90
       50
176
     1
 90
       50
176
     1
 90
       50
176
     1
290
     0
176
     1
 90
       50
176
     1
 62
   256
176
     0
 40
1.0
176
     0
 90
        2
176
     1
  1
strokes_ogs.tif
176
     1
290
     0
176
     1
 40
1.0
176
     1
 40
1.0
176
     1
  0
VISUALSTYLE
  5
3E
102
{ACAD_REACTORS
330
29
102
}
330
29
100
AcDbVisualStyle
  2
Shaded
 70
    27
177
     3
291
     0
 70
    58
 90
        2
176
     1
 90
        2
176
     1
 90
        1
176
     1
 90
        2
176
     1
 40
0.6
176
     1
 40
30.0
176
     1
 62
     7
420
 16777215
176
     1
 90
        0
176
     1
 90
        4
176
     1
 62
     7
176
     1
 62
   257
176
     1
 90
        1
176
     1
 90
        1
176
     1
 40
1.0
176
     1
 90
        8
176
     1
 62
   257
176
     1
 40
1.0
176
     1
 90
        1
176
     1
 90
        6
176
     1
 90
        2
176
     1
 62
     8
420
  7895160
176
     1
 90
        3
176
     1
 90
        0
176
     1
 90
        0
176
     1
290
     0
176
     1
 90
        5
176
     1
 40
0.0
176
     1
 90
        0
176
     1
290
     0
176
     1
290
     1
176
     1
290
     1
176
     1
290
     0
176
     1
290
     0
176
     1
290
     0
176
     1
290
     0
176
     1
290
     0
176
     1
290
     0
176
     1
 90
       50
176
     1
 40
0.0
176
     1
 40
1.0
176
     1
 90
        0
176
     1
 62
    18
420
        0
176
     1
 90
       50
176
     1
 90
        3
176
     1
 62
     5
420
      255
176
     1
290
     0
176
     1
 90
       50
176
     1
 90
       50
176
     1
 90
       50
176
     1
290
     0
176
     1
 90
       50
176
     1
 62
   256
176
     0
 40
1.0
176
     0
 90
        2
176
     1
  1
strokes_ogs.tif
176
     1
290
     0
176
     1
 40
1.0
176
     1
 40
1.0
176
     1
  0
VISUALSTYLE
  5
3D
102
{ACAD_REACTORS
330
29
102
}
330
29
100
AcDbVisualStyle
  2
Shaded with edges
 70
    26
177
     3
291
     0
 70
    58
 90
        2
176
     1
 90
        2
176
     1
 90
        1
176
     1
 90
        2
176
     1
 40
0.6
176
     1
 40
30.0
176
     1
 62
     7
420
 16777215
176
     1
 90
        1
176
     1
 90
        2
176
     1
 62
     7
176
     1
 62
   257
176
     1
 90
        2
176
     1
 90
        1
176
     1
 40
1.0
176
     1
 90
        8
176
     1
 62
   257
176
     1
 40
1.0
176
     1
 90
        1
176
     1
 90
        6
176
     1
 90
        2
176
     1
 62
     7
176
     1
 90
        3
176
     1
 90
        0
176
     1
 90
        0
176
     1
290
     0
176
     1
 90
        5
176
     1
 40
0.0
176
     1
 90
        0
176
     1
290
     0
176
     1
290
     1
176
     1
290
     1
176
     1
290
     0
176
     1
290
     0
176
     1
290
     0
176
     1
290
     0
176
     1
290
     0
176
     1
290
     0
176
     1
 90
       50
176
     1
 40
0.0
176
     1
 40
1.0
176
     1
 90
        0
176
     1
 62
    18
420
        0
176
     1
 90
       50
176
     1
 90
        3
176
     1
 62
     5
420
      255
176
     1
290
     0
176
     1
 90
       50
176
     1
 90
       50
176
     1
 90
       50
176
     1
290
     0
176
     1
 90
       50
176
     1
 62
   256
176
     0
 40
1.0
176
     0
 90
        2
176
     1
  1
strokes_ogs.tif
176
     1
290
     0
176
     1
 40
1.0
176
     1
 40
1.0
176
     1
  0
VISUALSTYLE
  5
3A
102
{ACAD_REACTORS
330
29
102
}
330
29
100
AcDbVisualStyle
  2
Shades of Gray
 70
    23
177
     3
291
     0
 70
    58
 90
        2
176
     1
 90
        2
176
     1
 90
        3
176
     1
 90
        0
176
     1
 40
0.6
176
     1
 40
30.0
176
     1
 62
     7
420
 16777215
176
     1
 90
        2
176
     1
 90
        2
176
     1
 62
     7
176
     1
 62
     7
176
     1
 90
        1
176
     1
 90
        1
176
     1
 40
40.0
176
     1
 90
        8
176
     1
 62
     7
176
     1
 40
1.0
176
     1
 90
        1
176
     1
 90
        6
176
     1
 90
        2
176
     1
 62
     7
176
     1
 90
        3
176
     1
 90
        0
176
     1
 90
        0
176
     1
290
     0
176
     1
 90
        1
176
     1
 40
0.0
176
     1
 90
        0
176
     1
290
     0
176
     1
290
     1
176
     1
290
     1
176
     1
290
     0
176
     1
290
     0
176
     1
290
     0
176
     1
290
     0
176
     1
290
     0
176
     1
290
     0
176
     1
 90
       50
176
     1
 40
0.0
176
     1
 40
1.0
176
     1
 90
        0
176
     1
 62
    18
420
        0
176
     1
 90
       50
176
     1
 90
        3
176
     1
 62
     5
420
      255
176
     1
290
     0
176
     1
 90
       50
176
     1
 90
       50
176
     1
 90
       50
176
     1
290
     0
176
     1
 90
       50
176
     1
 62
   256
176
     0
 40
1.0
176
     0
 90
        2
176
     1
  1
strokes_ogs.tif
176
     1
290
     0
176
     1
 40
1.0
176
     1
 40
1.0
176
     1
  0
VISUALSTYLE
  5
3B
102
{ACAD_REACTORS
330
29
102
}
330
29
100
AcDbVisualStyle
  2
Sketchy
 70
    24
177
     3
291
     0
 70
    58
 90
        1
176
     1
 90
        2
176
     1
 90
        2
176
     1
 90
        0
176
     1
 40
0.6
176
     1
 40
30.0
176
     1
 62
     7
420
 16777215
176
     1
 90
        2
176
     1
 90
        2
176
     1
 62
     7
176
     1
 62
     7
176
     1
 90
        1
176
     1
 90
        1
176
     1
 40
40.0
176
     1
 90
       11
176
     1
 62
     7
176
     1
 40
1.0
176
     1
 90
        1
176
     1
 90
        6
176
     1
 90
        2
176
     1
 62
     7
176
     1
 90
        6
176
     1
 90
        0
176
     1
 90
        0
176
     1
290
     0
176
     1
 90
        1
176
     1
 40
0.0
176
     1
 90
        0
176
     1
290
     0
176
     1
290
     1
176
     1
290
     1
176
     1
290
     0
176
     1
290
     0
176
     1
290
     0
176
     1
290
     0
176
     1
290
     0
176
     1
290
     0
176
     1
 90
       50
176
     1
 40
0.0
176
     1
 40
1.0
176
     1
 90
        0
176
     1
 62
    18
420
        0
176
     1
 90
       50
176
     1
 90
        3
176
     1
 62
     5
420
      255
176
     1
290
     0
176
     1
 90
       50
176
     1
 90
       50
176
     1
 90
       50
176
     1
290
     0
176
     1
 90
       50
176
     1
 62
   256
176
     0
 40
1.0
176
     0
 90
        2
176
     1
  1
strokes_ogs.tif
176
     1
290
     0
176
     1
 40
1.0
176
     1
 40
1.0
176
     1
  0
VISUALSTYLE
  5
36
102
{ACAD_REACTORS
330
29
102
}
330
29
100
AcDbVisualStyle
  2
Thicken
 70
    13
177
     3
291
     1
 70
    58
 90
        2
176
     1
 90
        2
176
     1
 90
        0
176
     1
 90
        0
176
     1
 40
0.6
176
     1
 40
30.0
176
     1
 62
     7
420
 16777215
176
     1
 90
        1
176
     1
 90
        4
176
     1
 62
     7
176
     1
 62
   257
176
     1
 90
        1
176
     1
 90
        1
176
     1
 40
1.0
176
     1
 90
       12
176
     1
 62
     7
176
     1
 40
1.0
176
     1
 90
        1
176
     1
 90
        6
176
     1
 90
        2
176
     1
 62
     7
176
     1
 90
        5
176
     1
 90
        0
176
     1
 90
        0
176
     1
290
     0
176
     1
 90
        1
176
     1
 40
0.0
176
     1
 90
        0
176
     1
290
     0
176
     1
290
     1
176
     1
290
     1
176
     1
290
     0
176
     1
290
     0
176
     1
290
     0
176
     1
290
     0
176
     1
290
     0
176
     1
290
     0
176
     1
 90
       50
176
     1
 40
0.0
176
     1
 40
1.0
176
     1
 90
        0
176
     1
 62
    18
420
        0
176
     1
 90
       50
176
     1
 90
        3
176
     1
 62
     5
420
      255
176
     1
290
     0
176
     1
 90
       50
176
     1
 90
       50
176
     1
 90
       50
176
     1
290
     0
176
     1
 90
       50
176
     1
 62
   256
176
     0
 40
1.0
176
     0
 90
        2
176
     1
  1
strokes_ogs.tif
176
     1
290
     0
176
     1
 40
1.0
176
     1
 40
1.0
176
     1
  0
VISUALSTYLE
  5
30
102
{ACAD_REACTORS
330
29
102
}
330
29
100
AcDbVisualStyle
  2
Wireframe
 70
     5
177
     3
291
     0
 70
    58
 90
        0
176
     1
 90
        2
176
     1
 90
        0
176
     1
 90
        0
176
     1
 40
0.6
176
     1
 40
30.0
176
     1
 62
     7
420
 16777215
176
     1
 90
        1
176
     1
 90
        4
176
     1
 62
     7
176
     1
 62
   257
176
     1
 90
        1
176
     1
 90
        1
176
     1
 40
1.0
176
     1
 90
        0
176
     1
 62
   257
176
     1
 40
1.0
176
     1
 90
        1
176
     1
 90
        6
176
     1
 90
        2
176
     1
 62
     7
176
     1
 90
        3
176
     1
 90
        0
176
     1
 90
        0
176
     1
290
     0
176
     1
 90
        1
176
     1
 40
0.0
176
     1
 90
        0
176
     1
290
     0
176
     1
290
     1
176
     1
290
     1
176
     1
290
     0
176
     1
290
     0
176
     1
290
     0
176
     1
290
     0
176
     1
290
     0
176
     1
290
     0
176
     1
 90
       50
176
     1
 40
0.0
176
     1
 40
1.0
176
     1
 90
        0
176
     1
 62
    18
420
        0
176
     1
 90
       50
176
     1
 90
        3
176
     1
 62
     5
420
      255
176
     1
290
     0
176
     1
 90
       50
176
     1
 90
       50
176
     1
 90
       50
176
     1
290
     0
176
     1
 90
       50
176
     1
 62
   256
176
     0
 40
1.0
176
     0
 90
        2
176
     1
  1
strokes_ogs.tif
176
     1
290
     0
176
     1
 40
1.0
176
     1
 40
1.0
176
     1
  0
VISUALSTYLE
  5
3C
102
{ACAD_REACTORS
330
29
102
}
330
29
100
AcDbVisualStyle
  2
X-Ray
 70
    25
177
     3
291
     0
 70
    58
 90
        2
176
     1
 90
        2
176
     1
 90
        1
176
     1
 90
        1
176
     1
 40
0.5
176
     1
 40
30.0
176
     1
 62
     7
420
 16777215
176
     1
 90
        1
176
     1
 90
        0
176
     1
 62
     7
176
     1
 62
   257
176
     1
 90
        1
176
     1
 90
        1
176
     1
 40
1.0
176
     1
 90
        8
176
     1
 62
     7
176
     1
 40
1.0
176
     1
 90
        1
176
     1
 90
        6
176
     1
 90
        2
176
     1
 62
     7
176
     1
 90
        3
176
     1
 90
        0
176
     1
 90
        0
176
     1
290
     0
176
     1
 90
       13
176
     1
 40
0.0
176
     1
 90
        0
176
     1
290
     0
176
     1
290
     1
176
     1
290
     1
176
     1
290
     0
176
     1
290
     0
176
     1
290
     0
176
     1
290
     0
176
     1
290
     0
176
     1
290
     0
176
     1
 90
       50
176
     1
 40
0.0
176
     1
 40
1.0
176
     1
 90
        0
176
     1
 62
    18
420
        0
176
     1
 90
       50
176
     1
 90
        3
176
     1
 62
     5
420
      255
176
     1
290
     0
176
     1
 90
       50
176
     1
 90
       50
176
     1
 90
       50
176
     1
290
     0
176
     1
 90
       50
176
     1
 62
   256
176
     0
 40
1.0
176
     0
 90
        2
176
     1
  1
strokes_ogs.tif
176
     1
290
     0
176
     1
 40
1.0
176
     1
 40
1.0
176
     1
  0
DICTIONARYVAR
  5
266
102
{ACAD_REACTORS
330
261
102
}
330
261
100
DictionaryVariables
280
     0
  1
1:1
  0
DICTIONARYVAR
  5
263
102
{ACAD_REACTORS
330
261
102
}
330
261
100
DictionaryVariables
280
     0
  1
STANDARD
  0
DICTIONARYVAR
  5
262
102
{ACAD_REACTORS
330
261
102
}
330
261
100
DictionaryVariables
280
     0
  1
STANDARD
  0
DICTIONARYVAR
  5
264
102
{ACAD_REACTORS
330
261
102
}
330
261
100
DictionaryVariables
280
     0
  1
Imperial24
  0
DICTIONARYVAR
  5
265
102
{ACAD_REACTORS
330
261
102
}
330
261
100
DictionaryVariables
280
     0
  1
Imperial24
  0
DICTIONARY
  5
1A
330
19
100
AcDbDictionary
280
     1
281
     1
  3
BUMPTILE
360
1C
  3
DIFFUSETILE
360
1B
  3
OPACITYTILE
360
1F
  3
REFLECTIONTILE
360
1E
  3
REFRACTIONTILE
360
20
  3
SPECULARTILE
360
1D
  0
DICTIONARY
  5
12
330
11
100
AcDbDictionary
280
     1
281
     1
  3
BUMPTILE
360
14
  3
DIFFUSETILE
360
13
  3
OPACITYTILE
360
17
  3
REFLECTIONTILE
360
16
  3
REFRACTIONTILE
360
18
  3
SPECULARTILE
360
15
  0
DICTIONARY
  5
22
330
21
100
AcDbDictionary
280
     1
281
     1
  3
BUMPTILE
360
24
  3
DIFFUSETILE
360
23
  3
OPACITYTILE
360
27
  3
REFLECTIONTILE
360
26
  3
REFRACTIONTILE
360
28
  3
SPECULARTILE
360
25
  0
DICTIONARY
  5
267
330
65
100
AcDbDictionary
280
     1
281
     1
  3
ACAD_ROUNDTRIP_2008_TABLESTYLE_CELLSTYLEMAP
360
268
  0
XRECORD
  5
1C
102
{ACAD_REACTORS
330
1A
102
}
330
1A
100
AcDbXrecord
280
     1
270
     1
271
     1
  0
XRECORD
  5
1B
102
{ACAD_REACTORS
330
1A
102
}
330
1A
100
AcDbXrecord
280
     1
270
     1
271
     1
  0
XRECORD
  5
1F
102
{ACAD_REACTORS
330
1A
102
}
330
1A
100
AcDbXrecord
280
     1
270
     1
271
     1
  0
XRECORD
  5
1E
102
{ACAD_REACTORS
330
1A
102
}
330
1A
100
AcDbXrecord
280
     1
270
     1
271
     1
  0
XRECORD
  5
20
102
{ACAD_REACTORS
330
1A
102
}
330
1A
100
AcDbXrecord
280
     1
270
     1
271
     1
  0
XRECORD
  5
1D
102
{ACAD_REACTORS
330
1A
102
}
330
1A
100
AcDbXrecord
280
     1
270
     1
271
     1
  0
XRECORD
  5
14
102
{ACAD_REACTORS
330
12
102
}
330
12
100
AcDbXrecord
280
     1
270
     1
271
     1
  0
XRECORD
  5
13
102
{ACAD_REACTORS
330
12
102
}
330
12
100
AcDbXrecord
280
     1
270
     1
271
     1
  0
XRECORD
  5
17
102
{ACAD_REACTORS
330
12
102
}
330
12
100
AcDbXrecord
280
     1
270
     1
271
     1
  0
XRECORD
  5
16
102
{ACAD_REACTORS
330
12
102
}
330
12
100
AcDbXrecord
280
     1
270
     1
271
     1
  0
XRECORD
  5
18
102
{ACAD_REACTORS
330
12
102
}
330
12
100
AcDbXrecord
280
     1
270
     1
271
     1
  0
XRECORD
  5
15
102
{ACAD_REACTORS
330
12
102
}
330
12
100
AcDbXrecord
280
     1
270
     1
271
     1
  0
XRECORD
  5
24
102
{ACAD_REACTORS
330
22
102
}
330
22
100
AcDbXrecord
280
     1
270
     1
271
     1
  0
XRECORD
  5
23
102
{ACAD_REACTORS
330
22
102
}
330
22
100
AcDbXrecord
280
     1
270
     1
271
     1
  0
XRECORD
  5
27
102
{ACAD_REACTORS
330
22
102
}
330
22
100
AcDbXrecord
280
     1
270
     1
271
     1
  0
XRECORD
  5
26
102
{ACAD_REACTORS
330
22
102
}
330
22
100
AcDbXrecord
280
     1
270
     1
271
     1
  0
XRECORD
  5
28
102
{ACAD_REACTORS
330
22
102
}
330
22
100
AcDbXrecord
280
     1
270
     1
271
     1
  0
XRECORD
  5
25
102
{ACAD_REACTORS
330
22
102
}
330
22
100
AcDbXrecord
280
     1
270
     1
271
     1
  0
CELLSTYLEMAP
  5
268
102
{ACAD_REACTORS
330
267
102
}
330
267
100
AcDbCellStyleMap
 90
        3
300
CELLSTYLE
  1
TABLEFORMAT_BEGIN
 90
        5
170
     1
 91
        0
 92
    32768
 62
   257
 93
        1
300
CONTENTFORMAT
  1
CONTENTFORMAT_BEGIN
 90
        0
 91
        0
 92
      512
 93
        0
300

 40
0.0
140
1.0
 94
        5
 62
     0
340
55
144
0.25
309
CONTENTFORMAT_END
171
     0
 94
        0
309
TABLEFORMAT_END
  1
CELLSTYLE_BEGIN
 90
        1
 91
        1
300
_TITLE
309
CELLSTYLE_END
300
CELLSTYLE
  1
TABLEFORMAT_BEGIN
 90
        5
170
     1
 91
        0
 92
        0
 62
   257
 93
        1
300
CONTENTFORMAT
  1
CONTENTFORMAT_BEGIN
 90
        0
 91
        0
 92
      512
 93
        0
300

 40
0.0
140
1.0
 94
        5
 62
     0
340
55
144
0.18
309
CONTENTFORMAT_END
171
     0
 94
        0
309
TABLEFORMAT_END
  1
CELLSTYLE_BEGIN
 90
        2
 91
        1
300
_HEADER
309
CELLSTYLE_END
300
CELLSTYLE
  1
TABLEFORMAT_BEGIN
 90
        5
170
     1
 91
        0
 92
        0
 62
   257
 93
        1
300
CONTENTFORMAT
  1
CONTENTFORMAT_BEGIN
 90
        0
 91
        0
 92
      512
 93
        0
300

 40
0.0
140
1.0
 94
        2
 62
     0
340
55
144
0.18
309
CONTENTFORMAT_END
171
     0
 94
        0
309
TABLEFORMAT_END
  1
CELLSTYLE_BEGIN
 90
        3
 91
        2
300
_DATA
309
CELLSTYLE_END
  0
ENDSEC
  0
EOF
