  0
SECTION
  2
HEADER
  9
$ACADVER
  1
AC1014
  9
$ACADMAINTVER
 70
     9
  9
$DWGCODEPAGE
  3
ANSI_1252
  9
$INSBASE
 10
0.0
 20
0.0
 30
0.0
  9
$EXTMIN
 10
1.000000000000000E+20
 20
1.000000000000000E+20
 30
1.000000000000000E+20
  9
$EXTMAX
 10
-1.000000000000000E+20
 20
-1.000000000000000E+20
 30
-1.000000000000000E+20
  9
$LIMMIN
 10
0.0
 20
0.0
  9
$LIMMAX
 10
12.0
 20
9.0
  9
$ORTHOMODE
 70
     0
  9
$REGENMODE
 70
     1
  9
$FILLMODE
 70
     1
  9
$QTEXTMODE
 70
     0
  9
$MIRRTEXT
 70
     1
  9
$DRAGMODE
 70
     2
  9
$LTSCALE
 40
1.0
  9
$OSMODE
 70
    37
  9
$ATTMODE
 70
     1
  9
$TEXTSIZE
 40
0.2
  9
$TRACEWID
 40
0.05
  9
$TEXTSTYLE
  7
STANDARD
  9
$CLAYER
  8
0
  9
$CELTYPE
  6
BYLAYER
  9
$CECOLOR
 62
   256
  9
$CELTSCALE
 40
1.0
  9
$DELOBJ
 70
     1
  9
$DISPSILH
 70
     0
  9
$DIMSCALE
 40
1.0
  9
$DIMASZ
 40
0.18
  9
$DIMEXO
 40
0.0625
  9
$DIMDLI
 40
0.38
  9
$DIMRND
 40
0.0
  9
$DIMDLE
 40
0.0
  9
$DIMEXE
 40
0.18
  9
$DIMTP
 40
0.0
  9
$DIMTM
 40
0.0
  9
$DIMTXT
 40
0.18
  9
$DIMCEN
 40
0.09
  9
$DIMTSZ
 40
0.0
  9
$DIMTOL
 70
     0
  9
$DIMLIM
 70
     0
  9
$DIMTIH
 70
     1
  9
$DIMTOH
 70
     1
  9
$DIMSE1
 70
     0
  9
$DIMSE2
 70
     0
  9
$DIMTAD
 70
     0
  9
$DIMZIN
 70
     0
  9
$DIMBLK
  1

  9
$DIMASO
 70
     1
  9
$DIMSHO
 70
     1
  9
$DIMPOST
  1

  9
$DIMAPOST
  1

  9
$DIMALT
 70
     0
  9
$DIMALTD
 70
     2
  9
$DIMALTF
 40
25.4
  9
$DIMLFAC
 40
1.0
  9
$DIMTOFL
 70
     0
  9
$DIMTVP
 40
0.0
  9
$DIMTIX
 70
     0
  9
$DIMSOXD
 70
     0
  9
$DIMSAH
 70
     0
  9
$DIMBLK1
  1

  9
$DIMBLK2
  1

  9
$DIMSTYLE
  2
STANDARD
  9
$DIMCLRD
 70
     0
  9
$DIMCLRE
 70
     0
  9
$DIMCLRT
 70
     0
  9
$DIMTFAC
 40
1.0
  9
$DIMGAP
 40
0.09
  9
$DIMJUST
 70
     0
  9
$DIMSD1
 70
     0
  9
$DIMSD2
 70
     0
  9
$DIMTOLJ
 70
     1
  9
$DIMTZIN
 70
     0
  9
$DIMALTZ
 70
     0
  9
$DIMALTTZ
 70
     0
  9
$DIMFIT
 70
     3
  9
$DIMUPT
 70
     0
  9
$DIMUNIT
 70
     2
  9
$DIMDEC
 70
     4
  9
$DIMTDEC
 70
     4
  9
$DIMALTU
 70
     2
  9
$DIMALTTD
 70
     2
  9
$DIMTXSTY
  7
STANDARD
  9
$DIMAUNIT
 70
     0
  9
$LUNITS
 70
     2
  9
$LUPREC
 70
     4
  9
$SKETCHINC
 40
0.1
  9
$FILLETRAD
 40
0.5
  9
$AUNITS
 70
     0
  9
$AUPREC
 70
     0
  9
$MENU
  1
.
  9
$ELEVATION
 40
0.0
  9
$PELEVATION
 40
0.0
  9
$THICKNESS
 40
0.0
  9
$LIMCHECK
 70
     0
  9
$CHAMFERA
 40
0.5
  9
$CHAMFERB
 40
0.5
  9
$CHAMFERC
 40
1.0
  9
$CHAMFERD
 40
0.0
  9
$SKPOLY
 70
     0
  9
$TDCREATE
 40
2456715.515947025
  9
$TDUPDATE
 40
2456715.515947037
  9
$TDINDWG
 40
0.0000000116
  9
$TDUSRTIMER
 40
0.0000000116
  9
$USRTIMER
 70
     1
  9
$ANGBASE
 50
0.0
  9
$ANGDIR
 70
     0
  9
$PDMODE
 70
     0
  9
$PDSIZE
 40
0.0
  9
$PLINEWID
 40
0.0
  9
$COORDS
 70
     1
  9
$SPLFRAME
 70
     0
  9
$SPLINETYPE
 70
     6
  9
$SPLINESEGS
 70
     8
  9
$ATTDIA
 70
     0
  9
$ATTREQ
 70
     1
  9
$HANDLING
 70
     1
  9
$HANDSEED
  5
2FE
  9
$SURFTAB1
 70
     6
  9
$SURFTAB2
 70
     6
  9
$SURFTYPE
 70
     6
  9
$SURFU
 70
     6
  9
$SURFV
 70
     6
  9
$UCSNAME
  2

  9
$UCSORG
 10
0.0
 20
0.0
 30
0.0
  9
$UCSXDIR
 10
1.0
 20
0.0
 30
0.0
  9
$UCSYDIR
 10
0.0
 20
1.0
 30
0.0
  9
$PUCSNAME
  2

  9
$PUCSORG
 10
0.0
 20
0.0
 30
0.0
  9
$PUCSXDIR
 10
1.0
 20
0.0
 30
0.0
  9
$PUCSYDIR
 10
0.0
 20
1.0
 30
0.0
  9
$USERI1
 70
     0
  9
$USERI2
 70
     0
  9
$USERI3
 70
     0
  9
$USERI4
 70
     0
  9
$USERI5
 70
     0
  9
$USERR1
 40
0.0
  9
$USERR2
 40
0.0
  9
$USERR3
 40
0.0
  9
$USERR4
 40
0.0
  9
$USERR5
 40
0.0
  9
$WORLDVIEW
 70
     1
  9
$SHADEDGE
 70
     3
  9
$SHADEDIF
 70
    70
  9
$TILEMODE
 70
     1
  9
$MAXACTVP
 70
    64
  9
$PINSBASE
 10
0.0
 20
0.0
 30
0.0
  9
$PLIMCHECK
 70
     0
  9
$PEXTMIN
 10
1.000000000000000E+20
 20
1.000000000000000E+20
 30
1.000000000000000E+20
  9
$PEXTMAX
 10
-1.000000000000000E+20
 20
-1.000000000000000E+20
 30
-1.000000000000000E+20
  9
$PLIMMIN
 10
0.0
 20
0.0
  9
$PLIMMAX
 10
12.0
 20
9.0
  9
$UNITMODE
 70
     0
  9
$VISRETAIN
 70
     1
  9
$PLINEGEN
 70
     0
  9
$PSLTSCALE
 70
     1
  9
$TREEDEPTH
 70
  3020
  9
$PICKSTYLE
 70
     1
  9
$CMLSTYLE
  2
STANDARD
  9
$CMLJUST
 70
     0
  9
$CMLSCALE
 40
1.0
  9
$PROXYGRAPHICS
 70
     1
  9
$MEASUREMENT
 70
     0
  0
ENDSEC
  0
SECTION
  2
CLASSES
  0
CLASS
  1
ACDBDICTIONARYWDFLT
  2
AcDbDictionaryWithDefault
  3
ObjectDBX Classes
 90
        0
280
     0
281
     0
  0
CLASS
  1
VISUALSTYLE
  2
AcDbVisualStyle
  3
ObjectDBX Classes
 90
     4095
280
     0
281
     0
  0
CLASS
  1
XRECORD
  2
AcDbXrecord
  3
AutoCAD 2000
 90
        0
280
     0
281
     0
  0
CLASS
  1
LWPOLYLINE
  2
AcDbPolyline
  3
AutoCAD 2000
 90
        0
280
     0
281
     1
  0
CLASS
  1
HATCH
  2
AcDbHatch
  3
AutoCAD 2000
 90
        0
280
     0
281
     1
  0
CLASS
  1
ACDBPLACEHOLDER
  2
AcDbPlaceHolder
  3
ObjectDBX Classes
 90
        0
280
     0
281
     0
  0
CLASS
  1
LAYOUT
  2
AcDbLayout
  3
ObjectDBX Classes
 90
        0
280
     0
281
     0
  0
ENDSEC
  0
SECTION
  2
TABLES
  0
TABLE
  2
VPORT
  5
8
330
0
100
AcDbSymbolTable
 70
     1
  0
VPORT
  5
29
330
8
100
AcDbSymbolTableRecord
100
AcDbViewportTableRecord
  2
*ACTIVE
 70
     0
 10
0.0
 20
0.0
 11
1.0
 21
1.0
 12
0.0
 22
0.0
 13
0.0
 23
0.0
 14
0.5
 24
0.5
 15
0.5
 25
0.5
 16
0.0
 26
0.0
 36
1.0
 17
100.0619370952102
 27
127.0193786303545
 37
0.0
 40
297.0001314904201
 41
0.7070759562020681
 42
50.0
 43
0.0
 44
0.0
 50
0.0
 51
0.0
 71
     0
 72
   100
 73
     1
 74
     3
 75
     0
 76
     0
 77
     0
 78
     0
  0
ENDTAB
  0
TABLE
  2
LTYPE
  5
5
330
0
100
AcDbSymbolTable
 70
     1
  0
LTYPE
  5
14
330
5
100
AcDbSymbolTableRecord
100
AcDbLinetypeTableRecord
  2
BYBLOCK
 70
     0
  3

 72
    65
 73
     0
 40
0.0
  0
LTYPE
  5
15
330
5
100
AcDbSymbolTableRecord
100
AcDbLinetypeTableRecord
  2
BYLAYER
 70
     0
  3

 72
    65
 73
     0
 40
0.0
  0
LTYPE
  5
16
330
5
100
AcDbSymbolTableRecord
100
AcDbLinetypeTableRecord
  2
CONTINUOUS
 70
     0
  3
Solid line
 72
    65
 73
     0
 40
0.0
  0
ENDTAB
  0
TABLE
  2
LAYER
  5
2
330
0
100
AcDbSymbolTable
 70
     5
  0
LAYER
  5
10
330
2
100
AcDbSymbolTableRecord
100
AcDbLayerTableRecord
  2
0
 70
     0
 62
     7
  6
CONTINUOUS
  0
LAYER
  5
3B
330
2
100
AcDbSymbolTableRecord
100
AcDbLayerTableRecord
  2
GRAU_10_
 70
     0
 62
     7
  6
CONTINUOUS
  0
LAYER
  5
C2
330
2
100
AcDbSymbolTableRecord
100
AcDbLayerTableRecord
  2
STANDARDEBENE
 70
     0
 62
     7
  6
CONTINUOUS
  0
LAYER
  5
149
330
2
100
AcDbSymbolTableRecord
100
AcDbLayerTableRecord
  2
BEMAßUNG
 70
     1
 62
     7
  6
CONTINUOUS
  0
LAYER
  5
2DA
330
2
100
AcDbSymbolTableRecord
100
AcDbLayerTableRecord
  2
TEXT
 70
     1
 62
     7
  6
CONTINUOUS
  0
ENDTAB
  0
TABLE
  2
STYLE
  5
3
330
0
100
AcDbSymbolTable
 70
     1
  0
STYLE
  5
11
330
3
100
AcDbSymbolTableRecord
100
AcDbTextStyleTableRecord
  2
STANDARD
 70
     0
 40
0.0
 41
1.0
 50
0.0
 71
     0
 42
0.2
  3
txt
  4

  0
ENDTAB
  0
TABLE
  2
VIEW
  5
6
330
0
100
AcDbSymbolTable
 70
     0
  0
ENDTAB
  0
TABLE
  2
UCS
  5
7
330
0
100
AcDbSymbolTable
 70
     0
  0
ENDTAB
  0
TABLE
  2
APPID
  5
9
330
0
100
AcDbSymbolTable
 70
     1
  0
APPID
  5
12
330
9
100
AcDbSymbolTableRecord
100
AcDbRegAppTableRecord
  2
ACAD
 70
     0
  0
ENDTAB
  0
TABLE
  2
DIMSTYLE
  5
A
330
0
100
AcDbSymbolTable
 70
     1
  0
DIMSTYLE
105
27
330
A
100
AcDbSymbolTableRecord
100
AcDbDimStyleTableRecord
  2
STANDARD
 70
     0
  3

  4

  5

  6

  7

 40
1.0
 41
0.18
 42
0.0625
 43
0.38
 44
0.18
 45
0.0
 46
0.0
 47
0.0
 48
0.0
140
0.18
141
0.09
142
0.0
143
25.4
144
1.0
145
0.0
146
1.0
147
0.09
 71
     0
 72
     0
 73
     1
 74
     1
 75
     0
 76
     0
 77
     0
 78
     0
170
     0
171
     2
172
     0
173
     0
174
     0
175
     0
176
     0
177
     0
178
     0
270
     2
271
     4
272
     4
273
     2
274
     2
340
11
275
     0
280
     0
281
     0
282
     0
283
     1
284
     0
285
     0
286
     0
287
     3
288
     0
  0
ENDTAB
  0
TABLE
  2
BLOCK_RECORD
  5
1
330
0
100
AcDbSymbolTable
 70
     1
  0
BLOCK_RECORD
  5
1F
330
1
100
AcDbSymbolTableRecord
100
AcDbBlockTableRecord
  2
*MODEL_SPACE
  0
BLOCK_RECORD
  5
1B
330
1
100
AcDbSymbolTableRecord
100
AcDbBlockTableRecord
  2
*PAPER_SPACE
  0
ENDTAB
  0
ENDSEC
  0
SECTION
  2
BLOCKS
  0
BLOCK
  5
20
330
1F
100
AcDbEntity
  8
0
100
AcDbBlockBegin
  2
*MODEL_SPACE
 70
     0
 71
     0
 10
0.0
 20
0.0
 30
0.0
  3
*MODEL_SPACE
  1

  0
ENDBLK
  5
21
330
1F
100
AcDbEntity
  8
0
100
AcDbBlockEnd
  0
BLOCK
  5
1C
330
1B
100
AcDbEntity
 67
     1
  8
0
100
AcDbBlockBegin
  2
*PAPER_SPACE
 70
     0
 71
     0
 10
0.0
 20
0.0
 30
0.0
  3
*PAPER_SPACE
  1

  0
ENDBLK
  5
1D
330
1B
100
AcDbEntity
 67
     1
  8
0
100
AcDbBlockEnd
  0
ENDSEC
  0
SECTION
  2
ENTITIES
  0
POLYLINE
  5
3C
330
1F
100
AcDbEntity
  8
GRAU_10_
 62
     7
100
AcDb2dPolyline
 66
     1
 10
0.0
 20
0.0
 30
0.0
  0
VERTEX
  5
3D
330
3C
100
AcDbEntity
  8
GRAU_10_
 62
     7
100
AcDbVertex
100
AcDb2dVertex
 10
46.10244003838758
 20
229.3574041852822
 30
0.0
  0
VERTEX
  5
3E
330
3C
100
AcDbEntity
  8
GRAU_10_
 62
     7
100
AcDbVertex
100
AcDb2dVertex
 10
46.10244003838758
 20
169.356932195074
 30
0.0
  0
SEQEND
  5
3F
330
3C
100
AcDbEntity
  8
GRAU_10_
  0
POLYLINE
  5
40
330
1F
100
AcDbEntity
  8
GRAU_10_
 62
     7
100
AcDb2dPolyline
 66
     1
 10
0.0
 20
0.0
 30
0.0
  0
VERTEX
  5
41
330
40
100
AcDbEntity
  8
GRAU_10_
 62
     7
100
AcDbVertex
100
AcDb2dVertex
 10
46.10244003838758
 20
229.3574041852822
 30
0.0
  0
VERTEX
  5
42
330
40
100
AcDbEntity
  8
GRAU_10_
 62
     7
100
AcDbVertex
100
AcDb2dVertex
 10
32.10243326020356
 20
229.3574041852822
 30
0.0
  0
VERTEX
  5
43
330
40
100
AcDbEntity
  8
GRAU_10_
 62
     7
100
AcDbVertex
100
AcDb2dVertex
 10
32.10243326020356
 20
169.356932195074
 30
0.0
  0
VERTEX
  5
44
330
40
100
AcDbEntity
  8
GRAU_10_
 62
     7
100
AcDbVertex
100
AcDb2dVertex
 10
46.10244003838758
 20
169.356932195074
 30
0.0
  0
SEQEND
  5
45
330
40
100
AcDbEntity
  8
GRAU_10_
  0
POLYLINE
  5
46
330
1F
100
AcDbEntity
  8
GRAU_10_
 62
     7
100
AcDb2dPolyline
 66
     1
 10
0.0
 20
0.0
 30
0.0
  0
VERTEX
  5
47
330
46
100
AcDbEntity
  8
GRAU_10_
 62
     7
100
AcDbVertex
100
AcDb2dVertex
 10
77.10209823376267
 20
236.3573214469871
 30
0.0
  0
VERTEX
  5
48
330
46
100
AcDbEntity
  8
GRAU_10_
 62
     7
100
AcDbVertex
100
AcDb2dVertex
 10
77.10209823376267
 20
229.3574041852822
 30
0.0
  0
SEQEND
  5
49
330
46
100
AcDbEntity
  8
GRAU_10_
  0
POLYLINE
  5
4A
330
1F
100
AcDbEntity
  8
GRAU_10_
 62
     7
100
AcDb2dPolyline
 66
     1
 10
0.0
 20
0.0
 30
0.0
  0
VERTEX
  5
4B
330
4A
100
AcDbEntity
  8
GRAU_10_
 62
     7
100
AcDbVertex
100
AcDb2dVertex
 10
77.10209823376267
 20
169.356932195074
 30
0.0
  0
VERTEX
  5
4C
330
4A
100
AcDbEntity
  8
GRAU_10_
 62
     7
100
AcDbVertex
100
AcDb2dVertex
 10
77.10209823376267
 20
229.3574041852822
 30
0.0
  0
SEQEND
  5
4D
330
4A
100
AcDbEntity
  8
GRAU_10_
  0
POLYLINE
  5
4E
330
1F
100
AcDbEntity
  8
GRAU_10_
 62
     7
100
AcDb2dPolyline
 66
     1
 10
0.0
 20
0.0
 30
0.0
  0
VERTEX
  5
4F
330
4E
100
AcDbEntity
  8
GRAU_10_
 62
     7
100
AcDbVertex
100
AcDb2dVertex
 10
32.10243326020356
 20
229.3574041852822
 30
0.0
  0
VERTEX
  5
50
330
4E
100
AcDbEntity
  8
GRAU_10_
 62
     7
100
AcDbVertex
100
AcDb2dVertex
 10
32.10243326020356
 20
236.3573214469871
 30
0.0
  0
SEQEND
  5
51
330
4E
100
AcDbEntity
  8
GRAU_10_
  0
POLYLINE
  5
52
330
1F
100
AcDbEntity
  8
GRAU_10_
 62
     7
100
AcDb2dPolyline
 66
     1
 10
0.0
 20
0.0
 30
0.0
  0
VERTEX
  5
53
330
52
100
AcDbEntity
  8
GRAU_10_
 62
     7
100
AcDbVertex
100
AcDb2dVertex
 10
46.10244003838758
 20
169.356932195074
 30
0.0
  0
VERTEX
  5
54
330
52
100
AcDbEntity
  8
GRAU_10_
 62
     7
100
AcDbVertex
100
AcDb2dVertex
 10
54.10195175513771
 20
169.356932195074
 30
0.0
  0
VERTEX
  5
55
330
52
100
AcDbEntity
  8
GRAU_10_
 62
     7
100
AcDbVertex
100
AcDb2dVertex
 10
77.10209823376267
 20
169.356932195074
 30
0.0
  0
SEQEND
  5
56
330
52
100
AcDbEntity
  8
GRAU_10_
  0
POLYLINE
  5
57
330
1F
100
AcDbEntity
  8
GRAU_10_
 62
     7
100
AcDb2dPolyline
 66
     1
 10
0.0
 20
0.0
 30
0.0
  0
VERTEX
  5
58
330
57
100
AcDbEntity
  8
GRAU_10_
 62
     7
100
AcDbVertex
100
AcDb2dVertex
 10
32.10243326020356
 20
236.3573214469871
 30
0.0
  0
VERTEX
  5
59
330
57
100
AcDbEntity
  8
GRAU_10_
 62
     7
100
AcDbVertex
100
AcDb2dVertex
 10
77.10209823376267
 20
236.3573214469871
 30
0.0
  0
SEQEND
  5
5A
330
57
100
AcDbEntity
  8
GRAU_10_
  0
POLYLINE
  5
5B
330
1F
100
AcDbEntity
  8
GRAU_10_
 62
     7
100
AcDb2dPolyline
 66
     1
 10
0.0
 20
0.0
 30
0.0
  0
VERTEX
  5
5C
330
5B
100
AcDbEntity
  8
GRAU_10_
 62
     7
100
AcDbVertex
100
AcDb2dVertex
 10
54.10195175513771
 20
169.356932195074
 30
0.0
  0
VERTEX
  5
5D
330
5B
100
AcDbEntity
  8
GRAU_10_
 62
     7
100
AcDbVertex
100
AcDb2dVertex
 10
54.10195175513771
 20
229.3574041852822
 30
0.0
  0
SEQEND
  5
5E
330
5B
100
AcDbEntity
  8
GRAU_10_
  0
POLYLINE
  5
5F
330
1F
100
AcDbEntity
  8
GRAU_10_
 62
     7
100
AcDb2dPolyline
 66
     1
 10
0.0
 20
0.0
 30
0.0
  0
VERTEX
  5
60
330
5F
100
AcDbEntity
  8
GRAU_10_
 62
     7
100
AcDbVertex
100
AcDb2dVertex
 10
77.10209823376267
 20
229.3574041852822
 30
0.0
  0
VERTEX
  5
61
330
5F
100
AcDbEntity
  8
GRAU_10_
 62
     7
100
AcDbVertex
100
AcDb2dVertex
 10
54.10195175513771
 20
229.3574041852822
 30
0.0
  0
SEQEND
  5
62
330
5F
100
AcDbEntity
  8
GRAU_10_
  0
POLYLINE
  5
63
330
1F
100
AcDbEntity
  8
GRAU_10_
 62
     7
100
AcDb2dPolyline
 66
     1
 10
0.0
 20
0.0
 30
0.0
  0
VERTEX
  5
64
330
63
100
AcDbEntity
  8
GRAU_10_
 62
     7
100
AcDbVertex
100
AcDb2dVertex
 10
46.10244003838758
 20
232.6569443862802
 30
0.0
  0
VERTEX
  5
65
330
63
100
AcDbEntity
  8
GRAU_10_
 62
     7
100
AcDbVertex
100
AcDb2dVertex
 10
46.10244003838758
 20
229.3574041852822
 30
0.0
  0
SEQEND
  5
66
330
63
100
AcDbEntity
  8
GRAU_10_
  0
POLYLINE
  5
67
330
1F
100
AcDbEntity
  8
GRAU_10_
 62
     7
100
AcDb2dPolyline
 66
     1
 10
0.0
 20
0.0
 30
0.0
  0
VERTEX
  5
68
330
67
100
AcDbEntity
  8
GRAU_10_
 62
     7
100
AcDbVertex
100
AcDb2dVertex
 10
46.10244003838758
 20
232.6569443862802
 30
0.0
  0
VERTEX
  5
69
330
67
100
AcDbEntity
  8
GRAU_10_
 62
     7
100
AcDbVertex
100
AcDb2dVertex
 10
54.10195175513771
 20
232.6569443862802
 30
0.0
  0
SEQEND
  5
6A
330
67
100
AcDbEntity
  8
GRAU_10_
  0
POLYLINE
  5
6B
330
1F
100
AcDbEntity
  8
GRAU_10_
 62
     7
100
AcDb2dPolyline
 66
     1
 10
0.0
 20
0.0
 30
0.0
  0
VERTEX
  5
6C
330
6B
100
AcDbEntity
  8
GRAU_10_
 62
     7
100
AcDbVertex
100
AcDb2dVertex
 10
54.10195175513771
 20
229.3574041852822
 30
0.0
  0
VERTEX
  5
6D
330
6B
100
AcDbEntity
  8
GRAU_10_
 62
     7
100
AcDbVertex
100
AcDb2dVertex
 10
54.10195175513771
 20
232.6569443862802
 30
0.0
  0
SEQEND
  5
6E
330
6B
100
AcDbEntity
  8
GRAU_10_
  0
SPLINE
  5
6F
330
1F
100
AcDbEntity
  8
GRAU_10_
 62
     7
100
AcDbSpline
210
0.0
220
0.0
230
1.0
 70
    11
 71
     3
 72
    17
 73
    13
 74
     0
 42
0.0000000001
 43
0.0000000001
 40
0.0
 40
0.0
 40
0.0
 40
0.0
 40
1.0
 40
1.0
 40
1.0
 40
2.0
 40
2.0
 40
2.0
 40
3.0
 40
3.0
 40
3.0
 40
4.0
 40
4.0
 40
4.0
 40
4.0
 10
52.60195718085993
 20
174.3569715275913
 30
0.0
 10
52.60195718085993
 20
175.7377657980795
 30
0.0
 10
51.48264565770226
 20
176.8570773212371
 30
0.0
 10
50.10185138721413
 20
176.8570773212371
 30
0.0
 10
48.72140162627451
 20
176.8570773212371
 30
0.0
 10
47.60209010311684
 20
175.7377657980795
 30
0.0
 10
47.60209010311684
 20
174.3569715275913
 30
0.0
 10
47.60209010311684
 20
172.9765217666517
 30
0.0
 10
48.72140162627451
 20
171.8570379887198
 30
0.0
 10
50.10185138721413
 20
171.8570379887198
 30
0.0
 10
51.48264565770226
 20
171.8570379887198
 30
0.0
 10
52.60195718085993
 20
172.9765217666517
 30
0.0
 10
52.60195718085993
 20
174.3569715275913
 30
0.0
  0
SPLINE
  5
70
330
1F
100
AcDbEntity
  8
GRAU_10_
 62
     7
100
AcDbSpline
210
0.0
220
0.0
230
1.0
 70
    11
 71
     3
 72
    17
 73
    13
 74
     0
 42
0.0000000001
 43
0.0000000001
 40
0.0
 40
0.0
 40
0.0
 40
0.0
 40
1.0
 40
1.0
 40
1.0
 40
2.0
 40
2.0
 40
2.0
 40
3.0
 40
3.0
 40
3.0
 40
4.0
 40
4.0
 40
4.0
 40
4.0
 10
52.60195718085993
 20
224.3575371075391
 30
0.0
 10
52.60195718085993
 20
225.7374701041559
 30
0.0
 10
51.48264565770226
 20
226.8569538820879
 30
0.0
 10
50.10185138721413
 20
226.8569538820879
 30
0.0
 10
48.72140162627451
 20
226.8569538820879
 30
0.0
 10
47.60209010311684
 20
225.7374701041559
 30
0.0
 10
47.60209010311684
 20
224.3575371075391
 30
0.0
 10
47.60209010311684
 20
222.9763983275024
 30
0.0
 10
48.72140162627451
 20
221.8569145495705
 30
0.0
 10
50.10185138721413
 20
221.8569145495705
 30
0.0
 10
51.48264565770226
 20
221.8569145495705
 30
0.0
 10
52.60195718085993
 20
222.9763983275024
 30
0.0
 10
52.60195718085993
 20
224.3575371075391
 30
0.0
  0
POLYLINE
  5
71
330
1F
100
AcDbEntity
  8
GRAU_10_
 62
     7
100
AcDb2dPolyline
 66
     1
 10
0.0
 20
0.0
 30
0.0
  0
VERTEX
  5
72
330
71
100
AcDbEntity
  8
GRAU_10_
 62
     7
100
AcDbVertex
100
AcDb2dVertex
 10
162.9375135226337
 20
229.3574041852822
 30
0.0
  0
VERTEX
  5
73
330
71
100
AcDbEntity
  8
GRAU_10_
 62
     7
100
AcDbVertex
100
AcDb2dVertex
 10
162.9375135226337
 20
169.356932195074
 30
0.0
  0
SEQEND
  5
74
330
71
100
AcDbEntity
  8
GRAU_10_
  0
POLYLINE
  5
75
330
1F
100
AcDbEntity
  8
GRAU_10_
 62
     7
100
AcDb2dPolyline
 66
     1
 10
0.0
 20
0.0
 30
0.0
  0
VERTEX
  5
76
330
75
100
AcDbEntity
  8
GRAU_10_
 62
     7
100
AcDbVertex
100
AcDb2dVertex
 10
137.9378336243697
 20
169.356932195074
 30
0.0
  0
VERTEX
  5
77
330
75
100
AcDbEntity
  8
GRAU_10_
 62
     7
100
AcDbVertex
100
AcDb2dVertex
 10
137.9378336243697
 20
181.8569443989802
 30
0.0
  0
SEQEND
  5
78
330
75
100
AcDbEntity
  8
GRAU_10_
  0
POLYLINE
  5
79
330
1F
100
AcDbEntity
  8
GRAU_10_
 62
     7
100
AcDb2dPolyline
 66
     1
 10
0.0
 20
0.0
 30
0.0
  0
VERTEX
  5
7A
330
79
100
AcDbEntity
  8
GRAU_10_
 62
     7
100
AcDbVertex
100
AcDb2dVertex
 10
137.9378336243697
 20
216.8573919813759
 30
0.0
  0
VERTEX
  5
7B
330
79
100
AcDbEntity
  8
GRAU_10_
 62
     7
100
AcDbVertex
100
AcDb2dVertex
 10
137.9378336243697
 20
229.8569430306434
 30
0.0
  0
SEQEND
  5
7C
330
79
100
AcDbEntity
  8
GRAU_10_
  0
POLYLINE
  5
7D
330
1F
100
AcDbEntity
  8
GRAU_10_
 62
     7
100
AcDb2dPolyline
 66
     1
 10
0.0
 20
0.0
 30
0.0
  0
VERTEX
  5
7E
330
7D
100
AcDbEntity
  8
GRAU_10_
 62
     7
100
AcDbVertex
100
AcDb2dVertex
 10
138.4377169792795
 20
216.8573919813759
 30
0.0
  0
VERTEX
  5
7F
330
7D
100
AcDbEntity
  8
GRAU_10_
 62
     7
100
AcDbVertex
100
AcDb2dVertex
 10
138.4377169792795
 20
181.8569443989802
 30
0.0
  0
VERTEX
  5
80
330
7D
100
AcDbEntity
  8
GRAU_10_
 62
     7
100
AcDbVertex
100
AcDb2dVertex
 10
137.9378336243697
 20
181.8569443989802
 30
0.0
  0
SEQEND
  5
81
330
7D
100
AcDbEntity
  8
GRAU_10_
  0
POLYLINE
  5
82
330
1F
100
AcDbEntity
  8
GRAU_10_
 62
     7
100
AcDb2dPolyline
 66
     1
 10
0.0
 20
0.0
 30
0.0
  0
VERTEX
  5
83
330
82
100
AcDbEntity
  8
GRAU_10_
 62
     7
100
AcDbVertex
100
AcDb2dVertex
 10
162.9375135226337
 20
169.356932195074
 30
0.0
  0
VERTEX
  5
84
330
82
100
AcDbEntity
  8
GRAU_10_
 62
     7
100
AcDbVertex
100
AcDb2dVertex
 10
137.9378336243697
 20
169.356932195074
 30
0.0
  0
SEQEND
  5
85
330
82
100
AcDbEntity
  8
GRAU_10_
  0
POLYLINE
  5
86
330
1F
100
AcDbEntity
  8
GRAU_10_
 62
     7
100
AcDb2dPolyline
 66
     1
 10
0.0
 20
0.0
 30
0.0
  0
VERTEX
  5
87
330
86
100
AcDbEntity
  8
GRAU_10_
 62
     7
100
AcDbVertex
100
AcDb2dVertex
 10
162.9375135226337
 20
229.3574041852822
 30
0.0
  0
VERTEX
  5
88
330
86
100
AcDbEntity
  8
GRAU_10_
 62
     7
100
AcDbVertex
100
AcDb2dVertex
 10
155.9377685157031
 20
236.3573214469871
 30
0.0
  0
VERTEX
  5
89
330
86
100
AcDbEntity
  8
GRAU_10_
 62
     7
100
AcDbVertex
100
AcDb2dVertex
 10
122.9378878815919
 20
236.3573214469871
 30
0.0
  0
VERTEX
  5
8A
330
86
100
AcDbEntity
  8
GRAU_10_
 62
     7
100
AcDbVertex
100
AcDb2dVertex
 10
122.9378878815919
 20
229.3574041852822
 30
0.0
  0
SEQEND
  5
8B
330
86
100
AcDbEntity
  8
GRAU_10_
  0
POLYLINE
  5
8C
330
1F
100
AcDbEntity
  8
GRAU_10_
 62
     7
100
AcDb2dPolyline
 66
     1
 10
0.0
 20
0.0
 30
0.0
  0
VERTEX
  5
8D
330
8C
100
AcDbEntity
  8
GRAU_10_
 62
     7
100
AcDbVertex
100
AcDb2dVertex
 10
135.9376111856337
 20
229.3574041852822
 30
0.0
  0
VERTEX
  5
8E
330
8C
100
AcDbEntity
  8
GRAU_10_
 62
     7
100
AcDbVertex
100
AcDb2dVertex
 10
122.9378878815919
 20
229.3574041852822
 30
0.0
  0
SEQEND
  5
8F
330
8C
100
AcDbEntity
  8
GRAU_10_
  0
POLYLINE
  5
90
330
1F
100
AcDbEntity
  8
GRAU_10_
 62
     7
100
AcDb2dPolyline
 66
     1
 10
0.0
 20
0.0
 30
0.0
  0
VERTEX
  5
91
330
90
100
AcDbEntity
  8
GRAU_10_
 62
     7
100
AcDbVertex
100
AcDb2dVertex
 10
135.9376111856337
 20
229.3574041852822
 30
0.0
  0
VERTEX
  5
92
330
90
100
AcDbEntity
  8
GRAU_10_
 62
     7
100
AcDbVertex
100
AcDb2dVertex
 10
135.9376111856337
 20
229.8569430306434
 30
0.0
  0
VERTEX
  5
93
330
90
100
AcDbEntity
  8
GRAU_10_
 62
     7
100
AcDbVertex
100
AcDb2dVertex
 10
137.9378336243697
 20
229.8569430306434
 30
0.0
  0
SEQEND
  5
94
330
90
100
AcDbEntity
  8
GRAU_10_
  0
POLYLINE
  5
95
330
1F
100
AcDbEntity
  8
GRAU_10_
 62
     7
100
AcDb2dPolyline
 66
     1
 10
0.0
 20
0.0
 30
0.0
  0
VERTEX
  5
96
330
95
100
AcDbEntity
  8
GRAU_10_
 62
     7
100
AcDbVertex
100
AcDb2dVertex
 10
137.9378336243697
 20
216.8573919813759
 30
0.0
  0
VERTEX
  5
97
330
95
100
AcDbEntity
  8
GRAU_10_
 62
     7
100
AcDbVertex
100
AcDb2dVertex
 10
138.4377169792795
 20
216.8573919813759
 30
0.0
  0
SEQEND
  5
98
330
95
100
AcDbEntity
  8
GRAU_10_
  0
POLYLINE
  5
99
330
1F
100
AcDbEntity
  8
GRAU_10_
 62
     7
100
AcDb2dPolyline
 66
     1
 10
0.0
 20
0.0
 30
0.0
  0
VERTEX
  5
9A
330
99
100
AcDbEntity
  8
GRAU_10_
 62
     7
100
AcDbVertex
100
AcDb2dVertex
 10
46.10244003838758
 20
99.6914170757716
 30
0.0
  0
VERTEX
  5
9B
330
99
100
AcDbEntity
  8
GRAU_10_
 62
     7
100
AcDbVertex
100
AcDb2dVertex
 10
32.10243326020356
 20
99.6914170757716
 30
0.0
  0
SEQEND
  5
9C
330
99
100
AcDbEntity
  8
GRAU_10_
  0
POLYLINE
  5
9D
330
1F
100
AcDbEntity
  8
GRAU_10_
 62
     7
100
AcDb2dPolyline
 66
     1
 10
0.0
 20
0.0
 30
0.0
  0
VERTEX
  5
9E
330
9D
100
AcDbEntity
  8
GRAU_10_
 62
     7
100
AcDbVertex
100
AcDb2dVertex
 10
77.10209823376267
 20
106.690989827928
 30
0.0
  0
VERTEX
  5
9F
330
9D
100
AcDbEntity
  8
GRAU_10_
 62
     7
100
AcDbVertex
100
AcDb2dVertex
 10
77.10209823376267
 20
139.6912149715876
 30
0.0
  0
SEQEND
  5
A0
330
9D
100
AcDbEntity
  8
GRAU_10_
  0
POLYLINE
  5
A1
330
1F
100
AcDbEntity
  8
GRAU_10_
 62
     7
100
AcDb2dPolyline
 66
     1
 10
0.0
 20
0.0
 30
0.0
  0
VERTEX
  5
A2
330
A1
100
AcDbEntity
  8
GRAU_10_
 62
     7
100
AcDbVertex
100
AcDb2dVertex
 10
77.10209823376267
 20
106.690989827928
 30
0.0
  0
VERTEX
  5
A3
330
A1
100
AcDbEntity
  8
GRAU_10_
 62
     7
100
AcDbVertex
100
AcDb2dVertex
 10
77.10209823376267
 20
99.6914170757716
 30
0.0
  0
SEQEND
  5
A4
330
A1
100
AcDbEntity
  8
GRAU_10_
  0
POLYLINE
  5
A5
330
1F
100
AcDbEntity
  8
GRAU_10_
 62
     7
100
AcDb2dPolyline
 66
     1
 10
0.0
 20
0.0
 30
0.0
  0
VERTEX
  5
A6
330
A5
100
AcDbEntity
  8
GRAU_10_
 62
     7
100
AcDbVertex
100
AcDb2dVertex
 10
32.10243326020356
 20
99.6914170757716
 30
0.0
  0
VERTEX
  5
A7
330
A5
100
AcDbEntity
  8
GRAU_10_
 62
     7
100
AcDbVertex
100
AcDb2dVertex
 10
32.10243326020356
 20
106.690989827928
 30
0.0
  0
VERTEX
  5
A8
330
A5
100
AcDbEntity
  8
GRAU_10_
 62
     7
100
AcDbVertex
100
AcDb2dVertex
 10
32.10243326020356
 20
139.6912149715876
 30
0.0
  0
SEQEND
  5
A9
330
A5
100
AcDbEntity
  8
GRAU_10_
  0
POLYLINE
  5
AA
330
1F
100
AcDbEntity
  8
GRAU_10_
 62
     7
100
AcDb2dPolyline
 66
     1
 10
0.0
 20
0.0
 30
0.0
  0
VERTEX
  5
AB
330
AA
100
AcDbEntity
  8
GRAU_10_
 62
     7
100
AcDbVertex
100
AcDb2dVertex
 10
32.10243326020356
 20
106.690989827928
 30
0.0
  0
VERTEX
  5
AC
330
AA
100
AcDbEntity
  8
GRAU_10_
 62
     7
100
AcDbVertex
100
AcDb2dVertex
 10
77.10209823376267
 20
106.690989827928
 30
0.0
  0
SEQEND
  5
AD
330
AA
100
AcDbEntity
  8
GRAU_10_
  0
POLYLINE
  5
AE
330
1F
100
AcDbEntity
  8
GRAU_10_
 62
     7
100
AcDb2dPolyline
 66
     1
 10
0.0
 20
0.0
 30
0.0
  0
VERTEX
  5
AF
330
AE
100
AcDbEntity
  8
GRAU_10_
 62
     7
100
AcDbVertex
100
AcDb2dVertex
 10
77.10209823376267
 20
139.6912149715876
 30
0.0
  0
VERTEX
  5
B0
330
AE
100
AcDbEntity
  8
GRAU_10_
 62
     7
100
AcDbVertex
100
AcDb2dVertex
 10
32.10243326020356
 20
139.6912149715876
 30
0.0
  0
SEQEND
  5
B1
330
AE
100
AcDbEntity
  8
GRAU_10_
  0
POLYLINE
  5
B2
330
1F
100
AcDbEntity
  8
GRAU_10_
 62
     7
100
AcDb2dPolyline
 66
     1
 10
0.0
 20
0.0
 30
0.0
  0
VERTEX
  5
B3
330
B2
100
AcDbEntity
  8
GRAU_10_
 62
     7
100
AcDbVertex
100
AcDb2dVertex
 10
77.10209823376267
 20
99.6914170757716
 30
0.0
  0
VERTEX
  5
B4
330
B2
100
AcDbEntity
  8
GRAU_10_
 62
     7
100
AcDbVertex
100
AcDb2dVertex
 10
54.10195175513771
 20
99.6914170757716
 30
0.0
  0
SEQEND
  5
B5
330
B2
100
AcDbEntity
  8
GRAU_10_
  0
POLYLINE
  5
B6
330
1F
100
AcDbEntity
  8
GRAU_10_
 62
     7
100
AcDb2dPolyline
 66
     1
 10
0.0
 20
0.0
 30
0.0
  0
VERTEX
  5
B7
330
B6
100
AcDbEntity
  8
GRAU_10_
 62
     7
100
AcDbVertex
100
AcDb2dVertex
 10
46.10244003838758
 20
102.9909572767696
 30
0.0
  0
VERTEX
  5
B8
330
B6
100
AcDbEntity
  8
GRAU_10_
 62
     7
100
AcDbVertex
100
AcDb2dVertex
 10
46.10244003838758
 20
99.6914170757716
 30
0.0
  0
SEQEND
  5
B9
330
B6
100
AcDbEntity
  8
GRAU_10_
  0
POLYLINE
  5
BA
330
1F
100
AcDbEntity
  8
GRAU_10_
 62
     7
100
AcDb2dPolyline
 66
     1
 10
0.0
 20
0.0
 30
0.0
  0
VERTEX
  5
BB
330
BA
100
AcDbEntity
  8
GRAU_10_
 62
     7
100
AcDbVertex
100
AcDb2dVertex
 10
46.10244003838758
 20
102.9909572767696
 30
0.0
  0
VERTEX
  5
BC
330
BA
100
AcDbEntity
  8
GRAU_10_
 62
     7
100
AcDbVertex
100
AcDb2dVertex
 10
54.10195175513771
 20
102.9909572767696
 30
0.0
  0
SEQEND
  5
BD
330
BA
100
AcDbEntity
  8
GRAU_10_
  0
POLYLINE
  5
BE
330
1F
100
AcDbEntity
  8
GRAU_10_
 62
     7
100
AcDb2dPolyline
 66
     1
 10
0.0
 20
0.0
 30
0.0
  0
VERTEX
  5
BF
330
BE
100
AcDbEntity
  8
GRAU_10_
 62
     7
100
AcDbVertex
100
AcDb2dVertex
 10
54.10195175513771
 20
99.6914170757716
 30
0.0
  0
VERTEX
  5
C0
330
BE
100
AcDbEntity
  8
GRAU_10_
 62
     7
100
AcDbVertex
100
AcDb2dVertex
 10
54.10195175513771
 20
102.9909572767696
 30
0.0
  0
SEQEND
  5
C1
330
BE
100
AcDbEntity
  8
GRAU_10_
  0
SPLINE
  5
C3
330
1F
100
AcDbEntity
  8
STANDARDEBENE
 62
     7
100
AcDbSpline
210
0.0
220
0.0
230
1.0
 70
     8
 71
     3
 72
    17
 73
    13
 74
     0
 42
0.0000000001
 43
0.0000000001
 40
0.0
 40
0.0
 40
0.0
 40
0.0
 40
1.0
 40
1.0
 40
1.0
 40
2.0
 40
2.0
 40
2.0
 40
3.0
 40
3.0
 40
3.0
 40
4.0
 40
4.0
 40
4.0
 40
4.0
 10
50.87872041913796
 20
177.255330359332
 30
0.0
 10
50.61155326425683
 20
177.3266438358767
 30
0.0
 10
50.34421385460145
 20
177.3593722429866
 30
0.0
 10
50.10185138721413
 20
177.3573051856954
 30
0.0
 10
48.44562173268027
 20
177.3573051856954
 30
0.0
 10
47.10186223865856
 20
176.0138902012222
 30
0.0
 10
47.10186223865856
 20
174.3569715275913
 30
0.0
 10
47.10186223865856
 20
172.7005696182832
 30
0.0
 10
48.44562173268027
 20
171.35715463381
 30
0.0
 10
50.10185138721413
 20
171.35715463381
 30
0.0
 10
51.48264565770226
 20
171.35715463381
 30
0.0
 10
52.64605440307113
 20
172.2902587459899
 30
0.0
 10
53.00021021895481
 20
173.580447005216
 30
0.0
  0
SPLINE
  5
C4
330
1F
100
AcDbEntity
  8
STANDARDEBENE
 62
     7
100
AcDbSpline
210
0.0
220
0.0
230
1.0
 70
     8
 71
     3
 72
    17
 73
    13
 74
     0
 42
0.0000000001
 43
0.0000000001
 40
0.0
 40
0.0
 40
0.0
 40
0.0
 40
1.0
 40
1.0
 40
1.0
 40
2.0
 40
2.0
 40
2.0
 40
3.0
 40
3.0
 40
3.0
 40
4.0
 40
4.0
 40
4.0
 40
4.0
 10
50.87872041913796
 20
227.2548624106342
 30
0.0
 10
50.61155326425683
 20
227.3265203967274
 30
0.0
 10
50.34421385460145
 20
227.3595933133858
 30
0.0
 10
50.10185138721413
 20
227.3571817465461
 30
0.0
 10
48.44562173268027
 20
227.3571817465461
 30
0.0
 10
47.10186223865856
 20
226.0137667620729
 30
0.0
 10
47.10186223865856
 20
224.3575371075391
 30
0.0
 10
47.10186223865856
 20
222.7006184339082
 30
0.0
 10
48.44562173268027
 20
221.3573757042093
 30
0.0
 10
50.10185138721413
 20
221.3573757042093
 30
0.0
 10
51.48264565770226
 20
221.3573757042093
 30
0.0
 10
52.64605440307113
 20
222.2903075616149
 30
0.0
 10
53.00021021895481
 20
223.5810125851638
 30
0.0
  0
SPLINE
  5
C5
330
1F
100
AcDbEntity
  8
STANDARDEBENE
 62
     7
100
AcDbSpline
210
0.0
220
0.0
230
1.0
 70
     8
 71
     3
 72
    17
 73
    13
 74
     0
 42
0.0000000001
 43
0.0000000001
 40
0.0
 40
0.0
 40
0.0
 40
0.0
 40
1.0
 40
1.0
 40
1.0
 40
2.0
 40
2.0
 40
2.0
 40
3.0
 40
3.0
 40
3.0
 40
4.0
 40
4.0
 40
4.0
 40
4.0
 10
58.49048663902322
 20
180.8063625307533
 30
0.0
 10
58.35716144374405
 20
180.8420192690256
 30
0.0
 10
58.2228027198193
 20
180.8582112178063
 30
0.0
 10
58.10222437783555
 20
180.8575221987092
 30
0.0
 10
57.27350665885871
 20
180.8575221987092
 30
0.0
 10
56.60222980355778
 20
180.1859008338598
 30
0.0
 10
56.60222980355778
 20
179.3571831148829
 30
0.0
 10
56.60222980355778
 20
178.5288099054546
 30
0.0
 10
57.27350665885871
 20
177.8575330501537
 30
0.0
 10
58.10222437783555
 20
177.8575330501537
 30
0.0
 10
58.79262151307962
 20
177.8575330501537
 30
0.0
 10
59.37432588576406
 20
178.3238267240822
 30
0.0
 10
59.5514037937059
 20
178.968748598921
 30
0.0
  0
SPLINE
  5
C6
330
1F
100
AcDbEntity
  8
STANDARDEBENE
 62
     7
100
AcDbSpline
210
0.0
220
0.0
230
1.0
 70
     8
 71
     3
 72
    17
 73
    13
 74
     0
 42
0.0000000001
 43
0.0000000001
 40
0.0
 40
0.0
 40
0.0
 40
0.0
 40
1.0
 40
1.0
 40
1.0
 40
2.0
 40
2.0
 40
2.0
 40
3.0
 40
3.0
 40
3.0
 40
4.0
 40
4.0
 40
4.0
 40
4.0
 10
58.49048663902322
 20
220.8065049361178
 30
0.0
 10
58.35716144374405
 20
220.8419894196159
 30
0.0
 10
58.2228027198193
 20
220.8586981327194
 30
0.0
 10
58.10222437783555
 20
220.857147839751
 30
0.0
 10
57.27350665885871
 20
220.857147839751
 30
0.0
 10
56.60222980355778
 20
220.1858709844501
 30
0.0
 10
56.60222980355778
 20
219.3568087559247
 30
0.0
 10
56.60222980355778
 20
218.5286078012706
 30
0.0
 10
57.27350665885871
 20
217.8571586911955
 30
0.0
 10
58.10222437783555
 20
217.8571586911955
 30
0.0
 10
58.79262151307962
 20
217.8571586911955
 30
0.0
 10
59.37432588576406
 20
218.3236246198983
 30
0.0
 10
59.5514037937059
 20
218.9692355138341
 30
0.0
  0
SPLINE
  5
C7
330
1F
100
AcDbEntity
  8
STANDARDEBENE
 62
     7
100
AcDbSpline
210
0.0
220
0.0
230
1.0
 70
    11
 71
     3
 72
    17
 73
    13
 74
     0
 42
0.0000000001
 43
0.0000000001
 40
0.0
 40
0.0
 40
0.0
 40
0.0
 40
1.0
 40
1.0
 40
1.0
 40
2.0
 40
2.0
 40
2.0
 40
3.0
 40
3.0
 40
3.0
 40
4.0
 40
4.0
 40
4.0
 40
4.0
 10
59.70229897595984
 20
219.3568087559247
 30
0.0
 10
59.70229897595984
 20
220.2404757478913
 30
0.0
 10
58.98589136980214
 20
220.9574001183718
 30
0.0
 10
58.10222437783555
 20
220.9574001183718
 30
0.0
 10
57.21838513109471
 20
220.9574001183718
 30
0.0
 10
56.50197752493701
 20
220.2404757478913
 30
0.0
 10
56.50197752493701
 20
219.3568087559247
 30
0.0
 10
56.50197752493701
 20
218.4738307830552
 30
0.0
 10
57.21838513109471
 20
217.7570786673489
 30
0.0
 10
58.10222437783555
 20
217.7570786673489
 30
0.0
 10
58.98589136980214
 20
217.7570786673489
 30
0.0
 10
59.70229897595984
 20
218.4738307830552
 30
0.0
 10
59.70229897595984
 20
219.3568087559247
 30
0.0
  0
SPLINE
  5
C8
330
1F
100
AcDbEntity
  8
STANDARDEBENE
 62
     7
100
AcDbSpline
210
0.0
220
0.0
230
1.0
 70
    11
 71
     3
 72
    17
 73
    13
 74
     0
 42
0.0000000001
 43
0.0000000001
 40
0.0
 40
0.0
 40
0.0
 40
0.0
 40
1.0
 40
1.0
 40
1.0
 40
2.0
 40
2.0
 40
2.0
 40
3.0
 40
3.0
 40
3.0
 40
4.0
 40
4.0
 40
4.0
 40
4.0
 10
60.38787297752456
 20
219.3568087559247
 30
0.0
 10
60.38787297752456
 20
220.6197807608173
 30
0.0
 10
59.36467961840536
 20
221.642629610388
 30
0.0
 10
58.10222437783555
 20
221.642629610388
 30
0.0
 10
56.83959688249149
 20
221.642629610388
 30
0.0
 10
55.81692028769508
 20
220.6197807608173
 30
0.0
 10
55.81692028769508
 20
219.3568087559247
 30
0.0
 10
55.81692028769508
 20
218.0945257701292
 30
0.0
 10
56.83959688249149
 20
217.0716769205585
 30
0.0
 10
58.10222437783555
 20
217.0716769205585
 30
0.0
 10
59.36467961840536
 20
217.0716769205585
 30
0.0
 10
60.38787297752456
 20
218.0945257701292
 30
0.0
 10
60.38787297752456
 20
219.3568087559247
 30
0.0
  0
SPLINE
  5
C9
330
1F
100
AcDbEntity
  8
STANDARDEBENE
 62
     7
100
AcDbSpline
210
0.0
220
0.0
230
1.0
 70
    11
 71
     3
 72
    17
 73
    13
 74
     0
 42
0.0000000001
 43
0.0000000001
 40
0.0
 40
0.0
 40
0.0
 40
0.0
 40
1.0
 40
1.0
 40
1.0
 40
2.0
 40
2.0
 40
2.0
 40
3.0
 40
3.0
 40
3.0
 40
4.0
 40
4.0
 40
4.0
 40
4.0
 10
60.60233017148136
 20
219.3568087559247
 30
0.0
 10
60.60233017148136
 20
220.7379475359614
 30
0.0
 10
59.4825018840009
 20
221.8569145495705
 30
0.0
 10
58.10222437783555
 20
221.8569145495705
 30
0.0
 10
56.72177461689595
 20
221.8569145495705
 30
0.0
 10
55.60194632941549
 20
220.7379475359614
 30
0.0
 10
55.60194632941549
 20
219.3568087559247
 30
0.0
 10
55.60194632941549
 20
217.9763589949851
 30
0.0
 10
56.72177461689595
 20
216.8573919813759
 30
0.0
 10
58.10222437783555
 20
216.8573919813759
 30
0.0
 10
59.4825018840009
 20
216.8573919813759
 30
0.0
 10
60.60233017148136
 20
217.9763589949851
 30
0.0
 10
60.60233017148136
 20
219.3568087559247
 30
0.0
  0
SPLINE
  5
CA
330
1F
100
AcDbEntity
  8
STANDARDEBENE
 62
     7
100
AcDbSpline
210
0.0
220
0.0
230
1.0
 70
    11
 71
     3
 72
    17
 73
    13
 74
     0
 42
0.0000000001
 43
0.0000000001
 40
0.0
 40
0.0
 40
0.0
 40
0.0
 40
1.0
 40
1.0
 40
1.0
 40
2.0
 40
2.0
 40
2.0
 40
3.0
 40
3.0
 40
3.0
 40
4.0
 40
4.0
 40
4.0
 40
4.0
 10
59.27338458804624
 20
219.3568087559247
 30
0.0
 10
59.27338458804624
 20
220.0041421976031
 30
0.0
 10
58.74921330996548
 20
220.5284857304582
 30
0.0
 10
58.10222437783555
 20
220.5284857304582
 30
0.0
 10
57.45523544570564
 20
220.5284857304582
 30
0.0
 10
56.93089191285061
 20
220.0041421976031
 30
0.0
 10
56.93089191285061
 20
219.3568087559247
 30
0.0
 10
56.93089191285061
 20
218.7101643333433
 30
0.0
 10
57.45523544570564
 20
218.1859930552625
 30
0.0
 10
58.10222437783555
 20
218.1859930552625
 30
0.0
 10
58.74921330996548
 20
218.1859930552625
 30
0.0
 10
59.27338458804624
 20
218.7101643333433
 30
0.0
 10
59.27338458804624
 20
219.3568087559247
 30
0.0
  0
SPLINE
  5
CB
330
1F
100
AcDbEntity
  8
STANDARDEBENE
 62
     7
100
AcDbSpline
210
0.0
220
0.0
230
1.0
 70
    11
 71
     3
 72
    17
 73
    13
 74
     0
 42
0.0000000001
 43
0.0000000001
 40
0.0
 40
0.0
 40
0.0
 40
0.0
 40
1.0
 40
1.0
 40
1.0
 40
2.0
 40
2.0
 40
2.0
 40
3.0
 40
3.0
 40
3.0
 40
4.0
 40
4.0
 40
4.0
 40
4.0
 10
59.70229897595984
 20
179.3571831148829
 30
0.0
 10
59.70229897595984
 20
180.240505597301
 30
0.0
 10
58.98589136980214
 20
180.9574299677815
 30
0.0
 10
58.10222437783555
 20
180.9574299677815
 30
0.0
 10
57.21838513109471
 20
180.9574299677815
 30
0.0
 10
56.50197752493701
 20
180.240505597301
 30
0.0
 10
56.50197752493701
 20
179.3571831148829
 30
0.0
 10
56.50197752493701
 20
178.4735161229164
 30
0.0
 10
57.21838513109471
 20
177.7572807715329
 30
0.0
 10
58.10222437783555
 20
177.7572807715329
 30
0.0
 10
58.98589136980214
 20
177.7572807715329
 30
0.0
 10
59.70229897595984
 20
178.4735161229164
 30
0.0
 10
59.70229897595984
 20
179.3571831148829
 30
0.0
  0
SPLINE
  5
CC
330
1F
100
AcDbEntity
  8
STANDARDEBENE
 62
     7
100
AcDbSpline
210
0.0
220
0.0
230
1.0
 70
    11
 71
     3
 72
    17
 73
    13
 74
     0
 42
0.0000000001
 43
0.0000000001
 40
0.0
 40
0.0
 40
0.0
 40
0.0
 40
1.0
 40
1.0
 40
1.0
 40
2.0
 40
2.0
 40
2.0
 40
3.0
 40
3.0
 40
3.0
 40
4.0
 40
4.0
 40
4.0
 40
4.0
 10
60.38787297752456
 20
179.3571831148829
 30
0.0
 10
60.38787297752456
 20
180.619810610227
 30
0.0
 10
59.36467961840536
 20
181.6431762241205
 30
0.0
 10
58.10222437783555
 20
181.6431762241205
 30
0.0
 10
56.83959688249149
 20
181.6431762241205
 30
0.0
 10
55.81692028769508
 20
180.619810610227
 30
0.0
 10
55.81692028769508
 20
179.3571831148829
 30
0.0
 10
55.81692028769508
 20
178.0949001290874
 30
0.0
 10
56.83959688249149
 20
177.0718790247425
 30
0.0
 10
58.10222437783555
 20
177.0718790247425
 30
0.0
 10
59.36467961840536
 20
177.0718790247425
 30
0.0
 10
60.38787297752456
 20
178.0949001290874
 30
0.0
 10
60.38787297752456
 20
179.3571831148829
 30
0.0
  0
SPLINE
  5
CD
330
1F
100
AcDbEntity
  8
STANDARDEBENE
 62
     7
100
AcDbSpline
210
0.0
220
0.0
230
1.0
 70
    11
 71
     3
 72
    17
 73
    13
 74
     0
 42
0.0000000001
 43
0.0000000001
 40
0.0
 40
0.0
 40
0.0
 40
0.0
 40
1.0
 40
1.0
 40
1.0
 40
2.0
 40
2.0
 40
2.0
 40
3.0
 40
3.0
 40
3.0
 40
4.0
 40
4.0
 40
4.0
 40
4.0
 10
60.60233017148136
 20
179.3571831148829
 30
0.0
 10
60.60233017148136
 20
180.7376328758226
 30
0.0
 10
59.4825018840009
 20
181.8569443989802
 30
0.0
 10
58.10222437783555
 20
181.8569443989802
 30
0.0
 10
56.72177461689595
 20
181.8569443989802
 30
0.0
 10
55.60194632941549
 20
180.7376328758226
 30
0.0
 10
55.60194632941549
 20
179.3571831148829
 30
0.0
 10
55.60194632941549
 20
177.9763888443948
 30
0.0
 10
56.72177461689595
 20
176.8570773212371
 30
0.0
 10
58.10222437783555
 20
176.8570773212371
 30
0.0
 10
59.4825018840009
 20
176.8570773212371
 30
0.0
 10
60.60233017148136
 20
177.9763888443948
 30
0.0
 10
60.60233017148136
 20
179.3571831148829
 30
0.0
  0
SPLINE
  5
CE
330
1F
100
AcDbEntity
  8
STANDARDEBENE
 62
     7
100
AcDbSpline
210
0.0
220
0.0
230
1.0
 70
    11
 71
     3
 72
    17
 73
    13
 74
     0
 42
0.0000000001
 43
0.0000000001
 40
0.0
 40
0.0
 40
0.0
 40
0.0
 40
1.0
 40
1.0
 40
1.0
 40
2.0
 40
2.0
 40
2.0
 40
3.0
 40
3.0
 40
3.0
 40
4.0
 40
4.0
 40
4.0
 40
4.0
 10
59.27338458804624
 20
179.3571831148829
 30
0.0
 10
59.27338458804624
 20
180.0041720470128
 30
0.0
 10
58.74921330996548
 20
180.5283433250936
 30
0.0
 10
58.10222437783555
 20
180.5283433250936
 30
0.0
 10
57.45523544570564
 20
180.5283433250936
 30
0.0
 10
56.93089191285061
 20
180.0041720470128
 30
0.0
 10
56.93089191285061
 20
179.3571831148829
 30
0.0
 10
56.93089191285061
 20
178.7105386923015
 30
0.0
 10
57.45523544570564
 20
178.1863674142208
 30
0.0
 10
58.10222437783555
 20
178.1863674142208
 30
0.0
 10
58.74921330996548
 20
178.1863674142208
 30
0.0
 10
59.27338458804624
 20
178.7105386923015
 30
0.0
 10
59.27338458804624
 20
179.3571831148829
 30
0.0
  0
POLYLINE
  5
CF
330
1F
100
AcDbEntity
  8
STANDARDEBENE
 62
     7
100
AcDb2dPolyline
 66
     1
 10
0.0
 20
0.0
 30
0.0
  0
VERTEX
  5
D0
330
CF
100
AcDbEntity
  8
STANDARDEBENE
 62
     7
100
AcDbVertex
100
AcDb2dVertex
 10
168.1378851576183
 20
221.8569145495705
 30
0.0
  0
VERTEX
  5
D1
330
CF
100
AcDbEntity
  8
STANDARDEBENE
 62
     7
100
AcDbVertex
100
AcDb2dVertex
 10
162.9375135226337
 20
221.8569145495705
 30
0.0
  0
SEQEND
  5
D2
330
CF
100
AcDbEntity
  8
STANDARDEBENE
  0
POLYLINE
  5
D3
330
1F
100
AcDbEntity
  8
STANDARDEBENE
 62
     7
100
AcDb2dPolyline
 66
     1
 10
0.0
 20
0.0
 30
0.0
  0
VERTEX
  5
D4
330
D3
100
AcDbEntity
  8
STANDARDEBENE
 62
     7
100
AcDbVertex
100
AcDb2dVertex
 10
162.9375135226337
 20
216.8573919813759
 30
0.0
  0
VERTEX
  5
D5
330
D3
100
AcDbEntity
  8
STANDARDEBENE
 62
     7
100
AcDbVertex
100
AcDb2dVertex
 10
168.1378851576183
 20
216.8573919813759
 30
0.0
  0
VERTEX
  5
D6
330
D3
100
AcDbEntity
  8
STANDARDEBENE
 62
     7
100
AcDbVertex
100
AcDb2dVertex
 10
168.9378363292933
 20
217.0716769205585
 30
0.0
  0
SEQEND
  5
D7
330
D3
100
AcDbEntity
  8
STANDARDEBENE
  0
POLYLINE
  5
D8
330
1F
100
AcDbEntity
  8
STANDARDEBENE
 62
     7
100
AcDb2dPolyline
 66
     1
 10
0.0
 20
0.0
 30
0.0
  0
VERTEX
  5
D9
330
D8
100
AcDbEntity
  8
STANDARDEBENE
 62
     7
100
AcDbVertex
100
AcDb2dVertex
 10
168.9378363292933
 20
221.642629610388
 30
0.0
  0
VERTEX
  5
DA
330
D8
100
AcDbEntity
  8
STANDARDEBENE
 62
     7
100
AcDbVertex
100
AcDb2dVertex
 10
168.1378851576183
 20
221.8569145495705
 30
0.0
  0
SEQEND
  5
DB
330
D8
100
AcDbEntity
  8
STANDARDEBENE
  0
POLYLINE
  5
DC
330
1F
100
AcDbEntity
  8
STANDARDEBENE
 62
     7
100
AcDb2dPolyline
 66
     1
 10
0.0
 20
0.0
 30
0.0
  0
VERTEX
  5
DD
330
DC
100
AcDbEntity
  8
STANDARDEBENE
 62
     7
100
AcDbVertex
100
AcDb2dVertex
 10
168.1378851576183
 20
181.8569443989802
 30
0.0
  0
VERTEX
  5
DE
330
DC
100
AcDbEntity
  8
STANDARDEBENE
 62
     7
100
AcDbVertex
100
AcDb2dVertex
 10
162.9375135226337
 20
181.8569443989802
 30
0.0
  0
SEQEND
  5
DF
330
DC
100
AcDbEntity
  8
STANDARDEBENE
  0
POLYLINE
  5
E0
330
1F
100
AcDbEntity
  8
STANDARDEBENE
 62
     7
100
AcDb2dPolyline
 66
     1
 10
0.0
 20
0.0
 30
0.0
  0
VERTEX
  5
E1
330
E0
100
AcDbEntity
  8
STANDARDEBENE
 62
     7
100
AcDbVertex
100
AcDb2dVertex
 10
162.9375135226337
 20
176.8570773212371
 30
0.0
  0
VERTEX
  5
E2
330
E0
100
AcDbEntity
  8
STANDARDEBENE
 62
     7
100
AcDbVertex
100
AcDb2dVertex
 10
168.1378851576183
 20
176.8570773212371
 30
0.0
  0
VERTEX
  5
E3
330
E0
100
AcDbEntity
  8
STANDARDEBENE
 62
     7
100
AcDbVertex
100
AcDb2dVertex
 10
168.9378363292933
 20
177.0718790247425
 30
0.0
  0
SEQEND
  5
E4
330
E0
100
AcDbEntity
  8
STANDARDEBENE
  0
POLYLINE
  5
E5
330
1F
100
AcDbEntity
  8
STANDARDEBENE
 62
     7
100
AcDb2dPolyline
 66
     1
 10
0.0
 20
0.0
 30
0.0
  0
VERTEX
  5
E6
330
E5
100
AcDbEntity
  8
STANDARDEBENE
 62
     7
100
AcDbVertex
100
AcDb2dVertex
 10
168.9378363292933
 20
181.6431762241205
 30
0.0
  0
VERTEX
  5
E7
330
E5
100
AcDbEntity
  8
STANDARDEBENE
 62
     7
100
AcDbVertex
100
AcDb2dVertex
 10
168.1378851576183
 20
181.8569443989802
 30
0.0
  0
SEQEND
  5
E8
330
E5
100
AcDbEntity
  8
STANDARDEBENE
  0
POLYLINE
  5
E9
330
1F
100
AcDbEntity
  8
STANDARDEBENE
 62
     7
100
AcDb2dPolyline
 66
     1
 10
0.0
 20
0.0
 30
0.0
  0
VERTEX
  5
EA
330
E9
100
AcDbEntity
  8
STANDARDEBENE
 62
     7
100
AcDbVertex
100
AcDb2dVertex
 10
168.9378363292933
 20
221.642629610388
 30
0.0
  0
VERTEX
  5
EB
330
E9
100
AcDbEntity
  8
STANDARDEBENE
 62
     7
100
AcDbVertex
100
AcDb2dVertex
 10
168.9378363292933
 20
221.5306640071173
 30
0.0
  0
VERTEX
  5
EC
330
E9
100
AcDbEntity
  8
STANDARDEBENE
 62
     7
100
AcDbVertex
100
AcDb2dVertex
 10
168.9378363292933
 20
221.2064805219553
 30
0.0
  0
VERTEX
  5
ED
330
E9
100
AcDbEntity
  8
STANDARDEBENE
 62
     7
100
AcDbVertex
100
AcDb2dVertex
 10
168.9378363292933
 20
220.7009127594949
 30
0.0
  0
VERTEX
  5
EE
330
E9
100
AcDbEntity
  8
STANDARDEBENE
 62
     7
100
AcDbVertex
100
AcDb2dVertex
 10
168.9378363292933
 20
220.0633978399494
 30
0.0
  0
VERTEX
  5
EF
330
E9
100
AcDbEntity
  8
STANDARDEBENE
 62
     7
100
AcDbVertex
100
AcDb2dVertex
 10
168.9378363292933
 20
219.3568087559247
 30
0.0
  0
VERTEX
  5
F0
330
E9
100
AcDbEntity
  8
STANDARDEBENE
 62
     7
100
AcDbVertex
100
AcDb2dVertex
 10
168.9378363292933
 20
218.650908690997
 30
0.0
  0
VERTEX
  5
F1
330
E9
100
AcDbEntity
  8
STANDARDEBENE
 62
     7
100
AcDbVertex
100
AcDb2dVertex
 10
168.9378363292933
 20
218.0135660262258
 30
0.0
  0
VERTEX
  5
F2
330
E9
100
AcDbEntity
  8
STANDARDEBENE
 62
     7
100
AcDbVertex
100
AcDb2dVertex
 10
168.9378363292933
 20
217.5079982637654
 30
0.0
  0
VERTEX
  5
F3
330
E9
100
AcDbEntity
  8
STANDARDEBENE
 62
     7
100
AcDbVertex
100
AcDb2dVertex
 10
168.9378363292933
 20
217.1838147786034
 30
0.0
  0
VERTEX
  5
F4
330
E9
100
AcDbEntity
  8
STANDARDEBENE
 62
     7
100
AcDbVertex
100
AcDb2dVertex
 10
168.9378363292933
 20
217.0716769205585
 30
0.0
  0
SEQEND
  5
F5
330
E9
100
AcDbEntity
  8
STANDARDEBENE
  0
POLYLINE
  5
F6
330
1F
100
AcDbEntity
  8
STANDARDEBENE
 62
     7
100
AcDb2dPolyline
 66
     1
 10
0.0
 20
0.0
 30
0.0
  0
VERTEX
  5
F7
330
F6
100
AcDbEntity
  8
STANDARDEBENE
 62
     7
100
AcDbVertex
100
AcDb2dVertex
 10
168.1378851576183
 20
216.8573919813759
 30
0.0
  0
VERTEX
  5
F8
330
F6
100
AcDbEntity
  8
STANDARDEBENE
 62
     7
100
AcDbVertex
100
AcDb2dVertex
 10
168.1378851576183
 20
216.9583332790938
 30
0.0
  0
VERTEX
  5
F9
330
F6
100
AcDbEntity
  8
STANDARDEBENE
 62
     7
100
AcDbVertex
100
AcDb2dVertex
 10
168.1378851576183
 20
217.2542669812767
 30
0.0
  0
VERTEX
  5
FA
330
F6
100
AcDbEntity
  8
STANDARDEBENE
 62
     7
100
AcDbVertex
100
AcDb2dVertex
 10
168.1378851576183
 20
217.7200438908825
 30
0.0
  0
VERTEX
  5
FB
330
F6
100
AcDbEntity
  8
STANDARDEBENE
 62
     7
100
AcDbVertex
100
AcDb2dVertex
 10
168.1378851576183
 20
218.3186292314446
 30
0.0
  0
VERTEX
  5
FC
330
F6
100
AcDbEntity
  8
STANDARDEBENE
 62
     7
100
AcDbVertex
100
AcDb2dVertex
 10
168.1378851576183
 20
219.0016194113954
 30
0.0
  0
VERTEX
  5
FD
330
F6
100
AcDbEntity
  8
STANDARDEBENE
 62
     7
100
AcDbVertex
100
AcDb2dVertex
 10
168.1378851576183
 20
219.7128593743253
 30
0.0
  0
VERTEX
  5
FE
330
F6
100
AcDbEntity
  8
STANDARDEBENE
 62
     7
100
AcDbVertex
100
AcDb2dVertex
 10
168.1378851576183
 20
220.3958495542761
 30
0.0
  0
VERTEX
  5
FF
330
F6
100
AcDbEntity
  8
STANDARDEBENE
 62
     7
100
AcDbVertex
100
AcDb2dVertex
 10
168.1378851576183
 20
220.9944348948382
 30
0.0
  0
VERTEX
  5
100
330
F6
100
AcDbEntity
  8
STANDARDEBENE
 62
     7
100
AcDbVertex
100
AcDb2dVertex
 10
168.1378851576183
 20
221.4600395496697
 30
0.0
  0
VERTEX
  5
101
330
F6
100
AcDbEntity
  8
STANDARDEBENE
 62
     7
100
AcDbVertex
100
AcDb2dVertex
 10
168.1378851576183
 20
221.756145506627
 30
0.0
  0
VERTEX
  5
102
330
F6
100
AcDbEntity
  8
STANDARDEBENE
 62
     7
100
AcDbVertex
100
AcDb2dVertex
 10
168.1378851576183
 20
221.8569145495705
 30
0.0
  0
SEQEND
  5
103
330
F6
100
AcDbEntity
  8
STANDARDEBENE
  0
POLYLINE
  5
104
330
1F
100
AcDbEntity
  8
STANDARDEBENE
 62
     7
100
AcDb2dPolyline
 66
     1
 10
0.0
 20
0.0
 30
0.0
  0
VERTEX
  5
105
330
104
100
AcDbEntity
  8
STANDARDEBENE
 62
     7
100
AcDbVertex
100
AcDb2dVertex
 10
168.9378363292933
 20
181.6431762241205
 30
0.0
  0
VERTEX
  5
106
330
104
100
AcDbEntity
  8
STANDARDEBENE
 62
     7
100
AcDbVertex
100
AcDb2dVertex
 10
168.9378363292933
 20
181.5310383660756
 30
0.0
  0
VERTEX
  5
107
330
104
100
AcDbEntity
  8
STANDARDEBENE
 62
     7
100
AcDbVertex
100
AcDb2dVertex
 10
168.9378363292933
 20
181.2061658618165
 30
0.0
  0
VERTEX
  5
108
330
104
100
AcDbEntity
  8
STANDARDEBENE
 62
     7
100
AcDbVertex
100
AcDb2dVertex
 10
168.9378363292933
 20
180.7005980993561
 30
0.0
  0
VERTEX
  5
109
330
104
100
AcDbEntity
  8
STANDARDEBENE
 62
     7
100
AcDbVertex
100
AcDb2dVertex
 10
168.9378363292933
 20
180.0637721989077
 30
0.0
  0
VERTEX
  5
10A
330
104
100
AcDbEntity
  8
STANDARDEBENE
 62
     7
100
AcDbVertex
100
AcDb2dVertex
 10
168.9378363292933
 20
179.3571831148829
 30
0.0
  0
VERTEX
  5
10B
330
104
100
AcDbEntity
  8
STANDARDEBENE
 62
     7
100
AcDbVertex
100
AcDb2dVertex
 10
168.9378363292933
 20
178.6512830499553
 30
0.0
  0
VERTEX
  5
10C
330
104
100
AcDbEntity
  8
STANDARDEBENE
 62
     7
100
AcDbVertex
100
AcDb2dVertex
 10
168.9378363292933
 20
178.0134236208612
 30
0.0
  0
VERTEX
  5
10D
330
104
100
AcDbEntity
  8
STANDARDEBENE
 62
     7
100
AcDbVertex
100
AcDb2dVertex
 10
168.9378363292933
 20
177.5082003679493
 30
0.0
  0
VERTEX
  5
10E
330
104
100
AcDbEntity
  8
STANDARDEBENE
 62
     7
100
AcDbVertex
100
AcDb2dVertex
 10
168.9378363292933
 20
177.1836723732388
 30
0.0
  0
VERTEX
  5
10F
330
104
100
AcDbEntity
  8
STANDARDEBENE
 62
     7
100
AcDbVertex
100
AcDb2dVertex
 10
168.9378363292933
 20
177.0718790247425
 30
0.0
  0
SEQEND
  5
110
330
104
100
AcDbEntity
  8
STANDARDEBENE
  0
POLYLINE
  5
111
330
1F
100
AcDbEntity
  8
STANDARDEBENE
 62
     7
100
AcDb2dPolyline
 66
     1
 10
0.0
 20
0.0
 30
0.0
  0
VERTEX
  5
112
330
111
100
AcDbEntity
  8
STANDARDEBENE
 62
     7
100
AcDbVertex
100
AcDb2dVertex
 10
168.1378851576183
 20
176.8570773212371
 30
0.0
  0
VERTEX
  5
113
330
111
100
AcDbEntity
  8
STANDARDEBENE
 62
     7
100
AcDbVertex
100
AcDb2dVertex
 10
168.1378851576183
 20
176.958707638052
 30
0.0
  0
VERTEX
  5
114
330
111
100
AcDbEntity
  8
STANDARDEBENE
 62
     7
100
AcDbVertex
100
AcDb2dVertex
 10
168.1378851576183
 20
177.2539523211379
 30
0.0
  0
VERTEX
  5
115
330
111
100
AcDbEntity
  8
STANDARDEBENE
 62
     7
100
AcDbVertex
100
AcDb2dVertex
 10
168.1378851576183
 20
177.7202459950665
 30
0.0
  0
VERTEX
  5
116
330
111
100
AcDbEntity
  8
STANDARDEBENE
 62
     7
100
AcDbVertex
100
AcDb2dVertex
 10
168.1378851576183
 20
178.3190035904029
 30
0.0
  0
VERTEX
  5
117
330
111
100
AcDbEntity
  8
STANDARDEBENE
 62
     7
100
AcDbVertex
100
AcDb2dVertex
 10
168.1378851576183
 20
179.0013047512566
 30
0.0
  0
VERTEX
  5
118
330
111
100
AcDbEntity
  8
STANDARDEBENE
 62
     7
100
AcDbVertex
100
AcDb2dVertex
 10
168.1378851576183
 20
179.7130614785092
 30
0.0
  0
VERTEX
  5
119
330
111
100
AcDbEntity
  8
STANDARDEBENE
 62
     7
100
AcDbVertex
100
AcDb2dVertex
 10
168.1378851576183
 20
180.39605165846
 30
0.0
  0
VERTEX
  5
11A
330
111
100
AcDbEntity
  8
STANDARDEBENE
 62
     7
100
AcDbVertex
100
AcDb2dVertex
 10
168.1378851576183
 20
180.9941202346994
 30
0.0
  0
VERTEX
  5
11B
330
111
100
AcDbEntity
  8
STANDARDEBENE
 62
     7
100
AcDbVertex
100
AcDb2dVertex
 10
168.1378851576183
 20
181.4600693990794
 30
0.0
  0
VERTEX
  5
11C
330
111
100
AcDbEntity
  8
STANDARDEBENE
 62
     7
100
AcDbVertex
100
AcDb2dVertex
 10
168.1378851576183
 20
181.7560031012624
 30
0.0
  0
VERTEX
  5
11D
330
111
100
AcDbEntity
  8
STANDARDEBENE
 62
     7
100
AcDbVertex
100
AcDb2dVertex
 10
168.1378851576183
 20
181.8569443989802
 30
0.0
  0
SEQEND
  5
11E
330
111
100
AcDbEntity
  8
STANDARDEBENE
  0
POLYLINE
  5
11F
330
1F
100
AcDbEntity
  8
STANDARDEBENE
 62
     7
100
AcDb2dPolyline
 66
     1
 10
0.0
 20
0.0
 30
0.0
  0
VERTEX
  5
120
330
11F
100
AcDbEntity
  8
STANDARDEBENE
 62
     7
100
AcDbVertex
100
AcDb2dVertex
 10
60.60233017148136
 20
94.49121769556123
 30
0.0
  0
VERTEX
  5
121
330
11F
100
AcDbEntity
  8
STANDARDEBENE
 62
     7
100
AcDbVertex
100
AcDb2dVertex
 10
60.60233017148136
 20
99.6914170757716
 30
0.0
  0
SEQEND
  5
122
330
11F
100
AcDbEntity
  8
STANDARDEBENE
  0
POLYLINE
  5
123
330
1F
100
AcDbEntity
  8
STANDARDEBENE
 62
     7
100
AcDb2dPolyline
 66
     1
 10
0.0
 20
0.0
 30
0.0
  0
VERTEX
  5
124
330
123
100
AcDbEntity
  8
STANDARDEBENE
 62
     7
100
AcDbVertex
100
AcDb2dVertex
 10
55.60194632941549
 20
99.6914170757716
 30
0.0
  0
VERTEX
  5
125
330
123
100
AcDbEntity
  8
STANDARDEBENE
 62
     7
100
AcDbVertex
100
AcDb2dVertex
 10
55.60194632941549
 20
94.49121769556123
 30
0.0
  0
VERTEX
  5
126
330
123
100
AcDbEntity
  8
STANDARDEBENE
 62
     7
100
AcDbVertex
100
AcDb2dVertex
 10
55.81692028769508
 20
93.69143877866048
 30
0.0
  0
SEQEND
  5
127
330
123
100
AcDbEntity
  8
STANDARDEBENE
  0
POLYLINE
  5
128
330
1F
100
AcDbEntity
  8
STANDARDEBENE
 62
     7
100
AcDb2dPolyline
 66
     1
 10
0.0
 20
0.0
 30
0.0
  0
VERTEX
  5
129
330
128
100
AcDbEntity
  8
STANDARDEBENE
 62
     7
100
AcDbVertex
100
AcDb2dVertex
 10
60.38787297752456
 20
93.69143877866048
 30
0.0
  0
VERTEX
  5
12A
330
128
100
AcDbEntity
  8
STANDARDEBENE
 62
     7
100
AcDbVertex
100
AcDb2dVertex
 10
60.60233017148136
 20
94.49121769556123
 30
0.0
  0
SEQEND
  5
12B
330
128
100
AcDbEntity
  8
STANDARDEBENE
  0
POLYLINE
  5
12C
330
1F
100
AcDbEntity
  8
STANDARDEBENE
 62
     7
100
AcDb2dPolyline
 66
     1
 10
0.0
 20
0.0
 30
0.0
  0
VERTEX
  5
12D
330
12C
100
AcDbEntity
  8
STANDARDEBENE
 62
     7
100
AcDbVertex
100
AcDb2dVertex
 10
60.38787297752456
 20
93.69143877866048
 30
0.0
  0
VERTEX
  5
12E
330
12C
100
AcDbEntity
  8
STANDARDEBENE
 62
     7
100
AcDbVertex
100
AcDb2dVertex
 10
60.27556286470542
 20
93.69143877866048
 30
0.0
  0
VERTEX
  5
12F
330
12C
100
AcDbEntity
  8
STANDARDEBENE
 62
     7
100
AcDbVertex
100
AcDb2dVertex
 10
59.95103486999488
 20
93.69143877866048
 30
0.0
  0
VERTEX
  5
130
330
12C
100
AcDbEntity
  8
STANDARDEBENE
 62
     7
100
AcDbVertex
100
AcDb2dVertex
 10
59.44546710753447
 20
93.69143877866048
 30
0.0
  0
VERTEX
  5
131
330
12C
100
AcDbEntity
  8
STANDARDEBENE
 62
     7
100
AcDbVertex
100
AcDb2dVertex
 10
58.80846895231178
 20
93.69143877866048
 30
0.0
  0
VERTEX
  5
132
330
12C
100
AcDbEntity
  8
STANDARDEBENE
 62
     7
100
AcDbVertex
100
AcDb2dVertex
 10
58.10222437783555
 20
93.69143877866048
 30
0.0
  0
VERTEX
  5
133
330
12C
100
AcDbEntity
  8
STANDARDEBENE
 62
     7
100
AcDbVertex
100
AcDb2dVertex
 10
57.39597980335934
 20
93.69143877866048
 30
0.0
  0
VERTEX
  5
134
330
12C
100
AcDbEntity
  8
STANDARDEBENE
 62
     7
100
AcDbVertex
100
AcDb2dVertex
 10
56.75880939336238
 20
93.69143877866048
 30
0.0
  0
VERTEX
  5
135
330
12C
100
AcDbEntity
  8
STANDARDEBENE
 62
     7
100
AcDbVertex
100
AcDb2dVertex
 10
56.25324163090197
 20
93.69143877866048
 30
0.0
  0
VERTEX
  5
136
330
12C
100
AcDbEntity
  8
STANDARDEBENE
 62
     7
100
AcDbVertex
100
AcDb2dVertex
 10
55.92871363619143
 20
93.69143877866048
 30
0.0
  0
VERTEX
  5
137
330
12C
100
AcDbEntity
  8
STANDARDEBENE
 62
     7
100
AcDbVertex
100
AcDb2dVertex
 10
55.81692028769508
 20
93.69143877866048
 30
0.0
  0
SEQEND
  5
138
330
12C
100
AcDbEntity
  8
STANDARDEBENE
  0
POLYLINE
  5
139
330
1F
100
AcDbEntity
  8
STANDARDEBENE
 62
     7
100
AcDb2dPolyline
 66
     1
 10
0.0
 20
0.0
 30
0.0
  0
VERTEX
  5
13A
330
139
100
AcDbEntity
  8
STANDARDEBENE
 62
     7
100
AcDbVertex
100
AcDb2dVertex
 10
58.10222437783555
 20
94.49121769556123
 30
0.0
  0
VERTEX
  5
13B
330
139
100
AcDbEntity
  8
STANDARDEBENE
 62
     7
100
AcDbVertex
100
AcDb2dVertex
 10
58.87478704040284
 20
94.49121769556123
 30
0.0
  0
VERTEX
  5
13C
330
139
100
AcDbEntity
  8
STANDARDEBENE
 62
     7
100
AcDbVertex
100
AcDb2dVertex
 10
59.57190211184314
 20
94.49121769556123
 30
0.0
  0
VERTEX
  5
13D
330
139
100
AcDbEntity
  8
STANDARDEBENE
 62
     7
100
AcDbVertex
100
AcDb2dVertex
 10
60.12466768245147
 20
94.49121769556123
 30
0.0
  0
VERTEX
  5
13E
330
139
100
AcDbEntity
  8
STANDARDEBENE
 62
     7
100
AcDbVertex
100
AcDb2dVertex
 10
60.47985702698073
 20
94.49121769556123
 30
0.0
  0
VERTEX
  5
13F
330
139
100
AcDbEntity
  8
STANDARDEBENE
 62
     7
100
AcDbVertex
100
AcDb2dVertex
 10
60.60233017148136
 20
94.49121769556123
 30
0.0
  0
SEQEND
  5
140
330
139
100
AcDbEntity
  8
STANDARDEBENE
  0
POLYLINE
  5
141
330
1F
100
AcDbEntity
  8
STANDARDEBENE
 62
     7
100
AcDb2dPolyline
 66
     1
 10
0.0
 20
0.0
 30
0.0
  0
VERTEX
  5
142
330
141
100
AcDbEntity
  8
STANDARDEBENE
 62
     7
100
AcDbVertex
100
AcDb2dVertex
 10
55.60194632941549
 20
94.49121769556123
 30
0.0
  0
VERTEX
  5
143
330
141
100
AcDbEntity
  8
STANDARDEBENE
 62
     7
100
AcDbVertex
100
AcDb2dVertex
 10
55.72441947391612
 20
94.49121769556123
 30
0.0
  0
VERTEX
  5
144
330
141
100
AcDbEntity
  8
STANDARDEBENE
 62
     7
100
AcDbVertex
100
AcDb2dVertex
 10
56.07960881844538
 20
94.49121769556123
 30
0.0
  0
VERTEX
  5
145
330
141
100
AcDbEntity
  8
STANDARDEBENE
 62
     7
100
AcDbVertex
100
AcDb2dVertex
 10
56.63254664382798
 20
94.49121769556123
 30
0.0
  0
VERTEX
  5
146
330
141
100
AcDbEntity
  8
STANDARDEBENE
 62
     7
100
AcDbVertex
100
AcDb2dVertex
 10
57.32948946049402
 20
94.49121769556123
 30
0.0
  0
VERTEX
  5
147
330
141
100
AcDbEntity
  8
STANDARDEBENE
 62
     7
100
AcDbVertex
100
AcDb2dVertex
 10
58.10222437783555
 20
94.49121769556123
 30
0.0
  0
SEQEND
  5
148
330
141
100
AcDbEntity
  8
STANDARDEBENE
  0
POLYLINE
  5
14A
330
1F
100
AcDbEntity
  8
BEMAßUNG
 62
     7
100
AcDb2dPolyline
 66
     1
 10
0.0
 20
0.0
 30
0.0
  0
VERTEX
  5
14B
330
14A
100
AcDbEntity
  8
BEMAßUNG
 62
     7
100
AcDbVertex
100
AcDb2dVertex
 10
137.9378336243697
 20
216.8573919813759
 30
0.0
  0
VERTEX
  5
14C
330
14A
100
AcDbEntity
  8
BEMAßUNG
 62
     7
100
AcDbVertex
100
AcDb2dVertex
 10
137.9378336243697
 20
157.1762803426504
 30
0.0
  0
SEQEND
  5
14D
330
14A
100
AcDbEntity
  8
BEMAßUNG
  0
POLYLINE
  5
14E
330
1F
100
AcDbEntity
  8
BEMAßUNG
 62
     7
100
AcDb2dPolyline
 66
     1
 10
0.0
 20
0.0
 30
0.0
  0
VERTEX
  5
14F
330
14E
100
AcDbEntity
  8
BEMAßUNG
 62
     7
100
AcDbVertex
100
AcDb2dVertex
 10
162.9375135226337
 20
169.356932195074
 30
0.0
  0
VERTEX
  5
150
330
14E
100
AcDbEntity
  8
BEMAßUNG
 62
     7
100
AcDbVertex
100
AcDb2dVertex
 10
162.9375135226337
 20
157.1762803426504
 30
0.0
  0
SEQEND
  5
151
330
14E
100
AcDbEntity
  8
BEMAßUNG
  0
POLYLINE
  5
152
330
1F
100
AcDbEntity
  8
BEMAßUNG
 62
     7
100
AcDb2dPolyline
 66
     1
 10
0.0
 20
0.0
 30
0.0
  0
VERTEX
  5
153
330
152
100
AcDbEntity
  8
BEMAßUNG
 62
     7
100
AcDbVertex
100
AcDb2dVertex
 10
137.9378336243697
 20
159.1761582718379
 30
0.0
  0
VERTEX
  5
154
330
152
100
AcDbEntity
  8
BEMAßUNG
 62
     7
100
AcDbVertex
100
AcDb2dVertex
 10
162.9375135226337
 20
159.1761582718379
 30
0.0
  0
SEQEND
  5
155
330
152
100
AcDbEntity
  8
BEMAßUNG
  0
POLYLINE
  5
156
330
1F
100
AcDbEntity
  8
BEMAßUNG
 62
     7
100
AcDb2dPolyline
 66
     1
 10
0.0
 20
0.0
 30
0.0
  0
VERTEX
  5
157
330
156
100
AcDbEntity
  8
BEMAßUNG
 62
     7
100
AcDbVertex
100
AcDb2dVertex
 10
137.9378336243697
 20
159.1761582718379
 30
0.0
  0
VERTEX
  5
158
330
156
100
AcDbEntity
  8
BEMAßUNG
 62
     7
100
AcDbVertex
100
AcDb2dVertex
 10
141.4375338730608
 20
158.7158935150085
 30
0.0
  0
VERTEX
  5
159
330
156
100
AcDbEntity
  8
BEMAßUNG
 62
     7
100
AcDbVertex
100
AcDb2dVertex
 10
141.4375338730608
 20
159.6372843025386
 30
0.0
  0
VERTEX
  5
15A
330
156
100
AcDbEntity
  8
BEMAßUNG
 62
     7
100
AcDbVertex
100
AcDb2dVertex
 10
137.9378336243697
 20
159.1761582718379
 30
0.0
  0
SEQEND
  5
15B
330
156
100
AcDbEntity
  8
BEMAßUNG
  0
POLYLINE
  5
15C
330
1F
100
AcDbEntity
  8
BEMAßUNG
 62
     7
100
AcDb2dPolyline
 66
     1
 10
0.0
 20
0.0
 30
0.0
  0
VERTEX
  5
15D
330
15C
100
AcDbEntity
  8
BEMAßUNG
 62
     7
100
AcDbVertex
100
AcDb2dVertex
 10
141.4375338730608
 20
158.7189941009453
 30
0.0
  0
VERTEX
  5
15E
330
15C
100
AcDbEntity
  8
BEMAßUNG
 62
     7
100
AcDbVertex
100
AcDb2dVertex
 10
141.4103176187273
 20
158.7189941009453
 30
0.0
  0
SEQEND
  5
15F
330
15C
100
AcDbEntity
  8
BEMAßUNG
  0
POLYLINE
  5
160
330
1F
100
AcDbEntity
  8
BEMAßUNG
 62
     7
100
AcDb2dPolyline
 66
     1
 10
0.0
 20
0.0
 30
0.0
  0
VERTEX
  5
161
330
160
100
AcDbEntity
  8
BEMAßUNG
 62
     7
100
AcDbVertex
100
AcDb2dVertex
 10
141.4375338730608
 20
158.7189941009453
 30
0.0
  0
VERTEX
  5
162
330
160
100
AcDbEntity
  8
BEMAßUNG
 62
     7
100
AcDbVertex
100
AcDb2dVertex
 10
141.4103176187273
 20
158.7189941009453
 30
0.0
  0
SEQEND
  5
163
330
160
100
AcDbEntity
  8
BEMAßUNG
  0
POLYLINE
  5
164
330
1F
100
AcDbEntity
  8
BEMAßUNG
 62
     7
100
AcDb2dPolyline
 66
     1
 10
0.0
 20
0.0
 30
0.0
  0
VERTEX
  5
165
330
164
100
AcDbEntity
  8
BEMAßUNG
 62
     7
100
AcDbVertex
100
AcDb2dVertex
 10
141.4375338730608
 20
158.7698092593527
 30
0.0
  0
VERTEX
  5
166
330
164
100
AcDbEntity
  8
BEMAßUNG
 62
     7
100
AcDbVertex
100
AcDb2dVertex
 10
141.0246391791536
 20
158.7698092593527
 30
0.0
  0
SEQEND
  5
167
330
164
100
AcDbEntity
  8
BEMAßUNG
  0
POLYLINE
  5
168
330
1F
100
AcDbEntity
  8
BEMAßUNG
 62
     7
100
AcDb2dPolyline
 66
     1
 10
0.0
 20
0.0
 30
0.0
  0
VERTEX
  5
169
330
168
100
AcDbEntity
  8
BEMAßUNG
 62
     7
100
AcDbVertex
100
AcDb2dVertex
 10
141.4375338730608
 20
158.8209689273087
 30
0.0
  0
VERTEX
  5
16A
330
168
100
AcDbEntity
  8
BEMAßUNG
 62
     7
100
AcDbVertex
100
AcDb2dVertex
 10
140.6384439752571
 20
158.8209689273087
 30
0.0
  0
SEQEND
  5
16B
330
168
100
AcDbEntity
  8
BEMAßUNG
  0
POLYLINE
  5
16C
330
1F
100
AcDbEntity
  8
BEMAßUNG
 62
     7
100
AcDb2dPolyline
 66
     1
 10
0.0
 20
0.0
 30
0.0
  0
VERTEX
  5
16D
330
16C
100
AcDbEntity
  8
BEMAßUNG
 62
     7
100
AcDbVertex
100
AcDb2dVertex
 10
141.4375338730608
 20
158.8717840857161
 30
0.0
  0
VERTEX
  5
16E
330
16C
100
AcDbEntity
  8
BEMAßUNG
 62
     7
100
AcDbVertex
100
AcDb2dVertex
 10
140.2527655356834
 20
158.8717840857161
 30
0.0
  0
SEQEND
  5
16F
330
16C
100
AcDbEntity
  8
BEMAßUNG
  0
POLYLINE
  5
170
330
1F
100
AcDbEntity
  8
BEMAßUNG
 62
     7
100
AcDb2dPolyline
 66
     1
 10
0.0
 20
0.0
 30
0.0
  0
VERTEX
  5
171
330
170
100
AcDbEntity
  8
BEMAßUNG
 62
     7
100
AcDbVertex
100
AcDb2dVertex
 10
141.4375338730608
 20
158.9225992441235
 30
0.0
  0
VERTEX
  5
172
330
170
100
AcDbEntity
  8
BEMAßUNG
 62
     7
100
AcDbVertex
100
AcDb2dVertex
 10
139.8669148413354
 20
158.9225992441235
 30
0.0
  0
SEQEND
  5
173
330
170
100
AcDbEntity
  8
BEMAßUNG
  0
POLYLINE
  5
174
330
1F
100
AcDbEntity
  8
BEMAßUNG
 62
     7
100
AcDb2dPolyline
 66
     1
 10
0.0
 20
0.0
 30
0.0
  0
VERTEX
  5
175
330
174
100
AcDbEntity
  8
BEMAßUNG
 62
     7
100
AcDbVertex
100
AcDb2dVertex
 10
141.4375338730608
 20
158.9734144025309
 30
0.0
  0
VERTEX
  5
176
330
174
100
AcDbEntity
  8
BEMAßUNG
 62
     7
100
AcDbVertex
100
AcDb2dVertex
 10
139.4812364017616
 20
158.9734144025309
 30
0.0
  0
SEQEND
  5
177
330
174
100
AcDbEntity
  8
BEMAßUNG
  0
POLYLINE
  5
178
330
1F
100
AcDbEntity
  8
BEMAßUNG
 62
     7
100
AcDb2dPolyline
 66
     1
 10
0.0
 20
0.0
 30
0.0
  0
VERTEX
  5
179
330
178
100
AcDbEntity
  8
BEMAßUNG
 62
     7
100
AcDbVertex
100
AcDb2dVertex
 10
141.4375338730608
 20
159.0242295609384
 30
0.0
  0
VERTEX
  5
17A
330
178
100
AcDbEntity
  8
BEMAßUNG
 62
     7
100
AcDbVertex
100
AcDb2dVertex
 10
139.0950411978651
 20
159.0242295609384
 30
0.0
  0
SEQEND
  5
17B
330
178
100
AcDbEntity
  8
BEMAßUNG
  0
POLYLINE
  5
17C
330
1F
100
AcDbEntity
  8
BEMAßUNG
 62
     7
100
AcDb2dPolyline
 66
     1
 10
0.0
 20
0.0
 30
0.0
  0
VERTEX
  5
17D
330
17C
100
AcDbEntity
  8
BEMAßUNG
 62
     7
100
AcDbVertex
100
AcDb2dVertex
 10
141.4375338730608
 20
159.0747002097973
 30
0.0
  0
VERTEX
  5
17E
330
17C
100
AcDbEntity
  8
BEMAßUNG
 62
     7
100
AcDbVertex
100
AcDb2dVertex
 10
138.7093627582914
 20
159.0747002097973
 30
0.0
  0
SEQEND
  5
17F
330
17C
100
AcDbEntity
  8
BEMAßUNG
  0
POLYLINE
  5
180
330
1F
100
AcDbEntity
  8
BEMAßUNG
 62
     7
100
AcDb2dPolyline
 66
     1
 10
0.0
 20
0.0
 30
0.0
  0
VERTEX
  5
181
330
180
100
AcDbEntity
  8
BEMAßUNG
 62
     7
100
AcDbVertex
100
AcDb2dVertex
 10
141.4375338730608
 20
159.1255153682047
 30
0.0
  0
VERTEX
  5
182
330
180
100
AcDbEntity
  8
BEMAßUNG
 62
     7
100
AcDbVertex
100
AcDb2dVertex
 10
138.3231675543949
 20
159.1255153682047
 30
0.0
  0
SEQEND
  5
183
330
180
100
AcDbEntity
  8
BEMAßUNG
  0
POLYLINE
  5
184
330
1F
100
AcDbEntity
  8
BEMAßUNG
 62
     7
100
AcDb2dPolyline
 66
     1
 10
0.0
 20
0.0
 30
0.0
  0
VERTEX
  5
185
330
184
100
AcDbEntity
  8
BEMAßUNG
 62
     7
100
AcDbVertex
100
AcDb2dVertex
 10
141.4375338730608
 20
159.1761582718379
 30
0.0
  0
VERTEX
  5
186
330
184
100
AcDbEntity
  8
BEMAßUNG
 62
     7
100
AcDbVertex
100
AcDb2dVertex
 10
137.9378336243697
 20
159.1761582718379
 30
0.0
  0
SEQEND
  5
187
330
184
100
AcDbEntity
  8
BEMAßUNG
  0
POLYLINE
  5
188
330
1F
100
AcDbEntity
  8
BEMAßUNG
 62
     7
100
AcDb2dPolyline
 66
     1
 10
0.0
 20
0.0
 30
0.0
  0
VERTEX
  5
189
330
188
100
AcDbEntity
  8
BEMAßUNG
 62
     7
100
AcDbVertex
100
AcDb2dVertex
 10
141.4375338730608
 20
159.6334946975048
 30
0.0
  0
VERTEX
  5
18A
330
188
100
AcDbEntity
  8
BEMAßUNG
 62
     7
100
AcDbVertex
100
AcDb2dVertex
 10
141.4103176187273
 20
159.6334946975048
 30
0.0
  0
SEQEND
  5
18B
330
188
100
AcDbEntity
  8
BEMAßUNG
  0
POLYLINE
  5
18C
330
1F
100
AcDbEntity
  8
BEMAßUNG
 62
     7
100
AcDb2dPolyline
 66
     1
 10
0.0
 20
0.0
 30
0.0
  0
VERTEX
  5
18D
330
18C
100
AcDbEntity
  8
BEMAßUNG
 62
     7
100
AcDbVertex
100
AcDb2dVertex
 10
141.4375338730608
 20
159.6334946975048
 30
0.0
  0
VERTEX
  5
18E
330
18C
100
AcDbEntity
  8
BEMAßUNG
 62
     7
100
AcDbVertex
100
AcDb2dVertex
 10
141.4103176187273
 20
159.6334946975048
 30
0.0
  0
SEQEND
  5
18F
330
18C
100
AcDbEntity
  8
BEMAßUNG
  0
POLYLINE
  5
190
330
1F
100
AcDbEntity
  8
BEMAßUNG
 62
     7
100
AcDb2dPolyline
 66
     1
 10
0.0
 20
0.0
 30
0.0
  0
VERTEX
  5
191
330
190
100
AcDbEntity
  8
BEMAßUNG
 62
     7
100
AcDbVertex
100
AcDb2dVertex
 10
141.4375338730608
 20
159.5830240486459
 30
0.0
  0
VERTEX
  5
192
330
190
100
AcDbEntity
  8
BEMAßUNG
 62
     7
100
AcDbVertex
100
AcDb2dVertex
 10
141.0246391791536
 20
159.5830240486459
 30
0.0
  0
SEQEND
  5
193
330
190
100
AcDbEntity
  8
BEMAßUNG
  0
POLYLINE
  5
194
330
1F
100
AcDbEntity
  8
BEMAßUNG
 62
     7
100
AcDb2dPolyline
 66
     1
 10
0.0
 20
0.0
 30
0.0
  0
VERTEX
  5
195
330
194
100
AcDbEntity
  8
BEMAßUNG
 62
     7
100
AcDbVertex
100
AcDb2dVertex
 10
141.4375338730608
 20
159.5322088902385
 30
0.0
  0
VERTEX
  5
196
330
194
100
AcDbEntity
  8
BEMAßUNG
 62
     7
100
AcDbVertex
100
AcDb2dVertex
 10
140.6384439752571
 20
159.5322088902385
 30
0.0
  0
SEQEND
  5
197
330
194
100
AcDbEntity
  8
BEMAßUNG
  0
POLYLINE
  5
198
330
1F
100
AcDbEntity
  8
BEMAßUNG
 62
     7
100
AcDb2dPolyline
 66
     1
 10
0.0
 20
0.0
 30
0.0
  0
VERTEX
  5
199
330
198
100
AcDbEntity
  8
BEMAßUNG
 62
     7
100
AcDbVertex
100
AcDb2dVertex
 10
141.4375338730608
 20
159.481393731831
 30
0.0
  0
VERTEX
  5
19A
330
198
100
AcDbEntity
  8
BEMAßUNG
 62
     7
100
AcDbVertex
100
AcDb2dVertex
 10
140.2527655356834
 20
159.481393731831
 30
0.0
  0
SEQEND
  5
19B
330
198
100
AcDbEntity
  8
BEMAßUNG
  0
POLYLINE
  5
19C
330
1F
100
AcDbEntity
  8
BEMAßUNG
 62
     7
100
AcDb2dPolyline
 66
     1
 10
0.0
 20
0.0
 30
0.0
  0
VERTEX
  5
19D
330
19C
100
AcDbEntity
  8
BEMAßUNG
 62
     7
100
AcDbVertex
100
AcDb2dVertex
 10
141.4375338730608
 20
159.4305785734236
 30
0.0
  0
VERTEX
  5
19E
330
19C
100
AcDbEntity
  8
BEMAßUNG
 62
     7
100
AcDbVertex
100
AcDb2dVertex
 10
139.8669148413354
 20
159.4305785734236
 30
0.0
  0
SEQEND
  5
19F
330
19C
100
AcDbEntity
  8
BEMAßUNG
  0
POLYLINE
  5
1A0
330
1F
100
AcDbEntity
  8
BEMAßUNG
 62
     7
100
AcDb2dPolyline
 66
     1
 10
0.0
 20
0.0
 30
0.0
  0
VERTEX
  5
1A1
330
1A0
100
AcDbEntity
  8
BEMAßUNG
 62
     7
100
AcDbVertex
100
AcDb2dVertex
 10
141.4375338730608
 20
159.3797634150162
 30
0.0
  0
VERTEX
  5
1A2
330
1A0
100
AcDbEntity
  8
BEMAßUNG
 62
     7
100
AcDbVertex
100
AcDb2dVertex
 10
139.4812364017616
 20
159.3797634150162
 30
0.0
  0
SEQEND
  5
1A3
330
1A0
100
AcDbEntity
  8
BEMAßUNG
  0
POLYLINE
  5
1A4
330
1F
100
AcDbEntity
  8
BEMAßUNG
 62
     7
100
AcDb2dPolyline
 66
     1
 10
0.0
 20
0.0
 30
0.0
  0
VERTEX
  5
1A5
330
1A4
100
AcDbEntity
  8
BEMAßUNG
 62
     7
100
AcDbVertex
100
AcDb2dVertex
 10
141.4375338730608
 20
159.3289482566088
 30
0.0
  0
VERTEX
  5
1A6
330
1A4
100
AcDbEntity
  8
BEMAßUNG
 62
     7
100
AcDbVertex
100
AcDb2dVertex
 10
139.0950411978651
 20
159.3289482566088
 30
0.0
  0
SEQEND
  5
1A7
330
1A4
100
AcDbEntity
  8
BEMAßUNG
  0
POLYLINE
  5
1A8
330
1F
100
AcDbEntity
  8
BEMAßUNG
 62
     7
100
AcDb2dPolyline
 66
     1
 10
0.0
 20
0.0
 30
0.0
  0
VERTEX
  5
1A9
330
1A8
100
AcDbEntity
  8
BEMAßUNG
 62
     7
100
AcDbVertex
100
AcDb2dVertex
 10
141.4375338730608
 20
159.2777885886528
 30
0.0
  0
VERTEX
  5
1AA
330
1A8
100
AcDbEntity
  8
BEMAßUNG
 62
     7
100
AcDbVertex
100
AcDb2dVertex
 10
138.7093627582914
 20
159.2777885886528
 30
0.0
  0
SEQEND
  5
1AB
330
1A8
100
AcDbEntity
  8
BEMAßUNG
  0
POLYLINE
  5
1AC
330
1F
100
AcDbEntity
  8
BEMAßUNG
 62
     7
100
AcDb2dPolyline
 66
     1
 10
0.0
 20
0.0
 30
0.0
  0
VERTEX
  5
1AD
330
1AC
100
AcDbEntity
  8
BEMAßUNG
 62
     7
100
AcDbVertex
100
AcDb2dVertex
 10
141.4375338730608
 20
159.2269734302454
 30
0.0
  0
VERTEX
  5
1AE
330
1AC
100
AcDbEntity
  8
BEMAßUNG
 62
     7
100
AcDbVertex
100
AcDb2dVertex
 10
138.3231675543949
 20
159.2269734302454
 30
0.0
  0
SEQEND
  5
1AF
330
1AC
100
AcDbEntity
  8
BEMAßUNG
  0
POLYLINE
  5
1B0
330
1F
100
AcDbEntity
  8
BEMAßUNG
 62
     7
100
AcDb2dPolyline
 66
     1
 10
0.0
 20
0.0
 30
0.0
  0
VERTEX
  5
1B1
330
1B0
100
AcDbEntity
  8
BEMAßUNG
 62
     7
100
AcDbVertex
100
AcDb2dVertex
 10
141.4375338730608
 20
159.1761582718379
 30
0.0
  0
VERTEX
  5
1B2
330
1B0
100
AcDbEntity
  8
BEMAßUNG
 62
     7
100
AcDbVertex
100
AcDb2dVertex
 10
137.9378336243697
 20
159.1761582718379
 30
0.0
  0
SEQEND
  5
1B3
330
1B0
100
AcDbEntity
  8
BEMAßUNG
  0
POLYLINE
  5
1B4
330
1F
100
AcDbEntity
  8
BEMAßUNG
 62
     7
100
AcDb2dPolyline
 66
     1
 10
0.0
 20
0.0
 30
0.0
  0
VERTEX
  5
1B5
330
1B4
100
AcDbEntity
  8
BEMAßUNG
 62
     7
100
AcDbVertex
100
AcDb2dVertex
 10
162.9375135226337
 20
159.1761582718379
 30
0.0
  0
VERTEX
  5
1B6
330
1B4
100
AcDbEntity
  8
BEMAßUNG
 62
     7
100
AcDbVertex
100
AcDb2dVertex
 10
159.4372965096198
 20
159.6372843025386
 30
0.0
  0
VERTEX
  5
1B7
330
1B4
100
AcDbEntity
  8
BEMAßUNG
 62
     7
100
AcDbVertex
100
AcDb2dVertex
 10
159.4372965096198
 20
158.7158935150085
 30
0.0
  0
VERTEX
  5
1B8
330
1B4
100
AcDbEntity
  8
BEMAßUNG
 62
     7
100
AcDbVertex
100
AcDb2dVertex
 10
162.9375135226337
 20
159.1761582718379
 30
0.0
  0
SEQEND
  5
1B9
330
1B4
100
AcDbEntity
  8
BEMAßUNG
  0
POLYLINE
  5
1BA
330
1F
100
AcDbEntity
  8
BEMAßUNG
 62
     7
100
AcDb2dPolyline
 66
     1
 10
0.0
 20
0.0
 30
0.0
  0
VERTEX
  5
1BB
330
1BA
100
AcDbEntity
  8
BEMAßUNG
 62
     7
100
AcDbVertex
100
AcDb2dVertex
 10
159.4372965096198
 20
159.6334946975048
 30
0.0
  0
VERTEX
  5
1BC
330
1BA
100
AcDbEntity
  8
BEMAßUNG
 62
     7
100
AcDbVertex
100
AcDb2dVertex
 10
159.4652017830504
 20
159.6334946975048
 30
0.0
  0
SEQEND
  5
1BD
330
1BA
100
AcDbEntity
  8
BEMAßUNG
  0
POLYLINE
  5
1BE
330
1F
100
AcDbEntity
  8
BEMAßUNG
 62
     7
100
AcDb2dPolyline
 66
     1
 10
0.0
 20
0.0
 30
0.0
  0
VERTEX
  5
1BF
330
1BE
100
AcDbEntity
  8
BEMAßUNG
 62
     7
100
AcDbVertex
100
AcDb2dVertex
 10
159.4372965096198
 20
159.6334946975048
 30
0.0
  0
VERTEX
  5
1C0
330
1BE
100
AcDbEntity
  8
BEMAßUNG
 62
     7
100
AcDbVertex
100
AcDb2dVertex
 10
159.4652017830504
 20
159.6334946975048
 30
0.0
  0
SEQEND
  5
1C1
330
1BE
100
AcDbEntity
  8
BEMAßUNG
  0
POLYLINE
  5
1C2
330
1F
100
AcDbEntity
  8
BEMAßUNG
 62
     7
100
AcDb2dPolyline
 66
     1
 10
0.0
 20
0.0
 30
0.0
  0
VERTEX
  5
1C3
330
1C2
100
AcDbEntity
  8
BEMAßUNG
 62
     7
100
AcDbVertex
100
AcDb2dVertex
 10
159.4372965096198
 20
159.5830240486459
 30
0.0
  0
VERTEX
  5
1C4
330
1C2
100
AcDbEntity
  8
BEMAßUNG
 62
     7
100
AcDbVertex
100
AcDb2dVertex
 10
159.8507079678498
 20
159.5830240486459
 30
0.0
  0
SEQEND
  5
1C5
330
1C2
100
AcDbEntity
  8
BEMAßUNG
  0
POLYLINE
  5
1C6
330
1F
100
AcDbEntity
  8
BEMAßUNG
 62
     7
100
AcDb2dPolyline
 66
     1
 10
0.0
 20
0.0
 30
0.0
  0
VERTEX
  5
1C7
330
1C6
100
AcDbEntity
  8
BEMAßUNG
 62
     7
100
AcDbVertex
100
AcDb2dVertex
 10
159.4372965096198
 20
159.5322088902385
 30
0.0
  0
VERTEX
  5
1C8
330
1C6
100
AcDbEntity
  8
BEMAßUNG
 62
     7
100
AcDbVertex
100
AcDb2dVertex
 10
160.2362141526493
 20
159.5322088902385
 30
0.0
  0
SEQEND
  5
1C9
330
1C6
100
AcDbEntity
  8
BEMAßUNG
  0
POLYLINE
  5
1CA
330
1F
100
AcDbEntity
  8
BEMAßUNG
 62
     7
100
AcDb2dPolyline
 66
     1
 10
0.0
 20
0.0
 30
0.0
  0
VERTEX
  5
1CB
330
1CA
100
AcDbEntity
  8
BEMAßUNG
 62
     7
100
AcDbVertex
100
AcDb2dVertex
 10
159.4372965096198
 20
159.481393731831
 30
0.0
  0
VERTEX
  5
1CC
330
1CA
100
AcDbEntity
  8
BEMAßUNG
 62
     7
100
AcDbVertex
100
AcDb2dVertex
 10
160.62258161132
 20
159.481393731831
 30
0.0
  0
SEQEND
  5
1CD
330
1CA
100
AcDbEntity
  8
BEMAßUNG
  0
POLYLINE
  5
1CE
330
1F
100
AcDbEntity
  8
BEMAßUNG
 62
     7
100
AcDb2dPolyline
 66
     1
 10
0.0
 20
0.0
 30
0.0
  0
VERTEX
  5
1CF
330
1CE
100
AcDbEntity
  8
BEMAßUNG
 62
     7
100
AcDbVertex
100
AcDb2dVertex
 10
159.4372965096198
 20
159.4305785734236
 30
0.0
  0
VERTEX
  5
1D0
330
1CE
100
AcDbEntity
  8
BEMAßUNG
 62
     7
100
AcDbVertex
100
AcDb2dVertex
 10
161.0086045604423
 20
159.4305785734236
 30
0.0
  0
SEQEND
  5
1D1
330
1CE
100
AcDbEntity
  8
BEMAßUNG
  0
POLYLINE
  5
1D2
330
1F
100
AcDbEntity
  8
BEMAßUNG
 62
     7
100
AcDb2dPolyline
 66
     1
 10
0.0
 20
0.0
 30
0.0
  0
VERTEX
  5
1D3
330
1D2
100
AcDbEntity
  8
BEMAßUNG
 62
     7
100
AcDbVertex
100
AcDb2dVertex
 10
159.4372965096198
 20
159.3797634150162
 30
0.0
  0
VERTEX
  5
1D4
330
1D2
100
AcDbEntity
  8
BEMAßUNG
 62
     7
100
AcDbVertex
100
AcDb2dVertex
 10
161.3941107452418
 20
159.3797634150162
 30
0.0
  0
SEQEND
  5
1D5
330
1D2
100
AcDbEntity
  8
BEMAßUNG
  0
POLYLINE
  5
1D6
330
1F
100
AcDbEntity
  8
BEMAßUNG
 62
     7
100
AcDb2dPolyline
 66
     1
 10
0.0
 20
0.0
 30
0.0
  0
VERTEX
  5
1D7
330
1D6
100
AcDbEntity
  8
BEMAßUNG
 62
     7
100
AcDbVertex
100
AcDb2dVertex
 10
159.4372965096198
 20
159.3289482566088
 30
0.0
  0
VERTEX
  5
1D8
330
1D6
100
AcDbEntity
  8
BEMAßUNG
 62
     7
100
AcDbVertex
100
AcDb2dVertex
 10
161.7796169300412
 20
159.3289482566088
 30
0.0
  0
SEQEND
  5
1D9
330
1D6
100
AcDbEntity
  8
BEMAßUNG
  0
POLYLINE
  5
1DA
330
1F
100
AcDbEntity
  8
BEMAßUNG
 62
     7
100
AcDb2dPolyline
 66
     1
 10
0.0
 20
0.0
 30
0.0
  0
VERTEX
  5
1DB
330
1DA
100
AcDbEntity
  8
BEMAßUNG
 62
     7
100
AcDbVertex
100
AcDb2dVertex
 10
159.4372965096198
 20
159.2777885886528
 30
0.0
  0
VERTEX
  5
1DC
330
1DA
100
AcDbEntity
  8
BEMAßUNG
 62
     7
100
AcDbVertex
100
AcDb2dVertex
 10
162.165984388712
 20
159.2777885886528
 30
0.0
  0
SEQEND
  5
1DD
330
1DA
100
AcDbEntity
  8
BEMAßUNG
  0
POLYLINE
  5
1DE
330
1F
100
AcDbEntity
  8
BEMAßUNG
 62
     7
100
AcDb2dPolyline
 66
     1
 10
0.0
 20
0.0
 30
0.0
  0
VERTEX
  5
1DF
330
1DE
100
AcDbEntity
  8
BEMAßUNG
 62
     7
100
AcDbVertex
100
AcDb2dVertex
 10
159.4372965096198
 20
159.2269734302454
 30
0.0
  0
VERTEX
  5
1E0
330
1DE
100
AcDbEntity
  8
BEMAßUNG
 62
     7
100
AcDbVertex
100
AcDb2dVertex
 10
162.5520073378342
 20
159.2269734302454
 30
0.0
  0
SEQEND
  5
1E1
330
1DE
100
AcDbEntity
  8
BEMAßUNG
  0
POLYLINE
  5
1E2
330
1F
100
AcDbEntity
  8
BEMAßUNG
 62
     7
100
AcDb2dPolyline
 66
     1
 10
0.0
 20
0.0
 30
0.0
  0
VERTEX
  5
1E3
330
1E2
100
AcDbEntity
  8
BEMAßUNG
 62
     7
100
AcDbVertex
100
AcDb2dVertex
 10
159.4372965096198
 20
159.1761582718379
 30
0.0
  0
VERTEX
  5
1E4
330
1E2
100
AcDbEntity
  8
BEMAßUNG
 62
     7
100
AcDbVertex
100
AcDb2dVertex
 10
162.9375135226337
 20
159.1761582718379
 30
0.0
  0
SEQEND
  5
1E5
330
1E2
100
AcDbEntity
  8
BEMAßUNG
  0
POLYLINE
  5
1E6
330
1F
100
AcDbEntity
  8
BEMAßUNG
 62
     7
100
AcDb2dPolyline
 66
     1
 10
0.0
 20
0.0
 30
0.0
  0
VERTEX
  5
1E7
330
1E6
100
AcDbEntity
  8
BEMAßUNG
 62
     7
100
AcDbVertex
100
AcDb2dVertex
 10
159.4372965096198
 20
158.7189941009453
 30
0.0
  0
VERTEX
  5
1E8
330
1E6
100
AcDbEntity
  8
BEMAßUNG
 62
     7
100
AcDbVertex
100
AcDb2dVertex
 10
159.4652017830504
 20
158.7189941009453
 30
0.0
  0
SEQEND
  5
1E9
330
1E6
100
AcDbEntity
  8
BEMAßUNG
  0
POLYLINE
  5
1EA
330
1F
100
AcDbEntity
  8
BEMAßUNG
 62
     7
100
AcDb2dPolyline
 66
     1
 10
0.0
 20
0.0
 30
0.0
  0
VERTEX
  5
1EB
330
1EA
100
AcDbEntity
  8
BEMAßUNG
 62
     7
100
AcDbVertex
100
AcDb2dVertex
 10
159.4372965096198
 20
158.7189941009453
 30
0.0
  0
VERTEX
  5
1EC
330
1EA
100
AcDbEntity
  8
BEMAßUNG
 62
     7
100
AcDbVertex
100
AcDb2dVertex
 10
159.4652017830504
 20
158.7189941009453
 30
0.0
  0
SEQEND
  5
1ED
330
1EA
100
AcDbEntity
  8
BEMAßUNG
  0
POLYLINE
  5
1EE
330
1F
100
AcDbEntity
  8
BEMAßUNG
 62
     7
100
AcDb2dPolyline
 66
     1
 10
0.0
 20
0.0
 30
0.0
  0
VERTEX
  5
1EF
330
1EE
100
AcDbEntity
  8
BEMAßUNG
 62
     7
100
AcDbVertex
100
AcDb2dVertex
 10
159.4372965096198
 20
158.7698092593527
 30
0.0
  0
VERTEX
  5
1F0
330
1EE
100
AcDbEntity
  8
BEMAßUNG
 62
     7
100
AcDbVertex
100
AcDb2dVertex
 10
159.8507079678498
 20
158.7698092593527
 30
0.0
  0
SEQEND
  5
1F1
330
1EE
100
AcDbEntity
  8
BEMAßUNG
  0
POLYLINE
  5
1F2
330
1F
100
AcDbEntity
  8
BEMAßUNG
 62
     7
100
AcDb2dPolyline
 66
     1
 10
0.0
 20
0.0
 30
0.0
  0
VERTEX
  5
1F3
330
1F2
100
AcDbEntity
  8
BEMAßUNG
 62
     7
100
AcDbVertex
100
AcDb2dVertex
 10
159.4372965096198
 20
158.8209689273087
 30
0.0
  0
VERTEX
  5
1F4
330
1F2
100
AcDbEntity
  8
BEMAßUNG
 62
     7
100
AcDbVertex
100
AcDb2dVertex
 10
160.2362141526493
 20
158.8209689273087
 30
0.0
  0
SEQEND
  5
1F5
330
1F2
100
AcDbEntity
  8
BEMAßUNG
  0
POLYLINE
  5
1F6
330
1F
100
AcDbEntity
  8
BEMAßUNG
 62
     7
100
AcDb2dPolyline
 66
     1
 10
0.0
 20
0.0
 30
0.0
  0
VERTEX
  5
1F7
330
1F6
100
AcDbEntity
  8
BEMAßUNG
 62
     7
100
AcDbVertex
100
AcDb2dVertex
 10
159.4372965096198
 20
158.8717840857161
 30
0.0
  0
VERTEX
  5
1F8
330
1F6
100
AcDbEntity
  8
BEMAßUNG
 62
     7
100
AcDbVertex
100
AcDb2dVertex
 10
160.62258161132
 20
158.8717840857161
 30
0.0
  0
SEQEND
  5
1F9
330
1F6
100
AcDbEntity
  8
BEMAßUNG
  0
POLYLINE
  5
1FA
330
1F
100
AcDbEntity
  8
BEMAßUNG
 62
     7
100
AcDb2dPolyline
 66
     1
 10
0.0
 20
0.0
 30
0.0
  0
VERTEX
  5
1FB
330
1FA
100
AcDbEntity
  8
BEMAßUNG
 62
     7
100
AcDbVertex
100
AcDb2dVertex
 10
159.4372965096198
 20
158.9225992441235
 30
0.0
  0
VERTEX
  5
1FC
330
1FA
100
AcDbEntity
  8
BEMAßUNG
 62
     7
100
AcDbVertex
100
AcDb2dVertex
 10
161.0086045604423
 20
158.9225992441235
 30
0.0
  0
SEQEND
  5
1FD
330
1FA
100
AcDbEntity
  8
BEMAßUNG
  0
POLYLINE
  5
1FE
330
1F
100
AcDbEntity
  8
BEMAßUNG
 62
     7
100
AcDb2dPolyline
 66
     1
 10
0.0
 20
0.0
 30
0.0
  0
VERTEX
  5
1FF
330
1FE
100
AcDbEntity
  8
BEMAßUNG
 62
     7
100
AcDbVertex
100
AcDb2dVertex
 10
159.4372965096198
 20
158.9734144025309
 30
0.0
  0
VERTEX
  5
200
330
1FE
100
AcDbEntity
  8
BEMAßUNG
 62
     7
100
AcDbVertex
100
AcDb2dVertex
 10
161.3941107452418
 20
158.9734144025309
 30
0.0
  0
SEQEND
  5
201
330
1FE
100
AcDbEntity
  8
BEMAßUNG
  0
POLYLINE
  5
202
330
1F
100
AcDbEntity
  8
BEMAßUNG
 62
     7
100
AcDb2dPolyline
 66
     1
 10
0.0
 20
0.0
 30
0.0
  0
VERTEX
  5
203
330
202
100
AcDbEntity
  8
BEMAßUNG
 62
     7
100
AcDbVertex
100
AcDb2dVertex
 10
159.4372965096198
 20
159.0242295609384
 30
0.0
  0
VERTEX
  5
204
330
202
100
AcDbEntity
  8
BEMAßUNG
 62
     7
100
AcDbVertex
100
AcDb2dVertex
 10
161.7796169300412
 20
159.0242295609384
 30
0.0
  0
SEQEND
  5
205
330
202
100
AcDbEntity
  8
BEMAßUNG
  0
POLYLINE
  5
206
330
1F
100
AcDbEntity
  8
BEMAßUNG
 62
     7
100
AcDb2dPolyline
 66
     1
 10
0.0
 20
0.0
 30
0.0
  0
VERTEX
  5
207
330
206
100
AcDbEntity
  8
BEMAßUNG
 62
     7
100
AcDbVertex
100
AcDb2dVertex
 10
159.4372965096198
 20
159.0747002097973
 30
0.0
  0
VERTEX
  5
208
330
206
100
AcDbEntity
  8
BEMAßUNG
 62
     7
100
AcDbVertex
100
AcDb2dVertex
 10
162.165984388712
 20
159.0747002097973
 30
0.0
  0
SEQEND
  5
209
330
206
100
AcDbEntity
  8
BEMAßUNG
  0
POLYLINE
  5
20A
330
1F
100
AcDbEntity
  8
BEMAßUNG
 62
     7
100
AcDb2dPolyline
 66
     1
 10
0.0
 20
0.0
 30
0.0
  0
VERTEX
  5
20B
330
20A
100
AcDbEntity
  8
BEMAßUNG
 62
     7
100
AcDbVertex
100
AcDb2dVertex
 10
159.4372965096198
 20
159.1255153682047
 30
0.0
  0
VERTEX
  5
20C
330
20A
100
AcDbEntity
  8
BEMAßUNG
 62
     7
100
AcDbVertex
100
AcDb2dVertex
 10
162.5520073378342
 20
159.1255153682047
 30
0.0
  0
SEQEND
  5
20D
330
20A
100
AcDbEntity
  8
BEMAßUNG
  0
POLYLINE
  5
20E
330
1F
100
AcDbEntity
  8
BEMAßUNG
 62
     7
100
AcDb2dPolyline
 66
     1
 10
0.0
 20
0.0
 30
0.0
  0
VERTEX
  5
20F
330
20E
100
AcDbEntity
  8
BEMAßUNG
 62
     7
100
AcDbVertex
100
AcDb2dVertex
 10
159.4372965096198
 20
159.1761582718379
 30
0.0
  0
VERTEX
  5
210
330
20E
100
AcDbEntity
  8
BEMAßUNG
 62
     7
100
AcDbVertex
100
AcDb2dVertex
 10
162.9375135226337
 20
159.1761582718379
 30
0.0
  0
SEQEND
  5
211
330
20E
100
AcDbEntity
  8
BEMAßUNG
  0
POLYLINE
  5
212
330
1F
100
AcDbEntity
  8
BEMAßUNG
 62
     7
100
AcDb2dPolyline
 66
     1
 10
0.0
 20
0.0
 30
0.0
  0
VERTEX
  5
213
330
212
100
AcDbEntity
  8
BEMAßUNG
 62
     7
100
AcDbVertex
100
AcDb2dVertex
 10
46.10244003838758
 20
229.3574041852822
 30
0.0
  0
VERTEX
  5
214
330
212
100
AcDbEntity
  8
BEMAßUNG
 62
     7
100
AcDbVertex
100
AcDb2dVertex
 10
46.10244003838758
 20
248.4626979630579
 30
0.0
  0
SEQEND
  5
215
330
212
100
AcDbEntity
  8
BEMAßUNG
  0
POLYLINE
  5
216
330
1F
100
AcDbEntity
  8
BEMAßUNG
 62
     7
100
AcDb2dPolyline
 66
     1
 10
0.0
 20
0.0
 30
0.0
  0
VERTEX
  5
217
330
216
100
AcDbEntity
  8
BEMAßUNG
 62
     7
100
AcDbVertex
100
AcDb2dVertex
 10
54.10195175513771
 20
229.3574041852822
 30
0.0
  0
VERTEX
  5
218
330
216
100
AcDbEntity
  8
BEMAßUNG
 62
     7
100
AcDbVertex
100
AcDb2dVertex
 10
54.10195175513771
 20
248.4626979630579
 30
0.0
  0
SEQEND
  5
219
330
216
100
AcDbEntity
  8
BEMAßUNG
  0
POLYLINE
  5
21A
330
1F
100
AcDbEntity
  8
BEMAßUNG
 62
     7
100
AcDb2dPolyline
 66
     1
 10
0.0
 20
0.0
 30
0.0
  0
VERTEX
  5
21B
330
21A
100
AcDbEntity
  8
BEMAßUNG
 62
     7
100
AcDbVertex
100
AcDb2dVertex
 10
37.59236517072344
 20
246.4628200338704
 30
0.0
  0
VERTEX
  5
21C
330
21A
100
AcDbEntity
  8
BEMAßUNG
 62
     7
100
AcDbVertex
100
AcDb2dVertex
 10
59.80978595509964
 20
246.4628200338704
 30
0.0
  0
SEQEND
  5
21D
330
21A
100
AcDbEntity
  8
BEMAßUNG
  0
POLYLINE
  5
21E
330
1F
100
AcDbEntity
  8
BEMAßUNG
 62
     7
100
AcDb2dPolyline
 66
     1
 10
0.0
 20
0.0
 30
0.0
  0
VERTEX
  5
21F
330
21E
100
AcDbEntity
  8
BEMAßUNG
 62
     7
100
AcDbVertex
100
AcDb2dVertex
 10
53.95639647088591
 20
246.4628200338704
 30
0.0
  0
VERTEX
  5
220
330
21E
100
AcDbEntity
  8
BEMAßUNG
 62
     7
100
AcDbVertex
100
AcDb2dVertex
 10
57.45626897435121
 20
246.0015217483955
 30
0.0
  0
VERTEX
  5
221
330
21E
100
AcDbEntity
  8
BEMAßUNG
 62
     7
100
AcDbVertex
100
AcDb2dVertex
 10
57.45626897435121
 20
246.9237738097968
 30
0.0
  0
VERTEX
  5
222
330
21E
100
AcDbEntity
  8
BEMAßUNG
 62
     7
100
AcDbVertex
100
AcDb2dVertex
 10
53.95639647088591
 20
246.4628200338704
 30
0.0
  0
SEQEND
  5
223
330
21E
100
AcDbEntity
  8
BEMAßUNG
  0
POLYLINE
  5
224
330
1F
100
AcDbEntity
  8
BEMAßUNG
 62
     7
100
AcDb2dPolyline
 66
     1
 10
0.0
 20
0.0
 30
0.0
  0
VERTEX
  5
225
330
224
100
AcDbEntity
  8
BEMAßUNG
 62
     7
100
AcDbVertex
100
AcDb2dVertex
 10
57.45626897435121
 20
246.005828117752
 30
0.0
  0
VERTEX
  5
226
330
224
100
AcDbEntity
  8
BEMAßUNG
 62
     7
100
AcDbVertex
100
AcDb2dVertex
 10
57.42905272001774
 20
246.005828117752
 30
0.0
  0
SEQEND
  5
227
330
224
100
AcDbEntity
  8
BEMAßUNG
  0
POLYLINE
  5
228
330
1F
100
AcDbEntity
  8
BEMAßUNG
 62
     7
100
AcDb2dPolyline
 66
     1
 10
0.0
 20
0.0
 30
0.0
  0
VERTEX
  5
229
330
228
100
AcDbEntity
  8
BEMAßUNG
 62
     7
100
AcDbVertex
100
AcDb2dVertex
 10
57.45626897435121
 20
246.005828117752
 30
0.0
  0
VERTEX
  5
22A
330
228
100
AcDbEntity
  8
BEMAßUNG
 62
     7
100
AcDbVertex
100
AcDb2dVertex
 10
57.42905272001774
 20
246.005828117752
 30
0.0
  0
SEQEND
  5
22B
330
228
100
AcDbEntity
  8
BEMAßUNG
  0
POLYLINE
  5
22C
330
1F
100
AcDbEntity
  8
BEMAßUNG
 62
     7
100
AcDb2dPolyline
 66
     1
 10
0.0
 20
0.0
 30
0.0
  0
VERTEX
  5
22D
330
22C
100
AcDbEntity
  8
BEMAßUNG
 62
     7
100
AcDbVertex
100
AcDb2dVertex
 10
57.45626897435121
 20
246.0566432761595
 30
0.0
  0
VERTEX
  5
22E
330
22C
100
AcDbEntity
  8
BEMAßUNG
 62
     7
100
AcDbVertex
100
AcDb2dVertex
 10
57.04320202566976
 20
246.0566432761595
 30
0.0
  0
SEQEND
  5
22F
330
22C
100
AcDbEntity
  8
BEMAßUNG
  0
POLYLINE
  5
230
330
1F
100
AcDbEntity
  8
BEMAßUNG
 62
     7
100
AcDb2dPolyline
 66
     1
 10
0.0
 20
0.0
 30
0.0
  0
VERTEX
  5
231
330
230
100
AcDbEntity
  8
BEMAßUNG
 62
     7
100
AcDbVertex
100
AcDb2dVertex
 10
57.45626897435121
 20
246.1074584345669
 30
0.0
  0
VERTEX
  5
232
330
230
100
AcDbEntity
  8
BEMAßUNG
 62
     7
100
AcDbVertex
100
AcDb2dVertex
 10
56.65683456699899
 20
246.1074584345669
 30
0.0
  0
SEQEND
  5
233
330
230
100
AcDbEntity
  8
BEMAßUNG
  0
POLYLINE
  5
234
330
1F
100
AcDbEntity
  8
BEMAßUNG
 62
     7
100
AcDb2dPolyline
 66
     1
 10
0.0
 20
0.0
 30
0.0
  0
VERTEX
  5
235
330
234
100
AcDbEntity
  8
BEMAßUNG
 62
     7
100
AcDbVertex
100
AcDb2dVertex
 10
57.45626897435121
 20
246.1582735929743
 30
0.0
  0
VERTEX
  5
236
330
234
100
AcDbEntity
  8
BEMAßUNG
 62
     7
100
AcDbVertex
100
AcDb2dVertex
 10
56.27167289174805
 20
246.1582735929743
 30
0.0
  0
SEQEND
  5
237
330
234
100
AcDbEntity
  8
BEMAßUNG
  0
POLYLINE
  5
238
330
1F
100
AcDbEntity
  8
BEMAßUNG
 62
     7
100
AcDb2dPolyline
 66
     1
 10
0.0
 20
0.0
 30
0.0
  0
VERTEX
  5
239
330
238
100
AcDbEntity
  8
BEMAßUNG
 62
     7
100
AcDbVertex
100
AcDb2dVertex
 10
57.45626897435121
 20
246.2090887513818
 30
0.0
  0
VERTEX
  5
23A
330
238
100
AcDbEntity
  8
BEMAßUNG
 62
     7
100
AcDbVertex
100
AcDb2dVertex
 10
55.88564994262581
 20
246.2090887513818
 30
0.0
  0
SEQEND
  5
23B
330
238
100
AcDbEntity
  8
BEMAßUNG
  0
POLYLINE
  5
23C
330
1F
100
AcDbEntity
  8
BEMAßUNG
 62
     7
100
AcDb2dPolyline
 66
     1
 10
0.0
 20
0.0
 30
0.0
  0
VERTEX
  5
23D
330
23C
100
AcDbEntity
  8
BEMAßUNG
 62
     7
100
AcDbVertex
100
AcDb2dVertex
 10
57.45626897435121
 20
246.2595594002407
 30
0.0
  0
VERTEX
  5
23E
330
23C
100
AcDbEntity
  8
BEMAßUNG
 62
     7
100
AcDbVertex
100
AcDb2dVertex
 10
55.49979924827783
 20
246.2595594002407
 30
0.0
  0
SEQEND
  5
23F
330
23C
100
AcDbEntity
  8
BEMAßUNG
  0
POLYLINE
  5
240
330
1F
100
AcDbEntity
  8
BEMAßUNG
 62
     7
100
AcDb2dPolyline
 66
     1
 10
0.0
 20
0.0
 30
0.0
  0
VERTEX
  5
241
330
240
100
AcDbEntity
  8
BEMAßUNG
 62
     7
100
AcDbVertex
100
AcDb2dVertex
 10
57.45626897435121
 20
246.3102023038738
 30
0.0
  0
VERTEX
  5
242
330
240
100
AcDbEntity
  8
BEMAßUNG
 62
     7
100
AcDbVertex
100
AcDb2dVertex
 10
55.11343178960706
 20
246.3102023038738
 30
0.0
  0
SEQEND
  5
243
330
240
100
AcDbEntity
  8
BEMAßUNG
  0
POLYLINE
  5
244
330
1F
100
AcDbEntity
  8
BEMAßUNG
 62
     7
100
AcDb2dPolyline
 66
     1
 10
0.0
 20
0.0
 30
0.0
  0
VERTEX
  5
245
330
244
100
AcDbEntity
  8
BEMAßUNG
 62
     7
100
AcDbVertex
100
AcDb2dVertex
 10
57.45626897435121
 20
246.3611897170555
 30
0.0
  0
VERTEX
  5
246
330
244
100
AcDbEntity
  8
BEMAßUNG
 62
     7
100
AcDbVertex
100
AcDb2dVertex
 10
54.72758109525908
 20
246.3611897170555
 30
0.0
  0
SEQEND
  5
247
330
244
100
AcDbEntity
  8
BEMAßUNG
  0
POLYLINE
  5
248
330
1F
100
AcDbEntity
  8
BEMAßUNG
 62
     7
100
AcDb2dPolyline
 66
     1
 10
0.0
 20
0.0
 30
0.0
  0
VERTEX
  5
249
330
248
100
AcDbEntity
  8
BEMAßUNG
 62
     7
100
AcDbVertex
100
AcDb2dVertex
 10
57.45626897435121
 20
246.4118326206887
 30
0.0
  0
VERTEX
  5
24A
330
248
100
AcDbEntity
  8
BEMAßUNG
 62
     7
100
AcDbVertex
100
AcDb2dVertex
 10
54.34224716523389
 20
246.4118326206887
 30
0.0
  0
SEQEND
  5
24B
330
248
100
AcDbEntity
  8
BEMAßUNG
  0
POLYLINE
  5
24C
330
1F
100
AcDbEntity
  8
BEMAßUNG
 62
     7
100
AcDb2dPolyline
 66
     1
 10
0.0
 20
0.0
 30
0.0
  0
VERTEX
  5
24D
330
24C
100
AcDbEntity
  8
BEMAßUNG
 62
     7
100
AcDbVertex
100
AcDb2dVertex
 10
57.45626897435121
 20
246.4628200338704
 30
0.0
  0
VERTEX
  5
24E
330
24C
100
AcDbEntity
  8
BEMAßUNG
 62
     7
100
AcDbVertex
100
AcDb2dVertex
 10
53.95639647088591
 20
246.4628200338704
 30
0.0
  0
SEQEND
  5
24F
330
24C
100
AcDbEntity
  8
BEMAßUNG
  0
POLYLINE
  5
250
330
1F
100
AcDbEntity
  8
BEMAßUNG
 62
     7
100
AcDb2dPolyline
 66
     1
 10
0.0
 20
0.0
 30
0.0
  0
VERTEX
  5
251
330
250
100
AcDbEntity
  8
BEMAßUNG
 62
     7
100
AcDbVertex
100
AcDb2dVertex
 10
57.45626897435121
 20
246.9203287143116
 30
0.0
  0
VERTEX
  5
252
330
250
100
AcDbEntity
  8
BEMAßUNG
 62
     7
100
AcDbVertex
100
AcDb2dVertex
 10
57.42905272001774
 20
246.9203287143116
 30
0.0
  0
SEQEND
  5
253
330
250
100
AcDbEntity
  8
BEMAßUNG
  0
POLYLINE
  5
254
330
1F
100
AcDbEntity
  8
BEMAßUNG
 62
     7
100
AcDb2dPolyline
 66
     1
 10
0.0
 20
0.0
 30
0.0
  0
VERTEX
  5
255
330
254
100
AcDbEntity
  8
BEMAßUNG
 62
     7
100
AcDbVertex
100
AcDb2dVertex
 10
57.45626897435121
 20
246.9203287143116
 30
0.0
  0
VERTEX
  5
256
330
254
100
AcDbEntity
  8
BEMAßUNG
 62
     7
100
AcDbVertex
100
AcDb2dVertex
 10
57.42905272001774
 20
246.9203287143116
 30
0.0
  0
SEQEND
  5
257
330
254
100
AcDbEntity
  8
BEMAßUNG
  0
POLYLINE
  5
258
330
1F
100
AcDbEntity
  8
BEMAßUNG
 62
     7
100
AcDb2dPolyline
 66
     1
 10
0.0
 20
0.0
 30
0.0
  0
VERTEX
  5
259
330
258
100
AcDbEntity
  8
BEMAßUNG
 62
     7
100
AcDbVertex
100
AcDb2dVertex
 10
57.45626897435121
 20
246.8695135559041
 30
0.0
  0
VERTEX
  5
25A
330
258
100
AcDbEntity
  8
BEMAßUNG
 62
     7
100
AcDbVertex
100
AcDb2dVertex
 10
57.04320202566976
 20
246.8695135559041
 30
0.0
  0
SEQEND
  5
25B
330
258
100
AcDbEntity
  8
BEMAßUNG
  0
POLYLINE
  5
25C
330
1F
100
AcDbEntity
  8
BEMAßUNG
 62
     7
100
AcDb2dPolyline
 66
     1
 10
0.0
 20
0.0
 30
0.0
  0
VERTEX
  5
25D
330
25C
100
AcDbEntity
  8
BEMAßUNG
 62
     7
100
AcDbVertex
100
AcDb2dVertex
 10
57.45626897435121
 20
246.8186983974967
 30
0.0
  0
VERTEX
  5
25E
330
25C
100
AcDbEntity
  8
BEMAßUNG
 62
     7
100
AcDbVertex
100
AcDb2dVertex
 10
56.65683456699899
 20
246.8186983974967
 30
0.0
  0
SEQEND
  5
25F
330
25C
100
AcDbEntity
  8
BEMAßUNG
  0
POLYLINE
  5
260
330
1F
100
AcDbEntity
  8
BEMAßUNG
 62
     7
100
AcDb2dPolyline
 66
     1
 10
0.0
 20
0.0
 30
0.0
  0
VERTEX
  5
261
330
260
100
AcDbEntity
  8
BEMAßUNG
 62
     7
100
AcDbVertex
100
AcDb2dVertex
 10
57.45626897435121
 20
246.7675387295408
 30
0.0
  0
VERTEX
  5
262
330
260
100
AcDbEntity
  8
BEMAßUNG
 62
     7
100
AcDbVertex
100
AcDb2dVertex
 10
56.27167289174805
 20
246.7675387295408
 30
0.0
  0
SEQEND
  5
263
330
260
100
AcDbEntity
  8
BEMAßUNG
  0
POLYLINE
  5
264
330
1F
100
AcDbEntity
  8
BEMAßUNG
 62
     7
100
AcDb2dPolyline
 66
     1
 10
0.0
 20
0.0
 30
0.0
  0
VERTEX
  5
265
330
264
100
AcDbEntity
  8
BEMAßUNG
 62
     7
100
AcDbVertex
100
AcDb2dVertex
 10
57.45626897435121
 20
246.7167235711333
 30
0.0
  0
VERTEX
  5
266
330
264
100
AcDbEntity
  8
BEMAßUNG
 62
     7
100
AcDbVertex
100
AcDb2dVertex
 10
55.88564994262581
 20
246.7167235711333
 30
0.0
  0
SEQEND
  5
267
330
264
100
AcDbEntity
  8
BEMAßUNG
  0
POLYLINE
  5
268
330
1F
100
AcDbEntity
  8
BEMAßUNG
 62
     7
100
AcDb2dPolyline
 66
     1
 10
0.0
 20
0.0
 30
0.0
  0
VERTEX
  5
269
330
268
100
AcDbEntity
  8
BEMAßUNG
 62
     7
100
AcDbVertex
100
AcDb2dVertex
 10
57.45626897435121
 20
246.6659084127259
 30
0.0
  0
VERTEX
  5
26A
330
268
100
AcDbEntity
  8
BEMAßUNG
 62
     7
100
AcDbVertex
100
AcDb2dVertex
 10
55.49979924827783
 20
246.6659084127259
 30
0.0
  0
SEQEND
  5
26B
330
268
100
AcDbEntity
  8
BEMAßUNG
  0
POLYLINE
  5
26C
330
1F
100
AcDbEntity
  8
BEMAßUNG
 62
     7
100
AcDb2dPolyline
 66
     1
 10
0.0
 20
0.0
 30
0.0
  0
VERTEX
  5
26D
330
26C
100
AcDbEntity
  8
BEMAßUNG
 62
     7
100
AcDbVertex
100
AcDb2dVertex
 10
57.45626897435121
 20
246.6150932543185
 30
0.0
  0
VERTEX
  5
26E
330
26C
100
AcDbEntity
  8
BEMAßUNG
 62
     7
100
AcDbVertex
100
AcDb2dVertex
 10
55.11343178960706
 20
246.6150932543185
 30
0.0
  0
SEQEND
  5
26F
330
26C
100
AcDbEntity
  8
BEMAßUNG
  0
POLYLINE
  5
270
330
1F
100
AcDbEntity
  8
BEMAßUNG
 62
     7
100
AcDb2dPolyline
 66
     1
 10
0.0
 20
0.0
 30
0.0
  0
VERTEX
  5
271
330
270
100
AcDbEntity
  8
BEMAßUNG
 62
     7
100
AcDbVertex
100
AcDb2dVertex
 10
57.45626897435121
 20
246.564278095911
 30
0.0
  0
VERTEX
  5
272
330
270
100
AcDbEntity
  8
BEMAßUNG
 62
     7
100
AcDbVertex
100
AcDb2dVertex
 10
54.72758109525908
 20
246.564278095911
 30
0.0
  0
SEQEND
  5
273
330
270
100
AcDbEntity
  8
BEMAßUNG
  0
POLYLINE
  5
274
330
1F
100
AcDbEntity
  8
BEMAßUNG
 62
     7
100
AcDb2dPolyline
 66
     1
 10
0.0
 20
0.0
 30
0.0
  0
VERTEX
  5
275
330
274
100
AcDbEntity
  8
BEMAßUNG
 62
     7
100
AcDbVertex
100
AcDb2dVertex
 10
57.45626897435121
 20
246.5131184279551
 30
0.0
  0
VERTEX
  5
276
330
274
100
AcDbEntity
  8
BEMAßUNG
 62
     7
100
AcDbVertex
100
AcDb2dVertex
 10
54.34224716523389
 20
246.5131184279551
 30
0.0
  0
SEQEND
  5
277
330
274
100
AcDbEntity
  8
BEMAßUNG
  0
POLYLINE
  5
278
330
1F
100
AcDbEntity
  8
BEMAßUNG
 62
     7
100
AcDb2dPolyline
 66
     1
 10
0.0
 20
0.0
 30
0.0
  0
VERTEX
  5
279
330
278
100
AcDbEntity
  8
BEMAßUNG
 62
     7
100
AcDbVertex
100
AcDb2dVertex
 10
57.45626897435121
 20
246.4628200338704
 30
0.0
  0
VERTEX
  5
27A
330
278
100
AcDbEntity
  8
BEMAßUNG
 62
     7
100
AcDbVertex
100
AcDb2dVertex
 10
53.95639647088591
 20
246.4628200338704
 30
0.0
  0
SEQEND
  5
27B
330
278
100
AcDbEntity
  8
BEMAßUNG
  0
POLYLINE
  5
27C
330
1F
100
AcDbEntity
  8
BEMAßUNG
 62
     7
100
AcDb2dPolyline
 66
     1
 10
0.0
 20
0.0
 30
0.0
  0
VERTEX
  5
27D
330
27C
100
AcDbEntity
  8
BEMAßUNG
 62
     7
100
AcDbVertex
100
AcDb2dVertex
 10
46.27331677445598
 20
246.4628200338704
 30
0.0
  0
VERTEX
  5
27E
330
27C
100
AcDbEntity
  8
BEMAßUNG
 62
     7
100
AcDbVertex
100
AcDb2dVertex
 10
42.77344427099067
 20
246.9237738097968
 30
0.0
  0
VERTEX
  5
27F
330
27C
100
AcDbEntity
  8
BEMAßUNG
 62
     7
100
AcDbVertex
100
AcDb2dVertex
 10
42.77344427099067
 20
246.0015217483955
 30
0.0
  0
VERTEX
  5
280
330
27C
100
AcDbEntity
  8
BEMAßUNG
 62
     7
100
AcDbVertex
100
AcDb2dVertex
 10
46.27331677445598
 20
246.4628200338704
 30
0.0
  0
SEQEND
  5
281
330
27C
100
AcDbEntity
  8
BEMAßUNG
  0
POLYLINE
  5
282
330
1F
100
AcDbEntity
  8
BEMAßUNG
 62
     7
100
AcDb2dPolyline
 66
     1
 10
0.0
 20
0.0
 30
0.0
  0
VERTEX
  5
283
330
282
100
AcDbEntity
  8
BEMAßUNG
 62
     7
100
AcDbVertex
100
AcDb2dVertex
 10
42.77344427099067
 20
246.9203287143116
 30
0.0
  0
VERTEX
  5
284
330
282
100
AcDbEntity
  8
BEMAßUNG
 62
     7
100
AcDbVertex
100
AcDb2dVertex
 10
42.80066052532414
 20
246.9203287143116
 30
0.0
  0
SEQEND
  5
285
330
282
100
AcDbEntity
  8
BEMAßUNG
  0
POLYLINE
  5
286
330
1F
100
AcDbEntity
  8
BEMAßUNG
 62
     7
100
AcDb2dPolyline
 66
     1
 10
0.0
 20
0.0
 30
0.0
  0
VERTEX
  5
287
330
286
100
AcDbEntity
  8
BEMAßUNG
 62
     7
100
AcDbVertex
100
AcDb2dVertex
 10
42.77344427099067
 20
246.9203287143116
 30
0.0
  0
VERTEX
  5
288
330
286
100
AcDbEntity
  8
BEMAßUNG
 62
     7
100
AcDbVertex
100
AcDb2dVertex
 10
42.80066052532414
 20
246.9203287143116
 30
0.0
  0
SEQEND
  5
289
330
286
100
AcDbEntity
  8
BEMAßUNG
  0
POLYLINE
  5
28A
330
1F
100
AcDbEntity
  8
BEMAßUNG
 62
     7
100
AcDb2dPolyline
 66
     1
 10
0.0
 20
0.0
 30
0.0
  0
VERTEX
  5
28B
330
28A
100
AcDbEntity
  8
BEMAßUNG
 62
     7
100
AcDbVertex
100
AcDb2dVertex
 10
42.77344427099067
 20
246.8695135559041
 30
0.0
  0
VERTEX
  5
28C
330
28A
100
AcDbEntity
  8
BEMAßUNG
 62
     7
100
AcDbVertex
100
AcDb2dVertex
 10
43.18651121967213
 20
246.8695135559041
 30
0.0
  0
SEQEND
  5
28D
330
28A
100
AcDbEntity
  8
BEMAßUNG
  0
POLYLINE
  5
28E
330
1F
100
AcDbEntity
  8
BEMAßUNG
 62
     7
100
AcDb2dPolyline
 66
     1
 10
0.0
 20
0.0
 30
0.0
  0
VERTEX
  5
28F
330
28E
100
AcDbEntity
  8
BEMAßUNG
 62
     7
100
AcDbVertex
100
AcDb2dVertex
 10
42.77344427099067
 20
246.8186983974967
 30
0.0
  0
VERTEX
  5
290
330
28E
100
AcDbEntity
  8
BEMAßUNG
 62
     7
100
AcDbVertex
100
AcDb2dVertex
 10
43.57253416879437
 20
246.8186983974967
 30
0.0
  0
SEQEND
  5
291
330
28E
100
AcDbEntity
  8
BEMAßUNG
  0
POLYLINE
  5
292
330
1F
100
AcDbEntity
  8
BEMAßUNG
 62
     7
100
AcDb2dPolyline
 66
     1
 10
0.0
 20
0.0
 30
0.0
  0
VERTEX
  5
293
330
292
100
AcDbEntity
  8
BEMAßUNG
 62
     7
100
AcDbVertex
100
AcDb2dVertex
 10
42.77344427099067
 20
246.7675387295408
 30
0.0
  0
VERTEX
  5
294
330
292
100
AcDbEntity
  8
BEMAßUNG
 62
     7
100
AcDbVertex
100
AcDb2dVertex
 10
43.95838486314235
 20
246.7675387295408
 30
0.0
  0
SEQEND
  5
295
330
292
100
AcDbEntity
  8
BEMAßUNG
  0
POLYLINE
  5
296
330
1F
100
AcDbEntity
  8
BEMAßUNG
 62
     7
100
AcDb2dPolyline
 66
     1
 10
0.0
 20
0.0
 30
0.0
  0
VERTEX
  5
297
330
296
100
AcDbEntity
  8
BEMAßUNG
 62
     7
100
AcDbVertex
100
AcDb2dVertex
 10
42.77344427099067
 20
246.7167235711333
 30
0.0
  0
VERTEX
  5
298
330
296
100
AcDbEntity
  8
BEMAßUNG
 62
     7
100
AcDbVertex
100
AcDb2dVertex
 10
44.34406330271607
 20
246.7167235711333
 30
0.0
  0
SEQEND
  5
299
330
296
100
AcDbEntity
  8
BEMAßUNG
  0
POLYLINE
  5
29A
330
1F
100
AcDbEntity
  8
BEMAßUNG
 62
     7
100
AcDb2dPolyline
 66
     1
 10
0.0
 20
0.0
 30
0.0
  0
VERTEX
  5
29B
330
29A
100
AcDbEntity
  8
BEMAßUNG
 62
     7
100
AcDbVertex
100
AcDb2dVertex
 10
42.77344427099067
 20
246.6659084127259
 30
0.0
  0
VERTEX
  5
29C
330
29A
100
AcDbEntity
  8
BEMAßUNG
 62
     7
100
AcDbVertex
100
AcDb2dVertex
 10
44.72991399706405
 20
246.6659084127259
 30
0.0
  0
SEQEND
  5
29D
330
29A
100
AcDbEntity
  8
BEMAßUNG
  0
POLYLINE
  5
29E
330
1F
100
AcDbEntity
  8
BEMAßUNG
 62
     7
100
AcDb2dPolyline
 66
     1
 10
0.0
 20
0.0
 30
0.0
  0
VERTEX
  5
29F
330
29E
100
AcDbEntity
  8
BEMAßUNG
 62
     7
100
AcDbVertex
100
AcDb2dVertex
 10
42.77344427099067
 20
246.6150932543185
 30
0.0
  0
VERTEX
  5
2A0
330
29E
100
AcDbEntity
  8
BEMAßUNG
 62
     7
100
AcDbVertex
100
AcDb2dVertex
 10
45.1159369461863
 20
246.6150932543185
 30
0.0
  0
SEQEND
  5
2A1
330
29E
100
AcDbEntity
  8
BEMAßUNG
  0
POLYLINE
  5
2A2
330
1F
100
AcDbEntity
  8
BEMAßUNG
 62
     7
100
AcDb2dPolyline
 66
     1
 10
0.0
 20
0.0
 30
0.0
  0
VERTEX
  5
2A3
330
2A2
100
AcDbEntity
  8
BEMAßUNG
 62
     7
100
AcDbVertex
100
AcDb2dVertex
 10
42.77344427099067
 20
246.564278095911
 30
0.0
  0
VERTEX
  5
2A4
330
2A2
100
AcDbEntity
  8
BEMAßUNG
 62
     7
100
AcDbVertex
100
AcDb2dVertex
 10
45.50178764053427
 20
246.564278095911
 30
0.0
  0
SEQEND
  5
2A5
330
2A2
100
AcDbEntity
  8
BEMAßUNG
  0
POLYLINE
  5
2A6
330
1F
100
AcDbEntity
  8
BEMAßUNG
 62
     7
100
AcDb2dPolyline
 66
     1
 10
0.0
 20
0.0
 30
0.0
  0
VERTEX
  5
2A7
330
2A6
100
AcDbEntity
  8
BEMAßUNG
 62
     7
100
AcDbVertex
100
AcDb2dVertex
 10
42.77344427099067
 20
246.5131184279551
 30
0.0
  0
VERTEX
  5
2A8
330
2A6
100
AcDbEntity
  8
BEMAßUNG
 62
     7
100
AcDbVertex
100
AcDb2dVertex
 10
45.887466080108
 20
246.5131184279551
 30
0.0
  0
SEQEND
  5
2A9
330
2A6
100
AcDbEntity
  8
BEMAßUNG
  0
POLYLINE
  5
2AA
330
1F
100
AcDbEntity
  8
BEMAßUNG
 62
     7
100
AcDb2dPolyline
 66
     1
 10
0.0
 20
0.0
 30
0.0
  0
VERTEX
  5
2AB
330
2AA
100
AcDbEntity
  8
BEMAßUNG
 62
     7
100
AcDbVertex
100
AcDb2dVertex
 10
42.77344427099067
 20
246.4628200338704
 30
0.0
  0
VERTEX
  5
2AC
330
2AA
100
AcDbEntity
  8
BEMAßUNG
 62
     7
100
AcDbVertex
100
AcDb2dVertex
 10
46.27331677445598
 20
246.4628200338704
 30
0.0
  0
SEQEND
  5
2AD
330
2AA
100
AcDbEntity
  8
BEMAßUNG
  0
POLYLINE
  5
2AE
330
1F
100
AcDbEntity
  8
BEMAßUNG
 62
     7
100
AcDb2dPolyline
 66
     1
 10
0.0
 20
0.0
 30
0.0
  0
VERTEX
  5
2AF
330
2AE
100
AcDbEntity
  8
BEMAßUNG
 62
     7
100
AcDbVertex
100
AcDb2dVertex
 10
42.77344427099067
 20
246.005828117752
 30
0.0
  0
VERTEX
  5
2B0
330
2AE
100
AcDbEntity
  8
BEMAßUNG
 62
     7
100
AcDbVertex
100
AcDb2dVertex
 10
42.80066052532414
 20
246.005828117752
 30
0.0
  0
SEQEND
  5
2B1
330
2AE
100
AcDbEntity
  8
BEMAßUNG
  0
POLYLINE
  5
2B2
330
1F
100
AcDbEntity
  8
BEMAßUNG
 62
     7
100
AcDb2dPolyline
 66
     1
 10
0.0
 20
0.0
 30
0.0
  0
VERTEX
  5
2B3
330
2B2
100
AcDbEntity
  8
BEMAßUNG
 62
     7
100
AcDbVertex
100
AcDb2dVertex
 10
42.77344427099067
 20
246.005828117752
 30
0.0
  0
VERTEX
  5
2B4
330
2B2
100
AcDbEntity
  8
BEMAßUNG
 62
     7
100
AcDbVertex
100
AcDb2dVertex
 10
42.80066052532414
 20
246.005828117752
 30
0.0
  0
SEQEND
  5
2B5
330
2B2
100
AcDbEntity
  8
BEMAßUNG
  0
POLYLINE
  5
2B6
330
1F
100
AcDbEntity
  8
BEMAßUNG
 62
     7
100
AcDb2dPolyline
 66
     1
 10
0.0
 20
0.0
 30
0.0
  0
VERTEX
  5
2B7
330
2B6
100
AcDbEntity
  8
BEMAßUNG
 62
     7
100
AcDbVertex
100
AcDb2dVertex
 10
42.77344427099067
 20
246.0566432761595
 30
0.0
  0
VERTEX
  5
2B8
330
2B6
100
AcDbEntity
  8
BEMAßUNG
 62
     7
100
AcDbVertex
100
AcDb2dVertex
 10
43.18651121967213
 20
246.0566432761595
 30
0.0
  0
SEQEND
  5
2B9
330
2B6
100
AcDbEntity
  8
BEMAßUNG
  0
POLYLINE
  5
2BA
330
1F
100
AcDbEntity
  8
BEMAßUNG
 62
     7
100
AcDb2dPolyline
 66
     1
 10
0.0
 20
0.0
 30
0.0
  0
VERTEX
  5
2BB
330
2BA
100
AcDbEntity
  8
BEMAßUNG
 62
     7
100
AcDbVertex
100
AcDb2dVertex
 10
42.77344427099067
 20
246.1074584345669
 30
0.0
  0
VERTEX
  5
2BC
330
2BA
100
AcDbEntity
  8
BEMAßUNG
 62
     7
100
AcDbVertex
100
AcDb2dVertex
 10
43.57253416879437
 20
246.1074584345669
 30
0.0
  0
SEQEND
  5
2BD
330
2BA
100
AcDbEntity
  8
BEMAßUNG
  0
POLYLINE
  5
2BE
330
1F
100
AcDbEntity
  8
BEMAßUNG
 62
     7
100
AcDb2dPolyline
 66
     1
 10
0.0
 20
0.0
 30
0.0
  0
VERTEX
  5
2BF
330
2BE
100
AcDbEntity
  8
BEMAßUNG
 62
     7
100
AcDbVertex
100
AcDb2dVertex
 10
42.77344427099067
 20
246.1582735929743
 30
0.0
  0
VERTEX
  5
2C0
330
2BE
100
AcDbEntity
  8
BEMAßUNG
 62
     7
100
AcDbVertex
100
AcDb2dVertex
 10
43.95838486314235
 20
246.1582735929743
 30
0.0
  0
SEQEND
  5
2C1
330
2BE
100
AcDbEntity
  8
BEMAßUNG
  0
POLYLINE
  5
2C2
330
1F
100
AcDbEntity
  8
BEMAßUNG
 62
     7
100
AcDb2dPolyline
 66
     1
 10
0.0
 20
0.0
 30
0.0
  0
VERTEX
  5
2C3
330
2C2
100
AcDbEntity
  8
BEMAßUNG
 62
     7
100
AcDbVertex
100
AcDb2dVertex
 10
42.77344427099067
 20
246.2090887513818
 30
0.0
  0
VERTEX
  5
2C4
330
2C2
100
AcDbEntity
  8
BEMAßUNG
 62
     7
100
AcDbVertex
100
AcDb2dVertex
 10
44.34406330271607
 20
246.2090887513818
 30
0.0
  0
SEQEND
  5
2C5
330
2C2
100
AcDbEntity
  8
BEMAßUNG
  0
POLYLINE
  5
2C6
330
1F
100
AcDbEntity
  8
BEMAßUNG
 62
     7
100
AcDb2dPolyline
 66
     1
 10
0.0
 20
0.0
 30
0.0
  0
VERTEX
  5
2C7
330
2C6
100
AcDbEntity
  8
BEMAßUNG
 62
     7
100
AcDbVertex
100
AcDb2dVertex
 10
42.77344427099067
 20
246.2595594002407
 30
0.0
  0
VERTEX
  5
2C8
330
2C6
100
AcDbEntity
  8
BEMAßUNG
 62
     7
100
AcDbVertex
100
AcDb2dVertex
 10
44.72991399706405
 20
246.2595594002407
 30
0.0
  0
SEQEND
  5
2C9
330
2C6
100
AcDbEntity
  8
BEMAßUNG
  0
POLYLINE
  5
2CA
330
1F
100
AcDbEntity
  8
BEMAßUNG
 62
     7
100
AcDb2dPolyline
 66
     1
 10
0.0
 20
0.0
 30
0.0
  0
VERTEX
  5
2CB
330
2CA
100
AcDbEntity
  8
BEMAßUNG
 62
     7
100
AcDbVertex
100
AcDb2dVertex
 10
42.77344427099067
 20
246.3102023038738
 30
0.0
  0
VERTEX
  5
2CC
330
2CA
100
AcDbEntity
  8
BEMAßUNG
 62
     7
100
AcDbVertex
100
AcDb2dVertex
 10
45.1159369461863
 20
246.3102023038738
 30
0.0
  0
SEQEND
  5
2CD
330
2CA
100
AcDbEntity
  8
BEMAßUNG
  0
POLYLINE
  5
2CE
330
1F
100
AcDbEntity
  8
BEMAßUNG
 62
     7
100
AcDb2dPolyline
 66
     1
 10
0.0
 20
0.0
 30
0.0
  0
VERTEX
  5
2CF
330
2CE
100
AcDbEntity
  8
BEMAßUNG
 62
     7
100
AcDbVertex
100
AcDb2dVertex
 10
42.77344427099067
 20
246.3611897170555
 30
0.0
  0
VERTEX
  5
2D0
330
2CE
100
AcDbEntity
  8
BEMAßUNG
 62
     7
100
AcDbVertex
100
AcDb2dVertex
 10
45.50178764053427
 20
246.3611897170555
 30
0.0
  0
SEQEND
  5
2D1
330
2CE
100
AcDbEntity
  8
BEMAßUNG
  0
POLYLINE
  5
2D2
330
1F
100
AcDbEntity
  8
BEMAßUNG
 62
     7
100
AcDb2dPolyline
 66
     1
 10
0.0
 20
0.0
 30
0.0
  0
VERTEX
  5
2D3
330
2D2
100
AcDbEntity
  8
BEMAßUNG
 62
     7
100
AcDbVertex
100
AcDb2dVertex
 10
42.77344427099067
 20
246.4118326206887
 30
0.0
  0
VERTEX
  5
2D4
330
2D2
100
AcDbEntity
  8
BEMAßUNG
 62
     7
100
AcDbVertex
100
AcDb2dVertex
 10
45.887466080108
 20
246.4118326206887
 30
0.0
  0
SEQEND
  5
2D5
330
2D2
100
AcDbEntity
  8
BEMAßUNG
  0
POLYLINE
  5
2D6
330
1F
100
AcDbEntity
  8
BEMAßUNG
 62
     7
100
AcDb2dPolyline
 66
     1
 10
0.0
 20
0.0
 30
0.0
  0
VERTEX
  5
2D7
330
2D6
100
AcDbEntity
  8
BEMAßUNG
 62
     7
100
AcDbVertex
100
AcDb2dVertex
 10
42.77344427099067
 20
246.4628200338704
 30
0.0
  0
VERTEX
  5
2D8
330
2D6
100
AcDbEntity
  8
BEMAßUNG
 62
     7
100
AcDbVertex
100
AcDb2dVertex
 10
46.27331677445598
 20
246.4628200338704
 30
0.0
  0
SEQEND
  5
2D9
330
2D6
100
AcDbEntity
  8
BEMAßUNG
  0
MTEXT
  5
2DB
330
1F
100
AcDbEntity
  8
TEXT
 62
     7
100
AcDbMText
 10
148.7268391555266
 20
160.766931112152
 30
0.0
 40
3.311186211711877
 41
0.0
 71
     7
 72
     1
  1
\fINDEX Univers 45 Light|b0|i0|c0|p34;\W1;25
  0
MTEXT
  5
2DC
330
1F
100
AcDbEntity
  8
TEXT
 62
     7
100
AcDbMText
 10
48.621321602428
 20
247.2749151671309
 30
0.0
 40
3.311186211711877
 41
0.0
 71
     7
 72
     1
  1
\fINDEX Univers 45 Light|b0|i0|c0|p34;\W1;8
  0
ENDSEC
  0
SECTION
  2
OBJECTS
  0
DICTIONARY
  5
C
330
0
100
AcDbDictionary
  3
ACAD_GROUP
350
D
  3
ACAD_LAYOUT
350
1A
  3
ACAD_MLINESTYLE
350
17
  3
ACAD_PLOTSETTINGS
350
19
  3
ACAD_TABLESTYLE
350
2FD
  3
ACAD_VISUALSTYLE
350
2A
  3
ACDBHEADERROUNDTRIPXREC
350
2DD
  0
DICTIONARY
  5
D
102
{ACAD_REACTORS
330
C
102
}
330
C
100
AcDbDictionary
  0
DICTIONARY
  5
1A
102
{ACAD_REACTORS
330
C
102
}
330
C
100
AcDbDictionary
  0
DICTIONARY
  5
17
102
{ACAD_REACTORS
330
C
102
}
330
C
100
AcDbDictionary
  3
STANDARD
350
18
  0
DICTIONARY
  5
19
102
{ACAD_REACTORS
330
C
102
}
330
C
100
AcDbDictionary
  0
DICTIONARY
  5
2FD
102
{ACAD_REACTORS
330
C
102
}
330
C
100
AcDbDictionary
  0
DICTIONARY
  5
2A
102
{ACAD_REACTORS
330
C
102
}
330
C
100
AcDbDictionary
  3
2DWIREFRAME
350
2F
  3
3D_HIDDEN
350
31
  3
3DWIREFRAME
350
30
  3
BASIC
350
32
  3
BRIGHTEN
350
36
  3
COLORCHANGE
350
3A
  3
CONCEPTUAL
350
34
  3
DIM
350
35
  3
FACEPATTERN
350
39
  3
FLAT
350
2B
  3
FLATWITHEDGES
350
2C
  3
GOURAUD
350
2D
  3
GOURAUDWITHEDGES
350
2E
  3
LINEPATTERN
350
38
  3
REALISTIC
350
33
  3
THICKEN
350
37
  0
DICTIONARY
  5
2DD
102
{ACAD_REACTORS
330
C
102
}
330
C
100
AcDbDictionary
  3
CEPSNTYPE
350
2E6
  3
DIMSTYLEDATA
350
2FC
  3
FINGERPRINTGUID
350
2E7
  3
HYPERLINKBASE
350
2E0
  3
INSUNITS
350
2E5
  3
LAYOUTDICT
350
2E2
  3
LWETCUNION
350
2E4
  3
PLOTSETDICT
350
2E3
  3
PSVPSCALE
350
2E9
  3
PUCSBASE
350
2EC
  3
PUCSORGBACK
350
2F2
  3
PUCSORGBOTTOM
350
2EE
  3
PUCSORGFRONT
350
2F1
  3
PUCSORGLEFT
350
2EF
  3
PUCSORGRIGHT
350
2F0
  3
PUCSORGTOP
350
2ED
  3
PUCSORTHOREF
350
2EA
  3
PUCSORTHOVIEW
350
2EB
  3
STYLESHEET
350
2E1
  3
TSTACKALIGN
350
2DE
  3
TSTACKSIZE
350
2DF
  3
UCSBASE
350
2F5
  3
UCSORGBACK
350
2FB
  3
UCSORGBOTTOM
350
2F7
  3
UCSORGFRONT
350
2FA
  3
UCSORGLEFT
350
2F8
  3
UCSORGRIGHT
350
2F9
  3
UCSORGTOP
350
2F6
  3
UCSORTHOREF
350
2F3
  3
UCSORTHOVIEW
350
2F4
  3
VERSIONGUID
350
2E8
  0
MLINESTYLE
  5
18
102
{ACAD_REACTORS
330
17
102
}
330
17
100
AcDbMlineStyle
  2
Standard
 70
     0
  3

 62
   256
 51
90.0
 52
90.0
 71
     2
 49
0.5
 62
   256
  6
BYLAYER
 49
-0.5
 62
   256
  6
BYLAYER
  0
VISUALSTYLE
  5
2F
102
{ACAD_REACTORS
330
2A
102
}
330
2A
100
AcDbVisualStyle
  2
2dWireframe
 70
     4
 71
     0
 72
     2
 73
     0
 90
        0
 40
-0.6
 41
-30.0
 62
     5
 63
     7
 74
     1
 91
        4
 64
     7
 65
   257
 75
     1
175
     1
 42
1.0
 92
        0
 66
   257
 43
1.0
 76
     1
 77
     6
 78
     2
 67
     7
 79
     5
170
     0
171
     0
290
     0
174
     0
 93
        1
 44
0.0
173
     0
291
     0
 45
0.0
1001
ACAD
1000
AcDbSavedByObjectVersion
1070
     0
  0
VISUALSTYLE
  5
31
102
{ACAD_REACTORS
330
2A
102
}
330
2A
100
AcDbVisualStyle
  2
3D Hidden
 70
     6
 71
     1
 72
     2
 73
     2
 90
        0
 40
-0.6
 41
-30.0
 62
     5
 63
     7
 74
     2
 91
        2
 64
     7
 65
   257
 75
     2
175
     1
 42
40.0
 92
        0
 66
   257
 43
1.0
 76
     1
 77
     6
 78
     2
 67
     7
 79
     3
170
     0
171
     0
290
     0
174
     0
 93
        1
 44
0.0
173
     0
291
     0
 45
0.0
1001
ACAD
1000
AcDbSavedByObjectVersion
1070
     0
  0
VISUALSTYLE
  5
30
102
{ACAD_REACTORS
330
2A
102
}
330
2A
100
AcDbVisualStyle
  2
3dWireframe
 70
     5
 71
     0
 72
     2
 73
     0
 90
        0
 40
-0.6
 41
-30.0
 62
     5
 63
     7
 74
     1
 91
        4
 64
     7
 65
   257
 75
     1
175
     1
 42
1.0
 92
        0
 66
   257
 43
1.0
 76
     1
 77
     6
 78
     2
 67
     7
 79
     5
170
     0
171
     0
290
     0
174
     0
 93
        1
 44
0.0
173
     0
291
     0
 45
0.0
1001
ACAD
1000
AcDbSavedByObjectVersion
1070
     0
  0
VISUALSTYLE
  5
32
102
{ACAD_REACTORS
330
2A
102
}
330
2A
100
AcDbVisualStyle
  2
Basic
 70
     7
 71
     1
 72
     0
 73
     1
 90
        0
 40
-0.6
 41
-30.0
 62
     5
 63
     7
 74
     0
 91
        4
 64
     7
 65
   257
 75
     1
175
     1
 42
1.0
 92
        8
 66
     7
 43
1.0
 76
     1
 77
     6
 78
     2
 67
     7
 79
     5
170
     0
171
     0
290
     0
174
     0
 93
        1
 44
0.0
173
     0
291
     1
 45
0.0
1001
ACAD
1000
AcDbSavedByObjectVersion
1070
     0
  0
VISUALSTYLE
  5
36
102
{ACAD_REACTORS
330
2A
102
}
330
2A
100
AcDbVisualStyle
  2
Brighten
 70
    12
 71
     2
 72
     2
 73
     0
 90
        0
 40
-0.6
 41
-30.0
 62
     5
 63
     7
 74
     1
 91
        4
 64
     7
 65
   257
 75
     1
175
     1
 42
1.0
 92
        8
 66
     7
 43
1.0
 76
     1
 77
     6
 78
     2
 67
     7
 79
     5
170
     0
171
     0
290
     0
174
     0
 93
        1
 44
50.0
173
     0
291
     1
 45
0.0
1001
ACAD
1000
AcDbSavedByObjectVersion
1070
     0
  0
VISUALSTYLE
  5
3A
102
{ACAD_REACTORS
330
2A
102
}
330
2A
100
AcDbVisualStyle
  2
ColorChange
 70
    16
 71
     2
 72
     2
 73
     3
 90
        0
 40
-0.6
 41
-30.0
 62
     5
 63
     8
 74
     1
 91
        4
 64
     7
 65
   257
 75
     1
175
     1
 42
1.0
 92
        8
 66
     8
 43
1.0
 76
     1
 77
     6
 78
     2
 67
     7
 79
     5
170
     0
171
     0
290
     0
174
     0
 93
        1
 44
0.0
173
     0
291
     1
 45
0.0
1001
ACAD
1000
AcDbSavedByObjectVersion
1070
     0
  0
VISUALSTYLE
  5
34
102
{ACAD_REACTORS
330
2A
102
}
330
2A
100
AcDbVisualStyle
  2
Conceptual
 70
     9
 71
     3
 72
     2
 73
     0
 90
        0
 40
-0.6
 41
-30.0
 62
     5
 63
     7
 74
     2
 91
        2
 64
     7
 65
   257
 75
     1
175
     1
 42
40.0
 92
        8
 66
     7
 43
1.0
 76
     1
 77
     6
 78
     2
 67
     7
 79
     3
170
     0
171
     0
290
     0
174
     0
 93
        1
 44
0.0
173
     0
291
     0
 45
0.0
1001
ACAD
1000
AcDbSavedByObjectVersion
1070
     0
  0
VISUALSTYLE
  5
35
102
{ACAD_REACTORS
330
2A
102
}
330
2A
100
AcDbVisualStyle
  2
Dim
 70
    11
 71
     2
 72
     2
 73
     0
 90
        0
 40
-0.6
 41
-30.0
 62
     5
 63
     7
 74
     1
 91
        4
 64
     7
 65
   257
 75
     1
175
     1
 42
1.0
 92
        8
 66
     7
 43
1.0
 76
     1
 77
     6
 78
     2
 67
     7
 79
     5
170
     0
171
     0
290
     0
174
     0
 93
        1
 44
-50.0
173
     0
291
     1
 45
0.0
1001
ACAD
1000
AcDbSavedByObjectVersion
1070
     0
  0
VISUALSTYLE
  5
39
102
{ACAD_REACTORS
330
2A
102
}
330
2A
100
AcDbVisualStyle
  2
Facepattern
 70
    15
 71
     2
 72
     2
 73
     0
 90
        0
 40
-0.6
 41
-30.0
 62
     5
 63
     7
 74
     1
 91
        4
 64
     7
 65
   257
 75
     1
175
     1
 42
1.0
 92
        8
 66
     7
 43
1.0
 76
     1
 77
     6
 78
     2
 67
     7
 79
     5
170
     0
171
     0
290
     0
174
     0
 93
        1
 44
0.0
173
     0
291
     1
 45
0.0
1001
ACAD
1000
AcDbSavedByObjectVersion
1070
     0
  0
VISUALSTYLE
  5
2B
102
{ACAD_REACTORS
330
2A
102
}
330
2A
100
AcDbVisualStyle
  2
Flat
 70
     0
 71
     2
 72
     1
 73
     1
 90
        2
 40
-0.6
 41
30.0
 62
     5
 63
     7
 74
     0
 91
        4
 64
     7
 65
   257
 75
     1
175
     1
 42
1.0
 92
        8
 66
     7
 43
1.0
 76
     1
 77
     6
 78
     2
 67
     7
 79
     5
170
     0
171
     0
290
     0
174
     0
 93
       13
 44
0.0
173
     0
291
     1
 45
0.0
1001
ACAD
1000
AcDbSavedByObjectVersion
1070
     0
  0
VISUALSTYLE
  5
2C
102
{ACAD_REACTORS
330
2A
102
}
330
2A
100
AcDbVisualStyle
  2
FlatWithEdges
 70
     1
 71
     2
 72
     1
 73
     1
 90
        2
 40
-0.6
 41
30.0
 62
     5
 63
     7
 74
     1
 91
        4
 64
     7
 65
   257
 75
     1
175
     1
 42
1.0
 92
        0
 66
   257
 43
1.0
 76
     1
 77
     6
 78
     2
 67
     7
 79
     5
170
     0
171
     0
290
     0
174
     0
 93
       13
 44
0.0
173
     0
291
     1
 45
0.0
1001
ACAD
1000
AcDbSavedByObjectVersion
1070
     0
  0
VISUALSTYLE
  5
2D
102
{ACAD_REACTORS
330
2A
102
}
330
2A
100
AcDbVisualStyle
  2
Gouraud
 70
     2
 71
     2
 72
     2
 73
     1
 90
        2
 40
-0.6
 41
30.0
 62
     5
 63
     7
 74
     0
 91
        4
 64
     7
 65
   257
 75
     1
175
     1
 42
1.0
 92
        0
 66
     7
 43
1.0
 76
     1
 77
     6
 78
     2
 67
     7
 79
     5
170
     0
171
     0
290
     0
174
     0
 93
       13
 44
0.0
173
     0
291
     1
 45
0.0
1001
ACAD
1000
AcDbSavedByObjectVersion
1070
     0
  0
VISUALSTYLE
  5
2E
102
{ACAD_REACTORS
330
2A
102
}
330
2A
100
AcDbVisualStyle
  2
GouraudWithEdges
 70
     3
 71
     2
 72
     2
 73
     1
 90
        2
 40
-0.6
 41
30.0
 62
     5
 63
     7
 74
     1
 91
        4
 64
     7
 65
   257
 75
     1
175
     1
 42
1.0
 92
        0
 66
   257
 43
1.0
 76
     1
 77
     6
 78
     2
 67
     7
 79
     5
170
     0
171
     0
290
     0
174
     0
 93
       13
 44
0.0
173
     0
291
     1
 45
0.0
1001
ACAD
1000
AcDbSavedByObjectVersion
1070
     0
  0
VISUALSTYLE
  5
38
102
{ACAD_REACTORS
330
2A
102
}
330
2A
100
AcDbVisualStyle
  2
Linepattern
 70
    14
 71
     2
 72
     2
 73
     0
 90
        0
 40
-0.6
 41
-30.0
 62
     5
 63
     7
 74
     1
 91
        4
 64
     7
 65
   257
 75
     7
175
     7
 42
1.0
 92
        8
 66
     7
 43
1.0
 76
     1
 77
     6
 78
     2
 67
     7
 79
     5
170
     0
171
     0
290
     0
174
     0
 93
        1
 44
0.0
173
     0
291
     1
 45
0.0
1001
ACAD
1000
AcDbSavedByObjectVersion
1070
     0
  0
VISUALSTYLE
  5
33
102
{ACAD_REACTORS
330
2A
102
}
330
2A
100
AcDbVisualStyle
  2
Realistic
 70
     8
 71
     2
 72
     2
 73
     0
 90
        0
 40
-0.6
 41
-30.0
 62
     5
 63
     7
 74
     1
 91
        0
 64
     7
 65
   257
 75
     1
175
     1
 42
1.0
 92
        8
 66
     8
 43
1.0
 76
     1
 77
     6
 78
     2
 67
     7
 79
     5
170
     0
171
     0
290
     0
174
     0
 93
       13
 44
0.0
173
     0
291
     0
 45
0.0
1001
ACAD
1000
AcDbSavedByObjectVersion
1070
     0
  0
VISUALSTYLE
  5
37
102
{ACAD_REACTORS
330
2A
102
}
330
2A
100
AcDbVisualStyle
  2
Thicken
 70
    13
 71
     2
 72
     2
 73
     0
 90
        0
 40
-0.6
 41
-30.0
 62
     5
 63
     7
 74
     1
 91
        4
 64
     7
 65
   257
 75
     1
175
     1
 42
1.0
 92
       12
 66
     7
 43
1.0
 76
     1
 77
     6
 78
     2
 67
     7
 79
     5
170
     0
171
     0
290
     0
174
     0
 93
        1
 44
0.0
173
     0
291
     1
 45
0.0
1001
ACAD
1000
AcDbSavedByObjectVersion
1070
     0
  0
XRECORD
  5
2E6
102
{ACAD_REACTORS
330
2DD
102
}
330
2DD
100
AcDbXrecord
 90
        0
  0
XRECORD
  5
2FC
102
{ACAD_REACTORS
330
2DD
102
}
330
2DD
100
AcDbXrecord
1000
DSTYLE
1002
{
1070
   340
340
11
1002
}
  0
XRECORD
  5
2E7
102
{ACAD_REACTORS
330
2DD
102
}
330
2DD
100
AcDbXrecord
  1
{93F3DF5B-BA38-4965-9F56-6AB70E5747D1}
  0
XRECORD
  5
2E0
102
{ACAD_REACTORS
330
2DD
102
}
330
2DD
100
AcDbXrecord
  1

  0
XRECORD
  5
2E5
102
{ACAD_REACTORS
330
2DD
102
}
330
2DD
100
AcDbXrecord
 90
        1
  0
XRECORD
  5
2E2
102
{ACAD_REACTORS
330
2DD
102
}
330
2DD
100
AcDbXrecord
340
1A
  0
XRECORD
  5
2E4
102
{ACAD_REACTORS
330
2DD
102
}
330
2DD
100
AcDbXrecord
 90
    10269
  0
XRECORD
  5
2E3
102
{ACAD_REACTORS
330
2DD
102
}
330
2DD
100
AcDbXrecord
340
19
  0
XRECORD
  5
2E9
102
{ACAD_REACTORS
330
2DD
102
}
330
2DD
100
AcDbXrecord
 40
0.0
  0
XRECORD
  5
2EC
102
{ACAD_REACTORS
330
2DD
102
}
330
2DD
100
AcDbXrecord
340
0
  0
XRECORD
  5
2F2
102
{ACAD_REACTORS
330
2DD
102
}
330
2DD
100
AcDbXrecord
 10
0.0
 20
0.0
 30
0.0
  0
XRECORD
  5
2EE
102
{ACAD_REACTORS
330
2DD
102
}
330
2DD
100
AcDbXrecord
 10
0.0
 20
0.0
 30
0.0
  0
XRECORD
  5
2F1
102
{ACAD_REACTORS
330
2DD
102
}
330
2DD
100
AcDbXrecord
 10
0.0
 20
0.0
 30
0.0
  0
XRECORD
  5
2EF
102
{ACAD_REACTORS
330
2DD
102
}
330
2DD
100
AcDbXrecord
 10
0.0
 20
0.0
 30
0.0
  0
XRECORD
  5
2F0
102
{ACAD_REACTORS
330
2DD
102
}
330
2DD
100
AcDbXrecord
 10
0.0
 20
0.0
 30
0.0
  0
XRECORD
  5
2ED
102
{ACAD_REACTORS
330
2DD
102
}
330
2DD
100
AcDbXrecord
 10
0.0
 20
0.0
 30
0.0
  0
XRECORD
  5
2EA
102
{ACAD_REACTORS
330
2DD
102
}
330
2DD
100
AcDbXrecord
340
0
  0
XRECORD
  5
2EB
102
{ACAD_REACTORS
330
2DD
102
}
330
2DD
100
AcDbXrecord
 70
     0
  0
XRECORD
  5
2E1
102
{ACAD_REACTORS
330
2DD
102
}
330
2DD
100
AcDbXrecord
  1

  0
XRECORD
  5
2DE
102
{ACAD_REACTORS
330
2DD
102
}
330
2DD
100
AcDbXrecord
 90
        1
  0
XRECORD
  5
2DF
102
{ACAD_REACTORS
330
2DD
102
}
330
2DD
100
AcDbXrecord
 90
       70
  0
XRECORD
  5
2F5
102
{ACAD_REACTORS
330
2DD
102
}
330
2DD
100
AcDbXrecord
340
0
  0
XRECORD
  5
2FB
102
{ACAD_REACTORS
330
2DD
102
}
330
2DD
100
AcDbXrecord
 10
0.0
 20
0.0
 30
0.0
  0
XRECORD
  5
2F7
102
{ACAD_REACTORS
330
2DD
102
}
330
2DD
100
AcDbXrecord
 10
0.0
 20
0.0
 30
0.0
  0
XRECORD
  5
2FA
102
{ACAD_REACTORS
330
2DD
102
}
330
2DD
100
AcDbXrecord
 10
0.0
 20
0.0
 30
0.0
  0
XRECORD
  5
2F8
102
{ACAD_REACTORS
330
2DD
102
}
330
2DD
100
AcDbXrecord
 10
0.0
 20
0.0
 30
0.0
  0
XRECORD
  5
2F9
102
{ACAD_REACTORS
330
2DD
102
}
330
2DD
100
AcDbXrecord
 10
0.0
 20
0.0
 30
0.0
  0
XRECORD
  5
2F6
102
{ACAD_REACTORS
330
2DD
102
}
330
2DD
100
AcDbXrecord
 10
0.0
 20
0.0
 30
0.0
  0
XRECORD
  5
2F3
102
{ACAD_REACTORS
330
2DD
102
}
330
2DD
100
AcDbXrecord
340
0
  0
XRECORD
  5
2F4
102
{ACAD_REACTORS
330
2DD
102
}
330
2DD
100
AcDbXrecord
 70
     0
  0
XRECORD
  5
2E8
102
{ACAD_REACTORS
330
2DD
102
}
330
2DD
100
AcDbXrecord
  1
{FAEB1C32-E019-11D5-929B-00C0DF256EC4}
  0
ENDSEC
  0
EOF
