  0
SECTION
  2
HEADER
  9
$ACADVER
  1
AC1014
  9
$ACADMAINTVER
 70
     9
  9
$DWGCODEPAGE
  3
ANSI_1252
  9
$INSBASE
 10
0.0
 20
0.0
 30
0.0
  9
$EXTMIN
 10
1.000000000000000E+20
 20
1.000000000000000E+20
 30
1.000000000000000E+20
  9
$EXTMAX
 10
-1.000000000000000E+20
 20
-1.000000000000000E+20
 30
-1.000000000000000E+20
  9
$LIMMIN
 10
0.0
 20
0.0
  9
$LIMMAX
 10
12.0
 20
9.0
  9
$ORTHOMODE
 70
     0
  9
$REGENMODE
 70
     1
  9
$FILLMODE
 70
     1
  9
$QTEXTMODE
 70
     0
  9
$MIRRTEXT
 70
     1
  9
$DRAGMODE
 70
     2
  9
$LTSCALE
 40
1.0
  9
$OSMODE
 70
    37
  9
$ATTMODE
 70
     1
  9
$TEXTSIZE
 40
0.2
  9
$TRACEWID
 40
0.05
  9
$TEXTSTYLE
  7
STANDARD
  9
$CLAYER
  8
0
  9
$CELTYPE
  6
BYLAYER
  9
$CECOLOR
 62
   256
  9
$CELTSCALE
 40
1.0
  9
$DELOBJ
 70
     1
  9
$DISPSILH
 70
     0
  9
$DIMSCALE
 40
1.0
  9
$DIMASZ
 40
0.18
  9
$DIMEXO
 40
0.0625
  9
$DIMDLI
 40
0.38
  9
$DIMRND
 40
0.0
  9
$DIMDLE
 40
0.0
  9
$DIMEXE
 40
0.18
  9
$DIMTP
 40
0.0
  9
$DIMTM
 40
0.0
  9
$DIMTXT
 40
0.18
  9
$DIMCEN
 40
0.09
  9
$DIMTSZ
 40
0.0
  9
$DIMTOL
 70
     0
  9
$DIMLIM
 70
     0
  9
$DIMTIH
 70
     1
  9
$DIMTOH
 70
     1
  9
$DIMSE1
 70
     0
  9
$DIMSE2
 70
     0
  9
$DIMTAD
 70
     0
  9
$DIMZIN
 70
     0
  9
$DIMBLK
  1

  9
$DIMASO
 70
     1
  9
$DIMSHO
 70
     1
  9
$DIMPOST
  1

  9
$DIMAPOST
  1

  9
$DIMALT
 70
     0
  9
$DIMALTD
 70
     2
  9
$DIMALTF
 40
25.4
  9
$DIMLFAC
 40
1.0
  9
$DIMTOFL
 70
     0
  9
$DIMTVP
 40
0.0
  9
$DIMTIX
 70
     0
  9
$DIMSOXD
 70
     0
  9
$DIMSAH
 70
     0
  9
$DIMBLK1
  1

  9
$DIMBLK2
  1

  9
$DIMSTYLE
  2
STANDARD
  9
$DIMCLRD
 70
     0
  9
$DIMCLRE
 70
     0
  9
$DIMCLRT
 70
     0
  9
$DIMTFAC
 40
1.0
  9
$DIMGAP
 40
0.09
  9
$DIMJUST
 70
     0
  9
$DIMSD1
 70
     0
  9
$DIMSD2
 70
     0
  9
$DIMTOLJ
 70
     1
  9
$DIMTZIN
 70
     0
  9
$DIMALTZ
 70
     0
  9
$DIMALTTZ
 70
     0
  9
$DIMFIT
 70
     3
  9
$DIMUPT
 70
     0
  9
$DIMUNIT
 70
     2
  9
$DIMDEC
 70
     4
  9
$DIMTDEC
 70
     4
  9
$DIMALTU
 70
     2
  9
$DIMALTTD
 70
     2
  9
$DIMTXSTY
  7
STANDARD
  9
$DIMAUNIT
 70
     0
  9
$LUNITS
 70
     2
  9
$LUPREC
 70
     4
  9
$SKETCHINC
 40
0.1
  9
$FILLETRAD
 40
0.5
  9
$AUNITS
 70
     0
  9
$AUPREC
 70
     0
  9
$MENU
  1
.
  9
$ELEVATION
 40
0.0
  9
$PELEVATION
 40
0.0
  9
$THICKNESS
 40
0.0
  9
$LIMCHECK
 70
     0
  9
$CHAMFERA
 40
0.5
  9
$CHAMFERB
 40
0.5
  9
$CHAMFERC
 40
1.0
  9
$CHAMFERD
 40
0.0
  9
$SKPOLY
 70
     0
  9
$TDCREATE
 40
2458442.433134896
  9
$TDUPDATE
 40
2458442.433134907
  9
$TDINDWG
 40
0.0000000116
  9
$TDUSRTIMER
 40
0.0000000116
  9
$USRTIMER
 70
     1
  9
$ANGBASE
 50
0.0
  9
$ANGDIR
 70
     0
  9
$PDMODE
 70
     0
  9
$PDSIZE
 40
0.0
  9
$PLINEWID
 40
0.0
  9
$COORDS
 70
     1
  9
$SPLFRAME
 70
     0
  9
$SPLINETYPE
 70
     6
  9
$SPLINESEGS
 70
     8
  9
$ATTDIA
 70
     0
  9
$ATTREQ
 70
     1
  9
$HANDLING
 70
     1
  9
$HANDSEED
  5
384
  9
$SURFTAB1
 70
     6
  9
$SURFTAB2
 70
     6
  9
$SURFTYPE
 70
     6
  9
$SURFU
 70
     6
  9
$SURFV
 70
     6
  9
$UCSNAME
  2

  9
$UCSORG
 10
0.0
 20
0.0
 30
0.0
  9
$UCSXDIR
 10
1.0
 20
0.0
 30
0.0
  9
$UCSYDIR
 10
0.0
 20
1.0
 30
0.0
  9
$PUCSNAME
  2

  9
$PUCSORG
 10
0.0
 20
0.0
 30
0.0
  9
$PUCSXDIR
 10
1.0
 20
0.0
 30
0.0
  9
$PUCSYDIR
 10
0.0
 20
1.0
 30
0.0
  9
$USERI1
 70
     0
  9
$USERI2
 70
     0
  9
$USERI3
 70
     0
  9
$USERI4
 70
     0
  9
$USERI5
 70
     0
  9
$USERR1
 40
0.0
  9
$USERR2
 40
0.0
  9
$USERR3
 40
0.0
  9
$USERR4
 40
0.0
  9
$USERR5
 40
0.0
  9
$WORLDVIEW
 70
     1
  9
$SHADEDGE
 70
     3
  9
$SHADEDIF
 70
    70
  9
$TILEMODE
 70
     1
  9
$MAXACTVP
 70
    64
  9
$PINSBASE
 10
0.0
 20
0.0
 30
0.0
  9
$PLIMCHECK
 70
     0
  9
$PEXTMIN
 10
1.000000000000000E+20
 20
1.000000000000000E+20
 30
1.000000000000000E+20
  9
$PEXTMAX
 10
-1.000000000000000E+20
 20
-1.000000000000000E+20
 30
-1.000000000000000E+20
  9
$PLIMMIN
 10
0.0
 20
0.0
  9
$PLIMMAX
 10
12.0
 20
9.0
  9
$UNITMODE
 70
     0
  9
$VISRETAIN
 70
     1
  9
$PLINEGEN
 70
     0
  9
$PSLTSCALE
 70
     1
  9
$TREEDEPTH
 70
  3020
  9
$PICKSTYLE
 70
     1
  9
$CMLSTYLE
  2
STANDARD
  9
$CMLJUST
 70
     0
  9
$CMLSCALE
 40
1.0
  9
$PROXYGRAPHICS
 70
     1
  9
$MEASUREMENT
 70
     0
  0
ENDSEC
  0
SECTION
  2
CLASSES
  0
CLASS
  1
ACDBDICTIONARYWDFLT
  2
AcDbDictionaryWithDefault
  3
ObjectDBX Classes
 90
        0
280
     0
281
     0
  0
CLASS
  1
VISUALSTYLE
  2
AcDbVisualStyle
  3
ObjectDBX Classes
 90
     4095
280
     0
281
     0
  0
CLASS
  1
XRECORD
  2
AcDbXrecord
  3
AutoCAD 2000
 90
        0
280
     0
281
     0
  0
CLASS
  1
LWPOLYLINE
  2
AcDbPolyline
  3
AutoCAD 2000
 90
        0
280
     0
281
     1
  0
CLASS
  1
HATCH
  2
AcDbHatch
  3
AutoCAD 2000
 90
        0
280
     0
281
     1
  0
CLASS
  1
ACDBPLACEHOLDER
  2
AcDbPlaceHolder
  3
ObjectDBX Classes
 90
        0
280
     0
281
     0
  0
CLASS
  1
LAYOUT
  2
AcDbLayout
  3
ObjectDBX Classes
 90
        0
280
     0
281
     0
  0
ENDSEC
  0
SECTION
  2
TABLES
  0
TABLE
  2
VPORT
  5
8
330
0
100
AcDbSymbolTable
 70
     1
  0
VPORT
  5
29
330
8
100
AcDbSymbolTableRecord
100
AcDbViewportTableRecord
  2
*ACTIVE
 70
     0
 10
0.0
 20
0.0
 11
1.0
 21
1.0
 12
0.0
 22
0.0
 13
0.0
 23
0.0
 14
0.5
 24
0.5
 15
0.5
 25
0.5
 16
0.0
 26
0.0
 36
1.0
 17
99.8846869324941
 27
127.1958536465865
 37
0.0
 40
296.9999592356459
 41
0.7070705664688927
 42
50.0
 43
0.0
 44
0.0
 50
0.0
 51
0.0
 71
     0
 72
   100
 73
     1
 74
     3
 75
     0
 76
     0
 77
     0
 78
     0
  0
ENDTAB
  0
TABLE
  2
LTYPE
  5
5
330
0
100
AcDbSymbolTable
 70
     1
  0
LTYPE
  5
14
330
5
100
AcDbSymbolTableRecord
100
AcDbLinetypeTableRecord
  2
BYBLOCK
 70
     0
  3

 72
    65
 73
     0
 40
0.0
  0
LTYPE
  5
15
330
5
100
AcDbSymbolTableRecord
100
AcDbLinetypeTableRecord
  2
BYLAYER
 70
     0
  3

 72
    65
 73
     0
 40
0.0
  0
LTYPE
  5
16
330
5
100
AcDbSymbolTableRecord
100
AcDbLinetypeTableRecord
  2
CONTINUOUS
 70
     0
  3
Solid line
 72
    65
 73
     0
 40
0.0
  0
ENDTAB
  0
TABLE
  2
LAYER
  5
2
330
0
100
AcDbSymbolTable
 70
     4
  0
LAYER
  5
10
330
2
100
AcDbSymbolTableRecord
100
AcDbLayerTableRecord
  2
0
 70
     0
 62
     7
  6
CONTINUOUS
  0
LAYER
  5
3B
330
2
100
AcDbSymbolTableRecord
100
AcDbLayerTableRecord
  2
EBENE_2
 70
     1
 62
     7
  6
CONTINUOUS
  0
LAYER
  5
3E
330
2
100
AcDbSymbolTableRecord
100
AcDbLayerTableRecord
  2
STANDARDEBENE
 70
     0
 62
     7
  6
CONTINUOUS
  0
LAYER
  5
230
330
2
100
AcDbSymbolTableRecord
100
AcDbLayerTableRecord
  2
GRAU_10_
 70
     1
 62
     7
  6
CONTINUOUS
  0
ENDTAB
  0
TABLE
  2
STYLE
  5
3
330
0
100
AcDbSymbolTable
 70
     1
  0
STYLE
  5
11
330
3
100
AcDbSymbolTableRecord
100
AcDbTextStyleTableRecord
  2
STANDARD
 70
     0
 40
0.0
 41
1.0
 50
0.0
 71
     0
 42
0.2
  3
txt
  4

  0
ENDTAB
  0
TABLE
  2
VIEW
  5
6
330
0
100
AcDbSymbolTable
 70
     0
  0
ENDTAB
  0
TABLE
  2
UCS
  5
7
330
0
100
AcDbSymbolTable
 70
     0
  0
ENDTAB
  0
TABLE
  2
APPID
  5
9
330
0
100
AcDbSymbolTable
 70
     1
  0
APPID
  5
12
330
9
100
AcDbSymbolTableRecord
100
AcDbRegAppTableRecord
  2
ACAD
 70
     0
  0
ENDTAB
  0
TABLE
  2
DIMSTYLE
  5
A
330
0
100
AcDbSymbolTable
 70
     1
  0
DIMSTYLE
105
27
330
A
100
AcDbSymbolTableRecord
100
AcDbDimStyleTableRecord
  2
STANDARD
 70
     0
  3

  4

  5

  6

  7

 40
1.0
 41
0.18
 42
0.0625
 43
0.38
 44
0.18
 45
0.0
 46
0.0
 47
0.0
 48
0.0
140
0.18
141
0.09
142
0.0
143
25.4
144
1.0
145
0.0
146
1.0
147
0.09
 71
     0
 72
     0
 73
     1
 74
     1
 75
     0
 76
     0
 77
     0
 78
     0
170
     0
171
     2
172
     0
173
     0
174
     0
175
     0
176
     0
177
     0
178
     0
270
     2
271
     4
272
     4
273
     2
274
     2
340
11
275
     0
280
     0
281
     0
282
     0
283
     1
284
     0
285
     0
286
     0
287
     3
288
     0
  0
ENDTAB
  0
TABLE
  2
BLOCK_RECORD
  5
1
330
0
100
AcDbSymbolTable
 70
     1
  0
BLOCK_RECORD
  5
1F
330
1
100
AcDbSymbolTableRecord
100
AcDbBlockTableRecord
  2
*MODEL_SPACE
  0
BLOCK_RECORD
  5
1B
330
1
100
AcDbSymbolTableRecord
100
AcDbBlockTableRecord
  2
*PAPER_SPACE
  0
ENDTAB
  0
ENDSEC
  0
SECTION
  2
BLOCKS
  0
BLOCK
  5
20
330
1F
100
AcDbEntity
  8
0
100
AcDbBlockBegin
  2
*MODEL_SPACE
 70
     0
 71
     0
 10
0.0
 20
0.0
 30
0.0
  3
*MODEL_SPACE
  1

  0
ENDBLK
  5
21
330
1F
100
AcDbEntity
  8
0
100
AcDbBlockEnd
  0
BLOCK
  5
1C
330
1B
100
AcDbEntity
 67
     1
  8
0
100
AcDbBlockBegin
  2
*PAPER_SPACE
 70
     0
 71
     0
 10
0.0
 20
0.0
 30
0.0
  3
*PAPER_SPACE
  1

  0
ENDBLK
  5
1D
330
1B
100
AcDbEntity
 67
     1
  8
0
100
AcDbBlockEnd
  0
ENDSEC
  0
SECTION
  2
ENTITIES
  0
SPLINE
  5
3C
330
1F
100
AcDbEntity
  8
EBENE_2
100
AcDbSpline
210
0.0
220
0.0
230
1.0
 70
    11
 71
     3
 72
    44
 73
    40
 74
     0
 42
0.0000000001
 43
0.0000000001
 40
0.0
 40
0.0
 40
0.0
 40
0.0
 40
1.0
 40
1.0
 40
1.0
 40
2.0
 40
2.0
 40
2.0
 40
3.0
 40
3.0
 40
3.0
 40
4.0
 40
4.0
 40
4.0
 40
5.0
 40
5.0
 40
5.0
 40
6.0
 40
6.0
 40
6.0
 40
7.0
 40
7.0
 40
7.0
 40
8.0
 40
8.0
 40
8.0
 40
9.0
 40
9.0
 40
9.0
 40
10.0
 40
10.0
 40
10.0
 40
11.0
 40
11.0
 40
11.0
 40
12.0
 40
12.0
 40
12.0
 40
13.0
 40
13.0
 40
13.0
 40
13.0
 10
62.41048853691474
 20
160.3232028136518
 30
0.0
 10
62.41048853691474
 20
160.3232028136518
 30
0.0
 10
68.39461939479371
 20
164.4728203256353
 30
0.0
 10
73.37398815439956
 20
159.4059461407041
 30
0.0
 10
73.37398815439956
 20
159.4059461407041
 30
0.0
 10
129.5889892254152
 20
159.4934515660294
 30
0.0
 10
129.5889892254152
 20
159.4934515660294
 30
0.0
 10
129.5889892254152
 20
159.4934515660294
 30
0.0
 10
133.3889295456458
 20
158.8817748626233
 30
0.0
 10
133.3889295456458
 20
155.4749199372598
 30
0.0
 10
133.3889295456458
 20
155.4749199372598
 30
0.0
 10
133.3889295456458
 20
152.286484065661
 30
0.0
 10
133.3889295456458
 20
152.286484065661
 30
0.0
 10
133.3889295456458
 20
152.286484065661
 30
0.0
 10
132.8215223192252
 20
148.5301242033189
 30
0.0
 10
129.4143228843131
 20
148.4863714906562
 30
0.0
 10
129.4143228843131
 20
148.4863714906562
 30
0.0
 10
73.24290227118581
 20
148.4863714906562
 30
0.0
 10
73.24290227118581
 20
148.4863714906562
 30
0.0
 10
73.24290227118581
 20
148.4863714906562
 30
0.0
 10
68.4819525653448
 20
143.3321641351739
 30
0.0
 10
62.32315536636366
 20
147.6564479882595
 30
0.0
 10
62.32315536636366
 20
147.6564479882595
 30
0.0
 10
63.19665932664876
 20
148.3552856074424
 30
0.0
 10
63.19665932664876
 20
148.3552856074424
 30
0.0
 10
63.19665932664876
 20
148.3552856074424
 30
0.0
 10
68.21978079891728
 20
148.5737046612073
 30
0.0
 10
68.21978079891728
 20
148.5737046612073
 30
0.0
 10
68.21978079891728
 20
148.5737046612073
 30
0.0
 10
73.19914955852313
 20
149.3162949930529
 30
0.0
 10
72.89339733420721
 20
154.1209974115566
 30
0.0
 10
72.89339733420721
 20
154.1209974115566
 30
0.0
 10
73.28665498384848
 20
158.6197753509701
 30
0.0
 10
67.82669540405027
 20
159.3623656828157
 30
0.0
 10
67.82669540405027
 20
159.3623656828157
 30
0.0
 10
63.24041203931143
 20
159.4496988533668
 30
0.0
 10
63.24041203931143
 20
159.4496988533668
 30
0.0
 10
63.24041203931143
 20
159.4496988533668
 30
0.0
 10
62.41048853691474
 20
160.3232028136518
 30
0.0
 10
62.41048853691474
 20
160.3232028136518
 30
0.0
  0
HATCH
  5
3D
330
1F
100
AcDbEntity
  8
EBENE_2
 62
   255
100
AcDbHatch
 10
0.0
 20
0.0
 30
0.0
210
0.0
220
0.0
230
1.0
  2
SOLID
 70
     1
 71
     0
 91
        1
 92
        1
 93
        1
 72
     4
 94
        3
 73
     0
 74
     1
 95
       44
 96
       40
 40
0.0
 40
0.0
 40
0.0
 40
0.0
 40
1.0
 40
1.0
 40
1.0
 40
2.0
 40
2.0
 40
2.0
 40
3.0
 40
3.0
 40
3.0
 40
4.0
 40
4.0
 40
4.0
 40
5.0
 40
5.0
 40
5.0
 40
6.0
 40
6.0
 40
6.0
 40
7.0
 40
7.0
 40
7.0
 40
8.0
 40
8.0
 40
8.0
 40
9.0
 40
9.0
 40
9.0
 40
10.0
 40
10.0
 40
10.0
 40
11.0
 40
11.0
 40
11.0
 40
12.0
 40
12.0
 40
12.0
 40
13.0
 40
13.0
 40
13.0
 40
13.0
 10
62.41048853691474
 20
160.3232028136518
 10
62.41048853691474
 20
160.3232028136518
 10
68.39461939479371
 20
164.4728203256353
 10
73.37398815439956
 20
159.4059461407041
 10
73.37398815439956
 20
159.4059461407041
 10
129.5889892254152
 20
159.4934515660294
 10
129.5889892254152
 20
159.4934515660294
 10
129.5889892254152
 20
159.4934515660294
 10
133.3889295456458
 20
158.8817748626233
 10
133.3889295456458
 20
155.4749199372598
 10
133.3889295456458
 20
155.4749199372598
 10
133.3889295456458
 20
152.286484065661
 10
133.3889295456458
 20
152.286484065661
 10
133.3889295456458
 20
152.286484065661
 10
132.8215223192252
 20
148.5301242033189
 10
129.4143228843131
 20
148.4863714906562
 10
129.4143228843131
 20
148.4863714906562
 10
73.24290227118581
 20
148.4863714906562
 10
73.24290227118581
 20
148.4863714906562
 10
73.24290227118581
 20
148.4863714906562
 10
68.4819525653448
 20
143.3321641351739
 10
62.32315536636366
 20
147.6564479882595
 10
62.32315536636366
 20
147.6564479882595
 10
63.19665932664876
 20
148.3552856074424
 10
63.19665932664876
 20
148.3552856074424
 10
63.19665932664876
 20
148.3552856074424
 10
68.21978079891728
 20
148.5737046612073
 10
68.21978079891728
 20
148.5737046612073
 10
68.21978079891728
 20
148.5737046612073
 10
73.19914955852313
 20
149.3162949930529
 10
72.89339733420721
 20
154.1209974115566
 10
72.89339733420721
 20
154.1209974115566
 10
73.28665498384848
 20
158.6197753509701
 10
67.82669540405027
 20
159.3623656828157
 10
67.82669540405027
 20
159.3623656828157
 10
63.24041203931143
 20
159.4496988533668
 10
63.24041203931143
 20
159.4496988533668
 10
63.24041203931143
 20
159.4496988533668
 10
62.41048853691474
 20
160.3232028136518
 10
62.41048853691474
 20
160.3232028136518
 97
        0
 75
     0
 76
     1
 98
        0
  0
POLYLINE
  5
3F
330
1F
100
AcDbEntity
  8
STANDARDEBENE
 62
    30
100
AcDb2dPolyline
 66
     1
 10
0.0
 20
0.0
 30
0.0
  0
VERTEX
  5
40
330
3F
100
AcDbEntity
  8
STANDARDEBENE
 62
    30
100
AcDbVertex
100
AcDb2dVertex
 10
73.1519517503752
 20
159.535826240498
 30
0.0
  0
VERTEX
  5
41
330
3F
100
AcDbEntity
  8
STANDARDEBENE
 62
    30
100
AcDbVertex
100
AcDb2dVertex
 10
73.15281302424653
 20
159.5349649666267
 30
0.0
  0
VERTEX
  5
42
330
3F
100
AcDbEntity
  8
STANDARDEBENE
 62
    30
100
AcDbVertex
100
AcDb2dVertex
 10
73.15298527902078
 20
159.5342759475296
 30
0.0
  0
VERTEX
  5
43
330
3F
100
AcDbEntity
  8
STANDARDEBENE
 62
    30
100
AcDbVertex
100
AcDb2dVertex
 10
73.15746390315161
 20
159.5301418329473
 30
0.0
  0
SEQEND
  5
44
330
3F
100
AcDbEntity
  8
STANDARDEBENE
  0
POLYLINE
  5
45
330
1F
100
AcDbEntity
  8
STANDARDEBENE
 62
    30
100
AcDb2dPolyline
 66
     1
 10
0.0
 20
0.0
 30
0.0
  0
VERTEX
  5
46
330
45
100
AcDbEntity
  8
STANDARDEBENE
 62
    30
100
AcDbVertex
100
AcDb2dVertex
 10
73.15849743179719
 20
148.3788845115164
 30
0.0
  0
VERTEX
  5
47
330
45
100
AcDbEntity
  8
STANDARDEBENE
 62
    30
100
AcDbVertex
100
AcDb2dVertex
 10
73.15677488405456
 20
148.377334218548
 30
0.0
  0
VERTEX
  5
48
330
45
100
AcDbEntity
  8
STANDARDEBENE
 62
    30
100
AcDbVertex
100
AcDb2dVertex
 10
73.15229625992373
 20
148.3726833396429
 30
0.0
  0
VERTEX
  5
49
330
45
100
AcDbEntity
  8
STANDARDEBENE
 62
    30
100
AcDbVertex
100
AcDb2dVertex
 10
73.15126273127817
 20
148.3716498109974
 30
0.0
  0
SEQEND
  5
4A
330
45
100
AcDbEntity
  8
STANDARDEBENE
  0
POLYLINE
  5
4B
330
1F
100
AcDbEntity
  8
STANDARDEBENE
 62
     7
100
AcDb2dPolyline
 66
     1
 10
0.0
 20
0.0
 30
0.0
  0
VERTEX
  5
4C
330
4B
100
AcDbEntity
  8
STANDARDEBENE
 62
     7
100
AcDbVertex
100
AcDb2dVertex
 10
73.15126273127817
 20
148.3716498109974
 30
0.0
  0
VERTEX
  5
4D
330
4B
100
AcDbEntity
  8
STANDARDEBENE
 62
     7
100
AcDbVertex
100
AcDb2dVertex
 10
73.15160724082668
 20
148.3718220657716
 30
0.0
  0
VERTEX
  5
4E
330
4B
100
AcDbEntity
  8
STANDARDEBENE
 62
     7
100
AcDbVertex
100
AcDb2dVertex
 10
73.1519517503752
 20
148.3721665753202
 30
0.0
  0
VERTEX
  5
4F
330
4B
100
AcDbEntity
  8
STANDARDEBENE
 62
     7
100
AcDbVertex
100
AcDb2dVertex
 10
73.15212400514947
 20
148.3721665753202
 30
0.0
  0
VERTEX
  5
50
330
4B
100
AcDbEntity
  8
STANDARDEBENE
 62
     7
100
AcDbVertex
100
AcDb2dVertex
 10
73.15229625992373
 20
148.3726833396429
 30
0.0
  0
VERTEX
  5
51
330
4B
100
AcDbEntity
  8
STANDARDEBENE
 62
     7
100
AcDbVertex
100
AcDb2dVertex
 10
73.15264076947226
 20
148.3730278491915
 30
0.0
  0
VERTEX
  5
52
330
4B
100
AcDbEntity
  8
STANDARDEBENE
 62
     7
100
AcDbVertex
100
AcDb2dVertex
 10
73.15281302424653
 20
148.3732001039657
 30
0.0
  0
VERTEX
  5
53
330
4B
100
AcDbEntity
  8
STANDARDEBENE
 62
     7
100
AcDbVertex
100
AcDb2dVertex
 10
73.15367429811783
 20
148.3737168682885
 30
0.0
  0
VERTEX
  5
54
330
4B
100
AcDbEntity
  8
STANDARDEBENE
 62
     7
100
AcDbVertex
100
AcDb2dVertex
 10
73.15436331721489
 20
148.3745781421598
 30
0.0
  0
SEQEND
  5
55
330
4B
100
AcDbEntity
  8
STANDARDEBENE
  0
POLYLINE
  5
56
330
1F
100
AcDbEntity
  8
STANDARDEBENE
 62
     7
100
AcDb2dPolyline
 66
     1
 10
0.0
 20
0.0
 30
0.0
  0
VERTEX
  5
57
330
56
100
AcDbEntity
  8
STANDARDEBENE
 62
     7
100
AcDbVertex
100
AcDb2dVertex
 10
62.49454886675484
 20
147.7098469682809
 30
0.0
  0
VERTEX
  5
58
330
56
100
AcDbEntity
  8
STANDARDEBENE
 62
     7
100
AcDbVertex
100
AcDb2dVertex
 10
63.27606877758377
 20
148.4538153383206
 30
0.0
  0
VERTEX
  5
59
330
56
100
AcDbEntity
  8
STANDARDEBENE
 62
     7
100
AcDbVertex
100
AcDb2dVertex
 10
67.45600312983738
 20
148.4538153383206
 30
0.0
  0
SEQEND
  5
5A
330
56
100
AcDbEntity
  8
STANDARDEBENE
  0
SPLINE
  5
5B
330
1F
100
AcDbEntity
  8
STANDARDEBENE
 62
     7
100
AcDbSpline
210
0.0
220
0.0
230
1.0
 70
     8
 71
     3
 72
     8
 73
     4
 74
     0
 42
0.0000000001
 43
0.0000000001
 40
0.0
 40
0.0
 40
0.0
 40
0.0
 40
1.0
 40
1.0
 40
1.0
 40
1.0
 10
72.9559258172645
 20
153.9539102805219
 30
0.0
 10
72.9559258172645
 20
156.991623224641
 30
0.0
 10
70.49319930963365
 20
159.453832967949
 30
0.0
 10
67.45600312983738
 20
159.453832967949
 30
0.0
  0
SPLINE
  5
5C
330
1F
100
AcDbEntity
  8
STANDARDEBENE
 62
     7
100
AcDbSpline
210
0.0
220
0.0
230
1.0
 70
     8
 71
     3
 72
     8
 73
     4
 74
     0
 42
0.0000000001
 43
0.0000000001
 40
0.0
 40
0.0
 40
0.0
 40
0.0
 40
1.0
 40
1.0
 40
1.0
 40
1.0
 10
67.45600312983738
 20
148.4538153383206
 30
0.0
 10
70.49319930963365
 20
148.4538153383206
 30
0.0
 10
72.9559258172645
 20
150.9165418459514
 30
0.0
 10
72.9559258172645
 20
153.9539102805219
 30
0.0
  0
POLYLINE
  5
5D
330
1F
100
AcDbEntity
  8
STANDARDEBENE
 62
     7
100
AcDb2dPolyline
 66
     1
 10
0.0
 20
0.0
 30
0.0
  0
VERTEX
  5
5E
330
5D
100
AcDbEntity
  8
STANDARDEBENE
 62
     7
100
AcDbVertex
100
AcDb2dVertex
 10
67.45600312983738
 20
159.453832967949
 30
0.0
  0
VERTEX
  5
5F
330
5D
100
AcDbEntity
  8
STANDARDEBENE
 62
     7
100
AcDbVertex
100
AcDb2dVertex
 10
63.27606877758377
 20
159.453832967949
 30
0.0
  0
VERTEX
  5
60
330
5D
100
AcDbEntity
  8
STANDARDEBENE
 62
     7
100
AcDbVertex
100
AcDb2dVertex
 10
62.49454886675484
 20
160.1981458475373
 30
0.0
  0
SEQEND
  5
61
330
5D
100
AcDbEntity
  8
STANDARDEBENE
  0
SPLINE
  5
62
330
1F
100
AcDbEntity
  8
STANDARDEBENE
 62
     7
100
AcDbSpline
210
0.0
220
0.0
230
1.0
 70
     8
 71
     3
 72
     8
 73
     4
 74
     0
 42
0.0000000001
 43
0.0000000001
 40
0.0
 40
0.0
 40
0.0
 40
0.0
 40
1.0
 40
1.0
 40
1.0
 40
1.0
 10
64.75659856236989
 20
161.4583617760417
 30
0.0
 10
63.896358219703
 20
161.148819946692
 30
0.0
 10
63.12172849984457
 20
160.7064696863859
 30
0.0
 10
62.49454886675484
 20
160.1981458475373
 30
0.0
  0
POLYLINE
  5
63
330
1F
100
AcDbEntity
  8
STANDARDEBENE
 62
     7
100
AcDb2dPolyline
 66
     1
 10
0.0
 20
0.0
 30
0.0
  0
VERTEX
  5
64
330
63
100
AcDbEntity
  8
STANDARDEBENE
 62
     7
100
AcDbVertex
100
AcDb2dVertex
 10
64.75659856236989
 20
161.4583617760417
 30
0.0
  0
VERTEX
  5
65
330
63
100
AcDbEntity
  8
STANDARDEBENE
 62
     7
100
AcDbVertex
100
AcDb2dVertex
 10
64.79983451070977
 20
161.473692450951
 30
0.0
  0
VERTEX
  5
66
330
63
100
AcDbEntity
  8
STANDARDEBENE
 62
     7
100
AcDbVertex
100
AcDb2dVertex
 10
64.83841958014456
 20
161.4871283233435
 30
0.0
  0
VERTEX
  5
67
330
63
100
AcDbEntity
  8
STANDARDEBENE
 62
     7
100
AcDbVertex
100
AcDb2dVertex
 10
64.86753063699493
 20
161.497291355025
 30
0.0
  0
VERTEX
  5
68
330
63
100
AcDbEntity
  8
STANDARDEBENE
 62
     7
100
AcDbVertex
100
AcDb2dVertex
 10
64.88406709532413
 20
161.5029757625757
 30
0.0
  0
VERTEX
  5
69
330
63
100
AcDbEntity
  8
STANDARDEBENE
 62
     7
100
AcDbVertex
100
AcDb2dVertex
 10
64.88699542648659
 20
161.503837036447
 30
0.0
  0
SEQEND
  5
6A
330
63
100
AcDbEntity
  8
STANDARDEBENE
  0
SPLINE
  5
6B
330
1F
100
AcDbEntity
  8
STANDARDEBENE
 62
     7
100
AcDbSpline
210
0.0
220
0.0
230
1.0
 70
     8
 71
     3
 72
     8
 73
     4
 74
     0
 42
0.0000000001
 43
0.0000000001
 40
0.0
 40
0.0
 40
0.0
 40
0.0
 40
1.0
 40
1.0
 40
1.0
 40
1.0
 10
69.92458629979316
 20
161.5370822078796
 30
0.0
 10
68.21099580542989
 20
162.0948431669416
 30
0.0
 10
66.4452121144651
 20
162.0412719321459
 30
0.0
 10
64.88699542648659
 20
161.503837036447
 30
0.0
  0
POLYLINE
  5
6C
330
1F
100
AcDbEntity
  8
STANDARDEBENE
 62
     7
100
AcDb2dPolyline
 66
     1
 10
0.0
 20
0.0
 30
0.0
  0
VERTEX
  5
6D
330
6C
100
AcDbEntity
  8
STANDARDEBENE
 62
     7
100
AcDbVertex
100
AcDb2dVertex
 10
69.92458629979316
 20
161.5370822078796
 30
0.0
  0
VERTEX
  5
6E
330
6C
100
AcDbEntity
  8
STANDARDEBENE
 62
     7
100
AcDbVertex
100
AcDb2dVertex
 10
69.93199325508645
 20
161.5350151505885
 30
0.0
  0
VERTEX
  5
6F
330
6C
100
AcDbEntity
  8
STANDARDEBENE
 62
     7
100
AcDbVertex
100
AcDb2dVertex
 10
69.953352847095
 20
161.5277804500695
 30
0.0
  0
VERTEX
  5
70
330
6C
100
AcDbEntity
  8
STANDARDEBENE
 62
     7
100
AcDbVertex
100
AcDb2dVertex
 10
69.9859089994306
 20
161.5171006540652
 30
0.0
  0
VERTEX
  5
71
330
6C
100
AcDbEntity
  8
STANDARDEBENE
 62
     7
100
AcDbVertex
100
AcDb2dVertex
 10
70.0263888713823
 20
161.5031480173499
 30
0.0
  0
VERTEX
  5
72
330
6C
100
AcDbEntity
  8
STANDARDEBENE
 62
     7
100
AcDbVertex
100
AcDb2dVertex
 10
70.05515541868414
 20
161.4931572404427
 30
0.0
  0
SEQEND
  5
73
330
6C
100
AcDbEntity
  8
STANDARDEBENE
  0
SPLINE
  5
74
330
1F
100
AcDbEntity
  8
STANDARDEBENE
 62
     7
100
AcDbSpline
210
0.0
220
0.0
230
1.0
 70
     8
 71
     3
 72
     8
 73
     4
 74
     0
 42
0.0000000001
 43
0.0000000001
 40
0.0
 40
0.0
 40
0.0
 40
0.0
 40
1.0
 40
1.0
 40
1.0
 40
1.0
 10
72.60538735164032
 20
160.0434610602496
 30
0.0
 10
71.81335989958139
 20
160.7131876225821
 30
0.0
 10
70.92883163374348
 20
161.2018744171648
 30
0.0
 10
70.05515541868414
 20
161.4931572404427
 30
0.0
  0
POLYLINE
  5
75
330
1F
100
AcDbEntity
  8
STANDARDEBENE
 62
     7
100
AcDb2dPolyline
 66
     1
 10
0.0
 20
0.0
 30
0.0
  0
VERTEX
  5
76
330
75
100
AcDbEntity
  8
STANDARDEBENE
 62
     7
100
AcDbVertex
100
AcDb2dVertex
 10
72.60538735164032
 20
160.0434610602496
 30
0.0
  0
VERTEX
  5
77
330
75
100
AcDbEntity
  8
STANDARDEBENE
 62
     7
100
AcDbVertex
100
AcDb2dVertex
 10
72.64001056126709
 20
160.0136609843021
 30
0.0
  0
VERTEX
  5
78
330
75
100
AcDbEntity
  8
STANDARDEBENE
 62
     7
100
AcDbVertex
100
AcDb2dVertex
 10
72.67084416586007
 20
159.98730600384
 30
0.0
  0
VERTEX
  5
79
330
75
100
AcDbEntity
  8
STANDARDEBENE
 62
     7
100
AcDbVertex
100
AcDb2dVertex
 10
72.69427081515977
 20
159.9673244500255
 30
0.0
  0
VERTEX
  5
7A
330
75
100
AcDbEntity
  8
STANDARDEBENE
 62
     7
100
AcDbVertex
100
AcDb2dVertex
 10
72.70753443277798
 20
159.9557833801499
 30
0.0
  0
VERTEX
  5
7B
330
75
100
AcDbEntity
  8
STANDARDEBENE
 62
     7
100
AcDbVertex
100
AcDb2dVertex
 10
72.70977374484339
 20
159.9538885776331
 30
0.0
  0
SEQEND
  5
7C
330
75
100
AcDbEntity
  8
STANDARDEBENE
  0
SPLINE
  5
7D
330
1F
100
AcDbEntity
  8
STANDARDEBENE
 62
     7
100
AcDbSpline
210
0.0
220
0.0
230
1.0
 70
     8
 71
     3
 72
     8
 73
     4
 74
     0
 42
0.0000000001
 43
0.0000000001
 40
0.0
 40
0.0
 40
0.0
 40
0.0
 40
1.0
 40
1.0
 40
1.0
 40
1.0
 10
75.25742185618564
 20
155.6075561134419
 30
0.0
 10
74.88397350558456
 20
157.3702392184699
 30
0.0
 10
73.95448674366416
 20
158.8728176143617
 30
0.0
 10
72.70977374484339
 20
159.9538885776331
 30
0.0
  0
POLYLINE
  5
7E
330
1F
100
AcDbEntity
  8
STANDARDEBENE
 62
     7
100
AcDb2dPolyline
 66
     1
 10
0.0
 20
0.0
 30
0.0
  0
VERTEX
  5
7F
330
7E
100
AcDbEntity
  8
STANDARDEBENE
 62
     7
100
AcDbVertex
100
AcDb2dVertex
 10
75.25742185618564
 20
155.6075561134419
 30
0.0
  0
VERTEX
  5
80
330
7E
100
AcDbEntity
  8
STANDARDEBENE
 62
     7
100
AcDbVertex
100
AcDb2dVertex
 10
75.25914440392827
 20
155.5998046486
 30
0.0
  0
VERTEX
  5
81
330
7E
100
AcDbEntity
  8
STANDARDEBENE
 62
     7
100
AcDbVertex
100
AcDb2dVertex
 10
75.26396753760763
 20
155.5779282922687
 30
0.0
  0
VERTEX
  5
82
330
7E
100
AcDbEntity
  8
STANDARDEBENE
 62
     7
100
AcDbVertex
100
AcDb2dVertex
 10
75.27068547380387
 20
155.5443386112875
 30
0.0
  0
VERTEX
  5
83
330
7E
100
AcDbEntity
  8
STANDARDEBENE
 62
     7
100
AcDbVertex
100
AcDb2dVertex
 10
75.27895370296847
 20
155.5021361915932
 30
0.0
  0
VERTEX
  5
84
330
7E
100
AcDbEntity
  8
STANDARDEBENE
 62
     7
100
AcDbVertex
100
AcDb2dVertex
 10
75.28498262006765
 20
155.4723361156458
 30
0.0
  0
SEQEND
  5
85
330
7E
100
AcDbEntity
  8
STANDARDEBENE
  0
SPLINE
  5
86
330
1F
100
AcDbEntity
  8
STANDARDEBENE
 62
     7
100
AcDbSpline
210
0.0
220
0.0
230
1.0
 70
     8
 71
     3
 72
     8
 73
     4
 74
     0
 42
0.0000000001
 43
0.0000000001
 40
0.0
 40
0.0
 40
0.0
 40
0.0
 40
1.0
 40
1.0
 40
1.0
 40
1.0
 10
75.43071015909372
 20
153.9539102805219
 30
0.0
 10
75.43071015909372
 20
154.4911729214467
 30
0.0
 10
75.37765568862086
 20
155.0158609638502
 30
0.0
 10
75.28498262006765
 20
155.4723361156458
 30
0.0
  0
SPLINE
  5
87
330
1F
100
AcDbEntity
  8
STANDARDEBENE
 62
     7
100
AcDbSpline
210
0.0
220
0.0
230
1.0
 70
     8
 71
     3
 72
     8
 73
     4
 74
     0
 42
0.0000000001
 43
0.0000000001
 40
0.0
 40
0.0
 40
0.0
 40
0.0
 40
1.0
 40
1.0
 40
1.0
 40
1.0
 10
75.30427515478505
 20
152.5391818195041
 30
0.0
 10
75.39281410875597
 20
153.031313709572
 30
0.0
 10
75.43467201890175
 20
153.5210340328003
 30
0.0
 10
75.43071015909372
 20
153.9539102805219
 30
0.0
  0
POLYLINE
  5
88
330
1F
100
AcDbEntity
  8
STANDARDEBENE
 62
     7
100
AcDb2dPolyline
 66
     1
 10
0.0
 20
0.0
 30
0.0
  0
VERTEX
  5
89
330
88
100
AcDbEntity
  8
STANDARDEBENE
 62
     7
100
AcDbVertex
100
AcDb2dVertex
 10
75.30427515478505
 20
152.5391818195041
 30
0.0
  0
VERTEX
  5
8A
330
88
100
AcDbEntity
  8
STANDARDEBENE
 62
     7
100
AcDbVertex
100
AcDb2dVertex
 10
75.29635143516897
 20
152.4940510686473
 30
0.0
  0
VERTEX
  5
8B
330
88
100
AcDbEntity
  8
STANDARDEBENE
 62
     7
100
AcDbVertex
100
AcDb2dVertex
 10
75.28877222510143
 20
152.4542602157927
 30
0.0
  0
VERTEX
  5
8C
330
88
100
AcDbEntity
  8
STANDARDEBENE
 62
     7
100
AcDbVertex
100
AcDb2dVertex
 10
75.28274330800224
 20
152.4239433755225
 30
0.0
  0
VERTEX
  5
8D
330
88
100
AcDbEntity
  8
STANDARDEBENE
 62
     7
100
AcDbVertex
100
AcDb2dVertex
 10
75.27929821251699
 20
152.4070624076448
 30
0.0
  0
VERTEX
  5
8E
330
88
100
AcDbEntity
  8
STANDARDEBENE
 62
     7
100
AcDbVertex
100
AcDb2dVertex
 10
75.2787814481942
 20
152.4037895669338
 30
0.0
  0
SEQEND
  5
8F
330
88
100
AcDbEntity
  8
STANDARDEBENE
  0
SPLINE
  5
90
330
1F
100
AcDbEntity
  8
STANDARDEBENE
 62
     7
100
AcDbSpline
210
0.0
220
0.0
230
1.0
 70
     8
 71
     3
 72
     8
 73
     4
 74
     0
 42
0.0000000001
 43
0.0000000001
 40
0.0
 40
0.0
 40
0.0
 40
0.0
 40
1.0
 40
1.0
 40
1.0
 40
1.0
 10
72.78883868622988
 20
148.0242119313099
 30
0.0
 10
74.12863632044353
 20
149.2294785868246
 30
0.0
 10
74.96527775903647
 20
150.7852837079634
 30
0.0
 10
75.2787814481942
 20
152.4037895669338
 30
0.0
  0
POLYLINE
  5
91
330
1F
100
AcDbEntity
  8
STANDARDEBENE
 62
     7
100
AcDb2dPolyline
 66
     1
 10
0.0
 20
0.0
 30
0.0
  0
VERTEX
  5
92
330
91
100
AcDbEntity
  8
STANDARDEBENE
 62
     7
100
AcDbVertex
100
AcDb2dVertex
 10
72.78883868622988
 20
148.0242119313099
 30
0.0
  0
VERTEX
  5
93
330
91
100
AcDbEntity
  8
STANDARDEBENE
 62
     7
100
AcDbVertex
100
AcDb2dVertex
 10
72.7828097691307
 20
148.0192165428563
 30
0.0
  0
VERTEX
  5
94
330
91
100
AcDbEntity
  8
STANDARDEBENE
 62
     7
100
AcDbVertex
100
AcDb2dVertex
 10
72.76644556557575
 20
148.0042303774955
 30
0.0
  0
VERTEX
  5
95
330
91
100
AcDbEntity
  8
STANDARDEBENE
 62
     7
100
AcDbVertex
100
AcDb2dVertex
 10
72.74043509466212
 20
147.9813204925186
 30
0.0
  0
VERTEX
  5
96
330
91
100
AcDbEntity
  8
STANDARDEBENE
 62
     7
100
AcDbVertex
100
AcDb2dVertex
 10
72.70856796142355
 20
147.9530707095395
 30
0.0
  0
VERTEX
  5
97
330
91
100
AcDbEntity
  8
STANDARDEBENE
 62
     7
100
AcDbVertex
100
AcDb2dVertex
 10
72.68548582167239
 20
147.9332614104993
 30
0.0
  0
SEQEND
  5
98
330
91
100
AcDbEntity
  8
STANDARDEBENE
  0
SPLINE
  5
99
330
1F
100
AcDbEntity
  8
STANDARDEBENE
 62
     7
100
AcDbSpline
210
0.0
220
0.0
230
1.0
 70
     8
 71
     3
 72
     8
 73
     4
 74
     0
 42
0.0000000001
 43
0.0000000001
 40
0.0
 40
0.0
 40
0.0
 40
0.0
 40
1.0
 40
1.0
 40
1.0
 40
1.0
 10
70.15471867820786
 20
146.4496310397765
 30
0.0
 10
71.13105873872766
 20
146.8005140149492
 30
0.0
 10
71.99646672462241
 20
147.3224459809645
 30
0.0
 10
72.68548582167239
 20
147.9327446461765
 30
0.0
  0
POLYLINE
  5
9A
330
1F
100
AcDbEntity
  8
STANDARDEBENE
 62
     7
100
AcDb2dPolyline
 66
     1
 10
0.0
 20
0.0
 30
0.0
  0
VERTEX
  5
9B
330
9A
100
AcDbEntity
  8
STANDARDEBENE
 62
     7
100
AcDbVertex
100
AcDb2dVertex
 10
70.15471867820786
 20
146.4496310397765
 30
0.0
  0
VERTEX
  5
9C
330
9A
100
AcDbEntity
  8
STANDARDEBENE
 62
     7
100
AcDbVertex
100
AcDb2dVertex
 10
70.11182723941648
 20
146.4343003648671
 30
0.0
  0
VERTEX
  5
9D
330
9A
100
AcDbEntity
  8
STANDARDEBENE
 62
     7
100
AcDbVertex
100
AcDb2dVertex
 10
70.07375893430448
 20
146.4206922377004
 30
0.0
  0
VERTEX
  5
9E
330
9A
100
AcDbEntity
  8
STANDARDEBENE
 62
     7
100
AcDbVertex
100
AcDb2dVertex
 10
70.04447562267985
 20
146.4108737155674
 30
0.0
  0
VERTEX
  5
9F
330
9A
100
AcDbEntity
  8
STANDARDEBENE
 62
     7
100
AcDbVertex
100
AcDb2dVertex
 10
70.0277669095764
 20
146.4051893080168
 30
0.0
  0
VERTEX
  5
A0
330
9A
100
AcDbEntity
  8
STANDARDEBENE
 62
     7
100
AcDbVertex
100
AcDb2dVertex
 10
70.02501083318819
 20
146.4038112698227
 30
0.0
  0
SEQEND
  5
A1
330
9A
100
AcDbEntity
  8
STANDARDEBENE
  0
SPLINE
  5
A2
330
1F
100
AcDbEntity
  8
STANDARDEBENE
 62
     7
100
AcDbSpline
210
0.0
220
0.0
230
1.0
 70
     8
 71
     3
 72
     8
 73
     4
 74
     0
 42
0.0000000001
 43
0.0000000001
 40
0.0
 40
0.0
 40
0.0
 40
0.0
 40
1.0
 40
1.0
 40
1.0
 40
1.0
 10
64.98690319555884
 20
146.3709106079385
 30
0.0
 10
66.7004936899221
 20
145.8126328845538
 30
0.0
 10
68.46644963566116
 20
145.866548628898
 30
0.0
 10
70.02501083318819
 20
146.4038112698227
 30
0.0
  0
POLYLINE
  5
A3
330
1F
100
AcDbEntity
  8
STANDARDEBENE
 62
     7
100
AcDb2dPolyline
 66
     1
 10
0.0
 20
0.0
 30
0.0
  0
VERTEX
  5
A4
330
A3
100
AcDbEntity
  8
STANDARDEBENE
 62
     7
100
AcDbVertex
100
AcDb2dVertex
 10
64.98690319555884
 20
146.3709106079385
 30
0.0
  0
VERTEX
  5
A5
330
A3
100
AcDbEntity
  8
STANDARDEBENE
 62
     7
100
AcDbVertex
100
AcDb2dVertex
 10
64.9796684950398
 20
146.373149920004
 30
0.0
  0
VERTEX
  5
A6
330
A3
100
AcDbEntity
  8
STANDARDEBENE
 62
     7
100
AcDbVertex
100
AcDb2dVertex
 10
64.95830890303125
 20
146.3802123657487
 30
0.0
  0
VERTEX
  5
A7
330
A3
100
AcDbEntity
  8
STANDARDEBENE
 62
     7
100
AcDbVertex
100
AcDb2dVertex
 10
64.92575275069565
 20
146.390892161753
 30
0.0
  0
VERTEX
  5
A8
330
A3
100
AcDbEntity
  8
STANDARDEBENE
 62
     7
100
AcDbVertex
100
AcDb2dVertex
 10
64.88527287874396
 20
146.4045002889197
 30
0.0
  0
VERTEX
  5
A9
330
A3
100
AcDbEntity
  8
STANDARDEBENE
 62
     7
100
AcDbVertex
100
AcDb2dVertex
 10
64.85650633144212
 20
146.4143188110527
 30
0.0
  0
SEQEND
  5
AA
330
A3
100
AcDbEntity
  8
STANDARDEBENE
  0
SPLINE
  5
AB
330
1F
100
AcDbEntity
  8
STANDARDEBENE
 62
     7
100
AcDbSpline
210
0.0
220
0.0
230
1.0
 70
     8
 71
     3
 72
     8
 73
     4
 74
     0
 42
0.0000000001
 43
0.0000000001
 40
0.0
 40
0.0
 40
0.0
 40
0.0
 40
1.0
 40
1.0
 40
1.0
 40
1.0
 10
62.49454886675484
 20
147.7098469682809
 30
0.0
 10
63.23972302021438
 20
147.117979563915
 30
0.0
 10
64.05793319796122
 20
146.6806246920625
 30
0.0
 10
64.85650633144212
 20
146.4143188110527
 30
0.0
  0
POLYLINE
  5
AC
330
1F
100
AcDbEntity
  8
STANDARDEBENE
 62
    30
100
AcDb2dPolyline
 66
     1
 10
0.0
 20
0.0
 30
0.0
  0
VERTEX
  5
AD
330
AC
100
AcDbEntity
  8
STANDARDEBENE
 62
    30
100
AcDbVertex
100
AcDb2dVertex
 10
73.26167804158041
 20
155.0727050393568
 30
0.0
  0
VERTEX
  5
AE
330
AC
100
AcDbEntity
  8
STANDARDEBENE
 62
    30
100
AcDbVertex
100
AcDb2dVertex
 10
73.29457870346455
 20
155.0814900328442
 30
0.0
  0
SEQEND
  5
AF
330
AC
100
AcDbEntity
  8
STANDARDEBENE
  0
POLYLINE
  5
B0
330
1F
100
AcDbEntity
  8
STANDARDEBENE
 62
    30
100
AcDb2dPolyline
 66
     1
 10
0.0
 20
0.0
 30
0.0
  0
VERTEX
  5
B1
330
B0
100
AcDbEntity
  8
STANDARDEBENE
 62
    30
100
AcDbVertex
100
AcDb2dVertex
 10
73.36158581065266
 20
155.0992322745932
 30
0.0
  0
VERTEX
  5
B2
330
B0
100
AcDbEntity
  8
STANDARDEBENE
 62
    30
100
AcDbVertex
100
AcDb2dVertex
 10
73.39465872731107
 20
155.1081895228549
 30
0.0
  0
SEQEND
  5
B3
330
B0
100
AcDbEntity
  8
STANDARDEBENE
  0
POLYLINE
  5
B4
330
1F
100
AcDbEntity
  8
STANDARDEBENE
 62
     7
100
AcDb2dPolyline
 66
     1
 10
0.0
 20
0.0
 30
0.0
  0
VERTEX
  5
B5
330
B4
100
AcDbEntity
  8
STANDARDEBENE
 62
     7
100
AcDbVertex
100
AcDb2dVertex
 10
65.38653427184781
 20
159.6391791050555
 30
0.0
  0
VERTEX
  5
B6
330
B4
100
AcDbEntity
  8
STANDARDEBENE
 62
     7
100
AcDbVertex
100
AcDb2dVertex
 10
64.88699542648659
 20
161.503837036447
 30
0.0
  0
SEQEND
  5
B7
330
B4
100
AcDbEntity
  8
STANDARDEBENE
  0
POLYLINE
  5
B8
330
1F
100
AcDbEntity
  8
STANDARDEBENE
 62
     7
100
AcDb2dPolyline
 66
     1
 10
0.0
 20
0.0
 30
0.0
  0
VERTEX
  5
B9
330
B8
100
AcDbEntity
  8
STANDARDEBENE
 62
     7
100
AcDbVertex
100
AcDb2dVertex
 10
69.92458629979316
 20
161.5370822078796
 30
0.0
  0
VERTEX
  5
BA
330
B8
100
AcDbEntity
  8
STANDARDEBENE
 62
     7
100
AcDbVertex
100
AcDb2dVertex
 10
69.42539196398046
 20
159.6741468242308
 30
0.0
  0
SEQEND
  5
BB
330
B8
100
AcDbEntity
  8
STANDARDEBENE
  0
SPLINE
  5
BC
330
1F
100
AcDbEntity
  8
STANDARDEBENE
 62
     7
100
AcDbSpline
210
0.0
220
0.0
230
1.0
 70
     8
 71
     3
 72
     8
 73
     4
 74
     0
 42
0.0000000001
 43
0.0000000001
 40
0.0
 40
0.0
 40
0.0
 40
0.0
 40
1.0
 40
1.0
 40
1.0
 40
1.0
 10
69.42539196398046
 20
159.6741468242308
 30
0.0
 10
68.0566555276907
 20
160.1459526509358
 30
0.0
 10
66.6343478566053
 20
160.0973768045937
 30
0.0
 10
65.38653427184781
 20
159.6391791050555
 30
0.0
  0
POLYLINE
  5
BD
330
1F
100
AcDbEntity
  8
STANDARDEBENE
 62
     7
100
AcDb2dPolyline
 66
     1
 10
0.0
 20
0.0
 30
0.0
  0
VERTEX
  5
BE
330
BD
100
AcDbEntity
  8
STANDARDEBENE
 62
     7
100
AcDbVertex
100
AcDb2dVertex
 10
71.34482691358741
 20
158.5884249820543
 30
0.0
  0
VERTEX
  5
BF
330
BD
100
AcDbEntity
  8
STANDARDEBENE
 62
     7
100
AcDbVertex
100
AcDb2dVertex
 10
72.70977374484339
 20
159.9538885776331
 30
0.0
  0
SEQEND
  5
C0
330
BD
100
AcDbEntity
  8
STANDARDEBENE
  0
POLYLINE
  5
C1
330
1F
100
AcDbEntity
  8
STANDARDEBENE
 62
     7
100
AcDb2dPolyline
 66
     1
 10
0.0
 20
0.0
 30
0.0
  0
VERTEX
  5
C2
330
C1
100
AcDbEntity
  8
STANDARDEBENE
 62
     7
100
AcDbVertex
100
AcDb2dVertex
 10
75.25742185618564
 20
155.6075561134419
 30
0.0
  0
VERTEX
  5
C3
330
C1
100
AcDbEntity
  8
STANDARDEBENE
 62
     7
100
AcDbVertex
100
AcDb2dVertex
 10
73.39465872731107
 20
155.1081895228549
 30
0.0
  0
SEQEND
  5
C4
330
C1
100
AcDbEntity
  8
STANDARDEBENE
  0
SPLINE
  5
C5
330
1F
100
AcDbEntity
  8
STANDARDEBENE
 62
     7
100
AcDbSpline
210
0.0
220
0.0
230
1.0
 70
     8
 71
     3
 72
     8
 73
     4
 74
     0
 42
0.0000000001
 43
0.0000000001
 40
0.0
 40
0.0
 40
0.0
 40
0.0
 40
1.0
 40
1.0
 40
1.0
 40
1.0
 10
73.39465872731107
 20
155.1081895228549
 30
0.0
 10
73.11836206939402
 20
156.5298081748433
 30
0.0
 10
72.36560870586693
 20
157.7373141424233
 30
0.0
 10
71.34482691358741
 20
158.5884249820543
 30
0.0
  0
POLYLINE
  5
C6
330
1F
100
AcDbEntity
  8
STANDARDEBENE
 62
     7
100
AcDb2dPolyline
 66
     1
 10
0.0
 20
0.0
 30
0.0
  0
VERTEX
  5
C7
330
C6
100
AcDbEntity
  8
STANDARDEBENE
 62
     7
100
AcDbVertex
100
AcDb2dVertex
 10
73.41395126202846
 20
152.903328412295
 30
0.0
  0
VERTEX
  5
C8
330
C6
100
AcDbEntity
  8
STANDARDEBENE
 62
     7
100
AcDbVertex
100
AcDb2dVertex
 10
75.2787814481942
 20
152.4037895669338
 30
0.0
  0
SEQEND
  5
C9
330
C6
100
AcDbEntity
  8
STANDARDEBENE
  0
POLYLINE
  5
CA
330
1F
100
AcDbEntity
  8
STANDARDEBENE
 62
     7
100
AcDb2dPolyline
 66
     1
 10
0.0
 20
0.0
 30
0.0
  0
VERTEX
  5
CB
330
CA
100
AcDbEntity
  8
STANDARDEBENE
 62
     7
100
AcDbVertex
100
AcDb2dVertex
 10
72.78883868622988
 20
148.0242119313099
 30
0.0
  0
VERTEX
  5
CC
330
CA
100
AcDbEntity
  8
STANDARDEBENE
 62
     7
100
AcDbVertex
100
AcDb2dVertex
 10
71.425269893168
 20
149.3879529791461
 30
0.0
  0
SEQEND
  5
CD
330
CA
100
AcDbEntity
  8
STANDARDEBENE
  0
SPLINE
  5
CE
330
1F
100
AcDbEntity
  8
STANDARDEBENE
 62
     7
100
AcDbSpline
210
0.0
220
0.0
230
1.0
 70
     8
 71
     3
 72
     8
 73
     4
 74
     0
 42
0.0000000001
 43
0.0000000001
 40
0.0
 40
0.0
 40
0.0
 40
0.0
 40
1.0
 40
1.0
 40
1.0
 40
1.0
 10
71.425269893168
 20
149.3879529791461
 30
0.0
 10
72.51753741676646
 20
150.3377658044295
 30
0.0
 10
73.18726397909901
 20
151.5936753635773
 30
0.0
 10
73.41395126202846
 20
152.903328412295
 30
0.0
  0
POLYLINE
  5
CF
330
1F
100
AcDbEntity
  8
STANDARDEBENE
 62
     7
100
AcDb2dPolyline
 66
     1
 10
0.0
 20
0.0
 30
0.0
  0
VERTEX
  5
D0
330
CF
100
AcDbEntity
  8
STANDARDEBENE
 62
     7
100
AcDbVertex
100
AcDb2dVertex
 10
69.52512747827845
 20
148.2686414559884
 30
0.0
  0
VERTEX
  5
D1
330
CF
100
AcDbEntity
  8
STANDARDEBENE
 62
     7
100
AcDbVertex
100
AcDb2dVertex
 10
70.02501083318819
 20
146.4038112698227
 30
0.0
  0
SEQEND
  5
D2
330
CF
100
AcDbEntity
  8
STANDARDEBENE
  0
POLYLINE
  5
D3
330
1F
100
AcDbEntity
  8
STANDARDEBENE
 62
     7
100
AcDb2dPolyline
 66
     1
 10
0.0
 20
0.0
 30
0.0
  0
VERTEX
  5
D4
330
D3
100
AcDbEntity
  8
STANDARDEBENE
 62
     7
100
AcDbVertex
100
AcDb2dVertex
 10
64.98690319555884
 20
146.3709106079385
 30
0.0
  0
VERTEX
  5
D5
330
D3
100
AcDbEntity
  8
STANDARDEBENE
 62
     7
100
AcDbVertex
100
AcDb2dVertex
 10
65.48609753137153
 20
148.2333292272646
 30
0.0
  0
SEQEND
  5
D6
330
D3
100
AcDbEntity
  8
STANDARDEBENE
  0
SPLINE
  5
D7
330
1F
100
AcDbEntity
  8
STANDARDEBENE
 62
     7
100
AcDbSpline
210
0.0
220
0.0
230
1.0
 70
     8
 71
     3
 72
     8
 73
     4
 74
     0
 42
0.0000000001
 43
0.0000000001
 40
0.0
 40
0.0
 40
0.0
 40
0.0
 40
1.0
 40
1.0
 40
1.0
 40
1.0
 10
65.48609753137153
 20
148.2333292272646
 30
0.0
 10
66.85517847720982
 20
147.7620401648824
 30
0.0
 10
68.27731389352095
 20
147.8100992469016
 30
0.0
 10
69.52512747827845
 20
148.2686414559884
 30
0.0
  0
POLYLINE
  5
D8
330
1F
100
AcDbEntity
  8
STANDARDEBENE
 62
     7
100
AcDb2dPolyline
 66
     1
 10
0.0
 20
0.0
 30
0.0
  0
VERTEX
  5
D9
330
D8
100
AcDbEntity
  8
STANDARDEBENE
 62
     7
100
AcDbVertex
100
AcDb2dVertex
 10
129.0450086482943
 20
148.4538153383206
 30
0.0
  0
VERTEX
  5
DA
330
D8
100
AcDbEntity
  8
STANDARDEBENE
 62
     7
100
AcDbVertex
100
AcDb2dVertex
 10
73.3476331739374
 20
148.4538153383206
 30
0.0
  0
SEQEND
  5
DB
330
D8
100
AcDbEntity
  8
STANDARDEBENE
  0
SPLINE
  5
DC
330
1F
100
AcDbEntity
  8
STANDARDEBENE
 62
     7
100
AcDbSpline
210
0.0
220
0.0
230
1.0
 70
     8
 71
     3
 72
     8
 73
     4
 74
     0
 42
0.0000000001
 43
0.0000000001
 40
0.0
 40
0.0
 40
0.0
 40
0.0
 40
1.0
 40
1.0
 40
1.0
 40
1.0
 10
129.0450086482943
 20
148.4538153383206
 30
0.0
 10
131.4751790035895
 20
148.4538153383206
 30
0.0
 10
133.4447400925069
 20
150.4238931915607
 30
0.0
 10
133.4447400925069
 20
152.8538912920817
 30
0.0
  0
POLYLINE
  5
DD
330
1F
100
AcDbEntity
  8
STANDARDEBENE
 62
     7
100
AcDb2dPolyline
 66
     1
 10
0.0
 20
0.0
 30
0.0
  0
VERTEX
  5
DE
330
DD
100
AcDbEntity
  8
STANDARDEBENE
 62
     7
100
AcDbVertex
100
AcDb2dVertex
 10
133.4447400925069
 20
155.0539292689622
 30
0.0
  0
VERTEX
  5
DF
330
DD
100
AcDbEntity
  8
STANDARDEBENE
 62
     7
100
AcDbVertex
100
AcDb2dVertex
 10
133.4447400925069
 20
152.8538912920817
 30
0.0
  0
SEQEND
  5
E0
330
DD
100
AcDbEntity
  8
STANDARDEBENE
  0
SPLINE
  5
E1
330
1F
100
AcDbEntity
  8
STANDARDEBENE
 62
     7
100
AcDbSpline
210
0.0
220
0.0
230
1.0
 70
     8
 71
     3
 72
     8
 73
     4
 74
     0
 42
0.0000000001
 43
0.0000000001
 40
0.0
 40
0.0
 40
0.0
 40
0.0
 40
1.0
 40
1.0
 40
1.0
 40
1.0
 10
133.4447400925069
 20
155.0539292689622
 30
0.0
 10
133.4447400925069
 20
157.4839273694832
 30
0.0
 10
131.4751790035895
 20
159.453832967949
 30
0.0
 10
129.0450086482943
 20
159.453832967949
 30
0.0
  0
POLYLINE
  5
E2
330
1F
100
AcDbEntity
  8
STANDARDEBENE
 62
     7
100
AcDb2dPolyline
 66
     1
 10
0.0
 20
0.0
 30
0.0
  0
VERTEX
  5
E3
330
E2
100
AcDbEntity
  8
STANDARDEBENE
 62
     7
100
AcDbVertex
100
AcDb2dVertex
 10
73.3476331739374
 20
159.453832967949
 30
0.0
  0
VERTEX
  5
E4
330
E2
100
AcDbEntity
  8
STANDARDEBENE
 62
     7
100
AcDbVertex
100
AcDb2dVertex
 10
129.0450086482943
 20
159.453832967949
 30
0.0
  0
SEQEND
  5
E5
330
E2
100
AcDbEntity
  8
STANDARDEBENE
  0
SPLINE
  5
E6
330
1F
100
AcDbEntity
  8
STANDARDEBENE
 62
     7
100
AcDbSpline
210
0.0
220
0.0
230
1.0
 70
     8
 71
     3
 72
     8
 73
     4
 74
     0
 42
0.0000000001
 43
0.0000000001
 40
0.0
 40
0.0
 40
0.0
 40
0.0
 40
1.0
 40
1.0
 40
1.0
 40
1.0
 10
73.1510904765039
 20
159.5363430048208
 30
0.0
 10
73.20500622084806
 20
159.4815659866053
 30
0.0
 10
73.27614744261847
 20
159.453832967949
 30
0.0
 10
73.3476331739374
 20
159.453832967949
 30
0.0
  0
SPLINE
  5
E7
330
1F
100
AcDbEntity
  8
STANDARDEBENE
 62
     7
100
AcDbSpline
210
0.0
220
0.0
230
1.0
 70
     8
 71
     3
 72
     8
 73
     4
 74
     0
 42
0.0000000001
 43
0.0000000001
 40
0.0
 40
0.0
 40
0.0
 40
0.0
 40
1.0
 40
1.0
 40
1.0
 40
1.0
 10
73.3476331739374
 20
148.4538153383206
 30
0.0
 10
73.27063528984206
 20
148.4538153383206
 30
0.0
 10
73.20121661581429
 20
148.4224649694048
 30
0.0
 10
73.1510904765039
 20
148.3713053014488
 30
0.0
  0
POLYLINE
  5
E8
330
1F
100
AcDbEntity
  8
STANDARDEBENE
 62
    30
100
AcDb2dPolyline
 66
     1
 10
0.0
 20
0.0
 30
0.0
  0
VERTEX
  5
E9
330
E8
100
AcDbEntity
  8
STANDARDEBENE
 62
    30
100
AcDbVertex
100
AcDb2dVertex
 10
75.25742185618564
 20
155.6075561134419
 30
0.0
  0
VERTEX
  5
EA
330
E8
100
AcDbEntity
  8
STANDARDEBENE
 62
    30
100
AcDbVertex
100
AcDb2dVertex
 10
75.25638832754008
 20
155.6085896420875
 30
0.0
  0
VERTEX
  5
EB
330
E8
100
AcDbEntity
  8
STANDARDEBENE
 62
    30
100
AcDbVertex
100
AcDb2dVertex
 10
75.25173744863498
 20
155.6108289541529
 30
0.0
  0
SEQEND
  5
EC
330
E8
100
AcDbEntity
  8
STANDARDEBENE
  0
POLYLINE
  5
ED
330
1F
100
AcDbEntity
  8
STANDARDEBENE
 62
     7
100
AcDb2dPolyline
 66
     1
 10
0.0
 20
0.0
 30
0.0
  0
VERTEX
  5
EE
330
ED
100
AcDbEntity
  8
STANDARDEBENE
 62
     7
100
AcDbVertex
100
AcDb2dVertex
 10
65.58118216676444
 20
148.0572848479683
 30
0.0
  0
VERTEX
  5
EF
330
ED
100
AcDbEntity
  8
STANDARDEBENE
 62
     7
100
AcDbVertex
100
AcDb2dVertex
 10
65.58032089289311
 20
148.0586628861624
 30
0.0
  0
VERTEX
  5
F0
330
ED
100
AcDbEntity
  8
STANDARDEBENE
 62
     7
100
AcDbVertex
100
AcDb2dVertex
 10
65.54845375965455
 20
148.1174017641859
 30
0.0
  0
VERTEX
  5
F1
330
ED
100
AcDbEntity
  8
STANDARDEBENE
 62
     7
100
AcDbVertex
100
AcDb2dVertex
 10
65.5160698620932
 20
148.1776909351778
 30
0.0
  0
VERTEX
  5
F2
330
ED
100
AcDbEntity
  8
STANDARDEBENE
 62
     7
100
AcDbVertex
100
AcDb2dVertex
 10
65.49798311079564
 20
148.2117973804818
 30
0.0
  0
VERTEX
  5
F3
330
ED
100
AcDbEntity
  8
STANDARDEBENE
 62
     7
100
AcDbVertex
100
AcDb2dVertex
 10
65.48954262685679
 20
148.2278170744882
 30
0.0
  0
VERTEX
  5
F4
330
ED
100
AcDbEntity
  8
STANDARDEBENE
 62
     7
100
AcDbVertex
100
AcDb2dVertex
 10
65.48609753137153
 20
148.2333292272646
 30
0.0
  0
SEQEND
  5
F5
330
ED
100
AcDbEntity
  8
STANDARDEBENE
  0
POLYLINE
  5
F6
330
1F
100
AcDbEntity
  8
STANDARDEBENE
 62
     7
100
AcDb2dPolyline
 66
     1
 10
0.0
 20
0.0
 30
0.0
  0
VERTEX
  5
F7
330
F6
100
AcDbEntity
  8
STANDARDEBENE
 62
     7
100
AcDbVertex
100
AcDb2dVertex
 10
69.52512747827845
 20
148.2686414559884
 30
0.0
  0
VERTEX
  5
F8
330
F6
100
AcDbEntity
  8
STANDARDEBENE
 62
     7
100
AcDbVertex
100
AcDb2dVertex
 10
69.52202689234171
 20
148.2626125388892
 30
0.0
  0
VERTEX
  5
F9
330
F6
100
AcDbEntity
  8
STANDARDEBENE
 62
     7
100
AcDbVertex
100
AcDb2dVertex
 10
69.51358640840286
 20
148.2467650996571
 30
0.0
  0
VERTEX
  5
FA
330
F6
100
AcDbEntity
  8
STANDARDEBENE
 62
     7
100
AcDbVertex
100
AcDb2dVertex
 10
69.49567191187955
 20
148.2126586543531
 30
0.0
  0
VERTEX
  5
FB
330
F6
100
AcDbEntity
  8
STANDARDEBENE
 62
     7
100
AcDbVertex
100
AcDb2dVertex
 10
69.46363252386674
 20
148.1516804642642
 30
0.0
  0
VERTEX
  5
FC
330
F6
100
AcDbEntity
  8
STANDARDEBENE
 62
     7
100
AcDbVertex
100
AcDb2dVertex
 10
69.43159313585392
 20
148.0915635480466
 30
0.0
  0
VERTEX
  5
FD
330
F6
100
AcDbEntity
  8
STANDARDEBENE
 62
     7
100
AcDbVertex
100
AcDb2dVertex
 10
69.4307318619826
 20
148.0900132550782
 30
0.0
  0
SEQEND
  5
FE
330
F6
100
AcDbEntity
  8
STANDARDEBENE
  0
POLYLINE
  5
FF
330
1F
100
AcDbEntity
  8
STANDARDEBENE
 62
     7
100
AcDb2dPolyline
 66
     1
 10
0.0
 20
0.0
 30
0.0
  0
VERTEX
  5
100
330
FF
100
AcDbEntity
  8
STANDARDEBENE
 62
     7
100
AcDbVertex
100
AcDb2dVertex
 10
70.02501083318819
 20
146.4038112698227
 30
0.0
  0
VERTEX
  5
101
330
FF
100
AcDbEntity
  8
STANDARDEBENE
 62
     7
100
AcDbVertex
100
AcDb2dVertex
 10
70.0231160306713
 20
146.4048447984682
 30
0.0
  0
VERTEX
  5
102
330
FF
100
AcDbEntity
  8
STANDARDEBENE
 62
     7
100
AcDbVertex
100
AcDb2dVertex
 10
70.01880966131475
 20
146.4070841105336
 30
0.0
  0
VERTEX
  5
103
330
FF
100
AcDbEntity
  8
STANDARDEBENE
 62
     7
100
AcDbVertex
100
AcDb2dVertex
 10
70.01191947034424
 20
146.4110459703417
 30
0.0
  0
VERTEX
  5
104
330
FF
100
AcDbEntity
  8
STANDARDEBENE
 62
     7
100
AcDbVertex
100
AcDb2dVertex
 10
70.00261771253408
 20
146.4160413587953
 30
0.0
  0
VERTEX
  5
105
330
FF
100
AcDbEntity
  8
STANDARDEBENE
 62
     7
100
AcDbVertex
100
AcDb2dVertex
 10
69.99521075724078
 20
146.4196587090548
 30
0.0
  0
VERTEX
  5
106
330
FF
100
AcDbEntity
  8
STANDARDEBENE
 62
     7
100
AcDbVertex
100
AcDb2dVertex
 10
69.98694252807618
 20
146.4239650784114
 30
0.0
  0
VERTEX
  5
107
330
FF
100
AcDbEntity
  8
STANDARDEBENE
 62
     7
100
AcDbVertex
100
AcDb2dVertex
 10
69.96885577677862
 20
146.4339558553186
 30
0.0
  0
VERTEX
  5
108
330
FF
100
AcDbEntity
  8
STANDARDEBENE
 62
     7
100
AcDbVertex
100
AcDb2dVertex
 10
69.95576441393467
 20
146.4410183010634
 30
0.0
  0
VERTEX
  5
109
330
FF
100
AcDbEntity
  8
STANDARDEBENE
 62
     7
100
AcDbVertex
100
AcDb2dVertex
 10
69.94215628676794
 20
146.4482530015824
 30
0.0
  0
VERTEX
  5
10A
330
FF
100
AcDbEntity
  8
STANDARDEBENE
 62
     7
100
AcDbVertex
100
AcDb2dVertex
 10
69.92785914050415
 20
146.4561767211985
 30
0.0
  0
VERTEX
  5
10B
330
FF
100
AcDbEntity
  8
STANDARDEBENE
 62
     7
100
AcDbVertex
100
AcDb2dVertex
 10
69.91304522991757
 20
146.4641004408145
 30
0.0
  0
VERTEX
  5
10C
330
FF
100
AcDbEntity
  8
STANDARDEBENE
 62
     7
100
AcDbVertex
100
AcDb2dVertex
 10
69.88669024945541
 20
146.478225332304
 30
0.0
  0
VERTEX
  5
10D
330
FF
100
AcDbEntity
  8
STANDARDEBENE
 62
     7
100
AcDbVertex
100
AcDb2dVertex
 10
69.85999075944473
 20
146.4928669881164
 30
0.0
  0
VERTEX
  5
10E
330
FF
100
AcDbEntity
  8
STANDARDEBENE
 62
     7
100
AcDbVertex
100
AcDb2dVertex
 10
69.8582682117021
 20
146.493900516762
 30
0.0
  0
SEQEND
  5
10F
330
FF
100
AcDbEntity
  8
STANDARDEBENE
  0
POLYLINE
  5
110
330
1F
100
AcDbEntity
  8
STANDARDEBENE
 62
     7
100
AcDb2dPolyline
 66
     1
 10
0.0
 20
0.0
 30
0.0
  0
VERTEX
  5
111
330
110
100
AcDbEntity
  8
STANDARDEBENE
 62
     7
100
AcDbVertex
100
AcDb2dVertex
 10
65.15381807181919
 20
146.4622056382977
 30
0.0
  0
VERTEX
  5
112
330
110
100
AcDbEntity
  8
STANDARDEBENE
 62
     7
100
AcDbVertex
100
AcDb2dVertex
 10
65.15226777885083
 20
146.4613443644263
 30
0.0
  0
VERTEX
  5
113
330
110
100
AcDbEntity
  8
STANDARDEBENE
 62
     7
100
AcDbVertex
100
AcDb2dVertex
 10
65.09904105360371
 20
146.4318887980274
 30
0.0
  0
VERTEX
  5
114
330
110
100
AcDbEntity
  8
STANDARDEBENE
 62
     7
100
AcDbVertex
100
AcDb2dVertex
 10
65.04288599719415
 20
146.4012274482087
 30
0.0
  0
VERTEX
  5
115
330
110
100
AcDbEntity
  8
STANDARDEBENE
 62
     7
100
AcDbVertex
100
AcDb2dVertex
 10
65.00929631621295
 20
146.3827961873626
 30
0.0
  0
VERTEX
  5
116
330
110
100
AcDbEntity
  8
STANDARDEBENE
 62
     7
100
AcDbVertex
100
AcDb2dVertex
 10
64.99327662220655
 20
146.3740111938752
 30
0.0
  0
VERTEX
  5
117
330
110
100
AcDbEntity
  8
STANDARDEBENE
 62
     7
100
AcDbVertex
100
AcDb2dVertex
 10
64.98690319555884
 20
146.3709106079385
 30
0.0
  0
SEQEND
  5
118
330
110
100
AcDbEntity
  8
STANDARDEBENE
  0
POLYLINE
  5
119
330
1F
100
AcDbEntity
  8
STANDARDEBENE
 62
     7
100
AcDb2dPolyline
 66
     1
 10
0.0
 20
0.0
 30
0.0
  0
VERTEX
  5
11A
330
119
100
AcDbEntity
  8
STANDARDEBENE
 62
     7
100
AcDbVertex
100
AcDb2dVertex
 10
69.52512747827845
 20
148.2686414559884
 30
0.0
  0
VERTEX
  5
11B
330
119
100
AcDbEntity
  8
STANDARDEBENE
 62
     7
100
AcDbVertex
100
AcDb2dVertex
 10
69.52581649737549
 20
148.270364003731
 30
0.0
  0
VERTEX
  5
11C
330
119
100
AcDbEntity
  8
STANDARDEBENE
 62
     7
100
AcDbVertex
100
AcDb2dVertex
 10
69.5280558094409
 20
148.2746703730876
 30
0.0
  0
VERTEX
  5
11D
330
119
100
AcDbEntity
  8
STANDARDEBENE
 62
     7
100
AcDbVertex
100
AcDb2dVertex
 10
69.53184541447467
 20
148.2817328188324
 30
0.0
  0
VERTEX
  5
11E
330
119
100
AcDbEntity
  8
STANDARDEBENE
 62
     7
100
AcDbVertex
100
AcDb2dVertex
 10
69.5363240386055
 20
148.2905178123197
 30
0.0
  0
VERTEX
  5
11F
330
119
100
AcDbEntity
  8
STANDARDEBENE
 62
     7
100
AcDbVertex
100
AcDb2dVertex
 10
69.54028589841354
 20
148.2980970223873
 30
0.0
  0
VERTEX
  5
120
330
119
100
AcDbEntity
  8
STANDARDEBENE
 62
     7
100
AcDbVertex
100
AcDb2dVertex
 10
69.54476452254437
 20
148.3065375063262
 30
0.0
  0
VERTEX
  5
121
330
119
100
AcDbEntity
  8
STANDARDEBENE
 62
     7
100
AcDbVertex
100
AcDb2dVertex
 10
69.55406628035455
 20
148.324796512398
 30
0.0
  0
VERTEX
  5
122
330
119
100
AcDbEntity
  8
STANDARDEBENE
 62
     7
100
AcDbVertex
100
AcDb2dVertex
 10
69.56147323564782
 20
148.3390936586618
 30
0.0
  0
VERTEX
  5
123
330
119
100
AcDbEntity
  8
STANDARDEBENE
 62
     7
100
AcDbVertex
100
AcDb2dVertex
 10
69.56905244571539
 20
148.3540798240226
 30
0.0
  0
VERTEX
  5
124
330
119
100
AcDbEntity
  8
STANDARDEBENE
 62
     7
100
AcDbVertex
100
AcDb2dVertex
 10
69.57732067487999
 20
148.3699272632547
 30
0.0
  0
VERTEX
  5
125
330
119
100
AcDbEntity
  8
STANDARDEBENE
 62
     7
100
AcDbVertex
100
AcDb2dVertex
 10
69.58558890404458
 20
148.3859469572612
 30
0.0
  0
VERTEX
  5
126
330
119
100
AcDbEntity
  8
STANDARDEBENE
 62
     7
100
AcDbVertex
100
AcDb2dVertex
 10
69.59351262366066
 20
148.4016221417191
 30
0.0
  0
VERTEX
  5
127
330
119
100
AcDbEntity
  8
STANDARDEBENE
 62
     7
100
AcDbVertex
100
AcDb2dVertex
 10
69.60160859805099
 20
148.4174695809512
 30
0.0
  0
VERTEX
  5
128
330
119
100
AcDbEntity
  8
STANDARDEBENE
 62
     7
100
AcDbVertex
100
AcDb2dVertex
 10
69.6176282920574
 20
148.4496812237383
 30
0.0
  0
VERTEX
  5
129
330
119
100
AcDbEntity
  8
STANDARDEBENE
 62
     7
100
AcDbVertex
100
AcDb2dVertex
 10
69.61848956592871
 20
148.4510592619324
 30
0.0
  0
SEQEND
  5
12A
330
119
100
AcDbEntity
  8
STANDARDEBENE
  0
POLYLINE
  5
12B
330
1F
100
AcDbEntity
  8
STANDARDEBENE
 62
     7
100
AcDb2dPolyline
 66
     1
 10
0.0
 20
0.0
 30
0.0
  0
VERTEX
  5
12C
330
12B
100
AcDbEntity
  8
STANDARDEBENE
 62
     7
100
AcDbVertex
100
AcDb2dVertex
 10
65.48609753137153
 20
148.2333292272646
 30
0.0
  0
VERTEX
  5
12D
330
12B
100
AcDbEntity
  8
STANDARDEBENE
 62
     7
100
AcDbVertex
100
AcDb2dVertex
 10
65.48316920020908
 20
148.2393581443638
 30
0.0
  0
VERTEX
  5
12E
330
12B
100
AcDbEntity
  8
STANDARDEBENE
 62
     7
100
AcDbVertex
100
AcDb2dVertex
 10
65.4747287162702
 20
148.2552055835959
 30
0.0
  0
VERTEX
  5
12F
330
12B
100
AcDbEntity
  8
STANDARDEBENE
 62
     7
100
AcDbVertex
100
AcDb2dVertex
 10
65.45664196497265
 20
148.2893120288999
 30
0.0
  0
VERTEX
  5
130
330
12B
100
AcDbEntity
  8
STANDARDEBENE
 62
     7
100
AcDbVertex
100
AcDb2dVertex
 10
65.42511934128261
 20
148.349773454666
 30
0.0
  0
VERTEX
  5
131
330
12B
100
AcDbEntity
  8
STANDARDEBENE
 62
     7
100
AcDbVertex
100
AcDb2dVertex
 10
65.39273544372126
 20
148.4117851734005
 30
0.0
  0
VERTEX
  5
132
330
12B
100
AcDbEntity
  8
STANDARDEBENE
 62
     7
100
AcDbVertex
100
AcDb2dVertex
 10
65.39187416984996
 20
148.4131632115946
 30
0.0
  0
SEQEND
  5
133
330
12B
100
AcDbEntity
  8
STANDARDEBENE
  0
POLYLINE
  5
134
330
1F
100
AcDbEntity
  8
STANDARDEBENE
 62
     7
100
AcDb2dPolyline
 66
     1
 10
0.0
 20
0.0
 30
0.0
  0
VERTEX
  5
135
330
134
100
AcDbEntity
  8
STANDARDEBENE
 62
     7
100
AcDbVertex
100
AcDb2dVertex
 10
72.79297280081218
 20
148.21455345687
 30
0.0
  0
VERTEX
  5
136
330
134
100
AcDbEntity
  8
STANDARDEBENE
 62
     7
100
AcDbVertex
100
AcDb2dVertex
 10
72.79297280081218
 20
148.2128309091273
 30
0.0
  0
VERTEX
  5
137
330
134
100
AcDbEntity
  8
STANDARDEBENE
 62
     7
100
AcDbVertex
100
AcDb2dVertex
 10
72.79245603648938
 20
148.1823418140829
 30
0.0
  0
VERTEX
  5
138
330
134
100
AcDbEntity
  8
STANDARDEBENE
 62
     7
100
AcDbVertex
100
AcDb2dVertex
 10
72.79176701739235
 20
148.1516804642642
 30
0.0
  0
VERTEX
  5
139
330
134
100
AcDbEntity
  8
STANDARDEBENE
 62
     7
100
AcDbVertex
100
AcDb2dVertex
 10
72.79159476261808
 20
148.1353162607092
 30
0.0
  0
VERTEX
  5
13A
330
134
100
AcDbEntity
  8
STANDARDEBENE
 62
     7
100
AcDbVertex
100
AcDb2dVertex
 10
72.7910779982953
 20
148.1189520571543
 30
0.0
  0
VERTEX
  5
13B
330
134
100
AcDbEntity
  8
STANDARDEBENE
 62
     7
100
AcDbVertex
100
AcDb2dVertex
 10
72.79090574352102
 20
148.1031046179222
 30
0.0
  0
VERTEX
  5
13C
330
134
100
AcDbEntity
  8
STANDARDEBENE
 62
     7
100
AcDbVertex
100
AcDb2dVertex
 10
72.79021672442397
 20
148.0876016882385
 30
0.0
  0
VERTEX
  5
13D
330
134
100
AcDbEntity
  8
STANDARDEBENE
 62
     7
100
AcDbVertex
100
AcDb2dVertex
 10
72.79004446964971
 20
148.0672756248755
 30
0.0
  0
VERTEX
  5
13E
330
134
100
AcDbEntity
  8
STANDARDEBENE
 62
     7
100
AcDbVertex
100
AcDb2dVertex
 10
72.78969996010119
 20
148.0579738670654
 30
0.0
  0
VERTEX
  5
13F
330
134
100
AcDbEntity
  8
STANDARDEBENE
 62
     7
100
AcDbVertex
100
AcDb2dVertex
 10
72.7891831957784
 20
148.0493611283522
 30
0.0
  0
VERTEX
  5
140
330
134
100
AcDbEntity
  8
STANDARDEBENE
 62
     7
100
AcDbVertex
100
AcDb2dVertex
 10
72.78901094100414
 20
148.0391980966708
 30
0.0
  0
VERTEX
  5
141
330
134
100
AcDbEntity
  8
STANDARDEBENE
 62
     7
100
AcDbVertex
100
AcDb2dVertex
 10
72.78901094100414
 20
148.0311021222804
 30
0.0
  0
VERTEX
  5
142
330
134
100
AcDbEntity
  8
STANDARDEBENE
 62
     7
100
AcDbVertex
100
AcDb2dVertex
 10
72.78883868622988
 20
148.0261067338268
 30
0.0
  0
VERTEX
  5
143
330
134
100
AcDbEntity
  8
STANDARDEBENE
 62
     7
100
AcDbVertex
100
AcDb2dVertex
 10
72.78883868622988
 20
148.0242119313099
 30
0.0
  0
SEQEND
  5
144
330
134
100
AcDbEntity
  8
STANDARDEBENE
  0
POLYLINE
  5
145
330
1F
100
AcDbEntity
  8
STANDARDEBENE
 62
     7
100
AcDb2dPolyline
 66
     1
 10
0.0
 20
0.0
 30
0.0
  0
VERTEX
  5
146
330
145
100
AcDbEntity
  8
STANDARDEBENE
 62
     7
100
AcDbVertex
100
AcDb2dVertex
 10
71.425269893168
 20
149.3879529791461
 30
0.0
  0
VERTEX
  5
147
330
145
100
AcDbEntity
  8
STANDARDEBENE
 62
     7
100
AcDbVertex
100
AcDb2dVertex
 10
71.42682018613635
 20
149.3879529791461
 30
0.0
  0
VERTEX
  5
148
330
145
100
AcDbEntity
  8
STANDARDEBENE
 62
     7
100
AcDbVertex
100
AcDb2dVertex
 10
71.43181557458996
 20
149.3876084695976
 30
0.0
  0
VERTEX
  5
149
330
145
100
AcDbEntity
  8
STANDARDEBENE
 62
     7
100
AcDbVertex
100
AcDb2dVertex
 10
71.43939478465751
 20
149.3876084695976
 30
0.0
  0
VERTEX
  5
14A
330
145
100
AcDbEntity
  8
STANDARDEBENE
 62
     7
100
AcDbVertex
100
AcDb2dVertex
 10
71.44973007111327
 20
149.3869194505005
 30
0.0
  0
VERTEX
  5
14B
330
145
100
AcDbEntity
  8
STANDARDEBENE
 62
     7
100
AcDbVertex
100
AcDb2dVertex
 10
71.45817055505212
 20
149.386574940952
 30
0.0
  0
VERTEX
  5
14C
330
145
100
AcDbEntity
  8
STANDARDEBENE
 62
     7
100
AcDbVertex
100
AcDb2dVertex
 10
71.46730005808804
 20
149.386574940952
 30
0.0
  0
VERTEX
  5
14D
330
145
100
AcDbEntity
  8
STANDARDEBENE
 62
     7
100
AcDbVertex
100
AcDb2dVertex
 10
71.4886596500966
 20
149.3857136670807
 30
0.0
  0
VERTEX
  5
14E
330
145
100
AcDbEntity
  8
STANDARDEBENE
 62
     7
100
AcDbVertex
100
AcDb2dVertex
 10
71.50450708932874
 20
149.3853691575321
 30
0.0
  0
VERTEX
  5
14F
330
145
100
AcDbEntity
  8
STANDARDEBENE
 62
     7
100
AcDbVertex
100
AcDb2dVertex
 10
71.52069903810941
 20
149.3846801384351
 30
0.0
  0
VERTEX
  5
150
330
145
100
AcDbEntity
  8
STANDARDEBENE
 62
     7
100
AcDbVertex
100
AcDb2dVertex
 10
71.53844127985845
 20
149.3843356288866
 30
0.0
  0
VERTEX
  5
151
330
145
100
AcDbEntity
  8
STANDARDEBENE
 62
     7
100
AcDbVertex
100
AcDb2dVertex
 10
71.556528031156
 20
149.383991119338
 30
0.0
  0
VERTEX
  5
152
330
145
100
AcDbEntity
  8
STANDARDEBENE
 62
     7
100
AcDbVertex
100
AcDb2dVertex
 10
71.58925643826588
 20
149.3829575906925
 30
0.0
  0
VERTEX
  5
153
330
145
100
AcDbEntity
  8
STANDARDEBENE
 62
     7
100
AcDbVertex
100
AcDb2dVertex
 10
71.62370739311838
 20
149.3819240620469
 30
0.0
  0
VERTEX
  5
154
330
145
100
AcDbEntity
  8
STANDARDEBENE
 62
     7
100
AcDbVertex
100
AcDb2dVertex
 10
71.62560219563527
 20
149.3819240620469
 30
0.0
  0
SEQEND
  5
155
330
145
100
AcDbEntity
  8
STANDARDEBENE
  0
POLYLINE
  5
156
330
1F
100
AcDbEntity
  8
STANDARDEBENE
 62
     7
100
AcDb2dPolyline
 66
     1
 10
0.0
 20
0.0
 30
0.0
  0
VERTEX
  5
157
330
156
100
AcDbEntity
  8
STANDARDEBENE
 62
     7
100
AcDbVertex
100
AcDb2dVertex
 10
73.41395126202846
 20
152.903328412295
 30
0.0
  0
VERTEX
  5
158
330
156
100
AcDbEntity
  8
STANDARDEBENE
 62
     7
100
AcDbVertex
100
AcDb2dVertex
 10
73.41498479067404
 20
152.9021226288752
 30
0.0
  0
VERTEX
  5
159
330
156
100
AcDbEntity
  8
STANDARDEBENE
 62
     7
100
AcDbVertex
100
AcDb2dVertex
 10
73.41774086706224
 20
152.8978162595186
 30
0.0
  0
VERTEX
  5
15A
330
156
100
AcDbEntity
  8
STANDARDEBENE
 62
     7
100
AcDbVertex
100
AcDb2dVertex
 10
73.42153047209601
 20
152.8910983233224
 30
0.0
  0
VERTEX
  5
15B
330
156
100
AcDbEntity
  8
STANDARDEBENE
 62
     7
100
AcDbVertex
100
AcDb2dVertex
 10
73.42721487964667
 20
152.8824855846092
 30
0.0
  0
VERTEX
  5
15C
330
156
100
AcDbEntity
  8
STANDARDEBENE
 62
     7
100
AcDbVertex
100
AcDb2dVertex
 10
73.43186575855177
 20
152.8754231388645
 30
0.0
  0
VERTEX
  5
15D
330
156
100
AcDbEntity
  8
STANDARDEBENE
 62
     7
100
AcDbVertex
100
AcDb2dVertex
 10
73.4366888922311
 20
152.8674994192484
 30
0.0
  0
VERTEX
  5
15E
330
156
100
AcDbEntity
  8
STANDARDEBENE
 62
     7
100
AcDbVertex
100
AcDb2dVertex
 10
73.44788545255817
 20
152.8497571774994
 30
0.0
  0
VERTEX
  5
15F
330
156
100
AcDbEntity
  8
STANDARDEBENE
 62
     7
100
AcDbVertex
100
AcDb2dVertex
 10
73.45632593649704
 20
152.8363213051069
 30
0.0
  0
VERTEX
  5
160
330
156
100
AcDbEntity
  8
STANDARDEBENE
 62
     7
100
AcDbVertex
100
AcDb2dVertex
 10
73.46545543953295
 20
152.8218519040688
 30
0.0
  0
VERTEX
  5
161
330
156
100
AcDbEntity
  8
STANDARDEBENE
 62
     7
100
AcDbVertex
100
AcDb2dVertex
 10
73.47475719734312
 20
152.8070379934823
 30
0.0
  0
VERTEX
  5
162
330
156
100
AcDbEntity
  8
STANDARDEBENE
 62
     7
100
AcDbVertex
100
AcDb2dVertex
 10
73.48457571947608
 20
152.7915350637986
 30
0.0
  0
VERTEX
  5
163
330
156
100
AcDbEntity
  8
STANDARDEBENE
 62
     7
100
AcDbVertex
100
AcDb2dVertex
 10
73.50249021599939
 20
152.7631130260453
 30
0.0
  0
VERTEX
  5
164
330
156
100
AcDbEntity
  8
STANDARDEBENE
 62
     7
100
AcDbVertex
100
AcDb2dVertex
 10
73.52057696729695
 20
152.7336574596465
 30
0.0
  0
VERTEX
  5
165
330
156
100
AcDbEntity
  8
STANDARDEBENE
 62
     7
100
AcDbVertex
100
AcDb2dVertex
 10
73.52143824116825
 20
152.7322794214523
 30
0.0
  0
SEQEND
  5
166
330
156
100
AcDbEntity
  8
STANDARDEBENE
  0
POLYLINE
  5
167
330
1F
100
AcDbEntity
  8
STANDARDEBENE
 62
     7
100
AcDb2dPolyline
 66
     1
 10
0.0
 20
0.0
 30
0.0
  0
VERTEX
  5
168
330
167
100
AcDbEntity
  8
STANDARDEBENE
 62
     7
100
AcDbVertex
100
AcDb2dVertex
 10
75.11806774380729
 20
152.3045708169586
 30
0.0
  0
VERTEX
  5
169
330
167
100
AcDbEntity
  8
STANDARDEBENE
 62
     7
100
AcDbVertex
100
AcDb2dVertex
 10
75.11927352722714
 20
152.3054320908299
 30
0.0
  0
VERTEX
  5
16A
330
167
100
AcDbEntity
  8
STANDARDEBENE
 62
     7
100
AcDbVertex
100
AcDb2dVertex
 10
75.1451117433665
 20
152.3209350205135
 30
0.0
  0
VERTEX
  5
16B
330
167
100
AcDbEntity
  8
STANDARDEBENE
 62
     7
100
AcDbVertex
100
AcDb2dVertex
 10
75.1704331951831
 20
152.3366102049714
 30
0.0
  0
VERTEX
  5
16C
330
167
100
AcDbEntity
  8
STANDARDEBENE
 62
     7
100
AcDbVertex
100
AcDb2dVertex
 10
75.18455808667261
 20
152.3455674532331
 30
0.0
  0
VERTEX
  5
16D
330
167
100
AcDbEntity
  8
STANDARDEBENE
 62
     7
100
AcDbVertex
100
AcDb2dVertex
 10
75.19851072338787
 20
152.3538356823977
 30
0.0
  0
VERTEX
  5
16E
330
167
100
AcDbEntity
  8
STANDARDEBENE
 62
     7
100
AcDbVertex
100
AcDb2dVertex
 10
75.21177434100609
 20
152.3622761663365
 30
0.0
  0
VERTEX
  5
16F
330
167
100
AcDbEntity
  8
STANDARDEBENE
 62
     7
100
AcDbVertex
100
AcDb2dVertex
 10
75.22469344907577
 20
152.3701998859526
 30
0.0
  0
VERTEX
  5
170
330
167
100
AcDbEntity
  8
STANDARDEBENE
 62
     7
100
AcDbVertex
100
AcDb2dVertex
 10
75.24209118127628
 20
152.3807074271826
 30
0.0
  0
VERTEX
  5
171
330
167
100
AcDbEntity
  8
STANDARDEBENE
 62
     7
100
AcDbVertex
100
AcDb2dVertex
 10
75.2498426461181
 20
152.3857028156362
 30
0.0
  0
VERTEX
  5
172
330
167
100
AcDbEntity
  8
STANDARDEBENE
 62
     7
100
AcDbVertex
100
AcDb2dVertex
 10
75.25724960141139
 20
152.3903536945413
 30
0.0
  0
VERTEX
  5
173
330
167
100
AcDbEntity
  8
STANDARDEBENE
 62
     7
100
AcDbVertex
100
AcDb2dVertex
 10
75.26603459489877
 20
152.3958658473177
 30
0.0
  0
VERTEX
  5
174
330
167
100
AcDbEntity
  8
STANDARDEBENE
 62
     7
100
AcDbVertex
100
AcDb2dVertex
 10
75.27309704064353
 20
152.4001722166743
 30
0.0
  0
VERTEX
  5
175
330
167
100
AcDbEntity
  8
STANDARDEBENE
 62
     7
100
AcDbVertex
100
AcDb2dVertex
 10
75.27705890045158
 20
152.4025837835139
 30
0.0
  0
VERTEX
  5
176
330
167
100
AcDbEntity
  8
STANDARDEBENE
 62
     7
100
AcDbVertex
100
AcDb2dVertex
 10
75.2787814481942
 20
152.4037895669338
 30
0.0
  0
SEQEND
  5
177
330
167
100
AcDbEntity
  8
STANDARDEBENE
  0
POLYLINE
  5
178
330
1F
100
AcDbEntity
  8
STANDARDEBENE
 62
     7
100
AcDb2dPolyline
 66
     1
 10
0.0
 20
0.0
 30
0.0
  0
VERTEX
  5
179
330
178
100
AcDbEntity
  8
STANDARDEBENE
 62
     7
100
AcDbVertex
100
AcDb2dVertex
 10
73.41395126202846
 20
152.903328412295
 30
0.0
  0
VERTEX
  5
17A
330
178
100
AcDbEntity
  8
STANDARDEBENE
 62
     7
100
AcDbVertex
100
AcDb2dVertex
 10
73.41033391176894
 20
152.9090128198457
 30
0.0
  0
VERTEX
  5
17B
330
178
100
AcDbEntity
  8
STANDARDEBENE
 62
     7
100
AcDbVertex
100
AcDb2dVertex
 10
73.40085989918451
 20
152.9239989852065
 30
0.0
  0
VERTEX
  5
17C
330
178
100
AcDbEntity
  8
STANDARDEBENE
 62
     7
100
AcDbVertex
100
AcDb2dVertex
 10
73.37984481672449
 20
152.9565551375421
 30
0.0
  0
VERTEX
  5
17D
330
178
100
AcDbEntity
  8
STANDARDEBENE
 62
     7
100
AcDbVertex
100
AcDb2dVertex
 10
73.34281004025804
 20
153.0144327416943
 30
0.0
  0
VERTEX
  5
17E
330
178
100
AcDbEntity
  8
STANDARDEBENE
 62
     7
100
AcDbVertex
100
AcDb2dVertex
 10
73.30388046127473
 20
153.0742051483634
 30
0.0
  0
VERTEX
  5
17F
330
178
100
AcDbEntity
  8
STANDARDEBENE
 62
     7
100
AcDbVertex
100
AcDb2dVertex
 10
73.30284693262915
 20
153.0755831865575
 30
0.0
  0
SEQEND
  5
180
330
178
100
AcDbEntity
  8
STANDARDEBENE
  0
POLYLINE
  5
181
330
1F
100
AcDbEntity
  8
STANDARDEBENE
 62
     7
100
AcDb2dPolyline
 66
     1
 10
0.0
 20
0.0
 30
0.0
  0
VERTEX
  5
182
330
181
100
AcDbEntity
  8
STANDARDEBENE
 62
     7
100
AcDbVertex
100
AcDb2dVertex
 10
71.425269893168
 20
149.3879529791461
 30
0.0
  0
VERTEX
  5
183
330
181
100
AcDbEntity
  8
STANDARDEBENE
 62
     7
100
AcDbVertex
100
AcDb2dVertex
 10
71.4183797021975
 20
149.3879529791461
 30
0.0
  0
VERTEX
  5
184
330
181
100
AcDbEntity
  8
STANDARDEBENE
 62
     7
100
AcDbVertex
100
AcDb2dVertex
 10
71.40029295089992
 20
149.3889865077917
 30
0.0
  0
VERTEX
  5
185
330
181
100
AcDbEntity
  8
STANDARDEBENE
 62
     7
100
AcDbVertex
100
AcDb2dVertex
 10
71.36170788146514
 20
149.3903645459858
 30
0.0
  0
VERTEX
  5
186
330
181
100
AcDbEntity
  8
STANDARDEBENE
 62
     7
100
AcDbVertex
100
AcDb2dVertex
 10
71.29366724563145
 20
149.3929483675997
 30
0.0
  0
VERTEX
  5
187
330
181
100
AcDbEntity
  8
STANDARDEBENE
 62
     7
100
AcDbVertex
100
AcDb2dVertex
 10
71.22390406205514
 20
149.3963934630849
 30
0.0
  0
VERTEX
  5
188
330
181
100
AcDbEntity
  8
STANDARDEBENE
 62
     7
100
AcDbVertex
100
AcDb2dVertex
 10
71.22218151431251
 20
149.3963934630849
 30
0.0
  0
SEQEND
  5
189
330
181
100
AcDbEntity
  8
STANDARDEBENE
  0
POLYLINE
  5
18A
330
1F
100
AcDbEntity
  8
STANDARDEBENE
 62
     7
100
AcDb2dPolyline
 66
     1
 10
0.0
 20
0.0
 30
0.0
  0
VERTEX
  5
18B
330
18A
100
AcDbEntity
  8
STANDARDEBENE
 62
     7
100
AcDbVertex
100
AcDb2dVertex
 10
69.33030732858757
 20
159.8507079678498
 30
0.0
  0
VERTEX
  5
18C
330
18A
100
AcDbEntity
  8
STANDARDEBENE
 62
     7
100
AcDbVertex
100
AcDb2dVertex
 10
69.33134085723314
 20
159.8491576748815
 30
0.0
  0
VERTEX
  5
18D
330
18A
100
AcDbEntity
  8
STANDARDEBENE
 62
     7
100
AcDbVertex
100
AcDb2dVertex
 10
69.34718829646529
 20
159.8195298537083
 30
0.0
  0
VERTEX
  5
18E
330
18A
100
AcDbEntity
  8
STANDARDEBENE
 62
     7
100
AcDbVertex
100
AcDb2dVertex
 10
69.36355250002022
 20
159.7902465420837
 30
0.0
  0
VERTEX
  5
18F
330
18A
100
AcDbEntity
  8
STANDARDEBENE
 62
     7
100
AcDbVertex
100
AcDb2dVertex
 10
69.37182072918482
 20
159.7747436124001
 30
0.0
  0
VERTEX
  5
190
330
18A
100
AcDbEntity
  8
STANDARDEBENE
 62
     7
100
AcDbVertex
100
AcDb2dVertex
 10
69.3797444488009
 20
159.7597574470392
 30
0.0
  0
VERTEX
  5
191
330
18A
100
AcDbEntity
  8
STANDARDEBENE
 62
     7
100
AcDbVertex
100
AcDb2dVertex
 10
69.3880126779655
 20
159.7447712816784
 30
0.0
  0
VERTEX
  5
192
330
18A
100
AcDbEntity
  8
STANDARDEBENE
 62
     7
100
AcDbVertex
100
AcDb2dVertex
 10
69.39559188803305
 20
159.7304741354146
 30
0.0
  0
VERTEX
  5
193
330
18A
100
AcDbEntity
  8
STANDARDEBENE
 62
     7
100
AcDbVertex
100
AcDb2dVertex
 10
69.40541041016601
 20
159.7122151293428
 30
0.0
  0
VERTEX
  5
194
330
18A
100
AcDbEntity
  8
STANDARDEBENE
 62
     7
100
AcDbVertex
100
AcDb2dVertex
 10
69.40971677952257
 20
159.7037746454039
 30
0.0
  0
VERTEX
  5
195
330
18A
100
AcDbEntity
  8
STANDARDEBENE
 62
     7
100
AcDbVertex
100
AcDb2dVertex
 10
69.41385089410487
 20
159.6963676901106
 30
0.0
  0
VERTEX
  5
196
330
18A
100
AcDbEntity
  8
STANDARDEBENE
 62
     7
100
AcDbVertex
100
AcDb2dVertex
 10
69.41884628255849
 20
159.6872381870747
 30
0.0
  0
VERTEX
  5
197
330
18A
100
AcDbEntity
  8
STANDARDEBENE
 62
     7
100
AcDbVertex
100
AcDb2dVertex
 10
69.422463632818
 20
159.6803479961042
 30
0.0
  0
VERTEX
  5
198
330
18A
100
AcDbEntity
  8
STANDARDEBENE
 62
     7
100
AcDbVertex
100
AcDb2dVertex
 10
69.42453069010915
 20
159.6756971171991
 30
0.0
  0
VERTEX
  5
199
330
18A
100
AcDbEntity
  8
STANDARDEBENE
 62
     7
100
AcDbVertex
100
AcDb2dVertex
 10
69.42539196398046
 20
159.6741468242308
 30
0.0
  0
SEQEND
  5
19A
330
18A
100
AcDbEntity
  8
STANDARDEBENE
  0
POLYLINE
  5
19B
330
1F
100
AcDbEntity
  8
STANDARDEBENE
 62
     7
100
AcDb2dPolyline
 66
     1
 10
0.0
 20
0.0
 30
0.0
  0
VERTEX
  5
19C
330
19B
100
AcDbEntity
  8
STANDARDEBENE
 62
     7
100
AcDbVertex
100
AcDb2dVertex
 10
65.38653427184781
 20
159.6391791050555
 30
0.0
  0
VERTEX
  5
19D
330
19B
100
AcDbEntity
  8
STANDARDEBENE
 62
     7
100
AcDbVertex
100
AcDb2dVertex
 10
65.3898071125588
 20
159.6448635126062
 30
0.0
  0
VERTEX
  5
19E
330
19B
100
AcDbEntity
  8
STANDARDEBENE
 62
     7
100
AcDbVertex
100
AcDb2dVertex
 10
65.3980753417234
 20
159.6608832066126
 30
0.0
  0
VERTEX
  5
19F
330
19B
100
AcDbEntity
  8
STANDARDEBENE
 62
     7
100
AcDbVertex
100
AcDb2dVertex
 10
65.4159898382467
 20
159.6953341614651
 30
0.0
  0
VERTEX
  5
1A0
330
19B
100
AcDbEntity
  8
STANDARDEBENE
 62
     7
100
AcDbVertex
100
AcDb2dVertex
 10
65.44802922625952
 20
159.7557955872312
 30
0.0
  0
VERTEX
  5
1A1
330
19B
100
AcDbEntity
  8
STANDARDEBENE
 62
     7
100
AcDbVertex
100
AcDb2dVertex
 10
65.48041312382087
 20
159.8164292677716
 30
0.0
  0
VERTEX
  5
1A2
330
19B
100
AcDbEntity
  8
STANDARDEBENE
 62
     7
100
AcDbVertex
100
AcDb2dVertex
 10
65.48127439769219
 20
159.8178073059657
 30
0.0
  0
SEQEND
  5
1A3
330
19B
100
AcDbEntity
  8
STANDARDEBENE
  0
POLYLINE
  5
1A4
330
1F
100
AcDbEntity
  8
STANDARDEBENE
 62
     7
100
AcDb2dPolyline
 66
     1
 10
0.0
 20
0.0
 30
0.0
  0
VERTEX
  5
1A5
330
1A4
100
AcDbEntity
  8
STANDARDEBENE
 62
     7
100
AcDbVertex
100
AcDb2dVertex
 10
64.88699542648659
 20
161.503837036447
 30
0.0
  0
VERTEX
  5
1A6
330
1A4
100
AcDbEntity
  8
STANDARDEBENE
 62
     7
100
AcDbVertex
100
AcDb2dVertex
 10
64.88871797422921
 20
161.5031480173499
 30
0.0
  0
VERTEX
  5
1A7
330
1A4
100
AcDbEntity
  8
STANDARDEBENE
 62
     7
100
AcDbVertex
100
AcDb2dVertex
 10
64.89285208881151
 20
161.500564195736
 30
0.0
  0
VERTEX
  5
1A8
330
1A4
100
AcDbEntity
  8
STANDARDEBENE
 62
     7
100
AcDbVertex
100
AcDb2dVertex
 10
64.90008678933053
 20
161.4969468454765
 30
0.0
  0
VERTEX
  5
1A9
330
1A4
100
AcDbEntity
  8
STANDARDEBENE
 62
     7
100
AcDbVertex
100
AcDb2dVertex
 10
64.90938854714071
 20
161.4919514570229
 30
0.0
  0
VERTEX
  5
1AA
330
1A4
100
AcDbEntity
  8
STANDARDEBENE
 62
     7
100
AcDbVertex
100
AcDb2dVertex
 10
64.916795502434
 20
161.4881618519891
 30
0.0
  0
VERTEX
  5
1AB
330
1A4
100
AcDbEntity
  8
STANDARDEBENE
 62
     7
100
AcDbVertex
100
AcDb2dVertex
 10
64.92454696727582
 20
161.483510973084
 30
0.0
  0
VERTEX
  5
1AC
330
1A4
100
AcDbEntity
  8
STANDARDEBENE
 62
     7
100
AcDbVertex
100
AcDb2dVertex
 10
64.94315048289616
 20
161.4740369604995
 30
0.0
  0
VERTEX
  5
1AD
330
1A4
100
AcDbEntity
  8
STANDARDEBENE
 62
     7
100
AcDbVertex
100
AcDb2dVertex
 10
64.95606959096585
 20
161.4668022599805
 30
0.0
  0
VERTEX
  5
1AE
330
1A4
100
AcDbEntity
  8
STANDARDEBENE
 62
     7
100
AcDbVertex
100
AcDb2dVertex
 10
64.96950546335832
 20
161.4593953046872
 30
0.0
  0
VERTEX
  5
1AF
330
1A4
100
AcDbEntity
  8
STANDARDEBENE
 62
     7
100
AcDbVertex
100
AcDb2dVertex
 10
64.98397486439637
 20
161.4518160946197
 30
0.0
  0
VERTEX
  5
1B0
330
1A4
100
AcDbEntity
  8
STANDARDEBENE
 62
     7
100
AcDbVertex
100
AcDb2dVertex
 10
64.99896102975721
 20
161.4435478654551
 30
0.0
  0
VERTEX
  5
1B1
330
1A4
100
AcDbEntity
  8
STANDARDEBENE
 62
     7
100
AcDbVertex
100
AcDb2dVertex
 10
65.0251437554451
 20
161.4292507191913
 30
0.0
  0
VERTEX
  5
1B2
330
1A4
100
AcDbEntity
  8
STANDARDEBENE
 62
     7
100
AcDbVertex
100
AcDb2dVertex
 10
65.05201550023006
 20
161.4147813181532
 30
0.0
  0
VERTEX
  5
1B3
330
1A4
100
AcDbEntity
  8
STANDARDEBENE
 62
     7
100
AcDbVertex
100
AcDb2dVertex
 10
65.05339353842416
 20
161.4142645538305
 30
0.0
  0
SEQEND
  5
1B4
330
1A4
100
AcDbEntity
  8
STANDARDEBENE
  0
POLYLINE
  5
1B5
330
1F
100
AcDbEntity
  8
STANDARDEBENE
 62
     7
100
AcDb2dPolyline
 66
     1
 10
0.0
 20
0.0
 30
0.0
  0
VERTEX
  5
1B6
330
1B5
100
AcDbEntity
  8
STANDARDEBENE
 62
     7
100
AcDbVertex
100
AcDb2dVertex
 10
69.75801593308134
 20
161.4457871775205
 30
0.0
  0
VERTEX
  5
1B7
330
1B5
100
AcDbEntity
  8
STANDARDEBENE
 62
     7
100
AcDbVertex
100
AcDb2dVertex
 10
69.75939397127543
 20
161.4464761966176
 30
0.0
  0
VERTEX
  5
1B8
330
1B5
100
AcDbEntity
  8
STANDARDEBENE
 62
     7
100
AcDbVertex
100
AcDb2dVertex
 10
69.78626571606038
 20
161.4611178524299
 30
0.0
  0
VERTEX
  5
1B9
330
1B5
100
AcDbEntity
  8
STANDARDEBENE
 62
     7
100
AcDbVertex
100
AcDb2dVertex
 10
69.81262069652254
 20
161.4761040177907
 30
0.0
  0
VERTEX
  5
1BA
330
1B5
100
AcDbEntity
  8
STANDARDEBENE
 62
     7
100
AcDbVertex
100
AcDb2dVertex
 10
69.82743460710911
 20
161.4838554826325
 30
0.0
  0
VERTEX
  5
1BB
330
1B5
100
AcDbEntity
  8
STANDARDEBENE
 62
     7
100
AcDbVertex
100
AcDb2dVertex
 10
69.84138724382439
 20
161.4917792022486
 30
0.0
  0
VERTEX
  5
1BC
330
1B5
100
AcDbEntity
  8
STANDARDEBENE
 62
     7
100
AcDbVertex
100
AcDb2dVertex
 10
69.85533988053965
 20
161.4993584123161
 30
0.0
  0
VERTEX
  5
1BD
330
1B5
100
AcDbEntity
  8
STANDARDEBENE
 62
     7
100
AcDbVertex
100
AcDb2dVertex
 10
69.86912026248064
 20
161.5067653676094
 30
0.0
  0
VERTEX
  5
1BE
330
1B5
100
AcDbEntity
  8
STANDARDEBENE
 62
     7
100
AcDbVertex
100
AcDb2dVertex
 10
69.88669024945541
 20
161.5164116349681
 30
0.0
  0
VERTEX
  5
1BF
330
1B5
100
AcDbEntity
  8
STANDARDEBENE
 62
     7
100
AcDbVertex
100
AcDb2dVertex
 10
69.89513073339428
 20
161.520890259099
 30
0.0
  0
VERTEX
  5
1C0
330
1B5
100
AcDbEntity
  8
STANDARDEBENE
 62
     7
100
AcDbVertex
100
AcDb2dVertex
 10
69.90270994346183
 20
161.5251966284555
 30
0.0
  0
VERTEX
  5
1C1
330
1B5
100
AcDbEntity
  8
STANDARDEBENE
 62
     7
100
AcDbVertex
100
AcDb2dVertex
 10
69.91149493694921
 20
161.5301920169091
 30
0.0
  0
VERTEX
  5
1C2
330
1B5
100
AcDbEntity
  8
STANDARDEBENE
 62
     7
100
AcDbVertex
100
AcDb2dVertex
 10
69.91872963746823
 20
161.5339816219429
 30
0.0
  0
VERTEX
  5
1C3
330
1B5
100
AcDbEntity
  8
STANDARDEBENE
 62
     7
100
AcDbVertex
100
AcDb2dVertex
 10
69.92320826159906
 20
161.5363931887826
 30
0.0
  0
VERTEX
  5
1C4
330
1B5
100
AcDbEntity
  8
STANDARDEBENE
 62
     7
100
AcDbVertex
100
AcDb2dVertex
 10
69.92458629979316
 20
161.5370822078796
 30
0.0
  0
SEQEND
  5
1C5
330
1B5
100
AcDbEntity
  8
STANDARDEBENE
  0
POLYLINE
  5
1C6
330
1F
100
AcDbEntity
  8
STANDARDEBENE
 62
     7
100
AcDb2dPolyline
 66
     1
 10
0.0
 20
0.0
 30
0.0
  0
VERTEX
  5
1C7
330
1C6
100
AcDbEntity
  8
STANDARDEBENE
 62
     7
100
AcDbVertex
100
AcDb2dVertex
 10
73.49990639438545
 20
155.278894004149
 30
0.0
  0
VERTEX
  5
1C8
330
1C6
100
AcDbEntity
  8
STANDARDEBENE
 62
     7
100
AcDbVertex
100
AcDb2dVertex
 10
73.49904512051413
 20
155.2775159659549
 30
0.0
  0
VERTEX
  5
1C9
330
1C6
100
AcDbEntity
  8
STANDARDEBENE
 62
     7
100
AcDbVertex
100
AcDb2dVertex
 10
73.48130287876509
 20
155.2485771638788
 30
0.0
  0
VERTEX
  5
1CA
330
1C6
100
AcDbEntity
  8
STANDARDEBENE
 62
     7
100
AcDbVertex
100
AcDb2dVertex
 10
73.46407740133884
 20
155.2199828713512
 30
0.0
  0
VERTEX
  5
1CB
330
1C6
100
AcDbEntity
  8
STANDARDEBENE
 62
     7
100
AcDbVertex
100
AcDb2dVertex
 10
73.45494789830293
 20
155.2051689607647
 30
0.0
  0
VERTEX
  5
1CC
330
1C6
100
AcDbEntity
  8
STANDARDEBENE
 62
     7
100
AcDbVertex
100
AcDb2dVertex
 10
73.44581839526703
 20
155.1905273049524
 30
0.0
  0
VERTEX
  5
1CD
330
1C6
100
AcDbEntity
  8
STANDARDEBENE
 62
     7
100
AcDbVertex
100
AcDb2dVertex
 10
73.4366888922311
 20
155.1762301586886
 30
0.0
  0
VERTEX
  5
1CE
330
1C6
100
AcDbEntity
  8
STANDARDEBENE
 62
     7
100
AcDbVertex
100
AcDb2dVertex
 10
73.42824840829225
 20
155.1622775219733
 30
0.0
  0
VERTEX
  5
1CF
330
1C6
100
AcDbEntity
  8
STANDARDEBENE
 62
     7
100
AcDbVertex
100
AcDb2dVertex
 10
73.41756861228797
 20
155.1450520445471
 30
0.0
  0
VERTEX
  5
1D0
330
1C6
100
AcDbEntity
  8
STANDARDEBENE
 62
     7
100
AcDbVertex
100
AcDb2dVertex
 10
73.4124009690601
 20
155.1366115606082
 30
0.0
  0
VERTEX
  5
1D1
330
1C6
100
AcDbEntity
  8
STANDARDEBENE
 62
     7
100
AcDbVertex
100
AcDb2dVertex
 10
73.407750090155
 20
155.1295491148635
 30
0.0
  0
VERTEX
  5
1D2
330
1C6
100
AcDbEntity
  8
STANDARDEBENE
 62
     7
100
AcDbVertex
100
AcDb2dVertex
 10
73.40258244692714
 20
155.1207641213761
 30
0.0
  0
VERTEX
  5
1D3
330
1C6
100
AcDbEntity
  8
STANDARDEBENE
 62
     7
100
AcDbVertex
100
AcDb2dVertex
 10
73.39827607757057
 20
155.1140461851798
 30
0.0
  0
VERTEX
  5
1D4
330
1C6
100
AcDbEntity
  8
STANDARDEBENE
 62
     7
100
AcDbVertex
100
AcDb2dVertex
 10
73.39552000118238
 20
155.1099120705975
 30
0.0
  0
VERTEX
  5
1D5
330
1C6
100
AcDbEntity
  8
STANDARDEBENE
 62
     7
100
AcDbVertex
100
AcDb2dVertex
 10
73.39465872731107
 20
155.1081895228549
 30
0.0
  0
SEQEND
  5
1D6
330
1C6
100
AcDbEntity
  8
STANDARDEBENE
  0
POLYLINE
  5
1D7
330
1F
100
AcDbEntity
  8
STANDARDEBENE
 62
     7
100
AcDb2dPolyline
 66
     1
 10
0.0
 20
0.0
 30
0.0
  0
VERTEX
  5
1D8
330
1D7
100
AcDbEntity
  8
STANDARDEBENE
 62
     7
100
AcDbVertex
100
AcDb2dVertex
 10
71.34482691358741
 20
158.5884249820543
 30
0.0
  0
VERTEX
  5
1D9
330
1D7
100
AcDbEntity
  8
STANDARDEBENE
 62
     7
100
AcDbVertex
100
AcDb2dVertex
 10
71.35154484978365
 20
158.5887694916028
 30
0.0
  0
VERTEX
  5
1DA
330
1D7
100
AcDbEntity
  8
STANDARDEBENE
 62
     7
100
AcDbVertex
100
AcDb2dVertex
 10
71.36928709153268
 20
158.5896307654741
 30
0.0
  0
VERTEX
  5
1DB
330
1D7
100
AcDbEntity
  8
STANDARDEBENE
 62
     7
100
AcDbVertex
100
AcDb2dVertex
 10
71.40838892529027
 20
158.590836548894
 30
0.0
  0
VERTEX
  5
1DC
330
1D7
100
AcDbEntity
  8
STANDARDEBENE
 62
     7
100
AcDbVertex
100
AcDb2dVertex
 10
71.47660181589822
 20
158.5935926252822
 30
0.0
  0
VERTEX
  5
1DD
330
1D7
100
AcDbEntity
  8
STANDARDEBENE
 62
     7
100
AcDbVertex
100
AcDb2dVertex
 10
71.54498696128043
 20
158.5961764468961
 30
0.0
  0
VERTEX
  5
1DE
330
1D7
100
AcDbEntity
  8
STANDARDEBENE
 62
     7
100
AcDbVertex
100
AcDb2dVertex
 10
71.54670950902305
 20
158.5961764468961
 30
0.0
  0
SEQEND
  5
1DF
330
1D7
100
AcDbEntity
  8
STANDARDEBENE
  0
POLYLINE
  5
1E0
330
1F
100
AcDbEntity
  8
STANDARDEBENE
 62
     7
100
AcDb2dPolyline
 66
     1
 10
0.0
 20
0.0
 30
0.0
  0
VERTEX
  5
1E1
330
1E0
100
AcDbEntity
  8
STANDARDEBENE
 62
     7
100
AcDbVertex
100
AcDb2dVertex
 10
72.70977374484339
 20
159.9538885776331
 30
0.0
  0
VERTEX
  5
1E2
330
1E0
100
AcDbEntity
  8
STANDARDEBENE
 62
     7
100
AcDbVertex
100
AcDb2dVertex
 10
72.70994599961766
 20
159.946653877114
 30
0.0
  0
VERTEX
  5
1E3
330
1E0
100
AcDbEntity
  8
STANDARDEBENE
 62
     7
100
AcDbVertex
100
AcDb2dVertex
 10
72.71063501871471
 20
159.9283948710422
 30
0.0
  0
VERTEX
  5
1E4
330
1E0
100
AcDbEntity
  8
STANDARDEBENE
 62
     7
100
AcDbVertex
100
AcDb2dVertex
 10
72.71184080213455
 20
159.890154311156
 30
0.0
  0
VERTEX
  5
1E5
330
1E0
100
AcDbEntity
  8
STANDARDEBENE
 62
     7
100
AcDbVertex
100
AcDb2dVertex
 10
72.71356334987716
 20
159.8267645542273
 30
0.0
  0
VERTEX
  5
1E6
330
1E0
100
AcDbEntity
  8
STANDARDEBENE
 62
     7
100
AcDbVertex
100
AcDb2dVertex
 10
72.7152858976198
 20
159.7663031284612
 30
0.0
  0
VERTEX
  5
1E7
330
1E0
100
AcDbEntity
  8
STANDARDEBENE
 62
     7
100
AcDbVertex
100
AcDb2dVertex
 10
72.7152858976198
 20
159.7645805807186
 30
0.0
  0
SEQEND
  5
1E8
330
1E0
100
AcDbEntity
  8
STANDARDEBENE
  0
POLYLINE
  5
1E9
330
1F
100
AcDbEntity
  8
STANDARDEBENE
 62
     7
100
AcDb2dPolyline
 66
     1
 10
0.0
 20
0.0
 30
0.0
  0
VERTEX
  5
1EA
330
1E9
100
AcDbEntity
  8
STANDARDEBENE
 62
     7
100
AcDbVertex
100
AcDb2dVertex
 10
75.09515785883038
 20
155.70608584432
 30
0.0
  0
VERTEX
  5
1EB
330
1E9
100
AcDbEntity
  8
STANDARDEBENE
 62
     7
100
AcDbVertex
100
AcDb2dVertex
 10
75.09653589702448
 20
155.7050523156744
 30
0.0
  0
VERTEX
  5
1EC
330
1E9
100
AcDbEntity
  8
STANDARDEBENE
 62
     7
100
AcDbVertex
100
AcDb2dVertex
 10
75.12254636793811
 20
155.6897216407651
 30
0.0
  0
VERTEX
  5
1ED
330
1E9
100
AcDbEntity
  8
STANDARDEBENE
 62
     7
100
AcDbVertex
100
AcDb2dVertex
 10
75.14872909362602
 20
155.6738742015329
 30
0.0
  0
VERTEX
  5
1EE
330
1E9
100
AcDbEntity
  8
STANDARDEBENE
 62
     7
100
AcDbVertex
100
AcDb2dVertex
 10
75.1630262398898
 20
155.6654337175941
 30
0.0
  0
VERTEX
  5
1EF
330
1E9
100
AcDbEntity
  8
STANDARDEBENE
 62
     7
100
AcDbVertex
100
AcDb2dVertex
 10
75.1768066218308
 20
155.6571654884295
 30
0.0
  0
VERTEX
  5
1F0
330
1E9
100
AcDbEntity
  8
STANDARDEBENE
 62
     7
100
AcDbVertex
100
AcDb2dVertex
 10
75.19007023944901
 20
155.6487250044906
 30
0.0
  0
VERTEX
  5
1F1
330
1E9
100
AcDbEntity
  8
STANDARDEBENE
 62
     7
100
AcDbVertex
100
AcDb2dVertex
 10
75.20333385706722
 20
155.6406290301003
 30
0.0
  0
VERTEX
  5
1F2
330
1E9
100
AcDbEntity
  8
STANDARDEBENE
 62
     7
100
AcDbVertex
100
AcDb2dVertex
 10
75.22073158926774
 20
155.6301214888703
 30
0.0
  0
VERTEX
  5
1F3
330
1E9
100
AcDbEntity
  8
STANDARDEBENE
 62
     7
100
AcDbVertex
100
AcDb2dVertex
 10
75.22865530888382
 20
155.6251261004167
 30
0.0
  0
VERTEX
  5
1F4
330
1E9
100
AcDbEntity
  8
STANDARDEBENE
 62
     7
100
AcDbVertex
100
AcDb2dVertex
 10
75.23589000940284
 20
155.6208197310601
 30
0.0
  0
VERTEX
  5
1F5
330
1E9
100
AcDbEntity
  8
STANDARDEBENE
 62
     7
100
AcDbVertex
100
AcDb2dVertex
 10
75.24501951243874
 20
155.6151353235094
 30
0.0
  0
VERTEX
  5
1F6
330
1E9
100
AcDbEntity
  8
STANDARDEBENE
 62
     7
100
AcDbVertex
100
AcDb2dVertex
 10
75.25173744863498
 20
155.6108289541529
 30
0.0
  0
VERTEX
  5
1F7
330
1E9
100
AcDbEntity
  8
STANDARDEBENE
 62
     7
100
AcDbVertex
100
AcDb2dVertex
 10
75.25621607276581
 20
155.6085896420875
 30
0.0
  0
VERTEX
  5
1F8
330
1E9
100
AcDbEntity
  8
STANDARDEBENE
 62
     7
100
AcDbVertex
100
AcDb2dVertex
 10
75.25742185618564
 20
155.6075561134419
 30
0.0
  0
SEQEND
  5
1F9
330
1E9
100
AcDbEntity
  8
STANDARDEBENE
  0
POLYLINE
  5
1FA
330
1F
100
AcDbEntity
  8
STANDARDEBENE
 62
     7
100
AcDb2dPolyline
 66
     1
 10
0.0
 20
0.0
 30
0.0
  0
VERTEX
  5
1FB
330
1FA
100
AcDbEntity
  8
STANDARDEBENE
 62
     7
100
AcDbVertex
100
AcDb2dVertex
 10
71.34482691358741
 20
158.5884249820543
 30
0.0
  0
VERTEX
  5
1FC
330
1FA
100
AcDbEntity
  8
STANDARDEBENE
 62
     7
100
AcDbVertex
100
AcDb2dVertex
 10
71.3379367226169
 20
158.5880804725058
 30
0.0
  0
VERTEX
  5
1FD
330
1FA
100
AcDbEntity
  8
STANDARDEBENE
 62
     7
100
AcDbVertex
100
AcDb2dVertex
 10
71.32002222609361
 20
158.5872191986344
 30
0.0
  0
VERTEX
  5
1FE
330
1FA
100
AcDbEntity
  8
STANDARDEBENE
 62
     7
100
AcDbVertex
100
AcDb2dVertex
 10
71.28160941143307
 20
158.5854966508918
 30
0.0
  0
VERTEX
  5
1FF
330
1FA
100
AcDbEntity
  8
STANDARDEBENE
 62
     7
100
AcDbVertex
100
AcDb2dVertex
 10
71.21322426605086
 20
158.5822238101808
 30
0.0
  0
VERTEX
  5
200
330
1FA
100
AcDbEntity
  8
STANDARDEBENE
 62
     7
100
AcDbVertex
100
AcDb2dVertex
 10
71.14173853473193
 20
158.5784342051471
 30
0.0
  0
VERTEX
  5
201
330
1FA
100
AcDbEntity
  8
STANDARDEBENE
 62
     7
100
AcDbVertex
100
AcDb2dVertex
 10
71.14001598698931
 20
158.5780896955985
 30
0.0
  0
SEQEND
  5
202
330
1FA
100
AcDbEntity
  8
STANDARDEBENE
  0
POLYLINE
  5
203
330
1F
100
AcDbEntity
  8
STANDARDEBENE
 62
     7
100
AcDb2dPolyline
 66
     1
 10
0.0
 20
0.0
 30
0.0
  0
VERTEX
  5
204
330
203
100
AcDbEntity
  8
STANDARDEBENE
 62
     7
100
AcDbVertex
100
AcDb2dVertex
 10
73.39465872731107
 20
155.1081895228549
 30
0.0
  0
VERTEX
  5
205
330
203
100
AcDbEntity
  8
STANDARDEBENE
 62
     7
100
AcDbVertex
100
AcDb2dVertex
 10
73.39379745343975
 20
155.1068114846608
 30
0.0
  0
VERTEX
  5
206
330
203
100
AcDbEntity
  8
STANDARDEBENE
 62
     7
100
AcDbVertex
100
AcDb2dVertex
 10
73.3912136318258
 20
155.1025051153042
 30
0.0
  0
VERTEX
  5
207
330
203
100
AcDbEntity
  8
STANDARDEBENE
 62
     7
100
AcDbVertex
100
AcDb2dVertex
 10
73.3870795172435
 20
155.0961316886565
 30
0.0
  0
VERTEX
  5
208
330
203
100
AcDbEntity
  8
STANDARDEBENE
 62
     7
100
AcDbVertex
100
AcDb2dVertex
 10
73.38139510969285
 20
155.0871744403949
 30
0.0
  0
VERTEX
  5
209
330
203
100
AcDbEntity
  8
STANDARDEBENE
 62
     7
100
AcDbVertex
100
AcDb2dVertex
 10
73.37743324988482
 20
155.0802842494244
 30
0.0
  0
VERTEX
  5
20A
330
203
100
AcDbEntity
  8
STANDARDEBENE
 62
     7
100
AcDbVertex
100
AcDb2dVertex
 10
73.37209335188267
 20
155.0727050393568
 30
0.0
  0
VERTEX
  5
20B
330
203
100
AcDbEntity
  8
STANDARDEBENE
 62
     7
100
AcDbVertex
100
AcDb2dVertex
 10
73.36106904632987
 20
155.0546182880593
 30
0.0
  0
VERTEX
  5
20C
330
203
100
AcDbEntity
  8
STANDARDEBENE
 62
     7
100
AcDbVertex
100
AcDb2dVertex
 10
73.35245630761675
 20
155.0413546704411
 30
0.0
  0
VERTEX
  5
20D
330
203
100
AcDbEntity
  8
STANDARDEBENE
 62
     7
100
AcDbVertex
100
AcDb2dVertex
 10
73.34384356890362
 20
155.0274020337258
 30
0.0
  0
VERTEX
  5
20E
330
203
100
AcDbEntity
  8
STANDARDEBENE
 62
     7
100
AcDbVertex
100
AcDb2dVertex
 10
73.33436955631919
 20
155.012415868365
 30
0.0
  0
VERTEX
  5
20F
330
203
100
AcDbEntity
  8
STANDARDEBENE
 62
     7
100
AcDbVertex
100
AcDb2dVertex
 10
73.32455103418623
 20
154.9970851934556
 30
0.0
  0
VERTEX
  5
210
330
203
100
AcDbEntity
  8
STANDARDEBENE
 62
     7
100
AcDbVertex
100
AcDb2dVertex
 10
73.31542153115032
 20
154.9827880471918
 30
0.0
  0
VERTEX
  5
211
330
203
100
AcDbEntity
  8
STANDARDEBENE
 62
     7
100
AcDbVertex
100
AcDb2dVertex
 10
73.30611977334014
 20
154.9681463913795
 30
0.0
  0
VERTEX
  5
212
330
203
100
AcDbEntity
  8
STANDARDEBENE
 62
     7
100
AcDbVertex
100
AcDb2dVertex
 10
73.28717174817126
 20
154.9383463154321
 30
0.0
  0
VERTEX
  5
213
330
203
100
AcDbEntity
  8
STANDARDEBENE
 62
     7
100
AcDbVertex
100
AcDb2dVertex
 10
73.2861382195257
 20
154.936968277238
 30
0.0
  0
SEQEND
  5
214
330
203
100
AcDbEntity
  8
STANDARDEBENE
  0
POLYLINE
  5
215
330
1F
100
AcDbEntity
  8
STANDARDEBENE
 62
     7
100
AcDb2dPolyline
 66
     1
 10
0.0
 20
0.0
 30
0.0
  0
VERTEX
  5
216
330
215
100
AcDbEntity
  8
STANDARDEBENE
 62
     7
100
AcDbVertex
100
AcDb2dVertex
 10
65.38653427184781
 20
159.6391791050555
 30
0.0
  0
VERTEX
  5
217
330
215
100
AcDbEntity
  8
STANDARDEBENE
 62
     7
100
AcDbVertex
100
AcDb2dVertex
 10
65.38343368591109
 20
159.632977933182
 30
0.0
  0
VERTEX
  5
218
330
215
100
AcDbEntity
  8
STANDARDEBENE
 62
     7
100
AcDbVertex
100
AcDb2dVertex
 10
65.37516545674649
 20
159.6171304939499
 30
0.0
  0
VERTEX
  5
219
330
215
100
AcDbEntity
  8
STANDARDEBENE
 62
     7
100
AcDbVertex
100
AcDb2dVertex
 10
65.35742321499745
 20
159.5828517938717
 30
0.0
  0
VERTEX
  5
21A
330
215
100
AcDbEntity
  8
STANDARDEBENE
 62
     7
100
AcDbVertex
100
AcDb2dVertex
 10
65.3264173556302
 20
159.5218736037827
 30
0.0
  0
VERTEX
  5
21B
330
215
100
AcDbEntity
  8
STANDARDEBENE
 62
     7
100
AcDbVertex
100
AcDb2dVertex
 10
65.2938612032946
 20
159.4583115920799
 30
0.0
  0
VERTEX
  5
21C
330
215
100
AcDbEntity
  8
STANDARDEBENE
 62
     7
100
AcDbVertex
100
AcDb2dVertex
 10
65.29299992942327
 20
159.456416789563
 30
0.0
  0
SEQEND
  5
21D
330
215
100
AcDbEntity
  8
STANDARDEBENE
  0
POLYLINE
  5
21E
330
1F
100
AcDbEntity
  8
STANDARDEBENE
 62
     7
100
AcDb2dPolyline
 66
     1
 10
0.0
 20
0.0
 30
0.0
  0
VERTEX
  5
21F
330
21E
100
AcDbEntity
  8
STANDARDEBENE
 62
     7
100
AcDbVertex
100
AcDb2dVertex
 10
69.42539196398046
 20
159.6741468242308
 30
0.0
  0
VERTEX
  5
220
330
21E
100
AcDbEntity
  8
STANDARDEBENE
 62
     7
100
AcDbVertex
100
AcDb2dVertex
 10
69.42608098307751
 20
159.6729410408109
 30
0.0
  0
VERTEX
  5
221
330
21E
100
AcDbEntity
  8
STANDARDEBENE
 62
     7
100
AcDbVertex
100
AcDb2dVertex
 10
69.4288370594657
 20
159.6684624166801
 30
0.0
  0
VERTEX
  5
222
330
21E
100
AcDbEntity
  8
STANDARDEBENE
 62
     7
100
AcDbVertex
100
AcDb2dVertex
 10
69.4321099001767
 20
159.6615722257096
 30
0.0
  0
VERTEX
  5
223
330
21E
100
AcDbEntity
  8
STANDARDEBENE
 62
     7
100
AcDbVertex
100
AcDb2dVertex
 10
69.43727754340458
 20
159.6524427226737
 30
0.0
  0
VERTEX
  5
224
330
21E
100
AcDbEntity
  8
STANDARDEBENE
 62
     7
100
AcDbVertex
100
AcDb2dVertex
 10
69.44106714843835
 20
159.6448635126062
 30
0.0
  0
VERTEX
  5
225
330
21E
100
AcDbEntity
  8
STANDARDEBENE
 62
     7
100
AcDbVertex
100
AcDb2dVertex
 10
69.44554577256918
 20
159.6367675382158
 30
0.0
  0
VERTEX
  5
226
330
21E
100
AcDbEntity
  8
STANDARDEBENE
 62
     7
100
AcDbVertex
100
AcDb2dVertex
 10
69.45501978515361
 20
159.618508532144
 30
0.0
  0
VERTEX
  5
227
330
21E
100
AcDbEntity
  8
STANDARDEBENE
 62
     7
100
AcDbVertex
100
AcDb2dVertex
 10
69.46259899522116
 20
159.6045558954287
 30
0.0
  0
VERTEX
  5
228
330
21E
100
AcDbEntity
  8
STANDARDEBENE
 62
     7
100
AcDbVertex
100
AcDb2dVertex
 10
69.4701782052887
 20
159.5899142396164
 30
0.0
  0
VERTEX
  5
229
330
21E
100
AcDbEntity
  8
STANDARDEBENE
 62
     7
100
AcDbVertex
100
AcDb2dVertex
 10
69.4784464344533
 20
159.5740668003843
 30
0.0
  0
VERTEX
  5
22A
330
21E
100
AcDbEntity
  8
STANDARDEBENE
 62
     7
100
AcDbVertex
100
AcDb2dVertex
 10
69.48688691839217
 20
159.5582193611521
 30
0.0
  0
VERTEX
  5
22B
330
21E
100
AcDbEntity
  8
STANDARDEBENE
 62
     7
100
AcDbVertex
100
AcDb2dVertex
 10
69.49446612845972
 20
159.543060941017
 30
0.0
  0
VERTEX
  5
22C
330
21E
100
AcDbEntity
  8
STANDARDEBENE
 62
     7
100
AcDbVertex
100
AcDb2dVertex
 10
69.50273435762432
 20
159.5275580113334
 30
0.0
  0
VERTEX
  5
22D
330
21E
100
AcDbEntity
  8
STANDARDEBENE
 62
     7
100
AcDbVertex
100
AcDb2dVertex
 10
69.51892630640499
 20
159.4958631328691
 30
0.0
  0
VERTEX
  5
22E
330
21E
100
AcDbEntity
  8
STANDARDEBENE
 62
     7
100
AcDbVertex
100
AcDb2dVertex
 10
69.51961532550204
 20
159.494485094675
 30
0.0
  0
SEQEND
  5
22F
330
21E
100
AcDbEntity
  8
STANDARDEBENE
  0
POLYLINE
  5
231
330
1F
100
AcDbEntity
  8
GRAU_10_
 62
     7
100
AcDb2dPolyline
 66
     1
 10
0.0
 20
0.0
 30
0.0
  0
VERTEX
  5
232
330
231
100
AcDbEntity
  8
GRAU_10_
 62
     7
100
AcDbVertex
100
AcDb2dVertex
 10
67.40312091413881
 20
161.9286173097783
 30
0.0
  0
VERTEX
  5
233
330
231
100
AcDbEntity
  8
GRAU_10_
 62
     7
100
AcDbVertex
100
AcDb2dVertex
 10
55.3525214162834
 20
161.9286173097783
 30
0.0
  0
SEQEND
  5
234
330
231
100
AcDbEntity
  8
GRAU_10_
  0
POLYLINE
  5
235
330
1F
100
AcDbEntity
  8
GRAU_10_
 62
     7
100
AcDb2dPolyline
 66
     1
 10
0.0
 20
0.0
 30
0.0
  0
VERTEX
  5
236
330
235
100
AcDbEntity
  8
GRAU_10_
 62
     7
100
AcDbVertex
100
AcDb2dVertex
 10
67.45600312983738
 20
145.9788587417171
 30
0.0
  0
VERTEX
  5
237
330
235
100
AcDbEntity
  8
GRAU_10_
 62
     7
100
AcDbVertex
100
AcDb2dVertex
 10
55.3525214162834
 20
145.9788587417171
 30
0.0
  0
SEQEND
  5
238
330
235
100
AcDbEntity
  8
GRAU_10_
  0
POLYLINE
  5
239
330
1F
100
AcDbEntity
  8
GRAU_10_
 62
     7
100
AcDb2dPolyline
 66
     1
 10
0.0
 20
0.0
 30
0.0
  0
VERTEX
  5
23A
330
239
100
AcDbEntity
  8
GRAU_10_
 62
     7
100
AcDbVertex
100
AcDb2dVertex
 10
56.45236814994941
 20
161.9286173097783
 30
0.0
  0
VERTEX
  5
23B
330
239
100
AcDbEntity
  8
GRAU_10_
 62
     7
100
AcDbVertex
100
AcDb2dVertex
 10
56.45236814994941
 20
145.9788587417171
 30
0.0
  0
SEQEND
  5
23C
330
239
100
AcDbEntity
  8
GRAU_10_
  0
MTEXT
  5
23D
330
1F
100
AcDbEntity
  8
GRAU_10_
 62
     7
100
AcDbMText
 10
55.81209715401573
 20
153.2161430823557
 30
0.0
 40
2.398888888289167
 41
0.0
 71
     7
 72
     1
  1
\fINDEX Univers 45 Light|b0|i0|c0|p34;\W1;A
 11
-4.371139000186241E-8
 21
0.999999999999999
 31
0.0
  0
POLYLINE
  5
23E
330
1F
100
AcDbEntity
  8
GRAU_10_
 62
     7
100
AcDb2dPolyline
 66
     1
 10
0.0
 20
0.0
 30
0.0
  0
VERTEX
  5
23F
330
23E
100
AcDbEntity
  8
GRAU_10_
 62
     7
100
AcDbVertex
100
AcDb2dVertex
 10
56.45236814994941
 20
161.9286173097783
 30
0.0
  0
VERTEX
  5
240
330
23E
100
AcDbEntity
  8
GRAU_10_
 62
     7
100
AcDbVertex
100
AcDb2dVertex
 10
56.27132838219953
 20
160.5536797016151
 30
0.0
  0
VERTEX
  5
241
330
23E
100
AcDbEntity
  8
GRAU_10_
 62
     7
100
AcDbVertex
100
AcDb2dVertex
 10
56.63340791769929
 20
160.5536797016151
 30
0.0
  0
VERTEX
  5
242
330
23E
100
AcDbEntity
  8
GRAU_10_
 62
     7
100
AcDbVertex
100
AcDb2dVertex
 10
56.45236814994941
 20
161.9286173097783
 30
0.0
  0
SEQEND
  5
243
330
23E
100
AcDbEntity
  8
GRAU_10_
  0
POLYLINE
  5
244
330
1F
100
AcDbEntity
  8
GRAU_10_
 62
     7
100
AcDb2dPolyline
 66
     1
 10
0.0
 20
0.0
 30
0.0
  0
VERTEX
  5
245
330
244
100
AcDbEntity
  8
GRAU_10_
 62
     7
100
AcDbVertex
100
AcDb2dVertex
 10
56.28510876414053
 20
160.5536797016151
 30
0.0
  0
VERTEX
  5
246
330
244
100
AcDbEntity
  8
GRAU_10_
 62
     7
100
AcDbVertex
100
AcDb2dVertex
 10
56.28510876414053
 20
160.6551377636557
 30
0.0
  0
SEQEND
  5
247
330
244
100
AcDbEntity
  8
GRAU_10_
  0
POLYLINE
  5
248
330
1F
100
AcDbEntity
  8
GRAU_10_
 62
     7
100
AcDb2dPolyline
 66
     1
 10
0.0
 20
0.0
 30
0.0
  0
VERTEX
  5
249
330
248
100
AcDbEntity
  8
GRAU_10_
 62
     7
100
AcDbVertex
100
AcDb2dVertex
 10
56.28510876414053
 20
160.5536797016151
 30
0.0
  0
VERTEX
  5
24A
330
248
100
AcDbEntity
  8
GRAU_10_
 62
     7
100
AcDbVertex
100
AcDb2dVertex
 10
56.28510876414053
 20
160.6551377636557
 30
0.0
  0
SEQEND
  5
24B
330
248
100
AcDbEntity
  8
GRAU_10_
  0
POLYLINE
  5
24C
330
1F
100
AcDbEntity
  8
GRAU_10_
 62
     7
100
AcDb2dPolyline
 66
     1
 10
0.0
 20
0.0
 30
0.0
  0
VERTEX
  5
24D
330
24C
100
AcDbEntity
  8
GRAU_10_
 62
     7
100
AcDbVertex
100
AcDb2dVertex
 10
56.31301403757106
 20
160.5536797016151
 30
0.0
  0
VERTEX
  5
24E
330
24C
100
AcDbEntity
  8
GRAU_10_
 62
     7
100
AcDbVertex
100
AcDb2dVertex
 10
56.31301403757106
 20
160.8677001550956
 30
0.0
  0
SEQEND
  5
24F
330
24C
100
AcDbEntity
  8
GRAU_10_
  0
POLYLINE
  5
250
330
1F
100
AcDbEntity
  8
GRAU_10_
 62
     7
100
AcDb2dPolyline
 66
     1
 10
0.0
 20
0.0
 30
0.0
  0
VERTEX
  5
251
330
250
100
AcDbEntity
  8
GRAU_10_
 62
     7
100
AcDbVertex
100
AcDb2dVertex
 10
56.34091931100158
 20
160.5536797016151
 30
0.0
  0
VERTEX
  5
252
330
250
100
AcDbEntity
  8
GRAU_10_
 62
     7
100
AcDbVertex
100
AcDb2dVertex
 10
56.34091931100158
 20
161.0797457822127
 30
0.0
  0
SEQEND
  5
253
330
250
100
AcDbEntity
  8
GRAU_10_
  0
POLYLINE
  5
254
330
1F
100
AcDbEntity
  8
GRAU_10_
 62
     7
100
AcDb2dPolyline
 66
     1
 10
0.0
 20
0.0
 30
0.0
  0
VERTEX
  5
255
330
254
100
AcDbEntity
  8
GRAU_10_
 62
     7
100
AcDbVertex
100
AcDb2dVertex
 10
56.3688245844321
 20
160.5536797016151
 30
0.0
  0
VERTEX
  5
256
330
254
100
AcDbEntity
  8
GRAU_10_
 62
     7
100
AcDbVertex
100
AcDb2dVertex
 10
56.3688245844321
 20
161.2921359188784
 30
0.0
  0
SEQEND
  5
257
330
254
100
AcDbEntity
  8
GRAU_10_
  0
POLYLINE
  5
258
330
1F
100
AcDbEntity
  8
GRAU_10_
 62
     7
100
AcDb2dPolyline
 66
     1
 10
0.0
 20
0.0
 30
0.0
  0
VERTEX
  5
259
330
258
100
AcDbEntity
  8
GRAU_10_
 62
     7
100
AcDbVertex
100
AcDb2dVertex
 10
56.39672985786262
 20
160.5536797016151
 30
0.0
  0
VERTEX
  5
25A
330
258
100
AcDbEntity
  8
GRAU_10_
 62
     7
100
AcDbVertex
100
AcDb2dVertex
 10
56.39672985786262
 20
161.5041815459955
 30
0.0
  0
SEQEND
  5
25B
330
258
100
AcDbEntity
  8
GRAU_10_
  0
POLYLINE
  5
25C
330
1F
100
AcDbEntity
  8
GRAU_10_
 62
     7
100
AcDb2dPolyline
 66
     1
 10
0.0
 20
0.0
 30
0.0
  0
VERTEX
  5
25D
330
25C
100
AcDbEntity
  8
GRAU_10_
 62
     7
100
AcDbVertex
100
AcDb2dVertex
 10
56.42446287651889
 20
160.5536797016151
 30
0.0
  0
VERTEX
  5
25E
330
25C
100
AcDbEntity
  8
GRAU_10_
 62
     7
100
AcDbVertex
100
AcDb2dVertex
 10
56.42446287651889
 20
161.7165716826611
 30
0.0
  0
SEQEND
  5
25F
330
25C
100
AcDbEntity
  8
GRAU_10_
  0
POLYLINE
  5
260
330
1F
100
AcDbEntity
  8
GRAU_10_
 62
     7
100
AcDb2dPolyline
 66
     1
 10
0.0
 20
0.0
 30
0.0
  0
VERTEX
  5
261
330
260
100
AcDbEntity
  8
GRAU_10_
 62
     7
100
AcDbVertex
100
AcDb2dVertex
 10
56.45236814994941
 20
160.5536797016151
 30
0.0
  0
VERTEX
  5
262
330
260
100
AcDbEntity
  8
GRAU_10_
 62
     7
100
AcDbVertex
100
AcDb2dVertex
 10
56.45236814994941
 20
161.9286173097783
 30
0.0
  0
SEQEND
  5
263
330
260
100
AcDbEntity
  8
GRAU_10_
  0
POLYLINE
  5
264
330
1F
100
AcDbEntity
  8
GRAU_10_
 62
     7
100
AcDb2dPolyline
 66
     1
 10
0.0
 20
0.0
 30
0.0
  0
VERTEX
  5
265
330
264
100
AcDbEntity
  8
GRAU_10_
 62
     7
100
AcDbVertex
100
AcDb2dVertex
 10
56.62014430008108
 20
160.5536797016151
 30
0.0
  0
VERTEX
  5
266
330
264
100
AcDbEntity
  8
GRAU_10_
 62
     7
100
AcDbVertex
100
AcDb2dVertex
 10
56.62014430008108
 20
160.6551377636557
 30
0.0
  0
SEQEND
  5
267
330
264
100
AcDbEntity
  8
GRAU_10_
  0
POLYLINE
  5
268
330
1F
100
AcDbEntity
  8
GRAU_10_
 62
     7
100
AcDb2dPolyline
 66
     1
 10
0.0
 20
0.0
 30
0.0
  0
VERTEX
  5
269
330
268
100
AcDbEntity
  8
GRAU_10_
 62
     7
100
AcDbVertex
100
AcDb2dVertex
 10
56.62014430008108
 20
160.5536797016151
 30
0.0
  0
VERTEX
  5
26A
330
268
100
AcDbEntity
  8
GRAU_10_
 62
     7
100
AcDbVertex
100
AcDb2dVertex
 10
56.62014430008108
 20
160.6551377636557
 30
0.0
  0
SEQEND
  5
26B
330
268
100
AcDbEntity
  8
GRAU_10_
  0
POLYLINE
  5
26C
330
1F
100
AcDbEntity
  8
GRAU_10_
 62
     7
100
AcDb2dPolyline
 66
     1
 10
0.0
 20
0.0
 30
0.0
  0
VERTEX
  5
26D
330
26C
100
AcDbEntity
  8
GRAU_10_
 62
     7
100
AcDbVertex
100
AcDb2dVertex
 10
56.59223902665055
 20
160.5536797016151
 30
0.0
  0
VERTEX
  5
26E
330
26C
100
AcDbEntity
  8
GRAU_10_
 62
     7
100
AcDbVertex
100
AcDb2dVertex
 10
56.59223902665055
 20
160.8677001550956
 30
0.0
  0
SEQEND
  5
26F
330
26C
100
AcDbEntity
  8
GRAU_10_
  0
POLYLINE
  5
270
330
1F
100
AcDbEntity
  8
GRAU_10_
 62
     7
100
AcDb2dPolyline
 66
     1
 10
0.0
 20
0.0
 30
0.0
  0
VERTEX
  5
271
330
270
100
AcDbEntity
  8
GRAU_10_
 62
     7
100
AcDbVertex
100
AcDb2dVertex
 10
56.56416149844577
 20
160.5536797016151
 30
0.0
  0
VERTEX
  5
272
330
270
100
AcDbEntity
  8
GRAU_10_
 62
     7
100
AcDbVertex
100
AcDb2dVertex
 10
56.56416149844577
 20
161.0797457822127
 30
0.0
  0
SEQEND
  5
273
330
270
100
AcDbEntity
  8
GRAU_10_
  0
POLYLINE
  5
274
330
1F
100
AcDbEntity
  8
GRAU_10_
 62
     7
100
AcDb2dPolyline
 66
     1
 10
0.0
 20
0.0
 30
0.0
  0
VERTEX
  5
275
330
274
100
AcDbEntity
  8
GRAU_10_
 62
     7
100
AcDbVertex
100
AcDb2dVertex
 10
56.53625622501524
 20
160.5536797016151
 30
0.0
  0
VERTEX
  5
276
330
274
100
AcDbEntity
  8
GRAU_10_
 62
     7
100
AcDbVertex
100
AcDb2dVertex
 10
56.53625622501524
 20
161.2921359188784
 30
0.0
  0
SEQEND
  5
277
330
274
100
AcDbEntity
  8
GRAU_10_
  0
POLYLINE
  5
278
330
1F
100
AcDbEntity
  8
GRAU_10_
 62
     7
100
AcDb2dPolyline
 66
     1
 10
0.0
 20
0.0
 30
0.0
  0
VERTEX
  5
279
330
278
100
AcDbEntity
  8
GRAU_10_
 62
     7
100
AcDbVertex
100
AcDb2dVertex
 10
56.50835095158472
 20
160.5536797016151
 30
0.0
  0
VERTEX
  5
27A
330
278
100
AcDbEntity
  8
GRAU_10_
 62
     7
100
AcDbVertex
100
AcDb2dVertex
 10
56.50835095158472
 20
161.5041815459955
 30
0.0
  0
SEQEND
  5
27B
330
278
100
AcDbEntity
  8
GRAU_10_
  0
POLYLINE
  5
27C
330
1F
100
AcDbEntity
  8
GRAU_10_
 62
     7
100
AcDb2dPolyline
 66
     1
 10
0.0
 20
0.0
 30
0.0
  0
VERTEX
  5
27D
330
27C
100
AcDbEntity
  8
GRAU_10_
 62
     7
100
AcDbVertex
100
AcDb2dVertex
 10
56.4804456781542
 20
160.5536797016151
 30
0.0
  0
VERTEX
  5
27E
330
27C
100
AcDbEntity
  8
GRAU_10_
 62
     7
100
AcDbVertex
100
AcDb2dVertex
 10
56.4804456781542
 20
161.7165716826611
 30
0.0
  0
SEQEND
  5
27F
330
27C
100
AcDbEntity
  8
GRAU_10_
  0
POLYLINE
  5
280
330
1F
100
AcDbEntity
  8
GRAU_10_
 62
     7
100
AcDb2dPolyline
 66
     1
 10
0.0
 20
0.0
 30
0.0
  0
VERTEX
  5
281
330
280
100
AcDbEntity
  8
GRAU_10_
 62
     7
100
AcDbVertex
100
AcDb2dVertex
 10
56.45236814994941
 20
160.5536797016151
 30
0.0
  0
VERTEX
  5
282
330
280
100
AcDbEntity
  8
GRAU_10_
 62
     7
100
AcDbVertex
100
AcDb2dVertex
 10
56.45236814994941
 20
161.9286173097783
 30
0.0
  0
SEQEND
  5
283
330
280
100
AcDbEntity
  8
GRAU_10_
  0
POLYLINE
  5
284
330
1F
100
AcDbEntity
  8
GRAU_10_
 62
     7
100
AcDb2dPolyline
 66
     1
 10
0.0
 20
0.0
 30
0.0
  0
VERTEX
  5
285
330
284
100
AcDbEntity
  8
GRAU_10_
 62
     7
100
AcDbVertex
100
AcDb2dVertex
 10
56.45236814994941
 20
145.9788587417171
 30
0.0
  0
VERTEX
  5
286
330
284
100
AcDbEntity
  8
GRAU_10_
 62
     7
100
AcDbVertex
100
AcDb2dVertex
 10
56.63340791769929
 20
147.3539686046546
 30
0.0
  0
VERTEX
  5
287
330
284
100
AcDbEntity
  8
GRAU_10_
 62
     7
100
AcDbVertex
100
AcDb2dVertex
 10
56.27132838219953
 20
147.3539686046546
 30
0.0
  0
VERTEX
  5
288
330
284
100
AcDbEntity
  8
GRAU_10_
 62
     7
100
AcDbVertex
100
AcDb2dVertex
 10
56.45236814994941
 20
145.9788587417171
 30
0.0
  0
SEQEND
  5
289
330
284
100
AcDbEntity
  8
GRAU_10_
  0
POLYLINE
  5
28A
330
1F
100
AcDbEntity
  8
GRAU_10_
 62
     7
100
AcDb2dPolyline
 66
     1
 10
0.0
 20
0.0
 30
0.0
  0
VERTEX
  5
28B
330
28A
100
AcDbEntity
  8
GRAU_10_
 62
     7
100
AcDbVertex
100
AcDb2dVertex
 10
56.62014430008108
 20
147.3539686046546
 30
0.0
  0
VERTEX
  5
28C
330
28A
100
AcDbEntity
  8
GRAU_10_
 62
     7
100
AcDbVertex
100
AcDb2dVertex
 10
56.62014430008108
 20
147.2523382878397
 30
0.0
  0
SEQEND
  5
28D
330
28A
100
AcDbEntity
  8
GRAU_10_
  0
POLYLINE
  5
28E
330
1F
100
AcDbEntity
  8
GRAU_10_
 62
     7
100
AcDb2dPolyline
 66
     1
 10
0.0
 20
0.0
 30
0.0
  0
VERTEX
  5
28F
330
28E
100
AcDbEntity
  8
GRAU_10_
 62
     7
100
AcDbVertex
100
AcDb2dVertex
 10
56.62014430008108
 20
147.3539686046546
 30
0.0
  0
VERTEX
  5
290
330
28E
100
AcDbEntity
  8
GRAU_10_
 62
     7
100
AcDbVertex
100
AcDb2dVertex
 10
56.62014430008108
 20
147.2523382878397
 30
0.0
  0
SEQEND
  5
291
330
28E
100
AcDbEntity
  8
GRAU_10_
  0
POLYLINE
  5
292
330
1F
100
AcDbEntity
  8
GRAU_10_
 62
     7
100
AcDb2dPolyline
 66
     1
 10
0.0
 20
0.0
 30
0.0
  0
VERTEX
  5
293
330
292
100
AcDbEntity
  8
GRAU_10_
 62
     7
100
AcDbVertex
100
AcDb2dVertex
 10
56.59223902665055
 20
147.3539686046546
 30
0.0
  0
VERTEX
  5
294
330
292
100
AcDbEntity
  8
GRAU_10_
 62
     7
100
AcDbVertex
100
AcDb2dVertex
 10
56.59223902665055
 20
147.0401204059483
 30
0.0
  0
SEQEND
  5
295
330
292
100
AcDbEntity
  8
GRAU_10_
  0
POLYLINE
  5
296
330
1F
100
AcDbEntity
  8
GRAU_10_
 62
     7
100
AcDb2dPolyline
 66
     1
 10
0.0
 20
0.0
 30
0.0
  0
VERTEX
  5
297
330
296
100
AcDbEntity
  8
GRAU_10_
 62
     7
100
AcDbVertex
100
AcDb2dVertex
 10
56.56416149844577
 20
147.3539686046546
 30
0.0
  0
VERTEX
  5
298
330
296
100
AcDbEntity
  8
GRAU_10_
 62
     7
100
AcDbVertex
100
AcDb2dVertex
 10
56.56416149844577
 20
146.8279025240569
 30
0.0
  0
SEQEND
  5
299
330
296
100
AcDbEntity
  8
GRAU_10_
  0
POLYLINE
  5
29A
330
1F
100
AcDbEntity
  8
GRAU_10_
 62
     7
100
AcDb2dPolyline
 66
     1
 10
0.0
 20
0.0
 30
0.0
  0
VERTEX
  5
29B
330
29A
100
AcDbEntity
  8
GRAU_10_
 62
     7
100
AcDbVertex
100
AcDb2dVertex
 10
56.53625622501524
 20
147.3539686046546
 30
0.0
  0
VERTEX
  5
29C
330
29A
100
AcDbEntity
  8
GRAU_10_
 62
     7
100
AcDbVertex
100
AcDb2dVertex
 10
56.53625622501524
 20
146.6156846421655
 30
0.0
  0
SEQEND
  5
29D
330
29A
100
AcDbEntity
  8
GRAU_10_
  0
POLYLINE
  5
29E
330
1F
100
AcDbEntity
  8
GRAU_10_
 62
     7
100
AcDb2dPolyline
 66
     1
 10
0.0
 20
0.0
 30
0.0
  0
VERTEX
  5
29F
330
29E
100
AcDbEntity
  8
GRAU_10_
 62
     7
100
AcDbVertex
100
AcDb2dVertex
 10
56.50835095158472
 20
147.3539686046546
 30
0.0
  0
VERTEX
  5
2A0
330
29E
100
AcDbEntity
  8
GRAU_10_
 62
     7
100
AcDbVertex
100
AcDb2dVertex
 10
56.50835095158472
 20
146.4034667602741
 30
0.0
  0
SEQEND
  5
2A1
330
29E
100
AcDbEntity
  8
GRAU_10_
  0
POLYLINE
  5
2A2
330
1F
100
AcDbEntity
  8
GRAU_10_
 62
     7
100
AcDb2dPolyline
 66
     1
 10
0.0
 20
0.0
 30
0.0
  0
VERTEX
  5
2A3
330
2A2
100
AcDbEntity
  8
GRAU_10_
 62
     7
100
AcDbVertex
100
AcDb2dVertex
 10
56.4804456781542
 20
147.3539686046546
 30
0.0
  0
VERTEX
  5
2A4
330
2A2
100
AcDbEntity
  8
GRAU_10_
 62
     7
100
AcDbVertex
100
AcDb2dVertex
 10
56.4804456781542
 20
146.1912488783827
 30
0.0
  0
SEQEND
  5
2A5
330
2A2
100
AcDbEntity
  8
GRAU_10_
  0
POLYLINE
  5
2A6
330
1F
100
AcDbEntity
  8
GRAU_10_
 62
     7
100
AcDb2dPolyline
 66
     1
 10
0.0
 20
0.0
 30
0.0
  0
VERTEX
  5
2A7
330
2A6
100
AcDbEntity
  8
GRAU_10_
 62
     7
100
AcDbVertex
100
AcDb2dVertex
 10
56.45236814994941
 20
147.3539686046546
 30
0.0
  0
VERTEX
  5
2A8
330
2A6
100
AcDbEntity
  8
GRAU_10_
 62
     7
100
AcDbVertex
100
AcDb2dVertex
 10
56.45236814994941
 20
145.9788587417171
 30
0.0
  0
SEQEND
  5
2A9
330
2A6
100
AcDbEntity
  8
GRAU_10_
  0
POLYLINE
  5
2AA
330
1F
100
AcDbEntity
  8
GRAU_10_
 62
     7
100
AcDb2dPolyline
 66
     1
 10
0.0
 20
0.0
 30
0.0
  0
VERTEX
  5
2AB
330
2AA
100
AcDbEntity
  8
GRAU_10_
 62
     7
100
AcDbVertex
100
AcDb2dVertex
 10
56.28510876414053
 20
147.3539686046546
 30
0.0
  0
VERTEX
  5
2AC
330
2AA
100
AcDbEntity
  8
GRAU_10_
 62
     7
100
AcDbVertex
100
AcDb2dVertex
 10
56.28510876414053
 20
147.2523382878397
 30
0.0
  0
SEQEND
  5
2AD
330
2AA
100
AcDbEntity
  8
GRAU_10_
  0
POLYLINE
  5
2AE
330
1F
100
AcDbEntity
  8
GRAU_10_
 62
     7
100
AcDb2dPolyline
 66
     1
 10
0.0
 20
0.0
 30
0.0
  0
VERTEX
  5
2AF
330
2AE
100
AcDbEntity
  8
GRAU_10_
 62
     7
100
AcDbVertex
100
AcDb2dVertex
 10
56.28510876414053
 20
147.3539686046546
 30
0.0
  0
VERTEX
  5
2B0
330
2AE
100
AcDbEntity
  8
GRAU_10_
 62
     7
100
AcDbVertex
100
AcDb2dVertex
 10
56.28510876414053
 20
147.2523382878397
 30
0.0
  0
SEQEND
  5
2B1
330
2AE
100
AcDbEntity
  8
GRAU_10_
  0
POLYLINE
  5
2B2
330
1F
100
AcDbEntity
  8
GRAU_10_
 62
     7
100
AcDb2dPolyline
 66
     1
 10
0.0
 20
0.0
 30
0.0
  0
VERTEX
  5
2B3
330
2B2
100
AcDbEntity
  8
GRAU_10_
 62
     7
100
AcDbVertex
100
AcDb2dVertex
 10
56.31301403757106
 20
147.3539686046546
 30
0.0
  0
VERTEX
  5
2B4
330
2B2
100
AcDbEntity
  8
GRAU_10_
 62
     7
100
AcDbVertex
100
AcDb2dVertex
 10
56.31301403757106
 20
147.0401204059483
 30
0.0
  0
SEQEND
  5
2B5
330
2B2
100
AcDbEntity
  8
GRAU_10_
  0
POLYLINE
  5
2B6
330
1F
100
AcDbEntity
  8
GRAU_10_
 62
     7
100
AcDb2dPolyline
 66
     1
 10
0.0
 20
0.0
 30
0.0
  0
VERTEX
  5
2B7
330
2B6
100
AcDbEntity
  8
GRAU_10_
 62
     7
100
AcDbVertex
100
AcDb2dVertex
 10
56.34091931100158
 20
147.3539686046546
 30
0.0
  0
VERTEX
  5
2B8
330
2B6
100
AcDbEntity
  8
GRAU_10_
 62
     7
100
AcDbVertex
100
AcDb2dVertex
 10
56.34091931100158
 20
146.8279025240569
 30
0.0
  0
SEQEND
  5
2B9
330
2B6
100
AcDbEntity
  8
GRAU_10_
  0
POLYLINE
  5
2BA
330
1F
100
AcDbEntity
  8
GRAU_10_
 62
     7
100
AcDb2dPolyline
 66
     1
 10
0.0
 20
0.0
 30
0.0
  0
VERTEX
  5
2BB
330
2BA
100
AcDbEntity
  8
GRAU_10_
 62
     7
100
AcDbVertex
100
AcDb2dVertex
 10
56.3688245844321
 20
147.3539686046546
 30
0.0
  0
VERTEX
  5
2BC
330
2BA
100
AcDbEntity
  8
GRAU_10_
 62
     7
100
AcDbVertex
100
AcDb2dVertex
 10
56.3688245844321
 20
146.6156846421655
 30
0.0
  0
SEQEND
  5
2BD
330
2BA
100
AcDbEntity
  8
GRAU_10_
  0
POLYLINE
  5
2BE
330
1F
100
AcDbEntity
  8
GRAU_10_
 62
     7
100
AcDb2dPolyline
 66
     1
 10
0.0
 20
0.0
 30
0.0
  0
VERTEX
  5
2BF
330
2BE
100
AcDbEntity
  8
GRAU_10_
 62
     7
100
AcDbVertex
100
AcDb2dVertex
 10
56.39672985786262
 20
147.3539686046546
 30
0.0
  0
VERTEX
  5
2C0
330
2BE
100
AcDbEntity
  8
GRAU_10_
 62
     7
100
AcDbVertex
100
AcDb2dVertex
 10
56.39672985786262
 20
146.4034667602741
 30
0.0
  0
SEQEND
  5
2C1
330
2BE
100
AcDbEntity
  8
GRAU_10_
  0
POLYLINE
  5
2C2
330
1F
100
AcDbEntity
  8
GRAU_10_
 62
     7
100
AcDb2dPolyline
 66
     1
 10
0.0
 20
0.0
 30
0.0
  0
VERTEX
  5
2C3
330
2C2
100
AcDbEntity
  8
GRAU_10_
 62
     7
100
AcDbVertex
100
AcDb2dVertex
 10
56.42446287651889
 20
147.3539686046546
 30
0.0
  0
VERTEX
  5
2C4
330
2C2
100
AcDbEntity
  8
GRAU_10_
 62
     7
100
AcDbVertex
100
AcDb2dVertex
 10
56.42446287651889
 20
146.1912488783827
 30
0.0
  0
SEQEND
  5
2C5
330
2C2
100
AcDbEntity
  8
GRAU_10_
  0
POLYLINE
  5
2C6
330
1F
100
AcDbEntity
  8
GRAU_10_
 62
     7
100
AcDb2dPolyline
 66
     1
 10
0.0
 20
0.0
 30
0.0
  0
VERTEX
  5
2C7
330
2C6
100
AcDbEntity
  8
GRAU_10_
 62
     7
100
AcDbVertex
100
AcDb2dVertex
 10
56.45236814994941
 20
147.3539686046546
 30
0.0
  0
VERTEX
  5
2C8
330
2C6
100
AcDbEntity
  8
GRAU_10_
 62
     7
100
AcDbVertex
100
AcDb2dVertex
 10
56.45236814994941
 20
145.9788587417171
 30
0.0
  0
SEQEND
  5
2C9
330
2C6
100
AcDbEntity
  8
GRAU_10_
  0
POLYLINE
  5
2CA
330
1F
100
AcDbEntity
  8
GRAU_10_
 62
     7
100
AcDb2dPolyline
 66
     1
 10
0.0
 20
0.0
 30
0.0
  0
VERTEX
  5
2CB
330
2CA
100
AcDbEntity
  8
GRAU_10_
 62
     7
100
AcDbVertex
100
AcDb2dVertex
 10
62.49454886675484
 20
147.7098469682809
 30
0.0
  0
VERTEX
  5
2CC
330
2CA
100
AcDbEntity
  8
GRAU_10_
 62
     7
100
AcDbVertex
100
AcDb2dVertex
 10
62.49454886675484
 20
137.2708631384253
 30
0.0
  0
SEQEND
  5
2CD
330
2CA
100
AcDbEntity
  8
GRAU_10_
  0
POLYLINE
  5
2CE
330
1F
100
AcDbEntity
  8
GRAU_10_
 62
     7
100
AcDb2dPolyline
 66
     1
 10
0.0
 20
0.0
 30
0.0
  0
VERTEX
  5
2CF
330
2CE
100
AcDbEntity
  8
GRAU_10_
 62
     7
100
AcDbVertex
100
AcDb2dVertex
 10
133.4447400925069
 20
152.8538912920817
 30
0.0
  0
VERTEX
  5
2D0
330
2CE
100
AcDbEntity
  8
GRAU_10_
 62
     7
100
AcDbVertex
100
AcDb2dVertex
 10
133.4447400925069
 20
137.2708631384253
 30
0.0
  0
SEQEND
  5
2D1
330
2CE
100
AcDbEntity
  8
GRAU_10_
  0
POLYLINE
  5
2D2
330
1F
100
AcDbEntity
  8
GRAU_10_
 62
     7
100
AcDb2dPolyline
 66
     1
 10
0.0
 20
0.0
 30
0.0
  0
VERTEX
  5
2D3
330
2D2
100
AcDbEntity
  8
GRAU_10_
 62
     7
100
AcDbVertex
100
AcDb2dVertex
 10
62.49454886675484
 20
138.3710543816399
 30
0.0
  0
VERTEX
  5
2D4
330
2D2
100
AcDbEntity
  8
GRAU_10_
 62
     7
100
AcDbVertex
100
AcDb2dVertex
 10
133.4447400925069
 20
138.3710543816399
 30
0.0
  0
SEQEND
  5
2D5
330
2D2
100
AcDbEntity
  8
GRAU_10_
  0
MTEXT
  5
2D6
330
1F
100
AcDbEntity
  8
GRAU_10_
 62
     7
100
AcDbMText
 10
97.02009003650888
 20
139.3234510285372
 30
0.0
 40
2.398888888289167
 41
0.0
 71
     7
 72
     1
  1
\fINDEX Univers 45 Light|b0|i0|c0|p34;\W1;B
  0
POLYLINE
  5
2D7
330
1F
100
AcDbEntity
  8
GRAU_10_
 62
     7
100
AcDb2dPolyline
 66
     1
 10
0.0
 20
0.0
 30
0.0
  0
VERTEX
  5
2D8
330
2D7
100
AcDbEntity
  8
GRAU_10_
 62
     7
100
AcDbVertex
100
AcDb2dVertex
 10
62.49454886675484
 20
138.3710543816399
 30
0.0
  0
VERTEX
  5
2D9
330
2D7
100
AcDbEntity
  8
GRAU_10_
 62
     7
100
AcDbVertex
100
AcDb2dVertex
 10
63.86965872969231
 20
138.1898423591157
 30
0.0
  0
VERTEX
  5
2DA
330
2D7
100
AcDbEntity
  8
GRAU_10_
 62
     7
100
AcDbVertex
100
AcDb2dVertex
 10
63.86965872969231
 20
138.5520941493898
 30
0.0
  0
VERTEX
  5
2DB
330
2D7
100
AcDbEntity
  8
GRAU_10_
 62
     7
100
AcDbVertex
100
AcDb2dVertex
 10
62.49454886675484
 20
138.3710543816399
 30
0.0
  0
SEQEND
  5
2DC
330
2D7
100
AcDbEntity
  8
GRAU_10_
  0
POLYLINE
  5
2DD
330
1F
100
AcDbEntity
  8
GRAU_10_
 62
     7
100
AcDb2dPolyline
 66
     1
 10
0.0
 20
0.0
 30
0.0
  0
VERTEX
  5
2DE
330
2DD
100
AcDbEntity
  8
GRAU_10_
 62
     7
100
AcDbVertex
100
AcDb2dVertex
 10
63.86965872969231
 20
138.2032782315082
 30
0.0
  0
VERTEX
  5
2DF
330
2DD
100
AcDbEntity
  8
GRAU_10_
 62
     7
100
AcDbVertex
100
AcDb2dVertex
 10
63.76802841287744
 20
138.2032782315082
 30
0.0
  0
SEQEND
  5
2E0
330
2DD
100
AcDbEntity
  8
GRAU_10_
  0
POLYLINE
  5
2E1
330
1F
100
AcDbEntity
  8
GRAU_10_
 62
     7
100
AcDb2dPolyline
 66
     1
 10
0.0
 20
0.0
 30
0.0
  0
VERTEX
  5
2E2
330
2E1
100
AcDbEntity
  8
GRAU_10_
 62
     7
100
AcDbVertex
100
AcDb2dVertex
 10
63.86965872969231
 20
138.2032782315082
 30
0.0
  0
VERTEX
  5
2E3
330
2E1
100
AcDbEntity
  8
GRAU_10_
 62
     7
100
AcDbVertex
100
AcDb2dVertex
 10
63.76802841287744
 20
138.2032782315082
 30
0.0
  0
SEQEND
  5
2E4
330
2E1
100
AcDbEntity
  8
GRAU_10_
  0
POLYLINE
  5
2E5
330
1F
100
AcDbEntity
  8
GRAU_10_
 62
     7
100
AcDb2dPolyline
 66
     1
 10
0.0
 20
0.0
 30
0.0
  0
VERTEX
  5
2E6
330
2E5
100
AcDbEntity
  8
GRAU_10_
 62
     7
100
AcDbVertex
100
AcDb2dVertex
 10
63.86965872969231
 20
138.231355759713
 30
0.0
  0
VERTEX
  5
2E7
330
2E5
100
AcDbEntity
  8
GRAU_10_
 62
     7
100
AcDbVertex
100
AcDb2dVertex
 10
63.55581053098605
 20
138.231355759713
 30
0.0
  0
SEQEND
  5
2E8
330
2E5
100
AcDbEntity
  8
GRAU_10_
  0
POLYLINE
  5
2E9
330
1F
100
AcDbEntity
  8
GRAU_10_
 62
     7
100
AcDb2dPolyline
 66
     1
 10
0.0
 20
0.0
 30
0.0
  0
VERTEX
  5
2EA
330
2E9
100
AcDbEntity
  8
GRAU_10_
 62
     7
100
AcDbVertex
100
AcDb2dVertex
 10
63.86965872969231
 20
138.2592610331435
 30
0.0
  0
VERTEX
  5
2EB
330
2E9
100
AcDbEntity
  8
GRAU_10_
 62
     7
100
AcDbVertex
100
AcDb2dVertex
 10
63.34359264909466
 20
138.2592610331435
 30
0.0
  0
SEQEND
  5
2EC
330
2E9
100
AcDbEntity
  8
GRAU_10_
  0
POLYLINE
  5
2ED
330
1F
100
AcDbEntity
  8
GRAU_10_
 62
     7
100
AcDb2dPolyline
 66
     1
 10
0.0
 20
0.0
 30
0.0
  0
VERTEX
  5
2EE
330
2ED
100
AcDbEntity
  8
GRAU_10_
 62
     7
100
AcDbVertex
100
AcDb2dVertex
 10
63.86965872969231
 20
138.2871663065741
 30
0.0
  0
VERTEX
  5
2EF
330
2ED
100
AcDbEntity
  8
GRAU_10_
 62
     7
100
AcDbVertex
100
AcDb2dVertex
 10
63.13154702197753
 20
138.2871663065741
 30
0.0
  0
SEQEND
  5
2F0
330
2ED
100
AcDbEntity
  8
GRAU_10_
  0
POLYLINE
  5
2F1
330
1F
100
AcDbEntity
  8
GRAU_10_
 62
     7
100
AcDb2dPolyline
 66
     1
 10
0.0
 20
0.0
 30
0.0
  0
VERTEX
  5
2F2
330
2F1
100
AcDbEntity
  8
GRAU_10_
 62
     7
100
AcDbVertex
100
AcDb2dVertex
 10
63.86965872969231
 20
138.3150715800046
 30
0.0
  0
VERTEX
  5
2F3
330
2F1
100
AcDbEntity
  8
GRAU_10_
 62
     7
100
AcDbVertex
100
AcDb2dVertex
 10
62.91915688531188
 20
138.3150715800046
 30
0.0
  0
SEQEND
  5
2F4
330
2F1
100
AcDbEntity
  8
GRAU_10_
  0
POLYLINE
  5
2F5
330
1F
100
AcDbEntity
  8
GRAU_10_
 62
     7
100
AcDb2dPolyline
 66
     1
 10
0.0
 20
0.0
 30
0.0
  0
VERTEX
  5
2F6
330
2F5
100
AcDbEntity
  8
GRAU_10_
 62
     7
100
AcDbVertex
100
AcDb2dVertex
 10
63.86965872969231
 20
138.3429768534351
 30
0.0
  0
VERTEX
  5
2F7
330
2F5
100
AcDbEntity
  8
GRAU_10_
 62
     7
100
AcDbVertex
100
AcDb2dVertex
 10
62.70693900342049
 20
138.3429768534351
 30
0.0
  0
SEQEND
  5
2F8
330
2F5
100
AcDbEntity
  8
GRAU_10_
  0
POLYLINE
  5
2F9
330
1F
100
AcDbEntity
  8
GRAU_10_
 62
     7
100
AcDb2dPolyline
 66
     1
 10
0.0
 20
0.0
 30
0.0
  0
VERTEX
  5
2FA
330
2F9
100
AcDbEntity
  8
GRAU_10_
 62
     7
100
AcDbVertex
100
AcDb2dVertex
 10
63.86965872969231
 20
138.3710543816399
 30
0.0
  0
VERTEX
  5
2FB
330
2F9
100
AcDbEntity
  8
GRAU_10_
 62
     7
100
AcDbVertex
100
AcDb2dVertex
 10
62.49454886675484
 20
138.3710543816399
 30
0.0
  0
SEQEND
  5
2FC
330
2F9
100
AcDbEntity
  8
GRAU_10_
  0
POLYLINE
  5
2FD
330
1F
100
AcDbEntity
  8
GRAU_10_
 62
     7
100
AcDb2dPolyline
 66
     1
 10
0.0
 20
0.0
 30
0.0
  0
VERTEX
  5
2FE
330
2FD
100
AcDbEntity
  8
GRAU_10_
 62
     7
100
AcDbVertex
100
AcDb2dVertex
 10
63.86965872969231
 20
138.5386582769973
 30
0.0
  0
VERTEX
  5
2FF
330
2FD
100
AcDbEntity
  8
GRAU_10_
 62
     7
100
AcDbVertex
100
AcDb2dVertex
 10
63.76802841287744
 20
138.5386582769973
 30
0.0
  0
SEQEND
  5
300
330
2FD
100
AcDbEntity
  8
GRAU_10_
  0
POLYLINE
  5
301
330
1F
100
AcDbEntity
  8
GRAU_10_
 62
     7
100
AcDb2dPolyline
 66
     1
 10
0.0
 20
0.0
 30
0.0
  0
VERTEX
  5
302
330
301
100
AcDbEntity
  8
GRAU_10_
 62
     7
100
AcDbVertex
100
AcDb2dVertex
 10
63.86965872969231
 20
138.5386582769973
 30
0.0
  0
VERTEX
  5
303
330
301
100
AcDbEntity
  8
GRAU_10_
 62
     7
100
AcDbVertex
100
AcDb2dVertex
 10
63.76802841287744
 20
138.5386582769973
 30
0.0
  0
SEQEND
  5
304
330
301
100
AcDbEntity
  8
GRAU_10_
  0
POLYLINE
  5
305
330
1F
100
AcDbEntity
  8
GRAU_10_
 62
     7
100
AcDb2dPolyline
 66
     1
 10
0.0
 20
0.0
 30
0.0
  0
VERTEX
  5
306
330
305
100
AcDbEntity
  8
GRAU_10_
 62
     7
100
AcDbVertex
100
AcDb2dVertex
 10
63.86965872969231
 20
138.5105807487925
 30
0.0
  0
VERTEX
  5
307
330
305
100
AcDbEntity
  8
GRAU_10_
 62
     7
100
AcDbVertex
100
AcDb2dVertex
 10
63.55581053098605
 20
138.5105807487925
 30
0.0
  0
SEQEND
  5
308
330
305
100
AcDbEntity
  8
GRAU_10_
  0
POLYLINE
  5
309
330
1F
100
AcDbEntity
  8
GRAU_10_
 62
     7
100
AcDb2dPolyline
 66
     1
 10
0.0
 20
0.0
 30
0.0
  0
VERTEX
  5
30A
330
309
100
AcDbEntity
  8
GRAU_10_
 62
     7
100
AcDbVertex
100
AcDb2dVertex
 10
63.86965872969231
 20
138.482675475362
 30
0.0
  0
VERTEX
  5
30B
330
309
100
AcDbEntity
  8
GRAU_10_
 62
     7
100
AcDbVertex
100
AcDb2dVertex
 10
63.34359264909466
 20
138.482675475362
 30
0.0
  0
SEQEND
  5
30C
330
309
100
AcDbEntity
  8
GRAU_10_
  0
POLYLINE
  5
30D
330
1F
100
AcDbEntity
  8
GRAU_10_
 62
     7
100
AcDb2dPolyline
 66
     1
 10
0.0
 20
0.0
 30
0.0
  0
VERTEX
  5
30E
330
30D
100
AcDbEntity
  8
GRAU_10_
 62
     7
100
AcDbVertex
100
AcDb2dVertex
 10
63.86965872969231
 20
138.4545979471572
 30
0.0
  0
VERTEX
  5
30F
330
30D
100
AcDbEntity
  8
GRAU_10_
 62
     7
100
AcDbVertex
100
AcDb2dVertex
 10
63.13154702197753
 20
138.4545979471572
 30
0.0
  0
SEQEND
  5
310
330
30D
100
AcDbEntity
  8
GRAU_10_
  0
POLYLINE
  5
311
330
1F
100
AcDbEntity
  8
GRAU_10_
 62
     7
100
AcDb2dPolyline
 66
     1
 10
0.0
 20
0.0
 30
0.0
  0
VERTEX
  5
312
330
311
100
AcDbEntity
  8
GRAU_10_
 62
     7
100
AcDbVertex
100
AcDb2dVertex
 10
63.86965872969231
 20
138.4266926737267
 30
0.0
  0
VERTEX
  5
313
330
311
100
AcDbEntity
  8
GRAU_10_
 62
     7
100
AcDbVertex
100
AcDb2dVertex
 10
62.91915688531188
 20
138.4266926737267
 30
0.0
  0
SEQEND
  5
314
330
311
100
AcDbEntity
  8
GRAU_10_
  0
POLYLINE
  5
315
330
1F
100
AcDbEntity
  8
GRAU_10_
 62
     7
100
AcDb2dPolyline
 66
     1
 10
0.0
 20
0.0
 30
0.0
  0
VERTEX
  5
316
330
315
100
AcDbEntity
  8
GRAU_10_
 62
     7
100
AcDbVertex
100
AcDb2dVertex
 10
63.86965872969231
 20
138.3987874002961
 30
0.0
  0
VERTEX
  5
317
330
315
100
AcDbEntity
  8
GRAU_10_
 62
     7
100
AcDbVertex
100
AcDb2dVertex
 10
62.70693900342049
 20
138.3987874002961
 30
0.0
  0
SEQEND
  5
318
330
315
100
AcDbEntity
  8
GRAU_10_
  0
POLYLINE
  5
319
330
1F
100
AcDbEntity
  8
GRAU_10_
 62
     7
100
AcDb2dPolyline
 66
     1
 10
0.0
 20
0.0
 30
0.0
  0
VERTEX
  5
31A
330
319
100
AcDbEntity
  8
GRAU_10_
 62
     7
100
AcDbVertex
100
AcDb2dVertex
 10
63.86965872969231
 20
138.3710543816399
 30
0.0
  0
VERTEX
  5
31B
330
319
100
AcDbEntity
  8
GRAU_10_
 62
     7
100
AcDbVertex
100
AcDb2dVertex
 10
62.49454886675484
 20
138.3710543816399
 30
0.0
  0
SEQEND
  5
31C
330
319
100
AcDbEntity
  8
GRAU_10_
  0
POLYLINE
  5
31D
330
1F
100
AcDbEntity
  8
GRAU_10_
 62
     7
100
AcDb2dPolyline
 66
     1
 10
0.0
 20
0.0
 30
0.0
  0
VERTEX
  5
31E
330
31D
100
AcDbEntity
  8
GRAU_10_
 62
     7
100
AcDbVertex
100
AcDb2dVertex
 10
133.4447400925069
 20
138.3710543816399
 30
0.0
  0
VERTEX
  5
31F
330
31D
100
AcDbEntity
  8
GRAU_10_
 62
     7
100
AcDbVertex
100
AcDb2dVertex
 10
132.0698024843437
 20
138.5520941493898
 30
0.0
  0
VERTEX
  5
320
330
31D
100
AcDbEntity
  8
GRAU_10_
 62
     7
100
AcDbVertex
100
AcDb2dVertex
 10
132.0698024843437
 20
138.1898423591157
 30
0.0
  0
VERTEX
  5
321
330
31D
100
AcDbEntity
  8
GRAU_10_
 62
     7
100
AcDbVertex
100
AcDb2dVertex
 10
133.4447400925069
 20
138.3710543816399
 30
0.0
  0
SEQEND
  5
322
330
31D
100
AcDbEntity
  8
GRAU_10_
  0
POLYLINE
  5
323
330
1F
100
AcDbEntity
  8
GRAU_10_
 62
     7
100
AcDb2dPolyline
 66
     1
 10
0.0
 20
0.0
 30
0.0
  0
VERTEX
  5
324
330
323
100
AcDbEntity
  8
GRAU_10_
 62
     7
100
AcDbVertex
100
AcDb2dVertex
 10
132.0698024843437
 20
138.5386582769973
 30
0.0
  0
VERTEX
  5
325
330
323
100
AcDbEntity
  8
GRAU_10_
 62
     7
100
AcDbVertex
100
AcDb2dVertex
 10
132.17108829161
 20
138.5386582769973
 30
0.0
  0
SEQEND
  5
326
330
323
100
AcDbEntity
  8
GRAU_10_
  0
POLYLINE
  5
327
330
1F
100
AcDbEntity
  8
GRAU_10_
 62
     7
100
AcDb2dPolyline
 66
     1
 10
0.0
 20
0.0
 30
0.0
  0
VERTEX
  5
328
330
327
100
AcDbEntity
  8
GRAU_10_
 62
     7
100
AcDbVertex
100
AcDb2dVertex
 10
132.0698024843437
 20
138.5386582769973
 30
0.0
  0
VERTEX
  5
329
330
327
100
AcDbEntity
  8
GRAU_10_
 62
     7
100
AcDbVertex
100
AcDb2dVertex
 10
132.17108829161
 20
138.5386582769973
 30
0.0
  0
SEQEND
  5
32A
330
327
100
AcDbEntity
  8
GRAU_10_
  0
POLYLINE
  5
32B
330
1F
100
AcDbEntity
  8
GRAU_10_
 62
     7
100
AcDb2dPolyline
 66
     1
 10
0.0
 20
0.0
 30
0.0
  0
VERTEX
  5
32C
330
32B
100
AcDbEntity
  8
GRAU_10_
 62
     7
100
AcDbVertex
100
AcDb2dVertex
 10
132.0698024843437
 20
138.5105807487925
 30
0.0
  0
VERTEX
  5
32D
330
32B
100
AcDbEntity
  8
GRAU_10_
 62
     7
100
AcDbVertex
100
AcDb2dVertex
 10
132.3836506830499
 20
138.5105807487925
 30
0.0
  0
SEQEND
  5
32E
330
32B
100
AcDbEntity
  8
GRAU_10_
  0
POLYLINE
  5
32F
330
1F
100
AcDbEntity
  8
GRAU_10_
 62
     7
100
AcDb2dPolyline
 66
     1
 10
0.0
 20
0.0
 30
0.0
  0
VERTEX
  5
330
330
32F
100
AcDbEntity
  8
GRAU_10_
 62
     7
100
AcDbVertex
100
AcDb2dVertex
 10
132.0698024843437
 20
138.482675475362
 30
0.0
  0
VERTEX
  5
331
330
32F
100
AcDbEntity
  8
GRAU_10_
 62
     7
100
AcDbVertex
100
AcDb2dVertex
 10
132.5962130744898
 20
138.482675475362
 30
0.0
  0
SEQEND
  5
332
330
32F
100
AcDbEntity
  8
GRAU_10_
  0
POLYLINE
  5
333
330
1F
100
AcDbEntity
  8
GRAU_10_
 62
     7
100
AcDb2dPolyline
 66
     1
 10
0.0
 20
0.0
 30
0.0
  0
VERTEX
  5
334
330
333
100
AcDbEntity
  8
GRAU_10_
 62
     7
100
AcDbVertex
100
AcDb2dVertex
 10
132.0698024843437
 20
138.4545979471572
 30
0.0
  0
VERTEX
  5
335
330
333
100
AcDbEntity
  8
GRAU_10_
 62
     7
100
AcDbVertex
100
AcDb2dVertex
 10
132.8080864468327
 20
138.4545979471572
 30
0.0
  0
SEQEND
  5
336
330
333
100
AcDbEntity
  8
GRAU_10_
  0
POLYLINE
  5
337
330
1F
100
AcDbEntity
  8
GRAU_10_
 62
     7
100
AcDb2dPolyline
 66
     1
 10
0.0
 20
0.0
 30
0.0
  0
VERTEX
  5
338
330
337
100
AcDbEntity
  8
GRAU_10_
 62
     7
100
AcDbVertex
100
AcDb2dVertex
 10
132.0698024843437
 20
138.4266926737267
 30
0.0
  0
VERTEX
  5
339
330
337
100
AcDbEntity
  8
GRAU_10_
 62
     7
100
AcDbVertex
100
AcDb2dVertex
 10
133.0199598191756
 20
138.4266926737267
 30
0.0
  0
SEQEND
  5
33A
330
337
100
AcDbEntity
  8
GRAU_10_
  0
POLYLINE
  5
33B
330
1F
100
AcDbEntity
  8
GRAU_10_
 62
     7
100
AcDb2dPolyline
 66
     1
 10
0.0
 20
0.0
 30
0.0
  0
VERTEX
  5
33C
330
33B
100
AcDbEntity
  8
GRAU_10_
 62
     7
100
AcDbVertex
100
AcDb2dVertex
 10
132.0698024843437
 20
138.3987874002961
 30
0.0
  0
VERTEX
  5
33D
330
33B
100
AcDbEntity
  8
GRAU_10_
 62
     7
100
AcDbVertex
100
AcDb2dVertex
 10
133.232177701067
 20
138.3987874002961
 30
0.0
  0
SEQEND
  5
33E
330
33B
100
AcDbEntity
  8
GRAU_10_
  0
POLYLINE
  5
33F
330
1F
100
AcDbEntity
  8
GRAU_10_
 62
     7
100
AcDb2dPolyline
 66
     1
 10
0.0
 20
0.0
 30
0.0
  0
VERTEX
  5
340
330
33F
100
AcDbEntity
  8
GRAU_10_
 62
     7
100
AcDbVertex
100
AcDb2dVertex
 10
132.0698024843437
 20
138.3710543816399
 30
0.0
  0
VERTEX
  5
341
330
33F
100
AcDbEntity
  8
GRAU_10_
 62
     7
100
AcDbVertex
100
AcDb2dVertex
 10
133.4447400925069
 20
138.3710543816399
 30
0.0
  0
SEQEND
  5
342
330
33F
100
AcDbEntity
  8
GRAU_10_
  0
POLYLINE
  5
343
330
1F
100
AcDbEntity
  8
GRAU_10_
 62
     7
100
AcDb2dPolyline
 66
     1
 10
0.0
 20
0.0
 30
0.0
  0
VERTEX
  5
344
330
343
100
AcDbEntity
  8
GRAU_10_
 62
     7
100
AcDbVertex
100
AcDb2dVertex
 10
132.0698024843437
 20
138.2032782315082
 30
0.0
  0
VERTEX
  5
345
330
343
100
AcDbEntity
  8
GRAU_10_
 62
     7
100
AcDbVertex
100
AcDb2dVertex
 10
132.17108829161
 20
138.2032782315082
 30
0.0
  0
SEQEND
  5
346
330
343
100
AcDbEntity
  8
GRAU_10_
  0
POLYLINE
  5
347
330
1F
100
AcDbEntity
  8
GRAU_10_
 62
     7
100
AcDb2dPolyline
 66
     1
 10
0.0
 20
0.0
 30
0.0
  0
VERTEX
  5
348
330
347
100
AcDbEntity
  8
GRAU_10_
 62
     7
100
AcDbVertex
100
AcDb2dVertex
 10
132.0698024843437
 20
138.2032782315082
 30
0.0
  0
VERTEX
  5
349
330
347
100
AcDbEntity
  8
GRAU_10_
 62
     7
100
AcDbVertex
100
AcDb2dVertex
 10
132.17108829161
 20
138.2032782315082
 30
0.0
  0
SEQEND
  5
34A
330
347
100
AcDbEntity
  8
GRAU_10_
  0
POLYLINE
  5
34B
330
1F
100
AcDbEntity
  8
GRAU_10_
 62
     7
100
AcDb2dPolyline
 66
     1
 10
0.0
 20
0.0
 30
0.0
  0
VERTEX
  5
34C
330
34B
100
AcDbEntity
  8
GRAU_10_
 62
     7
100
AcDbVertex
100
AcDb2dVertex
 10
132.0698024843437
 20
138.231355759713
 30
0.0
  0
VERTEX
  5
34D
330
34B
100
AcDbEntity
  8
GRAU_10_
 62
     7
100
AcDbVertex
100
AcDb2dVertex
 10
132.3836506830499
 20
138.231355759713
 30
0.0
  0
SEQEND
  5
34E
330
34B
100
AcDbEntity
  8
GRAU_10_
  0
POLYLINE
  5
34F
330
1F
100
AcDbEntity
  8
GRAU_10_
 62
     7
100
AcDb2dPolyline
 66
     1
 10
0.0
 20
0.0
 30
0.0
  0
VERTEX
  5
350
330
34F
100
AcDbEntity
  8
GRAU_10_
 62
     7
100
AcDbVertex
100
AcDb2dVertex
 10
132.0698024843437
 20
138.2592610331435
 30
0.0
  0
VERTEX
  5
351
330
34F
100
AcDbEntity
  8
GRAU_10_
 62
     7
100
AcDbVertex
100
AcDb2dVertex
 10
132.5962130744898
 20
138.2592610331435
 30
0.0
  0
SEQEND
  5
352
330
34F
100
AcDbEntity
  8
GRAU_10_
  0
POLYLINE
  5
353
330
1F
100
AcDbEntity
  8
GRAU_10_
 62
     7
100
AcDb2dPolyline
 66
     1
 10
0.0
 20
0.0
 30
0.0
  0
VERTEX
  5
354
330
353
100
AcDbEntity
  8
GRAU_10_
 62
     7
100
AcDbVertex
100
AcDb2dVertex
 10
132.0698024843437
 20
138.2871663065741
 30
0.0
  0
VERTEX
  5
355
330
353
100
AcDbEntity
  8
GRAU_10_
 62
     7
100
AcDbVertex
100
AcDb2dVertex
 10
132.8080864468327
 20
138.2871663065741
 30
0.0
  0
SEQEND
  5
356
330
353
100
AcDbEntity
  8
GRAU_10_
  0
POLYLINE
  5
357
330
1F
100
AcDbEntity
  8
GRAU_10_
 62
     7
100
AcDb2dPolyline
 66
     1
 10
0.0
 20
0.0
 30
0.0
  0
VERTEX
  5
358
330
357
100
AcDbEntity
  8
GRAU_10_
 62
     7
100
AcDbVertex
100
AcDb2dVertex
 10
132.0698024843437
 20
138.3150715800046
 30
0.0
  0
VERTEX
  5
359
330
357
100
AcDbEntity
  8
GRAU_10_
 62
     7
100
AcDbVertex
100
AcDb2dVertex
 10
133.0199598191756
 20
138.3150715800046
 30
0.0
  0
SEQEND
  5
35A
330
357
100
AcDbEntity
  8
GRAU_10_
  0
POLYLINE
  5
35B
330
1F
100
AcDbEntity
  8
GRAU_10_
 62
     7
100
AcDb2dPolyline
 66
     1
 10
0.0
 20
0.0
 30
0.0
  0
VERTEX
  5
35C
330
35B
100
AcDbEntity
  8
GRAU_10_
 62
     7
100
AcDbVertex
100
AcDb2dVertex
 10
132.0698024843437
 20
138.3429768534351
 30
0.0
  0
VERTEX
  5
35D
330
35B
100
AcDbEntity
  8
GRAU_10_
 62
     7
100
AcDbVertex
100
AcDb2dVertex
 10
133.232177701067
 20
138.3429768534351
 30
0.0
  0
SEQEND
  5
35E
330
35B
100
AcDbEntity
  8
GRAU_10_
  0
POLYLINE
  5
35F
330
1F
100
AcDbEntity
  8
GRAU_10_
 62
     7
100
AcDb2dPolyline
 66
     1
 10
0.0
 20
0.0
 30
0.0
  0
VERTEX
  5
360
330
35F
100
AcDbEntity
  8
GRAU_10_
 62
     7
100
AcDbVertex
100
AcDb2dVertex
 10
132.0698024843437
 20
138.3710543816399
 30
0.0
  0
VERTEX
  5
361
330
35F
100
AcDbEntity
  8
GRAU_10_
 62
     7
100
AcDbVertex
100
AcDb2dVertex
 10
133.4447400925069
 20
138.3710543816399
 30
0.0
  0
SEQEND
  5
362
330
35F
100
AcDbEntity
  8
GRAU_10_
  0
ENDSEC
  0
SECTION
  2
OBJECTS
  0
DICTIONARY
  5
C
330
0
100
AcDbDictionary
  3
ACAD_GROUP
350
D
  3
ACAD_LAYOUT
350
1A
  3
ACAD_MLINESTYLE
350
17
  3
ACAD_PLOTSETTINGS
350
19
  3
ACAD_TABLESTYLE
350
383
  3
ACAD_VISUALSTYLE
350
2A
  3
ACDBHEADERROUNDTRIPXREC
350
363
  0
DICTIONARY
  5
D
102
{ACAD_REACTORS
330
C
102
}
330
C
100
AcDbDictionary
  0
DICTIONARY
  5
1A
102
{ACAD_REACTORS
330
C
102
}
330
C
100
AcDbDictionary
  0
DICTIONARY
  5
17
102
{ACAD_REACTORS
330
C
102
}
330
C
100
AcDbDictionary
  3
STANDARD
350
18
  0
DICTIONARY
  5
19
102
{ACAD_REACTORS
330
C
102
}
330
C
100
AcDbDictionary
  0
DICTIONARY
  5
383
102
{ACAD_REACTORS
330
C
102
}
330
C
100
AcDbDictionary
  0
DICTIONARY
  5
2A
102
{ACAD_REACTORS
330
C
102
}
330
C
100
AcDbDictionary
  3
2DWIREFRAME
350
2F
  3
3D_HIDDEN
350
31
  3
3DWIREFRAME
350
30
  3
BASIC
350
32
  3
BRIGHTEN
350
36
  3
COLORCHANGE
350
3A
  3
CONCEPTUAL
350
34
  3
DIM
350
35
  3
FACEPATTERN
350
39
  3
FLAT
350
2B
  3
FLATWITHEDGES
350
2C
  3
GOURAUD
350
2D
  3
GOURAUDWITHEDGES
350
2E
  3
LINEPATTERN
350
38
  3
REALISTIC
350
33
  3
THICKEN
350
37
  0
DICTIONARY
  5
363
102
{ACAD_REACTORS
330
C
102
}
330
C
100
AcDbDictionary
  3
CEPSNTYPE
350
36C
  3
DIMSTYLEDATA
350
382
  3
FINGERPRINTGUID
350
36D
  3
HYPERLINKBASE
350
366
  3
INSUNITS
350
36B
  3
LAYOUTDICT
350
368
  3
LWETCUNION
350
36A
  3
PLOTSETDICT
350
369
  3
PSVPSCALE
350
36F
  3
PUCSBASE
350
372
  3
PUCSORGBACK
350
378
  3
PUCSORGBOTTOM
350
374
  3
PUCSORGFRONT
350
377
  3
PUCSORGLEFT
350
375
  3
PUCSORGRIGHT
350
376
  3
PUCSORGTOP
350
373
  3
PUCSORTHOREF
350
370
  3
PUCSORTHOVIEW
350
371
  3
STYLESHEET
350
367
  3
TSTACKALIGN
350
364
  3
TSTACKSIZE
350
365
  3
UCSBASE
350
37B
  3
UCSORGBACK
350
381
  3
UCSORGBOTTOM
350
37D
  3
UCSORGFRONT
350
380
  3
UCSORGLEFT
350
37E
  3
UCSORGRIGHT
350
37F
  3
UCSORGTOP
350
37C
  3
UCSORTHOREF
350
379
  3
UCSORTHOVIEW
350
37A
  3
VERSIONGUID
350
36E
  0
MLINESTYLE
  5
18
102
{ACAD_REACTORS
330
17
102
}
330
17
100
AcDbMlineStyle
  2
Standard
 70
     0
  3

 62
   256
 51
90.0
 52
90.0
 71
     2
 49
0.5
 62
   256
  6
BYLAYER
 49
-0.5
 62
   256
  6
BYLAYER
  0
VISUALSTYLE
  5
2F
102
{ACAD_REACTORS
330
2A
102
}
330
2A
100
AcDbVisualStyle
  2
2dWireframe
 70
     4
 71
     0
 72
     2
 73
     0
 90
        0
 40
-0.6
 41
-30.0
 62
     5
 63
     7
 74
     1
 91
        4
 64
     7
 65
   257
 75
     1
175
     1
 42
1.0
 92
        0
 66
   257
 43
1.0
 76
     1
 77
     6
 78
     2
 67
     7
 79
     5
170
     0
171
     0
290
     0
174
     0
 93
        1
 44
0.0
173
     0
291
     0
 45
0.0
1001
ACAD
1000
AcDbSavedByObjectVersion
1070
     0
  0
VISUALSTYLE
  5
31
102
{ACAD_REACTORS
330
2A
102
}
330
2A
100
AcDbVisualStyle
  2
3D Hidden
 70
     6
 71
     1
 72
     2
 73
     2
 90
        0
 40
-0.6
 41
-30.0
 62
     5
 63
     7
 74
     2
 91
        2
 64
     7
 65
   257
 75
     2
175
     1
 42
40.0
 92
        0
 66
   257
 43
1.0
 76
     1
 77
     6
 78
     2
 67
     7
 79
     3
170
     0
171
     0
290
     0
174
     0
 93
        1
 44
0.0
173
     0
291
     0
 45
0.0
1001
ACAD
1000
AcDbSavedByObjectVersion
1070
     0
  0
VISUALSTYLE
  5
30
102
{ACAD_REACTORS
330
2A
102
}
330
2A
100
AcDbVisualStyle
  2
3dWireframe
 70
     5
 71
     0
 72
     2
 73
     0
 90
        0
 40
-0.6
 41
-30.0
 62
     5
 63
     7
 74
     1
 91
        4
 64
     7
 65
   257
 75
     1
175
     1
 42
1.0
 92
        0
 66
   257
 43
1.0
 76
     1
 77
     6
 78
     2
 67
     7
 79
     5
170
     0
171
     0
290
     0
174
     0
 93
        1
 44
0.0
173
     0
291
     0
 45
0.0
1001
ACAD
1000
AcDbSavedByObjectVersion
1070
     0
  0
VISUALSTYLE
  5
32
102
{ACAD_REACTORS
330
2A
102
}
330
2A
100
AcDbVisualStyle
  2
Basic
 70
     7
 71
     1
 72
     0
 73
     1
 90
        0
 40
-0.6
 41
-30.0
 62
     5
 63
     7
 74
     0
 91
        4
 64
     7
 65
   257
 75
     1
175
     1
 42
1.0
 92
        8
 66
     7
 43
1.0
 76
     1
 77
     6
 78
     2
 67
     7
 79
     5
170
     0
171
     0
290
     0
174
     0
 93
        1
 44
0.0
173
     0
291
     1
 45
0.0
1001
ACAD
1000
AcDbSavedByObjectVersion
1070
     0
  0
VISUALSTYLE
  5
36
102
{ACAD_REACTORS
330
2A
102
}
330
2A
100
AcDbVisualStyle
  2
Brighten
 70
    12
 71
     2
 72
     2
 73
     0
 90
        0
 40
-0.6
 41
-30.0
 62
     5
 63
     7
 74
     1
 91
        4
 64
     7
 65
   257
 75
     1
175
     1
 42
1.0
 92
        8
 66
     7
 43
1.0
 76
     1
 77
     6
 78
     2
 67
     7
 79
     5
170
     0
171
     0
290
     0
174
     0
 93
        1
 44
50.0
173
     0
291
     1
 45
0.0
1001
ACAD
1000
AcDbSavedByObjectVersion
1070
     0
  0
VISUALSTYLE
  5
3A
102
{ACAD_REACTORS
330
2A
102
}
330
2A
100
AcDbVisualStyle
  2
ColorChange
 70
    16
 71
     2
 72
     2
 73
     3
 90
        0
 40
-0.6
 41
-30.0
 62
     5
 63
     8
 74
     1
 91
        4
 64
     7
 65
   257
 75
     1
175
     1
 42
1.0
 92
        8
 66
     8
 43
1.0
 76
     1
 77
     6
 78
     2
 67
     7
 79
     5
170
     0
171
     0
290
     0
174
     0
 93
        1
 44
0.0
173
     0
291
     1
 45
0.0
1001
ACAD
1000
AcDbSavedByObjectVersion
1070
     0
  0
VISUALSTYLE
  5
34
102
{ACAD_REACTORS
330
2A
102
}
330
2A
100
AcDbVisualStyle
  2
Conceptual
 70
     9
 71
     3
 72
     2
 73
     0
 90
        0
 40
-0.6
 41
-30.0
 62
     5
 63
     7
 74
     2
 91
        2
 64
     7
 65
   257
 75
     1
175
     1
 42
40.0
 92
        8
 66
     7
 43
1.0
 76
     1
 77
     6
 78
     2
 67
     7
 79
     3
170
     0
171
     0
290
     0
174
     0
 93
        1
 44
0.0
173
     0
291
     0
 45
0.0
1001
ACAD
1000
AcDbSavedByObjectVersion
1070
     0
  0
VISUALSTYLE
  5
35
102
{ACAD_REACTORS
330
2A
102
}
330
2A
100
AcDbVisualStyle
  2
Dim
 70
    11
 71
     2
 72
     2
 73
     0
 90
        0
 40
-0.6
 41
-30.0
 62
     5
 63
     7
 74
     1
 91
        4
 64
     7
 65
   257
 75
     1
175
     1
 42
1.0
 92
        8
 66
     7
 43
1.0
 76
     1
 77
     6
 78
     2
 67
     7
 79
     5
170
     0
171
     0
290
     0
174
     0
 93
        1
 44
-50.0
173
     0
291
     1
 45
0.0
1001
ACAD
1000
AcDbSavedByObjectVersion
1070
     0
  0
VISUALSTYLE
  5
39
102
{ACAD_REACTORS
330
2A
102
}
330
2A
100
AcDbVisualStyle
  2
Facepattern
 70
    15
 71
     2
 72
     2
 73
     0
 90
        0
 40
-0.6
 41
-30.0
 62
     5
 63
     7
 74
     1
 91
        4
 64
     7
 65
   257
 75
     1
175
     1
 42
1.0
 92
        8
 66
     7
 43
1.0
 76
     1
 77
     6
 78
     2
 67
     7
 79
     5
170
     0
171
     0
290
     0
174
     0
 93
        1
 44
0.0
173
     0
291
     1
 45
0.0
1001
ACAD
1000
AcDbSavedByObjectVersion
1070
     0
  0
VISUALSTYLE
  5
2B
102
{ACAD_REACTORS
330
2A
102
}
330
2A
100
AcDbVisualStyle
  2
Flat
 70
     0
 71
     2
 72
     1
 73
     1
 90
        2
 40
-0.6
 41
30.0
 62
     5
 63
     7
 74
     0
 91
        4
 64
     7
 65
   257
 75
     1
175
     1
 42
1.0
 92
        8
 66
     7
 43
1.0
 76
     1
 77
     6
 78
     2
 67
     7
 79
     5
170
     0
171
     0
290
     0
174
     0
 93
       13
 44
0.0
173
     0
291
     1
 45
0.0
1001
ACAD
1000
AcDbSavedByObjectVersion
1070
     0
  0
VISUALSTYLE
  5
2C
102
{ACAD_REACTORS
330
2A
102
}
330
2A
100
AcDbVisualStyle
  2
FlatWithEdges
 70
     1
 71
     2
 72
     1
 73
     1
 90
        2
 40
-0.6
 41
30.0
 62
     5
 63
     7
 74
     1
 91
        4
 64
     7
 65
   257
 75
     1
175
     1
 42
1.0
 92
        0
 66
   257
 43
1.0
 76
     1
 77
     6
 78
     2
 67
     7
 79
     5
170
     0
171
     0
290
     0
174
     0
 93
       13
 44
0.0
173
     0
291
     1
 45
0.0
1001
ACAD
1000
AcDbSavedByObjectVersion
1070
     0
  0
VISUALSTYLE
  5
2D
102
{ACAD_REACTORS
330
2A
102
}
330
2A
100
AcDbVisualStyle
  2
Gouraud
 70
     2
 71
     2
 72
     2
 73
     1
 90
        2
 40
-0.6
 41
30.0
 62
     5
 63
     7
 74
     0
 91
        4
 64
     7
 65
   257
 75
     1
175
     1
 42
1.0
 92
        0
 66
     7
 43
1.0
 76
     1
 77
     6
 78
     2
 67
     7
 79
     5
170
     0
171
     0
290
     0
174
     0
 93
       13
 44
0.0
173
     0
291
     1
 45
0.0
1001
ACAD
1000
AcDbSavedByObjectVersion
1070
     0
  0
VISUALSTYLE
  5
2E
102
{ACAD_REACTORS
330
2A
102
}
330
2A
100
AcDbVisualStyle
  2
GouraudWithEdges
 70
     3
 71
     2
 72
     2
 73
     1
 90
        2
 40
-0.6
 41
30.0
 62
     5
 63
     7
 74
     1
 91
        4
 64
     7
 65
   257
 75
     1
175
     1
 42
1.0
 92
        0
 66
   257
 43
1.0
 76
     1
 77
     6
 78
     2
 67
     7
 79
     5
170
     0
171
     0
290
     0
174
     0
 93
       13
 44
0.0
173
     0
291
     1
 45
0.0
1001
ACAD
1000
AcDbSavedByObjectVersion
1070
     0
  0
VISUALSTYLE
  5
38
102
{ACAD_REACTORS
330
2A
102
}
330
2A
100
AcDbVisualStyle
  2
Linepattern
 70
    14
 71
     2
 72
     2
 73
     0
 90
        0
 40
-0.6
 41
-30.0
 62
     5
 63
     7
 74
     1
 91
        4
 64
     7
 65
   257
 75
     7
175
     7
 42
1.0
 92
        8
 66
     7
 43
1.0
 76
     1
 77
     6
 78
     2
 67
     7
 79
     5
170
     0
171
     0
290
     0
174
     0
 93
        1
 44
0.0
173
     0
291
     1
 45
0.0
1001
ACAD
1000
AcDbSavedByObjectVersion
1070
     0
  0
VISUALSTYLE
  5
33
102
{ACAD_REACTORS
330
2A
102
}
330
2A
100
AcDbVisualStyle
  2
Realistic
 70
     8
 71
     2
 72
     2
 73
     0
 90
        0
 40
-0.6
 41
-30.0
 62
     5
 63
     7
 74
     1
 91
        0
 64
     7
 65
   257
 75
     1
175
     1
 42
1.0
 92
        8
 66
     8
 43
1.0
 76
     1
 77
     6
 78
     2
 67
     7
 79
     5
170
     0
171
     0
290
     0
174
     0
 93
       13
 44
0.0
173
     0
291
     0
 45
0.0
1001
ACAD
1000
AcDbSavedByObjectVersion
1070
     0
  0
VISUALSTYLE
  5
37
102
{ACAD_REACTORS
330
2A
102
}
330
2A
100
AcDbVisualStyle
  2
Thicken
 70
    13
 71
     2
 72
     2
 73
     0
 90
        0
 40
-0.6
 41
-30.0
 62
     5
 63
     7
 74
     1
 91
        4
 64
     7
 65
   257
 75
     1
175
     1
 42
1.0
 92
       12
 66
     7
 43
1.0
 76
     1
 77
     6
 78
     2
 67
     7
 79
     5
170
     0
171
     0
290
     0
174
     0
 93
        1
 44
0.0
173
     0
291
     1
 45
0.0
1001
ACAD
1000
AcDbSavedByObjectVersion
1070
     0
  0
XRECORD
  5
36C
102
{ACAD_REACTORS
330
363
102
}
330
363
100
AcDbXrecord
 90
        0
  0
XRECORD
  5
382
102
{ACAD_REACTORS
330
363
102
}
330
363
100
AcDbXrecord
1000
DSTYLE
1002
{
1070
   340
340
11
1002
}
  0
XRECORD
  5
36D
102
{ACAD_REACTORS
330
363
102
}
330
363
100
AcDbXrecord
  1
{BE9E17F6-1686-4FC6-BF80-7E910837F02E}
  0
XRECORD
  5
366
102
{ACAD_REACTORS
330
363
102
}
330
363
100
AcDbXrecord
  1

  0
XRECORD
  5
36B
102
{ACAD_REACTORS
330
363
102
}
330
363
100
AcDbXrecord
 90
        1
  0
XRECORD
  5
368
102
{ACAD_REACTORS
330
363
102
}
330
363
100
AcDbXrecord
340
1A
  0
XRECORD
  5
36A
102
{ACAD_REACTORS
330
363
102
}
330
363
100
AcDbXrecord
 90
    10269
  0
XRECORD
  5
369
102
{ACAD_REACTORS
330
363
102
}
330
363
100
AcDbXrecord
340
19
  0
XRECORD
  5
36F
102
{ACAD_REACTORS
330
363
102
}
330
363
100
AcDbXrecord
 40
0.0
  0
XRECORD
  5
372
102
{ACAD_REACTORS
330
363
102
}
330
363
100
AcDbXrecord
340
0
  0
XRECORD
  5
378
102
{ACAD_REACTORS
330
363
102
}
330
363
100
AcDbXrecord
 10
0.0
 20
0.0
 30
0.0
  0
XRECORD
  5
374
102
{ACAD_REACTORS
330
363
102
}
330
363
100
AcDbXrecord
 10
0.0
 20
0.0
 30
0.0
  0
XRECORD
  5
377
102
{ACAD_REACTORS
330
363
102
}
330
363
100
AcDbXrecord
 10
0.0
 20
0.0
 30
0.0
  0
XRECORD
  5
375
102
{ACAD_REACTORS
330
363
102
}
330
363
100
AcDbXrecord
 10
0.0
 20
0.0
 30
0.0
  0
XRECORD
  5
376
102
{ACAD_REACTORS
330
363
102
}
330
363
100
AcDbXrecord
 10
0.0
 20
0.0
 30
0.0
  0
XRECORD
  5
373
102
{ACAD_REACTORS
330
363
102
}
330
363
100
AcDbXrecord
 10
0.0
 20
0.0
 30
0.0
  0
XRECORD
  5
370
102
{ACAD_REACTORS
330
363
102
}
330
363
100
AcDbXrecord
340
0
  0
XRECORD
  5
371
102
{ACAD_REACTORS
330
363
102
}
330
363
100
AcDbXrecord
 70
     0
  0
XRECORD
  5
367
102
{ACAD_REACTORS
330
363
102
}
330
363
100
AcDbXrecord
  1

  0
XRECORD
  5
364
102
{ACAD_REACTORS
330
363
102
}
330
363
100
AcDbXrecord
 90
        1
  0
XRECORD
  5
365
102
{ACAD_REACTORS
330
363
102
}
330
363
100
AcDbXrecord
 90
       70
  0
XRECORD
  5
37B
102
{ACAD_REACTORS
330
363
102
}
330
363
100
AcDbXrecord
340
0
  0
XRECORD
  5
381
102
{ACAD_REACTORS
330
363
102
}
330
363
100
AcDbXrecord
 10
0.0
 20
0.0
 30
0.0
  0
XRECORD
  5
37D
102
{ACAD_REACTORS
330
363
102
}
330
363
100
AcDbXrecord
 10
0.0
 20
0.0
 30
0.0
  0
XRECORD
  5
380
102
{ACAD_REACTORS
330
363
102
}
330
363
100
AcDbXrecord
 10
0.0
 20
0.0
 30
0.0
  0
XRECORD
  5
37E
102
{ACAD_REACTORS
330
363
102
}
330
363
100
AcDbXrecord
 10
0.0
 20
0.0
 30
0.0
  0
XRECORD
  5
37F
102
{ACAD_REACTORS
330
363
102
}
330
363
100
AcDbXrecord
 10
0.0
 20
0.0
 30
0.0
  0
XRECORD
  5
37C
102
{ACAD_REACTORS
330
363
102
}
330
363
100
AcDbXrecord
 10
0.0
 20
0.0
 30
0.0
  0
XRECORD
  5
379
102
{ACAD_REACTORS
330
363
102
}
330
363
100
AcDbXrecord
340
0
  0
XRECORD
  5
37A
102
{ACAD_REACTORS
330
363
102
}
330
363
100
AcDbXrecord
 70
     0
  0
XRECORD
  5
36E
102
{ACAD_REACTORS
330
363
102
}
330
363
100
AcDbXrecord
  1
{FAEB1C32-E019-11D5-929B-00C0DF256EC4}
  0
ENDSEC
  0
EOF
