ISO-10303-21;
HEADER;
/* Generated by software containing ST-Developer
 * from STEP Tools, Inc. (www.steptools.com) 
 */
/* OPTION: using custom schema-name function */

FILE_DESCRIPTION(
/* description */ (''),
/* implementation_level */ '2;1');

FILE_NAME(
/* name */ 'W9990793_stp.stp',
/* time_stamp */ '2017-05-12T08:52:52+02:00',
/* author */ (''),
/* organization */ (''),
/* preprocessor_version */ 'ST-DEVELOPER v15',
/* originating_system */ 'SIEMENS PLM Software NX 9.0',
/* authorisation */ '');

FILE_SCHEMA (('AUTOMOTIVE_DESIGN { 1 0 10303 214 3 1 1 1 }'));
ENDSEC;

DATA;
#10=PROPERTY_DEFINITION_REPRESENTATION(#14,#12);
#11=PROPERTY_DEFINITION_REPRESENTATION(#15,#13);
#12=REPRESENTATION('',(#16),#377);
#13=REPRESENTATION('',(#17),#377);
#14=PROPERTY_DEFINITION('pmi validation property','',#21);
#15=PROPERTY_DEFINITION('pmi validation property','',#21);
#16=VALUE_REPRESENTATION_ITEM('number of annotations',COUNT_MEASURE(0.));
#17=VALUE_REPRESENTATION_ITEM('number of views',COUNT_MEASURE(0.));
#18=SHAPE_REPRESENTATION_RELATIONSHIP('None',
'relationship between reic0AD8C65Btqbz-None and reic0AD8C65Btqbz-None',
#30,#19);
#19=ADVANCED_BREP_SHAPE_REPRESENTATION('reic0AD8C65Btqbz-None',(#40),#377);
#20=SHAPE_DEFINITION_REPRESENTATION(#21,#30);
#21=PRODUCT_DEFINITION_SHAPE('','',#22);
#22=PRODUCT_DEFINITION(' ','',#24,#23);
#23=PRODUCT_DEFINITION_CONTEXT('part definition',#29,'design');
#24=PRODUCT_DEFINITION_FORMATION_WITH_SPECIFIED_SOURCE(' ',' ',#26,
 .NOT_KNOWN.);
#25=PRODUCT_RELATED_PRODUCT_CATEGORY('part','',(#26));
#26=PRODUCT('reic0AD8C65Btqbz','reic0AD8C65Btqbz',' ',(#27));
#27=PRODUCT_CONTEXT(' ',#29,'mechanical');
#28=APPLICATION_PROTOCOL_DEFINITION('international standard',
'automotive_design',2010,#29);
#29=APPLICATION_CONTEXT(
'core data for automotive mechanical design processes');
#30=SHAPE_REPRESENTATION('reic0AD8C65Btqbz-None',(#223),#377);
#31=PRESENTATION_LAYER_ASSIGNMENT('210','Layer 210',(#40));
#32=STYLED_ITEM('',(#33),#40);
#33=PRESENTATION_STYLE_ASSIGNMENT((#34));
#34=SURFACE_STYLE_USAGE(.BOTH.,#35);
#35=SURFACE_SIDE_STYLE('',(#36));
#36=SURFACE_STYLE_FILL_AREA(#37);
#37=FILL_AREA_STYLE('',(#38));
#38=FILL_AREA_STYLE_COLOUR('',#39);
#39=COLOUR_RGB('RAL 7035',0.8,0.8,0.8);
#40=MANIFOLD_SOLID_BREP('',#41);
#41=CLOSED_SHELL('',(#60,#61,#62,#63,#64,#65,#66,#67,#68,#69,#70,#71,#72,
#73,#74,#75));
#42=LINE('',#351,#44);
#43=LINE('',#353,#45);
#44=VECTOR('',#292,1.);
#45=VECTOR('',#293,1.);
#46=CONICAL_SURFACE('',#237,6.07255101170477,4.49999999999921);
#47=CONICAL_SURFACE('',#240,10.3318144531128,75.0000000000005);
#48=CONICAL_SURFACE('',#252,10.0723145172501,8.00000000000004);
#49=TOROIDAL_SURFACE('',#230,5.07563367797164,1.);
#50=TOROIDAL_SURFACE('',#233,11.1082715884204,3.00000000000011);
#51=TOROIDAL_SURFACE('',#235,707.5,700.);
#52=PLANE('',#227);
#53=PLANE('',#236);
#54=PLANE('',#246);
#55=PLANE('',#250);
#56=PLANE('',#255);
#57=FACE_OUTER_BOUND('',#109,.T.);
#58=FACE_OUTER_BOUND('',#122,.T.);
#59=FACE_OUTER_BOUND('',#135,.T.);
#60=ADVANCED_FACE('',(#81,#82),#76,.F.);
#61=ADVANCED_FACE('',(#57),#52,.T.);
#62=ADVANCED_FACE('',(#83,#84),#49,.T.);
#63=ADVANCED_FACE('',(#85,#86),#50,.F.);
#64=ADVANCED_FACE('',(#87,#88),#51,.F.);
#65=ADVANCED_FACE('',(#89,#90),#53,.F.);
#66=ADVANCED_FACE('',(#91,#92),#46,.T.);
#67=ADVANCED_FACE('',(#93,#94),#47,.T.);
#68=ADVANCED_FACE('',(#58),#77,.T.);
#69=ADVANCED_FACE('',(#95,#96),#78,.T.);
#70=ADVANCED_FACE('',(#97,#98),#54,.F.);
#71=ADVANCED_FACE('',(#99,#100),#79,.T.);
#72=ADVANCED_FACE('',(#101,#102),#55,.F.);
#73=ADVANCED_FACE('',(#103,#104),#48,.T.);
#74=ADVANCED_FACE('',(#105,#106),#80,.T.);
#75=ADVANCED_FACE('',(#59),#56,.F.);
#76=CYLINDRICAL_SURFACE('',#226,3.25);
#77=CYLINDRICAL_SURFACE('',#242,25.);
#78=CYLINDRICAL_SURFACE('',#244,25.);
#79=CYLINDRICAL_SURFACE('',#248,16.);
#80=CYLINDRICAL_SURFACE('',#254,8.);
#81=FACE_BOUND('',#107,.T.);
#82=FACE_BOUND('',#108,.T.);
#83=FACE_BOUND('',#110,.T.);
#84=FACE_BOUND('',#111,.T.);
#85=FACE_BOUND('',#112,.T.);
#86=FACE_BOUND('',#113,.T.);
#87=FACE_BOUND('',#114,.T.);
#88=FACE_BOUND('',#115,.T.);
#89=FACE_BOUND('',#116,.T.);
#90=FACE_BOUND('',#117,.T.);
#91=FACE_BOUND('',#118,.T.);
#92=FACE_BOUND('',#119,.T.);
#93=FACE_BOUND('',#120,.T.);
#94=FACE_BOUND('',#121,.T.);
#95=FACE_BOUND('',#123,.T.);
#96=FACE_BOUND('',#124,.T.);
#97=FACE_BOUND('',#125,.T.);
#98=FACE_BOUND('',#126,.T.);
#99=FACE_BOUND('',#127,.T.);
#100=FACE_BOUND('',#128,.T.);
#101=FACE_BOUND('',#129,.T.);
#102=FACE_BOUND('',#130,.T.);
#103=FACE_BOUND('',#131,.T.);
#104=FACE_BOUND('',#132,.T.);
#105=FACE_BOUND('',#133,.T.);
#106=FACE_BOUND('',#134,.T.);
#107=EDGE_LOOP('',(#136));
#108=EDGE_LOOP('',(#137));
#109=EDGE_LOOP('',(#138));
#110=EDGE_LOOP('',(#139));
#111=EDGE_LOOP('',(#140));
#112=EDGE_LOOP('',(#141));
#113=EDGE_LOOP('',(#142));
#114=EDGE_LOOP('',(#143));
#115=EDGE_LOOP('',(#144));
#116=EDGE_LOOP('',(#145));
#117=EDGE_LOOP('',(#146));
#118=EDGE_LOOP('',(#147));
#119=EDGE_LOOP('',(#148));
#120=EDGE_LOOP('',(#149,#150));
#121=EDGE_LOOP('',(#151));
#122=EDGE_LOOP('',(#152,#153,#154,#155));
#123=EDGE_LOOP('',(#156));
#124=EDGE_LOOP('',(#157,#158,#159,#160));
#125=EDGE_LOOP('',(#161));
#126=EDGE_LOOP('',(#162));
#127=EDGE_LOOP('',(#163));
#128=EDGE_LOOP('',(#164));
#129=EDGE_LOOP('',(#165));
#130=EDGE_LOOP('',(#166));
#131=EDGE_LOOP('',(#167));
#132=EDGE_LOOP('',(#168));
#133=EDGE_LOOP('',(#169));
#134=EDGE_LOOP('',(#170));
#135=EDGE_LOOP('',(#171));
#136=ORIENTED_EDGE('',*,*,#189,.T.);
#137=ORIENTED_EDGE('',*,*,#190,.T.);
#138=ORIENTED_EDGE('',*,*,#189,.F.);
#139=ORIENTED_EDGE('',*,*,#191,.F.);
#140=ORIENTED_EDGE('',*,*,#192,.T.);
#141=ORIENTED_EDGE('',*,*,#193,.F.);
#142=ORIENTED_EDGE('',*,*,#194,.T.);
#143=ORIENTED_EDGE('',*,*,#194,.F.);
#144=ORIENTED_EDGE('',*,*,#195,.T.);
#145=ORIENTED_EDGE('',*,*,#190,.F.);
#146=ORIENTED_EDGE('',*,*,#192,.F.);
#147=ORIENTED_EDGE('',*,*,#195,.F.);
#148=ORIENTED_EDGE('',*,*,#191,.T.);
#149=ORIENTED_EDGE('',*,*,#196,.F.);
#150=ORIENTED_EDGE('',*,*,#197,.F.);
#151=ORIENTED_EDGE('',*,*,#193,.T.);
#152=ORIENTED_EDGE('',*,*,#198,.F.);
#153=ORIENTED_EDGE('',*,*,#197,.T.);
#154=ORIENTED_EDGE('',*,*,#199,.F.);
#155=ORIENTED_EDGE('',*,*,#200,.T.);
#156=ORIENTED_EDGE('',*,*,#201,.F.);
#157=ORIENTED_EDGE('',*,*,#200,.F.);
#158=ORIENTED_EDGE('',*,*,#199,.T.);
#159=ORIENTED_EDGE('',*,*,#196,.T.);
#160=ORIENTED_EDGE('',*,*,#198,.T.);
#161=ORIENTED_EDGE('',*,*,#202,.T.);
#162=ORIENTED_EDGE('',*,*,#201,.T.);
#163=ORIENTED_EDGE('',*,*,#203,.T.);
#164=ORIENTED_EDGE('',*,*,#202,.F.);
#165=ORIENTED_EDGE('',*,*,#203,.F.);
#166=ORIENTED_EDGE('',*,*,#204,.T.);
#167=ORIENTED_EDGE('',*,*,#205,.F.);
#168=ORIENTED_EDGE('',*,*,#204,.F.);
#169=ORIENTED_EDGE('',*,*,#205,.T.);
#170=ORIENTED_EDGE('',*,*,#206,.T.);
#171=ORIENTED_EDGE('',*,*,#206,.F.);
#172=VERTEX_POINT('',#326);
#173=VERTEX_POINT('',#328);
#174=VERTEX_POINT('',#332);
#175=VERTEX_POINT('',#334);
#176=VERTEX_POINT('',#337);
#177=VERTEX_POINT('',#339);
#178=VERTEX_POINT('',#342);
#179=VERTEX_POINT('',#347);
#180=VERTEX_POINT('',#348);
#181=VERTEX_POINT('',#352);
#182=VERTEX_POINT('',#354);
#183=VERTEX_POINT('',#358);
#184=VERTEX_POINT('',#361);
#185=VERTEX_POINT('',#364);
#186=VERTEX_POINT('',#367);
#187=VERTEX_POINT('',#370);
#188=VERTEX_POINT('',#373);
#189=EDGE_CURVE('',#172,#172,#207,.T.);
#190=EDGE_CURVE('',#173,#173,#208,.T.);
#191=EDGE_CURVE('',#174,#174,#209,.T.);
#192=EDGE_CURVE('',#175,#175,#210,.T.);
#193=EDGE_CURVE('',#176,#176,#211,.T.);
#194=EDGE_CURVE('',#177,#177,#212,.T.);
#195=EDGE_CURVE('',#178,#178,#213,.T.);
#196=EDGE_CURVE('',#179,#180,#214,.T.);
#197=EDGE_CURVE('',#180,#179,#215,.T.);
#198=EDGE_CURVE('',#180,#181,#42,.T.);
#199=EDGE_CURVE('',#182,#179,#43,.T.);
#200=EDGE_CURVE('',#182,#181,#216,.T.);
#201=EDGE_CURVE('',#183,#183,#217,.T.);
#202=EDGE_CURVE('',#184,#184,#218,.T.);
#203=EDGE_CURVE('',#185,#185,#219,.T.);
#204=EDGE_CURVE('',#186,#186,#220,.T.);
#205=EDGE_CURVE('',#187,#187,#221,.T.);
#206=EDGE_CURVE('',#188,#188,#222,.T.);
#207=CIRCLE('',#224,3.25);
#208=CIRCLE('',#225,3.25);
#209=CIRCLE('',#228,6.07255101170477);
#210=CIRCLE('',#229,5.07563367797164);
#211=CIRCLE('',#231,10.3318144531128);
#212=CIRCLE('',#232,8.11088968707918);
#213=CIRCLE('',#234,7.5);
#214=CIRCLE('',#238,25.);
#215=CIRCLE('',#239,25.);
#216=CIRCLE('',#241,25.);
#217=CIRCLE('',#243,25.);
#218=CIRCLE('',#245,16.);
#219=CIRCLE('',#247,16.);
#220=CIRCLE('',#249,10.0723145172501);
#221=CIRCLE('',#251,8.);
#222=CIRCLE('',#253,8.);
#223=AXIS2_PLACEMENT_3D('',#324,#256,#257);
#224=AXIS2_PLACEMENT_3D('',#325,#258,#259);
#225=AXIS2_PLACEMENT_3D('',#327,#260,#261);
#226=AXIS2_PLACEMENT_3D('',#329,#262,#263);
#227=AXIS2_PLACEMENT_3D('',#330,#264,#265);
#228=AXIS2_PLACEMENT_3D('',#331,#266,#267);
#229=AXIS2_PLACEMENT_3D('',#333,#268,#269);
#230=AXIS2_PLACEMENT_3D('',#335,#270,#271);
#231=AXIS2_PLACEMENT_3D('',#336,#272,#273);
#232=AXIS2_PLACEMENT_3D('',#338,#274,#275);
#233=AXIS2_PLACEMENT_3D('',#340,#276,#277);
#234=AXIS2_PLACEMENT_3D('',#341,#278,#279);
#235=AXIS2_PLACEMENT_3D('',#343,#280,#281);
#236=AXIS2_PLACEMENT_3D('',#344,#282,#283);
#237=AXIS2_PLACEMENT_3D('',#345,#284,#285);
#238=AXIS2_PLACEMENT_3D('',#346,#286,#287);
#239=AXIS2_PLACEMENT_3D('',#349,#288,#289);
#240=AXIS2_PLACEMENT_3D('',#350,#290,#291);
#241=AXIS2_PLACEMENT_3D('',#355,#294,#295);
#242=AXIS2_PLACEMENT_3D('',#356,#296,#297);
#243=AXIS2_PLACEMENT_3D('',#357,#298,#299);
#244=AXIS2_PLACEMENT_3D('',#359,#300,#301);
#245=AXIS2_PLACEMENT_3D('',#360,#302,#303);
#246=AXIS2_PLACEMENT_3D('',#362,#304,#305);
#247=AXIS2_PLACEMENT_3D('',#363,#306,#307);
#248=AXIS2_PLACEMENT_3D('',#365,#308,#309);
#249=AXIS2_PLACEMENT_3D('',#366,#310,#311);
#250=AXIS2_PLACEMENT_3D('',#368,#312,#313);
#251=AXIS2_PLACEMENT_3D('',#369,#314,#315);
#252=AXIS2_PLACEMENT_3D('',#371,#316,#317);
#253=AXIS2_PLACEMENT_3D('',#372,#318,#319);
#254=AXIS2_PLACEMENT_3D('',#374,#320,#321);
#255=AXIS2_PLACEMENT_3D('',#375,#322,#323);
#256=DIRECTION('',(0.,0.,1.));
#257=DIRECTION('',(1.,0.,0.));
#258=DIRECTION('',(0.,0.,-1.));
#259=DIRECTION('',(-1.,0.,0.));
#260=DIRECTION('',(0.,1.74529223335299E-017,1.));
#261=DIRECTION('',(0.,1.,0.));
#262=DIRECTION('',(0.,0.,-1.));
#263=DIRECTION('',(1.,0.,0.));
#264=DIRECTION('',(0.,0.,1.));
#265=DIRECTION('',(-1.,0.,0.));
#266=DIRECTION('',(0.,-1.74529223335299E-017,-1.));
#267=DIRECTION('',(0.,-1.,0.));
#268=DIRECTION('',(0.,-1.74529223335299E-017,-1.));
#269=DIRECTION('',(0.,-1.,0.));
#270=DIRECTION('',(0.,-1.74529223335299E-017,-1.));
#271=DIRECTION('',(0.,1.,0.));
#272=DIRECTION('',(0.,-1.74529223335299E-017,-1.));
#273=DIRECTION('',(0.,-1.,0.));
#274=DIRECTION('',(0.,-1.74529223335299E-017,-1.));
#275=DIRECTION('',(0.,-1.,0.));
#276=DIRECTION('',(0.,-1.74529223335299E-017,-1.));
#277=DIRECTION('',(0.,1.,0.));
#278=DIRECTION('',(0.,-1.74529223335299E-017,-1.));
#279=DIRECTION('',(0.,-1.,0.));
#280=DIRECTION('',(0.,-1.74529223335299E-017,-1.));
#281=DIRECTION('',(0.,1.,-1.97197695315303E-017));
#282=DIRECTION('',(0.,-1.74529223335299E-017,-1.));
#283=DIRECTION('',(0.,1.,-2.08166817117217E-017));
#284=DIRECTION('',(0.,-1.74529223335299E-017,-1.));
#285=DIRECTION('',(0.,1.,3.27405704562135E-016));
#286=DIRECTION('',(0.,-1.74529223335299E-017,-1.));
#287=DIRECTION('',(0.,-1.,3.46944695195361E-017));
#288=DIRECTION('',(0.,-1.74529223335299E-017,-1.));
#289=DIRECTION('',(0.,-1.,3.46944695195361E-017));
#290=DIRECTION('',(0.,-1.74529223335299E-017,-1.));
#291=DIRECTION('',(0.,1.,-2.96662083158475E-017));
#292=DIRECTION('',(0.,-1.74529223335299E-017,-1.));
#293=DIRECTION('',(0.,1.74529223335299E-017,1.));
#294=DIRECTION('',(0.,1.74529223335299E-017,1.));
#295=DIRECTION('',(0.,-1.,1.73472347597681E-017));
#296=DIRECTION('',(0.,-1.74529223335299E-017,-1.));
#297=DIRECTION('',(0.,1.,0.));
#298=DIRECTION('',(0.,-1.74529223335299E-017,-1.));
#299=DIRECTION('',(0.,-1.,1.74529223335299E-017));
#300=DIRECTION('',(0.,-1.74529223335299E-017,-1.));
#301=DIRECTION('',(0.,1.,0.));
#302=DIRECTION('',(0.,0.,1.));
#303=DIRECTION('',(1.,0.,0.));
#304=DIRECTION('',(0.,1.74529223335299E-017,1.));
#305=DIRECTION('',(0.,-1.,1.74529223335299E-017));
#306=DIRECTION('',(0.,0.,1.));
#307=DIRECTION('',(1.,0.,0.));
#308=DIRECTION('',(0.,0.,-1.));
#309=DIRECTION('',(1.,0.,0.));
#310=DIRECTION('',(0.,0.,1.));
#311=DIRECTION('',(1.,0.,0.));
#312=DIRECTION('',(0.,0.,1.));
#313=DIRECTION('',(-1.,0.,0.));
#314=DIRECTION('',(0.,0.,-1.));
#315=DIRECTION('',(1.,0.,0.));
#316=DIRECTION('',(0.,0.,1.));
#317=DIRECTION('',(-1.,0.,2.53390335898458E-016));
#318=DIRECTION('',(0.,0.,1.));
#319=DIRECTION('',(1.,0.,0.));
#320=DIRECTION('',(0.,0.,-1.));
#321=DIRECTION('',(1.,0.,0.));
#322=DIRECTION('',(0.,0.,1.));
#323=DIRECTION('',(-1.,0.,0.));
#324=CARTESIAN_POINT('',(0.,0.,0.));
#325=CARTESIAN_POINT('',(0.,0.,23.));
#326=CARTESIAN_POINT('',(-3.25,0.,23.));
#327=CARTESIAN_POINT('',(0.,0.,60.));
#328=CARTESIAN_POINT('',(0.,3.25,60.));
#329=CARTESIAN_POINT('',(0.,0.,-42.3417874396135));
#330=CARTESIAN_POINT('',(0.,0.,23.));
#331=CARTESIAN_POINT('',(0.,1.74666157385708E-015,59.0784590957278));
#332=CARTESIAN_POINT('',(0.,-6.07255101170477,59.0784590957278));
#333=CARTESIAN_POINT('',(0.,1.76274515568651E-015,60.));
#334=CARTESIAN_POINT('',(0.,-5.07563367797164,60.));
#335=CARTESIAN_POINT('',(0.,1.73472347597681E-015,59.));
#336=CARTESIAN_POINT('',(0.,8.71430144904531E-016,8.93032847171815));
#337=CARTESIAN_POINT('',(0.,-10.3318144531128,8.93032847171815));
#338=CARTESIAN_POINT('',(0.,9.19817864277394E-016,11.7027993764847));
#339=CARTESIAN_POINT('',(0.,-8.11088968707918,11.7027993764847));
#340=CARTESIAN_POINT('',(0.,1.73472347597681E-015,11.8281059505855));
#341=CARTESIAN_POINT('',(0.,1.43010990893177E-015,40.941));
#342=CARTESIAN_POINT('',(0.,-7.5,40.941));
#343=CARTESIAN_POINT('',(0.,0.,40.941));
#344=CARTESIAN_POINT('',(0.,5.07563367797164,60.));
#345=CARTESIAN_POINT('',(0.,1.74666157385708E-015,59.0784590957278));
#346=CARTESIAN_POINT('',(0.,8.02834427342373E-016,5.));
#347=CARTESIAN_POINT('',(0.,-25.,5.));
#348=CARTESIAN_POINT('',(-3.06151588455594E-015,25.,5.));
#349=CARTESIAN_POINT('',(0.,8.02834427342373E-016,5.));
#350=CARTESIAN_POINT('',(0.,8.71430144904531E-016,8.93032847171815));
#351=CARTESIAN_POINT('',(-3.06151588455594E-015,25.,-41.));
#352=CARTESIAN_POINT('',(-3.06151588455594E-015,25.,3.5));
#353=CARTESIAN_POINT('',(0.,-25.,-41.));
#354=CARTESIAN_POINT('',(0.,-25.,3.5));
#355=CARTESIAN_POINT('',(0.,7.76655043842078E-016,3.5));
#356=CARTESIAN_POINT('',(0.,0.,-41.));
#357=CARTESIAN_POINT('',(0.,7.15569815674724E-016,0.));
#358=CARTESIAN_POINT('',(0.,-25.,4.36323058338246E-016));
#359=CARTESIAN_POINT('',(0.,0.,-41.));
#360=CARTESIAN_POINT('',(0.,0.,0.));
#361=CARTESIAN_POINT('',(16.,0.,0.));
#362=CARTESIAN_POINT('',(0.,25.,0.));
#363=CARTESIAN_POINT('',(0.,0.,-18.5));
#364=CARTESIAN_POINT('',(16.,0.,-18.5));
#365=CARTESIAN_POINT('',(0.,0.,-41.));
#366=CARTESIAN_POINT('',(0.,0.,-18.5));
#367=CARTESIAN_POINT('',(10.0723145172501,0.,-18.5));
#368=CARTESIAN_POINT('',(0.,16.,-18.5));
#369=CARTESIAN_POINT('',(0.,0.,-33.2452839712988));
#370=CARTESIAN_POINT('',(8.,0.,-33.2452839712988));
#371=CARTESIAN_POINT('',(0.,0.,-18.5));
#372=CARTESIAN_POINT('',(0.,0.,-41.));
#373=CARTESIAN_POINT('',(8.,0.,-41.));
#374=CARTESIAN_POINT('',(0.,0.,-41.));
#375=CARTESIAN_POINT('',(0.,0.,-41.));
#376=MECHANICAL_DESIGN_GEOMETRIC_PRESENTATION_REPRESENTATION('',(#32),#377);
#377=(
GEOMETRIC_REPRESENTATION_CONTEXT(3)
GLOBAL_UNCERTAINTY_ASSIGNED_CONTEXT((#378))
GLOBAL_UNIT_ASSIGNED_CONTEXT((#384,#380,#379))
REPRESENTATION_CONTEXT('W9990793_stp','TOP_LEVEL_ASSEMBLY_PART')
);
#378=UNCERTAINTY_MEASURE_WITH_UNIT(LENGTH_MEASURE(2.E-005),#384,
'DISTANCE_ACCURACY_VALUE','Maximum Tolerance applied to model');
#379=(
NAMED_UNIT(*)
SI_UNIT($,.STERADIAN.)
SOLID_ANGLE_UNIT()
);
#380=(
CONVERSION_BASED_UNIT('DEGREE',#382)
NAMED_UNIT(#381)
PLANE_ANGLE_UNIT()
);
#381=DIMENSIONAL_EXPONENTS(0.,0.,0.,0.,0.,0.,0.);
#382=PLANE_ANGLE_MEASURE_WITH_UNIT(PLANE_ANGLE_MEASURE(0.0174532925),#383);
#383=(
NAMED_UNIT(*)
PLANE_ANGLE_UNIT()
SI_UNIT($,.RADIAN.)
);
#384=(
LENGTH_UNIT()
NAMED_UNIT(*)
SI_UNIT(.MILLI.,.METRE.)
);
ENDSEC;
END-ISO-10303-21;
