  0
SECTION
  2
HEADER
  9
$ACADVER
  1
AC1032
  9
$ACADMAINTVER
 90
      228
  9
$DWGCODEPAGE
  3
ANSI_1252
  9
$REQUIREDVERSIONS
160
                 0
  9
$INSBASE
 10
0.0
 20
0.0
 30
0.0
  9
$EXTMIN
 10
1.000000000000000E+20
 20
1.000000000000000E+20
 30
1.000000000000000E+20
  9
$EXTMAX
 10
-1.000000000000000E+20
 20
-1.000000000000000E+20
 30
-1.000000000000000E+20
  9
$LIMMIN
 10
0.0
 20
0.0
  9
$LIMMAX
 10
12.0
 20
9.0
  9
$ORTHOMODE
 70
     0
  9
$REGENMODE
 70
     1
  9
$FILLMODE
 70
     1
  9
$QTEXTMODE
 70
     0
  9
$MIRRTEXT
 70
     0
  9
$LTSCALE
 40
1.0
  9
$ATTMODE
 70
     1
  9
$TEXTSIZE
 40
0.2
  9
$TRACEWID
 40
0.05
  9
$TEXTSTYLE
  7
Standard
  9
$CLAYER
  8
0
  9
$CELTYPE
  6
ByLayer
  9
$CECOLOR
 62
   256
  9
$CELTSCALE
 40
1.0
  9
$DISPSILH
 70
     0
  9
$DIMSCALE
 40
1.0
  9
$DIMASZ
 40
0.18
  9
$DIMEXO
 40
0.0625
  9
$DIMDLI
 40
0.38
  9
$DIMRND
 40
0.0
  9
$DIMDLE
 40
0.0
  9
$DIMEXE
 40
0.18
  9
$DIMTP
 40
0.0
  9
$DIMTM
 40
0.0
  9
$DIMTXT
 40
0.18
  9
$DIMCEN
 40
0.09
  9
$DIMTSZ
 40
0.0
  9
$DIMTOL
 70
     0
  9
$DIMLIM
 70
     0
  9
$DIMTIH
 70
     1
  9
$DIMTOH
 70
     1
  9
$DIMSE1
 70
     0
  9
$DIMSE2
 70
     0
  9
$DIMTAD
 70
     0
  9
$DIMZIN
 70
     0
  9
$DIMBLK
  1

  9
$DIMASO
 70
     1
  9
$DIMSHO
 70
     1
  9
$DIMPOST
  1

  9
$DIMAPOST
  1

  9
$DIMALT
 70
     0
  9
$DIMALTD
 70
     2
  9
$DIMALTF
 40
25.4
  9
$DIMLFAC
 40
1.0
  9
$DIMTOFL
 70
     0
  9
$DIMTVP
 40
0.0
  9
$DIMTIX
 70
     0
  9
$DIMSOXD
 70
     0
  9
$DIMSAH
 70
     0
  9
$DIMBLK1
  1

  9
$DIMBLK2
  1

  9
$DIMSTYLE
  2
Standard
  9
$DIMCLRD
 70
     0
  9
$DIMCLRE
 70
     0
  9
$DIMCLRT
 70
     0
  9
$DIMTFAC
 40
1.0
  9
$DIMGAP
 40
0.09
  9
$DIMJUST
 70
     0
  9
$DIMSD1
 70
     0
  9
$DIMSD2
 70
     0
  9
$DIMTOLJ
 70
     1
  9
$DIMTZIN
 70
     0
  9
$DIMALTZ
 70
     0
  9
$DIMALTTZ
 70
     0
  9
$DIMUPT
 70
     0
  9
$DIMDEC
 70
     4
  9
$DIMTDEC
 70
     4
  9
$DIMALTU
 70
     2
  9
$DIMALTTD
 70
     2
  9
$DIMTXSTY
  7
Standard
  9
$DIMAUNIT
 70
     0
  9
$DIMADEC
 70
     0
  9
$DIMALTRND
 40
0.0
  9
$DIMAZIN
 70
     0
  9
$DIMDSEP
 70
    46
  9
$DIMATFIT
 70
     3
  9
$DIMFRAC
 70
     0
  9
$DIMLDRBLK
  1

  9
$DIMLUNIT
 70
     2
  9
$DIMLWD
 70
    -2
  9
$DIMLWE
 70
    -2
  9
$DIMTMOVE
 70
     0
  9
$DIMFXL
 40
1.0
  9
$DIMFXLON
 70
     0
  9
$DIMJOGANG
 40
0.7853981633974483
  9
$DIMTFILL
 70
     0
  9
$DIMTFILLCLR
 70
     0
  9
$DIMARCSYM
 70
     0
  9
$DIMLTYPE
  6

  9
$DIMLTEX1
  6

  9
$DIMLTEX2
  6

  9
$DIMTXTDIRECTION
 70
     0
  9
$LUNITS
 70
     2
  9
$LUPREC
 70
     4
  9
$SKETCHINC
 40
0.1
  9
$FILLETRAD
 40
0.0
  9
$AUNITS
 70
     0
  9
$AUPREC
 70
     0
  9
$MENU
  1
.
  9
$ELEVATION
 40
0.0
  9
$PELEVATION
 40
0.0
  9
$THICKNESS
 40
0.0
  9
$LIMCHECK
 70
     0
  9
$CHAMFERA
 40
0.0
  9
$CHAMFERB
 40
0.0
  9
$CHAMFERC
 40
0.0
  9
$CHAMFERD
 40
0.0
  9
$SKPOLY
 70
     0
  9
$TDCREATE
 40
2460101.410509260
  9
$TDUCREATE
 40
2460101.327175926
  9
$TDUPDATE
 40
2460101.410509260
  9
$TDUUPDATE
 40
2460101.327175926
  9
$TDINDWG
 40
0.0000000000
  9
$TDUSRTIMER
 40
0.0000000000
  9
$USRTIMER
 70
     1
  9
$ANGBASE
 50
0.0
  9
$ANGDIR
 70
     0
  9
$PDMODE
 70
     0
  9
$PDSIZE
 40
0.0
  9
$PLINEWID
 40
0.0
  9
$SPLFRAME
 70
     0
  9
$SPLINETYPE
 70
     6
  9
$SPLINESEGS
 70
     8
  9
$HANDSEED
  5
300
  9
$SURFTAB1
 70
     6
  9
$SURFTAB2
 70
     6
  9
$SURFTYPE
 70
     6
  9
$SURFU
 70
     6
  9
$SURFV
 70
     6
  9
$UCSBASE
  2

  9
$UCSNAME
  2

  9
$UCSORG
 10
0.0
 20
0.0
 30
0.0
  9
$UCSXDIR
 10
1.0
 20
0.0
 30
0.0
  9
$UCSYDIR
 10
0.0
 20
1.0
 30
0.0
  9
$UCSORTHOREF
  2

  9
$UCSORTHOVIEW
 70
     0
  9
$UCSORGTOP
 10
0.0
 20
0.0
 30
0.0
  9
$UCSORGBOTTOM
 10
0.0
 20
0.0
 30
0.0
  9
$UCSORGLEFT
 10
0.0
 20
0.0
 30
0.0
  9
$UCSORGRIGHT
 10
0.0
 20
0.0
 30
0.0
  9
$UCSORGFRONT
 10
0.0
 20
0.0
 30
0.0
  9
$UCSORGBACK
 10
0.0
 20
0.0
 30
0.0
  9
$PUCSBASE
  2

  9
$PUCSNAME
  2

  9
$PUCSORG
 10
0.0
 20
0.0
 30
0.0
  9
$PUCSXDIR
 10
1.0
 20
0.0
 30
0.0
  9
$PUCSYDIR
 10
0.0
 20
1.0
 30
0.0
  9
$PUCSORTHOREF
  2

  9
$PUCSORTHOVIEW
 70
     0
  9
$PUCSORGTOP
 10
0.0
 20
0.0
 30
0.0
  9
$PUCSORGBOTTOM
 10
0.0
 20
0.0
 30
0.0
  9
$PUCSORGLEFT
 10
0.0
 20
0.0
 30
0.0
  9
$PUCSORGRIGHT
 10
0.0
 20
0.0
 30
0.0
  9
$PUCSORGFRONT
 10
0.0
 20
0.0
 30
0.0
  9
$PUCSORGBACK
 10
0.0
 20
0.0
 30
0.0
  9
$USERI1
 70
     0
  9
$USERI2
 70
     0
  9
$USERI3
 70
     0
  9
$USERI4
 70
     0
  9
$USERI5
 70
     0
  9
$USERR1
 40
0.0
  9
$USERR2
 40
0.0
  9
$USERR3
 40
0.0
  9
$USERR4
 40
0.0
  9
$USERR5
 40
0.0
  9
$WORLDVIEW
 70
     1
  9
$SHADEDGE
 70
     3
  9
$SHADEDIF
 70
    70
  9
$TILEMODE
 70
     1
  9
$MAXACTVP
 70
    64
  9
$PINSBASE
 10
0.0
 20
0.0
 30
0.0
  9
$PLIMCHECK
 70
     0
  9
$PEXTMIN
 10
1.000000000000000E+20
 20
1.000000000000000E+20
 30
1.000000000000000E+20
  9
$PEXTMAX
 10
-1.000000000000000E+20
 20
-1.000000000000000E+20
 30
-1.000000000000000E+20
  9
$PLIMMIN
 10
0.0
 20
0.0
  9
$PLIMMAX
 10
12.0
 20
9.0
  9
$UNITMODE
 70
     0
  9
$VISRETAIN
 70
     1
  9
$PLINEGEN
 70
     0
  9
$PSLTSCALE
 70
     1
  9
$TREEDEPTH
 70
  3020
  9
$CMLSTYLE
  2
Standard
  9
$CMLJUST
 70
     0
  9
$CMLSCALE
 40
1.0
  9
$PROXYGRAPHICS
 70
     1
  9
$MEASUREMENT
 70
     0
  9
$CELWEIGHT
370
    -1
  9
$ENDCAPS
280
     0
  9
$JOINSTYLE
280
     0
  9
$LWDISPLAY
290
     1
  9
$INSUNITS
 70
     4
  9
$HYPERLINKBASE
  1

  9
$STYLESHEET
  1

  9
$XEDIT
290
     1
  9
$CEPSNTYPE
380
     0
  9
$PSTYLEMODE
290
     1
  9
$FINGERPRINTGUID
  2
{6D04A0DC-6AD7-D945-A60E-FDBBEDEE55E9}
  9
$VERSIONGUID
  2
{F8993EDF-A04C-CE4F-AAF4-BEB19117F378}
  9
$EXTNAMES
290
     1
  9
$PSVPSCALE
 40
0.0
  9
$OLESTARTUP
290
     0
  9
$SORTENTS
280
   127
  9
$INDEXCTL
280
     0
  9
$HIDETEXT
280
     1
  9
$XCLIPFRAME
280
     2
  9
$HALOGAP
280
     0
  9
$OBSCOLOR
 70
   257
  9
$OBSLTYPE
280
     0
  9
$INTERSECTIONDISPLAY
280
     0
  9
$INTERSECTIONCOLOR
 70
   257
  9
$DIMASSOC
280
     2
  9
$PROJECTNAME
  1

  9
$CAMERADISPLAY
290
     0
  9
$LENSLENGTH
 40
50.0
  9
$CAMERAHEIGHT
 40
0.0
  9
$STEPSPERSEC
 40
2.0
  9
$STEPSIZE
 40
6.0
  9
$3DDWFPREC
 40
2.0
  9
$PSOLWIDTH
 40
0.25
  9
$PSOLHEIGHT
 40
4.0
  9
$LOFTANG1
 40
1.570796326794896
  9
$LOFTANG2
 40
1.570796326794896
  9
$LOFTMAG1
 40
0.0
  9
$LOFTMAG2
 40
0.0
  9
$LOFTPARAM
 70
     7
  9
$LOFTNORMALS
280
     1
  9
$LATITUDE
 40
37.795
  9
$LONGITUDE
 40
-122.394
  9
$NORTHDIRECTION
 40
0.0
  9
$TIMEZONE
 70
 -8000
  9
$LIGHTGLYPHDISPLAY
280
     1
  9
$TILEMODELIGHTSYNCH
280
     1
  9
$CMATERIAL
347
11
  9
$SOLIDHIST
280
     0
  9
$SHOWHIST
280
     1
  9
$DWFFRAME
280
     2
  9
$DGNFRAME
280
     0
  9
$REALWORLDSCALE
290
     1
  9
$INTERFERECOLOR
 62
     1
  9
$INTERFEREOBJVS
345
33
  9
$INTERFEREVPVS
346
30
  9
$CSHADOW
280
     0
  9
$SHADOWPLANELOCATION
 40
0.0
  0
ENDSEC
  0
SECTION
  2
CLASSES
  0
CLASS
  1
ACDBDICTIONARYWDFLT
  2
AcDbDictionaryWithDefault
  3
ObjectDBX Classes
 90
        0
 91
        1
280
     0
281
     0
  0
CLASS
  1
MATERIAL
  2
AcDbMaterial
  3
ObjectDBX Classes
 90
     1153
 91
        3
280
     0
281
     0
  0
CLASS
  1
VISUALSTYLE
  2
AcDbVisualStyle
  3
ObjectDBX Classes
 90
     4095
 91
       24
280
     0
281
     0
  0
CLASS
  1
SCALE
  2
AcDbScale
  3
ObjectDBX Classes
 90
     1153
 91
       17
280
     0
281
     0
  0
CLASS
  1
TABLESTYLE
  2
AcDbTableStyle
  3
ObjectDBX Classes
 90
     4095
 91
        1
280
     0
281
     0
  0
CLASS
  1
MLEADERSTYLE
  2
AcDbMLeaderStyle
  3
ACDB_MLEADERSTYLE_CLASS
 90
     4095
 91
        1
280
     0
281
     0
  0
CLASS
  1
ACDBSECTIONVIEWSTYLE
  2
AcDbSectionViewStyle
  3
ObjectDBX Classes
 90
     1025
 91
        1
280
     0
281
     0
  0
CLASS
  1
ACDBDETAILVIEWSTYLE
  2
AcDbDetailViewStyle
  3
ObjectDBX Classes
 90
     1025
 91
        1
280
     0
281
     0
  0
CLASS
  1
DICTIONARYVAR
  2
AcDbDictionaryVar
  3
ObjectDBX Classes
 90
        0
 91
        5
280
     0
281
     0
  0
CLASS
  1
CELLSTYLEMAP
  2
AcDbCellStyleMap
  3
ObjectDBX Classes
 90
     1152
 91
        1
280
     0
281
     0
  0
ENDSEC
  0
SECTION
  2
TABLES
  0
TABLE
  2
VPORT
  5
8
330
0
100
AcDbSymbolTable
 70
     1
  0
VPORT
  5
57
330
8
100
AcDbSymbolTableRecord
100
AcDbViewportTableRecord
  2
*Active
 70
     0
 10
0.0
 20
0.0
 11
1.0
 21
1.0
 12
0.0
 22
0.0
 13
0.0
 23
0.0
 14
1.0
 24
1.0
 15
0.0
 25
0.0
 16
0.0
 26
0.0
 36
1.0
 17
92.63034041625223
 27
156.3454097612963
 37
0.0
 40
183.4249190784733
 41
0.875324134635065
 42
50.0
 43
0.0
 44
0.0
 50
0.0
 51
0.0
 71
     0
 72
   100
 73
     1
 74
     1
 75
     0
 76
     0
 77
     0
 78
     0
281
     0
 65
     1
110
0.0
120
0.0
130
0.0
111
1.0
121
0.0
131
0.0
112
0.0
122
1.0
132
0.0
 79
     0
146
0.0
 60
     3
 61
     5
292
     1
282
     1
141
0.0
142
0.0
 63
   250
421
  3355443
  0
ENDTAB
  0
TABLE
  2
LTYPE
  5
5
330
0
100
AcDbSymbolTable
 70
     7
  0
LTYPE
  5
5B
330
5
100
AcDbSymbolTableRecord
100
AcDbLinetypeTableRecord
  2
ByBlock
 70
     0
  3

 72
    65
 73
     0
 40
0.0
  0
LTYPE
  5
5C
330
5
100
AcDbSymbolTableRecord
100
AcDbLinetypeTableRecord
  2
ByLayer
 70
     0
  3

 72
    65
 73
     0
 40
0.0
  0
LTYPE
  5
5D
330
5
100
AcDbSymbolTableRecord
100
AcDbLinetypeTableRecord
  2
Continuous
 70
     0
  3
Solid line
 72
    65
 73
     0
 40
0.0
  0
LTYPE
  5
D4
330
5
100
AcDbSymbolTableRecord
100
AcDbLinetypeTableRecord
  2
AI-Linetype-0
 70
     0
  3
Adobe Illustrator Linetype No. 0
 72
    65
 73
     4
 40
8.819444442239584
 49
7.055555553791666
 74
     0
 49
-0.7055555553791667
 74
     0
 49
0.3527777776895833
 74
     0
 49
-0.7055555553791667
 74
     0
  0
LTYPE
  5
D6
330
5
100
AcDbSymbolTableRecord
100
AcDbLinetypeTableRecord
  2
AI-Linetype-1
 70
     0
  3
Adobe Illustrator Linetype No. 1
 72
    65
 73
     4
 40
8.819444442239584
 49
7.055555553791666
 74
     0
 49
-0.7055555553791667
 74
     0
 49
0.3527777776895833
 74
     0
 49
-0.7055555553791667
 74
     0
  0
LTYPE
  5
D8
330
5
100
AcDbSymbolTableRecord
100
AcDbLinetypeTableRecord
  2
AI-Linetype-2
 70
     0
  3
Adobe Illustrator Linetype No. 2
 72
    65
 73
     4
 40
8.819444442239584
 49
7.055555553791666
 74
     0
 49
-0.7055555553791667
 74
     0
 49
0.3527777776895833
 74
     0
 49
-0.7055555553791667
 74
     0
  0
LTYPE
  5
DA
330
5
100
AcDbSymbolTableRecord
100
AcDbLinetypeTableRecord
  2
AI-Linetype-3
 70
     0
  3
Adobe Illustrator Linetype No. 3
 72
    65
 73
     4
 40
8.819444442239584
 49
7.055555553791666
 74
     0
 49
-0.7055555553791667
 74
     0
 49
0.3527777776895833
 74
     0
 49
-0.7055555553791667
 74
     0
  0
LTYPE
  5
DC
330
5
100
AcDbSymbolTableRecord
100
AcDbLinetypeTableRecord
  2
AI-Linetype-4
 70
     0
  3
Adobe Illustrator Linetype No. 4
 72
    65
 73
     4
 40
8.819444442239584
 49
7.055555553791666
 74
     0
 49
-0.7055555553791667
 74
     0
 49
0.3527777776895833
 74
     0
 49
-0.7055555553791667
 74
     0
  0
LTYPE
  5
17C
330
5
100
AcDbSymbolTableRecord
100
AcDbLinetypeTableRecord
  2
AI-Linetype-5
 70
     0
  3
Adobe Illustrator Linetype No. 5
 72
    65
 73
     4
 40
8.819444442239584
 49
7.055555553791666
 74
     0
 49
-0.7055555553791667
 74
     0
 49
0.3527777776895833
 74
     0
 49
-0.7055555553791667
 74
     0
  0
ENDTAB
  0
TABLE
  2
LAYER
  5
2
330
0
100
AcDbSymbolTable
 70
     5
  0
LAYER
  5
54
330
2
100
AcDbSymbolTableRecord
100
AcDbLayerTableRecord
  2
0
 70
     0
 62
     7
  6
Continuous
370
    -3
390
F
347
21
348
0
  0
LAYER
  5
78
330
2
100
AcDbSymbolTableRecord
100
AcDbLayerTableRecord
  2
grau 10%
 70
     1
 62
     7
  6
Continuous
370
     0
390
F
347
21
348
0
  0
LAYER
  5
7D
330
2
100
AcDbSymbolTableRecord
100
AcDbLayerTableRecord
  2
Standardebene
 70
     0
 62
     7
  6
Continuous
370
     0
390
F
347
21
348
0
  0
LAYER
  5
17D
330
2
100
AcDbSymbolTableRecord
100
AcDbLayerTableRecord
  2
Text
 70
     1
 62
     7
  6
Continuous
370
     0
390
F
347
21
348
0
  0
LAYER
  5
186
330
2
100
AcDbSymbolTableRecord
100
AcDbLayerTableRecord
  2
Bemaßung
 70
     1
 62
     7
  6
Continuous
370
     0
390
F
347
21
348
0
  0
ENDTAB
  0
TABLE
  2
STYLE
  5
3
330
0
100
AcDbSymbolTable
 70
     2
  0
STYLE
  5
55
330
3
100
AcDbSymbolTableRecord
100
AcDbTextStyleTableRecord
  2
Standard
 70
     0
 40
0.0
 41
1.0
 50
0.0
 71
     0
 42
0.2
  3
txt
  4

  0
STYLE
  5
5A
330
3
100
AcDbSymbolTableRecord
100
AcDbTextStyleTableRecord
  2
Annotative
 70
     0
 40
0.0
 41
1.0
 50
0.0
 71
     0
 42
0.2
  3
txt
  4

1001
AcadAnnotative
1000
AnnotativeData
1002
{
1070
     1
1070
     1
1002
}
  0
ENDTAB
  0
TABLE
  2
VIEW
  5
6
330
0
100
AcDbSymbolTable
 70
     0
  0
ENDTAB
  0
TABLE
  2
UCS
  5
7
330
0
100
AcDbSymbolTable
 70
     0
  0
ENDTAB
  0
TABLE
  2
APPID
  5
9
330
0
100
AcDbSymbolTable
 70
     2
  0
APPID
  5
56
330
9
100
AcDbSymbolTableRecord
100
AcDbRegAppTableRecord
  2
ACAD
 70
     0
  0
APPID
  5
5E
330
9
100
AcDbSymbolTableRecord
100
AcDbRegAppTableRecord
  2
AcadAnnotative
 70
     0
  0
ENDTAB
  0
TABLE
  2
DIMSTYLE
  5
A
330
0
100
AcDbSymbolTable
 70
     2
100
AcDbDimStyleTable
 71
     0
  0
DIMSTYLE
105
58
330
A
100
AcDbSymbolTableRecord
100
AcDbDimStyleTableRecord
  2
Standard
 70
     0
340
55
  0
DIMSTYLE
105
59
330
A
100
AcDbSymbolTableRecord
100
AcDbDimStyleTableRecord
  2
Annotative
 70
     0
340
55
1001
AcadAnnotative
1000
AnnotativeData
1002
{
1070
     1
1070
     1
1002
}
  0
ENDTAB
  0
TABLE
  2
BLOCK_RECORD
  5
1
330
0
100
AcDbSymbolTable
 70
     1
  0
BLOCK_RECORD
  5
70
330
1
100
AcDbSymbolTableRecord
100
AcDbBlockTableRecord
  2
*Model_Space
340
73
 70
     0
280
     1
281
     0
  0
BLOCK_RECORD
  5
6C
330
1
100
AcDbSymbolTableRecord
100
AcDbBlockTableRecord
  2
*Paper_Space
340
6F
 70
     0
280
     1
281
     0
  0
BLOCK_RECORD
  5
74
330
1
100
AcDbSymbolTableRecord
100
AcDbBlockTableRecord
  2
*Paper_Space0
340
77
 70
     0
280
     1
281
     0
  0
ENDTAB
  0
ENDSEC
  0
SECTION
  2
BLOCKS
  0
BLOCK
  5
71
330
70
100
AcDbEntity
  8
0
100
AcDbBlockBegin
  2
*Model_Space
 70
     0
 10
0.0
 20
0.0
 30
0.0
  3
*Model_Space
  1

  0
ENDBLK
  5
72
330
70
100
AcDbEntity
  8
0
100
AcDbBlockEnd
  0
BLOCK
  5
6D
330
6C
100
AcDbEntity
 67
     1
  8
0
100
AcDbBlockBegin
  2
*Paper_Space
 70
     0
 10
0.0
 20
0.0
 30
0.0
  3
*Paper_Space
  1

  0
ENDBLK
  5
6E
330
6C
100
AcDbEntity
 67
     1
  8
0
100
AcDbBlockEnd
  0
BLOCK
  5
75
330
74
100
AcDbEntity
 67
     1
  8
0
100
AcDbBlockBegin
  2
*Paper_Space0
 70
     0
 10
0.0
 20
0.0
 30
0.0
  3
*Paper_Space0
  1

  0
ENDBLK
  5
76
330
74
100
AcDbEntity
 67
     1
  8
0
100
AcDbBlockEnd
  0
ENDSEC
  0
SECTION
  2
ENTITIES
  0
SPLINE
  5
79
330
70
100
AcDbEntity
  8
grau 10%
100
AcDbSpline
210
0.0
220
0.0
230
1.0
 70
    11
 71
     3
 72
   197
 73
   193
 74
     0
 42
0.0000000001
 43
0.0000000001
 40
0.0
 40
0.0
 40
0.0
 40
0.0
 40
1.0
 40
1.0
 40
1.0
 40
2.0
 40
2.0
 40
2.0
 40
3.0
 40
3.0
 40
3.0
 40
4.0
 40
4.0
 40
4.0
 40
5.0
 40
5.0
 40
5.0
 40
6.0
 40
6.0
 40
6.0
 40
7.0
 40
7.0
 40
7.0
 40
8.0
 40
8.0
 40
8.0
 40
9.0
 40
9.0
 40
9.0
 40
10.0
 40
10.0
 40
10.0
 40
11.0
 40
11.0
 40
11.0
 40
12.0
 40
12.0
 40
12.0
 40
13.0
 40
13.0
 40
13.0
 40
14.0
 40
14.0
 40
14.0
 40
15.0
 40
15.0
 40
15.0
 40
16.0
 40
16.0
 40
16.0
 40
17.0
 40
17.0
 40
17.0
 40
18.0
 40
18.0
 40
18.0
 40
19.0
 40
19.0
 40
19.0
 40
20.0
 40
20.0
 40
20.0
 40
21.0
 40
21.0
 40
21.0
 40
22.0
 40
22.0
 40
22.0
 40
23.0
 40
23.0
 40
23.0
 40
24.0
 40
24.0
 40
24.0
 40
25.0
 40
25.0
 40
25.0
 40
26.0
 40
26.0
 40
26.0
 40
27.0
 40
27.0
 40
27.0
 40
28.0
 40
28.0
 40
28.0
 40
29.0
 40
29.0
 40
29.0
 40
30.0
 40
30.0
 40
30.0
 40
31.0
 40
31.0
 40
31.0
 40
32.0
 40
32.0
 40
32.0
 40
33.0
 40
33.0
 40
33.0
 40
34.0
 40
34.0
 40
34.0
 40
35.0
 40
35.0
 40
35.0
 40
36.0
 40
36.0
 40
36.0
 40
37.0
 40
37.0
 40
37.0
 40
38.0
 40
38.0
 40
38.0
 40
39.0
 40
39.0
 40
39.0
 40
40.0
 40
40.0
 40
40.0
 40
41.0
 40
41.0
 40
41.0
 40
42.0
 40
42.0
 40
42.0
 40
43.0
 40
43.0
 40
43.0
 40
44.0
 40
44.0
 40
44.0
 40
45.0
 40
45.0
 40
45.0
 40
46.0
 40
46.0
 40
46.0
 40
47.0
 40
47.0
 40
47.0
 40
48.0
 40
48.0
 40
48.0
 40
49.0
 40
49.0
 40
49.0
 40
50.0
 40
50.0
 40
50.0
 40
51.0
 40
51.0
 40
51.0
 40
52.0
 40
52.0
 40
52.0
 40
53.0
 40
53.0
 40
53.0
 40
54.0
 40
54.0
 40
54.0
 40
55.0
 40
55.0
 40
55.0
 40
56.0
 40
56.0
 40
56.0
 40
57.0
 40
57.0
 40
57.0
 40
58.0
 40
58.0
 40
58.0
 40
59.0
 40
59.0
 40
59.0
 40
60.0
 40
60.0
 40
60.0
 40
61.0
 40
61.0
 40
61.0
 40
62.0
 40
62.0
 40
62.0
 40
63.0
 40
63.0
 40
63.0
 40
64.0
 40
64.0
 40
64.0
 40
64.0
 10
86.06863863753941
 20
130.2797363985092
 30
0.0
 10
86.06863863753941
 20
130.2797363985092
 30
0.0
 10
86.05244613795253
 20
151.0882625343062
 30
0.0
 10
86.05244613795253
 20
151.0882625343062
 30
0.0
 10
86.05244613795253
 20
151.0882625343062
 30
0.0
 10
91.88947182237093
 20
151.136522533075
 30
0.0
 10
91.88947182237093
 20
151.136522533075
 30
0.0
 10
91.88947182237093
 20
151.136522533075
 30
0.0
 10
91.93804932113161
 20
157.7173448651842
 30
0.0
 10
91.93804932113161
 20
157.7173448651842
 30
0.0
 10
91.93804932113161
 20
157.7173448651842
 30
0.0
 10
86.02006113877875
 20
157.7011523655973
 30
0.0
 10
86.02006113877875
 20
157.7011523655973
 30
0.0
 10
86.02006113877875
 20
157.7011523655973
 30
0.0
 10
85.97116614002615
 20
190.1663379262303
 30
0.0
 10
85.97116614002615
 20
190.1663379262303
 30
0.0
 10
85.97116614002615
 20
190.1663379262303
 30
0.0
 10
85.42199698736997
 20
190.7595690222068
 30
0.0
 10
85.42199698736997
 20
190.7595690222068
 30
0.0
 10
85.42199698736997
 20
190.7595690222068
 30
0.0
 10
85.01771366435077
 20
190.6947990238592
 30
0.0
 10
85.01771366435077
 20
190.6947990238592
 30
0.0
 10
85.01771366435077
 20
190.6947990238592
 30
0.0
 10
85.04992227464015
 20
203.9212136864253
 30
0.0
 10
85.04992227464015
 20
203.9212136864253
 30
0.0
 10
85.04992227464015
 20
203.9212136864253
 30
0.0
 10
83.96678869116209
 20
203.9374061860122
 30
0.0
 10
83.96678869116209
 20
203.9374061860122
 30
0.0
 10
83.96678869116209
 20
203.9374061860122
 30
0.0
 10
83.91821119240139
 20
204.1961334016337
 30
0.0
 10
83.91821119240139
 20
204.1961334016337
 30
0.0
 10
83.91821119240139
 20
204.1961334016337
 30
0.0
 10
83.67567647636676
 20
204.4062831184946
 30
0.0
 10
83.67567647636676
 20
204.4062831184946
 30
0.0
 10
83.67567647636676
 20
204.4062831184946
 30
0.0
 10
72.6806517568732
 20
204.4062831184946
 30
0.0
 10
72.6806517568732
 20
204.4062831184946
 30
0.0
 10
72.6806517568732
 20
204.4062831184946
 30
0.0
 10
72.43811704083856
 20
204.1475610600741
 30
0.0
 10
72.43811704083856
 20
204.1475610600741
 30
0.0
 10
72.43811704083856
 20
204.1475610600741
 30
0.0
 10
72.42210275967231
 20
203.9050211868384
 30
0.0
 10
72.42210275967231
 20
203.9050211868384
 30
0.0
 10
72.42210275967231
 20
203.9050211868384
 30
0.0
 10
66.63347635559394
 20
203.9374061860122
 30
0.0
 10
66.63347635559394
 20
203.9374061860122
 30
0.0
 10
66.63347635559394
 20
203.9374061860122
 30
0.0
 10
66.60126942779419
 20
202.0133209573219
 30
0.0
 10
66.60126942779419
 20
202.0133209573219
 30
0.0
 10
66.60126942779419
 20
202.0133209573219
 30
0.0
 10
66.21317692187223
 20
202.6923527271046
 30
0.0
 10
66.21317692187223
 20
202.6923527271046
 30
0.0
 10
66.21317692187223
 20
202.6923527271046
 30
0.0
 10
63.60988865495432
 20
202.7085401062521
 30
0.0
 10
63.60988865495432
 20
202.7085401062521
 30
0.0
 10
63.60988865495432
 20
202.7085401062521
 30
0.0
 10
63.22179783152201
 20
202.0133209573219
 30
0.0
 10
63.22179783152201
 20
202.0133209573219
 30
0.0
 10
63.22179783152201
 20
202.0133209573219
 30
0.0
 10
63.18958922123261
 20
200.929834596075
 30
0.0
 10
63.18958922123261
 20
200.929834596075
 30
0.0
 10
63.18958922123261
 20
200.929834596075
 30
0.0
 10
63.07624172412435
 20
200.7034923796273
 30
0.0
 10
63.07624172412435
 20
200.7034923796273
 30
0.0
 10
63.07624172412435
 20
200.7034923796273
 30
0.0
 10
62.84989950767659
 20
200.6066901598747
 30
0.0
 10
62.84989950767659
 20
200.6066901598747
 30
0.0
 10
62.84989950767659
 20
200.6066901598747
 30
0.0
 10
56.54399689077579
 20
200.606337382106
 30
0.0
 10
56.54399689077579
 20
200.606337382106
 30
0.0
 10
56.54399689077579
 20
200.606337382106
 30
0.0
 10
55.86497024143254
 20
200.0568507294579
 30
0.0
 10
55.86497024143254
 20
200.0568507294579
 30
0.0
 10
55.86497024143254
 20
200.0568507294579
 30
0.0
 10
54.28039833741389
 20
200.0568507294579
 30
0.0
 10
54.28039833741389
 20
200.0568507294579
 30
0.0
 10
54.28039833741389
 20
200.0568507294579
 30
0.0
 10
53.69835029670761
 20
200.558112661114
 30
0.0
 10
53.69835029670761
 20
200.558112661114
 30
0.0
 10
53.69835029670761
 20
200.558112661114
 30
0.0
 10
51.01427592073961
 20
200.606337382106
 30
0.0
 10
51.01427592073961
 20
200.606337382106
 30
0.0
 10
51.01427592073961
 20
200.606337382106
 30
0.0
 10
50.6423775968942
 20
200.4771501631796
 30
0.0
 10
50.6423775968942
 20
200.4771501631796
 30
0.0
 10
50.6423775968942
 20
200.4771501631796
 30
0.0
 10
50.43222788003334
 20
200.1536529492105
 30
0.0
 10
50.43222788003334
 20
200.1536529492105
 30
0.0
 10
50.43222788003334
 20
200.1536529492105
 30
0.0
 10
50.43222788003334
 20
194.6887019775218
 30
0.0
 10
50.43222788003334
 20
194.6887019775218
 30
0.0
 10
50.43222788003334
 20
194.6887019775218
 30
0.0
 10
50.52920648867033
 20
194.3004347652051
 30
0.0
 10
50.52920648867033
 20
194.3004347652051
 30
0.0
 10
50.52920648867033
 20
194.3004347652051
 30
0.0
 10
50.77174120470496
 20
194.0579000491705
 30
0.0
 10
50.77174120470496
 20
194.0579000491705
 30
0.0
 10
50.77174120470496
 20
194.0579000491705
 30
0.0
 10
53.71454279629451
 20
193.9772903290048
 30
0.0
 10
53.71454279629451
 20
193.9772903290048
 30
0.0
 10
53.71454279629451
 20
193.9772903290048
 30
0.0
 10
54.28039833741389
 20
194.6077443957926
 30
0.0
 10
54.28039833741389
 20
194.6077443957926
 30
0.0
 10
54.28039833741389
 20
194.6077443957926
 30
0.0
 10
55.88116274101943
 20
194.6077443957926
 30
0.0
 10
55.88116274101943
 20
194.6077443957926
 30
0.0
 10
55.88116274101943
 20
194.6077443957926
 30
0.0
 10
56.44701828213881
 20
194.0420603273524
 30
0.0
 10
56.44701828213881
 20
194.0420603273524
 30
0.0
 10
56.44701828213881
 20
194.0420603273524
 30
0.0
 10
62.62373368011322
 20
194.0420603273524
 30
0.0
 10
62.62373368011322
 20
194.0420603273524
 30
0.0
 10
62.62373368011322
 20
194.0420603273524
 30
0.0
 10
62.94705450519796
 20
193.9934828285917
 30
0.0
 10
62.94705450519796
 20
193.9934828285917
 30
0.0
 10
62.94705450519796
 20
193.9934828285917
 30
0.0
 10
63.23799033110891
 20
193.750948112557
 30
0.0
 10
63.23799033110891
 20
193.750948112557
 30
0.0
 10
63.23799033110891
 20
193.750948112557
 30
0.0
 10
63.23799033110891
 20
192.7808092484184
 30
0.0
 10
63.23799033110891
 20
192.7808092484184
 30
0.0
 10
63.23799033110891
 20
192.7808092484184
 30
0.0
 10
63.62608115454121
 20
191.9398576032062
 30
0.0
 10
63.62608115454121
 20
191.9398576032062
 30
0.0
 10
63.62608115454121
 20
191.9398576032062
 30
0.0
 10
66.21317692187223
 20
191.8754403826275
 30
0.0
 10
66.21317692187223
 20
191.8754403826275
 30
0.0
 10
66.21317692187223
 20
191.8754403826275
 30
0.0
 10
66.60126942779419
 20
192.6674666184999
 30
0.0
 10
66.60126942779419
 20
192.6674666184999
 30
0.0
 10
66.60126942779419
 20
192.6674666184999
 30
0.0
 10
66.66586135476774
 20
190.7595690222068
 30
0.0
 10
66.66586135476774
 20
190.7595690222068
 30
0.0
 10
66.66586135476774
 20
190.7595690222068
 30
0.0
 10
70.45356570257979
 20
190.772515966321
 30
0.0
 10
70.45356570257979
 20
190.772515966321
 30
0.0
 10
70.45356570257979
 20
190.772515966321
 30
0.0
 10
70.45356570257979
 20
189.6814448830454
 30
0.0
 10
70.45356570257979
 20
189.6814448830454
 30
0.0
 10
70.45356570257979
 20
189.6814448830454
 30
0.0
 10
70.35228320516373
 20
157.7741773637343
 30
0.0
 10
70.35228320516373
 20
157.7741773637343
 30
0.0
 10
70.35228320516373
 20
157.7741773637343
 30
0.0
 10
69.1396096249905
 20
157.692862088031
 30
0.0
 10
69.1396096249905
 20
157.692862088031
 30
0.0
 10
69.1396096249905
 20
157.692862088031
 30
0.0
 10
69.15580212457739
 20
151.1851000318356
 30
0.0
 10
69.15580212457739
 20
151.1851000318356
 30
0.0
 10
69.15580212457739
 20
151.1851000318356
 30
0.0
 10
70.35228320516373
 20
151.1444247550956
 30
0.0
 10
70.35228320516373
 20
151.1444247550956
 30
0.0
 10
70.35228320516373
 20
151.1444247550956
 30
0.0
 10
70.37553126012618
 20
130.2576877879606
 30
0.0
 10
70.37553126012618
 20
130.2576877879606
 30
0.0
 10
70.37553126012618
 20
130.2576877879606
 30
0.0
 10
69.69996183291694
 20
130.2723280653649
 30
0.0
 10
69.69996183291694
 20
130.2723280653649
 30
0.0
 10
69.69996183291694
 20
130.2723280653649
 30
0.0
 10
69.17079517975044
 20
129.654966970004
 30
0.0
 10
69.17079517975044
 20
129.654966970004
 30
0.0
 10
69.17079517975044
 20
129.654966970004
 30
0.0
 10
69.11205768124895
 20
124.0696129458316
 30
0.0
 10
69.11205768124895
 20
124.0696129458316
 30
0.0
 10
69.11205768124895
 20
124.0696129458316
 30
0.0
 10
69.61159100183813
 20
122.6874296477607
 30
0.0
 10
69.14133823605751
 20
120.1594241566999
 30
0.0
 10
69.14133823605751
 20
120.1594241566999
 30
0.0
 10
69.05314379386308
 20
114.1918354200569
 30
0.0
 10
69.05314379386308
 20
114.1918354200569
 30
0.0
 10
69.05314379386308
 20
114.1918354200569
 30
0.0
 10
69.52357294852811
 20
111.3692604920668
 30
0.0
 10
69.17079517975044
 20
110.2520132983479
 30
0.0
 10
69.17079517975044
 20
110.2520132983479
 30
0.0
 10
69.11205768124895
 20
108.8705355558145
 30
0.0
 10
69.11205768124895
 20
108.8705355558145
 30
0.0
 10
69.11205768124895
 20
108.8705355558145
 30
0.0
 10
69.69996183291694
 20
108.282807793031
 30
0.0
 10
69.69996183291694
 20
108.282807793031
 30
0.0
 10
69.69996183291694
 20
108.282807793031
 30
0.0
 10
86.72148917643937
 20
108.282807793031
 30
0.0
 10
86.72148917643937
 20
108.282807793031
 30
0.0
 10
86.72148917643937
 20
108.282807793031
 30
0.0
 10
87.26529610701016
 20
108.8264383347173
 30
0.0
 10
87.26529610701016
 20
108.8264383347173
 30
0.0
 10
87.26529610701016
 20
108.8264383347173
 30
0.0
 10
87.26529610701016
 20
129.7138808573899
 30
0.0
 10
87.26529610701016
 20
129.7138808573899
 30
0.0
 10
87.26529610701016
 20
129.7138808573899
 30
0.0
 10
86.72872112069931
 20
130.2504558437007
 30
0.0
 10
86.72872112069931
 20
130.2504558437007
 30
0.0
 10
86.72872112069931
 20
130.2504558437007
 30
0.0
 10
86.06863863753941
 20
130.2797363985092
 30
0.0
 10
86.06863863753941
 20
130.2797363985092
 30
0.0
  0
HATCH
  5
7A
330
70
100
AcDbEntity
  8
grau 10%
 62
   255
440
 33554687
100
AcDbHatch
 10
0.0
 20
0.0
 30
0.0
210
0.0
220
0.0
230
1.0
  2
SOLID
 70
     1
 71
     1
 91
        1
 92
        1
 93
        1
 72
     4
 94
        3
 73
     0
 74
     0
 95
      197
 96
      193
 40
0.0
 40
0.0
 40
0.0
 40
0.0
 40
1.0
 40
1.0
 40
1.0
 40
2.0
 40
2.0
 40
2.0
 40
3.0
 40
3.0
 40
3.0
 40
4.0
 40
4.0
 40
4.0
 40
5.0
 40
5.0
 40
5.0
 40
6.0
 40
6.0
 40
6.0
 40
7.0
 40
7.0
 40
7.0
 40
8.0
 40
8.0
 40
8.0
 40
9.0
 40
9.0
 40
9.0
 40
10.0
 40
10.0
 40
10.0
 40
11.0
 40
11.0
 40
11.0
 40
12.0
 40
12.0
 40
12.0
 40
13.0
 40
13.0
 40
13.0
 40
14.0
 40
14.0
 40
14.0
 40
15.0
 40
15.0
 40
15.0
 40
16.0
 40
16.0
 40
16.0
 40
17.0
 40
17.0
 40
17.0
 40
18.0
 40
18.0
 40
18.0
 40
19.0
 40
19.0
 40
19.0
 40
20.0
 40
20.0
 40
20.0
 40
21.0
 40
21.0
 40
21.0
 40
22.0
 40
22.0
 40
22.0
 40
23.0
 40
23.0
 40
23.0
 40
24.0
 40
24.0
 40
24.0
 40
25.0
 40
25.0
 40
25.0
 40
26.0
 40
26.0
 40
26.0
 40
27.0
 40
27.0
 40
27.0
 40
28.0
 40
28.0
 40
28.0
 40
29.0
 40
29.0
 40
29.0
 40
30.0
 40
30.0
 40
30.0
 40
31.0
 40
31.0
 40
31.0
 40
32.0
 40
32.0
 40
32.0
 40
33.0
 40
33.0
 40
33.0
 40
34.0
 40
34.0
 40
34.0
 40
35.0
 40
35.0
 40
35.0
 40
36.0
 40
36.0
 40
36.0
 40
37.0
 40
37.0
 40
37.0
 40
38.0
 40
38.0
 40
38.0
 40
39.0
 40
39.0
 40
39.0
 40
40.0
 40
40.0
 40
40.0
 40
41.0
 40
41.0
 40
41.0
 40
42.0
 40
42.0
 40
42.0
 40
43.0
 40
43.0
 40
43.0
 40
44.0
 40
44.0
 40
44.0
 40
45.0
 40
45.0
 40
45.0
 40
46.0
 40
46.0
 40
46.0
 40
47.0
 40
47.0
 40
47.0
 40
48.0
 40
48.0
 40
48.0
 40
49.0
 40
49.0
 40
49.0
 40
50.0
 40
50.0
 40
50.0
 40
51.0
 40
51.0
 40
51.0
 40
52.0
 40
52.0
 40
52.0
 40
53.0
 40
53.0
 40
53.0
 40
54.0
 40
54.0
 40
54.0
 40
55.0
 40
55.0
 40
55.0
 40
56.0
 40
56.0
 40
56.0
 40
57.0
 40
57.0
 40
57.0
 40
58.0
 40
58.0
 40
58.0
 40
59.0
 40
59.0
 40
59.0
 40
60.0
 40
60.0
 40
60.0
 40
61.0
 40
61.0
 40
61.0
 40
62.0
 40
62.0
 40
62.0
 40
63.0
 40
63.0
 40
63.0
 40
64.0
 40
64.0
 40
64.0
 40
64.0
 10
86.06863863753941
 20
130.2797363985092
 10
86.06863863753941
 20
130.2797363985092
 10
86.05244613795253
 20
151.0882625343062
 10
86.05244613795253
 20
151.0882625343062
 10
86.05244613795253
 20
151.0882625343062
 10
91.88947182237093
 20
151.136522533075
 10
91.88947182237093
 20
151.136522533075
 10
91.88947182237093
 20
151.136522533075
 10
91.93804932113161
 20
157.7173448651842
 10
91.93804932113161
 20
157.7173448651842
 10
91.93804932113161
 20
157.7173448651842
 10
86.02006113877875
 20
157.7011523655973
 10
86.02006113877875
 20
157.7011523655973
 10
86.02006113877875
 20
157.7011523655973
 10
85.97116614002615
 20
190.1663379262303
 10
85.97116614002615
 20
190.1663379262303
 10
85.97116614002615
 20
190.1663379262303
 10
85.42199698736997
 20
190.7595690222068
 10
85.42199698736997
 20
190.7595690222068
 10
85.42199698736997
 20
190.7595690222068
 10
85.01771366435077
 20
190.6947990238592
 10
85.01771366435077
 20
190.6947990238592
 10
85.01771366435077
 20
190.6947990238592
 10
85.04992227464015
 20
203.9212136864253
 10
85.04992227464015
 20
203.9212136864253
 10
85.04992227464015
 20
203.9212136864253
 10
83.96678869116209
 20
203.9374061860122
 10
83.96678869116209
 20
203.9374061860122
 10
83.96678869116209
 20
203.9374061860122
 10
83.91821119240139
 20
204.1961334016337
 10
83.91821119240139
 20
204.1961334016337
 10
83.91821119240139
 20
204.1961334016337
 10
83.67567647636676
 20
204.4062831184946
 10
83.67567647636676
 20
204.4062831184946
 10
83.67567647636676
 20
204.4062831184946
 10
72.6806517568732
 20
204.4062831184946
 10
72.6806517568732
 20
204.4062831184946
 10
72.6806517568732
 20
204.4062831184946
 10
72.43811704083856
 20
204.1475610600741
 10
72.43811704083856
 20
204.1475610600741
 10
72.43811704083856
 20
204.1475610600741
 10
72.42210275967231
 20
203.9050211868384
 10
72.42210275967231
 20
203.9050211868384
 10
72.42210275967231
 20
203.9050211868384
 10
66.63347635559394
 20
203.9374061860122
 10
66.63347635559394
 20
203.9374061860122
 10
66.63347635559394
 20
203.9374061860122
 10
66.60126942779419
 20
202.0133209573219
 10
66.60126942779419
 20
202.0133209573219
 10
66.60126942779419
 20
202.0133209573219
 10
66.21317692187223
 20
202.6923527271046
 10
66.21317692187223
 20
202.6923527271046
 10
66.21317692187223
 20
202.6923527271046
 10
63.60988865495432
 20
202.7085401062521
 10
63.60988865495432
 20
202.7085401062521
 10
63.60988865495432
 20
202.7085401062521
 10
63.22179783152201
 20
202.0133209573219
 10
63.22179783152201
 20
202.0133209573219
 10
63.22179783152201
 20
202.0133209573219
 10
63.18958922123261
 20
200.929834596075
 10
63.18958922123261
 20
200.929834596075
 10
63.18958922123261
 20
200.929834596075
 10
63.07624172412435
 20
200.7034923796273
 10
63.07624172412435
 20
200.7034923796273
 10
63.07624172412435
 20
200.7034923796273
 10
62.84989950767659
 20
200.6066901598747
 10
62.84989950767659
 20
200.6066901598747
 10
62.84989950767659
 20
200.6066901598747
 10
56.54399689077579
 20
200.606337382106
 10
56.54399689077579
 20
200.606337382106
 10
56.54399689077579
 20
200.606337382106
 10
55.86497024143254
 20
200.0568507294579
 10
55.86497024143254
 20
200.0568507294579
 10
55.86497024143254
 20
200.0568507294579
 10
54.28039833741389
 20
200.0568507294579
 10
54.28039833741389
 20
200.0568507294579
 10
54.28039833741389
 20
200.0568507294579
 10
53.69835029670761
 20
200.558112661114
 10
53.69835029670761
 20
200.558112661114
 10
53.69835029670761
 20
200.558112661114
 10
51.01427592073961
 20
200.606337382106
 10
51.01427592073961
 20
200.606337382106
 10
51.01427592073961
 20
200.606337382106
 10
50.6423775968942
 20
200.4771501631796
 10
50.6423775968942
 20
200.4771501631796
 10
50.6423775968942
 20
200.4771501631796
 10
50.43222788003334
 20
200.1536529492105
 10
50.43222788003334
 20
200.1536529492105
 10
50.43222788003334
 20
200.1536529492105
 10
50.43222788003334
 20
194.6887019775218
 10
50.43222788003334
 20
194.6887019775218
 10
50.43222788003334
 20
194.6887019775218
 10
50.52920648867033
 20
194.3004347652051
 10
50.52920648867033
 20
194.3004347652051
 10
50.52920648867033
 20
194.3004347652051
 10
50.77174120470496
 20
194.0579000491705
 10
50.77174120470496
 20
194.0579000491705
 10
50.77174120470496
 20
194.0579000491705
 10
53.71454279629451
 20
193.9772903290048
 10
53.71454279629451
 20
193.9772903290048
 10
53.71454279629451
 20
193.9772903290048
 10
54.28039833741389
 20
194.6077443957926
 10
54.28039833741389
 20
194.6077443957926
 10
54.28039833741389
 20
194.6077443957926
 10
55.88116274101943
 20
194.6077443957926
 10
55.88116274101943
 20
194.6077443957926
 10
55.88116274101943
 20
194.6077443957926
 10
56.44701828213881
 20
194.0420603273524
 10
56.44701828213881
 20
194.0420603273524
 10
56.44701828213881
 20
194.0420603273524
 10
62.62373368011322
 20
194.0420603273524
 10
62.62373368011322
 20
194.0420603273524
 10
62.62373368011322
 20
194.0420603273524
 10
62.94705450519796
 20
193.9934828285917
 10
62.94705450519796
 20
193.9934828285917
 10
62.94705450519796
 20
193.9934828285917
 10
63.23799033110891
 20
193.750948112557
 10
63.23799033110891
 20
193.750948112557
 10
63.23799033110891
 20
193.750948112557
 10
63.23799033110891
 20
192.7808092484184
 10
63.23799033110891
 20
192.7808092484184
 10
63.23799033110891
 20
192.7808092484184
 10
63.62608115454121
 20
191.9398576032062
 10
63.62608115454121
 20
191.9398576032062
 10
63.62608115454121
 20
191.9398576032062
 10
66.21317692187223
 20
191.8754403826275
 10
66.21317692187223
 20
191.8754403826275
 10
66.21317692187223
 20
191.8754403826275
 10
66.60126942779419
 20
192.6674666184999
 10
66.60126942779419
 20
192.6674666184999
 10
66.60126942779419
 20
192.6674666184999
 10
66.66586135476774
 20
190.7595690222068
 10
66.66586135476774
 20
190.7595690222068
 10
66.66586135476774
 20
190.7595690222068
 10
70.45356570257979
 20
190.772515966321
 10
70.45356570257979
 20
190.772515966321
 10
70.45356570257979
 20
190.772515966321
 10
70.45356570257979
 20
189.6814448830454
 10
70.45356570257979
 20
189.6814448830454
 10
70.45356570257979
 20
189.6814448830454
 10
70.35228320516373
 20
157.7741773637343
 10
70.35228320516373
 20
157.7741773637343
 10
70.35228320516373
 20
157.7741773637343
 10
69.1396096249905
 20
157.692862088031
 10
69.1396096249905
 20
157.692862088031
 10
69.1396096249905
 20
157.692862088031
 10
69.15580212457739
 20
151.1851000318356
 10
69.15580212457739
 20
151.1851000318356
 10
69.15580212457739
 20
151.1851000318356
 10
70.35228320516373
 20
151.1444247550956
 10
70.35228320516373
 20
151.1444247550956
 10
70.35228320516373
 20
151.1444247550956
 10
70.37553126012618
 20
130.2576877879606
 10
70.37553126012618
 20
130.2576877879606
 10
70.37553126012618
 20
130.2576877879606
 10
69.69996183291694
 20
130.2723280653649
 10
69.69996183291694
 20
130.2723280653649
 10
69.69996183291694
 20
130.2723280653649
 10
69.17079517975044
 20
129.654966970004
 10
69.17079517975044
 20
129.654966970004
 10
69.17079517975044
 20
129.654966970004
 10
69.11205768124895
 20
124.0696129458316
 10
69.11205768124895
 20
124.0696129458316
 10
69.11205768124895
 20
124.0696129458316
 10
69.61159100183813
 20
122.6874296477607
 10
69.14133823605751
 20
120.1594241566999
 10
69.14133823605751
 20
120.1594241566999
 10
69.05314379386308
 20
114.1918354200569
 10
69.05314379386308
 20
114.1918354200569
 10
69.05314379386308
 20
114.1918354200569
 10
69.52357294852811
 20
111.3692604920668
 10
69.17079517975044
 20
110.2520132983479
 10
69.17079517975044
 20
110.2520132983479
 10
69.11205768124895
 20
108.8705355558145
 10
69.11205768124895
 20
108.8705355558145
 10
69.11205768124895
 20
108.8705355558145
 10
69.69996183291694
 20
108.282807793031
 10
69.69996183291694
 20
108.282807793031
 10
69.69996183291694
 20
108.282807793031
 10
86.72148917643937
 20
108.282807793031
 10
86.72148917643937
 20
108.282807793031
 10
86.72148917643937
 20
108.282807793031
 10
87.26529610701016
 20
108.8264383347173
 10
87.26529610701016
 20
108.8264383347173
 10
87.26529610701016
 20
108.8264383347173
 10
87.26529610701016
 20
129.7138808573899
 10
87.26529610701016
 20
129.7138808573899
 10
87.26529610701016
 20
129.7138808573899
 10
86.72872112069931
 20
130.2504558437007
 10
86.72872112069931
 20
130.2504558437007
 10
86.72872112069931
 20
130.2504558437007
 10
86.06863863753941
 20
130.2797363985092
 10
86.06863863753941
 20
130.2797363985092
 97
        0
 97
        1
330
79
 75
     0
 76
     1
 98
        1
 10
0.0
 20
0.0
450
        0
451
        0
460
0.0
461
0.0
452
        0
462
0.0
453
        0
470

  0
SPLINE
  5
7B
330
70
100
AcDbEntity
  8
grau 10%
100
AcDbSpline
210
0.0
220
0.0
230
1.0
 70
    11
 71
     3
 72
   107
 73
   103
 74
     0
 42
0.0000000001
 43
0.0000000001
 40
0.0
 40
0.0
 40
0.0
 40
0.0
 40
1.0
 40
1.0
 40
1.0
 40
2.0
 40
2.0
 40
2.0
 40
3.0
 40
3.0
 40
3.0
 40
4.0
 40
4.0
 40
4.0
 40
5.0
 40
5.0
 40
5.0
 40
6.0
 40
6.0
 40
6.0
 40
7.0
 40
7.0
 40
7.0
 40
8.0
 40
8.0
 40
8.0
 40
9.0
 40
9.0
 40
9.0
 40
10.0
 40
10.0
 40
10.0
 40
11.0
 40
11.0
 40
11.0
 40
12.0
 40
12.0
 40
12.0
 40
13.0
 40
13.0
 40
13.0
 40
14.0
 40
14.0
 40
14.0
 40
15.0
 40
15.0
 40
15.0
 40
16.0
 40
16.0
 40
16.0
 40
17.0
 40
17.0
 40
17.0
 40
18.0
 40
18.0
 40
18.0
 40
19.0
 40
19.0
 40
19.0
 40
20.0
 40
20.0
 40
20.0
 40
21.0
 40
21.0
 40
21.0
 40
22.0
 40
22.0
 40
22.0
 40
23.0
 40
23.0
 40
23.0
 40
24.0
 40
24.0
 40
24.0
 40
25.0
 40
25.0
 40
25.0
 40
26.0
 40
26.0
 40
26.0
 40
27.0
 40
27.0
 40
27.0
 40
28.0
 40
28.0
 40
28.0
 40
29.0
 40
29.0
 40
29.0
 40
30.0
 40
30.0
 40
30.0
 40
31.0
 40
31.0
 40
31.0
 40
32.0
 40
32.0
 40
32.0
 40
33.0
 40
33.0
 40
33.0
 40
34.0
 40
34.0
 40
34.0
 40
34.0
 10
129.8849075196933
 20
130.345882230155
 30
0.0
 10
129.8849075196933
 20
130.345882230155
 30
0.0
 10
129.8687150201063
 20
151.1120397559218
 30
0.0
 10
129.8687150201063
 20
151.1120397559218
 30
0.0
 10
129.8687150201063
 20
151.1120397559218
 30
0.0
 10
135.7057407045248
 20
151.1602644769137
 30
0.0
 10
135.7057407045248
 20
151.1602644769137
 30
0.0
 10
135.7057407045248
 20
151.1602644769137
 30
0.0
 10
135.7540007032935
 20
157.7410868090229
 30
0.0
 10
135.7540007032935
 20
157.7410868090229
 30
0.0
 10
135.7540007032935
 20
157.7410868090229
 30
0.0
 10
129.8363333008746
 20
157.724894309436
 30
0.0
 10
129.8363333008746
 20
157.724894309436
 30
0.0
 10
129.8363333008746
 20
157.724894309436
 30
0.0
 10
129.8525225205195
 20
190.2364348688864
 30
0.0
 10
129.8525225205195
 20
190.2364348688864
 30
0.0
 10
129.8525225205195
 20
190.2364348688864
 30
0.0
 10
129.2382658695238
 20
190.8183065207083
 30
0.0
 10
129.2382658695238
 20
190.8183065207083
 30
0.0
 10
129.2382658695238
 20
190.8183065207083
 30
0.0
 10
132.001926910128
 20
190.7711401330227
 30
0.0
 10
132.001926910128
 20
190.7711401330227
 30
0.0
 10
132.001926910128
 20
190.7711401330227
 30
0.0
 10
131.9740221886177
 20
203.9699675740704
 30
0.0
 10
131.9740221886177
 20
203.9699675740704
 30
0.0
 10
131.9740221886177
 20
203.9699675740704
 30
0.0
 10
127.8805653486061
 20
203.9699675740704
 30
0.0
 10
127.8805653486061
 20
203.9699675740704
 30
0.0
 10
127.8805653486061
 20
203.9699675740704
 30
0.0
 10
127.8805653486061
 20
204.1649831246507
 30
0.0
 10
127.8805653486061
 20
204.1649831246507
 30
0.0
 10
127.8805653486061
 20
204.1649831246507
 30
0.0
 10
127.5742836897533
 20
204.4991342272369
 30
0.0
 10
127.5742836897533
 20
204.4991342272369
 30
0.0
 10
127.5742836897533
 20
204.4991342272369
 30
0.0
 10
116.5754842481338
 20
204.4712295057266
 30
0.0
 10
116.5754842481338
 20
204.4712295057266
 30
0.0
 10
116.5754842481338
 20
204.4712295057266
 30
0.0
 10
116.2967898107995
 20
204.2207925676713
 30
0.0
 10
116.2967898107995
 20
204.2207925676713
 30
0.0
 10
116.2967898107995
 20
204.2207925676713
 30
0.0
 10
116.2412978677707
 20
203.9978722955807
 30
0.0
 10
116.2412978677707
 20
203.9978722955807
 30
0.0
 10
116.2412978677707
 20
203.9978722955807
 30
0.0
 10
112.1757457492694
 20
203.9420628525601
 30
0.0
 10
112.1757457492694
 20
203.9420628525601
 30
0.0
 10
112.1757457492694
 20
203.9420628525601
 30
0.0
 10
112.1757457492694
 20
190.8183065207083
 30
0.0
 10
112.1757457492694
 20
190.8183065207083
 30
0.0
 10
112.1757457492694
 20
190.8183065207083
 30
0.0
 10
114.3558065269847
 20
190.760944855505
 30
0.0
 10
114.3558065269847
 20
190.760944855505
 30
0.0
 10
114.3558065269847
 20
190.760944855505
 30
0.0
 10
114.2407333047732
 20
189.869722378242
 30
0.0
 10
114.2407333047732
 20
189.869722378242
 30
0.0
 10
114.2407333047732
 20
189.869722378242
 30
0.0
 10
114.1684138603469
 20
157.7979545853499
 30
0.0
 10
114.1684138603469
 20
157.7979545853499
 30
0.0
 10
114.1684138603469
 20
157.7979545853499
 30
0.0
 10
108.2990002926178
 20
157.7166393096466
 30
0.0
 10
108.2990002926178
 20
157.7166393096466
 30
0.0
 10
108.2990002926178
 20
157.7166393096466
 30
0.0
 10
108.3151927922047
 20
151.2088419756744
 30
0.0
 10
108.3151927922047
 20
151.2088419756744
 30
0.0
 10
108.3151927922047
 20
151.2088419756744
 30
0.0
 10
114.1684138603469
 20
151.1682019767112
 30
0.0
 10
114.1684138603469
 20
151.1682019767112
 30
0.0
 10
114.1684138603469
 20
151.1682019767112
 30
0.0
 10
114.1918354200569
 20
130.3238336196064
 30
0.0
 10
114.1918354200569
 20
130.3238336196064
 30
0.0
 10
114.1918354200569
 20
130.3238336196064
 30
0.0
 10
113.455270716626
 20
130.2781841763266
 30
0.0
 10
113.455270716626
 20
130.2781841763266
 30
0.0
 10
113.455270716626
 20
130.2781841763266
 30
0.0
 10
112.859961082896
 20
129.7076719686593
 30
0.0
 10
112.859961082896
 20
129.7076719686593
 30
0.0
 10
112.859961082896
 20
129.7076719686593
 30
0.0
 10
112.859961082896
 20
118.4227344787843
 30
0.0
 10
112.859961082896
 20
118.4227344787843
 30
0.0
 10
112.859961082896
 20
118.4227344787843
 30
0.0
 10
113.097869746454
 20
116.7085667292314
 30
0.0
 10
112.9343590632489
 20
114.5535737441615
 30
0.0
 10
112.9343590632489
 20
114.5535737441615
 30
0.0
 10
112.9836421175471
 20
108.8488397230347
 30
0.0
 10
112.9836421175471
 20
108.8488397230347
 30
0.0
 10
112.9836421175471
 20
108.8488397230347
 30
0.0
 10
113.5048712709161
 20
108.2042441839242
 30
0.0
 10
113.5048712709161
 20
108.2042441839242
 30
0.0
 10
113.5048712709161
 20
108.2042441839242
 30
0.0
 10
130.5932147238451
 20
108.154643629634
 30
0.0
 10
130.5932147238451
 20
108.154643629634
 30
0.0
 10
130.5932147238451
 20
108.154643629634
 30
0.0
 10
131.1637269315123
 20
108.7499561144463
 30
0.0
 10
131.1637269315123
 20
108.7499561144463
 30
0.0
 10
131.1637269315123
 20
108.7499561144463
 30
0.0
 10
131.1389266543672
 20
129.7076719686593
 30
0.0
 10
131.1389266543672
 20
129.7076719686593
 30
0.0
 10
131.1389266543672
 20
129.7076719686593
 30
0.0
 10
130.5932147238451
 20
130.2285836220365
 30
0.0
 10
130.5932147238451
 20
130.2285836220365
 30
0.0
 10
130.5932147238451
 20
130.2285836220365
 30
0.0
 10
129.8849075196933
 20
130.345882230155
 30
0.0
 10
129.8849075196933
 20
130.345882230155
 30
0.0
  0
HATCH
  5
7C
330
70
100
AcDbEntity
  8
grau 10%
 62
   255
440
 33554687
100
AcDbHatch
 10
0.0
 20
0.0
 30
0.0
210
0.0
220
0.0
230
1.0
  2
SOLID
 70
     1
 71
     1
 91
        1
 92
        1
 93
        1
 72
     4
 94
        3
 73
     0
 74
     0
 95
      107
 96
      103
 40
0.0
 40
0.0
 40
0.0
 40
0.0
 40
1.0
 40
1.0
 40
1.0
 40
2.0
 40
2.0
 40
2.0
 40
3.0
 40
3.0
 40
3.0
 40
4.0
 40
4.0
 40
4.0
 40
5.0
 40
5.0
 40
5.0
 40
6.0
 40
6.0
 40
6.0
 40
7.0
 40
7.0
 40
7.0
 40
8.0
 40
8.0
 40
8.0
 40
9.0
 40
9.0
 40
9.0
 40
10.0
 40
10.0
 40
10.0
 40
11.0
 40
11.0
 40
11.0
 40
12.0
 40
12.0
 40
12.0
 40
13.0
 40
13.0
 40
13.0
 40
14.0
 40
14.0
 40
14.0
 40
15.0
 40
15.0
 40
15.0
 40
16.0
 40
16.0
 40
16.0
 40
17.0
 40
17.0
 40
17.0
 40
18.0
 40
18.0
 40
18.0
 40
19.0
 40
19.0
 40
19.0
 40
20.0
 40
20.0
 40
20.0
 40
21.0
 40
21.0
 40
21.0
 40
22.0
 40
22.0
 40
22.0
 40
23.0
 40
23.0
 40
23.0
 40
24.0
 40
24.0
 40
24.0
 40
25.0
 40
25.0
 40
25.0
 40
26.0
 40
26.0
 40
26.0
 40
27.0
 40
27.0
 40
27.0
 40
28.0
 40
28.0
 40
28.0
 40
29.0
 40
29.0
 40
29.0
 40
30.0
 40
30.0
 40
30.0
 40
31.0
 40
31.0
 40
31.0
 40
32.0
 40
32.0
 40
32.0
 40
33.0
 40
33.0
 40
33.0
 40
34.0
 40
34.0
 40
34.0
 40
34.0
 10
129.8849075196933
 20
130.345882230155
 10
129.8849075196933
 20
130.345882230155
 10
129.8687150201063
 20
151.1120397559218
 10
129.8687150201063
 20
151.1120397559218
 10
129.8687150201063
 20
151.1120397559218
 10
135.7057407045248
 20
151.1602644769137
 10
135.7057407045248
 20
151.1602644769137
 10
135.7057407045248
 20
151.1602644769137
 10
135.7540007032935
 20
157.7410868090229
 10
135.7540007032935
 20
157.7410868090229
 10
135.7540007032935
 20
157.7410868090229
 10
129.8363333008746
 20
157.724894309436
 10
129.8363333008746
 20
157.724894309436
 10
129.8363333008746
 20
157.724894309436
 10
129.8525225205195
 20
190.2364348688864
 10
129.8525225205195
 20
190.2364348688864
 10
129.8525225205195
 20
190.2364348688864
 10
129.2382658695238
 20
190.8183065207083
 10
129.2382658695238
 20
190.8183065207083
 10
129.2382658695238
 20
190.8183065207083
 10
132.001926910128
 20
190.7711401330227
 10
132.001926910128
 20
190.7711401330227
 10
132.001926910128
 20
190.7711401330227
 10
131.9740221886177
 20
203.9699675740704
 10
131.9740221886177
 20
203.9699675740704
 10
131.9740221886177
 20
203.9699675740704
 10
127.8805653486061
 20
203.9699675740704
 10
127.8805653486061
 20
203.9699675740704
 10
127.8805653486061
 20
203.9699675740704
 10
127.8805653486061
 20
204.1649831246507
 10
127.8805653486061
 20
204.1649831246507
 10
127.8805653486061
 20
204.1649831246507
 10
127.5742836897533
 20
204.4991342272369
 10
127.5742836897533
 20
204.4991342272369
 10
127.5742836897533
 20
204.4991342272369
 10
116.5754842481338
 20
204.4712295057266
 10
116.5754842481338
 20
204.4712295057266
 10
116.5754842481338
 20
204.4712295057266
 10
116.2967898107995
 20
204.2207925676713
 10
116.2967898107995
 20
204.2207925676713
 10
116.2967898107995
 20
204.2207925676713
 10
116.2412978677707
 20
203.9978722955807
 10
116.2412978677707
 20
203.9978722955807
 10
116.2412978677707
 20
203.9978722955807
 10
112.1757457492694
 20
203.9420628525601
 10
112.1757457492694
 20
203.9420628525601
 10
112.1757457492694
 20
203.9420628525601
 10
112.1757457492694
 20
190.8183065207083
 10
112.1757457492694
 20
190.8183065207083
 10
112.1757457492694
 20
190.8183065207083
 10
114.3558065269847
 20
190.760944855505
 10
114.3558065269847
 20
190.760944855505
 10
114.3558065269847
 20
190.760944855505
 10
114.2407333047732
 20
189.869722378242
 10
114.2407333047732
 20
189.869722378242
 10
114.2407333047732
 20
189.869722378242
 10
114.1684138603469
 20
157.7979545853499
 10
114.1684138603469
 20
157.7979545853499
 10
114.1684138603469
 20
157.7979545853499
 10
108.2990002926178
 20
157.7166393096466
 10
108.2990002926178
 20
157.7166393096466
 10
108.2990002926178
 20
157.7166393096466
 10
108.3151927922047
 20
151.2088419756744
 10
108.3151927922047
 20
151.2088419756744
 10
108.3151927922047
 20
151.2088419756744
 10
114.1684138603469
 20
151.1682019767112
 10
114.1684138603469
 20
151.1682019767112
 10
114.1684138603469
 20
151.1682019767112
 10
114.1918354200569
 20
130.3238336196064
 10
114.1918354200569
 20
130.3238336196064
 10
114.1918354200569
 20
130.3238336196064
 10
113.455270716626
 20
130.2781841763266
 10
113.455270716626
 20
130.2781841763266
 10
113.455270716626
 20
130.2781841763266
 10
112.859961082896
 20
129.7076719686593
 10
112.859961082896
 20
129.7076719686593
 10
112.859961082896
 20
129.7076719686593
 10
112.859961082896
 20
118.4227344787843
 10
112.859961082896
 20
118.4227344787843
 10
112.859961082896
 20
118.4227344787843
 10
113.097869746454
 20
116.7085667292314
 10
112.9343590632489
 20
114.5535737441615
 10
112.9343590632489
 20
114.5535737441615
 10
112.9836421175471
 20
108.8488397230347
 10
112.9836421175471
 20
108.8488397230347
 10
112.9836421175471
 20
108.8488397230347
 10
113.5048712709161
 20
108.2042441839242
 10
113.5048712709161
 20
108.2042441839242
 10
113.5048712709161
 20
108.2042441839242
 10
130.5932147238451
 20
108.154643629634
 10
130.5932147238451
 20
108.154643629634
 10
130.5932147238451
 20
108.154643629634
 10
131.1637269315123
 20
108.7499561144463
 10
131.1637269315123
 20
108.7499561144463
 10
131.1637269315123
 20
108.7499561144463
 10
131.1389266543672
 20
129.7076719686593
 10
131.1389266543672
 20
129.7076719686593
 10
131.1389266543672
 20
129.7076719686593
 10
130.5932147238451
 20
130.2285836220365
 10
130.5932147238451
 20
130.2285836220365
 10
130.5932147238451
 20
130.2285836220365
 10
129.8849075196933
 20
130.345882230155
 10
129.8849075196933
 20
130.345882230155
 97
        0
 97
        1
330
7B
 75
     0
 76
     1
 98
        1
 10
0.0
 20
0.0
450
        0
451
        0
460
0.0
461
0.0
452
        0
462
0.0
453
        0
470

  0
LINE
  5
7E
330
70
100
AcDbEntity
  8
Standardebene
 62
     7
370
     9
100
AcDbLine
 10
56.46056898141576
 20
68.88377445435337
 30
0.0
 11
56.46056898141576
 21
69.39927847115187
 31
0.0
  0
LINE
  5
7F
330
70
100
AcDbEntity
  8
Standardebene
 62
     7
370
     9
100
AcDbLine
 10
56.46056898141576
 20
70.43028650474886
 30
0.0
 11
56.46056898141576
 21
71.46129453834523
 31
0.0
  0
LINE
  5
80
330
70
100
AcDbEntity
  8
Standardebene
 62
     7
370
     9
100
AcDbLine
 10
56.46056898141576
 20
72.49230257194222
 30
0.0
 11
56.46056898141576
 21
73.52395201902256
 31
0.0
  0
LINE
  5
81
330
70
100
AcDbEntity
  8
Standardebene
 62
     7
370
     9
100
AcDbLine
 10
56.46056898141576
 20
74.5550293088842
 30
0.0
 11
56.46056898141576
 21
75.58667364104824
 31
0.0
  0
LINE
  5
82
330
70
100
AcDbEntity
  8
Standardebene
 62
     7
370
     9
100
AcDbLine
 10
56.46056898141576
 20
76.61768167464524
 30
0.0
 11
56.46056898141576
 21
77.64933112172558
 31
0.0
  0
LINE
  5
83
330
70
100
AcDbEntity
  8
Standardebene
 62
     7
370
     9
100
AcDbLine
 10
56.46056898141576
 20
78.67969774183858
 30
0.0
 11
56.46056898141576
 21
79.711352434095
 31
0.0
  0
LINE
  5
84
330
70
100
AcDbEntity
  8
Standardebene
 62
     7
370
     9
100
AcDbLine
 10
56.46056898141576
 20
80.74241936386426
 30
0.0
 11
56.46056898141576
 21
81.7740688109446
 31
0.0
  0
LINE
  5
85
330
70
100
AcDbEntity
  8
Standardebene
 62
     7
370
     9
100
AcDbLine
 10
56.46056898141576
 20
82.8050768445416
 30
0.0
 11
56.46056898141576
 21
83.83672629162196
 31
0.0
  0
LINE
  5
86
330
70
100
AcDbEntity
  8
Standardebene
 62
     7
370
     9
100
AcDbLine
 10
56.46056898141576
 20
84.86773432521895
 30
0.0
 11
56.46056898141576
 21
85.89874235881529
 31
0.0
  0
LINE
  5
87
330
70
100
AcDbEntity
  8
Standardebene
 62
     7
370
     9
100
AcDbLine
 10
56.46056898141576
 20
86.92975039241231
 30
0.0
 11
56.46056898141576
 21
87.96139983949265
 31
0.0
  0
LINE
  5
88
330
70
100
AcDbEntity
  8
Standardebene
 62
     7
370
     9
100
AcDbLine
 10
56.46056898141576
 20
88.99304928657299
 30
0.0
 11
56.46056898141576
 21
90.02412146151831
 31
0.0
  0
LINE
  5
89
330
70
100
AcDbEntity
  8
Standardebene
 62
     7
370
     9
100
AcDbLine
 10
56.46056898141576
 20
91.05577090859867
 30
0.0
 11
56.46056898141576
 21
92.08614308650107
 31
0.0
  0
LINE
  5
8A
330
70
100
AcDbEntity
  8
Standardebene
 62
     7
370
     9
100
AcDbLine
 10
56.46056898141576
 20
93.11842838927601
 30
0.0
 11
56.46056898141576
 21
94.14943642287301
 31
0.0
  0
LINE
  5
8B
330
70
100
AcDbEntity
  8
Standardebene
 62
     7
370
     9
100
AcDbLine
 10
56.46056898141576
 20
95.18044445646935
 30
0.0
 11
56.46056898141576
 21
96.21145249006636
 31
0.0
  0
LINE
  5
8C
330
70
100
AcDbEntity
  8
Standardebene
 62
     7
370
     9
100
AcDbLine
 10
56.46056898141576
 20
97.24310762521255
 30
0.0
 11
56.46056898141576
 21
98.27417411209204
 31
0.0
  0
LINE
  5
8D
330
70
100
AcDbEntity
  8
Standardebene
 62
     7
370
     9
100
AcDbLine
 10
56.46056898141576
 20
99.30582355917238
 30
0.0
 11
56.46056898141576
 21
100.3368315927694
 31
0.0
  0
LWPOLYLINE
  5
8E
330
70
100
AcDbEntity
  8
Standardebene
 62
     7
370
     9
100
AcDbPolyline
 90
        3
 70
     0
 43
0.0
 10
56.46056898141576
 20
101.3678396263657
 10
56.46056898141576
 20
101.8839850566482
 10
56.96074321595511
 20
101.8839850566482
  0
LINE
  5
8F
330
70
100
AcDbEntity
  8
Standardebene
 62
     7
370
     9
100
AcDbLine
 10
57.96013294221071
 20
101.8839850566482
 30
0.0
 11
58.96079874062913
 21
101.8839850566482
 31
0.0
  0
LINE
  5
90
330
70
100
AcDbEntity
  8
Standardebene
 62
     7
370
     9
100
AcDbLine
 10
59.96050579622448
 20
101.8839850566482
 30
0.0
 11
60.96046941721315
 21
101.8839850566482
 31
0.0
  0
LINE
  5
91
330
70
100
AcDbEntity
  8
Standardebene
 62
     7
370
     9
100
AcDbLine
 10
61.9604971795508
 20
101.8839850566482
 30
0.0
 11
62.96052494188781
 21
101.8839850566482
 31
0.0
  0
LINE
  5
92
330
70
100
AcDbEntity
  8
Standardebene
 62
     7
370
     9
100
AcDbLine
 10
63.96055623321084
 20
101.8839850566482
 30
0.0
 11
64.96058046656184
 21
101.8839850566482
 31
0.0
  0
LINE
  5
93
330
70
100
AcDbEntity
  8
Standardebene
 62
     7
370
     9
100
AcDbLine
 10
65.9606082288995
 20
101.8839850566482
 30
0.0
 11
66.96057184988816
 21
101.8839850566482
 31
0.0
  0
LINE
  5
94
330
70
100
AcDbEntity
  8
Standardebene
 62
     7
370
     9
100
AcDbLine
 10
67.96027890548351
 20
101.8839850566482
 30
0.0
 11
68.96062737456219
 21
101.8839850566482
 31
0.0
  0
LINE
  5
95
330
70
100
AcDbEntity
  8
Standardebene
 62
     7
370
     9
100
AcDbLine
 10
69.96033811071028
 20
101.8839850566482
 30
0.0
 11
70.96036219249518
 21
101.8839850566482
 31
0.0
  0
LINE
  5
96
330
70
100
AcDbEntity
  8
Standardebene
 62
     7
370
     9
100
AcDbLine
 10
71.96064652022553
 20
101.8839850566482
 30
0.0
 11
72.96035357582088
 21
101.8839850566482
 31
0.0
  0
LINE
  5
97
330
70
100
AcDbEntity
  8
Standardebene
 62
     7
370
     9
100
AcDbLine
 10
73.9607020449002
 20
101.8839850566482
 30
0.0
 11
74.96008839375322
 21
101.8839850566482
 31
0.0
  0
LWPOLYLINE
  5
98
330
70
100
AcDbEntity
  8
Standardebene
 62
     7
370
     9
100
AcDbPolyline
 90
        3
 70
     0
 43
0.0
 10
75.96043686283255
 20
101.8839850566482
 10
76.46061109737189
 20
101.8839850566482
 10
76.46061109737189
 20
101.3985633322324
  0
LINE
  5
99
330
70
100
AcDbEntity
  8
Standardebene
 62
     7
370
     9
100
AcDbLine
 10
76.46061109737189
 20
100.4276557420517
 30
0.0
 11
76.46061109737189
 21
99.45674815187167
 31
0.0
  0
LINE
  5
9A
330
70
100
AcDbEntity
  8
Standardebene
 62
     7
370
     9
100
AcDbLine
 10
76.46061109737189
 20
98.48648197517563
 30
0.0
 11
76.46061109737189
 21
97.5155743849956
 31
0.0
  0
LINE
  5
9B
330
70
100
AcDbEntity
  8
Standardebene
 62
     7
370
     9
100
AcDbLine
 10
76.46061109737189
 20
96.54530820829892
 30
0.0
 11
76.46061109737189
 21
95.57446475946722
 31
0.0
  0
LINE
  5
9C
330
70
100
AcDbEntity
  8
Standardebene
 62
     7
370
     9
100
AcDbLine
 10
76.46061109737189
 20
94.60419858277054
 30
0.0
 11
76.46061109737189
 21
93.63329099259052
 31
0.0
  0
LINE
  5
9D
330
70
100
AcDbEntity
  8
Standardebene
 62
     7
370
     9
100
AcDbLine
 10
76.46061109737189
 20
92.66238340241049
 30
0.0
 11
76.46061109737189
 21
91.69211722571445
 31
0.0
  0
LINE
  5
9E
330
70
100
AcDbEntity
  8
Standardebene
 62
     7
370
     9
100
AcDbLine
 10
76.46061109737189
 20
90.72185657234214
 30
0.0
 11
76.46061109737189
 21
89.75164901366943
 31
0.0
  0
LINE
  5
9F
330
70
100
AcDbEntity
  8
Standardebene
 62
     7
370
     9
100
AcDbLine
 10
76.46061109737189
 20
88.78010001000603
 30
0.0
 11
76.46061109737189
 21
87.80983928307064
 31
0.0
  0
LINE
  5
A0
330
70
100
AcDbEntity
  8
Standardebene
 62
     7
370
     9
100
AcDbLine
 10
76.46061109737189
 20
86.83892624312933
 30
0.0
 11
76.46061109737189
 21
85.86866006643266
 31
0.0
  0
LINE
  5
A1
330
70
100
AcDbEntity
  8
Standardebene
 62
     7
370
     9
100
AcDbLine
 10
76.46061109737189
 20
84.89839388973662
 30
0.0
 11
76.46061109737189
 21
83.92755044090492
 31
0.0
  0
LINE
  5
A2
330
70
100
AcDbEntity
  8
Standardebene
 62
     7
370
     9
100
AcDbLine
 10
76.46061109737189
 20
82.95728426420824
 30
0.0
 11
76.46061109737189
 21
81.9863766740282
 31
0.0
  0
LINE
  5
A3
330
70
100
AcDbEntity
  8
Standardebene
 62
     7
370
     9
100
AcDbLine
 10
76.46061109737189
 20
81.01546908384817
 30
0.0
 11
76.46061109737189
 21
80.0452029071515
 31
0.0
  0
LINE
  5
A4
330
70
100
AcDbEntity
  8
Standardebene
 62
     7
370
     9
100
AcDbLine
 10
76.46061109737189
 20
79.07493673045546
 30
0.0
 11
76.46061109737189
 21
78.10409328162376
 31
0.0
  0
LINE
  5
A5
330
70
100
AcDbEntity
  8
Standardebene
 62
     7
370
     9
100
AcDbLine
 10
76.46061109737189
 20
77.13382710492709
 30
0.0
 11
76.46061109737189
 21
76.16291951474706
 31
0.0
  0
LINE
  5
A6
330
70
100
AcDbEntity
  8
Standardebene
 62
     7
370
     9
100
AcDbLine
 10
76.46061109737189
 20
75.19265333805037
 30
0.0
 11
76.46061109737189
 21
74.22116847573533
 31
0.0
  0
LINE
  5
A7
330
70
100
AcDbEntity
  8
Standardebene
 62
     7
370
     9
100
AcDbLine
 10
76.46061109737189
 20
73.25090229903866
 30
0.0
 11
76.46061109737189
 21
72.28063612234198
 31
0.0
  0
LINE
  5
A8
330
70
100
AcDbEntity
  8
Standardebene
 62
     7
370
     9
100
AcDbLine
 10
76.46061109737189
 20
71.31036994564593
 30
0.0
 11
76.46061109737189
 21
70.3388209419819
 31
0.0
  0
LINE
  5
A9
330
70
100
AcDbEntity
  8
Standardebene
 62
     7
370
     9
100
AcDbLine
 10
76.46061109737189
 20
69.36855974918071
 30
0.0
 11
76.46061109737189
 21
68.88377445435337
 31
0.0
  0
LINE
  5
AA
330
70
100
AcDbEntity
  8
Standardebene
 62
     7
370
     9
100
AcDbLine
 10
56.46056898141576
 20
101.8839850566482
 30
0.0
 11
56.46056898141576
 21
102.2585705310915
 31
0.0
  0
LINE
  5
AB
330
70
100
AcDbEntity
  8
Standardebene
 62
     7
370
     9
100
AcDbLine
 10
56.46056898141576
 20
103.0083187521139
 30
0.0
 11
56.46056898141576
 21
103.7581311144845
 31
0.0
  0
LWPOLYLINE
  5
AC
330
70
100
AcDbEntity
  8
Standardebene
 62
     7
370
     9
100
AcDbPolyline
 90
        3
 70
     0
 43
0.0
 10
56.46056898141576
 20
104.5085207489902
 10
56.46056898141576
 20
104.8836834955692
 10
56.96074321595511
 20
104.8836834955692
  0
LINE
  5
AD
330
70
100
AcDbEntity
  8
Standardebene
 62
     7
370
     9
100
AcDbLine
 10
57.96013294221071
 20
104.8836834955692
 30
0.0
 11
58.96079874062913
 21
104.8836834955692
 31
0.0
  0
LINE
  5
AE
330
70
100
AcDbEntity
  8
Standardebene
 62
     7
370
     9
100
AcDbLine
 10
59.96050579622448
 20
104.8836834955692
 30
0.0
 11
60.96046941721315
 21
104.8836834955692
 31
0.0
  0
LINE
  5
AF
330
70
100
AcDbEntity
  8
Standardebene
 62
     7
370
     9
100
AcDbLine
 10
61.9604971795508
 20
104.8836834955692
 30
0.0
 11
62.96052494188781
 21
104.8836834955692
 31
0.0
  0
LINE
  5
B0
330
70
100
AcDbEntity
  8
Standardebene
 62
     7
370
     9
100
AcDbLine
 10
63.96055623321084
 20
104.8836834955692
 30
0.0
 11
64.96058046656184
 21
104.8836834955692
 31
0.0
  0
LINE
  5
B1
330
70
100
AcDbEntity
  8
Standardebene
 62
     7
370
     9
100
AcDbLine
 10
65.9606082288995
 20
104.8836834955692
 30
0.0
 11
66.96057184988816
 21
104.8836834955692
 31
0.0
  0
LINE
  5
B2
330
70
100
AcDbEntity
  8
Standardebene
 62
     7
370
     9
100
AcDbLine
 10
67.96027890548351
 20
104.8836834955692
 30
0.0
 11
68.96062737456219
 21
104.8836834955692
 31
0.0
  0
LINE
  5
B3
330
70
100
AcDbEntity
  8
Standardebene
 62
     7
370
     9
100
AcDbLine
 10
69.96033811071028
 20
104.8836834955692
 30
0.0
 11
70.96036219249518
 21
104.8836834955692
 31
0.0
  0
LINE
  5
B4
330
70
100
AcDbEntity
  8
Standardebene
 62
     7
370
     9
100
AcDbLine
 10
71.96064652022553
 20
104.8836834955692
 30
0.0
 11
72.96035357582088
 21
104.8836834955692
 31
0.0
  0
LINE
  5
B5
330
70
100
AcDbEntity
  8
Standardebene
 62
     7
370
     9
100
AcDbLine
 10
73.9607020449002
 20
104.8836834955692
 30
0.0
 11
74.96008839375322
 21
104.8836834955692
 31
0.0
  0
LINE
  5
B6
330
70
100
AcDbEntity
  8
Standardebene
 62
     7
370
     9
100
AcDbLine
 10
75.96043686283255
 20
104.8836834955692
 30
0.0
 11
76.46061109737189
 21
104.8836834955692
 31
0.0
  0
LINE
  5
B7
330
70
100
AcDbEntity
  8
Standardebene
 62
     7
370
     9
100
AcDbLine
 10
76.46061109737189
 20
101.8839850566482
 30
0.0
 11
76.46061109737189
 21
102.6331560055349
 31
0.0
  0
LINE
  5
B8
330
70
100
AcDbEntity
  8
Standardebene
 62
     7
370
     9
100
AcDbLine
 10
76.46061109737189
 20
104.1336145678052
 30
0.0
 11
76.46061109737189
 21
104.8836834955692
 31
0.0
  0
SPLINE
  5
B9
330
70
100
AcDbEntity
  8
Standardebene
 62
     7
370
     9
100
AcDbSpline
210
0.0
220
0.0
230
1.0
 70
     8
 71
     3
 72
    17
 73
    13
 74
     0
 42
0.0000000001
 43
0.0000000001
 40
0.0
 40
0.0
 40
0.0
 40
0.0
 40
1.0
 40
1.0
 40
1.0
 40
2.0
 40
2.0
 40
2.0
 40
3.0
 40
3.0
 40
3.0
 40
4.0
 40
4.0
 40
4.0
 40
4.0
 10
64.52897333342355
 20
153.4009690939903
 30
0.0
 10
64.48138399508048
 20
153.2230409936298
 30
0.0
 10
64.45912340505515
 20
153.0448563278752
 30
0.0
 10
64.4610476455065
 20
152.8835408367411
 30
0.0
 10
64.4610476455065
 20
151.778962676571
 30
0.0
 10
65.35614016192039
 20
150.8835494534148
 30
0.0
 10
66.4607183220905
 20
150.8835494534148
 30
0.0
 10
67.56503991686663
 20
150.8835494534148
 30
0.0
 10
68.46045314002285
 20
151.778962676571
 30
0.0
 10
68.46045314002285
 20
152.8835408367411
 30
0.0
 10
68.46045314002285
 20
153.8040333271073
 30
0.0
 10
67.8384744849412
 20
154.5795022288229
 30
0.0
 10
66.97814657933969
 20
154.8152858254081
 30
0.0
  0
SPLINE
  5
BA
330
70
100
AcDbEntity
  8
Standardebene
 62
     7
370
     9
100
AcDbSpline
210
0.0
220
0.0
230
1.0
 70
     9
 71
     3
 72
    17
 73
    13
 74
     0
 42
0.0000000001
 43
0.0000000001
 40
0.0
 40
0.0
 40
0.0
 40
0.0
 40
1.0
 40
1.0
 40
1.0
 40
2.0
 40
2.0
 40
2.0
 40
3.0
 40
3.0
 40
3.0
 40
4.0
 40
4.0
 40
4.0
 40
4.0
 10
85.46041196896794
 20
154.8923837261409
 30
0.0
 10
84.35076664227743
 20
154.8923837261409
 30
0.0
 10
83.45163322091584
 20
153.9925447499476
 30
0.0
 10
83.45163322091584
 20
152.8835408367411
 30
0.0
 10
83.45163322091584
 20
151.77389551005
 30
0.0
 10
84.35076664227743
 20
150.8737999684634
 30
0.0
 10
85.46041196896794
 20
150.8737999684634
 30
0.0
 10
86.5703821025586
 20
150.8737999684634
 30
0.0
 10
87.46951142376172
 20
151.77389551005
 30
0.0
 10
87.46951142376172
 20
152.8835408367411
 30
0.0
 10
87.46951142376172
 20
153.9925447499476
 30
0.0
 10
86.5703821025586
 20
154.8923837261409
 30
0.0
 10
85.46041196896794
 20
154.8923837261409
 30
0.0
  0
SPLINE
  5
BB
330
70
100
AcDbEntity
  8
Standardebene
 62
     7
370
     9
100
AcDbSpline
210
0.0
220
0.0
230
1.0
 70
     9
 71
     3
 72
    17
 73
    13
 74
     0
 42
0.0000000001
 43
0.0000000001
 40
0.0
 40
0.0
 40
0.0
 40
0.0
 40
1.0
 40
1.0
 40
1.0
 40
2.0
 40
2.0
 40
2.0
 40
3.0
 40
3.0
 40
3.0
 40
4.0
 40
4.0
 40
4.0
 40
4.0
 10
146.1573057841113
 20
78.27009629995494
 30
0.0
 10
144.8393934992836
 20
78.27009629995494
 30
0.0
 10
143.7707986355462
 20
77.20143208610247
 30
0.0
 10
143.7707986355462
 20
75.88358394262373
 30
0.0
 10
143.7707986355462
 20
74.56503024431267
 30
0.0
 10
144.8393934992836
 20
73.4970767940586
 30
0.0
 10
146.1573057841113
 20
73.4970767940586
 30
0.0
 10
147.4764423933312
 20
73.4970767940586
 30
0.0
 10
148.5438129326765
 20
74.56503024431267
 30
0.0
 10
148.5438129326765
 20
75.88358394262373
 30
0.0
 10
148.5438129326765
 20
77.20143208610247
 30
0.0
 10
147.4764423933312
 20
78.27009629995494
 30
0.0
 10
146.1573057841113
 20
78.27009629995494
 30
0.0
  0
SPLINE
  5
BC
330
70
100
AcDbEntity
  8
Standardebene
 62
     7
370
     9
100
AcDbSpline
210
0.0
220
0.0
230
1.0
 70
     8
 71
     3
 72
     8
 73
     4
 74
     0
 42
0.0000000001
 43
0.0000000001
 40
0.0
 40
0.0
 40
0.0
 40
0.0
 40
1.0
 40
1.0
 40
1.0
 40
1.0
 10
147.6474375892946
 20
75.70693866922987
 30
0.0
 10
147.6618693926764
 20
75.83034662348183
 30
0.0
 10
147.6612279791931
 20
75.95311316424981
 30
0.0
 10
147.6474375892946
 20
76.06016507466861
 30
0.0
  0
LWPOLYLINE
  5
BD
330
70
100
AcDbEntity
  8
Standardebene
 62
     7
370
     9
100
AcDbPolyline
 90
        3
 70
     0
 43
0.0
 10
147.6474375892946
 20
75.70693866922987
 10
147.6474375892946
 20
75.02293533028055
 10
147.055541226595
 20
74.6815109329406
  0
SPLINE
  5
BE
330
70
100
AcDbEntity
  8
Standardebene
 62
     7
370
     9
100
AcDbSpline
210
0.0
220
0.0
230
1.0
 70
     8
 71
     3
 72
     8
 73
     4
 74
     0
 42
0.0000000001
 43
0.0000000001
 40
0.0
 40
0.0
 40
0.0
 40
0.0
 40
1.0
 40
1.0
 40
1.0
 40
1.0
 10
146.7492662881587
 20
74.50486565954737
 30
0.0
 10
146.8638925009847
 20
74.55374648188413
 30
0.0
 10
146.9690843149584
 20
74.61640746435157
 30
0.0
 10
147.055541226595
 20
74.6815109329406
 30
0.0
  0
LWPOLYLINE
  5
BF
330
70
100
AcDbEntity
  8
Standardebene
 62
     7
370
     9
100
AcDbPolyline
 90
        3
 70
     0
 43
0.0
 10
146.7492662881587
 20
74.50486565954737
 10
146.1472997337666
 20
74.15786096490032
 10
144.6470977368896
 20
75.02293533028055
  0
LINE
  5
C0
330
70
100
AcDbEntity
  8
Standardebene
 62
     7
370
     9
100
AcDbLine
 10
144.6470977368896
 20
76.75488001879504
 30
0.0
 11
144.6470977368896
 21
75.02293533028055
 31
0.0
  0
LINE
  5
C1
330
70
100
AcDbEntity
  8
Standardebene
 62
     7
370
     9
100
AcDbLine
 10
146.1472997337666
 20
77.62175034192928
 30
0.0
 11
144.6470977368896
 21
76.75488001879504
 31
0.0
  0
LINE
  5
C2
330
70
100
AcDbEntity
  8
Standardebene
 62
     7
370
     9
100
AcDbLine
 10
147.6474375892946
 20
76.75488001879504
 30
0.0
 11
146.1472997337666
 21
77.62175034192928
 31
0.0
  0
LINE
  5
C3
330
70
100
AcDbEntity
  8
Standardebene
 62
     7
370
     9
100
AcDbLine
 10
147.6474375892946
 20
76.75488001879504
 30
0.0
 11
147.6474375892946
 21
76.06016507466861
 31
0.0
  0
SPLINE
  5
C4
330
70
100
AcDbEntity
  8
Standardebene
 62
     7
370
     9
100
AcDbSpline
210
0.0
220
0.0
230
1.0
 70
     8
 71
     3
 72
    14
 73
    10
 74
     0
 42
0.0000000001
 43
0.0000000001
 40
0.0
 40
0.0
 40
0.0
 40
0.0
 40
1.0
 40
1.0
 40
1.0
 40
2.0
 40
2.0
 40
2.0
 40
3.0
 40
3.0
 40
3.0
 40
3.0
 10
146.1573057841113
 20
77.38372179815176
 30
0.0
 10
145.3292409767366
 20
77.38372179815176
 30
0.0
 10
144.6571037872343
 20
76.71229016348125
 30
0.0
 10
144.6571037872343
 20
75.88358394262373
 30
0.0
 10
144.6571037872343
 20
75.05545499390058
 30
0.0
 10
145.3292409767366
 20
74.38338194574673
 30
0.0
 10
146.1573057841113
 20
74.38338194574673
 30
0.0
 10
146.3715378876456
 20
74.38338194574673
 30
0.0
 10
146.5744811138678
 20
74.42783190016287
 30
0.0
 10
146.7492662881587
 20
74.50486565954737
 30
0.0
  0
SPLINE
  5
C5
330
70
100
AcDbEntity
  8
Standardebene
 62
     7
370
     9
100
AcDbSpline
210
0.0
220
0.0
230
1.0
 70
     8
 71
     3
 72
     8
 73
     4
 74
     0
 42
0.0000000001
 43
0.0000000001
 40
0.0
 40
0.0
 40
0.0
 40
0.0
 40
1.0
 40
1.0
 40
1.0
 40
1.0
 10
147.055541226595
 20
74.6815109329406
 30
0.0
 10
147.3975485328512
 20
74.93769147830531
 30
0.0
 10
147.5998447088088
 20
75.31169968061362
 30
0.0
 10
147.6474375892946
 20
75.70693866922987
 30
0.0
  0
SPLINE
  5
C6
330
70
100
AcDbEntity
  8
Standardebene
 62
     7
370
     9
100
AcDbSpline
210
0.0
220
0.0
230
1.0
 70
     8
 71
     3
 72
     8
 73
     4
 74
     0
 42
0.0000000001
 43
0.0000000001
 40
0.0
 40
0.0
 40
0.0
 40
0.0
 40
1.0
 40
1.0
 40
1.0
 40
1.0
 10
147.6474375892946
 20
76.06016507466861
 30
0.0
 10
147.5566190808112
 20
76.8212663143514
 30
0.0
 10
146.9121211716541
 20
77.38057887208205
 30
0.0
 10
146.1573057841113
 20
77.38372179815176
 30
0.0
  0
SPLINE
  5
C7
330
70
100
AcDbEntity
  8
Standardebene
 62
     7
370
     9
100
AcDbSpline
210
0.0
220
0.0
230
1.0
 70
     9
 71
     3
 72
    17
 73
    13
 74
     0
 42
0.0000000001
 43
0.0000000001
 40
0.0
 40
0.0
 40
0.0
 40
0.0
 40
1.0
 40
1.0
 40
1.0
 40
2.0
 40
2.0
 40
2.0
 40
3.0
 40
3.0
 40
3.0
 40
4.0
 40
4.0
 40
4.0
 40
4.0
 10
146.1573057841113
 20
96.26975697572866
 30
0.0
 10
144.8393934992836
 20
96.26975697572866
 30
0.0
 10
143.7707986355462
 20
95.20109797064289
 30
0.0
 10
143.7707986355462
 20
93.88324982716351
 30
0.0
 10
143.7707986355462
 20
92.56533754233645
 30
0.0
 10
144.8393934992836
 20
91.49674267859838
 30
0.0
 10
146.1573057841113
 20
91.49674267859838
 30
0.0
 10
147.4764423933312
 20
91.49674267859838
 30
0.0
 10
148.5438129326765
 20
92.56533754233645
 30
0.0
 10
148.5438129326765
 20
93.88324982716351
 30
0.0
 10
148.5438129326765
 20
95.20109797064289
 30
0.0
 10
147.4764423933312
 20
96.26975697572866
 30
0.0
 10
146.1573057841113
 20
96.26975697572866
 30
0.0
  0
SPLINE
  5
C8
330
70
100
AcDbEntity
  8
Standardebene
 62
     7
370
     9
100
AcDbSpline
210
0.0
220
0.0
230
1.0
 70
     8
 71
     3
 72
     8
 73
     4
 74
     0
 42
0.0000000001
 43
0.0000000001
 40
0.0
 40
0.0
 40
0.0
 40
0.0
 40
1.0
 40
1.0
 40
1.0
 40
1.0
 10
147.6474375892946
 20
93.70718182590531
 30
0.0
 10
147.6618693926764
 20
93.83058978015728
 30
0.0
 10
147.6612279791931
 20
93.95277904878959
 30
0.0
 10
147.6474375892946
 20
94.05983095920841
 30
0.0
  0
LWPOLYLINE
  5
C9
330
70
100
AcDbEntity
  8
Standardebene
 62
     7
370
     9
100
AcDbPolyline
 90
        3
 70
     0
 43
0.0
 10
147.6474375892946
 20
93.70718182590531
 10
147.6474375892946
 20
93.02317848695599
 10
147.055541226595
 20
92.68117681748101
  0
SPLINE
  5
CA
330
70
100
AcDbEntity
  8
Standardebene
 62
     7
370
     9
100
AcDbSpline
210
0.0
220
0.0
230
1.0
 70
     8
 71
     3
 72
     8
 73
     4
 74
     0
 42
0.0000000001
 43
0.0000000001
 40
0.0
 40
0.0
 40
0.0
 40
0.0
 40
1.0
 40
1.0
 40
1.0
 40
1.0
 10
146.7492662881587
 20
92.50453154408779
 30
0.0
 10
146.8638925009847
 20
92.55404866502432
 30
0.0
 10
146.9690843149584
 20
92.61607334889198
 30
0.0
 10
147.055541226595
 20
92.68245964444835
 30
0.0
  0
LWPOLYLINE
  5
CB
330
70
100
AcDbEntity
  8
Standardebene
 62
     7
370
     9
100
AcDbPolyline
 90
        3
 70
     0
 43
0.0
 10
146.7492662881587
 20
92.50453154408779
 10
146.1472997337666
 20
92.1569495773051
 10
144.6470977368896
 20
93.02317848695599
  0
LINE
  5
CC
330
70
100
AcDbEntity
  8
Standardebene
 62
     7
370
     9
100
AcDbLine
 10
144.6470977368896
 20
94.75512317547048
 30
0.0
 11
144.6470977368896
 21
93.02317848695599
 31
0.0
  0
LINE
  5
CD
330
70
100
AcDbEntity
  8
Standardebene
 62
     7
370
     9
100
AcDbLine
 10
146.1472997337666
 20
95.62141622646906
 30
0.0
 11
144.6470977368896
 21
94.75512317547048
 31
0.0
  0
LINE
  5
CE
330
70
100
AcDbEntity
  8
Standardebene
 62
     7
370
     9
100
AcDbLine
 10
147.6474375892946
 20
94.75512317547048
 30
0.0
 11
146.1472997337666
 21
95.62141622646906
 31
0.0
  0
LINE
  5
CF
330
70
100
AcDbEntity
  8
Standardebene
 62
     7
370
     9
100
AcDbLine
 10
147.6474375892946
 20
94.75512317547048
 30
0.0
 11
147.6474375892946
 21
94.05983095920841
 31
0.0
  0
SPLINE
  5
D0
330
70
100
AcDbEntity
  8
Standardebene
 62
     7
370
     9
100
AcDbSpline
210
0.0
220
0.0
230
1.0
 70
     8
 71
     3
 72
    14
 73
    10
 74
     0
 42
0.0000000001
 43
0.0000000001
 40
0.0
 40
0.0
 40
0.0
 40
0.0
 40
1.0
 40
1.0
 40
1.0
 40
2.0
 40
2.0
 40
2.0
 40
3.0
 40
3.0
 40
3.0
 40
3.0
 10
146.1573057841113
 20
95.38338768269218
 30
0.0
 10
145.3292409767366
 20
95.38338768269218
 30
0.0
 10
144.6571037872343
 20
94.71195604802169
 30
0.0
 10
144.6571037872343
 20
93.88324982716351
 30
0.0
 10
144.6571037872343
 20
93.055120878441
 30
0.0
 10
145.3292409767366
 20
92.38368924377052
 30
0.0
 10
146.1573057841113
 20
92.38368924377052
 30
0.0
 10
146.3715378876456
 20
92.38368924377052
 30
0.0
 10
146.5744811138678
 20
92.42813919818663
 30
0.0
 10
146.7492662881587
 20
92.50453154408779
 30
0.0
  0
SPLINE
  5
D1
330
70
100
AcDbEntity
  8
Standardebene
 62
     7
370
     9
100
AcDbSpline
210
0.0
220
0.0
230
1.0
 70
     8
 71
     3
 72
     8
 73
     4
 74
     0
 42
0.0000000001
 43
0.0000000001
 40
0.0
 40
0.0
 40
0.0
 40
0.0
 40
1.0
 40
1.0
 40
1.0
 40
1.0
 10
147.055541226595
 20
92.68245964444835
 30
0.0
 10
147.3975485328512
 20
92.93735736284508
 30
0.0
 10
147.5998447088088
 20
93.31194283728908
 30
0.0
 10
147.6474375892946
 20
93.70718182590531
 30
0.0
  0
SPLINE
  5
D2
330
70
100
AcDbEntity
  8
Standardebene
 62
     7
370
     9
100
AcDbSpline
210
0.0
220
0.0
230
1.0
 70
     8
 71
     3
 72
     8
 73
     4
 74
     0
 42
0.0000000001
 43
0.0000000001
 40
0.0
 40
0.0
 40
0.0
 40
0.0
 40
1.0
 40
1.0
 40
1.0
 40
1.0
 10
147.6474375892946
 20
94.05983095920841
 30
0.0
 10
147.5566190808112
 20
94.82093219889121
 30
0.0
 10
146.9121211716541
 20
95.38088617010583
 30
0.0
 10
146.1573057841113
 20
95.38338768269218
 30
0.0
  0
LINE
  5
D3
330
70
100
AcDbEntity
  8
Standardebene
  6
AI-Linetype-0
 62
     7
370
     9
100
AcDbLine
 10
13.97038932333031
 20
230.883589634544
 30
0.0
 11
81.17474363670423
 21
230.883589634544
 31
0.0
  0
LINE
  5
D5
330
70
100
AcDbEntity
  8
Standardebene
  6
AI-Linetype-1
 62
     7
370
     9
100
AcDbLine
 10
66.4607183220905
 20
181.2573001229156
 30
0.0
 11
66.4607183220905
 21
246.2154885579446
 31
0.0
  0
LINE
  5
D7
330
70
100
AcDbEntity
  8
Standardebene
  6
AI-Linetype-2
 62
     7
370
     9
100
AcDbLine
 10
66.4607183220905
 20
66.47533096464799
 30
0.0
 11
66.4607183220905
 21
172.2609628841316
 31
0.0
  0
LINE
  5
D9
330
70
100
AcDbEntity
  8
Standardebene
  6
AI-Linetype-3
 62
     7
370
     9
100
AcDbLine
 10
146.1573057841113
 20
183.537974046681
 30
0.0
 11
146.1573057841113
 21
245.8625187178998
 31
0.0
  0
LINE
  5
DB
330
70
100
AcDbEntity
  8
Standardebene
  6
AI-Linetype-4
 62
     7
370
     9
100
AcDbLine
 10
146.1573057841113
 20
66.47533096464799
 30
0.0
 11
146.1573057841113
 21
173.9083051341542
 31
0.0
  0
LINE
  5
DD
330
70
100
AcDbEntity
  8
Standardebene
 62
     7
370
    35
100
AcDbLine
 10
26.96023105258194
 20
224.8831664951273
 30
0.0
 11
38.46090309687535
 21
224.8831664951273
 31
0.0
  0
LWPOLYLINE
  5
DE
330
70
100
AcDbEntity
  8
Standardebene
 62
     7
370
    35
100
AcDbPolyline
 90
        3
 70
     0
 43
0.0
 10
38.46090309687535
 20
236.883050653735
 10
26.96023105258194
 20
236.883050653735
 10
25.96084470372828
 20
235.8836643048813
  0
LINE
  5
DF
330
70
100
AcDbEntity
  8
Standardebene
 62
     7
370
    35
100
AcDbLine
 10
25.96084470372828
 20
225.8831942574643
 30
0.0
 11
26.96023105258194
 21
224.8831664951273
 31
0.0
  0
LINE
  5
E0
330
70
100
AcDbEntity
  8
Standardebene
 62
     7
370
    35
100
AcDbLine
 10
21.96047708898625
 20
224.8831664951273
 30
0.0
 11
22.96050485132326
 21
225.8831942574643
 31
0.0
  0
LINE
  5
E1
330
70
100
AcDbEntity
  8
Standardebene
 62
     7
370
    35
100
AcDbLine
 10
22.96050485132326
 20
235.8836643048813
 30
0.0
 11
21.96047708898625
 21
236.883050653735
 31
0.0
  0
LINE
  5
E2
330
70
100
AcDbEntity
  8
Standardebene
 62
     7
370
    35
100
AcDbLine
 10
17.16052342554303
 20
224.8831664951273
 30
0.0
 11
21.96047708898625
 21
224.8831664951273
 31
0.0
  0
LINE
  5
E3
330
70
100
AcDbEntity
  8
Standardebene
 62
     7
370
    35
100
AcDbLine
 10
21.96047708898625
 20
236.883050653735
 30
0.0
 11
17.16052342554303
 21
236.883050653735
 31
0.0
  0
LINE
  5
E4
330
70
100
AcDbEntity
  8
Standardebene
 62
     7
370
    35
100
AcDbLine
 10
22.96050485132326
 20
225.8831942574643
 30
0.0
 11
25.96084470372828
 21
225.8831942574643
 31
0.0
  0
LINE
  5
E5
330
70
100
AcDbEntity
  8
Standardebene
 62
     7
370
    35
100
AcDbLine
 10
25.96084470372828
 20
235.8836643048813
 30
0.0
 11
22.96050485132326
 21
235.8836643048813
 31
0.0
  0
LINE
  5
E6
330
70
100
AcDbEntity
  8
Standardebene
 62
     7
370
    35
100
AcDbLine
 10
45.46039187840338
 20
239.3832162716
 30
0.0
 11
44.70121487917129
 21
240.697985630358
 31
0.0
  0
LINE
  5
E7
330
70
100
AcDbEntity
  8
Standardebene
 62
     7
370
    35
100
AcDbLine
 10
40.01966614480798
 20
240.697985630358
 30
0.0
 11
39.26080985231821
 21
239.3832162716
 31
0.0
  0
LINE
  5
E8
330
70
100
AcDbEntity
  8
Standardebene
 62
     7
370
    35
100
AcDbLine
 10
39.26080985231821
 20
222.3835781493972
 30
0.0
 11
40.01966614480798
 21
221.0681673771559
 31
0.0
  0
LINE
  5
E9
330
70
100
AcDbEntity
  8
Standardebene
 62
     7
370
    35
100
AcDbLine
 10
44.70121487917129
 20
221.0681673771559
 30
0.0
 11
45.46039187840338
 21
222.3835781493972
 31
0.0
  0
LINE
  5
EA
330
70
100
AcDbEntity
  8
Standardebene
 62
     7
370
    35
100
AcDbLine
 10
82.96024635110226
 20
69.88348150994871
 30
0.0
 11
82.96024635110226
 21
107.8837667825809
 31
0.0
  0
LINE
  5
EB
330
70
100
AcDbEntity
  8
Standardebene
 62
     7
370
    35
100
AcDbLine
 10
49.96029231420141
 20
72.39339661276581
 30
0.0
 11
49.96029231420141
 21
69.88348150994871
 31
0.0
  0
LINE
  5
EC
330
70
100
AcDbEntity
  8
Standardebene
 62
     7
370
    35
100
AcDbLine
 10
49.96029231420141
 20
90.39306249730561
 30
0.0
 11
49.96029231420141
 21
79.38313590934242
 31
0.0
  0
LINE
  5
ED
330
70
100
AcDbEntity
  8
Standardebene
 62
     7
370
    35
100
AcDbLine
 10
49.96029231420141
 20
107.8837667825809
 30
0.0
 11
49.96029231420141
 21
97.3840846208502
 31
0.0
  0
LINE
  5
EE
330
70
100
AcDbEntity
  8
Standardebene
 62
     7
370
    35
100
AcDbLine
 10
82.96024635110226
 20
107.8837667825809
 30
0.0
 11
81.96086000224861
 21
108.8834798203019
 31
0.0
  0
LINE
  5
EF
330
70
100
AcDbEntity
  8
Standardebene
 62
     7
370
    35
100
AcDbLine
 10
50.96096149002241
 20
108.8834798203019
 30
0.0
 11
49.96029231420141
 21
107.8837667825809
 31
0.0
  0
LINE
  5
F0
330
70
100
AcDbEntity
  8
Standardebene
 62
     7
370
    35
100
AcDbLine
 10
49.96029231420141
 20
69.88348150994871
 30
0.0
 11
50.96096149002241
 21
68.88377445435337
 31
0.0
  0
LINE
  5
F1
330
70
100
AcDbEntity
  8
Standardebene
 62
     7
370
    35
100
AcDbLine
 10
81.96086000224861
 20
68.88377445435337
 30
0.0
 11
82.96024635110226
 21
69.88348150994871
 31
0.0
  0
LINE
  5
F2
330
70
100
AcDbEntity
  8
Standardebene
 62
     7
370
    35
100
AcDbLine
 10
80.71087340533859
 20
213.3831358643178
 30
0.0
 11
80.31377431761937
 21
216.6158598218437
 31
0.0
  0
LINE
  5
F3
330
70
100
AcDbEntity
  8
Standardebene
 62
     7
370
    35
100
AcDbLine
 10
52.60772646790998
 20
216.6158598218437
 30
0.0
 11
52.21056323884242
 21
213.3831358643178
 31
0.0
  0
LINE
  5
F4
330
70
100
AcDbEntity
  8
Standardebene
 62
     7
370
    35
100
AcDbLine
 10
80.71087340533859
 20
108.8834798203019
 30
0.0
 11
80.71087340533859
 21
146.8834384040661
 31
0.0
  0
LINE
  5
F5
330
70
100
AcDbEntity
  8
Standardebene
 62
     7
370
    35
100
AcDbLine
 10
80.71087340533859
 20
158.8846053896412
 30
0.0
 11
80.71087340533859
 21
213.3831358643178
 31
0.0
  0
LINE
  5
F6
330
70
100
AcDbEntity
  8
Standardebene
 62
     7
370
    35
100
AcDbLine
 10
52.21056323884242
 20
213.3831358643178
 30
0.0
 11
52.21056323884242
 21
158.8846053896412
 31
0.0
  0
LINE
  5
F7
330
70
100
AcDbEntity
  8
Standardebene
 62
     7
370
    35
100
AcDbLine
 10
52.21056323884242
 20
146.8834384040661
 30
0.0
 11
52.21056323884242
 21
108.8834798203019
 31
0.0
  0
LINE
  5
F8
330
70
100
AcDbEntity
  8
Standardebene
 62
     7
370
    35
100
AcDbLine
 10
52.34121916545882
 20
217.1386118110073
 30
0.0
 11
52.60772646790998
 21
216.6158598218437
 31
0.0
  0
LINE
  5
F9
330
70
100
AcDbEntity
  8
Standardebene
 62
     7
370
    35
100
AcDbLine
 10
80.31377431761937
 20
216.6158598218437
 30
0.0
 11
80.57996091332821
 21
217.1386118110073
 31
0.0
  0
LINE
  5
FA
330
70
100
AcDbEntity
  8
Standardebene
 62
     7
370
    35
100
AcDbLine
 10
78.96077671523757
 20
218.8837054759362
 30
0.0
 11
78.96077671523757
 21
242.8831530864094
 31
0.0
  0
LINE
  5
FB
330
70
100
AcDbEntity
  8
Standardebene
 62
     7
370
    35
100
AcDbLine
 10
55.96071545361811
 20
243.2830743934566
 30
0.0
 11
55.96071545361811
 21
242.8831530864094
 31
0.0
  0
LWPOLYLINE
  5
FC
330
70
100
AcDbEntity
  8
Standardebene
 62
     7
370
    35
100
AcDbPolyline
 90
        3
 70
     0
 43
0.0
 10
76.96078533191124
 20
242.8831530864094
 10
76.96078533191124
 20
243.2830743934566
 10
76.46061109737189
 20
243.7835693347377
  0
LINE
  5
FD
330
70
100
AcDbEntity
  8
Standardebene
 62
     7
370
    35
100
AcDbLine
 10
56.46056898141576
 20
243.7835693347377
 30
0.0
 11
55.96071545361811
 21
243.2830743934566
 31
0.0
  0
SPLINE
  5
FE
330
70
100
AcDbEntity
  8
Standardebene
 62
     7
370
    35
100
AcDbSpline
210
0.0
220
0.0
230
1.0
 70
     8
 71
     3
 72
     8
 73
     4
 74
     0
 42
0.0000000001
 43
0.0000000001
 40
0.0
 40
0.0
 40
0.0
 40
0.0
 40
1.0
 40
1.0
 40
1.0
 40
1.0
 10
39.26016843883422
 20
224.0835804464267
 30
0.0
 10
39.26016843883422
 20
224.5248729231681
 30
0.0
 10
38.90219557361674
 20
224.8831664951273
 30
0.0
 10
38.46090309687535
 20
224.8831664951273
 30
0.0
  0
SPLINE
  5
FF
330
70
100
AcDbEntity
  8
Standardebene
 62
     7
370
    35
100
AcDbSpline
210
0.0
220
0.0
230
1.0
 70
     8
 71
     3
 72
     8
 73
     4
 74
     0
 42
0.0000000001
 43
0.0000000001
 40
0.0
 40
0.0
 40
0.0
 40
0.0
 40
1.0
 40
1.0
 40
1.0
 40
1.0
 10
38.46090309687535
 20
236.883050653735
 30
0.0
 10
38.90219557361674
 20
236.883050653735
 30
0.0
 10
39.26016843883422
 20
237.2413442256942
 30
0.0
 10
39.26016843883422
 20
237.6832139745712
 30
0.0
  0
SPLINE
  5
100
330
70
100
AcDbEntity
  8
Standardebene
 62
     7
370
    35
100
AcDbSpline
210
0.0
220
0.0
230
1.0
 70
     8
 71
     3
 72
     8
 73
     4
 74
     0
 42
0.0000000001
 43
0.0000000001
 40
0.0
 40
0.0
 40
0.0
 40
0.0
 40
1.0
 40
1.0
 40
1.0
 40
1.0
 10
15.96069536305354
 20
226.0829945576174
 30
0.0
 10
15.96069536305354
 20
225.4202861463243
 30
0.0
 10
16.49749430750828
 20
224.8831664951273
 30
0.0
 10
17.16052342554303
 20
224.8831664951273
 30
0.0
  0
SPLINE
  5
101
330
70
100
AcDbEntity
  8
Standardebene
 62
     7
370
    35
100
AcDbSpline
210
0.0
220
0.0
230
1.0
 70
     8
 71
     3
 72
     8
 73
     4
 74
     0
 42
0.0000000001
 43
0.0000000001
 40
0.0
 40
0.0
 40
0.0
 40
0.0
 40
1.0
 40
1.0
 40
1.0
 40
1.0
 10
17.16052342554303
 20
236.883050653735
 30
0.0
 10
16.49749430750828
 20
236.883050653735
 30
0.0
 10
15.96069536305354
 20
236.3462517092796
 30
0.0
 10
15.96069536305354
 20
235.6835432979865
 30
0.0
  0
SPLINE
  5
102
330
70
100
AcDbEntity
  8
Standardebene
 62
     7
370
    35
100
AcDbSpline
210
0.0
220
0.0
230
1.0
 70
     8
 71
     3
 72
    11
 73
     7
 74
     0
 42
0.0000000001
 43
0.0000000001
 40
0.0
 40
0.0
 40
0.0
 40
0.0
 40
1.0
 40
1.0
 40
1.0
 40
2.0
 40
2.0
 40
2.0
 40
2.0
 10
80.57996091332821
 20
217.1386118110073
 30
0.0
 10
80.67020779047615
 20
217.3158343565361
 30
0.0
 10
80.71215623230594
 20
217.5047306274672
 30
0.0
 10
80.71087340533859
 20
217.6832447306022
 30
0.0
 10
80.71087340533859
 20
218.3462651179975
 30
0.0
 10
80.17317648200652
 20
218.8837054759362
 30
0.0
 10
79.51046807071346
 20
218.8837054759362
 30
0.0
  0
SPLINE
  5
103
330
70
100
AcDbEntity
  8
Standardebene
 62
     7
370
    35
100
AcDbSpline
210
0.0
220
0.0
230
1.0
 70
     8
 71
     3
 72
    11
 73
     7
 74
     0
 42
0.0000000001
 43
0.0000000001
 40
0.0
 40
0.0
 40
0.0
 40
0.0
 40
1.0
 40
1.0
 40
1.0
 40
2.0
 40
2.0
 40
2.0
 40
2.0
 10
53.41071200807357
 20
218.8837054759362
 30
0.0
 10
52.7480068425135
 20
218.8837054759362
 30
0.0
 10
52.21056323884242
 20
218.3462651179975
 30
0.0
 10
52.21056323884242
 20
217.6832447306022
 30
0.0
 10
52.21056323884242
 20
217.4840129719453
 30
0.0
 10
52.25854096741826
 20
217.2973616482073
 30
0.0
 10
52.34121916545882
 20
217.1386118110073
 30
0.0
  0
LWPOLYLINE
  5
104
330
70
100
AcDbEntity
  8
Standardebene
 62
     7
370
    35
100
AcDbPolyline
 90
       14
 70
     0
 43
0.0
 10
66.4607183220905
 20
68.88377445435337
 10
64.59196013751624
 20
68.88377445435337
 10
62.75129586352559
 20
68.88377445435337
 10
60.96425375676685
 20
68.88377445435337
 10
59.25738833546295
 20
68.88377445435337
 10
57.65539401873319
 20
68.88377445435337
 10
56.18213472065535
 20
68.88377445435337
 10
54.85831809929202
 20
68.88377445435337
 10
53.70422281818602
 20
68.88377445435337
 10
52.73646139951671
 20
68.88377445435337
 10
51.96785237663449
 20
68.88377445435337
 10
51.41136203823124
 20
68.88377445435337
 10
51.07372198044561
 20
68.88377445435337
 10
50.96096149002241
 20
68.88377445435337
  0
LWPOLYLINE
  5
105
330
70
100
AcDbEntity
  8
Standardebene
 62
     7
370
    35
100
AcDbPolyline
 90
       14
 70
     0
 43
0.0
 10
81.96086000224861
 20
68.88377445435337
 10
81.84745809834206
 20
68.88377445435337
 10
81.50981804055579
 20
68.88377445435337
 10
80.95364840889486
 20
68.88377445435337
 10
80.18504263145365
 20
68.88377445435337
 10
79.21663655385997
 20
68.88377445435337
 10
78.06222056601164
 20
68.88377445435337
 10
76.73904869061853
 20
68.88377445435337
 10
75.2654691678844
 20
68.88377445435337
 10
73.66379174332472
 20
68.88377445435337
 10
71.95660561527851
 20
68.88377445435337
 10
70.17014078065542
 20
68.88377445435337
 10
68.32864266913578
 20
68.88377445435337
 10
66.4607183220905
 20
68.88377445435337
  0
LWPOLYLINE
  5
106
330
70
100
AcDbEntity
  8
Standardebene
 62
     7
370
    35
100
AcDbPolyline
 90
        5
 70
     0
 43
0.0
 10
79.51046807071346
 20
218.8837054759362
 10
79.39360645285219
 20
218.8837054759362
 10
79.04537915372881
 20
218.8837054759362
 10
78.47221206475137
 20
218.8837054759362
 10
77.68359806228005
 20
218.8837054759362
  0
LWPOLYLINE
  5
107
330
70
100
AcDbEntity
  8
Standardebene
 62
     7
370
    35
100
AcDbPolyline
 90
       16
 70
     0
 43
0.0
 10
49.9628579681361
 20
90.39306249730561
 10
49.96125443442707
 20
90.38613523168221
 10
49.96125443442707
 20
90.38613523168221
 10
49.97600694455057
 20
90.45752455241128
 10
50.05740231562378
 20
90.87412261003274
 10
50.17895017077275
 20
91.62387083105507
 10
50.23840920070572
 20
92.10743245636855
 10
50.28824702838457
 20
92.64237130172094
 10
50.3214081054886
 20
93.20989953822047
 10
50.33616061561208
 20
93.79864738867226
 10
50.30107529805738
 20
94.94177449920847
 10
50.202105197532
 20
95.96470072291138
 10
50.07901795002235
 20
96.77461352869903
 10
50.02481851065542
 20
97.06645666375347
 10
49.98505087466967
 20
97.26689837738931
 10
49.96029231420141
 20
97.3840846208502
  0
LWPOLYLINE
  5
108
330
70
100
AcDbEntity
  8
Standardebene
 62
     7
370
    35
100
AcDbPolyline
 90
       16
 70
     0
 43
0.0
 10
49.9628579681361
 20
72.39339661276581
 10
49.96125443442707
 20
72.38646934714241
 10
49.96125443442707
 20
72.38646934714241
 10
49.97600694455057
 20
72.45728139573583
 10
50.05740231562378
 20
72.87445672549295
 10
50.17895017077275
 20
73.62356353303129
 10
50.23840920070572
 20
74.10712515834479
 10
50.28824702838457
 20
74.64142259021381
 10
50.3214081054886
 20
75.2102280675019
 10
50.33616061561208
 20
75.79834009064784
 10
50.30107529805738
 20
76.94275002815203
 10
50.202105197532
 20
77.96503483837097
 10
50.07901795002235
 20
78.7749476441586
 10
50.02481851065542
 20
79.06679077921305
 10
49.98505087466967
 20
79.26665522071385
 10
49.96029231420141
 20
79.38313590934242
  0
LWPOLYLINE
  5
109
330
70
100
AcDbEntity
  8
Standardebene
 62
     7
370
    35
100
AcDbPolyline
 90
       29
 70
     0
 43
0.0
 10
49.96029231420141
 20
69.88348150994871
 10
50.06400887450551
 20
69.88348150994871
 10
50.37406815249483
 20
69.88348150994871
 10
50.88642924322362
 20
69.88348150994871
 10
51.59487043589953
 20
69.88348150994871
 10
52.48932153883072
 20
69.88348150994871
 10
53.56041791515449
 20
69.88348150994871
 10
54.79315048935466
 20
69.88348150994871
 10
56.17276675130772
 20
69.88348150994871
 10
57.6823333850455
 20
69.88348150994871
 10
59.30151758313677
 20
69.88348150994871
 10
61.01094865837535
 20
69.88348150994871
 10
62.78888269366666
 20
69.88348150994871
 10
64.61325506517312
 20
69.88348150994871
 10
66.4607183220905
 20
69.88348150994871
 10
68.30792501361455
 20
69.88348150994871
 10
70.13229738512037
 20
69.88348150994871
 10
71.90991071367
 20
69.88348150994871
 10
73.61966249565026
 20
69.88348150994871
 10
75.23917121439129
 20
69.88348150994871
 10
76.74841717951394
 20
69.88348150994871
 10
78.12770888269068
 20
69.88348150994871
 10
79.36076216363317
 20
69.88348150994871
 10
80.43153783321526
 20
69.88348150994871
 10
81.32695105637148
 20
69.88348150994871
 10
82.03443012882173
 20
69.88348150994871
 10
82.54653465415719
 20
69.88348150994871
 10
82.85659793848664
 20
69.88348150994871
 10
82.96024635110226
 20
69.88348150994871
  0
LWPOLYLINE
  5
10A
330
70
100
AcDbEntity
  8
Standardebene
 62
     7
370
    35
100
AcDbPolyline
 90
       15
 70
     0
 43
0.0
 10
66.4607183220905
 20
107.8837667825809
 10
64.61325506517312
 20
107.8837667825809
 10
62.78888269366666
 20
107.8837667825809
 10
61.01094865837535
 20
107.8837667825809
 10
59.30151758313677
 20
107.8837667825809
 10
57.6823333850455
 20
107.8837667825809
 10
56.17276675130772
 20
107.8837667825809
 10
54.79315048935466
 20
107.8837667825809
 10
53.56041791515449
 20
107.8837667825809
 10
52.48932153883072
 20
107.8837667825809
 10
51.59487043589953
 20
107.8837667825809
 10
50.88642924322362
 20
107.8837667825809
 10
50.37406815249483
 20
107.8837667825809
 10
50.06400887450551
 20
107.8837667825809
 10
49.96029231420141
 20
107.8837667825809
  0
LWPOLYLINE
  5
10B
330
70
100
AcDbEntity
  8
Standardebene
 62
     7
370
    35
100
AcDbPolyline
 90
       15
 70
     0
 43
0.0
 10
82.96024635110226
 20
107.8837667825809
 10
82.85659793848664
 20
107.8837667825809
 10
82.54653465415719
 20
107.8837667825809
 10
82.03443012882173
 20
107.8837667825809
 10
81.32695105637148
 20
107.8837667825809
 10
80.43153783321526
 20
107.8837667825809
 10
79.36076216363317
 20
107.8837667825809
 10
78.12770888269068
 20
107.8837667825809
 10
76.74841717951394
 20
107.8837667825809
 10
75.23917121439129
 20
107.8837667825809
 10
73.61966249565026
 20
107.8837667825809
 10
71.90991071367
 20
107.8837667825809
 10
70.13229738512037
 20
107.8837667825809
 10
68.30792501361455
 20
107.8837667825809
 10
66.4607183220905
 20
107.8837667825809
  0
LWPOLYLINE
  5
10C
330
70
100
AcDbEntity
  8
Standardebene
 62
     7
370
    35
100
AcDbPolyline
 90
       28
 70
     0
 43
0.0
 10
50.96096149002241
 20
108.8834798203019
 10
51.06557923243454
 20
108.8834798203019
 10
51.37813681977888
 20
108.8834798203019
 10
51.89518022893807
 20
108.8834798203019
 10
52.60926586027067
 20
108.8834798203019
 10
53.5103235220823
 20
108.8834798203019
 10
54.58706433706278
 20
108.8834798203019
 10
55.82358457424462
 20
108.8834798203019
 10
57.20505761187205
 20
108.8834798203019
 10
58.71019849257279
 20
108.8834798203019
 10
60.32130088076999
 20
108.8834798203019
 10
62.01533803240172
 20
108.8834798203019
 10
63.76889835531477
 20
108.8834798203019
 10
65.55908338814321
 20
108.8834798203019
 10
67.36177598390279
 20
108.8834798203019
 10
69.15196101673122
 20
108.8834798203019
 10
70.90616275312761
 20
108.8834798203019
 10
72.59955849127535
 20
108.8834798203019
 10
74.21034396064823
 20
108.8834798203019
 10
75.71612246691561
 20
108.8834798203019
 10
77.09702155583601
 20
108.8834798203019
 10
78.33443644846656
 20
108.8834798203019
 10
79.41053584996305
 20
108.8834798203019
 10
80.31191421851699
 20
108.8834798203019
 10
81.02593570850062
 20
108.8834798203019
 10
81.54272255226647
 20
108.8834798203019
 10
81.85592475632615
 20
108.8834798203019
 10
81.96086000224861
 20
108.8834798203019
  0
LWPOLYLINE
  5
10D
330
70
100
AcDbEntity
  8
Standardebene
 62
     7
370
    35
100
AcDbPolyline
 90
       14
 70
     0
 43
0.0
 10
66.4607183220905
 20
213.3831358643178
 10
64.7425640234745
 20
213.3831358643178
 10
63.05013040555177
 20
213.3831358643178
 10
61.40708909034877
 20
213.3831358643178
 10
59.83799582084984
 20
213.3831358643178
 10
58.36537460376978
 20
213.3831358643178
 10
57.0108409624483
 20
213.3831358643178
 10
55.79472096675202
 20
213.3831358643178
 10
54.73272933919602
 20
213.3831358643178
 10
53.84263984795419
 20
213.3831358643178
 10
53.13670342341691
 20
213.3831358643178
 10
52.62433907713584
 20
213.3831358643178
 10
52.31427979914588
 20
213.3831358643178
 10
52.21056323884242
 20
213.3831358643178
  0
LWPOLYLINE
  5
10E
330
70
100
AcDbEntity
  8
Standardebene
 62
     7
370
    35
100
AcDbPolyline
 90
       14
 70
     0
 43
0.0
 10
80.71087340533859
 20
213.3831358643178
 10
80.60632300750613
 20
213.3831358643178
 10
80.29652029490952
 20
213.3831358643178
 10
79.78480061766472
 20
213.3831358643178
 10
79.07821952409117
 20
213.3831358643178
 10
78.18780932610765
 20
213.3831358643178
 10
77.12703970686968
 20
213.3831358643178
 10
75.90970105627701
 20
213.3831358643178
 10
74.55548476827558
 20
213.3831358643178
 10
73.08286355119552
 20
213.3831358643178
 10
71.51345303943411
 20
213.3831358643178
 10
69.87104967323588
 20
213.3831358643178
 10
68.1782953485715
 20
213.3831358643178
 10
66.4607183220905
 20
213.3831358643178
  0
LWPOLYLINE
  5
10F
330
70
100
AcDbEntity
  8
Standardebene
 62
     7
370
    35
100
AcDbPolyline
 90
       13
 70
     0
 43
0.0
 10
66.4607183220905
 20
216.6158598218437
 10
64.65238128767488
 20
216.6158598218437
 10
62.87502452451923
 20
216.6158598218437
 10
61.15905103174726
 20
216.6158598218437
 10
59.53422239499992
 20
216.6158598218437
 10
58.0274813596939
 20
216.6158598218437
 10
56.66479503460529
 20
216.6158598218437
 10
55.47061141077122
 20
216.6158598218437
 10
54.46307911067579
 20
216.6158598218437
 10
53.66188952826559
 20
216.6158598218437
 10
53.07903709568569
 20
216.6158598218437
 10
52.72613139698861
 20
216.6158598218437
 10
52.60772646790998
 20
216.6158598218437
  0
LWPOLYLINE
  5
110
330
70
100
AcDbEntity
  8
Standardebene
 62
     7
370
    35
100
AcDbPolyline
 90
       13
 70
     0
 43
0.0
 10
80.31377431761937
 20
216.6158598218437
 10
80.19504868179842
 20
216.6158598218437
 10
79.84118086287631
 20
216.6158598218437
 10
79.25929055052144
 20
216.6158598218437
 10
78.45720298923454
 20
216.6158598218437
 10
77.45121008149979
 20
216.6158598218437
 10
76.25606433744007
 20
216.6158598218437
 10
74.89338139145518
 20
216.6158598218437
 10
73.38727839052942
 20
216.6158598218437
 10
71.76148763355641
 20
216.6158598218437
 10
70.04583484752676
 20
216.6158598218437
 10
68.26879879111214
 20
216.6158598218437
 10
66.4607183220905
 20
216.6158598218437
  0
LINE
  5
111
330
70
100
AcDbEntity
  8
Standardebene
 62
     7
370
    35
100
AcDbLine
 10
66.7106771566635
 20
158.6835222625207
 30
0.0
 11
66.7106771566635
 21
158.8836432694155
 31
0.0
  0
LWPOLYLINE
  5
112
330
70
100
AcDbEntity
  8
Standardebene
 62
     7
370
    35
100
AcDbPolyline
 90
        3
 70
     0
 43
0.0
 10
66.21018221538185
 20
158.6835222625207
 10
66.4607183220905
 20
158.6835222625207
 10
66.7106771566635
 20
158.6835222625207
  0
LINE
  5
113
330
70
100
AcDbEntity
  8
Standardebene
 62
     7
370
    35
100
AcDbLine
 10
66.21018221538185
 20
158.8836432694155
 30
0.0
 11
66.21018221538185
 21
158.6835222625207
 31
0.0
  0
LWPOLYLINE
  5
114
330
70
100
AcDbEntity
  8
Standardebene
 62
     7
370
    35
100
AcDbPolyline
 90
       16
 70
     0
 43
0.0
 10
66.21018221538185
 20
158.8836432694155
 10
63.67775349928948
 20
158.8836432694155
 10
61.17380354187075
 20
158.8836432694155
 10
58.72366817572894
 20
158.8836432694155
 10
56.35409434313197
 20
158.8836432694155
 10
54.08817292949014
 20
158.8836432694155
 10
51.94970037504731
 20
158.8836432694155
 10
49.96029231420141
 20
158.8836432694155
 10
49.96029231420141
 20
146.8831176973244
 10
51.94970037504731
 20
146.8831176973244
 10
54.08817292949014
 20
146.8831176973244
 10
56.35409434313197
 20
146.8831176973244
 10
58.72366817572894
 20
146.8831176973244
 10
61.17380354187075
 20
146.8831176973244
 10
63.67775349928948
 20
146.8831176973244
 10
66.21018221538185
 20
146.8831176973244
  0
LINE
  5
115
330
70
100
AcDbEntity
  8
Standardebene
 62
     7
370
    35
100
AcDbLine
 10
66.21018221538185
 20
147.0833028455669
 30
0.0
 11
66.21018221538185
 21
146.8831176973244
 31
0.0
  0
LWPOLYLINE
  5
116
330
70
100
AcDbEntity
  8
Standardebene
 62
     7
370
    35
100
AcDbPolyline
 90
        3
 70
     0
 43
0.0
 10
66.7106771566635
 20
147.0833028455669
 10
66.4607183220905
 20
147.0833028455669
 10
66.21018221538185
 20
147.0833028455669
  0
LINE
  5
117
330
70
100
AcDbEntity
  8
Standardebene
 62
     7
370
    35
100
AcDbLine
 10
66.7106771566635
 20
146.8831176973244
 30
0.0
 11
66.7106771566635
 21
147.0833028455669
 31
0.0
  0
LWPOLYLINE
  5
118
330
70
100
AcDbEntity
  8
Standardebene
 62
     7
370
    35
100
AcDbPolyline
 90
       17
 70
     0
 43
0.0
 10
66.7106771566635
 20
146.8831176973244
 10
69.08217522971117
 20
146.8831176973244
 10
71.43013342791021
 20
146.8831176973244
 10
73.73210227933178
 20
146.8831176973244
 10
75.96948079295166
 20
146.8831176973244
 10
78.12110232380897
 20
146.8831176973244
 10
80.16721133660878
 20
146.8831176973244
 10
82.08984825380829
 20
146.8831176973244
 10
83.87067268173273
 20
146.8831176973244
 10
85.49517657978098
 20
146.8831176973244
 10
86.94714428268815
 20
146.8831176973244
 10
88.21464146770136
 20
146.8831176973244
 10
89.2854171372841
 20
146.8831176973244
 10
90.15042736131533
 20
146.8831176973244
 10
90.80191103664462
 20
146.8831176973244
 10
91.23313332169356
 20
146.8831176973244
 10
91.4401815942111
 20
146.8831176973244
  0
LINE
  5
119
330
70
100
AcDbEntity
  8
Standardebene
 62
     7
370
    35
100
AcDbLine
 10
91.4401815942111
 20
158.8836432694155
 30
0.0
 11
91.4401815942111
 21
146.8831176973244
 31
0.0
  0
LWPOLYLINE
  5
11A
330
70
100
AcDbEntity
  8
Standardebene
 62
     7
370
    35
100
AcDbPolyline
 90
       17
 70
     0
 43
0.0
 10
91.4401815942111
 20
158.8836432694155
 10
91.23313332169356
 20
158.8836432694155
 10
90.80191103664462
 20
158.8836432694155
 10
90.15042736131533
 20
158.8836432694155
 10
89.2854171372841
 20
158.8836432694155
 10
88.21464146770136
 20
158.8836432694155
 10
86.94714428268815
 20
158.8836432694155
 10
85.49517657978098
 20
158.8836432694155
 10
83.87067268173273
 20
158.8836432694155
 10
82.08984825380829
 20
158.8836432694155
 10
80.16721133660878
 20
158.8836432694155
 10
78.12110232380897
 20
158.8836432694155
 10
75.96948079295166
 20
158.8836432694155
 10
73.73210227933178
 20
158.8836432694155
 10
71.43013342791021
 20
158.8836432694155
 10
69.08217522971117
 20
158.8836432694155
 10
66.7106771566635
 20
158.8836432694155
  0
LWPOLYLINE
  5
11B
330
70
100
AcDbEntity
  8
Standardebene
 62
     7
370
    35
100
AcDbPolyline
 90
       26
 70
     0
 43
0.0
 10
87.56065627978635
 20
152.8835408367411
 10
87.52217147076796
 20
153.2822434581694
 10
87.38779534594618
 20
153.717570789513
 10
87.0670886041281
 20
154.2355763188973
 10
86.73387429937887
 20
154.5541022548713
 10
86.36365043662426
 20
154.779302528976
 10
85.49267506719463
 20
154.9832078754239
 10
85.03983714774779
 20
154.9408745855041
 10
84.58379216088225
 20
154.7918100919065
 10
83.98560994604322
 20
154.3784191017031
 10
83.61134517834155
 20
153.8782448671638
 10
83.41500851100045
 20
153.3583792386766
 10
83.36331460335999
 20
152.7748853926127
 10
83.45477614698619
 20
152.2615621816589
 10
83.66022088579473
 20
151.803079823556
 10
84.0823992407239
 20
151.2994419562046
 10
84.41875647154281
 20
151.0601305854597
 10
84.7717263115876
 20
150.8991999424156
 10
85.26875762005724
 20
150.7924045973902
 10
85.75482075795708
 20
150.8042707468373
 10
86.22869703966747
 20
150.9283201145726
 10
86.66870668944152
 20
151.1657072448661
 10
87.15226831475501
 20
151.6389421130932
 10
87.41441400551682
 20
152.1143577871643
 10
87.52935530178469
 20
152.5243492859047
 10
87.56065627978635
 20
152.8835408367411
  0
LWPOLYLINE
  5
11C
330
70
100
AcDbEntity
  8
Standardebene
 62
     7
370
    35
100
AcDbPolyline
 90
       20
 70
     0
 43
0.0
 10
66.4607183220905
 20
155.0833966615677
 10
65.73380442108573
 20
154.9596680005747
 10
65.0893121527282
 20
154.6032986690662
 10
64.59728386943062
 20
154.0533507481963
 10
64.31506193663093
 20
153.3702453881237
 10
64.27465288716184
 20
152.6326840232908
 10
64.47984106057703
 20
151.9258463643239
 10
64.9067017339366
 20
151.3260606157752
 10
65.50956983532349
 20
150.8991999424156
 10
66.22115038595229
 20
150.6965844613488
 10
66.95717235842512
 20
150.7397445503839
 10
67.63585558729158
 20
151.0231851688026
 10
68.18393978722756
 20
151.5164962790669
 10
68.5399884119937
 20
152.164779962482
 10
68.66057414691764
 20
152.8938675938276
 10
68.53376670120262
 20
153.6192421024717
 10
68.17547312924347
 20
154.2618742717269
 10
67.62270298904557
 20
154.7514010424374
 10
66.93805823661228
 20
155.0311214626514
 10
66.4607183220905
 20
155.0833966615677
  0
SPLINE
  5
11D
330
70
100
AcDbEntity
  8
Standardebene
 62
     7
370
    35
100
AcDbSpline
210
0.0
220
0.0
230
1.0
 70
     9
 71
     3
 72
    17
 73
    13
 74
     0
 42
0.0000000001
 43
0.0000000001
 40
0.0
 40
0.0
 40
0.0
 40
0.0
 40
1.0
 40
1.0
 40
1.0
 40
2.0
 40
2.0
 40
2.0
 40
3.0
 40
3.0
 40
3.0
 40
4.0
 40
4.0
 40
4.0
 40
4.0
 10
66.4607183220905
 20
154.5334487406984
 30
0.0
 10
65.54965460993345
 20
154.5334487406984
 30
0.0
 10
64.81055385273989
 20
153.7942838421559
 30
0.0
 10
64.81055385273989
 20
152.8835408367411
 30
0.0
 10
64.81055385273989
 20
151.9721564178424
 30
0.0
 10
65.54965460993345
 20
151.2333763673899
 30
0.0
 10
66.4607183220905
 20
151.2333763673899
 30
0.0
 10
67.37184617559589
 20
151.2333763673899
 30
0.0
 10
68.11062622604779
 20
151.9721564178424
 30
0.0
 10
68.11062622604779
 20
152.8835408367411
 30
0.0
 10
68.11062622604779
 20
153.7942838421559
 30
0.0
 10
67.37184617559589
 20
154.5334487406984
 30
0.0
 10
66.4607183220905
 20
154.5334487406984
 30
0.0
  0
LINE
  5
11E
330
70
100
AcDbEntity
  8
Standardebene
 62
     7
370
    35
100
AcDbLine
 10
45.46039187840338
 20
242.8831530864094
 30
0.0
 11
45.46039187840338
 21
218.8837054759362
 31
0.0
  0
LWPOLYLINE
  5
11F
330
70
100
AcDbEntity
  8
Standardebene
 62
     7
370
    35
100
AcDbPolyline
 90
       25
 70
     0
 43
0.0
 10
78.96077671523757
 20
242.8831530864094
 10
78.85430207695377
 20
242.8831530864094
 10
78.53673826120538
 20
242.8831530864094
 10
78.01244687968114
 20
242.8831530864094
 10
77.28649509890203
 20
242.8831530864094
 10
76.36786270763824
 20
242.8831530864094
 10
75.26796686589851
 20
242.8831530864094
 10
73.99828887504127
 20
242.8831530864094
 10
72.57518477889711
 20
242.8831530864094
 10
71.01513890399776
 20
242.8831530864094
 10
69.33707294810854
 20
242.8831530864094
 10
67.55939547821057
 20
242.8831530864094
 10
65.7041069767931
 20
242.8831530864094
 10
63.79269479555737
 20
242.8831530864094
 10
61.84774016473837
 20
242.8831530864094
 10
59.89251596695908
 20
242.8831530864094
 10
57.950123514464
 20
242.8831530864094
 10
56.04307294491698
 20
242.8831530864094
 10
54.19400615429058
 20
242.8831530864094
 10
52.42447463563504
 20
242.8831530864094
 10
50.7564788714389
 20
242.8831530864094
 10
49.20804573689917
 20
242.8831530864094
 10
47.798985439741
 20
242.8831530864094
 10
46.54438066574829
 20
242.8831530864094
 10
45.46039187840338
 20
242.8831530864094
  0
LWPOLYLINE
  5
120
330
70
100
AcDbEntity
  8
Standardebene
 62
     7
370
    35
100
AcDbPolyline
 90
       25
 70
     0
 43
0.0
 10
45.46039187840338
 20
218.8837054759362
 10
46.54438066574829
 20
218.8837054759362
 10
47.798985439741
 20
218.8837054759362
 10
49.20804573689917
 20
218.8837054759362
 10
50.7564788714389
 20
218.8837054759362
 10
52.42447463563504
 20
218.8837054759362
 10
54.19400615429058
 20
218.8837054759362
 10
56.04307294491698
 20
218.8837054759362
 10
57.950123514464
 20
218.8837054759362
 10
59.89251596695908
 20
218.8837054759362
 10
61.84774016473837
 20
218.8837054759362
 10
63.79269479555737
 20
218.8837054759362
 10
65.7041069767931
 20
218.8837054759362
 10
67.55939547821057
 20
218.8837054759362
 10
69.33707294810854
 20
218.8837054759362
 10
71.01513890399776
 20
218.8837054759362
 10
72.57518477889711
 20
218.8837054759362
 10
73.99828887504127
 20
218.8837054759362
 10
75.26796686589851
 20
218.8837054759362
 10
76.36786270763824
 20
218.8837054759362
 10
77.28649509890203
 20
218.8837054759362
 10
78.01244687968114
 20
218.8837054759362
 10
78.53673826120538
 20
218.8837054759362
 10
78.85430207695377
 20
218.8837054759362
 10
78.96077671523757
 20
218.8837054759362
  0
LWPOLYLINE
  5
121
330
70
100
AcDbEntity
  8
Standardebene
 62
     7
370
    35
100
AcDbPolyline
 90
       23
 70
     0
 43
0.0
 10
56.46056898141576
 20
243.7835693347377
 10
56.56268200801021
 20
243.7835693347377
 10
56.86588151148393
 20
243.7835693347377
 10
57.36444886255544
 20
243.7835693347377
 10
58.04813149476307
 20
243.7835693347377
 10
58.90313566845019
 20
243.7835693347377
 10
59.91227150225529
 20
243.7835693347377
 10
61.05411578582415
 20
243.7835693347377
 10
62.30628318857884
 20
243.7835693347377
 10
63.64330959521876
 20
243.7835693347377
 10
65.03761422594698
 20
243.7835693347377
 10
66.4607183220905
 20
243.7835693347377
 10
67.88388655958236
 20
243.7835693347377
 10
69.27787414688177
 20
243.7835693347377
 10
70.61425547672484
 20
243.7835693347377
 10
71.8667435862212
 20
243.7835693347377
 10
73.00954999001574
 20
243.7835693347377
 10
74.01836511707852
 20
243.7835693347377
 10
74.87304858402396
 20
243.7835693347377
 10
75.5567312162316
 20
243.7835693347377
 10
76.05530191706191
 20
243.7835693347377
 10
76.35913948426081
 20
243.7835693347377
 10
76.46061109737189
 20
243.7835693347377
  0
LWPOLYLINE
  5
122
330
70
100
AcDbEntity
  8
Standardebene
 62
     7
370
    35
100
AcDbPolyline
 90
       12
 70
     0
 43
0.0
 10
66.4607183220905
 20
243.2830743934566
 10
64.9662249052179
 20
243.2830743934566
 10
63.50232691151527
 20
243.2830743934566
 10
62.09865764392564
 20
243.2830743934566
 10
60.78388828516826
 20
243.2830743934566
 10
59.58463749481379
 20
243.2830743934566
 10
58.52515070254381
 20
243.2830743934566
 10
57.62755667354291
 20
243.2830743934566
 10
56.90936599591558
 20
243.2830743934566
 10
56.38603673461698
 20
243.2830743934566
 10
56.06751079864293
 20
243.2830743934566
 10
55.96071545361811
 20
243.2830743934566
  0
LWPOLYLINE
  5
123
330
70
100
AcDbEntity
  8
Standardebene
 62
     7
370
    35
100
AcDbPolyline
 90
       12
 70
     0
 43
0.0
 10
76.96078533191124
 20
243.2830743934566
 10
76.85398998688576
 20
243.2830743934566
 10
76.53546789756699
 20
243.2830743934566
 10
76.01149337612977
 20
243.2830743934566
 10
75.29394411198579
 20
243.2830743934566
 10
74.39602937624385
 20
243.2830743934566
 10
73.33686329071555
 20
243.2830743934566
 10
72.13729552916641
 20
243.2830743934566
 10
70.8225224348614
 20
243.2830743934566
 10
69.4188531672724
 20
243.2830743934566
 10
67.95495517356913
 20
243.2830743934566
 10
66.4607183220905
 20
243.2830743934566
  0
LWPOLYLINE
  5
124
330
70
100
AcDbEntity
  8
Standardebene
 62
     7
370
    35
100
AcDbPolyline
 90
       18
 70
     0
 43
0.0
 10
26.96023105258194
 20
236.883050653735
 10
26.96023105258194
 20
236.7812583338816
 10
26.96023105258194
 20
236.478382886909
 10
26.96023105258194
 20
235.984494504509
 10
26.96023105258194
 20
235.3174244815273
 10
26.96023105258194
 20
234.4993657244979
 10
26.96023105258194
 20
233.5578990132165
 10
26.96023105258194
 20
232.5256081526521
 10
26.96023105258194
 20
231.4372577536186
 10
26.96023105258194
 20
230.329857374121
 10
26.96023105258194
 20
229.2411862683451
 10
26.96023105258194
 20
228.2086388423874
 10
26.96023105258194
 20
227.2674928378484
 10
26.96023105258194
 20
226.4494430329101
 10
26.96023105258194
 20
225.7817315795779
 10
26.96023105258194
 20
225.2884115340889
 10
26.96023105258194
 20
224.985600228464
 10
26.96023105258194
 20
224.8831664951273
  0
LINE
  5
125
330
70
100
AcDbEntity
  8
Standardebene
 62
     7
370
    35
100
AcDbLine
 10
44.70121487917129
 20
221.0681673771559
 30
0.0
 11
40.01966614480798
 21
221.0681673771559
 31
0.0
  0
LWPOLYLINE
  5
126
330
70
100
AcDbEntity
  8
Standardebene
 62
     7
370
    35
100
AcDbPolyline
 90
        8
 70
     0
 43
0.0
 10
44.70121487917129
 20
225.9758785058502
 10
40.01966614480798
 20
225.9758785058502
 10
39.46875610371245
 20
224.7738696375161
 10
39.31372646471779
 20
224.1518268410854
 10
39.26080985231821
 20
223.5223436482447
 10
39.26485366238439
 20
223.3475673476859
 10
39.49005103136934
 20
222.20629146252
 10
40.01966614480798
 20
221.0681673771559
  0
LWPOLYLINE
  5
127
330
70
100
AcDbEntity
  8
Standardebene
 62
     7
370
    35
100
AcDbPolyline
 90
        4
 70
     0
 43
0.0
 10
45.46039187840338
 20
223.5223436482447
 10
45.45667168019802
 20
223.3475673476859
 10
45.23082999260993
 20
222.20629146252
 10
44.70121487917129
 20
221.0681673771559
  0
LWPOLYLINE
  5
128
330
70
100
AcDbEntity
  8
Standardebene
 62
     7
370
    35
100
AcDbPolyline
 90
        4
 70
     0
 43
0.0
 10
44.70121487917129
 20
225.9758785058502
 10
45.25212492026682
 20
224.7738696375161
 10
45.40651314577814
 20
224.1518268410854
 10
45.46039187840338
 20
223.5223436482447
  0
LWPOLYLINE
  5
129
330
70
100
AcDbEntity
  8
Standardebene
 62
     7
370
    35
100
AcDbPolyline
 90
        8
 70
     0
 43
0.0
 10
44.70121487917129
 20
235.7906593497543
 10
40.01966614480798
 20
235.7906593497543
 10
39.58369739998033
 20
234.0189470252541
 10
39.31905019663217
 20
232.1973968730757
 10
39.26080985231821
 20
230.883589634544
 10
39.37478902835978
 20
229.0363829430199
 10
39.70396242816196
 20
227.1894969582382
 10
40.01966614480798
 20
225.9758785058502
  0
LWPOLYLINE
  5
12A
330
70
100
AcDbEntity
  8
Standardebene
 62
     7
370
    35
100
AcDbPolyline
 90
        4
 70
     0
 43
0.0
 10
45.46039187840338
 20
230.883589634544
 10
45.34641270236117
 20
229.0363829430199
 10
45.01756000930067
 20
227.1894969582382
 10
44.70121487917129
 20
225.9758785058502
  0
LWPOLYLINE
  5
12B
330
70
100
AcDbEntity
  8
Standardebene
 62
     7
370
    35
100
AcDbPolyline
 90
        4
 70
     0
 43
0.0
 10
44.70121487917129
 20
235.7906593497543
 10
45.13750433074061
 20
234.0189470252541
 10
45.40247224083109
 20
232.1973968730757
 10
45.46039187840338
 20
230.883589634544
  0
LWPOLYLINE
  5
12C
330
70
100
AcDbEntity
  8
Standardebene
 62
     7
370
    35
100
AcDbPolyline
 90
        8
 70
     0
 43
0.0
 10
44.70121487917129
 20
240.697985630358
 10
40.01966614480798
 20
240.697985630358
 10
39.46875610371245
 20
239.4962974687655
 10
39.31372646471779
 20
238.8743188136833
 10
39.26080985231821
 20
238.2447714794942
 10
39.26485366238439
 20
238.06972973981
 10
39.49005103136934
 20
236.9291041418601
 10
40.01966614480798
 20
235.7906593497543
  0
LWPOLYLINE
  5
12D
330
70
100
AcDbEntity
  8
Standardebene
 62
     7
370
    35
100
AcDbPolyline
 90
        4
 70
     0
 43
0.0
 10
45.46039187840338
 20
238.2447714794942
 10
45.45667168019802
 20
238.06972973981
 10
45.23082999260993
 20
236.9291041418601
 10
44.70121487917129
 20
235.7906593497543
  0
LWPOLYLINE
  5
12E
330
70
100
AcDbEntity
  8
Standardebene
 62
     7
370
    35
100
AcDbPolyline
 90
        4
 70
     0
 43
0.0
 10
44.70121487917129
 20
240.697985630358
 10
45.25212492026682
 20
239.4962974687655
 10
45.40651314577814
 20
238.8743188136833
 10
45.46039187840338
 20
238.2447714794942
  0
LWPOLYLINE
  5
12F
330
70
100
AcDbEntity
  8
Standardebene
 62
     7
370
    35
100
AcDbPolyline
 90
        4
 70
     0
 43
0.0
 10
39.26080985231821
 20
238.2447714794942
 10
39.26080985231821
 20
238.8705344741302
 10
39.26080985231821
 20
239.2539073132993
 10
39.26080985231821
 20
239.3832162716
  0
LWPOLYLINE
  5
130
330
70
100
AcDbEntity
  8
Standardebene
 62
     7
370
    35
100
AcDbPolyline
 90
        7
 70
     0
 43
0.0
 10
39.26080985231821
 20
230.883589634544
 10
39.26080985231821
 20
232.3592896363454
 10
39.26080985231821
 20
233.7906038250797
 10
39.26080985231821
 20
235.1335404072397
 10
39.26080985231821
 20
236.3468289814153
 10
39.26080985231821
 20
237.3944496242381
 10
39.26080985231821
 20
238.2447714794942
  0
LWPOLYLINE
  5
131
330
70
100
AcDbEntity
  8
Standardebene
 62
     7
370
    35
100
AcDbPolyline
 90
        7
 70
     0
 43
0.0
 10
39.26080985231821
 20
223.5223436482447
 10
39.26080985231821
 20
224.3720240900175
 10
39.26080985231821
 20
225.4199743656676
 10
39.26080985231821
 20
226.6332631852289
 10
39.26080985231821
 20
227.9762547372659
 10
39.26080985231821
 20
229.4075047846519
 10
39.26080985231821
 20
230.883589634544
  0
LWPOLYLINE
  5
132
330
70
100
AcDbEntity
  8
Standardebene
 62
     7
370
    35
100
AcDbPolyline
 90
        4
 70
     0
 43
0.0
 10
39.26080985231821
 20
222.3835781493972
 10
39.26080985231821
 20
222.5126305423046
 10
39.26080985231821
 20
222.895939240126
 10
39.26080985231821
 20
223.5223436482447
  0
LWPOLYLINE
  5
133
330
70
100
AcDbEntity
  8
Standardebene
 62
     7
370
    35
100
AcDbPolyline
 90
        8
 70
     0
 43
0.0
 10
22.96050485132326
 20
230.883589634544
 10
22.96050485132326
 20
231.9959930392142
 10
22.96050485132326
 20
233.0524010467628
 10
22.96050485132326
 20
234.0010515890609
 10
22.96050485132326
 20
234.7924916865196
 10
22.96050485132326
 20
235.3881815666761
 10
22.96050485132326
 20
235.7580755447853
 10
22.96050485132326
 20
235.8836643048813
  0
LWPOLYLINE
  5
134
330
70
100
AcDbEntity
  8
Standardebene
 62
     7
370
    35
100
AcDbPolyline
 90
        8
 70
     0
 43
0.0
 10
22.96050485132326
 20
225.8831942574643
 10
22.96050485132326
 20
226.0087919585205
 10
22.96050485132326
 20
226.3783013254832
 10
22.96050485132326
 20
226.9740461690849
 10
22.96050485132326
 20
227.765742831937
 10
22.96050485132326
 20
228.7138161020994
 10
22.96050485132326
 20
229.7704806750414
 10
22.96050485132326
 20
230.883589634544
  0
LWPOLYLINE
  5
135
330
70
100
AcDbEntity
  8
Standardebene
 62
     7
370
    35
100
AcDbPolyline
 90
        8
 70
     0
 43
0.0
 10
25.96084470372828
 20
230.883589634544
 10
25.96084470372828
 20
231.9959930392142
 10
25.96084470372828
 20
233.0524010467628
 10
25.96084470372828
 20
234.0010515890609
 10
25.96084470372828
 20
234.7924916865196
 10
25.96084470372828
 20
235.3881815666761
 10
25.96084470372828
 20
235.7580755447853
 10
25.96084470372828
 20
235.8836643048813
  0
LWPOLYLINE
  5
136
330
70
100
AcDbEntity
  8
Standardebene
 62
     7
370
    35
100
AcDbPolyline
 90
        8
 70
     0
 43
0.0
 10
25.96084470372828
 20
225.8831942574643
 10
25.96084470372828
 20
226.0087919585205
 10
25.96084470372828
 20
226.3783013254832
 10
25.96084470372828
 20
226.9740461690849
 10
25.96084470372828
 20
227.765742831937
 10
25.96084470372828
 20
228.7138161020994
 10
25.96084470372828
 20
229.7704806750414
 10
25.96084470372828
 20
230.883589634544
  0
LWPOLYLINE
  5
137
330
70
100
AcDbEntity
  8
Standardebene
 62
     7
370
    35
100
AcDbPolyline
 90
        8
 70
     0
 43
0.0
 10
15.96069536305354
 20
230.883589634544
 10
15.96069536305354
 20
231.9512223780563
 10
15.96069536305354
 20
232.9662592159102
 10
15.96069536305354
 20
233.8764249491906
 10
15.96069536305354
 20
234.6362433619054
 10
15.96069536305354
 20
235.2078069171738
 10
15.96069536305354
 20
235.5626460386325
 10
15.96069536305354
 20
235.6835432979865
  0
LWPOLYLINE
  5
138
330
70
100
AcDbEntity
  8
Standardebene
 62
     7
370
    35
100
AcDbPolyline
 90
        8
 70
     0
 43
0.0
 10
15.96069536305354
 20
226.0829945576174
 10
15.96069536305354
 20
226.2039009992824
 10
15.96069536305354
 20
226.5584102316885
 10
15.96069536305354
 20
227.1302944936985
 10
15.96069536305354
 20
227.890112906414
 10
15.96069536305354
 20
228.8002235098232
 10
15.96069536305354
 20
229.8149947708059
 10
15.96069536305354
 20
230.883589634544
  0
LWPOLYLINE
  5
139
330
70
100
AcDbEntity
  8
Standardebene
 62
     7
370
    35
100
AcDbPolyline
 90
        9
 70
     0
 43
0.0
 10
21.96047708898625
 20
230.883589634544
 10
21.96047708898625
 20
232.0539768181348
 10
21.96047708898625
 20
233.1792726338261
 10
21.96047708898625
 20
234.2165665195626
 10
21.96047708898625
 20
235.1260266980106
 10
21.96047708898625
 20
235.8720547208275
 10
21.96047708898625
 20
236.4270056668694
 10
21.96047708898625
 20
236.7677886507254
 10
21.96047708898625
 20
236.883050653735
  0
LWPOLYLINE
  5
13A
330
70
100
AcDbEntity
  8
Standardebene
 62
     7
370
    35
100
AcDbPolyline
 90
        9
 70
     0
 43
0.0
 10
21.96047708898625
 20
224.8831664951273
 10
21.96047708898625
 20
224.9984284981368
 10
21.96047708898625
 20
225.3401094608695
 10
21.96047708898625
 20
225.8947397001697
 10
21.96047708898625
 20
226.6407677229874
 10
21.96047708898625
 20
227.5499713360414
 10
21.96047708898625
 20
228.5872742278762
 10
21.96047708898625
 20
229.7128817442108
 10
21.96047708898625
 20
230.883589634544
  0
LINE
  5
13B
330
70
100
AcDbEntity
  8
Standardebene
 62
     7
370
    35
100
AcDbLine
 10
162.6574171075362
 20
69.88348150994871
 30
0.0
 11
162.6574171075362
 21
107.8837667825809
 31
0.0
  0
LINE
  5
13C
330
70
100
AcDbEntity
  8
Standardebene
 62
     7
370
    35
100
AcDbLine
 10
129.6572004829639
 20
80.38970608921282
 30
0.0
 11
129.6572004829639
 21
69.88348150994871
 31
0.0
  0
LINE
  5
13D
330
70
100
AcDbEntity
  8
Standardebene
 62
     7
370
    35
100
AcDbLine
 10
129.6572004829639
 20
107.8837667825809
 30
0.0
 11
129.6572004829639
 21
79.50124667285665
 31
0.0
  0
LINE
  5
13E
330
70
100
AcDbEntity
  8
Standardebene
 62
     7
370
    35
100
AcDbLine
 10
129.6572004829639
 20
69.88348150994871
 30
0.0
 11
130.6569075385593
 21
68.88377445435337
 31
0.0
  0
LINE
  5
13F
330
70
100
AcDbEntity
  8
Standardebene
 62
     7
370
    35
100
AcDbLine
 10
161.6577040296628
 20
68.88377445435337
 30
0.0
 11
162.6574171075362
 21
69.88348150994871
 31
0.0
  0
LINE
  5
140
330
70
100
AcDbEntity
  8
Standardebene
 62
     7
370
    35
100
AcDbLine
 10
162.6574171075362
 20
107.8837667825809
 30
0.0
 11
161.6577040296628
 21
108.8834798203019
 31
0.0
  0
LINE
  5
141
330
70
100
AcDbEntity
  8
Standardebene
 62
     7
370
    35
100
AcDbLine
 10
130.6569075385593
 20
108.8834798203019
 30
0.0
 11
129.6572004829639
 21
107.8837667825809
 31
0.0
  0
LINE
  5
142
330
70
100
AcDbEntity
  8
Standardebene
 62
     7
370
    35
100
AcDbLine
 10
160.4074608673595
 20
108.8834798203019
 30
0.0
 11
160.4074608673595
 21
146.8834384040661
 31
0.0
  0
LINE
  5
143
330
70
100
AcDbEntity
  8
Standardebene
 62
     7
370
    35
100
AcDbLine
 10
160.4074608673595
 20
158.8846053896412
 30
0.0
 11
160.4074608673595
 21
213.3831358643178
 31
0.0
  0
LINE
  5
144
330
70
100
AcDbEntity
  8
Standardebene
 62
     7
370
    35
100
AcDbLine
 10
131.9077921143466
 20
213.3831358643178
 30
0.0
 11
131.9077921143466
 21
158.8846053896412
 31
0.0
  0
LINE
  5
145
330
70
100
AcDbEntity
  8
Standardebene
 62
     7
370
    35
100
AcDbLine
 10
131.9077921143466
 20
146.8834384040661
 30
0.0
 11
131.9077921143466
 21
108.8834798203019
 31
0.0
  0
LINE
  5
146
330
70
100
AcDbEntity
  8
Standardebene
 62
     7
370
    35
100
AcDbLine
 10
160.4074608673595
 20
213.3831358643178
 30
0.0
 11
160.0109450071986
 21
216.6158598218437
 31
0.0
  0
LINE
  5
147
330
70
100
AcDbEntity
  8
Standardebene
 62
     7
370
    35
100
AcDbLine
 10
132.3043139299302
 20
216.6158598218437
 30
0.0
 11
131.9077921143466
 21
213.3831358643178
 31
0.0
  0
LINE
  5
148
330
70
100
AcDbEntity
  8
Standardebene
 62
     7
370
    35
100
AcDbLine
 10
132.038063192873
 20
217.1386118110073
 30
0.0
 11
132.3043139299302
 21
216.6158598218437
 31
0.0
  0
LINE
  5
149
330
70
100
AcDbEntity
  8
Standardebene
 62
     7
370
    35
100
AcDbLine
 10
160.0109450071986
 20
216.6158598218437
 30
0.0
 11
160.2771897888331
 21
217.1386118110073
 31
0.0
  0
LINE
  5
14A
330
70
100
AcDbEntity
  8
Standardebene
 62
     7
370
    35
100
AcDbLine
 10
171.1579998425405
 20
155.0833966615677
 30
0.0
 11
171.1579998425405
 21
158.6835222625207
 31
0.0
  0
LINE
  5
14B
330
70
100
AcDbEntity
  8
Standardebene
 62
     7
370
    35
100
AcDbLine
 10
171.1579998425405
 20
147.0833028455669
 30
0.0
 11
171.1579998425405
 21
150.6902915707951
 31
0.0
  0
LINE
  5
14C
330
70
100
AcDbEntity
  8
Standardebene
 62
     7
370
    35
100
AcDbLine
 10
128.1576398995709
 20
242.8831530864094
 30
0.0
 11
128.1576398995709
 21
218.8837054759362
 31
0.0
  0
LINE
  5
14D
330
70
100
AcDbEntity
  8
Standardebene
 62
     7
370
    35
100
AcDbLine
 10
164.1582544956185
 20
218.8837054759362
 30
0.0
 11
164.1582544956185
 21
242.8831530864094
 31
0.0
  0
LINE
  5
14E
330
70
100
AcDbEntity
  8
Standardebene
 62
     7
370
    35
100
AcDbLine
 10
135.6579443291223
 20
243.2830743934566
 30
0.0
 11
135.6579443291223
 21
242.8831530864094
 31
0.0
  0
LWPOLYLINE
  5
14F
330
70
100
AcDbEntity
  8
Standardebene
 62
     7
370
    35
100
AcDbPolyline
 90
        3
 70
     0
 43
0.0
 10
156.6579500660671
 20
242.8831530864094
 10
156.6579500660671
 20
243.2830743934566
 10
156.1574551247861
 20
243.7835693347377
  0
LINE
  5
150
330
70
100
AcDbEntity
  8
Standardebene
 62
     7
370
    35
100
AcDbLine
 10
136.15779785692
 20
243.7835693347377
 30
0.0
 11
135.6579443291223
 21
243.2830743934566
 31
0.0
  0
SPLINE
  5
151
330
70
100
AcDbEntity
  8
Standardebene
 62
     7
370
    35
100
AcDbSpline
210
0.0
220
0.0
230
1.0
 70
     8
 71
     3
 72
    11
 73
     7
 74
     0
 42
0.0000000001
 43
0.0000000001
 40
0.0
 40
0.0
 40
0.0
 40
0.0
 40
1.0
 40
1.0
 40
1.0
 40
2.0
 40
2.0
 40
2.0
 40
2.0
 10
160.2771897888331
 20
217.1386118110073
 30
0.0
 10
160.3667311111487
 20
217.3158343565361
 30
0.0
 10
160.4093209664618
 20
217.5047306274672
 30
0.0
 10
160.4074608673595
 20
217.6832447306022
 30
0.0
 10
160.4074608673595
 20
218.3462651179975
 30
0.0
 10
159.8700205094207
 20
218.8837054759362
 30
0.0
 10
159.2073120981276
 20
218.8837054759362
 30
0.0
  0
SPLINE
  5
152
330
70
100
AcDbEntity
  8
Standardebene
 62
     7
370
    35
100
AcDbSpline
210
0.0
220
0.0
230
1.0
 70
     8
 71
     3
 72
    11
 73
     7
 74
     0
 42
0.0000000001
 43
0.0000000001
 40
0.0
 40
0.0
 40
0.0
 40
0.0
 40
1.0
 40
1.0
 40
1.0
 40
2.0
 40
2.0
 40
2.0
 40
2.0
 10
133.1072994700944
 20
218.8837054759362
 30
0.0
 10
132.4452324722853
 20
218.8837054759362
 30
0.0
 10
131.9077921143466
 20
218.3462651179975
 30
0.0
 10
131.9077921143466
 20
217.6832447306022
 30
0.0
 10
131.9077921143466
 20
217.4840129719453
 30
0.0
 10
131.9560264083158
 20
217.2973616482073
 30
0.0
 10
132.038063192873
 20
217.1386118110073
 30
0.0
  0
LWPOLYLINE
  5
153
330
70
100
AcDbEntity
  8
Standardebene
 62
     7
370
    35
100
AcDbPolyline
 90
       28
 70
     0
 43
0.0
 10
161.6577040296628
 20
68.88377445435337
 10
161.5525122183464
 20
68.88377445435337
 10
161.2399514277707
 20
68.88377445435337
 10
160.7231645840048
 20
68.88377445435337
 10
160.0090789526729
 20
68.88377445435337
 10
159.1077005841189
 20
68.88377445435337
 10
158.0309597691391
 20
68.88377445435337
 10
156.7945069967336
 20
68.88377445435337
 10
155.4139344538473
 20
68.88377445435337
 10
153.9075049068868
 20
68.88377445435337
 10
152.2971080735219
 20
68.88377445435337
 10
150.6033332050497
 20
68.88377445435337
 10
148.8495105989771
 20
68.88377445435337
 10
147.0593255661487
 20
68.88377445435337
 10
145.2559274155574
 20
68.88377445435337
 10
143.4663837962123
 20
68.88377445435337
 10
141.7125027665576
 20
68.88377445435337
 10
140.0187863216675
 20
68.88377445435337
 10
138.4077480748187
 20
68.88377445435337
 10
136.9012602258022
 20
68.88377445435337
 10
135.5207459849725
 20
68.88377445435337
 10
134.284293212567
 20
68.88377445435337
 10
133.2075576758993
 20
68.88377445435337
 10
132.3068154425166
 20
68.88377445435337
 10
131.5927298111846
 20
68.88377445435337
 10
131.0753015539348
 20
68.88377445435337
 10
130.762163491224
 20
68.88377445435337
 10
130.6569075385593
 20
68.88377445435337
  0
LWPOLYLINE
  5
154
330
70
100
AcDbEntity
  8
Standardebene
 62
     7
370
    35
100
AcDbPolyline
 90
       29
 70
     0
 43
0.0
 10
146.1573057841113
 20
97.3840846208502
 10
145.5772755708588
 20
97.33520891339701
 10
145.0135372600911
 20
97.19115313172572
 10
143.9988211289783
 20
96.63869801151658
 10
143.2114219364666
 20
95.77298788357923
 10
142.935234814467
 20
95.24811357899308
 10
142.749796652294
 20
94.68251516912301
 10
142.6652583551504
 20
94.10184354238717
 10
142.6771245045976
 20
93.51488606351125
 10
142.9840408565178
 20
92.40813266342131
 10
143.6355245318471
 20
91.45601292238762
 10
144.0795750865682
 20
91.0676370580458
 10
144.5825715404356
 20
90.75821919353982
 10
145.1331608747894
 20
90.53712948438777
 10
145.7138380957722
 20
90.41179177102781
 10
146.2963642273635
 20
90.38613523168221
 10
146.8751116136481
 20
90.45752455241128
 10
147.9449893043534
 20
90.87412261003274
 10
148.8307171839066
 20
91.62387083105507
 10
149.1733602668649
 20
92.10743245636855
 10
149.4301180843646
 20
92.64237130172094
 10
149.5923956957244
 20
93.20989953822047
 10
149.6569218921784
 20
93.79864738867226
 10
149.4934255951996
 20
94.94177449920847
 10
148.9709943127778
 20
95.96470072291138
 10
148.1304219424724
 20
96.77461352869903
 10
147.6129936852232
 20
97.06645666375347
 10
147.0530397140093
 20
97.26689837738931
 10
146.1573057841113
 20
97.3840846208502
  0
LWPOLYLINE
  5
155
330
70
100
AcDbEntity
  8
Standardebene
 62
     7
370
    35
100
AcDbPolyline
 90
       29
 70
     0
 43
0.0
 10
146.1573057841113
 20
79.38313590934242
 10
145.5772755708588
 20
79.33490161537324
 10
145.0135372600911
 20
79.19084014694838
 10
143.9988211289783
 20
78.63774930000881
 10
143.2114219364666
 20
77.77331634811257
 10
142.935234814467
 20
77.24844769445265
 10
142.749796652294
 20
76.6828492845826
 10
142.6652583551504
 20
76.10217765784674
 10
142.6771245045976
 20
75.51522531814464
 10
142.9840408565178
 20
74.40781979947333
 10
143.6355245318471
 20
73.45634703784718
 10
144.0795750865682
 20
73.06732976002201
 10
144.5825715404356
 20
72.75727048203205
 10
145.1331608747894
 20
72.53745808119004
 10
145.7138380957722
 20
72.41154861435235
 10
146.2963642273635
 20
72.38646934714241
 10
146.8751116136481
 20
72.45728139573583
 10
147.9449893043534
 20
72.87445672549295
 10
148.8307171839066
 20
73.62356353303129
 10
149.1733602668649
 20
74.10712515834479
 10
149.4301180843646
 20
74.64142259021381
 10
149.5923956957244
 20
75.2102280675019
 10
149.6569218921784
 20
75.79834009064784
 10
149.4934255951996
 20
76.94275002815203
 10
148.9709943127778
 20
77.96503483837097
 10
148.1304219424724
 20
78.7749476441586
 10
147.6129936852232
 20
79.06679077921305
 10
147.0530397140093
 20
79.26665522071385
 10
146.1573057841113
 20
79.38313590934242
  0
LWPOLYLINE
  5
156
330
70
100
AcDbEntity
  8
Standardebene
 62
     7
370
    35
100
AcDbPolyline
 90
       29
 70
     0
 43
0.0
 10
129.6572004829639
 20
69.88348150994871
 10
129.7618150221447
 20
69.88348150994871
 10
130.0718743001347
 20
69.88348150994871
 10
130.5835939773795
 20
69.88348150994871
 10
131.291393756572
 20
69.88348150994871
 10
132.18712768647
 20
69.88348150994871
 10
133.2576467906587
 20
69.88348150994871
 10
134.4903846755787
 20
69.88348150994871
 10
135.8702521922059
 20
69.88348150994871
 10
137.379241553808
 20
69.88348150994871
 10
138.9984257518993
 20
69.88348150994871
 10
140.7077926857895
 20
69.88348150994871
 10
142.4867529826548
 20
69.88348150994871
 10
144.3107405060707
 20
69.88348150994871
 10
146.1573057841113
 20
69.88348150994871
 10
148.0051538891188
 20
69.88348150994871
 10
149.8291471107431
 20
69.88348150994871
 10
151.6074602959159
 20
69.88348150994871
 10
153.3168272298068
 20
69.88348150994871
 10
154.9360114278974
 20
69.88348150994871
 10
156.4450007895002
 20
69.88348150994871
 10
157.8242963447116
 20
69.88348150994871
 10
159.0576061910467
 20
69.88348150994871
 10
160.1287025673711
 20
69.88348150994871
 10
161.02321781165
 20
69.88348150994871
 10
161.7316590043259
 20
69.88348150994871
 10
162.2440200950547
 20
69.88348150994871
 10
162.5540793730447
 20
69.88348150994871
 10
162.6574171075362
 20
69.88348150994871
  0
LWPOLYLINE
  5
157
330
70
100
AcDbEntity
  8
Standardebene
 62
     7
370
    35
100
AcDbPolyline
 90
       29
 70
     0
 43
0.0
 10
162.6574171075362
 20
107.8837667825809
 10
162.5540793730447
 20
107.8837667825809
 10
162.2440200950547
 20
107.8837667825809
 10
161.7316590043259
 20
107.8837667825809
 10
161.02321781165
 20
107.8837667825809
 10
160.1287025673711
 20
107.8837667825809
 10
159.0576061910467
 20
107.8837667825809
 10
157.8242963447116
 20
107.8837667825809
 10
156.4450007895002
 20
107.8837667825809
 10
154.9360114278974
 20
107.8837667825809
 10
153.3168272298068
 20
107.8837667825809
 10
151.6074602959159
 20
107.8837667825809
 10
149.8291471107431
 20
107.8837667825809
 10
148.0051538891188
 20
107.8837667825809
 10
146.1573057841113
 20
107.8837667825809
 10
144.3107405060707
 20
107.8837667825809
 10
142.4867529826548
 20
107.8837667825809
 10
140.7077926857895
 20
107.8837667825809
 10
138.9984257518993
 20
107.8837667825809
 10
137.379241553808
 20
107.8837667825809
 10
135.8702521922059
 20
107.8837667825809
 10
134.4903846755787
 20
107.8837667825809
 10
133.2576467906587
 20
107.8837667825809
 10
132.18712768647
 20
107.8837667825809
 10
131.291393756572
 20
107.8837667825809
 10
130.5835939773795
 20
107.8837667825809
 10
130.0718743001347
 20
107.8837667825809
 10
129.7618150221447
 20
107.8837667825809
 10
129.6572004829639
 20
107.8837667825809
  0
LWPOLYLINE
  5
158
330
70
100
AcDbEntity
  8
Standardebene
 62
     7
370
    35
100
AcDbPolyline
 90
       28
 70
     0
 43
0.0
 10
130.6569075385593
 20
108.8834798203019
 10
130.762163491224
 20
108.8834798203019
 10
131.0753015539348
 20
108.8834798203019
 10
131.5927298111846
 20
108.8834798203019
 10
132.3068154425166
 20
108.8834798203019
 10
133.2075576758993
 20
108.8834798203019
 10
134.284293212567
 20
108.8834798203019
 10
135.5207459849725
 20
108.8834798203019
 10
136.9012602258022
 20
108.8834798203019
 10
138.4077480748187
 20
108.8834798203019
 10
140.0187863216675
 20
108.8834798203019
 10
141.7125027665576
 20
108.8834798203019
 10
143.4663837962123
 20
108.8834798203019
 10
145.2559274155574
 20
108.8834798203019
 10
147.0593255661487
 20
108.8834798203019
 10
148.8495105989771
 20
108.8834798203019
 10
150.6033332050497
 20
108.8834798203019
 10
152.2971080735219
 20
108.8834798203019
 10
153.9075049068868
 20
108.8834798203019
 10
155.4139344538473
 20
108.8834798203019
 10
156.7945069967336
 20
108.8834798203019
 10
158.0309597691391
 20
108.8834798203019
 10
159.1077005841189
 20
108.8834798203019
 10
160.0090789526729
 20
108.8834798203019
 10
160.7231645840048
 20
108.8834798203019
 10
161.2399514277707
 20
108.8834798203019
 10
161.5525122183464
 20
108.8834798203019
 10
161.6577040296628
 20
108.8834798203019
  0
LWPOLYLINE
  5
159
330
70
100
AcDbEntity
  8
Standardebene
 62
     7
370
    35
100
AcDbPolyline
 90
       27
 70
     0
 43
0.0
 10
160.4074608673595
 20
213.3831358643178
 10
160.3041291551454
 20
213.3831358643178
 10
159.9927870501887
 20
213.3831358643178
 10
159.4816446450789
 20
213.3831358643178
 10
158.7751276928537
 20
213.3831358643178
 10
157.8850382016119
 20
213.3831358643178
 10
156.8239478756322
 20
213.3831358643178
 10
155.6068657904329
 20
213.3831358643178
 10
154.2532909159154
 20
213.3831358643178
 10
152.7793868718674
 20
213.3831358643178
 10
151.2109384803323
 20
213.3831358643178
 10
149.5673164285144
 20
213.3831358643178
 10
147.8748186692434
 20
213.3831358643178
 10
146.1573057841113
 20
213.3831358643178
 10
144.4397928989787
 20
213.3831358643178
 10
142.7479420725137
 20
213.3831358643178
 10
141.1049559148571
 20
213.3831358643178
 10
139.5352246963547
 20
213.3831358643178
 10
138.062603479274
 20
213.3831358643178
 10
136.708392558023
 20
213.3831358643178
 10
135.4913051060732
 20
213.3831358643178
 10
134.4302147800942
 20
213.3831358643178
 10
133.5394838753684
 20
213.3831358643178
 10
132.8335441952788
 20
213.3831358643178
 10
132.3218245180334
 20
213.3831358643178
 10
132.0117652400441
 20
213.3831358643178
 10
131.9077921143466
 20
213.3831358643178
  0
LWPOLYLINE
  5
15A
330
70
100
AcDbEntity
  8
Standardebene
 62
     7
370
    35
100
AcDbPolyline
 90
       26
 70
     0
 43
0.0
 10
160.0109450071986
 20
216.6158598218437
 10
159.9013214874218
 20
216.6158598218437
 10
159.5756117204316
 20
216.6158598218437
 10
159.0375940903578
 20
216.6158598218437
 10
158.2972105061962
 20
216.6158598218437
 10
157.3651143203603
 20
216.6158598218437
 10
156.2557838118275
 20
216.6158598218437
 10
154.9880358899541
 20
216.6158598218437
 10
153.5805123129293
 20
216.6158598218437
 10
152.0552951901907
 20
216.6158598218437
 10
150.4379710912024
 20
216.6158598218437
 10
148.7536834245221
 20
216.6158598218437
 10
147.0273831746636
 20
216.6158598218437
 10
145.2878698070424
 20
216.6158598218437
 10
143.561569557184
 20
216.6158598218437
 10
141.8766404770197
 20
216.6158598218437
 10
140.2593163780314
 20
216.6158598218437
 10
138.7346765274278
 20
216.6158598218437
 10
137.3272229202851
 20
216.6158598218437
 10
136.0594050285303
 20
216.6158598218437
 10
134.9501445499297
 20
216.6158598218437
 10
134.0180424755092
 20
216.6158598218437
 10
133.2770816192132
 20
216.6158598218437
 10
132.7402185334095
 20
216.6158598218437
 10
132.4138673529354
 20
216.6158598218437
 10
132.3043139299302
 20
216.6158598218437
  0
LWPOLYLINE
  5
15B
330
70
100
AcDbEntity
  8
Standardebene
 62
     7
370
    35
100
AcDbPolyline
 90
        3
 70
     0
 43
0.0
 10
171.1561459804114
 20
158.6835222625207
 10
171.1574288074115
 20
158.6835222625207
 10
171.1579998425405
 20
158.6835222625207
  0
LINE
  5
15C
330
70
100
AcDbEntity
  8
Standardebene
 62
     7
370
    35
100
AcDbLine
 10
171.1561459804114
 20
158.8836432694155
 30
0.0
 11
171.1561459804114
 21
158.6835222625207
 31
0.0
  0
LWPOLYLINE
  5
15D
330
70
100
AcDbEntity
  8
Standardebene
 62
     7
370
    35
100
AcDbPolyline
 90
       16
 70
     0
 43
0.0
 10
171.1561459804114
 20
158.8836432694155
 10
171.0020722246685
 20
158.8836432694155
 10
170.5924014326698
 20
158.8836432694155
 10
169.9303344348608
 20
158.8836432694155
 10
169.0233116276507
 20
158.8836432694155
 10
167.8814032027329
 20
158.8836432694155
 10
166.514679351801
 20
158.8836432694155
 10
164.9393036946425
 20
158.8836432694155
 10
164.9393036946425
 20
146.8831176973244
 10
166.514679351801
 20
146.8831176973244
 10
167.8814032027329
 20
146.8831176973244
 10
169.0233116276507
 20
146.8831176973244
 10
169.9303344348608
 20
146.8831176973244
 10
170.5924014326698
 20
146.8831176973244
 10
171.0020722246685
 20
146.8831176973244
 10
171.1561459804114
 20
146.8831176973244
  0
LINE
  5
15E
330
70
100
AcDbEntity
  8
Standardebene
 62
     7
370
    35
100
AcDbLine
 10
171.1561459804114
 20
147.0833028455669
 30
0.0
 11
171.1561459804114
 21
146.8831176973244
 31
0.0
  0
LWPOLYLINE
  5
15F
330
70
100
AcDbEntity
  8
Standardebene
 62
     7
370
    35
100
AcDbPolyline
 90
        3
 70
     0
 43
0.0
 10
171.1579998425405
 20
147.0833028455669
 10
171.1574288074115
 20
147.0833028455669
 10
171.1561459804114
 20
147.0833028455669
  0
LWPOLYLINE
  5
160
330
70
100
AcDbEntity
  8
Standardebene
 62
     7
370
    35
100
AcDbPolyline
 90
       12
 70
     0
 43
0.0
 10
171.1579998425405
 20
155.0833966615677
 10
171.1473523787117
 20
154.9596680005747
 10
171.1473523787117
 20
154.9596680005747
 10
171.1198357402638
 20
154.6032986690662
 10
171.0878933487788
 20
154.0533507481963
 10
171.0634554950522
 20
152.8803979106708
 10
171.0615953959498
 20
152.6326840232908
 10
171.0615953959498
 20
152.6326840232908
 10
171.079105984053
 20
151.9258463643239
 10
171.109829689919
 20
151.3260606157752
 10
171.13920642747
 20
150.8991999424156
 10
171.1555045669127
 20
150.7109450849686
  0
LWPOLYLINE
  5
161
330
70
100
AcDbEntity
  8
Standardebene
 62
     7
370
    35
100
AcDbPolyline
 90
       16
 70
     0
 43
0.0
 10
121.2386485102388
 20
146.8831176973244
 10
121.5261350168198
 20
146.8831176973244
 10
122.0203391227461
 20
146.8831176973244
 10
122.7156313390082
 20
146.8831176973244
 10
123.6070036572174
 20
146.8831176973244
 10
124.6875288117509
 20
146.8831176973244
 10
125.947778024399
 20
146.8831176973244
 10
127.3759492870636
 20
146.8831176973244
 10
127.3759492870636
 20
158.8836432694155
 10
125.947778024399
 20
158.8836432694155
 10
124.6875288117509
 20
158.8836432694155
 10
123.6070036572174
 20
158.8836432694155
 10
122.7156313390082
 20
158.8836432694155
 10
122.0203391227461
 20
158.8836432694155
 10
121.5261350168198
 20
158.8836432694155
 10
121.2386485102388
 20
158.8836432694155
  0
LINE
  5
162
330
70
100
AcDbEntity
  8
Standardebene
 62
     7
370
    35
100
AcDbLine
 10
121.2386485102388
 20
146.8831176973244
 30
0.0
 11
121.2386485102388
 21
158.8836432694155
 31
0.0
  0
LINE
  5
163
330
70
100
AcDbEntity
  8
Standardebene
 62
     7
370
    35
100
AcDbLine
 10
127.3759492870636
 20
158.8836432694155
 30
0.0
 11
164.9393036946425
 21
158.8836432694155
 31
0.0
  0
LINE
  5
164
330
70
100
AcDbEntity
  8
Standardebene
 62
     7
370
    35
100
AcDbLine
 10
164.9393036946425
 20
146.8831176973244
 30
0.0
 11
127.3759492870636
 21
146.8831176973244
 31
0.0
  0
LINE
  5
165
330
70
100
AcDbEntity
  8
Standardebene
 62
     7
370
    35
100
AcDbLine
 10
155.309384053373
 20
242.8831530864094
 30
0.0
 11
155.309384053373
 21
218.8837054759362
 31
0.0
  0
LINE
  5
166
330
70
100
AcDbEntity
  8
Standardebene
 62
     7
370
    35
100
AcDbLine
 10
137.0058747649837
 20
242.8831530864094
 30
0.0
 11
155.309384053373
 21
242.8831530864094
 31
0.0
  0
LINE
  5
167
330
70
100
AcDbEntity
  8
Standardebene
 62
     7
370
    35
100
AcDbLine
 10
137.0058747649837
 20
218.8837054759362
 30
0.0
 11
137.0058747649837
 21
242.8831530864094
 31
0.0
  0
LINE
  5
168
330
70
100
AcDbEntity
  8
Standardebene
 62
     7
370
    35
100
AcDbLine
 10
155.309384053373
 20
218.8837054759362
 30
0.0
 11
137.0058747649837
 21
218.8837054759362
 31
0.0
  0
LWPOLYLINE
  5
169
330
70
100
AcDbEntity
  8
Standardebene
 62
     7
370
    35
100
AcDbPolyline
 90
       10
 70
     0
 43
0.0
 10
137.0058747649837
 20
242.8831530864094
 10
135.2840002681623
 20
242.8831530864094
 10
133.7061230984175
 20
242.8831530864094
 10
132.2936023247538
 20
242.8831530864094
 10
131.0652955035906
 20
242.8831530864094
 10
130.03678898258
 20
242.8831530864094
 10
129.2230970148958
 20
242.8831530864094
 10
128.6336969871253
 20
242.8831530864094
 10
128.2772635142692
 20
242.8831530864094
 10
128.1576398995709
 20
242.8831530864094
  0
LWPOLYLINE
  5
16A
330
70
100
AcDbEntity
  8
Standardebene
 62
     7
370
    35
100
AcDbPolyline
 90
       10
 70
     0
 43
0.0
 10
164.1582544956185
 20
242.8831530864094
 10
164.0379894674369
 20
242.8831530864094
 10
163.6821974080641
 20
242.8831530864094
 10
163.0921611444668
 20
242.8831530864094
 10
162.2778225856421
 20
242.8831530864094
 10
161.2499574781154
 20
242.8831530864094
 10
160.021586515604
 20
242.8831530864094
 10
158.6091298832886
 20
242.8831530864094
 10
157.0306754414081
 20
242.8831530864094
 10
155.309384053373
 20
242.8831530864094
  0
LWPOLYLINE
  5
16B
330
70
100
AcDbEntity
  8
Standardebene
 62
     7
370
    35
100
AcDbPolyline
 90
       10
 70
     0
 43
0.0
 10
155.309384053373
 20
218.8837054759362
 10
157.0306754414081
 20
218.8837054759362
 10
158.6091298832886
 20
218.8837054759362
 10
160.021586515604
 20
218.8837054759362
 10
161.2499574781154
 20
218.8837054759362
 10
162.2778225856421
 20
218.8837054759362
 10
163.0921611444668
 20
218.8837054759362
 10
163.6821974080641
 20
218.8837054759362
 10
164.0379894674369
 20
218.8837054759362
 10
164.1582544956185
 20
218.8837054759362
  0
LWPOLYLINE
  5
16C
330
70
100
AcDbEntity
  8
Standardebene
 62
     7
370
    35
100
AcDbPolyline
 90
       10
 70
     0
 43
0.0
 10
128.1576398995709
 20
218.8837054759362
 10
128.2772635142692
 20
218.8837054759362
 10
128.6336969871253
 20
218.8837054759362
 10
129.2230970148958
 20
218.8837054759362
 10
130.03678898258
 20
218.8837054759362
 10
131.0652955035906
 20
218.8837054759362
 10
132.2936023247538
 20
218.8837054759362
 10
133.7061230984175
 20
218.8837054759362
 10
135.2840002681623
 20
218.8837054759362
 10
137.0058747649837
 20
218.8837054759362
  0
LWPOLYLINE
  5
16D
330
70
100
AcDbEntity
  8
Standardebene
 62
     7
370
    35
100
AcDbPolyline
 90
       20
 70
     0
 43
0.0
 10
146.1573057841113
 20
232.2832179971866
 10
145.5090291762001
 20
232.1748832598004
 10
144.932719161153
 20
231.8648239818104
 10
144.4823827542918
 20
231.3749765043575
 10
144.2130532325133
 20
230.7501756299472
 10
144.1673204511298
 20
230.084333336502
 10
144.3351783597973
 20
229.4588820046914
 10
144.6971976985272
 20
228.9170158937157
 10
145.2321365573925
 20
228.5102314623933
 10
145.8785474841231
 20
228.3031831898757
 10
146.5393957963131
 20
228.320446211943
 10
147.1463653758779
 20
228.5446753664647
 10
147.6568663675044
 20
228.9596698903771
 10
148.0126640791978
 20
229.5346419671392
 10
148.1554370683347
 20
230.1951605425569
 10
148.0777618954662
 20
230.8450497473112
 10
147.7977905567514
 20
231.4278931167577
 10
147.3330166996159
 20
231.9014577815474
 10
146.7235456074648
 20
232.201501919371
 10
146.1573057841113
 20
232.2832179971866
  0
LWPOLYLINE
  5
16E
330
70
100
AcDbEntity
  8
Standardebene
 62
     7
370
    35
100
AcDbPolyline
 90
       23
 70
     0
 43
0.0
 10
136.15779785692
 20
243.7835693347377
 10
136.2598467421661
 20
243.7835693347377
 10
136.5624014823976
 20
243.7835693347377
 10
137.0616135967113
 20
243.7835693347377
 10
137.7450396635256
 20
243.7835693347377
 10
138.6000438372127
 20
243.7835693347377
 10
139.6091155296695
 20
243.7835693347377
 10
140.7516653680707
 20
243.7835693347377
 10
142.0037686294764
 20
243.7835693347377
 10
143.3404743293746
 20
243.7835693347377
 10
144.7342016879672
 20
243.7835693347377
 10
146.1573057841113
 20
243.7835693347377
 10
147.5810512937382
 20
243.7835693347377
 10
148.9754257424564
 20
243.7835693347377
 10
150.3120616243647
 20
243.7835693347377
 10
151.5642290271188
 20
243.7835693347377
 10
152.7054960385526
 20
243.7835693347377
 10
153.7152091444927
 20
243.7835693347377
 10
154.5695719046965
 20
243.7835693347377
 10
155.2535810788872
 20
243.7835693347377
 10
155.7528514993084
 20
243.7835693347377
 10
156.0553479536864
 20
243.7835693347377
 10
156.1574551247861
 20
243.7835693347377
  0
LWPOLYLINE
  5
16F
330
70
100
AcDbEntity
  8
Standardebene
 62
     7
370
    35
100
AcDbPolyline
 90
       23
 70
     0
 43
0.0
 10
156.6579500660671
 20
243.2830743934566
 10
156.5508340143
 20
243.2830743934566
 10
156.2319873715843
 20
243.2830743934566
 10
155.7083432502738
 20
243.2830743934566
 10
154.9905315740066
 20
243.2830743934566
 10
154.0929375450064
 20
243.2830743934566
 10
153.0337073181297
 20
243.2830743934566
 10
151.8342057112417
 20
243.2830743934566
 10
150.5200720171079
 20
243.2830743934566
 10
149.11633860817
 20
243.2830743934566
 10
147.6518633423317
 20
243.2830743934566
 10
146.1573057841113
 20
243.2830743934566
 10
144.6633896393738
 20
243.2830743934566
 10
143.1995557870195
 20
243.2830743934566
 10
141.7958223780815
 20
243.2830743934566
 10
140.4804116058408
 20
243.2830743934566
 10
139.2821870770597
 20
243.2830743934566
 10
138.2216740232157
 20
243.2830743934566
 10
137.3240799942154
 20
243.2830743934566
 10
136.6062741646781
 20
243.2830743934566
 10
136.0832656101212
 20
243.2830743934566
 10
135.7650603808895
 20
243.2830743934566
 10
135.6579443291223
 20
243.2830743934566
  0
SPLINE
  5
170
330
70
100
AcDbEntity
  8
Standardebene
 62
     7
370
    35
100
AcDbSpline
210
0.0
220
0.0
230
1.0
 70
     9
 71
     3
 72
    17
 73
    13
 74
     0
 42
0.0000000001
 43
0.0000000001
 40
0.0
 40
0.0
 40
0.0
 40
0.0
 40
1.0
 40
1.0
 40
1.0
 40
2.0
 40
2.0
 40
2.0
 40
3.0
 40
3.0
 40
3.0
 40
4.0
 40
4.0
 40
4.0
 40
4.0
 10
146.1573057841113
 20
236.883050653735
 30
0.0
 10
142.8437637276467
 20
236.883050653735
 30
0.0
 10
140.1578447649203
 20
234.1964902775246
 30
0.0
 10
140.1578447649203
 20
230.883589634544
 30
0.0
 10
140.1578447649203
 20
227.5694061645959
 30
0.0
 10
142.8437637276467
 20
224.8831664951273
 30
0.0
 10
146.1573057841113
 20
224.8831664951273
 30
0.0
 10
149.4708478405754
 20
224.8831664951273
 30
0.0
 10
152.1574082167857
 20
227.5694061645959
 30
0.0
 10
152.1574082167857
 20
230.883589634544
 30
0.0
 10
152.1574082167857
 20
234.1964902775246
 30
0.0
 10
149.4708478405754
 20
236.883050653735
 30
0.0
 10
146.1573057841113
 20
236.883050653735
 30
0.0
  0
LWPOLYLINE
  5
171
330
70
100
AcDbEntity
  8
Standardebene
 62
     7
370
    35
100
AcDbPolyline
 90
        7
 70
     0
 43
0.0
 10
146.1573057841113
 20
221.0681673771559
 10
144.0752134748795
 20
222.270817658974
 10
142.9984726598997
 20
222.891898335179
 10
141.907300041538
 20
223.5223436482447
 10
141.6053867147905
 20
223.6968081157939
 10
139.6285503582234
 20
224.8383958339695
 10
137.657935712448
 20
225.9758785058502
  0
LWPOLYLINE
  5
172
330
70
100
AcDbEntity
  8
Standardebene
 62
     7
370
    35
100
AcDbPolyline
 90
        7
 70
     0
 43
0.0
 10
154.6573172692574
 20
225.9758785058502
 10
152.5758022321619
 20
224.7738696375161
 10
151.4984841450464
 20
224.1518268410854
 10
150.4079529401681
 20
223.5223436482447
 10
150.1053981999365
 20
223.3475673476859
 10
148.1284977020218
 20
222.20629146252
 10
146.1573057841113
 20
221.0681673771559
  0
LWPOLYLINE
  5
173
330
70
100
AcDbEntity
  8
Standardebene
 62
     7
370
    35
100
AcDbPolyline
 90
        7
 70
     0
 43
0.0
 10
154.6573172692574
 20
235.7906593497543
 10
154.6573172692574
 20
234.0189470252541
 10
154.6573172692574
 20
232.1973968730757
 10
154.6573172692574
 20
230.883589634544
 10
154.6573172692574
 20
229.0363829430199
 10
154.6573172692574
 20
227.1894969582382
 10
154.6573172692574
 20
225.9758785058502
  0
LWPOLYLINE
  5
174
330
70
100
AcDbEntity
  8
Standardebene
 62
     7
370
    35
100
AcDbPolyline
 90
        7
 70
     0
 43
0.0
 10
146.1573057841113
 20
240.697985630358
 10
148.2400395068259
 20
239.4962974687655
 10
149.3167803218064
 20
238.8743188136833
 10
150.4079529401681
 20
238.2447714794942
 10
150.7098662669156
 20
238.06972973981
 10
152.6867026234821
 20
236.9291041418601
 10
154.6573172692574
 20
235.7906593497543
  0
LWPOLYLINE
  5
175
330
70
100
AcDbEntity
  8
Standardebene
 62
     7
370
    35
100
AcDbPolyline
 90
        7
 70
     0
 43
0.0
 10
137.657935712448
 20
235.7906593497543
 10
139.7393866081959
 20
236.9929981432745
 10
140.8167688366597
 20
237.6146468731701
 10
141.907300041538
 20
238.2447714794942
 10
142.2098547817689
 20
238.4189152403017
 10
144.1866911383353
 20
239.5605029584772
 10
146.1573057841113
 20
240.697985630358
  0
LWPOLYLINE
  5
176
330
70
100
AcDbEntity
  8
Standardebene
 62
     7
370
    35
100
AcDbPolyline
 90
        7
 70
     0
 43
0.0
 10
137.657935712448
 20
225.9758785058502
 10
137.657935712448
 20
227.1894969582382
 10
137.657935712448
 20
229.012265796035
 10
137.657935712448
 20
230.883589634544
 10
137.657935712448
 20
232.1973968730757
 10
137.657935712448
 20
234.0020137092859
 10
137.657935712448
 20
235.7906593497543
  0
SPLINE
  5
177
330
70
100
AcDbEntity
  8
Standardebene
 62
     7
370
    35
100
AcDbSpline
210
0.0
220
0.0
230
1.0
 70
     9
 71
     3
 72
    17
 73
    13
 74
     0
 42
0.0000000001
 43
0.0000000001
 40
0.0
 40
0.0
 40
0.0
 40
0.0
 40
1.0
 40
1.0
 40
1.0
 40
2.0
 40
2.0
 40
2.0
 40
3.0
 40
3.0
 40
3.0
 40
4.0
 40
4.0
 40
4.0
 40
4.0
 10
146.1573057841113
 20
239.3832162716
 30
0.0
 10
141.4631908323348
 20
239.3832162716
 30
0.0
 10
137.657935712448
 20
235.5773252250967
 30
0.0
 10
137.657935712448
 20
230.883589634544
 30
0.0
 10
137.657935712448
 20
226.1891484891588
 30
0.0
 10
141.4631908323348
 20
222.3835781493972
 30
0.0
 10
146.1573057841113
 20
222.3835781493972
 30
0.0
 10
150.8520034948892
 20
222.3835781493972
 30
0.0
 10
154.6573172692574
 20
226.1891484891588
 30
0.0
 10
154.6573172692574
 20
230.883589634544
 30
0.0
 10
154.6573172692574
 20
235.5773252250967
 30
0.0
 10
150.8520034948892
 20
239.3832162716
 30
0.0
 10
146.1573057841113
 20
239.3832162716
 30
0.0
  0
SPLINE
  5
178
330
70
100
AcDbEntity
  8
Standardebene
 62
     7
370
    35
100
AcDbSpline
210
0.0
220
0.0
230
1.0
 70
     9
 71
     3
 72
    17
 73
    13
 74
     0
 42
0.0000000001
 43
0.0000000001
 40
0.0
 40
0.0
 40
0.0
 40
0.0
 40
1.0
 40
1.0
 40
1.0
 40
2.0
 40
2.0
 40
2.0
 40
3.0
 40
3.0
 40
3.0
 40
4.0
 40
4.0
 40
4.0
 40
4.0
 10
146.1573057841113
 20
234.3834623080043
 30
0.0
 10
144.2242779684764
 20
234.3834623080043
 30
0.0
 10
142.657753817392
 20
232.8162967434366
 30
0.0
 10
142.657753817392
 20
230.883589634544
 30
0.0
 10
142.657753817392
 20
228.950241112168
 30
0.0
 10
144.2242779684764
 20
227.3833410886767
 30
0.0
 10
146.1573057841113
 20
227.3833410886767
 30
0.0
 10
148.090975013229
 20
227.3833410886767
 30
0.0
 10
149.6574991643134
 20
228.950241112168
 30
0.0
 10
149.6574991643134
 20
230.883589634544
 30
0.0
 10
149.6574991643134
 20
232.8162967434366
 30
0.0
 10
148.090975013229
 20
234.3834623080043
 30
0.0
 10
146.1573057841113
 20
234.3834623080043
 30
0.0
  0
SPLINE
  5
179
330
70
100
AcDbEntity
  8
Standardebene
 62
     7
370
    35
100
AcDbSpline
210
0.0
220
0.0
230
1.0
 70
     9
 71
     3
 72
    17
 73
    13
 74
     0
 42
0.0000000001
 43
0.0000000001
 40
0.0
 40
0.0
 40
0.0
 40
0.0
 40
1.0
 40
1.0
 40
1.0
 40
2.0
 40
2.0
 40
2.0
 40
3.0
 40
3.0
 40
3.0
 40
4.0
 40
4.0
 40
4.0
 40
4.0
 10
146.1573057841113
 20
236.883050653735
 30
0.0
 10
142.8437637276467
 20
236.883050653735
 30
0.0
 10
140.1578447649203
 20
234.1964902775246
 30
0.0
 10
140.1578447649203
 20
230.883589634544
 30
0.0
 10
140.1578447649203
 20
227.5694061645959
 30
0.0
 10
142.8437637276467
 20
224.8831664951273
 30
0.0
 10
146.1573057841113
 20
224.8831664951273
 30
0.0
 10
149.4708478405754
 20
224.8831664951273
 30
0.0
 10
152.1574082167857
 20
227.5694061645959
 30
0.0
 10
152.1574082167857
 20
230.883589634544
 30
0.0
 10
152.1574082167857
 20
234.1964902775246
 30
0.0
 10
149.4708478405754
 20
236.883050653735
 30
0.0
 10
146.1573057841113
 20
236.883050653735
 30
0.0
  0
SPLINE
  5
17A
330
70
100
AcDbEntity
  8
Standardebene
 62
     7
370
    35
100
AcDbSpline
210
0.0
220
0.0
230
1.0
 70
     9
 71
     3
 72
    17
 73
    13
 74
     0
 42
0.0000000001
 43
0.0000000001
 40
0.0
 40
0.0
 40
0.0
 40
0.0
 40
1.0
 40
1.0
 40
1.0
 40
2.0
 40
2.0
 40
2.0
 40
3.0
 40
3.0
 40
3.0
 40
4.0
 40
4.0
 40
4.0
 40
4.0
 10
146.1573057841113
 20
233.8836087802067
 30
0.0
 10
144.500534755879
 20
233.8836087802067
 30
0.0
 10
143.1575432038414
 20
232.540039956034
 30
0.0
 10
143.1575432038414
 20
230.883589634544
 30
0.0
 10
143.1575432038414
 20
229.2264978995699
 30
0.0
 10
144.500534755879
 20
227.8828649340489
 30
0.0
 10
146.1573057841113
 20
227.8828649340489
 30
0.0
 10
147.8147182258271
 20
227.8828649340489
 30
0.0
 10
149.1576456365157
 20
229.2264978995699
 30
0.0
 10
149.1576456365157
 20
230.883589634544
 30
0.0
 10
149.1576456365157
 20
232.540039956034
 30
0.0
 10
147.8147182258271
 20
233.8836087802067
 30
0.0
 10
146.1573057841113
 20
233.8836087802067
 30
0.0
  0
LINE
  5
17B
330
70
100
AcDbEntity
  8
Standardebene
  6
AI-Linetype-5
 62
     7
370
     9
100
AcDbLine
 10
126.0736874912367
 20
230.883589634544
 30
0.0
 11
166.1137959245287
 21
230.883589634544
 31
0.0
  0
MTEXT
  5
17E
330
70
100
AcDbEntity
  8
Text
100
AcDbMText
 10
74.74995929120834
 20
166.1793483742538
 30
0.0
 40
0.2
 41
0.0
 46
0.0
 71
     7
 72
     1
  1
\C7;\FINDEX Univers 45 Light|b0|i0|c1;\H2.497667;\W1.000000;ø28,5
 73
     1
 44
1.0
  0
MTEXT
  5
17F
330
70
100
AcDbEntity
  8
Text
100
AcDbMText
 10
75.06087915875214
 20
95.02003985254708
 30
0.0
 40
0.2
 41
0.0
 46
0.0
 71
     7
 72
     1
  1
\C7;\FINDEX Univers 45 Light|b0|i0|c1;\H2.497667;\W1.000000;ø33
 73
     1
 44
1.0
  0
MTEXT
  5
180
330
70
100
AcDbEntity
  8
Text
100
AcDbMText
 10
119.589499235202
 20
167.4481636600525
 30
0.0
 40
0.2
 41
0.0
 46
0.0
 71
     7
 72
     1
  1
\C7;\FINDEX Univers 45 Light|b0|i0|c1;\H2.497662;\W0.999987;ø50
 11
0.999992968683656
 21
-0.0037500110997827
 31
0.0
 73
     1
 44
1.0
  0
MTEXT
  5
181
330
70
100
AcDbEntity
  8
Text
100
AcDbMText
 10
143.4340528341502
 20
195.9215467175127
 30
0.0
 40
0.2
 41
0.0
 46
0.0
 71
     7
 72
     1
  1
\C7;\FINDEX Univers 45 Light|b0|i0|c1;\H2.497667;\W1.000000;25
 11
0.0000000000000001
 21
1.0
 31
0.0
 73
     1
 44
1.0
  0
MTEXT
  5
182
330
70
100
AcDbEntity
  8
Text
100
AcDbMText
 10
143.3048617534533
 20
144.8457668366184
 30
0.0
 40
0.2
 41
0.0
 46
0.0
 71
     7
 72
     1
  1
\C7;\FINDEX Univers 45 Light|b0|i0|c1;\H2.497667;\W1.000000;150
 11
0.0000000000000001
 21
1.0
 31
0.0
 73
     1
 44
1.0
  0
MTEXT
  5
183
330
70
100
AcDbEntity
  8
Text
100
AcDbMText
 10
63.1353366270113
 20
116.2807576206694
 30
0.0
 40
0.2
 41
0.0
 46
0.0
 71
     7
 72
     1
  1
\C7;\FINDEX Univers 45 Light|b0|i0|c1;\H2.497667;\W1.000000;36
 11
0.0000000000000001
 21
1.0
 31
0.0
 73
     1
 44
1.0
  0
MTEXT
  5
184
330
70
100
AcDbEntity
  8
Text
100
AcDbMText
 10
72.8837510668485
 20
100.6236599140802
 30
0.0
 40
0.2
 41
0.0
 46
0.0
 71
     7
 72
     1
  1
\C7;\FINDEX Univers 45 Light|b0|i0|c1;\H2.497667;\W1.000000;ø20H5
 73
     1
 44
1.0
  0
MTEXT
  5
185
330
70
100
AcDbEntity
  8
Text
100
AcDbMText
 10
137.8311217917141
 20
116.8908840311071
 30
0.0
 40
0.2
 41
0.0
 46
0.0
 71
     7
 72
     1
  1
\C7;\FINDEX Univers 45 Light|b0|i0|c1;\H2.497667;\W1.000000;40
 11
0.0000000000000001
 21
1.0
 31
0.0
 73
     1
 44
1.0
  0
LINE
  5
187
330
70
100
AcDbEntity
  8
Bemaßung
 62
     7
370
     9
100
AcDbLine
 10
70.36967514916447
 20
162.1417072523093
 30
0.0
 11
70.36967514916447
 21
166.6456210262938
 31
0.0
  0
LINE
  5
188
330
70
100
AcDbEntity
  8
Bemaßung
 62
     7
370
     9
100
AcDbLine
 10
86.04486141592381
 20
165.5456246654681
 30
0.0
 11
70.36967514916447
 21
165.5456246654681
 31
0.0
  0
LWPOLYLINE
  5
189
330
70
100
AcDbEntity
  8
Bemaßung
 62
     7
370
     9
100
AcDbPolyline
 90
        4
 70
     0
 43
0.0
 10
86.04486141592381
 20
165.5456246654681
 10
84.66976895100534
 20
165.7266702164048
 10
84.66976895100534
 20
165.3645832919922
 10
86.04486141592381
 20
165.5456246654681
  0
LINE
  5
18A
330
70
100
AcDbEntity
  8
Bemaßung
 62
     7
370
     9
100
AcDbLine
 10
84.66976895100534
 20
165.71305299453
 30
0.0
 11
84.77140422619019
 21
165.71305299453
 31
0.0
  0
LINE
  5
18B
330
70
100
AcDbEntity
  8
Bemaßung
 62
     7
370
     9
100
AcDbLine
 10
84.66976895100534
 20
165.71305299453
 30
0.0
 11
84.77140422619019
 21
165.71305299453
 31
0.0
  0
LINE
  5
18C
330
70
100
AcDbEntity
  8
Bemaßung
 62
     7
370
     9
100
AcDbLine
 10
84.66976895100534
 20
165.6851482730197
 30
0.0
 11
84.98342366522557
 21
165.6851482730197
 31
0.0
  0
LINE
  5
18D
330
70
100
AcDbEntity
  8
Bemaßung
 62
     7
370
     9
100
AcDbLine
 10
84.66976895100534
 20
165.6574199403938
 30
0.0
 11
85.19583331203438
 21
165.6574199403938
 31
0.0
  0
LINE
  5
18E
330
70
100
AcDbEntity
  8
Bemaßung
 62
     7
370
     9
100
AcDbLine
 10
84.66976895100534
 20
165.6293388299991
 30
0.0
 11
85.40788587661886
 21
165.6293388299991
 31
0.0
  0
LINE
  5
18F
330
70
100
AcDbEntity
  8
Bemaßung
 62
     7
370
     9
100
AcDbLine
 10
84.66976895100534
 20
165.6014341084888
 30
0.0
 11
85.62025809342301
 21
165.6014341084888
 31
0.0
  0
LINE
  5
190
330
70
100
AcDbEntity
  8
Bemaßung
 62
     7
370
     9
100
AcDbLine
 10
84.66976895100534
 20
165.5735293869784
 30
0.0
 11
85.83231281023527
 21
165.5735293869784
 31
0.0
  0
LINE
  5
191
330
70
100
AcDbEntity
  8
Bemaßung
 62
     7
370
     9
100
AcDbLine
 10
84.66976895100534
 20
165.5456246654681
 30
0.0
 11
86.04486141592381
 21
165.5456246654681
 31
0.0
  0
LINE
  5
192
330
70
100
AcDbEntity
  8
Bemaßung
 62
     7
370
     9
100
AcDbLine
 10
84.66976895100534
 20
165.3780199475218
 30
0.0
 11
84.77140422619019
 21
165.3780199475218
 31
0.0
  0
LINE
  5
193
330
70
100
AcDbEntity
  8
Bemaßung
 62
     7
370
     9
100
AcDbLine
 10
84.66976895100534
 20
165.3780199475218
 30
0.0
 11
84.77140422619019
 21
165.3780199475218
 31
0.0
  0
LINE
  5
194
330
70
100
AcDbEntity
  8
Bemaßung
 62
     7
370
     9
100
AcDbLine
 10
84.66976895100534
 20
165.4059246690322
 30
0.0
 11
84.98342366522557
 21
165.4059246690322
 31
0.0
  0
LINE
  5
195
330
70
100
AcDbEntity
  8
Bemaßung
 62
     7
370
     9
100
AcDbLine
 10
84.66976895100534
 20
165.4338293905425
 30
0.0
 11
85.19583331203438
 21
165.4338293905425
 31
0.0
  0
LINE
  5
196
330
70
100
AcDbEntity
  8
Bemaßung
 62
     7
370
     9
100
AcDbLine
 10
84.66976895100534
 20
165.4619105009372
 30
0.0
 11
85.40788587661886
 21
165.4619105009372
 31
0.0
  0
LINE
  5
197
330
70
100
AcDbEntity
  8
Bemaßung
 62
     7
370
     9
100
AcDbLine
 10
84.66976895100534
 20
165.4898194030718
 30
0.0
 11
85.62025809342301
 21
165.4898194030718
 31
0.0
  0
LINE
  5
198
330
70
100
AcDbEntity
  8
Bemaßung
 62
     7
370
     9
100
AcDbLine
 10
84.66976895100534
 20
165.5177199439578
 30
0.0
 11
85.83231281023527
 21
165.5177199439578
 31
0.0
  0
LINE
  5
199
330
70
100
AcDbEntity
  8
Bemaßung
 62
     7
370
     9
100
AcDbLine
 10
84.66976895100534
 20
165.5456246654681
 30
0.0
 11
86.04486141592381
 21
165.5456246654681
 31
0.0
  0
LWPOLYLINE
  5
19A
330
70
100
AcDbEntity
  8
Bemaßung
 62
     7
370
     9
100
AcDbPolyline
 90
        4
 70
     0
 43
0.0
 10
70.36967514916447
 20
165.5456246654681
 10
71.74462650297542
 20
165.3645832919922
 10
71.74462650297542
 20
165.7266702164048
 10
70.36967514916447
 20
165.5456246654681
  0
LINE
  5
19B
330
70
100
AcDbEntity
  8
Bemaßung
 62
     7
370
     9
100
AcDbLine
 10
71.74462650297542
 20
165.3780199475218
 30
0.0
 11
71.64299122779057
 21
165.3780199475218
 31
0.0
  0
LINE
  5
19C
330
70
100
AcDbEntity
  8
Bemaßung
 62
     7
370
     9
100
AcDbLine
 10
71.74462650297542
 20
165.3780199475218
 30
0.0
 11
71.64299122779057
 21
165.3780199475218
 31
0.0
  0
LINE
  5
19D
330
70
100
AcDbEntity
  8
Bemaßung
 62
     7
370
     9
100
AcDbLine
 10
71.74462650297542
 20
165.4059246690322
 30
0.0
 11
71.43061901098642
 21
165.4059246690322
 31
0.0
  0
LINE
  5
19E
330
70
100
AcDbEntity
  8
Bemaßung
 62
     7
370
     9
100
AcDbLine
 10
71.74462650297542
 20
165.4338293905425
 30
0.0
 11
71.21856429417417
 21
165.4338293905425
 31
0.0
  0
LINE
  5
19F
330
70
100
AcDbEntity
  8
Bemaßung
 62
     7
370
     9
100
AcDbLine
 10
71.74462650297542
 20
165.4619105009372
 30
0.0
 11
71.00615679959313
 21
165.4619105009372
 31
0.0
  0
LINE
  5
1A0
330
70
100
AcDbEntity
  8
Bemaßung
 62
     7
370
     9
100
AcDbLine
 10
71.74462650297542
 20
165.4898194030718
 30
0.0
 11
70.79413736055776
 21
165.4898194030718
 31
0.0
  0
LINE
  5
1A1
330
70
100
AcDbEntity
  8
Bemaßung
 62
     7
370
     9
100
AcDbLine
 10
71.74462650297542
 20
165.5177199439578
 30
0.0
 11
70.58172986597672
 21
165.5177199439578
 31
0.0
  0
LINE
  5
1A2
330
70
100
AcDbEntity
  8
Bemaßung
 62
     7
370
     9
100
AcDbLine
 10
71.74462650297542
 20
165.5456246654681
 30
0.0
 11
70.36967514916447
 21
165.5456246654681
 31
0.0
  0
LINE
  5
1A3
330
70
100
AcDbEntity
  8
Bemaßung
 62
     7
370
     9
100
AcDbLine
 10
71.74462650297542
 20
165.71305299453
 30
0.0
 11
71.64299122779057
 21
165.71305299453
 31
0.0
  0
LINE
  5
1A4
330
70
100
AcDbEntity
  8
Bemaßung
 62
     7
370
     9
100
AcDbLine
 10
71.74462650297542
 20
165.71305299453
 30
0.0
 11
71.64299122779057
 21
165.71305299453
 31
0.0
  0
LINE
  5
1A5
330
70
100
AcDbEntity
  8
Bemaßung
 62
     7
370
     9
100
AcDbLine
 10
71.74462650297542
 20
165.6851482730197
 30
0.0
 11
71.43061901098642
 21
165.6851482730197
 31
0.0
  0
LINE
  5
1A6
330
70
100
AcDbEntity
  8
Bemaßung
 62
     7
370
     9
100
AcDbLine
 10
71.74462650297542
 20
165.6574199403938
 30
0.0
 11
71.21856429417417
 21
165.6574199403938
 31
0.0
  0
LINE
  5
1A7
330
70
100
AcDbEntity
  8
Bemaßung
 62
     7
370
     9
100
AcDbLine
 10
71.74462650297542
 20
165.6293388299991
 30
0.0
 11
71.00615679959313
 21
165.6293388299991
 31
0.0
  0
LINE
  5
1A8
330
70
100
AcDbEntity
  8
Bemaßung
 62
     7
370
     9
100
AcDbLine
 10
71.74462650297542
 20
165.6014341084888
 30
0.0
 11
70.79413736055776
 21
165.6014341084888
 31
0.0
  0
LINE
  5
1A9
330
70
100
AcDbEntity
  8
Bemaßung
 62
     7
370
     9
100
AcDbLine
 10
71.74462650297542
 20
165.5735293869784
 30
0.0
 11
70.58172986597672
 21
165.5735293869784
 31
0.0
  0
LINE
  5
1AA
330
70
100
AcDbEntity
  8
Bemaßung
 62
     7
370
     9
100
AcDbLine
 10
71.74462650297542
 20
165.5456246654681
 30
0.0
 11
70.36967514916447
 21
165.5456246654681
 31
0.0
  0
LINE
  5
1AB
330
70
100
AcDbEntity
  8
Bemaßung
 62
     7
370
     9
100
AcDbLine
 10
69.13202490296177
 20
108.7913016689471
 30
0.0
 11
69.13202490296177
 21
92.98693053230852
 31
0.0
  0
LINE
  5
1AC
330
70
100
AcDbEntity
  8
Bemaßung
 62
     7
370
     9
100
AcDbLine
 10
87.28201777325022
 20
108.7913016689471
 30
0.0
 11
87.28201777325022
 21
92.98693053230852
 31
0.0
  0
LINE
  5
1AD
330
70
100
AcDbEntity
  8
Bemaßung
 62
     7
370
     9
100
AcDbLine
 10
69.13202490296177
 20
94.08692454408702
 30
0.0
 11
87.28201777325022
 21
94.08692454408702
 31
0.0
  0
LWPOLYLINE
  5
1AE
330
70
100
AcDbEntity
  8
Bemaßung
 62
     7
370
     9
100
AcDbPolyline
 90
        4
 70
     0
 43
0.0
 10
69.13202490296177
 20
94.08692454408702
 10
70.50715264565713
 20
93.90605538203471
 10
70.50715264565713
 20
94.26814648390811
 10
69.13202490296177
 20
94.08692454408702
  0
LINE
  5
1AF
330
70
100
AcDbEntity
  8
Bemaßung
 62
     7
370
     9
100
AcDbLine
 10
70.50715264565713
 20
93.91949621502515
 30
0.0
 11
70.40534098158788
 21
93.91949621502515
 31
0.0
  0
LINE
  5
1B0
330
70
100
AcDbEntity
  8
Bemaßung
 62
     7
370
     9
100
AcDbLine
 10
70.50715264565713
 20
93.91949621502515
 30
0.0
 11
70.40534098158788
 21
93.91949621502515
 31
0.0
  0
LINE
  5
1B1
330
70
100
AcDbEntity
  8
Bemaßung
 62
     7
370
     9
100
AcDbLine
 10
70.50715264565713
 20
93.94704815876668
 30
0.0
 11
70.19328626477563
 21
93.94704815876668
 31
0.0
  0
LINE
  5
1B2
330
70
100
AcDbEntity
  8
Bemaßung
 62
     7
370
     9
100
AcDbLine
 10
70.50715264565713
 20
93.97495288027698
 30
0.0
 11
69.98091404797148
 21
93.97495288027698
 31
0.0
  0
LINE
  5
1B3
330
70
100
AcDbEntity
  8
Bemaßung
 62
     7
370
     9
100
AcDbLine
 10
70.50715264565713
 20
94.0028576017873
 30
0.0
 11
69.7690357200436
 21
94.0028576017873
 31
0.0
  0
LINE
  5
1B4
330
70
100
AcDbEntity
  8
Bemaßung
 62
     7
370
     9
100
AcDbLine
 10
70.50715264565713
 20
94.03111510106638
 30
0.0
 11
69.55648887149965
 21
94.03111510106638
 31
0.0
  0
LINE
  5
1B5
330
70
100
AcDbEntity
  8
Bemaßung
 62
     7
370
     9
100
AcDbLine
 10
70.50715264565713
 20
94.05902219870739
 30
0.0
 11
69.3444323975428
 21
94.05902219870739
 31
0.0
  0
LINE
  5
1B6
330
70
100
AcDbEntity
  8
Bemaßung
 62
     7
370
     9
100
AcDbLine
 10
70.50715264565713
 20
94.08692454408702
 30
0.0
 11
69.13202490296177
 21
94.08692454408702
 31
0.0
  0
LINE
  5
1B7
330
70
100
AcDbEntity
  8
Bemaßung
 62
     7
370
     9
100
AcDbLine
 10
70.50715264565713
 20
94.25470565091769
 30
0.0
 11
70.40534098158788
 21
94.25470565091769
 31
0.0
  0
LINE
  5
1B8
330
70
100
AcDbEntity
  8
Bemaßung
 62
     7
370
     9
100
AcDbLine
 10
70.50715264565713
 20
94.25470565091769
 30
0.0
 11
70.40534098158788
 21
94.25470565091769
 31
0.0
  0
LINE
  5
1B9
330
70
100
AcDbEntity
  8
Bemaßung
 62
     7
370
     9
100
AcDbLine
 10
70.50715264565713
 20
94.22644815163859
 30
0.0
 11
70.19328626477563
 21
94.22644815163859
 31
0.0
  0
LINE
  5
1BA
330
70
100
AcDbEntity
  8
Bemaßung
 62
     7
370
     9
100
AcDbLine
 10
70.50715264565713
 20
94.19854343012827
 30
0.0
 11
69.98091404797148
 21
94.19854343012827
 31
0.0
  0
LINE
  5
1BB
330
70
100
AcDbEntity
  8
Bemaßung
 62
     7
370
     9
100
AcDbLine
 10
70.50715264565713
 20
94.17063870861795
 30
0.0
 11
69.7690357200436
 21
94.17063870861795
 31
0.0
  0
LINE
  5
1BC
330
70
100
AcDbEntity
  8
Bemaßung
 62
     7
370
     9
100
AcDbLine
 10
70.50715264565713
 20
94.14308676487642
 30
0.0
 11
69.55648887149965
 21
94.14308676487642
 31
0.0
  0
LINE
  5
1BD
330
70
100
AcDbEntity
  8
Bemaßung
 62
     7
370
     9
100
AcDbLine
 10
70.50715264565713
 20
94.11482926559733
 30
0.0
 11
69.3444323975428
 21
94.11482926559733
 31
0.0
  0
LINE
  5
1BE
330
70
100
AcDbEntity
  8
Bemaßung
 62
     7
370
     9
100
AcDbLine
 10
70.50715264565713
 20
94.08692454408702
 30
0.0
 11
69.13202490296177
 21
94.08692454408702
 31
0.0
  0
LWPOLYLINE
  5
1BF
330
70
100
AcDbEntity
  8
Bemaßung
 62
     7
370
     9
100
AcDbPolyline
 90
        4
 70
     0
 43
0.0
 10
87.28201777325022
 20
94.08692454408702
 10
85.90706641943926
 20
94.26814648390811
 10
85.90706641943926
 20
93.90605538203471
 10
87.28201777325022
 20
94.08692454408702
  0
LINE
  5
1C0
330
70
100
AcDbEntity
  8
Bemaßung
 62
     7
370
     9
100
AcDbLine
 10
85.90706641943926
 20
94.25470565091769
 30
0.0
 11
86.0087016946241
 21
94.25470565091769
 31
0.0
  0
LINE
  5
1C1
330
70
100
AcDbEntity
  8
Bemaßung
 62
     7
370
     9
100
AcDbLine
 10
85.90706641943926
 20
94.25470565091769
 30
0.0
 11
86.0087016946241
 21
94.25470565091769
 31
0.0
  0
LINE
  5
1C2
330
70
100
AcDbEntity
  8
Bemaßung
 62
     7
370
     9
100
AcDbLine
 10
85.90706641943926
 20
94.22644815163859
 30
0.0
 11
86.22125030031265
 21
94.22644815163859
 31
0.0
  0
LINE
  5
1C3
330
70
100
AcDbEntity
  8
Bemaßung
 62
     7
370
     9
100
AcDbLine
 10
85.90706641943926
 20
94.19854343012827
 30
0.0
 11
86.43312862824052
 21
94.19854343012827
 31
0.0
  0
LINE
  5
1C4
330
70
100
AcDbEntity
  8
Bemaßung
 62
     7
370
     9
100
AcDbLine
 10
85.90706641943926
 20
94.17063870861795
 30
0.0
 11
86.64553612282155
 21
94.17063870861795
 31
0.0
  0
LINE
  5
1C5
330
70
100
AcDbEntity
  8
Bemaßung
 62
     7
370
     9
100
AcDbLine
 10
85.90706641943926
 20
94.14308676487642
 30
0.0
 11
86.85755556185693
 21
94.14308676487642
 31
0.0
  0
LINE
  5
1C6
330
70
100
AcDbEntity
  8
Bemaßung
 62
     7
370
     9
100
AcDbLine
 10
85.90706641943926
 20
94.11482926559733
 30
0.0
 11
87.07014164489917
 21
94.11482926559733
 31
0.0
  0
LINE
  5
1C7
330
70
100
AcDbEntity
  8
Bemaßung
 62
     7
370
     9
100
AcDbLine
 10
85.90706641943926
 20
94.08692454408702
 30
0.0
 11
87.28201777325022
 21
94.08692454408702
 31
0.0
  0
LINE
  5
1C8
330
70
100
AcDbEntity
  8
Bemaßung
 62
     7
370
     9
100
AcDbLine
 10
85.90706641943926
 20
93.91949621502515
 30
0.0
 11
86.0087016946241
 21
93.91949621502515
 31
0.0
  0
LINE
  5
1C9
330
70
100
AcDbEntity
  8
Bemaßung
 62
     7
370
     9
100
AcDbLine
 10
85.90706641943926
 20
93.91949621502515
 30
0.0
 11
86.0087016946241
 21
93.91949621502515
 31
0.0
  0
LINE
  5
1CA
330
70
100
AcDbEntity
  8
Bemaßung
 62
     7
370
     9
100
AcDbLine
 10
85.90706641943926
 20
93.94704815876668
 30
0.0
 11
86.22125030031265
 21
93.94704815876668
 31
0.0
  0
LINE
  5
1CB
330
70
100
AcDbEntity
  8
Bemaßung
 62
     7
370
     9
100
AcDbLine
 10
85.90706641943926
 20
93.97495288027698
 30
0.0
 11
86.43312862824052
 21
93.97495288027698
 31
0.0
  0
LINE
  5
1CC
330
70
100
AcDbEntity
  8
Bemaßung
 62
     7
370
     9
100
AcDbLine
 10
85.90706641943926
 20
94.0028576017873
 30
0.0
 11
86.64553612282155
 21
94.0028576017873
 31
0.0
  0
LINE
  5
1CD
330
70
100
AcDbEntity
  8
Bemaßung
 62
     7
370
     9
100
AcDbLine
 10
85.90706641943926
 20
94.03111510106638
 30
0.0
 11
86.85755556185693
 21
94.03111510106638
 31
0.0
  0
LINE
  5
1CE
330
70
100
AcDbEntity
  8
Bemaßung
 62
     7
370
     9
100
AcDbLine
 10
85.90706641943926
 20
94.05902219870739
 30
0.0
 11
87.07014164489917
 21
94.05902219870739
 31
0.0
  0
LINE
  5
1CF
330
70
100
AcDbEntity
  8
Bemaßung
 62
     7
370
     9
100
AcDbLine
 10
85.90706641943926
 20
94.08692454408702
 30
0.0
 11
87.28201777325022
 21
94.08692454408702
 31
0.0
  0
LINE
  5
1D0
330
70
100
AcDbEntity
  8
Bemaßung
 62
     7
370
     9
100
AcDbLine
 10
108.3351600139176
 20
157.7414395867917
 30
0.0
 11
108.3754825128889
 21
167.7892249580525
 31
0.0
  0
LINE
  5
1D1
330
70
100
AcDbEntity
  8
Bemaßung
 62
     7
370
     9
100
AcDbLine
 10
135.7908307023539
 20
157.631372922933
 30
0.0
 11
135.8308004235564
 21
167.6791582914134
 31
0.0
  0
LINE
  5
1D2
330
70
100
AcDbEntity
  8
Bemaßung
 62
     7
370
     9
100
AcDbLine
 10
108.3710022352254
 20
166.6892243585147
 30
0.0
 11
135.826320145893
 21
166.5791576946561
 31
0.0
  0
LWPOLYLINE
  5
1D3
330
70
100
AcDbEntity
  8
Bemaßung
 62
     7
370
     9
100
AcDbPolyline
 90
        4
 70
     0
 43
0.0
 10
108.3710022352254
 20
166.6892243585147
 10
109.74489525573
 20
166.5026754743851
 10
109.7469766445658
 20
166.8647312984816
 10
108.3710022352254
 20
166.6892243585147
  0
LINE
  5
1D4
330
70
100
AcDbEntity
  8
Bemaßung
 62
     7
370
     9
100
AcDbLine
 10
109.7455655334907
 20
166.5159399184911
 30
0.0
 11
109.6439655360827
 21
166.5166101962518
 31
0.0
  0
LINE
  5
1D5
330
70
100
AcDbEntity
  8
Bemaßung
 62
     7
370
     9
100
AcDbLine
 10
109.7455655334907
 20
166.5159399184911
 30
0.0
 11
109.6439655360827
 21
166.5166101962518
 31
0.0
  0
LINE
  5
1D6
330
70
100
AcDbEntity
  8
Bemaßung
 62
     7
370
     9
100
AcDbLine
 10
109.7455655334907
 20
166.5438446400014
 30
0.0
 11
109.4313816526173
 21
166.5450440844153
 31
0.0
  0
LINE
  5
1D7
330
70
100
AcDbEntity
  8
Bemaßung
 62
     7
370
     9
100
AcDbLine
 10
109.7455655334907
 20
166.5717493615117
 30
0.0
 11
109.2191858246975
 21
166.573971861455
 31
0.0
  0
LINE
  5
1D8
330
70
100
AcDbEntity
  8
Bemaßung
 62
     7
370
     9
100
AcDbLine
 10
109.7455655334907
 20
166.6000110694612
 30
0.0
 11
109.0069547190009
 21
166.6027585273873
 31
0.0
  0
LINE
  5
1D9
330
70
100
AcDbEntity
  8
Bemaßung
 62
     7
370
     9
100
AcDbLine
 10
109.7459183112595
 20
166.6279115823011
 30
0.0
 11
108.7954291688418
 21
166.6315099155427
 31
0.0
  0
LINE
  5
1DA
330
70
100
AcDbEntity
  8
Bemaßung
 62
     7
370
     9
100
AcDbLine
 10
109.7459183112595
 20
166.6558163038114
 30
0.0
 11
108.5828452853764
 21
166.6604376925825
 31
0.0
  0
LINE
  5
1DB
330
70
100
AcDbEntity
  8
Bemaßung
 62
     7
370
     9
100
AcDbLine
 10
109.7459183112595
 20
166.6837210253218
 30
0.0
 11
108.3710022352254
 21
166.6892243585147
 31
0.0
  0
LINE
  5
1DC
330
70
100
AcDbEntity
  8
Bemaßung
 62
     7
370
     9
100
AcDbLine
 10
109.7462710890282
 20
166.8514668543755
 30
0.0
 11
109.6453413693809
 21
166.8518196321443
 31
0.0
  0
LINE
  5
1DD
330
70
100
AcDbEntity
  8
Bemaßung
 62
     7
370
     9
100
AcDbLine
 10
109.7462710890282
 20
166.8514668543755
 30
0.0
 11
109.6453413693809
 21
166.8518196321443
 31
0.0
  0
LINE
  5
1DE
330
70
100
AcDbEntity
  8
Bemaßung
 62
     7
370
     9
100
AcDbLine
 10
109.7462710890282
 20
166.8235621328652
 30
0.0
 11
109.4324047081467
 21
166.8246204661716
 31
0.0
  0
LINE
  5
1DF
330
70
100
AcDbEntity
  8
Bemaßung
 62
     7
370
     9
100
AcDbLine
 10
109.7462710890282
 20
166.7955163002474
 30
0.0
 11
109.220208880227
 21
166.7977388001907
 31
0.0
  0
LINE
  5
1E0
330
70
100
AcDbEntity
  8
Bemaßung
 62
     7
370
     9
100
AcDbLine
 10
109.7462710890282
 20
166.7676115787371
 30
0.0
 11
109.0079805283035
 21
166.7705396342179
 31
0.0
  0
LINE
  5
1E1
330
70
100
AcDbEntity
  8
Bemaßung
 62
     7
370
     9
100
AcDbLine
 10
109.7462710890282
 20
166.7396715794499
 30
0.0
 11
108.7957819466106
 21
166.7433051904683
 31
0.0
  0
LINE
  5
1E2
330
70
100
AcDbEntity
  8
Bemaßung
 62
     7
370
     9
100
AcDbLine
 10
109.7462710890282
 20
166.7117668579396
 30
0.0
 11
108.5831980631451
 21
166.7164277360988
 31
0.0
  0
LINE
  5
1E3
330
70
100
AcDbEntity
  8
Bemaßung
 62
     7
370
     9
100
AcDbLine
 10
109.7459183112595
 20
166.6837210253218
 30
0.0
 11
108.3710022352254
 21
166.6892243585147
 31
0.0
  0
LWPOLYLINE
  5
1E4
330
70
100
AcDbEntity
  8
Bemaßung
 62
     7
370
     9
100
AcDbPolyline
 90
        4
 70
     0
 43
0.0
 10
135.826320145893
 20
166.5791576946561
 10
134.4520777441646
 20
166.7658829676701
 10
134.4510512920901
 20
166.4034390880279
 10
135.826320145893
 20
166.5791576946561
  0
LINE
  5
1E5
330
70
100
AcDbEntity
  8
Bemaßung
 62
     7
370
     9
100
AcDbLine
 10
134.4520777441646
 20
166.7522657457953
 30
0.0
 11
134.5537096228044
 21
166.7519129680265
 31
0.0
  0
LINE
  5
1E6
330
70
100
AcDbEntity
  8
Bemaßung
 62
     7
370
     9
100
AcDbLine
 10
134.4520777441646
 20
166.7522657457953
 30
0.0
 11
134.5537096228044
 21
166.7519129680265
 31
0.0
  0
LINE
  5
1E7
330
70
100
AcDbEntity
  8
Bemaßung
 62
     7
370
     9
100
AcDbLine
 10
134.4520777441646
 20
166.7245416249854
 30
0.0
 11
134.765940728501
 21
166.7229851909867
 31
0.0
  0
LINE
  5
1E8
330
70
100
AcDbEntity
  8
Bemaßung
 62
     7
370
     9
100
AcDbLine
 10
134.4517249663869
 20
166.696632691659
 30
0.0
 11
134.9778190564289
 21
166.6942027361043
 31
0.0
  0
LINE
  5
1E9
330
70
100
AcDbEntity
  8
Bemaßung
 62
     7
370
     9
100
AcDbLine
 10
134.4517249663869
 20
166.6681988034955
 30
0.0
 11
135.1900148843487
 21
166.6652749583336
 31
0.0
  0
LINE
  5
1EA
330
70
100
AcDbEntity
  8
Bemaßung
 62
     7
370
     9
100
AcDbLine
 10
134.4517249663869
 20
166.640646859754
 30
0.0
 11
135.4025987678141
 21
166.6368368598512
 31
0.0
  0
LINE
  5
1EB
330
70
100
AcDbEntity
  8
Bemaßung
 62
     7
370
     9
100
AcDbLine
 10
134.4514040698589
 20
166.6127421382437
 30
0.0
 11
135.6141277438741
 21
166.6080854716958
 31
0.0
  0
LINE
  5
1EC
330
70
100
AcDbEntity
  8
Bemaßung
 62
     7
370
     9
100
AcDbLine
 10
134.4514040698589
 20
166.5848416250204
 30
0.0
 11
135.826320145893
 21
166.5791576946561
 31
0.0
  0
LINE
  5
1ED
330
70
100
AcDbEntity
  8
Bemaßung
 62
     7
370
     9
100
AcDbLine
 10
134.4510512920901
 20
166.4170563099027
 30
0.0
 11
134.5523337895062
 21
166.4163507543652
 31
0.0
  0
LINE
  5
1EE
330
70
100
AcDbEntity
  8
Bemaßung
 62
     7
370
     9
100
AcDbLine
 10
134.4510512920901
 20
166.4170563099027
 30
0.0
 11
134.5523337895062
 21
166.4163507543652
 31
0.0
  0
LINE
  5
1EF
330
70
100
AcDbEntity
  8
Bemaßung
 62
     7
370
     9
100
AcDbLine
 10
134.4510512920901
 20
166.4451416250554
 30
0.0
 11
134.7648823951947
 21
166.4437615869992
 31
0.0
  0
LINE
  5
1F0
330
70
100
AcDbEntity
  8
Bemaßung
 62
     7
370
     9
100
AcDbLine
 10
134.4510512920901
 20
166.4730421418077
 30
0.0
 11
134.9771135008914
 21
166.4709607529719
 31
0.0
  0
LINE
  5
1F1
330
70
100
AcDbEntity
  8
Bemaßung
 62
     7
370
     9
100
AcDbLine
 10
134.4510512920901
 20
166.500946863318
 30
0.0
 11
135.189344606588
 21
166.4978424189528
 31
0.0
  0
LINE
  5
1F2
330
70
100
AcDbEntity
  8
Bemaßung
 62
     7
370
     9
100
AcDbLine
 10
134.4514040698589
 20
166.5290279737128
 30
0.0
 11
135.4018932122766
 21
166.5250768627024
 31
0.0
  0
LINE
  5
1F3
330
70
100
AcDbEntity
  8
Bemaßung
 62
     7
370
     9
100
AcDbLine
 10
134.4514040698589
 20
166.5569326952231
 30
0.0
 11
135.6141277438741
 21
166.5522760286752
 31
0.0
  0
LINE
  5
1F4
330
70
100
AcDbEntity
  8
Bemaßung
 62
     7
370
     9
100
AcDbLine
 10
134.4514040698589
 20
166.5848416250204
 30
0.0
 11
135.826320145893
 21
166.5791576946561
 31
0.0
  0
LINE
  5
1F5
330
70
100
AcDbEntity
  8
Bemaßung
 62
     7
370
     9
100
AcDbLine
 10
131.9409669116833
 20
190.7415068004454
 30
0.0
 11
145.207316017675
 21
190.7415068004454
 31
0.0
  0
LINE
  5
1F6
330
70
100
AcDbEntity
  8
Bemaßung
 62
     7
370
     9
100
AcDbLine
 10
127.5405228572813
 20
204.4364456177251
 30
0.0
 11
145.207316017675
 21
204.4364456177251
 31
0.0
  0
LINE
  5
1F7
330
70
100
AcDbEntity
  8
Bemaßung
 62
     7
370
     9
100
AcDbLine
 10
144.1069668790805
 20
190.7415068004454
 30
0.0
 11
144.1069668790805
 21
204.4364456177251
 31
0.0
  0
LWPOLYLINE
  5
1F8
330
70
100
AcDbEntity
  8
Bemaßung
 62
     7
370
     9
100
AcDbPolyline
 90
        4
 70
     0
 43
0.0
 10
144.1069668790805
 20
190.7415068004454
 10
144.2881888189016
 20
192.1164277297488
 10
143.9260977170282
 20
192.1164277297488
 10
144.1069668790805
 20
190.7415068004454
  0
LINE
  5
1F9
330
70
100
AcDbEntity
  8
Bemaßung
 62
     7
370
     9
100
AcDbLine
 10
144.2747479859112
 20
192.1164277297488
 30
0.0
 11
144.2747479859112
 21
192.0147876012946
 31
0.0
  0
LINE
  5
1FA
330
70
100
AcDbEntity
  8
Bemaßung
 62
     7
370
     9
100
AcDbLine
 10
144.2747479859112
 20
192.1164277297488
 30
0.0
 11
144.2747479859112
 21
192.0147876012946
 31
0.0
  0
LINE
  5
1FB
330
70
100
AcDbEntity
  8
Bemaßung
 62
     7
370
     9
100
AcDbLine
 10
144.2471607643928
 20
192.1164277297488
 30
0.0
 11
144.2471607643928
 21
191.8025917733749
 31
0.0
  0
LINE
  5
1FC
330
70
100
AcDbEntity
  8
Bemaßung
 62
     7
370
     9
100
AcDbLine
 10
144.2192560428825
 20
192.1164277297488
 30
0.0
 11
144.2192560428825
 21
191.5903606676782
 31
0.0
  0
LINE
  5
1FD
330
70
100
AcDbEntity
  8
Bemaßung
 62
     7
370
     9
100
AcDbLine
 10
144.1913513213721
 20
192.1164277297488
 30
0.0
 11
144.1913513213721
 21
191.3778120619897
 31
0.0
  0
LINE
  5
1FE
330
70
100
AcDbEntity
  8
Bemaßung
 62
     7
370
     9
100
AcDbLine
 10
144.1631290998699
 20
192.1164277297488
 30
0.0
 11
144.1631290998699
 21
191.1659337340618
 31
0.0
  0
LINE
  5
1FF
330
70
100
AcDbEntity
  8
Bemaßung
 62
     7
370
     9
100
AcDbLine
 10
144.1352243783596
 20
192.1164277297488
 30
0.0
 11
144.1352243783596
 21
190.9533851283733
 31
0.0
  0
LINE
  5
200
330
70
100
AcDbEntity
  8
Bemaßung
 62
     7
370
     9
100
AcDbLine
 10
144.1069668790805
 20
192.1164277297488
 30
0.0
 11
144.1069668790805
 21
190.7415068004454
 31
0.0
  0
LINE
  5
201
330
70
100
AcDbEntity
  8
Bemaßung
 62
     7
370
     9
100
AcDbLine
 10
143.9398913277874
 20
192.1164277297488
 30
0.0
 11
143.9398913277874
 21
192.0147876012946
 31
0.0
  0
LINE
  5
202
330
70
100
AcDbEntity
  8
Bemaßung
 62
     7
370
     9
100
AcDbLine
 10
143.9398913277874
 20
192.1164277297488
 30
0.0
 11
143.9398913277874
 21
192.0147876012946
 31
0.0
  0
LINE
  5
203
330
70
100
AcDbEntity
  8
Bemaßung
 62
     7
370
     9
100
AcDbLine
 10
143.9674432715289
 20
192.1164277297488
 30
0.0
 11
143.9674432715289
 21
191.8025917733749
 31
0.0
  0
LINE
  5
204
330
70
100
AcDbEntity
  8
Bemaßung
 62
     7
370
     9
100
AcDbLine
 10
143.9953479930393
 20
192.1164277297488
 30
0.0
 11
143.9953479930393
 21
191.5903606676782
 31
0.0
  0
LINE
  5
205
330
70
100
AcDbEntity
  8
Bemaßung
 62
     7
370
     9
100
AcDbLine
 10
144.0236054923184
 20
192.1164277297488
 30
0.0
 11
144.0236054923184
 21
191.3778120619897
 31
0.0
  0
LINE
  5
206
330
70
100
AcDbEntity
  8
Bemaßung
 62
     7
370
     9
100
AcDbLine
 10
144.0515138528757
 20
192.1164277297488
 30
0.0
 11
144.0515138528757
 21
191.1659337340618
 31
0.0
  0
LINE
  5
207
330
70
100
AcDbEntity
  8
Bemaßung
 62
     7
370
     9
100
AcDbLine
 10
144.079414935339
 20
192.1164277297488
 30
0.0
 11
144.079414935339
 21
190.9533851283733
 31
0.0
  0
LINE
  5
208
330
70
100
AcDbEntity
  8
Bemaßung
 62
     7
370
     9
100
AcDbLine
 10
144.1069668790805
 20
192.1164277297488
 30
0.0
 11
144.1069668790805
 21
190.7415068004454
 31
0.0
  0
LWPOLYLINE
  5
209
330
70
100
AcDbEntity
  8
Bemaßung
 62
     7
370
     9
100
AcDbPolyline
 90
        4
 70
     0
 43
0.0
 10
144.1069668790805
 20
204.4364456177251
 10
143.9260977170282
 20
203.0614942639141
 10
144.2881888189016
 20
203.0614942639141
 10
144.1069668790805
 20
204.4364456177251
  0
LINE
  5
20A
330
70
100
AcDbEntity
  8
Bemaßung
 62
     7
370
     9
100
AcDbLine
 10
143.9398913277874
 20
203.0614942639141
 30
0.0
 11
143.9398913277874
 21
203.1629582825428
 31
0.0
  0
LINE
  5
20B
330
70
100
AcDbEntity
  8
Bemaßung
 62
     7
370
     9
100
AcDbLine
 10
143.9398913277874
 20
203.0614942639141
 30
0.0
 11
143.9398913277874
 21
203.1629582825428
 31
0.0
  0
LINE
  5
20C
330
70
100
AcDbEntity
  8
Bemaßung
 62
     7
370
     9
100
AcDbLine
 10
143.9674432715289
 20
203.0614942639141
 30
0.0
 11
143.9674432715289
 21
203.3751842559112
 31
0.0
  0
LINE
  5
20D
330
70
100
AcDbEntity
  8
Bemaßung
 62
     7
370
     9
100
AcDbLine
 10
143.9953479930393
 20
203.0614942639141
 30
0.0
 11
143.9953479930393
 21
203.5875564727154
 31
0.0
  0
LINE
  5
20E
330
70
100
AcDbEntity
  8
Bemaßung
 62
     7
370
     9
100
AcDbLine
 10
144.0236054923184
 20
203.0614942639141
 30
0.0
 11
144.0236054923184
 21
203.7996111895276
 31
0.0
  0
LINE
  5
20F
330
70
100
AcDbEntity
  8
Bemaßung
 62
     7
370
     9
100
AcDbLine
 10
144.0515138528757
 20
203.0614942639141
 30
0.0
 11
144.0515138528757
 21
204.0118422952243
 31
0.0
  0
LINE
  5
210
330
70
100
AcDbEntity
  8
Bemaßung
 62
     7
370
     9
100
AcDbLine
 10
144.079414935339
 20
203.0614942639141
 30
0.0
 11
144.079414935339
 21
204.2240381231441
 31
0.0
  0
LINE
  5
211
330
70
100
AcDbEntity
  8
Bemaßung
 62
     7
370
     9
100
AcDbLine
 10
144.1069668790805
 20
203.0614942639141
 30
0.0
 11
144.1069668790805
 21
204.4364456177251
 31
0.0
  0
LINE
  5
212
330
70
100
AcDbEntity
  8
Bemaßung
 62
     7
370
     9
100
AcDbLine
 10
144.2747479859112
 20
203.0614942639141
 30
0.0
 11
144.2747479859112
 21
203.1629582825428
 31
0.0
  0
LINE
  5
213
330
70
100
AcDbEntity
  8
Bemaßung
 62
     7
370
     9
100
AcDbLine
 10
144.2747479859112
 20
203.0614942639141
 30
0.0
 11
144.2747479859112
 21
203.1629582825428
 31
0.0
  0
LINE
  5
214
330
70
100
AcDbEntity
  8
Bemaßung
 62
     7
370
     9
100
AcDbLine
 10
144.2471607643928
 20
203.0614942639141
 30
0.0
 11
144.2471607643928
 21
203.3751842559112
 31
0.0
  0
LINE
  5
215
330
70
100
AcDbEntity
  8
Bemaßung
 62
     7
370
     9
100
AcDbLine
 10
144.2192560428825
 20
203.0614942639141
 30
0.0
 11
144.2192560428825
 21
203.5875564727154
 31
0.0
  0
LINE
  5
216
330
70
100
AcDbEntity
  8
Bemaßung
 62
     7
370
     9
100
AcDbLine
 10
144.1913513213721
 20
203.0614942639141
 30
0.0
 11
144.1913513213721
 21
203.7996111895276
 31
0.0
  0
LINE
  5
217
330
70
100
AcDbEntity
  8
Bemaßung
 62
     7
370
     9
100
AcDbLine
 10
144.1631290998699
 20
203.0614942639141
 30
0.0
 11
144.1631290998699
 21
204.0118422952243
 31
0.0
  0
LINE
  5
218
330
70
100
AcDbEntity
  8
Bemaßung
 62
     7
370
     9
100
AcDbLine
 10
144.1352243783596
 20
203.0614942639141
 30
0.0
 11
144.1352243783596
 21
204.2240381231441
 31
0.0
  0
LINE
  5
219
330
70
100
AcDbEntity
  8
Bemaßung
 62
     7
370
     9
100
AcDbLine
 10
144.1069668790805
 20
203.0614942639141
 30
0.0
 11
144.1069668790805
 21
204.4364456177251
 31
0.0
  0
LINE
  5
21A
330
70
100
AcDbEntity
  8
Bemaßung
 62
     7
370
     9
100
AcDbLine
 10
130.5656627801035
 20
108.2414622385302
 30
0.0
 11
145.207316017675
 21
108.2414622385302
 31
0.0
  0
LINE
  5
21B
330
70
100
AcDbEntity
  8
Bemaßung
 62
     7
370
     9
100
AcDbLine
 10
144.1069668790805
 20
190.7415068004454
 30
0.0
 11
144.1069668790805
 21
108.2414622385302
 31
0.0
  0
LWPOLYLINE
  5
21C
330
70
100
AcDbEntity
  8
Bemaßung
 62
     7
370
     9
100
AcDbPolyline
 90
        4
 70
     0
 43
0.0
 10
144.1069668790805
 20
190.7415068004454
 10
143.9260977170282
 20
189.36637905775
 10
144.2881888189016
 20
189.36637905775
 10
144.1069668790805
 20
190.7415068004454
  0
LINE
  5
21D
330
70
100
AcDbEntity
  8
Bemaßung
 62
     7
370
     9
100
AcDbLine
 10
143.9398913277874
 20
189.36637905775
 30
0.0
 11
143.9398913277874
 21
189.4681907218193
 31
0.0
  0
LINE
  5
21E
330
70
100
AcDbEntity
  8
Bemaßung
 62
     7
370
     9
100
AcDbLine
 10
143.9398913277874
 20
189.36637905775
 30
0.0
 11
143.9398913277874
 21
189.4681907218193
 31
0.0
  0
LINE
  5
21F
330
70
100
AcDbEntity
  8
Bemaßung
 62
     7
370
     9
100
AcDbLine
 10
143.9674432715289
 20
189.36637905775
 30
0.0
 11
143.9674432715289
 21
189.6800690497471
 31
0.0
  0
LINE
  5
220
330
70
100
AcDbEntity
  8
Bemaßung
 62
     7
370
     9
100
AcDbLine
 10
143.9953479930393
 20
189.36637905775
 30
0.0
 11
143.9953479930393
 21
189.8922648776669
 31
0.0
  0
LINE
  5
221
330
70
100
AcDbEntity
  8
Bemaßung
 62
     7
370
     9
100
AcDbLine
 10
144.0236054923184
 20
189.36637905775
 30
0.0
 11
144.0236054923184
 21
190.1044959833636
 31
0.0
  0
LINE
  5
222
330
70
100
AcDbEntity
  8
Bemaßung
 62
     7
370
     9
100
AcDbLine
 10
144.0515138528757
 20
189.36637905775
 30
0.0
 11
144.0515138528757
 21
190.3170445890521
 31
0.0
  0
LINE
  5
223
330
70
100
AcDbEntity
  8
Bemaßung
 62
     7
370
     9
100
AcDbLine
 10
144.079414935339
 20
189.36637905775
 30
0.0
 11
144.079414935339
 21
190.5289277301457
 31
0.0
  0
LINE
  5
224
330
70
100
AcDbEntity
  8
Bemaßung
 62
     7
370
     9
100
AcDbLine
 10
144.1069668790805
 20
189.36637905775
 30
0.0
 11
144.1069668790805
 21
190.7415068004454
 31
0.0
  0
LINE
  5
225
330
70
100
AcDbEntity
  8
Bemaßung
 62
     7
370
     9
100
AcDbLine
 10
144.2747479859112
 20
189.36637905775
 30
0.0
 11
144.2747479859112
 21
189.4681907218193
 31
0.0
  0
LINE
  5
226
330
70
100
AcDbEntity
  8
Bemaßung
 62
     7
370
     9
100
AcDbLine
 10
144.2747479859112
 20
189.36637905775
 30
0.0
 11
144.2747479859112
 21
189.4681907218193
 31
0.0
  0
LINE
  5
227
330
70
100
AcDbEntity
  8
Bemaßung
 62
     7
370
     9
100
AcDbLine
 10
144.2471607643928
 20
189.36637905775
 30
0.0
 11
144.2471607643928
 21
189.6800690497471
 31
0.0
  0
LINE
  5
228
330
70
100
AcDbEntity
  8
Bemaßung
 62
     7
370
     9
100
AcDbLine
 10
144.2192560428825
 20
189.36637905775
 30
0.0
 11
144.2192560428825
 21
189.8922648776669
 31
0.0
  0
LINE
  5
229
330
70
100
AcDbEntity
  8
Bemaßung
 62
     7
370
     9
100
AcDbLine
 10
144.1913513213721
 20
189.36637905775
 30
0.0
 11
144.1913513213721
 21
190.1044959833636
 31
0.0
  0
LINE
  5
22A
330
70
100
AcDbEntity
  8
Bemaßung
 62
     7
370
     9
100
AcDbLine
 10
144.1631290998699
 20
189.36637905775
 30
0.0
 11
144.1631290998699
 21
190.3170445890521
 31
0.0
  0
LINE
  5
22B
330
70
100
AcDbEntity
  8
Bemaßung
 62
     7
370
     9
100
AcDbLine
 10
144.1352243783596
 20
189.36637905775
 30
0.0
 11
144.1352243783596
 21
190.5289277301457
 31
0.0
  0
LINE
  5
22C
330
70
100
AcDbEntity
  8
Bemaßung
 62
     7
370
     9
100
AcDbLine
 10
144.1069668790805
 20
189.36637905775
 30
0.0
 11
144.1069668790805
 21
190.7415068004454
 31
0.0
  0
LWPOLYLINE
  5
22D
330
70
100
AcDbEntity
  8
Bemaßung
 62
     7
370
     9
100
AcDbPolyline
 90
        4
 70
     0
 43
0.0
 10
144.1069668790805
 20
108.2414622385302
 10
144.2881888189016
 20
109.6163783145643
 10
143.9260977170282
 20
109.6163783145643
 10
144.1069668790805
 20
108.2414622385302
  0
LINE
  5
22E
330
70
100
AcDbEntity
  8
Bemaßung
 62
     7
370
     9
100
AcDbLine
 10
144.2747479859112
 20
109.6163783145643
 30
0.0
 11
144.2747479859112
 21
109.5147430393794
 31
0.0
  0
LINE
  5
22F
330
70
100
AcDbEntity
  8
Bemaßung
 62
     7
370
     9
100
AcDbLine
 10
144.2747479859112
 20
109.6163783145643
 30
0.0
 11
144.2747479859112
 21
109.5147430393794
 31
0.0
  0
LINE
  5
230
330
70
100
AcDbEntity
  8
Bemaßung
 62
     7
370
     9
100
AcDbLine
 10
144.2471607643928
 20
109.6163783145643
 30
0.0
 11
144.2471607643928
 21
109.3025499726746
 31
0.0
  0
LINE
  5
231
330
70
100
AcDbEntity
  8
Bemaßung
 62
     7
370
     9
100
AcDbLine
 10
144.2192560428825
 20
109.6163783145643
 30
0.0
 11
144.2192560428825
 21
109.090316105763
 31
0.0
  0
LINE
  5
232
330
70
100
AcDbEntity
  8
Bemaßung
 62
     7
370
     9
100
AcDbLine
 10
144.1913513213721
 20
109.6163783145643
 30
0.0
 11
144.1913513213721
 21
108.8781202778433
 31
0.0
  0
LINE
  5
233
330
70
100
AcDbEntity
  8
Bemaßung
 62
     7
370
     9
100
AcDbLine
 10
144.1631290998699
 20
109.6163783145643
 30
0.0
 11
144.1631290998699
 21
108.6655363943778
 31
0.0
  0
LINE
  5
234
330
70
100
AcDbEntity
  8
Bemaßung
 62
     7
370
     9
100
AcDbLine
 10
144.1352243783596
 20
109.6163783145643
 30
0.0
 11
144.1352243783596
 21
108.4533405664581
 31
0.0
  0
LINE
  5
235
330
70
100
AcDbEntity
  8
Bemaßung
 62
     7
370
     9
100
AcDbLine
 10
144.1069668790805
 20
109.6163783145643
 30
0.0
 11
144.1069668790805
 21
108.2414622385302
 31
0.0
  0
LINE
  5
236
330
70
100
AcDbEntity
  8
Bemaßung
 62
     7
370
     9
100
AcDbLine
 10
143.9398913277874
 20
109.6163783145643
 30
0.0
 11
143.9398913277874
 21
109.5147430393794
 31
0.0
  0
LINE
  5
237
330
70
100
AcDbEntity
  8
Bemaßung
 62
     7
370
     9
100
AcDbLine
 10
143.9398913277874
 20
109.6163783145643
 30
0.0
 11
143.9398913277874
 21
109.5147430393794
 31
0.0
  0
LINE
  5
238
330
70
100
AcDbEntity
  8
Bemaßung
 62
     7
370
     9
100
AcDbLine
 10
143.9674432715289
 20
109.6163783145643
 30
0.0
 11
143.9674432715289
 21
109.3025499726746
 31
0.0
  0
LINE
  5
239
330
70
100
AcDbEntity
  8
Bemaßung
 62
     7
370
     9
100
AcDbLine
 10
143.9953479930393
 20
109.6163783145643
 30
0.0
 11
143.9953479930393
 21
109.090316105763
 31
0.0
  0
LINE
  5
23A
330
70
100
AcDbEntity
  8
Bemaßung
 62
     7
370
     9
100
AcDbLine
 10
144.0236054923184
 20
109.6163783145643
 30
0.0
 11
144.0236054923184
 21
108.8781202778433
 31
0.0
  0
LINE
  5
23B
330
70
100
AcDbEntity
  8
Bemaßung
 62
     7
370
     9
100
AcDbLine
 10
144.0515138528757
 20
109.6163783145643
 30
0.0
 11
144.0515138528757
 21
108.6655363943778
 31
0.0
  0
LINE
  5
23C
330
70
100
AcDbEntity
  8
Bemaßung
 62
     7
370
     9
100
AcDbLine
 10
144.079414935339
 20
109.6163783145643
 30
0.0
 11
144.079414935339
 21
108.4533405664581
 31
0.0
  0
LINE
  5
23D
330
70
100
AcDbEntity
  8
Bemaßung
 62
     7
370
     9
100
AcDbLine
 10
144.1069668790805
 20
109.6163783145643
 30
0.0
 11
144.1069668790805
 21
108.2414622385302
 31
0.0
  0
LINE
  5
23E
330
70
100
AcDbEntity
  8
Bemaßung
 62
     7
370
     9
100
AcDbLine
 10
69.6823935000318
 20
108.2414622385302
 30
0.0
 11
62.70832978906611
 21
108.2414622385302
 31
0.0
  0
LINE
  5
23F
330
70
100
AcDbEntity
  8
Bemaßung
 62
     7
370
     9
100
AcDbLine
 10
72.70718064508528
 20
128.0414320111687
 30
0.0
 11
62.70832978906611
 21
128.0414320111687
 31
0.0
  0
LINE
  5
240
330
70
100
AcDbEntity
  8
Bemaßung
 62
     7
370
     9
100
AcDbLine
 10
63.80850253877614
 20
108.2414622385302
 30
0.0
 11
63.80850253877614
 21
128.0414320111687
 31
0.0
  0
LWPOLYLINE
  5
241
330
70
100
AcDbEntity
  8
Bemaßung
 62
     7
370
     9
100
AcDbPolyline
 90
        4
 70
     0
 43
0.0
 10
63.80850253877614
 20
108.2414622385302
 10
63.98954808971285
 20
109.6163783145643
 10
63.62728059895506
 20
109.6163783145643
 10
63.80850253877614
 20
108.2414622385302
  0
LINE
  5
242
330
70
100
AcDbEntity
  8
Bemaßung
 62
     7
370
     9
100
AcDbLine
 10
63.97593086783802
 20
109.6163783145643
 30
0.0
 11
63.97593086783802
 21
109.5147430393794
 31
0.0
  0
LINE
  5
243
330
70
100
AcDbEntity
  8
Bemaßung
 62
     7
370
     9
100
AcDbLine
 10
63.97593086783802
 20
109.6163783145643
 30
0.0
 11
63.97593086783802
 21
109.5147430393794
 31
0.0
  0
LINE
  5
244
330
70
100
AcDbEntity
  8
Bemaßung
 62
     7
370
     9
100
AcDbLine
 10
63.94802776179092
 20
109.6163783145643
 30
0.0
 11
63.94802776179092
 21
109.3025499726746
 31
0.0
  0
LINE
  5
245
330
70
100
AcDbEntity
  8
Bemaßung
 62
     7
370
     9
100
AcDbLine
 10
63.9201214248174
 20
109.6163783145643
 30
0.0
 11
63.9201214248174
 21
109.090316105763
 31
0.0
  0
LINE
  5
246
330
70
100
AcDbEntity
  8
Bemaßung
 62
     7
370
     9
100
AcDbLine
 10
63.89221670330709
 20
109.6163783145643
 30
0.0
 11
63.89221670330709
 21
108.8781202778433
 31
0.0
  0
LINE
  5
247
330
70
100
AcDbEntity
  8
Bemaßung
 62
     7
370
     9
100
AcDbLine
 10
63.86413559291238
 20
109.6163783145643
 30
0.0
 11
63.86413559291238
 21
108.6655363943778
 31
0.0
  0
LINE
  5
248
330
70
100
AcDbEntity
  8
Bemaßung
 62
     7
370
     9
100
AcDbLine
 10
63.83623087140207
 20
109.6163783145643
 30
0.0
 11
63.83623087140207
 21
108.4533405664581
 31
0.0
  0
LINE
  5
249
330
70
100
AcDbEntity
  8
Bemaßung
 62
     7
370
     9
100
AcDbLine
 10
63.80850253877614
 20
109.6163783145643
 30
0.0
 11
63.80850253877614
 21
108.2414622385302
 31
0.0
  0
LINE
  5
24A
330
70
100
AcDbEntity
  8
Bemaßung
 62
     7
370
     9
100
AcDbLine
 10
63.64089782082988
 20
109.6163783145643
 30
0.0
 11
63.64089782082988
 21
109.5147430393794
 31
0.0
  0
LINE
  5
24B
330
70
100
AcDbEntity
  8
Bemaßung
 62
     7
370
     9
100
AcDbLine
 10
63.64089782082988
 20
109.6163783145643
 30
0.0
 11
63.64089782082988
 21
109.5147430393794
 31
0.0
  0
LINE
  5
24C
330
70
100
AcDbEntity
  8
Bemaßung
 62
     7
370
     9
100
AcDbLine
 10
63.66880254234018
 20
109.6163783145643
 30
0.0
 11
63.66880254234018
 21
109.3025499726746
 31
0.0
  0
LINE
  5
24D
330
70
100
AcDbEntity
  8
Bemaßung
 62
     7
370
     9
100
AcDbLine
 10
63.6967072638505
 20
109.6163783145643
 30
0.0
 11
63.6967072638505
 21
109.090316105763
 31
0.0
  0
LINE
  5
24E
330
70
100
AcDbEntity
  8
Bemaßung
 62
     7
370
     9
100
AcDbLine
 10
63.72461198536082
 20
109.6163783145643
 30
0.0
 11
63.72461198536082
 21
108.8781202778433
 31
0.0
  0
LINE
  5
24F
330
70
100
AcDbEntity
  8
Bemaßung
 62
     7
370
     9
100
AcDbLine
 10
63.75269309575552
 20
109.6163783145643
 30
0.0
 11
63.75269309575552
 21
108.6655363943778
 31
0.0
  0
LINE
  5
250
330
70
100
AcDbEntity
  8
Bemaßung
 62
     7
370
     9
100
AcDbLine
 10
63.78059781726584
 20
109.6163783145643
 30
0.0
 11
63.78059781726584
 21
108.4533405664581
 31
0.0
  0
LINE
  5
251
330
70
100
AcDbEntity
  8
Bemaßung
 62
     7
370
     9
100
AcDbLine
 10
63.80850253877614
 20
109.6163783145643
 30
0.0
 11
63.80850253877614
 21
108.2414622385302
 31
0.0
  0
LWPOLYLINE
  5
252
330
70
100
AcDbEntity
  8
Bemaßung
 62
     7
370
     9
100
AcDbPolyline
 90
        4
 70
     0
 43
0.0
 10
63.80850253877614
 20
128.0414320111687
 10
63.62728059895506
 20
126.6665159351346
 10
63.98954808971285
 20
126.6665159351346
 10
63.80850253877614
 20
128.0414320111687
  0
LINE
  5
253
330
70
100
AcDbEntity
  8
Bemaßung
 62
     7
370
     9
100
AcDbLine
 10
63.64089782082988
 20
126.6665159351346
 30
0.0
 11
63.64089782082988
 21
126.7677984325507
 31
0.0
  0
LINE
  5
254
330
70
100
AcDbEntity
  8
Bemaßung
 62
     7
370
     9
100
AcDbLine
 10
63.64089782082988
 20
126.6665159351346
 30
0.0
 11
63.64089782082988
 21
126.7677984325507
 31
0.0
  0
LINE
  5
255
330
70
100
AcDbEntity
  8
Bemaßung
 62
     7
370
     9
100
AcDbLine
 10
63.66880254234018
 20
126.6665159351346
 30
0.0
 11
63.66880254234018
 21
126.9800295382473
 31
0.0
  0
LINE
  5
256
330
70
100
AcDbEntity
  8
Bemaßung
 62
     7
370
     9
100
AcDbLine
 10
63.6967072638505
 20
126.6665159351346
 30
0.0
 11
63.6967072638505
 21
127.1925781439358
 31
0.0
  0
LINE
  5
257
330
70
100
AcDbEntity
  8
Bemaßung
 62
     7
370
     9
100
AcDbLine
 10
63.72461198536082
 20
126.6665159351346
 30
0.0
 11
63.72461198536082
 21
127.4046360792599
 31
0.0
  0
LINE
  5
258
330
70
100
AcDbEntity
  8
Bemaßung
 62
     7
370
     9
100
AcDbLine
 10
63.75269309575552
 20
126.6665159351346
 30
0.0
 11
63.75269309575552
 21
127.6168286886679
 31
0.0
  0
LINE
  5
259
330
70
100
AcDbEntity
  8
Bemaßung
 62
     7
370
     9
100
AcDbLine
 10
63.78059781726584
 20
126.6665159351346
 30
0.0
 11
63.78059781726584
 21
127.8288834054801
 31
0.0
  0
LINE
  5
25A
330
70
100
AcDbEntity
  8
Bemaßung
 62
     7
370
     9
100
AcDbLine
 10
63.80850253877614
 20
126.6665159351346
 30
0.0
 11
63.80850253877614
 21
128.0414320111687
 31
0.0
  0
LINE
  5
25B
330
70
100
AcDbEntity
  8
Bemaßung
 62
     7
370
     9
100
AcDbLine
 10
63.97593086783802
 20
126.6665159351346
 30
0.0
 11
63.97593086783802
 21
126.7677984325507
 31
0.0
  0
LINE
  5
25C
330
70
100
AcDbEntity
  8
Bemaßung
 62
     7
370
     9
100
AcDbLine
 10
63.97593086783802
 20
126.6665159351346
 30
0.0
 11
63.97593086783802
 21
126.7677984325507
 31
0.0
  0
LINE
  5
25D
330
70
100
AcDbEntity
  8
Bemaßung
 62
     7
370
     9
100
AcDbLine
 10
63.94802776179092
 20
126.6665159351346
 30
0.0
 11
63.94802776179092
 21
126.9800295382473
 31
0.0
  0
LINE
  5
25E
330
70
100
AcDbEntity
  8
Bemaßung
 62
     7
370
     9
100
AcDbLine
 10
63.9201214248174
 20
126.6665159351346
 30
0.0
 11
63.9201214248174
 21
127.1925781439358
 31
0.0
  0
LINE
  5
25F
330
70
100
AcDbEntity
  8
Bemaßung
 62
     7
370
     9
100
AcDbLine
 10
63.89221670330709
 20
126.6665159351346
 30
0.0
 11
63.89221670330709
 21
127.4046360792599
 31
0.0
  0
LINE
  5
260
330
70
100
AcDbEntity
  8
Bemaßung
 62
     7
370
     9
100
AcDbLine
 10
63.86413559291238
 20
126.6665159351346
 30
0.0
 11
63.86413559291238
 21
127.6168286886679
 31
0.0
  0
LINE
  5
261
330
70
100
AcDbEntity
  8
Bemaßung
 62
     7
370
     9
100
AcDbLine
 10
63.83623087140207
 20
126.6665159351346
 30
0.0
 11
63.83623087140207
 21
127.8288834054801
 31
0.0
  0
LINE
  5
262
330
70
100
AcDbEntity
  8
Bemaßung
 62
     7
370
     9
100
AcDbLine
 10
63.80850253877614
 20
126.6665159351346
 30
0.0
 11
63.80850253877614
 21
128.0414320111687
 31
0.0
  0
LINE
  5
263
330
70
100
AcDbEntity
  8
Bemaßung
 62
     7
370
     9
100
AcDbLine
 10
72.70718064508528
 20
108.2414622385302
 30
0.0
 11
72.70718064508528
 21
98.99138219674167
 31
0.0
  0
LINE
  5
264
330
70
100
AcDbEntity
  8
Bemaßung
 62
     7
370
     9
100
AcDbLine
 10
83.70721480889548
 20
108.2414622385302
 30
0.0
 11
83.70721480889548
 21
98.99138219674167
 31
0.0
  0
LINE
  5
265
330
70
100
AcDbEntity
  8
Bemaßung
 62
     7
370
     9
100
AcDbLine
 10
83.70721480889548
 20
100.0924368908736
 30
0.0
 11
72.67204397931504
 21
100.0924368908736
 31
0.0
  0
LWPOLYLINE
  5
266
330
70
100
AcDbEntity
  8
Bemaßung
 62
     7
370
     9
100
AcDbPolyline
 90
        4
 70
     0
 43
0.0
 10
72.70718064508528
 20
100.0924368908736
 10
74.0831550544257
 20
99.91121495105256
 10
74.0831550544257
 20
100.2736235529178
 10
72.70718064508528
 20
100.0924368908736
  0
LINE
  5
267
330
70
100
AcDbEntity
  8
Bemaßung
 62
     7
370
     9
100
AcDbLine
 10
74.0831550544257
 20
99.92501108613002
 30
0.0
 11
73.9804967237114
 21
99.92501108613002
 31
0.0
  0
LINE
  5
268
330
70
100
AcDbEntity
  8
Bemaßung
 62
     7
370
     9
100
AcDbLine
 10
74.0831550544257
 20
99.92501108613002
 30
0.0
 11
73.9804967237114
 21
99.92501108613002
 31
0.0
  0
LINE
  5
269
330
70
100
AcDbEntity
  8
Bemaßung
 62
     7
370
     9
100
AcDbLine
 10
74.0831550544257
 20
99.95291328332207
 30
0.0
 11
73.76808922913037
 21
99.95291328332207
 31
0.0
  0
LINE
  5
26A
330
70
100
AcDbEntity
  8
Bemaßung
 62
     7
370
     9
100
AcDbLine
 10
74.0831550544257
 20
99.98081800483239
 30
0.0
 11
73.55624617897937
 21
99.98081800483239
 31
0.0
  0
LINE
  5
26B
330
70
100
AcDbEntity
  8
Bemaßung
 62
     7
370
     9
100
AcDbLine
 10
74.0831550544257
 20
100.0087227263427
 30
0.0
 11
73.34383868439835
 21
100.0087227263427
 31
0.0
  0
LINE
  5
26C
330
70
100
AcDbEntity
  8
Bemaßung
 62
     7
370
     9
100
AcDbLine
 10
74.0831550544257
 20
100.036627447853
 30
0.0
 11
73.1316075787017
 21
100.036627447853
 31
0.0
  0
LINE
  5
26D
330
70
100
AcDbEntity
  8
Bemaßung
 62
     7
370
     9
100
AcDbLine
 10
74.0831550544257
 20
100.0645321693633
 30
0.0
 11
72.91923536189755
 21
100.0645321693633
 31
0.0
  0
LINE
  5
26E
330
70
100
AcDbEntity
  8
Bemaßung
 62
     7
370
     9
100
AcDbLine
 10
74.0831550544257
 20
100.0924368908736
 30
0.0
 11
72.70718064508528
 21
100.0924368908736
 31
0.0
  0
LINE
  5
26F
330
70
100
AcDbEntity
  8
Bemaßung
 62
     7
370
     9
100
AcDbLine
 10
74.0831550544257
 20
100.2598652199355
 30
0.0
 11
73.9804967237114
 21
100.2598652199355
 31
0.0
  0
LINE
  5
270
330
70
100
AcDbEntity
  8
Bemaßung
 62
     7
370
     9
100
AcDbLine
 10
74.0831550544257
 20
100.2598652199355
 30
0.0
 11
73.9804967237114
 21
100.2598652199355
 31
0.0
  0
LINE
  5
271
330
70
100
AcDbEntity
  8
Bemaßung
 62
     7
370
     9
100
AcDbLine
 10
74.0831550544257
 20
100.2319604984252
 30
0.0
 11
73.76808922913037
 21
100.2319604984252
 31
0.0
  0
LINE
  5
272
330
70
100
AcDbEntity
  8
Bemaßung
 62
     7
370
     9
100
AcDbLine
 10
74.0831550544257
 20
100.2040583082822
 30
0.0
 11
73.55624617897937
 21
100.2040583082822
 31
0.0
  0
LINE
  5
273
330
70
100
AcDbEntity
  8
Bemaßung
 62
     7
370
     9
100
AcDbLine
 10
74.0831550544257
 20
100.1761510554046
 30
0.0
 11
73.34383868439835
 21
100.1761510554046
 31
0.0
  0
LINE
  5
274
330
70
100
AcDbEntity
  8
Bemaßung
 62
     7
370
     9
100
AcDbLine
 10
74.0831550544257
 20
100.1482463338942
 30
0.0
 11
73.1316075787017
 21
100.1482463338942
 31
0.0
  0
LINE
  5
275
330
70
100
AcDbEntity
  8
Bemaßung
 62
     7
370
     9
100
AcDbLine
 10
74.0831550544257
 20
100.1203416123839
 30
0.0
 11
72.91923536189755
 21
100.1203416123839
 31
0.0
  0
LINE
  5
276
330
70
100
AcDbEntity
  8
Bemaßung
 62
     7
370
     9
100
AcDbLine
 10
74.0831550544257
 20
100.0924368908736
 30
0.0
 11
72.70718064508528
 21
100.0924368908736
 31
0.0
  0
LWPOLYLINE
  5
277
330
70
100
AcDbEntity
  8
Bemaßung
 62
     7
370
     9
100
AcDbPolyline
 90
        4
 70
     0
 43
0.0
 10
83.70721480889548
 20
100.0924368908736
 10
82.33124039955507
 20
100.2736235529178
 10
82.33124039955507
 20
99.91121495105256
 10
83.70721480889548
 20
100.0924368908736
  0
LINE
  5
278
330
70
100
AcDbEntity
  8
Bemaßung
 62
     7
370
     9
100
AcDbLine
 10
82.33124039955507
 20
100.2598652199355
 30
0.0
 11
82.43389873026936
 21
100.2598652199355
 31
0.0
  0
LINE
  5
279
330
70
100
AcDbEntity
  8
Bemaßung
 62
     7
370
     9
100
AcDbLine
 10
82.33124039955507
 20
100.2598652199355
 30
0.0
 11
82.43389873026936
 21
100.2598652199355
 31
0.0
  0
LINE
  5
27A
330
70
100
AcDbEntity
  8
Bemaßung
 62
     7
370
     9
100
AcDbLine
 10
82.33124039955507
 20
100.2319604984252
 30
0.0
 11
82.64595553489405
 21
100.2319604984252
 31
0.0
  0
LINE
  5
27B
330
70
100
AcDbEntity
  8
Bemaßung
 62
     7
370
     9
100
AcDbLine
 10
82.33124039955507
 20
100.2040583082822
 30
0.0
 11
82.85832775706312
 21
100.2040583082822
 31
0.0
  0
LINE
  5
27C
330
70
100
AcDbEntity
  8
Bemaßung
 62
     7
370
     9
100
AcDbLine
 10
82.33124039955507
 20
100.1761510554046
 30
0.0
 11
83.07038038069803
 21
100.1761510554046
 31
0.0
  0
LINE
  5
27D
330
70
100
AcDbEntity
  8
Bemaßung
 62
     7
370
     9
100
AcDbLine
 10
82.33124039955507
 20
100.1482463338942
 30
0.0
 11
83.28275259750219
 21
100.1482463338942
 31
0.0
  0
LINE
  5
27E
330
70
100
AcDbEntity
  8
Bemaßung
 62
     7
370
     9
100
AcDbLine
 10
82.33124039955507
 20
100.1203416123839
 30
0.0
 11
83.49498370319883
 21
100.1203416123839
 31
0.0
  0
LINE
  5
27F
330
70
100
AcDbEntity
  8
Bemaßung
 62
     7
370
     9
100
AcDbLine
 10
82.33124039955507
 20
100.0924368908736
 30
0.0
 11
83.70721480889548
 21
100.0924368908736
 31
0.0
  0
LINE
  5
280
330
70
100
AcDbEntity
  8
Bemaßung
 62
     7
370
     9
100
AcDbLine
 10
82.33124039955507
 20
99.92501108613002
 30
0.0
 11
82.43389873026936
 21
99.92501108613002
 31
0.0
  0
LINE
  5
281
330
70
100
AcDbEntity
  8
Bemaßung
 62
     7
370
     9
100
AcDbLine
 10
82.33124039955507
 20
99.92501108613002
 30
0.0
 11
82.43389873026936
 21
99.92501108613002
 31
0.0
  0
LINE
  5
282
330
70
100
AcDbEntity
  8
Bemaßung
 62
     7
370
     9
100
AcDbLine
 10
82.33124039955507
 20
99.95291328332207
 30
0.0
 11
82.64595553489405
 21
99.95291328332207
 31
0.0
  0
LINE
  5
283
330
70
100
AcDbEntity
  8
Bemaßung
 62
     7
370
     9
100
AcDbLine
 10
82.33124039955507
 20
99.98081800483239
 30
0.0
 11
82.85832775706312
 21
99.98081800483239
 31
0.0
  0
LINE
  5
284
330
70
100
AcDbEntity
  8
Bemaßung
 62
     7
370
     9
100
AcDbLine
 10
82.33124039955507
 20
100.0087227263427
 30
0.0
 11
83.07038038069803
 21
100.0087227263427
 31
0.0
  0
LINE
  5
285
330
70
100
AcDbEntity
  8
Bemaßung
 62
     7
370
     9
100
AcDbLine
 10
82.33124039955507
 20
100.036627447853
 30
0.0
 11
83.28275259750219
 21
100.036627447853
 31
0.0
  0
LINE
  5
286
330
70
100
AcDbEntity
  8
Bemaßung
 62
     7
370
     9
100
AcDbLine
 10
82.33124039955507
 20
100.0645321693633
 30
0.0
 11
83.49498370319883
 21
100.0645321693633
 31
0.0
  0
LINE
  5
287
330
70
100
AcDbEntity
  8
Bemaßung
 62
     7
370
     9
100
AcDbLine
 10
82.33124039955507
 20
100.0924368908736
 30
0.0
 11
83.70721480889548
 21
100.0924368908736
 31
0.0
  0
LINE
  5
288
330
70
100
AcDbEntity
  8
Bemaßung
 62
     7
370
     9
100
AcDbLine
 10
130.5656627801035
 20
130.2413221896619
 30
0.0
 11
139.604217271733
 21
130.2413221896619
 31
0.0
  0
LINE
  5
289
330
70
100
AcDbEntity
  8
Bemaßung
 62
     7
370
     9
100
AcDbLine
 10
138.5042209109073
 20
108.2414622385302
 30
0.0
 11
138.5042209109073
 21
130.2413221896619
 31
0.0
  0
LWPOLYLINE
  5
28A
330
70
100
AcDbEntity
  8
Bemaßung
 62
     7
370
     9
100
AcDbPolyline
 90
        4
 70
     0
 43
0.0
 10
138.5042209109073
 20
108.2414622385302
 10
138.6850582986619
 20
109.6163783145643
 10
138.3233517488551
 20
109.6163783145643
 10
138.5042209109073
 20
108.2414622385302
  0
LINE
  5
28B
330
70
100
AcDbEntity
  8
Bemaßung
 62
     7
370
     9
100
AcDbLine
 10
138.6716527431095
 20
109.6163783145643
 30
0.0
 11
138.6716527431095
 21
109.5147430393794
 31
0.0
  0
LINE
  5
28C
330
70
100
AcDbEntity
  8
Bemaßung
 62
     7
370
     9
100
AcDbLine
 10
138.6716527431095
 20
109.6163783145643
 30
0.0
 11
138.6716527431095
 21
109.5147430393794
 31
0.0
  0
LINE
  5
28D
330
70
100
AcDbEntity
  8
Bemaßung
 62
     7
370
     9
100
AcDbLine
 10
138.6437445184589
 20
109.6163783145643
 30
0.0
 11
138.6437445184589
 21
109.3025499726746
 31
0.0
  0
LINE
  5
28E
330
70
100
AcDbEntity
  8
Bemaßung
 62
     7
370
     9
100
AcDbLine
 10
138.6158397969486
 20
109.6163783145643
 30
0.0
 11
138.6158397969486
 21
109.090316105763
 31
0.0
  0
LINE
  5
28F
330
70
100
AcDbEntity
  8
Bemaßung
 62
     7
370
     9
100
AcDbLine
 10
138.5879350754383
 20
109.6163783145643
 30
0.0
 11
138.5879350754383
 21
108.8781202778433
 31
0.0
  0
LINE
  5
290
330
70
100
AcDbEntity
  8
Bemaßung
 62
     7
370
     9
100
AcDbLine
 10
138.560030353928
 20
109.6163783145643
 30
0.0
 11
138.560030353928
 21
108.6655363943778
 31
0.0
  0
LINE
  5
291
330
70
100
AcDbEntity
  8
Bemaßung
 62
     7
370
     9
100
AcDbLine
 10
138.5321256324177
 20
109.6163783145643
 30
0.0
 11
138.5321256324177
 21
108.4533405664581
 31
0.0
  0
LINE
  5
292
330
70
100
AcDbEntity
  8
Bemaßung
 62
     7
370
     9
100
AcDbLine
 10
138.5042209109073
 20
109.6163783145643
 30
0.0
 11
138.5042209109073
 21
108.2414622385302
 31
0.0
  0
LINE
  5
293
330
70
100
AcDbEntity
  8
Bemaßung
 62
     7
370
     9
100
AcDbLine
 10
138.3364398040767
 20
109.6163783145643
 30
0.0
 11
138.3364398040767
 21
109.5147430393794
 31
0.0
  0
LINE
  5
294
330
70
100
AcDbEntity
  8
Bemaßung
 62
     7
370
     9
100
AcDbLine
 10
138.3364398040767
 20
109.6163783145643
 30
0.0
 11
138.3364398040767
 21
109.5147430393794
 31
0.0
  0
LINE
  5
295
330
70
100
AcDbEntity
  8
Bemaßung
 62
     7
370
     9
100
AcDbLine
 10
138.364344525587
 20
109.6163783145643
 30
0.0
 11
138.364344525587
 21
109.3025499726746
 31
0.0
  0
LINE
  5
296
330
70
100
AcDbEntity
  8
Bemaßung
 62
     7
370
     9
100
AcDbLine
 10
138.3925667470892
 20
109.6163783145643
 30
0.0
 11
138.3925667470892
 21
109.090316105763
 31
0.0
  0
LINE
  5
297
330
70
100
AcDbEntity
  8
Bemaßung
 62
     7
370
     9
100
AcDbLine
 10
138.4204749653947
 20
109.6163783145643
 30
0.0
 11
138.4204749653947
 21
108.8781202778433
 31
0.0
  0
LINE
  5
298
330
70
100
AcDbEntity
  8
Bemaßung
 62
     7
370
     9
100
AcDbLine
 10
138.4483761901099
 20
109.6163783145643
 30
0.0
 11
138.4483761901099
 21
108.6655363943778
 31
0.0
  0
LINE
  5
299
330
70
100
AcDbEntity
  8
Bemaßung
 62
     7
370
     9
100
AcDbLine
 10
138.476316189397
 20
109.6163783145643
 30
0.0
 11
138.476316189397
 21
108.4533405664581
 31
0.0
  0
LINE
  5
29A
330
70
100
AcDbEntity
  8
Bemaßung
 62
     7
370
     9
100
AcDbLine
 10
138.5042209109073
 20
109.6163783145643
 30
0.0
 11
138.5042209109073
 21
108.2414622385302
 31
0.0
  0
LWPOLYLINE
  5
29B
330
70
100
AcDbEntity
  8
Bemaßung
 62
     7
370
     9
100
AcDbPolyline
 90
        4
 70
     0
 43
0.0
 10
138.5042209109073
 20
130.2413221896619
 10
138.3233517488551
 20
128.8661944122279
 10
138.6850582986619
 20
128.8661944122279
 10
138.5042209109073
 20
130.2413221896619
  0
LINE
  5
29C
330
70
100
AcDbEntity
  8
Bemaßung
 62
     7
370
     9
100
AcDbLine
 10
138.3364398040767
 20
128.8661944122279
 30
0.0
 11
138.3364398040767
 21
128.9680028208632
 31
0.0
  0
LINE
  5
29D
330
70
100
AcDbEntity
  8
Bemaßung
 62
     7
370
     9
100
AcDbLine
 10
138.3364398040767
 20
128.8661944122279
 30
0.0
 11
138.3364398040767
 21
128.9680028208632
 31
0.0
  0
LINE
  5
29E
330
70
100
AcDbEntity
  8
Bemaßung
 62
     7
370
     9
100
AcDbLine
 10
138.364344525587
 20
128.8661944122279
 30
0.0
 11
138.364344525587
 21
129.1804103154442
 31
0.0
  0
LINE
  5
29F
330
70
100
AcDbEntity
  8
Bemaßung
 62
     7
370
     9
100
AcDbLine
 10
138.3925667470892
 20
128.8661944122279
 30
0.0
 11
138.3925667470892
 21
129.3922886433721
 31
0.0
  0
LINE
  5
2A0
330
70
100
AcDbEntity
  8
Bemaßung
 62
     7
370
     9
100
AcDbLine
 10
138.4204749653947
 20
128.8661944122279
 30
0.0
 11
138.4204749653947
 21
129.6046608601763
 31
0.0
  0
LINE
  5
2A1
330
70
100
AcDbEntity
  8
Bemaßung
 62
     7
370
     9
100
AcDbLine
 10
138.4483761901099
 20
128.8661944122279
 30
0.0
 11
138.4483761901099
 21
129.8168919658729
 31
0.0
  0
LINE
  5
2A2
330
70
100
AcDbEntity
  8
Bemaßung
 62
     7
370
     9
100
AcDbLine
 10
138.476316189397
 20
128.8661944122279
 30
0.0
 11
138.476316189397
 21
130.0292641826771
 31
0.0
  0
LINE
  5
2A3
330
70
100
AcDbEntity
  8
Bemaßung
 62
     7
370
     9
100
AcDbLine
 10
138.5042209109073
 20
128.8661944122279
 30
0.0
 11
138.5042209109073
 21
130.2413221896619
 31
0.0
  0
LINE
  5
2A4
330
70
100
AcDbEntity
  8
Bemaßung
 62
     7
370
     9
100
AcDbLine
 10
138.6716527431095
 20
128.8661944122279
 30
0.0
 11
138.6716527431095
 21
128.9680028208632
 31
0.0
  0
LINE
  5
2A5
330
70
100
AcDbEntity
  8
Bemaßung
 62
     7
370
     9
100
AcDbLine
 10
138.6716527431095
 20
128.8661944122279
 30
0.0
 11
138.6716527431095
 21
128.9680028208632
 31
0.0
  0
LINE
  5
2A6
330
70
100
AcDbEntity
  8
Bemaßung
 62
     7
370
     9
100
AcDbLine
 10
138.6437445184589
 20
128.8661944122279
 30
0.0
 11
138.6437445184589
 21
129.1804103154442
 31
0.0
  0
LINE
  5
2A7
330
70
100
AcDbEntity
  8
Bemaßung
 62
     7
370
     9
100
AcDbLine
 10
138.6158397969486
 20
128.8661944122279
 30
0.0
 11
138.6158397969486
 21
129.3922886433721
 31
0.0
  0
LINE
  5
2A8
330
70
100
AcDbEntity
  8
Bemaßung
 62
     7
370
     9
100
AcDbLine
 10
138.5879350754383
 20
128.8661944122279
 30
0.0
 11
138.5879350754383
 21
129.6046608601763
 31
0.0
  0
LINE
  5
2A9
330
70
100
AcDbEntity
  8
Bemaßung
 62
     7
370
     9
100
AcDbLine
 10
138.560030353928
 20
128.8661944122279
 30
0.0
 11
138.560030353928
 21
129.8168919658729
 31
0.0
  0
LINE
  5
2AA
330
70
100
AcDbEntity
  8
Bemaßung
 62
     7
370
     9
100
AcDbLine
 10
138.5321256324177
 20
128.8661944122279
 30
0.0
 11
138.5321256324177
 21
130.0292641826771
 31
0.0
  0
LINE
  5
2AB
330
70
100
AcDbEntity
  8
Bemaßung
 62
     7
370
     9
100
AcDbLine
 10
138.5042209109073
 20
128.8661944122279
 30
0.0
 11
138.5042209109073
 21
130.2413221896619
 31
0.0
  0
LINE
  5
2AC
330
70
100
AcDbEntity
  8
Bemaßung
 62
     7
370
     9
100
AcDbLine
 10
98.76216473689908
 20
108.2770297720636
 30
0.0
 11
115.0834717309837
 21
108.2770297720636
 31
0.0
  0
LINE
  5
2AD
330
70
100
AcDbEntity
  8
Bemaßung
 62
     7
370
     9
100
AcDbLine
 10
98.76216473689972
 20
122.00187087963
 30
0.0
 11
123.01131725359
 21
122.00187087963
 31
0.0
  0
LINE
  5
2AE
330
70
100
AcDbEntity
  8
Bemaßung
 62
     7
370
     9
100
AcDbLine
 10
100.1725878851467
 20
108.2770297720636
 30
0.0
 11
100.1725878851467
 21
121.7518708798063
 31
0.0
  0
LWPOLYLINE
  5
2AF
330
70
100
AcDbEntity
  8
Bemaßung
 62
     7
370
     9
100
AcDbPolyline
 90
        4
 70
     0
 43
0.0
 10
100.1725878851467
 20
108.2770297720636
 10
100.3536158017686
 20
109.6519106050534
 10
99.99155996852538
 20
109.6519106050534
 10
100.1725878851467
 20
108.2770297720636
  0
LINE
  5
2B0
330
70
100
AcDbEntity
  8
Bemaßung
 62
     7
370
     9
100
AcDbLine
 10
100.3404219128833
 20
109.6519106050534
 30
0.0
 11
100.3404219128833
 21
109.550240049523
 31
0.0
  0
LINE
  5
2B1
330
70
100
AcDbEntity
  8
Bemaßung
 62
     7
370
     9
100
AcDbLine
 10
100.3404219128833
 20
109.6519106050534
 30
0.0
 11
100.3404219128833
 21
109.550240049523
 31
0.0
  0
LINE
  5
2B2
330
70
100
AcDbEntity
  8
Bemaßung
 62
     7
370
     9
100
AcDbLine
 10
100.3124819128903
 20
109.6519106050534
 30
0.0
 11
100.3124819128903
 21
109.3381676884647
 31
0.0
  0
LINE
  5
2B3
330
70
100
AcDbEntity
  8
Bemaßung
 62
     7
370
     9
100
AcDbLine
 10
100.2845419128972
 20
109.6519106050534
 30
0.0
 11
100.2845419128972
 21
109.1259012996292
 31
0.0
  0
LINE
  5
2B4
330
70
100
AcDbEntity
  8
Bemaßung
 62
     7
370
     9
100
AcDbLine
 10
100.2566019129045
 20
109.6519106050534
 30
0.0
 11
100.2566019129045
 21
108.9136349107936
 31
0.0
  0
LINE
  5
2B5
330
70
100
AcDbEntity
  8
Bemaßung
 62
     7
370
     9
100
AcDbLine
 10
100.2284678851331
 20
109.6519106050534
 30
0.0
 11
100.2284678851331
 21
108.7013685219574
 31
0.0
  0
LINE
  5
2B6
330
70
100
AcDbEntity
  8
Bemaßung
 62
     7
370
     9
100
AcDbLine
 10
100.2005278851401
 20
109.6519106050534
 30
0.0
 11
100.2005278851401
 21
108.4892961608992
 31
0.0
  0
LINE
  5
2B7
330
70
100
AcDbEntity
  8
Bemaßung
 62
     7
370
     9
100
AcDbLine
 10
100.1725878851467
 20
109.6519106050534
 30
0.0
 11
100.1725878851467
 21
108.2770297720636
 31
0.0
  0
LINE
  5
2B8
330
70
100
AcDbEntity
  8
Bemaßung
 62
     7
370
     9
100
AcDbLine
 10
100.0049478851886
 20
109.6519106050534
 30
0.0
 11
100.0049478851886
 21
109.550240049523
 31
0.0
  0
LINE
  5
2B9
330
70
100
AcDbEntity
  8
Bemaßung
 62
     7
370
     9
100
AcDbLine
 10
100.0049478851886
 20
109.6519106050534
 30
0.0
 11
100.0049478851886
 21
109.550240049523
 31
0.0
  0
LINE
  5
2BA
330
70
100
AcDbEntity
  8
Bemaßung
 62
     7
370
     9
100
AcDbLine
 10
100.0328878851817
 20
109.6519106050534
 30
0.0
 11
100.0328878851817
 21
109.3381676884647
 31
0.0
  0
LINE
  5
2BB
330
70
100
AcDbEntity
  8
Bemaßung
 62
     7
370
     9
100
AcDbLine
 10
100.0608278851748
 20
109.6519106050534
 30
0.0
 11
100.0608278851748
 21
109.1259012996292
 31
0.0
  0
LINE
  5
2BC
330
70
100
AcDbEntity
  8
Bemaßung
 62
     7
370
     9
100
AcDbLine
 10
100.0887678851678
 20
109.6519106050534
 30
0.0
 11
100.0887678851678
 21
108.9136349107936
 31
0.0
  0
LINE
  5
2BD
330
70
100
AcDbEntity
  8
Bemaßung
 62
     7
370
     9
100
AcDbLine
 10
100.1167078851609
 20
109.6519106050534
 30
0.0
 11
100.1167078851609
 21
108.7013685219574
 31
0.0
  0
LINE
  5
2BE
330
70
100
AcDbEntity
  8
Bemaßung
 62
     7
370
     9
100
AcDbLine
 10
100.144647885154
 20
109.6519106050534
 30
0.0
 11
100.144647885154
 21
108.4892961608992
 31
0.0
  0
LINE
  5
2BF
330
70
100
AcDbEntity
  8
Bemaßung
 62
     7
370
     9
100
AcDbLine
 10
100.1725878851467
 20
109.6519106050534
 30
0.0
 11
100.1725878851467
 21
108.2770297720636
 31
0.0
  0
LWPOLYLINE
  5
2C0
330
70
100
AcDbEntity
  8
Bemaßung
 62
     7
370
     9
100
AcDbPolyline
 90
        4
 70
     0
 43
0.0
 10
100.1725878851467
 20
122.00187087963
 10
99.99155996852538
 20
120.6269900466402
 10
100.3536158017686
 20
120.6269900466402
 10
100.1725878851467
 20
122.00187087963
  0
LINE
  5
2C1
330
70
100
AcDbEntity
  8
Bemaßung
 62
     7
370
     9
100
AcDbLine
 10
100.0049478851886
 20
120.6269900466402
 30
0.0
 11
100.0049478851886
 21
120.72866060217
 31
0.0
  0
LINE
  5
2C2
330
70
100
AcDbEntity
  8
Bemaßung
 62
     7
370
     9
100
AcDbLine
 10
100.0049478851886
 20
120.6269900466402
 30
0.0
 11
100.0049478851886
 21
120.72866060217
 31
0.0
  0
LINE
  5
2C3
330
70
100
AcDbEntity
  8
Bemaßung
 62
     7
370
     9
100
AcDbLine
 10
100.0328878851817
 20
120.6269900466402
 30
0.0
 11
100.0328878851817
 21
120.9407329632282
 31
0.0
  0
LINE
  5
2C4
330
70
100
AcDbEntity
  8
Bemaßung
 62
     7
370
     9
100
AcDbLine
 10
100.0608278851748
 20
120.6269900466402
 30
0.0
 11
100.0608278851748
 21
121.1529993520644
 31
0.0
  0
LINE
  5
2C5
330
70
100
AcDbEntity
  8
Bemaßung
 62
     7
370
     9
100
AcDbLine
 10
100.0887678851678
 20
120.6269900466402
 30
0.0
 11
100.0887678851678
 21
121.3652657409
 31
0.0
  0
LINE
  5
2C6
330
70
100
AcDbEntity
  8
Bemaßung
 62
     7
370
     9
100
AcDbLine
 10
100.1167078851609
 20
120.6269900466402
 30
0.0
 11
100.1167078851609
 21
121.5775321297355
 31
0.0
  0
LINE
  5
2C7
330
70
100
AcDbEntity
  8
Bemaßung
 62
     7
370
     9
100
AcDbLine
 10
100.144647885154
 20
120.6269900466402
 30
0.0
 11
100.144647885154
 21
121.7896044907938
 31
0.0
  0
LINE
  5
2C8
330
70
100
AcDbEntity
  8
Bemaßung
 62
     7
370
     9
100
AcDbLine
 10
100.1725878851467
 20
120.6269900466402
 30
0.0
 11
100.1725878851467
 21
122.00187087963
 31
0.0
  0
LINE
  5
2C9
330
70
100
AcDbEntity
  8
Bemaßung
 62
     7
370
     9
100
AcDbLine
 10
100.3404219128833
 20
120.6269900466402
 30
0.0
 11
100.3404219128833
 21
120.72866060217
 31
0.0
  0
LINE
  5
2CA
330
70
100
AcDbEntity
  8
Bemaßung
 62
     7
370
     9
100
AcDbLine
 10
100.3404219128833
 20
120.6269900466402
 30
0.0
 11
100.3404219128833
 21
120.72866060217
 31
0.0
  0
LINE
  5
2CB
330
70
100
AcDbEntity
  8
Bemaßung
 62
     7
370
     9
100
AcDbLine
 10
100.3124819128903
 20
120.6269900466402
 30
0.0
 11
100.3124819128903
 21
120.9407329632282
 31
0.0
  0
LINE
  5
2CC
330
70
100
AcDbEntity
  8
Bemaßung
 62
     7
370
     9
100
AcDbLine
 10
100.2845419128972
 20
120.6269900466402
 30
0.0
 11
100.2845419128972
 21
121.1529993520644
 31
0.0
  0
LINE
  5
2CD
330
70
100
AcDbEntity
  8
Bemaßung
 62
     7
370
     9
100
AcDbLine
 10
100.2566019129045
 20
120.6269900466402
 30
0.0
 11
100.2566019129045
 21
121.3652657409
 31
0.0
  0
LINE
  5
2CE
330
70
100
AcDbEntity
  8
Bemaßung
 62
     7
370
     9
100
AcDbLine
 10
100.2284678851331
 20
120.6269900466402
 30
0.0
 11
100.2284678851331
 21
121.5775321297355
 31
0.0
  0
LINE
  5
2CF
330
70
100
AcDbEntity
  8
Bemaßung
 62
     7
370
     9
100
AcDbLine
 10
100.2005278851401
 20
120.6269900466402
 30
0.0
 11
100.2005278851401
 21
121.7896044907938
 31
0.0
  0
LINE
  5
2D0
330
70
100
AcDbEntity
  8
Bemaßung
 62
     7
370
     9
100
AcDbLine
 10
100.1725878851467
 20
120.6269900466402
 30
0.0
 11
100.1725878851467
 21
122.00187087963
 31
0.0
  0
LINE
  5
2D1
330
70
100
AcDbEntity
  8
Bemaßung
 62
     7
370
     9
100
AcDbLine
 10
105.776854125846
 20
112.1019915765494
 30
0.0
 11
123.509020792644
 21
112.1019915765494
 31
0.0
  0
LINE
  5
2D2
330
70
100
AcDbEntity
  8
Bemaßung
 62
     7
370
     9
100
AcDbLine
 10
106.7128416583006
 20
122.00187087963
 30
0.0
 11
106.7128416583006
 21
112.1019915765494
 31
0.0
  0
LWPOLYLINE
  5
2D3
330
70
100
AcDbEntity
  8
Bemaßung
 62
     7
370
     9
100
AcDbPolyline
 90
        4
 70
     0
 43
0.0
 10
106.7128416583006
 20
122.00187087963
 10
106.5318137416796
 20
120.6269900466402
 10
106.8938695749222
 20
120.6269900466402
 10
106.7128416583006
 20
122.00187087963
  0
LINE
  5
2D4
330
70
100
AcDbEntity
  8
Bemaßung
 62
     7
370
     9
100
AcDbLine
 10
106.5450076305649
 20
120.6269900466402
 30
0.0
 11
106.5450076305649
 21
120.72866060217
 31
0.0
  0
LINE
  5
2D5
330
70
100
AcDbEntity
  8
Bemaßung
 62
     7
370
     9
100
AcDbLine
 10
106.5450076305649
 20
120.6269900466402
 30
0.0
 11
106.5450076305649
 21
120.72866060217
 31
0.0
  0
LINE
  5
2D6
330
70
100
AcDbEntity
  8
Bemaßung
 62
     7
370
     9
100
AcDbLine
 10
106.5731416583353
 20
120.6269900466402
 30
0.0
 11
106.5731416583353
 21
120.9407329632282
 31
0.0
  0
LINE
  5
2D7
330
70
100
AcDbEntity
  8
Bemaßung
 62
     7
370
     9
100
AcDbLine
 10
106.6010816583284
 20
120.6269900466402
 30
0.0
 11
106.6010816583284
 21
121.1529993520644
 31
0.0
  0
LINE
  5
2D8
330
70
100
AcDbEntity
  8
Bemaßung
 62
     7
370
     9
100
AcDbLine
 10
106.6290216583214
 20
120.6269900466402
 30
0.0
 11
106.6290216583214
 21
121.3652657409
 31
0.0
  0
LINE
  5
2D9
330
70
100
AcDbEntity
  8
Bemaßung
 62
     7
370
     9
100
AcDbLine
 10
106.6569616583145
 20
120.6269900466402
 30
0.0
 11
106.6569616583145
 21
121.5775321297355
 31
0.0
  0
LINE
  5
2DA
330
70
100
AcDbEntity
  8
Bemaßung
 62
     7
370
     9
100
AcDbLine
 10
106.6849016583075
 20
120.6269900466402
 30
0.0
 11
106.6849016583075
 21
121.7896044907938
 31
0.0
  0
LINE
  5
2DB
330
70
100
AcDbEntity
  8
Bemaßung
 62
     7
370
     9
100
AcDbLine
 10
106.7128416583006
 20
120.6269900466402
 30
0.0
 11
106.7128416583006
 21
122.00187087963
 31
0.0
  0
LINE
  5
2DC
330
70
100
AcDbEntity
  8
Bemaßung
 62
     7
370
     9
100
AcDbLine
 10
106.8802876304816
 20
120.6269900466402
 30
0.0
 11
106.8802876304816
 21
120.72866060217
 31
0.0
  0
LINE
  5
2DD
330
70
100
AcDbEntity
  8
Bemaßung
 62
     7
370
     9
100
AcDbLine
 10
106.8802876304816
 20
120.6269900466402
 30
0.0
 11
106.8802876304816
 21
120.72866060217
 31
0.0
  0
LINE
  5
2DE
330
70
100
AcDbEntity
  8
Bemaßung
 62
     7
370
     9
100
AcDbLine
 10
106.8523476304879
 20
120.6269900466402
 30
0.0
 11
106.8523476304879
 21
120.9407329632282
 31
0.0
  0
LINE
  5
2DF
330
70
100
AcDbEntity
  8
Bemaßung
 62
     7
370
     9
100
AcDbLine
 10
106.8246016582728
 20
120.6269900466402
 30
0.0
 11
106.8246016582728
 21
121.1529993520644
 31
0.0
  0
LINE
  5
2E0
330
70
100
AcDbEntity
  8
Bemaßung
 62
     7
370
     9
100
AcDbLine
 10
106.7966616582798
 20
120.6269900466402
 30
0.0
 11
106.7966616582798
 21
121.3652657409
 31
0.0
  0
LINE
  5
2E1
330
70
100
AcDbEntity
  8
Bemaßung
 62
     7
370
     9
100
AcDbLine
 10
106.7687216582867
 20
120.6269900466402
 30
0.0
 11
106.7687216582867
 21
121.5775321297355
 31
0.0
  0
LINE
  5
2E2
330
70
100
AcDbEntity
  8
Bemaßung
 62
     7
370
     9
100
AcDbLine
 10
106.7407816582937
 20
120.6269900466402
 30
0.0
 11
106.7407816582937
 21
121.7896044907938
 31
0.0
  0
LINE
  5
2E3
330
70
100
AcDbEntity
  8
Bemaßung
 62
     7
370
     9
100
AcDbLine
 10
106.7128416583006
 20
120.6269900466402
 30
0.0
 11
106.7128416583006
 21
122.00187087963
 31
0.0
  0
LWPOLYLINE
  5
2E4
330
70
100
AcDbEntity
  8
Bemaßung
 62
     7
370
     9
100
AcDbPolyline
 90
        4
 70
     0
 43
0.0
 10
106.7128416583006
 20
112.1019915765494
 10
106.8938695749222
 20
113.4770664373159
 10
106.5318137416796
 20
113.4770664373159
 10
106.7128416583006
 20
112.1019915765494
  0
LINE
  5
2E5
330
70
100
AcDbEntity
  8
Bemaßung
 62
     7
370
     9
100
AcDbLine
 10
106.8802876304816
 20
113.4770664373159
 30
0.0
 11
106.8802876304816
 21
113.3753958817861
 31
0.0
  0
LINE
  5
2E6
330
70
100
AcDbEntity
  8
Bemaßung
 62
     7
370
     9
100
AcDbLine
 10
106.8802876304816
 20
113.4770664373159
 30
0.0
 11
106.8802876304816
 21
113.3753958817861
 31
0.0
  0
LINE
  5
2E7
330
70
100
AcDbEntity
  8
Bemaßung
 62
     7
370
     9
100
AcDbLine
 10
106.8523476304879
 20
113.4770664373159
 30
0.0
 11
106.8523476304879
 21
113.1631294929505
 31
0.0
  0
LINE
  5
2E8
330
70
100
AcDbEntity
  8
Bemaßung
 62
     7
370
     9
100
AcDbLine
 10
106.8246016582728
 20
113.4770664373159
 30
0.0
 11
106.8246016582728
 21
112.950863104115
 31
0.0
  0
LINE
  5
2E9
330
70
100
AcDbEntity
  8
Bemaßung
 62
     7
370
     9
100
AcDbLine
 10
106.7966616582798
 20
113.4770664373159
 30
0.0
 11
106.7966616582798
 21
112.7387907430561
 31
0.0
  0
LINE
  5
2EA
330
70
100
AcDbEntity
  8
Bemaßung
 62
     7
370
     9
100
AcDbLine
 10
106.7687216582867
 20
113.4770664373159
 30
0.0
 11
106.7687216582867
 21
112.5265243542206
 31
0.0
  0
LINE
  5
2EB
330
70
100
AcDbEntity
  8
Bemaßung
 62
     7
370
     9
100
AcDbLine
 10
106.7407816582937
 20
113.4770664373159
 30
0.0
 11
106.7407816582937
 21
112.314257965385
 31
0.0
  0
LINE
  5
2EC
330
70
100
AcDbEntity
  8
Bemaßung
 62
     7
370
     9
100
AcDbLine
 10
106.7128416583006
 20
113.4770664373159
 30
0.0
 11
106.7128416583006
 21
112.1019915765494
 31
0.0
  0
LINE
  5
2ED
330
70
100
AcDbEntity
  8
Bemaßung
 62
     7
370
     9
100
AcDbLine
 10
106.5450076305649
 20
113.4770664373159
 30
0.0
 11
106.5450076305649
 21
113.3753958817861
 31
0.0
  0
LINE
  5
2EE
330
70
100
AcDbEntity
  8
Bemaßung
 62
     7
370
     9
100
AcDbLine
 10
106.5450076305649
 20
113.4770664373159
 30
0.0
 11
106.5450076305649
 21
113.3753958817861
 31
0.0
  0
LINE
  5
2EF
330
70
100
AcDbEntity
  8
Bemaßung
 62
     7
370
     9
100
AcDbLine
 10
106.5731416583353
 20
113.4770664373159
 30
0.0
 11
106.5731416583353
 21
113.1631294929505
 31
0.0
  0
LINE
  5
2F0
330
70
100
AcDbEntity
  8
Bemaßung
 62
     7
370
     9
100
AcDbLine
 10
106.6010816583284
 20
113.4770664373159
 30
0.0
 11
106.6010816583284
 21
112.950863104115
 31
0.0
  0
LINE
  5
2F1
330
70
100
AcDbEntity
  8
Bemaßung
 62
     7
370
     9
100
AcDbLine
 10
106.6290216583214
 20
113.4770664373159
 30
0.0
 11
106.6290216583214
 21
112.7387907430561
 31
0.0
  0
LINE
  5
2F2
330
70
100
AcDbEntity
  8
Bemaßung
 62
     7
370
     9
100
AcDbLine
 10
106.6569616583145
 20
113.4770664373159
 30
0.0
 11
106.6569616583145
 21
112.5265243542206
 31
0.0
  0
LINE
  5
2F3
330
70
100
AcDbEntity
  8
Bemaßung
 62
     7
370
     9
100
AcDbLine
 10
106.6849016583075
 20
113.4770664373159
 30
0.0
 11
106.6849016583075
 21
112.314257965385
 31
0.0
  0
LINE
  5
2F4
330
70
100
AcDbEntity
  8
Bemaßung
 62
     7
370
     9
100
AcDbLine
 10
106.7128416583006
 20
113.4770664373159
 30
0.0
 11
106.7128416583006
 21
112.1019915765494
 31
0.0
  0
MTEXT
  5
2F5
330
70
100
AcDbEntity
  8
Bemaßung
100
AcDbMText
 10
99.2568842215881
 20
113.1192311745875
 30
0.0
 40
0.2
 41
0.0
 46
0.0
 71
     7
 72
     1
  1
\C7;\FINDEX Univers 45 Light|b0|i0|c1;\H2.497667;\W1.000000;25
 11
0.0000000000000001
 21
1.0
 31
0.0
 73
     1
 44
1.0
  0
MTEXT
  5
2F6
330
70
100
AcDbEntity
  8
Bemaßung
100
AcDbMText
 10
106.0673319975276
 20
114.5711074542674
 30
0.0
 40
0.2
 41
0.0
 46
0.0
 71
     7
 72
     1
  1
\C7;\FINDEX Univers 45 Light|b0|i0|c1;\H2.497667;\W1.000000;18
 11
0.0000000000000001
 21
1.0
 31
0.0
 73
     1
 44
1.0
  0
ENDSEC
  0
SECTION
  2
OBJECTS
  0
DICTIONARY
  5
C
330
0
100
AcDbDictionary
281
     1
  3
ACAD_COLOR
350
63
  3
ACAD_DETAILVIEWSTYLE
350
6A
  3
ACAD_GROUP
350
D
  3
ACAD_LAYOUT
350
62
  3
ACAD_MATERIAL
350
10
  3
ACAD_MLEADERSTYLE
350
66
  3
ACAD_MLINESTYLE
350
5F
  3
ACAD_PLOTSETTINGS
350
61
  3
ACAD_PLOTSTYLENAME
350
E
  3
ACAD_SCALELIST
350
42
  3
ACAD_SECTIONVIEWSTYLE
350
68
  3
ACAD_TABLESTYLE
350
64
  3
ACAD_VISUALSTYLE
350
29
  3
ACDB_RECOMPOSE_DATA
350
2FF
  3
AcDbVariableDictionary
350
2F7
  0
DICTIONARY
  5
63
102
{ACAD_REACTORS
330
C
102
}
330
C
100
AcDbDictionary
281
     1
  0
DICTIONARY
  5
6A
102
{ACAD_REACTORS
330
C
102
}
330
C
100
AcDbDictionary
281
     1
  3
Imperial24
350
6B
  0
DICTIONARY
  5
D
102
{ACAD_REACTORS
330
C
102
}
330
C
100
AcDbDictionary
281
     1
  0
DICTIONARY
  5
62
102
{ACAD_REACTORS
330
C
102
}
330
C
100
AcDbDictionary
281
     1
  3
Layout1
350
6F
  3
Layout2
350
77
  3
Model
350
73
  0
DICTIONARY
  5
10
102
{ACAD_REACTORS
330
C
102
}
330
C
100
AcDbDictionary
281
     1
  3
ByBlock
350
19
  3
ByLayer
350
11
  3
Global
350
21
  0
DICTIONARY
  5
66
102
{ACAD_REACTORS
330
C
102
}
330
C
100
AcDbDictionary
281
     1
  3
Standard
350
67
  0
DICTIONARY
  5
5F
102
{ACAD_REACTORS
330
C
102
}
330
C
100
AcDbDictionary
281
     1
  3
Standard
350
60
  0
DICTIONARY
  5
61
102
{ACAD_REACTORS
330
C
102
}
330
C
100
AcDbDictionary
281
     1
  0
ACDBDICTIONARYWDFLT
  5
E
102
{ACAD_REACTORS
330
C
102
}
330
C
100
AcDbDictionary
281
     1
  3
Normal
350
F
100
AcDbDictionaryWithDefault
340
F
  0
DICTIONARY
  5
42
102
{ACAD_REACTORS
330
C
102
}
330
C
100
AcDbDictionary
281
     1
  3
A0
350
43
  3
A1
350
44
  3
A2
350
45
  3
A3
350
46
  3
A4
350
47
  3
A5
350
48
  3
A6
350
49
  3
A7
350
4A
  3
A8
350
4B
  3
A9
350
4C
  3
B0
350
4D
  3
B1
350
4E
  3
B2
350
4F
  3
B3
350
50
  3
B4
350
51
  3
B5
350
52
  3
B6
350
53
  0
DICTIONARY
  5
68
102
{ACAD_REACTORS
330
C
102
}
330
C
100
AcDbDictionary
281
     1
  3
Imperial24
350
69
  0
DICTIONARY
  5
64
102
{ACAD_REACTORS
330
C
102
}
330
C
100
AcDbDictionary
281
     1
  3
Standard
350
65
  0
DICTIONARY
  5
29
102
{ACAD_REACTORS
330
C
102
}
330
C
100
AcDbDictionary
281
     1
  3
2dWireframe
350
2F
  3
Basic
350
2E
  3
Brighten
350
35
  3
ColorChange
350
39
  3
Conceptual
350
32
  3
Dim
350
34
  3
EdgeColorOff
350
41
  3
Facepattern
350
38
  3
Flat
350
2A
  3
FlatWithEdges
350
2B
  3
Gouraud
350
2C
  3
GouraudWithEdges
350
2D
  3
Hidden
350
31
  3
JitterOff
350
3F
  3
Linepattern
350
37
  3
OverhangOff
350
40
  3
Realistic
350
33
  3
Shaded
350
3E
  3
Shaded with edges
350
3D
  3
Shades of Gray
350
3A
  3
Sketchy
350
3B
  3
Thicken
350
36
  3
Wireframe
350
30
  3
X-Ray
350
3C
  0
XRECORD
  5
2FF
102
{ACAD_REACTORS
330
C
102
}
330
C
100
AcDbXrecord
280
     1
 90
        1
330
65
  0
DICTIONARY
  5
2F7
102
{ACAD_REACTORS
330
C
102
}
330
C
100
AcDbDictionary
281
     1
  3
CANNOSCALE
350
2FC
  3
CMLEADERSTYLE
350
2F9
  3
CTABLESTYLE
350
2F8
  3
CVIEWDETAILSTYLE
350
2FA
  3
CVIEWSECTIONSTYLE
350
2FB
  0
ACDBDETAILVIEWSTYLE
  5
6B
102
{ACAD_REACTORS
330
6A
102
}
330
6A
100
AcDbModelDocViewStyle
 70
     0
  3
Imperial24
290
     1
300
Imperial24
 90
        0
100
AcDbDetailViewStyle
 70
     0
 71
     0
 90
        3
 71
     1
340
55
 62
   256
 40
0.24
340
0
 62
   256
 40
0.24
300

 40
0.36
280
     3
 71
     2
340
5D
 90
       25
 62
   256
 71
     3
340
55
 62
   256
 40
0.24
 90
        1
 40
0.75
 90
        1
300
%<\AcVar ViewType \f "%tc1">% %<\AcVar ViewDetailId>%\PSCALE %<\AcVar ViewScale \f "%sn">%
 71
     4
340
5D
 90
       25
 62
   256
340
5D
 90
       25
 62
   256
280
     0
  0
LAYOUT
  5
6F
102
{ACAD_REACTORS
330
62
102
}
330
62
100
AcDbPlotSettings
  1

  2

  4

  6

 40
0.0
 41
0.0
 42
0.0
 43
0.0
 44
0.0
 45
0.0
 46
0.0
 47
0.0
 48
0.0
 49
0.0
140
0.0
141
0.0
142
1.0
143
1.0
 70
   688
 72
     0
 73
     0
 74
     5
  7

 75
    16
147
1.0
 76
     0
 77
     2
 78
   300
148
0.0
149
0.0
100
AcDbLayout
  1
Layout1
 70
     1
 71
     1
 10
0.0
 20
0.0
 11
12.0
 21
9.0
 12
0.0
 22
0.0
 32
0.0
 14
0.0
 24
0.0
 34
0.0
 15
0.0
 25
0.0
 35
0.0
146
0.0
 13
0.0
 23
0.0
 33
0.0
 16
1.0
 26
0.0
 36
0.0
 17
0.0
 27
1.0
 37
0.0
 76
     0
330
6C
  0
LAYOUT
  5
77
102
{ACAD_REACTORS
330
62
102
}
330
62
100
AcDbPlotSettings
  1

  2

  4

  6

 40
0.0
 41
0.0
 42
0.0
 43
0.0
 44
0.0
 45
0.0
 46
0.0
 47
0.0
 48
0.0
 49
0.0
140
0.0
141
0.0
142
1.0
143
1.0
 70
   688
 72
     0
 73
     0
 74
     5
  7

 75
    16
147
1.0
 76
     0
 77
     2
 78
   300
148
0.0
149
0.0
100
AcDbLayout
  1
Layout2
 70
     1
 71
     2
 10
0.0
 20
0.0
 11
12.0
 21
9.0
 12
0.0
 22
0.0
 32
0.0
 14
0.0
 24
0.0
 34
0.0
 15
0.0
 25
0.0
 35
0.0
146
0.0
 13
0.0
 23
0.0
 33
0.0
 16
1.0
 26
0.0
 36
0.0
 17
0.0
 27
1.0
 37
0.0
 76
     0
330
74
  0
LAYOUT
  5
73
102
{ACAD_REACTORS
330
62
102
}
330
62
100
AcDbPlotSettings
  1

  2

  4

  6

 40
0.0
 41
0.0
 42
0.0
 43
0.0
 44
0.0
 45
0.0
 46
0.0
 47
0.0
 48
0.0
 49
0.0
140
0.0
141
0.0
142
1.0
143
1.0
 70
  1712
 72
     0
 73
     0
 74
     0
  7

 75
     0
147
1.0
 76
     0
 77
     2
 78
   300
148
0.0
149
0.0
100
AcDbLayout
  1
Model
 70
     1
 71
     0
 10
0.0
 20
0.0
 11
12.0
 21
9.0
 12
0.0
 22
0.0
 32
0.0
 14
0.0
 24
0.0
 34
0.0
 15
0.0
 25
0.0
 35
0.0
146
0.0
 13
0.0
 23
0.0
 33
0.0
 16
1.0
 26
0.0
 36
0.0
 17
0.0
 27
1.0
 37
0.0
 76
     0
330
70
  0
MATERIAL
  5
19
102
{ACAD_XDICTIONARY
360
1A
102
}
102
{ACAD_REACTORS
330
10
102
}
330
10
100
AcDbMaterial
  1
ByBlock
 72
     0
 43
0.0208333333333333
 43
0.0
 43
0.0
 43
0.0
 43
0.0
 43
0.0208333333333333
 43
0.0
 43
0.0
 43
0.0
 43
0.0
 43
1.0
 43
0.0
 43
0.0
 43
0.0
 43
0.0
 43
1.0
 77
     0
 47
0.0208333333333333
 47
0.0
 47
0.0
 47
0.0
 47
0.0
 47
0.0208333333333333
 47
0.0
 47
0.0
 47
0.0
 47
0.0
 47
1.0
 47
0.0
 47
0.0
 47
0.0
 47
0.0
 47
1.0
171
     0
 49
0.0208333333333333
 49
0.0
 49
0.0
 49
0.0
 49
0.0
 49
0.0208333333333333
 49
0.0
 49
0.0
 49
0.0
 49
0.0
 49
1.0
 49
0.0
 49
0.0
 49
0.0
 49
0.0
 49
1.0
175
     0
142
0.0208333333333333
142
0.0
142
0.0
142
0.0
142
0.0
142
0.0208333333333333
142
0.0
142
0.0
142
0.0
142
0.0
142
1.0
142
0.0
142
0.0
142
0.0
142
0.0
142
1.0
179
     0
144
0.0208333333333333
144
0.0
144
0.0
144
0.0
144
0.0
144
0.0208333333333333
144
0.0
144
0.0
144
0.0
144
0.0
144
1.0
144
0.0
144
0.0
144
0.0
144
0.0
144
1.0
147
0.0208333333333333
147
0.0
147
0.0
147
0.0
147
0.0
147
0.0208333333333333
147
0.0
147
0.0
147
0.0
147
0.0
147
1.0
147
0.0
147
0.0
147
0.0
147
0.0
147
1.0
  0
MATERIAL
  5
11
102
{ACAD_XDICTIONARY
360
12
102
}
102
{ACAD_REACTORS
330
10
102
}
330
10
100
AcDbMaterial
  1
ByLayer
 72
     0
 43
0.0208333333333333
 43
0.0
 43
0.0
 43
0.0
 43
0.0
 43
0.0208333333333333
 43
0.0
 43
0.0
 43
0.0
 43
0.0
 43
1.0
 43
0.0
 43
0.0
 43
0.0
 43
0.0
 43
1.0
 77
     0
 47
0.0208333333333333
 47
0.0
 47
0.0
 47
0.0
 47
0.0
 47
0.0208333333333333
 47
0.0
 47
0.0
 47
0.0
 47
0.0
 47
1.0
 47
0.0
 47
0.0
 47
0.0
 47
0.0
 47
1.0
171
     0
 49
0.0208333333333333
 49
0.0
 49
0.0
 49
0.0
 49
0.0
 49
0.0208333333333333
 49
0.0
 49
0.0
 49
0.0
 49
0.0
 49
1.0
 49
0.0
 49
0.0
 49
0.0
 49
0.0
 49
1.0
175
     0
142
0.0208333333333333
142
0.0
142
0.0
142
0.0
142
0.0
142
0.0208333333333333
142
0.0
142
0.0
142
0.0
142
0.0
142
1.0
142
0.0
142
0.0
142
0.0
142
0.0
142
1.0
179
     0
144
0.0208333333333333
144
0.0
144
0.0
144
0.0
144
0.0
144
0.0208333333333333
144
0.0
144
0.0
144
0.0
144
0.0
144
1.0
144
0.0
144
0.0
144
0.0
144
0.0
144
1.0
147
0.0208333333333333
147
0.0
147
0.0
147
0.0
147
0.0
147
0.0208333333333333
147
0.0
147
0.0
147
0.0
147
0.0
147
1.0
147
0.0
147
0.0
147
0.0
147
0.0
147
1.0
  0
MATERIAL
  5
21
102
{ACAD_XDICTIONARY
360
22
102
}
102
{ACAD_REACTORS
330
10
102
}
330
10
100
AcDbMaterial
  1
Global
 72
     0
 43
0.0208333333333333
 43
0.0
 43
0.0
 43
0.0
 43
0.0
 43
0.0208333333333333
 43
0.0
 43
0.0
 43
0.0
 43
0.0
 43
1.0
 43
0.0
 43
0.0
 43
0.0
 43
0.0
 43
1.0
 77
     0
 47
0.0208333333333333
 47
0.0
 47
0.0
 47
0.0
 47
0.0
 47
0.0208333333333333
 47
0.0
 47
0.0
 47
0.0
 47
0.0
 47
1.0
 47
0.0
 47
0.0
 47
0.0
 47
0.0
 47
1.0
171
     0
 49
0.0208333333333333
 49
0.0
 49
0.0
 49
0.0
 49
0.0
 49
0.0208333333333333
 49
0.0
 49
0.0
 49
0.0
 49
0.0
 49
1.0
 49
0.0
 49
0.0
 49
0.0
 49
0.0
 49
1.0
175
     0
142
0.0208333333333333
142
0.0
142
0.0
142
0.0
142
0.0
142
0.0208333333333333
142
0.0
142
0.0
142
0.0
142
0.0
142
1.0
142
0.0
142
0.0
142
0.0
142
0.0
142
1.0
179
     0
144
0.0208333333333333
144
0.0
144
0.0
144
0.0
144
0.0
144
0.0208333333333333
144
0.0
144
0.0
144
0.0
144
0.0
144
1.0
144
0.0
144
0.0
144
0.0
144
0.0
144
1.0
147
0.0208333333333333
147
0.0
147
0.0
147
0.0
147
0.0
147
0.0208333333333333
147
0.0
147
0.0
147
0.0
147
0.0
147
1.0
147
0.0
147
0.0
147
0.0
147
0.0
147
1.0
  0
MLEADERSTYLE
  5
67
102
{ACAD_REACTORS
330
66
102
}
330
66
100
AcDbMLeaderStyle
179
     2
170
     2
171
     1
172
     0
 90
        2
 40
0.0
 41
0.0
173
     1
 91
-1056964608
340
5B
 92
       -2
290
     1
 42
0.09
291
     1
 43
0.36
  3
Standard
 44
0.18
300

342
55
174
     1
178
     6
175
     1
176
     0
 93
-1056964608
 45
0.18
292
     0
297
     0
 46
0.18
 94
-1056964608
 47
1.0
 49
1.0
140
1.0
293
     1
141
0.0
294
     1
177
     0
142
1.0
295
     1
296
     0
143
0.125
271
     0
272
     9
273
     9
298
     1
  0
MLINESTYLE
  5
60
102
{ACAD_REACTORS
330
5F
102
}
330
5F
100
AcDbMlineStyle
  2
STANDARD
 70
     0
  3

 62
   256
 51
90.0
 52
90.0
 71
     2
 49
0.5
 62
   256
  6
BYLAYER
 49
-0.5
 62
   256
  6
BYLAYER
  0
ACDBPLACEHOLDER
  5
F
102
{ACAD_REACTORS
330
E
102
}
330
E
  0
SCALE
  5
43
102
{ACAD_REACTORS
330
42
102
}
330
42
100
AcDbScale
 70
     0
300
1:1
140
1.0
141
1.0
290
     1
  0
SCALE
  5
44
102
{ACAD_REACTORS
330
42
102
}
330
42
100
AcDbScale
 70
     0
300
1/128" = 1'-0"
140
0.0078125
141
12.0
290
     0
  0
SCALE
  5
45
102
{ACAD_REACTORS
330
42
102
}
330
42
100
AcDbScale
 70
     0
300
1/64" = 1'-0"
140
0.015625
141
12.0
290
     0
  0
SCALE
  5
46
102
{ACAD_REACTORS
330
42
102
}
330
42
100
AcDbScale
 70
     0
300
1/32" = 1'-0"
140
0.03125
141
12.0
290
     0
  0
SCALE
  5
47
102
{ACAD_REACTORS
330
42
102
}
330
42
100
AcDbScale
 70
     0
300
1/16" = 1'-0"
140
0.0625
141
12.0
290
     0
  0
SCALE
  5
48
102
{ACAD_REACTORS
330
42
102
}
330
42
100
AcDbScale
 70
     0
300
3/32" = 1'-0"
140
0.09375
141
12.0
290
     0
  0
SCALE
  5
49
102
{ACAD_REACTORS
330
42
102
}
330
42
100
AcDbScale
 70
     0
300
1/8" = 1'-0"
140
0.125
141
12.0
290
     0
  0
SCALE
  5
4A
102
{ACAD_REACTORS
330
42
102
}
330
42
100
AcDbScale
 70
     0
300
3/16" = 1'-0"
140
0.1875
141
12.0
290
     0
  0
SCALE
  5
4B
102
{ACAD_REACTORS
330
42
102
}
330
42
100
AcDbScale
 70
     0
300
1/4" = 1'-0"
140
0.25
141
12.0
290
     0
  0
SCALE
  5
4C
102
{ACAD_REACTORS
330
42
102
}
330
42
100
AcDbScale
 70
     0
300
3/8" = 1'-0"
140
0.375
141
12.0
290
     0
  0
SCALE
  5
4D
102
{ACAD_REACTORS
330
42
102
}
330
42
100
AcDbScale
 70
     0
300
1/2" = 1'-0"
140
0.5
141
12.0
290
     0
  0
SCALE
  5
4E
102
{ACAD_REACTORS
330
42
102
}
330
42
100
AcDbScale
 70
     0
300
3/4" = 1'-0"
140
0.75
141
12.0
290
     0
  0
SCALE
  5
4F
102
{ACAD_REACTORS
330
42
102
}
330
42
100
AcDbScale
 70
     0
300
1" = 1'-0"
140
1.0
141
12.0
290
     0
  0
SCALE
  5
50
102
{ACAD_REACTORS
330
42
102
}
330
42
100
AcDbScale
 70
     0
300
1-1/2" = 1'-0"
140
1.5
141
12.0
290
     0
  0
SCALE
  5
51
102
{ACAD_REACTORS
330
42
102
}
330
42
100
AcDbScale
 70
     0
300
3" = 1'-0"
140
3.0
141
12.0
290
     0
  0
SCALE
  5
52
102
{ACAD_REACTORS
330
42
102
}
330
42
100
AcDbScale
 70
     0
300
6" = 1'-0"
140
6.0
141
12.0
290
     0
  0
SCALE
  5
53
102
{ACAD_REACTORS
330
42
102
}
330
42
100
AcDbScale
 70
     0
300
1'-0" = 1'-0"
140
12.0
141
12.0
290
     0
  0
ACDBSECTIONVIEWSTYLE
  5
69
102
{ACAD_REACTORS
330
68
102
}
330
68
100
AcDbModelDocViewStyle
 70
     0
  3
Imperial24
290
     1
300
Imperial24
 90
        0
100
AcDbSectionViewStyle
 70
     0
 71
     0
 90
       78
 71
     1
340
55
 62
   256
 40
0.24
340
0
340
0
 62
   256
 40
0.24
300
I, O, Q, S, X, Z
 40
0.48
 90
        3
 40
0.18
 90
        1
 71
     2
340
5D
 90
       25
 62
   256
340
5D
 90
       50
 62
   256
 40
0.24
 40
0.0
 40
0.24
 71
     3
340
55
 62
   256
 40
0.24
 90
        1
 40
0.75
 90
        1
300
%<\AcVar ViewType \f "%tc1">% %<\AcVar ViewSectionStartId>%-%<\AcVar ViewSectionEndId>%\PSCALE %<\AcVar ViewScale \f "%sn">%
 71
     4
 62
   256
 62
   257
300
ANSI31
 40
1.0
 90
        0
290
     0
290
     0
 90
        6
 40
0.0
 40
1.570796326794896
 40
0.2617993877991494
 40
1.308996938995747
 40
-0.2617993877991494
 40
1.832595714594046
  0
TABLESTYLE
  5
65
102
{ACAD_XDICTIONARY
360
2FD
102
}
102
{ACAD_REACTORS
330
64
102
}
330
64
100
AcDbTableStyle
280
     0
  3
Standard
 70
     0
 71
     0
 40
0.06
 41
0.06
280
     0
281
     0
  7
Standard
140
0.18
170
     2
 62
     0
 63
     7
283
     0
 90
      512
 91
        0
  1

274
    -2
284
     1
 64
     0
275
    -2
285
     1
 65
     0
276
    -2
286
     1
 66
     0
277
    -2
287
     1
 67
     0
278
    -2
288
     1
 68
     0
279
    -2
289
     1
 69
     0
  7
Standard
140
0.25
170
     5
 62
     0
 63
     7
283
     0
 90
      512
 91
        0
  1

274
    -2
284
     1
 64
     0
275
    -2
285
     1
 65
     0
276
    -2
286
     1
 66
     0
277
    -2
287
     1
 67
     0
278
    -2
288
     1
 68
     0
279
    -2
289
     1
 69
     0
  7
Standard
140
0.18
170
     5
 62
     0
 63
     7
283
     0
 90
      512
 91
        0
  1

274
    -2
284
     1
 64
     0
275
    -2
285
     1
 65
     0
276
    -2
286
     1
 66
     0
277
    -2
287
     1
 67
     0
278
    -2
288
     1
 68
     0
279
    -2
289
     1
 69
     0
  0
VISUALSTYLE
  5
2F
102
{ACAD_REACTORS
330
29
102
}
330
29
100
AcDbVisualStyle
  2
2dWireframe
 70
     4
177
     3
291
     0
 70
    58
 90
        0
176
     1
 90
        2
176
     1
 90
        0
176
     1
 90
        0
176
     1
 40
0.6
176
     1
 40
30.0
176
     1
 62
     7
420
 16777215
176
     1
 90
        1
176
     1
 90
        4
176
     1
 62
     7
176
     1
 62
   257
176
     1
 90
        1
176
     1
 90
        1
176
     1
 40
1.0
176
     1
 90
        0
176
     1
 62
   257
176
     1
 40
1.0
176
     1
 90
        1
176
     1
 90
        6
176
     1
 90
        2
176
     1
 62
     7
176
     1
 90
        5
176
     1
 90
        0
176
     1
 90
        0
176
     1
290
     0
176
     1
 90
        1
176
     1
 40
0.0
176
     1
 90
        0
176
     1
290
     1
176
     1
290
     1
176
     1
290
     0
176
     1
290
     0
176
     1
290
     0
176
     1
290
     0
176
     1
290
     0
176
     1
290
     0
176
     1
290
     0
176
     1
 90
       50
176
     1
 40
0.0
176
     1
 40
1.0
176
     1
 90
        0
176
     1
 62
    18
420
        0
176
     1
 90
       50
176
     1
 90
        3
176
     1
 62
     5
420
      255
176
     1
290
     0
176
     1
 90
       50
176
     1
 90
       50
176
     1
 90
       50
176
     1
290
     0
176
     1
 90
       50
176
     1
 62
   256
176
     0
 40
1.0
176
     0
 90
        2
176
     1
  1
strokes_ogs.tif
176
     1
290
     0
176
     1
 40
1.0
176
     1
 40
1.0
176
     1
  0
VISUALSTYLE
  5
2E
102
{ACAD_REACTORS
330
29
102
}
330
29
100
AcDbVisualStyle
  2
Basic
 70
     7
177
     3
291
     1
 70
    58
 90
        1
176
     1
 90
        0
176
     1
 90
        1
176
     1
 90
        0
176
     1
 40
0.6
176
     1
 40
30.0
176
     1
 62
     7
420
 16777215
176
     1
 90
        0
176
     1
 90
        4
176
     1
 62
     7
176
     1
 62
   257
176
     1
 90
        1
176
     1
 90
        1
176
     1
 40
1.0
176
     1
 90
        8
176
     1
 62
     7
176
     1
 40
1.0
176
     1
 90
        1
176
     1
 90
        6
176
     1
 90
        2
176
     1
 62
     7
176
     1
 90
        5
176
     1
 90
        0
176
     1
 90
        0
176
     1
290
     0
176
     1
 90
        1
176
     1
 40
0.0
176
     1
 90
        0
176
     1
290
     0
176
     1
290
     1
176
     1
290
     1
176
     1
290
     0
176
     1
290
     0
176
     1
290
     0
176
     1
290
     0
176
     1
290
     0
176
     1
290
     0
176
     1
 90
       50
176
     1
 40
0.0
176
     1
 40
1.0
176
     1
 90
        0
176
     1
 62
    18
420
        0
176
     1
 90
       50
176
     1
 90
        3
176
     1
 62
     5
420
      255
176
     1
290
     0
176
     1
 90
       50
176
     1
 90
       50
176
     1
 90
       50
176
     1
290
     0
176
     1
 90
       50
176
     1
 62
   256
176
     0
 40
1.0
176
     0
 90
        2
176
     1
  1
strokes_ogs.tif
176
     1
290
     0
176
     1
 40
1.0
176
     1
 40
1.0
176
     1
  0
VISUALSTYLE
  5
35
102
{ACAD_REACTORS
330
29
102
}
330
29
100
AcDbVisualStyle
  2
Brighten
 70
    12
177
     3
291
     1
 70
    58
 90
        2
176
     1
 90
        2
176
     1
 90
        0
176
     1
 90
        0
176
     1
 40
0.6
176
     1
 40
30.0
176
     1
 62
     7
420
 16777215
176
     1
 90
        1
176
     1
 90
        4
176
     1
 62
     7
176
     1
 62
   257
176
     1
 90
        1
176
     1
 90
        1
176
     1
 40
1.0
176
     1
 90
        8
176
     1
 62
     7
176
     1
 40
1.0
176
     1
 90
        1
176
     1
 90
        6
176
     1
 90
        2
176
     1
 62
     7
176
     1
 90
        5
176
     1
 90
        0
176
     1
 90
        0
176
     1
290
     0
176
     1
 90
        1
176
     1
 40
50.0
176
     1
 90
        0
176
     1
290
     0
176
     1
290
     1
176
     1
290
     1
176
     1
290
     0
176
     1
290
     0
176
     1
290
     0
176
     1
290
     0
176
     1
290
     0
176
     1
290
     0
176
     1
 90
       50
176
     1
 40
0.0
176
     1
 40
1.0
176
     1
 90
        0
176
     1
 62
    18
420
        0
176
     1
 90
       50
176
     1
 90
        3
176
     1
 62
     5
420
      255
176
     1
290
     0
176
     1
 90
       50
176
     1
 90
       50
176
     1
 90
       50
176
     1
290
     0
176
     1
 90
       50
176
     1
 62
   256
176
     0
 40
1.0
176
     0
 90
        2
176
     1
  1
strokes_ogs.tif
176
     1
290
     0
176
     1
 40
1.0
176
     1
 40
1.0
176
     1
  0
VISUALSTYLE
  5
39
102
{ACAD_REACTORS
330
29
102
}
330
29
100
AcDbVisualStyle
  2
ColorChange
 70
    16
177
     3
291
     1
 70
    58
 90
        2
176
     1
 90
        2
176
     1
 90
        3
176
     1
 90
        0
176
     1
 40
0.6
176
     1
 40
30.0
176
     1
 62
     8
420
  8421504
176
     1
 90
        1
176
     1
 90
        4
176
     1
 62
     7
176
     1
 62
   257
176
     1
 90
        1
176
     1
 90
        1
176
     1
 40
1.0
176
     1
 90
        8
176
     1
 62
     8
420
  8421504
176
     1
 40
1.0
176
     1
 90
        1
176
     1
 90
        6
176
     1
 90
        2
176
     1
 62
     7
176
     1
 90
        5
176
     1
 90
        0
176
     1
 90
        0
176
     1
290
     0
176
     1
 90
        1
176
     1
 40
0.0
176
     1
 90
        0
176
     1
290
     0
176
     1
290
     1
176
     1
290
     1
176
     1
290
     0
176
     1
290
     0
176
     1
290
     0
176
     1
290
     0
176
     1
290
     0
176
     1
290
     0
176
     1
 90
       50
176
     1
 40
0.0
176
     1
 40
1.0
176
     1
 90
        0
176
     1
 62
    18
420
        0
176
     1
 90
       50
176
     1
 90
        3
176
     1
 62
     5
420
      255
176
     1
290
     0
176
     1
 90
       50
176
     1
 90
       50
176
     1
 90
       50
176
     1
290
     0
176
     1
 90
       50
176
     1
 62
   256
176
     0
 40
1.0
176
     0
 90
        2
176
     1
  1
strokes_ogs.tif
176
     1
290
     0
176
     1
 40
1.0
176
     1
 40
1.0
176
     1
  0
VISUALSTYLE
  5
32
102
{ACAD_REACTORS
330
29
102
}
330
29
100
AcDbVisualStyle
  2
Conceptual
 70
     9
177
     3
291
     0
 70
    58
 90
        3
176
     1
 90
        2
176
     1
 90
        0
176
     1
 90
        0
176
     1
 40
0.6
176
     1
 40
30.0
176
     1
 62
     7
420
 16777215
176
     1
 90
        2
176
     1
 90
        2
176
     1
 62
     7
176
     1
 62
   257
176
     1
 90
        1
176
     1
 90
        1
176
     1
 40
179.0
176
     1
 90
        8
176
     1
 62
     7
176
     1
 40
1.0
176
     1
 90
        1
176
     1
 90
        6
176
     1
 90
        2
176
     1
 62
     7
176
     1
 90
        3
176
     1
 90
        0
176
     1
 90
        0
176
     1
290
     0
176
     1
 90
        1
176
     1
 40
0.0
176
     1
 90
        0
176
     1
290
     0
176
     1
290
     1
176
     1
290
     1
176
     1
290
     0
176
     1
290
     0
176
     1
290
     0
176
     1
290
     0
176
     1
290
     0
176
     1
290
     0
176
     1
 90
       50
176
     1
 40
0.0
176
     1
 40
1.0
176
     1
 90
        0
176
     1
 62
    18
420
        0
176
     1
 90
       50
176
     1
 90
        3
176
     1
 62
     5
420
      255
176
     1
290
     0
176
     1
 90
       50
176
     1
 90
       50
176
     1
 90
       50
176
     1
290
     0
176
     1
 90
       50
176
     1
 62
   256
176
     0
 40
1.0
176
     0
 90
        2
176
     1
  1
strokes_ogs.tif
176
     1
290
     0
176
     1
 40
1.0
176
     1
 40
1.0
176
     1
  0
VISUALSTYLE
  5
34
102
{ACAD_REACTORS
330
29
102
}
330
29
100
AcDbVisualStyle
  2
Dim
 70
    11
177
     3
291
     1
 70
    58
 90
        2
176
     1
 90
        2
176
     1
 90
        0
176
     1
 90
        0
176
     1
 40
0.6
176
     1
 40
30.0
176
     1
 62
     7
420
 16777215
176
     1
 90
        1
176
     1
 90
        4
176
     1
 62
     7
176
     1
 62
   257
176
     1
 90
        1
176
     1
 90
        1
176
     1
 40
1.0
176
     1
 90
        8
176
     1
 62
     7
176
     1
 40
1.0
176
     1
 90
        1
176
     1
 90
        6
176
     1
 90
        2
176
     1
 62
     7
176
     1
 90
        5
176
     1
 90
        0
176
     1
 90
        0
176
     1
290
     0
176
     1
 90
        1
176
     1
 40
-50.0
176
     1
 90
        0
176
     1
290
     0
176
     1
290
     1
176
     1
290
     1
176
     1
290
     0
176
     1
290
     0
176
     1
290
     0
176
     1
290
     0
176
     1
290
     0
176
     1
290
     0
176
     1
 90
       50
176
     1
 40
0.0
176
     1
 40
1.0
176
     1
 90
        0
176
     1
 62
    18
420
        0
176
     1
 90
       50
176
     1
 90
        3
176
     1
 62
     5
420
      255
176
     1
290
     0
176
     1
 90
       50
176
     1
 90
       50
176
     1
 90
       50
176
     1
290
     0
176
     1
 90
       50
176
     1
 62
   256
176
     0
 40
1.0
176
     0
 90
        2
176
     1
  1
strokes_ogs.tif
176
     1
290
     0
176
     1
 40
1.0
176
     1
 40
1.0
176
     1
  0
VISUALSTYLE
  5
41
102
{ACAD_REACTORS
330
29
102
}
330
29
100
AcDbVisualStyle
  2
EdgeColorOff
 70
    22
177
     3
291
     1
 70
    58
 90
        2
176
     0
 90
        2
176
     0
 90
        0
176
     0
 90
        0
176
     0
 40
0.6
176
     0
 40
30.0
176
     0
 62
     7
420
 16777215
176
     0
 90
        1
176
     0
 90
        4
176
     0
 62
     7
176
     0
 62
   257
176
     0
 90
        1
176
     0
 90
        1
176
     0
 40
1.0
176
     0
 90
        8
176
     2
 62
     7
176
     0
 40
1.0
176
     0
 90
        1
176
     0
 90
        6
176
     0
 90
        2
176
     0
 62
     7
176
     0
 90
        5
176
     0
 90
        0
176
     0
 90
        0
176
     0
290
     0
176
     0
 90
        1
176
     0
 40
0.0
176
     0
 90
        0
176
     0
290
     0
176
     0
290
     1
176
     0
290
     1
176
     0
290
     0
176
     0
290
     0
176
     0
290
     0
176
     0
290
     0
176
     0
290
     0
176
     0
290
     0
176
     0
 90
       50
176
     0
 40
0.0
176
     0
 40
1.0
176
     0
 90
        0
176
     0
 62
    18
420
        0
176
     0
 90
       50
176
     0
 90
        3
176
     0
 62
     5
420
      255
176
     0
290
     0
176
     0
 90
       50
176
     0
 90
       50
176
     0
 90
       50
176
     0
290
     0
176
     0
 90
       50
176
     0
 62
   256
176
     0
 40
1.0
176
     0
 90
        2
176
     0
  1
strokes_ogs.tif
176
     0
290
     0
176
     0
 40
1.0
176
     0
 40
1.0
176
     0
  0
VISUALSTYLE
  5
38
102
{ACAD_REACTORS
330
29
102
}
330
29
100
AcDbVisualStyle
  2
Facepattern
 70
    15
177
     3
291
     1
 70
    58
 90
        2
176
     1
 90
        2
176
     1
 90
        0
176
     1
 90
        0
176
     1
 40
0.6
176
     1
 40
30.0
176
     1
 62
     7
420
 16777215
176
     1
 90
        1
176
     1
 90
        4
176
     1
 62
     7
176
     1
 62
   257
176
     1
 90
        1
176
     1
 90
        1
176
     1
 40
1.0
176
     1
 90
        8
176
     1
 62
     7
176
     1
 40
1.0
176
     1
 90
        1
176
     1
 90
        6
176
     1
 90
        2
176
     1
 62
     7
176
     1
 90
        5
176
     1
 90
        0
176
     1
 90
        0
176
     1
290
     0
176
     1
 90
        1
176
     1
 40
0.0
176
     1
 90
        0
176
     1
290
     0
176
     1
290
     1
176
     1
290
     1
176
     1
290
     0
176
     1
290
     0
176
     1
290
     0
176
     1
290
     0
176
     1
290
     0
176
     1
290
     0
176
     1
 90
       50
176
     1
 40
0.0
176
     1
 40
1.0
176
     1
 90
        0
176
     1
 62
    18
420
        0
176
     1
 90
       50
176
     1
 90
        3
176
     1
 62
     5
420
      255
176
     1
290
     0
176
     1
 90
       50
176
     1
 90
       50
176
     1
 90
       50
176
     1
290
     0
176
     1
 90
       50
176
     1
 62
   256
176
     0
 40
1.0
176
     0
 90
        2
176
     1
  1
strokes_ogs.tif
176
     1
290
     0
176
     1
 40
1.0
176
     1
 40
1.0
176
     1
  0
VISUALSTYLE
  5
2A
102
{ACAD_REACTORS
330
29
102
}
330
29
100
AcDbVisualStyle
  2
Flat
 70
     0
177
     3
291
     1
 70
    58
 90
        2
176
     1
 90
        1
176
     1
 90
        1
176
     1
 90
        2
176
     1
 40
0.6
176
     1
 40
30.0
176
     1
 62
     7
420
 16777215
176
     1
 90
        0
176
     1
 90
        0
176
     1
 62
     7
176
     1
 62
   257
176
     1
 90
        1
176
     1
 90
        1
176
     1
 40
1.0
176
     1
 90
        8
176
     1
 62
     7
176
     1
 40
1.0
176
     1
 90
        1
176
     1
 90
        6
176
     1
 90
        2
176
     1
 62
     7
176
     1
 90
        5
176
     1
 90
        0
176
     1
 90
        0
176
     1
290
     0
176
     1
 90
       13
176
     1
 40
0.0
176
     1
 90
        0
176
     1
290
     0
176
     1
290
     1
176
     1
290
     1
176
     1
290
     0
176
     1
290
     0
176
     1
290
     0
176
     1
290
     0
176
     1
290
     0
176
     1
290
     0
176
     1
 90
       50
176
     1
 40
0.0
176
     1
 40
1.0
176
     1
 90
        0
176
     1
 62
    18
420
        0
176
     1
 90
       50
176
     1
 90
        3
176
     1
 62
     5
420
      255
176
     1
290
     0
176
     1
 90
       50
176
     1
 90
       50
176
     1
 90
       50
176
     1
290
     0
176
     1
 90
       50
176
     1
 62
   256
176
     0
 40
1.0
176
     0
 90
        2
176
     1
  1
strokes_ogs.tif
176
     1
290
     0
176
     1
 40
1.0
176
     1
 40
1.0
176
     1
  0
VISUALSTYLE
  5
2B
102
{ACAD_REACTORS
330
29
102
}
330
29
100
AcDbVisualStyle
  2
FlatWithEdges
 70
     1
177
     3
291
     1
 70
    58
 90
        2
176
     1
 90
        1
176
     1
 90
        1
176
     1
 90
        2
176
     1
 40
0.6
176
     1
 40
30.0
176
     1
 62
     7
420
 16777215
176
     1
 90
        1
176
     1
 90
        0
176
     1
 62
     7
176
     1
 62
   257
176
     1
 90
        1
176
     1
 90
        1
176
     1
 40
1.0
176
     1
 90
        0
176
     1
 62
   257
176
     1
 40
1.0
176
     1
 90
        1
176
     1
 90
        6
176
     1
 90
        2
176
     1
 62
     7
176
     1
 90
        5
176
     1
 90
        0
176
     1
 90
        0
176
     1
290
     0
176
     1
 90
       13
176
     1
 40
0.0
176
     1
 90
        0
176
     1
290
     0
176
     1
290
     1
176
     1
290
     1
176
     1
290
     0
176
     1
290
     0
176
     1
290
     0
176
     1
290
     0
176
     1
290
     0
176
     1
290
     0
176
     1
 90
       50
176
     1
 40
0.0
176
     1
 40
1.0
176
     1
 90
        0
176
     1
 62
    18
420
        0
176
     1
 90
       50
176
     1
 90
        3
176
     1
 62
     5
420
      255
176
     1
290
     0
176
     1
 90
       50
176
     1
 90
       50
176
     1
 90
       50
176
     1
290
     0
176
     1
 90
       50
176
     1
 62
   256
176
     0
 40
1.0
176
     0
 90
        2
176
     1
  1
strokes_ogs.tif
176
     1
290
     0
176
     1
 40
1.0
176
     1
 40
1.0
176
     1
  0
VISUALSTYLE
  5
2C
102
{ACAD_REACTORS
330
29
102
}
330
29
100
AcDbVisualStyle
  2
Gouraud
 70
     2
177
     3
291
     1
 70
    58
 90
        2
176
     1
 90
        2
176
     1
 90
        1
176
     1
 90
        2
176
     1
 40
0.6
176
     1
 40
30.0
176
     1
 62
     7
420
 16777215
176
     1
 90
        0
176
     1
 90
        0
176
     1
 62
     7
176
     1
 62
   257
176
     1
 90
        1
176
     1
 90
        1
176
     1
 40
1.0
176
     1
 90
        0
176
     1
 62
     7
176
     1
 40
1.0
176
     1
 90
        1
176
     1
 90
        6
176
     1
 90
        2
176
     1
 62
     7
176
     1
 90
        5
176
     1
 90
        0
176
     1
 90
        0
176
     1
290
     0
176
     1
 90
       13
176
     1
 40
0.0
176
     1
 90
        0
176
     1
290
     0
176
     1
290
     1
176
     1
290
     1
176
     1
290
     0
176
     1
290
     0
176
     1
290
     0
176
     1
290
     0
176
     1
290
     0
176
     1
290
     0
176
     1
 90
       50
176
     1
 40
0.0
176
     1
 40
1.0
176
     1
 90
        0
176
     1
 62
    18
420
        0
176
     1
 90
       50
176
     1
 90
        3
176
     1
 62
     5
420
      255
176
     1
290
     0
176
     1
 90
       50
176
     1
 90
       50
176
     1
 90
       50
176
     1
290
     0
176
     1
 90
       50
176
     1
 62
   256
176
     0
 40
1.0
176
     0
 90
        2
176
     1
  1
strokes_ogs.tif
176
     1
290
     0
176
     1
 40
1.0
176
     1
 40
1.0
176
     1
  0
VISUALSTYLE
  5
2D
102
{ACAD_REACTORS
330
29
102
}
330
29
100
AcDbVisualStyle
  2
GouraudWithEdges
 70
     3
177
     3
291
     1
 70
    58
 90
        2
176
     1
 90
        2
176
     1
 90
        1
176
     1
 90
        2
176
     1
 40
0.6
176
     1
 40
30.0
176
     1
 62
     7
420
 16777215
176
     1
 90
        1
176
     1
 90
        0
176
     1
 62
     7
176
     1
 62
   257
176
     1
 90
        1
176
     1
 90
        1
176
     1
 40
1.0
176
     1
 90
        0
176
     1
 62
   257
176
     1
 40
1.0
176
     1
 90
        1
176
     1
 90
        6
176
     1
 90
        2
176
     1
 62
     7
176
     1
 90
        5
176
     1
 90
        0
176
     1
 90
        0
176
     1
290
     0
176
     1
 90
       13
176
     1
 40
0.0
176
     1
 90
        0
176
     1
290
     0
176
     1
290
     1
176
     1
290
     1
176
     1
290
     0
176
     1
290
     0
176
     1
290
     0
176
     1
290
     0
176
     1
290
     0
176
     1
290
     0
176
     1
 90
       50
176
     1
 40
0.0
176
     1
 40
1.0
176
     1
 90
        0
176
     1
 62
    18
420
        0
176
     1
 90
       50
176
     1
 90
        3
176
     1
 62
     5
420
      255
176
     1
290
     0
176
     1
 90
       50
176
     1
 90
       50
176
     1
 90
       50
176
     1
290
     0
176
     1
 90
       50
176
     1
 62
   256
176
     0
 40
1.0
176
     0
 90
        2
176
     1
  1
strokes_ogs.tif
176
     1
290
     0
176
     1
 40
1.0
176
     1
 40
1.0
176
     1
  0
VISUALSTYLE
  5
31
102
{ACAD_REACTORS
330
29
102
}
330
29
100
AcDbVisualStyle
  2
Hidden
 70
     6
177
     3
291
     0
 70
    58
 90
        1
176
     1
 90
        2
176
     1
 90
        2
176
     1
 90
        0
176
     1
 40
0.6
176
     1
 40
30.0
176
     1
 62
     7
420
 16777215
176
     1
 90
        2
176
     1
 90
        2
176
     1
 62
     7
176
     1
 62
   257
176
     1
 90
        2
176
     1
 90
        1
176
     1
 40
40.0
176
     1
 90
        0
176
     1
 62
   257
176
     1
 40
1.0
176
     1
 90
        1
176
     1
 90
        6
176
     1
 90
        2
176
     1
 62
     7
176
     1
 90
        3
176
     1
 90
        0
176
     1
 90
        0
176
     1
290
     0
176
     1
 90
        1
176
     1
 40
0.0
176
     1
 90
        0
176
     1
290
     0
176
     1
290
     1
176
     1
290
     1
176
     1
290
     0
176
     1
290
     0
176
     1
290
     0
176
     1
290
     0
176
     1
290
     0
176
     1
290
     0
176
     1
 90
       50
176
     1
 40
0.0
176
     1
 40
1.0
176
     1
 90
        0
176
     1
 62
    18
420
        0
176
     1
 90
       50
176
     1
 90
        3
176
     1
 62
     5
420
      255
176
     1
290
     0
176
     1
 90
       50
176
     1
 90
       50
176
     1
 90
       50
176
     1
290
     0
176
     1
 90
       50
176
     1
 62
   256
176
     0
 40
1.0
176
     0
 90
        2
176
     1
  1
strokes_ogs.tif
176
     1
290
     0
176
     1
 40
1.0
176
     1
 40
1.0
176
     1
  0
VISUALSTYLE
  5
3F
102
{ACAD_REACTORS
330
29
102
}
330
29
100
AcDbVisualStyle
  2
JitterOff
 70
    20
177
     3
291
     1
 70
    58
 90
        2
176
     0
 90
        2
176
     0
 90
        0
176
     0
 90
        0
176
     0
 40
0.6
176
     0
 40
30.0
176
     0
 62
     7
420
 16777215
176
     0
 90
        1
176
     0
 90
        4
176
     0
 62
     7
176
     0
 62
   257
176
     0
 90
        1
176
     0
 90
        1
176
     0
 40
1.0
176
     0
 90
       10
176
     2
 62
     7
176
     0
 40
1.0
176
     0
 90
        1
176
     0
 90
        6
176
     0
 90
        2
176
     0
 62
     7
176
     0
 90
        5
176
     0
 90
        0
176
     0
 90
        0
176
     0
290
     0
176
     0
 90
        1
176
     0
 40
0.0
176
     0
 90
        0
176
     0
290
     0
176
     0
290
     1
176
     0
290
     1
176
     0
290
     0
176
     0
290
     0
176
     0
290
     0
176
     0
290
     0
176
     0
290
     0
176
     0
290
     0
176
     0
 90
       50
176
     0
 40
0.0
176
     0
 40
1.0
176
     0
 90
        0
176
     0
 62
    18
420
        0
176
     0
 90
       50
176
     0
 90
        3
176
     0
 62
     5
420
      255
176
     0
290
     0
176
     0
 90
       50
176
     0
 90
       50
176
     0
 90
       50
176
     0
290
     0
176
     0
 90
       50
176
     0
 62
   256
176
     0
 40
1.0
176
     0
 90
        2
176
     0
  1
strokes_ogs.tif
176
     0
290
     0
176
     0
 40
1.0
176
     0
 40
1.0
176
     0
  0
VISUALSTYLE
  5
37
102
{ACAD_REACTORS
330
29
102
}
330
29
100
AcDbVisualStyle
  2
Linepattern
 70
    14
177
     3
291
     1
 70
    58
 90
        2
176
     1
 90
        2
176
     1
 90
        0
176
     1
 90
        0
176
     1
 40
0.6
176
     1
 40
30.0
176
     1
 62
     7
420
 16777215
176
     1
 90
        1
176
     1
 90
        4
176
     1
 62
     7
176
     1
 62
   257
176
     1
 90
        7
176
     1
 90
        7
176
     1
 40
1.0
176
     1
 90
        8
176
     1
 62
     7
176
     1
 40
1.0
176
     1
 90
        1
176
     1
 90
        6
176
     1
 90
        2
176
     1
 62
     7
176
     1
 90
        5
176
     1
 90
        0
176
     1
 90
        0
176
     1
290
     0
176
     1
 90
        1
176
     1
 40
0.0
176
     1
 90
        0
176
     1
290
     0
176
     1
290
     1
176
     1
290
     1
176
     1
290
     0
176
     1
290
     0
176
     1
290
     0
176
     1
290
     0
176
     1
290
     0
176
     1
290
     0
176
     1
 90
       50
176
     1
 40
0.0
176
     1
 40
1.0
176
     1
 90
        0
176
     1
 62
    18
420
        0
176
     1
 90
       50
176
     1
 90
        3
176
     1
 62
     5
420
      255
176
     1
290
     0
176
     1
 90
       50
176
     1
 90
       50
176
     1
 90
       50
176
     1
290
     0
176
     1
 90
       50
176
     1
 62
   256
176
     0
 40
1.0
176
     0
 90
        2
176
     1
  1
strokes_ogs.tif
176
     1
290
     0
176
     1
 40
1.0
176
     1
 40
1.0
176
     1
  0
VISUALSTYLE
  5
40
102
{ACAD_REACTORS
330
29
102
}
330
29
100
AcDbVisualStyle
  2
OverhangOff
 70
    21
177
     3
291
     1
 70
    58
 90
        2
176
     0
 90
        2
176
     0
 90
        0
176
     0
 90
        0
176
     0
 40
0.6
176
     0
 40
30.0
176
     0
 62
     7
420
 16777215
176
     0
 90
        1
176
     0
 90
        4
176
     0
 62
     7
176
     0
 62
   257
176
     0
 90
        1
176
     0
 90
        1
176
     0
 40
1.0
176
     0
 90
        9
176
     2
 62
     7
176
     0
 40
1.0
176
     0
 90
        1
176
     0
 90
        6
176
     0
 90
        2
176
     0
 62
     7
176
     0
 90
        5
176
     0
 90
        0
176
     0
 90
        0
176
     0
290
     0
176
     0
 90
        1
176
     0
 40
0.0
176
     0
 90
        0
176
     0
290
     0
176
     0
290
     1
176
     0
290
     1
176
     0
290
     0
176
     0
290
     0
176
     0
290
     0
176
     0
290
     0
176
     0
290
     0
176
     0
290
     0
176
     0
 90
       50
176
     0
 40
0.0
176
     0
 40
1.0
176
     0
 90
        0
176
     0
 62
    18
420
        0
176
     0
 90
       50
176
     0
 90
        3
176
     0
 62
     5
420
      255
176
     0
290
     0
176
     0
 90
       50
176
     0
 90
       50
176
     0
 90
       50
176
     0
290
     0
176
     0
 90
       50
176
     0
 62
   256
176
     0
 40
1.0
176
     0
 90
        2
176
     0
  1
strokes_ogs.tif
176
     0
290
     0
176
     0
 40
1.0
176
     0
 40
1.0
176
     0
  0
VISUALSTYLE
  5
33
102
{ACAD_REACTORS
330
29
102
}
330
29
100
AcDbVisualStyle
  2
Realistic
 70
     8
177
     3
291
     0
 70
    58
 90
        2
176
     1
 90
        3
176
     1
 90
        0
176
     1
 90
        2
176
     1
 40
0.6
176
     1
 40
30.0
176
     1
 62
     7
420
 16777215
176
     1
 90
        0
176
     1
 90
        0
176
     1
 62
     7
176
     1
 62
   257
176
     1
 90
        1
176
     1
 90
        1
176
     1
 40
1.0
176
     1
 90
        8
176
     1
 62
   257
176
     1
 40
1.0
176
     1
 90
        1
176
     1
 90
        6
176
     1
 90
        2
176
     1
 62
     7
176
     1
 90
        3
176
     1
 90
        0
176
     1
 90
        0
176
     1
290
     0
176
     1
 90
       13
176
     1
 40
0.0
176
     1
 90
        0
176
     1
290
     0
176
     1
290
     1
176
     1
290
     1
176
     1
290
     0
176
     1
290
     0
176
     1
290
     0
176
     1
290
     0
176
     1
290
     0
176
     1
290
     0
176
     1
 90
       50
176
     1
 40
0.0
176
     1
 40
1.0
176
     1
 90
        0
176
     1
 62
    18
420
        0
176
     1
 90
       50
176
     1
 90
        3
176
     1
 62
     5
420
      255
176
     1
290
     0
176
     1
 90
       50
176
     1
 90
       50
176
     1
 90
       50
176
     1
290
     0
176
     1
 90
       50
176
     1
 62
   256
176
     0
 40
1.0
176
     0
 90
        2
176
     1
  1
strokes_ogs.tif
176
     1
290
     0
176
     1
 40
1.0
176
     1
 40
1.0
176
     1
  0
VISUALSTYLE
  5
3E
102
{ACAD_REACTORS
330
29
102
}
330
29
100
AcDbVisualStyle
  2
Shaded
 70
    27
177
     3
291
     0
 70
    58
 90
        2
176
     1
 90
        2
176
     1
 90
        1
176
     1
 90
        2
176
     1
 40
0.6
176
     1
 40
30.0
176
     1
 62
     7
420
 16777215
176
     1
 90
        0
176
     1
 90
        4
176
     1
 62
     7
176
     1
 62
   257
176
     1
 90
        1
176
     1
 90
        1
176
     1
 40
1.0
176
     1
 90
        8
176
     1
 62
   257
176
     1
 40
1.0
176
     1
 90
        1
176
     1
 90
        6
176
     1
 90
        2
176
     1
 62
     8
420
  7895160
176
     1
 90
        3
176
     1
 90
        0
176
     1
 90
        0
176
     1
290
     0
176
     1
 90
        5
176
     1
 40
0.0
176
     1
 90
        0
176
     1
290
     0
176
     1
290
     1
176
     1
290
     1
176
     1
290
     0
176
     1
290
     0
176
     1
290
     0
176
     1
290
     0
176
     1
290
     0
176
     1
290
     0
176
     1
 90
       50
176
     1
 40
0.0
176
     1
 40
1.0
176
     1
 90
        0
176
     1
 62
    18
420
        0
176
     1
 90
       50
176
     1
 90
        3
176
     1
 62
     5
420
      255
176
     1
290
     0
176
     1
 90
       50
176
     1
 90
       50
176
     1
 90
       50
176
     1
290
     0
176
     1
 90
       50
176
     1
 62
   256
176
     0
 40
1.0
176
     0
 90
        2
176
     1
  1
strokes_ogs.tif
176
     1
290
     0
176
     1
 40
1.0
176
     1
 40
1.0
176
     1
  0
VISUALSTYLE
  5
3D
102
{ACAD_REACTORS
330
29
102
}
330
29
100
AcDbVisualStyle
  2
Shaded with edges
 70
    26
177
     3
291
     0
 70
    58
 90
        2
176
     1
 90
        2
176
     1
 90
        1
176
     1
 90
        2
176
     1
 40
0.6
176
     1
 40
30.0
176
     1
 62
     7
420
 16777215
176
     1
 90
        1
176
     1
 90
        2
176
     1
 62
     7
176
     1
 62
   257
176
     1
 90
        2
176
     1
 90
        1
176
     1
 40
1.0
176
     1
 90
        8
176
     1
 62
   257
176
     1
 40
1.0
176
     1
 90
        1
176
     1
 90
        6
176
     1
 90
        2
176
     1
 62
     7
176
     1
 90
        3
176
     1
 90
        0
176
     1
 90
        0
176
     1
290
     0
176
     1
 90
        5
176
     1
 40
0.0
176
     1
 90
        0
176
     1
290
     0
176
     1
290
     1
176
     1
290
     1
176
     1
290
     0
176
     1
290
     0
176
     1
290
     0
176
     1
290
     0
176
     1
290
     0
176
     1
290
     0
176
     1
 90
       50
176
     1
 40
0.0
176
     1
 40
1.0
176
     1
 90
        0
176
     1
 62
    18
420
        0
176
     1
 90
       50
176
     1
 90
        3
176
     1
 62
     5
420
      255
176
     1
290
     0
176
     1
 90
       50
176
     1
 90
       50
176
     1
 90
       50
176
     1
290
     0
176
     1
 90
       50
176
     1
 62
   256
176
     0
 40
1.0
176
     0
 90
        2
176
     1
  1
strokes_ogs.tif
176
     1
290
     0
176
     1
 40
1.0
176
     1
 40
1.0
176
     1
  0
VISUALSTYLE
  5
3A
102
{ACAD_REACTORS
330
29
102
}
330
29
100
AcDbVisualStyle
  2
Shades of Gray
 70
    23
177
     3
291
     0
 70
    58
 90
        2
176
     1
 90
        2
176
     1
 90
        3
176
     1
 90
        0
176
     1
 40
0.6
176
     1
 40
30.0
176
     1
 62
     7
420
 16777215
176
     1
 90
        2
176
     1
 90
        2
176
     1
 62
     7
176
     1
 62
     7
176
     1
 90
        1
176
     1
 90
        1
176
     1
 40
40.0
176
     1
 90
        8
176
     1
 62
     7
176
     1
 40
1.0
176
     1
 90
        1
176
     1
 90
        6
176
     1
 90
        2
176
     1
 62
     7
176
     1
 90
        3
176
     1
 90
        0
176
     1
 90
        0
176
     1
290
     0
176
     1
 90
        1
176
     1
 40
0.0
176
     1
 90
        0
176
     1
290
     0
176
     1
290
     1
176
     1
290
     1
176
     1
290
     0
176
     1
290
     0
176
     1
290
     0
176
     1
290
     0
176
     1
290
     0
176
     1
290
     0
176
     1
 90
       50
176
     1
 40
0.0
176
     1
 40
1.0
176
     1
 90
        0
176
     1
 62
    18
420
        0
176
     1
 90
       50
176
     1
 90
        3
176
     1
 62
     5
420
      255
176
     1
290
     0
176
     1
 90
       50
176
     1
 90
       50
176
     1
 90
       50
176
     1
290
     0
176
     1
 90
       50
176
     1
 62
   256
176
     0
 40
1.0
176
     0
 90
        2
176
     1
  1
strokes_ogs.tif
176
     1
290
     0
176
     1
 40
1.0
176
     1
 40
1.0
176
     1
  0
VISUALSTYLE
  5
3B
102
{ACAD_REACTORS
330
29
102
}
330
29
100
AcDbVisualStyle
  2
Sketchy
 70
    24
177
     3
291
     0
 70
    58
 90
        1
176
     1
 90
        2
176
     1
 90
        2
176
     1
 90
        0
176
     1
 40
0.6
176
     1
 40
30.0
176
     1
 62
     7
420
 16777215
176
     1
 90
        2
176
     1
 90
        2
176
     1
 62
     7
176
     1
 62
     7
176
     1
 90
        1
176
     1
 90
        1
176
     1
 40
40.0
176
     1
 90
       11
176
     1
 62
     7
176
     1
 40
1.0
176
     1
 90
        1
176
     1
 90
        6
176
     1
 90
        2
176
     1
 62
     7
176
     1
 90
        6
176
     1
 90
        0
176
     1
 90
        0
176
     1
290
     0
176
     1
 90
        1
176
     1
 40
0.0
176
     1
 90
        0
176
     1
290
     0
176
     1
290
     1
176
     1
290
     1
176
     1
290
     0
176
     1
290
     0
176
     1
290
     0
176
     1
290
     0
176
     1
290
     0
176
     1
290
     0
176
     1
 90
       50
176
     1
 40
0.0
176
     1
 40
1.0
176
     1
 90
        0
176
     1
 62
    18
420
        0
176
     1
 90
       50
176
     1
 90
        3
176
     1
 62
     5
420
      255
176
     1
290
     0
176
     1
 90
       50
176
     1
 90
       50
176
     1
 90
       50
176
     1
290
     0
176
     1
 90
       50
176
     1
 62
   256
176
     0
 40
1.0
176
     0
 90
        2
176
     1
  1
strokes_ogs.tif
176
     1
290
     0
176
     1
 40
1.0
176
     1
 40
1.0
176
     1
  0
VISUALSTYLE
  5
36
102
{ACAD_REACTORS
330
29
102
}
330
29
100
AcDbVisualStyle
  2
Thicken
 70
    13
177
     3
291
     1
 70
    58
 90
        2
176
     1
 90
        2
176
     1
 90
        0
176
     1
 90
        0
176
     1
 40
0.6
176
     1
 40
30.0
176
     1
 62
     7
420
 16777215
176
     1
 90
        1
176
     1
 90
        4
176
     1
 62
     7
176
     1
 62
   257
176
     1
 90
        1
176
     1
 90
        1
176
     1
 40
1.0
176
     1
 90
       12
176
     1
 62
     7
176
     1
 40
1.0
176
     1
 90
        1
176
     1
 90
        6
176
     1
 90
        2
176
     1
 62
     7
176
     1
 90
        5
176
     1
 90
        0
176
     1
 90
        0
176
     1
290
     0
176
     1
 90
        1
176
     1
 40
0.0
176
     1
 90
        0
176
     1
290
     0
176
     1
290
     1
176
     1
290
     1
176
     1
290
     0
176
     1
290
     0
176
     1
290
     0
176
     1
290
     0
176
     1
290
     0
176
     1
290
     0
176
     1
 90
       50
176
     1
 40
0.0
176
     1
 40
1.0
176
     1
 90
        0
176
     1
 62
    18
420
        0
176
     1
 90
       50
176
     1
 90
        3
176
     1
 62
     5
420
      255
176
     1
290
     0
176
     1
 90
       50
176
     1
 90
       50
176
     1
 90
       50
176
     1
290
     0
176
     1
 90
       50
176
     1
 62
   256
176
     0
 40
1.0
176
     0
 90
        2
176
     1
  1
strokes_ogs.tif
176
     1
290
     0
176
     1
 40
1.0
176
     1
 40
1.0
176
     1
  0
VISUALSTYLE
  5
30
102
{ACAD_REACTORS
330
29
102
}
330
29
100
AcDbVisualStyle
  2
Wireframe
 70
     5
177
     3
291
     0
 70
    58
 90
        0
176
     1
 90
        2
176
     1
 90
        0
176
     1
 90
        0
176
     1
 40
0.6
176
     1
 40
30.0
176
     1
 62
     7
420
 16777215
176
     1
 90
        1
176
     1
 90
        4
176
     1
 62
     7
176
     1
 62
   257
176
     1
 90
        1
176
     1
 90
        1
176
     1
 40
1.0
176
     1
 90
        0
176
     1
 62
   257
176
     1
 40
1.0
176
     1
 90
        1
176
     1
 90
        6
176
     1
 90
        2
176
     1
 62
     7
176
     1
 90
        3
176
     1
 90
        0
176
     1
 90
        0
176
     1
290
     0
176
     1
 90
        1
176
     1
 40
0.0
176
     1
 90
        0
176
     1
290
     0
176
     1
290
     1
176
     1
290
     1
176
     1
290
     0
176
     1
290
     0
176
     1
290
     0
176
     1
290
     0
176
     1
290
     0
176
     1
290
     0
176
     1
 90
       50
176
     1
 40
0.0
176
     1
 40
1.0
176
     1
 90
        0
176
     1
 62
    18
420
        0
176
     1
 90
       50
176
     1
 90
        3
176
     1
 62
     5
420
      255
176
     1
290
     0
176
     1
 90
       50
176
     1
 90
       50
176
     1
 90
       50
176
     1
290
     0
176
     1
 90
       50
176
     1
 62
   256
176
     0
 40
1.0
176
     0
 90
        2
176
     1
  1
strokes_ogs.tif
176
     1
290
     0
176
     1
 40
1.0
176
     1
 40
1.0
176
     1
  0
VISUALSTYLE
  5
3C
102
{ACAD_REACTORS
330
29
102
}
330
29
100
AcDbVisualStyle
  2
X-Ray
 70
    25
177
     3
291
     0
 70
    58
 90
        2
176
     1
 90
        2
176
     1
 90
        1
176
     1
 90
        1
176
     1
 40
0.5
176
     1
 40
30.0
176
     1
 62
     7
420
 16777215
176
     1
 90
        1
176
     1
 90
        0
176
     1
 62
     7
176
     1
 62
   257
176
     1
 90
        1
176
     1
 90
        1
176
     1
 40
1.0
176
     1
 90
        8
176
     1
 62
     7
176
     1
 40
1.0
176
     1
 90
        1
176
     1
 90
        6
176
     1
 90
        2
176
     1
 62
     7
176
     1
 90
        3
176
     1
 90
        0
176
     1
 90
        0
176
     1
290
     0
176
     1
 90
       13
176
     1
 40
0.0
176
     1
 90
        0
176
     1
290
     0
176
     1
290
     1
176
     1
290
     1
176
     1
290
     0
176
     1
290
     0
176
     1
290
     0
176
     1
290
     0
176
     1
290
     0
176
     1
290
     0
176
     1
 90
       50
176
     1
 40
0.0
176
     1
 40
1.0
176
     1
 90
        0
176
     1
 62
    18
420
        0
176
     1
 90
       50
176
     1
 90
        3
176
     1
 62
     5
420
      255
176
     1
290
     0
176
     1
 90
       50
176
     1
 90
       50
176
     1
 90
       50
176
     1
290
     0
176
     1
 90
       50
176
     1
 62
   256
176
     0
 40
1.0
176
     0
 90
        2
176
     1
  1
strokes_ogs.tif
176
     1
290
     0
176
     1
 40
1.0
176
     1
 40
1.0
176
     1
  0
DICTIONARYVAR
  5
2FC
102
{ACAD_REACTORS
330
2F7
102
}
330
2F7
100
DictionaryVariables
280
     0
  1
1:1
  0
DICTIONARYVAR
  5
2F9
102
{ACAD_REACTORS
330
2F7
102
}
330
2F7
100
DictionaryVariables
280
     0
  1
STANDARD
  0
DICTIONARYVAR
  5
2F8
102
{ACAD_REACTORS
330
2F7
102
}
330
2F7
100
DictionaryVariables
280
     0
  1
STANDARD
  0
DICTIONARYVAR
  5
2FA
102
{ACAD_REACTORS
330
2F7
102
}
330
2F7
100
DictionaryVariables
280
     0
  1
Imperial24
  0
DICTIONARYVAR
  5
2FB
102
{ACAD_REACTORS
330
2F7
102
}
330
2F7
100
DictionaryVariables
280
     0
  1
Imperial24
  0
DICTIONARY
  5
1A
330
19
100
AcDbDictionary
280
     1
281
     1
  3
BUMPTILE
360
1C
  3
DIFFUSETILE
360
1B
  3
OPACITYTILE
360
1F
  3
REFLECTIONTILE
360
1E
  3
REFRACTIONTILE
360
20
  3
SPECULARTILE
360
1D
  0
DICTIONARY
  5
12
330
11
100
AcDbDictionary
280
     1
281
     1
  3
BUMPTILE
360
14
  3
DIFFUSETILE
360
13
  3
OPACITYTILE
360
17
  3
REFLECTIONTILE
360
16
  3
REFRACTIONTILE
360
18
  3
SPECULARTILE
360
15
  0
DICTIONARY
  5
22
330
21
100
AcDbDictionary
280
     1
281
     1
  3
BUMPTILE
360
24
  3
DIFFUSETILE
360
23
  3
OPACITYTILE
360
27
  3
REFLECTIONTILE
360
26
  3
REFRACTIONTILE
360
28
  3
SPECULARTILE
360
25
  0
DICTIONARY
  5
2FD
330
65
100
AcDbDictionary
280
     1
281
     1
  3
ACAD_ROUNDTRIP_2008_TABLESTYLE_CELLSTYLEMAP
360
2FE
  0
XRECORD
  5
1C
102
{ACAD_REACTORS
330
1A
102
}
330
1A
100
AcDbXrecord
280
     1
270
     1
271
     1
  0
XRECORD
  5
1B
102
{ACAD_REACTORS
330
1A
102
}
330
1A
100
AcDbXrecord
280
     1
270
     1
271
     1
  0
XRECORD
  5
1F
102
{ACAD_REACTORS
330
1A
102
}
330
1A
100
AcDbXrecord
280
     1
270
     1
271
     1
  0
XRECORD
  5
1E
102
{ACAD_REACTORS
330
1A
102
}
330
1A
100
AcDbXrecord
280
     1
270
     1
271
     1
  0
XRECORD
  5
20
102
{ACAD_REACTORS
330
1A
102
}
330
1A
100
AcDbXrecord
280
     1
270
     1
271
     1
  0
XRECORD
  5
1D
102
{ACAD_REACTORS
330
1A
102
}
330
1A
100
AcDbXrecord
280
     1
270
     1
271
     1
  0
XRECORD
  5
14
102
{ACAD_REACTORS
330
12
102
}
330
12
100
AcDbXrecord
280
     1
270
     1
271
     1
  0
XRECORD
  5
13
102
{ACAD_REACTORS
330
12
102
}
330
12
100
AcDbXrecord
280
     1
270
     1
271
     1
  0
XRECORD
  5
17
102
{ACAD_REACTORS
330
12
102
}
330
12
100
AcDbXrecord
280
     1
270
     1
271
     1
  0
XRECORD
  5
16
102
{ACAD_REACTORS
330
12
102
}
330
12
100
AcDbXrecord
280
     1
270
     1
271
     1
  0
XRECORD
  5
18
102
{ACAD_REACTORS
330
12
102
}
330
12
100
AcDbXrecord
280
     1
270
     1
271
     1
  0
XRECORD
  5
15
102
{ACAD_REACTORS
330
12
102
}
330
12
100
AcDbXrecord
280
     1
270
     1
271
     1
  0
XRECORD
  5
24
102
{ACAD_REACTORS
330
22
102
}
330
22
100
AcDbXrecord
280
     1
270
     1
271
     1
  0
XRECORD
  5
23
102
{ACAD_REACTORS
330
22
102
}
330
22
100
AcDbXrecord
280
     1
270
     1
271
     1
  0
XRECORD
  5
27
102
{ACAD_REACTORS
330
22
102
}
330
22
100
AcDbXrecord
280
     1
270
     1
271
     1
  0
XRECORD
  5
26
102
{ACAD_REACTORS
330
22
102
}
330
22
100
AcDbXrecord
280
     1
270
     1
271
     1
  0
XRECORD
  5
28
102
{ACAD_REACTORS
330
22
102
}
330
22
100
AcDbXrecord
280
     1
270
     1
271
     1
  0
XRECORD
  5
25
102
{ACAD_REACTORS
330
22
102
}
330
22
100
AcDbXrecord
280
     1
270
     1
271
     1
  0
CELLSTYLEMAP
  5
2FE
102
{ACAD_REACTORS
330
2FD
102
}
330
2FD
100
AcDbCellStyleMap
 90
        3
300
CELLSTYLE
  1
TABLEFORMAT_BEGIN
 90
        5
170
     1
 91
        0
 92
    32768
 62
   257
 93
        1
300
CONTENTFORMAT
  1
CONTENTFORMAT_BEGIN
 90
        0
 91
        0
 92
      512
 93
        0
300

 40
0.0
140
1.0
 94
        5
 62
     0
340
55
144
0.25
309
CONTENTFORMAT_END
171
     0
 94
        0
309
TABLEFORMAT_END
  1
CELLSTYLE_BEGIN
 90
        1
 91
        1
300
_TITLE
309
CELLSTYLE_END
300
CELLSTYLE
  1
TABLEFORMAT_BEGIN
 90
        5
170
     1
 91
        0
 92
        0
 62
   257
 93
        1
300
CONTENTFORMAT
  1
CONTENTFORMAT_BEGIN
 90
        0
 91
        0
 92
      512
 93
        0
300

 40
0.0
140
1.0
 94
        5
 62
     0
340
55
144
0.18
309
CONTENTFORMAT_END
171
     0
 94
        0
309
TABLEFORMAT_END
  1
CELLSTYLE_BEGIN
 90
        2
 91
        1
300
_HEADER
309
CELLSTYLE_END
300
CELLSTYLE
  1
TABLEFORMAT_BEGIN
 90
        5
170
     1
 91
        0
 92
        0
 62
   257
 93
        1
300
CONTENTFORMAT
  1
CONTENTFORMAT_BEGIN
 90
        0
 91
        0
 92
      512
 93
        0
300

 40
0.0
140
1.0
 94
        2
 62
     0
340
55
144
0.18
309
CONTENTFORMAT_END
171
     0
 94
        0
309
TABLEFORMAT_END
  1
CELLSTYLE_BEGIN
 90
        3
 91
        2
300
_DATA
309
CELLSTYLE_END
  0
ENDSEC
  0
EOF
