  0
SECTION
  2
HEADER
  9
$ACADVER
  1
AC1014
  9
$ACADMAINTVER
 70
     9
  9
$DWGCODEPAGE
  3
ANSI_1252
  9
$INSBASE
 10
0.0
 20
0.0
 30
0.0
  9
$EXTMIN
 10
1.000000000000000E+20
 20
1.000000000000000E+20
 30
1.000000000000000E+20
  9
$EXTMAX
 10
-1.000000000000000E+20
 20
-1.000000000000000E+20
 30
-1.000000000000000E+20
  9
$LIMMIN
 10
0.0
 20
0.0
  9
$LIMMAX
 10
12.0
 20
9.0
  9
$ORTHOMODE
 70
     0
  9
$REGENMODE
 70
     1
  9
$FILLMODE
 70
     1
  9
$QTEXTMODE
 70
     0
  9
$MIRRTEXT
 70
     1
  9
$DRAGMODE
 70
     2
  9
$LTSCALE
 40
1.0
  9
$OSMODE
 70
    37
  9
$ATTMODE
 70
     1
  9
$TEXTSIZE
 40
0.2
  9
$TRACEWID
 40
0.05
  9
$TEXTSTYLE
  7
STANDARD
  9
$CLAYER
  8
0
  9
$CELTYPE
  6
BYLAYER
  9
$CECOLOR
 62
   256
  9
$CELTSCALE
 40
1.0
  9
$DELOBJ
 70
     1
  9
$DISPSILH
 70
     0
  9
$DIMSCALE
 40
1.0
  9
$DIMASZ
 40
0.18
  9
$DIMEXO
 40
0.0625
  9
$DIMDLI
 40
0.38
  9
$DIMRND
 40
0.0
  9
$DIMDLE
 40
0.0
  9
$DIMEXE
 40
0.18
  9
$DIMTP
 40
0.0
  9
$DIMTM
 40
0.0
  9
$DIMTXT
 40
0.18
  9
$DIMCEN
 40
0.09
  9
$DIMTSZ
 40
0.0
  9
$DIMTOL
 70
     0
  9
$DIMLIM
 70
     0
  9
$DIMTIH
 70
     1
  9
$DIMTOH
 70
     1
  9
$DIMSE1
 70
     0
  9
$DIMSE2
 70
     0
  9
$DIMTAD
 70
     0
  9
$DIMZIN
 70
     0
  9
$DIMBLK
  1

  9
$DIMASO
 70
     1
  9
$DIMSHO
 70
     1
  9
$DIMPOST
  1

  9
$DIMAPOST
  1

  9
$DIMALT
 70
     0
  9
$DIMALTD
 70
     2
  9
$DIMALTF
 40
25.4
  9
$DIMLFAC
 40
1.0
  9
$DIMTOFL
 70
     0
  9
$DIMTVP
 40
0.0
  9
$DIMTIX
 70
     0
  9
$DIMSOXD
 70
     0
  9
$DIMSAH
 70
     0
  9
$DIMBLK1
  1

  9
$DIMBLK2
  1

  9
$DIMSTYLE
  2
STANDARD
  9
$DIMCLRD
 70
     0
  9
$DIMCLRE
 70
     0
  9
$DIMCLRT
 70
     0
  9
$DIMTFAC
 40
1.0
  9
$DIMGAP
 40
0.09
  9
$DIMJUST
 70
     0
  9
$DIMSD1
 70
     0
  9
$DIMSD2
 70
     0
  9
$DIMTOLJ
 70
     1
  9
$DIMTZIN
 70
     0
  9
$DIMALTZ
 70
     0
  9
$DIMALTTZ
 70
     0
  9
$DIMFIT
 70
     3
  9
$DIMUPT
 70
     0
  9
$DIMUNIT
 70
     2
  9
$DIMDEC
 70
     4
  9
$DIMTDEC
 70
     4
  9
$DIMALTU
 70
     2
  9
$DIMALTTD
 70
     2
  9
$DIMTXSTY
  7
STANDARD
  9
$DIMAUNIT
 70
     0
  9
$LUNITS
 70
     2
  9
$LUPREC
 70
     4
  9
$SKETCHINC
 40
0.1
  9
$FILLETRAD
 40
0.5
  9
$AUNITS
 70
     0
  9
$AUPREC
 70
     0
  9
$MENU
  1
.
  9
$ELEVATION
 40
0.0
  9
$PELEVATION
 40
0.0
  9
$THICKNESS
 40
0.0
  9
$LIMCHECK
 70
     0
  9
$CHAMFERA
 40
0.5
  9
$CHAMFERB
 40
0.5
  9
$CHAMFERC
 40
1.0
  9
$CHAMFERD
 40
0.0
  9
$SKPOLY
 70
     0
  9
$TDCREATE
 40
2458340.363915509
  9
$TDUPDATE
 40
2458340.363915521
  9
$TDINDWG
 40
0.0000000116
  9
$TDUSRTIMER
 40
0.0000000116
  9
$USRTIMER
 70
     1
  9
$ANGBASE
 50
0.0
  9
$ANGDIR
 70
     0
  9
$PDMODE
 70
     0
  9
$PDSIZE
 40
0.0
  9
$PLINEWID
 40
0.0
  9
$COORDS
 70
     1
  9
$SPLFRAME
 70
     0
  9
$SPLINETYPE
 70
     6
  9
$SPLINESEGS
 70
     8
  9
$ATTDIA
 70
     0
  9
$ATTREQ
 70
     1
  9
$HANDLING
 70
     1
  9
$HANDSEED
  5
927
  9
$SURFTAB1
 70
     6
  9
$SURFTAB2
 70
     6
  9
$SURFTYPE
 70
     6
  9
$SURFU
 70
     6
  9
$SURFV
 70
     6
  9
$UCSNAME
  2

  9
$UCSORG
 10
0.0
 20
0.0
 30
0.0
  9
$UCSXDIR
 10
1.0
 20
0.0
 30
0.0
  9
$UCSYDIR
 10
0.0
 20
1.0
 30
0.0
  9
$PUCSNAME
  2

  9
$PUCSORG
 10
0.0
 20
0.0
 30
0.0
  9
$PUCSXDIR
 10
1.0
 20
0.0
 30
0.0
  9
$PUCSYDIR
 10
0.0
 20
1.0
 30
0.0
  9
$USERI1
 70
     0
  9
$USERI2
 70
     0
  9
$USERI3
 70
     0
  9
$USERI4
 70
     0
  9
$USERI5
 70
     0
  9
$USERR1
 40
0.0
  9
$USERR2
 40
0.0
  9
$USERR3
 40
0.0
  9
$USERR4
 40
0.0
  9
$USERR5
 40
0.0
  9
$WORLDVIEW
 70
     1
  9
$SHADEDGE
 70
     3
  9
$SHADEDIF
 70
    70
  9
$TILEMODE
 70
     1
  9
$MAXACTVP
 70
    64
  9
$PINSBASE
 10
0.0
 20
0.0
 30
0.0
  9
$PLIMCHECK
 70
     0
  9
$PEXTMIN
 10
1.000000000000000E+20
 20
1.000000000000000E+20
 30
1.000000000000000E+20
  9
$PEXTMAX
 10
-1.000000000000000E+20
 20
-1.000000000000000E+20
 30
-1.000000000000000E+20
  9
$PLIMMIN
 10
0.0
 20
0.0
  9
$PLIMMAX
 10
12.0
 20
9.0
  9
$UNITMODE
 70
     0
  9
$VISRETAIN
 70
     1
  9
$PLINEGEN
 70
     0
  9
$PSLTSCALE
 70
     1
  9
$TREEDEPTH
 70
  3020
  9
$PICKSTYLE
 70
     1
  9
$CMLSTYLE
  2
STANDARD
  9
$CMLJUST
 70
     0
  9
$CMLSCALE
 40
1.0
  9
$PROXYGRAPHICS
 70
     1
  9
$MEASUREMENT
 70
     0
  0
ENDSEC
  0
SECTION
  2
CLASSES
  0
CLASS
  1
ACDBDICTIONARYWDFLT
  2
AcDbDictionaryWithDefault
  3
ObjectDBX Classes
 90
        0
280
     0
281
     0
  0
CLASS
  1
VISUALSTYLE
  2
AcDbVisualStyle
  3
ObjectDBX Classes
 90
     4095
280
     0
281
     0
  0
CLASS
  1
XRECORD
  2
AcDbXrecord
  3
AutoCAD 2000
 90
        0
280
     0
281
     0
  0
CLASS
  1
LWPOLYLINE
  2
AcDbPolyline
  3
AutoCAD 2000
 90
        0
280
     0
281
     1
  0
CLASS
  1
HATCH
  2
AcDbHatch
  3
AutoCAD 2000
 90
        0
280
     0
281
     1
  0
CLASS
  1
ACDBPLACEHOLDER
  2
AcDbPlaceHolder
  3
ObjectDBX Classes
 90
        0
280
     0
281
     0
  0
CLASS
  1
LAYOUT
  2
AcDbLayout
  3
ObjectDBX Classes
 90
        0
280
     0
281
     0
  0
ENDSEC
  0
SECTION
  2
TABLES
  0
TABLE
  2
VPORT
  5
8
330
0
100
AcDbSymbolTable
 70
     1
  0
VPORT
  5
29
330
8
100
AcDbSymbolTableRecord
100
AcDbViewportTableRecord
  2
*ACTIVE
 70
     0
 10
0.0
 20
0.0
 11
1.0
 21
1.0
 12
0.0
 22
0.0
 13
0.0
 23
0.0
 14
0.5
 24
0.5
 15
0.5
 25
0.5
 16
0.0
 26
0.0
 36
1.0
 17
100.0619370952102
 27
127.0193786303545
 37
0.0
 40
297.0001314904201
 41
0.7070759562020681
 42
50.0
 43
0.0
 44
0.0
 50
0.0
 51
0.0
 71
     0
 72
   100
 73
     1
 74
     3
 75
     0
 76
     0
 77
     0
 78
     0
  0
ENDTAB
  0
TABLE
  2
LTYPE
  5
5
330
0
100
AcDbSymbolTable
 70
     2
  0
LTYPE
  5
14
330
5
100
AcDbSymbolTableRecord
100
AcDbLinetypeTableRecord
  2
BYBLOCK
 70
     0
  3

 72
    65
 73
     0
 40
0.0
  0
LTYPE
  5
15
330
5
100
AcDbSymbolTableRecord
100
AcDbLinetypeTableRecord
  2
BYLAYER
 70
     0
  3

 72
    65
 73
     0
 40
0.0
  0
LTYPE
  5
16
330
5
100
AcDbSymbolTableRecord
100
AcDbLinetypeTableRecord
  2
CONTINUOUS
 70
     0
  3
Solid line
 72
    65
 73
     0
 40
0.0
  0
LTYPE
  5
42
330
5
100
AcDbSymbolTableRecord
100
AcDbLinetypeTableRecord
  2
AI-LINETYPE-1
 70
     0
  3
Adobe Illustrator Linetype No. 1
 72
    65
 73
     4
 40
8.819444442239584
 49
7.055555553791667
 74
     0
 49
-0.7055555553791667
 74
     0
 49
0.3527777776895833
 74
     0
 49
-0.7055555553791667
 74
     0
  0
ENDTAB
  0
TABLE
  2
LAYER
  5
2
330
0
100
AcDbSymbolTable
 70
     5
  0
LAYER
  5
10
330
2
100
AcDbSymbolTableRecord
100
AcDbLayerTableRecord
  2
0
 70
     0
 62
     7
  6
CONTINUOUS
  0
LAYER
  5
3B
330
2
100
AcDbSymbolTableRecord
100
AcDbLayerTableRecord
  2
GRAU_10_
 70
     0
 62
     7
  6
CONTINUOUS
  0
LAYER
  5
DB
330
2
100
AcDbSymbolTableRecord
100
AcDbLayerTableRecord
  2
STANDARDEBENE
 70
     0
 62
     7
  6
CONTINUOUS
  0
LAYER
  5
4D5
330
2
100
AcDbSymbolTableRecord
100
AcDbLayerTableRecord
  2
BEMAßUNG
 70
     1
 62
     7
  6
CONTINUOUS
  0
LAYER
  5
8FE
330
2
100
AcDbSymbolTableRecord
100
AcDbLayerTableRecord
  2
TEXT
 70
     1
 62
     7
  6
CONTINUOUS
  0
ENDTAB
  0
TABLE
  2
STYLE
  5
3
330
0
100
AcDbSymbolTable
 70
     1
  0
STYLE
  5
11
330
3
100
AcDbSymbolTableRecord
100
AcDbTextStyleTableRecord
  2
STANDARD
 70
     0
 40
0.0
 41
1.0
 50
0.0
 71
     0
 42
0.2
  3
txt
  4

  0
ENDTAB
  0
TABLE
  2
VIEW
  5
6
330
0
100
AcDbSymbolTable
 70
     0
  0
ENDTAB
  0
TABLE
  2
UCS
  5
7
330
0
100
AcDbSymbolTable
 70
     0
  0
ENDTAB
  0
TABLE
  2
APPID
  5
9
330
0
100
AcDbSymbolTable
 70
     1
  0
APPID
  5
12
330
9
100
AcDbSymbolTableRecord
100
AcDbRegAppTableRecord
  2
ACAD
 70
     0
  0
ENDTAB
  0
TABLE
  2
DIMSTYLE
  5
A
330
0
100
AcDbSymbolTable
 70
     1
  0
DIMSTYLE
105
27
330
A
100
AcDbSymbolTableRecord
100
AcDbDimStyleTableRecord
  2
STANDARD
 70
     0
  3

  4

  5

  6

  7

 40
1.0
 41
0.18
 42
0.0625
 43
0.38
 44
0.18
 45
0.0
 46
0.0
 47
0.0
 48
0.0
140
0.18
141
0.09
142
0.0
143
25.4
144
1.0
145
0.0
146
1.0
147
0.09
 71
     0
 72
     0
 73
     1
 74
     1
 75
     0
 76
     0
 77
     0
 78
     0
170
     0
171
     2
172
     0
173
     0
174
     0
175
     0
176
     0
177
     0
178
     0
270
     2
271
     4
272
     4
273
     2
274
     2
340
11
275
     0
280
     0
281
     0
282
     0
283
     1
284
     0
285
     0
286
     0
287
     3
288
     0
  0
ENDTAB
  0
TABLE
  2
BLOCK_RECORD
  5
1
330
0
100
AcDbSymbolTable
 70
     1
  0
BLOCK_RECORD
  5
1F
330
1
100
AcDbSymbolTableRecord
100
AcDbBlockTableRecord
  2
*MODEL_SPACE
  0
BLOCK_RECORD
  5
1B
330
1
100
AcDbSymbolTableRecord
100
AcDbBlockTableRecord
  2
*PAPER_SPACE
  0
ENDTAB
  0
ENDSEC
  0
SECTION
  2
BLOCKS
  0
BLOCK
  5
20
330
1F
100
AcDbEntity
  8
0
100
AcDbBlockBegin
  2
*MODEL_SPACE
 70
     0
 71
     0
 10
0.0
 20
0.0
 30
0.0
  3
*MODEL_SPACE
  1

  0
ENDBLK
  5
21
330
1F
100
AcDbEntity
  8
0
100
AcDbBlockEnd
  0
BLOCK
  5
1C
330
1B
100
AcDbEntity
 67
     1
  8
0
100
AcDbBlockBegin
  2
*PAPER_SPACE
 70
     0
 71
     0
 10
0.0
 20
0.0
 30
0.0
  3
*PAPER_SPACE
  1

  0
ENDBLK
  5
1D
330
1B
100
AcDbEntity
 67
     1
  8
0
100
AcDbBlockEnd
  0
ENDSEC
  0
SECTION
  2
ENTITIES
  0
POLYLINE
  5
3C
330
1F
100
AcDbEntity
  8
GRAU_10_
  6
AI-LINETYPE-1
 62
   250
100
AcDb2dPolyline
 66
     1
 10
0.0
 20
0.0
 30
0.0
  0
VERTEX
  5
3D
330
3C
100
AcDbEntity
  8
GRAU_10_
  6
AI-LINETYPE-1
 62
   250
100
AcDbVertex
100
AcDb2dVertex
 10
72.19455971502428
 20
204.6944823707014
 30
0.0
  0
VERTEX
  5
3E
330
3C
100
AcDbEntity
  8
GRAU_10_
  6
AI-LINETYPE-1
 62
   250
100
AcDbVertex
100
AcDb2dVertex
 10
59.69454751111803
 20
204.6944823707014
 30
0.0
  0
VERTEX
  5
3F
330
3C
100
AcDbEntity
  8
GRAU_10_
  6
AI-LINETYPE-1
 62
   250
100
AcDbVertex
100
AcDb2dVertex
 10
58.94455022397914
 20
204.6944823707014
 30
0.0
  0
VERTEX
  5
40
330
3C
100
AcDbEntity
  8
GRAU_10_
  6
AI-LINETYPE-1
 62
   250
100
AcDbVertex
100
AcDb2dVertex
 10
58.19455293684025
 20
204.6944823707014
 30
0.0
  0
SEQEND
  5
41
330
3C
100
AcDbEntity
  8
GRAU_10_
  6
AI-LINETYPE-1
  0
POLYLINE
  5
43
330
1F
100
AcDbEntity
  8
GRAU_10_
 62
     7
100
AcDb2dPolyline
 66
     1
 10
0.0
 20
0.0
 30
0.0
  0
VERTEX
  5
44
330
43
100
AcDbEntity
  8
GRAU_10_
 62
     7
100
AcDbVertex
100
AcDb2dVertex
 10
61.44500052717348
 20
214.6942165261876
 30
0.0
  0
VERTEX
  5
45
330
43
100
AcDbEntity
  8
GRAU_10_
 62
     7
100
AcDbVertex
100
AcDb2dVertex
 10
61.19488659494434
 20
214.4447916130555
 30
0.0
  0
SEQEND
  5
46
330
43
100
AcDbEntity
  8
GRAU_10_
  0
POLYLINE
  5
47
330
1F
100
AcDbEntity
  8
GRAU_10_
 62
     7
100
AcDb2dPolyline
 66
     1
 10
0.0
 20
0.0
 30
0.0
  0
VERTEX
  5
48
330
47
100
AcDbEntity
  8
GRAU_10_
 62
     7
100
AcDbVertex
100
AcDb2dVertex
 10
61.19488659494434
 20
194.9446898926701
 30
0.0
  0
VERTEX
  5
49
330
47
100
AcDbEntity
  8
GRAU_10_
 62
     7
100
AcDbVertex
100
AcDb2dVertex
 10
61.44500052717348
 20
194.6942314508924
 30
0.0
  0
VERTEX
  5
4A
330
47
100
AcDbEntity
  8
GRAU_10_
 62
     7
100
AcDbVertex
100
AcDb2dVertex
 10
88.94478621908326
 20
194.6942314508924
 30
0.0
  0
SEQEND
  5
4B
330
47
100
AcDbEntity
  8
GRAU_10_
  0
POLYLINE
  5
4C
330
1F
100
AcDbEntity
  8
GRAU_10_
 62
     7
100
AcDb2dPolyline
 66
     1
 10
0.0
 20
0.0
 30
0.0
  0
VERTEX
  5
4D
330
4C
100
AcDbEntity
  8
GRAU_10_
 62
     7
100
AcDbVertex
100
AcDb2dVertex
 10
66.20508895914317
 20
214.6942165261876
 30
0.0
  0
VERTEX
  5
4E
330
4C
100
AcDbEntity
  8
GRAU_10_
 62
     7
100
AcDbVertex
100
AcDb2dVertex
 10
61.44500052717348
 20
214.6942165261876
 30
0.0
  0
SEQEND
  5
4F
330
4C
100
AcDbEntity
  8
GRAU_10_
  0
POLYLINE
  5
50
330
1F
100
AcDbEntity
  8
GRAU_10_
 62
     7
100
AcDb2dPolyline
 66
     1
 10
0.0
 20
0.0
 30
0.0
  0
VERTEX
  5
51
330
50
100
AcDbEntity
  8
GRAU_10_
 62
     7
100
AcDbVertex
100
AcDb2dVertex
 10
88.94478621908326
 20
214.6942165261876
 30
0.0
  0
VERTEX
  5
52
330
50
100
AcDbEntity
  8
GRAU_10_
 62
     7
100
AcDbVertex
100
AcDb2dVertex
 10
78.19488252168392
 20
214.6942165261876
 30
0.0
  0
SEQEND
  5
53
330
50
100
AcDbEntity
  8
GRAU_10_
  0
POLYLINE
  5
54
330
1F
100
AcDbEntity
  8
GRAU_10_
 62
     7
100
AcDb2dPolyline
 66
     1
 10
0.0
 20
0.0
 30
0.0
  0
VERTEX
  5
55
330
54
100
AcDbEntity
  8
GRAU_10_
 62
     7
100
AcDbVertex
100
AcDb2dVertex
 10
88.94478621908326
 20
194.6942314508924
 30
0.0
  0
VERTEX
  5
56
330
54
100
AcDbEntity
  8
GRAU_10_
 62
     7
100
AcDbVertex
100
AcDb2dVertex
 10
89.1949001513124
 20
194.9446898926701
 30
0.0
  0
SEQEND
  5
57
330
54
100
AcDbEntity
  8
GRAU_10_
  0
POLYLINE
  5
58
330
1F
100
AcDbEntity
  8
GRAU_10_
 62
     7
100
AcDb2dPolyline
 66
     1
 10
0.0
 20
0.0
 30
0.0
  0
VERTEX
  5
59
330
58
100
AcDbEntity
  8
GRAU_10_
 62
     7
100
AcDbVertex
100
AcDb2dVertex
 10
89.1949001513124
 20
214.4447916130555
 30
0.0
  0
VERTEX
  5
5A
330
58
100
AcDbEntity
  8
GRAU_10_
 62
     7
100
AcDbVertex
100
AcDb2dVertex
 10
88.94478621908326
 20
214.6942165261876
 30
0.0
  0
SEQEND
  5
5B
330
58
100
AcDbEntity
  8
GRAU_10_
  0
POLYLINE
  5
5C
330
1F
100
AcDbEntity
  8
GRAU_10_
 62
     7
100
AcDb2dPolyline
 66
     1
 10
0.0
 20
0.0
 30
0.0
  0
VERTEX
  5
5D
330
5C
100
AcDbEntity
  8
GRAU_10_
 62
     7
100
AcDbVertex
100
AcDb2dVertex
 10
89.1949001513124
 20
214.4447916130555
 30
0.0
  0
VERTEX
  5
5E
330
5C
100
AcDbEntity
  8
GRAU_10_
 62
     7
100
AcDbVertex
100
AcDb2dVertex
 10
89.1949001513124
 20
214.3357543409473
 30
0.0
  0
VERTEX
  5
5F
330
5C
100
AcDbEntity
  8
GRAU_10_
 62
     7
100
AcDbVertex
100
AcDb2dVertex
 10
89.1949001513124
 20
214.0115708557853
 30
0.0
  0
VERTEX
  5
60
330
5C
100
AcDbEntity
  8
GRAU_10_
 62
     7
100
AcDbVertex
100
AcDb2dVertex
 10
89.1949001513124
 20
213.4791313485399
 30
0.0
  0
VERTEX
  5
61
330
5C
100
AcDbEntity
  8
GRAU_10_
 62
     7
100
AcDbVertex
100
AcDb2dVertex
 10
89.1949001513124
 20
212.7504936534096
 30
0.0
  0
VERTEX
  5
62
330
5C
100
AcDbEntity
  8
GRAU_10_
 62
     7
100
AcDbVertex
100
AcDb2dVertex
 10
89.1949001513124
 20
211.8416774644007
 30
0.0
  0
VERTEX
  5
63
330
5C
100
AcDbEntity
  8
GRAU_10_
 62
     7
100
AcDbVertex
100
AcDb2dVertex
 10
89.1949001513124
 20
210.7736978639732
 30
0.0
  0
VERTEX
  5
64
330
5C
100
AcDbEntity
  8
GRAU_10_
 62
     7
100
AcDbVertex
100
AcDb2dVertex
 10
89.1949001513124
 20
209.5698092466527
 30
0.0
  0
VERTEX
  5
65
330
5C
100
AcDbEntity
  8
GRAU_10_
 62
     7
100
AcDbVertex
100
AcDb2dVertex
 10
89.1949001513124
 20
208.2563665929012
 30
0.0
  0
VERTEX
  5
66
330
5C
100
AcDbEntity
  8
GRAU_10_
 62
     7
100
AcDbVertex
100
AcDb2dVertex
 10
89.1949001513124
 20
206.8638589977632
 30
0.0
  0
VERTEX
  5
67
330
5C
100
AcDbEntity
  8
GRAU_10_
 62
     7
100
AcDbVertex
100
AcDb2dVertex
 10
89.1949001513124
 20
205.4231200658317
 30
0.0
  0
VERTEX
  5
68
330
5C
100
AcDbEntity
  8
GRAU_10_
 62
     7
100
AcDbVertex
100
AcDb2dVertex
 10
89.1949001513124
 20
203.9661891851196
 30
0.0
  0
VERTEX
  5
69
330
5C
100
AcDbEntity
  8
GRAU_10_
 62
     7
100
AcDbVertex
100
AcDb2dVertex
 10
89.1949001513124
 20
202.524761234091
 30
0.0
  0
VERTEX
  5
6A
330
5C
100
AcDbEntity
  8
GRAU_10_
 62
     7
100
AcDbVertex
100
AcDb2dVertex
 10
89.1949001513124
 20
201.1324258937273
 30
0.0
  0
VERTEX
  5
6B
330
5C
100
AcDbEntity
  8
GRAU_10_
 62
     7
100
AcDbVertex
100
AcDb2dVertex
 10
89.1949001513124
 20
199.8196722590729
 30
0.0
  0
VERTEX
  5
6C
330
5C
100
AcDbEntity
  8
GRAU_10_
 62
     7
100
AcDbVertex
100
AcDb2dVertex
 10
89.1949001513124
 20
198.6152668774295
 30
0.0
  0
VERTEX
  5
6D
330
5C
100
AcDbEntity
  8
GRAU_10_
 62
     7
100
AcDbVertex
100
AcDb2dVertex
 10
89.1949001513124
 20
197.5471150222278
 30
0.0
  0
VERTEX
  5
6E
330
5C
100
AcDbEntity
  8
GRAU_10_
 62
     7
100
AcDbVertex
100
AcDb2dVertex
 10
89.1949001513124
 20
196.6382988332189
 30
0.0
  0
VERTEX
  5
6F
330
5C
100
AcDbEntity
  8
GRAU_10_
 62
     7
100
AcDbVertex
100
AcDb2dVertex
 10
89.1949001513124
 20
195.9101779024114
 30
0.0
  0
VERTEX
  5
70
330
5C
100
AcDbEntity
  8
GRAU_10_
 62
     7
100
AcDbVertex
100
AcDb2dVertex
 10
89.1949001513124
 20
195.3775661403917
 30
0.0
  0
VERTEX
  5
71
330
5C
100
AcDbEntity
  8
GRAU_10_
 62
     7
100
AcDbVertex
100
AcDb2dVertex
 10
89.1949001513124
 20
195.0537271647783
 30
0.0
  0
VERTEX
  5
72
330
5C
100
AcDbEntity
  8
GRAU_10_
 62
     7
100
AcDbVertex
100
AcDb2dVertex
 10
89.1949001513124
 20
194.9446898926701
 30
0.0
  0
SEQEND
  5
73
330
5C
100
AcDbEntity
  8
GRAU_10_
  0
POLYLINE
  5
74
330
1F
100
AcDbEntity
  8
GRAU_10_
 62
     7
100
AcDb2dPolyline
 66
     1
 10
0.0
 20
0.0
 30
0.0
  0
VERTEX
  5
75
330
74
100
AcDbEntity
  8
GRAU_10_
 62
     7
100
AcDbVertex
100
AcDb2dVertex
 10
61.19488659494434
 20
204.6944823707014
 30
0.0
  0
VERTEX
  5
76
330
74
100
AcDbEntity
  8
GRAU_10_
 62
     7
100
AcDbVertex
100
AcDb2dVertex
 10
61.19488659494434
 20
206.2194538872472
 30
0.0
  0
VERTEX
  5
77
330
74
100
AcDbEntity
  8
GRAU_10_
 62
     7
100
AcDbVertex
100
AcDb2dVertex
 10
61.19488659494434
 20
207.7075628821009
 30
0.0
  0
VERTEX
  5
78
330
74
100
AcDbEntity
  8
GRAU_10_
 62
     7
100
AcDbVertex
100
AcDb2dVertex
 10
61.19488659494434
 20
209.1207410501504
 30
0.0
  0
VERTEX
  5
79
330
74
100
AcDbEntity
  8
GRAU_10_
 62
     7
100
AcDbVertex
100
AcDb2dVertex
 10
61.19488659494434
 20
210.4252264556402
 30
0.0
  0
VERTEX
  5
7A
330
74
100
AcDbEntity
  8
GRAU_10_
 62
     7
100
AcDbVertex
100
AcDb2dVertex
 10
61.19488659494434
 20
211.5888074557834
 30
0.0
  0
VERTEX
  5
7B
330
74
100
AcDbEntity
  8
GRAU_10_
 62
     7
100
AcDbVertex
100
AcDb2dVertex
 10
61.19488659494434
 20
212.5823729937294
 30
0.0
  0
VERTEX
  5
7C
330
74
100
AcDbEntity
  8
GRAU_10_
 62
     7
100
AcDbVertex
100
AcDb2dVertex
 10
61.19488659494434
 20
213.3816351463074
 30
0.0
  0
VERTEX
  5
7D
330
74
100
AcDbEntity
  8
GRAU_10_
 62
     7
100
AcDbVertex
100
AcDb2dVertex
 10
61.19488659494434
 20
213.9674736335741
 30
0.0
  0
VERTEX
  5
7E
330
74
100
AcDbEntity
  8
GRAU_10_
 62
     7
100
AcDbVertex
100
AcDb2dVertex
 10
61.19488659494434
 20
214.3242132710717
 30
0.0
  0
VERTEX
  5
7F
330
74
100
AcDbEntity
  8
GRAU_10_
 62
     7
100
AcDbVertex
100
AcDb2dVertex
 10
61.19488659494434
 20
214.4447916130555
 30
0.0
  0
SEQEND
  5
80
330
74
100
AcDbEntity
  8
GRAU_10_
  0
POLYLINE
  5
81
330
1F
100
AcDbEntity
  8
GRAU_10_
 62
     7
100
AcDb2dPolyline
 66
     1
 10
0.0
 20
0.0
 30
0.0
  0
VERTEX
  5
82
330
81
100
AcDbEntity
  8
GRAU_10_
 62
     7
100
AcDbVertex
100
AcDb2dVertex
 10
61.19488659494434
 20
194.9446898926701
 30
0.0
  0
VERTEX
  5
83
330
81
100
AcDbEntity
  8
GRAU_10_
 62
     7
100
AcDbVertex
100
AcDb2dVertex
 10
61.19488659494434
 20
195.0642347060082
 30
0.0
  0
VERTEX
  5
84
330
81
100
AcDbEntity
  8
GRAU_10_
 62
     7
100
AcDbVertex
100
AcDb2dVertex
 10
61.19488659494434
 20
195.4216633626029
 30
0.0
  0
VERTEX
  5
85
330
81
100
AcDbEntity
  8
GRAU_10_
 62
     7
100
AcDbVertex
100
AcDb2dVertex
 10
61.19488659494434
 20
196.0068128307726
 30
0.0
  0
VERTEX
  5
86
330
81
100
AcDbEntity
  8
GRAU_10_
 62
     7
100
AcDbVertex
100
AcDb2dVertex
 10
61.19488659494434
 20
196.8062472381248
 30
0.0
  0
VERTEX
  5
87
330
81
100
AcDbEntity
  8
GRAU_10_
 62
     7
100
AcDbVertex
100
AcDb2dVertex
 10
61.19488659494434
 20
197.8001572856194
 30
0.0
  0
VERTEX
  5
88
330
81
100
AcDbEntity
  8
GRAU_10_
 62
     7
100
AcDbVertex
100
AcDb2dVertex
 10
61.19488659494434
 20
198.9635660309883
 30
0.0
  0
VERTEX
  5
89
330
81
100
AcDbEntity
  8
GRAU_10_
 62
     7
100
AcDbVertex
100
AcDb2dVertex
 10
61.19488659494434
 20
200.2683959460267
 30
0.0
  0
VERTEX
  5
8A
330
81
100
AcDbEntity
  8
GRAU_10_
 62
     7
100
AcDbVertex
100
AcDb2dVertex
 10
61.19488659494434
 20
201.6817463688504
 30
0.0
  0
VERTEX
  5
8B
330
81
100
AcDbEntity
  8
GRAU_10_
 62
     7
100
AcDbVertex
100
AcDb2dVertex
 10
61.19488659494434
 20
203.1693385993813
 30
0.0
  0
VERTEX
  5
8C
330
81
100
AcDbEntity
  8
GRAU_10_
 62
     7
100
AcDbVertex
100
AcDb2dVertex
 10
61.19488659494434
 20
204.6944823707014
 30
0.0
  0
SEQEND
  5
8D
330
81
100
AcDbEntity
  8
GRAU_10_
  0
POLYLINE
  5
8E
330
1F
100
AcDbEntity
  8
GRAU_10_
 62
     7
100
AcDb2dPolyline
 66
     1
 10
0.0
 20
0.0
 30
0.0
  0
VERTEX
  5
8F
330
8E
100
AcDbEntity
  8
GRAU_10_
 62
     7
100
AcDbVertex
100
AcDb2dVertex
 10
66.20508895914317
 20
214.6885321186369
 30
0.0
  0
VERTEX
  5
90
330
8E
100
AcDbEntity
  8
GRAU_10_
 62
     7
100
AcDbVertex
100
AcDb2dVertex
 10
66.23833413057584
 20
214.6683783100482
 30
0.0
  0
VERTEX
  5
91
330
8E
100
AcDbEntity
  8
GRAU_10_
 62
     7
100
AcDbVertex
100
AcDb2dVertex
 10
66.41541203851767
 20
214.5636474072966
 30
0.0
  0
VERTEX
  5
92
330
8E
100
AcDbEntity
  8
GRAU_10_
 62
     7
100
AcDbVertex
100
AcDb2dVertex
 10
66.7018717281162
 20
214.3989718431017
 30
0.0
  0
VERTEX
  5
93
330
8E
100
AcDbEntity
  8
GRAU_10_
 62
     7
100
AcDbVertex
100
AcDb2dVertex
 10
67.10425888079338
 20
214.176763184303
 30
0.0
  0
VERTEX
  5
94
330
8E
100
AcDbEntity
  8
GRAU_10_
 62
     7
100
AcDbVertex
100
AcDb2dVertex
 10
67.6478949483658
 20
213.8963324118037
 30
0.0
  0
VERTEX
  5
95
330
8E
100
AcDbEntity
  8
GRAU_10_
 62
     7
100
AcDbVertex
100
AcDb2dVertex
 10
68.30935328153377
 20
213.5883408754224
 30
0.0
  0
VERTEX
  5
96
330
8E
100
AcDbEntity
  8
GRAU_10_
 62
     7
100
AcDbVertex
100
AcDb2dVertex
 10
69.14754501309505
 20
213.2552001419987
 30
0.0
  0
VERTEX
  5
97
330
8E
100
AcDbEntity
  8
GRAU_10_
 62
     7
100
AcDbVertex
100
AcDb2dVertex
 10
70.11768390174142
 20
212.9599554589128
 30
0.0
  0
VERTEX
  5
98
330
8E
100
AcDbEntity
  8
GRAU_10_
 62
     7
100
AcDbVertex
100
AcDb2dVertex
 10
70.91608478044806
 20
212.7959689138149
 30
0.0
  0
VERTEX
  5
99
330
8E
100
AcDbEntity
  8
GRAU_10_
 62
     7
100
AcDbVertex
100
AcDb2dVertex
 10
71.77408581104953
 20
212.7057074121014
 30
0.0
  0
VERTEX
  5
9A
330
8E
100
AcDbEntity
  8
GRAU_10_
 62
     7
100
AcDbVertex
100
AcDb2dVertex
 10
72.62244057429231
 20
212.7060519216499
 30
0.0
  0
VERTEX
  5
9B
330
8E
100
AcDbEntity
  8
GRAU_10_
 62
     7
100
AcDbVertex
100
AcDb2dVertex
 10
73.48423120992756
 20
212.7976914615575
 30
0.0
  0
VERTEX
  5
9C
330
8E
100
AcDbEntity
  8
GRAU_10_
 62
     7
100
AcDbVertex
100
AcDb2dVertex
 10
74.24990368152433
 20
212.9539265418136
 30
0.0
  0
VERTEX
  5
9D
330
8E
100
AcDbEntity
  8
GRAU_10_
 62
     7
100
AcDbVertex
100
AcDb2dVertex
 10
74.98319225555976
 20
213.1663166784793
 30
0.0
  0
VERTEX
  5
9E
330
8E
100
AcDbEntity
  8
GRAU_10_
 62
     7
100
AcDbVertex
100
AcDb2dVertex
 10
75.74283581005734
 20
213.445713922333
 30
0.0
  0
VERTEX
  5
9F
330
8E
100
AcDbEntity
  8
GRAU_10_
 62
     7
100
AcDbVertex
100
AcDb2dVertex
 10
76.43323294530141
 20
213.7476765416152
 30
0.0
  0
VERTEX
  5
A0
330
8E
100
AcDbEntity
  8
GRAU_10_
 62
     7
100
AcDbVertex
100
AcDb2dVertex
 10
77.09951441214874
 20
214.0782334534249
 30
0.0
  0
VERTEX
  5
A1
330
8E
100
AcDbEntity
  8
GRAU_10_
 62
     7
100
AcDbVertex
100
AcDb2dVertex
 10
77.64004989378444
 20
214.3717555887682
 30
0.0
  0
VERTEX
  5
A2
330
8E
100
AcDbEntity
  8
GRAU_10_
 62
     7
100
AcDbVertex
100
AcDb2dVertex
 10
77.99007159508582
 20
214.5732936746553
 30
0.0
  0
VERTEX
  5
A3
330
8E
100
AcDbEntity
  8
GRAU_10_
 62
     7
100
AcDbVertex
100
AcDb2dVertex
 10
78.17490096786948
 20
214.6825032015377
 30
0.0
  0
VERTEX
  5
A4
330
8E
100
AcDbEntity
  8
GRAU_10_
 62
     7
100
AcDbVertex
100
AcDb2dVertex
 10
78.19488252168392
 20
214.6942165261876
 30
0.0
  0
SEQEND
  5
A5
330
8E
100
AcDbEntity
  8
GRAU_10_
  0
POLYLINE
  5
A6
330
1F
100
AcDbEntity
  8
GRAU_10_
 62
     7
100
AcDb2dPolyline
 66
     1
 10
0.0
 20
0.0
 30
0.0
  0
VERTEX
  5
A7
330
A6
100
AcDbEntity
  8
GRAU_10_
 62
     7
100
AcDbVertex
100
AcDb2dVertex
 10
88.94478621908326
 20
204.6944823707014
 30
0.0
  0
VERTEX
  5
A8
330
A6
100
AcDbEntity
  8
GRAU_10_
 62
     7
100
AcDbVertex
100
AcDb2dVertex
 10
88.94478621908326
 20
206.1174790608838
 30
0.0
  0
VERTEX
  5
A9
330
A6
100
AcDbEntity
  8
GRAU_10_
 62
     7
100
AcDbVertex
100
AcDb2dVertex
 10
88.94478621908326
 20
207.5117092037644
 30
0.0
  0
VERTEX
  5
AA
330
A6
100
AcDbEntity
  8
GRAU_10_
 62
     7
100
AcDbVertex
100
AcDb2dVertex
 10
88.94478621908326
 20
208.8489230163642
 30
0.0
  0
VERTEX
  5
AB
330
A6
100
AcDbEntity
  8
GRAU_10_
 62
     7
100
AcDbVertex
100
AcDb2dVertex
 10
88.94478621908326
 20
210.1010429704782
 30
0.0
  0
VERTEX
  5
AC
330
A6
100
AcDbEntity
  8
GRAU_10_
 62
     7
100
AcDbVertex
100
AcDb2dVertex
 10
88.94478621908326
 20
211.2429198690643
 30
0.0
  0
VERTEX
  5
AD
330
A6
100
AcDbEntity
  8
GRAU_10_
 62
     7
100
AcDbVertex
100
AcDb2dVertex
 10
88.94478621908326
 20
212.251988336694
 30
0.0
  0
VERTEX
  5
AE
330
A6
100
AcDbEntity
  8
GRAU_10_
 62
     7
100
AcDbVertex
100
AcDb2dVertex
 10
88.94478621908326
 20
213.1067165265844
 30
0.0
  0
VERTEX
  5
AF
330
A6
100
AcDbEntity
  8
GRAU_10_
 62
     7
100
AcDbVertex
100
AcDb2dVertex
 10
88.94478621908326
 20
213.7910847447293
 30
0.0
  0
VERTEX
  5
B0
330
A6
100
AcDbEntity
  8
GRAU_10_
 62
     7
100
AcDbVertex
100
AcDb2dVertex
 10
88.94478621908326
 20
214.2892455518964
 30
0.0
  0
VERTEX
  5
B1
330
A6
100
AcDbEntity
  8
GRAU_10_
 62
     7
100
AcDbVertex
100
AcDb2dVertex
 10
88.94478621908326
 20
214.5925862093727
 30
0.0
  0
VERTEX
  5
B2
330
A6
100
AcDbEntity
  8
GRAU_10_
 62
     7
100
AcDbVertex
100
AcDb2dVertex
 10
88.94478621908326
 20
214.6942165261876
 30
0.0
  0
SEQEND
  5
B3
330
A6
100
AcDbEntity
  8
GRAU_10_
  0
POLYLINE
  5
B4
330
1F
100
AcDbEntity
  8
GRAU_10_
 62
     7
100
AcDb2dPolyline
 66
     1
 10
0.0
 20
0.0
 30
0.0
  0
VERTEX
  5
B5
330
B4
100
AcDbEntity
  8
GRAU_10_
 62
     7
100
AcDbVertex
100
AcDb2dVertex
 10
88.94478621908326
 20
194.6942314508924
 30
0.0
  0
VERTEX
  5
B6
330
B4
100
AcDbEntity
  8
GRAU_10_
 62
     7
100
AcDbVertex
100
AcDb2dVertex
 10
88.94478621908326
 20
194.7960340224816
 30
0.0
  0
VERTEX
  5
B7
330
B4
100
AcDbEntity
  8
GRAU_10_
 62
     7
100
AcDbVertex
100
AcDb2dVertex
 10
88.94478621908326
 20
195.0995469347321
 30
0.0
  0
VERTEX
  5
B8
330
B4
100
AcDbEntity
  8
GRAU_10_
 62
     7
100
AcDbVertex
100
AcDb2dVertex
 10
88.94478621908326
 20
195.5980522514477
 30
0.0
  0
VERTEX
  5
B9
330
B4
100
AcDbEntity
  8
GRAU_10_
 62
     7
100
AcDbVertex
100
AcDb2dVertex
 10
88.94478621908326
 20
196.2817314504956
 30
0.0
  0
VERTEX
  5
BA
330
B4
100
AcDbEntity
  8
GRAU_10_
 62
     7
100
AcDbVertex
100
AcDb2dVertex
 10
88.94478621908326
 20
197.1368041499346
 30
0.0
  0
VERTEX
  5
BB
330
B4
100
AcDbEntity
  8
GRAU_10_
 62
     7
100
AcDbVertex
100
AcDb2dVertex
 10
88.94478621908326
 20
198.14570036279
 30
0.0
  0
VERTEX
  5
BC
330
B4
100
AcDbEntity
  8
GRAU_10_
 62
     7
100
AcDbVertex
100
AcDb2dVertex
 10
88.94478621908326
 20
199.2884385352473
 30
0.0
  0
VERTEX
  5
BD
330
B4
100
AcDbEntity
  8
GRAU_10_
 62
     7
100
AcDbVertex
100
AcDb2dVertex
 10
88.94478621908326
 20
200.5403862345871
 30
0.0
  0
VERTEX
  5
BE
330
B4
100
AcDbEntity
  8
GRAU_10_
 62
     7
100
AcDbVertex
100
AcDb2dVertex
 10
88.94478621908326
 20
201.8770832828641
 30
0.0
  0
VERTEX
  5
BF
330
B4
100
AcDbEntity
  8
GRAU_10_
 62
     7
100
AcDbVertex
100
AcDb2dVertex
 10
88.94478621908326
 20
203.2713134257447
 30
0.0
  0
VERTEX
  5
C0
330
B4
100
AcDbEntity
  8
GRAU_10_
 62
     7
100
AcDbVertex
100
AcDb2dVertex
 10
88.94478621908326
 20
204.6944823707014
 30
0.0
  0
SEQEND
  5
C1
330
B4
100
AcDbEntity
  8
GRAU_10_
  0
POLYLINE
  5
C2
330
1F
100
AcDbEntity
  8
GRAU_10_
 62
     7
100
AcDb2dPolyline
 66
     1
 10
0.0
 20
0.0
 30
0.0
  0
VERTEX
  5
C3
330
C2
100
AcDbEntity
  8
GRAU_10_
 62
     7
100
AcDbVertex
100
AcDb2dVertex
 10
61.44500052717348
 20
214.6942165261876
 30
0.0
  0
VERTEX
  5
C4
330
C2
100
AcDbEntity
  8
GRAU_10_
 62
     7
100
AcDbVertex
100
AcDb2dVertex
 10
61.44500052717348
 20
214.5925862093727
 30
0.0
  0
VERTEX
  5
C5
330
C2
100
AcDbEntity
  8
GRAU_10_
 62
     7
100
AcDbVertex
100
AcDb2dVertex
 10
61.44500052717348
 20
214.2892455518964
 30
0.0
  0
VERTEX
  5
C6
330
C2
100
AcDbEntity
  8
GRAU_10_
 62
     7
100
AcDbVertex
100
AcDb2dVertex
 10
61.44500052717348
 20
213.7910847447293
 30
0.0
  0
VERTEX
  5
C7
330
C2
100
AcDbEntity
  8
GRAU_10_
 62
     7
100
AcDbVertex
100
AcDb2dVertex
 10
61.44500052717348
 20
213.1067165265844
 30
0.0
  0
VERTEX
  5
C8
330
C2
100
AcDbEntity
  8
GRAU_10_
 62
     7
100
AcDbVertex
100
AcDb2dVertex
 10
61.44500052717348
 20
212.251988336694
 30
0.0
  0
VERTEX
  5
C9
330
C2
100
AcDbEntity
  8
GRAU_10_
 62
     7
100
AcDbVertex
100
AcDb2dVertex
 10
61.44500052717348
 20
211.2429198690643
 30
0.0
  0
VERTEX
  5
CA
330
C2
100
AcDbEntity
  8
GRAU_10_
 62
     7
100
AcDbVertex
100
AcDb2dVertex
 10
61.44500052717348
 20
210.1010429704782
 30
0.0
  0
VERTEX
  5
CB
330
C2
100
AcDbEntity
  8
GRAU_10_
 62
     7
100
AcDbVertex
100
AcDb2dVertex
 10
61.44500052717348
 20
208.8489230163642
 30
0.0
  0
VERTEX
  5
CC
330
C2
100
AcDbEntity
  8
GRAU_10_
 62
     7
100
AcDbVertex
100
AcDb2dVertex
 10
61.44500052717348
 20
207.5117092037644
 30
0.0
  0
VERTEX
  5
CD
330
C2
100
AcDbEntity
  8
GRAU_10_
 62
     7
100
AcDbVertex
100
AcDb2dVertex
 10
61.44500052717348
 20
206.1174790608838
 30
0.0
  0
VERTEX
  5
CE
330
C2
100
AcDbEntity
  8
GRAU_10_
 62
     7
100
AcDbVertex
100
AcDb2dVertex
 10
61.44500052717348
 20
204.6944823707014
 30
0.0
  0
VERTEX
  5
CF
330
C2
100
AcDbEntity
  8
GRAU_10_
 62
     7
100
AcDbVertex
100
AcDb2dVertex
 10
61.44500052717348
 20
203.2713134257447
 30
0.0
  0
VERTEX
  5
D0
330
C2
100
AcDbEntity
  8
GRAU_10_
 62
     7
100
AcDbVertex
100
AcDb2dVertex
 10
61.44500052717348
 20
201.8770832828641
 30
0.0
  0
VERTEX
  5
D1
330
C2
100
AcDbEntity
  8
GRAU_10_
 62
     7
100
AcDbVertex
100
AcDb2dVertex
 10
61.44500052717348
 20
200.5403862345871
 30
0.0
  0
VERTEX
  5
D2
330
C2
100
AcDbEntity
  8
GRAU_10_
 62
     7
100
AcDbVertex
100
AcDb2dVertex
 10
61.44500052717348
 20
199.2884385352473
 30
0.0
  0
VERTEX
  5
D3
330
C2
100
AcDbEntity
  8
GRAU_10_
 62
     7
100
AcDbVertex
100
AcDb2dVertex
 10
61.44500052717348
 20
198.14570036279
 30
0.0
  0
VERTEX
  5
D4
330
C2
100
AcDbEntity
  8
GRAU_10_
 62
     7
100
AcDbVertex
100
AcDb2dVertex
 10
61.44500052717348
 20
197.1368041499346
 30
0.0
  0
VERTEX
  5
D5
330
C2
100
AcDbEntity
  8
GRAU_10_
 62
     7
100
AcDbVertex
100
AcDb2dVertex
 10
61.44500052717348
 20
196.2817314504956
 30
0.0
  0
VERTEX
  5
D6
330
C2
100
AcDbEntity
  8
GRAU_10_
 62
     7
100
AcDbVertex
100
AcDb2dVertex
 10
61.44500052717348
 20
195.5980522514477
 30
0.0
  0
VERTEX
  5
D7
330
C2
100
AcDbEntity
  8
GRAU_10_
 62
     7
100
AcDbVertex
100
AcDb2dVertex
 10
61.44500052717348
 20
195.0995469347321
 30
0.0
  0
VERTEX
  5
D8
330
C2
100
AcDbEntity
  8
GRAU_10_
 62
     7
100
AcDbVertex
100
AcDb2dVertex
 10
61.44500052717348
 20
194.7960340224816
 30
0.0
  0
VERTEX
  5
D9
330
C2
100
AcDbEntity
  8
GRAU_10_
 62
     7
100
AcDbVertex
100
AcDb2dVertex
 10
61.44500052717348
 20
194.6942314508924
 30
0.0
  0
SEQEND
  5
DA
330
C2
100
AcDbEntity
  8
GRAU_10_
  0
POLYLINE
  5
DC
330
1F
100
AcDbEntity
  8
STANDARDEBENE
 62
     7
100
AcDb2dPolyline
 66
     1
 10
0.0
 20
0.0
 30
0.0
  0
VERTEX
  5
DD
330
DC
100
AcDbEntity
  8
STANDARDEBENE
 62
     7
100
AcDbVertex
100
AcDb2dVertex
 10
80.24953746908693
 20
198.3947807663735
 30
0.0
  0
VERTEX
  5
DE
330
DC
100
AcDbEntity
  8
STANDARDEBENE
 62
     7
100
AcDbVertex
100
AcDb2dVertex
 10
80.33566485621817
 20
198.3947807663735
 30
0.0
  0
SEQEND
  5
DF
330
DC
100
AcDbEntity
  8
STANDARDEBENE
  0
POLYLINE
  5
E0
330
1F
100
AcDbEntity
  8
STANDARDEBENE
 62
     7
100
AcDb2dPolyline
 66
     1
 10
0.0
 20
0.0
 30
0.0
  0
VERTEX
  5
E1
330
E0
100
AcDbEntity
  8
STANDARDEBENE
 62
     7
100
AcDbVertex
100
AcDb2dVertex
 10
80.50843639480345
 20
198.3947807663735
 30
0.0
  0
VERTEX
  5
E2
330
E0
100
AcDbEntity
  8
STANDARDEBENE
 62
     7
100
AcDbVertex
100
AcDb2dVertex
 10
80.5945637819347
 20
198.3947807663735
 30
0.0
  0
SEQEND
  5
E3
330
E0
100
AcDbEntity
  8
STANDARDEBENE
  0
POLYLINE
  5
E4
330
1F
100
AcDbEntity
  8
STANDARDEBENE
 62
     7
100
AcDb2dPolyline
 66
     1
 10
0.0
 20
0.0
 30
0.0
  0
VERTEX
  5
E5
330
E4
100
AcDbEntity
  8
STANDARDEBENE
 62
     7
100
AcDbVertex
100
AcDb2dVertex
 10
80.5945637819347
 20
210.9945284845778
 30
0.0
  0
VERTEX
  5
E6
330
E4
100
AcDbEntity
  8
STANDARDEBENE
 62
     7
100
AcDbVertex
100
AcDb2dVertex
 10
80.50843639480345
 20
210.9945284845778
 30
0.0
  0
SEQEND
  5
E7
330
E4
100
AcDbEntity
  8
STANDARDEBENE
  0
POLYLINE
  5
E8
330
1F
100
AcDbEntity
  8
STANDARDEBENE
 62
     7
100
AcDb2dPolyline
 66
     1
 10
0.0
 20
0.0
 30
0.0
  0
VERTEX
  5
E9
330
E8
100
AcDbEntity
  8
STANDARDEBENE
 62
     7
100
AcDbVertex
100
AcDb2dVertex
 10
80.33566485621817
 20
210.9945284845778
 30
0.0
  0
VERTEX
  5
EA
330
E8
100
AcDbEntity
  8
STANDARDEBENE
 62
     7
100
AcDbVertex
100
AcDb2dVertex
 10
80.24953746908693
 20
210.9945284845778
 30
0.0
  0
SEQEND
  5
EB
330
E8
100
AcDbEntity
  8
STANDARDEBENE
  0
POLYLINE
  5
EC
330
1F
100
AcDbEntity
  8
STANDARDEBENE
 62
     7
100
AcDb2dPolyline
 66
     1
 10
0.0
 20
0.0
 30
0.0
  0
VERTEX
  5
ED
330
EC
100
AcDbEntity
  8
STANDARDEBENE
 62
     7
100
AcDbVertex
100
AcDb2dVertex
 10
61.19488659494434
 20
198.4058050719263
 30
0.0
  0
VERTEX
  5
EE
330
EC
100
AcDbEntity
  8
STANDARDEBENE
 62
     7
100
AcDbVertex
100
AcDb2dVertex
 10
61.31977130628464
 20
198.4781520771166
 30
0.0
  0
SEQEND
  5
EF
330
EC
100
AcDbEntity
  8
STANDARDEBENE
  0
POLYLINE
  5
F0
330
1F
100
AcDbEntity
  8
STANDARDEBENE
 62
     7
100
AcDb2dPolyline
 66
     1
 10
0.0
 20
0.0
 30
0.0
  0
VERTEX
  5
F1
330
F0
100
AcDbEntity
  8
STANDARDEBENE
 62
     7
100
AcDbVertex
100
AcDb2dVertex
 10
61.56954072896526
 20
198.6223293231743
 30
0.0
  0
VERTEX
  5
F2
330
F0
100
AcDbEntity
  8
STANDARDEBENE
 62
     7
100
AcDbVertex
100
AcDb2dVertex
 10
61.69476994985409
 20
198.6946763283645
 30
0.0
  0
SEQEND
  5
F3
330
F0
100
AcDbEntity
  8
STANDARDEBENE
  0
POLYLINE
  5
F4
330
1F
100
AcDbEntity
  8
STANDARDEBENE
 62
     7
100
AcDb2dPolyline
 66
     1
 10
0.0
 20
0.0
 30
0.0
  0
VERTEX
  5
F5
330
F4
100
AcDbEntity
  8
STANDARDEBENE
 62
     7
100
AcDbVertex
100
AcDb2dVertex
 10
61.69476994985409
 20
210.694805177361
 30
0.0
  0
VERTEX
  5
F6
330
F4
100
AcDbEntity
  8
STANDARDEBENE
 62
     7
100
AcDbVertex
100
AcDb2dVertex
 10
61.56954072896526
 20
210.7664631634542
 30
0.0
  0
SEQEND
  5
F7
330
F4
100
AcDbEntity
  8
STANDARDEBENE
  0
POLYLINE
  5
F8
330
1F
100
AcDbEntity
  8
STANDARDEBENE
 62
     7
100
AcDb2dPolyline
 66
     1
 10
0.0
 20
0.0
 30
0.0
  0
VERTEX
  5
F9
330
F8
100
AcDbEntity
  8
STANDARDEBENE
 62
     7
100
AcDbVertex
100
AcDb2dVertex
 10
61.31977130628464
 20
210.911329428609
 30
0.0
  0
VERTEX
  5
FA
330
F8
100
AcDbEntity
  8
STANDARDEBENE
 62
     7
100
AcDbVertex
100
AcDb2dVertex
 10
61.19488659494434
 20
210.9829874147022
 30
0.0
  0
SEQEND
  5
FB
330
F8
100
AcDbEntity
  8
STANDARDEBENE
  0
POLYLINE
  5
FC
330
1F
100
AcDbEntity
  8
STANDARDEBENE
 62
     7
100
AcDb2dPolyline
 66
     1
 10
0.0
 20
0.0
 30
0.0
  0
VERTEX
  5
FD
330
FC
100
AcDbEntity
  8
STANDARDEBENE
 62
     7
100
AcDbVertex
100
AcDb2dVertex
 10
80.07108152295098
 20
210.9674844850186
 30
0.0
  0
VERTEX
  5
FE
330
FC
100
AcDbEntity
  8
STANDARDEBENE
 62
     7
100
AcDbVertex
100
AcDb2dVertex
 10
79.85231795963762
 20
210.8994438491849
 30
0.0
  0
SEQEND
  5
FF
330
FC
100
AcDbEntity
  8
STANDARDEBENE
  0
POLYLINE
  5
100
330
1F
100
AcDbEntity
  8
STANDARDEBENE
 62
     7
100
AcDb2dPolyline
 66
     1
 10
0.0
 20
0.0
 30
0.0
  0
VERTEX
  5
101
330
100
100
AcDbEntity
  8
STANDARDEBENE
 62
     7
100
AcDbVertex
100
AcDb2dVertex
 10
79.41375730436532
 20
210.7625013036462
 30
0.0
  0
VERTEX
  5
102
330
100
100
AcDbEntity
  8
STANDARDEBENE
 62
     7
100
AcDbVertex
100
AcDb2dVertex
 10
79.19516599582622
 20
210.694805177361
 30
0.0
  0
SEQEND
  5
103
330
100
100
AcDbEntity
  8
STANDARDEBENE
  0
POLYLINE
  5
104
330
1F
100
AcDbEntity
  8
STANDARDEBENE
 62
     7
100
AcDb2dPolyline
 66
     1
 10
0.0
 20
0.0
 30
0.0
  0
VERTEX
  5
105
330
104
100
AcDbEntity
  8
STANDARDEBENE
 62
     7
100
AcDbVertex
100
AcDb2dVertex
 10
79.19516599582622
 20
198.6946763283645
 30
0.0
  0
VERTEX
  5
106
330
104
100
AcDbEntity
  8
STANDARDEBENE
 62
     7
100
AcDbVertex
100
AcDb2dVertex
 10
79.41375730436532
 20
198.6262911829823
 30
0.0
  0
SEQEND
  5
107
330
104
100
AcDbEntity
  8
STANDARDEBENE
  0
POLYLINE
  5
108
330
1F
100
AcDbEntity
  8
STANDARDEBENE
 62
     7
100
AcDb2dPolyline
 66
     1
 10
0.0
 20
0.0
 30
0.0
  0
VERTEX
  5
109
330
108
100
AcDbEntity
  8
STANDARDEBENE
 62
     7
100
AcDbVertex
100
AcDb2dVertex
 10
79.85231795963762
 20
198.4900376565407
 30
0.0
  0
VERTEX
  5
10A
330
108
100
AcDbEntity
  8
STANDARDEBENE
 62
     7
100
AcDbVertex
100
AcDb2dVertex
 10
80.07108152295098
 20
198.421997020707
 30
0.0
  0
SEQEND
  5
10B
330
108
100
AcDbEntity
  8
STANDARDEBENE
  0
POLYLINE
  5
10C
330
1F
100
AcDbEntity
  8
STANDARDEBENE
 62
     7
100
AcDb2dPolyline
 66
     1
 10
0.0
 20
0.0
 30
0.0
  0
VERTEX
  5
10D
330
10C
100
AcDbEntity
  8
STANDARDEBENE
 62
     7
100
AcDbVertex
100
AcDb2dVertex
 10
78.19488252168392
 20
210.694805177361
 30
0.0
  0
VERTEX
  5
10E
330
10C
100
AcDbEntity
  8
STANDARDEBENE
 62
     7
100
AcDbVertex
100
AcDb2dVertex
 10
78.19488252168392
 20
211.1946885322708
 30
0.0
  0
SEQEND
  5
10F
330
10C
100
AcDbEntity
  8
STANDARDEBENE
  0
POLYLINE
  5
110
330
1F
100
AcDbEntity
  8
STANDARDEBENE
 62
     7
100
AcDb2dPolyline
 66
     1
 10
0.0
 20
0.0
 30
0.0
  0
VERTEX
  5
111
330
110
100
AcDbEntity
  8
STANDARDEBENE
 62
     7
100
AcDbVertex
100
AcDb2dVertex
 10
78.19488252168392
 20
212.1944552420903
 30
0.0
  0
VERTEX
  5
112
330
110
100
AcDbEntity
  8
STANDARDEBENE
 62
     7
100
AcDbVertex
100
AcDb2dVertex
 10
78.19488252168392
 20
213.1945664614583
 30
0.0
  0
SEQEND
  5
113
330
110
100
AcDbEntity
  8
STANDARDEBENE
  0
POLYLINE
  5
114
330
1F
100
AcDbEntity
  8
STANDARDEBENE
 62
     7
100
AcDb2dPolyline
 66
     1
 10
0.0
 20
0.0
 30
0.0
  0
VERTEX
  5
115
330
114
100
AcDbEntity
  8
STANDARDEBENE
 62
     7
100
AcDbVertex
100
AcDb2dVertex
 10
78.19488252168392
 20
214.1946776808263
 30
0.0
  0
VERTEX
  5
116
330
114
100
AcDbEntity
  8
STANDARDEBENE
 62
     7
100
AcDbVertex
100
AcDb2dVertex
 10
78.19488252168392
 20
214.6942165261876
 30
0.0
  0
SEQEND
  5
117
330
114
100
AcDbEntity
  8
STANDARDEBENE
  0
POLYLINE
  5
118
330
1F
100
AcDbEntity
  8
STANDARDEBENE
 62
     7
100
AcDb2dPolyline
 66
     1
 10
0.0
 20
0.0
 30
0.0
  0
VERTEX
  5
119
330
118
100
AcDbEntity
  8
STANDARDEBENE
 62
     7
100
AcDbVertex
100
AcDb2dVertex
 10
66.19492592746168
 20
214.6942165261876
 30
0.0
  0
VERTEX
  5
11A
330
118
100
AcDbEntity
  8
STANDARDEBENE
 62
     7
100
AcDbVertex
100
AcDb2dVertex
 10
66.19492592746168
 20
214.1946776808263
 30
0.0
  0
SEQEND
  5
11B
330
118
100
AcDbEntity
  8
STANDARDEBENE
  0
POLYLINE
  5
11C
330
1F
100
AcDbEntity
  8
STANDARDEBENE
 62
     7
100
AcDb2dPolyline
 66
     1
 10
0.0
 20
0.0
 30
0.0
  0
VERTEX
  5
11D
330
11C
100
AcDbEntity
  8
STANDARDEBENE
 62
     7
100
AcDbVertex
100
AcDb2dVertex
 10
66.19492592746168
 20
213.1945664614583
 30
0.0
  0
VERTEX
  5
11E
330
11C
100
AcDbEntity
  8
STANDARDEBENE
 62
     7
100
AcDbVertex
100
AcDb2dVertex
 10
66.19492592746168
 20
212.1944552420903
 30
0.0
  0
SEQEND
  5
11F
330
11C
100
AcDbEntity
  8
STANDARDEBENE
  0
POLYLINE
  5
120
330
1F
100
AcDbEntity
  8
STANDARDEBENE
 62
     7
100
AcDb2dPolyline
 66
     1
 10
0.0
 20
0.0
 30
0.0
  0
VERTEX
  5
121
330
120
100
AcDbEntity
  8
STANDARDEBENE
 62
     7
100
AcDbVertex
100
AcDb2dVertex
 10
66.19492592746168
 20
211.1946885322708
 30
0.0
  0
VERTEX
  5
122
330
120
100
AcDbEntity
  8
STANDARDEBENE
 62
     7
100
AcDbVertex
100
AcDb2dVertex
 10
66.19492592746168
 20
210.694805177361
 30
0.0
  0
VERTEX
  5
123
330
120
100
AcDbEntity
  8
STANDARDEBENE
 62
     7
100
AcDbVertex
100
AcDb2dVertex
 10
65.63216957994612
 20
210.694805177361
 30
0.0
  0
SEQEND
  5
124
330
120
100
AcDbEntity
  8
STANDARDEBENE
  0
POLYLINE
  5
125
330
1F
100
AcDbEntity
  8
STANDARDEBENE
 62
     7
100
AcDb2dPolyline
 66
     1
 10
0.0
 20
0.0
 30
0.0
  0
VERTEX
  5
126
330
125
100
AcDbEntity
  8
STANDARDEBENE
 62
     7
100
AcDbVertex
100
AcDb2dVertex
 10
64.5071736492378
 20
210.694805177361
 30
0.0
  0
VERTEX
  5
127
330
125
100
AcDbEntity
  8
STANDARDEBENE
 62
     7
100
AcDbVertex
100
AcDb2dVertex
 10
63.38252222807798
 20
210.694805177361
 30
0.0
  0
SEQEND
  5
128
330
125
100
AcDbEntity
  8
STANDARDEBENE
  0
POLYLINE
  5
129
330
1F
100
AcDbEntity
  8
STANDARDEBENE
 62
     7
100
AcDb2dPolyline
 66
     1
 10
0.0
 20
0.0
 30
0.0
  0
VERTEX
  5
12A
330
129
100
AcDbEntity
  8
STANDARDEBENE
 62
     7
100
AcDbVertex
100
AcDb2dVertex
 10
62.25752629736965
 20
210.694805177361
 30
0.0
  0
VERTEX
  5
12B
330
129
100
AcDbEntity
  8
STANDARDEBENE
 62
     7
100
AcDbVertex
100
AcDb2dVertex
 10
61.69476994985409
 20
210.694805177361
 30
0.0
  0
SEQEND
  5
12C
330
129
100
AcDbEntity
  8
STANDARDEBENE
  0
POLYLINE
  5
12D
330
1F
100
AcDbEntity
  8
STANDARDEBENE
 62
     7
100
AcDb2dPolyline
 66
     1
 10
0.0
 20
0.0
 30
0.0
  0
VERTEX
  5
12E
330
12D
100
AcDbEntity
  8
STANDARDEBENE
 62
     7
100
AcDbVertex
100
AcDb2dVertex
 10
79.19516599582622
 20
210.694805177361
 30
0.0
  0
VERTEX
  5
12F
330
12D
100
AcDbEntity
  8
STANDARDEBENE
 62
     7
100
AcDbVertex
100
AcDb2dVertex
 10
78.94505206359707
 20
210.694805177361
 30
0.0
  0
SEQEND
  5
130
330
12D
100
AcDbEntity
  8
STANDARDEBENE
  0
POLYLINE
  5
131
330
1F
100
AcDbEntity
  8
STANDARDEBENE
 62
     7
100
AcDb2dPolyline
 66
     1
 10
0.0
 20
0.0
 30
0.0
  0
VERTEX
  5
132
330
131
100
AcDbEntity
  8
STANDARDEBENE
 62
     7
100
AcDbVertex
100
AcDb2dVertex
 10
78.44516870868732
 20
210.694805177361
 30
0.0
  0
VERTEX
  5
133
330
131
100
AcDbEntity
  8
STANDARDEBENE
 62
     7
100
AcDbVertex
100
AcDb2dVertex
 10
78.19488252168392
 20
210.694805177361
 30
0.0
  0
SEQEND
  5
134
330
131
100
AcDbEntity
  8
STANDARDEBENE
  0
POLYLINE
  5
135
330
1F
100
AcDbEntity
  8
STANDARDEBENE
 62
     7
100
AcDb2dPolyline
 66
     1
 10
0.0
 20
0.0
 30
0.0
  0
VERTEX
  5
136
330
135
100
AcDbEntity
  8
STANDARDEBENE
 62
     7
100
AcDbVertex
100
AcDb2dVertex
 10
61.69476994985409
 20
198.6946763283645
 30
0.0
  0
VERTEX
  5
137
330
135
100
AcDbEntity
  8
STANDARDEBENE
 62
     7
100
AcDbVertex
100
AcDb2dVertex
 10
62.18138968714563
 20
198.6946763283645
 30
0.0
  0
SEQEND
  5
138
330
135
100
AcDbEntity
  8
STANDARDEBENE
  0
POLYLINE
  5
139
330
1F
100
AcDbEntity
  8
STANDARDEBENE
 62
     7
100
AcDb2dPolyline
 66
     1
 10
0.0
 20
0.0
 30
0.0
  0
VERTEX
  5
13A
330
139
100
AcDbEntity
  8
STANDARDEBENE
 62
     7
100
AcDbVertex
100
AcDb2dVertex
 10
63.15290661398608
 20
198.6946763283645
 30
0.0
  0
VERTEX
  5
13B
330
139
100
AcDbEntity
  8
STANDARDEBENE
 62
     7
100
AcDbVertex
100
AcDb2dVertex
 10
64.12511255992358
 20
198.6946763283645
 30
0.0
  0
SEQEND
  5
13C
330
139
100
AcDbEntity
  8
STANDARDEBENE
  0
POLYLINE
  5
13D
330
1F
100
AcDbEntity
  8
STANDARDEBENE
 62
     7
100
AcDb2dPolyline
 66
     1
 10
0.0
 20
0.0
 30
0.0
  0
VERTEX
  5
13E
330
13D
100
AcDbEntity
  8
STANDARDEBENE
 62
     7
100
AcDbVertex
100
AcDb2dVertex
 10
65.0973185058611
 20
198.6946763283645
 30
0.0
  0
VERTEX
  5
13F
330
13D
100
AcDbEntity
  8
STANDARDEBENE
 62
     7
100
AcDbVertex
100
AcDb2dVertex
 10
66.06969670657286
 20
198.6946763283645
 30
0.0
  0
SEQEND
  5
140
330
13D
100
AcDbEntity
  8
STANDARDEBENE
  0
POLYLINE
  5
141
330
1F
100
AcDbEntity
  8
STANDARDEBENE
 62
     7
100
AcDb2dPolyline
 66
     1
 10
0.0
 20
0.0
 30
0.0
  0
VERTEX
  5
142
330
141
100
AcDbEntity
  8
STANDARDEBENE
 62
     7
100
AcDbVertex
100
AcDb2dVertex
 10
67.04190265251036
 20
198.6946763283645
 30
0.0
  0
VERTEX
  5
143
330
141
100
AcDbEntity
  8
STANDARDEBENE
 62
     7
100
AcDbVertex
100
AcDb2dVertex
 10
68.01410859844786
 20
198.6946763283645
 30
0.0
  0
SEQEND
  5
144
330
141
100
AcDbEntity
  8
STANDARDEBENE
  0
POLYLINE
  5
145
330
1F
100
AcDbEntity
  8
STANDARDEBENE
 62
     7
100
AcDb2dPolyline
 66
     1
 10
0.0
 20
0.0
 30
0.0
  0
VERTEX
  5
146
330
145
100
AcDbEntity
  8
STANDARDEBENE
 62
     7
100
AcDbVertex
100
AcDb2dVertex
 10
68.98631454438537
 20
198.6946763283645
 30
0.0
  0
VERTEX
  5
147
330
145
100
AcDbEntity
  8
STANDARDEBENE
 62
     7
100
AcDbVertex
100
AcDb2dVertex
 10
69.95869274509714
 20
198.6946763283645
 30
0.0
  0
SEQEND
  5
148
330
145
100
AcDbEntity
  8
STANDARDEBENE
  0
POLYLINE
  5
149
330
1F
100
AcDbEntity
  8
STANDARDEBENE
 62
     7
100
AcDb2dPolyline
 66
     1
 10
0.0
 20
0.0
 30
0.0
  0
VERTEX
  5
14A
330
149
100
AcDbEntity
  8
STANDARDEBENE
 62
     7
100
AcDbVertex
100
AcDb2dVertex
 10
70.93089869103464
 20
198.6946763283645
 30
0.0
  0
VERTEX
  5
14B
330
149
100
AcDbEntity
  8
STANDARDEBENE
 62
     7
100
AcDbVertex
100
AcDb2dVertex
 10
71.90310463697215
 20
198.6946763283645
 30
0.0
  0
SEQEND
  5
14C
330
149
100
AcDbEntity
  8
STANDARDEBENE
  0
POLYLINE
  5
14D
330
1F
100
AcDbEntity
  8
STANDARDEBENE
 62
     7
100
AcDb2dPolyline
 66
     1
 10
0.0
 20
0.0
 30
0.0
  0
VERTEX
  5
14E
330
14D
100
AcDbEntity
  8
STANDARDEBENE
 62
     7
100
AcDbVertex
100
AcDb2dVertex
 10
72.87513832813539
 20
198.6946763283645
 30
0.0
  0
VERTEX
  5
14F
330
14D
100
AcDbEntity
  8
STANDARDEBENE
 62
     7
100
AcDbVertex
100
AcDb2dVertex
 10
73.8473442740729
 20
198.6946763283645
 30
0.0
  0
SEQEND
  5
150
330
14D
100
AcDbEntity
  8
STANDARDEBENE
  0
POLYLINE
  5
151
330
1F
100
AcDbEntity
  8
STANDARDEBENE
 62
     7
100
AcDb2dPolyline
 66
     1
 10
0.0
 20
0.0
 30
0.0
  0
VERTEX
  5
152
330
151
100
AcDbEntity
  8
STANDARDEBENE
 62
     7
100
AcDbVertex
100
AcDb2dVertex
 10
74.8195502200104
 20
198.6946763283645
 30
0.0
  0
VERTEX
  5
153
330
151
100
AcDbEntity
  8
STANDARDEBENE
 62
     7
100
AcDbVertex
100
AcDb2dVertex
 10
75.7917561659479
 20
198.6946763283645
 30
0.0
  0
SEQEND
  5
154
330
151
100
AcDbEntity
  8
STANDARDEBENE
  0
POLYLINE
  5
155
330
1F
100
AcDbEntity
  8
STANDARDEBENE
 62
     7
100
AcDb2dPolyline
 66
     1
 10
0.0
 20
0.0
 30
0.0
  0
VERTEX
  5
156
330
155
100
AcDbEntity
  8
STANDARDEBENE
 62
     7
100
AcDbVertex
100
AcDb2dVertex
 10
76.76413436665966
 20
198.6946763283645
 30
0.0
  0
VERTEX
  5
157
330
155
100
AcDbEntity
  8
STANDARDEBENE
 62
     7
100
AcDbVertex
100
AcDb2dVertex
 10
77.73634031259716
 20
198.6946763283645
 30
0.0
  0
SEQEND
  5
158
330
155
100
AcDbEntity
  8
STANDARDEBENE
  0
POLYLINE
  5
159
330
1F
100
AcDbEntity
  8
STANDARDEBENE
 62
     7
100
AcDb2dPolyline
 66
     1
 10
0.0
 20
0.0
 30
0.0
  0
VERTEX
  5
15A
330
159
100
AcDbEntity
  8
STANDARDEBENE
 62
     7
100
AcDbVertex
100
AcDb2dVertex
 10
78.70854625853467
 20
198.6946763283645
 30
0.0
  0
VERTEX
  5
15B
330
159
100
AcDbEntity
  8
STANDARDEBENE
 62
     7
100
AcDbVertex
100
AcDb2dVertex
 10
79.19516599582622
 20
198.6946763283645
 30
0.0
  0
SEQEND
  5
15C
330
159
100
AcDbEntity
  8
STANDARDEBENE
  0
POLYLINE
  5
15D
330
1F
100
AcDbEntity
  8
STANDARDEBENE
 62
     7
100
AcDb2dPolyline
 66
     1
 10
0.0
 20
0.0
 30
0.0
  0
VERTEX
  5
15E
330
15D
100
AcDbEntity
  8
STANDARDEBENE
 62
     7
100
AcDbVertex
100
AcDb2dVertex
 10
89.1949001513124
 20
207.694471519257
 30
0.0
  0
VERTEX
  5
15F
330
15D
100
AcDbEntity
  8
STANDARDEBENE
 62
     7
100
AcDbVertex
100
AcDb2dVertex
 10
88.69501679640264
 20
207.694471519257
 30
0.0
  0
SEQEND
  5
160
330
15D
100
AcDbEntity
  8
STANDARDEBENE
  0
POLYLINE
  5
161
330
1F
100
AcDbEntity
  8
STANDARDEBENE
 62
     7
100
AcDb2dPolyline
 66
     1
 10
0.0
 20
0.0
 30
0.0
  0
VERTEX
  5
162
330
161
100
AcDbEntity
  8
STANDARDEBENE
 62
     7
100
AcDbVertex
100
AcDb2dVertex
 10
87.69490557703462
 20
207.694471519257
 30
0.0
  0
VERTEX
  5
163
330
161
100
AcDbEntity
  8
STANDARDEBENE
 62
     7
100
AcDbVertex
100
AcDb2dVertex
 10
86.6951388672151
 20
207.694471519257
 30
0.0
  0
SEQEND
  5
164
330
161
100
AcDbEntity
  8
STANDARDEBENE
  0
POLYLINE
  5
165
330
1F
100
AcDbEntity
  8
STANDARDEBENE
 62
     7
100
AcDb2dPolyline
 66
     1
 10
0.0
 20
0.0
 30
0.0
  0
VERTEX
  5
166
330
165
100
AcDbEntity
  8
STANDARDEBENE
 62
     7
100
AcDbVertex
100
AcDb2dVertex
 10
85.69468313829856
 20
207.694471519257
 30
0.0
  0
VERTEX
  5
167
330
165
100
AcDbEntity
  8
STANDARDEBENE
 62
     7
100
AcDbVertex
100
AcDb2dVertex
 10
84.69491642847905
 20
207.694471519257
 30
0.0
  0
SEQEND
  5
168
330
165
100
AcDbEntity
  8
STANDARDEBENE
  0
POLYLINE
  5
169
330
1F
100
AcDbEntity
  8
STANDARDEBENE
 62
     7
100
AcDb2dPolyline
 66
     1
 10
0.0
 20
0.0
 30
0.0
  0
VERTEX
  5
16A
330
169
100
AcDbEntity
  8
STANDARDEBENE
 62
     7
100
AcDbVertex
100
AcDb2dVertex
 10
83.69514971865955
 20
207.694471519257
 30
0.0
  0
VERTEX
  5
16B
330
169
100
AcDbEntity
  8
STANDARDEBENE
 62
     7
100
AcDbVertex
100
AcDb2dVertex
 10
82.69503849929153
 20
207.694471519257
 30
0.0
  0
SEQEND
  5
16C
330
169
100
AcDbEntity
  8
STANDARDEBENE
  0
POLYLINE
  5
16D
330
1F
100
AcDbEntity
  8
STANDARDEBENE
 62
     7
100
AcDb2dPolyline
 66
     1
 10
0.0
 20
0.0
 30
0.0
  0
VERTEX
  5
16E
330
16D
100
AcDbEntity
  8
STANDARDEBENE
 62
     7
100
AcDbVertex
100
AcDb2dVertex
 10
81.69492727992349
 20
207.694471519257
 30
0.0
  0
VERTEX
  5
16F
330
16D
100
AcDbEntity
  8
STANDARDEBENE
 62
     7
100
AcDbVertex
100
AcDb2dVertex
 10
81.19469941546522
 20
207.694471519257
 30
0.0
  0
SEQEND
  5
170
330
16D
100
AcDbEntity
  8
STANDARDEBENE
  0
POLYLINE
  5
171
330
1F
100
AcDbEntity
  8
STANDARDEBENE
 62
     7
100
AcDb2dPolyline
 66
     1
 10
0.0
 20
0.0
 30
0.0
  0
VERTEX
  5
172
330
171
100
AcDbEntity
  8
STANDARDEBENE
 62
     7
100
AcDbVertex
100
AcDb2dVertex
 10
81.19469941546522
 20
201.6943209673716
 30
0.0
  0
VERTEX
  5
173
330
171
100
AcDbEntity
  8
STANDARDEBENE
 62
     7
100
AcDbVertex
100
AcDb2dVertex
 10
81.69492727992349
 20
201.6943209673716
 30
0.0
  0
SEQEND
  5
174
330
171
100
AcDbEntity
  8
STANDARDEBENE
  0
POLYLINE
  5
175
330
1F
100
AcDbEntity
  8
STANDARDEBENE
 62
     7
100
AcDb2dPolyline
 66
     1
 10
0.0
 20
0.0
 30
0.0
  0
VERTEX
  5
176
330
175
100
AcDbEntity
  8
STANDARDEBENE
 62
     7
100
AcDbVertex
100
AcDb2dVertex
 10
82.69503849929153
 20
201.6943209673716
 30
0.0
  0
VERTEX
  5
177
330
175
100
AcDbEntity
  8
STANDARDEBENE
 62
     7
100
AcDbVertex
100
AcDb2dVertex
 10
83.69514971865955
 20
201.6943209673716
 30
0.0
  0
SEQEND
  5
178
330
175
100
AcDbEntity
  8
STANDARDEBENE
  0
POLYLINE
  5
179
330
1F
100
AcDbEntity
  8
STANDARDEBENE
 62
     7
100
AcDb2dPolyline
 66
     1
 10
0.0
 20
0.0
 30
0.0
  0
VERTEX
  5
17A
330
179
100
AcDbEntity
  8
STANDARDEBENE
 62
     7
100
AcDbVertex
100
AcDb2dVertex
 10
84.69491642847905
 20
201.6943209673716
 30
0.0
  0
VERTEX
  5
17B
330
179
100
AcDbEntity
  8
STANDARDEBENE
 62
     7
100
AcDbVertex
100
AcDb2dVertex
 10
85.69468313829856
 20
201.6943209673716
 30
0.0
  0
SEQEND
  5
17C
330
179
100
AcDbEntity
  8
STANDARDEBENE
  0
POLYLINE
  5
17D
330
1F
100
AcDbEntity
  8
STANDARDEBENE
 62
     7
100
AcDb2dPolyline
 66
     1
 10
0.0
 20
0.0
 30
0.0
  0
VERTEX
  5
17E
330
17D
100
AcDbEntity
  8
STANDARDEBENE
 62
     7
100
AcDbVertex
100
AcDb2dVertex
 10
86.6951388672151
 20
201.6943209673716
 30
0.0
  0
VERTEX
  5
17F
330
17D
100
AcDbEntity
  8
STANDARDEBENE
 62
     7
100
AcDbVertex
100
AcDb2dVertex
 10
87.69490557703462
 20
201.6943209673716
 30
0.0
  0
SEQEND
  5
180
330
17D
100
AcDbEntity
  8
STANDARDEBENE
  0
POLYLINE
  5
181
330
1F
100
AcDbEntity
  8
STANDARDEBENE
 62
     7
100
AcDb2dPolyline
 66
     1
 10
0.0
 20
0.0
 30
0.0
  0
VERTEX
  5
182
330
181
100
AcDbEntity
  8
STANDARDEBENE
 62
     7
100
AcDbVertex
100
AcDb2dVertex
 10
88.69501679640264
 20
201.6943209673716
 30
0.0
  0
VERTEX
  5
183
330
181
100
AcDbEntity
  8
STANDARDEBENE
 62
     7
100
AcDbVertex
100
AcDb2dVertex
 10
89.1949001513124
 20
201.6943209673716
 30
0.0
  0
SEQEND
  5
184
330
181
100
AcDbEntity
  8
STANDARDEBENE
  0
POLYLINE
  5
185
330
1F
100
AcDbEntity
  8
STANDARDEBENE
 62
     7
100
AcDb2dPolyline
 66
     1
 10
0.0
 20
0.0
 30
0.0
  0
VERTEX
  5
186
330
185
100
AcDbEntity
  8
STANDARDEBENE
 62
     7
100
AcDbVertex
100
AcDb2dVertex
 10
80.07108152295098
 20
198.421997020707
 30
0.0
  0
VERTEX
  5
187
330
185
100
AcDbEntity
  8
STANDARDEBENE
 62
     7
100
AcDbVertex
100
AcDb2dVertex
 10
80.11517874516218
 20
198.4116617342513
 30
0.0
  0
SEQEND
  5
188
330
185
100
AcDbEntity
  8
STANDARDEBENE
  0
POLYLINE
  5
189
330
1F
100
AcDbEntity
  8
STANDARDEBENE
 62
     7
100
AcDb2dPolyline
 66
     1
 10
0.0
 20
0.0
 30
0.0
  0
VERTEX
  5
18A
330
189
100
AcDbEntity
  8
STANDARDEBENE
 62
     7
100
AcDbVertex
100
AcDb2dVertex
 10
80.20475122777867
 20
198.3978813523103
 30
0.0
  0
VERTEX
  5
18B
330
189
100
AcDbEntity
  8
STANDARDEBENE
 62
     7
100
AcDbVertex
100
AcDb2dVertex
 10
80.24953746908693
 20
198.3947807663735
 30
0.0
  0
SEQEND
  5
18C
330
189
100
AcDbEntity
  8
STANDARDEBENE
  0
POLYLINE
  5
18D
330
1F
100
AcDbEntity
  8
STANDARDEBENE
 62
     7
100
AcDb2dPolyline
 66
     1
 10
0.0
 20
0.0
 30
0.0
  0
VERTEX
  5
18E
330
18D
100
AcDbEntity
  8
STANDARDEBENE
 62
     7
100
AcDbVertex
100
AcDb2dVertex
 10
80.24953746908693
 20
210.9945284845778
 30
0.0
  0
VERTEX
  5
18F
330
18D
100
AcDbEntity
  8
STANDARDEBENE
 62
     7
100
AcDbVertex
100
AcDb2dVertex
 10
80.20475122777867
 20
210.991427898641
 30
0.0
  0
SEQEND
  5
190
330
18D
100
AcDbEntity
  8
STANDARDEBENE
  0
POLYLINE
  5
191
330
1F
100
AcDbEntity
  8
STANDARDEBENE
 62
     7
100
AcDb2dPolyline
 66
     1
 10
0.0
 20
0.0
 30
0.0
  0
VERTEX
  5
192
330
191
100
AcDbEntity
  8
STANDARDEBENE
 62
     7
100
AcDbVertex
100
AcDb2dVertex
 10
80.11517874516218
 20
210.9776475167
 30
0.0
  0
VERTEX
  5
193
330
191
100
AcDbEntity
  8
STANDARDEBENE
 62
     7
100
AcDbVertex
100
AcDb2dVertex
 10
80.07108152295098
 20
210.9674844850186
 30
0.0
  0
SEQEND
  5
194
330
191
100
AcDbEntity
  8
STANDARDEBENE
  0
POLYLINE
  5
195
330
1F
100
AcDbEntity
  8
STANDARDEBENE
 62
     7
100
AcDb2dPolyline
 66
     1
 10
0.0
 20
0.0
 30
0.0
  0
VERTEX
  5
196
330
195
100
AcDbEntity
  8
STANDARDEBENE
 62
     7
100
AcDbVertex
100
AcDb2dVertex
 10
80.5945637819347
 20
198.3947807663735
 30
0.0
  0
VERTEX
  5
197
330
195
100
AcDbEntity
  8
STANDARDEBENE
 62
     7
100
AcDbVertex
100
AcDb2dVertex
 10
80.80729842814887
 20
198.4826307012474
 30
0.0
  0
SEQEND
  5
198
330
195
100
AcDbEntity
  8
STANDARDEBENE
  0
POLYLINE
  5
199
330
1F
100
AcDbEntity
  8
STANDARDEBENE
 62
     7
100
AcDb2dPolyline
 66
     1
 10
0.0
 20
0.0
 30
0.0
  0
VERTEX
  5
19A
330
199
100
AcDbEntity
  8
STANDARDEBENE
 62
     7
100
AcDbVertex
100
AcDb2dVertex
 10
81.10684948059135
 20
198.7821817536899
 30
0.0
  0
VERTEX
  5
19B
330
199
100
AcDbEntity
  8
STANDARDEBENE
 62
     7
100
AcDbVertex
100
AcDb2dVertex
 10
81.19469941546522
 20
198.994227380807
 30
0.0
  0
SEQEND
  5
19C
330
199
100
AcDbEntity
  8
STANDARDEBENE
  0
POLYLINE
  5
19D
330
1F
100
AcDbEntity
  8
STANDARDEBENE
 62
     7
100
AcDb2dPolyline
 66
     1
 10
0.0
 20
0.0
 30
0.0
  0
VERTEX
  5
19E
330
19D
100
AcDbEntity
  8
STANDARDEBENE
 62
     7
100
AcDbVertex
100
AcDb2dVertex
 10
81.19469941546522
 20
210.3945651058215
 30
0.0
  0
VERTEX
  5
19F
330
19D
100
AcDbEntity
  8
STANDARDEBENE
 62
     7
100
AcDbVertex
100
AcDb2dVertex
 10
81.10684948059135
 20
210.6066107329386
 30
0.0
  0
SEQEND
  5
1A0
330
19D
100
AcDbEntity
  8
STANDARDEBENE
  0
POLYLINE
  5
1A1
330
1F
100
AcDbEntity
  8
STANDARDEBENE
 62
     7
100
AcDb2dPolyline
 66
     1
 10
0.0
 20
0.0
 30
0.0
  0
VERTEX
  5
1A2
330
1A1
100
AcDbEntity
  8
STANDARDEBENE
 62
     7
100
AcDbVertex
100
AcDb2dVertex
 10
80.80729842814887
 20
210.9066785497039
 30
0.0
  0
VERTEX
  5
1A3
330
1A1
100
AcDbEntity
  8
STANDARDEBENE
 62
     7
100
AcDbVertex
100
AcDb2dVertex
 10
80.5945637819347
 20
210.9945284845778
 30
0.0
  0
SEQEND
  5
1A4
330
1A1
100
AcDbEntity
  8
STANDARDEBENE
  0
POLYLINE
  5
1A5
330
1F
100
AcDbEntity
  8
STANDARDEBENE
 62
     7
100
AcDb2dPolyline
 66
     1
 10
0.0
 20
0.0
 30
0.0
  0
VERTEX
  5
1A6
330
1A5
100
AcDbEntity
  8
STANDARDEBENE
 62
     7
100
AcDbVertex
100
AcDb2dVertex
 10
61.69476994985409
 20
204.6944823707014
 30
0.0
  0
VERTEX
  5
1A7
330
1A5
100
AcDbEntity
  8
STANDARDEBENE
 62
     7
100
AcDbVertex
100
AcDb2dVertex
 10
61.69476994985409
 20
205.1924709230942
 30
0.0
  0
SEQEND
  5
1A8
330
1A5
100
AcDbEntity
  8
STANDARDEBENE
  0
POLYLINE
  5
1A9
330
1F
100
AcDbEntity
  8
STANDARDEBENE
 62
     7
100
AcDb2dPolyline
 66
     1
 10
0.0
 20
0.0
 30
0.0
  0
VERTEX
  5
1AA
330
1A9
100
AcDbEntity
  8
STANDARDEBENE
 62
     7
100
AcDbVertex
100
AcDb2dVertex
 10
61.69476994985409
 20
206.1882757731057
 30
0.0
  0
VERTEX
  5
1AB
330
1A9
100
AcDbEntity
  8
STANDARDEBENE
 62
     7
100
AcDbVertex
100
AcDb2dVertex
 10
61.69476994985409
 20
206.8617919404721
 30
0.0
  0
VERTEX
  5
1AC
330
1A9
100
AcDbEntity
  8
STANDARDEBENE
 62
     7
100
AcDbVertex
100
AcDb2dVertex
 10
61.69476994985409
 20
207.1839083683429
 30
0.0
  0
SEQEND
  5
1AD
330
1A9
100
AcDbEntity
  8
STANDARDEBENE
  0
POLYLINE
  5
1AE
330
1F
100
AcDbEntity
  8
STANDARDEBENE
 62
     7
100
AcDb2dPolyline
 66
     1
 10
0.0
 20
0.0
 30
0.0
  0
VERTEX
  5
1AF
330
1AE
100
AcDbEntity
  8
STANDARDEBENE
 62
     7
100
AcDbVertex
100
AcDb2dVertex
 10
61.69476994985409
 20
208.1795409635801
 30
0.0
  0
VERTEX
  5
1B0
330
1AE
100
AcDbEntity
  8
STANDARDEBENE
 62
     7
100
AcDbVertex
100
AcDb2dVertex
 10
61.69476994985409
 20
208.7369574130935
 30
0.0
  0
VERTEX
  5
1B1
330
1AE
100
AcDbEntity
  8
STANDARDEBENE
 62
     7
100
AcDbVertex
100
AcDb2dVertex
 10
61.69476994985409
 20
209.1750013040431
 30
0.0
  0
SEQEND
  5
1B2
330
1AE
100
AcDbEntity
  8
STANDARDEBENE
  0
SPLINE
  5
1B3
330
1F
100
AcDbEntity
  8
STANDARDEBENE
 62
     7
100
AcDbSpline
210
0.0
220
0.0
230
1.0
 70
    27
 71
     3
 72
    17
 73
    13
 74
     0
 42
0.0000000001
 43
0.0000000001
 40
0.0
 40
0.0
 40
0.0
 40
0.0
 40
1.0
 40
1.0
 40
1.0
 40
2.0
 40
2.0
 40
2.0
 40
3.0
 40
3.0
 40
3.0
 40
4.0
 40
4.0
 40
4.0
 40
4.0
 10
61.69476994985409
 20
210.1708061540545
 30
0.0
 10
61.69476994985409
 20
210.1708061540545
 30
0.0
 10
61.69476994985409
 20
210.4657063275919
 30
0.0
 10
61.69476994985409
 20
210.4657063275919
 30
0.0
 10
61.69476994985409
 20
210.4657063275919
 30
0.0
 10
61.69476994985409
 20
210.6689669612217
 30
0.0
 10
61.69476994985409
 20
210.6689669612217
 30
0.0
 10
61.69476994985409
 20
210.6689669612217
 30
0.0
 10
61.69476994985409
 20
210.4657063275919
 30
0.0
 10
61.69476994985409
 20
210.4657063275919
 30
0.0
 10
61.69476994985409
 20
210.4657063275919
 30
0.0
 10
61.69476994985409
 20
210.1708061540545
 30
0.0
 10
61.69476994985409
 20
210.1708061540545
 30
0.0
  0
POLYLINE
  5
1B4
330
1F
100
AcDbEntity
  8
STANDARDEBENE
 62
     7
100
AcDb2dPolyline
 66
     1
 10
0.0
 20
0.0
 30
0.0
  0
VERTEX
  5
1B5
330
1B4
100
AcDbEntity
  8
STANDARDEBENE
 62
     7
100
AcDbVertex
100
AcDb2dVertex
 10
61.69476994985409
 20
209.1750013040431
 30
0.0
  0
VERTEX
  5
1B6
330
1B4
100
AcDbEntity
  8
STANDARDEBENE
 62
     7
100
AcDbVertex
100
AcDb2dVertex
 10
61.69476994985409
 20
208.7369574130935
 30
0.0
  0
VERTEX
  5
1B7
330
1B4
100
AcDbEntity
  8
STANDARDEBENE
 62
     7
100
AcDbVertex
100
AcDb2dVertex
 10
61.69476994985409
 20
208.1795409635801
 30
0.0
  0
SEQEND
  5
1B8
330
1B4
100
AcDbEntity
  8
STANDARDEBENE
  0
POLYLINE
  5
1B9
330
1F
100
AcDbEntity
  8
STANDARDEBENE
 62
     7
100
AcDb2dPolyline
 66
     1
 10
0.0
 20
0.0
 30
0.0
  0
VERTEX
  5
1BA
330
1B9
100
AcDbEntity
  8
STANDARDEBENE
 62
     7
100
AcDbVertex
100
AcDb2dVertex
 10
61.69476994985409
 20
207.1839083683429
 30
0.0
  0
VERTEX
  5
1BB
330
1B9
100
AcDbEntity
  8
STANDARDEBENE
 62
     7
100
AcDbVertex
100
AcDb2dVertex
 10
61.69476994985409
 20
206.8617919404721
 30
0.0
  0
VERTEX
  5
1BC
330
1B9
100
AcDbEntity
  8
STANDARDEBENE
 62
     7
100
AcDbVertex
100
AcDb2dVertex
 10
61.69476994985409
 20
206.1882757731057
 30
0.0
  0
SEQEND
  5
1BD
330
1B9
100
AcDbEntity
  8
STANDARDEBENE
  0
POLYLINE
  5
1BE
330
1F
100
AcDbEntity
  8
STANDARDEBENE
 62
     7
100
AcDb2dPolyline
 66
     1
 10
0.0
 20
0.0
 30
0.0
  0
VERTEX
  5
1BF
330
1BE
100
AcDbEntity
  8
STANDARDEBENE
 62
     7
100
AcDbVertex
100
AcDb2dVertex
 10
61.69476994985409
 20
205.1924709230942
 30
0.0
  0
VERTEX
  5
1C0
330
1BE
100
AcDbEntity
  8
STANDARDEBENE
 62
     7
100
AcDbVertex
100
AcDb2dVertex
 10
61.69476994985409
 20
204.6944823707014
 30
0.0
  0
VERTEX
  5
1C1
330
1BE
100
AcDbEntity
  8
STANDARDEBENE
 62
     7
100
AcDbVertex
100
AcDb2dVertex
 10
61.69476994985409
 20
204.1970105826313
 30
0.0
  0
SEQEND
  5
1C2
330
1BE
100
AcDbEntity
  8
STANDARDEBENE
  0
POLYLINE
  5
1C3
330
1F
100
AcDbEntity
  8
STANDARDEBENE
 62
     7
100
AcDb2dPolyline
 66
     1
 10
0.0
 20
0.0
 30
0.0
  0
VERTEX
  5
1C4
330
1C3
100
AcDbEntity
  8
STANDARDEBENE
 62
     7
100
AcDbVertex
100
AcDb2dVertex
 10
61.69476994985409
 20
203.2010334778456
 30
0.0
  0
VERTEX
  5
1C5
330
1C3
100
AcDbEntity
  8
STANDARDEBENE
 62
     7
100
AcDbVertex
100
AcDb2dVertex
 10
61.69476994985409
 20
202.5268282913822
 30
0.0
  0
VERTEX
  5
1C6
330
1C3
100
AcDbEntity
  8
STANDARDEBENE
 62
     7
100
AcDbVertex
100
AcDb2dVertex
 10
61.69476994985409
 20
202.2047118635113
 30
0.0
  0
SEQEND
  5
1C7
330
1C3
100
AcDbEntity
  8
STANDARDEBENE
  0
POLYLINE
  5
1C8
330
1F
100
AcDbEntity
  8
STANDARDEBENE
 62
     7
100
AcDb2dPolyline
 66
     1
 10
0.0
 20
0.0
 30
0.0
  0
VERTEX
  5
1C9
330
1C8
100
AcDbEntity
  8
STANDARDEBENE
 62
     7
100
AcDbVertex
100
AcDb2dVertex
 10
61.69476994985409
 20
201.2092515230484
 30
0.0
  0
VERTEX
  5
1CA
330
1C8
100
AcDbEntity
  8
STANDARDEBENE
 62
     7
100
AcDbVertex
100
AcDb2dVertex
 10
61.69476994985409
 20
200.6523518378578
 30
0.0
  0
VERTEX
  5
1CB
330
1C8
100
AcDbEntity
  8
STANDARDEBENE
 62
     7
100
AcDbVertex
100
AcDb2dVertex
 10
61.69476994985409
 20
200.2134466730369
 30
0.0
  0
SEQEND
  5
1CC
330
1C8
100
AcDbEntity
  8
STANDARDEBENE
  0
SPLINE
  5
1CD
330
1F
100
AcDbEntity
  8
STANDARDEBENE
 62
     7
100
AcDbSpline
210
0.0
220
0.0
230
1.0
 70
    27
 71
     3
 72
    17
 73
    13
 74
     0
 42
0.0000000001
 43
0.0000000001
 40
0.0
 40
0.0
 40
0.0
 40
0.0
 40
1.0
 40
1.0
 40
1.0
 40
2.0
 40
2.0
 40
2.0
 40
3.0
 40
3.0
 40
3.0
 40
4.0
 40
4.0
 40
4.0
 40
4.0
 10
61.69476994985409
 20
199.2178140777997
 30
0.0
 10
61.69476994985409
 20
199.2178140777997
 30
0.0
 10
61.69476994985409
 20
198.9236029233594
 30
0.0
 10
61.69476994985409
 20
198.9236029233594
 30
0.0
 10
61.69476994985409
 20
198.9236029233594
 30
0.0
 10
61.69476994985409
 20
198.7203422897296
 30
0.0
 10
61.69476994985409
 20
198.7203422897296
 30
0.0
 10
61.69476994985409
 20
198.7203422897296
 30
0.0
 10
61.69476994985409
 20
198.9236029233594
 30
0.0
 10
61.69476994985409
 20
198.9236029233594
 30
0.0
 10
61.69476994985409
 20
198.9236029233594
 30
0.0
 10
61.69476994985409
 20
199.2178140777997
 30
0.0
 10
61.69476994985409
 20
199.2178140777997
 30
0.0
  0
POLYLINE
  5
1CE
330
1F
100
AcDbEntity
  8
STANDARDEBENE
 62
     7
100
AcDb2dPolyline
 66
     1
 10
0.0
 20
0.0
 30
0.0
  0
VERTEX
  5
1CF
330
1CE
100
AcDbEntity
  8
STANDARDEBENE
 62
     7
100
AcDbVertex
100
AcDb2dVertex
 10
61.69476994985409
 20
200.2134466730369
 30
0.0
  0
VERTEX
  5
1D0
330
1CE
100
AcDbEntity
  8
STANDARDEBENE
 62
     7
100
AcDbVertex
100
AcDb2dVertex
 10
61.69476994985409
 20
200.6523518378578
 30
0.0
  0
VERTEX
  5
1D1
330
1CE
100
AcDbEntity
  8
STANDARDEBENE
 62
     7
100
AcDbVertex
100
AcDb2dVertex
 10
61.69476994985409
 20
201.2092515230484
 30
0.0
  0
SEQEND
  5
1D2
330
1CE
100
AcDbEntity
  8
STANDARDEBENE
  0
POLYLINE
  5
1D3
330
1F
100
AcDbEntity
  8
STANDARDEBENE
 62
     7
100
AcDb2dPolyline
 66
     1
 10
0.0
 20
0.0
 30
0.0
  0
VERTEX
  5
1D4
330
1D3
100
AcDbEntity
  8
STANDARDEBENE
 62
     7
100
AcDbVertex
100
AcDb2dVertex
 10
61.69476994985409
 20
202.2047118635113
 30
0.0
  0
VERTEX
  5
1D5
330
1D3
100
AcDbEntity
  8
STANDARDEBENE
 62
     7
100
AcDbVertex
100
AcDb2dVertex
 10
61.69476994985409
 20
202.5268282913822
 30
0.0
  0
VERTEX
  5
1D6
330
1D3
100
AcDbEntity
  8
STANDARDEBENE
 62
     7
100
AcDbVertex
100
AcDb2dVertex
 10
61.69476994985409
 20
203.2010334778456
 30
0.0
  0
SEQEND
  5
1D7
330
1D3
100
AcDbEntity
  8
STANDARDEBENE
  0
POLYLINE
  5
1D8
330
1F
100
AcDbEntity
  8
STANDARDEBENE
 62
     7
100
AcDb2dPolyline
 66
     1
 10
0.0
 20
0.0
 30
0.0
  0
VERTEX
  5
1D9
330
1D8
100
AcDbEntity
  8
STANDARDEBENE
 62
     7
100
AcDbVertex
100
AcDb2dVertex
 10
61.69476994985409
 20
204.1970105826313
 30
0.0
  0
VERTEX
  5
1DA
330
1D8
100
AcDbEntity
  8
STANDARDEBENE
 62
     7
100
AcDbVertex
100
AcDb2dVertex
 10
61.69476994985409
 20
204.6944823707014
 30
0.0
  0
SEQEND
  5
1DB
330
1D8
100
AcDbEntity
  8
STANDARDEBENE
  0
POLYLINE
  5
1DC
330
1F
100
AcDbEntity
  8
STANDARDEBENE
 62
     7
100
AcDb2dPolyline
 66
     1
 10
0.0
 20
0.0
 30
0.0
  0
VERTEX
  5
1DD
330
1DC
100
AcDbEntity
  8
STANDARDEBENE
 62
     7
100
AcDbVertex
100
AcDb2dVertex
 10
72.19455971502428
 20
204.6944823707014
 30
0.0
  0
VERTEX
  5
1DE
330
1DC
100
AcDbEntity
  8
STANDARDEBENE
 62
     7
100
AcDbVertex
100
AcDb2dVertex
 10
72.56990286814225
 20
205.0693087594966
 30
0.0
  0
SEQEND
  5
1DF
330
1DC
100
AcDbEntity
  8
STANDARDEBENE
  0
POLYLINE
  5
1E0
330
1F
100
AcDbEntity
  8
STANDARDEBENE
 62
     7
100
AcDb2dPolyline
 66
     1
 10
0.0
 20
0.0
 30
0.0
  0
VERTEX
  5
1E1
330
1E0
100
AcDbEntity
  8
STANDARDEBENE
 62
     7
100
AcDbVertex
100
AcDb2dVertex
 10
73.31990015528113
 20
205.819650556184
 30
0.0
  0
VERTEX
  5
1E2
330
1E0
100
AcDbEntity
  8
STANDARDEBENE
 62
     7
100
AcDbVertex
100
AcDb2dVertex
 10
74.04871010518575
 20
206.5489772704114
 30
0.0
  0
VERTEX
  5
1E3
330
1E0
100
AcDbEntity
  8
STANDARDEBENE
 62
     7
100
AcDbVertex
100
AcDb2dVertex
 10
74.0695529328715
 20
206.5696478433229
 30
0.0
  0
SEQEND
  5
1E4
330
1E0
100
AcDbEntity
  8
STANDARDEBENE
  0
POLYLINE
  5
1E5
330
1F
100
AcDbEntity
  8
STANDARDEBENE
 62
     7
100
AcDb2dPolyline
 66
     1
 10
0.0
 20
0.0
 30
0.0
  0
VERTEX
  5
1E6
330
1E5
100
AcDbEntity
  8
STANDARDEBENE
 62
     7
100
AcDbVertex
100
AcDb2dVertex
 10
74.8195502200104
 20
207.3193006209133
 30
0.0
  0
VERTEX
  5
1E7
330
1E5
100
AcDbEntity
  8
STANDARDEBENE
 62
     7
100
AcDbVertex
100
AcDb2dVertex
 10
74.91876896998559
 20
207.4181748613399
 30
0.0
  0
VERTEX
  5
1E8
330
1E5
100
AcDbEntity
  8
STANDARDEBENE
 62
     7
100
AcDbVertex
100
AcDb2dVertex
 10
75.56954750714928
 20
208.0692979080521
 30
0.0
  0
SEQEND
  5
1E9
330
1E5
100
AcDbEntity
  8
STANDARDEBENE
  0
POLYLINE
  5
1EA
330
1F
100
AcDbEntity
  8
STANDARDEBENE
 62
     7
100
AcDb2dPolyline
 66
     1
 10
0.0
 20
0.0
 30
0.0
  0
VERTEX
  5
1EB
330
1EA
100
AcDbEntity
  8
STANDARDEBENE
 62
     7
100
AcDbVertex
100
AcDb2dVertex
 10
76.3198893038367
 20
208.819295195191
 30
0.0
  0
VERTEX
  5
1EC
330
1EA
100
AcDbEntity
  8
STANDARDEBENE
 62
     7
100
AcDbVertex
100
AcDb2dVertex
 10
76.43771156943224
 20
208.9371174607866
 30
0.0
  0
VERTEX
  5
1ED
330
1EA
100
AcDbEntity
  8
STANDARDEBENE
 62
     7
100
AcDbVertex
100
AcDb2dVertex
 10
77.04921601806409
 20
209.5486219094184
 30
0.0
  0
VERTEX
  5
1EE
330
1EA
100
AcDbEntity
  8
STANDARDEBENE
 62
     7
100
AcDbVertex
100
AcDb2dVertex
 10
77.06988659097559
 20
209.5698092466527
 30
0.0
  0
SEQEND
  5
1EF
330
1EA
100
AcDbEntity
  8
STANDARDEBENE
  0
SPLINE
  5
1F0
330
1F
100
AcDbEntity
  8
STANDARDEBENE
 62
     7
100
AcDbSpline
210
0.0
220
0.0
230
1.0
 70
    11
 71
     3
 72
    23
 73
    19
 74
     0
 42
0.0000000001
 43
0.0000000001
 40
0.0
 40
0.0
 40
0.0
 40
0.0
 40
1.0
 40
1.0
 40
1.0
 40
2.0
 40
2.0
 40
2.0
 40
3.0
 40
3.0
 40
3.0
 40
4.0
 40
4.0
 40
4.0
 40
5.0
 40
5.0
 40
5.0
 40
6.0
 40
6.0
 40
6.0
 40
6.0
 10
77.81988387811448
 20
210.3198065337916
 30
0.0
 10
77.81988387811448
 20
210.3198065337916
 30
0.0
 10
77.9015326411149
 20
210.4009385324692
 30
0.0
 10
77.9015326411149
 20
210.4009385324692
 30
0.0
 10
77.9015326411149
 20
210.4009385324692
 30
0.0
 10
78.12081296875105
 20
210.6203911148796
 30
0.0
 10
78.12081296875105
 20
210.6203911148796
 30
0.0
 10
78.12081296875105
 20
210.6203911148796
 30
0.0
 10
78.19488252168392
 20
210.694805177361
 30
0.0
 10
78.19488252168392
 20
210.694805177361
 30
0.0
 10
78.19488252168392
 20
210.694805177361
 30
0.0
 10
78.12081296875105
 20
210.6203911148796
 30
0.0
 10
78.12081296875105
 20
210.6203911148796
 30
0.0
 10
78.12081296875105
 20
210.6203911148796
 30
0.0
 10
77.9015326411149
 20
210.4009385324692
 30
0.0
 10
77.9015326411149
 20
210.4009385324692
 30
0.0
 10
77.9015326411149
 20
210.4009385324692
 30
0.0
 10
77.81988387811448
 20
210.3198065337916
 30
0.0
 10
77.81988387811448
 20
210.3198065337916
 30
0.0
  0
POLYLINE
  5
1F1
330
1F
100
AcDbEntity
  8
STANDARDEBENE
 62
     7
100
AcDb2dPolyline
 66
     1
 10
0.0
 20
0.0
 30
0.0
  0
VERTEX
  5
1F2
330
1F1
100
AcDbEntity
  8
STANDARDEBENE
 62
     7
100
AcDbVertex
100
AcDb2dVertex
 10
77.06988659097559
 20
209.5698092466527
 30
0.0
  0
VERTEX
  5
1F3
330
1F1
100
AcDbEntity
  8
STANDARDEBENE
 62
     7
100
AcDbVertex
100
AcDb2dVertex
 10
77.04921601806409
 20
209.5486219094184
 30
0.0
  0
VERTEX
  5
1F4
330
1F1
100
AcDbEntity
  8
STANDARDEBENE
 62
     7
100
AcDbVertex
100
AcDb2dVertex
 10
76.43771156943224
 20
208.9371174607866
 30
0.0
  0
VERTEX
  5
1F5
330
1F1
100
AcDbEntity
  8
STANDARDEBENE
 62
     7
100
AcDbVertex
100
AcDb2dVertex
 10
76.3198893038367
 20
208.819295195191
 30
0.0
  0
SEQEND
  5
1F6
330
1F1
100
AcDbEntity
  8
STANDARDEBENE
  0
POLYLINE
  5
1F7
330
1F
100
AcDbEntity
  8
STANDARDEBENE
 62
     7
100
AcDb2dPolyline
 66
     1
 10
0.0
 20
0.0
 30
0.0
  0
VERTEX
  5
1F8
330
1F7
100
AcDbEntity
  8
STANDARDEBENE
 62
     7
100
AcDbVertex
100
AcDb2dVertex
 10
75.56954750714928
 20
208.0692979080521
 30
0.0
  0
VERTEX
  5
1F9
330
1F7
100
AcDbEntity
  8
STANDARDEBENE
 62
     7
100
AcDbVertex
100
AcDb2dVertex
 10
74.91876896998559
 20
207.4181748613399
 30
0.0
  0
VERTEX
  5
1FA
330
1F7
100
AcDbEntity
  8
STANDARDEBENE
 62
     7
100
AcDbVertex
100
AcDb2dVertex
 10
74.8195502200104
 20
207.3193006209133
 30
0.0
  0
SEQEND
  5
1FB
330
1F7
100
AcDbEntity
  8
STANDARDEBENE
  0
POLYLINE
  5
1FC
330
1F
100
AcDbEntity
  8
STANDARDEBENE
 62
     7
100
AcDb2dPolyline
 66
     1
 10
0.0
 20
0.0
 30
0.0
  0
VERTEX
  5
1FD
330
1FC
100
AcDbEntity
  8
STANDARDEBENE
 62
     7
100
AcDbVertex
100
AcDb2dVertex
 10
74.0695529328715
 20
206.5696478433229
 30
0.0
  0
VERTEX
  5
1FE
330
1FC
100
AcDbEntity
  8
STANDARDEBENE
 62
     7
100
AcDbVertex
100
AcDb2dVertex
 10
74.04871010518575
 20
206.5489772704114
 30
0.0
  0
VERTEX
  5
1FF
330
1FC
100
AcDbEntity
  8
STANDARDEBENE
 62
     7
100
AcDbVertex
100
AcDb2dVertex
 10
73.31990015528113
 20
205.819650556184
 30
0.0
  0
SEQEND
  5
200
330
1FC
100
AcDbEntity
  8
STANDARDEBENE
  0
POLYLINE
  5
201
330
1F
100
AcDbEntity
  8
STANDARDEBENE
 62
     7
100
AcDb2dPolyline
 66
     1
 10
0.0
 20
0.0
 30
0.0
  0
VERTEX
  5
202
330
201
100
AcDbEntity
  8
STANDARDEBENE
 62
     7
100
AcDbVertex
100
AcDb2dVertex
 10
72.56990286814225
 20
205.0693087594966
 30
0.0
  0
VERTEX
  5
203
330
201
100
AcDbEntity
  8
STANDARDEBENE
 62
     7
100
AcDbVertex
100
AcDb2dVertex
 10
72.19455971502428
 20
204.6944823707014
 30
0.0
  0
VERTEX
  5
204
330
201
100
AcDbEntity
  8
STANDARDEBENE
 62
     7
100
AcDbVertex
100
AcDb2dVertex
 10
71.81990558100335
 20
205.0693087594966
 30
0.0
  0
SEQEND
  5
205
330
201
100
AcDbEntity
  8
STANDARDEBENE
  0
POLYLINE
  5
206
330
1F
100
AcDbEntity
  8
STANDARDEBENE
 62
     7
100
AcDb2dPolyline
 66
     1
 10
0.0
 20
0.0
 30
0.0
  0
VERTEX
  5
207
330
206
100
AcDbEntity
  8
STANDARDEBENE
 62
     7
100
AcDbVertex
100
AcDb2dVertex
 10
71.06956378431595
 20
205.819650556184
 30
0.0
  0
VERTEX
  5
208
330
206
100
AcDbEntity
  8
STANDARDEBENE
 62
     7
100
AcDbVertex
100
AcDb2dVertex
 10
70.34075383441134
 20
206.5489772704114
 30
0.0
  0
VERTEX
  5
209
330
206
100
AcDbEntity
  8
STANDARDEBENE
 62
     7
100
AcDbVertex
100
AcDb2dVertex
 10
70.31956649717705
 20
206.5696478433229
 30
0.0
  0
SEQEND
  5
20A
330
206
100
AcDbEntity
  8
STANDARDEBENE
  0
POLYLINE
  5
20B
330
1F
100
AcDbEntity
  8
STANDARDEBENE
 62
     7
100
AcDb2dPolyline
 66
     1
 10
0.0
 20
0.0
 30
0.0
  0
VERTEX
  5
20C
330
20B
100
AcDbEntity
  8
STANDARDEBENE
 62
     7
100
AcDbVertex
100
AcDb2dVertex
 10
69.56956921003817
 20
207.3193006209133
 30
0.0
  0
VERTEX
  5
20D
330
20B
100
AcDbEntity
  8
STANDARDEBENE
 62
     7
100
AcDbVertex
100
AcDb2dVertex
 10
69.4706949696115
 20
207.4181748613399
 30
0.0
  0
VERTEX
  5
20E
330
20B
100
AcDbEntity
  8
STANDARDEBENE
 62
     7
100
AcDbVertex
100
AcDb2dVertex
 10
68.8199164324478
 20
208.0692979080521
 30
0.0
  0
SEQEND
  5
20F
330
20B
100
AcDbEntity
  8
STANDARDEBENE
  0
POLYLINE
  5
210
330
1F
100
AcDbEntity
  8
STANDARDEBENE
 62
     7
100
AcDb2dPolyline
 66
     1
 10
0.0
 20
0.0
 30
0.0
  0
VERTEX
  5
211
330
210
100
AcDbEntity
  8
STANDARDEBENE
 62
     7
100
AcDbVertex
100
AcDb2dVertex
 10
68.06991914530892
 20
208.819295195191
 30
0.0
  0
VERTEX
  5
212
330
210
100
AcDbEntity
  8
STANDARDEBENE
 62
     7
100
AcDbVertex
100
AcDb2dVertex
 10
67.95244138926189
 20
208.9371174607866
 30
0.0
  0
VERTEX
  5
213
330
210
100
AcDbEntity
  8
STANDARDEBENE
 62
     7
100
AcDbVertex
100
AcDb2dVertex
 10
67.34110919540431
 20
209.5486219094184
 30
0.0
  0
VERTEX
  5
214
330
210
100
AcDbEntity
  8
STANDARDEBENE
 62
     7
100
AcDbVertex
100
AcDb2dVertex
 10
67.31992185817002
 20
209.5698092466527
 30
0.0
  0
SEQEND
  5
215
330
210
100
AcDbEntity
  8
STANDARDEBENE
  0
SPLINE
  5
216
330
1F
100
AcDbEntity
  8
STANDARDEBENE
 62
     7
100
AcDbSpline
210
0.0
220
0.0
230
1.0
 70
    11
 71
     3
 72
    23
 73
    19
 74
     0
 42
0.0000000001
 43
0.0000000001
 40
0.0
 40
0.0
 40
0.0
 40
0.0
 40
1.0
 40
1.0
 40
1.0
 40
2.0
 40
2.0
 40
2.0
 40
3.0
 40
3.0
 40
3.0
 40
4.0
 40
4.0
 40
4.0
 40
5.0
 40
5.0
 40
5.0
 40
6.0
 40
6.0
 40
6.0
 40
6.0
 10
66.56958006148261
 20
210.3198065337916
 30
0.0
 10
66.56958006148261
 20
210.3198065337916
 30
0.0
 10
66.4887925723535
 20
210.4009385324692
 30
0.0
 10
66.4887925723535
 20
210.4009385324692
 30
0.0
 10
66.4887925723535
 20
210.4009385324692
 30
0.0
 10
66.26865097084604
 20
210.6203911148796
 30
0.0
 10
66.26865097084604
 20
210.6203911148796
 30
0.0
 10
66.26865097084604
 20
210.6203911148796
 30
0.0
 10
66.19492592746168
 20
210.694805177361
 30
0.0
 10
66.19492592746168
 20
210.694805177361
 30
0.0
 10
66.19492592746168
 20
210.694805177361
 30
0.0
 10
66.26865097084604
 20
210.6203911148796
 30
0.0
 10
66.26865097084604
 20
210.6203911148796
 30
0.0
 10
66.26865097084604
 20
210.6203911148796
 30
0.0
 10
66.4887925723535
 20
210.4009385324692
 30
0.0
 10
66.4887925723535
 20
210.4009385324692
 30
0.0
 10
66.4887925723535
 20
210.4009385324692
 30
0.0
 10
66.56958006148261
 20
210.3198065337916
 30
0.0
 10
66.56958006148261
 20
210.3198065337916
 30
0.0
  0
POLYLINE
  5
217
330
1F
100
AcDbEntity
  8
STANDARDEBENE
 62
     7
100
AcDb2dPolyline
 66
     1
 10
0.0
 20
0.0
 30
0.0
  0
VERTEX
  5
218
330
217
100
AcDbEntity
  8
STANDARDEBENE
 62
     7
100
AcDbVertex
100
AcDb2dVertex
 10
67.31992185817002
 20
209.5698092466527
 30
0.0
  0
VERTEX
  5
219
330
217
100
AcDbEntity
  8
STANDARDEBENE
 62
     7
100
AcDbVertex
100
AcDb2dVertex
 10
67.34110919540431
 20
209.5486219094184
 30
0.0
  0
VERTEX
  5
21A
330
217
100
AcDbEntity
  8
STANDARDEBENE
 62
     7
100
AcDbVertex
100
AcDb2dVertex
 10
67.95244138926189
 20
208.9371174607866
 30
0.0
  0
VERTEX
  5
21B
330
217
100
AcDbEntity
  8
STANDARDEBENE
 62
     7
100
AcDbVertex
100
AcDb2dVertex
 10
68.06991914530892
 20
208.819295195191
 30
0.0
  0
SEQEND
  5
21C
330
217
100
AcDbEntity
  8
STANDARDEBENE
  0
POLYLINE
  5
21D
330
1F
100
AcDbEntity
  8
STANDARDEBENE
 62
     7
100
AcDb2dPolyline
 66
     1
 10
0.0
 20
0.0
 30
0.0
  0
VERTEX
  5
21E
330
21D
100
AcDbEntity
  8
STANDARDEBENE
 62
     7
100
AcDbVertex
100
AcDb2dVertex
 10
68.8199164324478
 20
208.0692979080521
 30
0.0
  0
VERTEX
  5
21F
330
21D
100
AcDbEntity
  8
STANDARDEBENE
 62
     7
100
AcDbVertex
100
AcDb2dVertex
 10
69.4706949696115
 20
207.4181748613399
 30
0.0
  0
VERTEX
  5
220
330
21D
100
AcDbEntity
  8
STANDARDEBENE
 62
     7
100
AcDbVertex
100
AcDb2dVertex
 10
69.56956921003817
 20
207.3193006209133
 30
0.0
  0
SEQEND
  5
221
330
21D
100
AcDbEntity
  8
STANDARDEBENE
  0
POLYLINE
  5
222
330
1F
100
AcDbEntity
  8
STANDARDEBENE
 62
     7
100
AcDb2dPolyline
 66
     1
 10
0.0
 20
0.0
 30
0.0
  0
VERTEX
  5
223
330
222
100
AcDbEntity
  8
STANDARDEBENE
 62
     7
100
AcDbVertex
100
AcDb2dVertex
 10
70.31956649717705
 20
206.5696478433229
 30
0.0
  0
VERTEX
  5
224
330
222
100
AcDbEntity
  8
STANDARDEBENE
 62
     7
100
AcDbVertex
100
AcDb2dVertex
 10
70.34075383441134
 20
206.5489772704114
 30
0.0
  0
VERTEX
  5
225
330
222
100
AcDbEntity
  8
STANDARDEBENE
 62
     7
100
AcDbVertex
100
AcDb2dVertex
 10
71.06956378431595
 20
205.819650556184
 30
0.0
  0
SEQEND
  5
226
330
222
100
AcDbEntity
  8
STANDARDEBENE
  0
POLYLINE
  5
227
330
1F
100
AcDbEntity
  8
STANDARDEBENE
 62
     7
100
AcDb2dPolyline
 66
     1
 10
0.0
 20
0.0
 30
0.0
  0
VERTEX
  5
228
330
227
100
AcDbEntity
  8
STANDARDEBENE
 62
     7
100
AcDbVertex
100
AcDb2dVertex
 10
71.81990558100335
 20
205.0693087594966
 30
0.0
  0
VERTEX
  5
229
330
227
100
AcDbEntity
  8
STANDARDEBENE
 62
     7
100
AcDbVertex
100
AcDb2dVertex
 10
72.19455971502428
 20
204.6944823707014
 30
0.0
  0
SEQEND
  5
22A
330
227
100
AcDbEntity
  8
STANDARDEBENE
  0
POLYLINE
  5
22B
330
1F
100
AcDbEntity
  8
STANDARDEBENE
 62
     7
100
AcDb2dPolyline
 66
     1
 10
0.0
 20
0.0
 30
0.0
  0
VERTEX
  5
22C
330
22B
100
AcDbEntity
  8
STANDARDEBENE
 62
     7
100
AcDbVertex
100
AcDb2dVertex
 10
79.19516599582622
 20
204.6944823707014
 30
0.0
  0
VERTEX
  5
22D
330
22B
100
AcDbEntity
  8
STANDARDEBENE
 62
     7
100
AcDbVertex
100
AcDb2dVertex
 10
79.19516599582622
 20
205.1924709230942
 30
0.0
  0
SEQEND
  5
22E
330
22B
100
AcDbEntity
  8
STANDARDEBENE
  0
POLYLINE
  5
22F
330
1F
100
AcDbEntity
  8
STANDARDEBENE
 62
     7
100
AcDb2dPolyline
 66
     1
 10
0.0
 20
0.0
 30
0.0
  0
VERTEX
  5
230
330
22F
100
AcDbEntity
  8
STANDARDEBENE
 62
     7
100
AcDbVertex
100
AcDb2dVertex
 10
79.19516599582622
 20
206.1882757731057
 30
0.0
  0
VERTEX
  5
231
330
22F
100
AcDbEntity
  8
STANDARDEBENE
 62
     7
100
AcDbVertex
100
AcDb2dVertex
 10
79.19516599582622
 20
206.8617919404721
 30
0.0
  0
VERTEX
  5
232
330
22F
100
AcDbEntity
  8
STANDARDEBENE
 62
     7
100
AcDbVertex
100
AcDb2dVertex
 10
79.19516599582622
 20
207.1839083683429
 30
0.0
  0
SEQEND
  5
233
330
22F
100
AcDbEntity
  8
STANDARDEBENE
  0
POLYLINE
  5
234
330
1F
100
AcDbEntity
  8
STANDARDEBENE
 62
     7
100
AcDb2dPolyline
 66
     1
 10
0.0
 20
0.0
 30
0.0
  0
VERTEX
  5
235
330
234
100
AcDbEntity
  8
STANDARDEBENE
 62
     7
100
AcDbVertex
100
AcDb2dVertex
 10
79.19516599582622
 20
208.1795409635801
 30
0.0
  0
VERTEX
  5
236
330
234
100
AcDbEntity
  8
STANDARDEBENE
 62
     7
100
AcDbVertex
100
AcDb2dVertex
 10
79.19516599582622
 20
208.7369574130935
 30
0.0
  0
VERTEX
  5
237
330
234
100
AcDbEntity
  8
STANDARDEBENE
 62
     7
100
AcDbVertex
100
AcDb2dVertex
 10
79.19516599582622
 20
209.1750013040431
 30
0.0
  0
SEQEND
  5
238
330
234
100
AcDbEntity
  8
STANDARDEBENE
  0
SPLINE
  5
239
330
1F
100
AcDbEntity
  8
STANDARDEBENE
 62
     7
100
AcDbSpline
210
0.0
220
0.0
230
1.0
 70
    27
 71
     3
 72
    17
 73
    13
 74
     0
 42
0.0000000001
 43
0.0000000001
 40
0.0
 40
0.0
 40
0.0
 40
0.0
 40
1.0
 40
1.0
 40
1.0
 40
2.0
 40
2.0
 40
2.0
 40
3.0
 40
3.0
 40
3.0
 40
4.0
 40
4.0
 40
4.0
 40
4.0
 10
79.19516599582622
 20
210.1708061540545
 30
0.0
 10
79.19516599582622
 20
210.1708061540545
 30
0.0
 10
79.19516599582622
 20
210.4657063275919
 30
0.0
 10
79.19516599582622
 20
210.4657063275919
 30
0.0
 10
79.19516599582622
 20
210.4657063275919
 30
0.0
 10
79.19516599582622
 20
210.6689669612217
 30
0.0
 10
79.19516599582622
 20
210.6689669612217
 30
0.0
 10
79.19516599582622
 20
210.6689669612217
 30
0.0
 10
79.19516599582622
 20
210.4657063275919
 30
0.0
 10
79.19516599582622
 20
210.4657063275919
 30
0.0
 10
79.19516599582622
 20
210.4657063275919
 30
0.0
 10
79.19516599582622
 20
210.1708061540545
 30
0.0
 10
79.19516599582622
 20
210.1708061540545
 30
0.0
  0
POLYLINE
  5
23A
330
1F
100
AcDbEntity
  8
STANDARDEBENE
 62
     7
100
AcDb2dPolyline
 66
     1
 10
0.0
 20
0.0
 30
0.0
  0
VERTEX
  5
23B
330
23A
100
AcDbEntity
  8
STANDARDEBENE
 62
     7
100
AcDbVertex
100
AcDb2dVertex
 10
79.19516599582622
 20
209.1750013040431
 30
0.0
  0
VERTEX
  5
23C
330
23A
100
AcDbEntity
  8
STANDARDEBENE
 62
     7
100
AcDbVertex
100
AcDb2dVertex
 10
79.19516599582622
 20
208.7369574130935
 30
0.0
  0
VERTEX
  5
23D
330
23A
100
AcDbEntity
  8
STANDARDEBENE
 62
     7
100
AcDbVertex
100
AcDb2dVertex
 10
79.19516599582622
 20
208.1795409635801
 30
0.0
  0
SEQEND
  5
23E
330
23A
100
AcDbEntity
  8
STANDARDEBENE
  0
POLYLINE
  5
23F
330
1F
100
AcDbEntity
  8
STANDARDEBENE
 62
     7
100
AcDb2dPolyline
 66
     1
 10
0.0
 20
0.0
 30
0.0
  0
VERTEX
  5
240
330
23F
100
AcDbEntity
  8
STANDARDEBENE
 62
     7
100
AcDbVertex
100
AcDb2dVertex
 10
79.19516599582622
 20
207.1839083683429
 30
0.0
  0
VERTEX
  5
241
330
23F
100
AcDbEntity
  8
STANDARDEBENE
 62
     7
100
AcDbVertex
100
AcDb2dVertex
 10
79.19516599582622
 20
206.8617919404721
 30
0.0
  0
VERTEX
  5
242
330
23F
100
AcDbEntity
  8
STANDARDEBENE
 62
     7
100
AcDbVertex
100
AcDb2dVertex
 10
79.19516599582622
 20
206.1882757731057
 30
0.0
  0
SEQEND
  5
243
330
23F
100
AcDbEntity
  8
STANDARDEBENE
  0
POLYLINE
  5
244
330
1F
100
AcDbEntity
  8
STANDARDEBENE
 62
     7
100
AcDb2dPolyline
 66
     1
 10
0.0
 20
0.0
 30
0.0
  0
VERTEX
  5
245
330
244
100
AcDbEntity
  8
STANDARDEBENE
 62
     7
100
AcDbVertex
100
AcDb2dVertex
 10
79.19516599582622
 20
205.1924709230942
 30
0.0
  0
VERTEX
  5
246
330
244
100
AcDbEntity
  8
STANDARDEBENE
 62
     7
100
AcDbVertex
100
AcDb2dVertex
 10
79.19516599582622
 20
204.6944823707014
 30
0.0
  0
VERTEX
  5
247
330
244
100
AcDbEntity
  8
STANDARDEBENE
 62
     7
100
AcDbVertex
100
AcDb2dVertex
 10
79.19516599582622
 20
204.1970105826313
 30
0.0
  0
SEQEND
  5
248
330
244
100
AcDbEntity
  8
STANDARDEBENE
  0
POLYLINE
  5
249
330
1F
100
AcDbEntity
  8
STANDARDEBENE
 62
     7
100
AcDb2dPolyline
 66
     1
 10
0.0
 20
0.0
 30
0.0
  0
VERTEX
  5
24A
330
249
100
AcDbEntity
  8
STANDARDEBENE
 62
     7
100
AcDbVertex
100
AcDb2dVertex
 10
79.19516599582622
 20
203.2010334778456
 30
0.0
  0
VERTEX
  5
24B
330
249
100
AcDbEntity
  8
STANDARDEBENE
 62
     7
100
AcDbVertex
100
AcDb2dVertex
 10
79.19516599582622
 20
202.5268282913822
 30
0.0
  0
VERTEX
  5
24C
330
249
100
AcDbEntity
  8
STANDARDEBENE
 62
     7
100
AcDbVertex
100
AcDb2dVertex
 10
79.19516599582622
 20
202.2047118635113
 30
0.0
  0
SEQEND
  5
24D
330
249
100
AcDbEntity
  8
STANDARDEBENE
  0
POLYLINE
  5
24E
330
1F
100
AcDbEntity
  8
STANDARDEBENE
 62
     7
100
AcDb2dPolyline
 66
     1
 10
0.0
 20
0.0
 30
0.0
  0
VERTEX
  5
24F
330
24E
100
AcDbEntity
  8
STANDARDEBENE
 62
     7
100
AcDbVertex
100
AcDb2dVertex
 10
79.19516599582622
 20
201.2092515230484
 30
0.0
  0
VERTEX
  5
250
330
24E
100
AcDbEntity
  8
STANDARDEBENE
 62
     7
100
AcDbVertex
100
AcDb2dVertex
 10
79.19516599582622
 20
200.6523518378578
 30
0.0
  0
VERTEX
  5
251
330
24E
100
AcDbEntity
  8
STANDARDEBENE
 62
     7
100
AcDbVertex
100
AcDb2dVertex
 10
79.19516599582622
 20
200.2134466730369
 30
0.0
  0
SEQEND
  5
252
330
24E
100
AcDbEntity
  8
STANDARDEBENE
  0
SPLINE
  5
253
330
1F
100
AcDbEntity
  8
STANDARDEBENE
 62
     7
100
AcDbSpline
210
0.0
220
0.0
230
1.0
 70
    27
 71
     3
 72
    17
 73
    13
 74
     0
 42
0.0000000001
 43
0.0000000001
 40
0.0
 40
0.0
 40
0.0
 40
0.0
 40
1.0
 40
1.0
 40
1.0
 40
2.0
 40
2.0
 40
2.0
 40
3.0
 40
3.0
 40
3.0
 40
4.0
 40
4.0
 40
4.0
 40
4.0
 10
79.19516599582622
 20
199.2178140777997
 30
0.0
 10
79.19516599582622
 20
199.2178140777997
 30
0.0
 10
79.19516599582622
 20
198.9236029233594
 30
0.0
 10
79.19516599582622
 20
198.9236029233594
 30
0.0
 10
79.19516599582622
 20
198.9236029233594
 30
0.0
 10
79.19516599582622
 20
198.7203422897296
 30
0.0
 10
79.19516599582622
 20
198.7203422897296
 30
0.0
 10
79.19516599582622
 20
198.7203422897296
 30
0.0
 10
79.19516599582622
 20
198.9236029233594
 30
0.0
 10
79.19516599582622
 20
198.9236029233594
 30
0.0
 10
79.19516599582622
 20
198.9236029233594
 30
0.0
 10
79.19516599582622
 20
199.2178140777997
 30
0.0
 10
79.19516599582622
 20
199.2178140777997
 30
0.0
  0
POLYLINE
  5
254
330
1F
100
AcDbEntity
  8
STANDARDEBENE
 62
     7
100
AcDb2dPolyline
 66
     1
 10
0.0
 20
0.0
 30
0.0
  0
VERTEX
  5
255
330
254
100
AcDbEntity
  8
STANDARDEBENE
 62
     7
100
AcDbVertex
100
AcDb2dVertex
 10
79.19516599582622
 20
200.2134466730369
 30
0.0
  0
VERTEX
  5
256
330
254
100
AcDbEntity
  8
STANDARDEBENE
 62
     7
100
AcDbVertex
100
AcDb2dVertex
 10
79.19516599582622
 20
200.6523518378578
 30
0.0
  0
VERTEX
  5
257
330
254
100
AcDbEntity
  8
STANDARDEBENE
 62
     7
100
AcDbVertex
100
AcDb2dVertex
 10
79.19516599582622
 20
201.2092515230484
 30
0.0
  0
SEQEND
  5
258
330
254
100
AcDbEntity
  8
STANDARDEBENE
  0
POLYLINE
  5
259
330
1F
100
AcDbEntity
  8
STANDARDEBENE
 62
     7
100
AcDb2dPolyline
 66
     1
 10
0.0
 20
0.0
 30
0.0
  0
VERTEX
  5
25A
330
259
100
AcDbEntity
  8
STANDARDEBENE
 62
     7
100
AcDbVertex
100
AcDb2dVertex
 10
79.19516599582622
 20
202.2047118635113
 30
0.0
  0
VERTEX
  5
25B
330
259
100
AcDbEntity
  8
STANDARDEBENE
 62
     7
100
AcDbVertex
100
AcDb2dVertex
 10
79.19516599582622
 20
202.5268282913822
 30
0.0
  0
VERTEX
  5
25C
330
259
100
AcDbEntity
  8
STANDARDEBENE
 62
     7
100
AcDbVertex
100
AcDb2dVertex
 10
79.19516599582622
 20
203.2010334778456
 30
0.0
  0
SEQEND
  5
25D
330
259
100
AcDbEntity
  8
STANDARDEBENE
  0
POLYLINE
  5
25E
330
1F
100
AcDbEntity
  8
STANDARDEBENE
 62
     7
100
AcDb2dPolyline
 66
     1
 10
0.0
 20
0.0
 30
0.0
  0
VERTEX
  5
25F
330
25E
100
AcDbEntity
  8
STANDARDEBENE
 62
     7
100
AcDbVertex
100
AcDb2dVertex
 10
79.19516599582622
 20
204.1970105826313
 30
0.0
  0
VERTEX
  5
260
330
25E
100
AcDbEntity
  8
STANDARDEBENE
 62
     7
100
AcDbVertex
100
AcDb2dVertex
 10
79.19516599582622
 20
204.6944823707014
 30
0.0
  0
SEQEND
  5
261
330
25E
100
AcDbEntity
  8
STANDARDEBENE
  0
POLYLINE
  5
262
330
1F
100
AcDbEntity
  8
STANDARDEBENE
 62
     7
100
AcDb2dPolyline
 66
     1
 10
0.0
 20
0.0
 30
0.0
  0
VERTEX
  5
263
330
262
100
AcDbEntity
  8
STANDARDEBENE
 62
     7
100
AcDbVertex
100
AcDb2dVertex
 10
89.1949001513124
 20
204.6944823707014
 30
0.0
  0
VERTEX
  5
264
330
262
100
AcDbEntity
  8
STANDARDEBENE
 62
     7
100
AcDbVertex
100
AcDb2dVertex
 10
89.1949001513124
 20
205.1943657256111
 30
0.0
  0
SEQEND
  5
265
330
262
100
AcDbEntity
  8
STANDARDEBENE
  0
SPLINE
  5
266
330
1F
100
AcDbEntity
  8
STANDARDEBENE
 62
     7
100
AcDbSpline
210
0.0
220
0.0
230
1.0
 70
    27
 71
     3
 72
    17
 73
    13
 74
     0
 42
0.0000000001
 43
0.0000000001
 40
0.0
 40
0.0
 40
0.0
 40
0.0
 40
1.0
 40
1.0
 40
1.0
 40
2.0
 40
2.0
 40
2.0
 40
3.0
 40
3.0
 40
3.0
 40
4.0
 40
4.0
 40
4.0
 40
4.0
 10
89.1949001513124
 20
206.1948214545277
 30
0.0
 10
89.1949001513124
 20
206.1948214545277
 30
0.0
 10
89.1949001513124
 20
206.8159721705183
 30
0.0
 10
89.1949001513124
 20
206.8159721705183
 30
0.0
 10
89.1949001513124
 20
206.8159721705183
 30
0.0
 10
89.1949001513124
 20
207.1945881643472
 30
0.0
 10
89.1949001513124
 20
207.1945881643472
 30
0.0
 10
89.1949001513124
 20
207.1945881643472
 30
0.0
 10
89.1949001513124
 20
206.8159721705183
 30
0.0
 10
89.1949001513124
 20
206.8159721705183
 30
0.0
 10
89.1949001513124
 20
206.8159721705183
 30
0.0
 10
89.1949001513124
 20
206.1948214545277
 30
0.0
 10
89.1949001513124
 20
206.1948214545277
 30
0.0
  0
POLYLINE
  5
267
330
1F
100
AcDbEntity
  8
STANDARDEBENE
 62
     7
100
AcDb2dPolyline
 66
     1
 10
0.0
 20
0.0
 30
0.0
  0
VERTEX
  5
268
330
267
100
AcDbEntity
  8
STANDARDEBENE
 62
     7
100
AcDbVertex
100
AcDb2dVertex
 10
89.1949001513124
 20
205.1943657256111
 30
0.0
  0
VERTEX
  5
269
330
267
100
AcDbEntity
  8
STANDARDEBENE
 62
     7
100
AcDbVertex
100
AcDb2dVertex
 10
89.1949001513124
 20
204.6944823707014
 30
0.0
  0
VERTEX
  5
26A
330
267
100
AcDbEntity
  8
STANDARDEBENE
 62
     7
100
AcDbVertex
100
AcDb2dVertex
 10
89.1949001513124
 20
204.1949435253402
 30
0.0
  0
SEQEND
  5
26B
330
267
100
AcDbEntity
  8
STANDARDEBENE
  0
SPLINE
  5
26C
330
1F
100
AcDbEntity
  8
STANDARDEBENE
 62
     7
100
AcDbSpline
210
0.0
220
0.0
230
1.0
 70
    27
 71
     3
 72
    17
 73
    13
 74
     0
 42
0.0000000001
 43
0.0000000001
 40
0.0
 40
0.0
 40
0.0
 40
0.0
 40
1.0
 40
1.0
 40
1.0
 40
2.0
 40
2.0
 40
2.0
 40
3.0
 40
3.0
 40
3.0
 40
4.0
 40
4.0
 40
4.0
 40
4.0
 10
89.1949001513124
 20
203.1948323059721
 30
0.0
 10
89.1949001513124
 20
203.1948323059721
 30
0.0
 10
89.1949001513124
 20
202.5735093352073
 30
0.0
 10
89.1949001513124
 20
202.5735093352073
 30
0.0
 10
89.1949001513124
 20
202.5735093352073
 30
0.0
 10
89.1949001513124
 20
202.1942043222813
 30
0.0
 10
89.1949001513124
 20
202.1942043222813
 30
0.0
 10
89.1949001513124
 20
202.1942043222813
 30
0.0
 10
89.1949001513124
 20
202.5735093352073
 30
0.0
 10
89.1949001513124
 20
202.5735093352073
 30
0.0
 10
89.1949001513124
 20
202.5735093352073
 30
0.0
 10
89.1949001513124
 20
203.1948323059721
 30
0.0
 10
89.1949001513124
 20
203.1948323059721
 30
0.0
  0
POLYLINE
  5
26D
330
1F
100
AcDbEntity
  8
STANDARDEBENE
 62
     7
100
AcDb2dPolyline
 66
     1
 10
0.0
 20
0.0
 30
0.0
  0
VERTEX
  5
26E
330
26D
100
AcDbEntity
  8
STANDARDEBENE
 62
     7
100
AcDbVertex
100
AcDb2dVertex
 10
89.1949001513124
 20
204.1949435253402
 30
0.0
  0
VERTEX
  5
26F
330
26D
100
AcDbEntity
  8
STANDARDEBENE
 62
     7
100
AcDbVertex
100
AcDb2dVertex
 10
89.1949001513124
 20
204.6944823707014
 30
0.0
  0
SEQEND
  5
270
330
26D
100
AcDbEntity
  8
STANDARDEBENE
  0
POLYLINE
  5
271
330
1F
100
AcDbEntity
  8
STANDARDEBENE
 62
     7
100
AcDb2dPolyline
 66
     1
 10
0.0
 20
0.0
 30
0.0
  0
VERTEX
  5
272
330
271
100
AcDbEntity
  8
STANDARDEBENE
 62
     7
100
AcDbVertex
100
AcDb2dVertex
 10
81.19469941546522
 20
204.6944823707014
 30
0.0
  0
VERTEX
  5
273
330
271
100
AcDbEntity
  8
STANDARDEBENE
 62
     7
100
AcDbVertex
100
AcDb2dVertex
 10
81.19469941546522
 20
205.1943657256111
 30
0.0
  0
SEQEND
  5
274
330
271
100
AcDbEntity
  8
STANDARDEBENE
  0
SPLINE
  5
275
330
1F
100
AcDbEntity
  8
STANDARDEBENE
 62
     7
100
AcDbSpline
210
0.0
220
0.0
230
1.0
 70
    27
 71
     3
 72
    17
 73
    13
 74
     0
 42
0.0000000001
 43
0.0000000001
 40
0.0
 40
0.0
 40
0.0
 40
0.0
 40
1.0
 40
1.0
 40
1.0
 40
2.0
 40
2.0
 40
2.0
 40
3.0
 40
3.0
 40
3.0
 40
4.0
 40
4.0
 40
4.0
 40
4.0
 10
81.19469941546522
 20
206.1948214545277
 30
0.0
 10
81.19469941546522
 20
206.1948214545277
 30
0.0
 10
81.19469941546522
 20
206.8159721705183
 30
0.0
 10
81.19469941546522
 20
206.8159721705183
 30
0.0
 10
81.19469941546522
 20
206.8159721705183
 30
0.0
 10
81.19469941546522
 20
207.1945881643472
 30
0.0
 10
81.19469941546522
 20
207.1945881643472
 30
0.0
 10
81.19469941546522
 20
207.1945881643472
 30
0.0
 10
81.19469941546522
 20
206.8159721705183
 30
0.0
 10
81.19469941546522
 20
206.8159721705183
 30
0.0
 10
81.19469941546522
 20
206.8159721705183
 30
0.0
 10
81.19469941546522
 20
206.1948214545277
 30
0.0
 10
81.19469941546522
 20
206.1948214545277
 30
0.0
  0
POLYLINE
  5
276
330
1F
100
AcDbEntity
  8
STANDARDEBENE
 62
     7
100
AcDb2dPolyline
 66
     1
 10
0.0
 20
0.0
 30
0.0
  0
VERTEX
  5
277
330
276
100
AcDbEntity
  8
STANDARDEBENE
 62
     7
100
AcDbVertex
100
AcDb2dVertex
 10
81.19469941546522
 20
205.1943657256111
 30
0.0
  0
VERTEX
  5
278
330
276
100
AcDbEntity
  8
STANDARDEBENE
 62
     7
100
AcDbVertex
100
AcDb2dVertex
 10
81.19469941546522
 20
204.6944823707014
 30
0.0
  0
VERTEX
  5
279
330
276
100
AcDbEntity
  8
STANDARDEBENE
 62
     7
100
AcDbVertex
100
AcDb2dVertex
 10
81.19469941546522
 20
204.1949435253402
 30
0.0
  0
SEQEND
  5
27A
330
276
100
AcDbEntity
  8
STANDARDEBENE
  0
SPLINE
  5
27B
330
1F
100
AcDbEntity
  8
STANDARDEBENE
 62
     7
100
AcDbSpline
210
0.0
220
0.0
230
1.0
 70
    27
 71
     3
 72
    17
 73
    13
 74
     0
 42
0.0000000001
 43
0.0000000001
 40
0.0
 40
0.0
 40
0.0
 40
0.0
 40
1.0
 40
1.0
 40
1.0
 40
2.0
 40
2.0
 40
2.0
 40
3.0
 40
3.0
 40
3.0
 40
4.0
 40
4.0
 40
4.0
 40
4.0
 10
81.19469941546522
 20
203.1948323059721
 30
0.0
 10
81.19469941546522
 20
203.1948323059721
 30
0.0
 10
81.19469941546522
 20
202.5735093352073
 30
0.0
 10
81.19469941546522
 20
202.5735093352073
 30
0.0
 10
81.19469941546522
 20
202.5735093352073
 30
0.0
 10
81.19469941546522
 20
202.1942043222813
 30
0.0
 10
81.19469941546522
 20
202.1942043222813
 30
0.0
 10
81.19469941546522
 20
202.1942043222813
 30
0.0
 10
81.19469941546522
 20
202.5735093352073
 30
0.0
 10
81.19469941546522
 20
202.5735093352073
 30
0.0
 10
81.19469941546522
 20
202.5735093352073
 30
0.0
 10
81.19469941546522
 20
203.1948323059721
 30
0.0
 10
81.19469941546522
 20
203.1948323059721
 30
0.0
  0
POLYLINE
  5
27C
330
1F
100
AcDbEntity
  8
STANDARDEBENE
 62
     7
100
AcDb2dPolyline
 66
     1
 10
0.0
 20
0.0
 30
0.0
  0
VERTEX
  5
27D
330
27C
100
AcDbEntity
  8
STANDARDEBENE
 62
     7
100
AcDbVertex
100
AcDb2dVertex
 10
81.19469941546522
 20
204.1949435253402
 30
0.0
  0
VERTEX
  5
27E
330
27C
100
AcDbEntity
  8
STANDARDEBENE
 62
     7
100
AcDbVertex
100
AcDb2dVertex
 10
81.19469941546522
 20
204.6944823707014
 30
0.0
  0
SEQEND
  5
27F
330
27C
100
AcDbEntity
  8
STANDARDEBENE
  0
POLYLINE
  5
280
330
1F
100
AcDbEntity
  8
STANDARDEBENE
 62
     7
100
AcDb2dPolyline
 66
     1
 10
0.0
 20
0.0
 30
0.0
  0
VERTEX
  5
281
330
280
100
AcDbEntity
  8
STANDARDEBENE
 62
     7
100
AcDbVertex
100
AcDb2dVertex
 10
89.1949001513124
 20
204.6944823707014
 30
0.0
  0
VERTEX
  5
282
330
280
100
AcDbEntity
  8
STANDARDEBENE
 62
     7
100
AcDbVertex
100
AcDb2dVertex
 10
89.1949001513124
 20
205.1823078914128
 30
0.0
  0
SEQEND
  5
283
330
280
100
AcDbEntity
  8
STANDARDEBENE
  0
POLYLINE
  5
284
330
1F
100
AcDbEntity
  8
STANDARDEBENE
 62
     7
100
AcDb2dPolyline
 66
     1
 10
0.0
 20
0.0
 30
0.0
  0
VERTEX
  5
285
330
284
100
AcDbEntity
  8
STANDARDEBENE
 62
     7
100
AcDbVertex
100
AcDb2dVertex
 10
89.1949001513124
 20
206.1572699137385
 30
0.0
  0
VERTEX
  5
286
330
284
100
AcDbEntity
  8
STANDARDEBENE
 62
     7
100
AcDbVertex
100
AcDb2dVertex
 10
89.1949001513124
 20
206.2194538872472
 30
0.0
  0
VERTEX
  5
287
330
284
100
AcDbEntity
  8
STANDARDEBENE
 62
     7
100
AcDbVertex
100
AcDb2dVertex
 10
89.1949001513124
 20
207.1317151717414
 30
0.0
  0
SEQEND
  5
288
330
284
100
AcDbEntity
  8
STANDARDEBENE
  0
POLYLINE
  5
289
330
1F
100
AcDbEntity
  8
STANDARDEBENE
 62
     7
100
AcDb2dPolyline
 66
     1
 10
0.0
 20
0.0
 30
0.0
  0
VERTEX
  5
28A
330
289
100
AcDbEntity
  8
STANDARDEBENE
 62
     7
100
AcDbVertex
100
AcDb2dVertex
 10
89.1949001513124
 20
208.1068494488414
 30
0.0
  0
VERTEX
  5
28B
330
289
100
AcDbEntity
  8
STANDARDEBENE
 62
     7
100
AcDbVertex
100
AcDb2dVertex
 10
89.1949001513124
 20
209.081811471167
 30
0.0
  0
SEQEND
  5
28C
330
289
100
AcDbEntity
  8
STANDARDEBENE
  0
POLYLINE
  5
28D
330
1F
100
AcDbEntity
  8
STANDARDEBENE
 62
     7
100
AcDb2dPolyline
 66
     1
 10
0.0
 20
0.0
 30
0.0
  0
VERTEX
  5
28E
330
28D
100
AcDbEntity
  8
STANDARDEBENE
 62
     7
100
AcDbVertex
100
AcDb2dVertex
 10
89.1949001513124
 20
210.056945748267
 30
0.0
  0
VERTEX
  5
28F
330
28D
100
AcDbEntity
  8
STANDARDEBENE
 62
     7
100
AcDbVertex
100
AcDb2dVertex
 10
89.1949001513124
 20
210.4252264556402
 30
0.0
  0
VERTEX
  5
290
330
28D
100
AcDbEntity
  8
STANDARDEBENE
 62
     7
100
AcDbVertex
100
AcDb2dVertex
 10
89.1949001513124
 20
211.032080025367
 30
0.0
  0
SEQEND
  5
291
330
28D
100
AcDbEntity
  8
STANDARDEBENE
  0
POLYLINE
  5
292
330
1F
100
AcDbEntity
  8
STANDARDEBENE
 62
     7
100
AcDb2dPolyline
 66
     1
 10
0.0
 20
0.0
 30
0.0
  0
VERTEX
  5
293
330
292
100
AcDbEntity
  8
STANDARDEBENE
 62
     7
100
AcDbVertex
100
AcDb2dVertex
 10
89.1949001513124
 20
212.0070420476927
 30
0.0
  0
VERTEX
  5
294
330
292
100
AcDbEntity
  8
STANDARDEBENE
 62
     7
100
AcDbVertex
100
AcDb2dVertex
 10
89.1949001513124
 20
212.5823729937294
 30
0.0
  0
VERTEX
  5
295
330
292
100
AcDbEntity
  8
STANDARDEBENE
 62
     7
100
AcDbVertex
100
AcDb2dVertex
 10
89.1949001513124
 20
212.9821763247926
 30
0.0
  0
SEQEND
  5
296
330
292
100
AcDbEntity
  8
STANDARDEBENE
  0
POLYLINE
  5
297
330
1F
100
AcDbEntity
  8
STANDARDEBENE
 62
     7
100
AcDb2dPolyline
 66
     1
 10
0.0
 20
0.0
 30
0.0
  0
VERTEX
  5
298
330
297
100
AcDbEntity
  8
STANDARDEBENE
 62
     7
100
AcDbVertex
100
AcDb2dVertex
 10
89.1949001513124
 20
213.9573106018926
 30
0.0
  0
VERTEX
  5
299
330
297
100
AcDbEntity
  8
STANDARDEBENE
 62
     7
100
AcDbVertex
100
AcDb2dVertex
 10
89.1949001513124
 20
213.9674736335741
 30
0.0
  0
VERTEX
  5
29A
330
297
100
AcDbEntity
  8
STANDARDEBENE
 62
     7
100
AcDbVertex
100
AcDb2dVertex
 10
89.1949001513124
 20
214.3242132710717
 30
0.0
  0
VERTEX
  5
29B
330
297
100
AcDbEntity
  8
STANDARDEBENE
 62
     7
100
AcDbVertex
100
AcDb2dVertex
 10
89.1949001513124
 20
214.4447916130555
 30
0.0
  0
SEQEND
  5
29C
330
297
100
AcDbEntity
  8
STANDARDEBENE
  0
POLYLINE
  5
29D
330
1F
100
AcDbEntity
  8
STANDARDEBENE
 62
     7
100
AcDb2dPolyline
 66
     1
 10
0.0
 20
0.0
 30
0.0
  0
VERTEX
  5
29E
330
29D
100
AcDbEntity
  8
STANDARDEBENE
 62
     7
100
AcDbVertex
100
AcDb2dVertex
 10
89.1949001513124
 20
194.9446898926701
 30
0.0
  0
VERTEX
  5
29F
330
29D
100
AcDbEntity
  8
STANDARDEBENE
 62
     7
100
AcDbVertex
100
AcDb2dVertex
 10
89.1949001513124
 20
195.0642347060082
 30
0.0
  0
VERTEX
  5
2A0
330
29D
100
AcDbEntity
  8
STANDARDEBENE
 62
     7
100
AcDbVertex
100
AcDb2dVertex
 10
89.1949001513124
 20
195.4216633626029
 30
0.0
  0
VERTEX
  5
2A1
330
29D
100
AcDbEntity
  8
STANDARDEBENE
 62
     7
100
AcDbVertex
100
AcDb2dVertex
 10
89.1949001513124
 20
195.4318263942844
 30
0.0
  0
SEQEND
  5
2A2
330
29D
100
AcDbEntity
  8
STANDARDEBENE
  0
POLYLINE
  5
2A3
330
1F
100
AcDbEntity
  8
STANDARDEBENE
 62
     7
100
AcDb2dPolyline
 66
     1
 10
0.0
 20
0.0
 30
0.0
  0
VERTEX
  5
2A4
330
2A3
100
AcDbEntity
  8
STANDARDEBENE
 62
     7
100
AcDbVertex
100
AcDb2dVertex
 10
89.1949001513124
 20
196.4073051809329
 30
0.0
  0
VERTEX
  5
2A5
330
2A3
100
AcDbEntity
  8
STANDARDEBENE
 62
     7
100
AcDbVertex
100
AcDb2dVertex
 10
89.1949001513124
 20
196.8062472381248
 30
0.0
  0
VERTEX
  5
2A6
330
2A3
100
AcDbEntity
  8
STANDARDEBENE
 62
     7
100
AcDbVertex
100
AcDb2dVertex
 10
89.1949001513124
 20
197.3822672032586
 30
0.0
  0
SEQEND
  5
2A7
330
2A3
100
AcDbEntity
  8
STANDARDEBENE
  0
POLYLINE
  5
2A8
330
1F
100
AcDbEntity
  8
STANDARDEBENE
 62
     7
100
AcDb2dPolyline
 66
     1
 10
0.0
 20
0.0
 30
0.0
  0
VERTEX
  5
2A9
330
2A8
100
AcDbEntity
  8
STANDARDEBENE
 62
     7
100
AcDbVertex
100
AcDb2dVertex
 10
89.1949001513124
 20
198.35705697081
 30
0.0
  0
VERTEX
  5
2AA
330
2A8
100
AcDbEntity
  8
STANDARDEBENE
 62
     7
100
AcDbVertex
100
AcDb2dVertex
 10
89.1949001513124
 20
198.9635660309883
 30
0.0
  0
VERTEX
  5
2AB
330
2A8
100
AcDbEntity
  8
STANDARDEBENE
 62
     7
100
AcDbVertex
100
AcDb2dVertex
 10
89.1949001513124
 20
199.3318467383615
 30
0.0
  0
SEQEND
  5
2AC
330
2A8
100
AcDbEntity
  8
STANDARDEBENE
  0
POLYLINE
  5
2AD
330
1F
100
AcDbEntity
  8
STANDARDEBENE
 62
     7
100
AcDb2dPolyline
 66
     1
 10
0.0
 20
0.0
 30
0.0
  0
VERTEX
  5
2AE
330
2AD
100
AcDbEntity
  8
STANDARDEBENE
 62
     7
100
AcDbVertex
100
AcDb2dVertex
 10
89.1949001513124
 20
200.3068087606872
 30
0.0
  0
VERTEX
  5
2AF
330
2AD
100
AcDbEntity
  8
STANDARDEBENE
 62
     7
100
AcDbVertex
100
AcDb2dVertex
 10
89.1949001513124
 20
201.2819430377872
 30
0.0
  0
SEQEND
  5
2B0
330
2AD
100
AcDbEntity
  8
STANDARDEBENE
  0
POLYLINE
  5
2B1
330
1F
100
AcDbEntity
  8
STANDARDEBENE
 62
     7
100
AcDb2dPolyline
 66
     1
 10
0.0
 20
0.0
 30
0.0
  0
VERTEX
  5
2B2
330
2B1
100
AcDbEntity
  8
STANDARDEBENE
 62
     7
100
AcDbVertex
100
AcDb2dVertex
 10
89.1949001513124
 20
202.2567328053386
 30
0.0
  0
VERTEX
  5
2B3
330
2B1
100
AcDbEntity
  8
STANDARDEBENE
 62
     7
100
AcDbVertex
100
AcDb2dVertex
 10
89.1949001513124
 20
203.1693385993813
 30
0.0
  0
VERTEX
  5
2B4
330
2B1
100
AcDbEntity
  8
STANDARDEBENE
 62
     7
100
AcDbVertex
100
AcDb2dVertex
 10
89.1949001513124
 20
203.2320393372128
 30
0.0
  0
SEQEND
  5
2B5
330
2B1
100
AcDbEntity
  8
STANDARDEBENE
  0
POLYLINE
  5
2B6
330
1F
100
AcDbEntity
  8
STANDARDEBENE
 62
     7
100
AcDb2dPolyline
 66
     1
 10
0.0
 20
0.0
 30
0.0
  0
VERTEX
  5
2B7
330
2B6
100
AcDbEntity
  8
STANDARDEBENE
 62
     7
100
AcDbVertex
100
AcDb2dVertex
 10
89.1949001513124
 20
204.2071736143128
 30
0.0
  0
VERTEX
  5
2B8
330
2B6
100
AcDbEntity
  8
STANDARDEBENE
 62
     7
100
AcDbVertex
100
AcDb2dVertex
 10
89.1949001513124
 20
204.6944823707014
 30
0.0
  0
SEQEND
  5
2B9
330
2B6
100
AcDbEntity
  8
STANDARDEBENE
  0
POLYLINE
  5
2BA
330
1F
100
AcDbEntity
  8
STANDARDEBENE
 62
     7
100
AcDb2dPolyline
 66
     1
 10
0.0
 20
0.0
 30
0.0
  0
VERTEX
  5
2BB
330
2BA
100
AcDbEntity
  8
STANDARDEBENE
 62
     7
100
AcDbVertex
100
AcDb2dVertex
 10
61.19488659494434
 20
214.4447916130555
 30
0.0
  0
VERTEX
  5
2BC
330
2BA
100
AcDbEntity
  8
STANDARDEBENE
 62
     7
100
AcDbVertex
100
AcDb2dVertex
 10
61.19488659494434
 20
214.3357543409473
 30
0.0
  0
VERTEX
  5
2BD
330
2BA
100
AcDbEntity
  8
STANDARDEBENE
 62
     7
100
AcDbVertex
100
AcDb2dVertex
 10
61.19488659494434
 20
214.0115708557853
 30
0.0
  0
VERTEX
  5
2BE
330
2BA
100
AcDbEntity
  8
STANDARDEBENE
 62
     7
100
AcDbVertex
100
AcDb2dVertex
 10
61.19488659494434
 20
213.9573106018926
 30
0.0
  0
SEQEND
  5
2BF
330
2BA
100
AcDbEntity
  8
STANDARDEBENE
  0
POLYLINE
  5
2C0
330
1F
100
AcDbEntity
  8
STANDARDEBENE
 62
     7
100
AcDb2dPolyline
 66
     1
 10
0.0
 20
0.0
 30
0.0
  0
VERTEX
  5
2C1
330
2C0
100
AcDbEntity
  8
STANDARDEBENE
 62
     7
100
AcDbVertex
100
AcDb2dVertex
 10
61.19488659494434
 20
212.9821763247926
 30
0.0
  0
VERTEX
  5
2C2
330
2C0
100
AcDbEntity
  8
STANDARDEBENE
 62
     7
100
AcDbVertex
100
AcDb2dVertex
 10
61.19488659494434
 20
212.7504936534096
 30
0.0
  0
VERTEX
  5
2C3
330
2C0
100
AcDbEntity
  8
STANDARDEBENE
 62
     7
100
AcDbVertex
100
AcDb2dVertex
 10
61.19488659494434
 20
212.0070420476927
 30
0.0
  0
SEQEND
  5
2C4
330
2C0
100
AcDbEntity
  8
STANDARDEBENE
  0
POLYLINE
  5
2C5
330
1F
100
AcDbEntity
  8
STANDARDEBENE
 62
     7
100
AcDb2dPolyline
 66
     1
 10
0.0
 20
0.0
 30
0.0
  0
VERTEX
  5
2C6
330
2C5
100
AcDbEntity
  8
STANDARDEBENE
 62
     7
100
AcDbVertex
100
AcDb2dVertex
 10
61.19488659494434
 20
211.032080025367
 30
0.0
  0
VERTEX
  5
2C7
330
2C5
100
AcDbEntity
  8
STANDARDEBENE
 62
     7
100
AcDbVertex
100
AcDb2dVertex
 10
61.19488659494434
 20
210.7736978639732
 30
0.0
  0
VERTEX
  5
2C8
330
2C5
100
AcDbEntity
  8
STANDARDEBENE
 62
     7
100
AcDbVertex
100
AcDb2dVertex
 10
61.19488659494434
 20
210.056945748267
 30
0.0
  0
SEQEND
  5
2C9
330
2C5
100
AcDbEntity
  8
STANDARDEBENE
  0
POLYLINE
  5
2CA
330
1F
100
AcDbEntity
  8
STANDARDEBENE
 62
     7
100
AcDb2dPolyline
 66
     1
 10
0.0
 20
0.0
 30
0.0
  0
VERTEX
  5
2CB
330
2CA
100
AcDbEntity
  8
STANDARDEBENE
 62
     7
100
AcDbVertex
100
AcDb2dVertex
 10
61.19488659494434
 20
209.081811471167
 30
0.0
  0
VERTEX
  5
2CC
330
2CA
100
AcDbEntity
  8
STANDARDEBENE
 62
     7
100
AcDbVertex
100
AcDb2dVertex
 10
61.19488659494434
 20
208.2563665929012
 30
0.0
  0
VERTEX
  5
2CD
330
2CA
100
AcDbEntity
  8
STANDARDEBENE
 62
     7
100
AcDbVertex
100
AcDb2dVertex
 10
61.19488659494434
 20
208.1068494488414
 30
0.0
  0
SEQEND
  5
2CE
330
2CA
100
AcDbEntity
  8
STANDARDEBENE
  0
POLYLINE
  5
2CF
330
1F
100
AcDbEntity
  8
STANDARDEBENE
 62
     7
100
AcDb2dPolyline
 66
     1
 10
0.0
 20
0.0
 30
0.0
  0
VERTEX
  5
2D0
330
2CF
100
AcDbEntity
  8
STANDARDEBENE
 62
     7
100
AcDbVertex
100
AcDb2dVertex
 10
61.19488659494434
 20
207.1317151717414
 30
0.0
  0
VERTEX
  5
2D1
330
2CF
100
AcDbEntity
  8
STANDARDEBENE
 62
     7
100
AcDbVertex
100
AcDb2dVertex
 10
61.19488659494434
 20
206.8638589977632
 30
0.0
  0
VERTEX
  5
2D2
330
2CF
100
AcDbEntity
  8
STANDARDEBENE
 62
     7
100
AcDbVertex
100
AcDb2dVertex
 10
61.19488659494434
 20
206.1572699137385
 30
0.0
  0
SEQEND
  5
2D3
330
2CF
100
AcDbEntity
  8
STANDARDEBENE
  0
POLYLINE
  5
2D4
330
1F
100
AcDbEntity
  8
STANDARDEBENE
 62
     7
100
AcDb2dPolyline
 66
     1
 10
0.0
 20
0.0
 30
0.0
  0
VERTEX
  5
2D5
330
2D4
100
AcDbEntity
  8
STANDARDEBENE
 62
     7
100
AcDbVertex
100
AcDb2dVertex
 10
61.19488659494434
 20
205.1823078914128
 30
0.0
  0
VERTEX
  5
2D6
330
2D4
100
AcDbEntity
  8
STANDARDEBENE
 62
     7
100
AcDbVertex
100
AcDb2dVertex
 10
61.19488659494434
 20
204.2071736143128
 30
0.0
  0
SEQEND
  5
2D7
330
2D4
100
AcDbEntity
  8
STANDARDEBENE
  0
POLYLINE
  5
2D8
330
1F
100
AcDbEntity
  8
STANDARDEBENE
 62
     7
100
AcDb2dPolyline
 66
     1
 10
0.0
 20
0.0
 30
0.0
  0
VERTEX
  5
2D9
330
2D8
100
AcDbEntity
  8
STANDARDEBENE
 62
     7
100
AcDbVertex
100
AcDb2dVertex
 10
61.19488659494434
 20
203.2320393372128
 30
0.0
  0
VERTEX
  5
2DA
330
2D8
100
AcDbEntity
  8
STANDARDEBENE
 62
     7
100
AcDbVertex
100
AcDb2dVertex
 10
61.19488659494434
 20
202.524761234091
 30
0.0
  0
VERTEX
  5
2DB
330
2D8
100
AcDbEntity
  8
STANDARDEBENE
 62
     7
100
AcDbVertex
100
AcDb2dVertex
 10
61.19488659494434
 20
202.2567328053386
 30
0.0
  0
SEQEND
  5
2DC
330
2D8
100
AcDbEntity
  8
STANDARDEBENE
  0
POLYLINE
  5
2DD
330
1F
100
AcDbEntity
  8
STANDARDEBENE
 62
     7
100
AcDb2dPolyline
 66
     1
 10
0.0
 20
0.0
 30
0.0
  0
VERTEX
  5
2DE
330
2DD
100
AcDbEntity
  8
STANDARDEBENE
 62
     7
100
AcDbVertex
100
AcDb2dVertex
 10
61.19488659494434
 20
201.2819430377872
 30
0.0
  0
VERTEX
  5
2DF
330
2DD
100
AcDbEntity
  8
STANDARDEBENE
 62
     7
100
AcDbVertex
100
AcDb2dVertex
 10
61.19488659494434
 20
201.1324258937273
 30
0.0
  0
VERTEX
  5
2E0
330
2DD
100
AcDbEntity
  8
STANDARDEBENE
 62
     7
100
AcDbVertex
100
AcDb2dVertex
 10
61.19488659494434
 20
200.3068087606872
 30
0.0
  0
SEQEND
  5
2E1
330
2DD
100
AcDbEntity
  8
STANDARDEBENE
  0
POLYLINE
  5
2E2
330
1F
100
AcDbEntity
  8
STANDARDEBENE
 62
     7
100
AcDb2dPolyline
 66
     1
 10
0.0
 20
0.0
 30
0.0
  0
VERTEX
  5
2E3
330
2E2
100
AcDbEntity
  8
STANDARDEBENE
 62
     7
100
AcDbVertex
100
AcDb2dVertex
 10
61.19488659494434
 20
199.3318467383615
 30
0.0
  0
VERTEX
  5
2E4
330
2E2
100
AcDbEntity
  8
STANDARDEBENE
 62
     7
100
AcDbVertex
100
AcDb2dVertex
 10
61.19488659494434
 20
198.6152668774295
 30
0.0
  0
VERTEX
  5
2E5
330
2E2
100
AcDbEntity
  8
STANDARDEBENE
 62
     7
100
AcDbVertex
100
AcDb2dVertex
 10
61.19488659494434
 20
198.35705697081
 30
0.0
  0
SEQEND
  5
2E6
330
2E2
100
AcDbEntity
  8
STANDARDEBENE
  0
POLYLINE
  5
2E7
330
1F
100
AcDbEntity
  8
STANDARDEBENE
 62
     7
100
AcDb2dPolyline
 66
     1
 10
0.0
 20
0.0
 30
0.0
  0
VERTEX
  5
2E8
330
2E7
100
AcDbEntity
  8
STANDARDEBENE
 62
     7
100
AcDbVertex
100
AcDb2dVertex
 10
61.19488659494434
 20
197.3822672032586
 30
0.0
  0
VERTEX
  5
2E9
330
2E7
100
AcDbEntity
  8
STANDARDEBENE
 62
     7
100
AcDbVertex
100
AcDb2dVertex
 10
61.19488659494434
 20
196.6382988332189
 30
0.0
  0
VERTEX
  5
2EA
330
2E7
100
AcDbEntity
  8
STANDARDEBENE
 62
     7
100
AcDbVertex
100
AcDb2dVertex
 10
61.19488659494434
 20
196.4073051809329
 30
0.0
  0
SEQEND
  5
2EB
330
2E7
100
AcDbEntity
  8
STANDARDEBENE
  0
POLYLINE
  5
2EC
330
1F
100
AcDbEntity
  8
STANDARDEBENE
 62
     7
100
AcDb2dPolyline
 66
     1
 10
0.0
 20
0.0
 30
0.0
  0
VERTEX
  5
2ED
330
2EC
100
AcDbEntity
  8
STANDARDEBENE
 62
     7
100
AcDbVertex
100
AcDb2dVertex
 10
61.19488659494434
 20
195.4318263942844
 30
0.0
  0
VERTEX
  5
2EE
330
2EC
100
AcDbEntity
  8
STANDARDEBENE
 62
     7
100
AcDbVertex
100
AcDb2dVertex
 10
61.19488659494434
 20
195.3775661403917
 30
0.0
  0
VERTEX
  5
2EF
330
2EC
100
AcDbEntity
  8
STANDARDEBENE
 62
     7
100
AcDbVertex
100
AcDb2dVertex
 10
61.19488659494434
 20
195.0537271647783
 30
0.0
  0
VERTEX
  5
2F0
330
2EC
100
AcDbEntity
  8
STANDARDEBENE
 62
     7
100
AcDbVertex
100
AcDb2dVertex
 10
61.19488659494434
 20
194.9446898926701
 30
0.0
  0
SEQEND
  5
2F1
330
2EC
100
AcDbEntity
  8
STANDARDEBENE
  0
POLYLINE
  5
2F2
330
1F
100
AcDbEntity
  8
STANDARDEBENE
 62
     7
100
AcDb2dPolyline
 66
     1
 10
0.0
 20
0.0
 30
0.0
  0
VERTEX
  5
2F3
330
2F2
100
AcDbEntity
  8
STANDARDEBENE
 62
     7
100
AcDbVertex
100
AcDb2dVertex
 10
61.19488659494434
 20
204.6944823707014
 30
0.0
  0
VERTEX
  5
2F4
330
2F2
100
AcDbEntity
  8
STANDARDEBENE
 62
     7
100
AcDbVertex
100
AcDb2dVertex
 10
61.19488659494434
 20
205.175934464765
 30
0.0
  0
SEQEND
  5
2F5
330
2F2
100
AcDbEntity
  8
STANDARDEBENE
  0
POLYLINE
  5
2F6
330
1F
100
AcDbEntity
  8
STANDARDEBENE
 62
     7
100
AcDb2dPolyline
 66
     1
 10
0.0
 20
0.0
 30
0.0
  0
VERTEX
  5
2F7
330
2F6
100
AcDbEntity
  8
STANDARDEBENE
 62
     7
100
AcDbVertex
100
AcDb2dVertex
 10
61.19488659494434
 20
206.1393554172152
 30
0.0
  0
VERTEX
  5
2F8
330
2F6
100
AcDbEntity
  8
STANDARDEBENE
 62
     7
100
AcDbVertex
100
AcDb2dVertex
 10
61.19488659494434
 20
206.9661783336751
 30
0.0
  0
VERTEX
  5
2F9
330
2F6
100
AcDbEntity
  8
STANDARDEBENE
 62
     7
100
AcDbVertex
100
AcDb2dVertex
 10
61.19488659494434
 20
207.1027763696653
 30
0.0
  0
SEQEND
  5
2FA
330
2F6
100
AcDbEntity
  8
STANDARDEBENE
  0
POLYLINE
  5
2FB
330
1F
100
AcDbEntity
  8
STANDARDEBENE
 62
     7
100
AcDb2dPolyline
 66
     1
 10
0.0
 20
0.0
 30
0.0
  0
VERTEX
  5
2FC
330
2FB
100
AcDbEntity
  8
STANDARDEBENE
 62
     7
100
AcDbVertex
100
AcDb2dVertex
 10
61.19488659494434
 20
208.0661973221154
 30
0.0
  0
VERTEX
  5
2FD
330
2FB
100
AcDbEntity
  8
STANDARDEBENE
 62
     7
100
AcDbVertex
100
AcDb2dVertex
 10
61.19488659494434
 20
208.9309162889131
 30
0.0
  0
VERTEX
  5
2FE
330
2FB
100
AcDbEntity
  8
STANDARDEBENE
 62
     7
100
AcDbVertex
100
AcDb2dVertex
 10
61.19488659494434
 20
209.029273765017
 30
0.0
  0
SEQEND
  5
2FF
330
2FB
100
AcDbEntity
  8
STANDARDEBENE
  0
POLYLINE
  5
300
330
1F
100
AcDbEntity
  8
STANDARDEBENE
 62
     7
100
AcDb2dPolyline
 66
     1
 10
0.0
 20
0.0
 30
0.0
  0
VERTEX
  5
301
330
300
100
AcDbEntity
  8
STANDARDEBENE
 62
     7
100
AcDbVertex
100
AcDb2dVertex
 10
61.19488659494434
 20
209.9926947174671
 30
0.0
  0
VERTEX
  5
302
330
300
100
AcDbEntity
  8
STANDARDEBENE
 62
     7
100
AcDbVertex
100
AcDb2dVertex
 10
61.19488659494434
 20
210.3237683935996
 30
0.0
  0
VERTEX
  5
303
330
300
100
AcDbEntity
  8
STANDARDEBENE
 62
     7
100
AcDbVertex
100
AcDb2dVertex
 10
61.19488659494434
 20
210.7433810237031
 30
0.0
  0
VERTEX
  5
304
330
300
100
AcDbEntity
  8
STANDARDEBENE
 62
     7
100
AcDbVertex
100
AcDb2dVertex
 10
61.19488659494434
 20
210.9562879246915
 30
0.0
  0
SEQEND
  5
305
330
300
100
AcDbEntity
  8
STANDARDEBENE
  0
POLYLINE
  5
306
330
1F
100
AcDbEntity
  8
STANDARDEBENE
 62
     7
100
AcDb2dPolyline
 66
     1
 10
0.0
 20
0.0
 30
0.0
  0
VERTEX
  5
307
330
306
100
AcDbEntity
  8
STANDARDEBENE
 62
     7
100
AcDbVertex
100
AcDb2dVertex
 10
61.19488659494434
 20
209.9926947174671
 30
0.0
  0
VERTEX
  5
308
330
306
100
AcDbEntity
  8
STANDARDEBENE
 62
     7
100
AcDbVertex
100
AcDb2dVertex
 10
61.19488659494434
 20
209.7129529640648
 30
0.0
  0
VERTEX
  5
309
330
306
100
AcDbEntity
  8
STANDARDEBENE
 62
     7
100
AcDbVertex
100
AcDb2dVertex
 10
61.19488659494434
 20
209.029273765017
 30
0.0
  0
SEQEND
  5
30A
330
306
100
AcDbEntity
  8
STANDARDEBENE
  0
POLYLINE
  5
30B
330
1F
100
AcDbEntity
  8
STANDARDEBENE
 62
     7
100
AcDb2dPolyline
 66
     1
 10
0.0
 20
0.0
 30
0.0
  0
VERTEX
  5
30C
330
30B
100
AcDbEntity
  8
STANDARDEBENE
 62
     7
100
AcDbVertex
100
AcDb2dVertex
 10
61.19488659494434
 20
208.0661973221154
 30
0.0
  0
VERTEX
  5
30D
330
30B
100
AcDbEntity
  8
STANDARDEBENE
 62
     7
100
AcDbVertex
100
AcDb2dVertex
 10
61.19488659494434
 20
208.004874622478
 30
0.0
  0
VERTEX
  5
30E
330
30B
100
AcDbEntity
  8
STANDARDEBENE
 62
     7
100
AcDbVertex
100
AcDb2dVertex
 10
61.19488659494434
 20
207.1027763696653
 30
0.0
  0
SEQEND
  5
30F
330
30B
100
AcDbEntity
  8
STANDARDEBENE
  0
POLYLINE
  5
310
330
1F
100
AcDbEntity
  8
STANDARDEBENE
 62
     7
100
AcDb2dPolyline
 66
     1
 10
0.0
 20
0.0
 30
0.0
  0
VERTEX
  5
311
330
310
100
AcDbEntity
  8
STANDARDEBENE
 62
     7
100
AcDbVertex
100
AcDb2dVertex
 10
61.19488659494434
 20
206.1393554172152
 30
0.0
  0
VERTEX
  5
312
330
310
100
AcDbEntity
  8
STANDARDEBENE
 62
     7
100
AcDbVertex
100
AcDb2dVertex
 10
61.19488659494434
 20
205.8496228869056
 30
0.0
  0
VERTEX
  5
313
330
310
100
AcDbEntity
  8
STANDARDEBENE
 62
     7
100
AcDbVertex
100
AcDb2dVertex
 10
61.19488659494434
 20
205.175934464765
 30
0.0
  0
SEQEND
  5
314
330
310
100
AcDbEntity
  8
STANDARDEBENE
  0
POLYLINE
  5
315
330
1F
100
AcDbEntity
  8
STANDARDEBENE
 62
     7
100
AcDb2dPolyline
 66
     1
 10
0.0
 20
0.0
 30
0.0
  0
VERTEX
  5
316
330
315
100
AcDbEntity
  8
STANDARDEBENE
 62
     7
100
AcDbVertex
100
AcDb2dVertex
 10
61.19488659494434
 20
204.2128580218635
 30
0.0
  0
VERTEX
  5
317
330
315
100
AcDbEntity
  8
STANDARDEBENE
 62
     7
100
AcDbVertex
100
AcDb2dVertex
 10
61.19488659494434
 20
203.5389973449486
 30
0.0
  0
VERTEX
  5
318
330
315
100
AcDbEntity
  8
STANDARDEBENE
 62
     7
100
AcDbVertex
100
AcDb2dVertex
 10
61.19488659494434
 20
203.2494370694133
 30
0.0
  0
SEQEND
  5
319
330
315
100
AcDbEntity
  8
STANDARDEBENE
  0
POLYLINE
  5
31A
330
1F
100
AcDbEntity
  8
STANDARDEBENE
 62
     7
100
AcDb2dPolyline
 66
     1
 10
0.0
 20
0.0
 30
0.0
  0
VERTEX
  5
31B
330
31A
100
AcDbEntity
  8
STANDARDEBENE
 62
     7
100
AcDbVertex
100
AcDb2dVertex
 10
61.19488659494434
 20
202.2860161169632
 30
0.0
  0
VERTEX
  5
31C
330
31A
100
AcDbEntity
  8
STANDARDEBENE
 62
     7
100
AcDbVertex
100
AcDb2dVertex
 10
61.19488659494434
 20
201.3839178641506
 30
0.0
  0
VERTEX
  5
31D
330
31A
100
AcDbEntity
  8
STANDARDEBENE
 62
     7
100
AcDbVertex
100
AcDb2dVertex
 10
61.19488659494434
 20
201.3224229097389
 30
0.0
  0
SEQEND
  5
31E
330
31A
100
AcDbEntity
  8
STANDARDEBENE
  0
POLYLINE
  5
31F
330
1F
100
AcDbEntity
  8
STANDARDEBENE
 62
     7
100
AcDb2dPolyline
 66
     1
 10
0.0
 20
0.0
 30
0.0
  0
VERTEX
  5
320
330
31F
100
AcDbEntity
  8
STANDARDEBENE
 62
     7
100
AcDbVertex
100
AcDb2dVertex
 10
61.19488659494434
 20
200.359174212063
 30
0.0
  0
VERTEX
  5
321
330
31F
100
AcDbEntity
  8
STANDARDEBENE
 62
     7
100
AcDbVertex
100
AcDb2dVertex
 10
61.19488659494434
 20
199.6756672677894
 30
0.0
  0
VERTEX
  5
322
330
31F
100
AcDbEntity
  8
STANDARDEBENE
 62
     7
100
AcDbVertex
100
AcDb2dVertex
 10
61.19488659494434
 20
199.3959255143871
 30
0.0
  0
SEQEND
  5
323
330
31F
100
AcDbEntity
  8
STANDARDEBENE
  0
POLYLINE
  5
324
330
1F
100
AcDbEntity
  8
STANDARDEBENE
 62
     7
100
AcDb2dPolyline
 66
     1
 10
0.0
 20
0.0
 30
0.0
  0
VERTEX
  5
325
330
324
100
AcDbEntity
  8
STANDARDEBENE
 62
     7
100
AcDbVertex
100
AcDb2dVertex
 10
61.19488659494434
 20
198.4326768167113
 30
0.0
  0
VERTEX
  5
326
330
324
100
AcDbEntity
  8
STANDARDEBENE
 62
     7
100
AcDbVertex
100
AcDb2dVertex
 10
61.19488659494434
 20
198.6459282272482
 30
0.0
  0
VERTEX
  5
327
330
324
100
AcDbEntity
  8
STANDARDEBENE
 62
     7
100
AcDbVertex
100
AcDb2dVertex
 10
61.19488659494434
 20
199.0651963478032
 30
0.0
  0
VERTEX
  5
328
330
324
100
AcDbEntity
  8
STANDARDEBENE
 62
     7
100
AcDbVertex
100
AcDb2dVertex
 10
61.19488659494434
 20
199.3959255143871
 30
0.0
  0
SEQEND
  5
329
330
324
100
AcDbEntity
  8
STANDARDEBENE
  0
POLYLINE
  5
32A
330
1F
100
AcDbEntity
  8
STANDARDEBENE
 62
     7
100
AcDb2dPolyline
 66
     1
 10
0.0
 20
0.0
 30
0.0
  0
VERTEX
  5
32B
330
32A
100
AcDbEntity
  8
STANDARDEBENE
 62
     7
100
AcDbVertex
100
AcDb2dVertex
 10
61.19488659494434
 20
200.359174212063
 30
0.0
  0
VERTEX
  5
32C
330
32A
100
AcDbEntity
  8
STANDARDEBENE
 62
     7
100
AcDbVertex
100
AcDb2dVertex
 10
61.19488659494434
 20
200.4578761977154
 30
0.0
  0
VERTEX
  5
32D
330
32A
100
AcDbEntity
  8
STANDARDEBENE
 62
     7
100
AcDbVertex
100
AcDb2dVertex
 10
61.19488659494434
 20
201.3224229097389
 30
0.0
  0
SEQEND
  5
32E
330
32A
100
AcDbEntity
  8
STANDARDEBENE
  0
POLYLINE
  5
32F
330
1F
100
AcDbEntity
  8
STANDARDEBENE
 62
     7
100
AcDb2dPolyline
 66
     1
 10
0.0
 20
0.0
 30
0.0
  0
VERTEX
  5
330
330
32F
100
AcDbEntity
  8
STANDARDEBENE
 62
     7
100
AcDbVertex
100
AcDb2dVertex
 10
61.19488659494434
 20
202.2860161169632
 30
0.0
  0
VERTEX
  5
331
330
32F
100
AcDbEntity
  8
STANDARDEBENE
 62
     7
100
AcDbVertex
100
AcDb2dVertex
 10
61.19488659494434
 20
202.4227864077276
 30
0.0
  0
VERTEX
  5
332
330
32F
100
AcDbEntity
  8
STANDARDEBENE
 62
     7
100
AcDbVertex
100
AcDb2dVertex
 10
61.19488659494434
 20
203.2494370694133
 30
0.0
  0
SEQEND
  5
333
330
32F
100
AcDbEntity
  8
STANDARDEBENE
  0
POLYLINE
  5
334
330
1F
100
AcDbEntity
  8
STANDARDEBENE
 62
     7
100
AcDb2dPolyline
 66
     1
 10
0.0
 20
0.0
 30
0.0
  0
VERTEX
  5
335
330
334
100
AcDbEntity
  8
STANDARDEBENE
 62
     7
100
AcDbVertex
100
AcDb2dVertex
 10
61.19488659494434
 20
204.2128580218635
 30
0.0
  0
VERTEX
  5
336
330
334
100
AcDbEntity
  8
STANDARDEBENE
 62
     7
100
AcDbVertex
100
AcDb2dVertex
 10
61.19488659494434
 20
204.6944823707014
 30
0.0
  0
SEQEND
  5
337
330
334
100
AcDbEntity
  8
STANDARDEBENE
  0
POLYLINE
  5
338
330
1F
100
AcDbEntity
  8
STANDARDEBENE
 62
     7
100
AcDb2dPolyline
 66
     1
 10
0.0
 20
0.0
 30
0.0
  0
VERTEX
  5
339
330
338
100
AcDbEntity
  8
STANDARDEBENE
 62
     7
100
AcDbVertex
100
AcDb2dVertex
 10
78.19488252168392
 20
214.6942165261876
 30
0.0
  0
VERTEX
  5
33A
330
338
100
AcDbEntity
  8
STANDARDEBENE
 62
     7
100
AcDbVertex
100
AcDb2dVertex
 10
78.12649737630171
 20
214.6532198899131
 30
0.0
  0
VERTEX
  5
33B
330
338
100
AcDbEntity
  8
STANDARDEBENE
 62
     7
100
AcDbVertex
100
AcDb2dVertex
 10
77.91634655170147
 20
214.5298854715411
 30
0.0
  0
VERTEX
  5
33C
330
338
100
AcDbEntity
  8
STANDARDEBENE
 62
     7
100
AcDbVertex
100
AcDb2dVertex
 10
77.7339287457575
 20
214.4258435878866
 30
0.0
  0
SEQEND
  5
33D
330
338
100
AcDbEntity
  8
STANDARDEBENE
  0
POLYLINE
  5
33E
330
1F
100
AcDbEntity
  8
STANDARDEBENE
 62
     7
100
AcDb2dPolyline
 66
     1
 10
0.0
 20
0.0
 30
0.0
  0
VERTEX
  5
33F
330
33E
100
AcDbEntity
  8
STANDARDEBENE
 62
     7
100
AcDbVertex
100
AcDb2dVertex
 10
76.79117836621887
 20
213.92406543046
 30
0.0
  0
VERTEX
  5
340
330
33E
100
AcDbEntity
  8
STANDARDEBENE
 62
     7
100
AcDbVertex
100
AcDb2dVertex
 10
76.54778237018597
 20
213.8019367955079
 30
0.0
  0
VERTEX
  5
341
330
33E
100
AcDbEntity
  8
STANDARDEBENE
 62
     7
100
AcDbVertex
100
AcDb2dVertex
 10
75.84257132435533
 20
213.4867105586075
 30
0.0
  0
VERTEX
  5
342
330
33E
100
AcDbEntity
  8
STANDARDEBENE
 62
     7
100
AcDbVertex
100
AcDb2dVertex
 10
75.82103947757253
 20
213.4791313485399
 30
0.0
  0
SEQEND
  5
343
330
33E
100
AcDbEntity
  8
STANDARDEBENE
  0
POLYLINE
  5
344
330
1F
100
AcDbEntity
  8
STANDARDEBENE
 62
     7
100
AcDb2dPolyline
 66
     1
 10
0.0
 20
0.0
 30
0.0
  0
VERTEX
  5
345
330
344
100
AcDbEntity
  8
STANDARDEBENE
 62
     7
100
AcDbVertex
100
AcDb2dVertex
 10
74.81679414362219
 20
213.1201523989769
 30
0.0
  0
VERTEX
  5
346
330
344
100
AcDbEntity
  8
STANDARDEBENE
 62
     7
100
AcDbVertex
100
AcDb2dVertex
 10
73.95173066727595
 20
212.8848523773343
 30
0.0
  0
VERTEX
  5
347
330
344
100
AcDbEntity
  8
STANDARDEBENE
 62
     7
100
AcDbVertex
100
AcDb2dVertex
 10
73.78240422417593
 20
212.8569471039038
 30
0.0
  0
SEQEND
  5
348
330
344
100
AcDbEntity
  8
STANDARDEBENE
  0
POLYLINE
  5
349
330
1F
100
AcDbEntity
  8
STANDARDEBENE
 62
     7
100
AcDb2dPolyline
 66
     1
 10
0.0
 20
0.0
 30
0.0
  0
VERTEX
  5
34A
330
349
100
AcDbEntity
  8
STANDARDEBENE
 62
     7
100
AcDbVertex
100
AcDb2dVertex
 10
72.72475991020423
 20
212.7232773990761
 30
0.0
  0
VERTEX
  5
34B
330
349
100
AcDbEntity
  8
STANDARDEBENE
 62
     7
100
AcDbVertex
100
AcDb2dVertex
 10
72.30773110171474
 20
212.6953721256456
 30
0.0
  0
VERTEX
  5
34C
330
349
100
AcDbEntity
  8
STANDARDEBENE
 62
     7
100
AcDbVertex
100
AcDb2dVertex
 10
71.65833060274514
 20
212.7198323035909
 30
0.0
  0
SEQEND
  5
34D
330
349
100
AcDbEntity
  8
STANDARDEBENE
  0
POLYLINE
  5
34E
330
1F
100
AcDbEntity
  8
STANDARDEBENE
 62
     7
100
AcDb2dPolyline
 66
     1
 10
0.0
 20
0.0
 30
0.0
  0
VERTEX
  5
34F
330
34E
100
AcDbEntity
  8
STANDARDEBENE
 62
     7
100
AcDbVertex
100
AcDb2dVertex
 10
70.60034177922492
 20
212.8538465179671
 30
0.0
  0
VERTEX
  5
350
330
34E
100
AcDbEntity
  8
STANDARDEBENE
 62
     7
100
AcDbVertex
100
AcDb2dVertex
 10
69.88806828764952
 20
213.0202446299047
 30
0.0
  0
VERTEX
  5
351
330
34E
100
AcDbEntity
  8
STANDARDEBENE
 62
     7
100
AcDbVertex
100
AcDb2dVertex
 10
69.56750215274701
 20
213.1218749467195
 30
0.0
  0
SEQEND
  5
352
330
34E
100
AcDbEntity
  8
STANDARDEBENE
  0
POLYLINE
  5
353
330
1F
100
AcDbEntity
  8
STANDARDEBENE
 62
     7
100
AcDb2dPolyline
 66
     1
 10
0.0
 20
0.0
 30
0.0
  0
VERTEX
  5
354
330
353
100
AcDbEntity
  8
STANDARDEBENE
 62
     7
100
AcDbVertex
100
AcDb2dVertex
 10
68.56377358311947
 20
213.4846435013164
 30
0.0
  0
VERTEX
  5
355
330
353
100
AcDbEntity
  8
STANDARDEBENE
 62
     7
100
AcDbVertex
100
AcDb2dVertex
 10
68.40788301241192
 20
213.5456216914053
 30
0.0
  0
VERTEX
  5
356
330
353
100
AcDbEntity
  8
STANDARDEBENE
 62
     7
100
AcDbVertex
100
AcDb2dVertex
 10
67.72833792794638
 20
213.8567138137233
 30
0.0
  0
VERTEX
  5
357
330
353
100
AcDbEntity
  8
STANDARDEBENE
 62
     7
100
AcDbVertex
100
AcDb2dVertex
 10
67.59225665627902
 20
213.9269937616224
 30
0.0
  0
SEQEND
  5
358
330
353
100
AcDbEntity
  8
STANDARDEBENE
  0
POLYLINE
  5
359
330
1F
100
AcDbEntity
  8
STANDARDEBENE
 62
     7
100
AcDb2dPolyline
 66
     1
 10
0.0
 20
0.0
 30
0.0
  0
VERTEX
  5
35A
330
359
100
AcDbEntity
  8
STANDARDEBENE
 62
     7
100
AcDbVertex
100
AcDb2dVertex
 10
66.65071206016025
 20
214.4289441738233
 30
0.0
  0
VERTEX
  5
35B
330
359
100
AcDbEntity
  8
STANDARDEBENE
 62
     7
100
AcDbVertex
100
AcDb2dVertex
 10
66.60730385704609
 20
214.4528875874458
 30
0.0
  0
VERTEX
  5
35C
330
359
100
AcDbEntity
  8
STANDARDEBENE
 62
     7
100
AcDbVertex
100
AcDb2dVertex
 10
66.319810638802
 20
214.6198024637062
 30
0.0
  0
VERTEX
  5
35D
330
359
100
AcDbEntity
  8
STANDARDEBENE
 62
     7
100
AcDbVertex
100
AcDb2dVertex
 10
66.20508895914317
 20
214.6885321186369
 30
0.0
  0
SEQEND
  5
35E
330
359
100
AcDbEntity
  8
STANDARDEBENE
  0
POLYLINE
  5
35F
330
1F
100
AcDbEntity
  8
STANDARDEBENE
 62
     7
100
AcDb2dPolyline
 66
     1
 10
0.0
 20
0.0
 30
0.0
  0
VERTEX
  5
360
330
35F
100
AcDbEntity
  8
STANDARDEBENE
 62
     7
100
AcDbVertex
100
AcDb2dVertex
 10
88.94478621908326
 20
214.6942165261876
 30
0.0
  0
VERTEX
  5
361
330
35F
100
AcDbEntity
  8
STANDARDEBENE
 62
     7
100
AcDbVertex
100
AcDb2dVertex
 10
88.94478621908326
 20
214.5925862093727
 30
0.0
  0
VERTEX
  5
362
330
35F
100
AcDbEntity
  8
STANDARDEBENE
 62
     7
100
AcDbVertex
100
AcDb2dVertex
 10
88.94478621908326
 20
214.2892455518964
 30
0.0
  0
VERTEX
  5
363
330
35F
100
AcDbEntity
  8
STANDARDEBENE
 62
     7
100
AcDbVertex
100
AcDb2dVertex
 10
88.94478621908326
 20
214.1946776808263
 30
0.0
  0
SEQEND
  5
364
330
35F
100
AcDbEntity
  8
STANDARDEBENE
  0
POLYLINE
  5
365
330
1F
100
AcDbEntity
  8
STANDARDEBENE
 62
     7
100
AcDb2dPolyline
 66
     1
 10
0.0
 20
0.0
 30
0.0
  0
VERTEX
  5
366
330
365
100
AcDbEntity
  8
STANDARDEBENE
 62
     7
100
AcDbVertex
100
AcDb2dVertex
 10
88.94478621908326
 20
213.1945664614583
 30
0.0
  0
VERTEX
  5
367
330
365
100
AcDbEntity
  8
STANDARDEBENE
 62
     7
100
AcDbVertex
100
AcDb2dVertex
 10
88.94478621908326
 20
213.1067165265844
 30
0.0
  0
VERTEX
  5
368
330
365
100
AcDbEntity
  8
STANDARDEBENE
 62
     7
100
AcDbVertex
100
AcDb2dVertex
 10
88.94478621908326
 20
212.251988336694
 30
0.0
  0
VERTEX
  5
369
330
365
100
AcDbEntity
  8
STANDARDEBENE
 62
     7
100
AcDbVertex
100
AcDb2dVertex
 10
88.94478621908326
 20
212.1944552420903
 30
0.0
  0
SEQEND
  5
36A
330
365
100
AcDbEntity
  8
STANDARDEBENE
  0
POLYLINE
  5
36B
330
1F
100
AcDbEntity
  8
STANDARDEBENE
 62
     7
100
AcDb2dPolyline
 66
     1
 10
0.0
 20
0.0
 30
0.0
  0
VERTEX
  5
36C
330
36B
100
AcDbEntity
  8
STANDARDEBENE
 62
     7
100
AcDbVertex
100
AcDb2dVertex
 10
88.94478621908326
 20
211.1946885322708
 30
0.0
  0
VERTEX
  5
36D
330
36B
100
AcDbEntity
  8
STANDARDEBENE
 62
     7
100
AcDbVertex
100
AcDb2dVertex
 10
88.94478621908326
 20
210.1942328033542
 30
0.0
  0
SEQEND
  5
36E
330
36B
100
AcDbEntity
  8
STANDARDEBENE
  0
POLYLINE
  5
36F
330
1F
100
AcDbEntity
  8
STANDARDEBENE
 62
     7
100
AcDb2dPolyline
 66
     1
 10
0.0
 20
0.0
 30
0.0
  0
VERTEX
  5
370
330
36F
100
AcDbEntity
  8
STANDARDEBENE
 62
     7
100
AcDbVertex
100
AcDb2dVertex
 10
88.94478621908326
 20
209.1948106030833
 30
0.0
  0
VERTEX
  5
371
330
36F
100
AcDbEntity
  8
STANDARDEBENE
 62
     7
100
AcDbVertex
100
AcDb2dVertex
 10
88.94478621908326
 20
208.8489230163642
 30
0.0
  0
VERTEX
  5
372
330
36F
100
AcDbEntity
  8
STANDARDEBENE
 62
     7
100
AcDbVertex
100
AcDb2dVertex
 10
88.94478621908326
 20
208.1946993837152
 30
0.0
  0
SEQEND
  5
373
330
36F
100
AcDbEntity
  8
STANDARDEBENE
  0
POLYLINE
  5
374
330
1F
100
AcDbEntity
  8
STANDARDEBENE
 62
     7
100
AcDb2dPolyline
 66
     1
 10
0.0
 20
0.0
 30
0.0
  0
VERTEX
  5
375
330
374
100
AcDbEntity
  8
STANDARDEBENE
 62
     7
100
AcDbVertex
100
AcDb2dVertex
 10
88.94478621908326
 20
207.1945881643472
 30
0.0
  0
VERTEX
  5
376
330
374
100
AcDbEntity
  8
STANDARDEBENE
 62
     7
100
AcDbVertex
100
AcDb2dVertex
 10
88.94478621908326
 20
206.1948214545277
 30
0.0
  0
SEQEND
  5
377
330
374
100
AcDbEntity
  8
STANDARDEBENE
  0
POLYLINE
  5
378
330
1F
100
AcDbEntity
  8
STANDARDEBENE
 62
     7
100
AcDb2dPolyline
 66
     1
 10
0.0
 20
0.0
 30
0.0
  0
VERTEX
  5
379
330
378
100
AcDbEntity
  8
STANDARDEBENE
 62
     7
100
AcDbVertex
100
AcDb2dVertex
 10
88.94478621908326
 20
205.1943657256111
 30
0.0
  0
VERTEX
  5
37A
330
378
100
AcDbEntity
  8
STANDARDEBENE
 62
     7
100
AcDbVertex
100
AcDb2dVertex
 10
88.94478621908326
 20
204.6944823707014
 30
0.0
  0
VERTEX
  5
37B
330
378
100
AcDbEntity
  8
STANDARDEBENE
 62
     7
100
AcDbVertex
100
AcDb2dVertex
 10
88.94478621908326
 20
204.1949435253402
 30
0.0
  0
SEQEND
  5
37C
330
378
100
AcDbEntity
  8
STANDARDEBENE
  0
POLYLINE
  5
37D
330
1F
100
AcDbEntity
  8
STANDARDEBENE
 62
     7
100
AcDb2dPolyline
 66
     1
 10
0.0
 20
0.0
 30
0.0
  0
VERTEX
  5
37E
330
37D
100
AcDbEntity
  8
STANDARDEBENE
 62
     7
100
AcDbVertex
100
AcDb2dVertex
 10
88.94478621908326
 20
203.1948323059721
 30
0.0
  0
VERTEX
  5
37F
330
37D
100
AcDbEntity
  8
STANDARDEBENE
 62
     7
100
AcDbVertex
100
AcDb2dVertex
 10
88.94478621908326
 20
202.1942043222813
 30
0.0
  0
SEQEND
  5
380
330
37D
100
AcDbEntity
  8
STANDARDEBENE
  0
POLYLINE
  5
381
330
1F
100
AcDbEntity
  8
STANDARDEBENE
 62
     7
100
AcDb2dPolyline
 66
     1
 10
0.0
 20
0.0
 30
0.0
  0
VERTEX
  5
382
330
381
100
AcDbEntity
  8
STANDARDEBENE
 62
     7
100
AcDbVertex
100
AcDb2dVertex
 10
88.94478621908326
 20
201.1947821220103
 30
0.0
  0
VERTEX
  5
383
330
381
100
AcDbEntity
  8
STANDARDEBENE
 62
     7
100
AcDbVertex
100
AcDb2dVertex
 10
88.94478621908326
 20
200.5403862345871
 30
0.0
  0
VERTEX
  5
384
330
381
100
AcDbEntity
  8
STANDARDEBENE
 62
     7
100
AcDbVertex
100
AcDb2dVertex
 10
88.94478621908326
 20
200.1943263930938
 30
0.0
  0
SEQEND
  5
385
330
381
100
AcDbEntity
  8
STANDARDEBENE
  0
POLYLINE
  5
386
330
1F
100
AcDbEntity
  8
STANDARDEBENE
 62
     7
100
AcDb2dPolyline
 66
     1
 10
0.0
 20
0.0
 30
0.0
  0
VERTEX
  5
387
330
386
100
AcDbEntity
  8
STANDARDEBENE
 62
     7
100
AcDbVertex
100
AcDb2dVertex
 10
88.94478621908326
 20
199.1942151737258
 30
0.0
  0
VERTEX
  5
388
330
386
100
AcDbEntity
  8
STANDARDEBENE
 62
     7
100
AcDbVertex
100
AcDb2dVertex
 10
88.94478621908326
 20
198.1947929734548
 30
0.0
  0
SEQEND
  5
389
330
386
100
AcDbEntity
  8
STANDARDEBENE
  0
POLYLINE
  5
38A
330
1F
100
AcDbEntity
  8
STANDARDEBENE
 62
     7
100
AcDb2dPolyline
 66
     1
 10
0.0
 20
0.0
 30
0.0
  0
VERTEX
  5
38B
330
38A
100
AcDbEntity
  8
STANDARDEBENE
 62
     7
100
AcDbVertex
100
AcDb2dVertex
 10
88.94478621908326
 20
197.1943372445382
 30
0.0
  0
VERTEX
  5
38C
330
38A
100
AcDbEntity
  8
STANDARDEBENE
 62
     7
100
AcDbVertex
100
AcDb2dVertex
 10
88.94478621908326
 20
197.1368041499346
 30
0.0
  0
VERTEX
  5
38D
330
38A
100
AcDbEntity
  8
STANDARDEBENE
 62
     7
100
AcDbVertex
100
AcDb2dVertex
 10
88.94478621908326
 20
196.2817314504956
 30
0.0
  0
VERTEX
  5
38E
330
38A
100
AcDbEntity
  8
STANDARDEBENE
 62
     7
100
AcDbVertex
100
AcDb2dVertex
 10
88.94478621908326
 20
196.1945705347187
 30
0.0
  0
SEQEND
  5
38F
330
38A
100
AcDbEntity
  8
STANDARDEBENE
  0
POLYLINE
  5
390
330
1F
100
AcDbEntity
  8
STANDARDEBENE
 62
     7
100
AcDb2dPolyline
 66
     1
 10
0.0
 20
0.0
 30
0.0
  0
VERTEX
  5
391
330
390
100
AcDbEntity
  8
STANDARDEBENE
 62
     7
100
AcDbVertex
100
AcDb2dVertex
 10
88.94478621908326
 20
195.1944593153507
 30
0.0
  0
VERTEX
  5
392
330
390
100
AcDbEntity
  8
STANDARDEBENE
 62
     7
100
AcDbVertex
100
AcDb2dVertex
 10
88.94478621908326
 20
195.0995469347321
 30
0.0
  0
VERTEX
  5
393
330
390
100
AcDbEntity
  8
STANDARDEBENE
 62
     7
100
AcDbVertex
100
AcDb2dVertex
 10
88.94478621908326
 20
194.7960340224816
 30
0.0
  0
VERTEX
  5
394
330
390
100
AcDbEntity
  8
STANDARDEBENE
 62
     7
100
AcDbVertex
100
AcDb2dVertex
 10
88.94478621908326
 20
194.6942314508924
 30
0.0
  0
SEQEND
  5
395
330
390
100
AcDbEntity
  8
STANDARDEBENE
  0
POLYLINE
  5
396
330
1F
100
AcDbEntity
  8
STANDARDEBENE
 62
     7
100
AcDb2dPolyline
 66
     1
 10
0.0
 20
0.0
 30
0.0
  0
VERTEX
  5
397
330
396
100
AcDbEntity
  8
STANDARDEBENE
 62
     7
100
AcDbVertex
100
AcDb2dVertex
 10
61.44500052717348
 20
204.6944823707014
 30
0.0
  0
VERTEX
  5
398
330
396
100
AcDbEntity
  8
STANDARDEBENE
 62
     7
100
AcDbVertex
100
AcDb2dVertex
 10
61.44500052717348
 20
205.1943657256111
 30
0.0
  0
SEQEND
  5
399
330
396
100
AcDbEntity
  8
STANDARDEBENE
  0
POLYLINE
  5
39A
330
1F
100
AcDbEntity
  8
STANDARDEBENE
 62
     7
100
AcDb2dPolyline
 66
     1
 10
0.0
 20
0.0
 30
0.0
  0
VERTEX
  5
39B
330
39A
100
AcDbEntity
  8
STANDARDEBENE
 62
     7
100
AcDbVertex
100
AcDb2dVertex
 10
61.44500052717348
 20
206.1948214545277
 30
0.0
  0
VERTEX
  5
39C
330
39A
100
AcDbEntity
  8
STANDARDEBENE
 62
     7
100
AcDbVertex
100
AcDb2dVertex
 10
61.44500052717348
 20
207.1945881643472
 30
0.0
  0
SEQEND
  5
39D
330
39A
100
AcDbEntity
  8
STANDARDEBENE
  0
POLYLINE
  5
39E
330
1F
100
AcDbEntity
  8
STANDARDEBENE
 62
     7
100
AcDb2dPolyline
 66
     1
 10
0.0
 20
0.0
 30
0.0
  0
VERTEX
  5
39F
330
39E
100
AcDbEntity
  8
STANDARDEBENE
 62
     7
100
AcDbVertex
100
AcDb2dVertex
 10
61.44500052717348
 20
208.1946993837152
 30
0.0
  0
VERTEX
  5
3A0
330
39E
100
AcDbEntity
  8
STANDARDEBENE
 62
     7
100
AcDbVertex
100
AcDb2dVertex
 10
61.44500052717348
 20
208.8489230163642
 30
0.0
  0
VERTEX
  5
3A1
330
39E
100
AcDbEntity
  8
STANDARDEBENE
 62
     7
100
AcDbVertex
100
AcDb2dVertex
 10
61.44500052717348
 20
209.1948106030833
 30
0.0
  0
SEQEND
  5
3A2
330
39E
100
AcDbEntity
  8
STANDARDEBENE
  0
POLYLINE
  5
3A3
330
1F
100
AcDbEntity
  8
STANDARDEBENE
 62
     7
100
AcDb2dPolyline
 66
     1
 10
0.0
 20
0.0
 30
0.0
  0
VERTEX
  5
3A4
330
3A3
100
AcDbEntity
  8
STANDARDEBENE
 62
     7
100
AcDbVertex
100
AcDb2dVertex
 10
61.44500052717348
 20
210.1942328033542
 30
0.0
  0
VERTEX
  5
3A5
330
3A3
100
AcDbEntity
  8
STANDARDEBENE
 62
     7
100
AcDbVertex
100
AcDb2dVertex
 10
61.44500052717348
 20
211.1946885322708
 30
0.0
  0
SEQEND
  5
3A6
330
3A3
100
AcDbEntity
  8
STANDARDEBENE
  0
POLYLINE
  5
3A7
330
1F
100
AcDbEntity
  8
STANDARDEBENE
 62
     7
100
AcDb2dPolyline
 66
     1
 10
0.0
 20
0.0
 30
0.0
  0
VERTEX
  5
3A8
330
3A7
100
AcDbEntity
  8
STANDARDEBENE
 62
     7
100
AcDbVertex
100
AcDb2dVertex
 10
61.44500052717348
 20
212.1944552420903
 30
0.0
  0
VERTEX
  5
3A9
330
3A7
100
AcDbEntity
  8
STANDARDEBENE
 62
     7
100
AcDbVertex
100
AcDb2dVertex
 10
61.44500052717348
 20
212.251988336694
 30
0.0
  0
VERTEX
  5
3AA
330
3A7
100
AcDbEntity
  8
STANDARDEBENE
 62
     7
100
AcDbVertex
100
AcDb2dVertex
 10
61.44500052717348
 20
213.1067165265844
 30
0.0
  0
VERTEX
  5
3AB
330
3A7
100
AcDbEntity
  8
STANDARDEBENE
 62
     7
100
AcDbVertex
100
AcDb2dVertex
 10
61.44500052717348
 20
213.1945664614583
 30
0.0
  0
SEQEND
  5
3AC
330
3A7
100
AcDbEntity
  8
STANDARDEBENE
  0
POLYLINE
  5
3AD
330
1F
100
AcDbEntity
  8
STANDARDEBENE
 62
     7
100
AcDb2dPolyline
 66
     1
 10
0.0
 20
0.0
 30
0.0
  0
VERTEX
  5
3AE
330
3AD
100
AcDbEntity
  8
STANDARDEBENE
 62
     7
100
AcDbVertex
100
AcDb2dVertex
 10
61.44500052717348
 20
214.1946776808263
 30
0.0
  0
VERTEX
  5
3AF
330
3AD
100
AcDbEntity
  8
STANDARDEBENE
 62
     7
100
AcDbVertex
100
AcDb2dVertex
 10
61.44500052717348
 20
214.2892455518964
 30
0.0
  0
VERTEX
  5
3B0
330
3AD
100
AcDbEntity
  8
STANDARDEBENE
 62
     7
100
AcDbVertex
100
AcDb2dVertex
 10
61.44500052717348
 20
214.5925862093727
 30
0.0
  0
VERTEX
  5
3B1
330
3AD
100
AcDbEntity
  8
STANDARDEBENE
 62
     7
100
AcDbVertex
100
AcDb2dVertex
 10
61.44500052717348
 20
214.6942165261876
 30
0.0
  0
SEQEND
  5
3B2
330
3AD
100
AcDbEntity
  8
STANDARDEBENE
  0
POLYLINE
  5
3B3
330
1F
100
AcDbEntity
  8
STANDARDEBENE
 62
     7
100
AcDb2dPolyline
 66
     1
 10
0.0
 20
0.0
 30
0.0
  0
VERTEX
  5
3B4
330
3B3
100
AcDbEntity
  8
STANDARDEBENE
 62
     7
100
AcDbVertex
100
AcDb2dVertex
 10
61.44500052717348
 20
194.6942314508924
 30
0.0
  0
VERTEX
  5
3B5
330
3B3
100
AcDbEntity
  8
STANDARDEBENE
 62
     7
100
AcDbVertex
100
AcDb2dVertex
 10
61.44500052717348
 20
194.7960340224816
 30
0.0
  0
VERTEX
  5
3B6
330
3B3
100
AcDbEntity
  8
STANDARDEBENE
 62
     7
100
AcDbVertex
100
AcDb2dVertex
 10
61.44500052717348
 20
195.0995469347321
 30
0.0
  0
VERTEX
  5
3B7
330
3B3
100
AcDbEntity
  8
STANDARDEBENE
 62
     7
100
AcDbVertex
100
AcDb2dVertex
 10
61.44500052717348
 20
195.1944593153507
 30
0.0
  0
SEQEND
  5
3B8
330
3B3
100
AcDbEntity
  8
STANDARDEBENE
  0
POLYLINE
  5
3B9
330
1F
100
AcDbEntity
  8
STANDARDEBENE
 62
     7
100
AcDb2dPolyline
 66
     1
 10
0.0
 20
0.0
 30
0.0
  0
VERTEX
  5
3BA
330
3B9
100
AcDbEntity
  8
STANDARDEBENE
 62
     7
100
AcDbVertex
100
AcDb2dVertex
 10
61.44500052717348
 20
196.1945705347187
 30
0.0
  0
VERTEX
  5
3BB
330
3B9
100
AcDbEntity
  8
STANDARDEBENE
 62
     7
100
AcDbVertex
100
AcDb2dVertex
 10
61.44500052717348
 20
196.2817314504956
 30
0.0
  0
VERTEX
  5
3BC
330
3B9
100
AcDbEntity
  8
STANDARDEBENE
 62
     7
100
AcDbVertex
100
AcDb2dVertex
 10
61.44500052717348
 20
197.1368041499346
 30
0.0
  0
VERTEX
  5
3BD
330
3B9
100
AcDbEntity
  8
STANDARDEBENE
 62
     7
100
AcDbVertex
100
AcDb2dVertex
 10
61.44500052717348
 20
197.1943372445382
 30
0.0
  0
SEQEND
  5
3BE
330
3B9
100
AcDbEntity
  8
STANDARDEBENE
  0
POLYLINE
  5
3BF
330
1F
100
AcDbEntity
  8
STANDARDEBENE
 62
     7
100
AcDb2dPolyline
 66
     1
 10
0.0
 20
0.0
 30
0.0
  0
VERTEX
  5
3C0
330
3BF
100
AcDbEntity
  8
STANDARDEBENE
 62
     7
100
AcDbVertex
100
AcDb2dVertex
 10
61.44500052717348
 20
198.1947929734548
 30
0.0
  0
VERTEX
  5
3C1
330
3BF
100
AcDbEntity
  8
STANDARDEBENE
 62
     7
100
AcDbVertex
100
AcDb2dVertex
 10
61.44500052717348
 20
199.1942151737258
 30
0.0
  0
SEQEND
  5
3C2
330
3BF
100
AcDbEntity
  8
STANDARDEBENE
  0
POLYLINE
  5
3C3
330
1F
100
AcDbEntity
  8
STANDARDEBENE
 62
     7
100
AcDb2dPolyline
 66
     1
 10
0.0
 20
0.0
 30
0.0
  0
VERTEX
  5
3C4
330
3C3
100
AcDbEntity
  8
STANDARDEBENE
 62
     7
100
AcDbVertex
100
AcDb2dVertex
 10
61.44500052717348
 20
200.1943263930938
 30
0.0
  0
VERTEX
  5
3C5
330
3C3
100
AcDbEntity
  8
STANDARDEBENE
 62
     7
100
AcDbVertex
100
AcDb2dVertex
 10
61.44500052717348
 20
200.5403862345871
 30
0.0
  0
VERTEX
  5
3C6
330
3C3
100
AcDbEntity
  8
STANDARDEBENE
 62
     7
100
AcDbVertex
100
AcDb2dVertex
 10
61.44500052717348
 20
201.1947821220103
 30
0.0
  0
SEQEND
  5
3C7
330
3C3
100
AcDbEntity
  8
STANDARDEBENE
  0
POLYLINE
  5
3C8
330
1F
100
AcDbEntity
  8
STANDARDEBENE
 62
     7
100
AcDb2dPolyline
 66
     1
 10
0.0
 20
0.0
 30
0.0
  0
VERTEX
  5
3C9
330
3C8
100
AcDbEntity
  8
STANDARDEBENE
 62
     7
100
AcDbVertex
100
AcDb2dVertex
 10
61.44500052717348
 20
202.1942043222813
 30
0.0
  0
VERTEX
  5
3CA
330
3C8
100
AcDbEntity
  8
STANDARDEBENE
 62
     7
100
AcDbVertex
100
AcDb2dVertex
 10
61.44500052717348
 20
203.1948323059721
 30
0.0
  0
SEQEND
  5
3CB
330
3C8
100
AcDbEntity
  8
STANDARDEBENE
  0
POLYLINE
  5
3CC
330
1F
100
AcDbEntity
  8
STANDARDEBENE
 62
     7
100
AcDb2dPolyline
 66
     1
 10
0.0
 20
0.0
 30
0.0
  0
VERTEX
  5
3CD
330
3CC
100
AcDbEntity
  8
STANDARDEBENE
 62
     7
100
AcDbVertex
100
AcDb2dVertex
 10
61.44500052717348
 20
204.1949435253402
 30
0.0
  0
VERTEX
  5
3CE
330
3CC
100
AcDbEntity
  8
STANDARDEBENE
 62
     7
100
AcDbVertex
100
AcDb2dVertex
 10
61.44500052717348
 20
204.6944823707014
 30
0.0
  0
SEQEND
  5
3CF
330
3CC
100
AcDbEntity
  8
STANDARDEBENE
  0
POLYLINE
  5
3D0
330
1F
100
AcDbEntity
  8
STANDARDEBENE
 62
     7
100
AcDb2dPolyline
 66
     1
 10
0.0
 20
0.0
 30
0.0
  0
VERTEX
  5
3D1
330
3D0
100
AcDbEntity
  8
STANDARDEBENE
 62
     7
100
AcDbVertex
100
AcDb2dVertex
 10
81.19469941546522
 20
204.6944823707014
 30
0.0
  0
VERTEX
  5
3D2
330
3D0
100
AcDbEntity
  8
STANDARDEBENE
 62
     7
100
AcDbVertex
100
AcDb2dVertex
 10
81.19469941546522
 20
205.2119357125859
 30
0.0
  0
SEQEND
  5
3D3
330
3D0
100
AcDbEntity
  8
STANDARDEBENE
  0
POLYLINE
  5
3D4
330
1F
100
AcDbEntity
  8
STANDARDEBENE
 62
     7
100
AcDb2dPolyline
 66
     1
 10
0.0
 20
0.0
 30
0.0
  0
VERTEX
  5
3D5
330
3D4
100
AcDbEntity
  8
STANDARDEBENE
 62
     7
100
AcDbVertex
100
AcDb2dVertex
 10
81.19469941546522
 20
206.2471869059035
 30
0.0
  0
VERTEX
  5
3D6
330
3D4
100
AcDbEntity
  8
STANDARDEBENE
 62
     7
100
AcDbVertex
100
AcDb2dVertex
 10
81.19469941546522
 20
206.8128715845815
 30
0.0
  0
VERTEX
  5
3D7
330
3D4
100
AcDbEntity
  8
STANDARDEBENE
 62
     7
100
AcDbVertex
100
AcDb2dVertex
 10
81.19469941546522
 20
207.2824380992211
 30
0.0
  0
SEQEND
  5
3D8
330
3D4
100
AcDbEntity
  8
STANDARDEBENE
  0
POLYLINE
  5
3D9
330
1F
100
AcDbEntity
  8
STANDARDEBENE
 62
     7
100
AcDb2dPolyline
 66
     1
 10
0.0
 20
0.0
 30
0.0
  0
VERTEX
  5
3DA
330
3D9
100
AcDbEntity
  8
STANDARDEBENE
 62
     7
100
AcDbVertex
100
AcDb2dVertex
 10
81.19469941546522
 20
208.3173447829901
 30
0.0
  0
VERTEX
  5
3DB
330
3D9
100
AcDbEntity
  8
STANDARDEBENE
 62
     7
100
AcDbVertex
100
AcDb2dVertex
 10
81.19469941546522
 20
208.6277478862111
 30
0.0
  0
VERTEX
  5
3DC
330
3D9
100
AcDbEntity
  8
STANDARDEBENE
 62
     7
100
AcDbVertex
100
AcDb2dVertex
 10
81.19469941546522
 20
209.3376098109468
 30
0.0
  0
VERTEX
  5
3DD
330
3D9
100
AcDbEntity
  8
STANDARDEBENE
 62
     7
100
AcDbVertex
100
AcDb2dVertex
 10
81.19469941546522
 20
209.3531127406305
 30
0.0
  0
SEQEND
  5
3DE
330
3D9
100
AcDbEntity
  8
STANDARDEBENE
  0
POLYLINE
  5
3DF
330
1F
100
AcDbEntity
  8
STANDARDEBENE
 62
     7
100
AcDb2dPolyline
 66
     1
 10
0.0
 20
0.0
 30
0.0
  0
VERTEX
  5
3E0
330
3DF
100
AcDbEntity
  8
STANDARDEBENE
 62
     7
100
AcDbVertex
100
AcDb2dVertex
 10
81.19469941546522
 20
210.3878471696253
 30
0.0
  0
VERTEX
  5
3E1
330
3DF
100
AcDbEntity
  8
STANDARDEBENE
 62
     7
100
AcDbVertex
100
AcDb2dVertex
 10
81.19469941546522
 20
210.3366875016693
 30
0.0
  0
VERTEX
  5
3E2
330
3DF
100
AcDbEntity
  8
STANDARDEBENE
 62
     7
100
AcDbVertex
100
AcDb2dVertex
 10
81.19469941546522
 20
210.0808891618895
 30
0.0
  0
VERTEX
  5
3E3
330
3DF
100
AcDbEntity
  8
STANDARDEBENE
 62
     7
100
AcDbVertex
100
AcDb2dVertex
 10
81.19469941546522
 20
209.6311319462901
 30
0.0
  0
VERTEX
  5
3E4
330
3DF
100
AcDbEntity
  8
STANDARDEBENE
 62
     7
100
AcDbVertex
100
AcDb2dVertex
 10
81.19469941546522
 20
209.3531127406305
 30
0.0
  0
SEQEND
  5
3E5
330
3DF
100
AcDbEntity
  8
STANDARDEBENE
  0
POLYLINE
  5
3E6
330
1F
100
AcDbEntity
  8
STANDARDEBENE
 62
     7
100
AcDb2dPolyline
 66
     1
 10
0.0
 20
0.0
 30
0.0
  0
VERTEX
  5
3E7
330
3E6
100
AcDbEntity
  8
STANDARDEBENE
 62
     7
100
AcDbVertex
100
AcDb2dVertex
 10
81.19469941546522
 20
208.3173447829901
 30
0.0
  0
VERTEX
  5
3E8
330
3E6
100
AcDbEntity
  8
STANDARDEBENE
 62
     7
100
AcDbVertex
100
AcDb2dVertex
 10
81.19469941546522
 20
208.2182982877892
 30
0.0
  0
VERTEX
  5
3E9
330
3E6
100
AcDbEntity
  8
STANDARDEBENE
 62
     7
100
AcDbVertex
100
AcDb2dVertex
 10
81.19469941546522
 20
207.3063815128436
 30
0.0
  0
VERTEX
  5
3EA
330
3E6
100
AcDbEntity
  8
STANDARDEBENE
 62
     7
100
AcDbVertex
100
AcDb2dVertex
 10
81.19469941546522
 20
207.2824380992211
 30
0.0
  0
SEQEND
  5
3EB
330
3E6
100
AcDbEntity
  8
STANDARDEBENE
  0
POLYLINE
  5
3EC
330
1F
100
AcDbEntity
  8
STANDARDEBENE
 62
     7
100
AcDb2dPolyline
 66
     1
 10
0.0
 20
0.0
 30
0.0
  0
VERTEX
  5
3ED
330
3EC
100
AcDbEntity
  8
STANDARDEBENE
 62
     7
100
AcDbVertex
100
AcDb2dVertex
 10
81.19469941546522
 20
206.2471869059035
 30
0.0
  0
VERTEX
  5
3EE
330
3EC
100
AcDbEntity
  8
STANDARDEBENE
 62
     7
100
AcDbVertex
100
AcDb2dVertex
 10
81.19469941546522
 20
205.2365681453055
 30
0.0
  0
VERTEX
  5
3EF
330
3EC
100
AcDbEntity
  8
STANDARDEBENE
 62
     7
100
AcDbVertex
100
AcDb2dVertex
 10
81.19469941546522
 20
205.2119357125859
 30
0.0
  0
SEQEND
  5
3F0
330
3EC
100
AcDbEntity
  8
STANDARDEBENE
  0
POLYLINE
  5
3F1
330
1F
100
AcDbEntity
  8
STANDARDEBENE
 62
     7
100
AcDb2dPolyline
 66
     1
 10
0.0
 20
0.0
 30
0.0
  0
VERTEX
  5
3F2
330
3F1
100
AcDbEntity
  8
STANDARDEBENE
 62
     7
100
AcDbVertex
100
AcDb2dVertex
 10
81.19469941546522
 20
204.1768567740426
 30
0.0
  0
VERTEX
  5
3F3
330
3F1
100
AcDbEntity
  8
STANDARDEBENE
 62
     7
100
AcDbVertex
100
AcDb2dVertex
 10
81.19469941546522
 20
204.1529133604201
 30
0.0
  0
VERTEX
  5
3F4
330
3F1
100
AcDbEntity
  8
STANDARDEBENE
 62
     7
100
AcDbVertex
100
AcDb2dVertex
 10
81.19469941546522
 20
203.1417778354993
 30
0.0
  0
SEQEND
  5
3F5
330
3F1
100
AcDbEntity
  8
STANDARDEBENE
  0
POLYLINE
  5
3F6
330
1F
100
AcDbEntity
  8
STANDARDEBENE
 62
     7
100
AcDb2dPolyline
 66
     1
 10
0.0
 20
0.0
 30
0.0
  0
VERTEX
  5
3F7
330
3F6
100
AcDbEntity
  8
STANDARDEBENE
 62
     7
100
AcDbVertex
100
AcDb2dVertex
 10
81.19469941546522
 20
202.1063543874074
 30
0.0
  0
VERTEX
  5
3F8
330
3F6
100
AcDbEntity
  8
STANDARDEBENE
 62
     7
100
AcDbVertex
100
AcDb2dVertex
 10
81.19469941546522
 20
202.082410973785
 30
0.0
  0
VERTEX
  5
3F9
330
3F6
100
AcDbEntity
  8
STANDARDEBENE
 62
     7
100
AcDbVertex
100
AcDb2dVertex
 10
81.19469941546522
 20
201.1711832179364
 30
0.0
  0
VERTEX
  5
3FA
330
3F6
100
AcDbEntity
  8
STANDARDEBENE
 62
     7
100
AcDbVertex
100
AcDb2dVertex
 10
81.19469941546522
 20
201.0712754488641
 30
0.0
  0
SEQEND
  5
3FB
330
3F6
100
AcDbEntity
  8
STANDARDEBENE
  0
POLYLINE
  5
3FC
330
1F
100
AcDbEntity
  8
STANDARDEBENE
 62
     7
100
AcDb2dPolyline
 66
     1
 10
0.0
 20
0.0
 30
0.0
  0
VERTEX
  5
3FD
330
3FC
100
AcDbEntity
  8
STANDARDEBENE
 62
     7
100
AcDbVertex
100
AcDb2dVertex
 10
81.19469941546522
 20
200.0363687650951
 30
0.0
  0
VERTEX
  5
3FE
330
3FC
100
AcDbEntity
  8
STANDARDEBENE
 62
     7
100
AcDbVertex
100
AcDb2dVertex
 10
81.19469941546522
 20
199.7583495594354
 30
0.0
  0
VERTEX
  5
3FF
330
3FC
100
AcDbEntity
  8
STANDARDEBENE
 62
     7
100
AcDbVertex
100
AcDb2dVertex
 10
81.19469941546522
 20
199.3077310699647
 30
0.0
  0
VERTEX
  5
400
330
3FC
100
AcDbEntity
  8
STANDARDEBENE
 62
     7
100
AcDbVertex
100
AcDb2dVertex
 10
81.19469941546522
 20
199.0527940040563
 30
0.0
  0
VERTEX
  5
401
330
3FC
100
AcDbEntity
  8
STANDARDEBENE
 62
     7
100
AcDbVertex
100
AcDb2dVertex
 10
81.19469941546522
 20
199.0009453170032
 30
0.0
  0
SEQEND
  5
402
330
3FC
100
AcDbEntity
  8
STANDARDEBENE
  0
POLYLINE
  5
403
330
1F
100
AcDbEntity
  8
STANDARDEBENE
 62
     7
100
AcDb2dPolyline
 66
     1
 10
0.0
 20
0.0
 30
0.0
  0
VERTEX
  5
404
330
403
100
AcDbEntity
  8
STANDARDEBENE
 62
     7
100
AcDbVertex
100
AcDb2dVertex
 10
81.19469941546522
 20
200.0363687650951
 30
0.0
  0
VERTEX
  5
405
330
403
100
AcDbEntity
  8
STANDARDEBENE
 62
     7
100
AcDbVertex
100
AcDb2dVertex
 10
81.19469941546522
 20
200.0515271852302
 30
0.0
  0
VERTEX
  5
406
330
403
100
AcDbEntity
  8
STANDARDEBENE
 62
     7
100
AcDbVertex
100
AcDb2dVertex
 10
81.19469941546522
 20
200.7608723456431
 30
0.0
  0
VERTEX
  5
407
330
403
100
AcDbEntity
  8
STANDARDEBENE
 62
     7
100
AcDbVertex
100
AcDb2dVertex
 10
81.19469941546522
 20
201.0712754488641
 30
0.0
  0
SEQEND
  5
408
330
403
100
AcDbEntity
  8
STANDARDEBENE
  0
POLYLINE
  5
409
330
1F
100
AcDbEntity
  8
STANDARDEBENE
 62
     7
100
AcDb2dPolyline
 66
     1
 10
0.0
 20
0.0
 30
0.0
  0
VERTEX
  5
40A
330
409
100
AcDbEntity
  8
STANDARDEBENE
 62
     7
100
AcDbVertex
100
AcDb2dVertex
 10
81.19469941546522
 20
202.1063543874074
 30
0.0
  0
VERTEX
  5
40B
330
409
100
AcDbEntity
  8
STANDARDEBENE
 62
     7
100
AcDbVertex
100
AcDb2dVertex
 10
81.19469941546522
 20
202.575920902047
 30
0.0
  0
VERTEX
  5
40C
330
409
100
AcDbEntity
  8
STANDARDEBENE
 62
     7
100
AcDbVertex
100
AcDb2dVertex
 10
81.19469941546522
 20
203.1417778354993
 30
0.0
  0
SEQEND
  5
40D
330
409
100
AcDbEntity
  8
STANDARDEBENE
  0
POLYLINE
  5
40E
330
1F
100
AcDbEntity
  8
STANDARDEBENE
 62
     7
100
AcDb2dPolyline
 66
     1
 10
0.0
 20
0.0
 30
0.0
  0
VERTEX
  5
40F
330
40E
100
AcDbEntity
  8
STANDARDEBENE
 62
     7
100
AcDbVertex
100
AcDb2dVertex
 10
81.19469941546522
 20
204.1768567740426
 30
0.0
  0
VERTEX
  5
410
330
40E
100
AcDbEntity
  8
STANDARDEBENE
 62
     7
100
AcDbVertex
100
AcDb2dVertex
 10
81.19469941546522
 20
204.6944823707014
 30
0.0
  0
SEQEND
  5
411
330
40E
100
AcDbEntity
  8
STANDARDEBENE
  0
POLYLINE
  5
412
330
1F
100
AcDbEntity
  8
STANDARDEBENE
 62
     7
100
AcDb2dPolyline
 66
     1
 10
0.0
 20
0.0
 30
0.0
  0
VERTEX
  5
413
330
412
100
AcDbEntity
  8
STANDARDEBENE
 62
     7
100
AcDbVertex
100
AcDb2dVertex
 10
80.5945637819347
 20
204.6944823707014
 30
0.0
  0
VERTEX
  5
414
330
412
100
AcDbEntity
  8
STANDARDEBENE
 62
     7
100
AcDbVertex
100
AcDb2dVertex
 10
80.5945637819347
 20
205.1773125029592
 30
0.0
  0
SEQEND
  5
415
330
412
100
AcDbEntity
  8
STANDARDEBENE
  0
POLYLINE
  5
416
330
1F
100
AcDbEntity
  8
STANDARDEBENE
 62
     7
100
AcDb2dPolyline
 66
     1
 10
0.0
 20
0.0
 30
0.0
  0
VERTEX
  5
417
330
416
100
AcDbEntity
  8
STANDARDEBENE
 62
     7
100
AcDbVertex
100
AcDb2dVertex
 10
80.5945637819347
 20
206.1421114936034
 30
0.0
  0
VERTEX
  5
418
330
416
100
AcDbEntity
  8
STANDARDEBENE
 62
     7
100
AcDbVertex
100
AcDb2dVertex
 10
80.5945637819347
 20
206.9701401934832
 30
0.0
  0
VERTEX
  5
419
330
416
100
AcDbEntity
  8
STANDARDEBENE
 62
     7
100
AcDbVertex
100
AcDb2dVertex
 10
80.5945637819347
 20
207.1074272485704
 30
0.0
  0
SEQEND
  5
41A
330
416
100
AcDbEntity
  8
STANDARDEBENE
  0
POLYLINE
  5
41B
330
1F
100
AcDbEntity
  8
STANDARDEBENE
 62
     7
100
AcDb2dPolyline
 66
     1
 10
0.0
 20
0.0
 30
0.0
  0
VERTEX
  5
41C
330
41B
100
AcDbEntity
  8
STANDARDEBENE
 62
     7
100
AcDbVertex
100
AcDb2dVertex
 10
80.5945637819347
 20
208.0725707487631
 30
0.0
  0
VERTEX
  5
41D
330
41B
100
AcDbEntity
  8
STANDARDEBENE
 62
     7
100
AcDbVertex
100
AcDb2dVertex
 10
80.5945637819347
 20
208.9390122633035
 30
0.0
  0
VERTEX
  5
41E
330
41B
100
AcDbEntity
  8
STANDARDEBENE
 62
     7
100
AcDbVertex
100
AcDb2dVertex
 10
80.5945637819347
 20
209.0377142489559
 30
0.0
  0
SEQEND
  5
41F
330
41B
100
AcDbEntity
  8
STANDARDEBENE
  0
POLYLINE
  5
420
330
1F
100
AcDbEntity
  8
STANDARDEBENE
 62
     7
100
AcDb2dPolyline
 66
     1
 10
0.0
 20
0.0
 30
0.0
  0
VERTEX
  5
421
330
420
100
AcDbEntity
  8
STANDARDEBENE
 62
     7
100
AcDbVertex
100
AcDb2dVertex
 10
80.5945637819347
 20
210.0026854943743
 30
0.0
  0
VERTEX
  5
422
330
420
100
AcDbEntity
  8
STANDARDEBENE
 62
     7
100
AcDbVertex
100
AcDb2dVertex
 10
80.5945637819347
 20
210.3339314252811
 30
0.0
  0
VERTEX
  5
423
330
420
100
AcDbEntity
  8
STANDARDEBENE
 62
     7
100
AcDbVertex
100
AcDb2dVertex
 10
80.5945637819347
 20
210.7540608197073
 30
0.0
  0
VERTEX
  5
424
330
420
100
AcDbEntity
  8
STANDARDEBENE
 62
     7
100
AcDbVertex
100
AcDb2dVertex
 10
80.5945637819347
 20
210.9678289945671
 30
0.0
  0
SEQEND
  5
425
330
420
100
AcDbEntity
  8
STANDARDEBENE
  0
POLYLINE
  5
426
330
1F
100
AcDbEntity
  8
STANDARDEBENE
 62
     7
100
AcDb2dPolyline
 66
     1
 10
0.0
 20
0.0
 30
0.0
  0
VERTEX
  5
427
330
426
100
AcDbEntity
  8
STANDARDEBENE
 62
     7
100
AcDbVertex
100
AcDb2dVertex
 10
80.5945637819347
 20
210.0026854943743
 30
0.0
  0
VERTEX
  5
428
330
426
100
AcDbEntity
  8
STANDARDEBENE
 62
     7
100
AcDbVertex
100
AcDb2dVertex
 10
80.5945637819347
 20
209.722254721875
 30
0.0
  0
VERTEX
  5
429
330
426
100
AcDbEntity
  8
STANDARDEBENE
 62
     7
100
AcDbVertex
100
AcDb2dVertex
 10
80.5945637819347
 20
209.0377142489559
 30
0.0
  0
SEQEND
  5
42A
330
426
100
AcDbEntity
  8
STANDARDEBENE
  0
POLYLINE
  5
42B
330
1F
100
AcDbEntity
  8
STANDARDEBENE
 62
     7
100
AcDb2dPolyline
 66
     1
 10
0.0
 20
0.0
 30
0.0
  0
VERTEX
  5
42C
330
42B
100
AcDbEntity
  8
STANDARDEBENE
 62
     7
100
AcDbVertex
100
AcDb2dVertex
 10
80.5945637819347
 20
208.0725707487631
 30
0.0
  0
VERTEX
  5
42D
330
42B
100
AcDbEntity
  8
STANDARDEBENE
 62
     7
100
AcDbVertex
100
AcDb2dVertex
 10
80.5945637819347
 20
208.0110757943514
 30
0.0
  0
VERTEX
  5
42E
330
42B
100
AcDbEntity
  8
STANDARDEBENE
 62
     7
100
AcDbVertex
100
AcDb2dVertex
 10
80.5945637819347
 20
207.1074272485704
 30
0.0
  0
SEQEND
  5
42F
330
42B
100
AcDbEntity
  8
STANDARDEBENE
  0
POLYLINE
  5
430
330
1F
100
AcDbEntity
  8
STANDARDEBENE
 62
     7
100
AcDb2dPolyline
 66
     1
 10
0.0
 20
0.0
 30
0.0
  0
VERTEX
  5
431
330
430
100
AcDbEntity
  8
STANDARDEBENE
 62
     7
100
AcDbVertex
100
AcDb2dVertex
 10
80.5945637819347
 20
206.1421114936034
 30
0.0
  0
VERTEX
  5
432
330
430
100
AcDbEntity
  8
STANDARDEBENE
 62
     7
100
AcDbVertex
100
AcDb2dVertex
 10
80.5945637819347
 20
205.8522067085196
 30
0.0
  0
VERTEX
  5
433
330
430
100
AcDbEntity
  8
STANDARDEBENE
 62
     7
100
AcDbVertex
100
AcDb2dVertex
 10
80.5945637819347
 20
205.1773125029592
 30
0.0
  0
SEQEND
  5
434
330
430
100
AcDbEntity
  8
STANDARDEBENE
  0
POLYLINE
  5
435
330
1F
100
AcDbEntity
  8
STANDARDEBENE
 62
     7
100
AcDb2dPolyline
 66
     1
 10
0.0
 20
0.0
 30
0.0
  0
VERTEX
  5
436
330
435
100
AcDbEntity
  8
STANDARDEBENE
 62
     7
100
AcDbVertex
100
AcDb2dVertex
 10
80.5945637819347
 20
204.2121690027664
 30
0.0
  0
VERTEX
  5
437
330
435
100
AcDbEntity
  8
STANDARDEBENE
 62
     7
100
AcDbVertex
100
AcDb2dVertex
 10
80.5945637819347
 20
203.5369302876574
 30
0.0
  0
VERTEX
  5
438
330
435
100
AcDbEntity
  8
STANDARDEBENE
 62
     7
100
AcDbVertex
100
AcDb2dVertex
 10
80.5945637819347
 20
203.2468532477994
 30
0.0
  0
SEQEND
  5
439
330
435
100
AcDbEntity
  8
STANDARDEBENE
  0
POLYLINE
  5
43A
330
1F
100
AcDbEntity
  8
STANDARDEBENE
 62
     7
100
AcDb2dPolyline
 66
     1
 10
0.0
 20
0.0
 30
0.0
  0
VERTEX
  5
43B
330
43A
100
AcDbEntity
  8
STANDARDEBENE
 62
     7
100
AcDbVertex
100
AcDb2dVertex
 10
80.5945637819347
 20
202.2820542571552
 30
0.0
  0
VERTEX
  5
43C
330
43A
100
AcDbEntity
  8
STANDARDEBENE
 62
     7
100
AcDbVertex
100
AcDb2dVertex
 10
80.5945637819347
 20
201.3782334565999
 30
0.0
  0
VERTEX
  5
43D
330
43A
100
AcDbEntity
  8
STANDARDEBENE
 62
     7
100
AcDbVertex
100
AcDb2dVertex
 10
80.5945637819347
 20
201.3169107569624
 30
0.0
  0
SEQEND
  5
43E
330
43A
100
AcDbEntity
  8
STANDARDEBENE
  0
POLYLINE
  5
43F
330
1F
100
AcDbEntity
  8
STANDARDEBENE
 62
     7
100
AcDb2dPolyline
 66
     1
 10
0.0
 20
0.0
 30
0.0
  0
VERTEX
  5
440
330
43F
100
AcDbEntity
  8
STANDARDEBENE
 62
     7
100
AcDbVertex
100
AcDb2dVertex
 10
80.5945637819347
 20
200.3515950019954
 30
0.0
  0
VERTEX
  5
441
330
43F
100
AcDbEntity
  8
STANDARDEBENE
 62
     7
100
AcDbVertex
100
AcDb2dVertex
 10
80.5945637819347
 20
199.6670545290763
 30
0.0
  0
VERTEX
  5
442
330
43F
100
AcDbEntity
  8
STANDARDEBENE
 62
     7
100
AcDbVertex
100
AcDb2dVertex
 10
80.5945637819347
 20
199.3867960113512
 30
0.0
  0
SEQEND
  5
443
330
43F
100
AcDbEntity
  8
STANDARDEBENE
  0
POLYLINE
  5
444
330
1F
100
AcDbEntity
  8
STANDARDEBENE
 62
     7
100
AcDb2dPolyline
 66
     1
 10
0.0
 20
0.0
 30
0.0
  0
VERTEX
  5
445
330
444
100
AcDbEntity
  8
STANDARDEBENE
 62
     7
100
AcDbVertex
100
AcDb2dVertex
 10
80.5945637819347
 20
198.4216525111585
 30
0.0
  0
VERTEX
  5
446
330
444
100
AcDbEntity
  8
STANDARDEBENE
 62
     7
100
AcDbVertex
100
AcDb2dVertex
 10
80.5945637819347
 20
198.6347316669212
 30
0.0
  0
VERTEX
  5
447
330
444
100
AcDbEntity
  8
STANDARDEBENE
 62
     7
100
AcDbVertex
100
AcDb2dVertex
 10
80.5945637819347
 20
199.0548610613474
 30
0.0
  0
VERTEX
  5
448
330
444
100
AcDbEntity
  8
STANDARDEBENE
 62
     7
100
AcDbVertex
100
AcDb2dVertex
 10
80.5945637819347
 20
199.3867960113512
 30
0.0
  0
SEQEND
  5
449
330
444
100
AcDbEntity
  8
STANDARDEBENE
  0
POLYLINE
  5
44A
330
1F
100
AcDbEntity
  8
STANDARDEBENE
 62
     7
100
AcDb2dPolyline
 66
     1
 10
0.0
 20
0.0
 30
0.0
  0
VERTEX
  5
44B
330
44A
100
AcDbEntity
  8
STANDARDEBENE
 62
     7
100
AcDbVertex
100
AcDb2dVertex
 10
80.5945637819347
 20
200.3515950019954
 30
0.0
  0
VERTEX
  5
44C
330
44A
100
AcDbEntity
  8
STANDARDEBENE
 62
     7
100
AcDbVertex
100
AcDb2dVertex
 10
80.5945637819347
 20
200.4504692424221
 30
0.0
  0
VERTEX
  5
44D
330
44A
100
AcDbEntity
  8
STANDARDEBENE
 62
     7
100
AcDbVertex
100
AcDb2dVertex
 10
80.5945637819347
 20
201.3169107569624
 30
0.0
  0
SEQEND
  5
44E
330
44A
100
AcDbEntity
  8
STANDARDEBENE
  0
POLYLINE
  5
44F
330
1F
100
AcDbEntity
  8
STANDARDEBENE
 62
     7
100
AcDb2dPolyline
 66
     1
 10
0.0
 20
0.0
 30
0.0
  0
VERTEX
  5
450
330
44F
100
AcDbEntity
  8
STANDARDEBENE
 62
     7
100
AcDbVertex
100
AcDb2dVertex
 10
80.5945637819347
 20
202.2820542571552
 30
0.0
  0
VERTEX
  5
451
330
44F
100
AcDbEntity
  8
STANDARDEBENE
 62
     7
100
AcDbVertex
100
AcDb2dVertex
 10
80.5945637819347
 20
202.4186522931454
 30
0.0
  0
VERTEX
  5
452
330
44F
100
AcDbEntity
  8
STANDARDEBENE
 62
     7
100
AcDbVertex
100
AcDb2dVertex
 10
80.5945637819347
 20
203.2468532477994
 30
0.0
  0
SEQEND
  5
453
330
44F
100
AcDbEntity
  8
STANDARDEBENE
  0
POLYLINE
  5
454
330
1F
100
AcDbEntity
  8
STANDARDEBENE
 62
     7
100
AcDb2dPolyline
 66
     1
 10
0.0
 20
0.0
 30
0.0
  0
VERTEX
  5
455
330
454
100
AcDbEntity
  8
STANDARDEBENE
 62
     7
100
AcDbVertex
100
AcDb2dVertex
 10
80.5945637819347
 20
204.2121690027664
 30
0.0
  0
VERTEX
  5
456
330
454
100
AcDbEntity
  8
STANDARDEBENE
 62
     7
100
AcDbVertex
100
AcDb2dVertex
 10
80.5945637819347
 20
204.6944823707014
 30
0.0
  0
SEQEND
  5
457
330
454
100
AcDbEntity
  8
STANDARDEBENE
  0
POLYLINE
  5
458
330
1F
100
AcDbEntity
  8
STANDARDEBENE
 62
     7
100
AcDb2dPolyline
 66
     1
 10
0.0
 20
0.0
 30
0.0
  0
VERTEX
  5
459
330
458
100
AcDbEntity
  8
STANDARDEBENE
 62
     7
100
AcDbVertex
100
AcDb2dVertex
 10
80.24953746908693
 20
204.6944823707014
 30
0.0
  0
VERTEX
  5
45A
330
458
100
AcDbEntity
  8
STANDARDEBENE
 62
     7
100
AcDbVertex
100
AcDb2dVertex
 10
80.24953746908693
 20
205.1773125029592
 30
0.0
  0
SEQEND
  5
45B
330
458
100
AcDbEntity
  8
STANDARDEBENE
  0
POLYLINE
  5
45C
330
1F
100
AcDbEntity
  8
STANDARDEBENE
 62
     7
100
AcDb2dPolyline
 66
     1
 10
0.0
 20
0.0
 30
0.0
  0
VERTEX
  5
45D
330
45C
100
AcDbEntity
  8
STANDARDEBENE
 62
     7
100
AcDbVertex
100
AcDb2dVertex
 10
80.24953746908693
 20
206.1421114936034
 30
0.0
  0
VERTEX
  5
45E
330
45C
100
AcDbEntity
  8
STANDARDEBENE
 62
     7
100
AcDbVertex
100
AcDb2dVertex
 10
80.24953746908693
 20
206.9701401934832
 30
0.0
  0
VERTEX
  5
45F
330
45C
100
AcDbEntity
  8
STANDARDEBENE
 62
     7
100
AcDbVertex
100
AcDb2dVertex
 10
80.24953746908693
 20
207.1074272485704
 30
0.0
  0
SEQEND
  5
460
330
45C
100
AcDbEntity
  8
STANDARDEBENE
  0
POLYLINE
  5
461
330
1F
100
AcDbEntity
  8
STANDARDEBENE
 62
     7
100
AcDb2dPolyline
 66
     1
 10
0.0
 20
0.0
 30
0.0
  0
VERTEX
  5
462
330
461
100
AcDbEntity
  8
STANDARDEBENE
 62
     7
100
AcDbVertex
100
AcDb2dVertex
 10
80.24953746908693
 20
208.0725707487631
 30
0.0
  0
VERTEX
  5
463
330
461
100
AcDbEntity
  8
STANDARDEBENE
 62
     7
100
AcDbVertex
100
AcDb2dVertex
 10
80.24953746908693
 20
208.9390122633035
 30
0.0
  0
VERTEX
  5
464
330
461
100
AcDbEntity
  8
STANDARDEBENE
 62
     7
100
AcDbVertex
100
AcDb2dVertex
 10
80.24953746908693
 20
209.0377142489559
 30
0.0
  0
SEQEND
  5
465
330
461
100
AcDbEntity
  8
STANDARDEBENE
  0
POLYLINE
  5
466
330
1F
100
AcDbEntity
  8
STANDARDEBENE
 62
     7
100
AcDb2dPolyline
 66
     1
 10
0.0
 20
0.0
 30
0.0
  0
VERTEX
  5
467
330
466
100
AcDbEntity
  8
STANDARDEBENE
 62
     7
100
AcDbVertex
100
AcDb2dVertex
 10
80.24953746908693
 20
210.0026854943743
 30
0.0
  0
VERTEX
  5
468
330
466
100
AcDbEntity
  8
STANDARDEBENE
 62
     7
100
AcDbVertex
100
AcDb2dVertex
 10
80.24953746908693
 20
210.3339314252811
 30
0.0
  0
VERTEX
  5
469
330
466
100
AcDbEntity
  8
STANDARDEBENE
 62
     7
100
AcDbVertex
100
AcDb2dVertex
 10
80.24953746908693
 20
210.7540608197073
 30
0.0
  0
VERTEX
  5
46A
330
466
100
AcDbEntity
  8
STANDARDEBENE
 62
     7
100
AcDbVertex
100
AcDb2dVertex
 10
80.24953746908693
 20
210.9678289945671
 30
0.0
  0
SEQEND
  5
46B
330
466
100
AcDbEntity
  8
STANDARDEBENE
  0
POLYLINE
  5
46C
330
1F
100
AcDbEntity
  8
STANDARDEBENE
 62
     7
100
AcDb2dPolyline
 66
     1
 10
0.0
 20
0.0
 30
0.0
  0
VERTEX
  5
46D
330
46C
100
AcDbEntity
  8
STANDARDEBENE
 62
     7
100
AcDbVertex
100
AcDb2dVertex
 10
80.24953746908693
 20
210.0026854943743
 30
0.0
  0
VERTEX
  5
46E
330
46C
100
AcDbEntity
  8
STANDARDEBENE
 62
     7
100
AcDbVertex
100
AcDb2dVertex
 10
80.24953746908693
 20
209.722254721875
 30
0.0
  0
VERTEX
  5
46F
330
46C
100
AcDbEntity
  8
STANDARDEBENE
 62
     7
100
AcDbVertex
100
AcDb2dVertex
 10
80.24953746908693
 20
209.0377142489559
 30
0.0
  0
SEQEND
  5
470
330
46C
100
AcDbEntity
  8
STANDARDEBENE
  0
POLYLINE
  5
471
330
1F
100
AcDbEntity
  8
STANDARDEBENE
 62
     7
100
AcDb2dPolyline
 66
     1
 10
0.0
 20
0.0
 30
0.0
  0
VERTEX
  5
472
330
471
100
AcDbEntity
  8
STANDARDEBENE
 62
     7
100
AcDbVertex
100
AcDb2dVertex
 10
80.24953746908693
 20
208.0725707487631
 30
0.0
  0
VERTEX
  5
473
330
471
100
AcDbEntity
  8
STANDARDEBENE
 62
     7
100
AcDbVertex
100
AcDb2dVertex
 10
80.24953746908693
 20
208.0110757943514
 30
0.0
  0
VERTEX
  5
474
330
471
100
AcDbEntity
  8
STANDARDEBENE
 62
     7
100
AcDbVertex
100
AcDb2dVertex
 10
80.24953746908693
 20
207.1074272485704
 30
0.0
  0
SEQEND
  5
475
330
471
100
AcDbEntity
  8
STANDARDEBENE
  0
POLYLINE
  5
476
330
1F
100
AcDbEntity
  8
STANDARDEBENE
 62
     7
100
AcDb2dPolyline
 66
     1
 10
0.0
 20
0.0
 30
0.0
  0
VERTEX
  5
477
330
476
100
AcDbEntity
  8
STANDARDEBENE
 62
     7
100
AcDbVertex
100
AcDb2dVertex
 10
80.24953746908693
 20
206.1421114936034
 30
0.0
  0
VERTEX
  5
478
330
476
100
AcDbEntity
  8
STANDARDEBENE
 62
     7
100
AcDbVertex
100
AcDb2dVertex
 10
80.24953746908693
 20
205.8522067085196
 30
0.0
  0
VERTEX
  5
479
330
476
100
AcDbEntity
  8
STANDARDEBENE
 62
     7
100
AcDbVertex
100
AcDb2dVertex
 10
80.24953746908693
 20
205.1773125029592
 30
0.0
  0
SEQEND
  5
47A
330
476
100
AcDbEntity
  8
STANDARDEBENE
  0
POLYLINE
  5
47B
330
1F
100
AcDbEntity
  8
STANDARDEBENE
 62
     7
100
AcDb2dPolyline
 66
     1
 10
0.0
 20
0.0
 30
0.0
  0
VERTEX
  5
47C
330
47B
100
AcDbEntity
  8
STANDARDEBENE
 62
     7
100
AcDbVertex
100
AcDb2dVertex
 10
80.24953746908693
 20
204.2121690027664
 30
0.0
  0
VERTEX
  5
47D
330
47B
100
AcDbEntity
  8
STANDARDEBENE
 62
     7
100
AcDbVertex
100
AcDb2dVertex
 10
80.24953746908693
 20
203.5369302876574
 30
0.0
  0
VERTEX
  5
47E
330
47B
100
AcDbEntity
  8
STANDARDEBENE
 62
     7
100
AcDbVertex
100
AcDb2dVertex
 10
80.24953746908693
 20
203.2468532477994
 30
0.0
  0
SEQEND
  5
47F
330
47B
100
AcDbEntity
  8
STANDARDEBENE
  0
POLYLINE
  5
480
330
1F
100
AcDbEntity
  8
STANDARDEBENE
 62
     7
100
AcDb2dPolyline
 66
     1
 10
0.0
 20
0.0
 30
0.0
  0
VERTEX
  5
481
330
480
100
AcDbEntity
  8
STANDARDEBENE
 62
     7
100
AcDbVertex
100
AcDb2dVertex
 10
80.24953746908693
 20
202.2820542571552
 30
0.0
  0
VERTEX
  5
482
330
480
100
AcDbEntity
  8
STANDARDEBENE
 62
     7
100
AcDbVertex
100
AcDb2dVertex
 10
80.24953746908693
 20
201.3782334565999
 30
0.0
  0
VERTEX
  5
483
330
480
100
AcDbEntity
  8
STANDARDEBENE
 62
     7
100
AcDbVertex
100
AcDb2dVertex
 10
80.24953746908693
 20
201.3169107569624
 30
0.0
  0
SEQEND
  5
484
330
480
100
AcDbEntity
  8
STANDARDEBENE
  0
POLYLINE
  5
485
330
1F
100
AcDbEntity
  8
STANDARDEBENE
 62
     7
100
AcDb2dPolyline
 66
     1
 10
0.0
 20
0.0
 30
0.0
  0
VERTEX
  5
486
330
485
100
AcDbEntity
  8
STANDARDEBENE
 62
     7
100
AcDbVertex
100
AcDb2dVertex
 10
80.24953746908693
 20
200.3515950019954
 30
0.0
  0
VERTEX
  5
487
330
485
100
AcDbEntity
  8
STANDARDEBENE
 62
     7
100
AcDbVertex
100
AcDb2dVertex
 10
80.24953746908693
 20
199.6670545290763
 30
0.0
  0
VERTEX
  5
488
330
485
100
AcDbEntity
  8
STANDARDEBENE
 62
     7
100
AcDbVertex
100
AcDb2dVertex
 10
80.24953746908693
 20
199.3867960113512
 30
0.0
  0
SEQEND
  5
489
330
485
100
AcDbEntity
  8
STANDARDEBENE
  0
POLYLINE
  5
48A
330
1F
100
AcDbEntity
  8
STANDARDEBENE
 62
     7
100
AcDb2dPolyline
 66
     1
 10
0.0
 20
0.0
 30
0.0
  0
VERTEX
  5
48B
330
48A
100
AcDbEntity
  8
STANDARDEBENE
 62
     7
100
AcDbVertex
100
AcDb2dVertex
 10
80.24953746908693
 20
198.4216525111585
 30
0.0
  0
VERTEX
  5
48C
330
48A
100
AcDbEntity
  8
STANDARDEBENE
 62
     7
100
AcDbVertex
100
AcDb2dVertex
 10
80.24953746908693
 20
198.6347316669212
 30
0.0
  0
VERTEX
  5
48D
330
48A
100
AcDbEntity
  8
STANDARDEBENE
 62
     7
100
AcDbVertex
100
AcDb2dVertex
 10
80.24953746908693
 20
199.0548610613474
 30
0.0
  0
VERTEX
  5
48E
330
48A
100
AcDbEntity
  8
STANDARDEBENE
 62
     7
100
AcDbVertex
100
AcDb2dVertex
 10
80.24953746908693
 20
199.3867960113512
 30
0.0
  0
SEQEND
  5
48F
330
48A
100
AcDbEntity
  8
STANDARDEBENE
  0
POLYLINE
  5
490
330
1F
100
AcDbEntity
  8
STANDARDEBENE
 62
     7
100
AcDb2dPolyline
 66
     1
 10
0.0
 20
0.0
 30
0.0
  0
VERTEX
  5
491
330
490
100
AcDbEntity
  8
STANDARDEBENE
 62
     7
100
AcDbVertex
100
AcDb2dVertex
 10
80.24953746908693
 20
200.3515950019954
 30
0.0
  0
VERTEX
  5
492
330
490
100
AcDbEntity
  8
STANDARDEBENE
 62
     7
100
AcDbVertex
100
AcDb2dVertex
 10
80.24953746908693
 20
200.4504692424221
 30
0.0
  0
VERTEX
  5
493
330
490
100
AcDbEntity
  8
STANDARDEBENE
 62
     7
100
AcDbVertex
100
AcDb2dVertex
 10
80.24953746908693
 20
201.3169107569624
 30
0.0
  0
SEQEND
  5
494
330
490
100
AcDbEntity
  8
STANDARDEBENE
  0
POLYLINE
  5
495
330
1F
100
AcDbEntity
  8
STANDARDEBENE
 62
     7
100
AcDb2dPolyline
 66
     1
 10
0.0
 20
0.0
 30
0.0
  0
VERTEX
  5
496
330
495
100
AcDbEntity
  8
STANDARDEBENE
 62
     7
100
AcDbVertex
100
AcDb2dVertex
 10
80.24953746908693
 20
202.2820542571552
 30
0.0
  0
VERTEX
  5
497
330
495
100
AcDbEntity
  8
STANDARDEBENE
 62
     7
100
AcDbVertex
100
AcDb2dVertex
 10
80.24953746908693
 20
202.4186522931454
 30
0.0
  0
VERTEX
  5
498
330
495
100
AcDbEntity
  8
STANDARDEBENE
 62
     7
100
AcDbVertex
100
AcDb2dVertex
 10
80.24953746908693
 20
203.2468532477994
 30
0.0
  0
SEQEND
  5
499
330
495
100
AcDbEntity
  8
STANDARDEBENE
  0
POLYLINE
  5
49A
330
1F
100
AcDbEntity
  8
STANDARDEBENE
 62
     7
100
AcDb2dPolyline
 66
     1
 10
0.0
 20
0.0
 30
0.0
  0
VERTEX
  5
49B
330
49A
100
AcDbEntity
  8
STANDARDEBENE
 62
     7
100
AcDbVertex
100
AcDb2dVertex
 10
80.24953746908693
 20
204.2121690027664
 30
0.0
  0
VERTEX
  5
49C
330
49A
100
AcDbEntity
  8
STANDARDEBENE
 62
     7
100
AcDbVertex
100
AcDb2dVertex
 10
80.24953746908693
 20
204.6944823707014
 30
0.0
  0
SEQEND
  5
49D
330
49A
100
AcDbEntity
  8
STANDARDEBENE
  0
POLYLINE
  5
49E
330
1F
100
AcDbEntity
  8
STANDARDEBENE
 62
     7
100
AcDb2dPolyline
 66
     1
 10
0.0
 20
0.0
 30
0.0
  0
VERTEX
  5
49F
330
49E
100
AcDbEntity
  8
STANDARDEBENE
 62
     7
100
AcDbVertex
100
AcDb2dVertex
 10
80.07108152295098
 20
204.6944823707014
 30
0.0
  0
VERTEX
  5
4A0
330
49E
100
AcDbEntity
  8
STANDARDEBENE
 62
     7
100
AcDbVertex
100
AcDb2dVertex
 10
80.07108152295098
 20
205.2146917889741
 30
0.0
  0
SEQEND
  5
4A1
330
49E
100
AcDbEntity
  8
STANDARDEBENE
  0
POLYLINE
  5
4A2
330
1F
100
AcDbEntity
  8
STANDARDEBENE
 62
     7
100
AcDb2dPolyline
 66
     1
 10
0.0
 20
0.0
 30
0.0
  0
VERTEX
  5
4A3
330
4A2
100
AcDbEntity
  8
STANDARDEBENE
 62
     7
100
AcDbVertex
100
AcDb2dVertex
 10
80.07108152295098
 20
206.2561441541651
 30
0.0
  0
VERTEX
  5
4A4
330
4A2
100
AcDbEntity
  8
STANDARDEBENE
 62
     7
100
AcDbVertex
100
AcDb2dVertex
 10
80.07108152295098
 20
206.9603216713502
 30
0.0
  0
VERTEX
  5
4A5
330
4A2
100
AcDbEntity
  8
STANDARDEBENE
 62
     7
100
AcDbVertex
100
AcDb2dVertex
 10
80.07108152295098
 20
207.2972520098076
 30
0.0
  0
SEQEND
  5
4A6
330
4A2
100
AcDbEntity
  8
STANDARDEBENE
  0
POLYLINE
  5
4A7
330
1F
100
AcDbEntity
  8
STANDARDEBENE
 62
     7
100
AcDb2dPolyline
 66
     1
 10
0.0
 20
0.0
 30
0.0
  0
VERTEX
  5
4A8
330
4A7
100
AcDbEntity
  8
STANDARDEBENE
 62
     7
100
AcDbVertex
100
AcDb2dVertex
 10
80.07108152295098
 20
208.3381876106759
 30
0.0
  0
VERTEX
  5
4A9
330
4A7
100
AcDbEntity
  8
STANDARDEBENE
 62
     7
100
AcDbVertex
100
AcDb2dVertex
 10
80.07108152295098
 20
208.9205810024574
 30
0.0
  0
VERTEX
  5
4AA
330
4A7
100
AcDbEntity
  8
STANDARDEBENE
 62
     7
100
AcDbVertex
100
AcDb2dVertex
 10
80.07108152295098
 20
209.3789509567698
 30
0.0
  0
SEQEND
  5
4AB
330
4A7
100
AcDbEntity
  8
STANDARDEBENE
  0
SPLINE
  5
4AC
330
1F
100
AcDbEntity
  8
STANDARDEBENE
 62
     7
100
AcDbSpline
210
0.0
220
0.0
230
1.0
 70
    27
 71
     3
 72
    17
 73
    13
 74
     0
 42
0.0000000001
 43
0.0000000001
 40
0.0
 40
0.0
 40
0.0
 40
0.0
 40
1.0
 40
1.0
 40
1.0
 40
2.0
 40
2.0
 40
2.0
 40
3.0
 40
3.0
 40
3.0
 40
4.0
 40
4.0
 40
4.0
 40
4.0
 10
80.07108152295098
 20
210.4198865576381
 30
0.0
 10
80.07108152295098
 20
210.4198865576381
 30
0.0
 10
80.07108152295098
 20
210.7278780940194
 30
0.0
 10
80.07108152295098
 20
210.7278780940194
 30
0.0
 10
80.07108152295098
 20
210.7278780940194
 30
0.0
 10
80.07108152295098
 20
210.9406127402336
 30
0.0
 10
80.07108152295098
 20
210.9406127402336
 30
0.0
 10
80.07108152295098
 20
210.9406127402336
 30
0.0
 10
80.07108152295098
 20
210.7278780940194
 30
0.0
 10
80.07108152295098
 20
210.7278780940194
 30
0.0
 10
80.07108152295098
 20
210.7278780940194
 30
0.0
 10
80.07108152295098
 20
210.4198865576381
 30
0.0
 10
80.07108152295098
 20
210.4198865576381
 30
0.0
  0
POLYLINE
  5
4AD
330
1F
100
AcDbEntity
  8
STANDARDEBENE
 62
     7
100
AcDb2dPolyline
 66
     1
 10
0.0
 20
0.0
 30
0.0
  0
VERTEX
  5
4AE
330
4AD
100
AcDbEntity
  8
STANDARDEBENE
 62
     7
100
AcDbVertex
100
AcDb2dVertex
 10
80.07108152295098
 20
209.3789509567698
 30
0.0
  0
VERTEX
  5
4AF
330
4AD
100
AcDbEntity
  8
STANDARDEBENE
 62
     7
100
AcDbVertex
100
AcDb2dVertex
 10
80.07108152295098
 20
208.9205810024574
 30
0.0
  0
VERTEX
  5
4B0
330
4AD
100
AcDbEntity
  8
STANDARDEBENE
 62
     7
100
AcDbVertex
100
AcDb2dVertex
 10
80.07108152295098
 20
208.3381876106759
 30
0.0
  0
SEQEND
  5
4B1
330
4AD
100
AcDbEntity
  8
STANDARDEBENE
  0
POLYLINE
  5
4B2
330
1F
100
AcDbEntity
  8
STANDARDEBENE
 62
     7
100
AcDb2dPolyline
 66
     1
 10
0.0
 20
0.0
 30
0.0
  0
VERTEX
  5
4B3
330
4B2
100
AcDbEntity
  8
STANDARDEBENE
 62
     7
100
AcDbVertex
100
AcDb2dVertex
 10
80.07108152295098
 20
207.2972520098076
 30
0.0
  0
VERTEX
  5
4B4
330
4B2
100
AcDbEntity
  8
STANDARDEBENE
 62
     7
100
AcDbVertex
100
AcDb2dVertex
 10
80.07108152295098
 20
206.9603216713502
 30
0.0
  0
VERTEX
  5
4B5
330
4B2
100
AcDbEntity
  8
STANDARDEBENE
 62
     7
100
AcDbVertex
100
AcDb2dVertex
 10
80.07108152295098
 20
206.2561441541651
 30
0.0
  0
SEQEND
  5
4B6
330
4B2
100
AcDbEntity
  8
STANDARDEBENE
  0
POLYLINE
  5
4B7
330
1F
100
AcDbEntity
  8
STANDARDEBENE
 62
     7
100
AcDb2dPolyline
 66
     1
 10
0.0
 20
0.0
 30
0.0
  0
VERTEX
  5
4B8
330
4B7
100
AcDbEntity
  8
STANDARDEBENE
 62
     7
100
AcDbVertex
100
AcDb2dVertex
 10
80.07108152295098
 20
205.2146917889741
 30
0.0
  0
VERTEX
  5
4B9
330
4B7
100
AcDbEntity
  8
STANDARDEBENE
 62
     7
100
AcDbVertex
100
AcDb2dVertex
 10
80.07108152295098
 20
204.6944823707014
 30
0.0
  0
VERTEX
  5
4BA
330
4B7
100
AcDbEntity
  8
STANDARDEBENE
 62
     7
100
AcDbVertex
100
AcDb2dVertex
 10
80.07108152295098
 20
204.1735839333316
 30
0.0
  0
SEQEND
  5
4BB
330
4B7
100
AcDbEntity
  8
STANDARDEBENE
  0
POLYLINE
  5
4BC
330
1F
100
AcDbEntity
  8
STANDARDEBENE
 62
     7
100
AcDb2dPolyline
 66
     1
 10
0.0
 20
0.0
 30
0.0
  0
VERTEX
  5
4BD
330
4BC
100
AcDbEntity
  8
STANDARDEBENE
 62
     7
100
AcDbVertex
100
AcDb2dVertex
 10
80.07108152295098
 20
203.1333373515604
 30
0.0
  0
VERTEX
  5
4BE
330
4BC
100
AcDbEntity
  8
STANDARDEBENE
 62
     7
100
AcDbVertex
100
AcDb2dVertex
 10
80.07108152295098
 20
202.4284708152783
 30
0.0
  0
VERTEX
  5
4BF
330
4BC
100
AcDbEntity
  8
STANDARDEBENE
 62
     7
100
AcDbVertex
100
AcDb2dVertex
 10
80.07108152295098
 20
202.0922294959179
 30
0.0
  0
SEQEND
  5
4C0
330
4BC
100
AcDbEntity
  8
STANDARDEBENE
  0
POLYLINE
  5
4C1
330
1F
100
AcDbEntity
  8
STANDARDEBENE
 62
     7
100
AcDb2dPolyline
 66
     1
 10
0.0
 20
0.0
 30
0.0
  0
VERTEX
  5
4C2
330
4C1
100
AcDbEntity
  8
STANDARDEBENE
 62
     7
100
AcDbVertex
100
AcDb2dVertex
 10
80.07108152295098
 20
201.0509493855012
 30
0.0
  0
VERTEX
  5
4C3
330
4C1
100
AcDbEntity
  8
STANDARDEBENE
 62
     7
100
AcDbVertex
100
AcDb2dVertex
 10
80.07108152295098
 20
200.4687282484939
 30
0.0
  0
VERTEX
  5
4C4
330
4C1
100
AcDbEntity
  8
STANDARDEBENE
 62
     7
100
AcDbVertex
100
AcDb2dVertex
 10
80.07108152295098
 20
200.0098415298586
 30
0.0
  0
SEQEND
  5
4C5
330
4C1
100
AcDbEntity
  8
STANDARDEBENE
  0
SPLINE
  5
4C6
330
1F
100
AcDbEntity
  8
STANDARDEBENE
 62
     7
100
AcDbSpline
210
0.0
220
0.0
230
1.0
 70
    27
 71
     3
 72
    17
 73
    13
 74
     0
 42
0.0000000001
 43
0.0000000001
 40
0.0
 40
0.0
 40
0.0
 40
0.0
 40
1.0
 40
1.0
 40
1.0
 40
2.0
 40
2.0
 40
2.0
 40
3.0
 40
3.0
 40
3.0
 40
4.0
 40
4.0
 40
4.0
 40
4.0
 10
80.07108152295098
 20
198.9687336742162
 30
0.0
 10
80.07108152295098
 20
198.9687336742162
 30
0.0
 10
80.07108152295098
 20
198.6610866473833
 30
0.0
 10
80.07108152295098
 20
198.6610866473833
 30
0.0
 10
80.07108152295098
 20
198.6610866473833
 30
0.0
 10
80.07108152295098
 20
198.4481797463949
 30
0.0
 10
80.07108152295098
 20
198.4481797463949
 30
0.0
 10
80.07108152295098
 20
198.4481797463949
 30
0.0
 10
80.07108152295098
 20
198.6610866473833
 30
0.0
 10
80.07108152295098
 20
198.6610866473833
 30
0.0
 10
80.07108152295098
 20
198.6610866473833
 30
0.0
 10
80.07108152295098
 20
198.9687336742162
 30
0.0
 10
80.07108152295098
 20
198.9687336742162
 30
0.0
  0
POLYLINE
  5
4C7
330
1F
100
AcDbEntity
  8
STANDARDEBENE
 62
     7
100
AcDb2dPolyline
 66
     1
 10
0.0
 20
0.0
 30
0.0
  0
VERTEX
  5
4C8
330
4C7
100
AcDbEntity
  8
STANDARDEBENE
 62
     7
100
AcDbVertex
100
AcDb2dVertex
 10
80.07108152295098
 20
200.0098415298586
 30
0.0
  0
VERTEX
  5
4C9
330
4C7
100
AcDbEntity
  8
STANDARDEBENE
 62
     7
100
AcDbVertex
100
AcDb2dVertex
 10
80.07108152295098
 20
200.4687282484939
 30
0.0
  0
VERTEX
  5
4CA
330
4C7
100
AcDbEntity
  8
STANDARDEBENE
 62
     7
100
AcDbVertex
100
AcDb2dVertex
 10
80.07108152295098
 20
201.0509493855012
 30
0.0
  0
SEQEND
  5
4CB
330
4C7
100
AcDbEntity
  8
STANDARDEBENE
  0
POLYLINE
  5
4CC
330
1F
100
AcDbEntity
  8
STANDARDEBENE
 62
     7
100
AcDb2dPolyline
 66
     1
 10
0.0
 20
0.0
 30
0.0
  0
VERTEX
  5
4CD
330
4CC
100
AcDbEntity
  8
STANDARDEBENE
 62
     7
100
AcDbVertex
100
AcDb2dVertex
 10
80.07108152295098
 20
202.0922294959179
 30
0.0
  0
VERTEX
  5
4CE
330
4CC
100
AcDbEntity
  8
STANDARDEBENE
 62
     7
100
AcDbVertex
100
AcDb2dVertex
 10
80.07108152295098
 20
202.4284708152783
 30
0.0
  0
VERTEX
  5
4CF
330
4CC
100
AcDbEntity
  8
STANDARDEBENE
 62
     7
100
AcDbVertex
100
AcDb2dVertex
 10
80.07108152295098
 20
203.1333373515604
 30
0.0
  0
SEQEND
  5
4D0
330
4CC
100
AcDbEntity
  8
STANDARDEBENE
  0
POLYLINE
  5
4D1
330
1F
100
AcDbEntity
  8
STANDARDEBENE
 62
     7
100
AcDb2dPolyline
 66
     1
 10
0.0
 20
0.0
 30
0.0
  0
VERTEX
  5
4D2
330
4D1
100
AcDbEntity
  8
STANDARDEBENE
 62
     7
100
AcDbVertex
100
AcDb2dVertex
 10
80.07108152295098
 20
204.1735839333316
 30
0.0
  0
VERTEX
  5
4D3
330
4D1
100
AcDbEntity
  8
STANDARDEBENE
 62
     7
100
AcDbVertex
100
AcDb2dVertex
 10
80.07108152295098
 20
204.6944823707014
 30
0.0
  0
SEQEND
  5
4D4
330
4D1
100
AcDbEntity
  8
STANDARDEBENE
  0
POLYLINE
  5
4D6
330
1F
100
AcDbEntity
  8
BEMAßUNG
 62
     7
100
AcDb2dPolyline
 66
     1
 10
0.0
 20
0.0
 30
0.0
  0
VERTEX
  5
4D7
330
4D6
100
AcDbEntity
  8
BEMAßUNG
 62
     7
100
AcDbVertex
100
AcDb2dVertex
 10
88.94478621908326
 20
214.6942165261876
 30
0.0
  0
VERTEX
  5
4D8
330
4D6
100
AcDbEntity
  8
BEMAßUNG
 62
     7
100
AcDbVertex
100
AcDb2dVertex
 10
111.1952799201179
 20
214.6942165261876
 30
0.0
  0
SEQEND
  5
4D9
330
4D6
100
AcDbEntity
  8
BEMAßUNG
  0
POLYLINE
  5
4DA
330
1F
100
AcDbEntity
  8
BEMAßUNG
 62
     7
100
AcDb2dPolyline
 66
     1
 10
0.0
 20
0.0
 30
0.0
  0
VERTEX
  5
4DB
330
4DA
100
AcDbEntity
  8
BEMAßUNG
 62
     7
100
AcDbVertex
100
AcDb2dVertex
 10
88.94478621908326
 20
194.6942314508924
 30
0.0
  0
VERTEX
  5
4DC
330
4DA
100
AcDbEntity
  8
BEMAßUNG
 62
     7
100
AcDbVertex
100
AcDb2dVertex
 10
111.1952799201179
 20
194.6942314508924
 30
0.0
  0
SEQEND
  5
4DD
330
4DA
100
AcDbEntity
  8
BEMAßUNG
  0
POLYLINE
  5
4DE
330
1F
100
AcDbEntity
  8
BEMAßUNG
 62
     7
100
AcDb2dPolyline
 66
     1
 10
0.0
 20
0.0
 30
0.0
  0
VERTEX
  5
4DF
330
4DE
100
AcDbEntity
  8
BEMAßUNG
 62
     7
100
AcDbVertex
100
AcDb2dVertex
 10
109.194540717059
 20
194.6942314508924
 30
0.0
  0
VERTEX
  5
4E0
330
4DE
100
AcDbEntity
  8
BEMAßUNG
 62
     7
100
AcDbVertex
100
AcDb2dVertex
 10
109.194540717059
 20
228.9345187144678
 30
0.0
  0
SEQEND
  5
4E1
330
4DE
100
AcDbEntity
  8
BEMAßUNG
  0
POLYLINE
  5
4E2
330
1F
100
AcDbEntity
  8
BEMAßUNG
 62
     7
100
AcDb2dPolyline
 66
     1
 10
0.0
 20
0.0
 30
0.0
  0
VERTEX
  5
4E3
330
4E2
100
AcDbEntity
  8
BEMAßUNG
 62
     7
100
AcDbVertex
100
AcDb2dVertex
 10
109.194540717059
 20
214.6942165261876
 30
0.0
  0
VERTEX
  5
4E4
330
4E2
100
AcDbEntity
  8
BEMAßUNG
 62
     7
100
AcDbVertex
100
AcDb2dVertex
 10
108.8658786077662
 20
212.1944552420903
 30
0.0
  0
VERTEX
  5
4E5
330
4E2
100
AcDbEntity
  8
BEMAßUNG
 62
     7
100
AcDbVertex
100
AcDb2dVertex
 10
109.5237195906746
 20
212.1944552420903
 30
0.0
  0
VERTEX
  5
4E6
330
4E2
100
AcDbEntity
  8
BEMAßUNG
 62
     7
100
AcDbVertex
100
AcDb2dVertex
 10
109.194540717059
 20
214.6942165261876
 30
0.0
  0
SEQEND
  5
4E7
330
4E2
100
AcDbEntity
  8
BEMAßUNG
  0
POLYLINE
  5
4E8
330
1F
100
AcDbEntity
  8
BEMAßUNG
 62
     7
100
AcDb2dPolyline
 66
     1
 10
0.0
 20
0.0
 30
0.0
  0
VERTEX
  5
4E9
330
4E8
100
AcDbEntity
  8
BEMAßUNG
 62
     7
100
AcDbVertex
100
AcDb2dVertex
 10
108.8901665309372
 20
212.1944552420903
 30
0.0
  0
VERTEX
  5
4EA
330
4E8
100
AcDbEntity
  8
BEMAßUNG
 62
     7
100
AcDbVertex
100
AcDb2dVertex
 10
108.8901665309372
 20
212.3792846148739
 30
0.0
  0
SEQEND
  5
4EB
330
4E8
100
AcDbEntity
  8
BEMAßUNG
  0
POLYLINE
  5
4EC
330
1F
100
AcDbEntity
  8
BEMAßUNG
 62
     7
100
AcDb2dPolyline
 66
     1
 10
0.0
 20
0.0
 30
0.0
  0
VERTEX
  5
4ED
330
4EC
100
AcDbEntity
  8
BEMAßUNG
 62
     7
100
AcDbVertex
100
AcDb2dVertex
 10
108.8901665309372
 20
212.1944552420903
 30
0.0
  0
VERTEX
  5
4EE
330
4EC
100
AcDbEntity
  8
BEMAßUNG
 62
     7
100
AcDbVertex
100
AcDb2dVertex
 10
108.8901665309372
 20
212.3792846148739
 30
0.0
  0
SEQEND
  5
4EF
330
4EC
100
AcDbEntity
  8
BEMAßUNG
  0
POLYLINE
  5
4F0
330
1F
100
AcDbEntity
  8
BEMAßUNG
 62
     7
100
AcDb2dPolyline
 66
     1
 10
0.0
 20
0.0
 30
0.0
  0
VERTEX
  5
4F1
330
4F0
100
AcDbEntity
  8
BEMAßUNG
 62
     7
100
AcDbVertex
100
AcDb2dVertex
 10
108.9409816893446
 20
212.1944552420903
 30
0.0
  0
VERTEX
  5
4F2
330
4F0
100
AcDbEntity
  8
BEMAßUNG
 62
     7
100
AcDbVertex
100
AcDb2dVertex
 10
108.9409816893446
 20
212.7653075639962
 30
0.0
  0
SEQEND
  5
4F3
330
4F0
100
AcDbEntity
  8
BEMAßUNG
  0
POLYLINE
  5
4F4
330
1F
100
AcDbEntity
  8
BEMAßUNG
 62
     7
100
AcDb2dPolyline
 66
     1
 10
0.0
 20
0.0
 30
0.0
  0
VERTEX
  5
4F5
330
4F4
100
AcDbEntity
  8
BEMAßUNG
 62
     7
100
AcDbVertex
100
AcDb2dVertex
 10
108.9914523382035
 20
212.1944552420903
 30
0.0
  0
VERTEX
  5
4F6
330
4F4
100
AcDbEntity
  8
BEMAßUNG
 62
     7
100
AcDbVertex
100
AcDb2dVertex
 10
108.9914523382035
 20
213.1508137487956
 30
0.0
  0
SEQEND
  5
4F7
330
4F4
100
AcDbEntity
  8
BEMAßUNG
  0
POLYLINE
  5
4F8
330
1F
100
AcDbEntity
  8
BEMAßUNG
 62
     7
100
AcDb2dPolyline
 66
     1
 10
0.0
 20
0.0
 30
0.0
  0
VERTEX
  5
4F9
330
4F8
100
AcDbEntity
  8
BEMAßUNG
 62
     7
100
AcDbVertex
100
AcDb2dVertex
 10
109.042267496611
 20
212.1944552420903
 30
0.0
  0
VERTEX
  5
4FA
330
4F8
100
AcDbEntity
  8
BEMAßUNG
 62
     7
100
AcDbVertex
100
AcDb2dVertex
 10
109.042267496611
 20
213.5370089526921
 30
0.0
  0
SEQEND
  5
4FB
330
4F8
100
AcDbEntity
  8
BEMAßUNG
  0
POLYLINE
  5
4FC
330
1F
100
AcDbEntity
  8
BEMAßUNG
 62
     7
100
AcDb2dPolyline
 66
     1
 10
0.0
 20
0.0
 30
0.0
  0
VERTEX
  5
4FD
330
4FC
100
AcDbEntity
  8
BEMAßUNG
 62
     7
100
AcDbVertex
100
AcDb2dVertex
 10
109.0930826550184
 20
212.1944552420903
 30
0.0
  0
VERTEX
  5
4FE
330
4FC
100
AcDbEntity
  8
BEMAßUNG
 62
     7
100
AcDbVertex
100
AcDb2dVertex
 10
109.0930826550184
 20
213.9226873922659
 30
0.0
  0
SEQEND
  5
4FF
330
4FC
100
AcDbEntity
  8
BEMAßUNG
  0
POLYLINE
  5
500
330
1F
100
AcDbEntity
  8
BEMAßUNG
 62
     7
100
AcDb2dPolyline
 66
     1
 10
0.0
 20
0.0
 30
0.0
  0
VERTEX
  5
501
330
500
100
AcDbEntity
  8
BEMAßUNG
 62
     7
100
AcDbVertex
100
AcDb2dVertex
 10
109.1437255586516
 20
212.1944552420903
 30
0.0
  0
VERTEX
  5
502
330
500
100
AcDbEntity
  8
BEMAßUNG
 62
     7
100
AcDbVertex
100
AcDb2dVertex
 10
109.1437255586516
 20
214.3090548509366
 30
0.0
  0
SEQEND
  5
503
330
500
100
AcDbEntity
  8
BEMAßUNG
  0
POLYLINE
  5
504
330
1F
100
AcDbEntity
  8
BEMAßUNG
 62
     7
100
AcDb2dPolyline
 66
     1
 10
0.0
 20
0.0
 30
0.0
  0
VERTEX
  5
505
330
504
100
AcDbEntity
  8
BEMAßUNG
 62
     7
100
AcDbVertex
100
AcDb2dVertex
 10
109.194540717059
 20
212.1944552420903
 30
0.0
  0
VERTEX
  5
506
330
504
100
AcDbEntity
  8
BEMAßUNG
 62
     7
100
AcDbVertex
100
AcDb2dVertex
 10
109.194540717059
 20
214.6942165261876
 30
0.0
  0
SEQEND
  5
507
330
504
100
AcDbEntity
  8
BEMAßUNG
  0
POLYLINE
  5
508
330
1F
100
AcDbEntity
  8
BEMAßUNG
 62
     7
100
AcDb2dPolyline
 66
     1
 10
0.0
 20
0.0
 30
0.0
  0
VERTEX
  5
509
330
508
100
AcDbEntity
  8
BEMAßUNG
 62
     7
100
AcDbVertex
100
AcDb2dVertex
 10
109.4994316675036
 20
212.1944552420903
 30
0.0
  0
VERTEX
  5
50A
330
508
100
AcDbEntity
  8
BEMAßUNG
 62
     7
100
AcDbVertex
100
AcDb2dVertex
 10
109.4994316675036
 20
212.3792846148739
 30
0.0
  0
SEQEND
  5
50B
330
508
100
AcDbEntity
  8
BEMAßUNG
  0
POLYLINE
  5
50C
330
1F
100
AcDbEntity
  8
BEMAßUNG
 62
     7
100
AcDb2dPolyline
 66
     1
 10
0.0
 20
0.0
 30
0.0
  0
VERTEX
  5
50D
330
50C
100
AcDbEntity
  8
BEMAßUNG
 62
     7
100
AcDbVertex
100
AcDb2dVertex
 10
109.4994316675036
 20
212.1944552420903
 30
0.0
  0
VERTEX
  5
50E
330
50C
100
AcDbEntity
  8
BEMAßUNG
 62
     7
100
AcDbVertex
100
AcDb2dVertex
 10
109.4994316675036
 20
212.3792846148739
 30
0.0
  0
SEQEND
  5
50F
330
50C
100
AcDbEntity
  8
BEMAßUNG
  0
POLYLINE
  5
510
330
1F
100
AcDbEntity
  8
BEMAßUNG
 62
     7
100
AcDb2dPolyline
 66
     1
 10
0.0
 20
0.0
 30
0.0
  0
VERTEX
  5
511
330
510
100
AcDbEntity
  8
BEMAßUNG
 62
     7
100
AcDbVertex
100
AcDb2dVertex
 10
109.4489610186447
 20
212.1944552420903
 30
0.0
  0
VERTEX
  5
512
330
510
100
AcDbEntity
  8
BEMAßUNG
 62
     7
100
AcDbVertex
100
AcDb2dVertex
 10
109.4489610186447
 20
212.7653075639962
 30
0.0
  0
SEQEND
  5
513
330
510
100
AcDbEntity
  8
BEMAßUNG
  0
POLYLINE
  5
514
330
1F
100
AcDbEntity
  8
BEMAßUNG
 62
     7
100
AcDb2dPolyline
 66
     1
 10
0.0
 20
0.0
 30
0.0
  0
VERTEX
  5
515
330
514
100
AcDbEntity
  8
BEMAßUNG
 62
     7
100
AcDbVertex
100
AcDb2dVertex
 10
109.3981458602373
 20
212.1944552420903
 30
0.0
  0
VERTEX
  5
516
330
514
100
AcDbEntity
  8
BEMAßUNG
 62
     7
100
AcDbVertex
100
AcDb2dVertex
 10
109.3981458602373
 20
213.1508137487956
 30
0.0
  0
SEQEND
  5
517
330
514
100
AcDbEntity
  8
BEMAßUNG
  0
POLYLINE
  5
518
330
1F
100
AcDbEntity
  8
BEMAßUNG
 62
     7
100
AcDb2dPolyline
 66
     1
 10
0.0
 20
0.0
 30
0.0
  0
VERTEX
  5
519
330
518
100
AcDbEntity
  8
BEMAßUNG
 62
     7
100
AcDbVertex
100
AcDb2dVertex
 10
109.3473307018298
 20
212.1944552420903
 30
0.0
  0
VERTEX
  5
51A
330
518
100
AcDbEntity
  8
BEMAßUNG
 62
     7
100
AcDbVertex
100
AcDb2dVertex
 10
109.3473307018298
 20
213.5370089526921
 30
0.0
  0
SEQEND
  5
51B
330
518
100
AcDbEntity
  8
BEMAßUNG
  0
POLYLINE
  5
51C
330
1F
100
AcDbEntity
  8
BEMAßUNG
 62
     7
100
AcDb2dPolyline
 66
     1
 10
0.0
 20
0.0
 30
0.0
  0
VERTEX
  5
51D
330
51C
100
AcDbEntity
  8
BEMAßUNG
 62
     7
100
AcDbVertex
100
AcDb2dVertex
 10
109.2965155434224
 20
212.1944552420903
 30
0.0
  0
VERTEX
  5
51E
330
51C
100
AcDbEntity
  8
BEMAßUNG
 62
     7
100
AcDbVertex
100
AcDb2dVertex
 10
109.2965155434224
 20
213.9226873922659
 30
0.0
  0
SEQEND
  5
51F
330
51C
100
AcDbEntity
  8
BEMAßUNG
  0
POLYLINE
  5
520
330
1F
100
AcDbEntity
  8
BEMAßUNG
 62
     7
100
AcDb2dPolyline
 66
     1
 10
0.0
 20
0.0
 30
0.0
  0
VERTEX
  5
521
330
520
100
AcDbEntity
  8
BEMAßUNG
 62
     7
100
AcDbVertex
100
AcDb2dVertex
 10
109.245700385015
 20
212.1944552420903
 30
0.0
  0
VERTEX
  5
522
330
520
100
AcDbEntity
  8
BEMAßUNG
 62
     7
100
AcDbVertex
100
AcDb2dVertex
 10
109.245700385015
 20
214.3090548509366
 30
0.0
  0
SEQEND
  5
523
330
520
100
AcDbEntity
  8
BEMAßUNG
  0
POLYLINE
  5
524
330
1F
100
AcDbEntity
  8
BEMAßUNG
 62
     7
100
AcDb2dPolyline
 66
     1
 10
0.0
 20
0.0
 30
0.0
  0
VERTEX
  5
525
330
524
100
AcDbEntity
  8
BEMAßUNG
 62
     7
100
AcDbVertex
100
AcDb2dVertex
 10
109.194540717059
 20
212.1944552420903
 30
0.0
  0
VERTEX
  5
526
330
524
100
AcDbEntity
  8
BEMAßUNG
 62
     7
100
AcDbVertex
100
AcDb2dVertex
 10
109.194540717059
 20
214.6942165261876
 30
0.0
  0
SEQEND
  5
527
330
524
100
AcDbEntity
  8
BEMAßUNG
  0
POLYLINE
  5
528
330
1F
100
AcDbEntity
  8
BEMAßUNG
 62
     7
100
AcDb2dPolyline
 66
     1
 10
0.0
 20
0.0
 30
0.0
  0
VERTEX
  5
529
330
528
100
AcDbEntity
  8
BEMAßUNG
 62
     7
100
AcDbVertex
100
AcDb2dVertex
 10
109.194540717059
 20
194.6942314508924
 30
0.0
  0
VERTEX
  5
52A
330
528
100
AcDbEntity
  8
BEMAßUNG
 62
     7
100
AcDbVertex
100
AcDb2dVertex
 10
109.5237195906746
 20
197.1943372445382
 30
0.0
  0
VERTEX
  5
52B
330
528
100
AcDbEntity
  8
BEMAßUNG
 62
     7
100
AcDbVertex
100
AcDb2dVertex
 10
108.8658786077662
 20
197.1943372445382
 30
0.0
  0
VERTEX
  5
52C
330
528
100
AcDbEntity
  8
BEMAßUNG
 62
     7
100
AcDbVertex
100
AcDb2dVertex
 10
109.194540717059
 20
194.6942314508924
 30
0.0
  0
SEQEND
  5
52D
330
528
100
AcDbEntity
  8
BEMAßUNG
  0
POLYLINE
  5
52E
330
1F
100
AcDbEntity
  8
BEMAßUNG
 62
     7
100
AcDb2dPolyline
 66
     1
 10
0.0
 20
0.0
 30
0.0
  0
VERTEX
  5
52F
330
52E
100
AcDbEntity
  8
BEMAßUNG
 62
     7
100
AcDbVertex
100
AcDb2dVertex
 10
109.4994316675036
 20
197.1943372445382
 30
0.0
  0
VERTEX
  5
530
330
52E
100
AcDbEntity
  8
BEMAßUNG
 62
     7
100
AcDbVertex
100
AcDb2dVertex
 10
109.4994316675036
 20
197.0095078717546
 30
0.0
  0
SEQEND
  5
531
330
52E
100
AcDbEntity
  8
BEMAßUNG
  0
POLYLINE
  5
532
330
1F
100
AcDbEntity
  8
BEMAßUNG
 62
     7
100
AcDb2dPolyline
 66
     1
 10
0.0
 20
0.0
 30
0.0
  0
VERTEX
  5
533
330
532
100
AcDbEntity
  8
BEMAßUNG
 62
     7
100
AcDbVertex
100
AcDb2dVertex
 10
109.4994316675036
 20
197.1943372445382
 30
0.0
  0
VERTEX
  5
534
330
532
100
AcDbEntity
  8
BEMAßUNG
 62
     7
100
AcDbVertex
100
AcDb2dVertex
 10
109.4994316675036
 20
197.0095078717546
 30
0.0
  0
SEQEND
  5
535
330
532
100
AcDbEntity
  8
BEMAßUNG
  0
POLYLINE
  5
536
330
1F
100
AcDbEntity
  8
BEMAßUNG
 62
     7
100
AcDb2dPolyline
 66
     1
 10
0.0
 20
0.0
 30
0.0
  0
VERTEX
  5
537
330
536
100
AcDbEntity
  8
BEMAßUNG
 62
     7
100
AcDbVertex
100
AcDb2dVertex
 10
109.4489610186447
 20
197.1943372445382
 30
0.0
  0
VERTEX
  5
538
330
536
100
AcDbEntity
  8
BEMAßUNG
 62
     7
100
AcDbVertex
100
AcDb2dVertex
 10
109.4489610186447
 20
196.6238294321809
 30
0.0
  0
SEQEND
  5
539
330
536
100
AcDbEntity
  8
BEMAßUNG
  0
POLYLINE
  5
53A
330
1F
100
AcDbEntity
  8
BEMAßUNG
 62
     7
100
AcDb2dPolyline
 66
     1
 10
0.0
 20
0.0
 30
0.0
  0
VERTEX
  5
53B
330
53A
100
AcDbEntity
  8
BEMAßUNG
 62
     7
100
AcDbVertex
100
AcDb2dVertex
 10
109.3981458602373
 20
197.1943372445382
 30
0.0
  0
VERTEX
  5
53C
330
53A
100
AcDbEntity
  8
BEMAßUNG
 62
     7
100
AcDbVertex
100
AcDb2dVertex
 10
109.3981458602373
 20
196.2379787378329
 30
0.0
  0
SEQEND
  5
53D
330
53A
100
AcDbEntity
  8
BEMAßUNG
  0
POLYLINE
  5
53E
330
1F
100
AcDbEntity
  8
BEMAßUNG
 62
     7
100
AcDb2dPolyline
 66
     1
 10
0.0
 20
0.0
 30
0.0
  0
VERTEX
  5
53F
330
53E
100
AcDbEntity
  8
BEMAßUNG
 62
     7
100
AcDbVertex
100
AcDb2dVertex
 10
109.3473307018298
 20
197.1943372445382
 30
0.0
  0
VERTEX
  5
540
330
53E
100
AcDbEntity
  8
BEMAßUNG
 62
     7
100
AcDbVertex
100
AcDb2dVertex
 10
109.3473307018298
 20
195.8523002982592
 30
0.0
  0
SEQEND
  5
541
330
53E
100
AcDbEntity
  8
BEMAßUNG
  0
POLYLINE
  5
542
330
1F
100
AcDbEntity
  8
BEMAßUNG
 62
     7
100
AcDb2dPolyline
 66
     1
 10
0.0
 20
0.0
 30
0.0
  0
VERTEX
  5
543
330
542
100
AcDbEntity
  8
BEMAßUNG
 62
     7
100
AcDbVertex
100
AcDb2dVertex
 10
109.2965155434224
 20
197.1943372445382
 30
0.0
  0
VERTEX
  5
544
330
542
100
AcDbEntity
  8
BEMAßUNG
 62
     7
100
AcDbVertex
100
AcDb2dVertex
 10
109.2965155434224
 20
195.4661050943627
 30
0.0
  0
SEQEND
  5
545
330
542
100
AcDbEntity
  8
BEMAßUNG
  0
POLYLINE
  5
546
330
1F
100
AcDbEntity
  8
BEMAßUNG
 62
     7
100
AcDb2dPolyline
 66
     1
 10
0.0
 20
0.0
 30
0.0
  0
VERTEX
  5
547
330
546
100
AcDbEntity
  8
BEMAßUNG
 62
     7
100
AcDbVertex
100
AcDb2dVertex
 10
109.245700385015
 20
197.1943372445382
 30
0.0
  0
VERTEX
  5
548
330
546
100
AcDbEntity
  8
BEMAßUNG
 62
     7
100
AcDbVertex
100
AcDb2dVertex
 10
109.245700385015
 20
195.0804266547889
 30
0.0
  0
SEQEND
  5
549
330
546
100
AcDbEntity
  8
BEMAßUNG
  0
POLYLINE
  5
54A
330
1F
100
AcDbEntity
  8
BEMAßUNG
 62
     7
100
AcDb2dPolyline
 66
     1
 10
0.0
 20
0.0
 30
0.0
  0
VERTEX
  5
54B
330
54A
100
AcDbEntity
  8
BEMAßUNG
 62
     7
100
AcDbVertex
100
AcDb2dVertex
 10
109.194540717059
 20
197.1943372445382
 30
0.0
  0
VERTEX
  5
54C
330
54A
100
AcDbEntity
  8
BEMAßUNG
 62
     7
100
AcDbVertex
100
AcDb2dVertex
 10
109.194540717059
 20
194.6942314508924
 30
0.0
  0
SEQEND
  5
54D
330
54A
100
AcDbEntity
  8
BEMAßUNG
  0
POLYLINE
  5
54E
330
1F
100
AcDbEntity
  8
BEMAßUNG
 62
     7
100
AcDb2dPolyline
 66
     1
 10
0.0
 20
0.0
 30
0.0
  0
VERTEX
  5
54F
330
54E
100
AcDbEntity
  8
BEMAßUNG
 62
     7
100
AcDbVertex
100
AcDb2dVertex
 10
108.8901665309372
 20
197.1943372445382
 30
0.0
  0
VERTEX
  5
550
330
54E
100
AcDbEntity
  8
BEMAßUNG
 62
     7
100
AcDbVertex
100
AcDb2dVertex
 10
108.8901665309372
 20
197.0095078717546
 30
0.0
  0
SEQEND
  5
551
330
54E
100
AcDbEntity
  8
BEMAßUNG
  0
POLYLINE
  5
552
330
1F
100
AcDbEntity
  8
BEMAßUNG
 62
     7
100
AcDb2dPolyline
 66
     1
 10
0.0
 20
0.0
 30
0.0
  0
VERTEX
  5
553
330
552
100
AcDbEntity
  8
BEMAßUNG
 62
     7
100
AcDbVertex
100
AcDb2dVertex
 10
108.8901665309372
 20
197.1943372445382
 30
0.0
  0
VERTEX
  5
554
330
552
100
AcDbEntity
  8
BEMAßUNG
 62
     7
100
AcDbVertex
100
AcDb2dVertex
 10
108.8901665309372
 20
197.0095078717546
 30
0.0
  0
SEQEND
  5
555
330
552
100
AcDbEntity
  8
BEMAßUNG
  0
POLYLINE
  5
556
330
1F
100
AcDbEntity
  8
BEMAßUNG
 62
     7
100
AcDb2dPolyline
 66
     1
 10
0.0
 20
0.0
 30
0.0
  0
VERTEX
  5
557
330
556
100
AcDbEntity
  8
BEMAßUNG
 62
     7
100
AcDbVertex
100
AcDb2dVertex
 10
108.9409816893446
 20
197.1943372445382
 30
0.0
  0
VERTEX
  5
558
330
556
100
AcDbEntity
  8
BEMAßUNG
 62
     7
100
AcDbVertex
100
AcDb2dVertex
 10
108.9409816893446
 20
196.6238294321809
 30
0.0
  0
SEQEND
  5
559
330
556
100
AcDbEntity
  8
BEMAßUNG
  0
POLYLINE
  5
55A
330
1F
100
AcDbEntity
  8
BEMAßUNG
 62
     7
100
AcDb2dPolyline
 66
     1
 10
0.0
 20
0.0
 30
0.0
  0
VERTEX
  5
55B
330
55A
100
AcDbEntity
  8
BEMAßUNG
 62
     7
100
AcDbVertex
100
AcDb2dVertex
 10
108.9914523382035
 20
197.1943372445382
 30
0.0
  0
VERTEX
  5
55C
330
55A
100
AcDbEntity
  8
BEMAßUNG
 62
     7
100
AcDbVertex
100
AcDb2dVertex
 10
108.9914523382035
 20
196.2379787378329
 30
0.0
  0
SEQEND
  5
55D
330
55A
100
AcDbEntity
  8
BEMAßUNG
  0
POLYLINE
  5
55E
330
1F
100
AcDbEntity
  8
BEMAßUNG
 62
     7
100
AcDb2dPolyline
 66
     1
 10
0.0
 20
0.0
 30
0.0
  0
VERTEX
  5
55F
330
55E
100
AcDbEntity
  8
BEMAßUNG
 62
     7
100
AcDbVertex
100
AcDb2dVertex
 10
109.042267496611
 20
197.1943372445382
 30
0.0
  0
VERTEX
  5
560
330
55E
100
AcDbEntity
  8
BEMAßUNG
 62
     7
100
AcDbVertex
100
AcDb2dVertex
 10
109.042267496611
 20
195.8523002982592
 30
0.0
  0
SEQEND
  5
561
330
55E
100
AcDbEntity
  8
BEMAßUNG
  0
POLYLINE
  5
562
330
1F
100
AcDbEntity
  8
BEMAßUNG
 62
     7
100
AcDb2dPolyline
 66
     1
 10
0.0
 20
0.0
 30
0.0
  0
VERTEX
  5
563
330
562
100
AcDbEntity
  8
BEMAßUNG
 62
     7
100
AcDbVertex
100
AcDb2dVertex
 10
109.0930826550184
 20
197.1943372445382
 30
0.0
  0
VERTEX
  5
564
330
562
100
AcDbEntity
  8
BEMAßUNG
 62
     7
100
AcDbVertex
100
AcDb2dVertex
 10
109.0930826550184
 20
195.4661050943627
 30
0.0
  0
SEQEND
  5
565
330
562
100
AcDbEntity
  8
BEMAßUNG
  0
POLYLINE
  5
566
330
1F
100
AcDbEntity
  8
BEMAßUNG
 62
     7
100
AcDb2dPolyline
 66
     1
 10
0.0
 20
0.0
 30
0.0
  0
VERTEX
  5
567
330
566
100
AcDbEntity
  8
BEMAßUNG
 62
     7
100
AcDbVertex
100
AcDb2dVertex
 10
109.1437255586516
 20
197.1943372445382
 30
0.0
  0
VERTEX
  5
568
330
566
100
AcDbEntity
  8
BEMAßUNG
 62
     7
100
AcDbVertex
100
AcDb2dVertex
 10
109.1437255586516
 20
195.0804266547889
 30
0.0
  0
SEQEND
  5
569
330
566
100
AcDbEntity
  8
BEMAßUNG
  0
POLYLINE
  5
56A
330
1F
100
AcDbEntity
  8
BEMAßUNG
 62
     7
100
AcDb2dPolyline
 66
     1
 10
0.0
 20
0.0
 30
0.0
  0
VERTEX
  5
56B
330
56A
100
AcDbEntity
  8
BEMAßUNG
 62
     7
100
AcDbVertex
100
AcDb2dVertex
 10
109.194540717059
 20
197.1943372445382
 30
0.0
  0
VERTEX
  5
56C
330
56A
100
AcDbEntity
  8
BEMAßUNG
 62
     7
100
AcDbVertex
100
AcDb2dVertex
 10
109.194540717059
 20
194.6942314508924
 30
0.0
  0
SEQEND
  5
56D
330
56A
100
AcDbEntity
  8
BEMAßUNG
  0
POLYLINE
  5
56E
330
1F
100
AcDbEntity
  8
BEMAßUNG
 62
     7
100
AcDb2dPolyline
 66
     1
 10
0.0
 20
0.0
 30
0.0
  0
VERTEX
  5
56F
330
56E
100
AcDbEntity
  8
BEMAßUNG
 62
     7
100
AcDbVertex
100
AcDb2dVertex
 10
61.69476994985409
 20
210.694805177361
 30
0.0
  0
VERTEX
  5
570
330
56E
100
AcDbEntity
  8
BEMAßUNG
 62
     7
100
AcDbVertex
100
AcDb2dVertex
 10
39.19467908091314
 20
210.694805177361
 30
0.0
  0
SEQEND
  5
571
330
56E
100
AcDbEntity
  8
BEMAßUNG
  0
POLYLINE
  5
572
330
1F
100
AcDbEntity
  8
BEMAßUNG
 62
     7
100
AcDb2dPolyline
 66
     1
 10
0.0
 20
0.0
 30
0.0
  0
VERTEX
  5
573
330
572
100
AcDbEntity
  8
BEMAßUNG
 62
     7
100
AcDbVertex
100
AcDb2dVertex
 10
61.69476994985409
 20
198.6946763283645
 30
0.0
  0
VERTEX
  5
574
330
572
100
AcDbEntity
  8
BEMAßUNG
 62
     7
100
AcDbVertex
100
AcDb2dVertex
 10
39.19467908091314
 20
198.6946763283645
 30
0.0
  0
SEQEND
  5
575
330
572
100
AcDbEntity
  8
BEMAßUNG
  0
POLYLINE
  5
576
330
1F
100
AcDbEntity
  8
BEMAßUNG
 62
     7
100
AcDb2dPolyline
 66
     1
 10
0.0
 20
0.0
 30
0.0
  0
VERTEX
  5
577
330
576
100
AcDbEntity
  8
BEMAßUNG
 62
     7
100
AcDbVertex
100
AcDb2dVertex
 10
41.19455701010067
 20
198.6946763283645
 30
0.0
  0
VERTEX
  5
578
330
576
100
AcDbEntity
  8
BEMAßUNG
 62
     7
100
AcDbVertex
100
AcDb2dVertex
 10
41.19455701010067
 20
225.7966396191151
 30
0.0
  0
SEQEND
  5
579
330
576
100
AcDbEntity
  8
BEMAßUNG
  0
POLYLINE
  5
57A
330
1F
100
AcDbEntity
  8
BEMAßUNG
 62
     7
100
AcDb2dPolyline
 66
     1
 10
0.0
 20
0.0
 30
0.0
  0
VERTEX
  5
57B
330
57A
100
AcDbEntity
  8
BEMAßUNG
 62
     7
100
AcDbVertex
100
AcDb2dVertex
 10
41.19455701010067
 20
210.694805177361
 30
0.0
  0
VERTEX
  5
57C
330
57A
100
AcDbEntity
  8
BEMAßUNG
 62
     7
100
AcDbVertex
100
AcDb2dVertex
 10
40.86572264603357
 20
208.1946993837152
 30
0.0
  0
VERTEX
  5
57D
330
57A
100
AcDbEntity
  8
BEMAßUNG
 62
     7
100
AcDbVertex
100
AcDb2dVertex
 10
41.52408039326482
 20
208.1946993837152
 30
0.0
  0
VERTEX
  5
57E
330
57A
100
AcDbEntity
  8
BEMAßUNG
 62
     7
100
AcDbVertex
100
AcDb2dVertex
 10
41.19455701010067
 20
210.694805177361
 30
0.0
  0
SEQEND
  5
57F
330
57A
100
AcDbEntity
  8
BEMAßUNG
  0
POLYLINE
  5
580
330
1F
100
AcDbEntity
  8
BEMAßUNG
 62
     7
100
AcDb2dPolyline
 66
     1
 10
0.0
 20
0.0
 30
0.0
  0
VERTEX
  5
581
330
580
100
AcDbEntity
  8
BEMAßUNG
 62
     7
100
AcDbVertex
100
AcDb2dVertex
 10
40.89018282397885
 20
208.1946993837152
 30
0.0
  0
VERTEX
  5
582
330
580
100
AcDbEntity
  8
BEMAßUNG
 62
     7
100
AcDbVertex
100
AcDb2dVertex
 10
40.89018282397885
 20
208.3795287564989
 30
0.0
  0
SEQEND
  5
583
330
580
100
AcDbEntity
  8
BEMAßUNG
  0
POLYLINE
  5
584
330
1F
100
AcDbEntity
  8
BEMAßUNG
 62
     7
100
AcDb2dPolyline
 66
     1
 10
0.0
 20
0.0
 30
0.0
  0
VERTEX
  5
585
330
584
100
AcDbEntity
  8
BEMAßUNG
 62
     7
100
AcDbVertex
100
AcDb2dVertex
 10
40.89018282397885
 20
208.1946993837152
 30
0.0
  0
VERTEX
  5
586
330
584
100
AcDbEntity
  8
BEMAßUNG
 62
     7
100
AcDbVertex
100
AcDb2dVertex
 10
40.89018282397885
 20
208.3795287564989
 30
0.0
  0
SEQEND
  5
587
330
584
100
AcDbEntity
  8
BEMAßUNG
  0
POLYLINE
  5
588
330
1F
100
AcDbEntity
  8
BEMAßUNG
 62
     7
100
AcDb2dPolyline
 66
     1
 10
0.0
 20
0.0
 30
0.0
  0
VERTEX
  5
589
330
588
100
AcDbEntity
  8
BEMAßUNG
 62
     7
100
AcDbVertex
100
AcDb2dVertex
 10
40.94048121806349
 20
208.1946993837152
 30
0.0
  0
VERTEX
  5
58A
330
588
100
AcDbEntity
  8
BEMAßUNG
 62
     7
100
AcDbVertex
100
AcDb2dVertex
 10
40.94048121806349
 20
208.7650349412983
 30
0.0
  0
SEQEND
  5
58B
330
588
100
AcDbEntity
  8
BEMAßUNG
  0
POLYLINE
  5
58C
330
1F
100
AcDbEntity
  8
BEMAßUNG
 62
     7
100
AcDb2dPolyline
 66
     1
 10
0.0
 20
0.0
 30
0.0
  0
VERTEX
  5
58D
330
58C
100
AcDbEntity
  8
BEMAßUNG
 62
     7
100
AcDbVertex
100
AcDb2dVertex
 10
40.99164088601945
 20
208.1946993837152
 30
0.0
  0
VERTEX
  5
58E
330
58C
100
AcDbEntity
  8
BEMAßUNG
 62
     7
100
AcDbVertex
100
AcDb2dVertex
 10
40.99164088601945
 20
209.1514023999691
 30
0.0
  0
SEQEND
  5
58F
330
58C
100
AcDbEntity
  8
BEMAßUNG
  0
POLYLINE
  5
590
330
1F
100
AcDbEntity
  8
BEMAßUNG
 62
     7
100
AcDb2dPolyline
 66
     1
 10
0.0
 20
0.0
 30
0.0
  0
VERTEX
  5
591
330
590
100
AcDbEntity
  8
BEMAßUNG
 62
     7
100
AcDbVertex
100
AcDb2dVertex
 10
41.04211153487837
 20
208.1946993837152
 30
0.0
  0
VERTEX
  5
592
330
590
100
AcDbEntity
  8
BEMAßUNG
 62
     7
100
AcDbVertex
100
AcDb2dVertex
 10
41.04211153487837
 20
209.53656407522
 30
0.0
  0
SEQEND
  5
593
330
590
100
AcDbEntity
  8
BEMAßUNG
  0
POLYLINE
  5
594
330
1F
100
AcDbEntity
  8
BEMAßUNG
 62
     7
100
AcDb2dPolyline
 66
     1
 10
0.0
 20
0.0
 30
0.0
  0
VERTEX
  5
595
330
594
100
AcDbEntity
  8
BEMAßUNG
 62
     7
100
AcDbVertex
100
AcDb2dVertex
 10
41.0929266932858
 20
208.1946993837152
 30
0.0
  0
VERTEX
  5
596
330
594
100
AcDbEntity
  8
BEMAßUNG
 62
     7
100
AcDbVertex
100
AcDb2dVertex
 10
41.0929266932858
 20
209.9229315338908
 30
0.0
  0
SEQEND
  5
597
330
594
100
AcDbEntity
  8
BEMAßUNG
  0
POLYLINE
  5
598
330
1F
100
AcDbEntity
  8
BEMAßUNG
 62
     7
100
AcDb2dPolyline
 66
     1
 10
0.0
 20
0.0
 30
0.0
  0
VERTEX
  5
599
330
598
100
AcDbEntity
  8
BEMAßUNG
 62
     7
100
AcDbVertex
100
AcDb2dVertex
 10
41.14408636124176
 20
208.1946993837152
 30
0.0
  0
VERTEX
  5
59A
330
598
100
AcDbEntity
  8
BEMAßUNG
 62
     7
100
AcDbVertex
100
AcDb2dVertex
 10
41.14408636124176
 20
210.3084377186903
 30
0.0
  0
SEQEND
  5
59B
330
598
100
AcDbEntity
  8
BEMAßUNG
  0
POLYLINE
  5
59C
330
1F
100
AcDbEntity
  8
BEMAßUNG
 62
     7
100
AcDb2dPolyline
 66
     1
 10
0.0
 20
0.0
 30
0.0
  0
VERTEX
  5
59D
330
59C
100
AcDbEntity
  8
BEMAßUNG
 62
     7
100
AcDbVertex
100
AcDb2dVertex
 10
41.19455701010067
 20
208.1946993837152
 30
0.0
  0
VERTEX
  5
59E
330
59C
100
AcDbEntity
  8
BEMAßUNG
 62
     7
100
AcDbVertex
100
AcDb2dVertex
 10
41.19455701010067
 20
210.694805177361
 30
0.0
  0
SEQEND
  5
59F
330
59C
100
AcDbEntity
  8
BEMAßUNG
  0
POLYLINE
  5
5A0
330
1F
100
AcDbEntity
  8
BEMAßUNG
 62
     7
100
AcDb2dPolyline
 66
     1
 10
0.0
 20
0.0
 30
0.0
  0
VERTEX
  5
5A1
330
5A0
100
AcDbEntity
  8
BEMAßUNG
 62
     7
100
AcDbVertex
100
AcDb2dVertex
 10
41.4997924700938
 20
208.1946993837152
 30
0.0
  0
VERTEX
  5
5A2
330
5A0
100
AcDbEntity
  8
BEMAßUNG
 62
     7
100
AcDbVertex
100
AcDb2dVertex
 10
41.4997924700938
 20
208.3795287564989
 30
0.0
  0
SEQEND
  5
5A3
330
5A0
100
AcDbEntity
  8
BEMAßUNG
  0
POLYLINE
  5
5A4
330
1F
100
AcDbEntity
  8
BEMAßUNG
 62
     7
100
AcDb2dPolyline
 66
     1
 10
0.0
 20
0.0
 30
0.0
  0
VERTEX
  5
5A5
330
5A4
100
AcDbEntity
  8
BEMAßUNG
 62
     7
100
AcDbVertex
100
AcDb2dVertex
 10
41.4997924700938
 20
208.1946993837152
 30
0.0
  0
VERTEX
  5
5A6
330
5A4
100
AcDbEntity
  8
BEMAßUNG
 62
     7
100
AcDbVertex
100
AcDb2dVertex
 10
41.4997924700938
 20
208.3795287564989
 30
0.0
  0
SEQEND
  5
5A7
330
5A4
100
AcDbEntity
  8
BEMAßUNG
  0
POLYLINE
  5
5A8
330
1F
100
AcDbEntity
  8
BEMAßUNG
 62
     7
100
AcDb2dPolyline
 66
     1
 10
0.0
 20
0.0
 30
0.0
  0
VERTEX
  5
5A9
330
5A8
100
AcDbEntity
  8
BEMAßUNG
 62
     7
100
AcDbVertex
100
AcDb2dVertex
 10
41.44863280213784
 20
208.1946993837152
 30
0.0
  0
VERTEX
  5
5AA
330
5A8
100
AcDbEntity
  8
BEMAßUNG
 62
     7
100
AcDbVertex
100
AcDb2dVertex
 10
41.44863280213784
 20
208.7650349412983
 30
0.0
  0
SEQEND
  5
5AB
330
5A8
100
AcDbEntity
  8
BEMAßUNG
  0
POLYLINE
  5
5AC
330
1F
100
AcDbEntity
  8
BEMAßUNG
 62
     7
100
AcDb2dPolyline
 66
     1
 10
0.0
 20
0.0
 30
0.0
  0
VERTEX
  5
5AD
330
5AC
100
AcDbEntity
  8
BEMAßUNG
 62
     7
100
AcDbVertex
100
AcDb2dVertex
 10
41.39816215327893
 20
208.1946993837152
 30
0.0
  0
VERTEX
  5
5AE
330
5AC
100
AcDbEntity
  8
BEMAßUNG
 62
     7
100
AcDbVertex
100
AcDb2dVertex
 10
41.39816215327893
 20
209.1514023999691
 30
0.0
  0
SEQEND
  5
5AF
330
5AC
100
AcDbEntity
  8
BEMAßUNG
  0
POLYLINE
  5
5B0
330
1F
100
AcDbEntity
  8
BEMAßUNG
 62
     7
100
AcDb2dPolyline
 66
     1
 10
0.0
 20
0.0
 30
0.0
  0
VERTEX
  5
5B1
330
5B0
100
AcDbEntity
  8
BEMAßUNG
 62
     7
100
AcDbVertex
100
AcDb2dVertex
 10
41.34700248532297
 20
208.1946993837152
 30
0.0
  0
VERTEX
  5
5B2
330
5B0
100
AcDbEntity
  8
BEMAßUNG
 62
     7
100
AcDbVertex
100
AcDb2dVertex
 10
41.34700248532297
 20
209.53656407522
 30
0.0
  0
SEQEND
  5
5B3
330
5B0
100
AcDbEntity
  8
BEMAßUNG
  0
POLYLINE
  5
5B4
330
1F
100
AcDbEntity
  8
BEMAßUNG
 62
     7
100
AcDb2dPolyline
 66
     1
 10
0.0
 20
0.0
 30
0.0
  0
VERTEX
  5
5B5
330
5B4
100
AcDbEntity
  8
BEMAßUNG
 62
     7
100
AcDbVertex
100
AcDb2dVertex
 10
41.29653183646406
 20
208.1946993837152
 30
0.0
  0
VERTEX
  5
5B6
330
5B4
100
AcDbEntity
  8
BEMAßUNG
 62
     7
100
AcDbVertex
100
AcDb2dVertex
 10
41.29653183646406
 20
209.9229315338908
 30
0.0
  0
SEQEND
  5
5B7
330
5B4
100
AcDbEntity
  8
BEMAßUNG
  0
POLYLINE
  5
5B8
330
1F
100
AcDbEntity
  8
BEMAßUNG
 62
     7
100
AcDb2dPolyline
 66
     1
 10
0.0
 20
0.0
 30
0.0
  0
VERTEX
  5
5B9
330
5B8
100
AcDbEntity
  8
BEMAßUNG
 62
     7
100
AcDbVertex
100
AcDb2dVertex
 10
41.24571667805663
 20
208.1946993837152
 30
0.0
  0
VERTEX
  5
5BA
330
5B8
100
AcDbEntity
  8
BEMAßUNG
 62
     7
100
AcDbVertex
100
AcDb2dVertex
 10
41.24571667805663
 20
210.3084377186903
 30
0.0
  0
SEQEND
  5
5BB
330
5B8
100
AcDbEntity
  8
BEMAßUNG
  0
POLYLINE
  5
5BC
330
1F
100
AcDbEntity
  8
BEMAßUNG
 62
     7
100
AcDb2dPolyline
 66
     1
 10
0.0
 20
0.0
 30
0.0
  0
VERTEX
  5
5BD
330
5BC
100
AcDbEntity
  8
BEMAßUNG
 62
     7
100
AcDbVertex
100
AcDb2dVertex
 10
41.19455701010067
 20
208.1946993837152
 30
0.0
  0
VERTEX
  5
5BE
330
5BC
100
AcDbEntity
  8
BEMAßUNG
 62
     7
100
AcDbVertex
100
AcDb2dVertex
 10
41.19455701010067
 20
210.694805177361
 30
0.0
  0
SEQEND
  5
5BF
330
5BC
100
AcDbEntity
  8
BEMAßUNG
  0
POLYLINE
  5
5C0
330
1F
100
AcDbEntity
  8
BEMAßUNG
 62
     7
100
AcDb2dPolyline
 66
     1
 10
0.0
 20
0.0
 30
0.0
  0
VERTEX
  5
5C1
330
5C0
100
AcDbEntity
  8
BEMAßUNG
 62
     7
100
AcDbVertex
100
AcDb2dVertex
 10
41.19455701010067
 20
198.6946763283645
 30
0.0
  0
VERTEX
  5
5C2
330
5C0
100
AcDbEntity
  8
BEMAßUNG
 62
     7
100
AcDbVertex
100
AcDb2dVertex
 10
41.52408039326482
 20
201.1947821220103
 30
0.0
  0
VERTEX
  5
5C3
330
5C0
100
AcDbEntity
  8
BEMAßUNG
 62
     7
100
AcDbVertex
100
AcDb2dVertex
 10
40.86572264603357
 20
201.1947821220103
 30
0.0
  0
VERTEX
  5
5C4
330
5C0
100
AcDbEntity
  8
BEMAßUNG
 62
     7
100
AcDbVertex
100
AcDb2dVertex
 10
41.19455701010067
 20
198.6946763283645
 30
0.0
  0
SEQEND
  5
5C5
330
5C0
100
AcDbEntity
  8
BEMAßUNG
  0
POLYLINE
  5
5C6
330
1F
100
AcDbEntity
  8
BEMAßUNG
 62
     7
100
AcDb2dPolyline
 66
     1
 10
0.0
 20
0.0
 30
0.0
  0
VERTEX
  5
5C7
330
5C6
100
AcDbEntity
  8
BEMAßUNG
 62
     7
100
AcDbVertex
100
AcDb2dVertex
 10
41.4997924700938
 20
201.1947821220103
 30
0.0
  0
VERTEX
  5
5C8
330
5C6
100
AcDbEntity
  8
BEMAßUNG
 62
     7
100
AcDbVertex
100
AcDb2dVertex
 10
41.4997924700938
 20
201.0099527492267
 30
0.0
  0
SEQEND
  5
5C9
330
5C6
100
AcDbEntity
  8
BEMAßUNG
  0
POLYLINE
  5
5CA
330
1F
100
AcDbEntity
  8
BEMAßUNG
 62
     7
100
AcDb2dPolyline
 66
     1
 10
0.0
 20
0.0
 30
0.0
  0
VERTEX
  5
5CB
330
5CA
100
AcDbEntity
  8
BEMAßUNG
 62
     7
100
AcDbVertex
100
AcDb2dVertex
 10
41.4997924700938
 20
201.1947821220103
 30
0.0
  0
VERTEX
  5
5CC
330
5CA
100
AcDbEntity
  8
BEMAßUNG
 62
     7
100
AcDbVertex
100
AcDb2dVertex
 10
41.4997924700938
 20
201.0099527492267
 30
0.0
  0
SEQEND
  5
5CD
330
5CA
100
AcDbEntity
  8
BEMAßUNG
  0
POLYLINE
  5
5CE
330
1F
100
AcDbEntity
  8
BEMAßUNG
 62
     7
100
AcDb2dPolyline
 66
     1
 10
0.0
 20
0.0
 30
0.0
  0
VERTEX
  5
5CF
330
5CE
100
AcDbEntity
  8
BEMAßUNG
 62
     7
100
AcDbVertex
100
AcDb2dVertex
 10
41.44863280213784
 20
201.1947821220103
 30
0.0
  0
VERTEX
  5
5D0
330
5CE
100
AcDbEntity
  8
BEMAßUNG
 62
     7
100
AcDbVertex
100
AcDb2dVertex
 10
41.44863280213784
 20
200.6237575453302
 30
0.0
  0
SEQEND
  5
5D1
330
5CE
100
AcDbEntity
  8
BEMAßUNG
  0
POLYLINE
  5
5D2
330
1F
100
AcDbEntity
  8
BEMAßUNG
 62
     7
100
AcDb2dPolyline
 66
     1
 10
0.0
 20
0.0
 30
0.0
  0
VERTEX
  5
5D3
330
5D2
100
AcDbEntity
  8
BEMAßUNG
 62
     7
100
AcDbVertex
100
AcDb2dVertex
 10
41.39816215327893
 20
201.1947821220103
 30
0.0
  0
VERTEX
  5
5D4
330
5D2
100
AcDbEntity
  8
BEMAßUNG
 62
     7
100
AcDbVertex
100
AcDb2dVertex
 10
41.39816215327893
 20
200.2380791057565
 30
0.0
  0
SEQEND
  5
5D5
330
5D2
100
AcDbEntity
  8
BEMAßUNG
  0
POLYLINE
  5
5D6
330
1F
100
AcDbEntity
  8
BEMAßUNG
 62
     7
100
AcDb2dPolyline
 66
     1
 10
0.0
 20
0.0
 30
0.0
  0
VERTEX
  5
5D7
330
5D6
100
AcDbEntity
  8
BEMAßUNG
 62
     7
100
AcDbVertex
100
AcDb2dVertex
 10
41.34700248532297
 20
201.1947821220103
 30
0.0
  0
VERTEX
  5
5D8
330
5D6
100
AcDbEntity
  8
BEMAßUNG
 62
     7
100
AcDbVertex
100
AcDb2dVertex
 10
41.34700248532297
 20
199.8517116470857
 30
0.0
  0
SEQEND
  5
5D9
330
5D6
100
AcDbEntity
  8
BEMAßUNG
  0
POLYLINE
  5
5DA
330
1F
100
AcDbEntity
  8
BEMAßUNG
 62
     7
100
AcDb2dPolyline
 66
     1
 10
0.0
 20
0.0
 30
0.0
  0
VERTEX
  5
5DB
330
5DA
100
AcDbEntity
  8
BEMAßUNG
 62
     7
100
AcDbVertex
100
AcDb2dVertex
 10
41.29653183646406
 20
201.1947821220103
 30
0.0
  0
VERTEX
  5
5DC
330
5DA
100
AcDbEntity
  8
BEMAßUNG
 62
     7
100
AcDbVertex
100
AcDb2dVertex
 10
41.29653183646406
 20
199.4665499718348
 30
0.0
  0
SEQEND
  5
5DD
330
5DA
100
AcDbEntity
  8
BEMAßUNG
  0
POLYLINE
  5
5DE
330
1F
100
AcDbEntity
  8
BEMAßUNG
 62
     7
100
AcDb2dPolyline
 66
     1
 10
0.0
 20
0.0
 30
0.0
  0
VERTEX
  5
5DF
330
5DE
100
AcDbEntity
  8
BEMAßUNG
 62
     7
100
AcDbVertex
100
AcDb2dVertex
 10
41.24571667805663
 20
201.1947821220103
 30
0.0
  0
VERTEX
  5
5E0
330
5DE
100
AcDbEntity
  8
BEMAßUNG
 62
     7
100
AcDbVertex
100
AcDb2dVertex
 10
41.24571667805663
 20
199.0803547679382
 30
0.0
  0
SEQEND
  5
5E1
330
5DE
100
AcDbEntity
  8
BEMAßUNG
  0
POLYLINE
  5
5E2
330
1F
100
AcDbEntity
  8
BEMAßUNG
 62
     7
100
AcDb2dPolyline
 66
     1
 10
0.0
 20
0.0
 30
0.0
  0
VERTEX
  5
5E3
330
5E2
100
AcDbEntity
  8
BEMAßUNG
 62
     7
100
AcDbVertex
100
AcDb2dVertex
 10
41.19455701010067
 20
201.1947821220103
 30
0.0
  0
VERTEX
  5
5E4
330
5E2
100
AcDbEntity
  8
BEMAßUNG
 62
     7
100
AcDbVertex
100
AcDb2dVertex
 10
41.19455701010067
 20
198.6946763283645
 30
0.0
  0
SEQEND
  5
5E5
330
5E2
100
AcDbEntity
  8
BEMAßUNG
  0
POLYLINE
  5
5E6
330
1F
100
AcDbEntity
  8
BEMAßUNG
 62
     7
100
AcDb2dPolyline
 66
     1
 10
0.0
 20
0.0
 30
0.0
  0
VERTEX
  5
5E7
330
5E6
100
AcDbEntity
  8
BEMAßUNG
 62
     7
100
AcDbVertex
100
AcDb2dVertex
 10
40.89018282397885
 20
201.1947821220103
 30
0.0
  0
VERTEX
  5
5E8
330
5E6
100
AcDbEntity
  8
BEMAßUNG
 62
     7
100
AcDbVertex
100
AcDb2dVertex
 10
40.89018282397885
 20
201.0099527492267
 30
0.0
  0
SEQEND
  5
5E9
330
5E6
100
AcDbEntity
  8
BEMAßUNG
  0
POLYLINE
  5
5EA
330
1F
100
AcDbEntity
  8
BEMAßUNG
 62
     7
100
AcDb2dPolyline
 66
     1
 10
0.0
 20
0.0
 30
0.0
  0
VERTEX
  5
5EB
330
5EA
100
AcDbEntity
  8
BEMAßUNG
 62
     7
100
AcDbVertex
100
AcDb2dVertex
 10
40.89018282397885
 20
201.1947821220103
 30
0.0
  0
VERTEX
  5
5EC
330
5EA
100
AcDbEntity
  8
BEMAßUNG
 62
     7
100
AcDbVertex
100
AcDb2dVertex
 10
40.89018282397885
 20
201.0099527492267
 30
0.0
  0
SEQEND
  5
5ED
330
5EA
100
AcDbEntity
  8
BEMAßUNG
  0
POLYLINE
  5
5EE
330
1F
100
AcDbEntity
  8
BEMAßUNG
 62
     7
100
AcDb2dPolyline
 66
     1
 10
0.0
 20
0.0
 30
0.0
  0
VERTEX
  5
5EF
330
5EE
100
AcDbEntity
  8
BEMAßUNG
 62
     7
100
AcDbVertex
100
AcDb2dVertex
 10
40.94048121806349
 20
201.1947821220103
 30
0.0
  0
VERTEX
  5
5F0
330
5EE
100
AcDbEntity
  8
BEMAßUNG
 62
     7
100
AcDbVertex
100
AcDb2dVertex
 10
40.94048121806349
 20
200.6237575453302
 30
0.0
  0
SEQEND
  5
5F1
330
5EE
100
AcDbEntity
  8
BEMAßUNG
  0
POLYLINE
  5
5F2
330
1F
100
AcDbEntity
  8
BEMAßUNG
 62
     7
100
AcDb2dPolyline
 66
     1
 10
0.0
 20
0.0
 30
0.0
  0
VERTEX
  5
5F3
330
5F2
100
AcDbEntity
  8
BEMAßUNG
 62
     7
100
AcDbVertex
100
AcDb2dVertex
 10
40.99164088601945
 20
201.1947821220103
 30
0.0
  0
VERTEX
  5
5F4
330
5F2
100
AcDbEntity
  8
BEMAßUNG
 62
     7
100
AcDbVertex
100
AcDb2dVertex
 10
40.99164088601945
 20
200.2380791057565
 30
0.0
  0
SEQEND
  5
5F5
330
5F2
100
AcDbEntity
  8
BEMAßUNG
  0
POLYLINE
  5
5F6
330
1F
100
AcDbEntity
  8
BEMAßUNG
 62
     7
100
AcDb2dPolyline
 66
     1
 10
0.0
 20
0.0
 30
0.0
  0
VERTEX
  5
5F7
330
5F6
100
AcDbEntity
  8
BEMAßUNG
 62
     7
100
AcDbVertex
100
AcDb2dVertex
 10
41.04211153487837
 20
201.1947821220103
 30
0.0
  0
VERTEX
  5
5F8
330
5F6
100
AcDbEntity
  8
BEMAßUNG
 62
     7
100
AcDbVertex
100
AcDb2dVertex
 10
41.04211153487837
 20
199.8517116470857
 30
0.0
  0
SEQEND
  5
5F9
330
5F6
100
AcDbEntity
  8
BEMAßUNG
  0
POLYLINE
  5
5FA
330
1F
100
AcDbEntity
  8
BEMAßUNG
 62
     7
100
AcDb2dPolyline
 66
     1
 10
0.0
 20
0.0
 30
0.0
  0
VERTEX
  5
5FB
330
5FA
100
AcDbEntity
  8
BEMAßUNG
 62
     7
100
AcDbVertex
100
AcDb2dVertex
 10
41.0929266932858
 20
201.1947821220103
 30
0.0
  0
VERTEX
  5
5FC
330
5FA
100
AcDbEntity
  8
BEMAßUNG
 62
     7
100
AcDbVertex
100
AcDb2dVertex
 10
41.0929266932858
 20
199.4665499718348
 30
0.0
  0
SEQEND
  5
5FD
330
5FA
100
AcDbEntity
  8
BEMAßUNG
  0
POLYLINE
  5
5FE
330
1F
100
AcDbEntity
  8
BEMAßUNG
 62
     7
100
AcDb2dPolyline
 66
     1
 10
0.0
 20
0.0
 30
0.0
  0
VERTEX
  5
5FF
330
5FE
100
AcDbEntity
  8
BEMAßUNG
 62
     7
100
AcDbVertex
100
AcDb2dVertex
 10
41.14408636124176
 20
201.1947821220103
 30
0.0
  0
VERTEX
  5
600
330
5FE
100
AcDbEntity
  8
BEMAßUNG
 62
     7
100
AcDbVertex
100
AcDb2dVertex
 10
41.14408636124176
 20
199.0803547679382
 30
0.0
  0
SEQEND
  5
601
330
5FE
100
AcDbEntity
  8
BEMAßUNG
  0
POLYLINE
  5
602
330
1F
100
AcDbEntity
  8
BEMAßUNG
 62
     7
100
AcDb2dPolyline
 66
     1
 10
0.0
 20
0.0
 30
0.0
  0
VERTEX
  5
603
330
602
100
AcDbEntity
  8
BEMAßUNG
 62
     7
100
AcDbVertex
100
AcDb2dVertex
 10
41.19455701010067
 20
201.1947821220103
 30
0.0
  0
VERTEX
  5
604
330
602
100
AcDbEntity
  8
BEMAßUNG
 62
     7
100
AcDbVertex
100
AcDb2dVertex
 10
41.19455701010067
 20
198.6946763283645
 30
0.0
  0
SEQEND
  5
605
330
602
100
AcDbEntity
  8
BEMAßUNG
  0
POLYLINE
  5
606
330
1F
100
AcDbEntity
  8
BEMAßUNG
 62
     7
100
AcDb2dPolyline
 66
     1
 10
0.0
 20
0.0
 30
0.0
  0
VERTEX
  5
607
330
606
100
AcDbEntity
  8
BEMAßUNG
 62
     7
100
AcDbVertex
100
AcDb2dVertex
 10
72.19455971502428
 20
217.6942056747431
 30
0.0
  0
VERTEX
  5
608
330
606
100
AcDbEntity
  8
BEMAßUNG
 62
     7
100
AcDbVertex
100
AcDb2dVertex
 10
72.19455971502428
 20
236.6949408045415
 30
0.0
  0
SEQEND
  5
609
330
606
100
AcDbEntity
  8
BEMAßUNG
  0
POLYLINE
  5
60A
330
1F
100
AcDbEntity
  8
BEMAßUNG
 62
     7
100
AcDb2dPolyline
 66
     1
 10
0.0
 20
0.0
 30
0.0
  0
VERTEX
  5
60B
330
60A
100
AcDbEntity
  8
BEMAßUNG
 62
     7
100
AcDbVertex
100
AcDb2dVertex
 10
61.19488659494434
 20
214.4447916130555
 30
0.0
  0
VERTEX
  5
60C
330
60A
100
AcDbEntity
  8
BEMAßUNG
 62
     7
100
AcDbVertex
100
AcDb2dVertex
 10
61.19488659494434
 20
236.6949408045415
 30
0.0
  0
SEQEND
  5
60D
330
60A
100
AcDbEntity
  8
BEMAßUNG
  0
POLYLINE
  5
60E
330
1F
100
AcDbEntity
  8
BEMAßUNG
 62
     7
100
AcDb2dPolyline
 66
     1
 10
0.0
 20
0.0
 30
0.0
  0
VERTEX
  5
60F
330
60E
100
AcDbEntity
  8
BEMAßUNG
 62
     7
100
AcDbVertex
100
AcDb2dVertex
 10
72.19455971502428
 20
234.6942016014827
 30
0.0
  0
VERTEX
  5
610
330
60E
100
AcDbEntity
  8
BEMAßUNG
 62
     7
100
AcDbVertex
100
AcDb2dVertex
 10
61.19488659494434
 20
234.6942016014827
 30
0.0
  0
SEQEND
  5
611
330
60E
100
AcDbEntity
  8
BEMAßUNG
  0
POLYLINE
  5
612
330
1F
100
AcDbEntity
  8
BEMAßUNG
 62
     7
100
AcDb2dPolyline
 66
     1
 10
0.0
 20
0.0
 30
0.0
  0
VERTEX
  5
613
330
612
100
AcDbEntity
  8
BEMAßUNG
 62
     7
100
AcDbVertex
100
AcDb2dVertex
 10
72.19455971502428
 20
234.6942016014827
 30
0.0
  0
VERTEX
  5
614
330
612
100
AcDbEntity
  8
BEMAßUNG
 62
     7
100
AcDbVertex
100
AcDb2dVertex
 10
69.69514294047552
 20
235.0233804750983
 30
0.0
  0
VERTEX
  5
615
330
612
100
AcDbEntity
  8
BEMAßUNG
 62
     7
100
AcDbVertex
100
AcDb2dVertex
 10
69.69514294047552
 20
234.3650227278671
 30
0.0
  0
VERTEX
  5
616
330
612
100
AcDbEntity
  8
BEMAßUNG
 62
     7
100
AcDbVertex
100
AcDb2dVertex
 10
72.19455971502428
 20
234.6942016014827
 30
0.0
  0
SEQEND
  5
617
330
612
100
AcDbEntity
  8
BEMAßUNG
  0
POLYLINE
  5
618
330
1F
100
AcDbEntity
  8
BEMAßUNG
 62
     7
100
AcDb2dPolyline
 66
     1
 10
0.0
 20
0.0
 30
0.0
  0
VERTEX
  5
619
330
618
100
AcDbEntity
  8
BEMAßUNG
 62
     7
100
AcDbVertex
100
AcDb2dVertex
 10
69.69514294047552
 20
234.9990925519273
 30
0.0
  0
VERTEX
  5
61A
330
618
100
AcDbEntity
  8
BEMAßUNG
 62
     7
100
AcDbVertex
100
AcDb2dVertex
 10
69.87997231325917
 20
234.9990925519273
 30
0.0
  0
SEQEND
  5
61B
330
618
100
AcDbEntity
  8
BEMAßUNG
  0
POLYLINE
  5
61C
330
1F
100
AcDbEntity
  8
BEMAßUNG
 62
     7
100
AcDb2dPolyline
 66
     1
 10
0.0
 20
0.0
 30
0.0
  0
VERTEX
  5
61D
330
61C
100
AcDbEntity
  8
BEMAßUNG
 62
     7
100
AcDbVertex
100
AcDb2dVertex
 10
69.69514294047552
 20
234.9990925519273
 30
0.0
  0
VERTEX
  5
61E
330
61C
100
AcDbEntity
  8
BEMAßUNG
 62
     7
100
AcDbVertex
100
AcDb2dVertex
 10
69.87997231325917
 20
234.9990925519273
 30
0.0
  0
SEQEND
  5
61F
330
61C
100
AcDbEntity
  8
BEMAßUNG
  0
POLYLINE
  5
620
330
1F
100
AcDbEntity
  8
BEMAßUNG
 62
     7
100
AcDb2dPolyline
 66
     1
 10
0.0
 20
0.0
 30
0.0
  0
VERTEX
  5
621
330
620
100
AcDbEntity
  8
BEMAßUNG
 62
     7
100
AcDbVertex
100
AcDb2dVertex
 10
69.69514294047552
 20
234.9482773935199
 30
0.0
  0
VERTEX
  5
622
330
620
100
AcDbEntity
  8
BEMAßUNG
 62
     7
100
AcDbVertex
100
AcDb2dVertex
 10
70.26513398851012
 20
234.9482773935199
 30
0.0
  0
SEQEND
  5
623
330
620
100
AcDbEntity
  8
BEMAßUNG
  0
POLYLINE
  5
624
330
1F
100
AcDbEntity
  8
BEMAßUNG
 62
     7
100
AcDb2dPolyline
 66
     1
 10
0.0
 20
0.0
 30
0.0
  0
VERTEX
  5
625
330
624
100
AcDbEntity
  8
BEMAßUNG
 62
     7
100
AcDbVertex
100
AcDb2dVertex
 10
69.69514294047552
 20
234.8974622351124
 30
0.0
  0
VERTEX
  5
626
330
624
100
AcDbEntity
  8
BEMAßUNG
 62
     7
100
AcDbVertex
100
AcDb2dVertex
 10
70.65115693763235
 20
234.8974622351124
 30
0.0
  0
SEQEND
  5
627
330
624
100
AcDbEntity
  8
BEMAßUNG
  0
POLYLINE
  5
628
330
1F
100
AcDbEntity
  8
BEMAßUNG
 62
     7
100
AcDb2dPolyline
 66
     1
 10
0.0
 20
0.0
 30
0.0
  0
VERTEX
  5
629
330
628
100
AcDbEntity
  8
BEMAßUNG
 62
     7
100
AcDbVertex
100
AcDb2dVertex
 10
69.69514294047552
 20
234.846647076705
 30
0.0
  0
VERTEX
  5
62A
330
628
100
AcDbEntity
  8
BEMAßUNG
 62
     7
100
AcDbVertex
100
AcDb2dVertex
 10
71.03752439630313
 20
234.846647076705
 30
0.0
  0
SEQEND
  5
62B
330
628
100
AcDbEntity
  8
BEMAßUNG
  0
POLYLINE
  5
62C
330
1F
100
AcDbEntity
  8
BEMAßUNG
 62
     7
100
AcDb2dPolyline
 66
     1
 10
0.0
 20
0.0
 30
0.0
  0
VERTEX
  5
62D
330
62C
100
AcDbEntity
  8
BEMAßUNG
 62
     7
100
AcDbVertex
100
AcDb2dVertex
 10
69.69514294047552
 20
234.7958319182976
 30
0.0
  0
VERTEX
  5
62E
330
62C
100
AcDbEntity
  8
BEMAßUNG
 62
     7
100
AcDbVertex
100
AcDb2dVertex
 10
71.4233750906511
 20
234.7958319182976
 30
0.0
  0
SEQEND
  5
62F
330
62C
100
AcDbEntity
  8
BEMAßUNG
  0
POLYLINE
  5
630
330
1F
100
AcDbEntity
  8
BEMAßUNG
 62
     7
100
AcDb2dPolyline
 66
     1
 10
0.0
 20
0.0
 30
0.0
  0
VERTEX
  5
631
330
630
100
AcDbEntity
  8
BEMAßUNG
 62
     7
100
AcDbVertex
100
AcDb2dVertex
 10
69.69514294047552
 20
234.7450167598901
 30
0.0
  0
VERTEX
  5
632
330
630
100
AcDbEntity
  8
BEMAßUNG
 62
     7
100
AcDbVertex
100
AcDb2dVertex
 10
71.80939803977334
 20
234.7450167598901
 30
0.0
  0
SEQEND
  5
633
330
630
100
AcDbEntity
  8
BEMAßUNG
  0
POLYLINE
  5
634
330
1F
100
AcDbEntity
  8
BEMAßUNG
 62
     7
100
AcDb2dPolyline
 66
     1
 10
0.0
 20
0.0
 30
0.0
  0
VERTEX
  5
635
330
634
100
AcDbEntity
  8
BEMAßUNG
 62
     7
100
AcDbVertex
100
AcDb2dVertex
 10
69.69514294047552
 20
234.6942016014827
 30
0.0
  0
VERTEX
  5
636
330
634
100
AcDbEntity
  8
BEMAßUNG
 62
     7
100
AcDbVertex
100
AcDb2dVertex
 10
72.19455971502428
 20
234.6942016014827
 30
0.0
  0
SEQEND
  5
637
330
634
100
AcDbEntity
  8
BEMAßUNG
  0
POLYLINE
  5
638
330
1F
100
AcDbEntity
  8
BEMAßUNG
 62
     7
100
AcDb2dPolyline
 66
     1
 10
0.0
 20
0.0
 30
0.0
  0
VERTEX
  5
639
330
638
100
AcDbEntity
  8
BEMAßUNG
 62
     7
100
AcDbVertex
100
AcDb2dVertex
 10
69.69514294047552
 20
234.3898274153609
 30
0.0
  0
VERTEX
  5
63A
330
638
100
AcDbEntity
  8
BEMAßUNG
 62
     7
100
AcDbVertex
100
AcDb2dVertex
 10
69.87997231325917
 20
234.3898274153609
 30
0.0
  0
SEQEND
  5
63B
330
638
100
AcDbEntity
  8
BEMAßUNG
  0
POLYLINE
  5
63C
330
1F
100
AcDbEntity
  8
BEMAßUNG
 62
     7
100
AcDb2dPolyline
 66
     1
 10
0.0
 20
0.0
 30
0.0
  0
VERTEX
  5
63D
330
63C
100
AcDbEntity
  8
BEMAßUNG
 62
     7
100
AcDbVertex
100
AcDb2dVertex
 10
69.69514294047552
 20
234.3898274153609
 30
0.0
  0
VERTEX
  5
63E
330
63C
100
AcDbEntity
  8
BEMAßUNG
 62
     7
100
AcDbVertex
100
AcDb2dVertex
 10
69.87997231325917
 20
234.3898274153609
 30
0.0
  0
SEQEND
  5
63F
330
63C
100
AcDbEntity
  8
BEMAßUNG
  0
POLYLINE
  5
640
330
1F
100
AcDbEntity
  8
BEMAßUNG
 62
     7
100
AcDb2dPolyline
 66
     1
 10
0.0
 20
0.0
 30
0.0
  0
VERTEX
  5
641
330
640
100
AcDbEntity
  8
BEMAßUNG
 62
     7
100
AcDbVertex
100
AcDb2dVertex
 10
69.69514294047552
 20
234.4406425737683
 30
0.0
  0
VERTEX
  5
642
330
640
100
AcDbEntity
  8
BEMAßUNG
 62
     7
100
AcDbVertex
100
AcDb2dVertex
 10
70.26513398851012
 20
234.4406425737683
 30
0.0
  0
SEQEND
  5
643
330
640
100
AcDbEntity
  8
BEMAßUNG
  0
POLYLINE
  5
644
330
1F
100
AcDbEntity
  8
BEMAßUNG
 62
     7
100
AcDb2dPolyline
 66
     1
 10
0.0
 20
0.0
 30
0.0
  0
VERTEX
  5
645
330
644
100
AcDbEntity
  8
BEMAßUNG
 62
     7
100
AcDbVertex
100
AcDb2dVertex
 10
69.69514294047552
 20
234.4914577321757
 30
0.0
  0
VERTEX
  5
646
330
644
100
AcDbEntity
  8
BEMAßUNG
 62
     7
100
AcDbVertex
100
AcDb2dVertex
 10
70.65115693763235
 20
234.4914577321757
 30
0.0
  0
SEQEND
  5
647
330
644
100
AcDbEntity
  8
BEMAßUNG
  0
POLYLINE
  5
648
330
1F
100
AcDbEntity
  8
BEMAßUNG
 62
     7
100
AcDb2dPolyline
 66
     1
 10
0.0
 20
0.0
 30
0.0
  0
VERTEX
  5
649
330
648
100
AcDbEntity
  8
BEMAßUNG
 62
     7
100
AcDbVertex
100
AcDb2dVertex
 10
69.69514294047552
 20
234.5421006358089
 30
0.0
  0
VERTEX
  5
64A
330
648
100
AcDbEntity
  8
BEMAßUNG
 62
     7
100
AcDbVertex
100
AcDb2dVertex
 10
71.03752439630313
 20
234.5421006358089
 30
0.0
  0
SEQEND
  5
64B
330
648
100
AcDbEntity
  8
BEMAßUNG
  0
POLYLINE
  5
64C
330
1F
100
AcDbEntity
  8
BEMAßUNG
 62
     7
100
AcDb2dPolyline
 66
     1
 10
0.0
 20
0.0
 30
0.0
  0
VERTEX
  5
64D
330
64C
100
AcDbEntity
  8
BEMAßUNG
 62
     7
100
AcDbVertex
100
AcDb2dVertex
 10
69.69514294047552
 20
234.5930880489906
 30
0.0
  0
VERTEX
  5
64E
330
64C
100
AcDbEntity
  8
BEMAßUNG
 62
     7
100
AcDbVertex
100
AcDb2dVertex
 10
71.4233750906511
 20
234.5930880489906
 30
0.0
  0
SEQEND
  5
64F
330
64C
100
AcDbEntity
  8
BEMAßUNG
  0
POLYLINE
  5
650
330
1F
100
AcDbEntity
  8
BEMAßUNG
 62
     7
100
AcDb2dPolyline
 66
     1
 10
0.0
 20
0.0
 30
0.0
  0
VERTEX
  5
651
330
650
100
AcDbEntity
  8
BEMAßUNG
 62
     7
100
AcDbVertex
100
AcDb2dVertex
 10
69.69514294047552
 20
234.6433864430753
 30
0.0
  0
VERTEX
  5
652
330
650
100
AcDbEntity
  8
BEMAßUNG
 62
     7
100
AcDbVertex
100
AcDb2dVertex
 10
71.80939803977334
 20
234.6433864430753
 30
0.0
  0
SEQEND
  5
653
330
650
100
AcDbEntity
  8
BEMAßUNG
  0
POLYLINE
  5
654
330
1F
100
AcDbEntity
  8
BEMAßUNG
 62
     7
100
AcDb2dPolyline
 66
     1
 10
0.0
 20
0.0
 30
0.0
  0
VERTEX
  5
655
330
654
100
AcDbEntity
  8
BEMAßUNG
 62
     7
100
AcDbVertex
100
AcDb2dVertex
 10
69.69514294047552
 20
234.6942016014827
 30
0.0
  0
VERTEX
  5
656
330
654
100
AcDbEntity
  8
BEMAßUNG
 62
     7
100
AcDbVertex
100
AcDb2dVertex
 10
72.19455971502428
 20
234.6942016014827
 30
0.0
  0
SEQEND
  5
657
330
654
100
AcDbEntity
  8
BEMAßUNG
  0
POLYLINE
  5
658
330
1F
100
AcDbEntity
  8
BEMAßUNG
 62
     7
100
AcDb2dPolyline
 66
     1
 10
0.0
 20
0.0
 30
0.0
  0
VERTEX
  5
659
330
658
100
AcDbEntity
  8
BEMAßUNG
 62
     7
100
AcDbVertex
100
AcDb2dVertex
 10
61.19488659494434
 20
234.6942016014827
 30
0.0
  0
VERTEX
  5
65A
330
658
100
AcDbEntity
  8
BEMAßUNG
 62
     7
100
AcDbVertex
100
AcDb2dVertex
 10
63.69464787904162
 20
234.3650227278671
 30
0.0
  0
VERTEX
  5
65B
330
658
100
AcDbEntity
  8
BEMAßUNG
 62
     7
100
AcDbVertex
100
AcDb2dVertex
 10
63.69464787904162
 20
235.0233804750983
 30
0.0
  0
VERTEX
  5
65C
330
658
100
AcDbEntity
  8
BEMAßUNG
 62
     7
100
AcDbVertex
100
AcDb2dVertex
 10
61.19488659494434
 20
234.6942016014827
 30
0.0
  0
SEQEND
  5
65D
330
658
100
AcDbEntity
  8
BEMAßUNG
  0
POLYLINE
  5
65E
330
1F
100
AcDbEntity
  8
BEMAßUNG
 62
     7
100
AcDb2dPolyline
 66
     1
 10
0.0
 20
0.0
 30
0.0
  0
VERTEX
  5
65F
330
65E
100
AcDbEntity
  8
BEMAßUNG
 62
     7
100
AcDbVertex
100
AcDb2dVertex
 10
63.69464787904162
 20
234.3898274153609
 30
0.0
  0
VERTEX
  5
660
330
65E
100
AcDbEntity
  8
BEMAßUNG
 62
     7
100
AcDbVertex
100
AcDb2dVertex
 10
63.50981850625796
 20
234.3898274153609
 30
0.0
  0
SEQEND
  5
661
330
65E
100
AcDbEntity
  8
BEMAßUNG
  0
POLYLINE
  5
662
330
1F
100
AcDbEntity
  8
BEMAßUNG
 62
     7
100
AcDb2dPolyline
 66
     1
 10
0.0
 20
0.0
 30
0.0
  0
VERTEX
  5
663
330
662
100
AcDbEntity
  8
BEMAßUNG
 62
     7
100
AcDbVertex
100
AcDb2dVertex
 10
63.69464787904162
 20
234.3898274153609
 30
0.0
  0
VERTEX
  5
664
330
662
100
AcDbEntity
  8
BEMAßUNG
 62
     7
100
AcDbVertex
100
AcDb2dVertex
 10
63.50981850625796
 20
234.3898274153609
 30
0.0
  0
SEQEND
  5
665
330
662
100
AcDbEntity
  8
BEMAßUNG
  0
POLYLINE
  5
666
330
1F
100
AcDbEntity
  8
BEMAßUNG
 62
     7
100
AcDb2dPolyline
 66
     1
 10
0.0
 20
0.0
 30
0.0
  0
VERTEX
  5
667
330
666
100
AcDbEntity
  8
BEMAßUNG
 62
     7
100
AcDbVertex
100
AcDb2dVertex
 10
63.69464787904162
 20
234.4406425737683
 30
0.0
  0
VERTEX
  5
668
330
666
100
AcDbEntity
  8
BEMAßUNG
 62
     7
100
AcDbVertex
100
AcDb2dVertex
 10
63.12431232145851
 20
234.4406425737683
 30
0.0
  0
SEQEND
  5
669
330
666
100
AcDbEntity
  8
BEMAßUNG
  0
POLYLINE
  5
66A
330
1F
100
AcDbEntity
  8
BEMAßUNG
 62
     7
100
AcDb2dPolyline
 66
     1
 10
0.0
 20
0.0
 30
0.0
  0
VERTEX
  5
66B
330
66A
100
AcDbEntity
  8
BEMAßUNG
 62
     7
100
AcDbVertex
100
AcDb2dVertex
 10
63.69464787904162
 20
234.4914577321757
 30
0.0
  0
VERTEX
  5
66C
330
66A
100
AcDbEntity
  8
BEMAßUNG
 62
     7
100
AcDbVertex
100
AcDb2dVertex
 10
62.73828937233626
 20
234.4914577321757
 30
0.0
  0
SEQEND
  5
66D
330
66A
100
AcDbEntity
  8
BEMAßUNG
  0
POLYLINE
  5
66E
330
1F
100
AcDbEntity
  8
BEMAßUNG
 62
     7
100
AcDb2dPolyline
 66
     1
 10
0.0
 20
0.0
 30
0.0
  0
VERTEX
  5
66F
330
66E
100
AcDbEntity
  8
BEMAßUNG
 62
     7
100
AcDbVertex
100
AcDb2dVertex
 10
63.69464787904162
 20
234.5421006358089
 30
0.0
  0
VERTEX
  5
670
330
66E
100
AcDbEntity
  8
BEMAßUNG
 62
     7
100
AcDbVertex
100
AcDb2dVertex
 10
62.35243867798828
 20
234.5421006358089
 30
0.0
  0
SEQEND
  5
671
330
66E
100
AcDbEntity
  8
BEMAßUNG
  0
POLYLINE
  5
672
330
1F
100
AcDbEntity
  8
BEMAßUNG
 62
     7
100
AcDb2dPolyline
 66
     1
 10
0.0
 20
0.0
 30
0.0
  0
VERTEX
  5
673
330
672
100
AcDbEntity
  8
BEMAßUNG
 62
     7
100
AcDbVertex
100
AcDb2dVertex
 10
63.69464787904162
 20
234.5930880489906
 30
0.0
  0
VERTEX
  5
674
330
672
100
AcDbEntity
  8
BEMAßUNG
 62
     7
100
AcDbVertex
100
AcDb2dVertex
 10
61.96641572886604
 20
234.5930880489906
 30
0.0
  0
SEQEND
  5
675
330
672
100
AcDbEntity
  8
BEMAßUNG
  0
POLYLINE
  5
676
330
1F
100
AcDbEntity
  8
BEMAßUNG
 62
     7
100
AcDb2dPolyline
 66
     1
 10
0.0
 20
0.0
 30
0.0
  0
VERTEX
  5
677
330
676
100
AcDbEntity
  8
BEMAßUNG
 62
     7
100
AcDbVertex
100
AcDb2dVertex
 10
63.69464787904162
 20
234.6433864430753
 30
0.0
  0
VERTEX
  5
678
330
676
100
AcDbEntity
  8
BEMAßUNG
 62
     7
100
AcDbVertex
100
AcDb2dVertex
 10
61.58090954406658
 20
234.6433864430753
 30
0.0
  0
SEQEND
  5
679
330
676
100
AcDbEntity
  8
BEMAßUNG
  0
POLYLINE
  5
67A
330
1F
100
AcDbEntity
  8
BEMAßUNG
 62
     7
100
AcDb2dPolyline
 66
     1
 10
0.0
 20
0.0
 30
0.0
  0
VERTEX
  5
67B
330
67A
100
AcDbEntity
  8
BEMAßUNG
 62
     7
100
AcDbVertex
100
AcDb2dVertex
 10
63.69464787904162
 20
234.6942016014827
 30
0.0
  0
VERTEX
  5
67C
330
67A
100
AcDbEntity
  8
BEMAßUNG
 62
     7
100
AcDbVertex
100
AcDb2dVertex
 10
61.19488659494434
 20
234.6942016014827
 30
0.0
  0
SEQEND
  5
67D
330
67A
100
AcDbEntity
  8
BEMAßUNG
  0
POLYLINE
  5
67E
330
1F
100
AcDbEntity
  8
BEMAßUNG
 62
     7
100
AcDb2dPolyline
 66
     1
 10
0.0
 20
0.0
 30
0.0
  0
VERTEX
  5
67F
330
67E
100
AcDbEntity
  8
BEMAßUNG
 62
     7
100
AcDbVertex
100
AcDb2dVertex
 10
63.69464787904162
 20
234.9990925519273
 30
0.0
  0
VERTEX
  5
680
330
67E
100
AcDbEntity
  8
BEMAßUNG
 62
     7
100
AcDbVertex
100
AcDb2dVertex
 10
63.50981850625796
 20
234.9990925519273
 30
0.0
  0
SEQEND
  5
681
330
67E
100
AcDbEntity
  8
BEMAßUNG
  0
POLYLINE
  5
682
330
1F
100
AcDbEntity
  8
BEMAßUNG
 62
     7
100
AcDb2dPolyline
 66
     1
 10
0.0
 20
0.0
 30
0.0
  0
VERTEX
  5
683
330
682
100
AcDbEntity
  8
BEMAßUNG
 62
     7
100
AcDbVertex
100
AcDb2dVertex
 10
63.69464787904162
 20
234.9990925519273
 30
0.0
  0
VERTEX
  5
684
330
682
100
AcDbEntity
  8
BEMAßUNG
 62
     7
100
AcDbVertex
100
AcDb2dVertex
 10
63.50981850625796
 20
234.9990925519273
 30
0.0
  0
SEQEND
  5
685
330
682
100
AcDbEntity
  8
BEMAßUNG
  0
POLYLINE
  5
686
330
1F
100
AcDbEntity
  8
BEMAßUNG
 62
     7
100
AcDb2dPolyline
 66
     1
 10
0.0
 20
0.0
 30
0.0
  0
VERTEX
  5
687
330
686
100
AcDbEntity
  8
BEMAßUNG
 62
     7
100
AcDbVertex
100
AcDb2dVertex
 10
63.69464787904162
 20
234.9482773935199
 30
0.0
  0
VERTEX
  5
688
330
686
100
AcDbEntity
  8
BEMAßUNG
 62
     7
100
AcDbVertex
100
AcDb2dVertex
 10
63.12431232145851
 20
234.9482773935199
 30
0.0
  0
SEQEND
  5
689
330
686
100
AcDbEntity
  8
BEMAßUNG
  0
POLYLINE
  5
68A
330
1F
100
AcDbEntity
  8
BEMAßUNG
 62
     7
100
AcDb2dPolyline
 66
     1
 10
0.0
 20
0.0
 30
0.0
  0
VERTEX
  5
68B
330
68A
100
AcDbEntity
  8
BEMAßUNG
 62
     7
100
AcDbVertex
100
AcDb2dVertex
 10
63.69464787904162
 20
234.8974622351124
 30
0.0
  0
VERTEX
  5
68C
330
68A
100
AcDbEntity
  8
BEMAßUNG
 62
     7
100
AcDbVertex
100
AcDb2dVertex
 10
62.73828937233626
 20
234.8974622351124
 30
0.0
  0
SEQEND
  5
68D
330
68A
100
AcDbEntity
  8
BEMAßUNG
  0
POLYLINE
  5
68E
330
1F
100
AcDbEntity
  8
BEMAßUNG
 62
     7
100
AcDb2dPolyline
 66
     1
 10
0.0
 20
0.0
 30
0.0
  0
VERTEX
  5
68F
330
68E
100
AcDbEntity
  8
BEMAßUNG
 62
     7
100
AcDbVertex
100
AcDb2dVertex
 10
63.69464787904162
 20
234.846647076705
 30
0.0
  0
VERTEX
  5
690
330
68E
100
AcDbEntity
  8
BEMAßUNG
 62
     7
100
AcDbVertex
100
AcDb2dVertex
 10
62.35243867798828
 20
234.846647076705
 30
0.0
  0
SEQEND
  5
691
330
68E
100
AcDbEntity
  8
BEMAßUNG
  0
POLYLINE
  5
692
330
1F
100
AcDbEntity
  8
BEMAßUNG
 62
     7
100
AcDb2dPolyline
 66
     1
 10
0.0
 20
0.0
 30
0.0
  0
VERTEX
  5
693
330
692
100
AcDbEntity
  8
BEMAßUNG
 62
     7
100
AcDbVertex
100
AcDb2dVertex
 10
63.69464787904162
 20
234.7958319182976
 30
0.0
  0
VERTEX
  5
694
330
692
100
AcDbEntity
  8
BEMAßUNG
 62
     7
100
AcDbVertex
100
AcDb2dVertex
 10
61.96641572886604
 20
234.7958319182976
 30
0.0
  0
SEQEND
  5
695
330
692
100
AcDbEntity
  8
BEMAßUNG
  0
POLYLINE
  5
696
330
1F
100
AcDbEntity
  8
BEMAßUNG
 62
     7
100
AcDb2dPolyline
 66
     1
 10
0.0
 20
0.0
 30
0.0
  0
VERTEX
  5
697
330
696
100
AcDbEntity
  8
BEMAßUNG
 62
     7
100
AcDbVertex
100
AcDb2dVertex
 10
63.69464787904162
 20
234.7450167598901
 30
0.0
  0
VERTEX
  5
698
330
696
100
AcDbEntity
  8
BEMAßUNG
 62
     7
100
AcDbVertex
100
AcDb2dVertex
 10
61.58090954406658
 20
234.7450167598901
 30
0.0
  0
SEQEND
  5
699
330
696
100
AcDbEntity
  8
BEMAßUNG
  0
POLYLINE
  5
69A
330
1F
100
AcDbEntity
  8
BEMAßUNG
 62
     7
100
AcDb2dPolyline
 66
     1
 10
0.0
 20
0.0
 30
0.0
  0
VERTEX
  5
69B
330
69A
100
AcDbEntity
  8
BEMAßUNG
 62
     7
100
AcDbVertex
100
AcDb2dVertex
 10
63.69464787904162
 20
234.6942016014827
 30
0.0
  0
VERTEX
  5
69C
330
69A
100
AcDbEntity
  8
BEMAßUNG
 62
     7
100
AcDbVertex
100
AcDb2dVertex
 10
61.19488659494434
 20
234.6942016014827
 30
0.0
  0
SEQEND
  5
69D
330
69A
100
AcDbEntity
  8
BEMAßUNG
  0
POLYLINE
  5
69E
330
1F
100
AcDbEntity
  8
BEMAßUNG
 62
     7
100
AcDb2dPolyline
 66
     1
 10
0.0
 20
0.0
 30
0.0
  0
VERTEX
  5
69F
330
69E
100
AcDbEntity
  8
BEMAßUNG
 62
     7
100
AcDbVertex
100
AcDb2dVertex
 10
66.19492592746168
 20
214.6942165261876
 30
0.0
  0
VERTEX
  5
6A0
330
69E
100
AcDbEntity
  8
BEMAßUNG
 62
     7
100
AcDbVertex
100
AcDb2dVertex
 10
66.19492592746168
 20
226.6946898847326
 30
0.0
  0
SEQEND
  5
6A1
330
69E
100
AcDbEntity
  8
BEMAßUNG
  0
POLYLINE
  5
6A2
330
1F
100
AcDbEntity
  8
BEMAßUNG
 62
     7
100
AcDb2dPolyline
 66
     1
 10
0.0
 20
0.0
 30
0.0
  0
VERTEX
  5
6A3
330
6A2
100
AcDbEntity
  8
BEMAßUNG
 62
     7
100
AcDbVertex
100
AcDb2dVertex
 10
78.19488252168392
 20
214.6942165261876
 30
0.0
  0
VERTEX
  5
6A4
330
6A2
100
AcDbEntity
  8
BEMAßUNG
 62
     7
100
AcDbVertex
100
AcDb2dVertex
 10
78.19488252168392
 20
226.6946898847326
 30
0.0
  0
SEQEND
  5
6A5
330
6A2
100
AcDbEntity
  8
BEMAßUNG
  0
POLYLINE
  5
6A6
330
1F
100
AcDbEntity
  8
BEMAßUNG
 62
     7
100
AcDb2dPolyline
 66
     1
 10
0.0
 20
0.0
 30
0.0
  0
VERTEX
  5
6A7
330
6A6
100
AcDbEntity
  8
BEMAßUNG
 62
     7
100
AcDbVertex
100
AcDb2dVertex
 10
66.19492592746168
 20
224.6942951912223
 30
0.0
  0
VERTEX
  5
6A8
330
6A6
100
AcDbEntity
  8
BEMAßUNG
 62
     7
100
AcDbVertex
100
AcDb2dVertex
 10
94.69688989603064
 20
224.6942951912223
 30
0.0
  0
SEQEND
  5
6A9
330
6A6
100
AcDbEntity
  8
BEMAßUNG
  0
POLYLINE
  5
6AA
330
1F
100
AcDbEntity
  8
BEMAßUNG
 62
     7
100
AcDb2dPolyline
 66
     1
 10
0.0
 20
0.0
 30
0.0
  0
VERTEX
  5
6AB
330
6AA
100
AcDbEntity
  8
BEMAßUNG
 62
     7
100
AcDbVertex
100
AcDb2dVertex
 10
66.19492592746168
 20
224.6942951912223
 30
0.0
  0
VERTEX
  5
6AC
330
6AA
100
AcDbEntity
  8
BEMAßUNG
 62
     7
100
AcDbVertex
100
AcDb2dVertex
 10
68.69468721155897
 20
224.3652885723809
 30
0.0
  0
VERTEX
  5
6AD
330
6AA
100
AcDbEntity
  8
BEMAßUNG
 62
     7
100
AcDbVertex
100
AcDb2dVertex
 10
68.69468721155897
 20
225.0239908291607
 30
0.0
  0
VERTEX
  5
6AE
330
6AA
100
AcDbEntity
  8
BEMAßUNG
 62
     7
100
AcDbVertex
100
AcDb2dVertex
 10
66.19492592746168
 20
224.6942951912223
 30
0.0
  0
SEQEND
  5
6AF
330
6AA
100
AcDbEntity
  8
BEMAßUNG
  0
POLYLINE
  5
6B0
330
1F
100
AcDbEntity
  8
BEMAßUNG
 62
     7
100
AcDb2dPolyline
 66
     1
 10
0.0
 20
0.0
 30
0.0
  0
VERTEX
  5
6B1
330
6B0
100
AcDbEntity
  8
BEMAßUNG
 62
     7
100
AcDbVertex
100
AcDb2dVertex
 10
68.69468721155897
 20
224.3899210051004
 30
0.0
  0
VERTEX
  5
6B2
330
6B0
100
AcDbEntity
  8
BEMAßUNG
 62
     7
100
AcDbVertex
100
AcDb2dVertex
 10
68.50985783877532
 20
224.3899210051004
 30
0.0
  0
SEQEND
  5
6B3
330
6B0
100
AcDbEntity
  8
BEMAßUNG
  0
POLYLINE
  5
6B4
330
1F
100
AcDbEntity
  8
BEMAßUNG
 62
     7
100
AcDb2dPolyline
 66
     1
 10
0.0
 20
0.0
 30
0.0
  0
VERTEX
  5
6B5
330
6B4
100
AcDbEntity
  8
BEMAßUNG
 62
     7
100
AcDbVertex
100
AcDb2dVertex
 10
68.69468721155897
 20
224.3899210051004
 30
0.0
  0
VERTEX
  5
6B6
330
6B4
100
AcDbEntity
  8
BEMAßUNG
 62
     7
100
AcDbVertex
100
AcDb2dVertex
 10
68.50985783877532
 20
224.3899210051004
 30
0.0
  0
SEQEND
  5
6B7
330
6B4
100
AcDbEntity
  8
BEMAßUNG
  0
POLYLINE
  5
6B8
330
1F
100
AcDbEntity
  8
BEMAßUNG
 62
     7
100
AcDb2dPolyline
 66
     1
 10
0.0
 20
0.0
 30
0.0
  0
VERTEX
  5
6B9
330
6B8
100
AcDbEntity
  8
BEMAßUNG
 62
     7
100
AcDbVertex
100
AcDb2dVertex
 10
68.69468721155897
 20
224.4407361635079
 30
0.0
  0
VERTEX
  5
6BA
330
6B8
100
AcDbEntity
  8
BEMAßUNG
 62
     7
100
AcDbVertex
100
AcDb2dVertex
 10
68.1241793992016
 20
224.4407361635079
 30
0.0
  0
SEQEND
  5
6BB
330
6B8
100
AcDbEntity
  8
BEMAßUNG
  0
POLYLINE
  5
6BC
330
1F
100
AcDbEntity
  8
BEMAßUNG
 62
     7
100
AcDb2dPolyline
 66
     1
 10
0.0
 20
0.0
 30
0.0
  0
VERTEX
  5
6BD
330
6BC
100
AcDbEntity
  8
BEMAßUNG
 62
     7
100
AcDbVertex
100
AcDb2dVertex
 10
68.69468721155897
 20
224.4915513219153
 30
0.0
  0
VERTEX
  5
6BE
330
6BC
100
AcDbEntity
  8
BEMAßUNG
 62
     7
100
AcDbVertex
100
AcDb2dVertex
 10
67.73832870485361
 20
224.4915513219153
 30
0.0
  0
SEQEND
  5
6BF
330
6BC
100
AcDbEntity
  8
BEMAßUNG
  0
POLYLINE
  5
6C0
330
1F
100
AcDbEntity
  8
BEMAßUNG
 62
     7
100
AcDb2dPolyline
 66
     1
 10
0.0
 20
0.0
 30
0.0
  0
VERTEX
  5
6C1
330
6C0
100
AcDbEntity
  8
BEMAßUNG
 62
     7
100
AcDbVertex
100
AcDb2dVertex
 10
68.69468721155897
 20
224.5423664803228
 30
0.0
  0
VERTEX
  5
6C2
330
6C0
100
AcDbEntity
  8
BEMAßUNG
 62
     7
100
AcDbVertex
100
AcDb2dVertex
 10
67.35230575573136
 20
224.5423664803228
 30
0.0
  0
SEQEND
  5
6C3
330
6C0
100
AcDbEntity
  8
BEMAßUNG
  0
POLYLINE
  5
6C4
330
1F
100
AcDbEntity
  8
BEMAßUNG
 62
     7
100
AcDb2dPolyline
 66
     1
 10
0.0
 20
0.0
 30
0.0
  0
VERTEX
  5
6C5
330
6C4
100
AcDbEntity
  8
BEMAßUNG
 62
     7
100
AcDbVertex
100
AcDb2dVertex
 10
68.69468721155897
 20
224.5931816387302
 30
0.0
  0
VERTEX
  5
6C6
330
6C4
100
AcDbEntity
  8
BEMAßUNG
 62
     7
100
AcDbVertex
100
AcDb2dVertex
 10
66.96645506138339
 20
224.5931816387302
 30
0.0
  0
SEQEND
  5
6C7
330
6C4
100
AcDbEntity
  8
BEMAßUNG
  0
POLYLINE
  5
6C8
330
1F
100
AcDbEntity
  8
BEMAßUNG
 62
     7
100
AcDb2dPolyline
 66
     1
 10
0.0
 20
0.0
 30
0.0
  0
VERTEX
  5
6C9
330
6C8
100
AcDbEntity
  8
BEMAßUNG
 62
     7
100
AcDbVertex
100
AcDb2dVertex
 10
68.69468721155897
 20
224.6436522875891
 30
0.0
  0
VERTEX
  5
6CA
330
6C8
100
AcDbEntity
  8
BEMAßUNG
 62
     7
100
AcDbVertex
100
AcDb2dVertex
 10
66.58077662180968
 20
224.6436522875891
 30
0.0
  0
SEQEND
  5
6CB
330
6C8
100
AcDbEntity
  8
BEMAßUNG
  0
POLYLINE
  5
6CC
330
1F
100
AcDbEntity
  8
BEMAßUNG
 62
     7
100
AcDb2dPolyline
 66
     1
 10
0.0
 20
0.0
 30
0.0
  0
VERTEX
  5
6CD
330
6CC
100
AcDbEntity
  8
BEMAßUNG
 62
     7
100
AcDbVertex
100
AcDb2dVertex
 10
68.69468721155897
 20
224.6942951912223
 30
0.0
  0
VERTEX
  5
6CE
330
6CC
100
AcDbEntity
  8
BEMAßUNG
 62
     7
100
AcDbVertex
100
AcDb2dVertex
 10
66.19492592746168
 20
224.6942951912223
 30
0.0
  0
SEQEND
  5
6CF
330
6CC
100
AcDbEntity
  8
BEMAßUNG
  0
POLYLINE
  5
6D0
330
1F
100
AcDbEntity
  8
BEMAßUNG
 62
     7
100
AcDb2dPolyline
 66
     1
 10
0.0
 20
0.0
 30
0.0
  0
VERTEX
  5
6D1
330
6D0
100
AcDbEntity
  8
BEMAßUNG
 62
     7
100
AcDbVertex
100
AcDb2dVertex
 10
68.69468721155897
 20
224.9991861416669
 30
0.0
  0
VERTEX
  5
6D2
330
6D0
100
AcDbEntity
  8
BEMAßUNG
 62
     7
100
AcDbVertex
100
AcDb2dVertex
 10
68.50985783877532
 20
224.9991861416669
 30
0.0
  0
SEQEND
  5
6D3
330
6D0
100
AcDbEntity
  8
BEMAßUNG
  0
POLYLINE
  5
6D4
330
1F
100
AcDbEntity
  8
BEMAßUNG
 62
     7
100
AcDb2dPolyline
 66
     1
 10
0.0
 20
0.0
 30
0.0
  0
VERTEX
  5
6D5
330
6D4
100
AcDbEntity
  8
BEMAßUNG
 62
     7
100
AcDbVertex
100
AcDb2dVertex
 10
68.69468721155897
 20
224.9991861416669
 30
0.0
  0
VERTEX
  5
6D6
330
6D4
100
AcDbEntity
  8
BEMAßUNG
 62
     7
100
AcDbVertex
100
AcDb2dVertex
 10
68.50985783877532
 20
224.9991861416669
 30
0.0
  0
SEQEND
  5
6D7
330
6D4
100
AcDbEntity
  8
BEMAßUNG
  0
POLYLINE
  5
6D8
330
1F
100
AcDbEntity
  8
BEMAßUNG
 62
     7
100
AcDb2dPolyline
 66
     1
 10
0.0
 20
0.0
 30
0.0
  0
VERTEX
  5
6D9
330
6D8
100
AcDbEntity
  8
BEMAßUNG
 62
     7
100
AcDbVertex
100
AcDb2dVertex
 10
68.69468721155897
 20
224.9483709832595
 30
0.0
  0
VERTEX
  5
6DA
330
6D8
100
AcDbEntity
  8
BEMAßUNG
 62
     7
100
AcDbVertex
100
AcDb2dVertex
 10
68.1241793992016
 20
224.9483709832595
 30
0.0
  0
SEQEND
  5
6DB
330
6D8
100
AcDbEntity
  8
BEMAßUNG
  0
POLYLINE
  5
6DC
330
1F
100
AcDbEntity
  8
BEMAßUNG
 62
     7
100
AcDb2dPolyline
 66
     1
 10
0.0
 20
0.0
 30
0.0
  0
VERTEX
  5
6DD
330
6DC
100
AcDbEntity
  8
BEMAßUNG
 62
     7
100
AcDbVertex
100
AcDb2dVertex
 10
68.69468721155897
 20
224.897555824852
 30
0.0
  0
VERTEX
  5
6DE
330
6DC
100
AcDbEntity
  8
BEMAßUNG
 62
     7
100
AcDbVertex
100
AcDb2dVertex
 10
67.73832870485361
 20
224.897555824852
 30
0.0
  0
SEQEND
  5
6DF
330
6DC
100
AcDbEntity
  8
BEMAßUNG
  0
POLYLINE
  5
6E0
330
1F
100
AcDbEntity
  8
BEMAßUNG
 62
     7
100
AcDb2dPolyline
 66
     1
 10
0.0
 20
0.0
 30
0.0
  0
VERTEX
  5
6E1
330
6E0
100
AcDbEntity
  8
BEMAßUNG
 62
     7
100
AcDbVertex
100
AcDb2dVertex
 10
68.69468721155897
 20
224.8469129212188
 30
0.0
  0
VERTEX
  5
6E2
330
6E0
100
AcDbEntity
  8
BEMAßUNG
 62
     7
100
AcDbVertex
100
AcDb2dVertex
 10
67.35230575573136
 20
224.8469129212188
 30
0.0
  0
SEQEND
  5
6E3
330
6E0
100
AcDbEntity
  8
BEMAßUNG
  0
POLYLINE
  5
6E4
330
1F
100
AcDbEntity
  8
BEMAßUNG
 62
     7
100
AcDb2dPolyline
 66
     1
 10
0.0
 20
0.0
 30
0.0
  0
VERTEX
  5
6E5
330
6E4
100
AcDbEntity
  8
BEMAßUNG
 62
     7
100
AcDbVertex
100
AcDb2dVertex
 10
68.69468721155897
 20
224.7959255080371
 30
0.0
  0
VERTEX
  5
6E6
330
6E4
100
AcDbEntity
  8
BEMAßUNG
 62
     7
100
AcDbVertex
100
AcDb2dVertex
 10
66.96645506138339
 20
224.7959255080371
 30
0.0
  0
SEQEND
  5
6E7
330
6E4
100
AcDbEntity
  8
BEMAßUNG
  0
POLYLINE
  5
6E8
330
1F
100
AcDbEntity
  8
BEMAßUNG
 62
     7
100
AcDb2dPolyline
 66
     1
 10
0.0
 20
0.0
 30
0.0
  0
VERTEX
  5
6E9
330
6E8
100
AcDbEntity
  8
BEMAßUNG
 62
     7
100
AcDbVertex
100
AcDb2dVertex
 10
68.69468721155897
 20
224.745282604404
 30
0.0
  0
VERTEX
  5
6EA
330
6E8
100
AcDbEntity
  8
BEMAßUNG
 62
     7
100
AcDbVertex
100
AcDb2dVertex
 10
66.58077662180968
 20
224.745282604404
 30
0.0
  0
SEQEND
  5
6EB
330
6E8
100
AcDbEntity
  8
BEMAßUNG
  0
POLYLINE
  5
6EC
330
1F
100
AcDbEntity
  8
BEMAßUNG
 62
     7
100
AcDb2dPolyline
 66
     1
 10
0.0
 20
0.0
 30
0.0
  0
VERTEX
  5
6ED
330
6EC
100
AcDbEntity
  8
BEMAßUNG
 62
     7
100
AcDbVertex
100
AcDb2dVertex
 10
68.69468721155897
 20
224.6942951912223
 30
0.0
  0
VERTEX
  5
6EE
330
6EC
100
AcDbEntity
  8
BEMAßUNG
 62
     7
100
AcDbVertex
100
AcDb2dVertex
 10
66.19492592746168
 20
224.6942951912223
 30
0.0
  0
SEQEND
  5
6EF
330
6EC
100
AcDbEntity
  8
BEMAßUNG
  0
POLYLINE
  5
6F0
330
1F
100
AcDbEntity
  8
BEMAßUNG
 62
     7
100
AcDb2dPolyline
 66
     1
 10
0.0
 20
0.0
 30
0.0
  0
VERTEX
  5
6F1
330
6F0
100
AcDbEntity
  8
BEMAßUNG
 62
     7
100
AcDbVertex
100
AcDb2dVertex
 10
78.19488252168392
 20
224.6942951912223
 30
0.0
  0
VERTEX
  5
6F2
330
6F0
100
AcDbEntity
  8
BEMAßUNG
 62
     7
100
AcDbVertex
100
AcDb2dVertex
 10
75.69477672803812
 20
225.0239908291607
 30
0.0
  0
VERTEX
  5
6F3
330
6F0
100
AcDbEntity
  8
BEMAßUNG
 62
     7
100
AcDbVertex
100
AcDb2dVertex
 10
75.69477672803812
 20
224.3652885723809
 30
0.0
  0
VERTEX
  5
6F4
330
6F0
100
AcDbEntity
  8
BEMAßUNG
 62
     7
100
AcDbVertex
100
AcDb2dVertex
 10
78.19488252168392
 20
224.6942951912223
 30
0.0
  0
SEQEND
  5
6F5
330
6F0
100
AcDbEntity
  8
BEMAßUNG
  0
POLYLINE
  5
6F6
330
1F
100
AcDbEntity
  8
BEMAßUNG
 62
     7
100
AcDb2dPolyline
 66
     1
 10
0.0
 20
0.0
 30
0.0
  0
VERTEX
  5
6F7
330
6F6
100
AcDbEntity
  8
BEMAßUNG
 62
     7
100
AcDbVertex
100
AcDb2dVertex
 10
75.69477672803812
 20
224.9991861416669
 30
0.0
  0
VERTEX
  5
6F8
330
6F6
100
AcDbEntity
  8
BEMAßUNG
 62
     7
100
AcDbVertex
100
AcDb2dVertex
 10
75.87960610082177
 20
224.9991861416669
 30
0.0
  0
SEQEND
  5
6F9
330
6F6
100
AcDbEntity
  8
BEMAßUNG
  0
POLYLINE
  5
6FA
330
1F
100
AcDbEntity
  8
BEMAßUNG
 62
     7
100
AcDb2dPolyline
 66
     1
 10
0.0
 20
0.0
 30
0.0
  0
VERTEX
  5
6FB
330
6FA
100
AcDbEntity
  8
BEMAßUNG
 62
     7
100
AcDbVertex
100
AcDb2dVertex
 10
75.69477672803812
 20
224.9991861416669
 30
0.0
  0
VERTEX
  5
6FC
330
6FA
100
AcDbEntity
  8
BEMAßUNG
 62
     7
100
AcDbVertex
100
AcDb2dVertex
 10
75.87960610082177
 20
224.9991861416669
 30
0.0
  0
SEQEND
  5
6FD
330
6FA
100
AcDbEntity
  8
BEMAßUNG
  0
POLYLINE
  5
6FE
330
1F
100
AcDbEntity
  8
BEMAßUNG
 62
     7
100
AcDb2dPolyline
 66
     1
 10
0.0
 20
0.0
 30
0.0
  0
VERTEX
  5
6FF
330
6FE
100
AcDbEntity
  8
BEMAßUNG
 62
     7
100
AcDbVertex
100
AcDb2dVertex
 10
75.69477672803812
 20
224.9483709832595
 30
0.0
  0
VERTEX
  5
700
330
6FE
100
AcDbEntity
  8
BEMAßUNG
 62
     7
100
AcDbVertex
100
AcDb2dVertex
 10
76.26562904994401
 20
224.9483709832595
 30
0.0
  0
SEQEND
  5
701
330
6FE
100
AcDbEntity
  8
BEMAßUNG
  0
POLYLINE
  5
702
330
1F
100
AcDbEntity
  8
BEMAßUNG
 62
     7
100
AcDb2dPolyline
 66
     1
 10
0.0
 20
0.0
 30
0.0
  0
VERTEX
  5
703
330
702
100
AcDbEntity
  8
BEMAßUNG
 62
     7
100
AcDbVertex
100
AcDb2dVertex
 10
75.69477672803812
 20
224.897555824852
 30
0.0
  0
VERTEX
  5
704
330
702
100
AcDbEntity
  8
BEMAßUNG
 62
     7
100
AcDbVertex
100
AcDb2dVertex
 10
76.65147974429199
 20
224.897555824852
 30
0.0
  0
SEQEND
  5
705
330
702
100
AcDbEntity
  8
BEMAßUNG
  0
POLYLINE
  5
706
330
1F
100
AcDbEntity
  8
BEMAßUNG
 62
     7
100
AcDb2dPolyline
 66
     1
 10
0.0
 20
0.0
 30
0.0
  0
VERTEX
  5
707
330
706
100
AcDbEntity
  8
BEMAßUNG
 62
     7
100
AcDbVertex
100
AcDb2dVertex
 10
75.69477672803812
 20
224.8469129212188
 30
0.0
  0
VERTEX
  5
708
330
706
100
AcDbEntity
  8
BEMAßUNG
 62
     7
100
AcDbVertex
100
AcDb2dVertex
 10
77.03715818386571
 20
224.8469129212188
 30
0.0
  0
SEQEND
  5
709
330
706
100
AcDbEntity
  8
BEMAßUNG
  0
POLYLINE
  5
70A
330
1F
100
AcDbEntity
  8
BEMAßUNG
 62
     7
100
AcDb2dPolyline
 66
     1
 10
0.0
 20
0.0
 30
0.0
  0
VERTEX
  5
70B
330
70A
100
AcDbEntity
  8
BEMAßUNG
 62
     7
100
AcDbVertex
100
AcDb2dVertex
 10
75.69477672803812
 20
224.7959255080371
 30
0.0
  0
VERTEX
  5
70C
330
70A
100
AcDbEntity
  8
BEMAßUNG
 62
     7
100
AcDbVertex
100
AcDb2dVertex
 10
77.4230088782137
 20
224.7959255080371
 30
0.0
  0
SEQEND
  5
70D
330
70A
100
AcDbEntity
  8
BEMAßUNG
  0
POLYLINE
  5
70E
330
1F
100
AcDbEntity
  8
BEMAßUNG
 62
     7
100
AcDb2dPolyline
 66
     1
 10
0.0
 20
0.0
 30
0.0
  0
VERTEX
  5
70F
330
70E
100
AcDbEntity
  8
BEMAßUNG
 62
     7
100
AcDbVertex
100
AcDb2dVertex
 10
75.69477672803812
 20
224.745282604404
 30
0.0
  0
VERTEX
  5
710
330
70E
100
AcDbEntity
  8
BEMAßUNG
 62
     7
100
AcDbVertex
100
AcDb2dVertex
 10
77.80903182733594
 20
224.745282604404
 30
0.0
  0
SEQEND
  5
711
330
70E
100
AcDbEntity
  8
BEMAßUNG
  0
POLYLINE
  5
712
330
1F
100
AcDbEntity
  8
BEMAßUNG
 62
     7
100
AcDb2dPolyline
 66
     1
 10
0.0
 20
0.0
 30
0.0
  0
VERTEX
  5
713
330
712
100
AcDbEntity
  8
BEMAßUNG
 62
     7
100
AcDbVertex
100
AcDb2dVertex
 10
75.69477672803812
 20
224.6942951912223
 30
0.0
  0
VERTEX
  5
714
330
712
100
AcDbEntity
  8
BEMAßUNG
 62
     7
100
AcDbVertex
100
AcDb2dVertex
 10
78.19488252168392
 20
224.6942951912223
 30
0.0
  0
SEQEND
  5
715
330
712
100
AcDbEntity
  8
BEMAßUNG
  0
POLYLINE
  5
716
330
1F
100
AcDbEntity
  8
BEMAßUNG
 62
     7
100
AcDb2dPolyline
 66
     1
 10
0.0
 20
0.0
 30
0.0
  0
VERTEX
  5
717
330
716
100
AcDbEntity
  8
BEMAßUNG
 62
     7
100
AcDbVertex
100
AcDb2dVertex
 10
75.69477672803812
 20
224.3899210051004
 30
0.0
  0
VERTEX
  5
718
330
716
100
AcDbEntity
  8
BEMAßUNG
 62
     7
100
AcDbVertex
100
AcDb2dVertex
 10
75.87960610082177
 20
224.3899210051004
 30
0.0
  0
SEQEND
  5
719
330
716
100
AcDbEntity
  8
BEMAßUNG
  0
POLYLINE
  5
71A
330
1F
100
AcDbEntity
  8
BEMAßUNG
 62
     7
100
AcDb2dPolyline
 66
     1
 10
0.0
 20
0.0
 30
0.0
  0
VERTEX
  5
71B
330
71A
100
AcDbEntity
  8
BEMAßUNG
 62
     7
100
AcDbVertex
100
AcDb2dVertex
 10
75.69477672803812
 20
224.3899210051004
 30
0.0
  0
VERTEX
  5
71C
330
71A
100
AcDbEntity
  8
BEMAßUNG
 62
     7
100
AcDbVertex
100
AcDb2dVertex
 10
75.87960610082177
 20
224.3899210051004
 30
0.0
  0
SEQEND
  5
71D
330
71A
100
AcDbEntity
  8
BEMAßUNG
  0
POLYLINE
  5
71E
330
1F
100
AcDbEntity
  8
BEMAßUNG
 62
     7
100
AcDb2dPolyline
 66
     1
 10
0.0
 20
0.0
 30
0.0
  0
VERTEX
  5
71F
330
71E
100
AcDbEntity
  8
BEMAßUNG
 62
     7
100
AcDbVertex
100
AcDb2dVertex
 10
75.69477672803812
 20
224.4407361635079
 30
0.0
  0
VERTEX
  5
720
330
71E
100
AcDbEntity
  8
BEMAßUNG
 62
     7
100
AcDbVertex
100
AcDb2dVertex
 10
76.26562904994401
 20
224.4407361635079
 30
0.0
  0
SEQEND
  5
721
330
71E
100
AcDbEntity
  8
BEMAßUNG
  0
POLYLINE
  5
722
330
1F
100
AcDbEntity
  8
BEMAßUNG
 62
     7
100
AcDb2dPolyline
 66
     1
 10
0.0
 20
0.0
 30
0.0
  0
VERTEX
  5
723
330
722
100
AcDbEntity
  8
BEMAßUNG
 62
     7
100
AcDbVertex
100
AcDb2dVertex
 10
75.69477672803812
 20
224.4915513219153
 30
0.0
  0
VERTEX
  5
724
330
722
100
AcDbEntity
  8
BEMAßUNG
 62
     7
100
AcDbVertex
100
AcDb2dVertex
 10
76.65147974429199
 20
224.4915513219153
 30
0.0
  0
SEQEND
  5
725
330
722
100
AcDbEntity
  8
BEMAßUNG
  0
POLYLINE
  5
726
330
1F
100
AcDbEntity
  8
BEMAßUNG
 62
     7
100
AcDb2dPolyline
 66
     1
 10
0.0
 20
0.0
 30
0.0
  0
VERTEX
  5
727
330
726
100
AcDbEntity
  8
BEMAßUNG
 62
     7
100
AcDbVertex
100
AcDb2dVertex
 10
75.69477672803812
 20
224.5423664803228
 30
0.0
  0
VERTEX
  5
728
330
726
100
AcDbEntity
  8
BEMAßUNG
 62
     7
100
AcDbVertex
100
AcDb2dVertex
 10
77.03715818386571
 20
224.5423664803228
 30
0.0
  0
SEQEND
  5
729
330
726
100
AcDbEntity
  8
BEMAßUNG
  0
POLYLINE
  5
72A
330
1F
100
AcDbEntity
  8
BEMAßUNG
 62
     7
100
AcDb2dPolyline
 66
     1
 10
0.0
 20
0.0
 30
0.0
  0
VERTEX
  5
72B
330
72A
100
AcDbEntity
  8
BEMAßUNG
 62
     7
100
AcDbVertex
100
AcDb2dVertex
 10
75.69477672803812
 20
224.5931816387302
 30
0.0
  0
VERTEX
  5
72C
330
72A
100
AcDbEntity
  8
BEMAßUNG
 62
     7
100
AcDbVertex
100
AcDb2dVertex
 10
77.4230088782137
 20
224.5931816387302
 30
0.0
  0
SEQEND
  5
72D
330
72A
100
AcDbEntity
  8
BEMAßUNG
  0
POLYLINE
  5
72E
330
1F
100
AcDbEntity
  8
BEMAßUNG
 62
     7
100
AcDb2dPolyline
 66
     1
 10
0.0
 20
0.0
 30
0.0
  0
VERTEX
  5
72F
330
72E
100
AcDbEntity
  8
BEMAßUNG
 62
     7
100
AcDbVertex
100
AcDb2dVertex
 10
75.69477672803812
 20
224.6436522875891
 30
0.0
  0
VERTEX
  5
730
330
72E
100
AcDbEntity
  8
BEMAßUNG
 62
     7
100
AcDbVertex
100
AcDb2dVertex
 10
77.80903182733594
 20
224.6436522875891
 30
0.0
  0
SEQEND
  5
731
330
72E
100
AcDbEntity
  8
BEMAßUNG
  0
POLYLINE
  5
732
330
1F
100
AcDbEntity
  8
BEMAßUNG
 62
     7
100
AcDb2dPolyline
 66
     1
 10
0.0
 20
0.0
 30
0.0
  0
VERTEX
  5
733
330
732
100
AcDbEntity
  8
BEMAßUNG
 62
     7
100
AcDbVertex
100
AcDb2dVertex
 10
75.69477672803812
 20
224.6942951912223
 30
0.0
  0
VERTEX
  5
734
330
732
100
AcDbEntity
  8
BEMAßUNG
 62
     7
100
AcDbVertex
100
AcDb2dVertex
 10
78.19488252168392
 20
224.6942951912223
 30
0.0
  0
SEQEND
  5
735
330
732
100
AcDbEntity
  8
BEMAßUNG
  0
POLYLINE
  5
736
330
1F
100
AcDbEntity
  8
BEMAßUNG
 62
     7
100
AcDb2dPolyline
 66
     1
 10
0.0
 20
0.0
 30
0.0
  0
VERTEX
  5
737
330
736
100
AcDbEntity
  8
BEMAßUNG
 62
     7
100
AcDbVertex
100
AcDb2dVertex
 10
89.1949001513124
 20
207.694471519257
 30
0.0
  0
VERTEX
  5
738
330
736
100
AcDbEntity
  8
BEMAßUNG
 62
     7
100
AcDbVertex
100
AcDb2dVertex
 10
101.1946844907604
 20
207.694471519257
 30
0.0
  0
SEQEND
  5
739
330
736
100
AcDbEntity
  8
BEMAßUNG
  0
POLYLINE
  5
73A
330
1F
100
AcDbEntity
  8
BEMAßUNG
 62
     7
100
AcDb2dPolyline
 66
     1
 10
0.0
 20
0.0
 30
0.0
  0
VERTEX
  5
73B
330
73A
100
AcDbEntity
  8
BEMAßUNG
 62
     7
100
AcDbVertex
100
AcDb2dVertex
 10
89.1949001513124
 20
201.6943209673716
 30
0.0
  0
VERTEX
  5
73C
330
73A
100
AcDbEntity
  8
BEMAßUNG
 62
     7
100
AcDbVertex
100
AcDb2dVertex
 10
101.1946844907604
 20
201.6943209673716
 30
0.0
  0
SEQEND
  5
73D
330
73A
100
AcDbEntity
  8
BEMAßUNG
  0
POLYLINE
  5
73E
330
1F
100
AcDbEntity
  8
BEMAßUNG
 62
     7
100
AcDb2dPolyline
 66
     1
 10
0.0
 20
0.0
 30
0.0
  0
VERTEX
  5
73F
330
73E
100
AcDbEntity
  8
BEMAßUNG
 62
     7
100
AcDbVertex
100
AcDb2dVertex
 10
99.19480656157283
 20
186.7567314528768
 30
0.0
  0
VERTEX
  5
740
330
73E
100
AcDbEntity
  8
BEMAßUNG
 62
     7
100
AcDbVertex
100
AcDb2dVertex
 10
99.19480656157283
 20
216.4443250326945
 30
0.0
  0
SEQEND
  5
741
330
73E
100
AcDbEntity
  8
BEMAßUNG
  0
POLYLINE
  5
742
330
1F
100
AcDbEntity
  8
BEMAßUNG
 62
     7
100
AcDb2dPolyline
 66
     1
 10
0.0
 20
0.0
 30
0.0
  0
VERTEX
  5
743
330
742
100
AcDbEntity
  8
BEMAßUNG
 62
     7
100
AcDbVertex
100
AcDb2dVertex
 10
99.19480656157283
 20
207.694471519257
 30
0.0
  0
VERTEX
  5
744
330
742
100
AcDbEntity
  8
BEMAßUNG
 62
     7
100
AcDbVertex
100
AcDb2dVertex
 10
99.52398543518845
 20
210.1942328033542
 30
0.0
  0
VERTEX
  5
745
330
742
100
AcDbEntity
  8
BEMAßUNG
 62
     7
100
AcDbVertex
100
AcDb2dVertex
 10
98.86597219750573
 20
210.1942328033542
 30
0.0
  0
VERTEX
  5
746
330
742
100
AcDbEntity
  8
BEMAßUNG
 62
     7
100
AcDbVertex
100
AcDb2dVertex
 10
99.19480656157283
 20
207.694471519257
 30
0.0
  0
SEQEND
  5
747
330
742
100
AcDbEntity
  8
BEMAßUNG
  0
POLYLINE
  5
748
330
1F
100
AcDbEntity
  8
BEMAßUNG
 62
     7
100
AcDb2dPolyline
 66
     1
 10
0.0
 20
0.0
 30
0.0
  0
VERTEX
  5
749
330
748
100
AcDbEntity
  8
BEMAßUNG
 62
     7
100
AcDbVertex
100
AcDb2dVertex
 10
99.4998697667917
 20
210.1942328033542
 30
0.0
  0
VERTEX
  5
74A
330
748
100
AcDbEntity
  8
BEMAßUNG
 62
     7
100
AcDbVertex
100
AcDb2dVertex
 10
99.4998697667917
 20
210.0095756853448
 30
0.0
  0
SEQEND
  5
74B
330
748
100
AcDbEntity
  8
BEMAßUNG
  0
POLYLINE
  5
74C
330
1F
100
AcDbEntity
  8
BEMAßUNG
 62
     7
100
AcDb2dPolyline
 66
     1
 10
0.0
 20
0.0
 30
0.0
  0
VERTEX
  5
74D
330
74C
100
AcDbEntity
  8
BEMAßUNG
 62
     7
100
AcDbVertex
100
AcDb2dVertex
 10
99.4998697667917
 20
210.1942328033542
 30
0.0
  0
VERTEX
  5
74E
330
74C
100
AcDbEntity
  8
BEMAßUNG
 62
     7
100
AcDbVertex
100
AcDb2dVertex
 10
99.4998697667917
 20
210.0095756853448
 30
0.0
  0
SEQEND
  5
74F
330
74C
100
AcDbEntity
  8
BEMAßUNG
  0
POLYLINE
  5
750
330
1F
100
AcDbEntity
  8
BEMAßUNG
 62
     7
100
AcDb2dPolyline
 66
     1
 10
0.0
 20
0.0
 30
0.0
  0
VERTEX
  5
751
330
750
100
AcDbEntity
  8
BEMAßUNG
 62
     7
100
AcDbVertex
100
AcDb2dVertex
 10
99.44905460838427
 20
210.1942328033542
 30
0.0
  0
VERTEX
  5
752
330
750
100
AcDbEntity
  8
BEMAßUNG
 62
     7
100
AcDbVertex
100
AcDb2dVertex
 10
99.44905460838427
 20
209.6240695005454
 30
0.0
  0
SEQEND
  5
753
330
750
100
AcDbEntity
  8
BEMAßUNG
  0
POLYLINE
  5
754
330
1F
100
AcDbEntity
  8
BEMAßUNG
 62
     7
100
AcDb2dPolyline
 66
     1
 10
0.0
 20
0.0
 30
0.0
  0
VERTEX
  5
755
330
754
100
AcDbEntity
  8
BEMAßUNG
 62
     7
100
AcDbVertex
100
AcDb2dVertex
 10
99.39823944997683
 20
210.1942328033542
 30
0.0
  0
VERTEX
  5
756
330
754
100
AcDbEntity
  8
BEMAßUNG
 62
     7
100
AcDbVertex
100
AcDb2dVertex
 10
99.39823944997683
 20
209.2378742966489
 30
0.0
  0
SEQEND
  5
757
330
754
100
AcDbEntity
  8
BEMAßUNG
  0
POLYLINE
  5
758
330
1F
100
AcDbEntity
  8
BEMAßUNG
 62
     7
100
AcDb2dPolyline
 66
     1
 10
0.0
 20
0.0
 30
0.0
  0
VERTEX
  5
759
330
758
100
AcDbEntity
  8
BEMAßUNG
 62
     7
100
AcDbVertex
100
AcDb2dVertex
 10
99.34759654634367
 20
210.1942328033542
 30
0.0
  0
VERTEX
  5
75A
330
758
100
AcDbEntity
  8
BEMAßUNG
 62
     7
100
AcDbVertex
100
AcDb2dVertex
 10
99.34759654634367
 20
208.8521958570751
 30
0.0
  0
SEQEND
  5
75B
330
758
100
AcDbEntity
  8
BEMAßUNG
  0
POLYLINE
  5
75C
330
1F
100
AcDbEntity
  8
BEMAßUNG
 62
     7
100
AcDb2dPolyline
 66
     1
 10
0.0
 20
0.0
 30
0.0
  0
VERTEX
  5
75D
330
75C
100
AcDbEntity
  8
BEMAßUNG
 62
     7
100
AcDbVertex
100
AcDb2dVertex
 10
99.29678138793622
 20
210.1942328033542
 30
0.0
  0
VERTEX
  5
75E
330
75C
100
AcDbEntity
  8
BEMAßUNG
 62
     7
100
AcDbVertex
100
AcDb2dVertex
 10
99.29678138793622
 20
208.4658283984044
 30
0.0
  0
SEQEND
  5
75F
330
75C
100
AcDbEntity
  8
BEMAßUNG
  0
POLYLINE
  5
760
330
1F
100
AcDbEntity
  8
BEMAßUNG
 62
     7
100
AcDb2dPolyline
 66
     1
 10
0.0
 20
0.0
 30
0.0
  0
VERTEX
  5
761
330
760
100
AcDbEntity
  8
BEMAßUNG
 62
     7
100
AcDbVertex
100
AcDb2dVertex
 10
99.24562171998026
 20
210.1942328033542
 30
0.0
  0
VERTEX
  5
762
330
760
100
AcDbEntity
  8
BEMAßUNG
 62
     7
100
AcDbVertex
100
AcDb2dVertex
 10
99.24562171998026
 20
208.0806667231535
 30
0.0
  0
SEQEND
  5
763
330
760
100
AcDbEntity
  8
BEMAßUNG
  0
POLYLINE
  5
764
330
1F
100
AcDbEntity
  8
BEMAßUNG
 62
     7
100
AcDb2dPolyline
 66
     1
 10
0.0
 20
0.0
 30
0.0
  0
VERTEX
  5
765
330
764
100
AcDbEntity
  8
BEMAßUNG
 62
     7
100
AcDbVertex
100
AcDb2dVertex
 10
99.19480656157283
 20
210.1942328033542
 30
0.0
  0
VERTEX
  5
766
330
764
100
AcDbEntity
  8
BEMAßUNG
 62
     7
100
AcDbVertex
100
AcDb2dVertex
 10
99.19480656157283
 20
207.694471519257
 30
0.0
  0
SEQEND
  5
767
330
764
100
AcDbEntity
  8
BEMAßUNG
  0
POLYLINE
  5
768
330
1F
100
AcDbEntity
  8
BEMAßUNG
 62
     7
100
AcDb2dPolyline
 66
     1
 10
0.0
 20
0.0
 30
0.0
  0
VERTEX
  5
769
330
768
100
AcDbEntity
  8
BEMAßUNG
 62
     7
100
AcDbVertex
100
AcDb2dVertex
 10
98.89026012067674
 20
210.1942328033542
 30
0.0
  0
VERTEX
  5
76A
330
768
100
AcDbEntity
  8
BEMAßUNG
 62
     7
100
AcDbVertex
100
AcDb2dVertex
 10
98.89026012067674
 20
210.0095756853448
 30
0.0
  0
SEQEND
  5
76B
330
768
100
AcDbEntity
  8
BEMAßUNG
  0
POLYLINE
  5
76C
330
1F
100
AcDbEntity
  8
BEMAßUNG
 62
     7
100
AcDb2dPolyline
 66
     1
 10
0.0
 20
0.0
 30
0.0
  0
VERTEX
  5
76D
330
76C
100
AcDbEntity
  8
BEMAßUNG
 62
     7
100
AcDbVertex
100
AcDb2dVertex
 10
98.89026012067674
 20
210.1942328033542
 30
0.0
  0
VERTEX
  5
76E
330
76C
100
AcDbEntity
  8
BEMAßUNG
 62
     7
100
AcDbVertex
100
AcDb2dVertex
 10
98.89026012067674
 20
210.0095756853448
 30
0.0
  0
SEQEND
  5
76F
330
76C
100
AcDbEntity
  8
BEMAßUNG
  0
POLYLINE
  5
770
330
1F
100
AcDbEntity
  8
BEMAßUNG
 62
     7
100
AcDb2dPolyline
 66
     1
 10
0.0
 20
0.0
 30
0.0
  0
VERTEX
  5
771
330
770
100
AcDbEntity
  8
BEMAßUNG
 62
     7
100
AcDbVertex
100
AcDb2dVertex
 10
98.94107527908417
 20
210.1942328033542
 30
0.0
  0
VERTEX
  5
772
330
770
100
AcDbEntity
  8
BEMAßUNG
 62
     7
100
AcDbVertex
100
AcDb2dVertex
 10
98.94107527908417
 20
209.6240695005454
 30
0.0
  0
SEQEND
  5
773
330
770
100
AcDbEntity
  8
BEMAßUNG
  0
POLYLINE
  5
774
330
1F
100
AcDbEntity
  8
BEMAßUNG
 62
     7
100
AcDb2dPolyline
 66
     1
 10
0.0
 20
0.0
 30
0.0
  0
VERTEX
  5
775
330
774
100
AcDbEntity
  8
BEMAßUNG
 62
     7
100
AcDbVertex
100
AcDb2dVertex
 10
98.99189043749162
 20
210.1942328033542
 30
0.0
  0
VERTEX
  5
776
330
774
100
AcDbEntity
  8
BEMAßUNG
 62
     7
100
AcDbVertex
100
AcDb2dVertex
 10
98.99189043749162
 20
209.2378742966489
 30
0.0
  0
SEQEND
  5
777
330
774
100
AcDbEntity
  8
BEMAßUNG
  0
POLYLINE
  5
778
330
1F
100
AcDbEntity
  8
BEMAßUNG
 62
     7
100
AcDb2dPolyline
 66
     1
 10
0.0
 20
0.0
 30
0.0
  0
VERTEX
  5
779
330
778
100
AcDbEntity
  8
BEMAßUNG
 62
     7
100
AcDbVertex
100
AcDb2dVertex
 10
99.04236108635052
 20
210.1942328033542
 30
0.0
  0
VERTEX
  5
77A
330
778
100
AcDbEntity
  8
BEMAßUNG
 62
     7
100
AcDbVertex
100
AcDb2dVertex
 10
99.04236108635052
 20
208.8521958570751
 30
0.0
  0
SEQEND
  5
77B
330
778
100
AcDbEntity
  8
BEMAßUNG
  0
POLYLINE
  5
77C
330
1F
100
AcDbEntity
  8
BEMAßUNG
 62
     7
100
AcDb2dPolyline
 66
     1
 10
0.0
 20
0.0
 30
0.0
  0
VERTEX
  5
77D
330
77C
100
AcDbEntity
  8
BEMAßUNG
 62
     7
100
AcDbVertex
100
AcDb2dVertex
 10
99.09317624475796
 20
210.1942328033542
 30
0.0
  0
VERTEX
  5
77E
330
77C
100
AcDbEntity
  8
BEMAßUNG
 62
     7
100
AcDbVertex
100
AcDb2dVertex
 10
99.09317624475796
 20
208.4658283984044
 30
0.0
  0
SEQEND
  5
77F
330
77C
100
AcDbEntity
  8
BEMAßUNG
  0
POLYLINE
  5
780
330
1F
100
AcDbEntity
  8
BEMAßUNG
 62
     7
100
AcDb2dPolyline
 66
     1
 10
0.0
 20
0.0
 30
0.0
  0
VERTEX
  5
781
330
780
100
AcDbEntity
  8
BEMAßUNG
 62
     7
100
AcDbVertex
100
AcDb2dVertex
 10
99.1439914031654
 20
210.1942328033542
 30
0.0
  0
VERTEX
  5
782
330
780
100
AcDbEntity
  8
BEMAßUNG
 62
     7
100
AcDbVertex
100
AcDb2dVertex
 10
99.1439914031654
 20
208.0806667231535
 30
0.0
  0
SEQEND
  5
783
330
780
100
AcDbEntity
  8
BEMAßUNG
  0
POLYLINE
  5
784
330
1F
100
AcDbEntity
  8
BEMAßUNG
 62
     7
100
AcDb2dPolyline
 66
     1
 10
0.0
 20
0.0
 30
0.0
  0
VERTEX
  5
785
330
784
100
AcDbEntity
  8
BEMAßUNG
 62
     7
100
AcDbVertex
100
AcDb2dVertex
 10
99.19480656157283
 20
210.1942328033542
 30
0.0
  0
VERTEX
  5
786
330
784
100
AcDbEntity
  8
BEMAßUNG
 62
     7
100
AcDbVertex
100
AcDb2dVertex
 10
99.19480656157283
 20
207.694471519257
 30
0.0
  0
SEQEND
  5
787
330
784
100
AcDbEntity
  8
BEMAßUNG
  0
POLYLINE
  5
788
330
1F
100
AcDbEntity
  8
BEMAßUNG
 62
     7
100
AcDb2dPolyline
 66
     1
 10
0.0
 20
0.0
 30
0.0
  0
VERTEX
  5
789
330
788
100
AcDbEntity
  8
BEMAßUNG
 62
     7
100
AcDbVertex
100
AcDb2dVertex
 10
99.19480656157283
 20
201.6943209673716
 30
0.0
  0
VERTEX
  5
78A
330
788
100
AcDbEntity
  8
BEMAßUNG
 62
     7
100
AcDbVertex
100
AcDb2dVertex
 10
98.86597219750573
 20
199.1942151737258
 30
0.0
  0
VERTEX
  5
78B
330
788
100
AcDbEntity
  8
BEMAßUNG
 62
     7
100
AcDbVertex
100
AcDb2dVertex
 10
99.52398543518845
 20
199.1942151737258
 30
0.0
  0
VERTEX
  5
78C
330
788
100
AcDbEntity
  8
BEMAßUNG
 62
     7
100
AcDbVertex
100
AcDb2dVertex
 10
99.19480656157283
 20
201.6943209673716
 30
0.0
  0
SEQEND
  5
78D
330
788
100
AcDbEntity
  8
BEMAßUNG
  0
POLYLINE
  5
78E
330
1F
100
AcDbEntity
  8
BEMAßUNG
 62
     7
100
AcDb2dPolyline
 66
     1
 10
0.0
 20
0.0
 30
0.0
  0
VERTEX
  5
78F
330
78E
100
AcDbEntity
  8
BEMAßUNG
 62
     7
100
AcDbVertex
100
AcDb2dVertex
 10
98.89026012067674
 20
199.1942151737258
 30
0.0
  0
VERTEX
  5
790
330
78E
100
AcDbEntity
  8
BEMAßUNG
 62
     7
100
AcDbVertex
100
AcDb2dVertex
 10
98.89026012067674
 20
199.3790445465094
 30
0.0
  0
SEQEND
  5
791
330
78E
100
AcDbEntity
  8
BEMAßUNG
  0
POLYLINE
  5
792
330
1F
100
AcDbEntity
  8
BEMAßUNG
 62
     7
100
AcDb2dPolyline
 66
     1
 10
0.0
 20
0.0
 30
0.0
  0
VERTEX
  5
793
330
792
100
AcDbEntity
  8
BEMAßUNG
 62
     7
100
AcDbVertex
100
AcDb2dVertex
 10
98.89026012067674
 20
199.1942151737258
 30
0.0
  0
VERTEX
  5
794
330
792
100
AcDbEntity
  8
BEMAßUNG
 62
     7
100
AcDbVertex
100
AcDb2dVertex
 10
98.89026012067674
 20
199.3790445465094
 30
0.0
  0
SEQEND
  5
795
330
792
100
AcDbEntity
  8
BEMAßUNG
  0
POLYLINE
  5
796
330
1F
100
AcDbEntity
  8
BEMAßUNG
 62
     7
100
AcDb2dPolyline
 66
     1
 10
0.0
 20
0.0
 30
0.0
  0
VERTEX
  5
797
330
796
100
AcDbEntity
  8
BEMAßUNG
 62
     7
100
AcDbVertex
100
AcDb2dVertex
 10
98.94107527908417
 20
199.1942151737258
 30
0.0
  0
VERTEX
  5
798
330
796
100
AcDbEntity
  8
BEMAßUNG
 62
     7
100
AcDbVertex
100
AcDb2dVertex
 10
98.94107527908417
 20
199.7654120051802
 30
0.0
  0
SEQEND
  5
799
330
796
100
AcDbEntity
  8
BEMAßUNG
  0
POLYLINE
  5
79A
330
1F
100
AcDbEntity
  8
BEMAßUNG
 62
     7
100
AcDb2dPolyline
 66
     1
 10
0.0
 20
0.0
 30
0.0
  0
VERTEX
  5
79B
330
79A
100
AcDbEntity
  8
BEMAßUNG
 62
     7
100
AcDbVertex
100
AcDb2dVertex
 10
98.99189043749162
 20
199.1942151737258
 30
0.0
  0
VERTEX
  5
79C
330
79A
100
AcDbEntity
  8
BEMAßUNG
 62
     7
100
AcDbVertex
100
AcDb2dVertex
 10
98.99189043749162
 20
200.1509181899796
 30
0.0
  0
SEQEND
  5
79D
330
79A
100
AcDbEntity
  8
BEMAßUNG
  0
POLYLINE
  5
79E
330
1F
100
AcDbEntity
  8
BEMAßUNG
 62
     7
100
AcDb2dPolyline
 66
     1
 10
0.0
 20
0.0
 30
0.0
  0
VERTEX
  5
79F
330
79E
100
AcDbEntity
  8
BEMAßUNG
 62
     7
100
AcDbVertex
100
AcDb2dVertex
 10
99.04236108635052
 20
199.1942151737258
 30
0.0
  0
VERTEX
  5
7A0
330
79E
100
AcDbEntity
  8
BEMAßUNG
 62
     7
100
AcDbVertex
100
AcDb2dVertex
 10
99.04236108635052
 20
200.5369411391019
 30
0.0
  0
SEQEND
  5
7A1
330
79E
100
AcDbEntity
  8
BEMAßUNG
  0
POLYLINE
  5
7A2
330
1F
100
AcDbEntity
  8
BEMAßUNG
 62
     7
100
AcDb2dPolyline
 66
     1
 10
0.0
 20
0.0
 30
0.0
  0
VERTEX
  5
7A3
330
7A2
100
AcDbEntity
  8
BEMAßUNG
 62
     7
100
AcDbVertex
100
AcDb2dVertex
 10
99.09317624475796
 20
199.1942151737258
 30
0.0
  0
VERTEX
  5
7A4
330
7A2
100
AcDbEntity
  8
BEMAßUNG
 62
     7
100
AcDbVertex
100
AcDb2dVertex
 10
99.09317624475796
 20
200.9224473239013
 30
0.0
  0
SEQEND
  5
7A5
330
7A2
100
AcDbEntity
  8
BEMAßUNG
  0
POLYLINE
  5
7A6
330
1F
100
AcDbEntity
  8
BEMAßUNG
 62
     7
100
AcDb2dPolyline
 66
     1
 10
0.0
 20
0.0
 30
0.0
  0
VERTEX
  5
7A7
330
7A6
100
AcDbEntity
  8
BEMAßUNG
 62
     7
100
AcDbVertex
100
AcDb2dVertex
 10
99.1439914031654
 20
199.1942151737258
 30
0.0
  0
VERTEX
  5
7A8
330
7A6
100
AcDbEntity
  8
BEMAßUNG
 62
     7
100
AcDbVertex
100
AcDb2dVertex
 10
99.1439914031654
 20
201.3088147825721
 30
0.0
  0
SEQEND
  5
7A9
330
7A6
100
AcDbEntity
  8
BEMAßUNG
  0
POLYLINE
  5
7AA
330
1F
100
AcDbEntity
  8
BEMAßUNG
 62
     7
100
AcDb2dPolyline
 66
     1
 10
0.0
 20
0.0
 30
0.0
  0
VERTEX
  5
7AB
330
7AA
100
AcDbEntity
  8
BEMAßUNG
 62
     7
100
AcDbVertex
100
AcDb2dVertex
 10
99.19480656157283
 20
199.1942151737258
 30
0.0
  0
VERTEX
  5
7AC
330
7AA
100
AcDbEntity
  8
BEMAßUNG
 62
     7
100
AcDbVertex
100
AcDb2dVertex
 10
99.19480656157283
 20
201.6943209673716
 30
0.0
  0
SEQEND
  5
7AD
330
7AA
100
AcDbEntity
  8
BEMAßUNG
  0
POLYLINE
  5
7AE
330
1F
100
AcDbEntity
  8
BEMAßUNG
 62
     7
100
AcDb2dPolyline
 66
     1
 10
0.0
 20
0.0
 30
0.0
  0
VERTEX
  5
7AF
330
7AE
100
AcDbEntity
  8
BEMAßUNG
 62
     7
100
AcDbVertex
100
AcDb2dVertex
 10
99.4998697667917
 20
199.1942151737258
 30
0.0
  0
VERTEX
  5
7B0
330
7AE
100
AcDbEntity
  8
BEMAßUNG
 62
     7
100
AcDbVertex
100
AcDb2dVertex
 10
99.4998697667917
 20
199.3790445465094
 30
0.0
  0
SEQEND
  5
7B1
330
7AE
100
AcDbEntity
  8
BEMAßUNG
  0
POLYLINE
  5
7B2
330
1F
100
AcDbEntity
  8
BEMAßUNG
 62
     7
100
AcDb2dPolyline
 66
     1
 10
0.0
 20
0.0
 30
0.0
  0
VERTEX
  5
7B3
330
7B2
100
AcDbEntity
  8
BEMAßUNG
 62
     7
100
AcDbVertex
100
AcDb2dVertex
 10
99.4998697667917
 20
199.1942151737258
 30
0.0
  0
VERTEX
  5
7B4
330
7B2
100
AcDbEntity
  8
BEMAßUNG
 62
     7
100
AcDbVertex
100
AcDb2dVertex
 10
99.4998697667917
 20
199.3790445465094
 30
0.0
  0
SEQEND
  5
7B5
330
7B2
100
AcDbEntity
  8
BEMAßUNG
  0
POLYLINE
  5
7B6
330
1F
100
AcDbEntity
  8
BEMAßUNG
 62
     7
100
AcDb2dPolyline
 66
     1
 10
0.0
 20
0.0
 30
0.0
  0
VERTEX
  5
7B7
330
7B6
100
AcDbEntity
  8
BEMAßUNG
 62
     7
100
AcDbVertex
100
AcDb2dVertex
 10
99.44905460838427
 20
199.1942151737258
 30
0.0
  0
VERTEX
  5
7B8
330
7B6
100
AcDbEntity
  8
BEMAßUNG
 62
     7
100
AcDbVertex
100
AcDb2dVertex
 10
99.44905460838427
 20
199.7654120051802
 30
0.0
  0
SEQEND
  5
7B9
330
7B6
100
AcDbEntity
  8
BEMAßUNG
  0
POLYLINE
  5
7BA
330
1F
100
AcDbEntity
  8
BEMAßUNG
 62
     7
100
AcDb2dPolyline
 66
     1
 10
0.0
 20
0.0
 30
0.0
  0
VERTEX
  5
7BB
330
7BA
100
AcDbEntity
  8
BEMAßUNG
 62
     7
100
AcDbVertex
100
AcDb2dVertex
 10
99.39823944997683
 20
199.1942151737258
 30
0.0
  0
VERTEX
  5
7BC
330
7BA
100
AcDbEntity
  8
BEMAßUNG
 62
     7
100
AcDbVertex
100
AcDb2dVertex
 10
99.39823944997683
 20
200.1509181899796
 30
0.0
  0
SEQEND
  5
7BD
330
7BA
100
AcDbEntity
  8
BEMAßUNG
  0
POLYLINE
  5
7BE
330
1F
100
AcDbEntity
  8
BEMAßUNG
 62
     7
100
AcDb2dPolyline
 66
     1
 10
0.0
 20
0.0
 30
0.0
  0
VERTEX
  5
7BF
330
7BE
100
AcDbEntity
  8
BEMAßUNG
 62
     7
100
AcDbVertex
100
AcDb2dVertex
 10
99.34759654634367
 20
199.1942151737258
 30
0.0
  0
VERTEX
  5
7C0
330
7BE
100
AcDbEntity
  8
BEMAßUNG
 62
     7
100
AcDbVertex
100
AcDb2dVertex
 10
99.34759654634367
 20
200.5369411391019
 30
0.0
  0
SEQEND
  5
7C1
330
7BE
100
AcDbEntity
  8
BEMAßUNG
  0
POLYLINE
  5
7C2
330
1F
100
AcDbEntity
  8
BEMAßUNG
 62
     7
100
AcDb2dPolyline
 66
     1
 10
0.0
 20
0.0
 30
0.0
  0
VERTEX
  5
7C3
330
7C2
100
AcDbEntity
  8
BEMAßUNG
 62
     7
100
AcDbVertex
100
AcDb2dVertex
 10
99.29678138793622
 20
199.1942151737258
 30
0.0
  0
VERTEX
  5
7C4
330
7C2
100
AcDbEntity
  8
BEMAßUNG
 62
     7
100
AcDbVertex
100
AcDb2dVertex
 10
99.29678138793622
 20
200.9224473239013
 30
0.0
  0
SEQEND
  5
7C5
330
7C2
100
AcDbEntity
  8
BEMAßUNG
  0
POLYLINE
  5
7C6
330
1F
100
AcDbEntity
  8
BEMAßUNG
 62
     7
100
AcDb2dPolyline
 66
     1
 10
0.0
 20
0.0
 30
0.0
  0
VERTEX
  5
7C7
330
7C6
100
AcDbEntity
  8
BEMAßUNG
 62
     7
100
AcDbVertex
100
AcDb2dVertex
 10
99.24562171998026
 20
199.1942151737258
 30
0.0
  0
VERTEX
  5
7C8
330
7C6
100
AcDbEntity
  8
BEMAßUNG
 62
     7
100
AcDbVertex
100
AcDb2dVertex
 10
99.24562171998026
 20
201.3088147825721
 30
0.0
  0
SEQEND
  5
7C9
330
7C6
100
AcDbEntity
  8
BEMAßUNG
  0
POLYLINE
  5
7CA
330
1F
100
AcDbEntity
  8
BEMAßUNG
 62
     7
100
AcDb2dPolyline
 66
     1
 10
0.0
 20
0.0
 30
0.0
  0
VERTEX
  5
7CB
330
7CA
100
AcDbEntity
  8
BEMAßUNG
 62
     7
100
AcDbVertex
100
AcDb2dVertex
 10
99.19480656157283
 20
199.1942151737258
 30
0.0
  0
VERTEX
  5
7CC
330
7CA
100
AcDbEntity
  8
BEMAßUNG
 62
     7
100
AcDbVertex
100
AcDb2dVertex
 10
99.19480656157283
 20
201.6943209673716
 30
0.0
  0
SEQEND
  5
7CD
330
7CA
100
AcDbEntity
  8
BEMAßUNG
  0
POLYLINE
  5
7CE
330
1F
100
AcDbEntity
  8
BEMAßUNG
 62
     7
100
AcDb2dPolyline
 66
     1
 10
0.0
 20
0.0
 30
0.0
  0
VERTEX
  5
7CF
330
7CE
100
AcDbEntity
  8
BEMAßUNG
 62
     7
100
AcDbVertex
100
AcDb2dVertex
 10
81.19469941546522
 20
204.6944823707014
 30
0.0
  0
VERTEX
  5
7D0
330
7CE
100
AcDbEntity
  8
BEMAßUNG
 62
     7
100
AcDbVertex
100
AcDb2dVertex
 10
81.19469941546522
 20
182.694791620993
 30
0.0
  0
SEQEND
  5
7D1
330
7CE
100
AcDbEntity
  8
BEMAßUNG
  0
POLYLINE
  5
7D2
330
1F
100
AcDbEntity
  8
BEMAßUNG
 62
     7
100
AcDb2dPolyline
 66
     1
 10
0.0
 20
0.0
 30
0.0
  0
VERTEX
  5
7D3
330
7D2
100
AcDbEntity
  8
BEMAßUNG
 62
     7
100
AcDbVertex
100
AcDb2dVertex
 10
61.19488659494434
 20
204.6944823707014
 30
0.0
  0
VERTEX
  5
7D4
330
7D2
100
AcDbEntity
  8
BEMAßUNG
 62
     7
100
AcDbVertex
100
AcDb2dVertex
 10
61.19488659494434
 20
182.694791620993
 30
0.0
  0
SEQEND
  5
7D5
330
7D2
100
AcDbEntity
  8
BEMAßUNG
  0
POLYLINE
  5
7D6
330
1F
100
AcDbEntity
  8
BEMAßUNG
 62
     7
100
AcDb2dPolyline
 66
     1
 10
0.0
 20
0.0
 30
0.0
  0
VERTEX
  5
7D7
330
7D6
100
AcDbEntity
  8
BEMAßUNG
 62
     7
100
AcDbVertex
100
AcDb2dVertex
 10
81.19469941546522
 20
184.694325040632
 30
0.0
  0
VERTEX
  5
7D8
330
7D6
100
AcDbEntity
  8
BEMAßUNG
 62
     7
100
AcDbVertex
100
AcDb2dVertex
 10
61.19488659494434
 20
184.694325040632
 30
0.0
  0
SEQEND
  5
7D9
330
7D6
100
AcDbEntity
  8
BEMAßUNG
  0
POLYLINE
  5
7DA
330
1F
100
AcDbEntity
  8
BEMAßUNG
 62
     7
100
AcDb2dPolyline
 66
     1
 10
0.0
 20
0.0
 30
0.0
  0
VERTEX
  5
7DB
330
7DA
100
AcDbEntity
  8
BEMAßUNG
 62
     7
100
AcDbVertex
100
AcDb2dVertex
 10
81.19469941546522
 20
184.694325040632
 30
0.0
  0
VERTEX
  5
7DC
330
7DA
100
AcDbEntity
  8
BEMAßUNG
 62
     7
100
AcDbVertex
100
AcDb2dVertex
 10
78.69528264091646
 20
185.0235039142476
 30
0.0
  0
VERTEX
  5
7DD
330
7DA
100
AcDbEntity
  8
BEMAßUNG
 62
     7
100
AcDbVertex
100
AcDb2dVertex
 10
78.69528264091646
 20
184.3651461670163
 30
0.0
  0
VERTEX
  5
7DE
330
7DA
100
AcDbEntity
  8
BEMAßUNG
 62
     7
100
AcDbVertex
100
AcDb2dVertex
 10
81.19469941546522
 20
184.694325040632
 30
0.0
  0
SEQEND
  5
7DF
330
7DA
100
AcDbEntity
  8
BEMAßUNG
  0
POLYLINE
  5
7E0
330
1F
100
AcDbEntity
  8
BEMAßUNG
 62
     7
100
AcDb2dPolyline
 66
     1
 10
0.0
 20
0.0
 30
0.0
  0
VERTEX
  5
7E1
330
7E0
100
AcDbEntity
  8
BEMAßUNG
 62
     7
100
AcDbVertex
100
AcDb2dVertex
 10
78.69528264091646
 20
184.9995605006251
 30
0.0
  0
VERTEX
  5
7E2
330
7E0
100
AcDbEntity
  8
BEMAßUNG
 62
     7
100
AcDbVertex
100
AcDb2dVertex
 10
78.87976750415159
 20
184.9995605006251
 30
0.0
  0
SEQEND
  5
7E3
330
7E0
100
AcDbEntity
  8
BEMAßUNG
  0
POLYLINE
  5
7E4
330
1F
100
AcDbEntity
  8
BEMAßUNG
 62
     7
100
AcDb2dPolyline
 66
     1
 10
0.0
 20
0.0
 30
0.0
  0
VERTEX
  5
7E5
330
7E4
100
AcDbEntity
  8
BEMAßUNG
 62
     7
100
AcDbVertex
100
AcDb2dVertex
 10
78.69528264091646
 20
184.9995605006251
 30
0.0
  0
VERTEX
  5
7E6
330
7E4
100
AcDbEntity
  8
BEMAßUNG
 62
     7
100
AcDbVertex
100
AcDb2dVertex
 10
78.87976750415159
 20
184.9995605006251
 30
0.0
  0
SEQEND
  5
7E7
330
7E4
100
AcDbEntity
  8
BEMAßUNG
  0
POLYLINE
  5
7E8
330
1F
100
AcDbEntity
  8
BEMAßUNG
 62
     7
100
AcDb2dPolyline
 66
     1
 10
0.0
 20
0.0
 30
0.0
  0
VERTEX
  5
7E9
330
7E8
100
AcDbEntity
  8
BEMAßUNG
 62
     7
100
AcDbVertex
100
AcDb2dVertex
 10
78.69528264091646
 20
184.9487453422177
 30
0.0
  0
VERTEX
  5
7EA
330
7E8
100
AcDbEntity
  8
BEMAßUNG
 62
     7
100
AcDbVertex
100
AcDb2dVertex
 10
79.26527368895104
 20
184.9487453422177
 30
0.0
  0
SEQEND
  5
7EB
330
7E8
100
AcDbEntity
  8
BEMAßUNG
  0
POLYLINE
  5
7EC
330
1F
100
AcDbEntity
  8
BEMAßUNG
 62
     7
100
AcDb2dPolyline
 66
     1
 10
0.0
 20
0.0
 30
0.0
  0
VERTEX
  5
7ED
330
7EC
100
AcDbEntity
  8
BEMAßUNG
 62
     7
100
AcDbVertex
100
AcDb2dVertex
 10
78.69528264091646
 20
184.8979301838102
 30
0.0
  0
VERTEX
  5
7EE
330
7EC
100
AcDbEntity
  8
BEMAßUNG
 62
     7
100
AcDbVertex
100
AcDb2dVertex
 10
79.65129663807329
 20
184.8979301838102
 30
0.0
  0
SEQEND
  5
7EF
330
7EC
100
AcDbEntity
  8
BEMAßUNG
  0
POLYLINE
  5
7F0
330
1F
100
AcDbEntity
  8
BEMAßUNG
 62
     7
100
AcDb2dPolyline
 66
     1
 10
0.0
 20
0.0
 30
0.0
  0
VERTEX
  5
7F1
330
7F0
100
AcDbEntity
  8
BEMAßUNG
 62
     7
100
AcDbVertex
100
AcDb2dVertex
 10
78.69528264091646
 20
184.8467705158543
 30
0.0
  0
VERTEX
  5
7F2
330
7F0
100
AcDbEntity
  8
BEMAßUNG
 62
     7
100
AcDbVertex
100
AcDb2dVertex
 10
80.03714733242127
 20
184.8467705158543
 30
0.0
  0
SEQEND
  5
7F3
330
7F0
100
AcDbEntity
  8
BEMAßUNG
  0
POLYLINE
  5
7F4
330
1F
100
AcDbEntity
  8
BEMAßUNG
 62
     7
100
AcDb2dPolyline
 66
     1
 10
0.0
 20
0.0
 30
0.0
  0
VERTEX
  5
7F5
330
7F4
100
AcDbEntity
  8
BEMAßUNG
 62
     7
100
AcDbVertex
100
AcDb2dVertex
 10
78.69528264091646
 20
184.7959553574468
 30
0.0
  0
VERTEX
  5
7F6
330
7F4
100
AcDbEntity
  8
BEMAßUNG
 62
     7
100
AcDbVertex
100
AcDb2dVertex
 10
80.42351479109205
 20
184.7959553574468
 30
0.0
  0
SEQEND
  5
7F7
330
7F4
100
AcDbEntity
  8
BEMAßUNG
  0
POLYLINE
  5
7F8
330
1F
100
AcDbEntity
  8
BEMAßUNG
 62
     7
100
AcDb2dPolyline
 66
     1
 10
0.0
 20
0.0
 30
0.0
  0
VERTEX
  5
7F9
330
7F8
100
AcDbEntity
  8
BEMAßUNG
 62
     7
100
AcDbVertex
100
AcDb2dVertex
 10
78.69528264091646
 20
184.7451401990394
 30
0.0
  0
VERTEX
  5
7FA
330
7F8
100
AcDbEntity
  8
BEMAßUNG
 62
     7
100
AcDbVertex
100
AcDb2dVertex
 10
80.80867646634297
 20
184.7451401990394
 30
0.0
  0
SEQEND
  5
7FB
330
7F8
100
AcDbEntity
  8
BEMAßUNG
  0
POLYLINE
  5
7FC
330
1F
100
AcDbEntity
  8
BEMAßUNG
 62
     7
100
AcDb2dPolyline
 66
     1
 10
0.0
 20
0.0
 30
0.0
  0
VERTEX
  5
7FD
330
7FC
100
AcDbEntity
  8
BEMAßUNG
 62
     7
100
AcDbVertex
100
AcDb2dVertex
 10
78.69528264091646
 20
184.694325040632
 30
0.0
  0
VERTEX
  5
7FE
330
7FC
100
AcDbEntity
  8
BEMAßUNG
 62
     7
100
AcDbVertex
100
AcDb2dVertex
 10
81.19469941546522
 20
184.694325040632
 30
0.0
  0
SEQEND
  5
7FF
330
7FC
100
AcDbEntity
  8
BEMAßUNG
  0
POLYLINE
  5
800
330
1F
100
AcDbEntity
  8
BEMAßUNG
 62
     7
100
AcDb2dPolyline
 66
     1
 10
0.0
 20
0.0
 30
0.0
  0
VERTEX
  5
801
330
800
100
AcDbEntity
  8
BEMAßUNG
 62
     7
100
AcDbVertex
100
AcDb2dVertex
 10
78.69528264091646
 20
184.3896063449616
 30
0.0
  0
VERTEX
  5
802
330
800
100
AcDbEntity
  8
BEMAßUNG
 62
     7
100
AcDbVertex
100
AcDb2dVertex
 10
78.87976750415159
 20
184.3896063449616
 30
0.0
  0
SEQEND
  5
803
330
800
100
AcDbEntity
  8
BEMAßUNG
  0
POLYLINE
  5
804
330
1F
100
AcDbEntity
  8
BEMAßUNG
 62
     7
100
AcDb2dPolyline
 66
     1
 10
0.0
 20
0.0
 30
0.0
  0
VERTEX
  5
805
330
804
100
AcDbEntity
  8
BEMAßUNG
 62
     7
100
AcDbVertex
100
AcDb2dVertex
 10
78.69528264091646
 20
184.3896063449616
 30
0.0
  0
VERTEX
  5
806
330
804
100
AcDbEntity
  8
BEMAßUNG
 62
     7
100
AcDbVertex
100
AcDb2dVertex
 10
78.87976750415159
 20
184.3896063449616
 30
0.0
  0
SEQEND
  5
807
330
804
100
AcDbEntity
  8
BEMAßUNG
  0
POLYLINE
  5
808
330
1F
100
AcDbEntity
  8
BEMAßUNG
 62
     7
100
AcDb2dPolyline
 66
     1
 10
0.0
 20
0.0
 30
0.0
  0
VERTEX
  5
809
330
808
100
AcDbEntity
  8
BEMAßUNG
 62
     7
100
AcDbVertex
100
AcDb2dVertex
 10
78.69528264091646
 20
184.4404215033691
 30
0.0
  0
VERTEX
  5
80A
330
808
100
AcDbEntity
  8
BEMAßUNG
 62
     7
100
AcDbVertex
100
AcDb2dVertex
 10
79.26527368895104
 20
184.4404215033691
 30
0.0
  0
SEQEND
  5
80B
330
808
100
AcDbEntity
  8
BEMAßUNG
  0
POLYLINE
  5
80C
330
1F
100
AcDbEntity
  8
BEMAßUNG
 62
     7
100
AcDb2dPolyline
 66
     1
 10
0.0
 20
0.0
 30
0.0
  0
VERTEX
  5
80D
330
80C
100
AcDbEntity
  8
BEMAßUNG
 62
     7
100
AcDbVertex
100
AcDb2dVertex
 10
78.69528264091646
 20
184.4910644070023
 30
0.0
  0
VERTEX
  5
80E
330
80C
100
AcDbEntity
  8
BEMAßUNG
 62
     7
100
AcDbVertex
100
AcDb2dVertex
 10
79.65129663807329
 20
184.4910644070023
 30
0.0
  0
SEQEND
  5
80F
330
80C
100
AcDbEntity
  8
BEMAßUNG
  0
POLYLINE
  5
810
330
1F
100
AcDbEntity
  8
BEMAßUNG
 62
     7
100
AcDb2dPolyline
 66
     1
 10
0.0
 20
0.0
 30
0.0
  0
VERTEX
  5
811
330
810
100
AcDbEntity
  8
BEMAßUNG
 62
     7
100
AcDbVertex
100
AcDb2dVertex
 10
78.69528264091646
 20
184.5418795654097
 30
0.0
  0
VERTEX
  5
812
330
810
100
AcDbEntity
  8
BEMAßUNG
 62
     7
100
AcDbVertex
100
AcDb2dVertex
 10
80.03714733242127
 20
184.5418795654097
 30
0.0
  0
SEQEND
  5
813
330
810
100
AcDbEntity
  8
BEMAßUNG
  0
POLYLINE
  5
814
330
1F
100
AcDbEntity
  8
BEMAßUNG
 62
     7
100
AcDb2dPolyline
 66
     1
 10
0.0
 20
0.0
 30
0.0
  0
VERTEX
  5
815
330
814
100
AcDbEntity
  8
BEMAßUNG
 62
     7
100
AcDbVertex
100
AcDb2dVertex
 10
78.69528264091646
 20
184.5926947238171
 30
0.0
  0
VERTEX
  5
816
330
814
100
AcDbEntity
  8
BEMAßUNG
 62
     7
100
AcDbVertex
100
AcDb2dVertex
 10
80.42351479109205
 20
184.5926947238171
 30
0.0
  0
SEQEND
  5
817
330
814
100
AcDbEntity
  8
BEMAßUNG
  0
POLYLINE
  5
818
330
1F
100
AcDbEntity
  8
BEMAßUNG
 62
     7
100
AcDb2dPolyline
 66
     1
 10
0.0
 20
0.0
 30
0.0
  0
VERTEX
  5
819
330
818
100
AcDbEntity
  8
BEMAßUNG
 62
     7
100
AcDbVertex
100
AcDb2dVertex
 10
78.69528264091646
 20
184.6435098822245
 30
0.0
  0
VERTEX
  5
81A
330
818
100
AcDbEntity
  8
BEMAßUNG
 62
     7
100
AcDbVertex
100
AcDb2dVertex
 10
80.80867646634297
 20
184.6435098822245
 30
0.0
  0
SEQEND
  5
81B
330
818
100
AcDbEntity
  8
BEMAßUNG
  0
POLYLINE
  5
81C
330
1F
100
AcDbEntity
  8
BEMAßUNG
 62
     7
100
AcDb2dPolyline
 66
     1
 10
0.0
 20
0.0
 30
0.0
  0
VERTEX
  5
81D
330
81C
100
AcDbEntity
  8
BEMAßUNG
 62
     7
100
AcDbVertex
100
AcDb2dVertex
 10
78.69528264091646
 20
184.694325040632
 30
0.0
  0
VERTEX
  5
81E
330
81C
100
AcDbEntity
  8
BEMAßUNG
 62
     7
100
AcDbVertex
100
AcDb2dVertex
 10
81.19469941546522
 20
184.694325040632
 30
0.0
  0
SEQEND
  5
81F
330
81C
100
AcDbEntity
  8
BEMAßUNG
  0
POLYLINE
  5
820
330
1F
100
AcDbEntity
  8
BEMAßUNG
 62
     7
100
AcDb2dPolyline
 66
     1
 10
0.0
 20
0.0
 30
0.0
  0
VERTEX
  5
821
330
820
100
AcDbEntity
  8
BEMAßUNG
 62
     7
100
AcDbVertex
100
AcDb2dVertex
 10
61.19488659494434
 20
184.694325040632
 30
0.0
  0
VERTEX
  5
822
330
820
100
AcDbEntity
  8
BEMAßUNG
 62
     7
100
AcDbVertex
100
AcDb2dVertex
 10
63.69464787904162
 20
184.3651461670163
 30
0.0
  0
VERTEX
  5
823
330
820
100
AcDbEntity
  8
BEMAßUNG
 62
     7
100
AcDbVertex
100
AcDb2dVertex
 10
63.69464787904162
 20
185.0235039142476
 30
0.0
  0
VERTEX
  5
824
330
820
100
AcDbEntity
  8
BEMAßUNG
 62
     7
100
AcDbVertex
100
AcDb2dVertex
 10
61.19488659494434
 20
184.694325040632
 30
0.0
  0
SEQEND
  5
825
330
820
100
AcDbEntity
  8
BEMAßUNG
  0
POLYLINE
  5
826
330
1F
100
AcDbEntity
  8
BEMAßUNG
 62
     7
100
AcDb2dPolyline
 66
     1
 10
0.0
 20
0.0
 30
0.0
  0
VERTEX
  5
827
330
826
100
AcDbEntity
  8
BEMAßUNG
 62
     7
100
AcDbVertex
100
AcDb2dVertex
 10
63.69464787904162
 20
184.3896063449616
 30
0.0
  0
VERTEX
  5
828
330
826
100
AcDbEntity
  8
BEMAßUNG
 62
     7
100
AcDbVertex
100
AcDb2dVertex
 10
63.50981850625796
 20
184.3896063449616
 30
0.0
  0
SEQEND
  5
829
330
826
100
AcDbEntity
  8
BEMAßUNG
  0
POLYLINE
  5
82A
330
1F
100
AcDbEntity
  8
BEMAßUNG
 62
     7
100
AcDb2dPolyline
 66
     1
 10
0.0
 20
0.0
 30
0.0
  0
VERTEX
  5
82B
330
82A
100
AcDbEntity
  8
BEMAßUNG
 62
     7
100
AcDbVertex
100
AcDb2dVertex
 10
63.69464787904162
 20
184.3896063449616
 30
0.0
  0
VERTEX
  5
82C
330
82A
100
AcDbEntity
  8
BEMAßUNG
 62
     7
100
AcDbVertex
100
AcDb2dVertex
 10
63.50981850625796
 20
184.3896063449616
 30
0.0
  0
SEQEND
  5
82D
330
82A
100
AcDbEntity
  8
BEMAßUNG
  0
POLYLINE
  5
82E
330
1F
100
AcDbEntity
  8
BEMAßUNG
 62
     7
100
AcDb2dPolyline
 66
     1
 10
0.0
 20
0.0
 30
0.0
  0
VERTEX
  5
82F
330
82E
100
AcDbEntity
  8
BEMAßUNG
 62
     7
100
AcDbVertex
100
AcDb2dVertex
 10
63.69464787904162
 20
184.4404215033691
 30
0.0
  0
VERTEX
  5
830
330
82E
100
AcDbEntity
  8
BEMAßUNG
 62
     7
100
AcDbVertex
100
AcDb2dVertex
 10
63.12431232145851
 20
184.4404215033691
 30
0.0
  0
SEQEND
  5
831
330
82E
100
AcDbEntity
  8
BEMAßUNG
  0
POLYLINE
  5
832
330
1F
100
AcDbEntity
  8
BEMAßUNG
 62
     7
100
AcDb2dPolyline
 66
     1
 10
0.0
 20
0.0
 30
0.0
  0
VERTEX
  5
833
330
832
100
AcDbEntity
  8
BEMAßUNG
 62
     7
100
AcDbVertex
100
AcDb2dVertex
 10
63.69464787904162
 20
184.4910644070023
 30
0.0
  0
VERTEX
  5
834
330
832
100
AcDbEntity
  8
BEMAßUNG
 62
     7
100
AcDbVertex
100
AcDb2dVertex
 10
62.73828937233626
 20
184.4910644070023
 30
0.0
  0
SEQEND
  5
835
330
832
100
AcDbEntity
  8
BEMAßUNG
  0
POLYLINE
  5
836
330
1F
100
AcDbEntity
  8
BEMAßUNG
 62
     7
100
AcDb2dPolyline
 66
     1
 10
0.0
 20
0.0
 30
0.0
  0
VERTEX
  5
837
330
836
100
AcDbEntity
  8
BEMAßUNG
 62
     7
100
AcDbVertex
100
AcDb2dVertex
 10
63.69464787904162
 20
184.5418795654097
 30
0.0
  0
VERTEX
  5
838
330
836
100
AcDbEntity
  8
BEMAßUNG
 62
     7
100
AcDbVertex
100
AcDb2dVertex
 10
62.35243867798828
 20
184.5418795654097
 30
0.0
  0
SEQEND
  5
839
330
836
100
AcDbEntity
  8
BEMAßUNG
  0
POLYLINE
  5
83A
330
1F
100
AcDbEntity
  8
BEMAßUNG
 62
     7
100
AcDb2dPolyline
 66
     1
 10
0.0
 20
0.0
 30
0.0
  0
VERTEX
  5
83B
330
83A
100
AcDbEntity
  8
BEMAßUNG
 62
     7
100
AcDbVertex
100
AcDb2dVertex
 10
63.69464787904162
 20
184.5926947238171
 30
0.0
  0
VERTEX
  5
83C
330
83A
100
AcDbEntity
  8
BEMAßUNG
 62
     7
100
AcDbVertex
100
AcDb2dVertex
 10
61.96641572886604
 20
184.5926947238171
 30
0.0
  0
SEQEND
  5
83D
330
83A
100
AcDbEntity
  8
BEMAßUNG
  0
POLYLINE
  5
83E
330
1F
100
AcDbEntity
  8
BEMAßUNG
 62
     7
100
AcDb2dPolyline
 66
     1
 10
0.0
 20
0.0
 30
0.0
  0
VERTEX
  5
83F
330
83E
100
AcDbEntity
  8
BEMAßUNG
 62
     7
100
AcDbVertex
100
AcDb2dVertex
 10
63.69464787904162
 20
184.6435098822245
 30
0.0
  0
VERTEX
  5
840
330
83E
100
AcDbEntity
  8
BEMAßUNG
 62
     7
100
AcDbVertex
100
AcDb2dVertex
 10
61.58090954406658
 20
184.6435098822245
 30
0.0
  0
SEQEND
  5
841
330
83E
100
AcDbEntity
  8
BEMAßUNG
  0
POLYLINE
  5
842
330
1F
100
AcDbEntity
  8
BEMAßUNG
 62
     7
100
AcDb2dPolyline
 66
     1
 10
0.0
 20
0.0
 30
0.0
  0
VERTEX
  5
843
330
842
100
AcDbEntity
  8
BEMAßUNG
 62
     7
100
AcDbVertex
100
AcDb2dVertex
 10
63.69464787904162
 20
184.694325040632
 30
0.0
  0
VERTEX
  5
844
330
842
100
AcDbEntity
  8
BEMAßUNG
 62
     7
100
AcDbVertex
100
AcDb2dVertex
 10
61.19488659494434
 20
184.694325040632
 30
0.0
  0
SEQEND
  5
845
330
842
100
AcDbEntity
  8
BEMAßUNG
  0
POLYLINE
  5
846
330
1F
100
AcDbEntity
  8
BEMAßUNG
 62
     7
100
AcDb2dPolyline
 66
     1
 10
0.0
 20
0.0
 30
0.0
  0
VERTEX
  5
847
330
846
100
AcDbEntity
  8
BEMAßUNG
 62
     7
100
AcDbVertex
100
AcDb2dVertex
 10
63.69464787904162
 20
184.9995605006251
 30
0.0
  0
VERTEX
  5
848
330
846
100
AcDbEntity
  8
BEMAßUNG
 62
     7
100
AcDbVertex
100
AcDb2dVertex
 10
63.50981850625796
 20
184.9995605006251
 30
0.0
  0
SEQEND
  5
849
330
846
100
AcDbEntity
  8
BEMAßUNG
  0
POLYLINE
  5
84A
330
1F
100
AcDbEntity
  8
BEMAßUNG
 62
     7
100
AcDb2dPolyline
 66
     1
 10
0.0
 20
0.0
 30
0.0
  0
VERTEX
  5
84B
330
84A
100
AcDbEntity
  8
BEMAßUNG
 62
     7
100
AcDbVertex
100
AcDb2dVertex
 10
63.69464787904162
 20
184.9995605006251
 30
0.0
  0
VERTEX
  5
84C
330
84A
100
AcDbEntity
  8
BEMAßUNG
 62
     7
100
AcDbVertex
100
AcDb2dVertex
 10
63.50981850625796
 20
184.9995605006251
 30
0.0
  0
SEQEND
  5
84D
330
84A
100
AcDbEntity
  8
BEMAßUNG
  0
POLYLINE
  5
84E
330
1F
100
AcDbEntity
  8
BEMAßUNG
 62
     7
100
AcDb2dPolyline
 66
     1
 10
0.0
 20
0.0
 30
0.0
  0
VERTEX
  5
84F
330
84E
100
AcDbEntity
  8
BEMAßUNG
 62
     7
100
AcDbVertex
100
AcDb2dVertex
 10
63.69464787904162
 20
184.9487453422177
 30
0.0
  0
VERTEX
  5
850
330
84E
100
AcDbEntity
  8
BEMAßUNG
 62
     7
100
AcDbVertex
100
AcDb2dVertex
 10
63.12431232145851
 20
184.9487453422177
 30
0.0
  0
SEQEND
  5
851
330
84E
100
AcDbEntity
  8
BEMAßUNG
  0
POLYLINE
  5
852
330
1F
100
AcDbEntity
  8
BEMAßUNG
 62
     7
100
AcDb2dPolyline
 66
     1
 10
0.0
 20
0.0
 30
0.0
  0
VERTEX
  5
853
330
852
100
AcDbEntity
  8
BEMAßUNG
 62
     7
100
AcDbVertex
100
AcDb2dVertex
 10
63.69464787904162
 20
184.8979301838102
 30
0.0
  0
VERTEX
  5
854
330
852
100
AcDbEntity
  8
BEMAßUNG
 62
     7
100
AcDbVertex
100
AcDb2dVertex
 10
62.73828937233626
 20
184.8979301838102
 30
0.0
  0
SEQEND
  5
855
330
852
100
AcDbEntity
  8
BEMAßUNG
  0
POLYLINE
  5
856
330
1F
100
AcDbEntity
  8
BEMAßUNG
 62
     7
100
AcDb2dPolyline
 66
     1
 10
0.0
 20
0.0
 30
0.0
  0
VERTEX
  5
857
330
856
100
AcDbEntity
  8
BEMAßUNG
 62
     7
100
AcDbVertex
100
AcDb2dVertex
 10
63.69464787904162
 20
184.8467705158543
 30
0.0
  0
VERTEX
  5
858
330
856
100
AcDbEntity
  8
BEMAßUNG
 62
     7
100
AcDbVertex
100
AcDb2dVertex
 10
62.35243867798828
 20
184.8467705158543
 30
0.0
  0
SEQEND
  5
859
330
856
100
AcDbEntity
  8
BEMAßUNG
  0
POLYLINE
  5
85A
330
1F
100
AcDbEntity
  8
BEMAßUNG
 62
     7
100
AcDb2dPolyline
 66
     1
 10
0.0
 20
0.0
 30
0.0
  0
VERTEX
  5
85B
330
85A
100
AcDbEntity
  8
BEMAßUNG
 62
     7
100
AcDbVertex
100
AcDb2dVertex
 10
63.69464787904162
 20
184.7959553574468
 30
0.0
  0
VERTEX
  5
85C
330
85A
100
AcDbEntity
  8
BEMAßUNG
 62
     7
100
AcDbVertex
100
AcDb2dVertex
 10
61.96641572886604
 20
184.7959553574468
 30
0.0
  0
SEQEND
  5
85D
330
85A
100
AcDbEntity
  8
BEMAßUNG
  0
POLYLINE
  5
85E
330
1F
100
AcDbEntity
  8
BEMAßUNG
 62
     7
100
AcDb2dPolyline
 66
     1
 10
0.0
 20
0.0
 30
0.0
  0
VERTEX
  5
85F
330
85E
100
AcDbEntity
  8
BEMAßUNG
 62
     7
100
AcDbVertex
100
AcDb2dVertex
 10
63.69464787904162
 20
184.7451401990394
 30
0.0
  0
VERTEX
  5
860
330
85E
100
AcDbEntity
  8
BEMAßUNG
 62
     7
100
AcDbVertex
100
AcDb2dVertex
 10
61.58090954406658
 20
184.7451401990394
 30
0.0
  0
SEQEND
  5
861
330
85E
100
AcDbEntity
  8
BEMAßUNG
  0
POLYLINE
  5
862
330
1F
100
AcDbEntity
  8
BEMAßUNG
 62
     7
100
AcDb2dPolyline
 66
     1
 10
0.0
 20
0.0
 30
0.0
  0
VERTEX
  5
863
330
862
100
AcDbEntity
  8
BEMAßUNG
 62
     7
100
AcDbVertex
100
AcDb2dVertex
 10
63.69464787904162
 20
184.694325040632
 30
0.0
  0
VERTEX
  5
864
330
862
100
AcDbEntity
  8
BEMAßUNG
 62
     7
100
AcDbVertex
100
AcDb2dVertex
 10
61.19488659494434
 20
184.694325040632
 30
0.0
  0
SEQEND
  5
865
330
862
100
AcDbEntity
  8
BEMAßUNG
  0
POLYLINE
  5
866
330
1F
100
AcDbEntity
  8
BEMAßUNG
 62
     7
100
AcDb2dPolyline
 66
     1
 10
0.0
 20
0.0
 30
0.0
  0
VERTEX
  5
867
330
866
100
AcDbEntity
  8
BEMAßUNG
 62
     7
100
AcDbVertex
100
AcDb2dVertex
 10
89.1949001513124
 20
204.6944823707014
 30
0.0
  0
VERTEX
  5
868
330
866
100
AcDbEntity
  8
BEMAßUNG
 62
     7
100
AcDbVertex
100
AcDb2dVertex
 10
89.1949001513124
 20
172.694540701184
 30
0.0
  0
SEQEND
  5
869
330
866
100
AcDbEntity
  8
BEMAßUNG
  0
POLYLINE
  5
86A
330
1F
100
AcDbEntity
  8
BEMAßUNG
 62
     7
100
AcDb2dPolyline
 66
     1
 10
0.0
 20
0.0
 30
0.0
  0
VERTEX
  5
86B
330
86A
100
AcDbEntity
  8
BEMAßUNG
 62
     7
100
AcDbVertex
100
AcDb2dVertex
 10
61.19488659494434
 20
204.6944823707014
 30
0.0
  0
VERTEX
  5
86C
330
86A
100
AcDbEntity
  8
BEMAßUNG
 62
     7
100
AcDbVertex
100
AcDb2dVertex
 10
61.19488659494434
 20
172.694540701184
 30
0.0
  0
SEQEND
  5
86D
330
86A
100
AcDbEntity
  8
BEMAßUNG
  0
POLYLINE
  5
86E
330
1F
100
AcDbEntity
  8
BEMAßUNG
 62
     7
100
AcDb2dPolyline
 66
     1
 10
0.0
 20
0.0
 30
0.0
  0
VERTEX
  5
86F
330
86E
100
AcDbEntity
  8
BEMAßUNG
 62
     7
100
AcDbVertex
100
AcDb2dVertex
 10
89.1949001513124
 20
174.6945908851458
 30
0.0
  0
VERTEX
  5
870
330
86E
100
AcDbEntity
  8
BEMAßUNG
 62
     7
100
AcDbVertex
100
AcDb2dVertex
 10
61.19488659494434
 20
174.6945908851458
 30
0.0
  0
SEQEND
  5
871
330
86E
100
AcDbEntity
  8
BEMAßUNG
  0
POLYLINE
  5
872
330
1F
100
AcDbEntity
  8
BEMAßUNG
 62
     7
100
AcDb2dPolyline
 66
     1
 10
0.0
 20
0.0
 30
0.0
  0
VERTEX
  5
873
330
872
100
AcDbEntity
  8
BEMAßUNG
 62
     7
100
AcDbVertex
100
AcDb2dVertex
 10
89.1949001513124
 20
174.6945908851458
 30
0.0
  0
VERTEX
  5
874
330
872
100
AcDbEntity
  8
BEMAßUNG
 62
     7
100
AcDbVertex
100
AcDb2dVertex
 10
86.6951388672151
 20
175.0232529944386
 30
0.0
  0
VERTEX
  5
875
330
872
100
AcDbEntity
  8
BEMAßUNG
 62
     7
100
AcDbVertex
100
AcDb2dVertex
 10
86.6951388672151
 20
174.3654120115302
 30
0.0
  0
VERTEX
  5
876
330
872
100
AcDbEntity
  8
BEMAßUNG
 62
     7
100
AcDbVertex
100
AcDb2dVertex
 10
89.1949001513124
 20
174.6945908851458
 30
0.0
  0
SEQEND
  5
877
330
872
100
AcDbEntity
  8
BEMAßUNG
  0
POLYLINE
  5
878
330
1F
100
AcDbEntity
  8
BEMAßUNG
 62
     7
100
AcDb2dPolyline
 66
     1
 10
0.0
 20
0.0
 30
0.0
  0
VERTEX
  5
879
330
878
100
AcDbEntity
  8
BEMAßUNG
 62
     7
100
AcDbVertex
100
AcDb2dVertex
 10
86.6951388672151
 20
174.9996540903647
 30
0.0
  0
VERTEX
  5
87A
330
878
100
AcDbEntity
  8
BEMAßUNG
 62
     7
100
AcDbVertex
100
AcDb2dVertex
 10
86.87996823999876
 20
174.9996540903647
 30
0.0
  0
SEQEND
  5
87B
330
878
100
AcDbEntity
  8
BEMAßUNG
  0
POLYLINE
  5
87C
330
1F
100
AcDbEntity
  8
BEMAßUNG
 62
     7
100
AcDb2dPolyline
 66
     1
 10
0.0
 20
0.0
 30
0.0
  0
VERTEX
  5
87D
330
87C
100
AcDbEntity
  8
BEMAßUNG
 62
     7
100
AcDbVertex
100
AcDb2dVertex
 10
86.6951388672151
 20
174.9996540903647
 30
0.0
  0
VERTEX
  5
87E
330
87C
100
AcDbEntity
  8
BEMAßUNG
 62
     7
100
AcDbVertex
100
AcDb2dVertex
 10
86.87996823999876
 20
174.9996540903647
 30
0.0
  0
SEQEND
  5
87F
330
87C
100
AcDbEntity
  8
BEMAßUNG
  0
POLYLINE
  5
880
330
1F
100
AcDbEntity
  8
BEMAßUNG
 62
     7
100
AcDb2dPolyline
 66
     1
 10
0.0
 20
0.0
 30
0.0
  0
VERTEX
  5
881
330
880
100
AcDbEntity
  8
BEMAßUNG
 62
     7
100
AcDbVertex
100
AcDb2dVertex
 10
86.6951388672151
 20
174.9488389319573
 30
0.0
  0
VERTEX
  5
882
330
880
100
AcDbEntity
  8
BEMAßUNG
 62
     7
100
AcDbVertex
100
AcDb2dVertex
 10
87.26530217002396
 20
174.9488389319573
 30
0.0
  0
SEQEND
  5
883
330
880
100
AcDbEntity
  8
BEMAßUNG
  0
POLYLINE
  5
884
330
1F
100
AcDbEntity
  8
BEMAßUNG
 62
     7
100
AcDb2dPolyline
 66
     1
 10
0.0
 20
0.0
 30
0.0
  0
VERTEX
  5
885
330
884
100
AcDbEntity
  8
BEMAßUNG
 62
     7
100
AcDbVertex
100
AcDb2dVertex
 10
86.6951388672151
 20
174.8976792640013
 30
0.0
  0
VERTEX
  5
886
330
884
100
AcDbEntity
  8
BEMAßUNG
 62
     7
100
AcDbVertex
100
AcDb2dVertex
 10
87.65149737392046
 20
174.8976792640013
 30
0.0
  0
SEQEND
  5
887
330
884
100
AcDbEntity
  8
BEMAßUNG
  0
POLYLINE
  5
888
330
1F
100
AcDbEntity
  8
BEMAßUNG
 62
     7
100
AcDb2dPolyline
 66
     1
 10
0.0
 20
0.0
 30
0.0
  0
VERTEX
  5
889
330
888
100
AcDbEntity
  8
BEMAßUNG
 62
     7
100
AcDbVertex
100
AcDb2dVertex
 10
86.6951388672151
 20
174.8468641055939
 30
0.0
  0
VERTEX
  5
88A
330
888
100
AcDbEntity
  8
BEMAßUNG
 62
     7
100
AcDbVertex
100
AcDb2dVertex
 10
88.03752032304271
 20
174.8468641055939
 30
0.0
  0
SEQEND
  5
88B
330
888
100
AcDbEntity
  8
BEMAßUNG
  0
POLYLINE
  5
88C
330
1F
100
AcDbEntity
  8
BEMAßUNG
 62
     7
100
AcDb2dPolyline
 66
     1
 10
0.0
 20
0.0
 30
0.0
  0
VERTEX
  5
88D
330
88C
100
AcDbEntity
  8
BEMAßUNG
 62
     7
100
AcDbVertex
100
AcDb2dVertex
 10
86.6951388672151
 20
174.7960489471864
 30
0.0
  0
VERTEX
  5
88E
330
88C
100
AcDbEntity
  8
BEMAßUNG
 62
     7
100
AcDbVertex
100
AcDb2dVertex
 10
88.42337101739069
 20
174.7960489471864
 30
0.0
  0
SEQEND
  5
88F
330
88C
100
AcDbEntity
  8
BEMAßUNG
  0
POLYLINE
  5
890
330
1F
100
AcDbEntity
  8
BEMAßUNG
 62
     7
100
AcDb2dPolyline
 66
     1
 10
0.0
 20
0.0
 30
0.0
  0
VERTEX
  5
891
330
890
100
AcDbEntity
  8
BEMAßUNG
 62
     7
100
AcDbVertex
100
AcDb2dVertex
 10
86.6951388672151
 20
174.745233788779
 30
0.0
  0
VERTEX
  5
892
330
890
100
AcDbEntity
  8
BEMAßUNG
 62
     7
100
AcDbVertex
100
AcDb2dVertex
 10
88.8090494569644
 20
174.745233788779
 30
0.0
  0
SEQEND
  5
893
330
890
100
AcDbEntity
  8
BEMAßUNG
  0
POLYLINE
  5
894
330
1F
100
AcDbEntity
  8
BEMAßUNG
 62
     7
100
AcDb2dPolyline
 66
     1
 10
0.0
 20
0.0
 30
0.0
  0
VERTEX
  5
895
330
894
100
AcDbEntity
  8
BEMAßUNG
 62
     7
100
AcDbVertex
100
AcDb2dVertex
 10
86.6951388672151
 20
174.6945908851458
 30
0.0
  0
VERTEX
  5
896
330
894
100
AcDbEntity
  8
BEMAßUNG
 62
     7
100
AcDbVertex
100
AcDb2dVertex
 10
89.1949001513124
 20
174.6945908851458
 30
0.0
  0
SEQEND
  5
897
330
894
100
AcDbEntity
  8
BEMAßUNG
  0
POLYLINE
  5
898
330
1F
100
AcDbEntity
  8
BEMAßUNG
 62
     7
100
AcDb2dPolyline
 66
     1
 10
0.0
 20
0.0
 30
0.0
  0
VERTEX
  5
899
330
898
100
AcDbEntity
  8
BEMAßUNG
 62
     7
100
AcDbVertex
100
AcDb2dVertex
 10
86.6951388672151
 20
174.3893554251527
 30
0.0
  0
VERTEX
  5
89A
330
898
100
AcDbEntity
  8
BEMAßUNG
 62
     7
100
AcDbVertex
100
AcDb2dVertex
 10
86.87996823999876
 20
174.3893554251527
 30
0.0
  0
SEQEND
  5
89B
330
898
100
AcDbEntity
  8
BEMAßUNG
  0
POLYLINE
  5
89C
330
1F
100
AcDbEntity
  8
BEMAßUNG
 62
     7
100
AcDb2dPolyline
 66
     1
 10
0.0
 20
0.0
 30
0.0
  0
VERTEX
  5
89D
330
89C
100
AcDbEntity
  8
BEMAßUNG
 62
     7
100
AcDbVertex
100
AcDb2dVertex
 10
86.6951388672151
 20
174.3893554251527
 30
0.0
  0
VERTEX
  5
89E
330
89C
100
AcDbEntity
  8
BEMAßUNG
 62
     7
100
AcDbVertex
100
AcDb2dVertex
 10
86.87996823999876
 20
174.3893554251527
 30
0.0
  0
SEQEND
  5
89F
330
89C
100
AcDbEntity
  8
BEMAßUNG
  0
POLYLINE
  5
8A0
330
1F
100
AcDbEntity
  8
BEMAßUNG
 62
     7
100
AcDb2dPolyline
 66
     1
 10
0.0
 20
0.0
 30
0.0
  0
VERTEX
  5
8A1
330
8A0
100
AcDbEntity
  8
BEMAßUNG
 62
     7
100
AcDbVertex
100
AcDb2dVertex
 10
86.6951388672151
 20
174.4405150931086
 30
0.0
  0
VERTEX
  5
8A2
330
8A0
100
AcDbEntity
  8
BEMAßUNG
 62
     7
100
AcDbVertex
100
AcDb2dVertex
 10
87.26530217002396
 20
174.4405150931086
 30
0.0
  0
SEQEND
  5
8A3
330
8A0
100
AcDbEntity
  8
BEMAßUNG
  0
POLYLINE
  5
8A4
330
1F
100
AcDbEntity
  8
BEMAßUNG
 62
     7
100
AcDb2dPolyline
 66
     1
 10
0.0
 20
0.0
 30
0.0
  0
VERTEX
  5
8A5
330
8A4
100
AcDbEntity
  8
BEMAßUNG
 62
     7
100
AcDbVertex
100
AcDb2dVertex
 10
86.6951388672151
 20
174.4913302515161
 30
0.0
  0
VERTEX
  5
8A6
330
8A4
100
AcDbEntity
  8
BEMAßUNG
 62
     7
100
AcDbVertex
100
AcDb2dVertex
 10
87.65149737392046
 20
174.4913302515161
 30
0.0
  0
SEQEND
  5
8A7
330
8A4
100
AcDbEntity
  8
BEMAßUNG
  0
POLYLINE
  5
8A8
330
1F
100
AcDbEntity
  8
BEMAßUNG
 62
     7
100
AcDb2dPolyline
 66
     1
 10
0.0
 20
0.0
 30
0.0
  0
VERTEX
  5
8A9
330
8A8
100
AcDbEntity
  8
BEMAßUNG
 62
     7
100
AcDbVertex
100
AcDb2dVertex
 10
86.6951388672151
 20
174.5421454099235
 30
0.0
  0
VERTEX
  5
8AA
330
8A8
100
AcDbEntity
  8
BEMAßUNG
 62
     7
100
AcDbVertex
100
AcDb2dVertex
 10
88.03752032304271
 20
174.5421454099235
 30
0.0
  0
SEQEND
  5
8AB
330
8A8
100
AcDbEntity
  8
BEMAßUNG
  0
POLYLINE
  5
8AC
330
1F
100
AcDbEntity
  8
BEMAßUNG
 62
     7
100
AcDb2dPolyline
 66
     1
 10
0.0
 20
0.0
 30
0.0
  0
VERTEX
  5
8AD
330
8AC
100
AcDbEntity
  8
BEMAßUNG
 62
     7
100
AcDbVertex
100
AcDb2dVertex
 10
86.6951388672151
 20
174.5929605683309
 30
0.0
  0
VERTEX
  5
8AE
330
8AC
100
AcDbEntity
  8
BEMAßUNG
 62
     7
100
AcDbVertex
100
AcDb2dVertex
 10
88.42337101739069
 20
174.5929605683309
 30
0.0
  0
SEQEND
  5
8AF
330
8AC
100
AcDbEntity
  8
BEMAßUNG
  0
POLYLINE
  5
8B0
330
1F
100
AcDbEntity
  8
BEMAßUNG
 62
     7
100
AcDb2dPolyline
 66
     1
 10
0.0
 20
0.0
 30
0.0
  0
VERTEX
  5
8B1
330
8B0
100
AcDbEntity
  8
BEMAßUNG
 62
     7
100
AcDbVertex
100
AcDb2dVertex
 10
86.6951388672151
 20
174.6437757267384
 30
0.0
  0
VERTEX
  5
8B2
330
8B0
100
AcDbEntity
  8
BEMAßUNG
 62
     7
100
AcDbVertex
100
AcDb2dVertex
 10
88.8090494569644
 20
174.6437757267384
 30
0.0
  0
SEQEND
  5
8B3
330
8B0
100
AcDbEntity
  8
BEMAßUNG
  0
POLYLINE
  5
8B4
330
1F
100
AcDbEntity
  8
BEMAßUNG
 62
     7
100
AcDb2dPolyline
 66
     1
 10
0.0
 20
0.0
 30
0.0
  0
VERTEX
  5
8B5
330
8B4
100
AcDbEntity
  8
BEMAßUNG
 62
     7
100
AcDbVertex
100
AcDb2dVertex
 10
86.6951388672151
 20
174.6945908851458
 30
0.0
  0
VERTEX
  5
8B6
330
8B4
100
AcDbEntity
  8
BEMAßUNG
 62
     7
100
AcDbVertex
100
AcDb2dVertex
 10
89.1949001513124
 20
174.6945908851458
 30
0.0
  0
SEQEND
  5
8B7
330
8B4
100
AcDbEntity
  8
BEMAßUNG
  0
POLYLINE
  5
8B8
330
1F
100
AcDbEntity
  8
BEMAßUNG
 62
     7
100
AcDb2dPolyline
 66
     1
 10
0.0
 20
0.0
 30
0.0
  0
VERTEX
  5
8B9
330
8B8
100
AcDbEntity
  8
BEMAßUNG
 62
     7
100
AcDbVertex
100
AcDb2dVertex
 10
61.19488659494434
 20
174.6945908851458
 30
0.0
  0
VERTEX
  5
8BA
330
8B8
100
AcDbEntity
  8
BEMAßUNG
 62
     7
100
AcDbVertex
100
AcDb2dVertex
 10
63.69464787904162
 20
174.3654120115302
 30
0.0
  0
VERTEX
  5
8BB
330
8B8
100
AcDbEntity
  8
BEMAßUNG
 62
     7
100
AcDbVertex
100
AcDb2dVertex
 10
63.69464787904162
 20
175.0232529944386
 30
0.0
  0
VERTEX
  5
8BC
330
8B8
100
AcDbEntity
  8
BEMAßUNG
 62
     7
100
AcDbVertex
100
AcDb2dVertex
 10
61.19488659494434
 20
174.6945908851458
 30
0.0
  0
SEQEND
  5
8BD
330
8B8
100
AcDbEntity
  8
BEMAßUNG
  0
POLYLINE
  5
8BE
330
1F
100
AcDbEntity
  8
BEMAßUNG
 62
     7
100
AcDb2dPolyline
 66
     1
 10
0.0
 20
0.0
 30
0.0
  0
VERTEX
  5
8BF
330
8BE
100
AcDbEntity
  8
BEMAßUNG
 62
     7
100
AcDbVertex
100
AcDb2dVertex
 10
63.69464787904162
 20
174.3893554251527
 30
0.0
  0
VERTEX
  5
8C0
330
8BE
100
AcDbEntity
  8
BEMAßUNG
 62
     7
100
AcDbVertex
100
AcDb2dVertex
 10
63.50981850625796
 20
174.3893554251527
 30
0.0
  0
SEQEND
  5
8C1
330
8BE
100
AcDbEntity
  8
BEMAßUNG
  0
POLYLINE
  5
8C2
330
1F
100
AcDbEntity
  8
BEMAßUNG
 62
     7
100
AcDb2dPolyline
 66
     1
 10
0.0
 20
0.0
 30
0.0
  0
VERTEX
  5
8C3
330
8C2
100
AcDbEntity
  8
BEMAßUNG
 62
     7
100
AcDbVertex
100
AcDb2dVertex
 10
63.69464787904162
 20
174.3893554251527
 30
0.0
  0
VERTEX
  5
8C4
330
8C2
100
AcDbEntity
  8
BEMAßUNG
 62
     7
100
AcDbVertex
100
AcDb2dVertex
 10
63.50981850625796
 20
174.3893554251527
 30
0.0
  0
SEQEND
  5
8C5
330
8C2
100
AcDbEntity
  8
BEMAßUNG
  0
POLYLINE
  5
8C6
330
1F
100
AcDbEntity
  8
BEMAßUNG
 62
     7
100
AcDb2dPolyline
 66
     1
 10
0.0
 20
0.0
 30
0.0
  0
VERTEX
  5
8C7
330
8C6
100
AcDbEntity
  8
BEMAßUNG
 62
     7
100
AcDbVertex
100
AcDb2dVertex
 10
63.69464787904162
 20
174.4405150931086
 30
0.0
  0
VERTEX
  5
8C8
330
8C6
100
AcDbEntity
  8
BEMAßUNG
 62
     7
100
AcDbVertex
100
AcDb2dVertex
 10
63.12431232145851
 20
174.4405150931086
 30
0.0
  0
SEQEND
  5
8C9
330
8C6
100
AcDbEntity
  8
BEMAßUNG
  0
POLYLINE
  5
8CA
330
1F
100
AcDbEntity
  8
BEMAßUNG
 62
     7
100
AcDb2dPolyline
 66
     1
 10
0.0
 20
0.0
 30
0.0
  0
VERTEX
  5
8CB
330
8CA
100
AcDbEntity
  8
BEMAßUNG
 62
     7
100
AcDbVertex
100
AcDb2dVertex
 10
63.69464787904162
 20
174.4913302515161
 30
0.0
  0
VERTEX
  5
8CC
330
8CA
100
AcDbEntity
  8
BEMAßUNG
 62
     7
100
AcDbVertex
100
AcDb2dVertex
 10
62.73828937233626
 20
174.4913302515161
 30
0.0
  0
SEQEND
  5
8CD
330
8CA
100
AcDbEntity
  8
BEMAßUNG
  0
POLYLINE
  5
8CE
330
1F
100
AcDbEntity
  8
BEMAßUNG
 62
     7
100
AcDb2dPolyline
 66
     1
 10
0.0
 20
0.0
 30
0.0
  0
VERTEX
  5
8CF
330
8CE
100
AcDbEntity
  8
BEMAßUNG
 62
     7
100
AcDbVertex
100
AcDb2dVertex
 10
63.69464787904162
 20
174.5421454099235
 30
0.0
  0
VERTEX
  5
8D0
330
8CE
100
AcDbEntity
  8
BEMAßUNG
 62
     7
100
AcDbVertex
100
AcDb2dVertex
 10
62.35243867798828
 20
174.5421454099235
 30
0.0
  0
SEQEND
  5
8D1
330
8CE
100
AcDbEntity
  8
BEMAßUNG
  0
POLYLINE
  5
8D2
330
1F
100
AcDbEntity
  8
BEMAßUNG
 62
     7
100
AcDb2dPolyline
 66
     1
 10
0.0
 20
0.0
 30
0.0
  0
VERTEX
  5
8D3
330
8D2
100
AcDbEntity
  8
BEMAßUNG
 62
     7
100
AcDbVertex
100
AcDb2dVertex
 10
63.69464787904162
 20
174.5929605683309
 30
0.0
  0
VERTEX
  5
8D4
330
8D2
100
AcDbEntity
  8
BEMAßUNG
 62
     7
100
AcDbVertex
100
AcDb2dVertex
 10
61.96641572886604
 20
174.5929605683309
 30
0.0
  0
SEQEND
  5
8D5
330
8D2
100
AcDbEntity
  8
BEMAßUNG
  0
POLYLINE
  5
8D6
330
1F
100
AcDbEntity
  8
BEMAßUNG
 62
     7
100
AcDb2dPolyline
 66
     1
 10
0.0
 20
0.0
 30
0.0
  0
VERTEX
  5
8D7
330
8D6
100
AcDbEntity
  8
BEMAßUNG
 62
     7
100
AcDbVertex
100
AcDb2dVertex
 10
63.69464787904162
 20
174.6437757267384
 30
0.0
  0
VERTEX
  5
8D8
330
8D6
100
AcDbEntity
  8
BEMAßUNG
 62
     7
100
AcDbVertex
100
AcDb2dVertex
 10
61.58090954406658
 20
174.6437757267384
 30
0.0
  0
SEQEND
  5
8D9
330
8D6
100
AcDbEntity
  8
BEMAßUNG
  0
POLYLINE
  5
8DA
330
1F
100
AcDbEntity
  8
BEMAßUNG
 62
     7
100
AcDb2dPolyline
 66
     1
 10
0.0
 20
0.0
 30
0.0
  0
VERTEX
  5
8DB
330
8DA
100
AcDbEntity
  8
BEMAßUNG
 62
     7
100
AcDbVertex
100
AcDb2dVertex
 10
63.69464787904162
 20
174.6945908851458
 30
0.0
  0
VERTEX
  5
8DC
330
8DA
100
AcDbEntity
  8
BEMAßUNG
 62
     7
100
AcDbVertex
100
AcDb2dVertex
 10
61.19488659494434
 20
174.6945908851458
 30
0.0
  0
SEQEND
  5
8DD
330
8DA
100
AcDbEntity
  8
BEMAßUNG
  0
POLYLINE
  5
8DE
330
1F
100
AcDbEntity
  8
BEMAßUNG
 62
     7
100
AcDb2dPolyline
 66
     1
 10
0.0
 20
0.0
 30
0.0
  0
VERTEX
  5
8DF
330
8DE
100
AcDbEntity
  8
BEMAßUNG
 62
     7
100
AcDbVertex
100
AcDb2dVertex
 10
63.69464787904162
 20
174.9996540903647
 30
0.0
  0
VERTEX
  5
8E0
330
8DE
100
AcDbEntity
  8
BEMAßUNG
 62
     7
100
AcDbVertex
100
AcDb2dVertex
 10
63.50981850625796
 20
174.9996540903647
 30
0.0
  0
SEQEND
  5
8E1
330
8DE
100
AcDbEntity
  8
BEMAßUNG
  0
POLYLINE
  5
8E2
330
1F
100
AcDbEntity
  8
BEMAßUNG
 62
     7
100
AcDb2dPolyline
 66
     1
 10
0.0
 20
0.0
 30
0.0
  0
VERTEX
  5
8E3
330
8E2
100
AcDbEntity
  8
BEMAßUNG
 62
     7
100
AcDbVertex
100
AcDb2dVertex
 10
63.69464787904162
 20
174.9996540903647
 30
0.0
  0
VERTEX
  5
8E4
330
8E2
100
AcDbEntity
  8
BEMAßUNG
 62
     7
100
AcDbVertex
100
AcDb2dVertex
 10
63.50981850625796
 20
174.9996540903647
 30
0.0
  0
SEQEND
  5
8E5
330
8E2
100
AcDbEntity
  8
BEMAßUNG
  0
POLYLINE
  5
8E6
330
1F
100
AcDbEntity
  8
BEMAßUNG
 62
     7
100
AcDb2dPolyline
 66
     1
 10
0.0
 20
0.0
 30
0.0
  0
VERTEX
  5
8E7
330
8E6
100
AcDbEntity
  8
BEMAßUNG
 62
     7
100
AcDbVertex
100
AcDb2dVertex
 10
63.69464787904162
 20
174.9488389319573
 30
0.0
  0
VERTEX
  5
8E8
330
8E6
100
AcDbEntity
  8
BEMAßUNG
 62
     7
100
AcDbVertex
100
AcDb2dVertex
 10
63.12431232145851
 20
174.9488389319573
 30
0.0
  0
SEQEND
  5
8E9
330
8E6
100
AcDbEntity
  8
BEMAßUNG
  0
POLYLINE
  5
8EA
330
1F
100
AcDbEntity
  8
BEMAßUNG
 62
     7
100
AcDb2dPolyline
 66
     1
 10
0.0
 20
0.0
 30
0.0
  0
VERTEX
  5
8EB
330
8EA
100
AcDbEntity
  8
BEMAßUNG
 62
     7
100
AcDbVertex
100
AcDb2dVertex
 10
63.69464787904162
 20
174.8976792640013
 30
0.0
  0
VERTEX
  5
8EC
330
8EA
100
AcDbEntity
  8
BEMAßUNG
 62
     7
100
AcDbVertex
100
AcDb2dVertex
 10
62.73828937233626
 20
174.8976792640013
 30
0.0
  0
SEQEND
  5
8ED
330
8EA
100
AcDbEntity
  8
BEMAßUNG
  0
POLYLINE
  5
8EE
330
1F
100
AcDbEntity
  8
BEMAßUNG
 62
     7
100
AcDb2dPolyline
 66
     1
 10
0.0
 20
0.0
 30
0.0
  0
VERTEX
  5
8EF
330
8EE
100
AcDbEntity
  8
BEMAßUNG
 62
     7
100
AcDbVertex
100
AcDb2dVertex
 10
63.69464787904162
 20
174.8468641055939
 30
0.0
  0
VERTEX
  5
8F0
330
8EE
100
AcDbEntity
  8
BEMAßUNG
 62
     7
100
AcDbVertex
100
AcDb2dVertex
 10
62.35243867798828
 20
174.8468641055939
 30
0.0
  0
SEQEND
  5
8F1
330
8EE
100
AcDbEntity
  8
BEMAßUNG
  0
POLYLINE
  5
8F2
330
1F
100
AcDbEntity
  8
BEMAßUNG
 62
     7
100
AcDb2dPolyline
 66
     1
 10
0.0
 20
0.0
 30
0.0
  0
VERTEX
  5
8F3
330
8F2
100
AcDbEntity
  8
BEMAßUNG
 62
     7
100
AcDbVertex
100
AcDb2dVertex
 10
63.69464787904162
 20
174.7960489471864
 30
0.0
  0
VERTEX
  5
8F4
330
8F2
100
AcDbEntity
  8
BEMAßUNG
 62
     7
100
AcDbVertex
100
AcDb2dVertex
 10
61.96641572886604
 20
174.7960489471864
 30
0.0
  0
SEQEND
  5
8F5
330
8F2
100
AcDbEntity
  8
BEMAßUNG
  0
POLYLINE
  5
8F6
330
1F
100
AcDbEntity
  8
BEMAßUNG
 62
     7
100
AcDb2dPolyline
 66
     1
 10
0.0
 20
0.0
 30
0.0
  0
VERTEX
  5
8F7
330
8F6
100
AcDbEntity
  8
BEMAßUNG
 62
     7
100
AcDbVertex
100
AcDb2dVertex
 10
63.69464787904162
 20
174.745233788779
 30
0.0
  0
VERTEX
  5
8F8
330
8F6
100
AcDbEntity
  8
BEMAßUNG
 62
     7
100
AcDbVertex
100
AcDb2dVertex
 10
61.58090954406658
 20
174.745233788779
 30
0.0
  0
SEQEND
  5
8F9
330
8F6
100
AcDbEntity
  8
BEMAßUNG
  0
POLYLINE
  5
8FA
330
1F
100
AcDbEntity
  8
BEMAßUNG
 62
     7
100
AcDb2dPolyline
 66
     1
 10
0.0
 20
0.0
 30
0.0
  0
VERTEX
  5
8FB
330
8FA
100
AcDbEntity
  8
BEMAßUNG
 62
     7
100
AcDbVertex
100
AcDb2dVertex
 10
63.69464787904162
 20
174.6945908851458
 30
0.0
  0
VERTEX
  5
8FC
330
8FA
100
AcDbEntity
  8
BEMAßUNG
 62
     7
100
AcDbVertex
100
AcDb2dVertex
 10
61.19488659494434
 20
174.6945908851458
 30
0.0
  0
SEQEND
  5
8FD
330
8FA
100
AcDbEntity
  8
BEMAßUNG
  0
MTEXT
  5
8FF
330
1F
100
AcDbEntity
  8
TEXT
 62
     7
100
AcDbMText
 10
108.4317965766247
 20
215.9856966962206
 30
0.0
 40
3.311186211711877
 41
0.0
 71
     7
 72
     1
  1
\fINDEX Univers 45 Light|b0|i0|c0|p34;\W1;ø20h6
 11
-4.371139000186241E-8
 21
0.999999999999999
 31
0.0
  0
MTEXT
  5
900
330
1F
100
AcDbEntity
  8
TEXT
 62
     7
100
AcDbMText
 10
40.43146836011783
 20
211.4144856242297
 30
0.0
 40
3.311186211711877
 41
0.0
 71
     7
 72
     1
  1
\fINDEX Univers 45 Light|b0|i0|c0|p34;\W1;ø12H7
 11
-4.371139000186241E-8
 21
0.999999999999999
 31
0.0
  0
MTEXT
  5
901
330
1F
100
AcDbEntity
  8
TEXT
 62
     7
100
AcDbMText
 10
64.17696124697659
 20
235.5810553067732
 30
0.0
 40
3.311186211711877
 41
0.0
 71
     7
 72
     1
  1
\fINDEX Univers 45 Light|b0|i0|c0|p34;\W1;11
  0
MTEXT
  5
902
330
1F
100
AcDbEntity
  8
TEXT
 62
     7
100
AcDbMText
 10
79.34330510169195
 20
225.4576422233665
 30
0.0
 40
3.311186211711877
 41
0.0
 71
     7
 72
     1
  1
\fINDEX Univers 45 Light|b0|i0|c0|p34;\W1;ø12
  0
MTEXT
  5
903
330
1F
100
AcDbEntity
  8
TEXT
 62
     7
100
AcDbMText
 10
98.14680851495983
 20
201.7311834890637
 30
0.0
 40
3.311186211711877
 41
0.0
 71
     7
 72
     1
  1
\fINDEX Univers 45 Light|b0|i0|c0|p34;\W1;ø6
 11
-4.371139000186241E-8
 21
0.999999999999999
 31
0.0
  0
MTEXT
  5
904
330
1F
100
AcDbEntity
  8
TEXT
 62
     7
100
AcDbMText
 10
68.05768905633627
 20
185.5810926185353
 30
0.0
 40
3.311186211711877
 41
0.0
 71
     7
 72
     1
  1
\fINDEX Univers 45 Light|b0|i0|c0|p34;\W1;20
  0
MTEXT
  5
905
330
1F
100
AcDbEntity
  8
TEXT
 62
     7
100
AcDbMText
 10
71.91499021639626
 20
175.5813584630491
 30
0.0
 40
3.311186211711877
 41
0.0
 71
     7
 72
     1
  1
\fINDEX Univers 45 Light|b0|i0|c0|p34;\W1;28
  0
ENDSEC
  0
SECTION
  2
OBJECTS
  0
DICTIONARY
  5
C
330
0
100
AcDbDictionary
  3
ACAD_GROUP
350
D
  3
ACAD_LAYOUT
350
1A
  3
ACAD_MLINESTYLE
350
17
  3
ACAD_PLOTSETTINGS
350
19
  3
ACAD_TABLESTYLE
350
926
  3
ACAD_VISUALSTYLE
350
2A
  3
ACDBHEADERROUNDTRIPXREC
350
906
  0
DICTIONARY
  5
D
102
{ACAD_REACTORS
330
C
102
}
330
C
100
AcDbDictionary
  0
DICTIONARY
  5
1A
102
{ACAD_REACTORS
330
C
102
}
330
C
100
AcDbDictionary
  0
DICTIONARY
  5
17
102
{ACAD_REACTORS
330
C
102
}
330
C
100
AcDbDictionary
  3
STANDARD
350
18
  0
DICTIONARY
  5
19
102
{ACAD_REACTORS
330
C
102
}
330
C
100
AcDbDictionary
  0
DICTIONARY
  5
926
102
{ACAD_REACTORS
330
C
102
}
330
C
100
AcDbDictionary
  0
DICTIONARY
  5
2A
102
{ACAD_REACTORS
330
C
102
}
330
C
100
AcDbDictionary
  3
2DWIREFRAME
350
2F
  3
3D_HIDDEN
350
31
  3
3DWIREFRAME
350
30
  3
BASIC
350
32
  3
BRIGHTEN
350
36
  3
COLORCHANGE
350
3A
  3
CONCEPTUAL
350
34
  3
DIM
350
35
  3
FACEPATTERN
350
39
  3
FLAT
350
2B
  3
FLATWITHEDGES
350
2C
  3
GOURAUD
350
2D
  3
GOURAUDWITHEDGES
350
2E
  3
LINEPATTERN
350
38
  3
REALISTIC
350
33
  3
THICKEN
350
37
  0
DICTIONARY
  5
906
102
{ACAD_REACTORS
330
C
102
}
330
C
100
AcDbDictionary
  3
CEPSNTYPE
350
90F
  3
DIMSTYLEDATA
350
925
  3
FINGERPRINTGUID
350
910
  3
HYPERLINKBASE
350
909
  3
INSUNITS
350
90E
  3
LAYOUTDICT
350
90B
  3
LWETCUNION
350
90D
  3
PLOTSETDICT
350
90C
  3
PSVPSCALE
350
912
  3
PUCSBASE
350
915
  3
PUCSORGBACK
350
91B
  3
PUCSORGBOTTOM
350
917
  3
PUCSORGFRONT
350
91A
  3
PUCSORGLEFT
350
918
  3
PUCSORGRIGHT
350
919
  3
PUCSORGTOP
350
916
  3
PUCSORTHOREF
350
913
  3
PUCSORTHOVIEW
350
914
  3
STYLESHEET
350
90A
  3
TSTACKALIGN
350
907
  3
TSTACKSIZE
350
908
  3
UCSBASE
350
91E
  3
UCSORGBACK
350
924
  3
UCSORGBOTTOM
350
920
  3
UCSORGFRONT
350
923
  3
UCSORGLEFT
350
921
  3
UCSORGRIGHT
350
922
  3
UCSORGTOP
350
91F
  3
UCSORTHOREF
350
91C
  3
UCSORTHOVIEW
350
91D
  3
VERSIONGUID
350
911
  0
MLINESTYLE
  5
18
102
{ACAD_REACTORS
330
17
102
}
330
17
100
AcDbMlineStyle
  2
Standard
 70
     0
  3

 62
   256
 51
90.0
 52
90.0
 71
     2
 49
0.5
 62
   256
  6
BYLAYER
 49
-0.5
 62
   256
  6
BYLAYER
  0
VISUALSTYLE
  5
2F
102
{ACAD_REACTORS
330
2A
102
}
330
2A
100
AcDbVisualStyle
  2
2dWireframe
 70
     4
 71
     0
 72
     2
 73
     0
 90
        0
 40
-0.6
 41
-30.0
 62
     5
 63
     7
 74
     1
 91
        4
 64
     7
 65
   257
 75
     1
175
     1
 42
1.0
 92
        0
 66
   257
 43
1.0
 76
     1
 77
     6
 78
     2
 67
     7
 79
     5
170
     0
171
     0
290
     0
174
     0
 93
        1
 44
0.0
173
     0
291
     0
 45
0.0
1001
ACAD
1000
AcDbSavedByObjectVersion
1070
     0
  0
VISUALSTYLE
  5
31
102
{ACAD_REACTORS
330
2A
102
}
330
2A
100
AcDbVisualStyle
  2
3D Hidden
 70
     6
 71
     1
 72
     2
 73
     2
 90
        0
 40
-0.6
 41
-30.0
 62
     5
 63
     7
 74
     2
 91
        2
 64
     7
 65
   257
 75
     2
175
     1
 42
40.0
 92
        0
 66
   257
 43
1.0
 76
     1
 77
     6
 78
     2
 67
     7
 79
     3
170
     0
171
     0
290
     0
174
     0
 93
        1
 44
0.0
173
     0
291
     0
 45
0.0
1001
ACAD
1000
AcDbSavedByObjectVersion
1070
     0
  0
VISUALSTYLE
  5
30
102
{ACAD_REACTORS
330
2A
102
}
330
2A
100
AcDbVisualStyle
  2
3dWireframe
 70
     5
 71
     0
 72
     2
 73
     0
 90
        0
 40
-0.6
 41
-30.0
 62
     5
 63
     7
 74
     1
 91
        4
 64
     7
 65
   257
 75
     1
175
     1
 42
1.0
 92
        0
 66
   257
 43
1.0
 76
     1
 77
     6
 78
     2
 67
     7
 79
     5
170
     0
171
     0
290
     0
174
     0
 93
        1
 44
0.0
173
     0
291
     0
 45
0.0
1001
ACAD
1000
AcDbSavedByObjectVersion
1070
     0
  0
VISUALSTYLE
  5
32
102
{ACAD_REACTORS
330
2A
102
}
330
2A
100
AcDbVisualStyle
  2
Basic
 70
     7
 71
     1
 72
     0
 73
     1
 90
        0
 40
-0.6
 41
-30.0
 62
     5
 63
     7
 74
     0
 91
        4
 64
     7
 65
   257
 75
     1
175
     1
 42
1.0
 92
        8
 66
     7
 43
1.0
 76
     1
 77
     6
 78
     2
 67
     7
 79
     5
170
     0
171
     0
290
     0
174
     0
 93
        1
 44
0.0
173
     0
291
     1
 45
0.0
1001
ACAD
1000
AcDbSavedByObjectVersion
1070
     0
  0
VISUALSTYLE
  5
36
102
{ACAD_REACTORS
330
2A
102
}
330
2A
100
AcDbVisualStyle
  2
Brighten
 70
    12
 71
     2
 72
     2
 73
     0
 90
        0
 40
-0.6
 41
-30.0
 62
     5
 63
     7
 74
     1
 91
        4
 64
     7
 65
   257
 75
     1
175
     1
 42
1.0
 92
        8
 66
     7
 43
1.0
 76
     1
 77
     6
 78
     2
 67
     7
 79
     5
170
     0
171
     0
290
     0
174
     0
 93
        1
 44
50.0
173
     0
291
     1
 45
0.0
1001
ACAD
1000
AcDbSavedByObjectVersion
1070
     0
  0
VISUALSTYLE
  5
3A
102
{ACAD_REACTORS
330
2A
102
}
330
2A
100
AcDbVisualStyle
  2
ColorChange
 70
    16
 71
     2
 72
     2
 73
     3
 90
        0
 40
-0.6
 41
-30.0
 62
     5
 63
     8
 74
     1
 91
        4
 64
     7
 65
   257
 75
     1
175
     1
 42
1.0
 92
        8
 66
     8
 43
1.0
 76
     1
 77
     6
 78
     2
 67
     7
 79
     5
170
     0
171
     0
290
     0
174
     0
 93
        1
 44
0.0
173
     0
291
     1
 45
0.0
1001
ACAD
1000
AcDbSavedByObjectVersion
1070
     0
  0
VISUALSTYLE
  5
34
102
{ACAD_REACTORS
330
2A
102
}
330
2A
100
AcDbVisualStyle
  2
Conceptual
 70
     9
 71
     3
 72
     2
 73
     0
 90
        0
 40
-0.6
 41
-30.0
 62
     5
 63
     7
 74
     2
 91
        2
 64
     7
 65
   257
 75
     1
175
     1
 42
40.0
 92
        8
 66
     7
 43
1.0
 76
     1
 77
     6
 78
     2
 67
     7
 79
     3
170
     0
171
     0
290
     0
174
     0
 93
        1
 44
0.0
173
     0
291
     0
 45
0.0
1001
ACAD
1000
AcDbSavedByObjectVersion
1070
     0
  0
VISUALSTYLE
  5
35
102
{ACAD_REACTORS
330
2A
102
}
330
2A
100
AcDbVisualStyle
  2
Dim
 70
    11
 71
     2
 72
     2
 73
     0
 90
        0
 40
-0.6
 41
-30.0
 62
     5
 63
     7
 74
     1
 91
        4
 64
     7
 65
   257
 75
     1
175
     1
 42
1.0
 92
        8
 66
     7
 43
1.0
 76
     1
 77
     6
 78
     2
 67
     7
 79
     5
170
     0
171
     0
290
     0
174
     0
 93
        1
 44
-50.0
173
     0
291
     1
 45
0.0
1001
ACAD
1000
AcDbSavedByObjectVersion
1070
     0
  0
VISUALSTYLE
  5
39
102
{ACAD_REACTORS
330
2A
102
}
330
2A
100
AcDbVisualStyle
  2
Facepattern
 70
    15
 71
     2
 72
     2
 73
     0
 90
        0
 40
-0.6
 41
-30.0
 62
     5
 63
     7
 74
     1
 91
        4
 64
     7
 65
   257
 75
     1
175
     1
 42
1.0
 92
        8
 66
     7
 43
1.0
 76
     1
 77
     6
 78
     2
 67
     7
 79
     5
170
     0
171
     0
290
     0
174
     0
 93
        1
 44
0.0
173
     0
291
     1
 45
0.0
1001
ACAD
1000
AcDbSavedByObjectVersion
1070
     0
  0
VISUALSTYLE
  5
2B
102
{ACAD_REACTORS
330
2A
102
}
330
2A
100
AcDbVisualStyle
  2
Flat
 70
     0
 71
     2
 72
     1
 73
     1
 90
        2
 40
-0.6
 41
30.0
 62
     5
 63
     7
 74
     0
 91
        4
 64
     7
 65
   257
 75
     1
175
     1
 42
1.0
 92
        8
 66
     7
 43
1.0
 76
     1
 77
     6
 78
     2
 67
     7
 79
     5
170
     0
171
     0
290
     0
174
     0
 93
       13
 44
0.0
173
     0
291
     1
 45
0.0
1001
ACAD
1000
AcDbSavedByObjectVersion
1070
     0
  0
VISUALSTYLE
  5
2C
102
{ACAD_REACTORS
330
2A
102
}
330
2A
100
AcDbVisualStyle
  2
FlatWithEdges
 70
     1
 71
     2
 72
     1
 73
     1
 90
        2
 40
-0.6
 41
30.0
 62
     5
 63
     7
 74
     1
 91
        4
 64
     7
 65
   257
 75
     1
175
     1
 42
1.0
 92
        0
 66
   257
 43
1.0
 76
     1
 77
     6
 78
     2
 67
     7
 79
     5
170
     0
171
     0
290
     0
174
     0
 93
       13
 44
0.0
173
     0
291
     1
 45
0.0
1001
ACAD
1000
AcDbSavedByObjectVersion
1070
     0
  0
VISUALSTYLE
  5
2D
102
{ACAD_REACTORS
330
2A
102
}
330
2A
100
AcDbVisualStyle
  2
Gouraud
 70
     2
 71
     2
 72
     2
 73
     1
 90
        2
 40
-0.6
 41
30.0
 62
     5
 63
     7
 74
     0
 91
        4
 64
     7
 65
   257
 75
     1
175
     1
 42
1.0
 92
        0
 66
     7
 43
1.0
 76
     1
 77
     6
 78
     2
 67
     7
 79
     5
170
     0
171
     0
290
     0
174
     0
 93
       13
 44
0.0
173
     0
291
     1
 45
0.0
1001
ACAD
1000
AcDbSavedByObjectVersion
1070
     0
  0
VISUALSTYLE
  5
2E
102
{ACAD_REACTORS
330
2A
102
}
330
2A
100
AcDbVisualStyle
  2
GouraudWithEdges
 70
     3
 71
     2
 72
     2
 73
     1
 90
        2
 40
-0.6
 41
30.0
 62
     5
 63
     7
 74
     1
 91
        4
 64
     7
 65
   257
 75
     1
175
     1
 42
1.0
 92
        0
 66
   257
 43
1.0
 76
     1
 77
     6
 78
     2
 67
     7
 79
     5
170
     0
171
     0
290
     0
174
     0
 93
       13
 44
0.0
173
     0
291
     1
 45
0.0
1001
ACAD
1000
AcDbSavedByObjectVersion
1070
     0
  0
VISUALSTYLE
  5
38
102
{ACAD_REACTORS
330
2A
102
}
330
2A
100
AcDbVisualStyle
  2
Linepattern
 70
    14
 71
     2
 72
     2
 73
     0
 90
        0
 40
-0.6
 41
-30.0
 62
     5
 63
     7
 74
     1
 91
        4
 64
     7
 65
   257
 75
     7
175
     7
 42
1.0
 92
        8
 66
     7
 43
1.0
 76
     1
 77
     6
 78
     2
 67
     7
 79
     5
170
     0
171
     0
290
     0
174
     0
 93
        1
 44
0.0
173
     0
291
     1
 45
0.0
1001
ACAD
1000
AcDbSavedByObjectVersion
1070
     0
  0
VISUALSTYLE
  5
33
102
{ACAD_REACTORS
330
2A
102
}
330
2A
100
AcDbVisualStyle
  2
Realistic
 70
     8
 71
     2
 72
     2
 73
     0
 90
        0
 40
-0.6
 41
-30.0
 62
     5
 63
     7
 74
     1
 91
        0
 64
     7
 65
   257
 75
     1
175
     1
 42
1.0
 92
        8
 66
     8
 43
1.0
 76
     1
 77
     6
 78
     2
 67
     7
 79
     5
170
     0
171
     0
290
     0
174
     0
 93
       13
 44
0.0
173
     0
291
     0
 45
0.0
1001
ACAD
1000
AcDbSavedByObjectVersion
1070
     0
  0
VISUALSTYLE
  5
37
102
{ACAD_REACTORS
330
2A
102
}
330
2A
100
AcDbVisualStyle
  2
Thicken
 70
    13
 71
     2
 72
     2
 73
     0
 90
        0
 40
-0.6
 41
-30.0
 62
     5
 63
     7
 74
     1
 91
        4
 64
     7
 65
   257
 75
     1
175
     1
 42
1.0
 92
       12
 66
     7
 43
1.0
 76
     1
 77
     6
 78
     2
 67
     7
 79
     5
170
     0
171
     0
290
     0
174
     0
 93
        1
 44
0.0
173
     0
291
     1
 45
0.0
1001
ACAD
1000
AcDbSavedByObjectVersion
1070
     0
  0
XRECORD
  5
90F
102
{ACAD_REACTORS
330
906
102
}
330
906
100
AcDbXrecord
 90
        0
  0
XRECORD
  5
925
102
{ACAD_REACTORS
330
906
102
}
330
906
100
AcDbXrecord
1000
DSTYLE
1002
{
1070
   340
340
11
1002
}
  0
XRECORD
  5
910
102
{ACAD_REACTORS
330
906
102
}
330
906
100
AcDbXrecord
  1
{639B2A11-168A-4E42-B665-132CBF4CE817}
  0
XRECORD
  5
909
102
{ACAD_REACTORS
330
906
102
}
330
906
100
AcDbXrecord
  1

  0
XRECORD
  5
90E
102
{ACAD_REACTORS
330
906
102
}
330
906
100
AcDbXrecord
 90
        1
  0
XRECORD
  5
90B
102
{ACAD_REACTORS
330
906
102
}
330
906
100
AcDbXrecord
340
1A
  0
XRECORD
  5
90D
102
{ACAD_REACTORS
330
906
102
}
330
906
100
AcDbXrecord
 90
    10269
  0
XRECORD
  5
90C
102
{ACAD_REACTORS
330
906
102
}
330
906
100
AcDbXrecord
340
19
  0
XRECORD
  5
912
102
{ACAD_REACTORS
330
906
102
}
330
906
100
AcDbXrecord
 40
0.0
  0
XRECORD
  5
915
102
{ACAD_REACTORS
330
906
102
}
330
906
100
AcDbXrecord
340
0
  0
XRECORD
  5
91B
102
{ACAD_REACTORS
330
906
102
}
330
906
100
AcDbXrecord
 10
0.0
 20
0.0
 30
0.0
  0
XRECORD
  5
917
102
{ACAD_REACTORS
330
906
102
}
330
906
100
AcDbXrecord
 10
0.0
 20
0.0
 30
0.0
  0
XRECORD
  5
91A
102
{ACAD_REACTORS
330
906
102
}
330
906
100
AcDbXrecord
 10
0.0
 20
0.0
 30
0.0
  0
XRECORD
  5
918
102
{ACAD_REACTORS
330
906
102
}
330
906
100
AcDbXrecord
 10
0.0
 20
0.0
 30
0.0
  0
XRECORD
  5
919
102
{ACAD_REACTORS
330
906
102
}
330
906
100
AcDbXrecord
 10
0.0
 20
0.0
 30
0.0
  0
XRECORD
  5
916
102
{ACAD_REACTORS
330
906
102
}
330
906
100
AcDbXrecord
 10
0.0
 20
0.0
 30
0.0
  0
XRECORD
  5
913
102
{ACAD_REACTORS
330
906
102
}
330
906
100
AcDbXrecord
340
0
  0
XRECORD
  5
914
102
{ACAD_REACTORS
330
906
102
}
330
906
100
AcDbXrecord
 70
     0
  0
XRECORD
  5
90A
102
{ACAD_REACTORS
330
906
102
}
330
906
100
AcDbXrecord
  1

  0
XRECORD
  5
907
102
{ACAD_REACTORS
330
906
102
}
330
906
100
AcDbXrecord
 90
        1
  0
XRECORD
  5
908
102
{ACAD_REACTORS
330
906
102
}
330
906
100
AcDbXrecord
 90
       70
  0
XRECORD
  5
91E
102
{ACAD_REACTORS
330
906
102
}
330
906
100
AcDbXrecord
340
0
  0
XRECORD
  5
924
102
{ACAD_REACTORS
330
906
102
}
330
906
100
AcDbXrecord
 10
0.0
 20
0.0
 30
0.0
  0
XRECORD
  5
920
102
{ACAD_REACTORS
330
906
102
}
330
906
100
AcDbXrecord
 10
0.0
 20
0.0
 30
0.0
  0
XRECORD
  5
923
102
{ACAD_REACTORS
330
906
102
}
330
906
100
AcDbXrecord
 10
0.0
 20
0.0
 30
0.0
  0
XRECORD
  5
921
102
{ACAD_REACTORS
330
906
102
}
330
906
100
AcDbXrecord
 10
0.0
 20
0.0
 30
0.0
  0
XRECORD
  5
922
102
{ACAD_REACTORS
330
906
102
}
330
906
100
AcDbXrecord
 10
0.0
 20
0.0
 30
0.0
  0
XRECORD
  5
91F
102
{ACAD_REACTORS
330
906
102
}
330
906
100
AcDbXrecord
 10
0.0
 20
0.0
 30
0.0
  0
XRECORD
  5
91C
102
{ACAD_REACTORS
330
906
102
}
330
906
100
AcDbXrecord
340
0
  0
XRECORD
  5
91D
102
{ACAD_REACTORS
330
906
102
}
330
906
100
AcDbXrecord
 70
     0
  0
XRECORD
  5
911
102
{ACAD_REACTORS
330
906
102
}
330
906
100
AcDbXrecord
  1
{FAEB1C32-E019-11D5-929B-00C0DF256EC4}
  0
ENDSEC
  0
EOF
