  0
SECTION
  2
HEADER
  9
$ACADVER
  1
AC1014
  9
$ACADMAINTVER
 70
     9
  9
$DWGCODEPAGE
  3
ANSI_1252
  9
$INSBASE
 10
0.0
 20
0.0
 30
0.0
  9
$EXTMIN
 10
1.000000000000000E+20
 20
1.000000000000000E+20
 30
1.000000000000000E+20
  9
$EXTMAX
 10
-1.000000000000000E+20
 20
-1.000000000000000E+20
 30
-1.000000000000000E+20
  9
$LIMMIN
 10
0.0
 20
0.0
  9
$LIMMAX
 10
12.0
 20
9.0
  9
$ORTHOMODE
 70
     0
  9
$REGENMODE
 70
     1
  9
$FILLMODE
 70
     1
  9
$QTEXTMODE
 70
     0
  9
$MIRRTEXT
 70
     1
  9
$DRAGMODE
 70
     2
  9
$LTSCALE
 40
1.0
  9
$OSMODE
 70
    37
  9
$ATTMODE
 70
     1
  9
$TEXTSIZE
 40
0.2
  9
$TRACEWID
 40
0.05
  9
$TEXTSTYLE
  7
STANDARD
  9
$CLAYER
  8
0
  9
$CELTYPE
  6
BYLAYER
  9
$CECOLOR
 62
   256
  9
$CELTSCALE
 40
1.0
  9
$DELOBJ
 70
     1
  9
$DISPSILH
 70
     0
  9
$DIMSCALE
 40
1.0
  9
$DIMASZ
 40
0.18
  9
$DIMEXO
 40
0.0625
  9
$DIMDLI
 40
0.38
  9
$DIMRND
 40
0.0
  9
$DIMDLE
 40
0.0
  9
$DIMEXE
 40
0.18
  9
$DIMTP
 40
0.0
  9
$DIMTM
 40
0.0
  9
$DIMTXT
 40
0.18
  9
$DIMCEN
 40
0.09
  9
$DIMTSZ
 40
0.0
  9
$DIMTOL
 70
     0
  9
$DIMLIM
 70
     0
  9
$DIMTIH
 70
     1
  9
$DIMTOH
 70
     1
  9
$DIMSE1
 70
     0
  9
$DIMSE2
 70
     0
  9
$DIMTAD
 70
     0
  9
$DIMZIN
 70
     0
  9
$DIMBLK
  1

  9
$DIMASO
 70
     1
  9
$DIMSHO
 70
     1
  9
$DIMPOST
  1

  9
$DIMAPOST
  1

  9
$DIMALT
 70
     0
  9
$DIMALTD
 70
     2
  9
$DIMALTF
 40
25.4
  9
$DIMLFAC
 40
1.0
  9
$DIMTOFL
 70
     0
  9
$DIMTVP
 40
0.0
  9
$DIMTIX
 70
     0
  9
$DIMSOXD
 70
     0
  9
$DIMSAH
 70
     0
  9
$DIMBLK1
  1

  9
$DIMBLK2
  1

  9
$DIMSTYLE
  2
STANDARD
  9
$DIMCLRD
 70
     0
  9
$DIMCLRE
 70
     0
  9
$DIMCLRT
 70
     0
  9
$DIMTFAC
 40
1.0
  9
$DIMGAP
 40
0.09
  9
$DIMJUST
 70
     0
  9
$DIMSD1
 70
     0
  9
$DIMSD2
 70
     0
  9
$DIMTOLJ
 70
     1
  9
$DIMTZIN
 70
     0
  9
$DIMALTZ
 70
     0
  9
$DIMALTTZ
 70
     0
  9
$DIMFIT
 70
     3
  9
$DIMUPT
 70
     0
  9
$DIMUNIT
 70
     2
  9
$DIMDEC
 70
     4
  9
$DIMTDEC
 70
     4
  9
$DIMALTU
 70
     2
  9
$DIMALTTD
 70
     2
  9
$DIMTXSTY
  7
STANDARD
  9
$DIMAUNIT
 70
     0
  9
$LUNITS
 70
     2
  9
$LUPREC
 70
     4
  9
$SKETCHINC
 40
0.1
  9
$FILLETRAD
 40
0.5
  9
$AUNITS
 70
     0
  9
$AUPREC
 70
     0
  9
$MENU
  1
.
  9
$ELEVATION
 40
0.0
  9
$PELEVATION
 40
0.0
  9
$THICKNESS
 40
0.0
  9
$LIMCHECK
 70
     0
  9
$CHAMFERA
 40
0.5
  9
$CHAMFERB
 40
0.5
  9
$CHAMFERC
 40
1.0
  9
$CHAMFERD
 40
0.0
  9
$SKPOLY
 70
     0
  9
$TDCREATE
 40
2458911.550915764
  9
$TDUPDATE
 40
2458911.550916007
  9
$TDINDWG
 40
0.0000000116
  9
$TDUSRTIMER
 40
0.0000000116
  9
$USRTIMER
 70
     1
  9
$ANGBASE
 50
0.0
  9
$ANGDIR
 70
     0
  9
$PDMODE
 70
     0
  9
$PDSIZE
 40
0.0
  9
$PLINEWID
 40
0.0
  9
$COORDS
 70
     1
  9
$SPLFRAME
 70
     0
  9
$SPLINETYPE
 70
     6
  9
$SPLINESEGS
 70
     8
  9
$ATTDIA
 70
     0
  9
$ATTREQ
 70
     1
  9
$HANDLING
 70
     1
  9
$HANDSEED
  5
4E1
  9
$SURFTAB1
 70
     6
  9
$SURFTAB2
 70
     6
  9
$SURFTYPE
 70
     6
  9
$SURFU
 70
     6
  9
$SURFV
 70
     6
  9
$UCSNAME
  2

  9
$UCSORG
 10
0.0
 20
0.0
 30
0.0
  9
$UCSXDIR
 10
1.0
 20
0.0
 30
0.0
  9
$UCSYDIR
 10
0.0
 20
1.0
 30
0.0
  9
$PUCSNAME
  2

  9
$PUCSORG
 10
0.0
 20
0.0
 30
0.0
  9
$PUCSXDIR
 10
1.0
 20
0.0
 30
0.0
  9
$PUCSYDIR
 10
0.0
 20
1.0
 30
0.0
  9
$USERI1
 70
     0
  9
$USERI2
 70
     0
  9
$USERI3
 70
     0
  9
$USERI4
 70
     0
  9
$USERI5
 70
     0
  9
$USERR1
 40
0.0
  9
$USERR2
 40
0.0
  9
$USERR3
 40
0.0
  9
$USERR4
 40
0.0
  9
$USERR5
 40
0.0
  9
$WORLDVIEW
 70
     1
  9
$SHADEDGE
 70
     3
  9
$SHADEDIF
 70
    70
  9
$TILEMODE
 70
     1
  9
$MAXACTVP
 70
    64
  9
$PINSBASE
 10
0.0
 20
0.0
 30
0.0
  9
$PLIMCHECK
 70
     0
  9
$PEXTMIN
 10
1.000000000000000E+20
 20
1.000000000000000E+20
 30
1.000000000000000E+20
  9
$PEXTMAX
 10
-1.000000000000000E+20
 20
-1.000000000000000E+20
 30
-1.000000000000000E+20
  9
$PLIMMIN
 10
0.0
 20
0.0
  9
$PLIMMAX
 10
12.0
 20
9.0
  9
$UNITMODE
 70
     0
  9
$VISRETAIN
 70
     1
  9
$PLINEGEN
 70
     0
  9
$PSLTSCALE
 70
     1
  9
$TREEDEPTH
 70
  3020
  9
$PICKSTYLE
 70
     1
  9
$CMLSTYLE
  2
STANDARD
  9
$CMLJUST
 70
     0
  9
$CMLSCALE
 40
1.0
  9
$PROXYGRAPHICS
 70
     1
  9
$MEASUREMENT
 70
     0
  0
ENDSEC
  0
SECTION
  2
CLASSES
  0
CLASS
  1
ACDBDICTIONARYWDFLT
  2
AcDbDictionaryWithDefault
  3
ObjectDBX Classes
 90
        0
280
     0
281
     0
  0
CLASS
  1
VISUALSTYLE
  2
AcDbVisualStyle
  3
ObjectDBX Classes
 90
     4095
280
     0
281
     0
  0
CLASS
  1
MATERIAL
  2
AcDbMaterial
  3
ObjectDBX Classes
 90
     1153
280
     0
281
     0
  0
CLASS
  1
SUN
  2
AcDbSun
  3
SCENEOE
 90
     1024
280
     0
281
     0
  0
CLASS
  1
DICTIONARYVAR
  2
AcDbDictionaryVar
  3
ObjectDBX Classes
 90
        0
280
     0
281
     0
  0
CLASS
  1
XRECORD
  2
AcDbXrecord
  3
AutoCAD 2000
 90
        0
280
     0
281
     0
  0
CLASS
  1
LWPOLYLINE
  2
AcDbPolyline
  3
AutoCAD 2000
 90
        0
280
     0
281
     1
  0
CLASS
  1
HATCH
  2
AcDbHatch
  3
AutoCAD 2000
 90
        0
280
     0
281
     1
  0
CLASS
  1
ACDBPLACEHOLDER
  2
AcDbPlaceHolder
  3
ObjectDBX Classes
 90
        0
280
     0
281
     0
  0
CLASS
  1
LAYOUT
  2
AcDbLayout
  3
ObjectDBX Classes
 90
        0
280
     0
281
     0
  0
ENDSEC
  0
SECTION
  2
TABLES
  0
TABLE
  2
VPORT
  5
8
330
0
100
AcDbSymbolTable
 70
     1
  0
VPORT
  5
29
330
8
100
AcDbSymbolTableRecord
100
AcDbViewportTableRecord
  2
*ACTIVE
 70
     0
 10
0.0
 20
0.0
 11
1.0
 21
1.0
 12
0.0
 22
0.0
 13
0.0
 23
0.0
 14
0.5
 24
0.5
 15
0.5
 25
0.5
 16
0.0
 26
0.0
 36
1.0
 17
100.0611110860992
 27
127.0194444126945
 37
0.0
 40
296.9999999257403
 41
0.7070707070707531
 42
50.0
 43
0.0
 44
0.0
 50
0.0
 51
0.0
 71
     0
 72
   100
 73
     1
 74
     3
 75
     0
 76
     0
 77
     0
 78
     0
  0
ENDTAB
  0
TABLE
  2
LTYPE
  5
5
330
0
100
AcDbSymbolTable
 70
     4
  0
LTYPE
  5
14
330
5
100
AcDbSymbolTableRecord
100
AcDbLinetypeTableRecord
  2
BYBLOCK
 70
     0
  3

 72
    65
 73
     0
 40
0.0
  0
LTYPE
  5
15
330
5
100
AcDbSymbolTableRecord
100
AcDbLinetypeTableRecord
  2
BYLAYER
 70
     0
  3

 72
    65
 73
     0
 40
0.0
  0
LTYPE
  5
16
330
5
100
AcDbSymbolTableRecord
100
AcDbLinetypeTableRecord
  2
CONTINUOUS
 70
     0
  3
Solid line
 72
    65
 73
     0
 40
0.0
  0
LTYPE
  5
44
330
5
100
AcDbSymbolTableRecord
100
AcDbLinetypeTableRecord
  2
AI-LINETYPE-1
 70
     0
  3
Adobe Illustrator Linetype No. 1
 72
    65
 73
     4
 40
5.997222220722918
 49
4.233333332275
 74
     0
 49
-0.7055555553791667
 74
     0
 49
0.3527777776895833
 74
     0
 49
-0.7055555553791667
 74
     0
  0
LTYPE
  5
49
330
5
100
AcDbSymbolTableRecord
100
AcDbLinetypeTableRecord
  2
AI-LINETYPE-2
 70
     0
  3
Adobe Illustrator Linetype No. 2
 72
    65
 73
     4
 40
5.997222220722918
 49
4.233333332275
 74
     0
 49
-0.7055555553791667
 74
     0
 49
0.3527777776895833
 74
     0
 49
-0.7055555553791667
 74
     0
  0
LTYPE
  5
4E
330
5
100
AcDbSymbolTableRecord
100
AcDbLinetypeTableRecord
  2
AI-LINETYPE-3
 70
     0
  3
Adobe Illustrator Linetype No. 3
 72
    65
 73
     4
 40
5.997222220722918
 49
4.233333332275
 74
     0
 49
-0.7055555553791667
 74
     0
 49
0.3527777776895833
 74
     0
 49
-0.7055555553791667
 74
     0
  0
ENDTAB
  0
TABLE
  2
LAYER
  5
2
330
0
100
AcDbSymbolTable
 70
     5
  0
LAYER
  5
10
330
2
100
AcDbSymbolTableRecord
100
AcDbLayerTableRecord
  2
0
 70
     0
 62
     7
  6
CONTINUOUS
  0
LAYER
  5
40
330
2
100
AcDbSymbolTableRecord
100
AcDbLayerTableRecord
  2
GRAU_10_
 70
     0
 62
     7
  6
CONTINUOUS
  0
LAYER
  5
24C
330
2
100
AcDbSymbolTableRecord
100
AcDbLayerTableRecord
  2
STANDARDEBENE
 70
     0
 62
     7
  6
CONTINUOUS
  0
LAYER
  5
296
330
2
100
AcDbSymbolTableRecord
100
AcDbLayerTableRecord
  2
BEMA_U_00DFUNG
 70
     1
 62
     7
  6
CONTINUOUS
  0
LAYER
  5
4B1
330
2
100
AcDbSymbolTableRecord
100
AcDbLayerTableRecord
  2
TEXT
 70
     1
 62
     7
  6
CONTINUOUS
  0
ENDTAB
  0
TABLE
  2
STYLE
  5
3
330
0
100
AcDbSymbolTable
 70
     1
  0
STYLE
  5
11
330
3
100
AcDbSymbolTableRecord
100
AcDbTextStyleTableRecord
  2
STANDARD
 70
     0
 40
0.0
 41
1.0
 50
0.0
 71
     0
 42
0.2
  3
txt
  4

  0
ENDTAB
  0
TABLE
  2
VIEW
  5
6
330
0
100
AcDbSymbolTable
 70
     0
  0
ENDTAB
  0
TABLE
  2
UCS
  5
7
330
0
100
AcDbSymbolTable
 70
     0
  0
ENDTAB
  0
TABLE
  2
APPID
  5
9
330
0
100
AcDbSymbolTable
 70
     1
  0
APPID
  5
12
330
9
100
AcDbSymbolTableRecord
100
AcDbRegAppTableRecord
  2
ACAD
 70
     0
  0
ENDTAB
  0
TABLE
  2
DIMSTYLE
  5
A
330
0
100
AcDbSymbolTable
 70
     1
  0
DIMSTYLE
105
27
330
A
100
AcDbSymbolTableRecord
100
AcDbDimStyleTableRecord
  2
STANDARD
 70
     0
  3

  4

  5

  6

  7

 40
1.0
 41
0.18
 42
0.0625
 43
0.38
 44
0.18
 45
0.0
 46
0.0
 47
0.0
 48
0.0
140
0.18
141
0.09
142
0.0
143
25.4
144
1.0
145
0.0
146
1.0
147
0.09
 71
     0
 72
     0
 73
     1
 74
     1
 75
     0
 76
     0
 77
     0
 78
     0
170
     0
171
     2
172
     0
173
     0
174
     0
175
     0
176
     0
177
     0
178
     0
270
     2
271
     4
272
     4
273
     2
274
     2
340
11
275
     0
280
     0
281
     0
282
     0
283
     1
284
     0
285
     0
286
     0
287
     3
288
     0
  0
ENDTAB
  0
TABLE
  2
BLOCK_RECORD
  5
1
330
0
100
AcDbSymbolTable
 70
     1
  0
BLOCK_RECORD
  5
1F
330
1
100
AcDbSymbolTableRecord
100
AcDbBlockTableRecord
  2
*MODEL_SPACE
  0
BLOCK_RECORD
  5
1B
330
1
100
AcDbSymbolTableRecord
100
AcDbBlockTableRecord
  2
*PAPER_SPACE
  0
ENDTAB
  0
ENDSEC
  0
SECTION
  2
BLOCKS
  0
BLOCK
  5
20
330
1F
100
AcDbEntity
  8
0
100
AcDbBlockBegin
  2
*MODEL_SPACE
 70
     0
 10
0.0
 20
0.0
 30
0.0
  3
*MODEL_SPACE
  1

  0
ENDBLK
  5
21
330
1F
100
AcDbEntity
  8
0
100
AcDbBlockEnd
  0
BLOCK
  5
1C
330
1B
100
AcDbEntity
 67
     1
  8
0
100
AcDbBlockBegin
  2
*PAPER_SPACE
 70
     0
 10
0.0
 20
0.0
 30
0.0
  3
*PAPER_SPACE
  1

  0
ENDBLK
  5
1D
330
1B
100
AcDbEntity
 67
     1
  8
0
100
AcDbBlockEnd
  0
ENDSEC
  0
SECTION
  2
ENTITIES
  0
POLYLINE
  5
41
330
1F
100
AcDbEntity
  8
GRAU_10_
  6
AI-LINETYPE-1
 62
   250
100
AcDb2dPolyline
 66
     1
 10
0.0
 20
0.0
 30
0.0
  0
VERTEX
  5
42
330
41
100
AcDbEntity
  8
GRAU_10_
  6
AI-LINETYPE-1
 62
   250
100
AcDbVertex
100
AcDb2dVertex
 10
32.33006805935599
 20
212.2883492524834
 30
0.0
  0
VERTEX
  5
43
330
41
100
AcDbEntity
  8
GRAU_10_
  6
AI-LINETYPE-1
 62
   250
100
AcDbVertex
100
AcDb2dVertex
 10
61.03429514135532
 20
212.2883492524834
 30
0.0
  0
SEQEND
  5
45
330
41
100
AcDbEntity
  8
GRAU_10_
  6
AI-LINETYPE-1
 62
   250
  0
POLYLINE
  5
46
330
1F
100
AcDbEntity
  8
GRAU_10_
  6
AI-LINETYPE-2
 62
   250
100
AcDb2dPolyline
 66
     1
 10
0.0
 20
0.0
 30
0.0
  0
VERTEX
  5
47
330
46
100
AcDbEntity
  8
GRAU_10_
  6
AI-LINETYPE-2
 62
   250
100
AcDbVertex
100
AcDb2dVertex
 10
101.0897392966906
 20
212.2883492524834
 30
0.0
  0
VERTEX
  5
48
330
46
100
AcDbEntity
  8
GRAU_10_
  6
AI-LINETYPE-2
 62
   250
100
AcDbVertex
100
AcDb2dVertex
 10
155.2363494740983
 20
212.2883492524834
 30
0.0
  0
SEQEND
  5
4A
330
46
100
AcDbEntity
  8
GRAU_10_
  6
AI-LINETYPE-2
 62
   250
  0
POLYLINE
  5
4B
330
1F
100
AcDbEntity
  8
GRAU_10_
  6
AI-LINETYPE-3
 62
   250
100
AcDb2dPolyline
 66
     1
 10
0.0
 20
0.0
 30
0.0
  0
VERTEX
  5
4C
330
4B
100
AcDbEntity
  8
GRAU_10_
  6
AI-LINETYPE-3
 62
   250
100
AcDbVertex
100
AcDb2dVertex
 10
127.4574843845053
 20
185.2150441637793
 30
0.0
  0
VERTEX
  5
4D
330
4B
100
AcDbEntity
  8
GRAU_10_
  6
AI-LINETYPE-3
 62
   250
100
AcDbVertex
100
AcDb2dVertex
 10
127.457484386936
 20
239.3616543411869
 30
0.0
  0
SEQEND
  5
4F
330
4B
100
AcDbEntity
  8
GRAU_10_
  6
AI-LINETYPE-3
 62
   250
  0
SPLINE
  5
50
330
1F
100
AcDbEntity
  8
GRAU_10_
 62
     7
100
AcDbSpline
210
0.0
220
0.0
230
1.0
 70
     8
 71
     3
 72
     8
 73
     4
 74
     0
 42
0.0000000001
 43
0.0000000001
 12
1.0
 22
0.0
 32
0.0
 13
1.0
 23
0.0
 33
0.0
 40
0.0
 40
0.0
 40
0.0
 40
0.0
 40
1.0
 40
1.0
 40
1.0
 40
1.0
 10
134.9828550054577
 20
188.4451575917777
 30
0.0
 10
136.812007782778
 20
189.0219492583002
 30
0.0
 10
138.5275661156825
 20
189.7892409247748
 30
0.0
 10
139.9654883375453
 20
190.6380242578963
 30
0.0
  0
POLYLINE
  5
51
330
1F
100
AcDbEntity
  8
GRAU_10_
 62
     7
100
AcDb2dPolyline
 66
     1
 10
0.0
 20
0.0
 30
0.0
  0
VERTEX
  5
52
330
51
100
AcDbEntity
  8
GRAU_10_
 62
     7
100
AcDbVertex
100
AcDb2dVertex
 10
139.9654883375453
 20
190.6380242578963
 30
0.0
  0
VERTEX
  5
53
330
51
100
AcDbEntity
  8
GRAU_10_
 62
     7
100
AcDbVertex
100
AcDb2dVertex
 10
139.4652494487813
 20
191.5033881465687
 30
0.0
  0
SEQEND
  5
54
330
51
100
AcDbEntity
  8
GRAU_10_
 62
     7
  0
POLYLINE
  5
55
330
1F
100
AcDbEntity
  8
GRAU_10_
 62
     7
100
AcDb2dPolyline
 66
     1
 10
0.0
 20
0.0
 30
0.0
  0
VERTEX
  5
56
330
55
100
AcDbEntity
  8
GRAU_10_
 62
     7
100
AcDbVertex
100
AcDb2dVertex
 10
134.9828550054577
 20
188.4451575917777
 30
0.0
  0
VERTEX
  5
57
330
55
100
AcDbEntity
  8
GRAU_10_
 62
     7
100
AcDbVertex
100
AcDb2dVertex
 10
134.6822883388659
 20
189.399421480428
 30
0.0
  0
SEQEND
  5
58
330
55
100
AcDbEntity
  8
GRAU_10_
 62
     7
  0
SPLINE
  5
59
330
1F
100
AcDbEntity
  8
GRAU_10_
 62
     7
100
AcDbSpline
210
0.0
220
0.0
230
1.0
 70
     8
 71
     3
 72
     8
 73
     4
 74
     0
 42
0.0000000001
 43
0.0000000001
 12
1.0
 22
0.0
 32
0.0
 13
1.0
 23
0.0
 33
0.0
 40
0.0
 40
0.0
 40
0.0
 40
0.0
 40
1.0
 40
1.0
 40
1.0
 40
1.0
 10
139.9654883375453
 20
190.6380242578963
 30
0.0
 10
141.62601333713
 20
191.5965214798787
 30
0.0
 10
143.1351966700861
 20
192.7169437018207
 30
0.0
 10
144.3551022253365
 20
193.8564159237582
 30
0.0
  0
POLYLINE
  5
5A
330
1F
100
AcDbEntity
  8
GRAU_10_
 62
     7
100
AcDb2dPolyline
 66
     1
 10
0.0
 20
0.0
 30
0.0
  0
VERTEX
  5
5B
330
5A
100
AcDbEntity
  8
GRAU_10_
 62
     7
100
AcDbVertex
100
AcDb2dVertex
 10
144.3551022253365
 20
193.8564159237582
 30
0.0
  0
VERTEX
  5
5C
330
5A
100
AcDbEntity
  8
GRAU_10_
 62
     7
100
AcDbVertex
100
AcDb2dVertex
 10
143.6795327810613
 20
194.5940742569072
 30
0.0
  0
SEQEND
  5
5D
330
5A
100
AcDbEntity
  8
GRAU_10_
 62
     7
  0
POLYLINE
  5
5E
330
1F
100
AcDbEntity
  8
GRAU_10_
 62
     7
100
AcDb2dPolyline
 66
     1
 10
0.0
 20
0.0
 30
0.0
  0
VERTEX
  5
5F
330
5E
100
AcDbEntity
  8
GRAU_10_
 62
     7
100
AcDbVertex
100
AcDb2dVertex
 10
139.9654883375453
 20
190.6380242578963
 30
0.0
  0
VERTEX
  5
60
330
5E
100
AcDbEntity
  8
GRAU_10_
 62
     7
100
AcDbVertex
100
AcDb2dVertex
 10
139.4652494487813
 20
191.5040937021242
 30
0.0
  0
SEQEND
  5
61
330
5E
100
AcDbEntity
  8
GRAU_10_
 62
     7
  0
POLYLINE
  5
62
330
1F
100
AcDbEntity
  8
GRAU_10_
 62
     7
100
AcDb2dPolyline
 66
     1
 10
0.0
 20
0.0
 30
0.0
  0
VERTEX
  5
63
330
62
100
AcDbEntity
  8
GRAU_10_
 62
     7
100
AcDbVertex
100
AcDb2dVertex
 10
147.9439105577729
 20
197.9486381449575
 30
0.0
  0
VERTEX
  5
64
330
62
100
AcDbEntity
  8
GRAU_10_
 62
     7
100
AcDbVertex
100
AcDb2dVertex
 10
147.1247605579777
 20
198.5226075892583
 30
0.0
  0
SEQEND
  5
65
330
62
100
AcDbEntity
  8
GRAU_10_
 62
     7
  0
SPLINE
  5
66
330
1F
100
AcDbEntity
  8
GRAU_10_
 62
     7
100
AcDbSpline
210
0.0
220
0.0
230
1.0
 70
     8
 71
     3
 72
     8
 73
     4
 74
     0
 42
0.0000000001
 43
0.0000000001
 12
1.0
 22
0.0
 32
0.0
 13
1.0
 23
0.0
 33
0.0
 40
0.0
 40
0.0
 40
0.0
 40
0.0
 40
1.0
 40
1.0
 40
1.0
 40
1.0
 10
144.3551022253365
 20
193.8564159237582
 30
0.0
 10
145.7690355583166
 20
195.152168701212
 30
0.0
 10
146.9995244468977
 20
196.5728048119679
 30
0.0
 10
147.9439105577729
 20
197.9486381449575
 30
0.0
  0
POLYLINE
  5
67
330
1F
100
AcDbEntity
  8
GRAU_10_
 62
     7
100
AcDb2dPolyline
 66
     1
 10
0.0
 20
0.0
 30
0.0
  0
VERTEX
  5
68
330
67
100
AcDbEntity
  8
GRAU_10_
 62
     7
100
AcDbVertex
100
AcDb2dVertex
 10
144.3551022253365
 20
193.8564159237582
 30
0.0
  0
VERTEX
  5
69
330
67
100
AcDbEntity
  8
GRAU_10_
 62
     7
100
AcDbVertex
100
AcDb2dVertex
 10
143.6795327810613
 20
194.5940742569072
 30
0.0
  0
SEQEND
  5
6A
330
67
100
AcDbEntity
  8
GRAU_10_
 62
     7
  0
POLYLINE
  5
6B
330
1F
100
AcDbEntity
  8
GRAU_10_
 62
     7
100
AcDb2dPolyline
 66
     1
 10
0.0
 20
0.0
 30
0.0
  0
VERTEX
  5
6C
330
6B
100
AcDbEntity
  8
GRAU_10_
 62
     7
100
AcDbVertex
100
AcDb2dVertex
 10
151.8724438901239
 20
217.6992548066864
 30
0.0
  0
VERTEX
  5
6D
330
6B
100
AcDbEntity
  8
GRAU_10_
 62
     7
100
AcDbVertex
100
AcDb2dVertex
 10
150.8963077792569
 20
217.4830020289626
 30
0.0
  0
SEQEND
  5
6E
330
6B
100
AcDbEntity
  8
GRAU_10_
 62
     7
  0
SPLINE
  5
6F
330
1F
100
AcDbEntity
  8
GRAU_10_
 62
     7
100
AcDbSpline
210
0.0
220
0.0
230
1.0
 70
     8
 71
     3
 72
     8
 73
     4
 74
     0
 42
0.0000000001
 43
0.0000000001
 12
1.0
 22
0.0
 32
0.0
 13
1.0
 23
0.0
 33
0.0
 40
0.0
 40
0.0
 40
0.0
 40
0.0
 40
1.0
 40
1.0
 40
1.0
 40
1.0
 10
152.4654633344203
 20
212.2883492524834
 30
0.0
 10
152.4654633344203
 20
214.2060492520042
 30
0.0
 10
152.2495633344742
 20
216.073302029315
 30
0.0
 10
151.8724438901239
 20
217.6992548066864
 30
0.0
  0
SPLINE
  5
70
330
1F
100
AcDbEntity
  8
GRAU_10_
 62
     7
100
AcDbSpline
210
0.0
220
0.0
230
1.0
 70
     8
 71
     3
 72
     8
 73
     4
 74
     0
 42
0.0000000001
 43
0.0000000001
 12
1.0
 22
0.0
 32
0.0
 13
1.0
 23
0.0
 33
0.0
 40
0.0
 40
0.0
 40
0.0
 40
0.0
 40
1.0
 40
1.0
 40
1.0
 40
1.0
 10
150.5625800015626
 20
202.7210159215419
 30
0.0
 10
151.8833800012323
 20
205.9104798096335
 30
0.0
 10
152.4954494455239
 20
209.2156548088071
 30
0.0
 10
152.4654633344203
 20
212.2883492524834
 30
0.0
  0
POLYLINE
  5
71
330
1F
100
AcDbEntity
  8
GRAU_10_
 62
     7
100
AcDb2dPolyline
 66
     1
 10
0.0
 20
0.0
 30
0.0
  0
VERTEX
  5
72
330
71
100
AcDbEntity
  8
GRAU_10_
 62
     7
100
AcDbVertex
100
AcDb2dVertex
 10
150.5625800015626
 20
202.7210159215419
 30
0.0
  0
VERTEX
  5
73
330
71
100
AcDbEntity
  8
GRAU_10_
 62
     7
100
AcDbVertex
100
AcDb2dVertex
 10
149.6383022240159
 20
203.1041325881129
 30
0.0
  0
SEQEND
  5
74
330
71
100
AcDbEntity
  8
GRAU_10_
 62
     7
  0
POLYLINE
  5
75
330
1F
100
AcDbEntity
  8
GRAU_10_
 62
     7
100
AcDb2dPolyline
 66
     1
 10
0.0
 20
0.0
 30
0.0
  0
VERTEX
  5
76
330
75
100
AcDbEntity
  8
GRAU_10_
 62
     7
100
AcDbVertex
100
AcDb2dVertex
 10
119.9474661203274
 20
188.4451575917777
 30
0.0
  0
VERTEX
  5
77
330
75
100
AcDbEntity
  8
GRAU_10_
 62
     7
100
AcDbVertex
100
AcDb2dVertex
 10
120.2480327869192
 20
189.399421480428
 30
0.0
  0
SEQEND
  5
78
330
75
100
AcDbEntity
  8
GRAU_10_
 62
     7
  0
SPLINE
  5
79
330
1F
100
AcDbEntity
  8
GRAU_10_
 62
     7
100
AcDbSpline
210
0.0
220
0.0
230
1.0
 70
     8
 71
     3
 72
     8
 73
     4
 74
     0
 42
0.0000000001
 43
0.0000000001
 12
1.0
 22
0.0
 32
0.0
 13
1.0
 23
0.0
 33
0.0
 40
0.0
 40
0.0
 40
0.0
 40
0.0
 40
1.0
 40
1.0
 40
1.0
 40
1.0
 10
103.6223216799643
 20
204.7710075876963
 30
0.0
 10
106.1598522348855
 20
196.723793700819
 30
0.0
 10
112.3899077888835
 20
190.8645075911729
 30
0.0
 10
119.9474661203274
 20
188.4451575917777
 30
0.0
  0
POLYLINE
  5
7A
330
1F
100
AcDbEntity
  8
GRAU_10_
 62
     7
100
AcDb2dPolyline
 66
     1
 10
0.0
 20
0.0
 30
0.0
  0
VERTEX
  5
7B
330
7A
100
AcDbEntity
  8
GRAU_10_
 62
     7
100
AcDbVertex
100
AcDb2dVertex
 10
103.6223216799643
 20
204.7710075876963
 30
0.0
  0
VERTEX
  5
7C
330
7A
100
AcDbEntity
  8
GRAU_10_
 62
     7
100
AcDbVertex
100
AcDb2dVertex
 10
104.5758800130594
 20
205.0715742542878
 30
0.0
  0
SEQEND
  5
7D
330
7A
100
AcDbEntity
  8
GRAU_10_
 62
     7
  0
SPLINE
  5
7E
330
1F
100
AcDbEntity
  8
GRAU_10_
 62
     7
100
AcDbSpline
210
0.0
220
0.0
230
1.0
 70
     8
 71
     3
 72
     8
 73
     4
 74
     0
 42
0.0000000001
 43
0.0000000001
 12
1.0
 22
0.0
 32
0.0
 13
1.0
 23
0.0
 33
0.0
 40
0.0
 40
0.0
 40
0.0
 40
0.0
 40
1.0
 40
1.0
 40
1.0
 40
1.0
 10
102.6684105690917
 20
204.4697353655493
 30
0.0
 10
105.3071883462097
 20
196.1011409231971
 30
0.0
 10
111.7870105668121
 20
190.0079631469426
 30
0.0
 10
119.6468994537359
 20
187.4919520364604
 30
0.0
  0
POLYLINE
  5
7F
330
1F
100
AcDbEntity
  8
GRAU_10_
 62
     7
100
AcDb2dPolyline
 66
     1
 10
0.0
 20
0.0
 30
0.0
  0
VERTEX
  5
80
330
7F
100
AcDbEntity
  8
GRAU_10_
 62
     7
100
AcDbVertex
100
AcDb2dVertex
 10
102.6684105690917
 20
204.4697353655493
 30
0.0
  0
VERTEX
  5
81
330
7F
100
AcDbEntity
  8
GRAU_10_
 62
     7
100
AcDbVertex
100
AcDb2dVertex
 10
103.6223216799643
 20
204.7710075876963
 30
0.0
  0
SEQEND
  5
82
330
7F
100
AcDbEntity
  8
GRAU_10_
 62
     7
  0
POLYLINE
  5
83
330
1F
100
AcDbEntity
  8
GRAU_10_
 62
     7
100
AcDb2dPolyline
 66
     1
 10
0.0
 20
0.0
 30
0.0
  0
VERTEX
  5
84
330
83
100
AcDbEntity
  8
GRAU_10_
 62
     7
100
AcDbVertex
100
AcDb2dVertex
 10
119.6468994537359
 20
187.4919520364604
 30
0.0
  0
VERTEX
  5
85
330
83
100
AcDbEntity
  8
GRAU_10_
 62
     7
100
AcDbVertex
100
AcDb2dVertex
 10
119.9474661203274
 20
188.4451575917777
 30
0.0
  0
SEQEND
  5
86
330
83
100
AcDbEntity
  8
GRAU_10_
 62
     7
  0
SPLINE
  5
87
330
1F
100
AcDbEntity
  8
GRAU_10_
 62
     7
100
AcDbSpline
210
0.0
220
0.0
230
1.0
 70
     8
 71
     3
 72
     8
 73
     4
 74
     0
 42
0.0000000001
 43
0.0000000001
 12
1.0
 22
0.0
 32
0.0
 13
1.0
 23
0.0
 33
0.0
 40
0.0
 40
0.0
 40
0.0
 40
0.0
 40
1.0
 40
1.0
 40
1.0
 40
1.0
 10
151.8724438901239
 20
217.6992548066864
 30
0.0
 10
150.7103938904145
 20
222.9411798053758
 30
0.0
 10
147.9813050022079
 20
227.4309825820314
 30
0.0
 10
144.3551022253365
 20
230.7202825812089
 30
0.0
  0
POLYLINE
  5
88
330
1F
100
AcDbEntity
  8
GRAU_10_
 62
     7
100
AcDb2dPolyline
 66
     1
 10
0.0
 20
0.0
 30
0.0
  0
VERTEX
  5
89
330
88
100
AcDbEntity
  8
GRAU_10_
 62
     7
100
AcDbVertex
100
AcDb2dVertex
 10
144.3551022253365
 20
230.7202825812089
 30
0.0
  0
VERTEX
  5
8A
330
88
100
AcDbEntity
  8
GRAU_10_
 62
     7
100
AcDbVertex
100
AcDb2dVertex
 10
143.6795327810613
 20
229.9829770258376
 30
0.0
  0
SEQEND
  5
8B
330
88
100
AcDbEntity
  8
GRAU_10_
 62
     7
  0
POLYLINE
  5
8C
330
1F
100
AcDbEntity
  8
GRAU_10_
 62
     7
100
AcDb2dPolyline
 66
     1
 10
0.0
 20
0.0
 30
0.0
  0
VERTEX
  5
8D
330
8C
100
AcDbEntity
  8
GRAU_10_
 62
     7
100
AcDbVertex
100
AcDb2dVertex
 10
151.8724438901239
 20
217.6992548066864
 30
0.0
  0
VERTEX
  5
8E
330
8C
100
AcDbEntity
  8
GRAU_10_
 62
     7
100
AcDbVertex
100
AcDb2dVertex
 10
150.8966605570347
 20
217.4830020289626
 30
0.0
  0
SEQEND
  5
8F
330
8C
100
AcDbEntity
  8
GRAU_10_
 62
     7
  0
SPLINE
  5
90
330
1F
100
AcDbEntity
  8
GRAU_10_
 62
     7
100
AcDbSpline
210
0.0
220
0.0
230
1.0
 70
    11
 71
     3
 72
    17
 73
    13
 74
     0
 42
0.0000000001
 43
0.0000000001
 12
1.0
 22
0.0
 32
0.0
 13
1.0
 23
0.0
 33
0.0
 40
0.0
 40
0.0
 40
0.0
 40
0.0
 40
1.0
 40
1.0
 40
1.0
 40
2.0
 40
2.0
 40
2.0
 40
3.0
 40
3.0
 40
3.0
 40
4.0
 40
4.0
 40
4.0
 40
4.0
 10
137.2152327826772
 20
212.2883492524834
 30
0.0
 10
137.2152327826772
 20
217.6731492511372
 30
0.0
 10
132.8496077837686
 20
222.0384214722684
 30
0.0
 10
127.4655133406703
 20
222.0384214722684
 30
0.0
 10
122.0807133420165
 20
222.0384214722684
 30
0.0
 10
117.7150883431079
 20
217.6731492511372
 30
0.0
 10
117.7150883431079
 20
212.2883492524834
 30
0.0
 10
117.7150883431079
 20
206.9035492538299
 30
0.0
 10
122.0807133420165
 20
202.5382770326987
 30
0.0
 10
127.4655133406703
 20
202.5382770326987
 30
0.0
 10
132.8496077837686
 20
202.5382770326987
 30
0.0
 10
137.2152327826772
 20
206.9035492538299
 30
0.0
 10
137.2152327826772
 20
212.2883492524834
 30
0.0
  0
SPLINE
  5
91
330
1F
100
AcDbEntity
  8
GRAU_10_
 62
     7
100
AcDbSpline
210
0.0
220
0.0
230
1.0
 70
    11
 71
     3
 72
    17
 73
    13
 74
     0
 42
0.0000000001
 43
0.0000000001
 12
1.0
 22
0.0
 32
0.0
 13
1.0
 23
0.0
 33
0.0
 40
0.0
 40
0.0
 40
0.0
 40
0.0
 40
1.0
 40
1.0
 40
1.0
 40
2.0
 40
2.0
 40
2.0
 40
3.0
 40
3.0
 40
3.0
 40
4.0
 40
4.0
 40
4.0
 40
4.0
 10
138.4651244490313
 20
212.2883492524834
 30
0.0
 10
138.4651244490313
 20
218.3635353620759
 30
0.0
 10
133.540346672485
 20
223.2886659164002
 30
0.0
 10
127.4655133406703
 20
223.2886659164002
 30
0.0
 10
121.3903272310778
 20
223.2886659164002
 30
0.0
 10
116.4651966767538
 20
218.3635353620759
 30
0.0
 10
116.4651966767538
 20
212.2883492524834
 30
0.0
 10
116.4651966767538
 20
206.2131631428912
 30
0.0
 10
121.3903272310778
 20
201.2880325885669
 30
0.0
 10
127.4655133406703
 20
201.2880325885669
 30
0.0
 10
133.540346672485
 20
201.2880325885669
 30
0.0
 10
138.4651244490313
 20
206.2131631428912
 30
0.0
 10
138.4651244490313
 20
212.2883492524834
 30
0.0
  0
SPLINE
  5
92
330
1F
100
AcDbEntity
  8
GRAU_10_
 62
     7
100
AcDbSpline
210
0.0
220
0.0
230
1.0
 70
     8
 71
     3
 72
     8
 73
     4
 74
     0
 42
0.0000000001
 43
0.0000000001
 12
1.0
 22
0.0
 32
0.0
 13
1.0
 23
0.0
 33
0.0
 40
0.0
 40
0.0
 40
0.0
 40
0.0
 40
1.0
 40
1.0
 40
1.0
 40
1.0
 10
119.9474661203274
 20
188.4451575917777
 30
0.0
 10
125.0687411190473
 20
186.8304937032924
 30
0.0
 10
130.321602228845
 20
186.9493798143739
 30
0.0
 10
134.9828550054577
 20
188.4451575917777
 30
0.0
  0
POLYLINE
  5
93
330
1F
100
AcDbEntity
  8
GRAU_10_
 62
     7
100
AcDb2dPolyline
 66
     1
 10
0.0
 20
0.0
 30
0.0
  0
VERTEX
  5
94
330
93
100
AcDbEntity
  8
GRAU_10_
 62
     7
100
AcDbVertex
100
AcDb2dVertex
 10
134.9828550054577
 20
188.4451575917777
 30
0.0
  0
VERTEX
  5
95
330
93
100
AcDbEntity
  8
GRAU_10_
 62
     7
100
AcDbVertex
100
AcDb2dVertex
 10
134.6822883388659
 20
189.399421480428
 30
0.0
  0
SEQEND
  5
96
330
93
100
AcDbEntity
  8
GRAU_10_
 62
     7
  0
POLYLINE
  5
97
330
1F
100
AcDbEntity
  8
GRAU_10_
 62
     7
100
AcDb2dPolyline
 66
     1
 10
0.0
 20
0.0
 30
0.0
  0
VERTEX
  5
98
330
97
100
AcDbEntity
  8
GRAU_10_
 62
     7
100
AcDbVertex
100
AcDb2dVertex
 10
120.2480327869192
 20
189.399421480428
 30
0.0
  0
VERTEX
  5
99
330
97
100
AcDbEntity
  8
GRAU_10_
 62
     7
100
AcDbVertex
100
AcDb2dVertex
 10
119.9474661203274
 20
188.4451575917777
 30
0.0
  0
SEQEND
  5
9A
330
97
100
AcDbEntity
  8
GRAU_10_
 62
     7
  0
SPLINE
  5
9B
330
1F
100
AcDbEntity
  8
GRAU_10_
 62
     7
100
AcDbSpline
210
0.0
220
0.0
230
1.0
 70
    11
 71
     3
 72
    17
 73
    13
 74
     0
 42
0.0000000001
 43
0.0000000001
 12
1.0
 22
0.0
 32
0.0
 13
1.0
 23
0.0
 33
0.0
 40
0.0
 40
0.0
 40
0.0
 40
0.0
 40
1.0
 40
1.0
 40
1.0
 40
2.0
 40
2.0
 40
2.0
 40
3.0
 40
3.0
 40
3.0
 40
4.0
 40
4.0
 40
4.0
 40
4.0
 10
146.9653050024619
 20
212.2883492524834
 30
0.0
 10
146.9653050024619
 20
223.0579492497911
 30
0.0
 10
138.2344077824225
 20
231.7881409142753
 30
0.0
 10
127.4655133406703
 20
231.7881409142753
 30
0.0
 10
116.6959133433626
 20
231.7881409142753
 30
0.0
 10
107.9650161233232
 20
223.0579492497911
 30
0.0
 10
107.9650161233232
 20
212.2883492524834
 30
0.0
 10
107.9650161233232
 20
201.518749255176
 30
0.0
 10
116.6959133433626
 20
192.788204812914
 30
0.0
 10
127.4655133406703
 20
192.788204812914
 30
0.0
 10
138.2344077824225
 20
192.788204812914
 30
0.0
 10
146.9653050024619
 20
201.518749255176
 30
0.0
 10
146.9653050024619
 20
212.2883492524834
 30
0.0
  0
SPLINE
  5
9C
330
1F
100
AcDbEntity
  8
GRAU_10_
 62
     7
100
AcDbSpline
210
0.0
220
0.0
230
1.0
 70
    11
 71
     3
 72
    17
 73
    13
 74
     0
 42
0.0000000001
 43
0.0000000001
 12
1.0
 22
0.0
 32
0.0
 13
1.0
 23
0.0
 33
0.0
 40
0.0
 40
0.0
 40
0.0
 40
0.0
 40
1.0
 40
1.0
 40
1.0
 40
2.0
 40
2.0
 40
2.0
 40
3.0
 40
3.0
 40
3.0
 40
4.0
 40
4.0
 40
4.0
 40
4.0
 10
151.4649855568925
 20
212.2883492524834
 30
0.0
 10
151.4649855568925
 20
225.5429159158365
 30
0.0
 10
140.7200800040233
 20
236.2885270242612
 30
0.0
 10
127.4655133406703
 20
236.2885270242612
 30
0.0
 10
114.2109466773172
 20
236.2885270242612
 30
0.0
 10
103.4649827911147
 20
225.5429159158365
 30
0.0
 10
103.4649827911147
 20
212.2883492524834
 30
0.0
 10
103.4649827911147
 20
199.0337825891303
 30
0.0
 10
114.2109466773172
 20
188.2885242584834
 30
0.0
 10
127.4655133406703
 20
188.2885242584834
 30
0.0
 10
140.7200800040233
 20
188.2885242584834
 30
0.0
 10
151.4649855568925
 20
199.0337825891303
 30
0.0
 10
151.4649855568925
 20
212.2883492524834
 30
0.0
  0
SPLINE
  5
9D
330
1F
100
AcDbEntity
  8
GRAU_10_
 62
     7
100
AcDbSpline
210
0.0
220
0.0
230
1.0
 70
    11
 71
     3
 72
    17
 73
    13
 74
     0
 42
0.0000000001
 43
0.0000000001
 12
1.0
 22
0.0
 32
0.0
 13
1.0
 23
0.0
 33
0.0
 40
0.0
 40
0.0
 40
0.0
 40
0.0
 40
1.0
 40
1.0
 40
1.0
 40
2.0
 40
2.0
 40
2.0
 40
3.0
 40
3.0
 40
3.0
 40
4.0
 40
4.0
 40
4.0
 40
4.0
 10
149.4650883351703
 20
212.2883492524834
 30
0.0
 10
149.4650883351703
 20
224.4387214716683
 30
0.0
 10
139.6151800042994
 20
234.2882770247612
 30
0.0
 10
127.4655133406703
 20
234.2882770247612
 30
0.0
 10
115.3151411214857
 20
234.2882770247612
 30
0.0
 10
105.4652327906147
 20
224.4387214716683
 30
0.0
 10
105.4652327906147
 20
212.2883492524834
 30
0.0
 10
105.4652327906147
 20
200.1379770332988
 30
0.0
 10
115.3151411214857
 20
190.2880687024281
 30
0.0
 10
127.4655133406703
 20
190.2880687024281
 30
0.0
 10
139.6151800042994
 20
190.2880687024281
 30
0.0
 10
149.4650883351703
 20
200.1379770332988
 30
0.0
 10
149.4650883351703
 20
212.2883492524834
 30
0.0
  0
SPLINE
  5
9E
330
1F
100
AcDbEntity
  8
GRAU_10_
 62
     7
100
AcDbSpline
210
0.0
220
0.0
230
1.0
 70
     8
 71
     3
 72
     8
 73
     4
 74
     0
 42
0.0000000001
 43
0.0000000001
 12
1.0
 22
0.0
 32
0.0
 13
1.0
 23
0.0
 33
0.0
 40
0.0
 40
0.0
 40
0.0
 40
0.0
 40
1.0
 40
1.0
 40
1.0
 40
1.0
 10
142.4652716702535
 20
212.2883492524834
 30
0.0
 10
142.4652716702535
 20
212.8693742523384
 30
0.0
 10
142.4321105591509
 20
213.442638141084
 30
0.0
 10
142.3742550036096
 20
213.9372325854045
 30
0.0
  0
SPLINE
  5
9F
330
1F
100
AcDbEntity
  8
GRAU_10_
 62
     7
100
AcDbSpline
210
0.0
220
0.0
230
1.0
 70
     8
 71
     3
 72
     8
 73
     4
 74
     0
 42
0.0000000001
 43
0.0000000001
 12
1.0
 22
0.0
 32
0.0
 13
1.0
 23
0.0
 33
0.0
 40
0.0
 40
0.0
 40
0.0
 40
0.0
 40
1.0
 40
1.0
 40
1.0
 40
1.0
 10
112.5557133443977
 20
213.9361742520715
 30
0.0
 10
112.4287133444292
 20
212.7818853634712
 30
0.0
 10
112.4354161222054
 20
211.6441770304222
 30
0.0
 10
112.5557133443977
 20
210.640877030673
 30
0.0
  0
SPLINE
  5
A0
330
1F
100
AcDbEntity
  8
GRAU_10_
 62
     7
100
AcDbSpline
210
0.0
220
0.0
230
1.0
 70
     8
 71
     3
 72
     8
 73
     4
 74
     0
 42
0.0000000001
 43
0.0000000001
 12
1.0
 22
0.0
 32
0.0
 13
1.0
 23
0.0
 33
0.0
 40
0.0
 40
0.0
 40
0.0
 40
0.0
 40
1.0
 40
1.0
 40
1.0
 40
1.0
 10
142.3742550036096
 20
210.6394659195623
 30
0.0
 10
142.4384605591493
 20
211.2166103638626
 30
0.0
 10
142.4684466702527
 20
211.7898742526082
 30
0.0
 10
142.4652716702535
 20
212.2883492524834
 30
0.0
  0
SPLINE
  5
A1
330
1F
100
AcDbEntity
  8
GRAU_10_
 62
     7
100
AcDbSpline
210
0.0
220
0.0
230
1.0
 70
    11
 71
     3
 72
    17
 73
    13
 74
     0
 42
0.0000000001
 43
0.0000000001
 12
1.0
 22
0.0
 32
0.0
 13
1.0
 23
0.0
 33
0.0
 40
0.0
 40
0.0
 40
0.0
 40
0.0
 40
1.0
 40
1.0
 40
1.0
 40
2.0
 40
2.0
 40
2.0
 40
3.0
 40
3.0
 40
3.0
 40
4.0
 40
4.0
 40
4.0
 40
4.0
 10
114.1149911217857
 20
212.2883492524834
 30
0.0
 10
114.1149911217857
 20
213.1995742522558
 30
0.0
 10
113.3766272330814
 20
213.9386436965152
 30
0.0
 10
112.465402233309
 20
213.9386436965152
 30
0.0
 10
111.5538244557592
 20
213.9386436965152
 30
0.0
 10
110.815460567055
 20
213.1995742522558
 30
0.0
 10
110.815460567055
 20
212.2883492524834
 30
0.0
 10
110.815460567055
 20
211.3771242527113
 30
0.0
 10
111.5538244557592
 20
210.6380548084516
 30
0.0
 10
112.465402233309
 20
210.6380548084516
 30
0.0
 10
113.3766272330814
 20
210.6380548084516
 30
0.0
 10
114.1149911217857
 20
211.3771242527113
 30
0.0
 10
114.1149911217857
 20
212.2883492524834
 30
0.0
  0
SPLINE
  5
A2
330
1F
100
AcDbEntity
  8
GRAU_10_
 62
     7
100
AcDbSpline
210
0.0
220
0.0
230
1.0
 70
    11
 71
     3
 72
    17
 73
    13
 74
     0
 42
0.0000000001
 43
0.0000000001
 12
1.0
 22
0.0
 32
0.0
 13
1.0
 23
0.0
 33
0.0
 40
0.0
 40
0.0
 40
0.0
 40
0.0
 40
1.0
 40
1.0
 40
1.0
 40
2.0
 40
2.0
 40
2.0
 40
3.0
 40
3.0
 40
3.0
 40
4.0
 40
4.0
 40
4.0
 40
4.0
 10
144.1155661142856
 20
212.2883492524834
 30
0.0
 10
144.1155661142856
 20
213.1995742522558
 30
0.0
 10
143.3764966700258
 20
213.9386436965152
 30
0.0
 10
142.4652716702535
 20
213.9386436965152
 30
0.0
 10
141.5536938927036
 20
213.9386436965152
 30
0.0
 10
140.8153300039994
 20
213.1995742522558
 30
0.0
 10
140.8153300039994
 20
212.2883492524834
 30
0.0
 10
140.8153300039994
 20
211.3771242527113
 30
0.0
 10
141.5536938927036
 20
210.6380548084516
 30
0.0
 10
142.4652716702535
 20
210.6380548084516
 30
0.0
 10
143.3764966700258
 20
210.6380548084516
 30
0.0
 10
144.1155661142856
 20
211.3771242527113
 30
0.0
 10
144.1155661142856
 20
212.2883492524834
 30
0.0
  0
SPLINE
  5
A3
330
1F
100
AcDbEntity
  8
GRAU_10_
 62
     7
100
AcDbSpline
210
0.0
220
0.0
230
1.0
 70
    11
 71
     3
 72
    17
 73
    13
 74
     0
 42
0.0000000001
 43
0.0000000001
 12
1.0
 22
0.0
 32
0.0
 13
1.0
 23
0.0
 33
0.0
 40
0.0
 40
0.0
 40
0.0
 40
0.0
 40
1.0
 40
1.0
 40
1.0
 40
2.0
 40
2.0
 40
2.0
 40
3.0
 40
3.0
 40
3.0
 40
4.0
 40
4.0
 40
4.0
 40
4.0
 10
146.7155383358578
 20
212.2883492524834
 30
0.0
 10
146.7155383358578
 20
222.9196603609368
 30
0.0
 10
138.0964716713457
 20
231.5383742476712
 30
0.0
 10
127.4655133406703
 20
231.5383742476712
 30
0.0
 10
116.8338494544391
 20
231.5383742476712
 30
0.0
 10
108.2154883454828
 20
222.9196603609368
 30
0.0
 10
108.2154883454828
 20
212.2883492524834
 30
0.0
 10
108.2154883454828
 20
201.6570381440303
 30
0.0
 10
116.8338494544391
 20
193.0383242572959
 30
0.0
 10
127.4655133406703
 20
193.0383242572959
 30
0.0
 10
138.0964716713457
 20
193.0383242572959
 30
0.0
 10
146.7155383358578
 20
201.6570381440303
 30
0.0
 10
146.7155383358578
 20
212.2883492524834
 30
0.0
  0
SPLINE
  5
A4
330
1F
100
AcDbEntity
  8
GRAU_10_
 62
     7
100
AcDbSpline
210
0.0
220
0.0
230
1.0
 70
    11
 71
     3
 72
    17
 73
    13
 74
     0
 42
0.0000000001
 43
0.0000000001
 12
1.0
 22
0.0
 32
0.0
 13
1.0
 23
0.0
 33
0.0
 40
0.0
 40
0.0
 40
0.0
 40
0.0
 40
1.0
 40
1.0
 40
1.0
 40
2.0
 40
2.0
 40
2.0
 40
3.0
 40
3.0
 40
3.0
 40
4.0
 40
4.0
 40
4.0
 40
4.0
 10
138.9650105600176
 20
212.2883492524834
 30
0.0
 10
138.9650105600176
 20
218.6397603620069
 30
0.0
 10
133.816218894638
 20
223.7885520273862
 30
0.0
 10
127.4655133406703
 20
223.7885520273862
 30
0.0
 10
121.1141022311471
 20
223.7885520273862
 30
0.0
 10
115.9649577879897
 20
218.6397603620069
 30
0.0
 10
115.9649577879897
 20
212.2883492524834
 30
0.0
 10
115.9649577879897
 20
205.9369381429602
 30
0.0
 10
121.1141022311471
 20
200.7884992553584
 30
0.0
 10
127.4655133406703
 20
200.7884992553584
 30
0.0
 10
133.816218894638
 20
200.7884992553584
 30
0.0
 10
138.9650105600176
 20
205.9369381429602
 30
0.0
 10
138.9650105600176
 20
212.2883492524834
 30
0.0
  0
SPLINE
  5
A5
330
1F
100
AcDbEntity
  8
GRAU_10_
 62
     7
100
AcDbSpline
210
0.0
220
0.0
230
1.0
 70
    11
 71
     3
 72
    17
 73
    13
 74
     0
 42
0.0000000001
 43
0.0000000001
 12
1.0
 22
0.0
 32
0.0
 13
1.0
 23
0.0
 33
0.0
 40
0.0
 40
0.0
 40
0.0
 40
0.0
 40
1.0
 40
1.0
 40
1.0
 40
2.0
 40
2.0
 40
2.0
 40
3.0
 40
3.0
 40
3.0
 40
4.0
 40
4.0
 40
4.0
 40
4.0
 10
132.6150105616051
 20
212.2883492524834
 30
0.0
 10
132.6150105616051
 20
215.1324436962168
 30
0.0
 10
130.3096077844037
 20
217.4385520289737
 30
0.0
 10
127.4655133406703
 20
217.4385520289737
 30
0.0
 10
124.6210661191591
 20
217.4385520289737
 30
0.0
 10
122.3149577864022
 20
215.1324436962168
 30
0.0
 10
122.3149577864022
 20
212.2883492524834
 30
0.0
 10
122.3149577864022
 20
209.4439020309723
 30
0.0
 10
124.6210661191591
 20
207.1384992537709
 30
0.0
 10
127.4655133406703
 20
207.1384992537709
 30
0.0
 10
130.3096077844037
 20
207.1384992537709
 30
0.0
 10
132.6150105616051
 20
209.4439020309723
 30
0.0
 10
132.6150105616051
 20
212.2883492524834
 30
0.0
  0
SPLINE
  5
A6
330
1F
100
AcDbEntity
  8
GRAU_10_
 62
     7
100
AcDbSpline
210
0.0
220
0.0
230
1.0
 70
    11
 71
     3
 72
    17
 73
    13
 74
     0
 42
0.0000000001
 43
0.0000000001
 12
1.0
 22
0.0
 32
0.0
 13
1.0
 23
0.0
 33
0.0
 40
0.0
 40
0.0
 40
0.0
 40
0.0
 40
1.0
 40
1.0
 40
1.0
 40
2.0
 40
2.0
 40
2.0
 40
3.0
 40
3.0
 40
3.0
 40
4.0
 40
4.0
 40
4.0
 40
4.0
 10
136.9654661160731
 20
212.2883492524834
 30
0.0
 10
136.9654661160731
 20
217.5352131400607
 30
0.0
 10
132.7116716726921
 20
221.7883020278862
 30
0.0
 10
127.4655133406703
 20
221.7883020278862
 30
0.0
 10
122.2182966753152
 20
221.7883020278862
 30
0.0
 10
117.9655605652675
 20
217.5352131400607
 30
0.0
 10
117.9655605652675
 20
212.2883492524834
 30
0.0
 10
117.9655605652675
 20
207.0418381426841
 30
0.0
 10
122.2182966753152
 20
202.7883964770806
 30
0.0
 10
127.4655133406703
 20
202.7883964770806
 30
0.0
 10
132.7116716726921
 20
202.7883964770806
 30
0.0
 10
136.9654661160731
 20
207.0418381426841
 30
0.0
 10
136.9654661160731
 20
212.2883492524834
 30
0.0
  0
POLYLINE
  5
A7
330
1F
100
AcDbEntity
  8
GRAU_10_
 62
     7
100
AcDb2dPolyline
 66
     1
 10
0.0
 20
0.0
 30
0.0
  0
VERTEX
  5
A8
330
A7
100
AcDbEntity
  8
GRAU_10_
 62
     7
100
AcDbVertex
100
AcDb2dVertex
 10
103.6223216799643
 20
219.8056909172708
 30
0.0
  0
VERTEX
  5
A9
330
A7
100
AcDbEntity
  8
GRAU_10_
 62
     7
100
AcDbVertex
100
AcDb2dVertex
 10
104.5758800130594
 20
219.5051242506793
 30
0.0
  0
SEQEND
  5
AA
330
A7
100
AcDbEntity
  8
GRAU_10_
 62
     7
  0
POLYLINE
  5
AB
330
1F
100
AcDbEntity
  8
GRAU_10_
 62
     7
100
AcDb2dPolyline
 66
     1
 10
0.0
 20
0.0
 30
0.0
  0
VERTEX
  5
AC
330
AB
100
AcDbEntity
  8
GRAU_10_
 62
     7
100
AcDbVertex
100
AcDb2dVertex
 10
130.7287077842989
 20
237.0741631351758
 30
0.0
  0
VERTEX
  5
AD
330
AB
100
AcDbEntity
  8
GRAU_10_
 62
     7
100
AcDbVertex
100
AcDb2dVertex
 10
130.5981800065538
 20
236.083210357646
 30
0.0
  0
SEQEND
  5
AE
330
AB
100
AcDbEntity
  8
GRAU_10_
 62
     7
  0
SPLINE
  5
AF
330
1F
100
AcDbEntity
  8
GRAU_10_
 62
     7
100
AcDbSpline
210
0.0
220
0.0
230
1.0
 70
     8
 71
     3
 72
     8
 73
     4
 74
     0
 42
0.0000000001
 43
0.0000000001
 12
1.0
 22
0.0
 32
0.0
 13
1.0
 23
0.0
 33
0.0
 40
0.0
 40
0.0
 40
0.0
 40
0.0
 40
1.0
 40
1.0
 40
1.0
 40
1.0
 10
130.7287077842989
 20
237.0741631351758
 30
0.0
 10
118.560343898452
 20
238.676479801442
 30
0.0
 10
107.2862716790484
 20
231.2402770255231
 30
0.0
 10
103.6223216799643
 20
219.8056909172708
 30
0.0
  0
POLYLINE
  5
B0
330
1F
100
AcDbEntity
  8
GRAU_10_
 62
     7
100
AcDb2dPolyline
 66
     1
 10
0.0
 20
0.0
 30
0.0
  0
VERTEX
  5
B1
330
B0
100
AcDbEntity
  8
GRAU_10_
 62
     7
100
AcDbVertex
100
AcDb2dVertex
 10
143.6795327810613
 20
229.9829770258376
 30
0.0
  0
VERTEX
  5
B2
330
B0
100
AcDbEntity
  8
GRAU_10_
 62
     7
100
AcDbVertex
100
AcDb2dVertex
 10
144.3551022253365
 20
230.7202825812089
 30
0.0
  0
SEQEND
  5
B3
330
B0
100
AcDbEntity
  8
GRAU_10_
 62
     7
  0
SPLINE
  5
B4
330
1F
100
AcDbEntity
  8
GRAU_10_
 62
     7
100
AcDbSpline
210
0.0
220
0.0
230
1.0
 70
     8
 71
     3
 72
     8
 73
     4
 74
     0
 42
0.0000000001
 43
0.0000000001
 12
1.0
 22
0.0
 32
0.0
 13
1.0
 23
0.0
 33
0.0
 40
0.0
 40
0.0
 40
0.0
 40
0.0
 40
1.0
 40
1.0
 40
1.0
 40
1.0
 10
144.3551022253365
 20
230.7202825812089
 30
0.0
 10
140.3965827818819
 20
234.3475436914133
 30
0.0
 10
135.5857522275291
 20
236.460329801996
 30
0.0
 10
130.7287077842989
 20
237.0741631351758
 30
0.0
  0
POLYLINE
  5
B5
330
1F
100
AcDbEntity
  8
GRAU_10_
 62
     7
100
AcDb2dPolyline
 66
     1
 10
0.0
 20
0.0
 30
0.0
  0
VERTEX
  5
B6
330
B5
100
AcDbEntity
  8
GRAU_10_
 62
     7
100
AcDbVertex
100
AcDb2dVertex
 10
130.5981800065538
 20
236.083210357646
 30
0.0
  0
VERTEX
  5
B7
330
B5
100
AcDbEntity
  8
GRAU_10_
 62
     7
100
AcDbVertex
100
AcDb2dVertex
 10
130.7287077842989
 20
237.0741631351758
 30
0.0
  0
SEQEND
  5
B8
330
B5
100
AcDbEntity
  8
GRAU_10_
 62
     7
  0
POLYLINE
  5
B9
330
1F
100
AcDbEntity
  8
GRAU_10_
 62
     7
100
AcDb2dPolyline
 66
     1
 10
0.0
 20
0.0
 30
0.0
  0
VERTEX
  5
BA
330
B9
100
AcDbEntity
  8
GRAU_10_
 62
     7
100
AcDbVertex
100
AcDb2dVertex
 10
147.1247605579777
 20
198.5226075892583
 30
0.0
  0
VERTEX
  5
BB
330
B9
100
AcDbEntity
  8
GRAU_10_
 62
     7
100
AcDbVertex
100
AcDb2dVertex
 10
147.9439105577729
 20
197.9486381449575
 30
0.0
  0
SEQEND
  5
BC
330
B9
100
AcDbEntity
  8
GRAU_10_
 62
     7
  0
SPLINE
  5
BD
330
1F
100
AcDbEntity
  8
GRAU_10_
 62
     7
100
AcDbSpline
210
0.0
220
0.0
230
1.0
 70
     8
 71
     3
 72
     8
 73
     4
 74
     0
 42
0.0000000001
 43
0.0000000001
 12
1.0
 22
0.0
 32
0.0
 13
1.0
 23
0.0
 33
0.0
 40
0.0
 40
0.0
 40
0.0
 40
0.0
 40
1.0
 40
1.0
 40
1.0
 40
1.0
 10
147.9439105577729
 20
197.9486381449575
 30
0.0
 10
149.0442244463866
 20
199.5199103667868
 30
0.0
 10
149.9381633350522
 20
201.1730270330401
 30
0.0
 10
150.5625800015626
 20
202.7210159215419
 30
0.0
  0
POLYLINE
  5
BE
330
1F
100
AcDbEntity
  8
GRAU_10_
 62
     7
100
AcDb2dPolyline
 66
     1
 10
0.0
 20
0.0
 30
0.0
  0
VERTEX
  5
BF
330
BE
100
AcDbEntity
  8
GRAU_10_
 62
     7
100
AcDbVertex
100
AcDb2dVertex
 10
149.6383022240159
 20
203.1041325881129
 30
0.0
  0
VERTEX
  5
C0
330
BE
100
AcDbEntity
  8
GRAU_10_
 62
     7
100
AcDbVertex
100
AcDb2dVertex
 10
150.5625800015626
 20
202.7210159215419
 30
0.0
  0
SEQEND
  5
C1
330
BE
100
AcDbEntity
  8
GRAU_10_
 62
     7
  0
POLYLINE
  5
C2
330
1F
100
AcDbEntity
  8
GRAU_10_
 62
     7
100
AcDb2dPolyline
 66
     1
 10
0.0
 20
0.0
 30
0.0
  0
VERTEX
  5
C3
330
C2
100
AcDbEntity
  8
GRAU_10_
 62
     7
100
AcDbVertex
100
AcDb2dVertex
 10
104.5758800130594
 20
219.5051242506793
 30
0.0
  0
VERTEX
  5
C4
330
C2
100
AcDbEntity
  8
GRAU_10_
 62
     7
100
AcDbVertex
100
AcDb2dVertex
 10
103.6223216799643
 20
219.8056909172708
 30
0.0
  0
SEQEND
  5
C5
330
C2
100
AcDbEntity
  8
GRAU_10_
 62
     7
  0
POLYLINE
  5
C6
330
1F
100
AcDbEntity
  8
GRAU_10_
 62
     7
100
AcDb2dPolyline
 66
     1
 10
0.0
 20
0.0
 30
0.0
  0
VERTEX
  5
C7
330
C6
100
AcDbEntity
  8
GRAU_10_
 62
     7
100
AcDbVertex
100
AcDb2dVertex
 10
104.5758800130594
 20
205.0715742542878
 30
0.0
  0
VERTEX
  5
C8
330
C6
100
AcDbEntity
  8
GRAU_10_
 62
     7
100
AcDbVertex
100
AcDb2dVertex
 10
103.6223216799643
 20
204.7710075876963
 30
0.0
  0
SEQEND
  5
C9
330
C6
100
AcDbEntity
  8
GRAU_10_
 62
     7
  0
SPLINE
  5
CA
330
1F
100
AcDbEntity
  8
GRAU_10_
 62
     7
100
AcDbSpline
210
0.0
220
0.0
230
1.0
 70
     8
 71
     3
 72
     8
 73
     4
 74
     0
 42
0.0000000001
 43
0.0000000001
 12
1.0
 22
0.0
 32
0.0
 13
1.0
 23
0.0
 33
0.0
 40
0.0
 40
0.0
 40
0.0
 40
0.0
 40
1.0
 40
1.0
 40
1.0
 40
1.0
 10
103.6223216799643
 20
219.8056909172708
 30
0.0
 10
102.0080105692567
 20
214.6851214741064
 30
0.0
 10
102.1265439025605
 20
209.4322603643087
 30
0.0
 10
103.6223216799643
 20
204.7710075876963
 30
0.0
  0
POLYLINE
  5
CB
330
1F
100
AcDbEntity
  8
GRAU_10_
 62
     7
100
AcDb2dPolyline
 66
     1
 10
0.0
 20
0.0
 30
0.0
  0
VERTEX
  5
CC
330
CB
100
AcDbEntity
  8
GRAU_10_
 62
     7
100
AcDbVertex
100
AcDb2dVertex
 10
104.5758800130594
 20
219.5051242506793
 30
0.0
  0
VERTEX
  5
CD
330
CB
100
AcDbEntity
  8
GRAU_10_
 62
     7
100
AcDbVertex
100
AcDb2dVertex
 10
103.6223216799643
 20
219.8056909172708
 30
0.0
  0
SEQEND
  5
CE
330
CB
100
AcDbEntity
  8
GRAU_10_
 62
     7
  0
SPLINE
  5
CF
330
1F
100
AcDbEntity
  8
GRAU_10_
 62
     7
100
AcDbSpline
210
0.0
220
0.0
230
1.0
 70
     8
 71
     3
 72
     8
 73
     4
 74
     0
 42
0.0000000001
 43
0.0000000001
 12
1.0
 22
0.0
 32
0.0
 13
1.0
 23
0.0
 33
0.0
 40
0.0
 40
0.0
 40
0.0
 40
0.0
 40
1.0
 40
1.0
 40
1.0
 40
1.0
 10
103.6223216799643
 20
219.8056909172708
 30
0.0
 10
102.0080105692567
 20
214.6851214741064
 30
0.0
 10
102.1265439025605
 20
209.4322603643087
 30
0.0
 10
103.6223216799643
 20
204.7710075876963
 30
0.0
  0
POLYLINE
  5
D0
330
1F
100
AcDbEntity
  8
GRAU_10_
 62
     7
100
AcDb2dPolyline
 66
     1
 10
0.0
 20
0.0
 30
0.0
  0
VERTEX
  5
D1
330
D0
100
AcDbEntity
  8
GRAU_10_
 62
     7
100
AcDbVertex
100
AcDb2dVertex
 10
104.5758800130594
 20
205.0715742542878
 30
0.0
  0
VERTEX
  5
D2
330
D0
100
AcDbEntity
  8
GRAU_10_
 62
     7
100
AcDbVertex
100
AcDb2dVertex
 10
103.6223216799643
 20
204.7710075876963
 30
0.0
  0
SEQEND
  5
D3
330
D0
100
AcDbEntity
  8
GRAU_10_
 62
     7
  0
POLYLINE
  5
D4
330
1F
100
AcDbEntity
  8
GRAU_10_
 62
     7
100
AcDb2dPolyline
 66
     1
 10
0.0
 20
0.0
 30
0.0
  0
VERTEX
  5
D5
330
D4
100
AcDbEntity
  8
GRAU_10_
 62
     7
100
AcDbVertex
100
AcDb2dVertex
 10
39.23347499019186
 20
236.2885270242612
 30
0.0
  0
VERTEX
  5
D6
330
D4
100
AcDbEntity
  8
GRAU_10_
 62
     7
100
AcDbVertex
100
AcDb2dVertex
 10
37.23287221291414
 20
234.2882770247612
 30
0.0
  0
SEQEND
  5
D7
330
D4
100
AcDbEntity
  8
GRAU_10_
 62
     7
  0
POLYLINE
  5
D8
330
1F
100
AcDbEntity
  8
GRAU_10_
 62
     7
100
AcDb2dPolyline
 66
     1
 10
0.0
 20
0.0
 30
0.0
  0
VERTEX
  5
D9
330
D8
100
AcDbEntity
  8
GRAU_10_
 62
     7
100
AcDbVertex
100
AcDb2dVertex
 10
37.23287221291414
 20
190.2880687024281
 30
0.0
  0
VERTEX
  5
DA
330
D8
100
AcDbEntity
  8
GRAU_10_
 62
     7
100
AcDbVertex
100
AcDb2dVertex
 10
39.23347499019186
 20
188.2885242584834
 30
0.0
  0
VERTEX
  5
DB
330
D8
100
AcDbEntity
  8
GRAU_10_
 62
     7
100
AcDbVertex
100
AcDb2dVertex
 10
43.23326943363627
 20
188.2885242584834
 30
0.0
  0
SEQEND
  5
DC
330
D8
100
AcDbEntity
  8
GRAU_10_
 62
     7
  0
POLYLINE
  5
DD
330
1F
100
AcDbEntity
  8
GRAU_10_
 62
     7
100
AcDb2dPolyline
 66
     1
 10
0.0
 20
0.0
 30
0.0
  0
VERTEX
  5
DE
330
DD
100
AcDbEntity
  8
GRAU_10_
 62
     7
100
AcDbVertex
100
AcDb2dVertex
 10
43.23326943363627
 20
236.2885270242612
 30
0.0
  0
VERTEX
  5
DF
330
DD
100
AcDbEntity
  8
GRAU_10_
 62
     7
100
AcDbVertex
100
AcDb2dVertex
 10
39.23347499019186
 20
236.2885270242612
 30
0.0
  0
SEQEND
  5
E0
330
DD
100
AcDbEntity
  8
GRAU_10_
 62
     7
  0
POLYLINE
  5
E1
330
1F
100
AcDbEntity
  8
GRAU_10_
 62
     7
100
AcDb2dPolyline
 66
     1
 10
0.0
 20
0.0
 30
0.0
  0
VERTEX
  5
E2
330
E1
100
AcDbEntity
  8
GRAU_10_
 62
     7
100
AcDbVertex
100
AcDb2dVertex
 10
50.22426665411074
 20
187.2883992587334
 30
0.0
  0
VERTEX
  5
E3
330
E1
100
AcDbEntity
  8
GRAU_10_
 62
     7
100
AcDbVertex
100
AcDb2dVertex
 10
51.23321109830315
 20
187.2883992587334
 30
0.0
  0
SEQEND
  5
E4
330
E1
100
AcDbEntity
  8
GRAU_10_
 62
     7
  0
POLYLINE
  5
E5
330
1F
100
AcDbEntity
  8
GRAU_10_
 62
     7
100
AcDb2dPolyline
 66
     1
 10
0.0
 20
0.0
 30
0.0
  0
VERTEX
  5
E6
330
E5
100
AcDbEntity
  8
GRAU_10_
 62
     7
100
AcDbVertex
100
AcDb2dVertex
 10
43.23326943363627
 20
187.2883992587334
 30
0.0
  0
VERTEX
  5
E7
330
E5
100
AcDbEntity
  8
GRAU_10_
 62
     7
100
AcDbVertex
100
AcDb2dVertex
 10
44.23339443338624
 20
187.2883992587334
 30
0.0
  0
SEQEND
  5
E8
330
E5
100
AcDbEntity
  8
GRAU_10_
 62
     7
  0
POLYLINE
  5
E9
330
1F
100
AcDbEntity
  8
GRAU_10_
 62
     7
100
AcDb2dPolyline
 66
     1
 10
0.0
 20
0.0
 30
0.0
  0
VERTEX
  5
EA
330
E9
100
AcDbEntity
  8
GRAU_10_
 62
     7
100
AcDbVertex
100
AcDb2dVertex
 10
57.23290276346976
 20
236.2885270242612
 30
0.0
  0
VERTEX
  5
EB
330
E9
100
AcDbEntity
  8
GRAU_10_
 62
     7
100
AcDbVertex
100
AcDb2dVertex
 10
51.23321109830315
 20
236.2885270242612
 30
0.0
  0
SEQEND
  5
EC
330
E9
100
AcDbEntity
  8
GRAU_10_
 62
     7
  0
POLYLINE
  5
ED
330
1F
100
AcDbEntity
  8
GRAU_10_
 62
     7
100
AcDb2dPolyline
 66
     1
 10
0.0
 20
0.0
 30
0.0
  0
VERTEX
  5
EE
330
ED
100
AcDbEntity
  8
GRAU_10_
 62
     7
100
AcDbVertex
100
AcDb2dVertex
 10
51.23321109830315
 20
188.2885242584834
 30
0.0
  0
VERTEX
  5
EF
330
ED
100
AcDbEntity
  8
GRAU_10_
 62
     7
100
AcDbVertex
100
AcDb2dVertex
 10
57.23290276346976
 20
188.2885242584834
 30
0.0
  0
SEQEND
  5
F0
330
ED
100
AcDbEntity
  8
GRAU_10_
 62
     7
  0
POLYLINE
  5
F1
330
1F
100
AcDbEntity
  8
GRAU_10_
 62
     7
100
AcDb2dPolyline
 66
     1
 10
0.0
 20
0.0
 30
0.0
  0
VERTEX
  5
F2
330
F1
100
AcDbEntity
  8
GRAU_10_
 62
     7
100
AcDbVertex
100
AcDb2dVertex
 10
51.23321109830315
 20
237.2882992462334
 30
0.0
  0
VERTEX
  5
F3
330
F1
100
AcDbEntity
  8
GRAU_10_
 62
     7
100
AcDbVertex
100
AcDb2dVertex
 10
43.23326943363627
 20
237.2882992462334
 30
0.0
  0
SEQEND
  5
F4
330
F1
100
AcDbEntity
  8
GRAU_10_
 62
     7
  0
POLYLINE
  5
F5
330
1F
100
AcDbEntity
  8
GRAU_10_
 62
     7
100
AcDb2dPolyline
 66
     1
 10
0.0
 20
0.0
 30
0.0
  0
VERTEX
  5
F6
330
F5
100
AcDbEntity
  8
GRAU_10_
 62
     7
100
AcDbVertex
100
AcDb2dVertex
 10
37.0331999907419
 20
193.0383242572959
 30
0.0
  0
VERTEX
  5
F7
330
F5
100
AcDbEntity
  8
GRAU_10_
 62
     7
100
AcDbVertex
100
AcDb2dVertex
 10
37.23287221291414
 20
193.0383242572959
 30
0.0
  0
SEQEND
  5
F8
330
F5
100
AcDbEntity
  8
GRAU_10_
 62
     7
  0
POLYLINE
  5
F9
330
1F
100
AcDbEntity
  8
GRAU_10_
 62
     7
100
AcDb2dPolyline
 66
     1
 10
0.0
 20
0.0
 30
0.0
  0
VERTEX
  5
FA
330
F9
100
AcDbEntity
  8
GRAU_10_
 62
     7
100
AcDbVertex
100
AcDb2dVertex
 10
37.23287221291414
 20
231.5383742476712
 30
0.0
  0
VERTEX
  5
FB
330
F9
100
AcDbEntity
  8
GRAU_10_
 62
     7
100
AcDbVertex
100
AcDb2dVertex
 10
37.0331999907419
 20
231.5383742476712
 30
0.0
  0
SEQEND
  5
FC
330
F9
100
AcDbEntity
  8
GRAU_10_
 62
     7
  0
POLYLINE
  5
FD
330
1F
100
AcDbEntity
  8
GRAU_10_
 62
     7
100
AcDb2dPolyline
 66
     1
 10
0.0
 20
0.0
 30
0.0
  0
VERTEX
  5
FE
330
FD
100
AcDbEntity
  8
GRAU_10_
 62
     7
100
AcDbVertex
100
AcDb2dVertex
 10
43.23326943363627
 20
190.6380242578963
 30
0.0
  0
VERTEX
  5
FF
330
FD
100
AcDbEntity
  8
GRAU_10_
 62
     7
100
AcDbVertex
100
AcDb2dVertex
 10
43.23326943363627
 20
189.4054187026487
 30
0.0
  0
VERTEX
  5
100
330
FD
100
AcDbEntity
  8
GRAU_10_
 62
     7
100
AcDbVertex
100
AcDb2dVertex
 10
43.23326943363627
 20
188.4451575917777
 30
0.0
  0
SEQEND
  5
101
330
FD
100
AcDbEntity
  8
GRAU_10_
 62
     7
  0
POLYLINE
  5
102
330
1F
100
AcDbEntity
  8
GRAU_10_
 62
     7
100
AcDb2dPolyline
 66
     1
 10
0.0
 20
0.0
 30
0.0
  0
VERTEX
  5
103
330
102
100
AcDbEntity
  8
GRAU_10_
 62
     7
100
AcDbVertex
100
AcDb2dVertex
 10
51.23321109830315
 20
188.4451575917777
 30
0.0
  0
VERTEX
  5
104
330
102
100
AcDbEntity
  8
GRAU_10_
 62
     7
100
AcDbVertex
100
AcDb2dVertex
 10
51.23321109830315
 20
189.4054187026487
 30
0.0
  0
VERTEX
  5
105
330
102
100
AcDbEntity
  8
GRAU_10_
 62
     7
100
AcDbVertex
100
AcDb2dVertex
 10
51.23321109830315
 20
190.6380242578963
 30
0.0
  0
VERTEX
  5
106
330
102
100
AcDbEntity
  8
GRAU_10_
 62
     7
100
AcDbVertex
100
AcDb2dVertex
 10
43.23326943363627
 20
190.6380242578963
 30
0.0
  0
SEQEND
  5
107
330
102
100
AcDbEntity
  8
GRAU_10_
 62
     7
  0
POLYLINE
  5
108
330
1F
100
AcDbEntity
  8
GRAU_10_
 62
     7
100
AcDb2dPolyline
 66
     1
 10
0.0
 20
0.0
 30
0.0
  0
VERTEX
  5
109
330
108
100
AcDbEntity
  8
GRAU_10_
 62
     7
100
AcDbVertex
100
AcDb2dVertex
 10
51.23321109830315
 20
188.4451575917777
 30
0.0
  0
VERTEX
  5
10A
330
108
100
AcDbEntity
  8
GRAU_10_
 62
     7
100
AcDbVertex
100
AcDb2dVertex
 10
43.23326943363627
 20
188.4451575917777
 30
0.0
  0
SEQEND
  5
10B
330
108
100
AcDbEntity
  8
GRAU_10_
 62
     7
  0
POLYLINE
  5
10C
330
1F
100
AcDbEntity
  8
GRAU_10_
 62
     7
100
AcDb2dPolyline
 66
     1
 10
0.0
 20
0.0
 30
0.0
  0
VERTEX
  5
10D
330
10C
100
AcDbEntity
  8
GRAU_10_
 62
     7
100
AcDbVertex
100
AcDb2dVertex
 10
43.23326943363627
 20
193.8564159237582
 30
0.0
  0
VERTEX
  5
10E
330
10C
100
AcDbEntity
  8
GRAU_10_
 62
     7
100
AcDbVertex
100
AcDb2dVertex
 10
43.23326943363627
 20
192.1274520353016
 30
0.0
  0
VERTEX
  5
10F
330
10C
100
AcDbEntity
  8
GRAU_10_
 62
     7
100
AcDbVertex
100
AcDb2dVertex
 10
43.23326943363627
 20
190.6380242578963
 30
0.0
  0
SEQEND
  5
110
330
10C
100
AcDbEntity
  8
GRAU_10_
 62
     7
  0
POLYLINE
  5
111
330
1F
100
AcDbEntity
  8
GRAU_10_
 62
     7
100
AcDb2dPolyline
 66
     1
 10
0.0
 20
0.0
 30
0.0
  0
VERTEX
  5
112
330
111
100
AcDbEntity
  8
GRAU_10_
 62
     7
100
AcDbVertex
100
AcDb2dVertex
 10
51.23321109830315
 20
190.6380242578963
 30
0.0
  0
VERTEX
  5
113
330
111
100
AcDbEntity
  8
GRAU_10_
 62
     7
100
AcDbVertex
100
AcDb2dVertex
 10
51.23321109830315
 20
192.1274520353016
 30
0.0
  0
VERTEX
  5
114
330
111
100
AcDbEntity
  8
GRAU_10_
 62
     7
100
AcDbVertex
100
AcDb2dVertex
 10
51.23321109830315
 20
193.8564159237582
 30
0.0
  0
SEQEND
  5
115
330
111
100
AcDbEntity
  8
GRAU_10_
 62
     7
  0
POLYLINE
  5
116
330
1F
100
AcDbEntity
  8
GRAU_10_
 62
     7
100
AcDb2dPolyline
 66
     1
 10
0.0
 20
0.0
 30
0.0
  0
VERTEX
  5
117
330
116
100
AcDbEntity
  8
GRAU_10_
 62
     7
100
AcDbVertex
100
AcDb2dVertex
 10
51.23321109830315
 20
190.6380242578963
 30
0.0
  0
VERTEX
  5
118
330
116
100
AcDbEntity
  8
GRAU_10_
 62
     7
100
AcDbVertex
100
AcDb2dVertex
 10
43.23326943363627
 20
190.6380242578963
 30
0.0
  0
SEQEND
  5
119
330
116
100
AcDbEntity
  8
GRAU_10_
 62
     7
  0
POLYLINE
  5
11A
330
1F
100
AcDbEntity
  8
GRAU_10_
 62
     7
100
AcDb2dPolyline
 66
     1
 10
0.0
 20
0.0
 30
0.0
  0
VERTEX
  5
11B
330
11A
100
AcDbEntity
  8
GRAU_10_
 62
     7
100
AcDbVertex
100
AcDb2dVertex
 10
51.23321109830315
 20
193.8564159237582
 30
0.0
  0
VERTEX
  5
11C
330
11A
100
AcDbEntity
  8
GRAU_10_
 62
     7
100
AcDbVertex
100
AcDb2dVertex
 10
43.23326943363627
 20
193.8564159237582
 30
0.0
  0
SEQEND
  5
11D
330
11A
100
AcDbEntity
  8
GRAU_10_
 62
     7
  0
POLYLINE
  5
11E
330
1F
100
AcDbEntity
  8
GRAU_10_
 62
     7
100
AcDb2dPolyline
 66
     1
 10
0.0
 20
0.0
 30
0.0
  0
VERTEX
  5
11F
330
11E
100
AcDbEntity
  8
GRAU_10_
 62
     7
100
AcDbVertex
100
AcDb2dVertex
 10
43.23326943363627
 20
197.9486381449575
 30
0.0
  0
VERTEX
  5
120
330
11E
100
AcDbEntity
  8
GRAU_10_
 62
     7
100
AcDbVertex
100
AcDb2dVertex
 10
43.23326943363627
 20
195.80445481216
 30
0.0
  0
VERTEX
  5
121
330
11E
100
AcDbEntity
  8
GRAU_10_
 62
     7
100
AcDbVertex
100
AcDb2dVertex
 10
43.23326943363627
 20
193.8564159237582
 30
0.0
  0
SEQEND
  5
122
330
11E
100
AcDbEntity
  8
GRAU_10_
 62
     7
  0
POLYLINE
  5
123
330
1F
100
AcDbEntity
  8
GRAU_10_
 62
     7
100
AcDb2dPolyline
 66
     1
 10
0.0
 20
0.0
 30
0.0
  0
VERTEX
  5
124
330
123
100
AcDbEntity
  8
GRAU_10_
 62
     7
100
AcDbVertex
100
AcDb2dVertex
 10
51.23321109830315
 20
193.8564159237582
 30
0.0
  0
VERTEX
  5
125
330
123
100
AcDbEntity
  8
GRAU_10_
 62
     7
100
AcDbVertex
100
AcDb2dVertex
 10
51.23321109830315
 20
195.80445481216
 30
0.0
  0
VERTEX
  5
126
330
123
100
AcDbEntity
  8
GRAU_10_
 62
     7
100
AcDbVertex
100
AcDb2dVertex
 10
51.23321109830315
 20
197.9486381449575
 30
0.0
  0
VERTEX
  5
127
330
123
100
AcDbEntity
  8
GRAU_10_
 62
     7
100
AcDbVertex
100
AcDb2dVertex
 10
43.23326943363627
 20
197.9486381449575
 30
0.0
  0
SEQEND
  5
128
330
123
100
AcDbEntity
  8
GRAU_10_
 62
     7
  0
POLYLINE
  5
129
330
1F
100
AcDbEntity
  8
GRAU_10_
 62
     7
100
AcDb2dPolyline
 66
     1
 10
0.0
 20
0.0
 30
0.0
  0
VERTEX
  5
12A
330
129
100
AcDbEntity
  8
GRAU_10_
 62
     7
100
AcDbVertex
100
AcDb2dVertex
 10
51.23321109830315
 20
193.8564159237582
 30
0.0
  0
VERTEX
  5
12B
330
129
100
AcDbEntity
  8
GRAU_10_
 62
     7
100
AcDbVertex
100
AcDb2dVertex
 10
43.23326943363627
 20
193.8564159237582
 30
0.0
  0
SEQEND
  5
12C
330
129
100
AcDbEntity
  8
GRAU_10_
 62
     7
  0
POLYLINE
  5
12D
330
1F
100
AcDbEntity
  8
GRAU_10_
 62
     7
100
AcDb2dPolyline
 66
     1
 10
0.0
 20
0.0
 30
0.0
  0
VERTEX
  5
12E
330
12D
100
AcDbEntity
  8
GRAU_10_
 62
     7
100
AcDbVertex
100
AcDb2dVertex
 10
43.23326943363627
 20
217.6992548066864
 30
0.0
  0
VERTEX
  5
12F
330
12D
100
AcDbEntity
  8
GRAU_10_
 62
     7
100
AcDbVertex
100
AcDb2dVertex
 10
43.23326943363627
 20
215.1906520295359
 30
0.0
  0
VERTEX
  5
130
330
12D
100
AcDbEntity
  8
GRAU_10_
 62
     7
100
AcDbVertex
100
AcDb2dVertex
 10
43.23326943363627
 20
212.6517103635039
 30
0.0
  0
VERTEX
  5
131
330
12D
100
AcDbEntity
  8
GRAU_10_
 62
     7
100
AcDbVertex
100
AcDb2dVertex
 10
43.23326943363627
 20
210.1092409196949
 30
0.0
  0
VERTEX
  5
132
330
12D
100
AcDbEntity
  8
GRAU_10_
 62
     7
100
AcDbVertex
100
AcDb2dVertex
 10
43.23326943363627
 20
207.589702031436
 30
0.0
  0
VERTEX
  5
133
330
12D
100
AcDbEntity
  8
GRAU_10_
 62
     7
100
AcDbVertex
100
AcDb2dVertex
 10
43.23326943363627
 20
205.1184936987204
 30
0.0
  0
VERTEX
  5
134
330
12D
100
AcDbEntity
  8
GRAU_10_
 62
     7
100
AcDbVertex
100
AcDb2dVertex
 10
43.23326943363627
 20
202.7210159215419
 30
0.0
  0
SEQEND
  5
135
330
12D
100
AcDbEntity
  8
GRAU_10_
 62
     7
  0
POLYLINE
  5
136
330
1F
100
AcDbEntity
  8
GRAU_10_
 62
     7
100
AcDb2dPolyline
 66
     1
 10
0.0
 20
0.0
 30
0.0
  0
VERTEX
  5
137
330
136
100
AcDbEntity
  8
GRAU_10_
 62
     7
100
AcDbVertex
100
AcDb2dVertex
 10
51.23321109830315
 20
202.7210159215419
 30
0.0
  0
VERTEX
  5
138
330
136
100
AcDbEntity
  8
GRAU_10_
 62
     7
100
AcDbVertex
100
AcDb2dVertex
 10
51.23321109830315
 20
205.1184936987204
 30
0.0
  0
VERTEX
  5
139
330
136
100
AcDbEntity
  8
GRAU_10_
 62
     7
100
AcDbVertex
100
AcDb2dVertex
 10
51.23321109830315
 20
207.589702031436
 30
0.0
  0
VERTEX
  5
13A
330
136
100
AcDbEntity
  8
GRAU_10_
 62
     7
100
AcDbVertex
100
AcDb2dVertex
 10
51.23321109830315
 20
210.1092409196949
 30
0.0
  0
VERTEX
  5
13B
330
136
100
AcDbEntity
  8
GRAU_10_
 62
     7
100
AcDbVertex
100
AcDb2dVertex
 10
51.23321109830315
 20
212.6517103635039
 30
0.0
  0
VERTEX
  5
13C
330
136
100
AcDbEntity
  8
GRAU_10_
 62
     7
100
AcDbVertex
100
AcDb2dVertex
 10
51.23321109830315
 20
215.1906520295359
 30
0.0
  0
VERTEX
  5
13D
330
136
100
AcDbEntity
  8
GRAU_10_
 62
     7
100
AcDbVertex
100
AcDb2dVertex
 10
51.23321109830315
 20
217.6992548066864
 30
0.0
  0
VERTEX
  5
13E
330
136
100
AcDbEntity
  8
GRAU_10_
 62
     7
100
AcDbVertex
100
AcDb2dVertex
 10
43.23326943363627
 20
217.6992548066864
 30
0.0
  0
SEQEND
  5
13F
330
136
100
AcDbEntity
  8
GRAU_10_
 62
     7
  0
POLYLINE
  5
140
330
1F
100
AcDbEntity
  8
GRAU_10_
 62
     7
100
AcDb2dPolyline
 66
     1
 10
0.0
 20
0.0
 30
0.0
  0
VERTEX
  5
141
330
140
100
AcDbEntity
  8
GRAU_10_
 62
     7
100
AcDbVertex
100
AcDb2dVertex
 10
51.23321109830315
 20
202.7210159215419
 30
0.0
  0
VERTEX
  5
142
330
140
100
AcDbEntity
  8
GRAU_10_
 62
     7
100
AcDbVertex
100
AcDb2dVertex
 10
43.23326943363627
 20
202.7210159215419
 30
0.0
  0
SEQEND
  5
143
330
140
100
AcDbEntity
  8
GRAU_10_
 62
     7
  0
POLYLINE
  5
144
330
1F
100
AcDbEntity
  8
GRAU_10_
 62
     7
100
AcDb2dPolyline
 66
     1
 10
0.0
 20
0.0
 30
0.0
  0
VERTEX
  5
145
330
144
100
AcDbEntity
  8
GRAU_10_
 62
     7
100
AcDbVertex
100
AcDb2dVertex
 10
43.23326943363627
 20
230.7202825812089
 30
0.0
  0
VERTEX
  5
146
330
144
100
AcDbEntity
  8
GRAU_10_
 62
     7
100
AcDbVertex
100
AcDb2dVertex
 10
43.23326943363627
 20
228.9080631372176
 30
0.0
  0
VERTEX
  5
147
330
144
100
AcDbEntity
  8
GRAU_10_
 62
     7
100
AcDbVertex
100
AcDb2dVertex
 10
43.23326943363627
 20
226.9240409154912
 30
0.0
  0
VERTEX
  5
148
330
144
100
AcDbEntity
  8
GRAU_10_
 62
     7
100
AcDbVertex
100
AcDb2dVertex
 10
43.23326943363627
 20
224.7883242493587
 30
0.0
  0
VERTEX
  5
149
330
144
100
AcDbEntity
  8
GRAU_10_
 62
     7
100
AcDbVertex
100
AcDb2dVertex
 10
43.23326943363627
 20
222.5227853610361
 30
0.0
  0
VERTEX
  5
14A
330
144
100
AcDbEntity
  8
GRAU_10_
 62
     7
100
AcDbVertex
100
AcDb2dVertex
 10
43.23326943363627
 20
220.1517659171842
 30
0.0
  0
VERTEX
  5
14B
330
144
100
AcDbEntity
  8
GRAU_10_
 62
     7
100
AcDbVertex
100
AcDb2dVertex
 10
43.23326943363627
 20
217.6992548066864
 30
0.0
  0
SEQEND
  5
14C
330
144
100
AcDbEntity
  8
GRAU_10_
 62
     7
  0
POLYLINE
  5
14D
330
1F
100
AcDbEntity
  8
GRAU_10_
 62
     7
100
AcDb2dPolyline
 66
     1
 10
0.0
 20
0.0
 30
0.0
  0
VERTEX
  5
14E
330
14D
100
AcDbEntity
  8
GRAU_10_
 62
     7
100
AcDbVertex
100
AcDb2dVertex
 10
51.23321109830315
 20
217.6992548066864
 30
0.0
  0
VERTEX
  5
14F
330
14D
100
AcDbEntity
  8
GRAU_10_
 62
     7
100
AcDbVertex
100
AcDb2dVertex
 10
51.23321109830315
 20
220.1517659171842
 30
0.0
  0
VERTEX
  5
150
330
14D
100
AcDbEntity
  8
GRAU_10_
 62
     7
100
AcDbVertex
100
AcDb2dVertex
 10
51.23321109830315
 20
222.5227853610361
 30
0.0
  0
VERTEX
  5
151
330
14D
100
AcDbEntity
  8
GRAU_10_
 62
     7
100
AcDbVertex
100
AcDb2dVertex
 10
51.23321109830315
 20
224.7883242493587
 30
0.0
  0
VERTEX
  5
152
330
14D
100
AcDbEntity
  8
GRAU_10_
 62
     7
100
AcDbVertex
100
AcDb2dVertex
 10
51.23321109830315
 20
226.9240409154912
 30
0.0
  0
VERTEX
  5
153
330
14D
100
AcDbEntity
  8
GRAU_10_
 62
     7
100
AcDbVertex
100
AcDb2dVertex
 10
51.23321109830315
 20
228.9080631372176
 30
0.0
  0
VERTEX
  5
154
330
14D
100
AcDbEntity
  8
GRAU_10_
 62
     7
100
AcDbVertex
100
AcDb2dVertex
 10
51.23321109830315
 20
230.7202825812089
 30
0.0
  0
VERTEX
  5
155
330
14D
100
AcDbEntity
  8
GRAU_10_
 62
     7
100
AcDbVertex
100
AcDb2dVertex
 10
43.23326943363627
 20
230.7202825812089
 30
0.0
  0
SEQEND
  5
156
330
14D
100
AcDbEntity
  8
GRAU_10_
 62
     7
  0
POLYLINE
  5
157
330
1F
100
AcDbEntity
  8
GRAU_10_
 62
     7
100
AcDb2dPolyline
 66
     1
 10
0.0
 20
0.0
 30
0.0
  0
VERTEX
  5
158
330
157
100
AcDbEntity
  8
GRAU_10_
 62
     7
100
AcDbVertex
100
AcDb2dVertex
 10
51.23321109830315
 20
217.6992548066864
 30
0.0
  0
VERTEX
  5
159
330
157
100
AcDbEntity
  8
GRAU_10_
 62
     7
100
AcDbVertex
100
AcDb2dVertex
 10
43.23326943363627
 20
217.6992548066864
 30
0.0
  0
SEQEND
  5
15A
330
157
100
AcDbEntity
  8
GRAU_10_
 62
     7
  0
POLYLINE
  5
15B
330
1F
100
AcDbEntity
  8
GRAU_10_
 62
     7
100
AcDb2dPolyline
 66
     1
 10
0.0
 20
0.0
 30
0.0
  0
VERTEX
  5
15C
330
15B
100
AcDbEntity
  8
GRAU_10_
 62
     7
100
AcDbVertex
100
AcDb2dVertex
 10
57.23290276346976
 20
212.2883492524834
 30
0.0
  0
VERTEX
  5
15D
330
15B
100
AcDbEntity
  8
GRAU_10_
 62
     7
100
AcDbVertex
100
AcDb2dVertex
 10
57.23290276346976
 20
214.5030881408187
 30
0.0
  0
VERTEX
  5
15E
330
15B
100
AcDbEntity
  8
GRAU_10_
 62
     7
100
AcDbVertex
100
AcDb2dVertex
 10
57.23290276346976
 20
216.6980714736032
 30
0.0
  0
VERTEX
  5
15F
330
15B
100
AcDbEntity
  8
GRAU_10_
 62
     7
100
AcDbVertex
100
AcDb2dVertex
 10
57.23290276346976
 20
218.8560131397304
 30
0.0
  0
VERTEX
  5
160
330
15B
100
AcDbEntity
  8
GRAU_10_
 62
     7
100
AcDbVertex
100
AcDb2dVertex
 10
57.23290276346976
 20
220.9582159169826
 30
0.0
  0
VERTEX
  5
161
330
15B
100
AcDbEntity
  8
GRAU_10_
 62
     7
100
AcDbVertex
100
AcDb2dVertex
 10
57.23290276346976
 20
222.9863353609203
 30
0.0
  0
VERTEX
  5
162
330
15B
100
AcDbEntity
  8
GRAU_10_
 62
     7
100
AcDbVertex
100
AcDb2dVertex
 10
57.23290276346976
 20
224.9223798048805
 30
0.0
  0
VERTEX
  5
163
330
15B
100
AcDbEntity
  8
GRAU_10_
 62
     7
100
AcDbVertex
100
AcDb2dVertex
 10
57.23290276346976
 20
226.7518853599786
 30
0.0
  0
VERTEX
  5
164
330
15B
100
AcDbEntity
  8
GRAU_10_
 62
     7
100
AcDbVertex
100
AcDb2dVertex
 10
57.23290276346976
 20
228.4568603595525
 30
0.0
  0
VERTEX
  5
165
330
15B
100
AcDbEntity
  8
GRAU_10_
 62
     7
100
AcDbVertex
100
AcDb2dVertex
 10
57.23290276346976
 20
230.0242520258274
 30
0.0
  0
VERTEX
  5
166
330
15B
100
AcDbEntity
  8
GRAU_10_
 62
     7
100
AcDbVertex
100
AcDb2dVertex
 10
57.23290276346976
 20
231.4406548032512
 30
0.0
  0
VERTEX
  5
167
330
15B
100
AcDbEntity
  8
GRAU_10_
 62
     7
100
AcDbVertex
100
AcDb2dVertex
 10
57.23290276346976
 20
232.6933686918267
 30
0.0
  0
VERTEX
  5
168
330
15B
100
AcDbEntity
  8
GRAU_10_
 62
     7
100
AcDbVertex
100
AcDb2dVertex
 10
57.23290276346976
 20
233.7721631360015
 30
0.0
  0
VERTEX
  5
169
330
15B
100
AcDbEntity
  8
GRAU_10_
 62
     7
100
AcDbVertex
100
AcDb2dVertex
 10
57.23290276346976
 20
234.6675131357775
 30
0.0
  0
VERTEX
  5
16A
330
15B
100
AcDbEntity
  8
GRAU_10_
 62
     7
100
AcDbVertex
100
AcDb2dVertex
 10
57.23290276346976
 20
235.3720103578237
 30
0.0
  0
VERTEX
  5
16B
330
15B
100
AcDbEntity
  8
GRAU_10_
 62
     7
100
AcDbVertex
100
AcDb2dVertex
 10
57.23290276346976
 20
235.8800103576965
 30
0.0
  0
VERTEX
  5
16C
330
15B
100
AcDbEntity
  8
GRAU_10_
 62
     7
100
AcDbVertex
100
AcDb2dVertex
 10
57.23290276346976
 20
236.1858686909535
 30
0.0
  0
VERTEX
  5
16D
330
15B
100
AcDbEntity
  8
GRAU_10_
 62
     7
100
AcDbVertex
100
AcDb2dVertex
 10
57.23290276346976
 20
236.2885270242612
 30
0.0
  0
SEQEND
  5
16E
330
15B
100
AcDbEntity
  8
GRAU_10_
 62
     7
  0
POLYLINE
  5
16F
330
1F
100
AcDbEntity
  8
GRAU_10_
 62
     7
100
AcDb2dPolyline
 66
     1
 10
0.0
 20
0.0
 30
0.0
  0
VERTEX
  5
170
330
16F
100
AcDbEntity
  8
GRAU_10_
 62
     7
100
AcDbVertex
100
AcDb2dVertex
 10
57.23290276346976
 20
188.2885242584834
 30
0.0
  0
VERTEX
  5
171
330
16F
100
AcDbEntity
  8
GRAU_10_
 62
     7
100
AcDbVertex
100
AcDb2dVertex
 10
57.23290276346976
 20
188.3908298140133
 30
0.0
  0
VERTEX
  5
172
330
16F
100
AcDbEntity
  8
GRAU_10_
 62
     7
100
AcDbVertex
100
AcDb2dVertex
 10
57.23290276346976
 20
188.697040925048
 30
0.0
  0
VERTEX
  5
173
330
16F
100
AcDbEntity
  8
GRAU_10_
 62
     7
100
AcDbVertex
100
AcDb2dVertex
 10
57.23290276346976
 20
189.2043353693657
 30
0.0
  0
VERTEX
  5
174
330
16F
100
AcDbEntity
  8
GRAU_10_
 62
     7
100
AcDbVertex
100
AcDb2dVertex
 10
57.23290276346976
 20
189.9088325914116
 30
0.0
  0
VERTEX
  5
175
330
16F
100
AcDbEntity
  8
GRAU_10_
 62
     7
100
AcDbVertex
100
AcDb2dVertex
 10
57.23290276346976
 20
190.8045353689657
 30
0.0
  0
VERTEX
  5
176
330
16F
100
AcDbEntity
  8
GRAU_10_
 62
     7
100
AcDbVertex
100
AcDb2dVertex
 10
57.23290276346976
 20
191.8829770353626
 30
0.0
  0
VERTEX
  5
177
330
16F
100
AcDbEntity
  8
GRAU_10_
 62
     7
100
AcDbVertex
100
AcDb2dVertex
 10
57.23290276346976
 20
193.1356909239385
 30
0.0
  0
VERTEX
  5
178
330
16F
100
AcDbEntity
  8
GRAU_10_
 62
     7
100
AcDbVertex
100
AcDb2dVertex
 10
57.23290276346976
 20
194.552093701362
 30
0.0
  0
VERTEX
  5
179
330
16F
100
AcDbEntity
  8
GRAU_10_
 62
     7
100
AcDbVertex
100
AcDb2dVertex
 10
57.23290276346976
 20
196.1198381454146
 30
0.0
  0
VERTEX
  5
17A
330
16F
100
AcDbEntity
  8
GRAU_10_
 62
     7
100
AcDbVertex
100
AcDb2dVertex
 10
57.23290276346976
 20
197.8248131449882
 30
0.0
  0
VERTEX
  5
17B
330
16F
100
AcDbEntity
  8
GRAU_10_
 62
     7
100
AcDbVertex
100
AcDb2dVertex
 10
57.23290276346976
 20
199.6539659223089
 30
0.0
  0
VERTEX
  5
17C
330
16F
100
AcDbEntity
  8
GRAU_10_
 62
     7
100
AcDbVertex
100
AcDb2dVertex
 10
57.23290276346976
 20
201.5907159218246
 30
0.0
  0
VERTEX
  5
17D
330
16F
100
AcDbEntity
  8
GRAU_10_
 62
     7
100
AcDbVertex
100
AcDb2dVertex
 10
57.23290276346976
 20
203.6184825879842
 30
0.0
  0
VERTEX
  5
17E
330
16F
100
AcDbEntity
  8
GRAU_10_
 62
     7
100
AcDbVertex
100
AcDb2dVertex
 10
57.23290276346976
 20
205.7206853652367
 30
0.0
  0
VERTEX
  5
17F
330
16F
100
AcDbEntity
  8
GRAU_10_
 62
     7
100
AcDbVertex
100
AcDb2dVertex
 10
57.23290276346976
 20
207.8786270313636
 30
0.0
  0
VERTEX
  5
180
330
16F
100
AcDbEntity
  8
GRAU_10_
 62
     7
100
AcDbVertex
100
AcDb2dVertex
 10
57.23290276346976
 20
210.0736103641484
 30
0.0
  0
VERTEX
  5
181
330
16F
100
AcDbEntity
  8
GRAU_10_
 62
     7
100
AcDbVertex
100
AcDb2dVertex
 10
57.23290276346976
 20
212.2883492524834
 30
0.0
  0
SEQEND
  5
182
330
16F
100
AcDbEntity
  8
GRAU_10_
 62
     7
  0
POLYLINE
  5
183
330
1F
100
AcDbEntity
  8
GRAU_10_
 62
     7
100
AcDb2dPolyline
 66
     1
 10
0.0
 20
0.0
 30
0.0
  0
VERTEX
  5
184
330
183
100
AcDbEntity
  8
GRAU_10_
 62
     7
100
AcDbVertex
100
AcDb2dVertex
 10
51.23321109830315
 20
188.4451575917777
 30
0.0
  0
VERTEX
  5
185
330
183
100
AcDbEntity
  8
GRAU_10_
 62
     7
100
AcDbVertex
100
AcDb2dVertex
 10
43.23326943363627
 20
188.4451575917777
 30
0.0
  0
SEQEND
  5
186
330
183
100
AcDbEntity
  8
GRAU_10_
 62
     7
  0
POLYLINE
  5
187
330
1F
100
AcDbEntity
  8
GRAU_10_
 62
     7
100
AcDb2dPolyline
 66
     1
 10
0.0
 20
0.0
 30
0.0
  0
VERTEX
  5
188
330
187
100
AcDbEntity
  8
GRAU_10_
 62
     7
100
AcDbVertex
100
AcDb2dVertex
 10
51.23321109830315
 20
187.2883992587334
 30
0.0
  0
VERTEX
  5
189
330
187
100
AcDbEntity
  8
GRAU_10_
 62
     7
100
AcDbVertex
100
AcDb2dVertex
 10
51.23321109830315
 20
187.4175159253678
 30
0.0
  0
VERTEX
  5
18A
330
187
100
AcDbEntity
  8
GRAU_10_
 62
     7
100
AcDbVertex
100
AcDb2dVertex
 10
51.23321109830315
 20
187.8048659252709
 30
0.0
  0
VERTEX
  5
18B
330
187
100
AcDbEntity
  8
GRAU_10_
 62
     7
100
AcDbVertex
100
AcDb2dVertex
 10
51.23321109830315
 20
188.4451575917777
 30
0.0
  0
SEQEND
  5
18C
330
187
100
AcDbEntity
  8
GRAU_10_
 62
     7
  0
POLYLINE
  5
18D
330
1F
100
AcDbEntity
  8
GRAU_10_
 62
     7
100
AcDb2dPolyline
 66
     1
 10
0.0
 20
0.0
 30
0.0
  0
VERTEX
  5
18E
330
18D
100
AcDbEntity
  8
GRAU_10_
 62
     7
100
AcDbVertex
100
AcDb2dVertex
 10
50.22426665411074
 20
187.2894575920667
 30
0.0
  0
VERTEX
  5
18F
330
18D
100
AcDbEntity
  8
GRAU_10_
 62
     7
100
AcDbVertex
100
AcDb2dVertex
 10
50.22920554299844
 20
187.2887520365111
 30
0.0
  0
VERTEX
  5
190
330
18D
100
AcDbEntity
  8
GRAU_10_
 62
     7
100
AcDbVertex
100
AcDb2dVertex
 10
50.15829720968282
 20
187.2968659253981
 30
0.0
  0
VERTEX
  5
191
330
18D
100
AcDbEntity
  8
GRAU_10_
 62
     7
100
AcDbVertex
100
AcDb2dVertex
 10
50.00907220972021
 20
187.3141520365049
 30
0.0
  0
VERTEX
  5
192
330
18D
100
AcDbEntity
  8
GRAU_10_
 62
     7
100
AcDbVertex
100
AcDb2dVertex
 10
49.77694443200034
 20
187.3391992587208
 30
0.0
  0
VERTEX
  5
193
330
18D
100
AcDbEntity
  8
GRAU_10_
 62
     7
100
AcDbVertex
100
AcDb2dVertex
 10
49.47990554318584
 20
187.3674214809359
 30
0.0
  0
VERTEX
  5
194
330
18D
100
AcDbEntity
  8
GRAU_10_
 62
     7
100
AcDbVertex
100
AcDb2dVertex
 10
49.11019443216723
 20
187.3977603698173
 30
0.0
  0
VERTEX
  5
195
330
18D
100
AcDbEntity
  8
GRAU_10_
 62
     7
100
AcDbVertex
100
AcDb2dVertex
 10
48.69638609893711
 20
187.4259825920325
 30
0.0
  0
VERTEX
  5
196
330
18D
100
AcDbEntity
  8
GRAU_10_
 62
     7
100
AcDbVertex
100
AcDb2dVertex
 10
48.22824998794327
 20
187.4489131475821
 30
0.0
  0
VERTEX
  5
197
330
18D
100
AcDbEntity
  8
GRAU_10_
 62
     7
100
AcDbVertex
100
AcDb2dVertex
 10
47.74635554361931
 20
187.4633770364674
 30
0.0
  0
VERTEX
  5
198
330
18D
100
AcDbEntity
  8
GRAU_10_
 62
     7
100
AcDbVertex
100
AcDb2dVertex
 10
47.23482776596916
 20
187.4690214809107
 30
0.0
  0
VERTEX
  5
199
330
18D
100
AcDbEntity
  8
GRAU_10_
 62
     7
100
AcDbVertex
100
AcDb2dVertex
 10
46.74093887720387
 20
187.464082592023
 30
0.0
  0
VERTEX
  5
19A
330
18D
100
AcDbEntity
  8
GRAU_10_
 62
     7
100
AcDbVertex
100
AcDb2dVertex
 10
46.24704998843858
 20
187.4496187031376
 30
0.0
  0
VERTEX
  5
19B
330
18D
100
AcDbEntity
  8
GRAU_10_
 62
     7
100
AcDbVertex
100
AcDb2dVertex
 10
45.79478887744048
 20
187.4273937031432
 30
0.0
  0
VERTEX
  5
19C
330
18D
100
AcDbEntity
  8
GRAU_10_
 62
     7
100
AcDbVertex
100
AcDb2dVertex
 10
45.37074998865752
 20
187.3995242587058
 30
0.0
  0
VERTEX
  5
19D
330
18D
100
AcDbEntity
  8
GRAU_10_
 62
     7
100
AcDbVertex
100
AcDb2dVertex
 10
45.00738887763734
 20
187.3691853698244
 30
0.0
  0
VERTEX
  5
19E
330
18D
100
AcDbEntity
  8
GRAU_10_
 62
     7
100
AcDbVertex
100
AcDb2dVertex
 10
44.69835554438119
 20
187.3395520364985
 30
0.0
  0
VERTEX
  5
19F
330
18D
100
AcDbEntity
  8
GRAU_10_
 62
     7
100
AcDbVertex
100
AcDb2dVertex
 10
44.46693332221685
 20
187.3155631476156
 30
0.0
  0
VERTEX
  5
1A0
330
18D
100
AcDbEntity
  8
GRAU_10_
 62
     7
100
AcDbVertex
100
AcDb2dVertex
 10
44.30924165558956
 20
187.2972187031758
 30
0.0
  0
VERTEX
  5
1A1
330
18D
100
AcDbEntity
  8
GRAU_10_
 62
     7
100
AcDbVertex
100
AcDb2dVertex
 10
44.23339443338624
 20
187.2883992587334
 30
0.0
  0
SEQEND
  5
1A2
330
18D
100
AcDbEntity
  8
GRAU_10_
 62
     7
  0
POLYLINE
  5
1A3
330
1F
100
AcDbEntity
  8
GRAU_10_
 62
     7
100
AcDb2dPolyline
 66
     1
 10
0.0
 20
0.0
 30
0.0
  0
VERTEX
  5
1A4
330
1A3
100
AcDbEntity
  8
GRAU_10_
 62
     7
100
AcDbVertex
100
AcDb2dVertex
 10
43.23326943363627
 20
187.2883992587334
 30
0.0
  0
VERTEX
  5
1A5
330
1A3
100
AcDbEntity
  8
GRAU_10_
 62
     7
100
AcDbVertex
100
AcDb2dVertex
 10
43.23326943363627
 20
187.4175159253678
 30
0.0
  0
VERTEX
  5
1A6
330
1A3
100
AcDbEntity
  8
GRAU_10_
 62
     7
100
AcDbVertex
100
AcDb2dVertex
 10
43.23326943363627
 20
187.8048659252709
 30
0.0
  0
VERTEX
  5
1A7
330
1A3
100
AcDbEntity
  8
GRAU_10_
 62
     7
100
AcDbVertex
100
AcDb2dVertex
 10
43.23326943363627
 20
188.4451575917777
 30
0.0
  0
SEQEND
  5
1A8
330
1A3
100
AcDbEntity
  8
GRAU_10_
 62
     7
  0
POLYLINE
  5
1A9
330
1F
100
AcDbEntity
  8
GRAU_10_
 62
     7
100
AcDb2dPolyline
 66
     1
 10
0.0
 20
0.0
 30
0.0
  0
VERTEX
  5
1AA
330
1A9
100
AcDbEntity
  8
GRAU_10_
 62
     7
100
AcDbVertex
100
AcDb2dVertex
 10
37.23287221291414
 20
212.2883492524834
 30
0.0
  0
VERTEX
  5
1AB
330
1A9
100
AcDbEntity
  8
GRAU_10_
 62
     7
100
AcDbVertex
100
AcDb2dVertex
 10
37.23287221291414
 20
214.4445270297222
 30
0.0
  0
VERTEX
  5
1AC
330
1A9
100
AcDbEntity
  8
GRAU_10_
 62
     7
100
AcDbVertex
100
AcDb2dVertex
 10
37.23287221291414
 20
216.5805964736327
 30
0.0
  0
VERTEX
  5
1AD
330
1A9
100
AcDbEntity
  8
GRAU_10_
 62
     7
100
AcDbVertex
100
AcDb2dVertex
 10
37.23287221291414
 20
218.6743325842205
 30
0.0
  0
VERTEX
  5
1AE
330
1A9
100
AcDbEntity
  8
GRAU_10_
 62
     7
100
AcDbVertex
100
AcDb2dVertex
 10
37.23287221291414
 20
220.7073909170456
 30
0.0
  0
VERTEX
  5
1AF
330
1A9
100
AcDbEntity
  8
GRAU_10_
 62
     7
100
AcDbVertex
100
AcDb2dVertex
 10
37.23287221291414
 20
222.6593103610018
 30
0.0
  0
VERTEX
  5
1B0
330
1A9
100
AcDbEntity
  8
GRAU_10_
 62
     7
100
AcDbVertex
100
AcDb2dVertex
 10
37.23287221291414
 20
224.5110409160947
 30
0.0
  0
VERTEX
  5
1B1
330
1A9
100
AcDbEntity
  8
GRAU_10_
 62
     7
100
AcDbVertex
100
AcDb2dVertex
 10
37.23287221291414
 20
226.2449436934386
 30
0.0
  0
VERTEX
  5
1B2
330
1A9
100
AcDbEntity
  8
GRAU_10_
 62
     7
100
AcDbVertex
100
AcDb2dVertex
 10
37.23287221291414
 20
227.8444381374834
 30
0.0
  0
VERTEX
  5
1B3
330
1A9
100
AcDbEntity
  8
GRAU_10_
 62
     7
100
AcDbVertex
100
AcDb2dVertex
 10
37.23287221291414
 20
229.2947075815653
 30
0.0
  0
VERTEX
  5
1B4
330
1A9
100
AcDbEntity
  8
GRAU_10_
 62
     7
100
AcDbVertex
100
AcDb2dVertex
 10
37.23287221291414
 20
230.5805825812439
 30
0.0
  0
VERTEX
  5
1B5
330
1A9
100
AcDbEntity
  8
GRAU_10_
 62
     7
100
AcDbVertex
100
AcDb2dVertex
 10
37.23287221291414
 20
231.6907742476327
 30
0.0
  0
VERTEX
  5
1B6
330
1A9
100
AcDbEntity
  8
GRAU_10_
 62
     7
100
AcDbVertex
100
AcDb2dVertex
 10
37.23287221291414
 20
232.6136409140687
 30
0.0
  0
VERTEX
  5
1B7
330
1A9
100
AcDbEntity
  8
GRAU_10_
 62
     7
100
AcDbVertex
100
AcDb2dVertex
 10
37.23287221291414
 20
233.3410686916649
 30
0.0
  0
VERTEX
  5
1B8
330
1A9
100
AcDbEntity
  8
GRAU_10_
 62
     7
100
AcDbVertex
100
AcDb2dVertex
 10
37.23287221291414
 20
233.8652964693115
 30
0.0
  0
VERTEX
  5
1B9
330
1A9
100
AcDbEntity
  8
GRAU_10_
 62
     7
100
AcDbVertex
100
AcDb2dVertex
 10
37.23287221291414
 20
234.1824436914543
 30
0.0
  0
VERTEX
  5
1BA
330
1A9
100
AcDbEntity
  8
GRAU_10_
 62
     7
100
AcDbVertex
100
AcDb2dVertex
 10
37.23287221291414
 20
234.2882770247612
 30
0.0
  0
SEQEND
  5
1BB
330
1A9
100
AcDbEntity
  8
GRAU_10_
 62
     7
  0
POLYLINE
  5
1BC
330
1F
100
AcDbEntity
  8
GRAU_10_
 62
     7
100
AcDb2dPolyline
 66
     1
 10
0.0
 20
0.0
 30
0.0
  0
VERTEX
  5
1BD
330
1BC
100
AcDbEntity
  8
GRAU_10_
 62
     7
100
AcDbVertex
100
AcDb2dVertex
 10
37.23287221291414
 20
190.2880687024281
 30
0.0
  0
VERTEX
  5
1BE
330
1BC
100
AcDbEntity
  8
GRAU_10_
 62
     7
100
AcDbVertex
100
AcDb2dVertex
 10
37.23287221291414
 20
190.3946075912903
 30
0.0
  0
VERTEX
  5
1BF
330
1BC
100
AcDbEntity
  8
GRAU_10_
 62
     7
100
AcDbVertex
100
AcDb2dVertex
 10
37.23287221291414
 20
190.7110492578778
 30
0.0
  0
VERTEX
  5
1C0
330
1BC
100
AcDbEntity
  8
GRAU_10_
 62
     7
100
AcDbVertex
100
AcDb2dVertex
 10
37.23287221291414
 20
191.23598259108
 30
0.0
  0
VERTEX
  5
1C1
330
1BC
100
AcDbEntity
  8
GRAU_10_
 62
     7
100
AcDbVertex
100
AcDb2dVertex
 10
37.23287221291414
 20
191.9627048131204
 30
0.0
  0
VERTEX
  5
1C2
330
1BC
100
AcDbEntity
  8
GRAU_10_
 62
     7
100
AcDbVertex
100
AcDb2dVertex
 10
37.23287221291414
 20
192.8862770351118
 30
0.0
  0
VERTEX
  5
1C3
330
1BC
100
AcDbEntity
  8
GRAU_10_
 62
     7
100
AcDbVertex
100
AcDb2dVertex
 10
37.23287221291414
 20
193.9957631459454
 30
0.0
  0
VERTEX
  5
1C4
330
1BC
100
AcDbEntity
  8
GRAU_10_
 62
     7
100
AcDbVertex
100
AcDb2dVertex
 10
37.23287221291414
 20
195.2819909234018
 30
0.0
  0
VERTEX
  5
1C5
330
1BC
100
AcDbEntity
  8
GRAU_10_
 62
     7
100
AcDbVertex
100
AcDb2dVertex
 10
37.23287221291414
 20
196.7322603674837
 30
0.0
  0
VERTEX
  5
1C6
330
1BC
100
AcDbEntity
  8
GRAU_10_
 62
     7
100
AcDbVertex
100
AcDb2dVertex
 10
37.23287221291414
 20
198.3314020337504
 30
0.0
  0
VERTEX
  5
1C7
330
1BC
100
AcDbEntity
  8
GRAU_10_
 62
     7
100
AcDbVertex
100
AcDb2dVertex
 10
37.23287221291414
 20
200.0660103666502
 30
0.0
  0
VERTEX
  5
1C8
330
1BC
100
AcDbEntity
  8
GRAU_10_
 62
     7
100
AcDbVertex
100
AcDb2dVertex
 10
37.23287221291414
 20
201.9173881439653
 30
0.0
  0
VERTEX
  5
1C9
330
1BC
100
AcDbEntity
  8
GRAU_10_
 62
     7
100
AcDbVertex
100
AcDb2dVertex
 10
37.23287221291414
 20
203.8689548101438
 30
0.0
  0
VERTEX
  5
1CA
330
1BC
100
AcDbEntity
  8
GRAU_10_
 62
     7
100
AcDbVertex
100
AcDb2dVertex
 10
37.23287221291414
 20
205.9023659207466
 30
0.0
  0
VERTEX
  5
1CB
330
1BC
100
AcDbEntity
  8
GRAU_10_
 62
     7
100
AcDbVertex
100
AcDb2dVertex
 10
37.23287221291414
 20
207.9961020313344
 30
0.0
  0
VERTEX
  5
1CC
330
1BC
100
AcDbEntity
  8
GRAU_10_
 62
     7
100
AcDbVertex
100
AcDb2dVertex
 10
37.23287221291414
 20
210.1321714752449
 30
0.0
  0
VERTEX
  5
1CD
330
1BC
100
AcDbEntity
  8
GRAU_10_
 62
     7
100
AcDbVertex
100
AcDb2dVertex
 10
37.23287221291414
 20
212.2883492524834
 30
0.0
  0
SEQEND
  5
1CE
330
1BC
100
AcDbEntity
  8
GRAU_10_
 62
     7
  0
POLYLINE
  5
1CF
330
1F
100
AcDbEntity
  8
GRAU_10_
 62
     7
100
AcDb2dPolyline
 66
     1
 10
0.0
 20
0.0
 30
0.0
  0
VERTEX
  5
1D0
330
1CF
100
AcDbEntity
  8
GRAU_10_
 62
     7
100
AcDbVertex
100
AcDb2dVertex
 10
39.23347499019186
 20
236.2885270242612
 30
0.0
  0
VERTEX
  5
1D1
330
1CF
100
AcDbEntity
  8
GRAU_10_
 62
     7
100
AcDbVertex
100
AcDb2dVertex
 10
39.23347499019186
 20
236.1858686909535
 30
0.0
  0
VERTEX
  5
1D2
330
1CF
100
AcDbEntity
  8
GRAU_10_
 62
     7
100
AcDbVertex
100
AcDb2dVertex
 10
39.23347499019186
 20
235.8800103576965
 30
0.0
  0
VERTEX
  5
1D3
330
1CF
100
AcDbEntity
  8
GRAU_10_
 62
     7
100
AcDbVertex
100
AcDb2dVertex
 10
39.23347499019186
 20
235.3720103578237
 30
0.0
  0
VERTEX
  5
1D4
330
1CF
100
AcDbEntity
  8
GRAU_10_
 62
     7
100
AcDbVertex
100
AcDb2dVertex
 10
39.23347499019186
 20
234.6675131357775
 30
0.0
  0
VERTEX
  5
1D5
330
1CF
100
AcDbEntity
  8
GRAU_10_
 62
     7
100
AcDbVertex
100
AcDb2dVertex
 10
39.23347499019186
 20
233.7721631360015
 30
0.0
  0
VERTEX
  5
1D6
330
1CF
100
AcDbEntity
  8
GRAU_10_
 62
     7
100
AcDbVertex
100
AcDb2dVertex
 10
39.23347499019186
 20
232.6933686918267
 30
0.0
  0
VERTEX
  5
1D7
330
1CF
100
AcDbEntity
  8
GRAU_10_
 62
     7
100
AcDbVertex
100
AcDb2dVertex
 10
39.23347499019186
 20
231.4406548032512
 30
0.0
  0
VERTEX
  5
1D8
330
1CF
100
AcDbEntity
  8
GRAU_10_
 62
     7
100
AcDbVertex
100
AcDb2dVertex
 10
39.23347499019186
 20
230.0242520258274
 30
0.0
  0
VERTEX
  5
1D9
330
1CF
100
AcDbEntity
  8
GRAU_10_
 62
     7
100
AcDbVertex
100
AcDb2dVertex
 10
39.23347499019186
 20
228.4568603595525
 30
0.0
  0
VERTEX
  5
1DA
330
1CF
100
AcDbEntity
  8
GRAU_10_
 62
     7
100
AcDbVertex
100
AcDb2dVertex
 10
39.23347499019186
 20
226.7518853599786
 30
0.0
  0
VERTEX
  5
1DB
330
1CF
100
AcDbEntity
  8
GRAU_10_
 62
     7
100
AcDbVertex
100
AcDb2dVertex
 10
39.23347499019186
 20
224.9223798048805
 30
0.0
  0
VERTEX
  5
1DC
330
1CF
100
AcDbEntity
  8
GRAU_10_
 62
     7
100
AcDbVertex
100
AcDb2dVertex
 10
39.23347499019186
 20
222.9863353609203
 30
0.0
  0
VERTEX
  5
1DD
330
1CF
100
AcDbEntity
  8
GRAU_10_
 62
     7
100
AcDbVertex
100
AcDb2dVertex
 10
39.23347499019186
 20
220.9582159169826
 30
0.0
  0
VERTEX
  5
1DE
330
1CF
100
AcDbEntity
  8
GRAU_10_
 62
     7
100
AcDbVertex
100
AcDb2dVertex
 10
39.23347499019186
 20
218.8560131397304
 30
0.0
  0
VERTEX
  5
1DF
330
1CF
100
AcDbEntity
  8
GRAU_10_
 62
     7
100
AcDbVertex
100
AcDb2dVertex
 10
39.23347499019186
 20
216.6980714736032
 30
0.0
  0
VERTEX
  5
1E0
330
1CF
100
AcDbEntity
  8
GRAU_10_
 62
     7
100
AcDbVertex
100
AcDb2dVertex
 10
39.23347499019186
 20
214.5030881408187
 30
0.0
  0
VERTEX
  5
1E1
330
1CF
100
AcDbEntity
  8
GRAU_10_
 62
     7
100
AcDbVertex
100
AcDb2dVertex
 10
39.23347499019186
 20
212.2883492524834
 30
0.0
  0
VERTEX
  5
1E2
330
1CF
100
AcDbEntity
  8
GRAU_10_
 62
     7
100
AcDbVertex
100
AcDb2dVertex
 10
39.23347499019186
 20
210.0736103641484
 30
0.0
  0
VERTEX
  5
1E3
330
1CF
100
AcDbEntity
  8
GRAU_10_
 62
     7
100
AcDbVertex
100
AcDb2dVertex
 10
39.23347499019186
 20
207.8786270313636
 30
0.0
  0
VERTEX
  5
1E4
330
1CF
100
AcDbEntity
  8
GRAU_10_
 62
     7
100
AcDbVertex
100
AcDb2dVertex
 10
39.23347499019186
 20
205.7206853652367
 30
0.0
  0
VERTEX
  5
1E5
330
1CF
100
AcDbEntity
  8
GRAU_10_
 62
     7
100
AcDbVertex
100
AcDb2dVertex
 10
39.23347499019186
 20
203.6184825879842
 30
0.0
  0
VERTEX
  5
1E6
330
1CF
100
AcDbEntity
  8
GRAU_10_
 62
     7
100
AcDbVertex
100
AcDb2dVertex
 10
39.23347499019186
 20
201.5907159218246
 30
0.0
  0
VERTEX
  5
1E7
330
1CF
100
AcDbEntity
  8
GRAU_10_
 62
     7
100
AcDbVertex
100
AcDb2dVertex
 10
39.23347499019186
 20
199.6539659223089
 30
0.0
  0
VERTEX
  5
1E8
330
1CF
100
AcDbEntity
  8
GRAU_10_
 62
     7
100
AcDbVertex
100
AcDb2dVertex
 10
39.23347499019186
 20
197.8248131449882
 30
0.0
  0
VERTEX
  5
1E9
330
1CF
100
AcDbEntity
  8
GRAU_10_
 62
     7
100
AcDbVertex
100
AcDb2dVertex
 10
39.23347499019186
 20
196.1198381454146
 30
0.0
  0
VERTEX
  5
1EA
330
1CF
100
AcDbEntity
  8
GRAU_10_
 62
     7
100
AcDbVertex
100
AcDb2dVertex
 10
39.23347499019186
 20
194.552093701362
 30
0.0
  0
VERTEX
  5
1EB
330
1CF
100
AcDbEntity
  8
GRAU_10_
 62
     7
100
AcDbVertex
100
AcDb2dVertex
 10
39.23347499019186
 20
193.1356909239385
 30
0.0
  0
VERTEX
  5
1EC
330
1CF
100
AcDbEntity
  8
GRAU_10_
 62
     7
100
AcDbVertex
100
AcDb2dVertex
 10
39.23347499019186
 20
191.8829770353626
 30
0.0
  0
VERTEX
  5
1ED
330
1CF
100
AcDbEntity
  8
GRAU_10_
 62
     7
100
AcDbVertex
100
AcDb2dVertex
 10
39.23347499019186
 20
190.8045353689657
 30
0.0
  0
VERTEX
  5
1EE
330
1CF
100
AcDbEntity
  8
GRAU_10_
 62
     7
100
AcDbVertex
100
AcDb2dVertex
 10
39.23347499019186
 20
189.9088325914116
 30
0.0
  0
VERTEX
  5
1EF
330
1CF
100
AcDbEntity
  8
GRAU_10_
 62
     7
100
AcDbVertex
100
AcDb2dVertex
 10
39.23347499019186
 20
189.2043353693657
 30
0.0
  0
VERTEX
  5
1F0
330
1CF
100
AcDbEntity
  8
GRAU_10_
 62
     7
100
AcDbVertex
100
AcDb2dVertex
 10
39.23347499019186
 20
188.697040925048
 30
0.0
  0
VERTEX
  5
1F1
330
1CF
100
AcDbEntity
  8
GRAU_10_
 62
     7
100
AcDbVertex
100
AcDb2dVertex
 10
39.23347499019186
 20
188.3908298140133
 30
0.0
  0
VERTEX
  5
1F2
330
1CF
100
AcDbEntity
  8
GRAU_10_
 62
     7
100
AcDbVertex
100
AcDb2dVertex
 10
39.23347499019186
 20
188.2885242584834
 30
0.0
  0
SEQEND
  5
1F3
330
1CF
100
AcDbEntity
  8
GRAU_10_
 62
     7
  0
POLYLINE
  5
1F4
330
1F
100
AcDbEntity
  8
GRAU_10_
 62
     7
100
AcDb2dPolyline
 66
     1
 10
0.0
 20
0.0
 30
0.0
  0
VERTEX
  5
1F5
330
1F4
100
AcDbEntity
  8
GRAU_10_
 62
     7
100
AcDbVertex
100
AcDb2dVertex
 10
37.0331999907419
 20
231.5383742476712
 30
0.0
  0
VERTEX
  5
1F6
330
1F4
100
AcDbEntity
  8
GRAU_10_
 62
     7
100
AcDbVertex
100
AcDb2dVertex
 10
37.0331999907419
 20
231.4328936921417
 30
0.0
  0
VERTEX
  5
1F7
330
1F4
100
AcDbEntity
  8
GRAU_10_
 62
     7
100
AcDbVertex
100
AcDb2dVertex
 10
37.0331999907419
 20
231.1178631366649
 30
0.0
  0
VERTEX
  5
1F8
330
1F4
100
AcDbEntity
  8
GRAU_10_
 62
     7
100
AcDbVertex
100
AcDb2dVertex
 10
37.0331999907419
 20
230.59645758124
 30
0.0
  0
VERTEX
  5
1F9
330
1F4
100
AcDbEntity
  8
GRAU_10_
 62
     7
100
AcDbVertex
100
AcDb2dVertex
 10
37.0331999907419
 20
229.8743214703092
 30
0.0
  0
VERTEX
  5
1FA
330
1F4
100
AcDbEntity
  8
GRAU_10_
 62
     7
100
AcDbVertex
100
AcDb2dVertex
 10
37.0331999907419
 20
228.9592159149825
 30
0.0
  0
VERTEX
  5
1FB
330
1F4
100
AcDbEntity
  8
GRAU_10_
 62
     7
100
AcDbVertex
100
AcDb2dVertex
 10
37.0331999907419
 20
227.8617242485902
 30
0.0
  0
VERTEX
  5
1FC
330
1F4
100
AcDbEntity
  8
GRAU_10_
 62
     7
100
AcDbVertex
100
AcDb2dVertex
 10
37.0331999907419
 20
226.5941936933516
 30
0.0
  0
VERTEX
  5
1FD
330
1F4
100
AcDbEntity
  8
GRAU_10_
 62
     7
100
AcDbVertex
100
AcDb2dVertex
 10
37.0331999907419
 20
225.1693242492634
 30
0.0
  0
VERTEX
  5
1FE
330
1F4
100
AcDbEntity
  8
GRAU_10_
 62
     7
100
AcDbVertex
100
AcDb2dVertex
 10
37.0331999907419
 20
223.6029909163215
 30
0.0
  0
VERTEX
  5
1FF
330
1F4
100
AcDbEntity
  8
GRAU_10_
 62
     7
100
AcDbVertex
100
AcDb2dVertex
 10
37.0331999907419
 20
221.9131853611884
 30
0.0
  0
VERTEX
  5
200
330
1F4
100
AcDbEntity
  8
GRAU_10_
 62
     7
100
AcDbVertex
100
AcDb2dVertex
 10
37.0331999907419
 20
220.1182520283039
 30
0.0
  0
VERTEX
  5
201
330
1F4
100
AcDbEntity
  8
GRAU_10_
 62
     7
100
AcDbVertex
100
AcDb2dVertex
 10
37.0331999907419
 20
218.2368881398852
 30
0.0
  0
VERTEX
  5
202
330
1F4
100
AcDbEntity
  8
GRAU_10_
 62
     7
100
AcDbVertex
100
AcDb2dVertex
 10
37.0331999907419
 20
216.2909659181496
 30
0.0
  0
VERTEX
  5
203
330
1F4
100
AcDbEntity
  8
GRAU_10_
 62
     7
100
AcDbVertex
100
AcDb2dVertex
 10
37.0331999907419
 20
214.3002409186472
 30
0.0
  0
VERTEX
  5
204
330
1F4
100
AcDbEntity
  8
GRAU_10_
 62
     7
100
AcDbVertex
100
AcDb2dVertex
 10
37.0331999907419
 20
212.2883492524834
 30
0.0
  0
VERTEX
  5
205
330
1F4
100
AcDbEntity
  8
GRAU_10_
 62
     7
100
AcDbVertex
100
AcDb2dVertex
 10
37.0331999907419
 20
210.2764575863199
 30
0.0
  0
VERTEX
  5
206
330
1F4
100
AcDbEntity
  8
GRAU_10_
 62
     7
100
AcDbVertex
100
AcDb2dVertex
 10
37.0331999907419
 20
208.2857325868175
 30
0.0
  0
VERTEX
  5
207
330
1F4
100
AcDbEntity
  8
GRAU_10_
 62
     7
100
AcDbVertex
100
AcDb2dVertex
 10
37.0331999907419
 20
206.3398103650819
 30
0.0
  0
VERTEX
  5
208
330
1F4
100
AcDbEntity
  8
GRAU_10_
 62
     7
100
AcDbVertex
100
AcDb2dVertex
 10
37.0331999907419
 20
204.4587992544409
 30
0.0
  0
VERTEX
  5
209
330
1F4
100
AcDbEntity
  8
GRAU_10_
 62
     7
100
AcDbVertex
100
AcDb2dVertex
 10
37.0331999907419
 20
202.6631603660009
 30
0.0
  0
VERTEX
  5
20A
330
1F4
100
AcDbEntity
  8
GRAU_10_
 62
     7
100
AcDbVertex
100
AcDb2dVertex
 10
37.0331999907419
 20
200.9737075886456
 30
0.0
  0
VERTEX
  5
20B
330
1F4
100
AcDbEntity
  8
GRAU_10_
 62
     7
100
AcDbVertex
100
AcDb2dVertex
 10
37.0331999907419
 20
199.4073742557037
 30
0.0
  0
VERTEX
  5
20C
330
1F4
100
AcDbEntity
  8
GRAU_10_
 62
     7
100
AcDbVertex
100
AcDb2dVertex
 10
37.0331999907419
 20
197.9825048116155
 30
0.0
  0
VERTEX
  5
20D
330
1F4
100
AcDbEntity
  8
GRAU_10_
 62
     7
100
AcDbVertex
100
AcDb2dVertex
 10
37.0331999907419
 20
196.7149742563769
 30
0.0
  0
VERTEX
  5
20E
330
1F4
100
AcDbEntity
  8
GRAU_10_
 62
     7
100
AcDbVertex
100
AcDb2dVertex
 10
37.0331999907419
 20
195.6171298122069
 30
0.0
  0
VERTEX
  5
20F
330
1F4
100
AcDbEntity
  8
GRAU_10_
 62
     7
100
AcDbVertex
100
AcDb2dVertex
 10
37.0331999907419
 20
194.7027298124356
 30
0.0
  0
VERTEX
  5
210
330
1F4
100
AcDbEntity
  8
GRAU_10_
 62
     7
100
AcDbVertex
100
AcDb2dVertex
 10
37.0331999907419
 20
193.9802409237271
 30
0.0
  0
VERTEX
  5
211
330
1F4
100
AcDbEntity
  8
GRAU_10_
 62
     7
100
AcDbVertex
100
AcDb2dVertex
 10
37.0331999907419
 20
193.4588353683019
 30
0.0
  0
VERTEX
  5
212
330
1F4
100
AcDbEntity
  8
GRAU_10_
 62
     7
100
AcDbVertex
100
AcDb2dVertex
 10
37.0331999907419
 20
193.1434520350476
 30
0.0
  0
VERTEX
  5
213
330
1F4
100
AcDbEntity
  8
GRAU_10_
 62
     7
100
AcDbVertex
100
AcDb2dVertex
 10
37.0331999907419
 20
193.0383242572959
 30
0.0
  0
SEQEND
  5
214
330
1F4
100
AcDbEntity
  8
GRAU_10_
 62
     7
  0
POLYLINE
  5
215
330
1F
100
AcDbEntity
  8
GRAU_10_
 62
     7
100
AcDb2dPolyline
 66
     1
 10
0.0
 20
0.0
 30
0.0
  0
VERTEX
  5
216
330
215
100
AcDbEntity
  8
GRAU_10_
 62
     7
100
AcDbVertex
100
AcDb2dVertex
 10
43.23326943363627
 20
237.2882992462334
 30
0.0
  0
VERTEX
  5
217
330
215
100
AcDbEntity
  8
GRAU_10_
 62
     7
100
AcDbVertex
100
AcDb2dVertex
 10
43.23326943363627
 20
237.2350298018023
 30
0.0
  0
VERTEX
  5
218
330
215
100
AcDbEntity
  8
GRAU_10_
 62
     7
100
AcDbVertex
100
AcDb2dVertex
 10
43.23326943363627
 20
237.0741631351758
 30
0.0
  0
SEQEND
  5
219
330
215
100
AcDbEntity
  8
GRAU_10_
 62
     7
  0
POLYLINE
  5
21A
330
1F
100
AcDbEntity
  8
GRAU_10_
 62
     7
100
AcDb2dPolyline
 66
     1
 10
0.0
 20
0.0
 30
0.0
  0
VERTEX
  5
21B
330
21A
100
AcDbEntity
  8
GRAU_10_
 62
     7
100
AcDbVertex
100
AcDb2dVertex
 10
51.23321109830315
 20
237.0741631351758
 30
0.0
  0
VERTEX
  5
21C
330
21A
100
AcDbEntity
  8
GRAU_10_
 62
     7
100
AcDbVertex
100
AcDb2dVertex
 10
43.23326943363627
 20
237.0741631351758
 30
0.0
  0
SEQEND
  5
21D
330
21A
100
AcDbEntity
  8
GRAU_10_
 62
     7
  0
POLYLINE
  5
21E
330
1F
100
AcDbEntity
  8
GRAU_10_
 62
     7
100
AcDb2dPolyline
 66
     1
 10
0.0
 20
0.0
 30
0.0
  0
VERTEX
  5
21F
330
21E
100
AcDbEntity
  8
GRAU_10_
 62
     7
100
AcDbVertex
100
AcDb2dVertex
 10
51.23321109830315
 20
237.0741631351758
 30
0.0
  0
VERTEX
  5
220
330
21E
100
AcDbEntity
  8
GRAU_10_
 62
     7
100
AcDbVertex
100
AcDb2dVertex
 10
51.23321109830315
 20
237.2350298018023
 30
0.0
  0
VERTEX
  5
221
330
21E
100
AcDbEntity
  8
GRAU_10_
 62
     7
100
AcDbVertex
100
AcDb2dVertex
 10
51.23321109830315
 20
237.2882992462334
 30
0.0
  0
SEQEND
  5
222
330
21E
100
AcDbEntity
  8
GRAU_10_
 62
     7
  0
POLYLINE
  5
223
330
1F
100
AcDbEntity
  8
GRAU_10_
 62
     7
100
AcDb2dPolyline
 66
     1
 10
0.0
 20
0.0
 30
0.0
  0
VERTEX
  5
224
330
223
100
AcDbEntity
  8
GRAU_10_
 62
     7
100
AcDbVertex
100
AcDb2dVertex
 10
43.23326943363627
 20
230.7202825812089
 30
0.0
  0
VERTEX
  5
225
330
223
100
AcDbEntity
  8
GRAU_10_
 62
     7
100
AcDbVertex
100
AcDb2dVertex
 10
51.23321109830315
 20
230.7202825812089
 30
0.0
  0
SEQEND
  5
226
330
223
100
AcDbEntity
  8
GRAU_10_
 62
     7
  0
POLYLINE
  5
227
330
1F
100
AcDbEntity
  8
GRAU_10_
 62
     7
100
AcDb2dPolyline
 66
     1
 10
0.0
 20
0.0
 30
0.0
  0
VERTEX
  5
228
330
227
100
AcDbEntity
  8
GRAU_10_
 62
     7
100
AcDbVertex
100
AcDb2dVertex
 10
43.23326943363627
 20
237.0741631351758
 30
0.0
  0
VERTEX
  5
229
330
227
100
AcDbEntity
  8
GRAU_10_
 62
     7
100
AcDbVertex
100
AcDb2dVertex
 10
51.23321109830315
 20
237.0741631351758
 30
0.0
  0
SEQEND
  5
22A
330
227
100
AcDbEntity
  8
GRAU_10_
 62
     7
  0
POLYLINE
  5
22B
330
1F
100
AcDbEntity
  8
GRAU_10_
 62
     7
100
AcDb2dPolyline
 66
     1
 10
0.0
 20
0.0
 30
0.0
  0
VERTEX
  5
22C
330
22B
100
AcDbEntity
  8
GRAU_10_
 62
     7
100
AcDbVertex
100
AcDb2dVertex
 10
51.23321109830315
 20
230.7202825812089
 30
0.0
  0
VERTEX
  5
22D
330
22B
100
AcDbEntity
  8
GRAU_10_
 62
     7
100
AcDbVertex
100
AcDb2dVertex
 10
51.23321109830315
 20
232.3412964696927
 30
0.0
  0
VERTEX
  5
22E
330
22B
100
AcDbEntity
  8
GRAU_10_
 62
     7
100
AcDbVertex
100
AcDb2dVertex
 10
51.23321109830315
 20
233.7548770248947
 30
0.0
  0
VERTEX
  5
22F
330
22B
100
AcDbEntity
  8
GRAU_10_
 62
     7
100
AcDbVertex
100
AcDb2dVertex
 10
51.23321109830315
 20
234.9458548023748
 30
0.0
  0
VERTEX
  5
230
330
22B
100
AcDbEntity
  8
GRAU_10_
 62
     7
100
AcDbVertex
100
AcDb2dVertex
 10
51.23321109830315
 20
235.902235357691
 30
0.0
  0
VERTEX
  5
231
330
22B
100
AcDbEntity
  8
GRAU_10_
 62
     7
100
AcDbVertex
100
AcDb2dVertex
 10
51.23321109830315
 20
236.6144936908464
 30
0.0
  0
VERTEX
  5
232
330
22B
100
AcDbEntity
  8
GRAU_10_
 62
     7
100
AcDbVertex
100
AcDb2dVertex
 10
51.23321109830315
 20
237.0741631351758
 30
0.0
  0
SEQEND
  5
233
330
22B
100
AcDbEntity
  8
GRAU_10_
 62
     7
  0
POLYLINE
  5
234
330
1F
100
AcDbEntity
  8
GRAU_10_
 62
     7
100
AcDb2dPolyline
 66
     1
 10
0.0
 20
0.0
 30
0.0
  0
VERTEX
  5
235
330
234
100
AcDbEntity
  8
GRAU_10_
 62
     7
100
AcDbVertex
100
AcDb2dVertex
 10
43.23326943363627
 20
237.0741631351758
 30
0.0
  0
VERTEX
  5
236
330
234
100
AcDbEntity
  8
GRAU_10_
 62
     7
100
AcDbVertex
100
AcDb2dVertex
 10
43.23326943363627
 20
236.6144936908464
 30
0.0
  0
VERTEX
  5
237
330
234
100
AcDbEntity
  8
GRAU_10_
 62
     7
100
AcDbVertex
100
AcDb2dVertex
 10
43.23326943363627
 20
235.902235357691
 30
0.0
  0
VERTEX
  5
238
330
234
100
AcDbEntity
  8
GRAU_10_
 62
     7
100
AcDbVertex
100
AcDb2dVertex
 10
43.23326943363627
 20
234.9458548023748
 30
0.0
  0
VERTEX
  5
239
330
234
100
AcDbEntity
  8
GRAU_10_
 62
     7
100
AcDbVertex
100
AcDb2dVertex
 10
43.23326943363627
 20
233.7548770248947
 30
0.0
  0
VERTEX
  5
23A
330
234
100
AcDbEntity
  8
GRAU_10_
 62
     7
100
AcDbVertex
100
AcDb2dVertex
 10
43.23326943363627
 20
232.3412964696927
 30
0.0
  0
VERTEX
  5
23B
330
234
100
AcDbEntity
  8
GRAU_10_
 62
     7
100
AcDbVertex
100
AcDb2dVertex
 10
43.23326943363627
 20
230.7202825812089
 30
0.0
  0
SEQEND
  5
23C
330
234
100
AcDbEntity
  8
GRAU_10_
 62
     7
  0
POLYLINE
  5
23D
330
1F
100
AcDbEntity
  8
GRAU_10_
 62
     7
100
AcDb2dPolyline
 66
     1
 10
0.0
 20
0.0
 30
0.0
  0
VERTEX
  5
23E
330
23D
100
AcDbEntity
  8
GRAU_10_
 62
     7
100
AcDbVertex
100
AcDb2dVertex
 10
43.23326943363627
 20
202.7210159215419
 30
0.0
  0
VERTEX
  5
23F
330
23D
100
AcDbEntity
  8
GRAU_10_
 62
     7
100
AcDbVertex
100
AcDb2dVertex
 10
43.23326943363627
 20
200.2635659221565
 30
0.0
  0
VERTEX
  5
240
330
23D
100
AcDbEntity
  8
GRAU_10_
 62
     7
100
AcDbVertex
100
AcDb2dVertex
 10
43.23326943363627
 20
197.9486381449575
 30
0.0
  0
VERTEX
  5
241
330
23D
100
AcDbEntity
  8
GRAU_10_
 62
     7
100
AcDbVertex
100
AcDb2dVertex
 10
51.23321109830315
 20
197.9486381449575
 30
0.0
  0
SEQEND
  5
242
330
23D
100
AcDbEntity
  8
GRAU_10_
 62
     7
  0
POLYLINE
  5
243
330
1F
100
AcDbEntity
  8
GRAU_10_
 62
     7
100
AcDb2dPolyline
 66
     1
 10
0.0
 20
0.0
 30
0.0
  0
VERTEX
  5
244
330
243
100
AcDbEntity
  8
GRAU_10_
 62
     7
100
AcDbVertex
100
AcDb2dVertex
 10
43.23326943363627
 20
202.7210159215419
 30
0.0
  0
VERTEX
  5
245
330
243
100
AcDbEntity
  8
GRAU_10_
 62
     7
100
AcDbVertex
100
AcDb2dVertex
 10
51.23321109830315
 20
202.7210159215419
 30
0.0
  0
SEQEND
  5
246
330
243
100
AcDbEntity
  8
GRAU_10_
 62
     7
  0
POLYLINE
  5
247
330
1F
100
AcDbEntity
  8
GRAU_10_
 62
     7
100
AcDb2dPolyline
 66
     1
 10
0.0
 20
0.0
 30
0.0
  0
VERTEX
  5
248
330
247
100
AcDbEntity
  8
GRAU_10_
 62
     7
100
AcDbVertex
100
AcDb2dVertex
 10
51.23321109830315
 20
197.9486381449575
 30
0.0
  0
VERTEX
  5
249
330
247
100
AcDbEntity
  8
GRAU_10_
 62
     7
100
AcDbVertex
100
AcDb2dVertex
 10
51.23321109830315
 20
200.2635659221565
 30
0.0
  0
VERTEX
  5
24A
330
247
100
AcDbEntity
  8
GRAU_10_
 62
     7
100
AcDbVertex
100
AcDb2dVertex
 10
51.23321109830315
 20
202.7210159215419
 30
0.0
  0
SEQEND
  5
24B
330
247
100
AcDbEntity
  8
GRAU_10_
 62
     7
  0
POLYLINE
  5
24D
330
1F
100
AcDbEntity
  8
STANDARDEBENE
 62
     7
100
AcDb2dPolyline
 66
     1
 10
0.0
 20
0.0
 30
0.0
  0
VERTEX
  5
24E
330
24D
100
AcDbEntity
  8
STANDARDEBENE
 62
     7
100
AcDbVertex
100
AcDb2dVertex
 10
124.8810633413164
 20
187.4224548142555
 30
0.0
  0
VERTEX
  5
24F
330
24D
100
AcDbEntity
  8
STANDARDEBENE
 62
     7
100
AcDbVertex
100
AcDb2dVertex
 10
125.0151188968385
 20
187.2883992587334
 30
0.0
  0
SEQEND
  5
250
330
24D
100
AcDbEntity
  8
STANDARDEBENE
 62
     7
  0
POLYLINE
  5
251
330
1F
100
AcDbEntity
  8
STANDARDEBENE
 62
     7
100
AcDb2dPolyline
 66
     1
 10
0.0
 20
0.0
 30
0.0
  0
VERTEX
  5
252
330
251
100
AcDbEntity
  8
STANDARDEBENE
 62
     7
100
AcDbVertex
100
AcDb2dVertex
 10
129.9152022289466
 20
187.2883992587334
 30
0.0
  0
VERTEX
  5
253
330
251
100
AcDbEntity
  8
STANDARDEBENE
 62
     7
100
AcDbVertex
100
AcDb2dVertex
 10
130.0489050066909
 20
187.4224548142555
 30
0.0
  0
SEQEND
  5
254
330
251
100
AcDbEntity
  8
STANDARDEBENE
 62
     7
  0
SPLINE
  5
255
330
1F
100
AcDbEntity
  8
STANDARDEBENE
 62
     7
100
AcDbSpline
210
0.0
220
0.0
230
1.0
 70
     8
 71
     3
 72
    17
 73
    13
 74
     0
 42
0.0000000001
 43
0.0000000001
 12
1.0
 22
0.0
 32
0.0
 13
1.0
 23
0.0
 33
0.0
 40
0.0
 40
0.0
 40
0.0
 40
0.0
 40
1.0
 40
1.0
 40
1.0
 40
2.0
 40
2.0
 40
2.0
 40
3.0
 40
3.0
 40
3.0
 40
4.0
 40
4.0
 40
4.0
 40
4.0
 10
130.5713688954494
 20
223.8792159162523
 30
0.0
 10
129.5042161179382
 20
224.1656714717365
 30
0.0
 10
128.4324772293174
 20
224.2979631383701
 30
0.0
 10
127.4655133406703
 20
224.2880853605947
 30
0.0
 10
120.837877231216
 20
224.2880853605947
 30
0.0
 10
115.4650716770035
 20
218.9159853619377
 30
0.0
 10
115.4650716770035
 20
212.2883492524834
 30
0.0
 10
115.4650716770035
 20
205.6607131430294
 30
0.0
 10
120.837877231216
 20
200.2886131443724
 30
0.0
 10
127.4655133406703
 20
200.2886131443724
 30
0.0
 10
132.9882494504006
 20
200.2886131443724
 30
0.0
 10
137.6392716714602
 20
204.0195909212175
 30
0.0
 10
139.0563800044391
 20
209.182846475482
 30
0.0
  0
SPLINE
  5
256
330
1F
100
AcDbEntity
  8
STANDARDEBENE
 62
     7
100
AcDbSpline
210
0.0
220
0.0
230
1.0
 70
     8
 71
     3
 72
    17
 73
    13
 74
     0
 42
0.0000000001
 43
0.0000000001
 12
1.0
 22
0.0
 32
0.0
 13
1.0
 23
0.0
 33
0.0
 40
0.0
 40
0.0
 40
0.0
 40
0.0
 40
1.0
 40
1.0
 40
1.0
 40
2.0
 40
2.0
 40
2.0
 40
3.0
 40
3.0
 40
3.0
 40
4.0
 40
4.0
 40
4.0
 40
4.0
 10
130.4122661177114
 20
223.2869020275118
 30
0.0
 10
129.399793895742
 20
223.5581881385548
 30
0.0
 10
128.3830883404408
 20
223.68412980519
 30
0.0
 10
127.4655133406703
 20
223.6749575829701
 30
0.0
 10
121.1768966755758
 20
223.6749575829701
 30
0.0
 10
116.0785522324058
 20
218.5769659175779
 30
0.0
 10
116.0785522324058
 20
212.2883492524834
 30
0.0
 10
116.0785522324058
 20
205.9997325873889
 30
0.0
 10
121.1768966755758
 20
200.9020936997745
 30
0.0
 10
127.4655133406703
 20
200.9020936997745
 30
0.0
 10
132.7053216726937
 20
200.9020936997745
 30
0.0
 10
137.1196300049234
 20
204.4422186988894
 30
0.0
 10
138.4640661156983
 20
209.3415964754426
 30
0.0
  0
POLYLINE
  5
257
330
1F
100
AcDbEntity
  8
STANDARDEBENE
 62
     7
100
AcDb2dPolyline
 66
     1
 10
0.0
 20
0.0
 30
0.0
  0
VERTEX
  5
258
330
257
100
AcDbEntity
  8
STANDARDEBENE
 62
     7
100
AcDbVertex
100
AcDb2dVertex
 10
127.4655133406703
 20
187.2883992587334
 30
0.0
  0
VERTEX
  5
259
330
257
100
AcDbEntity
  8
STANDARDEBENE
 62
     7
100
AcDbVertex
100
AcDb2dVertex
 10
126.7080994519708
 20
187.2883992587334
 30
0.0
  0
VERTEX
  5
25A
330
257
100
AcDbEntity
  8
STANDARDEBENE
 62
     7
100
AcDbVertex
100
AcDb2dVertex
 10
126.0254744521413
 20
187.2883992587334
 30
0.0
  0
VERTEX
  5
25B
330
257
100
AcDbEntity
  8
STANDARDEBENE
 62
     7
100
AcDbVertex
100
AcDb2dVertex
 10
125.4829022300549
 20
187.2883992587334
 30
0.0
  0
VERTEX
  5
25C
330
257
100
AcDbEntity
  8
STANDARDEBENE
 62
     7
100
AcDbVertex
100
AcDb2dVertex
 10
125.1354161190304
 20
187.2883992587334
 30
0.0
  0
VERTEX
  5
25D
330
257
100
AcDbEntity
  8
STANDARDEBENE
 62
     7
100
AcDbVertex
100
AcDb2dVertex
 10
125.0151188968385
 20
187.2883992587334
 30
0.0
  0
SEQEND
  5
25E
330
257
100
AcDbEntity
  8
STANDARDEBENE
 62
     7
  0
POLYLINE
  5
25F
330
1F
100
AcDbEntity
  8
STANDARDEBENE
 62
     7
100
AcDb2dPolyline
 66
     1
 10
0.0
 20
0.0
 30
0.0
  0
VERTEX
  5
260
330
25F
100
AcDbEntity
  8
STANDARDEBENE
 62
     7
100
AcDbVertex
100
AcDb2dVertex
 10
129.9152022289466
 20
187.2883992587334
 30
0.0
  0
VERTEX
  5
261
330
25F
100
AcDbEntity
  8
STANDARDEBENE
 62
     7
100
AcDbVertex
100
AcDb2dVertex
 10
129.7956105623098
 20
187.2883992587334
 30
0.0
  0
VERTEX
  5
262
330
25F
100
AcDbEntity
  8
STANDARDEBENE
 62
     7
100
AcDbVertex
100
AcDb2dVertex
 10
129.4470661179524
 20
187.2883992587334
 30
0.0
  0
VERTEX
  5
263
330
25F
100
AcDbEntity
  8
STANDARDEBENE
 62
     7
100
AcDbVertex
100
AcDb2dVertex
 10
128.905552229199
 20
187.2883992587334
 30
0.0
  0
VERTEX
  5
264
330
25F
100
AcDbEntity
  8
STANDARDEBENE
 62
     7
100
AcDbVertex
100
AcDb2dVertex
 10
128.2222216738143
 20
187.2883992587334
 30
0.0
  0
VERTEX
  5
265
330
25F
100
AcDbEntity
  8
STANDARDEBENE
 62
     7
100
AcDbVertex
100
AcDb2dVertex
 10
127.4655133406703
 20
187.2883992587334
 30
0.0
  0
SEQEND
  5
266
330
25F
100
AcDbEntity
  8
STANDARDEBENE
 62
     7
  0
POLYLINE
  5
267
330
1F
100
AcDbEntity
  8
STANDARDEBENE
 62
     7
100
AcDb2dPolyline
 66
     1
 10
0.0
 20
0.0
 30
0.0
  0
VERTEX
  5
268
330
267
100
AcDbEntity
  8
STANDARDEBENE
 62
     7
100
AcDbVertex
100
AcDb2dVertex
 10
128.3312300071204
 20
213.7880075854419
 30
0.0
  0
VERTEX
  5
269
330
267
100
AcDbEntity
  8
STANDARDEBENE
 62
     7
100
AcDbVertex
100
AcDb2dVertex
 10
126.5990911186646
 20
213.7880075854419
 30
0.0
  0
SEQEND
  5
26A
330
267
100
AcDbEntity
  8
STANDARDEBENE
 62
     7
  0
POLYLINE
  5
26B
330
1F
100
AcDbEntity
  8
STANDARDEBENE
 62
     7
100
AcDb2dPolyline
 66
     1
 10
0.0
 20
0.0
 30
0.0
  0
VERTEX
  5
26C
330
26B
100
AcDbEntity
  8
STANDARDEBENE
 62
     7
100
AcDbVertex
100
AcDb2dVertex
 10
128.3312300071204
 20
210.7883381417475
 30
0.0
  0
VERTEX
  5
26D
330
26B
100
AcDbEntity
  8
STANDARDEBENE
 62
     7
100
AcDbVertex
100
AcDb2dVertex
 10
126.5990911186646
 20
210.7883381417475
 30
0.0
  0
SEQEND
  5
26E
330
26B
100
AcDbEntity
  8
STANDARDEBENE
 62
     7
  0
POLYLINE
  5
26F
330
1F
100
AcDbEntity
  8
STANDARDEBENE
 62
     7
100
AcDb2dPolyline
 66
     1
 10
0.0
 20
0.0
 30
0.0
  0
VERTEX
  5
270
330
26F
100
AcDbEntity
  8
STANDARDEBENE
 62
     7
100
AcDbVertex
100
AcDb2dVertex
 10
128.3312300071204
 20
213.7880075854419
 30
0.0
  0
VERTEX
  5
271
330
26F
100
AcDbEntity
  8
STANDARDEBENE
 62
     7
100
AcDbVertex
100
AcDb2dVertex
 10
129.1972994513483
 20
212.2883492524834
 30
0.0
  0
SEQEND
  5
272
330
26F
100
AcDbEntity
  8
STANDARDEBENE
 62
     7
  0
POLYLINE
  5
273
330
1F
100
AcDbEntity
  8
STANDARDEBENE
 62
     7
100
AcDb2dPolyline
 66
     1
 10
0.0
 20
0.0
 30
0.0
  0
VERTEX
  5
274
330
273
100
AcDbEntity
  8
STANDARDEBENE
 62
     7
100
AcDbVertex
100
AcDb2dVertex
 10
126.5990911186646
 20
213.7880075854419
 30
0.0
  0
VERTEX
  5
275
330
273
100
AcDbEntity
  8
STANDARDEBENE
 62
     7
100
AcDbVertex
100
AcDb2dVertex
 10
125.7330216744367
 20
212.2883492524834
 30
0.0
  0
SEQEND
  5
276
330
273
100
AcDbEntity
  8
STANDARDEBENE
 62
     7
  0
SPLINE
  5
277
330
1F
100
AcDbEntity
  8
STANDARDEBENE
 62
     7
100
AcDbSpline
210
0.0
220
0.0
230
1.0
 70
    11
 71
     3
 72
    17
 73
    13
 74
     0
 42
0.0000000001
 43
0.0000000001
 12
1.0
 22
0.0
 32
0.0
 13
1.0
 23
0.0
 33
0.0
 40
0.0
 40
0.0
 40
0.0
 40
0.0
 40
1.0
 40
1.0
 40
1.0
 40
2.0
 40
2.0
 40
2.0
 40
3.0
 40
3.0
 40
3.0
 40
4.0
 40
4.0
 40
4.0
 40
4.0
 10
132.4654327838647
 20
212.2883492524834
 30
0.0
 10
132.4654327838647
 20
215.0495409184599
 30
0.0
 10
130.2267050066467
 20
217.2882686956781
 30
0.0
 10
127.4655133406703
 20
217.2882686956781
 30
0.0
 10
124.7039688969161
 20
217.2882686956781
 30
0.0
 10
122.4655938974759
 20
215.0495409184599
 30
0.0
 10
122.4655938974759
 20
212.2883492524834
 30
0.0
 10
122.4655938974759
 20
209.5271575865073
 30
0.0
 10
124.7039688969161
 20
207.288429809289
 30
0.0
 10
127.4655133406703
 20
207.288429809289
 30
0.0
 10
130.2267050066467
 20
207.288429809289
 30
0.0
 10
132.4654327838647
 20
209.5271575865073
 30
0.0
 10
132.4654327838647
 20
212.2883492524834
 30
0.0
  0
POLYLINE
  5
278
330
1F
100
AcDbEntity
  8
STANDARDEBENE
 62
     7
100
AcDb2dPolyline
 66
     1
 10
0.0
 20
0.0
 30
0.0
  0
VERTEX
  5
279
330
278
100
AcDbEntity
  8
STANDARDEBENE
 62
     7
100
AcDbVertex
100
AcDb2dVertex
 10
129.1972994513483
 20
212.2883492524834
 30
0.0
  0
VERTEX
  5
27A
330
278
100
AcDbEntity
  8
STANDARDEBENE
 62
     7
100
AcDbVertex
100
AcDb2dVertex
 10
128.3312300071204
 20
210.7883381417475
 30
0.0
  0
SEQEND
  5
27B
330
278
100
AcDbEntity
  8
STANDARDEBENE
 62
     7
  0
POLYLINE
  5
27C
330
1F
100
AcDbEntity
  8
STANDARDEBENE
 62
     7
100
AcDb2dPolyline
 66
     1
 10
0.0
 20
0.0
 30
0.0
  0
VERTEX
  5
27D
330
27C
100
AcDbEntity
  8
STANDARDEBENE
 62
     7
100
AcDbVertex
100
AcDb2dVertex
 10
125.7330216744367
 20
212.2883492524834
 30
0.0
  0
VERTEX
  5
27E
330
27C
100
AcDbEntity
  8
STANDARDEBENE
 62
     7
100
AcDbVertex
100
AcDb2dVertex
 10
126.5990911186646
 20
210.7883381417475
 30
0.0
  0
SEQEND
  5
27F
330
27C
100
AcDbEntity
  8
STANDARDEBENE
 62
     7
  0
SPLINE
  5
280
330
1F
100
AcDbEntity
  8
STANDARDEBENE
 62
     7
100
AcDbSpline
210
0.0
220
0.0
230
1.0
 70
    11
 71
     3
 72
    17
 73
    13
 74
     0
 42
0.0000000001
 43
0.0000000001
 12
1.0
 22
0.0
 32
0.0
 13
1.0
 23
0.0
 33
0.0
 40
0.0
 40
0.0
 40
0.0
 40
0.0
 40
1.0
 40
1.0
 40
1.0
 40
2.0
 40
2.0
 40
2.0
 40
3.0
 40
3.0
 40
3.0
 40
4.0
 40
4.0
 40
4.0
 40
4.0
 10
128.9651716736284
 20
212.2883492524834
 30
0.0
 10
128.9651716736284
 20
213.1170242522763
 30
0.0
 10
128.2934827849077
 20
213.7880075854419
 30
0.0
 10
127.4655133406703
 20
213.7880075854419
 30
0.0
 10
126.6368383408774
 20
213.7880075854419
 30
0.0
 10
125.9651494521563
 20
213.1170242522763
 30
0.0
 10
125.9651494521563
 20
212.2883492524834
 30
0.0
 10
125.9651494521563
 20
211.4600270304683
 30
0.0
 10
126.6368383408774
 20
210.7886909195252
 30
0.0
 10
127.4655133406703
 20
210.7886909195252
 30
0.0
 10
128.2934827849077
 20
210.7886909195252
 30
0.0
 10
128.9651716736284
 20
211.4600270304683
 30
0.0
 10
128.9651716736284
 20
212.2883492524834
 30
0.0
  0
POLYLINE
  5
281
330
1F
100
AcDbEntity
  8
STANDARDEBENE
 62
     7
100
AcDb2dPolyline
 66
     1
 10
0.0
 20
0.0
 30
0.0
  0
VERTEX
  5
282
330
281
100
AcDbEntity
  8
STANDARDEBENE
 62
     7
100
AcDbVertex
100
AcDb2dVertex
 10
44.72904721104035
 20
187.3427270364977
 30
0.0
  0
VERTEX
  5
283
330
281
100
AcDbEntity
  8
STANDARDEBENE
 62
     7
100
AcDbVertex
100
AcDb2dVertex
 10
44.78337498880438
 20
187.2883992587334
 30
0.0
  0
SEQEND
  5
284
330
281
100
AcDbEntity
  8
STANDARDEBENE
 62
     7
  0
POLYLINE
  5
285
330
1F
100
AcDbEntity
  8
STANDARDEBENE
 62
     7
100
AcDb2dPolyline
 66
     1
 10
0.0
 20
0.0
 30
0.0
  0
VERTEX
  5
286
330
285
100
AcDbEntity
  8
STANDARDEBENE
 62
     7
100
AcDbVertex
100
AcDb2dVertex
 10
49.68345832091281
 20
187.2883992587334
 30
0.0
  0
VERTEX
  5
287
330
285
100
AcDbEntity
  8
STANDARDEBENE
 62
     7
100
AcDbVertex
100
AcDb2dVertex
 10
49.73778609867684
 20
187.3427270364977
 30
0.0
  0
SEQEND
  5
288
330
285
100
AcDbEntity
  8
STANDARDEBENE
 62
     7
  0
POLYLINE
  5
289
330
1F
100
AcDbEntity
  8
STANDARDEBENE
 62
     7
100
AcDb2dPolyline
 66
     1
 10
0.0
 20
0.0
 30
0.0
  0
VERTEX
  5
28A
330
289
100
AcDbEntity
  8
STANDARDEBENE
 62
     7
100
AcDbVertex
100
AcDb2dVertex
 10
49.68345832091281
 20
187.2883992587334
 30
0.0
  0
VERTEX
  5
28B
330
289
100
AcDbEntity
  8
STANDARDEBENE
 62
     7
100
AcDbVertex
100
AcDb2dVertex
 10
49.56316109872053
 20
187.2883992587334
 30
0.0
  0
VERTEX
  5
28C
330
289
100
AcDbEntity
  8
STANDARDEBENE
 62
     7
100
AcDbVertex
100
AcDb2dVertex
 10
49.21532220991865
 20
187.2883992587334
 30
0.0
  0
VERTEX
  5
28D
330
289
100
AcDbEntity
  8
STANDARDEBENE
 62
     7
100
AcDbVertex
100
AcDb2dVertex
 10
48.67310276560966
 20
187.2883992587334
 30
0.0
  0
VERTEX
  5
28E
330
289
100
AcDbEntity
  8
STANDARDEBENE
 62
     7
100
AcDbVertex
100
AcDb2dVertex
 10
47.9904777657805
 20
187.2883992587334
 30
0.0
  0
VERTEX
  5
28F
330
289
100
AcDbEntity
  8
STANDARDEBENE
 62
     7
100
AcDbVertex
100
AcDb2dVertex
 10
47.23306387708099
 20
187.2883992587334
 30
0.0
  0
VERTEX
  5
290
330
289
100
AcDbEntity
  8
STANDARDEBENE
 62
     7
100
AcDbVertex
100
AcDb2dVertex
 10
46.47635554393668
 20
187.2883992587334
 30
0.0
  0
VERTEX
  5
291
330
289
100
AcDbEntity
  8
STANDARDEBENE
 62
     7
100
AcDbVertex
100
AcDb2dVertex
 10
45.79302498855199
 20
187.2883992587334
 30
0.0
  0
VERTEX
  5
292
330
289
100
AcDbEntity
  8
STANDARDEBENE
 62
     7
100
AcDbVertex
100
AcDb2dVertex
 10
45.25115832202077
 20
187.2883992587334
 30
0.0
  0
VERTEX
  5
293
330
289
100
AcDbEntity
  8
STANDARDEBENE
 62
     7
100
AcDbVertex
100
AcDb2dVertex
 10
44.90331943321888
 20
187.2883992587334
 30
0.0
  0
VERTEX
  5
294
330
289
100
AcDbEntity
  8
STANDARDEBENE
 62
     7
100
AcDbVertex
100
AcDb2dVertex
 10
44.78337498880438
 20
187.2883992587334
 30
0.0
  0
SEQEND
  5
295
330
289
100
AcDbEntity
  8
STANDARDEBENE
 62
     7
  0
POLYLINE
  5
297
330
1F
100
AcDbEntity
  8
BEMA_U_00DFUNG
 62
     7
100
AcDb2dPolyline
 66
     1
 10
0.0
 20
0.0
 30
0.0
  0
VERTEX
  5
298
330
297
100
AcDbEntity
  8
BEMA_U_00DFUNG
 62
     7
100
AcDbVertex
100
AcDb2dVertex
 10
37.0331999907419
 20
193.0383242572959
 30
0.0
  0
VERTEX
  5
299
330
297
100
AcDbEntity
  8
BEMA_U_00DFUNG
 62
     7
100
AcDbVertex
100
AcDb2dVertex
 10
37.0331999907419
 20
164.911831637422
 30
0.0
  0
SEQEND
  5
29A
330
297
100
AcDbEntity
  8
BEMA_U_00DFUNG
 62
     7
  0
POLYLINE
  5
29B
330
1F
100
AcDbEntity
  8
BEMA_U_00DFUNG
 62
     7
100
AcDb2dPolyline
 66
     1
 10
0.0
 20
0.0
 30
0.0
  0
VERTEX
  5
29C
330
29B
100
AcDbEntity
  8
BEMA_U_00DFUNG
 62
     7
100
AcDbVertex
100
AcDb2dVertex
 10
57.23290276346976
 20
188.2885242584834
 30
0.0
  0
VERTEX
  5
29D
330
29B
100
AcDbEntity
  8
BEMA_U_00DFUNG
 62
     7
100
AcDbVertex
100
AcDb2dVertex
 10
57.23290276346976
 20
164.911831637422
 30
0.0
  0
SEQEND
  5
29E
330
29B
100
AcDbEntity
  8
BEMA_U_00DFUNG
 62
     7
  0
POLYLINE
  5
29F
330
1F
100
AcDbEntity
  8
BEMA_U_00DFUNG
 62
     7
100
AcDb2dPolyline
 66
     1
 10
0.0
 20
0.0
 30
0.0
  0
VERTEX
  5
2A0
330
29F
100
AcDbEntity
  8
BEMA_U_00DFUNG
 62
     7
100
AcDbVertex
100
AcDb2dVertex
 10
37.0331999907419
 20
166.9117288591441
 30
0.0
  0
VERTEX
  5
2A1
330
29F
100
AcDbEntity
  8
BEMA_U_00DFUNG
 62
     7
100
AcDbVertex
100
AcDb2dVertex
 10
57.23290276346976
 20
166.9117288591441
 30
0.0
  0
SEQEND
  5
2A2
330
29F
100
AcDbEntity
  8
BEMA_U_00DFUNG
 62
     7
  0
POLYLINE
  5
2A3
330
1F
100
AcDbEntity
  8
BEMA_U_00DFUNG
 62
     7
100
AcDb2dPolyline
 66
     1
 10
0.0
 20
0.0
 30
0.0
  0
VERTEX
  5
2A4
330
2A3
100
AcDbEntity
  8
BEMA_U_00DFUNG
 62
     7
100
AcDbVertex
100
AcDb2dVertex
 10
37.0331999907419
 20
166.9117288591441
 30
0.0
  0
VERTEX
  5
2A5
330
2A3
100
AcDbEntity
  8
BEMA_U_00DFUNG
 62
     7
100
AcDbVertex
100
AcDb2dVertex
 10
39.53298332345037
 20
166.5825871925598
 30
0.0
  0
VERTEX
  5
2A6
330
2A3
100
AcDbEntity
  8
BEMA_U_00DFUNG
 62
     7
100
AcDbVertex
100
AcDb2dVertex
 10
39.53298332345037
 20
167.2405177479508
 30
0.0
  0
VERTEX
  5
2A7
330
2A3
100
AcDbEntity
  8
BEMA_U_00DFUNG
 62
     7
100
AcDbVertex
100
AcDb2dVertex
 10
37.0331999907419
 20
166.9117288591441
 30
0.0
  0
SEQEND
  5
2A8
330
2A3
100
AcDbEntity
  8
BEMA_U_00DFUNG
 62
     7
  0
POLYLINE
  5
2A9
330
1F
100
AcDbEntity
  8
BEMA_U_00DFUNG
 62
     7
100
AcDb2dPolyline
 66
     1
 10
0.0
 20
0.0
 30
0.0
  0
VERTEX
  5
2AA
330
2A9
100
AcDbEntity
  8
BEMA_U_00DFUNG
 62
     7
100
AcDbVertex
100
AcDb2dVertex
 10
39.53298332345037
 20
166.6069288592205
 30
0.0
  0
VERTEX
  5
2AB
330
2A9
100
AcDbEntity
  8
BEMA_U_00DFUNG
 62
     7
100
AcDbVertex
100
AcDb2dVertex
 10
39.34812776794091
 20
166.6069288592205
 30
0.0
  0
SEQEND
  5
2AC
330
2A9
100
AcDbEntity
  8
BEMA_U_00DFUNG
 62
     7
  0
POLYLINE
  5
2AD
330
1F
100
AcDbEntity
  8
BEMA_U_00DFUNG
 62
     7
100
AcDb2dPolyline
 66
     1
 10
0.0
 20
0.0
 30
0.0
  0
VERTEX
  5
2AE
330
2AD
100
AcDbEntity
  8
BEMA_U_00DFUNG
 62
     7
100
AcDbVertex
100
AcDb2dVertex
 10
39.53298332345037
 20
166.6069288592205
 30
0.0
  0
VERTEX
  5
2AF
330
2AD
100
AcDbEntity
  8
BEMA_U_00DFUNG
 62
     7
100
AcDbVertex
100
AcDb2dVertex
 10
39.34812776794091
 20
166.6069288592205
 30
0.0
  0
SEQEND
  5
2B0
330
2AD
100
AcDbEntity
  8
BEMA_U_00DFUNG
 62
     7
  0
POLYLINE
  5
2B1
330
1F
100
AcDbEntity
  8
BEMA_U_00DFUNG
 62
     7
100
AcDb2dPolyline
 66
     1
 10
0.0
 20
0.0
 30
0.0
  0
VERTEX
  5
2B2
330
2B1
100
AcDbEntity
  8
BEMA_U_00DFUNG
 62
     7
100
AcDbVertex
100
AcDb2dVertex
 10
39.53298332345037
 20
166.6573760814301
 30
0.0
  0
VERTEX
  5
2B3
330
2B1
100
AcDbEntity
  8
BEMA_U_00DFUNG
 62
     7
100
AcDbVertex
100
AcDb2dVertex
 10
38.96254165692625
 20
166.6573760814301
 30
0.0
  0
SEQEND
  5
2B4
330
2B1
100
AcDbEntity
  8
BEMA_U_00DFUNG
 62
     7
  0
POLYLINE
  5
2B5
330
1F
100
AcDbEntity
  8
BEMA_U_00DFUNG
 62
     7
100
AcDb2dPolyline
 66
     1
 10
0.0
 20
0.0
 30
0.0
  0
VERTEX
  5
2B6
330
2B5
100
AcDbEntity
  8
BEMA_U_00DFUNG
 62
     7
100
AcDbVertex
100
AcDb2dVertex
 10
39.53298332345037
 20
166.7081760814172
 30
0.0
  0
VERTEX
  5
2B7
330
2B5
100
AcDbEntity
  8
BEMA_U_00DFUNG
 62
     7
100
AcDbVertex
100
AcDb2dVertex
 10
38.57660276813383
 20
166.7081760814172
 30
0.0
  0
SEQEND
  5
2B8
330
2B5
100
AcDbEntity
  8
BEMA_U_00DFUNG
 62
     7
  0
POLYLINE
  5
2B9
330
1F
100
AcDbEntity
  8
BEMA_U_00DFUNG
 62
     7
100
AcDb2dPolyline
 66
     1
 10
0.0
 20
0.0
 30
0.0
  0
VERTEX
  5
2BA
330
2B9
100
AcDbEntity
  8
BEMA_U_00DFUNG
 62
     7
100
AcDbVertex
100
AcDb2dVertex
 10
39.53298332345037
 20
166.7589760814046
 30
0.0
  0
VERTEX
  5
2BB
330
2B9
100
AcDbEntity
  8
BEMA_U_00DFUNG
 62
     7
100
AcDbVertex
100
AcDb2dVertex
 10
38.19101665711917
 20
166.7589760814046
 30
0.0
  0
SEQEND
  5
2BC
330
2B9
100
AcDbEntity
  8
BEMA_U_00DFUNG
 62
     7
  0
POLYLINE
  5
2BD
330
1F
100
AcDbEntity
  8
BEMA_U_00DFUNG
 62
     7
100
AcDb2dPolyline
 66
     1
 10
0.0
 20
0.0
 30
0.0
  0
VERTEX
  5
2BE
330
2BD
100
AcDbEntity
  8
BEMA_U_00DFUNG
 62
     7
100
AcDbVertex
100
AcDb2dVertex
 10
39.53298332345037
 20
166.809776081392
 30
0.0
  0
VERTEX
  5
2BF
330
2BD
100
AcDbEntity
  8
BEMA_U_00DFUNG
 62
     7
100
AcDbVertex
100
AcDb2dVertex
 10
37.80472499054898
 20
166.809776081392
 30
0.0
  0
SEQEND
  5
2C0
330
2BD
100
AcDbEntity
  8
BEMA_U_00DFUNG
 62
     7
  0
POLYLINE
  5
2C1
330
1F
100
AcDbEntity
  8
BEMA_U_00DFUNG
 62
     7
100
AcDb2dPolyline
 66
     1
 10
0.0
 20
0.0
 30
0.0
  0
VERTEX
  5
2C2
330
2C1
100
AcDbEntity
  8
BEMA_U_00DFUNG
 62
     7
100
AcDbVertex
100
AcDb2dVertex
 10
39.53298332345037
 20
166.860576081379
 30
0.0
  0
VERTEX
  5
2C3
330
2C1
100
AcDbEntity
  8
BEMA_U_00DFUNG
 62
     7
100
AcDbVertex
100
AcDb2dVertex
 10
37.41913887953432
 20
166.860576081379
 30
0.0
  0
SEQEND
  5
2C4
330
2C1
100
AcDbEntity
  8
BEMA_U_00DFUNG
 62
     7
  0
POLYLINE
  5
2C5
330
1F
100
AcDbEntity
  8
BEMA_U_00DFUNG
 62
     7
100
AcDb2dPolyline
 66
     1
 10
0.0
 20
0.0
 30
0.0
  0
VERTEX
  5
2C6
330
2C5
100
AcDbEntity
  8
BEMA_U_00DFUNG
 62
     7
100
AcDbVertex
100
AcDb2dVertex
 10
39.53298332345037
 20
166.9117288591441
 30
0.0
  0
VERTEX
  5
2C7
330
2C5
100
AcDbEntity
  8
BEMA_U_00DFUNG
 62
     7
100
AcDbVertex
100
AcDb2dVertex
 10
37.0331999907419
 20
166.9117288591441
 30
0.0
  0
SEQEND
  5
2C8
330
2C5
100
AcDbEntity
  8
BEMA_U_00DFUNG
 62
     7
  0
POLYLINE
  5
2C9
330
1F
100
AcDbEntity
  8
BEMA_U_00DFUNG
 62
     7
100
AcDb2dPolyline
 66
     1
 10
0.0
 20
0.0
 30
0.0
  0
VERTEX
  5
2CA
330
2C9
100
AcDbEntity
  8
BEMA_U_00DFUNG
 62
     7
100
AcDbVertex
100
AcDb2dVertex
 10
39.53298332345037
 20
167.2161760812904
 30
0.0
  0
VERTEX
  5
2CB
330
2C9
100
AcDbEntity
  8
BEMA_U_00DFUNG
 62
     7
100
AcDbVertex
100
AcDb2dVertex
 10
39.34812776794091
 20
167.2161760812904
 30
0.0
  0
SEQEND
  5
2CC
330
2C9
100
AcDbEntity
  8
BEMA_U_00DFUNG
 62
     7
  0
POLYLINE
  5
2CD
330
1F
100
AcDbEntity
  8
BEMA_U_00DFUNG
 62
     7
100
AcDb2dPolyline
 66
     1
 10
0.0
 20
0.0
 30
0.0
  0
VERTEX
  5
2CE
330
2CD
100
AcDbEntity
  8
BEMA_U_00DFUNG
 62
     7
100
AcDbVertex
100
AcDb2dVertex
 10
39.53298332345037
 20
167.2161760812904
 30
0.0
  0
VERTEX
  5
2CF
330
2CD
100
AcDbEntity
  8
BEMA_U_00DFUNG
 62
     7
100
AcDbVertex
100
AcDb2dVertex
 10
39.34812776794091
 20
167.2161760812904
 30
0.0
  0
SEQEND
  5
2D0
330
2CD
100
AcDbEntity
  8
BEMA_U_00DFUNG
 62
     7
  0
POLYLINE
  5
2D1
330
1F
100
AcDbEntity
  8
BEMA_U_00DFUNG
 62
     7
100
AcDb2dPolyline
 66
     1
 10
0.0
 20
0.0
 30
0.0
  0
VERTEX
  5
2D2
330
2D1
100
AcDbEntity
  8
BEMA_U_00DFUNG
 62
     7
100
AcDbVertex
100
AcDb2dVertex
 10
39.53298332345037
 20
167.1657288590808
 30
0.0
  0
VERTEX
  5
2D3
330
2D1
100
AcDbEntity
  8
BEMA_U_00DFUNG
 62
     7
100
AcDbVertex
100
AcDb2dVertex
 10
38.96254165692625
 20
167.1657288590808
 30
0.0
  0
SEQEND
  5
2D4
330
2D1
100
AcDbEntity
  8
BEMA_U_00DFUNG
 62
     7
  0
POLYLINE
  5
2D5
330
1F
100
AcDbEntity
  8
BEMA_U_00DFUNG
 62
     7
100
AcDb2dPolyline
 66
     1
 10
0.0
 20
0.0
 30
0.0
  0
VERTEX
  5
2D6
330
2D5
100
AcDbEntity
  8
BEMA_U_00DFUNG
 62
     7
100
AcDbVertex
100
AcDb2dVertex
 10
39.53298332345037
 20
167.1149288590934
 30
0.0
  0
VERTEX
  5
2D7
330
2D5
100
AcDbEntity
  8
BEMA_U_00DFUNG
 62
     7
100
AcDbVertex
100
AcDb2dVertex
 10
38.57660276813383
 20
167.1149288590934
 30
0.0
  0
SEQEND
  5
2D8
330
2D5
100
AcDbEntity
  8
BEMA_U_00DFUNG
 62
     7
  0
POLYLINE
  5
2D9
330
1F
100
AcDbEntity
  8
BEMA_U_00DFUNG
 62
     7
100
AcDb2dPolyline
 66
     1
 10
0.0
 20
0.0
 30
0.0
  0
VERTEX
  5
2DA
330
2D9
100
AcDbEntity
  8
BEMA_U_00DFUNG
 62
     7
100
AcDbVertex
100
AcDb2dVertex
 10
39.53298332345037
 20
167.064128859106
 30
0.0
  0
VERTEX
  5
2DB
330
2D9
100
AcDbEntity
  8
BEMA_U_00DFUNG
 62
     7
100
AcDbVertex
100
AcDb2dVertex
 10
38.19101665711917
 20
167.064128859106
 30
0.0
  0
SEQEND
  5
2DC
330
2D9
100
AcDbEntity
  8
BEMA_U_00DFUNG
 62
     7
  0
POLYLINE
  5
2DD
330
1F
100
AcDbEntity
  8
BEMA_U_00DFUNG
 62
     7
100
AcDb2dPolyline
 66
     1
 10
0.0
 20
0.0
 30
0.0
  0
VERTEX
  5
2DE
330
2DD
100
AcDbEntity
  8
BEMA_U_00DFUNG
 62
     7
100
AcDbVertex
100
AcDb2dVertex
 10
39.53298332345037
 20
167.0133288591189
 30
0.0
  0
VERTEX
  5
2DF
330
2DD
100
AcDbEntity
  8
BEMA_U_00DFUNG
 62
     7
100
AcDbVertex
100
AcDb2dVertex
 10
37.80472499054898
 20
167.0133288591189
 30
0.0
  0
SEQEND
  5
2E0
330
2DD
100
AcDbEntity
  8
BEMA_U_00DFUNG
 62
     7
  0
POLYLINE
  5
2E1
330
1F
100
AcDbEntity
  8
BEMA_U_00DFUNG
 62
     7
100
AcDb2dPolyline
 66
     1
 10
0.0
 20
0.0
 30
0.0
  0
VERTEX
  5
2E2
330
2E1
100
AcDbEntity
  8
BEMA_U_00DFUNG
 62
     7
100
AcDbVertex
100
AcDb2dVertex
 10
39.53298332345037
 20
166.9625288591315
 30
0.0
  0
VERTEX
  5
2E3
330
2E1
100
AcDbEntity
  8
BEMA_U_00DFUNG
 62
     7
100
AcDbVertex
100
AcDb2dVertex
 10
37.41913887953432
 20
166.9625288591315
 30
0.0
  0
SEQEND
  5
2E4
330
2E1
100
AcDbEntity
  8
BEMA_U_00DFUNG
 62
     7
  0
POLYLINE
  5
2E5
330
1F
100
AcDbEntity
  8
BEMA_U_00DFUNG
 62
     7
100
AcDb2dPolyline
 66
     1
 10
0.0
 20
0.0
 30
0.0
  0
VERTEX
  5
2E6
330
2E5
100
AcDbEntity
  8
BEMA_U_00DFUNG
 62
     7
100
AcDbVertex
100
AcDb2dVertex
 10
39.53298332345037
 20
166.9117288591441
 30
0.0
  0
VERTEX
  5
2E7
330
2E5
100
AcDbEntity
  8
BEMA_U_00DFUNG
 62
     7
100
AcDbVertex
100
AcDb2dVertex
 10
37.0331999907419
 20
166.9117288591441
 30
0.0
  0
SEQEND
  5
2E8
330
2E5
100
AcDbEntity
  8
BEMA_U_00DFUNG
 62
     7
  0
POLYLINE
  5
2E9
330
1F
100
AcDbEntity
  8
BEMA_U_00DFUNG
 62
     7
100
AcDb2dPolyline
 66
     1
 10
0.0
 20
0.0
 30
0.0
  0
VERTEX
  5
2EA
330
2E9
100
AcDbEntity
  8
BEMA_U_00DFUNG
 62
     7
100
AcDbVertex
100
AcDb2dVertex
 10
57.23290276346976
 20
166.9117288591441
 30
0.0
  0
VERTEX
  5
2EB
330
2E9
100
AcDbEntity
  8
BEMA_U_00DFUNG
 62
     7
100
AcDbVertex
100
AcDb2dVertex
 10
54.73311943076128
 20
167.2405177479508
 30
0.0
  0
VERTEX
  5
2EC
330
2E9
100
AcDbEntity
  8
BEMA_U_00DFUNG
 62
     7
100
AcDbVertex
100
AcDb2dVertex
 10
54.73311943076128
 20
166.5825871925598
 30
0.0
  0
VERTEX
  5
2ED
330
2E9
100
AcDbEntity
  8
BEMA_U_00DFUNG
 62
     7
100
AcDbVertex
100
AcDb2dVertex
 10
57.23290276346976
 20
166.9117288591441
 30
0.0
  0
SEQEND
  5
2EE
330
2E9
100
AcDbEntity
  8
BEMA_U_00DFUNG
 62
     7
  0
POLYLINE
  5
2EF
330
1F
100
AcDbEntity
  8
BEMA_U_00DFUNG
 62
     7
100
AcDb2dPolyline
 66
     1
 10
0.0
 20
0.0
 30
0.0
  0
VERTEX
  5
2F0
330
2EF
100
AcDbEntity
  8
BEMA_U_00DFUNG
 62
     7
100
AcDbVertex
100
AcDb2dVertex
 10
54.73311943076128
 20
167.2161760812904
 30
0.0
  0
VERTEX
  5
2F1
330
2EF
100
AcDbEntity
  8
BEMA_U_00DFUNG
 62
     7
100
AcDbVertex
100
AcDb2dVertex
 10
54.91797498627075
 20
167.2161760812904
 30
0.0
  0
SEQEND
  5
2F2
330
2EF
100
AcDbEntity
  8
BEMA_U_00DFUNG
 62
     7
  0
POLYLINE
  5
2F3
330
1F
100
AcDbEntity
  8
BEMA_U_00DFUNG
 62
     7
100
AcDb2dPolyline
 66
     1
 10
0.0
 20
0.0
 30
0.0
  0
VERTEX
  5
2F4
330
2F3
100
AcDbEntity
  8
BEMA_U_00DFUNG
 62
     7
100
AcDbVertex
100
AcDb2dVertex
 10
54.73311943076128
 20
167.2161760812904
 30
0.0
  0
VERTEX
  5
2F5
330
2F3
100
AcDbEntity
  8
BEMA_U_00DFUNG
 62
     7
100
AcDbVertex
100
AcDb2dVertex
 10
54.91797498627075
 20
167.2161760812904
 30
0.0
  0
SEQEND
  5
2F6
330
2F3
100
AcDbEntity
  8
BEMA_U_00DFUNG
 62
     7
  0
POLYLINE
  5
2F7
330
1F
100
AcDbEntity
  8
BEMA_U_00DFUNG
 62
     7
100
AcDb2dPolyline
 66
     1
 10
0.0
 20
0.0
 30
0.0
  0
VERTEX
  5
2F8
330
2F7
100
AcDbEntity
  8
BEMA_U_00DFUNG
 62
     7
100
AcDbVertex
100
AcDb2dVertex
 10
54.73311943076128
 20
167.1657288590808
 30
0.0
  0
VERTEX
  5
2F9
330
2F7
100
AcDbEntity
  8
BEMA_U_00DFUNG
 62
     7
100
AcDbVertex
100
AcDb2dVertex
 10
55.30391387506317
 20
167.1657288590808
 30
0.0
  0
SEQEND
  5
2FA
330
2F7
100
AcDbEntity
  8
BEMA_U_00DFUNG
 62
     7
  0
POLYLINE
  5
2FB
330
1F
100
AcDbEntity
  8
BEMA_U_00DFUNG
 62
     7
100
AcDb2dPolyline
 66
     1
 10
0.0
 20
0.0
 30
0.0
  0
VERTEX
  5
2FC
330
2FB
100
AcDbEntity
  8
BEMA_U_00DFUNG
 62
     7
100
AcDbVertex
100
AcDb2dVertex
 10
54.73311943076128
 20
167.1149288590934
 30
0.0
  0
VERTEX
  5
2FD
330
2FB
100
AcDbEntity
  8
BEMA_U_00DFUNG
 62
     7
100
AcDbVertex
100
AcDb2dVertex
 10
55.68949998607783
 20
167.1149288590934
 30
0.0
  0
SEQEND
  5
2FE
330
2FB
100
AcDbEntity
  8
BEMA_U_00DFUNG
 62
     7
  0
POLYLINE
  5
2FF
330
1F
100
AcDbEntity
  8
BEMA_U_00DFUNG
 62
     7
100
AcDb2dPolyline
 66
     1
 10
0.0
 20
0.0
 30
0.0
  0
VERTEX
  5
300
330
2FF
100
AcDbEntity
  8
BEMA_U_00DFUNG
 62
     7
100
AcDbVertex
100
AcDb2dVertex
 10
54.73311943076128
 20
167.064128859106
 30
0.0
  0
VERTEX
  5
301
330
2FF
100
AcDbEntity
  8
BEMA_U_00DFUNG
 62
     7
100
AcDbVertex
100
AcDb2dVertex
 10
56.07579165264801
 20
167.064128859106
 30
0.0
  0
SEQEND
  5
302
330
2FF
100
AcDbEntity
  8
BEMA_U_00DFUNG
 62
     7
  0
POLYLINE
  5
303
330
1F
100
AcDbEntity
  8
BEMA_U_00DFUNG
 62
     7
100
AcDb2dPolyline
 66
     1
 10
0.0
 20
0.0
 30
0.0
  0
VERTEX
  5
304
330
303
100
AcDbEntity
  8
BEMA_U_00DFUNG
 62
     7
100
AcDbVertex
100
AcDb2dVertex
 10
54.73311943076128
 20
167.0133288591189
 30
0.0
  0
VERTEX
  5
305
330
303
100
AcDbEntity
  8
BEMA_U_00DFUNG
 62
     7
100
AcDbVertex
100
AcDb2dVertex
 10
56.46137776366268
 20
167.0133288591189
 30
0.0
  0
SEQEND
  5
306
330
303
100
AcDbEntity
  8
BEMA_U_00DFUNG
 62
     7
  0
POLYLINE
  5
307
330
1F
100
AcDbEntity
  8
BEMA_U_00DFUNG
 62
     7
100
AcDb2dPolyline
 66
     1
 10
0.0
 20
0.0
 30
0.0
  0
VERTEX
  5
308
330
307
100
AcDbEntity
  8
BEMA_U_00DFUNG
 62
     7
100
AcDbVertex
100
AcDb2dVertex
 10
54.73311943076128
 20
166.9625288591315
 30
0.0
  0
VERTEX
  5
309
330
307
100
AcDbEntity
  8
BEMA_U_00DFUNG
 62
     7
100
AcDbVertex
100
AcDb2dVertex
 10
56.84766943023286
 20
166.9625288591315
 30
0.0
  0
SEQEND
  5
30A
330
307
100
AcDbEntity
  8
BEMA_U_00DFUNG
 62
     7
  0
POLYLINE
  5
30B
330
1F
100
AcDbEntity
  8
BEMA_U_00DFUNG
 62
     7
100
AcDb2dPolyline
 66
     1
 10
0.0
 20
0.0
 30
0.0
  0
VERTEX
  5
30C
330
30B
100
AcDbEntity
  8
BEMA_U_00DFUNG
 62
     7
100
AcDbVertex
100
AcDb2dVertex
 10
54.73311943076128
 20
166.9117288591441
 30
0.0
  0
VERTEX
  5
30D
330
30B
100
AcDbEntity
  8
BEMA_U_00DFUNG
 62
     7
100
AcDbVertex
100
AcDb2dVertex
 10
57.23290276346976
 20
166.9117288591441
 30
0.0
  0
SEQEND
  5
30E
330
30B
100
AcDbEntity
  8
BEMA_U_00DFUNG
 62
     7
  0
POLYLINE
  5
30F
330
1F
100
AcDbEntity
  8
BEMA_U_00DFUNG
 62
     7
100
AcDb2dPolyline
 66
     1
 10
0.0
 20
0.0
 30
0.0
  0
VERTEX
  5
310
330
30F
100
AcDbEntity
  8
BEMA_U_00DFUNG
 62
     7
100
AcDbVertex
100
AcDb2dVertex
 10
54.73311943076128
 20
166.6069288592205
 30
0.0
  0
VERTEX
  5
311
330
30F
100
AcDbEntity
  8
BEMA_U_00DFUNG
 62
     7
100
AcDbVertex
100
AcDb2dVertex
 10
54.91797498627075
 20
166.6069288592205
 30
0.0
  0
SEQEND
  5
312
330
30F
100
AcDbEntity
  8
BEMA_U_00DFUNG
 62
     7
  0
POLYLINE
  5
313
330
1F
100
AcDbEntity
  8
BEMA_U_00DFUNG
 62
     7
100
AcDb2dPolyline
 66
     1
 10
0.0
 20
0.0
 30
0.0
  0
VERTEX
  5
314
330
313
100
AcDbEntity
  8
BEMA_U_00DFUNG
 62
     7
100
AcDbVertex
100
AcDb2dVertex
 10
54.73311943076128
 20
166.6069288592205
 30
0.0
  0
VERTEX
  5
315
330
313
100
AcDbEntity
  8
BEMA_U_00DFUNG
 62
     7
100
AcDbVertex
100
AcDb2dVertex
 10
54.91797498627075
 20
166.6069288592205
 30
0.0
  0
SEQEND
  5
316
330
313
100
AcDbEntity
  8
BEMA_U_00DFUNG
 62
     7
  0
POLYLINE
  5
317
330
1F
100
AcDbEntity
  8
BEMA_U_00DFUNG
 62
     7
100
AcDb2dPolyline
 66
     1
 10
0.0
 20
0.0
 30
0.0
  0
VERTEX
  5
318
330
317
100
AcDbEntity
  8
BEMA_U_00DFUNG
 62
     7
100
AcDbVertex
100
AcDb2dVertex
 10
54.73311943076128
 20
166.6573760814301
 30
0.0
  0
VERTEX
  5
319
330
317
100
AcDbEntity
  8
BEMA_U_00DFUNG
 62
     7
100
AcDbVertex
100
AcDb2dVertex
 10
55.30391387506317
 20
166.6573760814301
 30
0.0
  0
SEQEND
  5
31A
330
317
100
AcDbEntity
  8
BEMA_U_00DFUNG
 62
     7
  0
POLYLINE
  5
31B
330
1F
100
AcDbEntity
  8
BEMA_U_00DFUNG
 62
     7
100
AcDb2dPolyline
 66
     1
 10
0.0
 20
0.0
 30
0.0
  0
VERTEX
  5
31C
330
31B
100
AcDbEntity
  8
BEMA_U_00DFUNG
 62
     7
100
AcDbVertex
100
AcDb2dVertex
 10
54.73311943076128
 20
166.7081760814172
 30
0.0
  0
VERTEX
  5
31D
330
31B
100
AcDbEntity
  8
BEMA_U_00DFUNG
 62
     7
100
AcDbVertex
100
AcDb2dVertex
 10
55.68949998607783
 20
166.7081760814172
 30
0.0
  0
SEQEND
  5
31E
330
31B
100
AcDbEntity
  8
BEMA_U_00DFUNG
 62
     7
  0
POLYLINE
  5
31F
330
1F
100
AcDbEntity
  8
BEMA_U_00DFUNG
 62
     7
100
AcDb2dPolyline
 66
     1
 10
0.0
 20
0.0
 30
0.0
  0
VERTEX
  5
320
330
31F
100
AcDbEntity
  8
BEMA_U_00DFUNG
 62
     7
100
AcDbVertex
100
AcDb2dVertex
 10
54.73311943076128
 20
166.7589760814046
 30
0.0
  0
VERTEX
  5
321
330
31F
100
AcDbEntity
  8
BEMA_U_00DFUNG
 62
     7
100
AcDbVertex
100
AcDb2dVertex
 10
56.07579165264801
 20
166.7589760814046
 30
0.0
  0
SEQEND
  5
322
330
31F
100
AcDbEntity
  8
BEMA_U_00DFUNG
 62
     7
  0
POLYLINE
  5
323
330
1F
100
AcDbEntity
  8
BEMA_U_00DFUNG
 62
     7
100
AcDb2dPolyline
 66
     1
 10
0.0
 20
0.0
 30
0.0
  0
VERTEX
  5
324
330
323
100
AcDbEntity
  8
BEMA_U_00DFUNG
 62
     7
100
AcDbVertex
100
AcDb2dVertex
 10
54.73311943076128
 20
166.809776081392
 30
0.0
  0
VERTEX
  5
325
330
323
100
AcDbEntity
  8
BEMA_U_00DFUNG
 62
     7
100
AcDbVertex
100
AcDb2dVertex
 10
56.46137776366268
 20
166.809776081392
 30
0.0
  0
SEQEND
  5
326
330
323
100
AcDbEntity
  8
BEMA_U_00DFUNG
 62
     7
  0
POLYLINE
  5
327
330
1F
100
AcDbEntity
  8
BEMA_U_00DFUNG
 62
     7
100
AcDb2dPolyline
 66
     1
 10
0.0
 20
0.0
 30
0.0
  0
VERTEX
  5
328
330
327
100
AcDbEntity
  8
BEMA_U_00DFUNG
 62
     7
100
AcDbVertex
100
AcDb2dVertex
 10
54.73311943076128
 20
166.860576081379
 30
0.0
  0
VERTEX
  5
329
330
327
100
AcDbEntity
  8
BEMA_U_00DFUNG
 62
     7
100
AcDbVertex
100
AcDb2dVertex
 10
56.84766943023286
 20
166.860576081379
 30
0.0
  0
SEQEND
  5
32A
330
327
100
AcDbEntity
  8
BEMA_U_00DFUNG
 62
     7
  0
POLYLINE
  5
32B
330
1F
100
AcDbEntity
  8
BEMA_U_00DFUNG
 62
     7
100
AcDb2dPolyline
 66
     1
 10
0.0
 20
0.0
 30
0.0
  0
VERTEX
  5
32C
330
32B
100
AcDbEntity
  8
BEMA_U_00DFUNG
 62
     7
100
AcDbVertex
100
AcDb2dVertex
 10
54.73311943076128
 20
166.9117288591441
 30
0.0
  0
VERTEX
  5
32D
330
32B
100
AcDbEntity
  8
BEMA_U_00DFUNG
 62
     7
100
AcDbVertex
100
AcDb2dVertex
 10
57.23290276346976
 20
166.9117288591441
 30
0.0
  0
SEQEND
  5
32E
330
32B
100
AcDbEntity
  8
BEMA_U_00DFUNG
 62
     7
  0
POLYLINE
  5
32F
330
1F
100
AcDbEntity
  8
BEMA_U_00DFUNG
 62
     7
100
AcDb2dPolyline
 66
     1
 10
0.0
 20
0.0
 30
0.0
  0
VERTEX
  5
330
330
32F
100
AcDbEntity
  8
BEMA_U_00DFUNG
 62
     7
100
AcDbVertex
100
AcDb2dVertex
 10
102.4655633469203
 20
212.2883492524834
 30
0.0
  0
VERTEX
  5
331
330
32F
100
AcDbEntity
  8
BEMA_U_00DFUNG
 62
     7
100
AcDbVertex
100
AcDb2dVertex
 10
102.4655633469203
 20
175.216474968029
 30
0.0
  0
SEQEND
  5
332
330
32F
100
AcDbEntity
  8
BEMA_U_00DFUNG
 62
     7
  0
POLYLINE
  5
333
330
1F
100
AcDbEntity
  8
BEMA_U_00DFUNG
 62
     7
100
AcDb2dPolyline
 66
     1
 10
0.0
 20
0.0
 30
0.0
  0
VERTEX
  5
334
330
333
100
AcDbEntity
  8
BEMA_U_00DFUNG
 62
     7
100
AcDbVertex
100
AcDb2dVertex
 10
152.4654633344203
 20
212.2883492524834
 30
0.0
  0
VERTEX
  5
335
330
333
100
AcDbEntity
  8
BEMA_U_00DFUNG
 62
     7
100
AcDbVertex
100
AcDb2dVertex
 10
152.4654633344203
 20
175.216474968029
 30
0.0
  0
SEQEND
  5
336
330
333
100
AcDbEntity
  8
BEMA_U_00DFUNG
 62
     7
  0
POLYLINE
  5
337
330
1F
100
AcDbEntity
  8
BEMA_U_00DFUNG
 62
     7
100
AcDb2dPolyline
 66
     1
 10
0.0
 20
0.0
 30
0.0
  0
VERTEX
  5
338
330
337
100
AcDbEntity
  8
BEMA_U_00DFUNG
 62
     7
100
AcDbVertex
100
AcDb2dVertex
 10
102.4655633469203
 20
177.216724967529
 30
0.0
  0
VERTEX
  5
339
330
337
100
AcDbEntity
  8
BEMA_U_00DFUNG
 62
     7
100
AcDbVertex
100
AcDb2dVertex
 10
152.4654633344203
 20
177.216724967529
 30
0.0
  0
SEQEND
  5
33A
330
337
100
AcDbEntity
  8
BEMA_U_00DFUNG
 62
     7
  0
POLYLINE
  5
33B
330
1F
100
AcDbEntity
  8
BEMA_U_00DFUNG
 62
     7
100
AcDb2dPolyline
 66
     1
 10
0.0
 20
0.0
 30
0.0
  0
VERTEX
  5
33C
330
33B
100
AcDbEntity
  8
BEMA_U_00DFUNG
 62
     7
100
AcDbVertex
100
AcDb2dVertex
 10
102.4655633469203
 20
177.216724967529
 30
0.0
  0
VERTEX
  5
33D
330
33B
100
AcDbEntity
  8
BEMA_U_00DFUNG
 62
     7
100
AcDbVertex
100
AcDb2dVertex
 10
104.9653466796288
 20
176.8875833009446
 30
0.0
  0
VERTEX
  5
33E
330
33B
100
AcDbEntity
  8
BEMA_U_00DFUNG
 62
     7
100
AcDbVertex
100
AcDb2dVertex
 10
104.9653466796288
 20
177.5458666341133
 30
0.0
  0
VERTEX
  5
33F
330
33B
100
AcDbEntity
  8
BEMA_U_00DFUNG
 62
     7
100
AcDbVertex
100
AcDb2dVertex
 10
102.4655633469203
 20
177.216724967529
 30
0.0
  0
SEQEND
  5
340
330
33B
100
AcDbEntity
  8
BEMA_U_00DFUNG
 62
     7
  0
POLYLINE
  5
341
330
1F
100
AcDbEntity
  8
BEMA_U_00DFUNG
 62
     7
100
AcDb2dPolyline
 66
     1
 10
0.0
 20
0.0
 30
0.0
  0
VERTEX
  5
342
330
341
100
AcDbEntity
  8
BEMA_U_00DFUNG
 62
     7
100
AcDbVertex
100
AcDb2dVertex
 10
104.9653466796288
 20
176.9115721898272
 30
0.0
  0
VERTEX
  5
343
330
341
100
AcDbEntity
  8
BEMA_U_00DFUNG
 62
     7
100
AcDbVertex
100
AcDb2dVertex
 10
104.7804911241193
 20
176.9115721898272
 30
0.0
  0
SEQEND
  5
344
330
341
100
AcDbEntity
  8
BEMA_U_00DFUNG
 62
     7
  0
POLYLINE
  5
345
330
1F
100
AcDbEntity
  8
BEMA_U_00DFUNG
 62
     7
100
AcDb2dPolyline
 66
     1
 10
0.0
 20
0.0
 30
0.0
  0
VERTEX
  5
346
330
345
100
AcDbEntity
  8
BEMA_U_00DFUNG
 62
     7
100
AcDbVertex
100
AcDb2dVertex
 10
104.9653466796288
 20
176.9115721898272
 30
0.0
  0
VERTEX
  5
347
330
345
100
AcDbEntity
  8
BEMA_U_00DFUNG
 62
     7
100
AcDbVertex
100
AcDb2dVertex
 10
104.7804911241193
 20
176.9115721898272
 30
0.0
  0
SEQEND
  5
348
330
345
100
AcDbEntity
  8
BEMA_U_00DFUNG
 62
     7
  0
POLYLINE
  5
349
330
1F
100
AcDbEntity
  8
BEMA_U_00DFUNG
 62
     7
100
AcDb2dPolyline
 66
     1
 10
0.0
 20
0.0
 30
0.0
  0
VERTEX
  5
34A
330
349
100
AcDbEntity
  8
BEMA_U_00DFUNG
 62
     7
100
AcDbVertex
100
AcDb2dVertex
 10
104.9653466796288
 20
176.9623721898146
 30
0.0
  0
VERTEX
  5
34B
330
349
100
AcDbEntity
  8
BEMA_U_00DFUNG
 62
     7
100
AcDbVertex
100
AcDb2dVertex
 10
104.3945522353269
 20
176.9623721898146
 30
0.0
  0
SEQEND
  5
34C
330
349
100
AcDbEntity
  8
BEMA_U_00DFUNG
 62
     7
  0
POLYLINE
  5
34D
330
1F
100
AcDbEntity
  8
BEMA_U_00DFUNG
 62
     7
100
AcDb2dPolyline
 66
     1
 10
0.0
 20
0.0
 30
0.0
  0
VERTEX
  5
34E
330
34D
100
AcDbEntity
  8
BEMA_U_00DFUNG
 62
     7
100
AcDbVertex
100
AcDb2dVertex
 10
104.9653466796288
 20
177.013172189802
 30
0.0
  0
VERTEX
  5
34F
330
34D
100
AcDbEntity
  8
BEMA_U_00DFUNG
 62
     7
100
AcDbVertex
100
AcDb2dVertex
 10
104.0089661243122
 20
177.013172189802
 30
0.0
  0
SEQEND
  5
350
330
34D
100
AcDbEntity
  8
BEMA_U_00DFUNG
 62
     7
  0
POLYLINE
  5
351
330
1F
100
AcDbEntity
  8
BEMA_U_00DFUNG
 62
     7
100
AcDb2dPolyline
 66
     1
 10
0.0
 20
0.0
 30
0.0
  0
VERTEX
  5
352
330
351
100
AcDbEntity
  8
BEMA_U_00DFUNG
 62
     7
100
AcDbVertex
100
AcDb2dVertex
 10
104.9653466796288
 20
177.0639721897894
 30
0.0
  0
VERTEX
  5
353
330
351
100
AcDbEntity
  8
BEMA_U_00DFUNG
 62
     7
100
AcDbVertex
100
AcDb2dVertex
 10
103.622674457742
 20
177.0639721897894
 30
0.0
  0
SEQEND
  5
354
330
351
100
AcDbEntity
  8
BEMA_U_00DFUNG
 62
     7
  0
POLYLINE
  5
355
330
1F
100
AcDbEntity
  8
BEMA_U_00DFUNG
 62
     7
100
AcDb2dPolyline
 66
     1
 10
0.0
 20
0.0
 30
0.0
  0
VERTEX
  5
356
330
355
100
AcDbEntity
  8
BEMA_U_00DFUNG
 62
     7
100
AcDbVertex
100
AcDb2dVertex
 10
104.9653466796288
 20
177.1151249675542
 30
0.0
  0
VERTEX
  5
357
330
355
100
AcDbEntity
  8
BEMA_U_00DFUNG
 62
     7
100
AcDbVertex
100
AcDb2dVertex
 10
103.2370883467274
 20
177.1151249675542
 30
0.0
  0
SEQEND
  5
358
330
355
100
AcDbEntity
  8
BEMA_U_00DFUNG
 62
     7
  0
POLYLINE
  5
359
330
1F
100
AcDbEntity
  8
BEMA_U_00DFUNG
 62
     7
100
AcDb2dPolyline
 66
     1
 10
0.0
 20
0.0
 30
0.0
  0
VERTEX
  5
35A
330
359
100
AcDbEntity
  8
BEMA_U_00DFUNG
 62
     7
100
AcDbVertex
100
AcDb2dVertex
 10
104.9653466796288
 20
177.1659249675416
 30
0.0
  0
VERTEX
  5
35B
330
359
100
AcDbEntity
  8
BEMA_U_00DFUNG
 62
     7
100
AcDbVertex
100
AcDb2dVertex
 10
102.8511494579349
 20
177.1659249675416
 30
0.0
  0
SEQEND
  5
35C
330
359
100
AcDbEntity
  8
BEMA_U_00DFUNG
 62
     7
  0
POLYLINE
  5
35D
330
1F
100
AcDbEntity
  8
BEMA_U_00DFUNG
 62
     7
100
AcDb2dPolyline
 66
     1
 10
0.0
 20
0.0
 30
0.0
  0
VERTEX
  5
35E
330
35D
100
AcDbEntity
  8
BEMA_U_00DFUNG
 62
     7
100
AcDbVertex
100
AcDb2dVertex
 10
104.9653466796288
 20
177.216724967529
 30
0.0
  0
VERTEX
  5
35F
330
35D
100
AcDbEntity
  8
BEMA_U_00DFUNG
 62
     7
100
AcDbVertex
100
AcDb2dVertex
 10
102.4655633469203
 20
177.216724967529
 30
0.0
  0
SEQEND
  5
360
330
35D
100
AcDbEntity
  8
BEMA_U_00DFUNG
 62
     7
  0
POLYLINE
  5
361
330
1F
100
AcDbEntity
  8
BEMA_U_00DFUNG
 62
     7
100
AcDb2dPolyline
 66
     1
 10
0.0
 20
0.0
 30
0.0
  0
VERTEX
  5
362
330
361
100
AcDbEntity
  8
BEMA_U_00DFUNG
 62
     7
100
AcDbVertex
100
AcDb2dVertex
 10
104.9653466796288
 20
177.5211721896748
 30
0.0
  0
VERTEX
  5
363
330
361
100
AcDbEntity
  8
BEMA_U_00DFUNG
 62
     7
100
AcDbVertex
100
AcDb2dVertex
 10
104.7804911241193
 20
177.5211721896748
 30
0.0
  0
SEQEND
  5
364
330
361
100
AcDbEntity
  8
BEMA_U_00DFUNG
 62
     7
  0
POLYLINE
  5
365
330
1F
100
AcDbEntity
  8
BEMA_U_00DFUNG
 62
     7
100
AcDb2dPolyline
 66
     1
 10
0.0
 20
0.0
 30
0.0
  0
VERTEX
  5
366
330
365
100
AcDbEntity
  8
BEMA_U_00DFUNG
 62
     7
100
AcDbVertex
100
AcDb2dVertex
 10
104.9653466796288
 20
177.5211721896748
 30
0.0
  0
VERTEX
  5
367
330
365
100
AcDbEntity
  8
BEMA_U_00DFUNG
 62
     7
100
AcDbVertex
100
AcDb2dVertex
 10
104.7804911241193
 20
177.5211721896748
 30
0.0
  0
SEQEND
  5
368
330
365
100
AcDbEntity
  8
BEMA_U_00DFUNG
 62
     7
  0
POLYLINE
  5
369
330
1F
100
AcDbEntity
  8
BEMA_U_00DFUNG
 62
     7
100
AcDb2dPolyline
 66
     1
 10
0.0
 20
0.0
 30
0.0
  0
VERTEX
  5
36A
330
369
100
AcDbEntity
  8
BEMA_U_00DFUNG
 62
     7
100
AcDbVertex
100
AcDb2dVertex
 10
104.9653466796288
 20
177.4703721896878
 30
0.0
  0
VERTEX
  5
36B
330
369
100
AcDbEntity
  8
BEMA_U_00DFUNG
 62
     7
100
AcDbVertex
100
AcDb2dVertex
 10
104.3945522353269
 20
177.4703721896878
 30
0.0
  0
SEQEND
  5
36C
330
369
100
AcDbEntity
  8
BEMA_U_00DFUNG
 62
     7
  0
POLYLINE
  5
36D
330
1F
100
AcDbEntity
  8
BEMA_U_00DFUNG
 62
     7
100
AcDb2dPolyline
 66
     1
 10
0.0
 20
0.0
 30
0.0
  0
VERTEX
  5
36E
330
36D
100
AcDbEntity
  8
BEMA_U_00DFUNG
 62
     7
100
AcDbVertex
100
AcDb2dVertex
 10
104.9653466796288
 20
177.4195721897004
 30
0.0
  0
VERTEX
  5
36F
330
36D
100
AcDbEntity
  8
BEMA_U_00DFUNG
 62
     7
100
AcDbVertex
100
AcDb2dVertex
 10
104.0089661243122
 20
177.4195721897004
 30
0.0
  0
SEQEND
  5
370
330
36D
100
AcDbEntity
  8
BEMA_U_00DFUNG
 62
     7
  0
POLYLINE
  5
371
330
1F
100
AcDbEntity
  8
BEMA_U_00DFUNG
 62
     7
100
AcDb2dPolyline
 66
     1
 10
0.0
 20
0.0
 30
0.0
  0
VERTEX
  5
372
330
371
100
AcDbEntity
  8
BEMA_U_00DFUNG
 62
     7
100
AcDbVertex
100
AcDb2dVertex
 10
104.9653466796288
 20
177.368772189713
 30
0.0
  0
VERTEX
  5
373
330
371
100
AcDbEntity
  8
BEMA_U_00DFUNG
 62
     7
100
AcDbVertex
100
AcDb2dVertex
 10
103.622674457742
 20
177.368772189713
 30
0.0
  0
SEQEND
  5
374
330
371
100
AcDbEntity
  8
BEMA_U_00DFUNG
 62
     7
  0
POLYLINE
  5
375
330
1F
100
AcDbEntity
  8
BEMA_U_00DFUNG
 62
     7
100
AcDb2dPolyline
 66
     1
 10
0.0
 20
0.0
 30
0.0
  0
VERTEX
  5
376
330
375
100
AcDbEntity
  8
BEMA_U_00DFUNG
 62
     7
100
AcDbVertex
100
AcDb2dVertex
 10
104.9653466796288
 20
177.3183249675034
 30
0.0
  0
VERTEX
  5
377
330
375
100
AcDbEntity
  8
BEMA_U_00DFUNG
 62
     7
100
AcDbVertex
100
AcDb2dVertex
 10
103.2370883467274
 20
177.3183249675034
 30
0.0
  0
SEQEND
  5
378
330
375
100
AcDbEntity
  8
BEMA_U_00DFUNG
 62
     7
  0
POLYLINE
  5
379
330
1F
100
AcDbEntity
  8
BEMA_U_00DFUNG
 62
     7
100
AcDb2dPolyline
 66
     1
 10
0.0
 20
0.0
 30
0.0
  0
VERTEX
  5
37A
330
379
100
AcDbEntity
  8
BEMA_U_00DFUNG
 62
     7
100
AcDbVertex
100
AcDb2dVertex
 10
104.9653466796288
 20
177.267524967516
 30
0.0
  0
VERTEX
  5
37B
330
379
100
AcDbEntity
  8
BEMA_U_00DFUNG
 62
     7
100
AcDbVertex
100
AcDb2dVertex
 10
102.8511494579349
 20
177.267524967516
 30
0.0
  0
SEQEND
  5
37C
330
379
100
AcDbEntity
  8
BEMA_U_00DFUNG
 62
     7
  0
POLYLINE
  5
37D
330
1F
100
AcDbEntity
  8
BEMA_U_00DFUNG
 62
     7
100
AcDb2dPolyline
 66
     1
 10
0.0
 20
0.0
 30
0.0
  0
VERTEX
  5
37E
330
37D
100
AcDbEntity
  8
BEMA_U_00DFUNG
 62
     7
100
AcDbVertex
100
AcDb2dVertex
 10
104.9653466796288
 20
177.216724967529
 30
0.0
  0
VERTEX
  5
37F
330
37D
100
AcDbEntity
  8
BEMA_U_00DFUNG
 62
     7
100
AcDbVertex
100
AcDb2dVertex
 10
102.4655633469203
 20
177.216724967529
 30
0.0
  0
SEQEND
  5
380
330
37D
100
AcDbEntity
  8
BEMA_U_00DFUNG
 62
     7
  0
POLYLINE
  5
381
330
1F
100
AcDbEntity
  8
BEMA_U_00DFUNG
 62
     7
100
AcDb2dPolyline
 66
     1
 10
0.0
 20
0.0
 30
0.0
  0
VERTEX
  5
382
330
381
100
AcDbEntity
  8
BEMA_U_00DFUNG
 62
     7
100
AcDbVertex
100
AcDb2dVertex
 10
152.4654633344203
 20
177.216724967529
 30
0.0
  0
VERTEX
  5
383
330
381
100
AcDbEntity
  8
BEMA_U_00DFUNG
 62
     7
100
AcDbVertex
100
AcDb2dVertex
 10
149.9653272239341
 20
177.5458666341133
 30
0.0
  0
VERTEX
  5
384
330
381
100
AcDbEntity
  8
BEMA_U_00DFUNG
 62
     7
100
AcDbVertex
100
AcDb2dVertex
 10
149.9653272239341
 20
176.8875833009446
 30
0.0
  0
VERTEX
  5
385
330
381
100
AcDbEntity
  8
BEMA_U_00DFUNG
 62
     7
100
AcDbVertex
100
AcDb2dVertex
 10
152.4654633344203
 20
177.216724967529
 30
0.0
  0
SEQEND
  5
386
330
381
100
AcDbEntity
  8
BEMA_U_00DFUNG
 62
     7
  0
POLYLINE
  5
387
330
1F
100
AcDbEntity
  8
BEMA_U_00DFUNG
 62
     7
100
AcDb2dPolyline
 66
     1
 10
0.0
 20
0.0
 30
0.0
  0
VERTEX
  5
388
330
387
100
AcDbEntity
  8
BEMA_U_00DFUNG
 62
     7
100
AcDbVertex
100
AcDb2dVertex
 10
149.9653272239341
 20
177.5211721896748
 30
0.0
  0
VERTEX
  5
389
330
387
100
AcDbEntity
  8
BEMA_U_00DFUNG
 62
     7
100
AcDbVertex
100
AcDb2dVertex
 10
150.1501827794435
 20
177.5211721896748
 30
0.0
  0
SEQEND
  5
38A
330
387
100
AcDbEntity
  8
BEMA_U_00DFUNG
 62
     7
  0
POLYLINE
  5
38B
330
1F
100
AcDbEntity
  8
BEMA_U_00DFUNG
 62
     7
100
AcDb2dPolyline
 66
     1
 10
0.0
 20
0.0
 30
0.0
  0
VERTEX
  5
38C
330
38B
100
AcDbEntity
  8
BEMA_U_00DFUNG
 62
     7
100
AcDbVertex
100
AcDb2dVertex
 10
149.9653272239341
 20
177.5211721896748
 30
0.0
  0
VERTEX
  5
38D
330
38B
100
AcDbEntity
  8
BEMA_U_00DFUNG
 62
     7
100
AcDbVertex
100
AcDb2dVertex
 10
150.1501827794435
 20
177.5211721896748
 30
0.0
  0
SEQEND
  5
38E
330
38B
100
AcDbEntity
  8
BEMA_U_00DFUNG
 62
     7
  0
POLYLINE
  5
38F
330
1F
100
AcDbEntity
  8
BEMA_U_00DFUNG
 62
     7
100
AcDb2dPolyline
 66
     1
 10
0.0
 20
0.0
 30
0.0
  0
VERTEX
  5
390
330
38F
100
AcDbEntity
  8
BEMA_U_00DFUNG
 62
     7
100
AcDbVertex
100
AcDb2dVertex
 10
149.9653272239341
 20
177.4703721896878
 30
0.0
  0
VERTEX
  5
391
330
38F
100
AcDbEntity
  8
BEMA_U_00DFUNG
 62
     7
100
AcDbVertex
100
AcDb2dVertex
 10
150.5357688904582
 20
177.4703721896878
 30
0.0
  0
SEQEND
  5
392
330
38F
100
AcDbEntity
  8
BEMA_U_00DFUNG
 62
     7
  0
POLYLINE
  5
393
330
1F
100
AcDbEntity
  8
BEMA_U_00DFUNG
 62
     7
100
AcDb2dPolyline
 66
     1
 10
0.0
 20
0.0
 30
0.0
  0
VERTEX
  5
394
330
393
100
AcDbEntity
  8
BEMA_U_00DFUNG
 62
     7
100
AcDbVertex
100
AcDb2dVertex
 10
149.9653272239341
 20
177.4195721897004
 30
0.0
  0
VERTEX
  5
395
330
393
100
AcDbEntity
  8
BEMA_U_00DFUNG
 62
     7
100
AcDbVertex
100
AcDb2dVertex
 10
150.9220605570284
 20
177.4195721897004
 30
0.0
  0
SEQEND
  5
396
330
393
100
AcDbEntity
  8
BEMA_U_00DFUNG
 62
     7
  0
POLYLINE
  5
397
330
1F
100
AcDbEntity
  8
BEMA_U_00DFUNG
 62
     7
100
AcDb2dPolyline
 66
     1
 10
0.0
 20
0.0
 30
0.0
  0
VERTEX
  5
398
330
397
100
AcDbEntity
  8
BEMA_U_00DFUNG
 62
     7
100
AcDbVertex
100
AcDb2dVertex
 10
149.9653272239341
 20
177.368772189713
 30
0.0
  0
VERTEX
  5
399
330
397
100
AcDbEntity
  8
BEMA_U_00DFUNG
 62
     7
100
AcDbVertex
100
AcDb2dVertex
 10
151.307646668043
 20
177.368772189713
 30
0.0
  0
SEQEND
  5
39A
330
397
100
AcDbEntity
  8
BEMA_U_00DFUNG
 62
     7
  0
POLYLINE
  5
39B
330
1F
100
AcDbEntity
  8
BEMA_U_00DFUNG
 62
     7
100
AcDb2dPolyline
 66
     1
 10
0.0
 20
0.0
 30
0.0
  0
VERTEX
  5
39C
330
39B
100
AcDbEntity
  8
BEMA_U_00DFUNG
 62
     7
100
AcDbVertex
100
AcDb2dVertex
 10
149.9653272239341
 20
177.3183249675034
 30
0.0
  0
VERTEX
  5
39D
330
39B
100
AcDbEntity
  8
BEMA_U_00DFUNG
 62
     7
100
AcDbVertex
100
AcDb2dVertex
 10
151.6935855568354
 20
177.3183249675034
 30
0.0
  0
SEQEND
  5
39E
330
39B
100
AcDbEntity
  8
BEMA_U_00DFUNG
 62
     7
  0
POLYLINE
  5
39F
330
1F
100
AcDbEntity
  8
BEMA_U_00DFUNG
 62
     7
100
AcDb2dPolyline
 66
     1
 10
0.0
 20
0.0
 30
0.0
  0
VERTEX
  5
3A0
330
39F
100
AcDbEntity
  8
BEMA_U_00DFUNG
 62
     7
100
AcDbVertex
100
AcDb2dVertex
 10
149.9653272239341
 20
177.267524967516
 30
0.0
  0
VERTEX
  5
3A1
330
39F
100
AcDbEntity
  8
BEMA_U_00DFUNG
 62
     7
100
AcDbVertex
100
AcDb2dVertex
 10
152.0791716678501
 20
177.267524967516
 30
0.0
  0
SEQEND
  5
3A2
330
39F
100
AcDbEntity
  8
BEMA_U_00DFUNG
 62
     7
  0
POLYLINE
  5
3A3
330
1F
100
AcDbEntity
  8
BEMA_U_00DFUNG
 62
     7
100
AcDb2dPolyline
 66
     1
 10
0.0
 20
0.0
 30
0.0
  0
VERTEX
  5
3A4
330
3A3
100
AcDbEntity
  8
BEMA_U_00DFUNG
 62
     7
100
AcDbVertex
100
AcDb2dVertex
 10
149.9653272239341
 20
177.216724967529
 30
0.0
  0
VERTEX
  5
3A5
330
3A3
100
AcDbEntity
  8
BEMA_U_00DFUNG
 62
     7
100
AcDbVertex
100
AcDb2dVertex
 10
152.4654633344203
 20
177.216724967529
 30
0.0
  0
SEQEND
  5
3A6
330
3A3
100
AcDbEntity
  8
BEMA_U_00DFUNG
 62
     7
  0
POLYLINE
  5
3A7
330
1F
100
AcDbEntity
  8
BEMA_U_00DFUNG
 62
     7
100
AcDb2dPolyline
 66
     1
 10
0.0
 20
0.0
 30
0.0
  0
VERTEX
  5
3A8
330
3A7
100
AcDbEntity
  8
BEMA_U_00DFUNG
 62
     7
100
AcDbVertex
100
AcDb2dVertex
 10
149.9653272239341
 20
176.9115721898272
 30
0.0
  0
VERTEX
  5
3A9
330
3A7
100
AcDbEntity
  8
BEMA_U_00DFUNG
 62
     7
100
AcDbVertex
100
AcDb2dVertex
 10
150.1501827794435
 20
176.9115721898272
 30
0.0
  0
SEQEND
  5
3AA
330
3A7
100
AcDbEntity
  8
BEMA_U_00DFUNG
 62
     7
  0
POLYLINE
  5
3AB
330
1F
100
AcDbEntity
  8
BEMA_U_00DFUNG
 62
     7
100
AcDb2dPolyline
 66
     1
 10
0.0
 20
0.0
 30
0.0
  0
VERTEX
  5
3AC
330
3AB
100
AcDbEntity
  8
BEMA_U_00DFUNG
 62
     7
100
AcDbVertex
100
AcDb2dVertex
 10
149.9653272239341
 20
176.9115721898272
 30
0.0
  0
VERTEX
  5
3AD
330
3AB
100
AcDbEntity
  8
BEMA_U_00DFUNG
 62
     7
100
AcDbVertex
100
AcDb2dVertex
 10
150.1501827794435
 20
176.9115721898272
 30
0.0
  0
SEQEND
  5
3AE
330
3AB
100
AcDbEntity
  8
BEMA_U_00DFUNG
 62
     7
  0
POLYLINE
  5
3AF
330
1F
100
AcDbEntity
  8
BEMA_U_00DFUNG
 62
     7
100
AcDb2dPolyline
 66
     1
 10
0.0
 20
0.0
 30
0.0
  0
VERTEX
  5
3B0
330
3AF
100
AcDbEntity
  8
BEMA_U_00DFUNG
 62
     7
100
AcDbVertex
100
AcDb2dVertex
 10
149.9653272239341
 20
176.9623721898146
 30
0.0
  0
VERTEX
  5
3B1
330
3AF
100
AcDbEntity
  8
BEMA_U_00DFUNG
 62
     7
100
AcDbVertex
100
AcDb2dVertex
 10
150.5357688904582
 20
176.9623721898146
 30
0.0
  0
SEQEND
  5
3B2
330
3AF
100
AcDbEntity
  8
BEMA_U_00DFUNG
 62
     7
  0
POLYLINE
  5
3B3
330
1F
100
AcDbEntity
  8
BEMA_U_00DFUNG
 62
     7
100
AcDb2dPolyline
 66
     1
 10
0.0
 20
0.0
 30
0.0
  0
VERTEX
  5
3B4
330
3B3
100
AcDbEntity
  8
BEMA_U_00DFUNG
 62
     7
100
AcDbVertex
100
AcDb2dVertex
 10
149.9653272239341
 20
177.013172189802
 30
0.0
  0
VERTEX
  5
3B5
330
3B3
100
AcDbEntity
  8
BEMA_U_00DFUNG
 62
     7
100
AcDbVertex
100
AcDb2dVertex
 10
150.9220605570284
 20
177.013172189802
 30
0.0
  0
SEQEND
  5
3B6
330
3B3
100
AcDbEntity
  8
BEMA_U_00DFUNG
 62
     7
  0
POLYLINE
  5
3B7
330
1F
100
AcDbEntity
  8
BEMA_U_00DFUNG
 62
     7
100
AcDb2dPolyline
 66
     1
 10
0.0
 20
0.0
 30
0.0
  0
VERTEX
  5
3B8
330
3B7
100
AcDbEntity
  8
BEMA_U_00DFUNG
 62
     7
100
AcDbVertex
100
AcDb2dVertex
 10
149.9653272239341
 20
177.0639721897894
 30
0.0
  0
VERTEX
  5
3B9
330
3B7
100
AcDbEntity
  8
BEMA_U_00DFUNG
 62
     7
100
AcDbVertex
100
AcDb2dVertex
 10
151.307646668043
 20
177.0639721897894
 30
0.0
  0
SEQEND
  5
3BA
330
3B7
100
AcDbEntity
  8
BEMA_U_00DFUNG
 62
     7
  0
POLYLINE
  5
3BB
330
1F
100
AcDbEntity
  8
BEMA_U_00DFUNG
 62
     7
100
AcDb2dPolyline
 66
     1
 10
0.0
 20
0.0
 30
0.0
  0
VERTEX
  5
3BC
330
3BB
100
AcDbEntity
  8
BEMA_U_00DFUNG
 62
     7
100
AcDbVertex
100
AcDb2dVertex
 10
149.9653272239341
 20
177.1151249675542
 30
0.0
  0
VERTEX
  5
3BD
330
3BB
100
AcDbEntity
  8
BEMA_U_00DFUNG
 62
     7
100
AcDbVertex
100
AcDb2dVertex
 10
151.6935855568354
 20
177.1151249675542
 30
0.0
  0
SEQEND
  5
3BE
330
3BB
100
AcDbEntity
  8
BEMA_U_00DFUNG
 62
     7
  0
POLYLINE
  5
3BF
330
1F
100
AcDbEntity
  8
BEMA_U_00DFUNG
 62
     7
100
AcDb2dPolyline
 66
     1
 10
0.0
 20
0.0
 30
0.0
  0
VERTEX
  5
3C0
330
3BF
100
AcDbEntity
  8
BEMA_U_00DFUNG
 62
     7
100
AcDbVertex
100
AcDb2dVertex
 10
149.9653272239341
 20
177.1659249675416
 30
0.0
  0
VERTEX
  5
3C1
330
3BF
100
AcDbEntity
  8
BEMA_U_00DFUNG
 62
     7
100
AcDbVertex
100
AcDb2dVertex
 10
152.0791716678501
 20
177.1659249675416
 30
0.0
  0
SEQEND
  5
3C2
330
3BF
100
AcDbEntity
  8
BEMA_U_00DFUNG
 62
     7
  0
POLYLINE
  5
3C3
330
1F
100
AcDbEntity
  8
BEMA_U_00DFUNG
 62
     7
100
AcDb2dPolyline
 66
     1
 10
0.0
 20
0.0
 30
0.0
  0
VERTEX
  5
3C4
330
3C3
100
AcDbEntity
  8
BEMA_U_00DFUNG
 62
     7
100
AcDbVertex
100
AcDb2dVertex
 10
149.9653272239341
 20
177.216724967529
 30
0.0
  0
VERTEX
  5
3C5
330
3C3
100
AcDbEntity
  8
BEMA_U_00DFUNG
 62
     7
100
AcDbVertex
100
AcDb2dVertex
 10
152.4654633344203
 20
177.216724967529
 30
0.0
  0
SEQEND
  5
3C6
330
3C3
100
AcDbEntity
  8
BEMA_U_00DFUNG
 62
     7
  0
POLYLINE
  5
3C7
330
1F
100
AcDbEntity
  8
BEMA_U_00DFUNG
 62
     7
100
AcDb2dPolyline
 66
     1
 10
0.0
 20
0.0
 30
0.0
  0
VERTEX
  5
3C8
330
3C7
100
AcDbEntity
  8
BEMA_U_00DFUNG
 62
     7
100
AcDbVertex
100
AcDb2dVertex
 10
43.23326943363627
 20
191.0341759250644
 30
0.0
  0
VERTEX
  5
3C9
330
3C7
100
AcDbEntity
  8
BEMA_U_00DFUNG
 62
     7
100
AcDbVertex
100
AcDb2dVertex
 10
43.23326943363627
 20
175.5247849685525
 30
0.0
  0
SEQEND
  5
3CA
330
3C7
100
AcDbEntity
  8
BEMA_U_00DFUNG
 62
     7
  0
POLYLINE
  5
3CB
330
1F
100
AcDbEntity
  8
BEMA_U_00DFUNG
 62
     7
100
AcDb2dPolyline
 66
     1
 10
0.0
 20
0.0
 30
0.0
  0
VERTEX
  5
3CC
330
3CB
100
AcDbEntity
  8
BEMA_U_00DFUNG
 62
     7
100
AcDbVertex
100
AcDb2dVertex
 10
51.23321109830315
 20
191.0341759250644
 30
0.0
  0
VERTEX
  5
3CD
330
3CB
100
AcDbEntity
  8
BEMA_U_00DFUNG
 62
     7
100
AcDbVertex
100
AcDb2dVertex
 10
51.23321109830315
 20
175.5247849685525
 30
0.0
  0
SEQEND
  5
3CE
330
3CB
100
AcDbEntity
  8
BEMA_U_00DFUNG
 62
     7
  0
POLYLINE
  5
3CF
330
1F
100
AcDbEntity
  8
BEMA_U_00DFUNG
 62
     7
100
AcDb2dPolyline
 66
     1
 10
0.0
 20
0.0
 30
0.0
  0
VERTEX
  5
3D0
330
3CF
100
AcDbEntity
  8
BEMA_U_00DFUNG
 62
     7
100
AcDbVertex
100
AcDb2dVertex
 10
43.23326943363627
 20
177.5246821902747
 30
0.0
  0
VERTEX
  5
3D1
330
3CF
100
AcDbEntity
  8
BEMA_U_00DFUNG
 62
     7
100
AcDbVertex
100
AcDb2dVertex
 10
51.23321109830315
 20
177.5246821902747
 30
0.0
  0
SEQEND
  5
3D2
330
3CF
100
AcDbEntity
  8
BEMA_U_00DFUNG
 62
     7
  0
POLYLINE
  5
3D3
330
1F
100
AcDbEntity
  8
BEMA_U_00DFUNG
 62
     7
100
AcDb2dPolyline
 66
     1
 10
0.0
 20
0.0
 30
0.0
  0
VERTEX
  5
3D4
330
3D3
100
AcDbEntity
  8
BEMA_U_00DFUNG
 62
     7
100
AcDbVertex
100
AcDb2dVertex
 10
43.23326943363627
 20
177.5246821902747
 30
0.0
  0
VERTEX
  5
3D5
330
3D3
100
AcDbEntity
  8
BEMA_U_00DFUNG
 62
     7
100
AcDbVertex
100
AcDb2dVertex
 10
45.7334055441225
 20
177.1955405236903
 30
0.0
  0
VERTEX
  5
3D6
330
3D3
100
AcDbEntity
  8
BEMA_U_00DFUNG
 62
     7
100
AcDbVertex
100
AcDb2dVertex
 10
45.7334055441225
 20
177.853823856859
 30
0.0
  0
VERTEX
  5
3D7
330
3D3
100
AcDbEntity
  8
BEMA_U_00DFUNG
 62
     7
100
AcDbVertex
100
AcDb2dVertex
 10
43.23326943363627
 20
177.5246821902747
 30
0.0
  0
SEQEND
  5
3D8
330
3D3
100
AcDbEntity
  8
BEMA_U_00DFUNG
 62
     7
  0
POLYLINE
  5
3D9
330
1F
100
AcDbEntity
  8
BEMA_U_00DFUNG
 62
     7
100
AcDb2dPolyline
 66
     1
 10
0.0
 20
0.0
 30
0.0
  0
VERTEX
  5
3DA
330
3D9
100
AcDbEntity
  8
BEMA_U_00DFUNG
 62
     7
100
AcDbVertex
100
AcDb2dVertex
 10
45.7334055441225
 20
177.2202349681285
 30
0.0
  0
VERTEX
  5
3DB
330
3D9
100
AcDbEntity
  8
BEMA_U_00DFUNG
 62
     7
100
AcDbVertex
100
AcDb2dVertex
 10
45.54854998861304
 20
177.2202349681285
 30
0.0
  0
SEQEND
  5
3DC
330
3D9
100
AcDbEntity
  8
BEMA_U_00DFUNG
 62
     7
  0
POLYLINE
  5
3DD
330
1F
100
AcDbEntity
  8
BEMA_U_00DFUNG
 62
     7
100
AcDb2dPolyline
 66
     1
 10
0.0
 20
0.0
 30
0.0
  0
VERTEX
  5
3DE
330
3DD
100
AcDbEntity
  8
BEMA_U_00DFUNG
 62
     7
100
AcDbVertex
100
AcDb2dVertex
 10
45.7334055441225
 20
177.2202349681285
 30
0.0
  0
VERTEX
  5
3DF
330
3DD
100
AcDbEntity
  8
BEMA_U_00DFUNG
 62
     7
100
AcDbVertex
100
AcDb2dVertex
 10
45.54854998861304
 20
177.2202349681285
 30
0.0
  0
SEQEND
  5
3E0
330
3DD
100
AcDbEntity
  8
BEMA_U_00DFUNG
 62
     7
  0
POLYLINE
  5
3E1
330
1F
100
AcDbEntity
  8
BEMA_U_00DFUNG
 62
     7
100
AcDb2dPolyline
 66
     1
 10
0.0
 20
0.0
 30
0.0
  0
VERTEX
  5
3E2
330
3E1
100
AcDbEntity
  8
BEMA_U_00DFUNG
 62
     7
100
AcDbVertex
100
AcDb2dVertex
 10
45.7334055441225
 20
177.2710349681158
 30
0.0
  0
VERTEX
  5
3E3
330
3E1
100
AcDbEntity
  8
BEMA_U_00DFUNG
 62
     7
100
AcDbVertex
100
AcDb2dVertex
 10
45.16225832204285
 20
177.2710349681158
 30
0.0
  0
SEQEND
  5
3E4
330
3E1
100
AcDbEntity
  8
BEMA_U_00DFUNG
 62
     7
  0
POLYLINE
  5
3E5
330
1F
100
AcDbEntity
  8
BEMA_U_00DFUNG
 62
     7
100
AcDb2dPolyline
 66
     1
 10
0.0
 20
0.0
 30
0.0
  0
VERTEX
  5
3E6
330
3E5
100
AcDbEntity
  8
BEMA_U_00DFUNG
 62
     7
100
AcDbVertex
100
AcDb2dVertex
 10
45.7334055441225
 20
177.3218349681032
 30
0.0
  0
VERTEX
  5
3E7
330
3E5
100
AcDbEntity
  8
BEMA_U_00DFUNG
 62
     7
100
AcDbVertex
100
AcDb2dVertex
 10
44.77667221102819
 20
177.3218349681032
 30
0.0
  0
SEQEND
  5
3E8
330
3E5
100
AcDbEntity
  8
BEMA_U_00DFUNG
 62
     7
  0
POLYLINE
  5
3E9
330
1F
100
AcDbEntity
  8
BEMA_U_00DFUNG
 62
     7
100
AcDb2dPolyline
 66
     1
 10
0.0
 20
0.0
 30
0.0
  0
VERTEX
  5
3EA
330
3E9
100
AcDbEntity
  8
BEMA_U_00DFUNG
 62
     7
100
AcDbVertex
100
AcDb2dVertex
 10
45.7334055441225
 20
177.3726349680906
 30
0.0
  0
VERTEX
  5
3EB
330
3E9
100
AcDbEntity
  8
BEMA_U_00DFUNG
 62
     7
100
AcDbVertex
100
AcDb2dVertex
 10
44.39108610001353
 20
177.3726349680906
 30
0.0
  0
SEQEND
  5
3EC
330
3E9
100
AcDbEntity
  8
BEMA_U_00DFUNG
 62
     7
  0
POLYLINE
  5
3ED
330
1F
100
AcDbEntity
  8
BEMA_U_00DFUNG
 62
     7
100
AcDb2dPolyline
 66
     1
 10
0.0
 20
0.0
 30
0.0
  0
VERTEX
  5
3EE
330
3ED
100
AcDbEntity
  8
BEMA_U_00DFUNG
 62
     7
100
AcDbVertex
100
AcDb2dVertex
 10
45.7334055441225
 20
177.423434968078
 30
0.0
  0
VERTEX
  5
3EF
330
3ED
100
AcDbEntity
  8
BEMA_U_00DFUNG
 62
     7
100
AcDbVertex
100
AcDb2dVertex
 10
44.00514721122111
 20
177.423434968078
 30
0.0
  0
SEQEND
  5
3F0
330
3ED
100
AcDbEntity
  8
BEMA_U_00DFUNG
 62
     7
  0
POLYLINE
  5
3F1
330
1F
100
AcDbEntity
  8
BEMA_U_00DFUNG
 62
     7
100
AcDb2dPolyline
 66
     1
 10
0.0
 20
0.0
 30
0.0
  0
VERTEX
  5
3F2
330
3F1
100
AcDbEntity
  8
BEMA_U_00DFUNG
 62
     7
100
AcDbVertex
100
AcDb2dVertex
 10
45.7334055441225
 20
177.4738821902873
 30
0.0
  0
VERTEX
  5
3F3
330
3F1
100
AcDbEntity
  8
BEMA_U_00DFUNG
 62
     7
100
AcDbVertex
100
AcDb2dVertex
 10
43.61885554465093
 20
177.4738821902873
 30
0.0
  0
SEQEND
  5
3F4
330
3F1
100
AcDbEntity
  8
BEMA_U_00DFUNG
 62
     7
  0
POLYLINE
  5
3F5
330
1F
100
AcDbEntity
  8
BEMA_U_00DFUNG
 62
     7
100
AcDb2dPolyline
 66
     1
 10
0.0
 20
0.0
 30
0.0
  0
VERTEX
  5
3F6
330
3F5
100
AcDbEntity
  8
BEMA_U_00DFUNG
 62
     7
100
AcDbVertex
100
AcDb2dVertex
 10
45.7334055441225
 20
177.5246821902747
 30
0.0
  0
VERTEX
  5
3F7
330
3F5
100
AcDbEntity
  8
BEMA_U_00DFUNG
 62
     7
100
AcDbVertex
100
AcDb2dVertex
 10
43.23326943363627
 20
177.5246821902747
 30
0.0
  0
SEQEND
  5
3F8
330
3F5
100
AcDbEntity
  8
BEMA_U_00DFUNG
 62
     7
  0
POLYLINE
  5
3F9
330
1F
100
AcDbEntity
  8
BEMA_U_00DFUNG
 62
     7
100
AcDb2dPolyline
 66
     1
 10
0.0
 20
0.0
 30
0.0
  0
VERTEX
  5
3FA
330
3F9
100
AcDbEntity
  8
BEMA_U_00DFUNG
 62
     7
100
AcDbVertex
100
AcDb2dVertex
 10
45.7334055441225
 20
177.8298349679761
 30
0.0
  0
VERTEX
  5
3FB
330
3F9
100
AcDbEntity
  8
BEMA_U_00DFUNG
 62
     7
100
AcDbVertex
100
AcDb2dVertex
 10
45.54854998861304
 20
177.8298349679761
 30
0.0
  0
SEQEND
  5
3FC
330
3F9
100
AcDbEntity
  8
BEMA_U_00DFUNG
 62
     7
  0
POLYLINE
  5
3FD
330
1F
100
AcDbEntity
  8
BEMA_U_00DFUNG
 62
     7
100
AcDb2dPolyline
 66
     1
 10
0.0
 20
0.0
 30
0.0
  0
VERTEX
  5
3FE
330
3FD
100
AcDbEntity
  8
BEMA_U_00DFUNG
 62
     7
100
AcDbVertex
100
AcDb2dVertex
 10
45.7334055441225
 20
177.8298349679761
 30
0.0
  0
VERTEX
  5
3FF
330
3FD
100
AcDbEntity
  8
BEMA_U_00DFUNG
 62
     7
100
AcDbVertex
100
AcDb2dVertex
 10
45.54854998861304
 20
177.8298349679761
 30
0.0
  0
SEQEND
  5
400
330
3FD
100
AcDbEntity
  8
BEMA_U_00DFUNG
 62
     7
  0
POLYLINE
  5
401
330
1F
100
AcDbEntity
  8
BEMA_U_00DFUNG
 62
     7
100
AcDb2dPolyline
 66
     1
 10
0.0
 20
0.0
 30
0.0
  0
VERTEX
  5
402
330
401
100
AcDbEntity
  8
BEMA_U_00DFUNG
 62
     7
100
AcDbVertex
100
AcDb2dVertex
 10
45.7334055441225
 20
177.779034967989
 30
0.0
  0
VERTEX
  5
403
330
401
100
AcDbEntity
  8
BEMA_U_00DFUNG
 62
     7
100
AcDbVertex
100
AcDb2dVertex
 10
45.16225832204285
 20
177.779034967989
 30
0.0
  0
SEQEND
  5
404
330
401
100
AcDbEntity
  8
BEMA_U_00DFUNG
 62
     7
  0
POLYLINE
  5
405
330
1F
100
AcDbEntity
  8
BEMA_U_00DFUNG
 62
     7
100
AcDb2dPolyline
 66
     1
 10
0.0
 20
0.0
 30
0.0
  0
VERTEX
  5
406
330
405
100
AcDbEntity
  8
BEMA_U_00DFUNG
 62
     7
100
AcDbVertex
100
AcDb2dVertex
 10
45.7334055441225
 20
177.7282349680016
 30
0.0
  0
VERTEX
  5
407
330
405
100
AcDbEntity
  8
BEMA_U_00DFUNG
 62
     7
100
AcDbVertex
100
AcDb2dVertex
 10
44.77667221102819
 20
177.7282349680016
 30
0.0
  0
SEQEND
  5
408
330
405
100
AcDbEntity
  8
BEMA_U_00DFUNG
 62
     7
  0
POLYLINE
  5
409
330
1F
100
AcDbEntity
  8
BEMA_U_00DFUNG
 62
     7
100
AcDb2dPolyline
 66
     1
 10
0.0
 20
0.0
 30
0.0
  0
VERTEX
  5
40A
330
409
100
AcDbEntity
  8
BEMA_U_00DFUNG
 62
     7
100
AcDbVertex
100
AcDb2dVertex
 10
45.7334055441225
 20
177.6770821902365
 30
0.0
  0
VERTEX
  5
40B
330
409
100
AcDbEntity
  8
BEMA_U_00DFUNG
 62
     7
100
AcDbVertex
100
AcDb2dVertex
 10
44.39108610001353
 20
177.6770821902365
 30
0.0
  0
SEQEND
  5
40C
330
409
100
AcDbEntity
  8
BEMA_U_00DFUNG
 62
     7
  0
POLYLINE
  5
40D
330
1F
100
AcDbEntity
  8
BEMA_U_00DFUNG
 62
     7
100
AcDb2dPolyline
 66
     1
 10
0.0
 20
0.0
 30
0.0
  0
VERTEX
  5
40E
330
40D
100
AcDbEntity
  8
BEMA_U_00DFUNG
 62
     7
100
AcDbVertex
100
AcDb2dVertex
 10
45.7334055441225
 20
177.6262821902494
 30
0.0
  0
VERTEX
  5
40F
330
40D
100
AcDbEntity
  8
BEMA_U_00DFUNG
 62
     7
100
AcDbVertex
100
AcDb2dVertex
 10
44.00514721122111
 20
177.6262821902494
 30
0.0
  0
SEQEND
  5
410
330
40D
100
AcDbEntity
  8
BEMA_U_00DFUNG
 62
     7
  0
POLYLINE
  5
411
330
1F
100
AcDbEntity
  8
BEMA_U_00DFUNG
 62
     7
100
AcDb2dPolyline
 66
     1
 10
0.0
 20
0.0
 30
0.0
  0
VERTEX
  5
412
330
411
100
AcDbEntity
  8
BEMA_U_00DFUNG
 62
     7
100
AcDbVertex
100
AcDb2dVertex
 10
45.7334055441225
 20
177.5754821902621
 30
0.0
  0
VERTEX
  5
413
330
411
100
AcDbEntity
  8
BEMA_U_00DFUNG
 62
     7
100
AcDbVertex
100
AcDb2dVertex
 10
43.61885554465093
 20
177.5754821902621
 30
0.0
  0
SEQEND
  5
414
330
411
100
AcDbEntity
  8
BEMA_U_00DFUNG
 62
     7
  0
POLYLINE
  5
415
330
1F
100
AcDbEntity
  8
BEMA_U_00DFUNG
 62
     7
100
AcDb2dPolyline
 66
     1
 10
0.0
 20
0.0
 30
0.0
  0
VERTEX
  5
416
330
415
100
AcDbEntity
  8
BEMA_U_00DFUNG
 62
     7
100
AcDbVertex
100
AcDb2dVertex
 10
45.7334055441225
 20
177.5246821902747
 30
0.0
  0
VERTEX
  5
417
330
415
100
AcDbEntity
  8
BEMA_U_00DFUNG
 62
     7
100
AcDbVertex
100
AcDb2dVertex
 10
43.23326943363627
 20
177.5246821902747
 30
0.0
  0
SEQEND
  5
418
330
415
100
AcDbEntity
  8
BEMA_U_00DFUNG
 62
     7
  0
POLYLINE
  5
419
330
1F
100
AcDbEntity
  8
BEMA_U_00DFUNG
 62
     7
100
AcDb2dPolyline
 66
     1
 10
0.0
 20
0.0
 30
0.0
  0
VERTEX
  5
41A
330
419
100
AcDbEntity
  8
BEMA_U_00DFUNG
 62
     7
100
AcDbVertex
100
AcDb2dVertex
 10
51.23321109830315
 20
177.5246821902747
 30
0.0
  0
VERTEX
  5
41B
330
419
100
AcDbEntity
  8
BEMA_U_00DFUNG
 62
     7
100
AcDbVertex
100
AcDb2dVertex
 10
48.73342776559468
 20
177.853823856859
 30
0.0
  0
VERTEX
  5
41C
330
419
100
AcDbEntity
  8
BEMA_U_00DFUNG
 62
     7
100
AcDbVertex
100
AcDb2dVertex
 10
48.73342776559468
 20
177.1955405236903
 30
0.0
  0
VERTEX
  5
41D
330
419
100
AcDbEntity
  8
BEMA_U_00DFUNG
 62
     7
100
AcDbVertex
100
AcDb2dVertex
 10
51.23321109830315
 20
177.5246821902747
 30
0.0
  0
SEQEND
  5
41E
330
419
100
AcDbEntity
  8
BEMA_U_00DFUNG
 62
     7
  0
POLYLINE
  5
41F
330
1F
100
AcDbEntity
  8
BEMA_U_00DFUNG
 62
     7
100
AcDb2dPolyline
 66
     1
 10
0.0
 20
0.0
 30
0.0
  0
VERTEX
  5
420
330
41F
100
AcDbEntity
  8
BEMA_U_00DFUNG
 62
     7
100
AcDbVertex
100
AcDb2dVertex
 10
48.73342776559468
 20
177.8298349679761
 30
0.0
  0
VERTEX
  5
421
330
41F
100
AcDbEntity
  8
BEMA_U_00DFUNG
 62
     7
100
AcDbVertex
100
AcDb2dVertex
 10
48.91828332110414
 20
177.8298349679761
 30
0.0
  0
SEQEND
  5
422
330
41F
100
AcDbEntity
  8
BEMA_U_00DFUNG
 62
     7
  0
POLYLINE
  5
423
330
1F
100
AcDbEntity
  8
BEMA_U_00DFUNG
 62
     7
100
AcDb2dPolyline
 66
     1
 10
0.0
 20
0.0
 30
0.0
  0
VERTEX
  5
424
330
423
100
AcDbEntity
  8
BEMA_U_00DFUNG
 62
     7
100
AcDbVertex
100
AcDb2dVertex
 10
48.73342776559468
 20
177.8298349679761
 30
0.0
  0
VERTEX
  5
425
330
423
100
AcDbEntity
  8
BEMA_U_00DFUNG
 62
     7
100
AcDbVertex
100
AcDb2dVertex
 10
48.91828332110414
 20
177.8298349679761
 30
0.0
  0
SEQEND
  5
426
330
423
100
AcDbEntity
  8
BEMA_U_00DFUNG
 62
     7
  0
POLYLINE
  5
427
330
1F
100
AcDbEntity
  8
BEMA_U_00DFUNG
 62
     7
100
AcDb2dPolyline
 66
     1
 10
0.0
 20
0.0
 30
0.0
  0
VERTEX
  5
428
330
427
100
AcDbEntity
  8
BEMA_U_00DFUNG
 62
     7
100
AcDbVertex
100
AcDb2dVertex
 10
48.73342776559468
 20
177.779034967989
 30
0.0
  0
VERTEX
  5
429
330
427
100
AcDbEntity
  8
BEMA_U_00DFUNG
 62
     7
100
AcDbVertex
100
AcDb2dVertex
 10
49.3038694321188
 20
177.779034967989
 30
0.0
  0
SEQEND
  5
42A
330
427
100
AcDbEntity
  8
BEMA_U_00DFUNG
 62
     7
  0
POLYLINE
  5
42B
330
1F
100
AcDbEntity
  8
BEMA_U_00DFUNG
 62
     7
100
AcDb2dPolyline
 66
     1
 10
0.0
 20
0.0
 30
0.0
  0
VERTEX
  5
42C
330
42B
100
AcDbEntity
  8
BEMA_U_00DFUNG
 62
     7
100
AcDbVertex
100
AcDb2dVertex
 10
48.73342776559468
 20
177.7282349680016
 30
0.0
  0
VERTEX
  5
42D
330
42B
100
AcDbEntity
  8
BEMA_U_00DFUNG
 62
     7
100
AcDbVertex
100
AcDb2dVertex
 10
49.68980832091123
 20
177.7282349680016
 30
0.0
  0
SEQEND
  5
42E
330
42B
100
AcDbEntity
  8
BEMA_U_00DFUNG
 62
     7
  0
POLYLINE
  5
42F
330
1F
100
AcDbEntity
  8
BEMA_U_00DFUNG
 62
     7
100
AcDb2dPolyline
 66
     1
 10
0.0
 20
0.0
 30
0.0
  0
VERTEX
  5
430
330
42F
100
AcDbEntity
  8
BEMA_U_00DFUNG
 62
     7
100
AcDbVertex
100
AcDb2dVertex
 10
48.73342776559468
 20
177.6770821902365
 30
0.0
  0
VERTEX
  5
431
330
42F
100
AcDbEntity
  8
BEMA_U_00DFUNG
 62
     7
100
AcDbVertex
100
AcDb2dVertex
 10
50.07539443192589
 20
177.6770821902365
 30
0.0
  0
SEQEND
  5
432
330
42F
100
AcDbEntity
  8
BEMA_U_00DFUNG
 62
     7
  0
POLYLINE
  5
433
330
1F
100
AcDbEntity
  8
BEMA_U_00DFUNG
 62
     7
100
AcDb2dPolyline
 66
     1
 10
0.0
 20
0.0
 30
0.0
  0
VERTEX
  5
434
330
433
100
AcDbEntity
  8
BEMA_U_00DFUNG
 62
     7
100
AcDbVertex
100
AcDb2dVertex
 10
48.73342776559468
 20
177.6262821902494
 30
0.0
  0
VERTEX
  5
435
330
433
100
AcDbEntity
  8
BEMA_U_00DFUNG
 62
     7
100
AcDbVertex
100
AcDb2dVertex
 10
50.46168609849607
 20
177.6262821902494
 30
0.0
  0
SEQEND
  5
436
330
433
100
AcDbEntity
  8
BEMA_U_00DFUNG
 62
     7
  0
POLYLINE
  5
437
330
1F
100
AcDbEntity
  8
BEMA_U_00DFUNG
 62
     7
100
AcDb2dPolyline
 66
     1
 10
0.0
 20
0.0
 30
0.0
  0
VERTEX
  5
438
330
437
100
AcDbEntity
  8
BEMA_U_00DFUNG
 62
     7
100
AcDbVertex
100
AcDb2dVertex
 10
48.73342776559468
 20
177.5754821902621
 30
0.0
  0
VERTEX
  5
439
330
437
100
AcDbEntity
  8
BEMA_U_00DFUNG
 62
     7
100
AcDbVertex
100
AcDb2dVertex
 10
50.84727220951073
 20
177.5754821902621
 30
0.0
  0
SEQEND
  5
43A
330
437
100
AcDbEntity
  8
BEMA_U_00DFUNG
 62
     7
  0
POLYLINE
  5
43B
330
1F
100
AcDbEntity
  8
BEMA_U_00DFUNG
 62
     7
100
AcDb2dPolyline
 66
     1
 10
0.0
 20
0.0
 30
0.0
  0
VERTEX
  5
43C
330
43B
100
AcDbEntity
  8
BEMA_U_00DFUNG
 62
     7
100
AcDbVertex
100
AcDb2dVertex
 10
48.73342776559468
 20
177.5246821902747
 30
0.0
  0
VERTEX
  5
43D
330
43B
100
AcDbEntity
  8
BEMA_U_00DFUNG
 62
     7
100
AcDbVertex
100
AcDb2dVertex
 10
51.23321109830315
 20
177.5246821902747
 30
0.0
  0
SEQEND
  5
43E
330
43B
100
AcDbEntity
  8
BEMA_U_00DFUNG
 62
     7
  0
POLYLINE
  5
43F
330
1F
100
AcDbEntity
  8
BEMA_U_00DFUNG
 62
     7
100
AcDb2dPolyline
 66
     1
 10
0.0
 20
0.0
 30
0.0
  0
VERTEX
  5
440
330
43F
100
AcDbEntity
  8
BEMA_U_00DFUNG
 62
     7
100
AcDbVertex
100
AcDb2dVertex
 10
48.73342776559468
 20
177.2202349681285
 30
0.0
  0
VERTEX
  5
441
330
43F
100
AcDbEntity
  8
BEMA_U_00DFUNG
 62
     7
100
AcDbVertex
100
AcDb2dVertex
 10
48.91828332110414
 20
177.2202349681285
 30
0.0
  0
SEQEND
  5
442
330
43F
100
AcDbEntity
  8
BEMA_U_00DFUNG
 62
     7
  0
POLYLINE
  5
443
330
1F
100
AcDbEntity
  8
BEMA_U_00DFUNG
 62
     7
100
AcDb2dPolyline
 66
     1
 10
0.0
 20
0.0
 30
0.0
  0
VERTEX
  5
444
330
443
100
AcDbEntity
  8
BEMA_U_00DFUNG
 62
     7
100
AcDbVertex
100
AcDb2dVertex
 10
48.73342776559468
 20
177.2202349681285
 30
0.0
  0
VERTEX
  5
445
330
443
100
AcDbEntity
  8
BEMA_U_00DFUNG
 62
     7
100
AcDbVertex
100
AcDb2dVertex
 10
48.91828332110414
 20
177.2202349681285
 30
0.0
  0
SEQEND
  5
446
330
443
100
AcDbEntity
  8
BEMA_U_00DFUNG
 62
     7
  0
POLYLINE
  5
447
330
1F
100
AcDbEntity
  8
BEMA_U_00DFUNG
 62
     7
100
AcDb2dPolyline
 66
     1
 10
0.0
 20
0.0
 30
0.0
  0
VERTEX
  5
448
330
447
100
AcDbEntity
  8
BEMA_U_00DFUNG
 62
     7
100
AcDbVertex
100
AcDb2dVertex
 10
48.73342776559468
 20
177.2710349681158
 30
0.0
  0
VERTEX
  5
449
330
447
100
AcDbEntity
  8
BEMA_U_00DFUNG
 62
     7
100
AcDbVertex
100
AcDb2dVertex
 10
49.3038694321188
 20
177.2710349681158
 30
0.0
  0
SEQEND
  5
44A
330
447
100
AcDbEntity
  8
BEMA_U_00DFUNG
 62
     7
  0
POLYLINE
  5
44B
330
1F
100
AcDbEntity
  8
BEMA_U_00DFUNG
 62
     7
100
AcDb2dPolyline
 66
     1
 10
0.0
 20
0.0
 30
0.0
  0
VERTEX
  5
44C
330
44B
100
AcDbEntity
  8
BEMA_U_00DFUNG
 62
     7
100
AcDbVertex
100
AcDb2dVertex
 10
48.73342776559468
 20
177.3218349681032
 30
0.0
  0
VERTEX
  5
44D
330
44B
100
AcDbEntity
  8
BEMA_U_00DFUNG
 62
     7
100
AcDbVertex
100
AcDb2dVertex
 10
49.68980832091123
 20
177.3218349681032
 30
0.0
  0
SEQEND
  5
44E
330
44B
100
AcDbEntity
  8
BEMA_U_00DFUNG
 62
     7
  0
POLYLINE
  5
44F
330
1F
100
AcDbEntity
  8
BEMA_U_00DFUNG
 62
     7
100
AcDb2dPolyline
 66
     1
 10
0.0
 20
0.0
 30
0.0
  0
VERTEX
  5
450
330
44F
100
AcDbEntity
  8
BEMA_U_00DFUNG
 62
     7
100
AcDbVertex
100
AcDb2dVertex
 10
48.73342776559468
 20
177.3726349680906
 30
0.0
  0
VERTEX
  5
451
330
44F
100
AcDbEntity
  8
BEMA_U_00DFUNG
 62
     7
100
AcDbVertex
100
AcDb2dVertex
 10
50.07539443192589
 20
177.3726349680906
 30
0.0
  0
SEQEND
  5
452
330
44F
100
AcDbEntity
  8
BEMA_U_00DFUNG
 62
     7
  0
POLYLINE
  5
453
330
1F
100
AcDbEntity
  8
BEMA_U_00DFUNG
 62
     7
100
AcDb2dPolyline
 66
     1
 10
0.0
 20
0.0
 30
0.0
  0
VERTEX
  5
454
330
453
100
AcDbEntity
  8
BEMA_U_00DFUNG
 62
     7
100
AcDbVertex
100
AcDb2dVertex
 10
48.73342776559468
 20
177.423434968078
 30
0.0
  0
VERTEX
  5
455
330
453
100
AcDbEntity
  8
BEMA_U_00DFUNG
 62
     7
100
AcDbVertex
100
AcDb2dVertex
 10
50.46168609849607
 20
177.423434968078
 30
0.0
  0
SEQEND
  5
456
330
453
100
AcDbEntity
  8
BEMA_U_00DFUNG
 62
     7
  0
POLYLINE
  5
457
330
1F
100
AcDbEntity
  8
BEMA_U_00DFUNG
 62
     7
100
AcDb2dPolyline
 66
     1
 10
0.0
 20
0.0
 30
0.0
  0
VERTEX
  5
458
330
457
100
AcDbEntity
  8
BEMA_U_00DFUNG
 62
     7
100
AcDbVertex
100
AcDb2dVertex
 10
48.73342776559468
 20
177.4738821902873
 30
0.0
  0
VERTEX
  5
459
330
457
100
AcDbEntity
  8
BEMA_U_00DFUNG
 62
     7
100
AcDbVertex
100
AcDb2dVertex
 10
50.84727220951073
 20
177.4738821902873
 30
0.0
  0
SEQEND
  5
45A
330
457
100
AcDbEntity
  8
BEMA_U_00DFUNG
 62
     7
  0
POLYLINE
  5
45B
330
1F
100
AcDbEntity
  8
BEMA_U_00DFUNG
 62
     7
100
AcDb2dPolyline
 66
     1
 10
0.0
 20
0.0
 30
0.0
  0
VERTEX
  5
45C
330
45B
100
AcDbEntity
  8
BEMA_U_00DFUNG
 62
     7
100
AcDbVertex
100
AcDb2dVertex
 10
48.73342776559468
 20
177.5246821902747
 30
0.0
  0
VERTEX
  5
45D
330
45B
100
AcDbEntity
  8
BEMA_U_00DFUNG
 62
     7
100
AcDbVertex
100
AcDb2dVertex
 10
51.23321109830315
 20
177.5246821902747
 30
0.0
  0
SEQEND
  5
45E
330
45B
100
AcDbEntity
  8
BEMA_U_00DFUNG
 62
     7
  0
POLYLINE
  5
45F
330
1F
100
AcDbEntity
  8
BEMA_U_00DFUNG
 62
     7
100
AcDb2dPolyline
 66
     1
 10
0.0
 20
0.0
 30
0.0
  0
VERTEX
  5
460
330
45F
100
AcDbEntity
  8
BEMA_U_00DFUNG
 62
     7
100
AcDbVertex
100
AcDb2dVertex
 10
51.23321109830315
 20
191.0341759250644
 30
0.0
  0
VERTEX
  5
461
330
45F
100
AcDbEntity
  8
BEMA_U_00DFUNG
 62
     7
100
AcDbVertex
100
AcDb2dVertex
 10
51.23321109830315
 20
175.5247849685525
 30
0.0
  0
SEQEND
  5
462
330
45F
100
AcDbEntity
  8
BEMA_U_00DFUNG
 62
     7
  0
POLYLINE
  5
463
330
1F
100
AcDbEntity
  8
BEMA_U_00DFUNG
 62
     7
100
AcDb2dPolyline
 66
     1
 10
0.0
 20
0.0
 30
0.0
  0
VERTEX
  5
464
330
463
100
AcDbEntity
  8
BEMA_U_00DFUNG
 62
     7
100
AcDbVertex
100
AcDb2dVertex
 10
57.23290276346976
 20
185.4662842597895
 30
0.0
  0
VERTEX
  5
465
330
463
100
AcDbEntity
  8
BEMA_U_00DFUNG
 62
     7
100
AcDbVertex
100
AcDb2dVertex
 10
57.23290276346976
 20
175.5247849685525
 30
0.0
  0
SEQEND
  5
466
330
463
100
AcDbEntity
  8
BEMA_U_00DFUNG
 62
     7
  0
POLYLINE
  5
467
330
1F
100
AcDbEntity
  8
BEMA_U_00DFUNG
 62
     7
100
AcDb2dPolyline
 66
     1
 10
0.0
 20
0.0
 30
0.0
  0
VERTEX
  5
468
330
467
100
AcDbEntity
  8
BEMA_U_00DFUNG
 62
     7
100
AcDbVertex
100
AcDb2dVertex
 10
51.0270537697491
 20
177.5246821902747
 30
0.0
  0
VERTEX
  5
469
330
467
100
AcDbEntity
  8
BEMA_U_00DFUNG
 62
     7
100
AcDbVertex
100
AcDb2dVertex
 10
63.98007350532644
 20
177.5246821902747
 30
0.0
  0
SEQEND
  5
46A
330
467
100
AcDbEntity
  8
BEMA_U_00DFUNG
 62
     7
  0
POLYLINE
  5
46B
330
1F
100
AcDbEntity
  8
BEMA_U_00DFUNG
 62
     7
100
AcDb2dPolyline
 66
     1
 10
0.0
 20
0.0
 30
0.0
  0
VERTEX
  5
46C
330
46B
100
AcDbEntity
  8
BEMA_U_00DFUNG
 62
     7
100
AcDbVertex
100
AcDb2dVertex
 10
57.23047109552735
 20
177.5246821902747
 30
0.0
  0
VERTEX
  5
46D
330
46B
100
AcDbEntity
  8
BEMA_U_00DFUNG
 62
     7
100
AcDbVertex
100
AcDb2dVertex
 10
59.73060720601327
 20
177.1955405236903
 30
0.0
  0
VERTEX
  5
46E
330
46B
100
AcDbEntity
  8
BEMA_U_00DFUNG
 62
     7
100
AcDbVertex
100
AcDb2dVertex
 10
59.73060720601327
 20
177.853823856859
 30
0.0
  0
VERTEX
  5
46F
330
46B
100
AcDbEntity
  8
BEMA_U_00DFUNG
 62
     7
100
AcDbVertex
100
AcDb2dVertex
 10
57.23047109552735
 20
177.5246821902747
 30
0.0
  0
SEQEND
  5
470
330
46B
100
AcDbEntity
  8
BEMA_U_00DFUNG
 62
     7
  0
POLYLINE
  5
471
330
1F
100
AcDbEntity
  8
BEMA_U_00DFUNG
 62
     7
100
AcDb2dPolyline
 66
     1
 10
0.0
 20
0.0
 30
0.0
  0
VERTEX
  5
472
330
471
100
AcDbEntity
  8
BEMA_U_00DFUNG
 62
     7
100
AcDbVertex
100
AcDb2dVertex
 10
59.73060720601327
 20
177.2202349681285
 30
0.0
  0
VERTEX
  5
473
330
471
100
AcDbEntity
  8
BEMA_U_00DFUNG
 62
     7
100
AcDbVertex
100
AcDb2dVertex
 10
59.54575165050412
 20
177.2202349681285
 30
0.0
  0
SEQEND
  5
474
330
471
100
AcDbEntity
  8
BEMA_U_00DFUNG
 62
     7
  0
POLYLINE
  5
475
330
1F
100
AcDbEntity
  8
BEMA_U_00DFUNG
 62
     7
100
AcDb2dPolyline
 66
     1
 10
0.0
 20
0.0
 30
0.0
  0
VERTEX
  5
476
330
475
100
AcDbEntity
  8
BEMA_U_00DFUNG
 62
     7
100
AcDbVertex
100
AcDb2dVertex
 10
59.73060720601327
 20
177.2202349681285
 30
0.0
  0
VERTEX
  5
477
330
475
100
AcDbEntity
  8
BEMA_U_00DFUNG
 62
     7
100
AcDbVertex
100
AcDb2dVertex
 10
59.54575165050412
 20
177.2202349681285
 30
0.0
  0
SEQEND
  5
478
330
475
100
AcDbEntity
  8
BEMA_U_00DFUNG
 62
     7
  0
POLYLINE
  5
479
330
1F
100
AcDbEntity
  8
BEMA_U_00DFUNG
 62
     7
100
AcDb2dPolyline
 66
     1
 10
0.0
 20
0.0
 30
0.0
  0
VERTEX
  5
47A
330
479
100
AcDbEntity
  8
BEMA_U_00DFUNG
 62
     7
100
AcDbVertex
100
AcDb2dVertex
 10
59.73060720601327
 20
177.2710349681158
 30
0.0
  0
VERTEX
  5
47B
330
479
100
AcDbEntity
  8
BEMA_U_00DFUNG
 62
     7
100
AcDbVertex
100
AcDb2dVertex
 10
59.15945998393394
 20
177.2710349681158
 30
0.0
  0
SEQEND
  5
47C
330
479
100
AcDbEntity
  8
BEMA_U_00DFUNG
 62
     7
  0
POLYLINE
  5
47D
330
1F
100
AcDbEntity
  8
BEMA_U_00DFUNG
 62
     7
100
AcDb2dPolyline
 66
     1
 10
0.0
 20
0.0
 30
0.0
  0
VERTEX
  5
47E
330
47D
100
AcDbEntity
  8
BEMA_U_00DFUNG
 62
     7
100
AcDbVertex
100
AcDb2dVertex
 10
59.73060720601327
 20
177.3218349681032
 30
0.0
  0
VERTEX
  5
47F
330
47D
100
AcDbEntity
  8
BEMA_U_00DFUNG
 62
     7
100
AcDbVertex
100
AcDb2dVertex
 10
58.77422665069672
 20
177.3218349681032
 30
0.0
  0
SEQEND
  5
480
330
47D
100
AcDbEntity
  8
BEMA_U_00DFUNG
 62
     7
  0
POLYLINE
  5
481
330
1F
100
AcDbEntity
  8
BEMA_U_00DFUNG
 62
     7
100
AcDb2dPolyline
 66
     1
 10
0.0
 20
0.0
 30
0.0
  0
VERTEX
  5
482
330
481
100
AcDbEntity
  8
BEMA_U_00DFUNG
 62
     7
100
AcDbVertex
100
AcDb2dVertex
 10
59.73060720601327
 20
177.3726349680906
 30
0.0
  0
VERTEX
  5
483
330
481
100
AcDbEntity
  8
BEMA_U_00DFUNG
 62
     7
100
AcDbVertex
100
AcDb2dVertex
 10
58.38793498412686
 20
177.3726349680906
 30
0.0
  0
SEQEND
  5
484
330
481
100
AcDbEntity
  8
BEMA_U_00DFUNG
 62
     7
  0
POLYLINE
  5
485
330
1F
100
AcDbEntity
  8
BEMA_U_00DFUNG
 62
     7
100
AcDb2dPolyline
 66
     1
 10
0.0
 20
0.0
 30
0.0
  0
VERTEX
  5
486
330
485
100
AcDbEntity
  8
BEMA_U_00DFUNG
 62
     7
100
AcDbVertex
100
AcDb2dVertex
 10
59.73060720601327
 20
177.423434968078
 30
0.0
  0
VERTEX
  5
487
330
485
100
AcDbEntity
  8
BEMA_U_00DFUNG
 62
     7
100
AcDbVertex
100
AcDb2dVertex
 10
58.0023488731122
 20
177.423434968078
 30
0.0
  0
SEQEND
  5
488
330
485
100
AcDbEntity
  8
BEMA_U_00DFUNG
 62
     7
  0
POLYLINE
  5
489
330
1F
100
AcDbEntity
  8
BEMA_U_00DFUNG
 62
     7
100
AcDb2dPolyline
 66
     1
 10
0.0
 20
0.0
 30
0.0
  0
VERTEX
  5
48A
330
489
100
AcDbEntity
  8
BEMA_U_00DFUNG
 62
     7
100
AcDbVertex
100
AcDb2dVertex
 10
59.73060720601327
 20
177.4738821902873
 30
0.0
  0
VERTEX
  5
48B
330
489
100
AcDbEntity
  8
BEMA_U_00DFUNG
 62
     7
100
AcDbVertex
100
AcDb2dVertex
 10
57.61605720654201
 20
177.4738821902873
 30
0.0
  0
SEQEND
  5
48C
330
489
100
AcDbEntity
  8
BEMA_U_00DFUNG
 62
     7
  0
POLYLINE
  5
48D
330
1F
100
AcDbEntity
  8
BEMA_U_00DFUNG
 62
     7
100
AcDb2dPolyline
 66
     1
 10
0.0
 20
0.0
 30
0.0
  0
VERTEX
  5
48E
330
48D
100
AcDbEntity
  8
BEMA_U_00DFUNG
 62
     7
100
AcDbVertex
100
AcDb2dVertex
 10
59.73060720601327
 20
177.5246821902747
 30
0.0
  0
VERTEX
  5
48F
330
48D
100
AcDbEntity
  8
BEMA_U_00DFUNG
 62
     7
100
AcDbVertex
100
AcDb2dVertex
 10
57.23047109552735
 20
177.5246821902747
 30
0.0
  0
SEQEND
  5
490
330
48D
100
AcDbEntity
  8
BEMA_U_00DFUNG
 62
     7
  0
POLYLINE
  5
491
330
1F
100
AcDbEntity
  8
BEMA_U_00DFUNG
 62
     7
100
AcDb2dPolyline
 66
     1
 10
0.0
 20
0.0
 30
0.0
  0
VERTEX
  5
492
330
491
100
AcDbEntity
  8
BEMA_U_00DFUNG
 62
     7
100
AcDbVertex
100
AcDb2dVertex
 10
59.73060720601327
 20
177.8298349679761
 30
0.0
  0
VERTEX
  5
493
330
491
100
AcDbEntity
  8
BEMA_U_00DFUNG
 62
     7
100
AcDbVertex
100
AcDb2dVertex
 10
59.54575165050412
 20
177.8298349679761
 30
0.0
  0
SEQEND
  5
494
330
491
100
AcDbEntity
  8
BEMA_U_00DFUNG
 62
     7
  0
POLYLINE
  5
495
330
1F
100
AcDbEntity
  8
BEMA_U_00DFUNG
 62
     7
100
AcDb2dPolyline
 66
     1
 10
0.0
 20
0.0
 30
0.0
  0
VERTEX
  5
496
330
495
100
AcDbEntity
  8
BEMA_U_00DFUNG
 62
     7
100
AcDbVertex
100
AcDb2dVertex
 10
59.73060720601327
 20
177.8298349679761
 30
0.0
  0
VERTEX
  5
497
330
495
100
AcDbEntity
  8
BEMA_U_00DFUNG
 62
     7
100
AcDbVertex
100
AcDb2dVertex
 10
59.54575165050412
 20
177.8298349679761
 30
0.0
  0
SEQEND
  5
498
330
495
100
AcDbEntity
  8
BEMA_U_00DFUNG
 62
     7
  0
POLYLINE
  5
499
330
1F
100
AcDbEntity
  8
BEMA_U_00DFUNG
 62
     7
100
AcDb2dPolyline
 66
     1
 10
0.0
 20
0.0
 30
0.0
  0
VERTEX
  5
49A
330
499
100
AcDbEntity
  8
BEMA_U_00DFUNG
 62
     7
100
AcDbVertex
100
AcDb2dVertex
 10
59.73060720601327
 20
177.779034967989
 30
0.0
  0
VERTEX
  5
49B
330
499
100
AcDbEntity
  8
BEMA_U_00DFUNG
 62
     7
100
AcDbVertex
100
AcDb2dVertex
 10
59.15945998393394
 20
177.779034967989
 30
0.0
  0
SEQEND
  5
49C
330
499
100
AcDbEntity
  8
BEMA_U_00DFUNG
 62
     7
  0
POLYLINE
  5
49D
330
1F
100
AcDbEntity
  8
BEMA_U_00DFUNG
 62
     7
100
AcDb2dPolyline
 66
     1
 10
0.0
 20
0.0
 30
0.0
  0
VERTEX
  5
49E
330
49D
100
AcDbEntity
  8
BEMA_U_00DFUNG
 62
     7
100
AcDbVertex
100
AcDb2dVertex
 10
59.73060720601327
 20
177.7282349680016
 30
0.0
  0
VERTEX
  5
49F
330
49D
100
AcDbEntity
  8
BEMA_U_00DFUNG
 62
     7
100
AcDbVertex
100
AcDb2dVertex
 10
58.77422665069672
 20
177.7282349680016
 30
0.0
  0
SEQEND
  5
4A0
330
49D
100
AcDbEntity
  8
BEMA_U_00DFUNG
 62
     7
  0
POLYLINE
  5
4A1
330
1F
100
AcDbEntity
  8
BEMA_U_00DFUNG
 62
     7
100
AcDb2dPolyline
 66
     1
 10
0.0
 20
0.0
 30
0.0
  0
VERTEX
  5
4A2
330
4A1
100
AcDbEntity
  8
BEMA_U_00DFUNG
 62
     7
100
AcDbVertex
100
AcDb2dVertex
 10
59.73060720601327
 20
177.6770821902365
 30
0.0
  0
VERTEX
  5
4A3
330
4A1
100
AcDbEntity
  8
BEMA_U_00DFUNG
 62
     7
100
AcDbVertex
100
AcDb2dVertex
 10
58.38793498412686
 20
177.6770821902365
 30
0.0
  0
SEQEND
  5
4A4
330
4A1
100
AcDbEntity
  8
BEMA_U_00DFUNG
 62
     7
  0
POLYLINE
  5
4A5
330
1F
100
AcDbEntity
  8
BEMA_U_00DFUNG
 62
     7
100
AcDb2dPolyline
 66
     1
 10
0.0
 20
0.0
 30
0.0
  0
VERTEX
  5
4A6
330
4A5
100
AcDbEntity
  8
BEMA_U_00DFUNG
 62
     7
100
AcDbVertex
100
AcDb2dVertex
 10
59.73060720601327
 20
177.6262821902494
 30
0.0
  0
VERTEX
  5
4A7
330
4A5
100
AcDbEntity
  8
BEMA_U_00DFUNG
 62
     7
100
AcDbVertex
100
AcDb2dVertex
 10
58.0023488731122
 20
177.6262821902494
 30
0.0
  0
SEQEND
  5
4A8
330
4A5
100
AcDbEntity
  8
BEMA_U_00DFUNG
 62
     7
  0
POLYLINE
  5
4A9
330
1F
100
AcDbEntity
  8
BEMA_U_00DFUNG
 62
     7
100
AcDb2dPolyline
 66
     1
 10
0.0
 20
0.0
 30
0.0
  0
VERTEX
  5
4AA
330
4A9
100
AcDbEntity
  8
BEMA_U_00DFUNG
 62
     7
100
AcDbVertex
100
AcDb2dVertex
 10
59.73060720601327
 20
177.5754821902621
 30
0.0
  0
VERTEX
  5
4AB
330
4A9
100
AcDbEntity
  8
BEMA_U_00DFUNG
 62
     7
100
AcDbVertex
100
AcDb2dVertex
 10
57.61605720654201
 20
177.5754821902621
 30
0.0
  0
SEQEND
  5
4AC
330
4A9
100
AcDbEntity
  8
BEMA_U_00DFUNG
 62
     7
  0
POLYLINE
  5
4AD
330
1F
100
AcDbEntity
  8
BEMA_U_00DFUNG
 62
     7
100
AcDb2dPolyline
 66
     1
 10
0.0
 20
0.0
 30
0.0
  0
VERTEX
  5
4AE
330
4AD
100
AcDbEntity
  8
BEMA_U_00DFUNG
 62
     7
100
AcDbVertex
100
AcDb2dVertex
 10
59.73060720601327
 20
177.5246821902747
 30
0.0
  0
VERTEX
  5
4AF
330
4AD
100
AcDbEntity
  8
BEMA_U_00DFUNG
 62
     7
100
AcDbVertex
100
AcDb2dVertex
 10
57.23047109552735
 20
177.5246821902747
 30
0.0
  0
SEQEND
  5
4B0
330
4AD
100
AcDbEntity
  8
BEMA_U_00DFUNG
 62
     7
  0
MTEXT
  5
4B2
330
1F
100
AcDbEntity
  8
TEXT
 62
     7
100
AcDbMText
 10
44.65063373720974
 20
167.4102809911336
 30
0.0
 40
3.447529173370601
 41
0.0
 71
     7
 72
     1
  1
\fINDEX Univers 45 Light|b0|i0|c0|p34;\W1;20
  0
MTEXT
  5
4B3
330
1F
100
AcDbEntity
  8
TEXT
 62
     7
100
AcDbMText
 10
123.7315194562362
 20
177.9374269676413
 30
0.0
 40
3.447529173370601
 41
0.0
 71
     7
 72
     1
  1
\fINDEX Univers 45 Light|b0|i0|c0|p34;\W1;ø50
  0
MTEXT
  5
4B4
330
1F
100
AcDbEntity
  8
TEXT
 62
     7
100
AcDbMText
 10
45.65957301375872
 20
178.4146480538122
 30
0.0
 40
3.447529173370601
 41
0.0
 71
     7
 72
     1
  1
\fINDEX Univers 45 Light|b0|i0|c0|p34;\W1;8
  0
MTEXT
  5
4B5
330
1F
100
AcDbEntity
  8
TEXT
 62
     7
100
AcDbMText
 10
59.5096858405642
 20
178.1708510271329
 30
0.0
 40
3.447529173370601
 41
0.0
 71
     7
 72
     1
  1
\fINDEX Univers 45 Light|b0|i0|c0|p34;\W1;6
  0
ENDSEC
  0
SECTION
  2
OBJECTS
  0
DICTIONARY
  5
C
330
0
100
AcDbDictionary
  3
ACAD_GROUP
350
D
  3
ACAD_LAYOUT
350
1A
  3
ACAD_MATERIAL
350
3B
  3
ACAD_MLEADERSTYLE
350
4D8
  3
ACAD_MLINESTYLE
350
17
  3
ACAD_PLOTSETTINGS
350
19
  3
ACAD_VISUALSTYLE
350
2A
  3
ACDBHEADERROUNDTRIPXREC
350
4B6
  3
ACDBVARIABLEDICTIONARY
350
4D6
  0
DICTIONARY
  5
D
102
{ACAD_REACTORS
330
C
102
}
330
C
100
AcDbDictionary
  0
DICTIONARY
  5
1A
102
{ACAD_REACTORS
330
C
102
}
330
C
100
AcDbDictionary
  0
DICTIONARY
  5
3B
102
{ACAD_REACTORS
330
C
102
}
330
C
100
AcDbDictionary
  3
BYBLOCK
350
3D
  3
BYLAYER
350
3C
  3
GLOBAL
350
3E
  0
DICTIONARY
  5
4D8
102
{ACAD_REACTORS
330
C
102
}
330
C
100
AcDbDictionary
  0
DICTIONARY
  5
17
102
{ACAD_REACTORS
330
C
102
}
330
C
100
AcDbDictionary
  3
STANDARD
350
18
  0
DICTIONARY
  5
19
102
{ACAD_REACTORS
330
C
102
}
330
C
100
AcDbDictionary
  0
DICTIONARY
  5
2A
102
{ACAD_REACTORS
330
C
102
}
330
C
100
AcDbDictionary
  3
2DWIREFRAME
350
2F
  3
3D_HIDDEN
350
31
  3
3DWIREFRAME
350
30
  3
BASIC
350
32
  3
BRIGHTEN
350
36
  3
COLORCHANGE
350
3A
  3
CONCEPTUAL
350
34
  3
DIM
350
35
  3
FACEPATTERN
350
39
  3
FLAT
350
2B
  3
FLATWITHEDGES
350
2C
  3
GOURAUD
350
2D
  3
GOURAUDWITHEDGES
350
2E
  3
LINEPATTERN
350
38
  3
REALISTIC
350
33
  3
THICKEN
350
37
  0
DICTIONARY
  5
4B6
102
{ACAD_REACTORS
330
C
102
}
330
C
100
AcDbDictionary
  3
CEPSNTYPE
350
4BF
  3
DIMSTYLEDATA
350
4D5
  3
FINGERPRINTGUID
350
4C0
  3
HYPERLINKBASE
350
4B9
  3
INSUNITS
350
4BE
  3
LAYOUTDICT
350
4BB
  3
LWETCUNION
350
4BD
  3
PLOTSETDICT
350
4BC
  3
PSVPSCALE
350
4C2
  3
PUCSBASE
350
4C5
  3
PUCSORGBACK
350
4CB
  3
PUCSORGBOTTOM
350
4C7
  3
PUCSORGFRONT
350
4CA
  3
PUCSORGLEFT
350
4C8
  3
PUCSORGRIGHT
350
4C9
  3
PUCSORGTOP
350
4C6
  3
PUCSORTHOREF
350
4C3
  3
PUCSORTHOVIEW
350
4C4
  3
STYLESHEET
350
4BA
  3
TSTACKALIGN
350
4B7
  3
TSTACKSIZE
350
4B8
  3
UCSBASE
350
4CE
  3
UCSORGBACK
350
4D4
  3
UCSORGBOTTOM
350
4D0
  3
UCSORGFRONT
350
4D3
  3
UCSORGLEFT
350
4D1
  3
UCSORGRIGHT
350
4D2
  3
UCSORGTOP
350
4CF
  3
UCSORTHOREF
350
4CC
  3
UCSORTHOVIEW
350
4CD
  3
VERSIONGUID
350
4C1
  0
DICTIONARY
  5
4D6
102
{ACAD_REACTORS
330
C
102
}
330
C
100
AcDbDictionary
  3
DIMASSOC
350
4D9
  3
HIDETEXT
350
4DA
  0
MATERIAL
  5
3D
102
{ACAD_REACTORS
330
3B
102
}
102
{ACAD_XDICTIONARY
360
4DD
102
}
330
3B
100
AcDbMaterial
  1
ByBlock
  0
MATERIAL
  5
3C
102
{ACAD_REACTORS
330
3B
102
}
102
{ACAD_XDICTIONARY
360
4DB
102
}
330
3B
100
AcDbMaterial
  1
ByLayer
  0
MATERIAL
  5
3E
102
{ACAD_REACTORS
330
3B
102
}
102
{ACAD_XDICTIONARY
360
4DF
102
}
330
3B
100
AcDbMaterial
  1
Global
  0
MLINESTYLE
  5
18
102
{ACAD_REACTORS
330
17
102
}
330
17
100
AcDbMlineStyle
  2
Standard
 70
     0
  3

 62
   256
 51
90.0
 52
90.0
 71
     2
 49
0.5
 62
   256
  6
BYLAYER
 49
-0.5
 62
   256
  6
BYLAYER
  0
ACAD_PROXY_OBJECT
  5
2F
102
{ACAD_REACTORS
330
2A
102
}
330
2A
100
AcDbProxyObject
 90
      499
 91
      501
 93
      436
310
42CC9915DA5C99599C985B595049028333333333333E3BF0000000000000FB0107901411070040501600405405064090741402480A0340
1001
ACAD
1000
AcDbSavedByObjectVersion
1070
     0
  0
ACAD_PROXY_OBJECT
  5
31
102
{ACAD_REACTORS
330
2A
102
}
330
2A
100
AcDbProxyObject
 90
      499
 91
      501
 93
      500
310
424CD108121A5919195B90640502408333333333333E3BF0000000000000FB01079024090700405020000000000001110200405405064090740C02480A0340
1001
ACAD
1000
AcDbSavedByObjectVersion
1070
     0
  0
ACAD_PROXY_OBJECT
  5
30
102
{ACAD_REACTORS
330
2A
102
}
330
2A
100
AcDbProxyObject
 90
      499
 91
      501
 93
      436
310
42CCD915DA5C99599C985B595059028333333333333E3BF0000000000000FB0107901411070040501600405405064090741402480A0340
1001
ACAD
1000
AcDbSavedByObjectVersion
1070
     0
  0
ACAD_PROXY_OBJECT
  5
32
102
{ACAD_REACTORS
330
2A
102
}
330
2A
100
AcDbProxyObject
 90
      499
 91
      501
 93
      388
310
4150985CDA58D07406404333333333333E3BF0000000000000FB0107A41107004050150841D405064090741402480A0350
1001
ACAD
1000
AcDbSavedByObjectVersion
1070
     0
  0
ACAD_PROXY_OBJECT
  5
36
102
{ACAD_REACTORS
330
2A
102
}
330
2A
100
AcDbProxyObject
 90
      499
 91
      501
 93
      428
310
42109C9A59DA1D195B90C409028333333333333E3BF0000000000000FB010790141107004050150841D405064090741402480A029950
1001
ACAD
1000
AcDbSavedByObjectVersion
1070
     0
  0
ACAD_PROXY_OBJECT
  5
3A
102
{ACAD_REACTORS
330
2A
102
}
330
2A
100
AcDbProxyObject
 90
      499
 91
      501
 93
      452
310
42D0DBDB1BDC90DA185B99D95104090240C333333333333E3BF0000000000000FB0108901411070040501508421405064090741402480A0350
1001
ACAD
1000
AcDbSavedByObjectVersion
1070
     0
  0
ACAD_PROXY_OBJECT
  5
34
102
{ACAD_REACTORS
330
2A
102
}
330
2A
100
AcDbProxyObject
 90
      499
 91
      501
 93
      500
310
4290DBDB98D95C1D1D585B10940D028333333333333E3BF0000000000000FB0107902409070040501000000000000111010841D405064090740C02480A0340
1001
ACAD
1000
AcDbSavedByObjectVersion
1070
     0
  0
ACAD_PROXY_OBJECT
  5
35
102
{ACAD_REACTORS
330
2A
102
}
330
2A
100
AcDbProxyObject
 90
      499
 91
      501
 93
      412
310
40D11A5B50B409028333333333333E3BF0000000000000FB010790141107004050150841D405064090741402480A02677FFFFFD0
1001
ACAD
1000
AcDbSavedByObjectVersion
1070
     0
  0
ACAD_PROXY_OBJECT
  5
39
102
{ACAD_REACTORS
330
2A
102
}
330
2A
100
AcDbProxyObject
 90
      499
 91
      501
 93
      444
310
42D19858D95C185D1D195C9B90F409028333333333333E3BF0000000000000FB010790141107004050150841D405064090741402480A0350
1001
ACAD
1000
AcDbSavedByObjectVersion
1070
     0
  0
ACAD_PROXY_OBJECT
  5
2B
102
{ACAD_REACTORS
330
2A
102
}
330
2A
100
AcDbProxyObject
 90
      499
 91
      501
 93
      388
310
41119B185D240901404333333333333E3BF0000000000000F9010740A41107004050150841D405064090741402480A1B50
1001
ACAD
1000
AcDbSavedByObjectVersion
1070
     0
  0
ACAD_PROXY_OBJECT
  5
2C
102
{ACAD_REACTORS
330
2A
102
}
330
2A
100
AcDbProxyObject
 90
      499
 91
      501
 93
      476
310
43519B185D15DA5D1A115919D95CD0140901404333333333333E3BF0000000000000F9010740901411070040501600405405064090741402480A1B50
1001
ACAD
1000
AcDbSavedByObjectVersion
1070
     0
  0
ACAD_PROXY_OBJECT
  5
2D
102
{ACAD_REACTORS
330
2A
102
}
330
2A
100
AcDbProxyObject
 90
      499
 91
      501
 93
      412
310
41D1DBDD5C985D5910240902404333333333333E3BF0000000000000F9010740A411070040501641D405064090741402480A1B50
1001
ACAD
1000
AcDbSavedByObjectVersion
1070
     0
  0
ACAD_PROXY_OBJECT
  5
2E
102
{ACAD_REACTORS
330
2A
102
}
330
2A
100
AcDbProxyObject
 90
      499
 91
      501
 93
      500
310
4411DBDD5C985D5915DA5D1A115919D95CD0340902404333333333333E3BF0000000000000F9010740901411070040501600405405064090741402480A1B50
1001
ACAD
1000
AcDbSavedByObjectVersion
1070
     0
  0
ACAD_PROXY_OBJECT
  5
38
102
{ACAD_REACTORS
330
2A
102
}
330
2A
100
AcDbProxyObject
 90
      499
 91
      501
 93
      444
310
42D31A5B995C185D1D195C9B90E409028333333333333E3BF0000000000000FB010790141107004050750841D405064090741402483A0350
1001
ACAD
1000
AcDbSavedByObjectVersion
1070
     0
  0
ACAD_PROXY_OBJECT
  5
33
102
{ACAD_REACTORS
330
2A
102
}
330
2A
100
AcDbProxyObject
 90
      499
 91
      501
 93
      420
310
425499585B1A5CDD1A58D08409028333333333333E3BF0000000000000FB01079019070040501508421405064090741402480A1B40
1001
ACAD
1000
AcDbSavedByObjectVersion
1070
     0
  0
ACAD_PROXY_OBJECT
  5
37
102
{ACAD_REACTORS
330
2A
102
}
330
2A
100
AcDbProxyObject
 90
      499
 91
      501
 93
      412
310
41D51A1A58DAD95B90D409028333333333333E3BF0000000000000FB010790141107004050150C41D405064090741402480A0350
1001
ACAD
1000
AcDbSavedByObjectVersion
1070
     0
  0
XRECORD
  5
4BF
102
{ACAD_REACTORS
330
4B6
102
}
330
4B6
100
AcDbXrecord
 90
        0
  0
XRECORD
  5
4D5
102
{ACAD_REACTORS
330
4B6
102
}
330
4B6
100
AcDbXrecord
1000
DSTYLE
1002
{
1070
   340
340
11
1002
}
  0
XRECORD
  5
4C0
102
{ACAD_REACTORS
330
4B6
102
}
330
4B6
100
AcDbXrecord
  1
{8D690BF8-3D2C-4545-B910-AA41E1FD0796}
  0
XRECORD
  5
4B9
102
{ACAD_REACTORS
330
4B6
102
}
330
4B6
100
AcDbXrecord
  1

  0
XRECORD
  5
4BE
102
{ACAD_REACTORS
330
4B6
102
}
330
4B6
100
AcDbXrecord
 90
        4
  0
XRECORD
  5
4BB
102
{ACAD_REACTORS
330
4B6
102
}
330
4B6
100
AcDbXrecord
340
1A
  0
XRECORD
  5
4BD
102
{ACAD_REACTORS
330
4B6
102
}
330
4B6
100
AcDbXrecord
 90
    10269
  0
XRECORD
  5
4BC
102
{ACAD_REACTORS
330
4B6
102
}
330
4B6
100
AcDbXrecord
340
19
  0
XRECORD
  5
4C2
102
{ACAD_REACTORS
330
4B6
102
}
330
4B6
100
AcDbXrecord
 40
0.0
  0
XRECORD
  5
4C5
102
{ACAD_REACTORS
330
4B6
102
}
330
4B6
100
AcDbXrecord
340
0
  0
XRECORD
  5
4CB
102
{ACAD_REACTORS
330
4B6
102
}
330
4B6
100
AcDbXrecord
 10
0.0
 20
0.0
 30
0.0
  0
XRECORD
  5
4C7
102
{ACAD_REACTORS
330
4B6
102
}
330
4B6
100
AcDbXrecord
 10
0.0
 20
0.0
 30
0.0
  0
XRECORD
  5
4CA
102
{ACAD_REACTORS
330
4B6
102
}
330
4B6
100
AcDbXrecord
 10
0.0
 20
0.0
 30
0.0
  0
XRECORD
  5
4C8
102
{ACAD_REACTORS
330
4B6
102
}
330
4B6
100
AcDbXrecord
 10
0.0
 20
0.0
 30
0.0
  0
XRECORD
  5
4C9
102
{ACAD_REACTORS
330
4B6
102
}
330
4B6
100
AcDbXrecord
 10
0.0
 20
0.0
 30
0.0
  0
XRECORD
  5
4C6
102
{ACAD_REACTORS
330
4B6
102
}
330
4B6
100
AcDbXrecord
 10
0.0
 20
0.0
 30
0.0
  0
XRECORD
  5
4C3
102
{ACAD_REACTORS
330
4B6
102
}
330
4B6
100
AcDbXrecord
340
0
  0
XRECORD
  5
4C4
102
{ACAD_REACTORS
330
4B6
102
}
330
4B6
100
AcDbXrecord
 70
     0
  0
XRECORD
  5
4BA
102
{ACAD_REACTORS
330
4B6
102
}
330
4B6
100
AcDbXrecord
  1

  0
XRECORD
  5
4B7
102
{ACAD_REACTORS
330
4B6
102
}
330
4B6
100
AcDbXrecord
 90
        1
  0
XRECORD
  5
4B8
102
{ACAD_REACTORS
330
4B6
102
}
330
4B6
100
AcDbXrecord
 90
       70
  0
XRECORD
  5
4CE
102
{ACAD_REACTORS
330
4B6
102
}
330
4B6
100
AcDbXrecord
340
0
  0
XRECORD
  5
4D4
102
{ACAD_REACTORS
330
4B6
102
}
330
4B6
100
AcDbXrecord
 10
0.0
 20
0.0
 30
0.0
  0
XRECORD
  5
4D0
102
{ACAD_REACTORS
330
4B6
102
}
330
4B6
100
AcDbXrecord
 10
0.0
 20
0.0
 30
0.0
  0
XRECORD
  5
4D3
102
{ACAD_REACTORS
330
4B6
102
}
330
4B6
100
AcDbXrecord
 10
0.0
 20
0.0
 30
0.0
  0
XRECORD
  5
4D1
102
{ACAD_REACTORS
330
4B6
102
}
330
4B6
100
AcDbXrecord
 10
0.0
 20
0.0
 30
0.0
  0
XRECORD
  5
4D2
102
{ACAD_REACTORS
330
4B6
102
}
330
4B6
100
AcDbXrecord
 10
0.0
 20
0.0
 30
0.0
  0
XRECORD
  5
4CF
102
{ACAD_REACTORS
330
4B6
102
}
330
4B6
100
AcDbXrecord
 10
0.0
 20
0.0
 30
0.0
  0
XRECORD
  5
4CC
102
{ACAD_REACTORS
330
4B6
102
}
330
4B6
100
AcDbXrecord
340
0
  0
XRECORD
  5
4CD
102
{ACAD_REACTORS
330
4B6
102
}
330
4B6
100
AcDbXrecord
 70
     0
  0
XRECORD
  5
4C1
102
{ACAD_REACTORS
330
4B6
102
}
330
4B6
100
AcDbXrecord
  1
{FAEB1C32-E019-11D5-929B-00C0DF256EC4}
  0
DICTIONARYVAR
  5
4D9
102
{ACAD_REACTORS
330
4D6
102
}
330
4D6
100
DictionaryVariables
280
     0
  1
2
  0
DICTIONARYVAR
  5
4DA
102
{ACAD_REACTORS
330
4D6
102
}
330
4D6
100
DictionaryVariables
280
     0
  1
1
  0
DICTIONARY
  5
4DD
330
3D
100
AcDbDictionary
280
     1
  3
ACAD_XREC_ROUNDTRIP
360
4DE
  0
DICTIONARY
  5
4DB
330
3C
100
AcDbDictionary
280
     1
  3
ACAD_XREC_ROUNDTRIP
360
4DC
  0
DICTIONARY
  5
4DF
330
3E
100
AcDbDictionary
280
     1
  3
ACAD_XREC_ROUNDTRIP
360
4E0
  0
XRECORD
  5
4DE
102
{ACAD_REACTORS
330
4DD
102
}
330
4DD
100
AcDbXrecord
102
MATERIAL
148
0.0
149
0.0
149
0.0
 93
        0
 94
      127
282
     0
 72
     1
 77
     1
171
     1
175
     1
179
     1
273
     0
  0
XRECORD
  5
4DC
102
{ACAD_REACTORS
330
4DB
102
}
330
4DB
100
AcDbXrecord
102
MATERIAL
148
0.0
149
0.0
149
0.0
 93
        0
 94
      127
282
     0
 72
     1
 77
     1
171
     1
175
     1
179
     1
273
     0
  0
XRECORD
  5
4E0
102
{ACAD_REACTORS
330
4DF
102
}
330
4DF
100
AcDbXrecord
102
MATERIAL
148
0.0
149
0.0
149
0.0
 93
        0
 94
      127
282
     0
 72
     1
 77
     1
171
     1
175
     1
179
     1
273
     0
  0
ENDSEC
  0
EOF
