ISO-10303-21;
HEADER;
/* Generated by software containing ST-Developer
 * from STEP Tools, Inc. (www.steptools.com) 
 */
/* OPTION: using custom schema-name function */

FILE_DESCRIPTION(
/* description */ (''),
/* implementation_level */ '2;1');

FILE_NAME(
/* name */ 'W9990184_.stp',
/* time_stamp */ '2017-05-09T07:08:59+02:00',
/* author */ (''),
/* organization */ (''),
/* preprocessor_version */ 'ST-DEVELOPER v15',
/* originating_system */ 'SIEMENS PLM Software NX 9.0',
/* authorisation */ '');

FILE_SCHEMA (('AUTOMOTIVE_DESIGN { 1 0 10303 214 3 1 1 1 }'));
ENDSEC;

DATA;
#10=PROPERTY_DEFINITION_REPRESENTATION(#14,#12);
#11=PROPERTY_DEFINITION_REPRESENTATION(#15,#13);
#12=REPRESENTATION('',(#16),#493);
#13=REPRESENTATION('',(#17),#493);
#14=PROPERTY_DEFINITION('pmi validation property','',#21);
#15=PROPERTY_DEFINITION('pmi validation property','',#21);
#16=VALUE_REPRESENTATION_ITEM('number of annotations',COUNT_MEASURE(0.));
#17=VALUE_REPRESENTATION_ITEM('number of views',COUNT_MEASURE(0.));
#18=SHAPE_REPRESENTATION_RELATIONSHIP('None',
'relationship between reic119C905Eo62d-None and reic119C905Eo62d-None',
#30,#19);
#19=ADVANCED_BREP_SHAPE_REPRESENTATION('reic119C905Eo62d-None',(#40),#493);
#20=SHAPE_DEFINITION_REPRESENTATION(#21,#30);
#21=PRODUCT_DEFINITION_SHAPE('','',#22);
#22=PRODUCT_DEFINITION(' ','',#24,#23);
#23=PRODUCT_DEFINITION_CONTEXT('part definition',#29,'design');
#24=PRODUCT_DEFINITION_FORMATION_WITH_SPECIFIED_SOURCE(' ',' ',#26,
 .NOT_KNOWN.);
#25=PRODUCT_RELATED_PRODUCT_CATEGORY('part','',(#26));
#26=PRODUCT('reic119C905Eo62d','reic119C905Eo62d',' ',(#27));
#27=PRODUCT_CONTEXT(' ',#29,'mechanical');
#28=APPLICATION_PROTOCOL_DEFINITION('international standard',
'automotive_design',2010,#29);
#29=APPLICATION_CONTEXT(
'core data for automotive mechanical design processes');
#30=SHAPE_REPRESENTATION('reic119C905Eo62d-None',(#286),#493);
#31=PRESENTATION_LAYER_ASSIGNMENT('210','Layer 210',(#40));
#32=STYLED_ITEM('',(#33),#40);
#33=PRESENTATION_STYLE_ASSIGNMENT((#34));
#34=SURFACE_STYLE_USAGE(.BOTH.,#35);
#35=SURFACE_SIDE_STYLE('',(#36));
#36=SURFACE_STYLE_FILL_AREA(#37);
#37=FILL_AREA_STYLE('',(#38));
#38=FILL_AREA_STYLE_COLOUR('',#39);
#39=COLOUR_RGB('Orange',1.,0.499992370489052,0.);
#40=MANIFOLD_SOLID_BREP('',#41);
#41=CLOSED_SHELL('',(#63,#64,#65,#66,#67,#68,#69,#70,#71,#72,#73,#74,#75,
#76,#77,#78,#79,#80,#81,#82,#83,#84,#85));
#42=FACE_OUTER_BOUND('',#160,.T.);
#43=FACE_OUTER_BOUND('',#165,.T.);
#44=TOROIDAL_SURFACE('',#297,6.99999999999989,2.00000000000009);
#45=TOROIDAL_SURFACE('',#299,11.6329931618553,2.);
#46=PLANE('',#294);
#47=PLANE('',#306);
#48=PLANE('',#310);
#49=PLANE('',#312);
#50=PLANE('',#317);
#51=PLANE('',#320);
#52=PLANE('',#322);
#53=PLANE('',#326);
#54=PLANE('',#330);
#55=CYLINDRICAL_SURFACE('',#292,2.49999999999986);
#56=CYLINDRICAL_SURFACE('',#296,4.99999999999982);
#57=CYLINDRICAL_SURFACE('',#303,15.0000000000001);
#58=CYLINDRICAL_SURFACE('',#308,4.);
#59=CYLINDRICAL_SURFACE('',#313,4.5);
#60=CYLINDRICAL_SURFACE('',#315,2.25);
#61=CYLINDRICAL_SURFACE('',#324,3.99999999999988);
#62=CYLINDRICAL_SURFACE('',#331,10.);
#63=ADVANCED_FACE('',(#90,#91),#86,.T.);
#64=ADVANCED_FACE('',(#92,#93),#55,.T.);
#65=ADVANCED_FACE('',(#94,#95),#46,.T.);
#66=ADVANCED_FACE('',(#96,#97),#56,.T.);
#67=ADVANCED_FACE('',(#98,#99),#44,.F.);
#68=ADVANCED_FACE('',(#100,#101),#45,.F.);
#69=ADVANCED_FACE('',(#102,#103),#87,.T.);
#70=ADVANCED_FACE('',(#104,#105),#57,.T.);
#71=ADVANCED_FACE('',(#106,#107),#47,.T.);
#72=ADVANCED_FACE('',(#108,#109),#58,.T.);
#73=ADVANCED_FACE('',(#110,#111),#48,.T.);
#74=ADVANCED_FACE('',(#112,#113),#49,.T.);
#75=ADVANCED_FACE('',(#114,#115),#59,.T.);
#76=ADVANCED_FACE('',(#116,#117),#60,.F.);
#77=ADVANCED_FACE('',(#42),#50,.T.);
#78=ADVANCED_FACE('',(#118,#119),#88,.T.);
#79=ADVANCED_FACE('',(#120,#121),#51,.T.);
#80=ADVANCED_FACE('',(#43),#52,.T.);
#81=ADVANCED_FACE('',(#122,#123),#61,.T.);
#82=ADVANCED_FACE('',(#124,#125),#53,.T.);
#83=ADVANCED_FACE('',(#126,#127),#89,.T.);
#84=ADVANCED_FACE('',(#128,#129),#54,.T.);
#85=ADVANCED_FACE('',(#130,#131),#62,.T.);
#86=CONICAL_SURFACE('',#289,8.66025403784425,15.0000000000002);
#87=CONICAL_SURFACE('',#301,15.0000000000001,75.0000000000103);
#88=CONICAL_SURFACE('',#318,2.49999999999988,44.9999999999999);
#89=CONICAL_SURFACE('',#328,4.31350999999984,7.99999805021165);
#90=FACE_BOUND('',#132,.T.);
#91=FACE_BOUND('',#133,.T.);
#92=FACE_BOUND('',#134,.T.);
#93=FACE_BOUND('',#135,.T.);
#94=FACE_BOUND('',#136,.T.);
#95=FACE_BOUND('',#137,.T.);
#96=FACE_BOUND('',#138,.T.);
#97=FACE_BOUND('',#139,.T.);
#98=FACE_BOUND('',#140,.T.);
#99=FACE_BOUND('',#141,.T.);
#100=FACE_BOUND('',#142,.T.);
#101=FACE_BOUND('',#143,.T.);
#102=FACE_BOUND('',#144,.T.);
#103=FACE_BOUND('',#145,.T.);
#104=FACE_BOUND('',#146,.T.);
#105=FACE_BOUND('',#147,.T.);
#106=FACE_BOUND('',#148,.T.);
#107=FACE_BOUND('',#149,.T.);
#108=FACE_BOUND('',#150,.T.);
#109=FACE_BOUND('',#151,.T.);
#110=FACE_BOUND('',#152,.T.);
#111=FACE_BOUND('',#153,.T.);
#112=FACE_BOUND('',#154,.T.);
#113=FACE_BOUND('',#155,.T.);
#114=FACE_BOUND('',#156,.T.);
#115=FACE_BOUND('',#157,.T.);
#116=FACE_BOUND('',#158,.T.);
#117=FACE_BOUND('',#159,.T.);
#118=FACE_BOUND('',#161,.T.);
#119=FACE_BOUND('',#162,.T.);
#120=FACE_BOUND('',#163,.T.);
#121=FACE_BOUND('',#164,.T.);
#122=FACE_BOUND('',#166,.T.);
#123=FACE_BOUND('',#167,.T.);
#124=FACE_BOUND('',#168,.T.);
#125=FACE_BOUND('',#169,.T.);
#126=FACE_BOUND('',#170,.T.);
#127=FACE_BOUND('',#171,.T.);
#128=FACE_BOUND('',#172,.T.);
#129=FACE_BOUND('',#173,.T.);
#130=FACE_BOUND('',#174,.T.);
#131=FACE_BOUND('',#175,.T.);
#132=EDGE_LOOP('',(#176));
#133=EDGE_LOOP('',(#177));
#134=EDGE_LOOP('',(#178));
#135=EDGE_LOOP('',(#179));
#136=EDGE_LOOP('',(#180));
#137=EDGE_LOOP('',(#181));
#138=EDGE_LOOP('',(#182));
#139=EDGE_LOOP('',(#183));
#140=EDGE_LOOP('',(#184));
#141=EDGE_LOOP('',(#185));
#142=EDGE_LOOP('',(#186));
#143=EDGE_LOOP('',(#187));
#144=EDGE_LOOP('',(#188));
#145=EDGE_LOOP('',(#189));
#146=EDGE_LOOP('',(#190));
#147=EDGE_LOOP('',(#191));
#148=EDGE_LOOP('',(#192));
#149=EDGE_LOOP('',(#193));
#150=EDGE_LOOP('',(#194));
#151=EDGE_LOOP('',(#195));
#152=EDGE_LOOP('',(#196));
#153=EDGE_LOOP('',(#197));
#154=EDGE_LOOP('',(#198));
#155=EDGE_LOOP('',(#199));
#156=EDGE_LOOP('',(#200));
#157=EDGE_LOOP('',(#201));
#158=EDGE_LOOP('',(#202));
#159=EDGE_LOOP('',(#203));
#160=EDGE_LOOP('',(#204));
#161=EDGE_LOOP('',(#205));
#162=EDGE_LOOP('',(#206));
#163=EDGE_LOOP('',(#207));
#164=EDGE_LOOP('',(#208));
#165=EDGE_LOOP('',(#209));
#166=EDGE_LOOP('',(#210));
#167=EDGE_LOOP('',(#211));
#168=EDGE_LOOP('',(#212));
#169=EDGE_LOOP('',(#213));
#170=EDGE_LOOP('',(#214));
#171=EDGE_LOOP('',(#215));
#172=EDGE_LOOP('',(#216));
#173=EDGE_LOOP('',(#217));
#174=EDGE_LOOP('',(#218));
#175=EDGE_LOOP('',(#219));
#176=ORIENTED_EDGE('',*,*,#242,.T.);
#177=ORIENTED_EDGE('',*,*,#243,.F.);
#178=ORIENTED_EDGE('',*,*,#244,.F.);
#179=ORIENTED_EDGE('',*,*,#245,.F.);
#180=ORIENTED_EDGE('',*,*,#245,.T.);
#181=ORIENTED_EDGE('',*,*,#246,.F.);
#182=ORIENTED_EDGE('',*,*,#246,.T.);
#183=ORIENTED_EDGE('',*,*,#247,.F.);
#184=ORIENTED_EDGE('',*,*,#247,.T.);
#185=ORIENTED_EDGE('',*,*,#242,.F.);
#186=ORIENTED_EDGE('',*,*,#243,.T.);
#187=ORIENTED_EDGE('',*,*,#248,.F.);
#188=ORIENTED_EDGE('',*,*,#248,.T.);
#189=ORIENTED_EDGE('',*,*,#249,.F.);
#190=ORIENTED_EDGE('',*,*,#249,.T.);
#191=ORIENTED_EDGE('',*,*,#250,.F.);
#192=ORIENTED_EDGE('',*,*,#251,.F.);
#193=ORIENTED_EDGE('',*,*,#252,.F.);
#194=ORIENTED_EDGE('',*,*,#252,.T.);
#195=ORIENTED_EDGE('',*,*,#253,.F.);
#196=ORIENTED_EDGE('',*,*,#244,.T.);
#197=ORIENTED_EDGE('',*,*,#254,.T.);
#198=ORIENTED_EDGE('',*,*,#255,.F.);
#199=ORIENTED_EDGE('',*,*,#253,.T.);
#200=ORIENTED_EDGE('',*,*,#254,.F.);
#201=ORIENTED_EDGE('',*,*,#255,.T.);
#202=ORIENTED_EDGE('',*,*,#256,.F.);
#203=ORIENTED_EDGE('',*,*,#251,.T.);
#204=ORIENTED_EDGE('',*,*,#257,.F.);
#205=ORIENTED_EDGE('',*,*,#257,.T.);
#206=ORIENTED_EDGE('',*,*,#256,.T.);
#207=ORIENTED_EDGE('',*,*,#258,.F.);
#208=ORIENTED_EDGE('',*,*,#250,.T.);
#209=ORIENTED_EDGE('',*,*,#259,.T.);
#210=ORIENTED_EDGE('',*,*,#259,.F.);
#211=ORIENTED_EDGE('',*,*,#260,.T.);
#212=ORIENTED_EDGE('',*,*,#260,.F.);
#213=ORIENTED_EDGE('',*,*,#261,.F.);
#214=ORIENTED_EDGE('',*,*,#261,.T.);
#215=ORIENTED_EDGE('',*,*,#262,.F.);
#216=ORIENTED_EDGE('',*,*,#262,.T.);
#217=ORIENTED_EDGE('',*,*,#263,.F.);
#218=ORIENTED_EDGE('',*,*,#263,.T.);
#219=ORIENTED_EDGE('',*,*,#258,.T.);
#220=VERTEX_POINT('',#426);
#221=VERTEX_POINT('',#428);
#222=VERTEX_POINT('',#431);
#223=VERTEX_POINT('',#433);
#224=VERTEX_POINT('',#436);
#225=VERTEX_POINT('',#439);
#226=VERTEX_POINT('',#443);
#227=VERTEX_POINT('',#446);
#228=VERTEX_POINT('',#449);
#229=VERTEX_POINT('',#452);
#230=VERTEX_POINT('',#454);
#231=VERTEX_POINT('',#457);
#232=VERTEX_POINT('',#460);
#233=VERTEX_POINT('',#463);
#234=VERTEX_POINT('',#467);
#235=VERTEX_POINT('',#470);
#236=VERTEX_POINT('',#474);
#237=VERTEX_POINT('',#477);
#238=VERTEX_POINT('',#480);
#239=VERTEX_POINT('',#483);
#240=VERTEX_POINT('',#486);
#241=VERTEX_POINT('',#489);
#242=EDGE_CURVE('',#220,#220,#264,.T.);
#243=EDGE_CURVE('',#221,#221,#265,.T.);
#244=EDGE_CURVE('',#222,#222,#266,.T.);
#245=EDGE_CURVE('',#223,#223,#267,.T.);
#246=EDGE_CURVE('',#224,#224,#268,.T.);
#247=EDGE_CURVE('',#225,#225,#269,.T.);
#248=EDGE_CURVE('',#226,#226,#270,.T.);
#249=EDGE_CURVE('',#227,#227,#271,.T.);
#250=EDGE_CURVE('',#228,#228,#272,.T.);
#251=EDGE_CURVE('',#229,#229,#273,.T.);
#252=EDGE_CURVE('',#230,#230,#274,.T.);
#253=EDGE_CURVE('',#231,#231,#275,.T.);
#254=EDGE_CURVE('',#232,#232,#276,.T.);
#255=EDGE_CURVE('',#233,#233,#277,.T.);
#256=EDGE_CURVE('',#234,#234,#278,.T.);
#257=EDGE_CURVE('',#235,#235,#279,.T.);
#258=EDGE_CURVE('',#236,#236,#280,.T.);
#259=EDGE_CURVE('',#237,#237,#281,.T.);
#260=EDGE_CURVE('',#238,#238,#282,.T.);
#261=EDGE_CURVE('',#239,#239,#283,.T.);
#262=EDGE_CURVE('',#240,#240,#284,.T.);
#263=EDGE_CURVE('',#241,#241,#285,.T.);
#264=CIRCLE('',#287,5.0681483474217);
#265=CIRCLE('',#288,9.70114150927711);
#266=CIRCLE('',#290,2.49999999999986);
#267=CIRCLE('',#291,2.49999999999984);
#268=CIRCLE('',#293,4.99999999999984);
#269=CIRCLE('',#295,4.9999999999998);
#270=CIRCLE('',#298,11.1153550716508);
#271=CIRCLE('',#300,15.0000000000001);
#272=CIRCLE('',#302,15.0000000000001);
#273=CIRCLE('',#304,2.25);
#274=CIRCLE('',#305,4.);
#275=CIRCLE('',#307,4.);
#276=CIRCLE('',#309,4.5);
#277=CIRCLE('',#311,4.5);
#278=CIRCLE('',#314,2.25);
#279=CIRCLE('',#316,1.99999999999988);
#280=CIRCLE('',#319,10.);
#281=CIRCLE('',#321,4.);
#282=CIRCLE('',#323,4.);
#283=CIRCLE('',#325,4.31350999999984);
#284=CIRCLE('',#327,5.99999959999995);
#285=CIRCLE('',#329,10.);
#286=AXIS2_PLACEMENT_3D('',#424,#332,#333);
#287=AXIS2_PLACEMENT_3D('',#425,#334,#335);
#288=AXIS2_PLACEMENT_3D('',#427,#336,#337);
#289=AXIS2_PLACEMENT_3D('',#429,#338,#339);
#290=AXIS2_PLACEMENT_3D('',#430,#340,#341);
#291=AXIS2_PLACEMENT_3D('',#432,#342,#343);
#292=AXIS2_PLACEMENT_3D('',#434,#344,#345);
#293=AXIS2_PLACEMENT_3D('',#435,#346,#347);
#294=AXIS2_PLACEMENT_3D('',#437,#348,#349);
#295=AXIS2_PLACEMENT_3D('',#438,#350,#351);
#296=AXIS2_PLACEMENT_3D('',#440,#352,#353);
#297=AXIS2_PLACEMENT_3D('',#441,#354,#355);
#298=AXIS2_PLACEMENT_3D('',#442,#356,#357);
#299=AXIS2_PLACEMENT_3D('',#444,#358,#359);
#300=AXIS2_PLACEMENT_3D('',#445,#360,#361);
#301=AXIS2_PLACEMENT_3D('',#447,#362,#363);
#302=AXIS2_PLACEMENT_3D('',#448,#364,#365);
#303=AXIS2_PLACEMENT_3D('',#450,#366,#367);
#304=AXIS2_PLACEMENT_3D('',#451,#368,#369);
#305=AXIS2_PLACEMENT_3D('',#453,#370,#371);
#306=AXIS2_PLACEMENT_3D('',#455,#372,#373);
#307=AXIS2_PLACEMENT_3D('',#456,#374,#375);
#308=AXIS2_PLACEMENT_3D('',#458,#376,#377);
#309=AXIS2_PLACEMENT_3D('',#459,#378,#379);
#310=AXIS2_PLACEMENT_3D('',#461,#380,#381);
#311=AXIS2_PLACEMENT_3D('',#462,#382,#383);
#312=AXIS2_PLACEMENT_3D('',#464,#384,#385);
#313=AXIS2_PLACEMENT_3D('',#465,#386,#387);
#314=AXIS2_PLACEMENT_3D('',#466,#388,#389);
#315=AXIS2_PLACEMENT_3D('',#468,#390,#391);
#316=AXIS2_PLACEMENT_3D('',#469,#392,#393);
#317=AXIS2_PLACEMENT_3D('',#471,#394,#395);
#318=AXIS2_PLACEMENT_3D('',#472,#396,#397);
#319=AXIS2_PLACEMENT_3D('',#473,#398,#399);
#320=AXIS2_PLACEMENT_3D('',#475,#400,#401);
#321=AXIS2_PLACEMENT_3D('',#476,#402,#403);
#322=AXIS2_PLACEMENT_3D('',#478,#404,#405);
#323=AXIS2_PLACEMENT_3D('',#479,#406,#407);
#324=AXIS2_PLACEMENT_3D('',#481,#408,#409);
#325=AXIS2_PLACEMENT_3D('',#482,#410,#411);
#326=AXIS2_PLACEMENT_3D('',#484,#412,#413);
#327=AXIS2_PLACEMENT_3D('',#485,#414,#415);
#328=AXIS2_PLACEMENT_3D('',#487,#416,#417);
#329=AXIS2_PLACEMENT_3D('',#488,#418,#419);
#330=AXIS2_PLACEMENT_3D('',#490,#420,#421);
#331=AXIS2_PLACEMENT_3D('',#491,#422,#423);
#332=DIRECTION('',(0.,0.,1.));
#333=DIRECTION('',(1.,0.,0.));
#334=DIRECTION('',(0.,4.16879530281278E-015,-1.));
#335=DIRECTION('',(0.,-1.,-4.10735445861834E-015));
#336=DIRECTION('',(0.,4.16879530281278E-015,-1.));
#337=DIRECTION('',(0.,-1.,-4.20218606712116E-015));
#338=DIRECTION('',(0.,4.16879530281278E-015,-1.));
#339=DIRECTION('',(0.,-1.,-3.86317125044962E-015));
#340=DIRECTION('',(0.,0.,1.));
#341=DIRECTION('',(-1.,0.,0.));
#342=DIRECTION('',(0.,4.16879530281278E-015,-1.));
#343=DIRECTION('',(0.,-1.,-5.55111512312615E-015));
#344=DIRECTION('',(0.,4.16879530281278E-015,-1.));
#345=DIRECTION('',(0.,-1.,-4.16333634234457E-015));
#346=DIRECTION('',(0.,4.16879530281278E-015,-1.));
#347=DIRECTION('',(0.,-1.,-4.16333634234447E-015));
#348=DIRECTION('',(0.,-4.16879530281278E-015,1.));
#349=DIRECTION('',(0.,1.,4.17027523624824E-015));
#350=DIRECTION('',(0.,4.16879530281278E-015,-1.));
#351=DIRECTION('',(0.,-1.,-4.1633363423445E-015));
#352=DIRECTION('',(0.,4.16879530281278E-015,-1.));
#353=DIRECTION('',(0.,-1.,-4.16333634234449E-015));
#354=DIRECTION('',(0.,4.16879530281278E-015,-1.));
#355=DIRECTION('',(0.,-1.,-4.24043516349887E-015));
#356=DIRECTION('',(0.,4.16879530281278E-015,-1.));
#357=DIRECTION('',(0.,-1.,-4.13573581923893E-015));
#358=DIRECTION('',(0.,4.16879530281278E-015,-1.));
#359=DIRECTION('',(0.,-1.,-4.19906868782176E-015));
#360=DIRECTION('',(0.,4.16879530281278E-015,-1.));
#361=DIRECTION('',(0.,-1.,-4.1633363423443E-015));
#362=DIRECTION('',(0.,4.16879530281278E-015,-1.));
#363=DIRECTION('',(0.,-1.,-4.16661318075633E-015));
#364=DIRECTION('',(0.,4.16879530281278E-015,-1.));
#365=DIRECTION('',(0.,-1.,-4.16879530281278E-015));
#366=DIRECTION('',(0.,4.16879530281278E-015,-1.));
#367=DIRECTION('',(0.,-1.,-4.1633363423443E-015));
#368=DIRECTION('',(0.,0.,1.));
#369=DIRECTION('',(1.,0.,0.));
#370=DIRECTION('',(0.,0.,-1.));
#371=DIRECTION('',(-1.,0.,0.));
#372=DIRECTION('',(0.,0.,1.));
#373=DIRECTION('',(1.,0.,0.));
#374=DIRECTION('',(0.,0.,-1.));
#375=DIRECTION('',(1.,0.,0.));
#376=DIRECTION('',(0.,0.,-1.));
#377=DIRECTION('',(-1.,0.,0.));
#378=DIRECTION('',(0.,0.,-1.));
#379=DIRECTION('',(-1.,0.,0.));
#380=DIRECTION('',(0.,0.,-1.));
#381=DIRECTION('',(-1.,0.,0.));
#382=DIRECTION('',(0.,0.,-1.));
#383=DIRECTION('',(-1.,0.,0.));
#384=DIRECTION('',(0.,0.,1.));
#385=DIRECTION('',(1.,0.,0.));
#386=DIRECTION('',(0.,0.,-1.));
#387=DIRECTION('',(-1.,0.,0.));
#388=DIRECTION('',(0.,-4.16879530281278E-015,1.));
#389=DIRECTION('',(0.,1.,3.08395284618099E-015));
#390=DIRECTION('',(0.,0.,1.));
#391=DIRECTION('',(1.,0.,0.));
#392=DIRECTION('',(0.,4.16879530281278E-015,-1.));
#393=DIRECTION('',(0.,-1.,-3.46944695195382E-015));
#394=DIRECTION('',(0.,-4.16879530281278E-015,1.));
#395=DIRECTION('',(0.,1.,4.17027523624824E-015));
#396=DIRECTION('',(0.,4.16879530281278E-015,-1.));
#397=DIRECTION('',(0.,-1.,-4.18756190709616E-015));
#398=DIRECTION('',(0.,4.16879530281278E-015,-1.));
#399=DIRECTION('',(0.,1.,4.16879530281278E-015));
#400=DIRECTION('',(0.,4.16879530281278E-015,-1.));
#401=DIRECTION('',(0.,-1.,-4.16879530281278E-015));
#402=DIRECTION('',(0.,0.,-1.));
#403=DIRECTION('',(-1.,0.,0.));
#404=DIRECTION('',(0.,0.,-1.));
#405=DIRECTION('',(0.,1.,0.));
#406=DIRECTION('',(0.,0.,-1.));
#407=DIRECTION('',(-1.,0.,0.));
#408=DIRECTION('',(0.,4.16879530281278E-015,-1.));
#409=DIRECTION('',(0.,-1.,-4.33680868994215E-015));
#410=DIRECTION('',(0.,-4.16879530281278E-015,1.));
#411=DIRECTION('',(0.,-1.,-4.02160531904846E-015));
#412=DIRECTION('',(0.,4.16879530281278E-015,-1.));
#413=DIRECTION('',(0.,-1.,-4.17027523624824E-015));
#414=DIRECTION('',(0.,-4.16879530281278E-015,1.));
#415=DIRECTION('',(0.,1.,4.04768838045848E-015));
#416=DIRECTION('',(0.,-4.16879530281278E-015,1.));
#417=DIRECTION('',(0.,1.,3.97591341275426E-015));
#418=DIRECTION('',(0.,-4.16879530281278E-015,1.));
#419=DIRECTION('',(0.,-1.,-4.16333634234433E-015));
#420=DIRECTION('',(0.,4.16879530281278E-015,-1.));
#421=DIRECTION('',(0.,-1.,-4.16854051277227E-015));
#422=DIRECTION('',(0.,4.16879530281278E-015,-1.));
#423=DIRECTION('',(0.,-1.,-4.16333634234432E-015));
#424=CARTESIAN_POINT('',(0.,0.,0.));
#425=CARTESIAN_POINT('',(0.,-1.56126864152952E-013,24.7456669049687));
#426=CARTESIAN_POINT('',(0.,-5.06814834742185,24.7456669049687));
#427=CARTESIAN_POINT('',(0.,-8.40460343662712E-014,7.45510103380536));
#428=CARTESIAN_POINT('',(0.,-9.70114150927719,7.45510103380532));
#429=CARTESIAN_POINT('',(0.,-1.00240323896669E-013,11.3397459621547));
#430=CARTESIAN_POINT('',(0.,-2.11381465701435E-013,38.0000000000001));
#431=CARTESIAN_POINT('',(-2.49999999999986,-2.11381465701435E-013,38.0000000000001));
#432=CARTESIAN_POINT('',(0.,-1.90537489187371E-013,33.0000000000001));
#433=CARTESIAN_POINT('',(0.,-2.50000000000003,33.0000000000001));
#434=CARTESIAN_POINT('',(0.,7.20757709133198E-014,-29.9949999999998));
#435=CARTESIAN_POINT('',(0.,-1.90537489187371E-013,33.0000000000001));
#436=CARTESIAN_POINT('',(0.,-5.00000000000003,33.));
#437=CARTESIAN_POINT('',(0.,4.99999999999965,33.0000000000001));
#438=CARTESIAN_POINT('',(0.,-1.58284791391956E-013,25.2633049951739));
#439=CARTESIAN_POINT('',(0.,-4.99999999999996,25.2633049951739));
#440=CARTESIAN_POINT('',(0.,7.20757709133198E-014,-29.9949999999998));
#441=CARTESIAN_POINT('',(0.,-1.58642451391596E-013,25.2633049951739));
#442=CARTESIAN_POINT('',(0.,-7.81504675102753E-014,6.04088747143207));
#443=CARTESIAN_POINT('',(0.,-11.1153550716509,6.04088747143202));
#444=CARTESIAN_POINT('',(0.,-8.57840654005697E-014,7.97273912401037));
#445=CARTESIAN_POINT('',(0.,-7.38112207086125E-014,4.99999999999996));
#446=CARTESIAN_POINT('',(0.,-15.0000000000002,4.9999999999999));
#447=CARTESIAN_POINT('',(0.,-7.38112207086125E-014,4.99999999999996));
#448=CARTESIAN_POINT('',(0.,-5.29672441945487E-014,-6.93889390390723E-015));
#449=CARTESIAN_POINT('',(0.,-15.0000000000002,-6.94708234460993E-014));
#450=CARTESIAN_POINT('',(0.,7.20757709133198E-014,-29.9949999999998));
#451=CARTESIAN_POINT('',(2.61147833014591E-015,-2.34804889348354E-013,47.0000000000001));
#452=CARTESIAN_POINT('',(2.25,-2.34804889348354E-013,47.0000000000001));
#453=CARTESIAN_POINT('',(2.61147833014591E-015,-2.34371208479359E-013,47.0000000000001));
#454=CARTESIAN_POINT('',(-4.,-2.34371208479359E-013,47.0000000000001));
#455=CARTESIAN_POINT('',(2.61147833014591E-015,-2.34371208479359E-013,47.0000000000001));
#456=CARTESIAN_POINT('',(2.61147833014591E-015,-2.34371208479359E-013,43.0000000000001));
#457=CARTESIAN_POINT('',(4.,-2.34371208479359E-013,43.0000000000001));
#458=CARTESIAN_POINT('',(2.61147833014591E-015,-2.34371208479359E-013,47.0000000000001));
#459=CARTESIAN_POINT('',(2.61147833014591E-015,-2.34262788262111E-013,38.0000000000001));
#460=CARTESIAN_POINT('',(-4.5,-2.34262788262111E-013,38.0000000000001));
#461=CARTESIAN_POINT('',(2.61147833014591E-015,-2.34262788262111E-013,38.0000000000001));
#462=CARTESIAN_POINT('',(2.61147833014591E-015,-2.34262788262111E-013,43.0000000000001));
#463=CARTESIAN_POINT('',(-4.5,-2.34262788262111E-013,43.0000000000001));
#464=CARTESIAN_POINT('',(2.61147833014591E-015,-2.34262788262111E-013,43.0000000000001));
#465=CARTESIAN_POINT('',(2.61147833014591E-015,-2.34262788262111E-013,43.0000000000001));
#466=CARTESIAN_POINT('',(0.,-2.35352038692608E-013,43.75));
#467=CARTESIAN_POINT('',(0.,2.24999999999976,43.75));
#468=CARTESIAN_POINT('',(2.61147833014591E-015,-2.34804889348354E-013,38.0000000000001));
#469=CARTESIAN_POINT('',(0.,-2.36394237518311E-013,44.0000000000001));
#470=CARTESIAN_POINT('',(0.,-2.00000000000012,44.0000000000001));
#471=CARTESIAN_POINT('',(0.,1.99999999999965,44.0000000000001));
#472=CARTESIAN_POINT('',(0.,-2.34309839866905E-013,43.5000000000001));
#473=CARTESIAN_POINT('',(0.,-5.29672441945487E-014,0.));
#474=CARTESIAN_POINT('',(0.,9.99999999999999,4.1687953028128E-014));
#475=CARTESIAN_POINT('',(0.,11.3534929999999,4.85722573273506E-014));
#476=CARTESIAN_POINT('',(0.,0.,-28.));
#477=CARTESIAN_POINT('',(-4.,0.,-28.));
#478=CARTESIAN_POINT('',(0.,0.,-28.));
#479=CARTESIAN_POINT('',(0.,0.,-23.));
#480=CARTESIAN_POINT('',(-4.,0.,-23.));
#481=CARTESIAN_POINT('',(0.,7.20757709133198E-014,-29.9949999999998));
#482=CARTESIAN_POINT('',(0.,4.29150477701444E-014,-22.9999999999998));
#483=CARTESIAN_POINT('',(0.,-4.3135099999998,-22.9999999999998));
#484=CARTESIAN_POINT('',(0.,3.49999999999993,-22.9999999999998));
#485=CARTESIAN_POINT('',(0.,-7.11049586360888E-015,-10.9999999999998));
#486=CARTESIAN_POINT('',(0.,5.99999959999994,-10.9999999999998));
#487=CARTESIAN_POINT('',(0.,4.29150477701444E-014,-22.9999999999998));
#488=CARTESIAN_POINT('',(0.,-7.11049586360882E-015,-10.9999999999998));
#489=CARTESIAN_POINT('',(0.,-10.,-10.9999999999999));
#490=CARTESIAN_POINT('',(0.,6.99999956949584,-10.9999999999998));
#491=CARTESIAN_POINT('',(0.,7.20757709133198E-014,-29.9949999999998));
#492=MECHANICAL_DESIGN_GEOMETRIC_PRESENTATION_REPRESENTATION('',(#32),#493);
#493=(
GEOMETRIC_REPRESENTATION_CONTEXT(3)
GLOBAL_UNCERTAINTY_ASSIGNED_CONTEXT((#494))
GLOBAL_UNIT_ASSIGNED_CONTEXT((#500,#496,#495))
REPRESENTATION_CONTEXT('W9990184_','TOP_LEVEL_ASSEMBLY_PART')
);
#494=UNCERTAINTY_MEASURE_WITH_UNIT(LENGTH_MEASURE(2.E-005),#500,
'DISTANCE_ACCURACY_VALUE','Maximum Tolerance applied to model');
#495=(
NAMED_UNIT(*)
SI_UNIT($,.STERADIAN.)
SOLID_ANGLE_UNIT()
);
#496=(
CONVERSION_BASED_UNIT('DEGREE',#498)
NAMED_UNIT(#497)
PLANE_ANGLE_UNIT()
);
#497=DIMENSIONAL_EXPONENTS(0.,0.,0.,0.,0.,0.,0.);
#498=PLANE_ANGLE_MEASURE_WITH_UNIT(PLANE_ANGLE_MEASURE(0.0174532925),#499);
#499=(
NAMED_UNIT(*)
PLANE_ANGLE_UNIT()
SI_UNIT($,.RADIAN.)
);
#500=(
LENGTH_UNIT()
NAMED_UNIT(*)
SI_UNIT(.MILLI.,.METRE.)
);
ENDSEC;
END-ISO-10303-21;
