ISO-10303-21;
HEADER;
/* Generated by software containing ST-Developer
 * from STEP Tools, Inc. (www.steptools.com) 
 */
/* OPTION: using custom schema-name function */

FILE_DESCRIPTION(
/* description */ (''),
/* implementation_level */ '2;1');

FILE_NAME(
/* name */ 'W9990111_stp.stp',
/* time_stamp */ '2017-05-08T08:48:20+02:00',
/* author */ (''),
/* organization */ (''),
/* preprocessor_version */ 'ST-DEVELOPER v15',
/* originating_system */ 'SIEMENS PLM Software NX 9.0',
/* authorisation */ '');

FILE_SCHEMA (('AUTOMOTIVE_DESIGN { 1 0 10303 214 3 1 1 1 }'));
ENDSEC;

DATA;
#10=PROPERTY_DEFINITION_REPRESENTATION(#14,#12);
#11=PROPERTY_DEFINITION_REPRESENTATION(#15,#13);
#12=REPRESENTATION('',(#16),#413);
#13=REPRESENTATION('',(#17),#413);
#14=PROPERTY_DEFINITION('pmi validation property','',#21);
#15=PROPERTY_DEFINITION('pmi validation property','',#21);
#16=VALUE_REPRESENTATION_ITEM('number of annotations',COUNT_MEASURE(0.));
#17=VALUE_REPRESENTATION_ITEM('number of views',COUNT_MEASURE(0.));
#18=SHAPE_REPRESENTATION_RELATIONSHIP('None',
'relationship between reic18D0476Dmbkb-None and reic18D0476Dmbkb-None',
#30,#19);
#19=ADVANCED_BREP_SHAPE_REPRESENTATION('reic18D0476Dmbkb-None',(#40),#413);
#20=SHAPE_DEFINITION_REPRESENTATION(#21,#30);
#21=PRODUCT_DEFINITION_SHAPE('','',#22);
#22=PRODUCT_DEFINITION(' ','',#24,#23);
#23=PRODUCT_DEFINITION_CONTEXT('part definition',#29,'design');
#24=PRODUCT_DEFINITION_FORMATION_WITH_SPECIFIED_SOURCE(' ',' ',#26,
 .NOT_KNOWN.);
#25=PRODUCT_RELATED_PRODUCT_CATEGORY('part','',(#26));
#26=PRODUCT('reic18D0476Dmbkb','reic18D0476Dmbkb',' ',(#27));
#27=PRODUCT_CONTEXT(' ',#29,'mechanical');
#28=APPLICATION_PROTOCOL_DEFINITION('international standard',
'automotive_design',2010,#29);
#29=APPLICATION_CONTEXT(
'core data for automotive mechanical design processes');
#30=SHAPE_REPRESENTATION('reic18D0476Dmbkb-None',(#242),#413);
#31=PRESENTATION_LAYER_ASSIGNMENT('210','Layer 210',(#40));
#32=STYLED_ITEM('',(#33),#40);
#33=PRESENTATION_STYLE_ASSIGNMENT((#34));
#34=SURFACE_STYLE_USAGE(.BOTH.,#35);
#35=SURFACE_SIDE_STYLE('',(#36));
#36=SURFACE_STYLE_FILL_AREA(#37);
#37=FILL_AREA_STYLE('',(#38));
#38=FILL_AREA_STYLE_COLOUR('',#39);
#39=COLOUR_RGB('Orange',1.,0.499992370489052,0.);
#40=MANIFOLD_SOLID_BREP('',#41);
#41=CLOSED_SHELL('',(#55,#56,#57,#58,#59,#60,#61,#62,#63,#64,#65,#66,#67,
#68,#69,#70,#71,#72,#73));
#42=TOROIDAL_SURFACE('',#272,9.61250000000001,0.0999999999999943);
#43=FACE_OUTER_BOUND('',#132,.T.);
#44=FACE_OUTER_BOUND('',#149,.T.);
#45=CONICAL_SURFACE('',#250,13.2513838853395,69.9999999999334);
#46=CONICAL_SURFACE('',#259,4.3135099835713,8.00000000000004);
#47=CONICAL_SURFACE('',#267,10.595,30.0000000002432);
#48=CONICAL_SURFACE('',#268,11.8,7.50000000002202);
#49=CYLINDRICAL_SURFACE('',#248,12.725);
#50=CYLINDRICAL_SURFACE('',#251,15.950000000029);
#51=CYLINDRICAL_SURFACE('',#255,10.);
#52=CYLINDRICAL_SURFACE('',#262,4.);
#53=CYLINDRICAL_SURFACE('',#274,6.20000000000002);
#54=CYLINDRICAL_SURFACE('',#279,4.);
#55=ADVANCED_FACE('',(#82,#83),#74,.F.);
#56=ADVANCED_FACE('',(#84,#85),#49,.T.);
#57=ADVANCED_FACE('',(#86,#87),#45,.T.);
#58=ADVANCED_FACE('',(#88,#89),#50,.T.);
#59=ADVANCED_FACE('',(#90,#91),#75,.T.);
#60=ADVANCED_FACE('',(#92,#93),#51,.T.);
#61=ADVANCED_FACE('',(#94,#95),#76,.T.);
#62=ADVANCED_FACE('',(#96,#97),#46,.T.);
#63=ADVANCED_FACE('',(#43),#77,.T.);
#64=ADVANCED_FACE('',(#98,#99),#52,.T.);
#65=ADVANCED_FACE('',(#100,#101),#78,.F.);
#66=ADVANCED_FACE('',(#102,#103),#47,.T.);
#67=ADVANCED_FACE('',(#104,#105),#48,.T.);
#68=ADVANCED_FACE('',(#106,#107),#79,.F.);
#69=ADVANCED_FACE('',(#108,#109),#42,.T.);
#70=ADVANCED_FACE('',(#110,#111),#53,.T.);
#71=ADVANCED_FACE('',(#112,#113),#80,.F.);
#72=ADVANCED_FACE('',(#44),#81,.F.);
#73=ADVANCED_FACE('',(#114,#115),#54,.F.);
#74=PLANE('',#245);
#75=PLANE('',#254);
#76=PLANE('',#258);
#77=PLANE('',#261);
#78=PLANE('',#265);
#79=PLANE('',#271);
#80=PLANE('',#276);
#81=PLANE('',#278);
#82=FACE_BOUND('',#116,.T.);
#83=FACE_BOUND('',#117,.T.);
#84=FACE_BOUND('',#118,.T.);
#85=FACE_BOUND('',#119,.T.);
#86=FACE_BOUND('',#120,.T.);
#87=FACE_BOUND('',#121,.T.);
#88=FACE_BOUND('',#122,.T.);
#89=FACE_BOUND('',#123,.T.);
#90=FACE_BOUND('',#124,.T.);
#91=FACE_BOUND('',#125,.T.);
#92=FACE_BOUND('',#126,.T.);
#93=FACE_BOUND('',#127,.T.);
#94=FACE_BOUND('',#128,.T.);
#95=FACE_BOUND('',#129,.T.);
#96=FACE_BOUND('',#130,.T.);
#97=FACE_BOUND('',#131,.T.);
#98=FACE_BOUND('',#133,.T.);
#99=FACE_BOUND('',#134,.T.);
#100=FACE_BOUND('',#135,.T.);
#101=FACE_BOUND('',#136,.T.);
#102=FACE_BOUND('',#137,.T.);
#103=FACE_BOUND('',#138,.T.);
#104=FACE_BOUND('',#139,.T.);
#105=FACE_BOUND('',#140,.T.);
#106=FACE_BOUND('',#141,.T.);
#107=FACE_BOUND('',#142,.T.);
#108=FACE_BOUND('',#143,.T.);
#109=FACE_BOUND('',#144,.T.);
#110=FACE_BOUND('',#145,.T.);
#111=FACE_BOUND('',#146,.T.);
#112=FACE_BOUND('',#147,.T.);
#113=FACE_BOUND('',#148,.T.);
#114=FACE_BOUND('',#150,.T.);
#115=FACE_BOUND('',#151,.T.);
#116=EDGE_LOOP('',(#152));
#117=EDGE_LOOP('',(#153));
#118=EDGE_LOOP('',(#154));
#119=EDGE_LOOP('',(#155));
#120=EDGE_LOOP('',(#156));
#121=EDGE_LOOP('',(#157));
#122=EDGE_LOOP('',(#158));
#123=EDGE_LOOP('',(#159));
#124=EDGE_LOOP('',(#160));
#125=EDGE_LOOP('',(#161));
#126=EDGE_LOOP('',(#162));
#127=EDGE_LOOP('',(#163));
#128=EDGE_LOOP('',(#164));
#129=EDGE_LOOP('',(#165));
#130=EDGE_LOOP('',(#166));
#131=EDGE_LOOP('',(#167));
#132=EDGE_LOOP('',(#168));
#133=EDGE_LOOP('',(#169));
#134=EDGE_LOOP('',(#170));
#135=EDGE_LOOP('',(#171));
#136=EDGE_LOOP('',(#172));
#137=EDGE_LOOP('',(#173));
#138=EDGE_LOOP('',(#174));
#139=EDGE_LOOP('',(#175));
#140=EDGE_LOOP('',(#176));
#141=EDGE_LOOP('',(#177));
#142=EDGE_LOOP('',(#178));
#143=EDGE_LOOP('',(#179));
#144=EDGE_LOOP('',(#180));
#145=EDGE_LOOP('',(#181));
#146=EDGE_LOOP('',(#182));
#147=EDGE_LOOP('',(#183));
#148=EDGE_LOOP('',(#184));
#149=EDGE_LOOP('',(#185));
#150=EDGE_LOOP('',(#186));
#151=EDGE_LOOP('',(#187));
#152=ORIENTED_EDGE('',*,*,#206,.F.);
#153=ORIENTED_EDGE('',*,*,#207,.T.);
#154=ORIENTED_EDGE('',*,*,#208,.F.);
#155=ORIENTED_EDGE('',*,*,#209,.T.);
#156=ORIENTED_EDGE('',*,*,#210,.F.);
#157=ORIENTED_EDGE('',*,*,#208,.T.);
#158=ORIENTED_EDGE('',*,*,#207,.F.);
#159=ORIENTED_EDGE('',*,*,#210,.T.);
#160=ORIENTED_EDGE('',*,*,#211,.T.);
#161=ORIENTED_EDGE('',*,*,#212,.F.);
#162=ORIENTED_EDGE('',*,*,#212,.T.);
#163=ORIENTED_EDGE('',*,*,#206,.T.);
#164=ORIENTED_EDGE('',*,*,#213,.F.);
#165=ORIENTED_EDGE('',*,*,#214,.F.);
#166=ORIENTED_EDGE('',*,*,#214,.T.);
#167=ORIENTED_EDGE('',*,*,#211,.F.);
#168=ORIENTED_EDGE('',*,*,#215,.T.);
#169=ORIENTED_EDGE('',*,*,#215,.F.);
#170=ORIENTED_EDGE('',*,*,#213,.T.);
#171=ORIENTED_EDGE('',*,*,#216,.F.);
#172=ORIENTED_EDGE('',*,*,#217,.T.);
#173=ORIENTED_EDGE('',*,*,#218,.F.);
#174=ORIENTED_EDGE('',*,*,#216,.T.);
#175=ORIENTED_EDGE('',*,*,#209,.F.);
#176=ORIENTED_EDGE('',*,*,#218,.T.);
#177=ORIENTED_EDGE('',*,*,#219,.F.);
#178=ORIENTED_EDGE('',*,*,#220,.T.);
#179=ORIENTED_EDGE('',*,*,#217,.F.);
#180=ORIENTED_EDGE('',*,*,#219,.T.);
#181=ORIENTED_EDGE('',*,*,#220,.F.);
#182=ORIENTED_EDGE('',*,*,#221,.T.);
#183=ORIENTED_EDGE('',*,*,#222,.T.);
#184=ORIENTED_EDGE('',*,*,#221,.F.);
#185=ORIENTED_EDGE('',*,*,#223,.T.);
#186=ORIENTED_EDGE('',*,*,#223,.F.);
#187=ORIENTED_EDGE('',*,*,#222,.F.);
#188=VERTEX_POINT('',#358);
#189=VERTEX_POINT('',#360);
#190=VERTEX_POINT('',#363);
#191=VERTEX_POINT('',#365);
#192=VERTEX_POINT('',#368);
#193=VERTEX_POINT('',#372);
#194=VERTEX_POINT('',#374);
#195=VERTEX_POINT('',#378);
#196=VERTEX_POINT('',#380);
#197=VERTEX_POINT('',#384);
#198=VERTEX_POINT('',#388);
#199=VERTEX_POINT('',#390);
#200=VERTEX_POINT('',#393);
#201=VERTEX_POINT('',#397);
#202=VERTEX_POINT('',#399);
#203=VERTEX_POINT('',#403);
#204=VERTEX_POINT('',#406);
#205=VERTEX_POINT('',#409);
#206=EDGE_CURVE('',#188,#188,#224,.T.);
#207=EDGE_CURVE('',#189,#189,#225,.T.);
#208=EDGE_CURVE('',#190,#190,#226,.T.);
#209=EDGE_CURVE('',#191,#191,#227,.T.);
#210=EDGE_CURVE('',#192,#192,#228,.T.);
#211=EDGE_CURVE('',#193,#193,#229,.T.);
#212=EDGE_CURVE('',#194,#194,#230,.T.);
#213=EDGE_CURVE('',#195,#195,#231,.T.);
#214=EDGE_CURVE('',#196,#196,#232,.T.);
#215=EDGE_CURVE('',#197,#197,#233,.T.);
#216=EDGE_CURVE('',#198,#198,#234,.T.);
#217=EDGE_CURVE('',#199,#199,#235,.T.);
#218=EDGE_CURVE('',#200,#200,#236,.T.);
#219=EDGE_CURVE('',#201,#201,#237,.T.);
#220=EDGE_CURVE('',#202,#202,#238,.T.);
#221=EDGE_CURVE('',#203,#203,#239,.T.);
#222=EDGE_CURVE('',#204,#204,#240,.T.);
#223=EDGE_CURVE('',#205,#205,#241,.T.);
#224=CIRCLE('',#243,10.);
#225=CIRCLE('',#244,15.950000000029);
#226=CIRCLE('',#246,12.725);
#227=CIRCLE('',#247,12.725);
#228=CIRCLE('',#249,15.950000000029);
#229=CIRCLE('',#252,6.);
#230=CIRCLE('',#253,10.);
#231=CIRCLE('',#256,4.);
#232=CIRCLE('',#257,4.3135099835713);
#233=CIRCLE('',#260,4.);
#234=CIRCLE('',#263,10.595);
#235=CIRCLE('',#264,9.71250000000001);
#236=CIRCLE('',#266,11.8);
#237=CIRCLE('',#269,9.61250000000001);
#238=CIRCLE('',#270,6.20000000000002);
#239=CIRCLE('',#273,6.20000000000002);
#240=CIRCLE('',#275,4.);
#241=CIRCLE('',#277,4.);
#242=AXIS2_PLACEMENT_3D('',#356,#280,#281);
#243=AXIS2_PLACEMENT_3D('',#357,#282,#283);
#244=AXIS2_PLACEMENT_3D('',#359,#284,#285);
#245=AXIS2_PLACEMENT_3D('',#361,#286,#287);
#246=AXIS2_PLACEMENT_3D('',#362,#288,#289);
#247=AXIS2_PLACEMENT_3D('',#364,#290,#291);
#248=AXIS2_PLACEMENT_3D('',#366,#292,#293);
#249=AXIS2_PLACEMENT_3D('',#367,#294,#295);
#250=AXIS2_PLACEMENT_3D('',#369,#296,#297);
#251=AXIS2_PLACEMENT_3D('',#370,#298,#299);
#252=AXIS2_PLACEMENT_3D('',#371,#300,#301);
#253=AXIS2_PLACEMENT_3D('',#373,#302,#303);
#254=AXIS2_PLACEMENT_3D('',#375,#304,#305);
#255=AXIS2_PLACEMENT_3D('',#376,#306,#307);
#256=AXIS2_PLACEMENT_3D('',#377,#308,#309);
#257=AXIS2_PLACEMENT_3D('',#379,#310,#311);
#258=AXIS2_PLACEMENT_3D('',#381,#312,#313);
#259=AXIS2_PLACEMENT_3D('',#382,#314,#315);
#260=AXIS2_PLACEMENT_3D('',#383,#316,#317);
#261=AXIS2_PLACEMENT_3D('',#385,#318,#319);
#262=AXIS2_PLACEMENT_3D('',#386,#320,#321);
#263=AXIS2_PLACEMENT_3D('',#387,#322,#323);
#264=AXIS2_PLACEMENT_3D('',#389,#324,#325);
#265=AXIS2_PLACEMENT_3D('',#391,#326,#327);
#266=AXIS2_PLACEMENT_3D('',#392,#328,#329);
#267=AXIS2_PLACEMENT_3D('',#394,#330,#331);
#268=AXIS2_PLACEMENT_3D('',#395,#332,#333);
#269=AXIS2_PLACEMENT_3D('',#396,#334,#335);
#270=AXIS2_PLACEMENT_3D('',#398,#336,#337);
#271=AXIS2_PLACEMENT_3D('',#400,#338,#339);
#272=AXIS2_PLACEMENT_3D('',#401,#340,#341);
#273=AXIS2_PLACEMENT_3D('',#402,#342,#343);
#274=AXIS2_PLACEMENT_3D('',#404,#344,#345);
#275=AXIS2_PLACEMENT_3D('',#405,#346,#347);
#276=AXIS2_PLACEMENT_3D('',#407,#348,#349);
#277=AXIS2_PLACEMENT_3D('',#408,#350,#351);
#278=AXIS2_PLACEMENT_3D('',#410,#352,#353);
#279=AXIS2_PLACEMENT_3D('',#411,#354,#355);
#280=DIRECTION('',(0.,0.,1.));
#281=DIRECTION('',(1.,0.,0.));
#282=DIRECTION('',(0.,0.,-1.));
#283=DIRECTION('',(1.,0.,0.));
#284=DIRECTION('',(0.,0.,-1.));
#285=DIRECTION('',(1.,0.,0.));
#286=DIRECTION('',(0.,0.,1.));
#287=DIRECTION('',(1.,0.,0.));
#288=DIRECTION('',(0.,0.,-1.));
#289=DIRECTION('',(-1.,0.,0.));
#290=DIRECTION('',(0.,0.,-1.));
#291=DIRECTION('',(-1.,0.,0.));
#292=DIRECTION('',(0.,0.,-1.));
#293=DIRECTION('',(-1.,0.,0.));
#294=DIRECTION('',(0.,0.,-1.));
#295=DIRECTION('',(-1.,0.,0.));
#296=DIRECTION('',(0.,0.,-1.));
#297=DIRECTION('',(-1.,0.,1.25671415017974E-018));
#298=DIRECTION('',(0.,0.,-1.));
#299=DIRECTION('',(-1.,0.,0.));
#300=DIRECTION('',(0.,0.,1.));
#301=DIRECTION('',(-1.,0.,0.));
#302=DIRECTION('',(0.,0.,1.));
#303=DIRECTION('',(0.,-1.,0.));
#304=DIRECTION('',(0.,0.,-1.));
#305=DIRECTION('',(0.,1.,0.));
#306=DIRECTION('',(0.,0.,1.));
#307=DIRECTION('',(0.,-1.,0.));
#308=DIRECTION('',(0.,0.,-1.));
#309=DIRECTION('',(-1.,0.,0.));
#310=DIRECTION('',(0.,0.,1.));
#311=DIRECTION('',(0.,1.,0.));
#312=DIRECTION('',(0.,0.,-1.));
#313=DIRECTION('',(0.,1.,0.));
#314=DIRECTION('',(0.,0.,1.));
#315=DIRECTION('',(0.,-1.,-1.43707679302621E-016));
#316=DIRECTION('',(0.,0.,-1.));
#317=DIRECTION('',(-1.,0.,0.));
#318=DIRECTION('',(0.,0.,-1.));
#319=DIRECTION('',(0.,1.,0.));
#320=DIRECTION('',(0.,0.,-1.));
#321=DIRECTION('',(0.,1.,0.));
#322=DIRECTION('',(0.,0.,-1.));
#323=DIRECTION('',(-1.,0.,0.));
#324=DIRECTION('',(0.,0.,-1.));
#325=DIRECTION('',(-1.,0.,0.));
#326=DIRECTION('',(0.,0.,-1.));
#327=DIRECTION('',(-1.,0.,0.));
#328=DIRECTION('',(0.,0.,-1.));
#329=DIRECTION('',(-1.,0.,0.));
#330=DIRECTION('',(0.,0.,-1.));
#331=DIRECTION('',(-1.,0.,0.));
#332=DIRECTION('',(0.,0.,-1.));
#333=DIRECTION('',(-1.,0.,3.86965386902988E-016));
#334=DIRECTION('',(0.,0.,-1.));
#335=DIRECTION('',(-1.,0.,0.));
#336=DIRECTION('',(0.,0.,-1.));
#337=DIRECTION('',(-1.,0.,0.));
#338=DIRECTION('',(0.,0.,-1.));
#339=DIRECTION('',(-1.,0.,0.));
#340=DIRECTION('',(0.,0.,-1.));
#341=DIRECTION('',(-1.,0.,0.));
#342=DIRECTION('',(0.,0.,-1.));
#343=DIRECTION('',(-1.,0.,0.));
#344=DIRECTION('',(0.,0.,-1.));
#345=DIRECTION('',(-1.,0.,0.));
#346=DIRECTION('',(0.,0.,-1.));
#347=DIRECTION('',(-1.,0.,0.));
#348=DIRECTION('',(0.,0.,-1.));
#349=DIRECTION('',(-1.,0.,0.));
#350=DIRECTION('',(0.,0.,1.));
#351=DIRECTION('',(-1.,0.,0.));
#352=DIRECTION('',(0.,0.,-1.));
#353=DIRECTION('',(-1.,0.,0.));
#354=DIRECTION('',(0.,0.,-1.));
#355=DIRECTION('',(-1.,0.,0.));
#356=CARTESIAN_POINT('',(0.,0.,0.));
#357=CARTESIAN_POINT('',(-9.34807244633295E-015,-6.73533494602307E-016,
0.));
#358=CARTESIAN_POINT('',(9.99999999999999,-6.73533494602307E-016,0.));
#359=CARTESIAN_POINT('',(3.5527136788005E-015,0.,0.));
#360=CARTESIAN_POINT('',(15.950000000029,0.,0.));
#361=CARTESIAN_POINT('',(3.5527136788005E-015,15.450000000029,0.));
#362=CARTESIAN_POINT('',(3.5527136788005E-015,0.,13.9398339694904));
#363=CARTESIAN_POINT('',(-12.725,0.,13.9398339694904));
#364=CARTESIAN_POINT('',(3.5527136788005E-015,0.,30.3868062227451));
#365=CARTESIAN_POINT('',(-12.725,0.,30.3868062227451));
#366=CARTESIAN_POINT('',(3.5527136788005E-015,0.,-28.2999999999049));
#367=CARTESIAN_POINT('',(3.5527136788005E-015,0.,12.7660299639671));
#368=CARTESIAN_POINT('',(-15.950000000029,0.,12.7660299639671));
#369=CARTESIAN_POINT('',(3.5527136788005E-015,0.,13.7482459034287));
#370=CARTESIAN_POINT('',(3.5527136788005E-015,0.,-28.2999999999049));
#371=CARTESIAN_POINT('',(0.,0.,-11.));
#372=CARTESIAN_POINT('',(-6.,0.,-11.));
#373=CARTESIAN_POINT('',(0.,0.,-11.));
#374=CARTESIAN_POINT('',(0.,-10.,-11.));
#375=CARTESIAN_POINT('',(-6.,0.,-11.));
#376=CARTESIAN_POINT('',(0.,0.,-5.5));
#377=CARTESIAN_POINT('',(0.,0.,-23.));
#378=CARTESIAN_POINT('',(-4.,0.,-23.));
#379=CARTESIAN_POINT('',(0.,0.,-23.));
#380=CARTESIAN_POINT('',(0.,4.3135099835713,-23.));
#381=CARTESIAN_POINT('',(-3.5,0.,-23.));
#382=CARTESIAN_POINT('',(0.,0.,-23.));
#383=CARTESIAN_POINT('',(0.,0.,-28.));
#384=CARTESIAN_POINT('',(-4.,0.,-28.));
#385=CARTESIAN_POINT('',(0.,0.,-28.));
#386=CARTESIAN_POINT('',(0.,0.,-100.81126254777));
#387=CARTESIAN_POINT('',(3.5527136788005E-015,0.,39.5000000000951));
#388=CARTESIAN_POINT('',(-10.595,0.,39.5000000000951));
#389=CARTESIAN_POINT('',(3.5527136788005E-015,0.,39.5000000000951));
#390=CARTESIAN_POINT('',(-9.7125,0.,39.5000000000951));
#391=CARTESIAN_POINT('',(3.5527136788005E-015,10.0125,39.5000000000951));
#392=CARTESIAN_POINT('',(3.5527136788005E-015,0.,37.4128787769951));
#393=CARTESIAN_POINT('',(-11.8,0.,37.4128787769951));
#394=CARTESIAN_POINT('',(3.5527136788005E-015,0.,39.5000000000951));
#395=CARTESIAN_POINT('',(3.5527136788005E-015,0.,37.4128787769951));
#396=CARTESIAN_POINT('',(3.5527136788005E-015,0.,39.6000000000951));
#397=CARTESIAN_POINT('',(-9.61250000000001,0.,39.6000000000951));
#398=CARTESIAN_POINT('',(3.5527136788005E-015,0.,39.6000000000951));
#399=CARTESIAN_POINT('',(-6.20000000000001,0.,39.6000000000951));
#400=CARTESIAN_POINT('',(3.5527136788005E-015,6.20000000000002,39.6000000000951));
#401=CARTESIAN_POINT('',(3.5527136788005E-015,0.,39.5000000000951));
#402=CARTESIAN_POINT('',(3.5527136788005E-015,0.,39.7000000000951));
#403=CARTESIAN_POINT('',(-6.20000000000001,0.,39.7000000000951));
#404=CARTESIAN_POINT('',(3.5527136788005E-015,0.,-28.2999999999049));
#405=CARTESIAN_POINT('',(3.5527136788005E-015,0.,39.7000000000951));
#406=CARTESIAN_POINT('',(-4.,0.,39.7000000000951));
#407=CARTESIAN_POINT('',(3.5527136788005E-015,4.29999999999998,39.7000000000951));
#408=CARTESIAN_POINT('',(3.5527136788005E-015,0.,10.2000000000951));
#409=CARTESIAN_POINT('',(-4.,0.,10.2000000000951));
#410=CARTESIAN_POINT('',(3.5527136788005E-015,0.,10.2000000000951));
#411=CARTESIAN_POINT('',(3.5527136788005E-015,0.,39.7000000000951));
#412=MECHANICAL_DESIGN_GEOMETRIC_PRESENTATION_REPRESENTATION('',(#32),#413);
#413=(
GEOMETRIC_REPRESENTATION_CONTEXT(3)
GLOBAL_UNCERTAINTY_ASSIGNED_CONTEXT((#414))
GLOBAL_UNIT_ASSIGNED_CONTEXT((#420,#416,#415))
REPRESENTATION_CONTEXT('W9990111_stp','TOP_LEVEL_ASSEMBLY_PART')
);
#414=UNCERTAINTY_MEASURE_WITH_UNIT(LENGTH_MEASURE(2.E-005),#420,
'DISTANCE_ACCURACY_VALUE','Maximum Tolerance applied to model');
#415=(
NAMED_UNIT(*)
SI_UNIT($,.STERADIAN.)
SOLID_ANGLE_UNIT()
);
#416=(
CONVERSION_BASED_UNIT('DEGREE',#418)
NAMED_UNIT(#417)
PLANE_ANGLE_UNIT()
);
#417=DIMENSIONAL_EXPONENTS(0.,0.,0.,0.,0.,0.,0.);
#418=PLANE_ANGLE_MEASURE_WITH_UNIT(PLANE_ANGLE_MEASURE(0.0174532925),#419);
#419=(
NAMED_UNIT(*)
PLANE_ANGLE_UNIT()
SI_UNIT($,.RADIAN.)
);
#420=(
LENGTH_UNIT()
NAMED_UNIT(*)
SI_UNIT(.MILLI.,.METRE.)
);
ENDSEC;
END-ISO-10303-21;
