  0
SECTION
  2
HEADER
  9
$ACADVER
  1
AC1014
  9
$ACADMAINTVER
 70
     9
  9
$DWGCODEPAGE
  3
ANSI_1252
  9
$INSBASE
 10
0.0
 20
0.0
 30
0.0
  9
$EXTMIN
 10
1.000000000000000E+20
 20
1.000000000000000E+20
 30
1.000000000000000E+20
  9
$EXTMAX
 10
-1.000000000000000E+20
 20
-1.000000000000000E+20
 30
-1.000000000000000E+20
  9
$LIMMIN
 10
0.0
 20
0.0
  9
$LIMMAX
 10
12.0
 20
9.0
  9
$ORTHOMODE
 70
     0
  9
$REGENMODE
 70
     1
  9
$FILLMODE
 70
     1
  9
$QTEXTMODE
 70
     0
  9
$MIRRTEXT
 70
     1
  9
$DRAGMODE
 70
     2
  9
$LTSCALE
 40
1.0
  9
$OSMODE
 70
    37
  9
$ATTMODE
 70
     1
  9
$TEXTSIZE
 40
0.2
  9
$TRACEWID
 40
0.05
  9
$TEXTSTYLE
  7
STANDARD
  9
$CLAYER
  8
0
  9
$CELTYPE
  6
BYLAYER
  9
$CECOLOR
 62
   256
  9
$CELTSCALE
 40
1.0
  9
$DELOBJ
 70
     1
  9
$DISPSILH
 70
     0
  9
$DIMSCALE
 40
1.0
  9
$DIMASZ
 40
0.18
  9
$DIMEXO
 40
0.0625
  9
$DIMDLI
 40
0.38
  9
$DIMRND
 40
0.0
  9
$DIMDLE
 40
0.0
  9
$DIMEXE
 40
0.18
  9
$DIMTP
 40
0.0
  9
$DIMTM
 40
0.0
  9
$DIMTXT
 40
0.18
  9
$DIMCEN
 40
0.09
  9
$DIMTSZ
 40
0.0
  9
$DIMTOL
 70
     0
  9
$DIMLIM
 70
     0
  9
$DIMTIH
 70
     1
  9
$DIMTOH
 70
     1
  9
$DIMSE1
 70
     0
  9
$DIMSE2
 70
     0
  9
$DIMTAD
 70
     0
  9
$DIMZIN
 70
     0
  9
$DIMBLK
  1

  9
$DIMASO
 70
     1
  9
$DIMSHO
 70
     1
  9
$DIMPOST
  1

  9
$DIMAPOST
  1

  9
$DIMALT
 70
     0
  9
$DIMALTD
 70
     2
  9
$DIMALTF
 40
25.4
  9
$DIMLFAC
 40
1.0
  9
$DIMTOFL
 70
     0
  9
$DIMTVP
 40
0.0
  9
$DIMTIX
 70
     0
  9
$DIMSOXD
 70
     0
  9
$DIMSAH
 70
     0
  9
$DIMBLK1
  1

  9
$DIMBLK2
  1

  9
$DIMSTYLE
  2
STANDARD
  9
$DIMCLRD
 70
     0
  9
$DIMCLRE
 70
     0
  9
$DIMCLRT
 70
     0
  9
$DIMTFAC
 40
1.0
  9
$DIMGAP
 40
0.09
  9
$DIMJUST
 70
     0
  9
$DIMSD1
 70
     0
  9
$DIMSD2
 70
     0
  9
$DIMTOLJ
 70
     1
  9
$DIMTZIN
 70
     0
  9
$DIMALTZ
 70
     0
  9
$DIMALTTZ
 70
     0
  9
$DIMFIT
 70
     3
  9
$DIMUPT
 70
     0
  9
$DIMUNIT
 70
     2
  9
$DIMDEC
 70
     4
  9
$DIMTDEC
 70
     4
  9
$DIMALTU
 70
     2
  9
$DIMALTTD
 70
     2
  9
$DIMTXSTY
  7
STANDARD
  9
$DIMAUNIT
 70
     0
  9
$LUNITS
 70
     2
  9
$LUPREC
 70
     4
  9
$SKETCHINC
 40
0.1
  9
$FILLETRAD
 40
0.5
  9
$AUNITS
 70
     0
  9
$AUPREC
 70
     0
  9
$MENU
  1
.
  9
$ELEVATION
 40
0.0
  9
$PELEVATION
 40
0.0
  9
$THICKNESS
 40
0.0
  9
$LIMCHECK
 70
     0
  9
$CHAMFERA
 40
0.5
  9
$CHAMFERB
 40
0.5
  9
$CHAMFERC
 40
1.0
  9
$CHAMFERD
 40
0.0
  9
$SKPOLY
 70
     0
  9
$TDCREATE
 40
2458275.489237338
  9
$TDUPDATE
 40
2458275.489237349
  9
$TDINDWG
 40
0.0000000116
  9
$TDUSRTIMER
 40
0.0000000116
  9
$USRTIMER
 70
     1
  9
$ANGBASE
 50
0.0
  9
$ANGDIR
 70
     0
  9
$PDMODE
 70
     0
  9
$PDSIZE
 40
0.0
  9
$PLINEWID
 40
0.0
  9
$COORDS
 70
     1
  9
$SPLFRAME
 70
     0
  9
$SPLINETYPE
 70
     6
  9
$SPLINESEGS
 70
     8
  9
$ATTDIA
 70
     0
  9
$ATTREQ
 70
     1
  9
$HANDLING
 70
     1
  9
$HANDSEED
  5
659
  9
$SURFTAB1
 70
     6
  9
$SURFTAB2
 70
     6
  9
$SURFTYPE
 70
     6
  9
$SURFU
 70
     6
  9
$SURFV
 70
     6
  9
$UCSNAME
  2

  9
$UCSORG
 10
0.0
 20
0.0
 30
0.0
  9
$UCSXDIR
 10
1.0
 20
0.0
 30
0.0
  9
$UCSYDIR
 10
0.0
 20
1.0
 30
0.0
  9
$PUCSNAME
  2

  9
$PUCSORG
 10
0.0
 20
0.0
 30
0.0
  9
$PUCSXDIR
 10
1.0
 20
0.0
 30
0.0
  9
$PUCSYDIR
 10
0.0
 20
1.0
 30
0.0
  9
$USERI1
 70
     0
  9
$USERI2
 70
     0
  9
$USERI3
 70
     0
  9
$USERI4
 70
     0
  9
$USERI5
 70
     0
  9
$USERR1
 40
0.0
  9
$USERR2
 40
0.0
  9
$USERR3
 40
0.0
  9
$USERR4
 40
0.0
  9
$USERR5
 40
0.0
  9
$WORLDVIEW
 70
     1
  9
$SHADEDGE
 70
     3
  9
$SHADEDIF
 70
    70
  9
$TILEMODE
 70
     1
  9
$MAXACTVP
 70
    64
  9
$PINSBASE
 10
0.0
 20
0.0
 30
0.0
  9
$PLIMCHECK
 70
     0
  9
$PEXTMIN
 10
1.000000000000000E+20
 20
1.000000000000000E+20
 30
1.000000000000000E+20
  9
$PEXTMAX
 10
-1.000000000000000E+20
 20
-1.000000000000000E+20
 30
-1.000000000000000E+20
  9
$PLIMMIN
 10
0.0
 20
0.0
  9
$PLIMMAX
 10
12.0
 20
9.0
  9
$UNITMODE
 70
     0
  9
$VISRETAIN
 70
     1
  9
$PLINEGEN
 70
     0
  9
$PSLTSCALE
 70
     1
  9
$TREEDEPTH
 70
  3020
  9
$PICKSTYLE
 70
     1
  9
$CMLSTYLE
  2
STANDARD
  9
$CMLJUST
 70
     0
  9
$CMLSCALE
 40
1.0
  9
$PROXYGRAPHICS
 70
     1
  9
$MEASUREMENT
 70
     0
  0
ENDSEC
  0
SECTION
  2
CLASSES
  0
CLASS
  1
ACDBDICTIONARYWDFLT
  2
AcDbDictionaryWithDefault
  3
ObjectDBX Classes
 90
        0
280
     0
281
     0
  0
CLASS
  1
VISUALSTYLE
  2
AcDbVisualStyle
  3
ObjectDBX Classes
 90
     4095
280
     0
281
     0
  0
CLASS
  1
XRECORD
  2
AcDbXrecord
  3
AutoCAD 2000
 90
        0
280
     0
281
     0
  0
CLASS
  1
LWPOLYLINE
  2
AcDbPolyline
  3
AutoCAD 2000
 90
        0
280
     0
281
     1
  0
CLASS
  1
HATCH
  2
AcDbHatch
  3
AutoCAD 2000
 90
        0
280
     0
281
     1
  0
CLASS
  1
ACDBPLACEHOLDER
  2
AcDbPlaceHolder
  3
ObjectDBX Classes
 90
        0
280
     0
281
     0
  0
CLASS
  1
LAYOUT
  2
AcDbLayout
  3
ObjectDBX Classes
 90
        0
280
     0
281
     0
  0
ENDSEC
  0
SECTION
  2
TABLES
  0
TABLE
  2
VPORT
  5
8
330
0
100
AcDbSymbolTable
 70
     1
  0
VPORT
  5
29
330
8
100
AcDbSymbolTableRecord
100
AcDbViewportTableRecord
  2
*ACTIVE
 70
     0
 10
0.0
 20
0.0
 11
1.0
 21
1.0
 12
0.0
 22
0.0
 13
0.0
 23
0.0
 14
0.5
 24
0.5
 15
0.5
 25
0.5
 16
0.0
 26
0.0
 36
1.0
 17
147.3520738021377
 27
182.093708586204
 37
0.0
 40
68.10798745042092
 41
1.197826961159966
 42
50.0
 43
0.0
 44
0.0
 50
0.0
 51
0.0
 71
     0
 72
   100
 73
     1
 74
     3
 75
     0
 76
     0
 77
     0
 78
     0
  0
ENDTAB
  0
TABLE
  2
LTYPE
  5
5
330
0
100
AcDbSymbolTable
 70
     5
  0
LTYPE
  5
14
330
5
100
AcDbSymbolTableRecord
100
AcDbLinetypeTableRecord
  2
BYBLOCK
 70
     0
  3

 72
    65
 73
     0
 40
0.0
  0
LTYPE
  5
15
330
5
100
AcDbSymbolTableRecord
100
AcDbLinetypeTableRecord
  2
BYLAYER
 70
     0
  3

 72
    65
 73
     0
 40
0.0
  0
LTYPE
  5
16
330
5
100
AcDbSymbolTableRecord
100
AcDbLinetypeTableRecord
  2
CONTINUOUS
 70
     0
  3
Solid line
 72
    65
 73
     0
 40
0.0
  0
LTYPE
  5
63
330
5
100
AcDbSymbolTableRecord
100
AcDbLinetypeTableRecord
  2
AI-LINETYPE-1
 70
     0
  3
Adobe Illustrator Linetype No. 1
 72
    65
 73
     4
 40
8.819444442239584
 49
7.055555553791667
 74
     0
 49
-0.7055555553791667
 74
     0
 49
0.3527777776895833
 74
     0
 49
-0.7055555553791667
 74
     0
  0
LTYPE
  5
68
330
5
100
AcDbSymbolTableRecord
100
AcDbLinetypeTableRecord
  2
AI-LINETYPE-2
 70
     0
  3
Adobe Illustrator Linetype No. 2
 72
    65
 73
     4
 40
8.819444442239584
 49
7.055555553791667
 74
     0
 49
-0.7055555553791667
 74
     0
 49
0.3527777776895833
 74
     0
 49
-0.7055555553791667
 74
     0
  0
LTYPE
  5
6D
330
5
100
AcDbSymbolTableRecord
100
AcDbLinetypeTableRecord
  2
AI-LINETYPE-3
 70
     0
  3
Adobe Illustrator Linetype No. 3
 72
    65
 73
     4
 40
8.819444442239584
 49
7.055555553791667
 74
     0
 49
-0.7055555553791667
 74
     0
 49
0.3527777776895833
 74
     0
 49
-0.7055555553791667
 74
     0
  0
LTYPE
  5
73
330
5
100
AcDbSymbolTableRecord
100
AcDbLinetypeTableRecord
  2
AI-LINETYPE-4
 70
     0
  3
Adobe Illustrator Linetype No. 4
 72
    65
 73
     4
 40
8.819444442239584
 49
7.055555553791667
 74
     0
 49
-0.7055555553791667
 74
     0
 49
0.3527777776895833
 74
     0
 49
-0.7055555553791667
 74
     0
  0
ENDTAB
  0
TABLE
  2
LAYER
  5
2
330
0
100
AcDbSymbolTable
 70
     5
  0
LAYER
  5
10
330
2
100
AcDbSymbolTableRecord
100
AcDbLayerTableRecord
  2
0
 70
     0
 62
     7
  6
CONTINUOUS
  0
LAYER
  5
3B
330
2
100
AcDbSymbolTableRecord
100
AcDbLayerTableRecord
  2
GRAU_10_
 70
     1
 62
     7
  6
CONTINUOUS
  0
LAYER
  5
45
330
2
100
AcDbSymbolTableRecord
100
AcDbLayerTableRecord
  2
STANDARDEBENE
 70
     0
 62
     7
  6
CONTINUOUS
  0
LAYER
  5
3DA
330
2
100
AcDbSymbolTableRecord
100
AcDbLayerTableRecord
  2
BEMAßUNG
 70
     1
 62
     7
  6
CONTINUOUS
  0
LAYER
  5
633
330
2
100
AcDbSymbolTableRecord
100
AcDbLayerTableRecord
  2
TEXT
 70
     1
 62
     7
  6
CONTINUOUS
  0
ENDTAB
  0
TABLE
  2
STYLE
  5
3
330
0
100
AcDbSymbolTable
 70
     1
  0
STYLE
  5
11
330
3
100
AcDbSymbolTableRecord
100
AcDbTextStyleTableRecord
  2
STANDARD
 70
     0
 40
0.0
 41
1.0
 50
0.0
 71
     0
 42
0.2
  3
txt
  4

  0
ENDTAB
  0
TABLE
  2
VIEW
  5
6
330
0
100
AcDbSymbolTable
 70
     0
  0
ENDTAB
  0
TABLE
  2
UCS
  5
7
330
0
100
AcDbSymbolTable
 70
     0
  0
ENDTAB
  0
TABLE
  2
APPID
  5
9
330
0
100
AcDbSymbolTable
 70
     1
  0
APPID
  5
12
330
9
100
AcDbSymbolTableRecord
100
AcDbRegAppTableRecord
  2
ACAD
 70
     0
  0
ENDTAB
  0
TABLE
  2
DIMSTYLE
  5
A
330
0
100
AcDbSymbolTable
 70
     1
  0
DIMSTYLE
105
27
330
A
100
AcDbSymbolTableRecord
100
AcDbDimStyleTableRecord
  2
STANDARD
 70
     0
  3

  4

  5

  6

  7

 40
1.0
 41
0.18
 42
0.0625
 43
0.38
 44
0.18
 45
0.0
 46
0.0
 47
0.0
 48
0.0
140
0.18
141
0.09
142
0.0
143
25.4
144
1.0
145
0.0
146
1.0
147
0.09
 71
     0
 72
     0
 73
     1
 74
     1
 75
     0
 76
     0
 77
     0
 78
     0
170
     0
171
     2
172
     0
173
     0
174
     0
175
     0
176
     0
177
     0
178
     0
270
     2
271
     4
272
     4
273
     2
274
     2
340
11
275
     0
280
     0
281
     0
282
     0
283
     1
284
     0
285
     0
286
     0
287
     3
288
     0
  0
ENDTAB
  0
TABLE
  2
BLOCK_RECORD
  5
1
330
0
100
AcDbSymbolTable
 70
     2
  0
BLOCK_RECORD
  5
1F
330
1
100
AcDbSymbolTableRecord
100
AcDbBlockTableRecord
  2
*MODEL_SPACE
  0
BLOCK_RECORD
  5
1B
330
1
100
AcDbSymbolTableRecord
100
AcDbBlockTableRecord
  2
*PAPER_SPACE
  0
BLOCK_RECORD
  5
5B
330
1
100
AcDbSymbolTableRecord
100
AcDbBlockTableRecord
  2
BLOCK_2
  0
ENDTAB
  0
ENDSEC
  0
SECTION
  2
BLOCKS
  0
BLOCK
  5
20
330
1F
100
AcDbEntity
  8
0
100
AcDbBlockBegin
  2
*MODEL_SPACE
 70
     0
 71
     0
 10
0.0
 20
0.0
 30
0.0
  3
*MODEL_SPACE
  1

  0
ENDBLK
  5
21
330
1F
100
AcDbEntity
  8
0
100
AcDbBlockEnd
  0
BLOCK
  5
1C
330
1B
100
AcDbEntity
 67
     1
  8
0
100
AcDbBlockBegin
  2
*PAPER_SPACE
 70
     0
 71
     0
 10
0.0
 20
0.0
 30
0.0
  3
*PAPER_SPACE
  1

  0
ENDBLK
  5
1D
330
1B
100
AcDbEntity
 67
     1
  8
0
100
AcDbBlockEnd
  0
BLOCK
  5
5D
330
5B
100
AcDbEntity
  8
0
100
AcDbBlockBegin
  2
BLOCK_2
 70
     0
 71
     0
 10
0.0
 20
0.0
 30
0.0
  3
BLOCK_2
  1

  0
ENDBLK
  5
5E
330
5B
100
AcDbEntity
  8
0
100
AcDbBlockEnd
  0
ENDSEC
  0
SECTION
  2
ENTITIES
  0
SPLINE
  5
3C
330
1F
100
AcDbEntity
  8
GRAU_10_
100
AcDbSpline
210
0.0
220
0.0
230
1.0
 70
    11
 71
     3
 72
    17
 73
    13
 74
     0
 42
0.0000000001
 43
0.0000000001
 40
0.0
 40
0.0
 40
0.0
 40
0.0
 40
1.0
 40
1.0
 40
1.0
 40
2.0
 40
2.0
 40
2.0
 40
3.0
 40
3.0
 40
3.0
 40
4.0
 40
4.0
 40
4.0
 40
4.0
 10
119.0735242757872
 20
219.9958739684385
 30
0.0
 10
119.0735242757872
 20
232.0612873768805
 30
0.0
 10
109.2925536836144
 20
241.8419134595048
 30
0.0
 10
97.22748478472091
 20
241.8419134595048
 30
0.0
 10
85.16207137627893
 20
241.8419134595048
 30
0.0
 10
75.38178980320316
 20
232.0612873768805
 30
0.0
 10
75.38178980320316
 20
219.9958739684385
 30
0.0
 10
75.38178980320316
 20
207.9308050695451
 30
0.0
 10
85.16207137627893
 20
198.1501789869208
 30
0.0
 10
97.22748478472091
 20
198.1501789869208
 30
0.0
 10
109.2925536836144
 20
198.1501789869208
 30
0.0
 10
119.0735242757872
 20
207.9308050695451
 30
0.0
 10
119.0735242757872
 20
219.9958739684385
 30
0.0
  0
HATCH
  5
3D
330
1F
100
AcDbEntity
  8
GRAU_10_
 62
   255
100
AcDbHatch
 10
0.0
 20
0.0
 30
0.0
210
0.0
220
0.0
230
1.0
  2
SOLID
 70
     1
 71
     0
 91
        1
 92
        1
 93
        1
 72
     4
 94
        3
 73
     0
 74
     1
 95
       17
 96
       13
 40
0.0
 40
0.0
 40
0.0
 40
0.0
 40
1.0
 40
1.0
 40
1.0
 40
2.0
 40
2.0
 40
2.0
 40
3.0
 40
3.0
 40
3.0
 40
4.0
 40
4.0
 40
4.0
 40
4.0
 10
119.0735242757872
 20
219.9958739684385
 10
119.0735242757872
 20
232.0612873768805
 10
109.2925536836144
 20
241.8419134595048
 10
97.22748478472091
 20
241.8419134595048
 10
85.16207137627893
 20
241.8419134595048
 10
75.38178980320316
 20
232.0612873768805
 10
75.38178980320316
 20
219.9958739684385
 10
75.38178980320316
 20
207.9308050695451
 10
85.16207137627893
 20
198.1501789869208
 10
97.22748478472091
 20
198.1501789869208
 10
109.2925536836144
 20
198.1501789869208
 10
119.0735242757872
 20
207.9308050695451
 10
119.0735242757872
 20
219.9958739684385
 97
        0
 75
     0
 76
     1
 98
        0
  0
SPLINE
  5
3E
330
1F
100
AcDbEntity
  8
GRAU_10_
100
AcDbSpline
210
0.0
220
0.0
230
1.0
 70
     8
 71
     3
 72
   119
 73
   115
 74
     0
 42
0.0000000001
 43
0.0000000001
 40
0.0
 40
0.0
 40
0.0
 40
0.0
 40
1.0
 40
1.0
 40
1.0
 40
2.0
 40
2.0
 40
2.0
 40
3.0
 40
3.0
 40
3.0
 40
4.0
 40
4.0
 40
4.0
 40
5.0
 40
5.0
 40
5.0
 40
6.0
 40
6.0
 40
6.0
 40
7.0
 40
7.0
 40
7.0
 40
8.0
 40
8.0
 40
8.0
 40
9.0
 40
9.0
 40
9.0
 40
10.0
 40
10.0
 40
10.0
 40
11.0
 40
11.0
 40
11.0
 40
12.0
 40
12.0
 40
12.0
 40
13.0
 40
13.0
 40
13.0
 40
14.0
 40
14.0
 40
14.0
 40
15.0
 40
15.0
 40
15.0
 40
16.0
 40
16.0
 40
16.0
 40
17.0
 40
17.0
 40
17.0
 40
18.0
 40
18.0
 40
18.0
 40
19.0
 40
19.0
 40
19.0
 40
20.0
 40
20.0
 40
20.0
 40
21.0
 40
21.0
 40
21.0
 40
22.0
 40
22.0
 40
22.0
 40
23.0
 40
23.0
 40
23.0
 40
24.0
 40
24.0
 40
24.0
 40
25.0
 40
25.0
 40
25.0
 40
26.0
 40
26.0
 40
26.0
 40
27.0
 40
27.0
 40
27.0
 40
28.0
 40
28.0
 40
28.0
 40
29.0
 40
29.0
 40
29.0
 40
30.0
 40
30.0
 40
30.0
 40
31.0
 40
31.0
 40
31.0
 40
32.0
 40
32.0
 40
32.0
 40
33.0
 40
33.0
 40
33.0
 40
34.0
 40
34.0
 40
34.0
 40
35.0
 40
35.0
 40
35.0
 40
36.0
 40
36.0
 40
36.0
 40
37.0
 40
37.0
 40
37.0
 40
38.0
 40
38.0
 40
38.0
 40
38.0
 10
75.67186684306121
 20
156.6181748740399
 30
0.0
 10
75.67186684306121
 20
156.6484917143101
 30
0.0
 10
75.17060544995735
 20
157.6303439276063
 30
0.0
 10
75.17060544995735
 20
157.6303439276063
 30
0.0
 10
75.17060544995735
 20
157.6303439276063
 30
0.0
 10
75.31082083620701
 20
158.8733343786845
 30
0.0
 10
76.03256834036686
 20
158.9033067094061
 30
0.0
 10
76.7543158445267
 20
158.9332790401278
 30
0.0
 10
107.6623344999941
 20
158.9132974863134
 30
0.0
 10
107.6823160538086
 20
158.9735866573052
 30
0.0
 10
107.702297607623
 20
159.0335313187486
 30
0.0
 10
107.7222791614375
 20
161.879869208662
 30
0.0
 10
107.7222791614375
 20
161.879869208662
 30
0.0
 10
107.7222791614375
 20
161.879869208662
 30
0.0
 10
107.4618299427526
 20
162.8217583143293
 30
0.0
 10
107.4618299427526
 20
162.8217583143293
 30
0.0
 10
107.4618299427526
 20
162.8217583143293
 30
0.0
 10
106.0386609977959
 20
162.9623182101275
 30
0.0
 10
106.0386609977959
 20
162.9623182101275
 30
0.0
 10
106.0386609977959
 20
162.9623182101275
 30
0.0
 10
106.0186794439814
 20
167.4120035388762
 30
0.0
 10
106.0186794439814
 20
167.4120035388762
 30
0.0
 10
106.0186794439814
 20
167.4120035388762
 30
0.0
 10
105.998697890167
 20
167.9732095934234
 30
0.0
 10
106.7803900557702
 20
167.9732095934234
 30
0.0
 10
107.5620822213734
 20
167.9732095934234
 30
0.0
 10
113.8359456095618
 20
167.9332464857945
 30
0.0
 10
113.8359456095618
 20
167.9332464857945
 30
0.0
 10
113.8359456095618
 20
167.9332464857945
 30
0.0
 10
114.4570963255524
 20
167.9532280396089
 30
0.0
 10
114.4570963255524
 20
167.3720404312473
 30
0.0
 10
114.4570963255524
 20
166.7905083133371
 30
0.0
 10
114.6376193289795
 20
162.8820474853212
 30
0.0
 10
114.5573486041732
 20
162.8820474853212
 30
0.0
 10
114.4774223889154
 20
162.8820474853212
 30
0.0
 10
113.0542534439587
 20
162.8217583143293
 30
0.0
 10
113.0542534439587
 20
162.8217583143293
 30
0.0
 10
113.0542534439587
 20
162.8217583143293
 30
0.0
 10
112.6532443294756
 20
162.2205891521532
 30
0.0
 10
112.6532443294756
 20
162.2205891521532
 30
0.0
 10
112.6532443294756
 20
162.2205891521532
 30
0.0
 10
112.8537488867171
 20
158.9935682111197
 30
0.0
 10
112.8537488867171
 20
158.9935682111197
 30
0.0
 10
112.8537488867171
 20
158.9935682111197
 30
0.0
 10
118.5863877741728
 20
158.8530083153215
 30
0.0
 10
118.5863877741728
 20
158.8530083153215
 30
0.0
 10
118.5863877741728
 20
158.8530083153215
 30
0.0
 10
119.3281168321471
 20
158.4523437103869
 30
0.0
 10
119.3077907687842
 20
157.9913899344605
 30
0.0
 10
119.2878092149697
 20
157.5304361585341
 30
0.0
 10
118.967070825293
 20
156.3677164322623
 30
0.0
 10
118.967070825293
 20
156.3677164322623
 30
0.0
 10
118.967070825293
 20
156.3677164322623
 30
0.0
 10
119.2478461073408
 20
153.5013969885344
 30
0.0
 10
119.2478461073408
 20
153.5013969885344
 30
0.0
 10
119.2478461073408
 20
153.5013969885344
 30
0.0
 10
119.2878092149697
 20
141.6151285453254
 30
0.0
 10
119.2878092149697
 20
141.6151285453254
 30
0.0
 10
119.2878092149697
 20
141.6151285453254
 30
0.0
 10
118.8068738852288
 20
140.9536702121574
 30
0.0
 10
118.8068738852288
 20
140.9536702121574
 30
0.0
 10
118.8068738852288
 20
140.9536702121574
 30
0.0
 10
110.528653943722
 20
140.9736517659719
 30
0.0
 10
110.528653943722
 20
140.9736517659719
 30
0.0
 10
110.528653943722
 20
140.9736517659719
 30
0.0
 10
110.4284016651012
 20
139.6507350996359
 30
0.0
 10
110.4284016651012
 20
139.6507350996359
 30
0.0
 10
110.4284016651012
 20
139.6507350996359
 30
0.0
 10
110.8893554410277
 20
138.3078368794855
 30
0.0
 10
110.8893554410277
 20
138.3078368794855
 30
0.0
 10
110.8893554410277
 20
138.3078368794855
 30
0.0
 10
110.6888508837861
 20
127.1632974942508
 30
0.0
 10
110.6888508837861
 20
127.1632974942508
 30
0.0
 10
110.6888508837861
 20
127.1632974942508
 30
0.0
 10
110.2881862788516
 20
124.9184732760621
 30
0.0
 10
110.2881862788516
 20
124.9184732760621
 30
0.0
 10
110.2881862788516
 20
124.9184732760621
 30
0.0
 10
110.8493923333988
 20
124.3772487753293
 30
0.0
 10
110.8090847162213
 20
124.0565103856525
 30
0.0
 10
110.7691216085924
 20
123.7357719959758
 30
0.0
 10
110.9093369948421
 20
123.1745659414286
 30
0.0
 10
110.2478786616742
 20
123.1346028337997
 30
0.0
 10
109.5864203285062
 20
123.0942952166223
 30
0.0
 10
84.6515082253649
 20
122.8138644441229
 30
0.0
 10
84.6515082253649
 20
122.8138644441229
 30
0.0
 10
84.6515082253649
 20
122.8138644441229
 30
0.0
 10
83.78954533495539
 20
122.9540798303726
 30
0.0
 10
83.76956378114095
 20
123.4753227772909
 30
0.0
 10
83.7495822273265
 20
123.9962212146607
 30
0.0
 10
84.03001299982583
 20
124.5777533325709
 30
0.0
 10
84.03001299982583
 20
124.5777533325709
 30
0.0
 10
84.03001299982583
 20
124.5777533325709
 30
0.0
 10
83.66931150252017
 20
126.7423068259533
 30
0.0
 10
83.66931150252017
 20
126.7423068259533
 30
0.0
 10
83.66931150252017
 20
126.7423068259533
 30
0.0
 10
83.62934839489128
 20
138.2678737718566
 30
0.0
 10
83.64932994870573
 20
138.348144496663
 30
0.0
 10
83.66931150252017
 20
138.4280707119208
 30
0.0
 10
84.01003144601138
 20
139.5105197133863
 30
0.0
 10
84.01003144601138
 20
139.5105197133863
 30
0.0
 10
84.01003144601138
 20
139.5105197133863
 30
0.0
 10
84.1302652784466
 20
140.9736517659719
 30
0.0
 10
84.07032061700326
 20
140.933688658343
 30
0.0
 10
84.01003144601138
 20
140.8937255507141
 30
0.0
 10
75.79210067549643
 20
140.9736517659719
 30
0.0
 10
75.79210067549643
 20
140.9736517659719
 30
0.0
 10
75.79210067549643
 20
140.9736517659719
 30
0.0
 10
75.1905870037718
 20
141.5551838838821
 30
0.0
 10
75.1905870037718
 20
141.5551838838821
 30
0.0
 10
75.1905870037718
 20
141.5551838838821
 30
0.0
 10
75.05037161752213
 20
153.2609293236639
 30
0.0
 10
75.05037161752213
 20
153.2609293236639
 30
0.0
 10
75.05037161752213
 20
153.2609293236639
 30
0.0
 10
75.69184839687566
 20
156.5482394356893
 30
0.0
 10
75.69184839687566
 20
156.5482394356893
 30
0.0
  0
HATCH
  5
3F
330
1F
100
AcDbEntity
  8
GRAU_10_
 62
   255
100
AcDbHatch
 10
0.0
 20
0.0
 30
0.0
210
0.0
220
0.0
230
1.0
  2
SOLID
 70
     1
 71
     0
 91
        1
 92
        1
 93
        2
 72
     4
 94
        3
 73
     0
 74
     0
 95
      119
 96
      115
 40
0.0
 40
0.0
 40
0.0
 40
0.0
 40
0.3527777776895833
 40
0.3527777776895833
 40
0.3527777776895833
 40
0.7055555553791667
 40
0.7055555553791667
 40
0.7055555553791667
 40
1.05833333306875
 40
1.05833333306875
 40
1.05833333306875
 40
1.411111110758333
 40
1.411111110758333
 40
1.411111110758333
 40
1.763888888447917
 40
1.763888888447917
 40
1.763888888447917
 40
2.1166666661375
 40
2.1166666661375
 40
2.1166666661375
 40
2.469444443827083
 40
2.469444443827083
 40
2.469444443827083
 40
2.822222221516667
 40
2.822222221516667
 40
2.822222221516667
 40
3.17499999920625
 40
3.17499999920625
 40
3.17499999920625
 40
3.527777776895833
 40
3.527777776895833
 40
3.527777776895833
 40
3.880555554585417
 40
3.880555554585417
 40
3.880555554585417
 40
4.233333332275
 40
4.233333332275
 40
4.233333332275
 40
4.586111109964584
 40
4.586111109964584
 40
4.586111109964584
 40
4.938888887654167
 40
4.938888887654167
 40
4.938888887654167
 40
5.29166666534375
 40
5.29166666534375
 40
5.29166666534375
 40
5.644444443033334
 40
5.644444443033334
 40
5.644444443033334
 40
5.997222220722917
 40
5.997222220722917
 40
5.997222220722917
 40
6.349999998412501
 40
6.349999998412501
 40
6.349999998412501
 40
6.702777776102083
 40
6.702777776102083
 40
6.702777776102083
 40
7.055555553791667
 40
7.055555553791667
 40
7.055555553791667
 40
7.40833333148125
 40
7.40833333148125
 40
7.40833333148125
 40
7.761111109170834
 40
7.761111109170834
 40
7.761111109170834
 40
8.113888886860417
 40
8.113888886860417
 40
8.113888886860417
 40
8.46666666455
 40
8.46666666455
 40
8.46666666455
 40
8.819444442239584
 40
8.819444442239584
 40
8.819444442239584
 40
9.172222219929168
 40
9.172222219929168
 40
9.172222219929168
 40
9.52499999761875
 40
9.52499999761875
 40
9.52499999761875
 40
9.877777775308333
 40
9.877777775308333
 40
9.877777775308333
 40
10.23055555299792
 40
10.23055555299792
 40
10.23055555299792
 40
10.5833333306875
 40
10.5833333306875
 40
10.5833333306875
 40
10.93611110837708
 40
10.93611110837708
 40
10.93611110837708
 40
11.28888888606667
 40
11.28888888606667
 40
11.28888888606667
 40
11.64166666375625
 40
11.64166666375625
 40
11.64166666375625
 40
11.99444444144583
 40
11.99444444144583
 40
11.99444444144583
 40
12.34722221913542
 40
12.34722221913542
 40
12.34722221913542
 40
12.699999996825
 40
12.699999996825
 40
12.699999996825
 40
13.05277777451458
 40
13.05277777451458
 40
13.05277777451458
 40
13.40555555220417
 40
13.40555555220417
 40
13.40555555220417
 40
13.40555555220417
 10
75.67186684306121
 20
156.6181748740399
 10
75.67186684306121
 20
156.6484917143101
 10
75.17060544995735
 20
157.6303439276063
 10
75.17060544995735
 20
157.6303439276063
 10
75.17060544995735
 20
157.6303439276063
 10
75.31082083620701
 20
158.8733343786845
 10
76.03256834036686
 20
158.9033067094061
 10
76.7543158445267
 20
158.9332790401278
 10
107.6623344999941
 20
158.9132974863134
 10
107.6823160538086
 20
158.9735866573052
 10
107.702297607623
 20
159.0335313187486
 10
107.7222791614375
 20
161.879869208662
 10
107.7222791614375
 20
161.879869208662
 10
107.7222791614375
 20
161.879869208662
 10
107.4618299427526
 20
162.8217583143293
 10
107.4618299427526
 20
162.8217583143293
 10
107.4618299427526
 20
162.8217583143293
 10
106.0386609977959
 20
162.9623182101275
 10
106.0386609977959
 20
162.9623182101275
 10
106.0386609977959
 20
162.9623182101275
 10
106.0186794439814
 20
167.4120035388762
 10
106.0186794439814
 20
167.4120035388762
 10
106.0186794439814
 20
167.4120035388762
 10
105.998697890167
 20
167.9732095934234
 10
106.7803900557702
 20
167.9732095934234
 10
107.5620822213734
 20
167.9732095934234
 10
113.8359456095618
 20
167.9332464857945
 10
113.8359456095618
 20
167.9332464857945
 10
113.8359456095618
 20
167.9332464857945
 10
114.4570963255524
 20
167.9532280396089
 10
114.4570963255524
 20
167.3720404312473
 10
114.4570963255524
 20
166.7905083133371
 10
114.6376193289795
 20
162.8820474853212
 10
114.5573486041732
 20
162.8820474853212
 10
114.4774223889154
 20
162.8820474853212
 10
113.0542534439587
 20
162.8217583143293
 10
113.0542534439587
 20
162.8217583143293
 10
113.0542534439587
 20
162.8217583143293
 10
112.6532443294756
 20
162.2205891521532
 10
112.6532443294756
 20
162.2205891521532
 10
112.6532443294756
 20
162.2205891521532
 10
112.8537488867171
 20
158.9935682111197
 10
112.8537488867171
 20
158.9935682111197
 10
112.8537488867171
 20
158.9935682111197
 10
118.5863877741728
 20
158.8530083153215
 10
118.5863877741728
 20
158.8530083153215
 10
118.5863877741728
 20
158.8530083153215
 10
119.3281168321471
 20
158.4523437103869
 10
119.3077907687842
 20
157.9913899344605
 10
119.2878092149697
 20
157.5304361585341
 10
118.967070825293
 20
156.3677164322623
 10
118.967070825293
 20
156.3677164322623
 10
118.967070825293
 20
156.3677164322623
 10
119.2478461073408
 20
153.5013969885344
 10
119.2478461073408
 20
153.5013969885344
 10
119.2478461073408
 20
153.5013969885344
 10
119.2878092149697
 20
141.6151285453254
 10
119.2878092149697
 20
141.6151285453254
 10
119.2878092149697
 20
141.6151285453254
 10
118.8068738852288
 20
140.9536702121574
 10
118.8068738852288
 20
140.9536702121574
 10
118.8068738852288
 20
140.9536702121574
 10
110.528653943722
 20
140.9736517659719
 10
110.528653943722
 20
140.9736517659719
 10
110.528653943722
 20
140.9736517659719
 10
110.4284016651012
 20
139.6507350996359
 10
110.4284016651012
 20
139.6507350996359
 10
110.4284016651012
 20
139.6507350996359
 10
110.8893554410277
 20
138.3078368794855
 10
110.8893554410277
 20
138.3078368794855
 10
110.8893554410277
 20
138.3078368794855
 10
110.6888508837861
 20
127.1632974942508
 10
110.6888508837861
 20
127.1632974942508
 10
110.6888508837861
 20
127.1632974942508
 10
110.2881862788516
 20
124.9184732760621
 10
110.2881862788516
 20
124.9184732760621
 10
110.2881862788516
 20
124.9184732760621
 10
110.8493923333988
 20
124.3772487753293
 10
110.8090847162213
 20
124.0565103856525
 10
110.7691216085924
 20
123.7357719959758
 10
110.9093369948421
 20
123.1745659414286
 10
110.2478786616742
 20
123.1346028337997
 10
109.5864203285062
 20
123.0942952166223
 10
84.6515082253649
 20
122.8138644441229
 10
84.6515082253649
 20
122.8138644441229
 10
84.6515082253649
 20
122.8138644441229
 10
83.78954533495539
 20
122.9540798303726
 10
83.76956378114095
 20
123.4753227772909
 10
83.7495822273265
 20
123.9962212146607
 10
84.03001299982583
 20
124.5777533325709
 10
84.03001299982583
 20
124.5777533325709
 10
84.03001299982583
 20
124.5777533325709
 10
83.66931150252017
 20
126.7423068259533
 10
83.66931150252017
 20
126.7423068259533
 10
83.66931150252017
 20
126.7423068259533
 10
83.62934839489128
 20
138.2678737718566
 10
83.64932994870573
 20
138.348144496663
 10
83.66931150252017
 20
138.4280707119208
 10
84.01003144601138
 20
139.5105197133863
 10
84.01003144601138
 20
139.5105197133863
 10
84.01003144601138
 20
139.5105197133863
 10
84.1302652784466
 20
140.9736517659719
 10
84.07032061700326
 20
140.933688658343
 10
84.01003144601138
 20
140.8937255507141
 10
75.79210067549643
 20
140.9736517659719
 10
75.79210067549643
 20
140.9736517659719
 10
75.79210067549643
 20
140.9736517659719
 10
75.1905870037718
 20
141.5551838838821
 10
75.1905870037718
 20
141.5551838838821
 10
75.1905870037718
 20
141.5551838838821
 10
75.05037161752213
 20
153.2609293236639
 10
75.05037161752213
 20
153.2609293236639
 10
75.05037161752213
 20
153.2609293236639
 10
75.69184839687566
 20
156.5482394356893
 10
75.69184839687566
 20
156.5482394356893
 72
     1
 10
75.69184839687566
 20
156.5482394356893
 11
75.67186684306121
 21
156.6181748740399
 97
        0
 75
     0
 76
     1
 98
        0
  0
POLYLINE
  5
40
330
1F
100
AcDbEntity
  8
GRAU_10_
100
AcDb2dPolyline
 66
     1
 10
0.0
 20
0.0
 30
0.0
  0
VERTEX
  5
41
330
40
100
AcDbEntity
  8
GRAU_10_
100
AcDbVertex
100
AcDb2dVertex
 10
112.7534966080964
 20
159.1737467049983
 30
0.0
  0
VERTEX
  5
637
330
40
100
AcDbEntity
  8
0
100
AcDbVertex
100
AcDb2dVertex
 10
112.7534966080964
 20
159.1737467049983
 30
0.0
  0
SEQEND
  5
42
330
40
100
AcDbEntity
  8
GRAU_10_
  0
SPLINE
  5
43
330
1F
100
AcDbEntity
  8
GRAU_10_
100
AcDbSpline
210
0.0
220
0.0
230
1.0
 70
    11
 71
     3
 72
   119
 73
   115
 74
     0
 42
0.0000000001
 43
0.0000000001
 40
0.0
 40
0.0
 40
0.0
 40
0.0
 40
1.0
 40
1.0
 40
1.0
 40
2.0
 40
2.0
 40
2.0
 40
3.0
 40
3.0
 40
3.0
 40
4.0
 40
4.0
 40
4.0
 40
5.0
 40
5.0
 40
5.0
 40
6.0
 40
6.0
 40
6.0
 40
7.0
 40
7.0
 40
7.0
 40
8.0
 40
8.0
 40
8.0
 40
9.0
 40
9.0
 40
9.0
 40
10.0
 40
10.0
 40
10.0
 40
11.0
 40
11.0
 40
11.0
 40
12.0
 40
12.0
 40
12.0
 40
13.0
 40
13.0
 40
13.0
 40
14.0
 40
14.0
 40
14.0
 40
15.0
 40
15.0
 40
15.0
 40
16.0
 40
16.0
 40
16.0
 40
17.0
 40
17.0
 40
17.0
 40
18.0
 40
18.0
 40
18.0
 40
19.0
 40
19.0
 40
19.0
 40
20.0
 40
20.0
 40
20.0
 40
21.0
 40
21.0
 40
21.0
 40
22.0
 40
22.0
 40
22.0
 40
23.0
 40
23.0
 40
23.0
 40
24.0
 40
24.0
 40
24.0
 40
25.0
 40
25.0
 40
25.0
 40
26.0
 40
26.0
 40
26.0
 40
27.0
 40
27.0
 40
27.0
 40
28.0
 40
28.0
 40
28.0
 40
29.0
 40
29.0
 40
29.0
 40
30.0
 40
30.0
 40
30.0
 40
31.0
 40
31.0
 40
31.0
 40
32.0
 40
32.0
 40
32.0
 40
33.0
 40
33.0
 40
33.0
 40
34.0
 40
34.0
 40
34.0
 40
35.0
 40
35.0
 40
35.0
 40
36.0
 40
36.0
 40
36.0
 40
37.0
 40
37.0
 40
37.0
 40
38.0
 40
38.0
 40
38.0
 40
38.0
 10
174.5908935110398
 20
197.9348605190927
 30
0.0
 10
174.5908935110398
 20
197.9348605190927
 30
0.0
 10
173.6651963541532
 20
198.2569769469635
 30
0.0
 10
173.5842366102498
 20
198.780286951173
 30
0.0
 10
173.5036213758949
 20
199.3035969553824
 30
0.0
 10
173.4233506510886
 20
217.5019693466662
 30
0.0
 10
173.4233506510886
 20
217.5019693466662
 30
0.0
 10
173.4233506510886
 20
217.5019693466662
 30
0.0
 10
170.3234537334608
 20
217.5419324542951
 30
0.0
 10
170.3234537334608
 20
217.5419324542951
 30
0.0
 10
170.3234537334608
 20
217.5419324542951
 30
0.0
 10
169.4377196842031
 20
217.3004312607791
 30
0.0
 10
169.4377196842031
 20
217.3004312607791
 30
0.0
 10
169.4377196842031
 20
217.3004312607791
 30
0.0
 10
169.4377196842031
 20
215.7301567386022
 30
0.0
 10
169.4377196842031
 20
215.7301567386022
 30
0.0
 10
169.4377196842031
 20
215.7301567386022
 30
0.0
 10
164.8884710959307
 20
215.6898491214248
 30
0.0
 10
164.8884710959307
 20
215.6898491214248
 30
0.0
 10
164.8884710959307
 20
215.6898491214248
 30
0.0
 10
164.3648165821727
 20
215.6898491214248
 30
0.0
 10
164.3648165821727
 20
216.052273166473
 30
0.0
 10
164.3648165821727
 20
216.4146972115213
 30
0.0
 10
164.3648165821727
 20
223.3393391368735
 30
0.0
 10
164.3648165821727
 20
223.3393391368735
 30
0.0
 10
164.3648165821727
 20
223.3393391368735
 30
0.0
 10
164.4047796898016
 20
224.104150334599
 30
0.0
 10
164.7268961176725
 20
224.1444579517764
 30
0.0
 10
165.0493570550918
 20
224.1851100785023
 30
0.0
 10
169.3970675574771
 20
224.2653808033087
 30
0.0
 10
169.3970675574771
 20
224.2653808033087
 30
0.0
 10
169.3970675574771
 20
224.2653808033087
 30
0.0
 10
169.4377196842031
 20
222.7760660250352
 30
0.0
 10
169.4377196842031
 20
222.7760660250352
 30
0.0
 10
169.4377196842031
 20
222.7760660250352
 30
0.0
 10
169.8404513464288
 20
222.5745279391481
 30
0.0
 10
169.8404513464288
 20
222.5745279391481
 30
0.0
 10
169.8404513464288
 20
222.5745279391481
 30
0.0
 10
173.2218125652015
 20
222.4939127047932
 30
0.0
 10
173.2218125652015
 20
222.4939127047932
 30
0.0
 10
173.2218125652015
 20
222.4939127047932
 30
0.0
 10
173.4640027778146
 20
241.2149060811893
 30
0.0
 10
173.4640027778146
 20
241.2149060811893
 30
0.0
 10
173.4640027778146
 20
241.2149060811893
 30
0.0
 10
174.1085801431048
 20
242.0603325132697
 30
0.0
 10
174.4706596786046
 20
242.0203694056408
 30
0.0
 10
174.8327392141043
 20
241.9797172789148
 30
0.0
 10
175.4373534717657
 20
241.657600851044
 30
0.0
 10
175.4373534717657
 20
241.657600851044
 30
0.0
 10
175.4373534717657
 20
241.657600851044
 30
0.0
 10
178.9399820516192
 20
241.8994465541085
 30
0.0
 10
178.9399820516192
 20
241.8994465541085
 30
0.0
 10
178.9399820516192
 20
241.8994465541085
 30
0.0
 10
190.8166042274695
 20
241.9394096617374
 30
0.0
 10
190.8166042274695
 20
241.9394096617374
 30
0.0
 10
190.8166042274695
 20
241.9394096617374
 30
0.0
 10
191.540763298469
 20
241.5370225090602
 30
0.0
 10
191.540763298469
 20
241.5370225090602
 30
0.0
 10
191.540763298469
 20
241.5370225090602
 30
0.0
 10
191.4205294660338
 20
233.1223767863375
 30
0.0
 10
191.4205294660338
 20
233.1223767863375
 30
0.0
 10
191.4205294660338
 20
233.1223767863375
 30
0.0
 10
192.6283799431624
 20
233.1223767863375
 30
0.0
 10
192.6283799431624
 20
233.1223767863375
 30
0.0
 10
192.6283799431624
 20
233.1223767863375
 30
0.0
 10
193.7552706763876
 20
233.4848008313858
 30
0.0
 10
193.7552706763876
 20
233.4848008313858
 30
0.0
 10
193.7552706763876
 20
233.4848008313858
 30
0.0
 10
205.6718559598668
 20
233.4848008313858
 30
0.0
 10
205.6718559598668
 20
233.4848008313858
 30
0.0
 10
205.6718559598668
 20
233.4848008313858
 30
0.0
 10
207.4433240583822
 20
233.1223767863375
 30
0.0
 10
207.4433240583822
 20
233.1223767863375
 30
0.0
 10
207.4433240583822
 20
233.1223767863375
 30
0.0
 10
208.2081352561077
 20
233.7263020249018
 30
0.0
 10
208.5709038107045
 20
233.5654160657406
 30
0.0
 10
208.9329833462043
 20
233.4041855970309
 30
0.0
 10
209.4163302427848
 20
232.9211832099989
 30
0.0
 10
209.4163302427848
 20
232.9211832099989
 30
0.0
 10
209.4163302427848
 20
232.9211832099989
 30
0.0
 10
209.4566378599622
 20
207.3155110158795
 30
0.0
 10
209.4566378599622
 20
207.3155110158795
 30
0.0
 10
209.4566378599622
 20
207.3155110158795
 30
0.0
 10
208.9336723653013
 20
206.4704290933477
 30
0.0
 10
208.6515190450594
 20
206.4704290933477
 30
0.0
 10
208.3697102343659
 20
206.4704290933477
 30
0.0
 10
207.4839761851082
 20
206.8325086288474
 30
0.0
 10
207.4839761851082
 20
206.8325086288474
 30
0.0
 10
207.4839761851082
 20
206.8325086288474
 30
0.0
 10
205.4306992758993
 20
206.5910074353314
 30
0.0
 10
205.4306992758993
 20
206.5910074353314
 30
0.0
 10
205.4306992758993
 20
206.5910074353314
 30
0.0
 10
193.9967718699036
 20
206.3894693494443
 30
0.0
 10
193.9967718699036
 20
206.3894693494443
 30
0.0
 10
193.9967718699036
 20
206.3894693494443
 30
0.0
 10
192.8292290099524
 20
206.79220101167
 30
0.0
 10
192.8292290099524
 20
206.79220101167
 30
0.0
 10
192.8292290099524
 20
206.79220101167
 30
0.0
 10
191.4608370832112
 20
206.79220101167
 30
0.0
 10
191.4608370832112
 20
206.79220101167
 30
0.0
 10
191.4608370832112
 20
206.79220101167
 30
0.0
 10
191.540763298469
 20
198.4988226500281
 30
0.0
 10
191.540763298469
 20
198.4988226500281
 30
0.0
 10
191.540763298469
 20
198.4988226500281
 30
0.0
 10
190.8562228255498
 20
198.055783370625
 30
0.0
 10
190.8562228255498
 20
198.055783370625
 30
0.0
 10
190.8562228255498
 20
198.055783370625
 30
0.0
 10
179.2211018432156
 20
198.0154757534475
 30
0.0
 10
179.2211018432156
 20
198.0154757534475
 30
0.0
 10
179.2211018432156
 20
198.0154757534475
 30
0.0
 10
175.717784244265
 20
198.4182074156732
 30
0.0
 10
175.717784244265
 20
198.4182074156732
 30
0.0
 10
175.717784244265
 20
198.4182074156732
 30
0.0
 10
175.3963568354912
 20
198.0154757534475
 30
0.0
 10
174.5908935110398
 20
197.9348605190927
 30
0.0
  0
HATCH
  5
44
330
1F
100
AcDbEntity
  8
GRAU_10_
 62
   255
100
AcDbHatch
 10
0.0
 20
0.0
 30
0.0
210
0.0
220
0.0
230
1.0
  2
SOLID
 70
     1
 71
     0
 91
        1
 92
        1
 93
        1
 72
     4
 94
        3
 73
     0
 74
     1
 95
      119
 96
      115
 40
0.0
 40
0.0
 40
0.0
 40
0.0
 40
1.0
 40
1.0
 40
1.0
 40
2.0
 40
2.0
 40
2.0
 40
3.0
 40
3.0
 40
3.0
 40
4.0
 40
4.0
 40
4.0
 40
5.0
 40
5.0
 40
5.0
 40
6.0
 40
6.0
 40
6.0
 40
7.0
 40
7.0
 40
7.0
 40
8.0
 40
8.0
 40
8.0
 40
9.0
 40
9.0
 40
9.0
 40
10.0
 40
10.0
 40
10.0
 40
11.0
 40
11.0
 40
11.0
 40
12.0
 40
12.0
 40
12.0
 40
13.0
 40
13.0
 40
13.0
 40
14.0
 40
14.0
 40
14.0
 40
15.0
 40
15.0
 40
15.0
 40
16.0
 40
16.0
 40
16.0
 40
17.0
 40
17.0
 40
17.0
 40
18.0
 40
18.0
 40
18.0
 40
19.0
 40
19.0
 40
19.0
 40
20.0
 40
20.0
 40
20.0
 40
21.0
 40
21.0
 40
21.0
 40
22.0
 40
22.0
 40
22.0
 40
23.0
 40
23.0
 40
23.0
 40
24.0
 40
24.0
 40
24.0
 40
25.0
 40
25.0
 40
25.0
 40
26.0
 40
26.0
 40
26.0
 40
27.0
 40
27.0
 40
27.0
 40
28.0
 40
28.0
 40
28.0
 40
29.0
 40
29.0
 40
29.0
 40
30.0
 40
30.0
 40
30.0
 40
31.0
 40
31.0
 40
31.0
 40
32.0
 40
32.0
 40
32.0
 40
33.0
 40
33.0
 40
33.0
 40
34.0
 40
34.0
 40
34.0
 40
35.0
 40
35.0
 40
35.0
 40
36.0
 40
36.0
 40
36.0
 40
37.0
 40
37.0
 40
37.0
 40
38.0
 40
38.0
 40
38.0
 40
38.0
 10
174.5908935110398
 20
197.9348605190927
 10
174.5908935110398
 20
197.9348605190927
 10
173.6651963541532
 20
198.2569769469635
 10
173.5842366102498
 20
198.780286951173
 10
173.5036213758949
 20
199.3035969553824
 10
173.4233506510886
 20
217.5019693466662
 10
173.4233506510886
 20
217.5019693466662
 10
173.4233506510886
 20
217.5019693466662
 10
170.3234537334608
 20
217.5419324542951
 10
170.3234537334608
 20
217.5419324542951
 10
170.3234537334608
 20
217.5419324542951
 10
169.4377196842031
 20
217.3004312607791
 10
169.4377196842031
 20
217.3004312607791
 10
169.4377196842031
 20
217.3004312607791
 10
169.4377196842031
 20
215.7301567386022
 10
169.4377196842031
 20
215.7301567386022
 10
169.4377196842031
 20
215.7301567386022
 10
164.8884710959307
 20
215.6898491214248
 10
164.8884710959307
 20
215.6898491214248
 10
164.8884710959307
 20
215.6898491214248
 10
164.3648165821727
 20
215.6898491214248
 10
164.3648165821727
 20
216.052273166473
 10
164.3648165821727
 20
216.4146972115213
 10
164.3648165821727
 20
223.3393391368735
 10
164.3648165821727
 20
223.3393391368735
 10
164.3648165821727
 20
223.3393391368735
 10
164.4047796898016
 20
224.104150334599
 10
164.7268961176725
 20
224.1444579517764
 10
165.0493570550918
 20
224.1851100785023
 10
169.3970675574771
 20
224.2653808033087
 10
169.3970675574771
 20
224.2653808033087
 10
169.3970675574771
 20
224.2653808033087
 10
169.4377196842031
 20
222.7760660250352
 10
169.4377196842031
 20
222.7760660250352
 10
169.4377196842031
 20
222.7760660250352
 10
169.8404513464288
 20
222.5745279391481
 10
169.8404513464288
 20
222.5745279391481
 10
169.8404513464288
 20
222.5745279391481
 10
173.2218125652015
 20
222.4939127047932
 10
173.2218125652015
 20
222.4939127047932
 10
173.2218125652015
 20
222.4939127047932
 10
173.4640027778146
 20
241.2149060811893
 10
173.4640027778146
 20
241.2149060811893
 10
173.4640027778146
 20
241.2149060811893
 10
174.1085801431048
 20
242.0603325132697
 10
174.4706596786046
 20
242.0203694056408
 10
174.8327392141043
 20
241.9797172789148
 10
175.4373534717657
 20
241.657600851044
 10
175.4373534717657
 20
241.657600851044
 10
175.4373534717657
 20
241.657600851044
 10
178.9399820516192
 20
241.8994465541085
 10
178.9399820516192
 20
241.8994465541085
 10
178.9399820516192
 20
241.8994465541085
 10
190.8166042274695
 20
241.9394096617374
 10
190.8166042274695
 20
241.9394096617374
 10
190.8166042274695
 20
241.9394096617374
 10
191.540763298469
 20
241.5370225090602
 10
191.540763298469
 20
241.5370225090602
 10
191.540763298469
 20
241.5370225090602
 10
191.4205294660338
 20
233.1223767863375
 10
191.4205294660338
 20
233.1223767863375
 10
191.4205294660338
 20
233.1223767863375
 10
192.6283799431624
 20
233.1223767863375
 10
192.6283799431624
 20
233.1223767863375
 10
192.6283799431624
 20
233.1223767863375
 10
193.7552706763876
 20
233.4848008313858
 10
193.7552706763876
 20
233.4848008313858
 10
193.7552706763876
 20
233.4848008313858
 10
205.6718559598668
 20
233.4848008313858
 10
205.6718559598668
 20
233.4848008313858
 10
205.6718559598668
 20
233.4848008313858
 10
207.4433240583822
 20
233.1223767863375
 10
207.4433240583822
 20
233.1223767863375
 10
207.4433240583822
 20
233.1223767863375
 10
208.2081352561077
 20
233.7263020249018
 10
208.5709038107045
 20
233.5654160657406
 10
208.9329833462043
 20
233.4041855970309
 10
209.4163302427848
 20
232.9211832099989
 10
209.4163302427848
 20
232.9211832099989
 10
209.4163302427848
 20
232.9211832099989
 10
209.4566378599622
 20
207.3155110158795
 10
209.4566378599622
 20
207.3155110158795
 10
209.4566378599622
 20
207.3155110158795
 10
208.9336723653013
 20
206.4704290933477
 10
208.6515190450594
 20
206.4704290933477
 10
208.3697102343659
 20
206.4704290933477
 10
207.4839761851082
 20
206.8325086288474
 10
207.4839761851082
 20
206.8325086288474
 10
207.4839761851082
 20
206.8325086288474
 10
205.4306992758993
 20
206.5910074353314
 10
205.4306992758993
 20
206.5910074353314
 10
205.4306992758993
 20
206.5910074353314
 10
193.9967718699036
 20
206.3894693494443
 10
193.9967718699036
 20
206.3894693494443
 10
193.9967718699036
 20
206.3894693494443
 10
192.8292290099524
 20
206.79220101167
 10
192.8292290099524
 20
206.79220101167
 10
192.8292290099524
 20
206.79220101167
 10
191.4608370832112
 20
206.79220101167
 10
191.4608370832112
 20
206.79220101167
 10
191.4608370832112
 20
206.79220101167
 10
191.540763298469
 20
198.4988226500281
 10
191.540763298469
 20
198.4988226500281
 10
191.540763298469
 20
198.4988226500281
 10
190.8562228255498
 20
198.055783370625
 10
190.8562228255498
 20
198.055783370625
 10
190.8562228255498
 20
198.055783370625
 10
179.2211018432156
 20
198.0154757534475
 10
179.2211018432156
 20
198.0154757534475
 10
179.2211018432156
 20
198.0154757534475
 10
175.717784244265
 20
198.4182074156732
 10
175.717784244265
 20
198.4182074156732
 10
175.717784244265
 20
198.4182074156732
 10
175.3963568354912
 20
198.0154757534475
 10
174.5908935110398
 20
197.9348605190927
 97
        0
 75
     0
 76
     1
 98
        0
  0
POLYLINE
  5
46
330
1F
100
AcDbEntity
  8
STANDARDEBENE
 62
     7
100
AcDb2dPolyline
 66
     1
 10
0.0
 20
0.0
 30
0.0
  0
VERTEX
  5
47
330
46
100
AcDbEntity
  8
STANDARDEBENE
 62
     7
100
AcDbVertex
100
AcDb2dVertex
 10
170.0009927960414
 20
217.4947346461472
 30
0.0
  0
VERTEX
  5
48
330
46
100
AcDbEntity
  8
STANDARDEBENE
 62
     7
100
AcDbVertex
100
AcDb2dVertex
 10
170.0009927960414
 20
219.9979410257297
 30
0.0
  0
VERTEX
  5
49
330
46
100
AcDbEntity
  8
STANDARDEBENE
 62
     7
100
AcDbVertex
100
AcDb2dVertex
 10
170.0009927960414
 20
222.5011474053122
 30
0.0
  0
SEQEND
  5
4A
330
46
100
AcDbEntity
  8
STANDARDEBENE
  0
POLYLINE
  5
4B
330
1F
100
AcDbEntity
  8
STANDARDEBENE
 62
     7
100
AcDb2dPolyline
 66
     1
 10
0.0
 20
0.0
 30
0.0
  0
VERTEX
  5
4C
330
4B
100
AcDbEntity
  8
STANDARDEBENE
 62
     7
100
AcDbVertex
100
AcDb2dVertex
 10
192.8182047043996
 20
233.2033365302408
 30
0.0
  0
VERTEX
  5
4D
330
4B
100
AcDbEntity
  8
STANDARDEBENE
 62
     7
100
AcDbVertex
100
AcDb2dVertex
 10
192.8182047043996
 20
206.7925455212185
 30
0.0
  0
SEQEND
  5
4E
330
4B
100
AcDbEntity
  8
STANDARDEBENE
  0
POLYLINE
  5
4F
330
1F
100
AcDbEntity
  8
STANDARDEBENE
 62
     7
100
AcDb2dPolyline
 66
     1
 10
0.0
 20
0.0
 30
0.0
  0
VERTEX
  5
50
330
4F
100
AcDbEntity
  8
STANDARDEBENE
 62
     7
100
AcDbVertex
100
AcDb2dVertex
 10
110.4704318300213
 20
139.5449706682388
 30
0.0
  0
VERTEX
  5
51
330
4F
100
AcDbEntity
  8
STANDARDEBENE
 62
     7
100
AcDbVertex
100
AcDb2dVertex
 10
97.26572534460719
 20
139.5449706682388
 30
0.0
  0
SEQEND
  5
52
330
4F
100
AcDbEntity
  8
STANDARDEBENE
  0
POLYLINE
  5
53
330
1F
100
AcDbEntity
  8
STANDARDEBENE
 62
     7
100
AcDb2dPolyline
 66
     1
 10
0.0
 20
0.0
 30
0.0
  0
VERTEX
  5
54
330
53
100
AcDbEntity
  8
STANDARDEBENE
 62
     7
100
AcDbVertex
100
AcDb2dVertex
 10
107.7618977595179
 20
162.3618380670484
 30
0.0
  0
VERTEX
  5
55
330
53
100
AcDbEntity
  8
STANDARDEBENE
 62
     7
100
AcDbVertex
100
AcDb2dVertex
 10
112.7686550282314
 20
162.3618380670484
 30
0.0
  0
SEQEND
  5
56
330
53
100
AcDbEntity
  8
STANDARDEBENE
  0
POLYLINE
  5
57
330
1F
100
AcDbEntity
  8
STANDARDEBENE
 62
     7
100
AcDb2dPolyline
 66
     1
 10
0.0
 20
0.0
 30
0.0
  0
VERTEX
  5
58
330
57
100
AcDbEntity
  8
STANDARDEBENE
 62
     7
100
AcDbVertex
100
AcDb2dVertex
 10
97.26572534460719
 20
139.5449706682388
 30
0.0
  0
VERTEX
  5
59
330
57
100
AcDbEntity
  8
STANDARDEBENE
 62
     7
100
AcDbVertex
100
AcDb2dVertex
 10
84.05964082099898
 20
139.5449706682388
 30
0.0
  0
SEQEND
  5
5A
330
57
100
AcDbEntity
  8
STANDARDEBENE
  0
INSERT
  5
5C
330
1F
100
AcDbEntity
  8
STANDARDEBENE
100
AcDbBlockReference
  2
BLOCK_2
 10
0.0
 20
0.0
 30
0.0
  0
POLYLINE
  5
5F
330
1F
100
AcDbEntity
  8
STANDARDEBENE
  6
AI-LINETYPE-1
 62
   250
100
AcDb2dPolyline
 66
     1
 10
0.0
 20
0.0
 30
0.0
  0
VERTEX
  5
60
330
5F
100
AcDbEntity
  8
STANDARDEBENE
  6
AI-LINETYPE-1
 62
   250
100
AcDbVertex
100
AcDb2dVertex
 10
97.26572534460719
 20
243.9299858331147
 30
0.0
  0
VERTEX
  5
61
330
5F
100
AcDbEntity
  8
STANDARDEBENE
  6
AI-LINETYPE-1
 62
   250
100
AcDbVertex
100
AcDb2dVertex
 10
97.26572534460719
 20
196.0373019258171
 30
0.0
  0
SEQEND
  5
62
330
5F
100
AcDbEntity
  8
STANDARDEBENE
  6
AI-LINETYPE-1
  0
POLYLINE
  5
64
330
1F
100
AcDbEntity
  8
STANDARDEBENE
  6
AI-LINETYPE-2
 62
   250
100
AcDb2dPolyline
 66
     1
 10
0.0
 20
0.0
 30
0.0
  0
VERTEX
  5
65
330
64
100
AcDbEntity
  8
STANDARDEBENE
  6
AI-LINETYPE-2
 62
   250
100
AcDbVertex
100
AcDb2dVertex
 10
73.26719019435681
 20
219.9979410257297
 30
0.0
  0
VERTEX
  5
66
330
64
100
AcDbEntity
  8
STANDARDEBENE
  6
AI-LINETYPE-2
 62
   250
100
AcDbVertex
100
AcDb2dVertex
 10
121.3341959332081
 20
219.9979410257297
 30
0.0
  0
SEQEND
  5
67
330
64
100
AcDbEntity
  8
STANDARDEBENE
  6
AI-LINETYPE-2
  0
POLYLINE
  5
69
330
1F
100
AcDbEntity
  8
STANDARDEBENE
  6
AI-LINETYPE-3
 62
   250
100
AcDb2dPolyline
 66
     1
 10
0.0
 20
0.0
 30
0.0
  0
VERTEX
  5
6A
330
69
100
AcDbEntity
  8
STANDARDEBENE
  6
AI-LINETYPE-3
 62
   250
100
AcDbVertex
100
AcDb2dVertex
 10
162.0752061226756
 20
219.9979410257297
 30
0.0
  0
VERTEX
  5
6B
330
69
100
AcDbEntity
  8
STANDARDEBENE
  6
AI-LINETYPE-3
 62
   250
100
AcDbVertex
100
AcDb2dVertex
 10
212.3460394434413
 20
219.9979410257297
 30
0.0
  0
SEQEND
  5
6C
330
69
100
AcDbEntity
  8
STANDARDEBENE
  6
AI-LINETYPE-3
  0
POLYLINE
  5
6E
330
1F
100
AcDbEntity
  8
STANDARDEBENE
  6
AI-LINETYPE-4
 62
   250
100
AcDb2dPolyline
 66
     1
 10
0.0
 20
0.0
 30
0.0
  0
VERTEX
  5
6F
330
6E
100
AcDbEntity
  8
STANDARDEBENE
  6
AI-LINETYPE-4
 62
   250
100
AcDbVertex
100
AcDb2dVertex
 10
97.26572534460719
 20
161.0034369172144
 30
0.0
  0
VERTEX
  5
70
330
6E
100
AcDbEntity
  8
STANDARDEBENE
  6
AI-LINETYPE-4
 62
   250
100
AcDbVertex
100
AcDb2dVertex
 10
97.26572534460719
 20
138.4256591450811
 30
0.0
  0
VERTEX
  5
71
330
6E
100
AcDbEntity
  8
STANDARDEBENE
  6
AI-LINETYPE-4
 62
   250
100
AcDbVertex
100
AcDb2dVertex
 10
97.26572534460719
 20
120.2579481036161
 30
0.0
  0
SEQEND
  5
72
330
6E
100
AcDbEntity
  8
STANDARDEBENE
  6
AI-LINETYPE-4
  0
SPLINE
  5
74
330
1F
100
AcDbEntity
  8
STANDARDEBENE
 62
     7
100
AcDbSpline
210
0.0
220
0.0
230
1.0
 70
    11
 71
     3
 72
    17
 73
    13
 74
     0
 42
0.0000000001
 43
0.0000000001
 40
0.0
 40
0.0
 40
0.0
 40
0.0
 40
1.0
 40
1.0
 40
1.0
 40
2.0
 40
2.0
 40
2.0
 40
3.0
 40
3.0
 40
3.0
 40
4.0
 40
4.0
 40
4.0
 40
4.0
 10
110.7653320035587
 20
219.9979410257297
 30
0.0
 10
110.7653320035587
 20
227.4538166749074
 30
0.0
 10
104.7209119746878
 20
233.4982367037782
 30
0.0
 10
97.26572534460719
 20
233.4982367037782
 30
0.0
 10
89.80916067633244
 20
233.4982367037782
 30
0.0
 10
83.76508515701012
 20
227.4538166749074
 30
0.0
 10
83.76508515701012
 20
219.9979410257297
 30
0.0
 10
83.76508515701012
 20
212.5424098861005
 30
0.0
 10
89.80916067633244
 20
206.4983343667782
 30
0.0
 10
97.26572534460719
 20
206.4983343667782
 30
0.0
 10
104.7209119746878
 20
206.4983343667782
 30
0.0
 10
110.7653320035587
 20
212.5424098861005
 30
0.0
 10
110.7653320035587
 20
219.9979410257297
 30
0.0
  0
SPLINE
  5
75
330
1F
100
AcDbEntity
  8
STANDARDEBENE
 62
     7
100
AcDbSpline
210
0.0
220
0.0
230
1.0
 70
     8
 71
     3
 72
    11
 73
     7
 74
     0
 42
0.0000000001
 43
0.0000000001
 40
0.0
 40
0.0
 40
0.0
 40
0.0
 40
1.0
 40
1.0
 40
1.0
 40
2.0
 40
2.0
 40
2.0
 40
2.0
 10
75.26534557580172
 20
219.9979410257297
 30
0.0
 10
75.26534557580172
 20
207.8484672874476
 30
0.0
 10
85.11521807767953
 20
197.9982502760213
 30
0.0
 10
97.26572534460719
 20
197.9982502760213
 30
0.0
 10
109.4148545733407
 20
197.9982502760213
 30
0.0
 10
119.2654160943156
 20
207.8484672874476
 30
0.0
 10
119.2654160943156
 20
219.9979410257297
 30
0.0
  0
SPLINE
  5
76
330
1F
100
AcDbEntity
  8
STANDARDEBENE
 62
     7
100
AcDbSpline
210
0.0
220
0.0
230
1.0
 70
     8
 71
     3
 72
    11
 73
     7
 74
     0
 42
0.0000000001
 43
0.0000000001
 40
0.0
 40
0.0
 40
0.0
 40
0.0
 40
1.0
 40
1.0
 40
1.0
 40
2.0
 40
2.0
 40
2.0
 40
2.0
 10
75.76522893071147
 20
219.9979410257297
 30
0.0
 10
75.76522893071147
 20
208.1244194358161
 30
0.0
 10
85.39117022604805
 20
198.498133630931
 30
0.0
 10
97.26572534460719
 20
198.498133630931
 30
0.0
 10
109.1385579154237
 20
198.498133630931
 30
0.0
 10
118.7648437203088
 20
208.1244194358161
 30
0.0
 10
118.7648437203088
 20
219.9979410257297
 30
0.0
  0
SPLINE
  5
77
330
1F
100
AcDbEntity
  8
STANDARDEBENE
 62
     7
100
AcDbSpline
210
0.0
220
0.0
230
1.0
 70
     8
 71
     3
 72
    11
 73
     7
 74
     0
 42
0.0000000001
 43
0.0000000001
 40
0.0
 40
0.0
 40
0.0
 40
0.0
 40
1.0
 40
1.0
 40
1.0
 40
2.0
 40
2.0
 40
2.0
 40
2.0
 10
97.26572534460719
 20
235.2635036304202
 30
0.0
 10
88.83454316355525
 20
235.2635036304202
 30
0.0
 10
82.00016273991663
 20
228.4284341876846
 30
0.0
 10
82.00016273991663
 20
219.9979410257297
 30
0.0
 10
82.00016273991663
 20
211.5681368828719
 30
0.0
 10
88.83454316355525
 20
204.7330674401362
 30
0.0
 10
97.26572534460719
 20
204.7330674401362
 30
0.0
  0
SPLINE
  5
78
330
1F
100
AcDbEntity
  8
STANDARDEBENE
 62
     7
100
AcDbSpline
210
0.0
220
0.0
230
1.0
 70
     8
 71
     3
 72
    11
 73
     7
 74
     0
 42
0.0000000001
 43
0.0000000001
 40
0.0
 40
0.0
 40
0.0
 40
0.0
 40
1.0
 40
1.0
 40
1.0
 40
2.0
 40
2.0
 40
2.0
 40
2.0
 10
119.2654160943156
 20
219.9979410257297
 30
0.0
 10
119.2654160943156
 20
232.1484482926573
 30
0.0
 10
109.4148545733407
 20
241.9983207945351
 30
0.0
 10
97.26572534460719
 20
241.9983207945351
 30
0.0
 10
85.11521807767953
 20
241.9983207945351
 30
0.0
 10
75.26534557580172
 20
232.1484482926573
 30
0.0
 10
75.26534557580172
 20
219.9979410257297
 30
0.0
  0
SPLINE
  5
79
330
1F
100
AcDbEntity
  8
STANDARDEBENE
 62
     7
100
AcDbSpline
210
0.0
220
0.0
230
1.0
 70
     8
 71
     3
 72
    11
 73
     7
 74
     0
 42
0.0000000001
 43
0.0000000001
 40
0.0
 40
0.0
 40
0.0
 40
0.0
 40
1.0
 40
1.0
 40
1.0
 40
2.0
 40
2.0
 40
2.0
 40
2.0
 10
118.7648437203088
 20
219.9979410257297
 30
0.0
 10
118.7648437203088
 20
231.8721516347403
 30
0.0
 10
109.1385579154237
 20
241.4984374396254
 30
0.0
 10
97.26572534460719
 20
241.4984374396254
 30
0.0
 10
85.39117022604805
 20
241.4984374396254
 30
0.0
 10
75.76522893071147
 20
231.8721516347403
 30
0.0
 10
75.76522893071147
 20
219.9979410257297
 30
0.0
  0
SPLINE
  5
7A
330
1F
100
AcDbEntity
  8
STANDARDEBENE
 62
     7
100
AcDbSpline
210
0.0
220
0.0
230
1.0
 70
     8
 71
     3
 72
     8
 73
     4
 74
     0
 42
0.0000000001
 43
0.0000000001
 40
0.0
 40
0.0
 40
0.0
 40
0.0
 40
1.0
 40
1.0
 40
1.0
 40
1.0
 10
112.5305989302007
 20
219.9979410257297
 30
0.0
 10
112.5305989302007
 20
228.4284341876846
 30
0.0
 10
105.695529487465
 20
235.2635036304202
 30
0.0
 10
97.26572534460719
 20
235.2635036304202
 30
0.0
  0
SPLINE
  5
7B
330
1F
100
AcDbEntity
  8
STANDARDEBENE
 62
     7
100
AcDbSpline
210
0.0
220
0.0
230
1.0
 70
     8
 71
     3
 72
     8
 73
     4
 74
     0
 42
0.0000000001
 43
0.0000000001
 40
0.0
 40
0.0
 40
0.0
 40
0.0
 40
1.0
 40
1.0
 40
1.0
 40
1.0
 10
97.26572534460719
 20
204.7330674401362
 30
0.0
 10
105.695529487465
 20
204.7330674401362
 30
0.0
 10
112.5305989302007
 20
211.5681368828719
 30
0.0
 10
112.5305989302007
 20
219.9979410257297
 30
0.0
  0
POLYLINE
  5
7C
330
1F
100
AcDbEntity
  8
STANDARDEBENE
 62
     7
100
AcDb2dPolyline
 66
     1
 10
0.0
 20
0.0
 30
0.0
  0
VERTEX
  5
7D
330
7C
100
AcDbEntity
  8
STANDARDEBENE
 62
     7
100
AcDbVertex
100
AcDb2dVertex
 10
178.9375704847795
 20
241.9983207945351
 30
0.0
  0
VERTEX
  5
7E
330
7C
100
AcDbEntity
  8
STANDARDEBENE
 62
     7
100
AcDbVertex
100
AcDb2dVertex
 10
175.7046928814211
 20
241.6011012850859
 30
0.0
  0
SEQEND
  5
7F
330
7C
100
AcDbEntity
  8
STANDARDEBENE
  0
POLYLINE
  5
80
330
1F
100
AcDbEntity
  8
STANDARDEBENE
 62
     7
100
AcDb2dPolyline
 66
     1
 10
0.0
 20
0.0
 30
0.0
  0
VERTEX
  5
81
330
80
100
AcDbEntity
  8
STANDARDEBENE
 62
     7
100
AcDbVertex
100
AcDb2dVertex
 10
190.9371825694532
 20
241.9983207945351
 30
0.0
  0
VERTEX
  5
82
330
80
100
AcDbEntity
  8
STANDARDEBENE
 62
     7
100
AcDbVertex
100
AcDb2dVertex
 10
178.9375704847795
 20
241.9983207945351
 30
0.0
  0
SEQEND
  5
83
330
80
100
AcDbEntity
  8
STANDARDEBENE
  0
POLYLINE
  5
84
330
1F
100
AcDbEntity
  8
STANDARDEBENE
 62
     7
100
AcDb2dPolyline
 66
     1
 10
0.0
 20
0.0
 30
0.0
  0
VERTEX
  5
85
330
84
100
AcDbEntity
  8
STANDARDEBENE
 62
     7
100
AcDbVertex
100
AcDb2dVertex
 10
191.4367214148144
 20
241.4984374396254
 30
0.0
  0
VERTEX
  5
86
330
84
100
AcDbEntity
  8
STANDARDEBENE
 62
     7
100
AcDbVertex
100
AcDb2dVertex
 10
190.9371825694532
 20
241.9983207945351
 30
0.0
  0
SEQEND
  5
87
330
84
100
AcDbEntity
  8
STANDARDEBENE
  0
POLYLINE
  5
88
330
1F
100
AcDbEntity
  8
STANDARDEBENE
 62
     7
100
AcDb2dPolyline
 66
     1
 10
0.0
 20
0.0
 30
0.0
  0
VERTEX
  5
89
330
88
100
AcDbEntity
  8
STANDARDEBENE
 62
     7
100
AcDbVertex
100
AcDb2dVertex
 10
178.9375704847795
 20
197.9982502760213
 30
0.0
  0
VERTEX
  5
8A
330
88
100
AcDbEntity
  8
STANDARDEBENE
 62
     7
100
AcDbVertex
100
AcDb2dVertex
 10
190.9371825694532
 20
197.9982502760213
 30
0.0
  0
VERTEX
  5
8B
330
88
100
AcDbEntity
  8
STANDARDEBENE
 62
     7
100
AcDbVertex
100
AcDb2dVertex
 10
191.4367214148144
 20
198.498133630931
 30
0.0
  0
SEQEND
  5
8C
330
88
100
AcDbEntity
  8
STANDARDEBENE
  0
POLYLINE
  5
8D
330
1F
100
AcDbEntity
  8
STANDARDEBENE
 62
     7
100
AcDb2dPolyline
 66
     1
 10
0.0
 20
0.0
 30
0.0
  0
VERTEX
  5
8E
330
8D
100
AcDbEntity
  8
STANDARDEBENE
 62
     7
100
AcDbVertex
100
AcDb2dVertex
 10
175.7046928814211
 20
198.3954697854706
 30
0.0
  0
VERTEX
  5
8F
330
8D
100
AcDbEntity
  8
STANDARDEBENE
 62
     7
100
AcDbVertex
100
AcDb2dVertex
 10
178.9375704847795
 20
197.9982502760213
 30
0.0
  0
SEQEND
  5
90
330
8D
100
AcDbEntity
  8
STANDARDEBENE
  0
POLYLINE
  5
91
330
1F
100
AcDbEntity
  8
STANDARDEBENE
 62
     7
100
AcDb2dPolyline
 66
     1
 10
0.0
 20
0.0
 30
0.0
  0
VERTEX
  5
92
330
91
100
AcDbEntity
  8
STANDARDEBENE
 62
     7
100
AcDbVertex
100
AcDb2dVertex
 10
175.7046928814211
 20
241.6011012850859
 30
0.0
  0
VERTEX
  5
93
330
91
100
AcDbEntity
  8
STANDARDEBENE
 62
     7
100
AcDbVertex
100
AcDb2dVertex
 10
175.1824164058572
 20
241.8677516756442
 30
0.0
  0
SEQEND
  5
94
330
91
100
AcDbEntity
  8
STANDARDEBENE
  0
POLYLINE
  5
95
330
1F
100
AcDbEntity
  8
STANDARDEBENE
 62
     7
100
AcDb2dPolyline
 66
     1
 10
0.0
 20
0.0
 30
0.0
  0
VERTEX
  5
96
330
95
100
AcDbEntity
  8
STANDARDEBENE
 62
     7
100
AcDbVertex
100
AcDb2dVertex
 10
175.1824164058572
 20
198.1291639044608
 30
0.0
  0
VERTEX
  5
97
330
95
100
AcDbEntity
  8
STANDARDEBENE
 62
     7
100
AcDbVertex
100
AcDb2dVertex
 10
175.7046928814211
 20
198.3954697854706
 30
0.0
  0
SEQEND
  5
98
330
95
100
AcDbEntity
  8
STANDARDEBENE
  0
POLYLINE
  5
99
330
1F
100
AcDbEntity
  8
STANDARDEBENE
 62
     7
100
AcDb2dPolyline
 66
     1
 10
0.0
 20
0.0
 30
0.0
  0
VERTEX
  5
9A
330
99
100
AcDbEntity
  8
STANDARDEBENE
 62
     7
100
AcDbVertex
100
AcDb2dVertex
 10
205.6370604954657
 20
233.4982367037782
 30
0.0
  0
VERTEX
  5
9B
330
99
100
AcDbEntity
  8
STANDARDEBENE
 62
     7
100
AcDbVertex
100
AcDb2dVertex
 10
193.9375162275573
 20
233.4982367037782
 30
0.0
  0
VERTEX
  5
9C
330
99
100
AcDbEntity
  8
STANDARDEBENE
 62
     7
100
AcDbVertex
100
AcDb2dVertex
 10
192.8939968050751
 20
233.2184949503759
 30
0.0
  0
SEQEND
  5
9D
330
99
100
AcDbEntity
  8
STANDARDEBENE
  0
POLYLINE
  5
9E
330
1F
100
AcDbEntity
  8
STANDARDEBENE
 62
     7
100
AcDb2dPolyline
 66
     1
 10
0.0
 20
0.0
 30
0.0
  0
VERTEX
  5
9F
330
9E
100
AcDbEntity
  8
STANDARDEBENE
 62
     7
100
AcDbVertex
100
AcDb2dVertex
 10
193.9375162275573
 20
206.4983343667782
 30
0.0
  0
VERTEX
  5
A0
330
9E
100
AcDbEntity
  8
STANDARDEBENE
 62
     7
100
AcDbVertex
100
AcDb2dVertex
 10
192.8939968050751
 20
206.7773871010834
 30
0.0
  0
SEQEND
  5
A1
330
9E
100
AcDbEntity
  8
STANDARDEBENE
  0
POLYLINE
  5
A2
330
1F
100
AcDbEntity
  8
STANDARDEBENE
 62
     7
100
AcDb2dPolyline
 66
     1
 10
0.0
 20
0.0
 30
0.0
  0
VERTEX
  5
A3
330
A2
100
AcDbEntity
  8
STANDARDEBENE
 62
     7
100
AcDbVertex
100
AcDb2dVertex
 10
205.6370604954657
 20
206.4983343667782
 30
0.0
  0
VERTEX
  5
A4
330
A2
100
AcDbEntity
  8
STANDARDEBENE
 62
     7
100
AcDbVertex
100
AcDb2dVertex
 10
207.6376274437503
 20
206.8979654430672
 30
0.0
  0
SEQEND
  5
A5
330
A2
100
AcDbEntity
  8
STANDARDEBENE
  0
POLYLINE
  5
A6
330
1F
100
AcDbEntity
  8
STANDARDEBENE
 62
     7
100
AcDb2dPolyline
 66
     1
 10
0.0
 20
0.0
 30
0.0
  0
VERTEX
  5
A7
330
A6
100
AcDbEntity
  8
STANDARDEBENE
 62
     7
100
AcDbVertex
100
AcDb2dVertex
 10
205.6370604954657
 20
233.4982367037782
 30
0.0
  0
VERTEX
  5
A8
330
A6
100
AcDbEntity
  8
STANDARDEBENE
 62
     7
100
AcDbVertex
100
AcDb2dVertex
 10
207.6376274437503
 20
233.0979166083922
 30
0.0
  0
SEQEND
  5
A9
330
A6
100
AcDbEntity
  8
STANDARDEBENE
  0
POLYLINE
  5
AA
330
1F
100
AcDbEntity
  8
STANDARDEBENE
 62
     7
100
AcDb2dPolyline
 66
     1
 10
0.0
 20
0.0
 30
0.0
  0
VERTEX
  5
AB
330
AA
100
AcDbEntity
  8
STANDARDEBENE
 62
     7
100
AcDbVertex
100
AcDb2dVertex
 10
193.9375162275573
 20
206.4983343667782
 30
0.0
  0
VERTEX
  5
AC
330
AA
100
AcDbEntity
  8
STANDARDEBENE
 62
     7
100
AcDbVertex
100
AcDb2dVertex
 10
205.6370604954657
 20
206.4983343667782
 30
0.0
  0
SEQEND
  5
AD
330
AA
100
AcDbEntity
  8
STANDARDEBENE
  0
POLYLINE
  5
AE
330
1F
100
AcDbEntity
  8
STANDARDEBENE
 62
     7
100
AcDb2dPolyline
 66
     1
 10
0.0
 20
0.0
 30
0.0
  0
VERTEX
  5
AF
330
AE
100
AcDbEntity
  8
STANDARDEBENE
 62
     7
100
AcDbVertex
100
AcDb2dVertex
 10
191.8377305292975
 20
206.7980576739949
 30
0.0
  0
VERTEX
  5
B0
330
AE
100
AcDbEntity
  8
STANDARDEBENE
 62
     7
100
AcDbVertex
100
AcDb2dVertex
 10
192.7386229986903
 20
206.7980576739949
 30
0.0
  0
SEQEND
  5
B1
330
AE
100
AcDbEntity
  8
STANDARDEBENE
  0
POLYLINE
  5
B2
330
1F
100
AcDbEntity
  8
STANDARDEBENE
 62
     7
100
AcDb2dPolyline
 66
     1
 10
0.0
 20
0.0
 30
0.0
  0
VERTEX
  5
B3
330
B2
100
AcDbEntity
  8
STANDARDEBENE
 62
     7
100
AcDbVertex
100
AcDb2dVertex
 10
191.8377305292975
 20
233.198168887013
 30
0.0
  0
VERTEX
  5
B4
330
B2
100
AcDbEntity
  8
STANDARDEBENE
 62
     7
100
AcDbVertex
100
AcDb2dVertex
 10
192.7386229986903
 20
233.198168887013
 30
0.0
  0
SEQEND
  5
B5
330
B2
100
AcDbEntity
  8
STANDARDEBENE
  0
POLYLINE
  5
B6
330
1F
100
AcDbEntity
  8
STANDARDEBENE
 62
     7
100
AcDb2dPolyline
 66
     1
 10
0.0
 20
0.0
 30
0.0
  0
VERTEX
  5
B7
330
B6
100
AcDbEntity
  8
STANDARDEBENE
 62
     7
100
AcDbVertex
100
AcDb2dVertex
 10
164.9373914518212
 20
215.7480712351255
 30
0.0
  0
VERTEX
  5
B8
330
B6
100
AcDbEntity
  8
STANDARDEBENE
 62
     7
100
AcDbVertex
100
AcDb2dVertex
 10
169.4377196842031
 20
215.7480712351255
 30
0.0
  0
SEQEND
  5
B9
330
B6
100
AcDbEntity
  8
STANDARDEBENE
  0
POLYLINE
  5
BA
330
1F
100
AcDbEntity
  8
STANDARDEBENE
 62
     7
100
AcDb2dPolyline
 66
     1
 10
0.0
 20
0.0
 30
0.0
  0
VERTEX
  5
BB
330
BA
100
AcDbEntity
  8
STANDARDEBENE
 62
     7
100
AcDbVertex
100
AcDb2dVertex
 10
169.4377196842031
 20
224.2481553258824
 30
0.0
  0
VERTEX
  5
BC
330
BA
100
AcDbEntity
  8
STANDARDEBENE
 62
     7
100
AcDbVertex
100
AcDb2dVertex
 10
164.9373914518212
 20
224.2481553258824
 30
0.0
  0
SEQEND
  5
BD
330
BA
100
AcDbEntity
  8
STANDARDEBENE
  0
POLYLINE
  5
BE
330
1F
100
AcDbEntity
  8
STANDARDEBENE
 62
     7
100
AcDb2dPolyline
 66
     1
 10
0.0
 20
0.0
 30
0.0
  0
VERTEX
  5
BF
330
BE
100
AcDbEntity
  8
STANDARDEBENE
 62
     7
100
AcDbVertex
100
AcDb2dVertex
 10
169.9668863507374
 20
222.5107936726709
 30
0.0
  0
VERTEX
  5
C0
330
BE
100
AcDbEntity
  8
STANDARDEBENE
 62
     7
100
AcDbVertex
100
AcDb2dVertex
 10
169.5669107648999
 20
222.6606553262793
 30
0.0
  0
SEQEND
  5
C1
330
BE
100
AcDbEntity
  8
STANDARDEBENE
  0
POLYLINE
  5
C2
330
1F
100
AcDbEntity
  8
STANDARDEBENE
 62
     7
100
AcDb2dPolyline
 66
     1
 10
0.0
 20
0.0
 30
0.0
  0
VERTEX
  5
C3
330
C2
100
AcDbEntity
  8
STANDARDEBENE
 62
     7
100
AcDbVertex
100
AcDb2dVertex
 10
169.5669107648999
 20
217.3352267251801
 30
0.0
  0
VERTEX
  5
C4
330
C2
100
AcDbEntity
  8
STANDARDEBENE
 62
     7
100
AcDbVertex
100
AcDb2dVertex
 10
169.9668863507374
 20
217.485432888337
 30
0.0
  0
SEQEND
  5
C5
330
C2
100
AcDbEntity
  8
STANDARDEBENE
  0
POLYLINE
  5
C6
330
1F
100
AcDbEntity
  8
STANDARDEBENE
 62
     7
100
AcDb2dPolyline
 66
     1
 10
0.0
 20
0.0
 30
0.0
  0
VERTEX
  5
C7
330
C6
100
AcDbEntity
  8
STANDARDEBENE
 62
     7
100
AcDbVertex
100
AcDb2dVertex
 10
170.0364772795395
 20
217.4981797416324
 30
0.0
  0
VERTEX
  5
C8
330
C6
100
AcDbEntity
  8
STANDARDEBENE
 62
     7
100
AcDbVertex
100
AcDb2dVertex
 10
173.4371310330296
 20
217.4981797416324
 30
0.0
  0
SEQEND
  5
C9
330
C6
100
AcDbEntity
  8
STANDARDEBENE
  0
POLYLINE
  5
CA
330
1F
100
AcDbEntity
  8
STANDARDEBENE
 62
     7
100
AcDb2dPolyline
 66
     1
 10
0.0
 20
0.0
 30
0.0
  0
VERTEX
  5
CB
330
CA
100
AcDbEntity
  8
STANDARDEBENE
 62
     7
100
AcDbVertex
100
AcDb2dVertex
 10
173.4371310330296
 20
222.497702309827
 30
0.0
  0
VERTEX
  5
CC
330
CA
100
AcDbEntity
  8
STANDARDEBENE
 62
     7
100
AcDbVertex
100
AcDb2dVertex
 10
170.0364772795395
 20
222.497702309827
 30
0.0
  0
SEQEND
  5
CD
330
CA
100
AcDbEntity
  8
STANDARDEBENE
  0
SPLINE
  5
CE
330
1F
100
AcDbEntity
  8
STANDARDEBENE
 62
     7
100
AcDbSpline
210
0.0
220
0.0
230
1.0
 70
     8
 71
     3
 72
    11
 73
     7
 74
     0
 42
0.0000000001
 43
0.0000000001
 40
0.0
 40
0.0
 40
0.0
 40
0.0
 40
1.0
 40
1.0
 40
1.0
 40
2.0
 40
2.0
 40
2.0
 40
2.0
 10
175.1824164058572
 20
241.8677516756442
 30
0.0
 10
175.0043049692698
 20
241.9580131773577
 30
0.0
 10
174.8158582462266
 20
242.0000433422778
 30
0.0
 10
174.6374023000907
 20
241.9983207945351
 30
0.0
 10
173.9745659287286
 20
241.9983207945351
 30
0.0
 10
173.4371310330296
 20
241.4615749179332
 30
0.0
 10
173.4371310330296
 20
240.7980495274741
 30
0.0
  0
POLYLINE
  5
CF
330
1F
100
AcDbEntity
  8
STANDARDEBENE
 62
     7
100
AcDb2dPolyline
 66
     1
 10
0.0
 20
0.0
 30
0.0
  0
VERTEX
  5
D0
330
CF
100
AcDbEntity
  8
STANDARDEBENE
 62
     7
100
AcDbVertex
100
AcDb2dVertex
 10
173.4371310330296
 20
240.7980495274741
 30
0.0
  0
VERTEX
  5
D1
330
CF
100
AcDbEntity
  8
STANDARDEBENE
 62
     7
100
AcDbVertex
100
AcDb2dVertex
 10
173.4371310330296
 20
240.6843613764609
 30
0.0
  0
VERTEX
  5
D2
330
CF
100
AcDbEntity
  8
STANDARDEBENE
 62
     7
100
AcDbVertex
100
AcDb2dVertex
 10
173.4371310330296
 20
240.3436414329697
 30
0.0
  0
VERTEX
  5
D3
330
CF
100
AcDbEntity
  8
STANDARDEBENE
 62
     7
100
AcDbVertex
100
AcDb2dVertex
 10
173.4371310330296
 20
239.7803683211313
 30
0.0
  0
VERTEX
  5
D4
330
CF
100
AcDbEntity
  8
STANDARDEBENE
 62
     7
100
AcDbVertex
100
AcDb2dVertex
 10
173.4371310330296
 20
239.0000541937222
 30
0.0
  0
VERTEX
  5
D5
330
CF
100
AcDbEntity
  8
STANDARDEBENE
 62
     7
100
AcDbVertex
100
AcDb2dVertex
 10
173.4371310330296
 20
238.0113117894555
 30
0.0
  0
VERTEX
  5
D6
330
CF
100
AcDbEntity
  8
STANDARDEBENE
 62
     7
100
AcDbVertex
100
AcDb2dVertex
 10
173.4371310330296
 20
236.8255099234325
 30
0.0
  0
VERTEX
  5
D7
330
CF
100
AcDbEntity
  8
STANDARDEBENE
 62
     7
100
AcDbVertex
100
AcDb2dVertex
 10
173.4371310330296
 20
235.4557399584972
 30
0.0
  0
VERTEX
  5
D8
330
CF
100
AcDbEntity
  8
STANDARDEBENE
 62
     7
100
AcDbVertex
100
AcDb2dVertex
 10
173.4371310330296
 20
233.916126786139
 30
0.0
  0
VERTEX
  5
D9
330
CF
100
AcDbEntity
  8
STANDARDEBENE
 62
     7
100
AcDbVertex
100
AcDb2dVertex
 10
173.4371310330296
 20
232.2242403933328
 30
0.0
  0
VERTEX
  5
DA
330
CF
100
AcDbEntity
  8
STANDARDEBENE
 62
     7
100
AcDbVertex
100
AcDb2dVertex
 10
173.4371310330296
 20
230.3983397861504
 30
0.0
  0
VERTEX
  5
DB
330
CF
100
AcDbEntity
  8
STANDARDEBENE
 62
     7
100
AcDbVertex
100
AcDb2dVertex
 10
173.4371310330296
 20
228.4584065184062
 30
0.0
  0
VERTEX
  5
DC
330
CF
100
AcDbEntity
  8
STANDARDEBENE
 62
     7
100
AcDbVertex
100
AcDb2dVertex
 10
173.4371310330296
 20
226.4254556725603
 30
0.0
  0
VERTEX
  5
DD
330
CF
100
AcDbEntity
  8
STANDARDEBENE
 62
     7
100
AcDbVertex
100
AcDb2dVertex
 10
173.4371310330296
 20
224.3229138979123
 30
0.0
  0
VERTEX
  5
DE
330
CF
100
AcDbEntity
  8
STANDARDEBENE
 62
     7
100
AcDbVertex
100
AcDb2dVertex
 10
173.4371310330296
 20
222.1721407864709
 30
0.0
  0
VERTEX
  5
DF
330
CF
100
AcDbEntity
  8
STANDARDEBENE
 62
     7
100
AcDbVertex
100
AcDb2dVertex
 10
173.4371310330296
 20
219.9979410257297
 30
0.0
  0
SEQEND
  5
E0
330
CF
100
AcDbEntity
  8
STANDARDEBENE
  0
SPLINE
  5
E1
330
1F
100
AcDbEntity
  8
STANDARDEBENE
 62
     7
100
AcDbSpline
210
0.0
220
0.0
230
1.0
 70
     8
 71
     3
 72
    11
 73
     7
 74
     0
 42
0.0000000001
 43
0.0000000001
 40
0.0
 40
0.0
 40
0.0
 40
0.0
 40
1.0
 40
1.0
 40
1.0
 40
2.0
 40
2.0
 40
2.0
 40
2.0
 10
173.4371310330296
 20
199.1981770335338
 30
0.0
 10
173.4371310330296
 20
198.5353406621717
 30
0.0
 10
173.9745659287286
 20
197.9982502760213
 30
0.0
 10
174.6374023000907
 20
197.9982502760213
 30
0.0
 10
174.835839800041
 20
197.9982502760213
 30
0.0
 10
175.0232529944386
 20
198.0464816128148
 30
0.0
 10
175.1824164058572
 20
198.1291639044608
 30
0.0
  0
POLYLINE
  5
E2
330
1F
100
AcDbEntity
  8
STANDARDEBENE
 62
     7
100
AcDb2dPolyline
 66
     1
 10
0.0
 20
0.0
 30
0.0
  0
VERTEX
  5
E3
330
E2
100
AcDbEntity
  8
STANDARDEBENE
 62
     7
100
AcDbVertex
100
AcDb2dVertex
 10
173.4371310330296
 20
219.9979410257297
 30
0.0
  0
VERTEX
  5
E4
330
E2
100
AcDbEntity
  8
STANDARDEBENE
 62
     7
100
AcDbVertex
100
AcDb2dVertex
 10
173.4371310330296
 20
217.8237412649885
 30
0.0
  0
VERTEX
  5
E5
330
E2
100
AcDbEntity
  8
STANDARDEBENE
 62
     7
100
AcDbVertex
100
AcDb2dVertex
 10
173.4371310330296
 20
215.6740016821926
 30
0.0
  0
VERTEX
  5
E6
330
E2
100
AcDbEntity
  8
STANDARDEBENE
 62
     7
100
AcDbVertex
100
AcDb2dVertex
 10
173.4371310330296
 20
213.5704263788991
 30
0.0
  0
VERTEX
  5
E7
330
E2
100
AcDbEntity
  8
STANDARDEBENE
 62
     7
100
AcDbVertex
100
AcDb2dVertex
 10
173.4371310330296
 20
211.5381645521502
 30
0.0
  0
VERTEX
  5
E8
330
E2
100
AcDbEntity
  8
STANDARDEBENE
 62
     7
100
AcDbVertex
100
AcDb2dVertex
 10
173.4371310330296
 20
209.598231284406
 30
0.0
  0
VERTEX
  5
E9
330
E2
100
AcDbEntity
  8
STANDARDEBENE
 62
     7
100
AcDbVertex
100
AcDb2dVertex
 10
173.4371310330296
 20
207.7726751867721
 30
0.0
  0
VERTEX
  5
EA
330
E2
100
AcDbEntity
  8
STANDARDEBENE
 62
     7
100
AcDbVertex
100
AcDb2dVertex
 10
173.4371310330296
 20
206.0804442844174
 30
0.0
  0
VERTEX
  5
EB
330
E2
100
AcDbEntity
  8
STANDARDEBENE
 62
     7
100
AcDbVertex
100
AcDb2dVertex
 10
173.4371310330296
 20
204.5411756216078
 30
0.0
  0
VERTEX
  5
EC
330
E2
100
AcDbEntity
  8
STANDARDEBENE
 62
     7
100
AcDbVertex
100
AcDb2dVertex
 10
173.4371310330296
 20
203.1707166375754
 30
0.0
  0
VERTEX
  5
ED
330
E2
100
AcDbEntity
  8
STANDARDEBENE
 62
     7
100
AcDbVertex
100
AcDb2dVertex
 10
173.4371310330296
 20
201.9852592811009
 30
0.0
  0
VERTEX
  5
EE
330
E2
100
AcDbEntity
  8
STANDARDEBENE
 62
     7
100
AcDbVertex
100
AcDb2dVertex
 10
173.4371310330296
 20
200.9965168768342
 30
0.0
  0
VERTEX
  5
EF
330
E2
100
AcDbEntity
  8
STANDARDEBENE
 62
     7
100
AcDbVertex
100
AcDb2dVertex
 10
173.4371310330296
 20
200.2162027494251
 30
0.0
  0
VERTEX
  5
F0
330
E2
100
AcDbEntity
  8
STANDARDEBENE
 62
     7
100
AcDbVertex
100
AcDb2dVertex
 10
173.4371310330296
 20
199.6529296375868
 30
0.0
  0
VERTEX
  5
F1
330
E2
100
AcDbEntity
  8
STANDARDEBENE
 62
     7
100
AcDbVertex
100
AcDb2dVertex
 10
173.4371310330296
 20
199.3122096940956
 30
0.0
  0
VERTEX
  5
F2
330
E2
100
AcDbEntity
  8
STANDARDEBENE
 62
     7
100
AcDbVertex
100
AcDb2dVertex
 10
173.4371310330296
 20
199.1981770335338
 30
0.0
  0
SEQEND
  5
F3
330
E2
100
AcDbEntity
  8
STANDARDEBENE
  0
POLYLINE
  5
F4
330
1F
100
AcDbEntity
  8
STANDARDEBENE
 62
     7
100
AcDb2dPolyline
 66
     1
 10
0.0
 20
0.0
 30
0.0
  0
VERTEX
  5
F5
330
F4
100
AcDbEntity
  8
STANDARDEBENE
 62
     7
100
AcDbVertex
100
AcDb2dVertex
 10
175.7046928814211
 20
241.6011012850859
 30
0.0
  0
VERTEX
  5
F6
330
F4
100
AcDbEntity
  8
STANDARDEBENE
 62
     7
100
AcDbVertex
100
AcDb2dVertex
 10
175.7046928814211
 20
241.4967148918828
 30
0.0
  0
VERTEX
  5
F7
330
F4
100
AcDbEntity
  8
STANDARDEBENE
 62
     7
100
AcDbVertex
100
AcDb2dVertex
 10
175.7046928814211
 20
241.1866562982103
 30
0.0
  0
VERTEX
  5
F8
330
F4
100
AcDbEntity
  8
STANDARDEBENE
 62
     7
100
AcDbVertex
100
AcDb2dVertex
 10
175.7046928814211
 20
240.6705809945199
 30
0.0
  0
VERTEX
  5
F9
330
F4
100
AcDbEntity
  8
STANDARDEBENE
 62
     7
100
AcDbVertex
100
AcDb2dVertex
 10
175.7046928814211
 20
239.9567572099761
 30
0.0
  0
VERTEX
  5
FA
330
F4
100
AcDbEntity
  8
STANDARDEBENE
 62
     7
100
AcDbVertex
100
AcDb2dVertex
 10
175.7046928814211
 20
239.0506970973554
 30
0.0
  0
VERTEX
  5
FB
330
F4
100
AcDbEntity
  8
STANDARDEBENE
 62
     7
100
AcDbVertex
100
AcDb2dVertex
 10
175.7046928814211
 20
237.9606688858223
 30
0.0
  0
VERTEX
  5
FC
330
F4
100
AcDbEntity
  8
STANDARDEBENE
 62
     7
100
AcDbVertex
100
AcDb2dVertex
 10
175.7046928814211
 20
236.6976968809298
 30
0.0
  0
VERTEX
  5
FD
330
F4
100
AcDbEntity
  8
STANDARDEBENE
 62
     7
100
AcDbVertex
100
AcDb2dVertex
 10
175.7046928814211
 20
235.2741834264245
 30
0.0
  0
VERTEX
  5
FE
330
F4
100
AcDbEntity
  8
STANDARDEBENE
 62
     7
100
AcDbVertex
100
AcDb2dVertex
 10
175.7046928814211
 20
233.7032198851506
 30
0.0
  0
VERTEX
  5
FF
330
F4
100
AcDbEntity
  8
STANDARDEBENE
 62
     7
100
AcDbVertex
100
AcDb2dVertex
 10
175.7046928814211
 20
232.0006536963401
 30
0.0
  0
VERTEX
  5
100
330
F4
100
AcDbEntity
  8
STANDARDEBENE
 62
     7
100
AcDbVertex
100
AcDb2dVertex
 10
175.7046928814211
 20
230.1819877896767
 30
0.0
  0
VERTEX
  5
101
330
F4
100
AcDbEntity
  8
STANDARDEBENE
 62
     7
100
AcDbVertex
100
AcDb2dVertex
 10
175.7046928814211
 20
228.2654811712322
 30
0.0
  0
VERTEX
  5
102
330
F4
100
AcDbEntity
  8
STANDARDEBENE
 62
     7
100
AcDbVertex
100
AcDb2dVertex
 10
175.7046928814211
 20
226.2693928470785
 30
0.0
  0
VERTEX
  5
103
330
F4
100
AcDbEntity
  8
STANDARDEBENE
 62
     7
100
AcDbVertex
100
AcDb2dVertex
 10
175.7046928814211
 20
224.2126708423843
 30
0.0
  0
VERTEX
  5
104
330
F4
100
AcDbEntity
  8
STANDARDEBENE
 62
     7
100
AcDbVertex
100
AcDb2dVertex
 10
175.7046928814211
 20
222.1156412205128
 30
0.0
  0
VERTEX
  5
105
330
F4
100
AcDbEntity
  8
STANDARDEBENE
 62
     7
100
AcDbVertex
100
AcDb2dVertex
 10
175.7046928814211
 20
219.9979410257297
 30
0.0
  0
SEQEND
  5
106
330
F4
100
AcDbEntity
  8
STANDARDEBENE
  0
POLYLINE
  5
107
330
1F
100
AcDbEntity
  8
STANDARDEBENE
 62
     7
100
AcDb2dPolyline
 66
     1
 10
0.0
 20
0.0
 30
0.0
  0
VERTEX
  5
108
330
107
100
AcDbEntity
  8
STANDARDEBENE
 62
     7
100
AcDbVertex
100
AcDb2dVertex
 10
178.9375704847795
 20
241.9983207945351
 30
0.0
  0
VERTEX
  5
109
330
107
100
AcDbEntity
  8
STANDARDEBENE
 62
     7
100
AcDbVertex
100
AcDb2dVertex
 10
178.9375704847795
 20
241.8918673440409
 30
0.0
  0
VERTEX
  5
10A
330
107
100
AcDbEntity
  8
STANDARDEBENE
 62
     7
100
AcDbVertex
100
AcDb2dVertex
 10
178.9375704847795
 20
241.5752630689465
 30
0.0
  0
VERTEX
  5
10B
330
107
100
AcDbEntity
  8
STANDARDEBENE
 62
     7
100
AcDbVertex
100
AcDb2dVertex
 10
178.9375704847795
 20
241.0505750265429
 30
0.0
  0
VERTEX
  5
10C
330
107
100
AcDbEntity
  8
STANDARDEBENE
 62
     7
100
AcDbVertex
100
AcDb2dVertex
 10
178.9375704847795
 20
240.3229708600581
 30
0.0
  0
VERTEX
  5
10D
330
107
100
AcDbEntity
  8
STANDARDEBENE
 62
     7
100
AcDbVertex
100
AcDb2dVertex
 10
178.9375704847795
 20
239.4003742891082
 30
0.0
  0
VERTEX
  5
10E
330
107
100
AcDbEntity
  8
STANDARDEBENE
 62
     7
100
AcDbVertex
100
AcDb2dVertex
 10
178.9375704847795
 20
238.2907090333093
 30
0.0
  0
VERTEX
  5
10F
330
107
100
AcDbEntity
  8
STANDARDEBENE
 62
     7
100
AcDbVertex
100
AcDb2dVertex
 10
178.9375704847795
 20
237.004310379117
 30
0.0
  0
VERTEX
  5
110
330
107
100
AcDbEntity
  8
STANDARDEBENE
 62
     7
100
AcDbVertex
100
AcDb2dVertex
 10
178.9375704847795
 20
235.5542696893753
 30
0.0
  0
VERTEX
  5
111
330
107
100
AcDbEntity
  8
STANDARDEBENE
 62
     7
100
AcDbVertex
100
AcDb2dVertex
 10
178.9375704847795
 20
233.9543673460253
 30
0.0
  0
VERTEX
  5
112
330
107
100
AcDbEntity
  8
STANDARDEBENE
 62
     7
100
AcDbVertex
100
AcDb2dVertex
 10
178.9375704847795
 20
232.2211398073961
 30
0.0
  0
VERTEX
  5
113
330
107
100
AcDbEntity
  8
STANDARDEBENE
 62
     7
100
AcDbVertex
100
AcDb2dVertex
 10
178.9375704847795
 20
230.3690564745258
 30
0.0
  0
VERTEX
  5
114
330
107
100
AcDbEntity
  8
STANDARDEBENE
 62
     7
100
AcDbVertex
100
AcDb2dVertex
 10
178.9375704847795
 20
228.4167208630347
 30
0.0
  0
VERTEX
  5
115
330
107
100
AcDbEntity
  8
STANDARDEBENE
 62
     7
100
AcDbVertex
100
AcDb2dVertex
 10
178.9375704847795
 20
226.3844590362858
 30
0.0
  0
VERTEX
  5
116
330
107
100
AcDbEntity
  8
STANDARDEBENE
 62
     7
100
AcDbVertex
100
AcDb2dVertex
 10
178.9375704847795
 20
224.290530000351
 30
0.0
  0
VERTEX
  5
117
330
107
100
AcDbEntity
  8
STANDARDEBENE
 62
     7
100
AcDbVertex
100
AcDb2dVertex
 10
178.9375704847795
 20
222.1545707994961
 30
0.0
  0
VERTEX
  5
118
330
107
100
AcDbEntity
  8
STANDARDEBENE
 62
     7
100
AcDbVertex
100
AcDb2dVertex
 10
178.9375704847795
 20
219.9979410257297
 30
0.0
  0
SEQEND
  5
119
330
107
100
AcDbEntity
  8
STANDARDEBENE
  0
POLYLINE
  5
11A
330
1F
100
AcDbEntity
  8
STANDARDEBENE
 62
     7
100
AcDb2dPolyline
 66
     1
 10
0.0
 20
0.0
 30
0.0
  0
VERTEX
  5
11B
330
11A
100
AcDbEntity
  8
STANDARDEBENE
 62
     7
100
AcDbVertex
100
AcDb2dVertex
 10
190.9371825694532
 20
241.9983207945351
 30
0.0
  0
VERTEX
  5
11C
330
11A
100
AcDbEntity
  8
STANDARDEBENE
 62
     7
100
AcDbVertex
100
AcDb2dVertex
 10
190.9371825694532
 20
241.8918673440409
 30
0.0
  0
VERTEX
  5
11D
330
11A
100
AcDbEntity
  8
STANDARDEBENE
 62
     7
100
AcDbVertex
100
AcDb2dVertex
 10
190.9371825694532
 20
241.5752630689465
 30
0.0
  0
VERTEX
  5
11E
330
11A
100
AcDbEntity
  8
STANDARDEBENE
 62
     7
100
AcDbVertex
100
AcDb2dVertex
 10
190.9371825694532
 20
241.0505750265429
 30
0.0
  0
VERTEX
  5
11F
330
11A
100
AcDbEntity
  8
STANDARDEBENE
 62
     7
100
AcDbVertex
100
AcDb2dVertex
 10
190.9371825694532
 20
240.3229708600581
 30
0.0
  0
VERTEX
  5
120
330
11A
100
AcDbEntity
  8
STANDARDEBENE
 62
     7
100
AcDbVertex
100
AcDb2dVertex
 10
190.9371825694532
 20
239.4003742891082
 30
0.0
  0
VERTEX
  5
121
330
11A
100
AcDbEntity
  8
STANDARDEBENE
 62
     7
100
AcDbVertex
100
AcDb2dVertex
 10
190.9371825694532
 20
238.2907090333093
 30
0.0
  0
VERTEX
  5
122
330
11A
100
AcDbEntity
  8
STANDARDEBENE
 62
     7
100
AcDbVertex
100
AcDb2dVertex
 10
190.9371825694532
 20
237.004310379117
 30
0.0
  0
VERTEX
  5
123
330
11A
100
AcDbEntity
  8
STANDARDEBENE
 62
     7
100
AcDbVertex
100
AcDb2dVertex
 10
190.9371825694532
 20
235.5542696893753
 30
0.0
  0
VERTEX
  5
124
330
11A
100
AcDbEntity
  8
STANDARDEBENE
 62
     7
100
AcDbVertex
100
AcDb2dVertex
 10
190.9371825694532
 20
233.9543673460253
 30
0.0
  0
VERTEX
  5
125
330
11A
100
AcDbEntity
  8
STANDARDEBENE
 62
     7
100
AcDbVertex
100
AcDb2dVertex
 10
190.9371825694532
 20
232.2211398073961
 30
0.0
  0
VERTEX
  5
126
330
11A
100
AcDbEntity
  8
STANDARDEBENE
 62
     7
100
AcDbVertex
100
AcDb2dVertex
 10
190.9371825694532
 20
230.3690564745258
 30
0.0
  0
VERTEX
  5
127
330
11A
100
AcDbEntity
  8
STANDARDEBENE
 62
     7
100
AcDbVertex
100
AcDb2dVertex
 10
190.9371825694532
 20
228.4167208630347
 30
0.0
  0
VERTEX
  5
128
330
11A
100
AcDbEntity
  8
STANDARDEBENE
 62
     7
100
AcDbVertex
100
AcDb2dVertex
 10
190.9371825694532
 20
226.3844590362858
 30
0.0
  0
VERTEX
  5
129
330
11A
100
AcDbEntity
  8
STANDARDEBENE
 62
     7
100
AcDbVertex
100
AcDb2dVertex
 10
190.9371825694532
 20
224.290530000351
 30
0.0
  0
VERTEX
  5
12A
330
11A
100
AcDbEntity
  8
STANDARDEBENE
 62
     7
100
AcDbVertex
100
AcDb2dVertex
 10
190.9371825694532
 20
222.1545707994961
 30
0.0
  0
VERTEX
  5
12B
330
11A
100
AcDbEntity
  8
STANDARDEBENE
 62
     7
100
AcDbVertex
100
AcDb2dVertex
 10
190.9371825694532
 20
219.9979410257297
 30
0.0
  0
SEQEND
  5
12C
330
11A
100
AcDbEntity
  8
STANDARDEBENE
  0
POLYLINE
  5
12D
330
1F
100
AcDbEntity
  8
STANDARDEBENE
 62
     7
100
AcDb2dPolyline
 66
     1
 10
0.0
 20
0.0
 30
0.0
  0
VERTEX
  5
12E
330
12D
100
AcDbEntity
  8
STANDARDEBENE
 62
     7
100
AcDbVertex
100
AcDb2dVertex
 10
191.4367214148144
 20
241.4984374396254
 30
0.0
  0
VERTEX
  5
12F
330
12D
100
AcDbEntity
  8
STANDARDEBENE
 62
     7
100
AcDbVertex
100
AcDb2dVertex
 10
191.4367214148144
 20
241.3950845750679
 30
0.0
  0
VERTEX
  5
130
330
12D
100
AcDbEntity
  8
STANDARDEBENE
 62
     7
100
AcDbVertex
100
AcDb2dVertex
 10
191.4367214148144
 20
241.0850259813954
 30
0.0
  0
VERTEX
  5
131
330
12D
100
AcDbEntity
  8
STANDARDEBENE
 62
     7
100
AcDbVertex
100
AcDb2dVertex
 10
191.4367214148144
 20
240.5720512636417
 30
0.0
  0
VERTEX
  5
132
330
12D
100
AcDbEntity
  8
STANDARDEBENE
 62
     7
100
AcDbVertex
100
AcDb2dVertex
 10
191.4367214148144
 20
239.8616725745832
 30
0.0
  0
VERTEX
  5
133
330
12D
100
AcDbEntity
  8
STANDARDEBENE
 62
     7
100
AcDbVertex
100
AcDb2dVertex
 10
191.4367214148144
 20
238.9594020669963
 30
0.0
  0
VERTEX
  5
134
330
12D
100
AcDbEntity
  8
STANDARDEBENE
 62
     7
100
AcDbVertex
100
AcDb2dVertex
 10
191.4367214148144
 20
237.8748860082396
 30
0.0
  0
VERTEX
  5
135
330
12D
100
AcDbEntity
  8
STANDARDEBENE
 62
     7
100
AcDbVertex
100
AcDb2dVertex
 10
191.4367214148144
 20
236.617770665672
 30
0.0
  0
VERTEX
  5
136
330
12D
100
AcDbEntity
  8
STANDARDEBENE
 62
     7
100
AcDbVertex
100
AcDb2dVertex
 10
191.4367214148144
 20
235.2008028925887
 30
0.0
  0
VERTEX
  5
137
330
12D
100
AcDbEntity
  8
STANDARDEBENE
 62
     7
100
AcDbVertex
100
AcDb2dVertex
 10
191.4367214148144
 20
233.6374185613823
 30
0.0
  0
VERTEX
  5
138
330
12D
100
AcDbEntity
  8
STANDARDEBENE
 62
     7
100
AcDbVertex
100
AcDb2dVertex
 10
191.4367214148144
 20
231.9431206017364
 30
0.0
  0
VERTEX
  5
139
330
12D
100
AcDbEntity
  8
STANDARDEBENE
 62
     7
100
AcDbVertex
100
AcDb2dVertex
 10
191.4367214148144
 20
230.1334119433347
 30
0.0
  0
VERTEX
  5
13A
330
12D
100
AcDbEntity
  8
STANDARDEBENE
 62
     7
100
AcDbVertex
100
AcDb2dVertex
 10
191.4367214148144
 20
228.2255180636033
 30
0.0
  0
VERTEX
  5
13B
330
12D
100
AcDbEntity
  8
STANDARDEBENE
 62
     7
100
AcDbVertex
100
AcDb2dVertex
 10
191.4367214148144
 20
226.2390760068083
 30
0.0
  0
VERTEX
  5
13C
330
12D
100
AcDbEntity
  8
STANDARDEBENE
 62
     7
100
AcDbVertex
100
AcDb2dVertex
 10
191.4367214148144
 20
224.1923447790214
 30
0.0
  0
VERTEX
  5
13D
330
12D
100
AcDbEntity
  8
STANDARDEBENE
 62
     7
100
AcDbVertex
100
AcDb2dVertex
 10
191.4367214148144
 20
222.1056504436056
 30
0.0
  0
VERTEX
  5
13E
330
12D
100
AcDbEntity
  8
STANDARDEBENE
 62
     7
100
AcDbVertex
100
AcDb2dVertex
 10
191.4367214148144
 20
219.9979410257297
 30
0.0
  0
SEQEND
  5
13F
330
12D
100
AcDbEntity
  8
STANDARDEBENE
  0
POLYLINE
  5
140
330
1F
100
AcDbEntity
  8
STANDARDEBENE
 62
     7
100
AcDb2dPolyline
 66
     1
 10
0.0
 20
0.0
 30
0.0
  0
VERTEX
  5
141
330
140
100
AcDbEntity
  8
STANDARDEBENE
 62
     7
100
AcDbVertex
100
AcDb2dVertex
 10
178.9375704847795
 20
219.9979410257297
 30
0.0
  0
VERTEX
  5
142
330
140
100
AcDbEntity
  8
STANDARDEBENE
 62
     7
100
AcDbVertex
100
AcDb2dVertex
 10
178.9375704847795
 20
217.8420002710604
 30
0.0
  0
VERTEX
  5
143
330
140
100
AcDbEntity
  8
STANDARDEBENE
 62
     7
100
AcDbVertex
100
AcDb2dVertex
 10
178.9375704847795
 20
215.706385579754
 30
0.0
  0
VERTEX
  5
144
330
140
100
AcDbEntity
  8
STANDARDEBENE
 62
     7
100
AcDbVertex
100
AcDb2dVertex
 10
178.9375704847795
 20
213.6121120342706
 30
0.0
  0
VERTEX
  5
145
330
140
100
AcDbEntity
  8
STANDARDEBENE
 62
     7
100
AcDbVertex
100
AcDb2dVertex
 10
178.9375704847795
 20
211.5788166788761
 30
0.0
  0
VERTEX
  5
146
330
140
100
AcDbEntity
  8
STANDARDEBENE
 62
     7
100
AcDbVertex
100
AcDb2dVertex
 10
178.9375704847795
 20
209.6275145960306
 30
0.0
  0
VERTEX
  5
147
330
140
100
AcDbEntity
  8
STANDARDEBENE
 62
     7
100
AcDbVertex
100
AcDb2dVertex
 10
178.9375704847795
 20
207.7761202822574
 30
0.0
  0
VERTEX
  5
148
330
140
100
AcDbEntity
  8
STANDARDEBENE
 62
     7
100
AcDbVertex
100
AcDb2dVertex
 10
178.9375704847795
 20
206.0415147054341
 30
0.0
  0
VERTEX
  5
149
330
140
100
AcDbEntity
  8
STANDARDEBENE
 62
     7
100
AcDbVertex
100
AcDb2dVertex
 10
178.9375704847795
 20
204.441612362084
 30
0.0
  0
VERTEX
  5
14A
330
140
100
AcDbEntity
  8
STANDARDEBENE
 62
     7
100
AcDbVertex
100
AcDb2dVertex
 10
178.9375704847795
 20
202.9915716723424
 30
0.0
  0
VERTEX
  5
14B
330
140
100
AcDbEntity
  8
STANDARDEBENE
 62
     7
100
AcDbVertex
100
AcDb2dVertex
 10
178.9375704847795
 20
201.7058620372472
 30
0.0
  0
VERTEX
  5
14C
330
140
100
AcDbEntity
  8
STANDARDEBENE
 62
     7
100
AcDbVertex
100
AcDb2dVertex
 10
178.9375704847795
 20
200.5958522718996
 30
0.0
  0
VERTEX
  5
14D
330
140
100
AcDbEntity
  8
STANDARDEBENE
 62
     7
100
AcDbVertex
100
AcDb2dVertex
 10
178.9375704847795
 20
199.6732557009497
 30
0.0
  0
VERTEX
  5
14E
330
140
100
AcDbEntity
  8
STANDARDEBENE
 62
     7
100
AcDbVertex
100
AcDb2dVertex
 10
178.9375704847795
 20
198.945651534465
 30
0.0
  0
VERTEX
  5
14F
330
140
100
AcDbEntity
  8
STANDARDEBENE
 62
     7
100
AcDbVertex
100
AcDb2dVertex
 10
178.9375704847795
 20
198.4202744729644
 30
0.0
  0
VERTEX
  5
150
330
140
100
AcDbEntity
  8
STANDARDEBENE
 62
     7
100
AcDbVertex
100
AcDb2dVertex
 10
178.9375704847795
 20
198.1040147074185
 30
0.0
  0
VERTEX
  5
151
330
140
100
AcDbEntity
  8
STANDARDEBENE
 62
     7
100
AcDbVertex
100
AcDb2dVertex
 10
178.9375704847795
 20
197.9982502760213
 30
0.0
  0
SEQEND
  5
152
330
140
100
AcDbEntity
  8
STANDARDEBENE
  0
POLYLINE
  5
153
330
1F
100
AcDbEntity
  8
STANDARDEBENE
 62
     7
100
AcDb2dPolyline
 66
     1
 10
0.0
 20
0.0
 30
0.0
  0
VERTEX
  5
154
330
153
100
AcDbEntity
  8
STANDARDEBENE
 62
     7
100
AcDbVertex
100
AcDb2dVertex
 10
190.9371825694532
 20
219.9979410257297
 30
0.0
  0
VERTEX
  5
155
330
153
100
AcDbEntity
  8
STANDARDEBENE
 62
     7
100
AcDbVertex
100
AcDb2dVertex
 10
190.9371825694532
 20
217.8420002710604
 30
0.0
  0
VERTEX
  5
156
330
153
100
AcDbEntity
  8
STANDARDEBENE
 62
     7
100
AcDbVertex
100
AcDb2dVertex
 10
190.9371825694532
 20
215.706385579754
 30
0.0
  0
VERTEX
  5
157
330
153
100
AcDbEntity
  8
STANDARDEBENE
 62
     7
100
AcDbVertex
100
AcDb2dVertex
 10
190.9371825694532
 20
213.6121120342706
 30
0.0
  0
VERTEX
  5
158
330
153
100
AcDbEntity
  8
STANDARDEBENE
 62
     7
100
AcDbVertex
100
AcDb2dVertex
 10
190.9371825694532
 20
211.5788166788761
 30
0.0
  0
VERTEX
  5
159
330
153
100
AcDbEntity
  8
STANDARDEBENE
 62
     7
100
AcDbVertex
100
AcDb2dVertex
 10
190.9371825694532
 20
209.6275145960306
 30
0.0
  0
VERTEX
  5
15A
330
153
100
AcDbEntity
  8
STANDARDEBENE
 62
     7
100
AcDbVertex
100
AcDb2dVertex
 10
190.9371825694532
 20
207.7761202822574
 30
0.0
  0
VERTEX
  5
15B
330
153
100
AcDbEntity
  8
STANDARDEBENE
 62
     7
100
AcDbVertex
100
AcDb2dVertex
 10
190.9371825694532
 20
206.0415147054341
 30
0.0
  0
VERTEX
  5
15C
330
153
100
AcDbEntity
  8
STANDARDEBENE
 62
     7
100
AcDbVertex
100
AcDb2dVertex
 10
190.9371825694532
 20
204.441612362084
 30
0.0
  0
VERTEX
  5
15D
330
153
100
AcDbEntity
  8
STANDARDEBENE
 62
     7
100
AcDbVertex
100
AcDb2dVertex
 10
190.9371825694532
 20
202.9915716723424
 30
0.0
  0
VERTEX
  5
15E
330
153
100
AcDbEntity
  8
STANDARDEBENE
 62
     7
100
AcDbVertex
100
AcDb2dVertex
 10
190.9371825694532
 20
201.7058620372472
 30
0.0
  0
VERTEX
  5
15F
330
153
100
AcDbEntity
  8
STANDARDEBENE
 62
     7
100
AcDbVertex
100
AcDb2dVertex
 10
190.9371825694532
 20
200.5958522718996
 30
0.0
  0
VERTEX
  5
160
330
153
100
AcDbEntity
  8
STANDARDEBENE
 62
     7
100
AcDbVertex
100
AcDb2dVertex
 10
190.9371825694532
 20
199.6732557009497
 30
0.0
  0
VERTEX
  5
161
330
153
100
AcDbEntity
  8
STANDARDEBENE
 62
     7
100
AcDbVertex
100
AcDb2dVertex
 10
190.9371825694532
 20
198.945651534465
 30
0.0
  0
VERTEX
  5
162
330
153
100
AcDbEntity
  8
STANDARDEBENE
 62
     7
100
AcDbVertex
100
AcDb2dVertex
 10
190.9371825694532
 20
198.4202744729644
 30
0.0
  0
VERTEX
  5
163
330
153
100
AcDbEntity
  8
STANDARDEBENE
 62
     7
100
AcDbVertex
100
AcDb2dVertex
 10
190.9371825694532
 20
198.1040147074185
 30
0.0
  0
VERTEX
  5
164
330
153
100
AcDbEntity
  8
STANDARDEBENE
 62
     7
100
AcDbVertex
100
AcDb2dVertex
 10
190.9371825694532
 20
197.9982502760213
 30
0.0
  0
SEQEND
  5
165
330
153
100
AcDbEntity
  8
STANDARDEBENE
  0
POLYLINE
  5
166
330
1F
100
AcDbEntity
  8
STANDARDEBENE
 62
     7
100
AcDb2dPolyline
 66
     1
 10
0.0
 20
0.0
 30
0.0
  0
VERTEX
  5
167
330
166
100
AcDbEntity
  8
STANDARDEBENE
 62
     7
100
AcDbVertex
100
AcDb2dVertex
 10
191.4367214148144
 20
219.9979410257297
 30
0.0
  0
VERTEX
  5
168
330
166
100
AcDbEntity
  8
STANDARDEBENE
 62
     7
100
AcDbVertex
100
AcDb2dVertex
 10
191.4367214148144
 20
217.8912651364994
 30
0.0
  0
VERTEX
  5
169
330
166
100
AcDbEntity
  8
STANDARDEBENE
 62
     7
100
AcDbVertex
100
AcDb2dVertex
 10
191.4367214148144
 20
215.803537272438
 30
0.0
  0
VERTEX
  5
16A
330
166
100
AcDbEntity
  8
STANDARDEBENE
 62
     7
100
AcDbVertex
100
AcDb2dVertex
 10
191.4367214148144
 20
213.7571505541996
 30
0.0
  0
VERTEX
  5
16B
330
166
100
AcDbEntity
  8
STANDARDEBENE
 62
     7
100
AcDbVertex
100
AcDb2dVertex
 10
191.4367214148144
 20
211.770363987856
 30
0.0
  0
VERTEX
  5
16C
330
166
100
AcDbEntity
  8
STANDARDEBENE
 62
     7
100
AcDbVertex
100
AcDb2dVertex
 10
191.4367214148144
 20
209.8631591272217
 30
0.0
  0
VERTEX
  5
16D
330
166
100
AcDbEntity
  8
STANDARDEBENE
 62
     7
100
AcDbVertex
100
AcDb2dVertex
 10
191.4367214148144
 20
208.05345046882
 30
0.0
  0
VERTEX
  5
16E
330
166
100
AcDbEntity
  8
STANDARDEBENE
 62
     7
100
AcDbVertex
100
AcDb2dVertex
 10
191.4367214148144
 20
206.3584634900771
 30
0.0
  0
VERTEX
  5
16F
330
166
100
AcDbEntity
  8
STANDARDEBENE
 62
     7
100
AcDbVertex
100
AcDb2dVertex
 10
191.4367214148144
 20
204.7957681779677
 30
0.0
  0
VERTEX
  5
170
330
166
100
AcDbEntity
  8
STANDARDEBENE
 62
     7
100
AcDbVertex
100
AcDb2dVertex
 10
191.4367214148144
 20
203.3781113857874
 30
0.0
  0
VERTEX
  5
171
330
166
100
AcDbEntity
  8
STANDARDEBENE
 62
     7
100
AcDbVertex
100
AcDb2dVertex
 10
191.4367214148144
 20
202.1213405527683
 30
0.0
  0
VERTEX
  5
172
330
166
100
AcDbEntity
  8
STANDARDEBENE
 62
     7
100
AcDbVertex
100
AcDb2dVertex
 10
191.4367214148144
 20
201.0368244940116
 30
0.0
  0
VERTEX
  5
173
330
166
100
AcDbEntity
  8
STANDARDEBENE
 62
     7
100
AcDbVertex
100
AcDb2dVertex
 10
191.4367214148144
 20
200.1352430055217
 30
0.0
  0
VERTEX
  5
174
330
166
100
AcDbEntity
  8
STANDARDEBENE
 62
     7
100
AcDbVertex
100
AcDb2dVertex
 10
191.4367214148144
 20
199.4238307878176
 30
0.0
  0
VERTEX
  5
175
330
166
100
AcDbEntity
  8
STANDARDEBENE
 62
     7
100
AcDbVertex
100
AcDb2dVertex
 10
191.4367214148144
 20
198.911545089161
 30
0.0
  0
VERTEX
  5
176
330
166
100
AcDbEntity
  8
STANDARDEBENE
 62
     7
100
AcDbVertex
100
AcDb2dVertex
 10
191.4367214148144
 20
198.6021755145856
 30
0.0
  0
VERTEX
  5
177
330
166
100
AcDbEntity
  8
STANDARDEBENE
 62
     7
100
AcDbVertex
100
AcDb2dVertex
 10
191.4367214148144
 20
198.498133630931
 30
0.0
  0
SEQEND
  5
178
330
166
100
AcDbEntity
  8
STANDARDEBENE
  0
POLYLINE
  5
179
330
1F
100
AcDbEntity
  8
STANDARDEBENE
 62
     7
100
AcDb2dPolyline
 66
     1
 10
0.0
 20
0.0
 30
0.0
  0
VERTEX
  5
17A
330
179
100
AcDbEntity
  8
STANDARDEBENE
 62
     7
100
AcDbVertex
100
AcDb2dVertex
 10
175.7046928814211
 20
219.9979410257297
 30
0.0
  0
VERTEX
  5
17B
330
179
100
AcDbEntity
  8
STANDARDEBENE
 62
     7
100
AcDbVertex
100
AcDb2dVertex
 10
175.7046928814211
 20
217.8809298500437
 30
0.0
  0
VERTEX
  5
17C
330
179
100
AcDbEntity
  8
STANDARDEBENE
 62
     7
100
AcDbVertex
100
AcDb2dVertex
 10
175.7046928814211
 20
215.7835557186236
 30
0.0
  0
VERTEX
  5
17D
330
179
100
AcDbEntity
  8
STANDARDEBENE
 62
     7
100
AcDbVertex
100
AcDb2dVertex
 10
175.7046928814211
 20
213.7271782234779
 30
0.0
  0
VERTEX
  5
17E
330
179
100
AcDbEntity
  8
STANDARDEBENE
 62
     7
100
AcDbVertex
100
AcDb2dVertex
 10
175.7046928814211
 20
211.7314344088727
 30
0.0
  0
VERTEX
  5
17F
330
179
100
AcDbEntity
  8
STANDARDEBENE
 62
     7
100
AcDbVertex
100
AcDb2dVertex
 10
175.7046928814211
 20
209.8149277904282
 30
0.0
  0
VERTEX
  5
180
330
179
100
AcDbEntity
  8
STANDARDEBENE
 62
     7
100
AcDbVertex
100
AcDb2dVertex
 10
175.7046928814211
 20
207.9966063933134
 30
0.0
  0
VERTEX
  5
181
330
179
100
AcDbEntity
  8
STANDARDEBENE
 62
     7
100
AcDbVertex
100
AcDb2dVertex
 10
175.7046928814211
 20
206.2933511854058
 30
0.0
  0
VERTEX
  5
182
330
179
100
AcDbEntity
  8
STANDARDEBENE
 62
     7
100
AcDbVertex
100
AcDb2dVertex
 10
175.7046928814211
 20
204.7227321536804
 30
0.0
  0
VERTEX
  5
183
330
179
100
AcDbEntity
  8
STANDARDEBENE
 62
     7
100
AcDbVertex
100
AcDb2dVertex
 10
175.7046928814211
 20
203.2985296800782
 30
0.0
  0
VERTEX
  5
184
330
179
100
AcDbEntity
  8
STANDARDEBENE
 62
     7
100
AcDbVertex
100
AcDb2dVertex
 10
175.7046928814211
 20
202.0362466942826
 30
0.0
  0
VERTEX
  5
185
330
179
100
AcDbEntity
  8
STANDARDEBENE
 62
     7
100
AcDbVertex
100
AcDb2dVertex
 10
175.7046928814211
 20
200.945873973201
 30
0.0
  0
VERTEX
  5
186
330
179
100
AcDbEntity
  8
STANDARDEBENE
 62
     7
100
AcDbVertex
100
AcDb2dVertex
 10
175.7046928814211
 20
200.0394693510318
 30
0.0
  0
VERTEX
  5
187
330
179
100
AcDbEntity
  8
STANDARDEBENE
 62
     7
100
AcDbVertex
100
AcDb2dVertex
 10
175.7046928814211
 20
199.325645566488
 30
0.0
  0
VERTEX
  5
188
330
179
100
AcDbEntity
  8
STANDARDEBENE
 62
     7
100
AcDbVertex
100
AcDb2dVertex
 10
175.7046928814211
 20
198.8106037914432
 30
0.0
  0
VERTEX
  5
189
330
179
100
AcDbEntity
  8
STANDARDEBENE
 62
     7
100
AcDbVertex
100
AcDb2dVertex
 10
175.7046928814211
 20
198.4991671595766
 30
0.0
  0
VERTEX
  5
18A
330
179
100
AcDbEntity
  8
STANDARDEBENE
 62
     7
100
AcDbVertex
100
AcDb2dVertex
 10
175.7046928814211
 20
198.3954697854706
 30
0.0
  0
SEQEND
  5
18B
330
179
100
AcDbEntity
  8
STANDARDEBENE
  0
SPLINE
  5
18C
330
1F
100
AcDbEntity
  8
STANDARDEBENE
 62
     7
100
AcDbSpline
210
0.0
220
0.0
230
1.0
 70
     8
 71
     3
 72
     8
 73
     4
 74
     0
 42
0.0000000001
 43
0.0000000001
 40
0.0
 40
0.0
 40
0.0
 40
0.0
 40
1.0
 40
1.0
 40
1.0
 40
1.0
 10
191.8377305292975
 20
206.7980576739949
 30
0.0
 10
191.6830457420098
 20
206.7980576739949
 30
0.0
 10
191.5428303557601
 20
206.7398355602942
 30
0.0
 10
191.4367214148144
 20
206.6454399439984
 30
0.0
  0
SPLINE
  5
18D
330
1F
100
AcDbEntity
  8
STANDARDEBENE
 62
     7
100
AcDbSpline
210
0.0
220
0.0
230
1.0
 70
     8
 71
     3
 72
     8
 73
     4
 74
     0
 42
0.0000000001
 43
0.0000000001
 40
0.0
 40
0.0
 40
0.0
 40
0.0
 40
1.0
 40
1.0
 40
1.0
 40
1.0
 10
191.4367214148144
 20
233.3511311265581
 30
0.0
 10
191.5521321135703
 20
233.2484672810976
 30
0.0
 10
191.6951035762082
 20
233.198168887013
 30
0.0
 10
191.8377305292975
 20
233.198168887013
 30
0.0
  0
SPLINE
  5
18E
330
1F
100
AcDbEntity
  8
STANDARDEBENE
 62
     7
100
AcDbSpline
210
0.0
220
0.0
230
1.0
 70
     8
 71
     3
 72
    11
 73
     7
 74
     0
 42
0.0000000001
 43
0.0000000001
 40
0.0
 40
0.0
 40
0.0
 40
0.0
 40
1.0
 40
1.0
 40
1.0
 40
2.0
 40
2.0
 40
2.0
 40
2.0
 10
207.6376274437503
 20
206.8979654430672
 30
0.0
 10
207.832964357764
 20
206.6375162243823
 30
0.0
 10
208.1313096267866
 20
206.4990233858753
 30
0.0
 10
208.4368895963283
 20
206.4983343667782
 30
0.0
 10
208.9891384026138
 20
206.4983343667782
 30
0.0
 10
209.4370008156963
 20
206.9461967798607
 30
0.0
 10
209.4370008156963
 20
207.4977565670492
 30
0.0
  0
POLYLINE
  5
18F
330
1F
100
AcDbEntity
  8
STANDARDEBENE
 62
     7
100
AcDb2dPolyline
 66
     1
 10
0.0
 20
0.0
 30
0.0
  0
VERTEX
  5
190
330
18F
100
AcDbEntity
  8
STANDARDEBENE
 62
     7
100
AcDbVertex
100
AcDb2dVertex
 10
207.6376274437503
 20
233.0979166083922
 30
0.0
  0
VERTEX
  5
191
330
18F
100
AcDbEntity
  8
STANDARDEBENE
 62
     7
100
AcDbVertex
100
AcDb2dVertex
 10
207.6376274437503
 20
232.9945637438347
 30
0.0
  0
VERTEX
  5
192
330
18F
100
AcDbEntity
  8
STANDARDEBENE
 62
     7
100
AcDbVertex
100
AcDb2dVertex
 10
207.6376274437503
 20
232.6872612265504
 30
0.0
  0
VERTEX
  5
193
330
18F
100
AcDbEntity
  8
STANDARDEBENE
 62
     7
100
AcDbVertex
100
AcDb2dVertex
 10
207.6376274437503
 20
232.1780761138305
 30
0.0
  0
VERTEX
  5
194
330
18F
100
AcDbEntity
  8
STANDARDEBENE
 62
     7
100
AcDbVertex
100
AcDb2dVertex
 10
207.6376274437503
 20
231.4780327112277
 30
0.0
  0
VERTEX
  5
195
330
18F
100
AcDbEntity
  8
STANDARDEBENE
 62
     7
100
AcDbVertex
100
AcDb2dVertex
 10
207.6376274437503
 20
230.5964327765523
 30
0.0
  0
VERTEX
  5
196
330
18F
100
AcDbEntity
  8
STANDARDEBENE
 62
     7
100
AcDbVertex
100
AcDb2dVertex
 10
207.6376274437503
 20
229.5477457108422
 30
0.0
  0
VERTEX
  5
197
330
18F
100
AcDbEntity
  8
STANDARDEBENE
 62
     7
100
AcDbVertex
100
AcDb2dVertex
 10
207.6376274437503
 20
228.3488524819753
 30
0.0
  0
VERTEX
  5
198
330
18F
100
AcDbEntity
  8
STANDARDEBENE
 62
     7
100
AcDbVertex
100
AcDb2dVertex
 10
207.6376274437503
 20
227.0173230769262
 30
0.0
  0
VERTEX
  5
199
330
18F
100
AcDbEntity
  8
STANDARDEBENE
 62
     7
100
AcDbVertex
100
AcDb2dVertex
 10
207.6376274437503
 20
225.5758951258977
 30
0.0
  0
VERTEX
  5
19A
330
18F
100
AcDbEntity
  8
STANDARDEBENE
 62
     7
100
AcDbVertex
100
AcDb2dVertex
 10
207.6376274437503
 20
224.0462727304468
 30
0.0
  0
VERTEX
  5
19B
330
18F
100
AcDbEntity
  8
STANDARDEBENE
 62
     7
100
AcDbVertex
100
AcDb2dVertex
 10
207.6376274437503
 20
222.4525715589702
 30
0.0
  0
VERTEX
  5
19C
330
18F
100
AcDbEntity
  8
STANDARDEBENE
 62
     7
100
AcDbVertex
100
AcDb2dVertex
 10
207.6376274437503
 20
220.8202853180588
 30
0.0
  0
VERTEX
  5
19D
330
18F
100
AcDbEntity
  8
STANDARDEBENE
 62
     7
100
AcDbVertex
100
AcDb2dVertex
 10
207.6376274437503
 20
219.1755967334006
 30
0.0
  0
VERTEX
  5
19E
330
18F
100
AcDbEntity
  8
STANDARDEBENE
 62
     7
100
AcDbVertex
100
AcDb2dVertex
 10
207.6376274437503
 20
217.5436550020377
 30
0.0
  0
VERTEX
  5
19F
330
18F
100
AcDbEntity
  8
STANDARDEBENE
 62
     7
100
AcDbVertex
100
AcDb2dVertex
 10
207.6376274437503
 20
215.9496093210126
 30
0.0
  0
VERTEX
  5
1A0
330
18F
100
AcDbEntity
  8
STANDARDEBENE
 62
     7
100
AcDbVertex
100
AcDb2dVertex
 10
207.6376274437503
 20
214.4206759446587
 30
0.0
  0
VERTEX
  5
1A1
330
18F
100
AcDbEntity
  8
STANDARDEBENE
 62
     7
100
AcDbVertex
100
AcDb2dVertex
 10
207.6376274437503
 20
212.9789034840817
 30
0.0
  0
VERTEX
  5
1A2
330
18F
100
AcDbEntity
  8
STANDARDEBENE
 62
     7
100
AcDbVertex
100
AcDb2dVertex
 10
207.6376274437503
 20
211.6480630981297
 30
0.0
  0
VERTEX
  5
1A3
330
18F
100
AcDbEntity
  8
STANDARDEBENE
 62
     7
100
AcDbVertex
100
AcDb2dVertex
 10
207.6376274437503
 20
210.4488253597142
 30
0.0
  0
VERTEX
  5
1A4
330
18F
100
AcDbEntity
  8
STANDARDEBENE
 62
     7
100
AcDbVertex
100
AcDb2dVertex
 10
207.6376274437503
 20
209.4001382940041
 30
0.0
  0
VERTEX
  5
1A5
330
18F
100
AcDbEntity
  8
STANDARDEBENE
 62
     7
100
AcDbVertex
100
AcDb2dVertex
 10
207.6376274437503
 20
208.5188828688772
 30
0.0
  0
VERTEX
  5
1A6
330
18F
100
AcDbEntity
  8
STANDARDEBENE
 62
     7
100
AcDbVertex
100
AcDb2dVertex
 10
207.6376274437503
 20
207.8181504471774
 30
0.0
  0
VERTEX
  5
1A7
330
18F
100
AcDbEntity
  8
STANDARDEBENE
 62
     7
100
AcDbVertex
100
AcDb2dVertex
 10
207.6376274437503
 20
207.3096543535545
 30
0.0
  0
VERTEX
  5
1A8
330
18F
100
AcDbEntity
  8
STANDARDEBENE
 62
     7
100
AcDbVertex
100
AcDb2dVertex
 10
207.6376274437503
 20
207.0013183076247
 30
0.0
  0
VERTEX
  5
1A9
330
18F
100
AcDbEntity
  8
STANDARDEBENE
 62
     7
100
AcDbVertex
100
AcDb2dVertex
 10
207.6376274437503
 20
206.8979654430672
 30
0.0
  0
SEQEND
  5
1AA
330
18F
100
AcDbEntity
  8
STANDARDEBENE
  0
SPLINE
  5
1AB
330
1F
100
AcDbEntity
  8
STANDARDEBENE
 62
     7
100
AcDbSpline
210
0.0
220
0.0
230
1.0
 70
     8
 71
     3
 72
    11
 73
     7
 74
     0
 42
0.0000000001
 43
0.0000000001
 40
0.0
 40
0.0
 40
0.0
 40
0.0
 40
1.0
 40
1.0
 40
1.0
 40
2.0
 40
2.0
 40
2.0
 40
2.0
 10
209.4370008156963
 20
232.4981254844102
 30
0.0
 10
209.4370008156963
 20
233.0503742906957
 30
0.0
 10
208.9891384026138
 20
233.4982367037782
 30
0.0
 10
208.4368895963283
 20
233.4982367037782
 30
0.0
 10
208.1109835634236
 20
233.4982367037782
 30
0.0
 10
207.8212510331142
 20
233.3421738782964
 30
0.0
 10
207.6376274437503
 20
233.0979166083922
 30
0.0
  0
POLYLINE
  5
1AC
330
1F
100
AcDbEntity
  8
STANDARDEBENE
 62
     7
100
AcDb2dPolyline
 66
     1
 10
0.0
 20
0.0
 30
0.0
  0
VERTEX
  5
1AD
330
1AC
100
AcDbEntity
  8
STANDARDEBENE
 62
     7
100
AcDbVertex
100
AcDb2dVertex
 10
209.4370008156963
 20
232.4981254844102
 30
0.0
  0
VERTEX
  5
1AE
330
1AC
100
AcDbEntity
  8
STANDARDEBENE
 62
     7
100
AcDbVertex
100
AcDb2dVertex
 10
209.4370008156963
 20
232.3913275243675
 30
0.0
  0
VERTEX
  5
1AF
330
1AC
100
AcDbEntity
  8
STANDARDEBENE
 62
     7
100
AcDbVertex
100
AcDb2dVertex
 10
209.4370008156963
 20
232.0719671728848
 30
0.0
  0
VERTEX
  5
1B0
330
1AC
100
AcDbEntity
  8
STANDARDEBENE
 62
     7
100
AcDbVertex
100
AcDb2dVertex
 10
209.4370008156963
 20
231.5465901113842
 30
0.0
  0
VERTEX
  5
1B1
330
1AC
100
AcDbEntity
  8
STANDARDEBENE
 62
     7
100
AcDbVertex
100
AcDb2dVertex
 10
209.4370008156963
 20
230.8238090785788
 30
0.0
  0
VERTEX
  5
1B2
330
1AC
100
AcDbEntity
  8
STANDARDEBENE
 62
     7
100
AcDbVertex
100
AcDb2dVertex
 10
209.4370008156963
 20
229.9146483800214
 30
0.0
  0
VERTEX
  5
1B3
330
1AC
100
AcDbEntity
  8
STANDARDEBENE
 62
     7
100
AcDbVertex
100
AcDb2dVertex
 10
209.4370008156963
 20
228.8370225122352
 30
0.0
  0
VERTEX
  5
1B4
330
1AC
100
AcDbEntity
  8
STANDARDEBENE
 62
     7
100
AcDbVertex
100
AcDb2dVertex
 10
209.4370008156963
 20
227.6078124430981
 30
0.0
  0
VERTEX
  5
1B5
330
1AC
100
AcDbEntity
  8
STANDARDEBENE
 62
     7
100
AcDbVertex
100
AcDb2dVertex
 10
209.4370008156963
 20
226.2480332550699
 30
0.0
  0
VERTEX
  5
1B6
330
1AC
100
AcDbEntity
  8
STANDARDEBENE
 62
     7
100
AcDbVertex
100
AcDb2dVertex
 10
209.4370008156963
 20
224.7818006165476
 30
0.0
  0
VERTEX
  5
1B7
330
1AC
100
AcDbEntity
  8
STANDARDEBENE
 62
     7
100
AcDbVertex
100
AcDb2dVertex
 10
209.4370008156963
 20
223.2335747054763
 30
0.0
  0
VERTEX
  5
1B8
330
1AC
100
AcDbEntity
  8
STANDARDEBENE
 62
     7
100
AcDbVertex
100
AcDb2dVertex
 10
209.4370008156963
 20
221.629538247544
 30
0.0
  0
VERTEX
  5
1B9
330
1AC
100
AcDbEntity
  8
STANDARDEBENE
 62
     7
100
AcDbVertex
100
AcDb2dVertex
 10
209.4370008156963
 20
219.9979410257297
 30
0.0
  0
VERTEX
  5
1BA
330
1AC
100
AcDbEntity
  8
STANDARDEBENE
 62
     7
100
AcDbVertex
100
AcDb2dVertex
 10
209.4370008156963
 20
218.3663438039154
 30
0.0
  0
VERTEX
  5
1BB
330
1AC
100
AcDbEntity
  8
STANDARDEBENE
 62
     7
100
AcDbVertex
100
AcDb2dVertex
 10
209.4370008156963
 20
216.7633408746286
 30
0.0
  0
VERTEX
  5
1BC
330
1AC
100
AcDbEntity
  8
STANDARDEBENE
 62
     7
100
AcDbVertex
100
AcDb2dVertex
 10
209.4370008156963
 20
215.2147704540088
 30
0.0
  0
VERTEX
  5
1BD
330
1AC
100
AcDbEntity
  8
STANDARDEBENE
 62
     7
100
AcDbVertex
100
AcDb2dVertex
 10
209.4370008156963
 20
213.748193305938
 30
0.0
  0
VERTEX
  5
1BE
330
1AC
100
AcDbEntity
  8
STANDARDEBENE
 62
     7
100
AcDbVertex
100
AcDb2dVertex
 10
209.4370008156963
 20
212.3891031370069
 30
0.0
  0
VERTEX
  5
1BF
330
1AC
100
AcDbEntity
  8
STANDARDEBENE
 62
     7
100
AcDbVertex
100
AcDb2dVertex
 10
209.4370008156963
 20
211.1595485583212
 30
0.0
  0
VERTEX
  5
1C0
330
1AC
100
AcDbEntity
  8
STANDARDEBENE
 62
     7
100
AcDbVertex
100
AcDb2dVertex
 10
209.4370008156963
 20
210.081233671438
 30
0.0
  0
VERTEX
  5
1C1
330
1AC
100
AcDbEntity
  8
STANDARDEBENE
 62
     7
100
AcDbVertex
100
AcDb2dVertex
 10
209.4370008156963
 20
209.1727619919777
 30
0.0
  0
VERTEX
  5
1C2
330
1AC
100
AcDbEntity
  8
STANDARDEBENE
 62
     7
100
AcDbVertex
100
AcDb2dVertex
 10
209.4370008156963
 20
208.4492919400752
 30
0.0
  0
VERTEX
  5
1C3
330
1AC
100
AcDbEntity
  8
STANDARDEBENE
 62
     7
100
AcDbVertex
100
AcDb2dVertex
 10
209.4370008156963
 20
207.9242593881231
 30
0.0
  0
VERTEX
  5
1C4
330
1AC
100
AcDbEntity
  8
STANDARDEBENE
 62
     7
100
AcDbVertex
100
AcDb2dVertex
 10
209.4370008156963
 20
207.6048990366405
 30
0.0
  0
VERTEX
  5
1C5
330
1AC
100
AcDbEntity
  8
STANDARDEBENE
 62
     7
100
AcDbVertex
100
AcDb2dVertex
 10
209.4370008156963
 20
207.4977565670492
 30
0.0
  0
SEQEND
  5
1C6
330
1AC
100
AcDbEntity
  8
STANDARDEBENE
  0
POLYLINE
  5
1C7
330
1F
100
AcDbEntity
  8
STANDARDEBENE
 62
     7
100
AcDb2dPolyline
 66
     1
 10
0.0
 20
0.0
 30
0.0
  0
VERTEX
  5
1C8
330
1C7
100
AcDbEntity
  8
STANDARDEBENE
 62
     7
100
AcDbVertex
100
AcDb2dVertex
 10
205.6370604954657
 20
233.4982367037782
 30
0.0
  0
VERTEX
  5
1C9
330
1C7
100
AcDbEntity
  8
STANDARDEBENE
 62
     7
100
AcDbVertex
100
AcDb2dVertex
 10
205.6370604954657
 20
233.3831705145709
 30
0.0
  0
VERTEX
  5
1CA
330
1C7
100
AcDbEntity
  8
STANDARDEBENE
 62
     7
100
AcDbVertex
100
AcDb2dVertex
 10
205.6370604954657
 20
233.0386609660459
 30
0.0
  0
VERTEX
  5
1CB
330
1C7
100
AcDbEntity
  8
STANDARDEBENE
 62
     7
100
AcDbVertex
100
AcDb2dVertex
 10
205.6370604954657
 20
232.4705647205282
 30
0.0
  0
VERTEX
  5
1CC
330
1C7
100
AcDbEntity
  8
STANDARDEBENE
 62
     7
100
AcDbVertex
100
AcDb2dVertex
 10
205.6370604954657
 20
231.6895615740221
 30
0.0
  0
VERTEX
  5
1CD
330
1C7
100
AcDbEntity
  8
STANDARDEBENE
 62
     7
100
AcDbVertex
100
AcDb2dVertex
 10
205.6370604954657
 20
230.7083983798229
 30
0.0
  0
VERTEX
  5
1CE
330
1C7
100
AcDbEntity
  8
STANDARDEBENE
 62
     7
100
AcDbVertex
100
AcDb2dVertex
 10
205.6370604954657
 20
229.5446451249055
 30
0.0
  0
VERTEX
  5
1CF
330
1C7
100
AcDbEntity
  8
STANDARDEBENE
 62
     7
100
AcDbVertex
100
AcDb2dVertex
 10
205.6370604954657
 20
228.2165608153417
 30
0.0
  0
VERTEX
  5
1D0
330
1C7
100
AcDbEntity
  8
STANDARDEBENE
 62
     7
100
AcDbVertex
100
AcDb2dVertex
 10
205.6370604954657
 20
226.7482611195282
 30
0.0
  0
VERTEX
  5
1D1
330
1C7
100
AcDbEntity
  8
STANDARDEBENE
 62
     7
100
AcDbVertex
100
AcDb2dVertex
 10
205.6370604954657
 20
225.1642062154104
 30
0.0
  0
VERTEX
  5
1D2
330
1C7
100
AcDbEntity
  8
STANDARDEBENE
 62
     7
100
AcDbVertex
100
AcDb2dVertex
 10
205.6370604954657
 20
223.4923013764186
 30
0.0
  0
VERTEX
  5
1D3
330
1C7
100
AcDbEntity
  8
STANDARDEBENE
 62
     7
100
AcDbVertex
100
AcDb2dVertex
 10
205.6370604954657
 20
221.7597628568865
 30
0.0
  0
VERTEX
  5
1D4
330
1C7
100
AcDbEntity
  8
STANDARDEBENE
 62
     7
100
AcDbVertex
100
AcDb2dVertex
 10
205.6370604954657
 20
219.9979410257297
 30
0.0
  0
SEQEND
  5
1D5
330
1C7
100
AcDbEntity
  8
STANDARDEBENE
  0
POLYLINE
  5
1D6
330
1F
100
AcDbEntity
  8
STANDARDEBENE
 62
     7
100
AcDb2dPolyline
 66
     1
 10
0.0
 20
0.0
 30
0.0
  0
VERTEX
  5
1D7
330
1D6
100
AcDbEntity
  8
STANDARDEBENE
 62
     7
100
AcDbVertex
100
AcDb2dVertex
 10
193.9375162275573
 20
233.4982367037782
 30
0.0
  0
VERTEX
  5
1D8
330
1D6
100
AcDbEntity
  8
STANDARDEBENE
 62
     7
100
AcDbVertex
100
AcDb2dVertex
 10
193.9375162275573
 20
233.3831705145709
 30
0.0
  0
VERTEX
  5
1D9
330
1D6
100
AcDbEntity
  8
STANDARDEBENE
 62
     7
100
AcDbVertex
100
AcDb2dVertex
 10
193.9375162275573
 20
233.0386609660459
 30
0.0
  0
VERTEX
  5
1DA
330
1D6
100
AcDbEntity
  8
STANDARDEBENE
 62
     7
100
AcDbVertex
100
AcDb2dVertex
 10
193.9375162275573
 20
232.4705647205282
 30
0.0
  0
VERTEX
  5
1DB
330
1D6
100
AcDbEntity
  8
STANDARDEBENE
 62
     7
100
AcDbVertex
100
AcDb2dVertex
 10
193.9375162275573
 20
231.6895615740221
 30
0.0
  0
VERTEX
  5
1DC
330
1D6
100
AcDbEntity
  8
STANDARDEBENE
 62
     7
100
AcDbVertex
100
AcDb2dVertex
 10
193.9375162275573
 20
230.7083983798229
 30
0.0
  0
VERTEX
  5
1DD
330
1D6
100
AcDbEntity
  8
STANDARDEBENE
 62
     7
100
AcDbVertex
100
AcDb2dVertex
 10
193.9375162275573
 20
229.5446451249055
 30
0.0
  0
VERTEX
  5
1DE
330
1D6
100
AcDbEntity
  8
STANDARDEBENE
 62
     7
100
AcDbVertex
100
AcDb2dVertex
 10
193.9375162275573
 20
228.2165608153417
 30
0.0
  0
VERTEX
  5
1DF
330
1D6
100
AcDbEntity
  8
STANDARDEBENE
 62
     7
100
AcDbVertex
100
AcDb2dVertex
 10
193.9375162275573
 20
226.7482611195282
 30
0.0
  0
VERTEX
  5
1E0
330
1D6
100
AcDbEntity
  8
STANDARDEBENE
 62
     7
100
AcDbVertex
100
AcDb2dVertex
 10
193.9375162275573
 20
225.1642062154104
 30
0.0
  0
VERTEX
  5
1E1
330
1D6
100
AcDbEntity
  8
STANDARDEBENE
 62
     7
100
AcDbVertex
100
AcDb2dVertex
 10
193.9375162275573
 20
223.4923013764186
 30
0.0
  0
VERTEX
  5
1E2
330
1D6
100
AcDbEntity
  8
STANDARDEBENE
 62
     7
100
AcDbVertex
100
AcDb2dVertex
 10
193.9375162275573
 20
221.7597628568865
 30
0.0
  0
VERTEX
  5
1E3
330
1D6
100
AcDbEntity
  8
STANDARDEBENE
 62
     7
100
AcDbVertex
100
AcDb2dVertex
 10
193.9375162275573
 20
219.9979410257297
 30
0.0
  0
VERTEX
  5
1E4
330
1D6
100
AcDbEntity
  8
STANDARDEBENE
 62
     7
100
AcDbVertex
100
AcDb2dVertex
 10
193.9375162275573
 20
218.2357746850244
 30
0.0
  0
VERTEX
  5
1E5
330
1D6
100
AcDbEntity
  8
STANDARDEBENE
 62
     7
100
AcDbVertex
100
AcDb2dVertex
 10
193.9375162275573
 20
216.5039251845893
 30
0.0
  0
VERTEX
  5
1E6
330
1D6
100
AcDbEntity
  8
STANDARDEBENE
 62
     7
100
AcDbVertex
100
AcDb2dVertex
 10
193.9375162275573
 20
214.8320203455976
 30
0.0
  0
VERTEX
  5
1E7
330
1D6
100
AcDbEntity
  8
STANDARDEBENE
 62
     7
100
AcDbVertex
100
AcDb2dVertex
 10
193.9375162275573
 20
213.2479654414797
 30
0.0
  0
VERTEX
  5
1E8
330
1D6
100
AcDbEntity
  8
STANDARDEBENE
 62
     7
100
AcDbVertex
100
AcDb2dVertex
 10
193.9375162275573
 20
211.7796657456662
 30
0.0
  0
VERTEX
  5
1E9
330
1D6
100
AcDbEntity
  8
STANDARDEBENE
 62
     7
100
AcDbVertex
100
AcDb2dVertex
 10
193.9375162275573
 20
210.452614964748
 30
0.0
  0
VERTEX
  5
1EA
330
1D6
100
AcDbEntity
  8
STANDARDEBENE
 62
     7
100
AcDbVertex
100
AcDb2dVertex
 10
193.9375162275573
 20
209.2874836716365
 30
0.0
  0
VERTEX
  5
1EB
330
1D6
100
AcDbEntity
  8
STANDARDEBENE
 62
     7
100
AcDbVertex
100
AcDb2dVertex
 10
193.9375162275573
 20
208.3070094965344
 30
0.0
  0
VERTEX
  5
1EC
330
1D6
100
AcDbEntity
  8
STANDARDEBENE
 62
     7
100
AcDbVertex
100
AcDb2dVertex
 10
193.9375162275573
 20
207.5260063500282
 30
0.0
  0
VERTEX
  5
1ED
330
1D6
100
AcDbEntity
  8
STANDARDEBENE
 62
     7
100
AcDbVertex
100
AcDb2dVertex
 10
193.9375162275573
 20
206.9582546140591
 30
0.0
  0
VERTEX
  5
1EE
330
1D6
100
AcDbEntity
  8
STANDARDEBENE
 62
     7
100
AcDbVertex
100
AcDb2dVertex
 10
193.9375162275573
 20
206.6140895750826
 30
0.0
  0
VERTEX
  5
1EF
330
1D6
100
AcDbEntity
  8
STANDARDEBENE
 62
     7
100
AcDbVertex
100
AcDb2dVertex
 10
193.9375162275573
 20
206.4983343667782
 30
0.0
  0
SEQEND
  5
1F0
330
1D6
100
AcDbEntity
  8
STANDARDEBENE
  0
POLYLINE
  5
1F1
330
1F
100
AcDbEntity
  8
STANDARDEBENE
 62
     7
100
AcDb2dPolyline
 66
     1
 10
0.0
 20
0.0
 30
0.0
  0
VERTEX
  5
1F2
330
1F1
100
AcDbEntity
  8
STANDARDEBENE
 62
     7
100
AcDbVertex
100
AcDb2dVertex
 10
205.6370604954657
 20
219.9979410257297
 30
0.0
  0
VERTEX
  5
1F3
330
1F1
100
AcDbEntity
  8
STANDARDEBENE
 62
     7
100
AcDbVertex
100
AcDb2dVertex
 10
205.6370604954657
 20
218.2357746850244
 30
0.0
  0
VERTEX
  5
1F4
330
1F1
100
AcDbEntity
  8
STANDARDEBENE
 62
     7
100
AcDbVertex
100
AcDb2dVertex
 10
205.6370604954657
 20
216.5039251845893
 30
0.0
  0
VERTEX
  5
1F5
330
1F1
100
AcDbEntity
  8
STANDARDEBENE
 62
     7
100
AcDbVertex
100
AcDb2dVertex
 10
205.6370604954657
 20
214.8320203455976
 30
0.0
  0
VERTEX
  5
1F6
330
1F1
100
AcDbEntity
  8
STANDARDEBENE
 62
     7
100
AcDbVertex
100
AcDb2dVertex
 10
205.6370604954657
 20
213.2479654414797
 30
0.0
  0
VERTEX
  5
1F7
330
1F1
100
AcDbEntity
  8
STANDARDEBENE
 62
     7
100
AcDbVertex
100
AcDb2dVertex
 10
205.6370604954657
 20
211.7796657456662
 30
0.0
  0
VERTEX
  5
1F8
330
1F1
100
AcDbEntity
  8
STANDARDEBENE
 62
     7
100
AcDbVertex
100
AcDb2dVertex
 10
205.6370604954657
 20
210.452614964748
 30
0.0
  0
VERTEX
  5
1F9
330
1F1
100
AcDbEntity
  8
STANDARDEBENE
 62
     7
100
AcDbVertex
100
AcDb2dVertex
 10
205.6370604954657
 20
209.2874836716365
 30
0.0
  0
VERTEX
  5
1FA
330
1F1
100
AcDbEntity
  8
STANDARDEBENE
 62
     7
100
AcDbVertex
100
AcDb2dVertex
 10
205.6370604954657
 20
208.3070094965344
 30
0.0
  0
VERTEX
  5
1FB
330
1F1
100
AcDbEntity
  8
STANDARDEBENE
 62
     7
100
AcDbVertex
100
AcDb2dVertex
 10
205.6370604954657
 20
207.5260063500282
 30
0.0
  0
VERTEX
  5
1FC
330
1F1
100
AcDbEntity
  8
STANDARDEBENE
 62
     7
100
AcDbVertex
100
AcDb2dVertex
 10
205.6370604954657
 20
206.9582546140591
 30
0.0
  0
VERTEX
  5
1FD
330
1F1
100
AcDbEntity
  8
STANDARDEBENE
 62
     7
100
AcDbVertex
100
AcDb2dVertex
 10
205.6370604954657
 20
206.6140895750826
 30
0.0
  0
VERTEX
  5
1FE
330
1F1
100
AcDbEntity
  8
STANDARDEBENE
 62
     7
100
AcDbVertex
100
AcDb2dVertex
 10
205.6370604954657
 20
206.4983343667782
 30
0.0
  0
SEQEND
  5
1FF
330
1F1
100
AcDbEntity
  8
STANDARDEBENE
  0
SPLINE
  5
200
330
1F
100
AcDbEntity
  8
STANDARDEBENE
 62
     7
100
AcDbSpline
210
0.0
220
0.0
230
1.0
 70
     8
 71
     3
 72
     8
 73
     4
 74
     0
 42
0.0000000001
 43
0.0000000001
 40
0.0
 40
0.0
 40
0.0
 40
0.0
 40
1.0
 40
1.0
 40
1.0
 40
1.0
 10
192.8939968050751
 20
206.7773871010834
 30
0.0
 10
192.8405978250537
 20
206.7925455212185
 30
0.0
 10
192.7871988450324
 20
206.798746693092
 30
0.0
 10
192.7386229986903
 20
206.7980576739949
 30
0.0
  0
SPLINE
  5
201
330
1F
100
AcDbEntity
  8
STANDARDEBENE
 62
     7
100
AcDbSpline
210
0.0
220
0.0
230
1.0
 70
     8
 71
     3
 72
     8
 73
     4
 74
     0
 42
0.0000000001
 43
0.0000000001
 40
0.0
 40
0.0
 40
0.0
 40
0.0
 40
1.0
 40
1.0
 40
1.0
 40
1.0
 10
192.7386229986903
 20
233.198168887013
 30
0.0
 10
192.7937445264544
 20
233.198168887013
 30
0.0
 10
192.8467989969272
 20
233.2057480970805
 30
0.0
 10
192.8939968050751
 20
233.2184949503759
 30
0.0
  0
POLYLINE
  5
202
330
1F
100
AcDbEntity
  8
STANDARDEBENE
 62
     7
100
AcDb2dPolyline
 66
     1
 10
0.0
 20
0.0
 30
0.0
  0
VERTEX
  5
203
330
202
100
AcDbEntity
  8
STANDARDEBENE
 62
     7
100
AcDbVertex
100
AcDb2dVertex
 10
169.4377196842031
 20
219.9979410257297
 30
0.0
  0
VERTEX
  5
204
330
202
100
AcDbEntity
  8
STANDARDEBENE
 62
     7
100
AcDbVertex
100
AcDb2dVertex
 10
169.4377196842031
 20
219.0526068245771
 30
0.0
  0
VERTEX
  5
205
330
202
100
AcDbEntity
  8
STANDARDEBENE
 62
     7
100
AcDbVertex
100
AcDb2dVertex
 10
169.4377196842031
 20
218.1537814124755
 30
0.0
  0
VERTEX
  5
206
330
202
100
AcDbEntity
  8
STANDARDEBENE
 62
     7
100
AcDbVertex
100
AcDb2dVertex
 10
169.4377196842031
 20
217.3486625975726
 30
0.0
  0
VERTEX
  5
207
330
202
100
AcDbEntity
  8
STANDARDEBENE
 62
     7
100
AcDbVertex
100
AcDb2dVertex
 10
169.4377196842031
 20
216.6751464302062
 30
0.0
  0
VERTEX
  5
208
330
202
100
AcDbEntity
  8
STANDARDEBENE
 62
     7
100
AcDbVertex
100
AcDb2dVertex
 10
169.4377196842031
 20
216.169061903423
 30
0.0
  0
VERTEX
  5
209
330
202
100
AcDbEntity
  8
STANDARDEBENE
 62
     7
100
AcDbVertex
100
AcDb2dVertex
 10
169.4377196842031
 20
215.8545246856197
 30
0.0
  0
VERTEX
  5
20A
330
202
100
AcDbEntity
  8
STANDARDEBENE
 62
     7
100
AcDbVertex
100
AcDb2dVertex
 10
169.4377196842031
 20
215.7480712351255
 30
0.0
  0
SEQEND
  5
20B
330
202
100
AcDbEntity
  8
STANDARDEBENE
  0
POLYLINE
  5
20C
330
1F
100
AcDbEntity
  8
STANDARDEBENE
 62
     7
100
AcDb2dPolyline
 66
     1
 10
0.0
 20
0.0
 30
0.0
  0
VERTEX
  5
20D
330
20C
100
AcDbEntity
  8
STANDARDEBENE
 62
     7
100
AcDbVertex
100
AcDb2dVertex
 10
169.4377196842031
 20
224.2481553258824
 30
0.0
  0
VERTEX
  5
20E
330
20C
100
AcDbEntity
  8
STANDARDEBENE
 62
     7
100
AcDbVertex
100
AcDb2dVertex
 10
169.4377196842031
 20
224.1413573658397
 30
0.0
  0
VERTEX
  5
20F
330
20C
100
AcDbEntity
  8
STANDARDEBENE
 62
     7
100
AcDbVertex
100
AcDb2dVertex
 10
169.4377196842031
 20
223.8271646575849
 30
0.0
  0
VERTEX
  5
210
330
20C
100
AcDbEntity
  8
STANDARDEBENE
 62
     7
100
AcDbVertex
100
AcDb2dVertex
 10
169.4377196842031
 20
223.3207356212532
 30
0.0
  0
VERTEX
  5
211
330
20C
100
AcDbEntity
  8
STANDARDEBENE
 62
     7
100
AcDbVertex
100
AcDb2dVertex
 10
169.4377196842031
 20
222.6485974920809
 30
0.0
  0
VERTEX
  5
212
330
20C
100
AcDbEntity
  8
STANDARDEBENE
 62
     7
100
AcDbVertex
100
AcDb2dVertex
 10
169.4377196842031
 20
221.8421006389839
 30
0.0
  0
VERTEX
  5
213
330
20C
100
AcDbEntity
  8
STANDARDEBENE
 62
     7
100
AcDbVertex
100
AcDb2dVertex
 10
169.4377196842031
 20
220.9439642459793
 30
0.0
  0
VERTEX
  5
214
330
20C
100
AcDbEntity
  8
STANDARDEBENE
 62
     7
100
AcDbVertex
100
AcDb2dVertex
 10
169.4377196842031
 20
219.9979410257297
 30
0.0
  0
SEQEND
  5
215
330
20C
100
AcDbEntity
  8
STANDARDEBENE
  0
SPLINE
  5
216
330
1F
100
AcDbEntity
  8
STANDARDEBENE
 62
     7
100
AcDbSpline
210
0.0
220
0.0
230
1.0
 70
     8
 71
     3
 72
     8
 73
     4
 74
     0
 42
0.0000000001
 43
0.0000000001
 40
0.0
 40
0.0
 40
0.0
 40
0.0
 40
1.0
 40
1.0
 40
1.0
 40
1.0
 10
164.9373914518212
 20
224.2481553258824
 30
0.0
 10
164.6610947939042
 20
224.2481553258824
 30
0.0
 10
164.4368190778144
 20
224.0242241193412
 30
0.0
 10
164.4368190778144
 20
223.7479274614241
 30
0.0
  0
POLYLINE
  5
217
330
1F
100
AcDbEntity
  8
STANDARDEBENE
 62
     7
100
AcDb2dPolyline
 66
     1
 10
0.0
 20
0.0
 30
0.0
  0
VERTEX
  5
218
330
217
100
AcDbEntity
  8
STANDARDEBENE
 62
     7
100
AcDbVertex
100
AcDb2dVertex
 10
164.4368190778144
 20
219.9979410257297
 30
0.0
  0
VERTEX
  5
219
330
217
100
AcDbEntity
  8
STANDARDEBENE
 62
     7
100
AcDbVertex
100
AcDb2dVertex
 10
164.4368190778144
 20
220.9691134430216
 30
0.0
  0
VERTEX
  5
21A
330
217
100
AcDbEntity
  8
STANDARDEBENE
 62
     7
100
AcDbVertex
100
AcDb2dVertex
 10
164.4368190778144
 20
221.8734510078997
 30
0.0
  0
VERTEX
  5
21B
330
217
100
AcDbEntity
  8
STANDARDEBENE
 62
     7
100
AcDbVertex
100
AcDb2dVertex
 10
164.4368190778144
 20
222.649975530275
 30
0.0
  0
VERTEX
  5
21C
330
217
100
AcDbEntity
  8
STANDARDEBENE
 62
     7
100
AcDbVertex
100
AcDb2dVertex
 10
164.4368190778144
 20
223.2456325396747
 30
0.0
  0
VERTEX
  5
21D
330
217
100
AcDbEntity
  8
STANDARDEBENE
 62
     7
100
AcDbVertex
100
AcDb2dVertex
 10
164.4368190778144
 20
223.6204589284699
 30
0.0
  0
VERTEX
  5
21E
330
217
100
AcDbEntity
  8
STANDARDEBENE
 62
     7
100
AcDbVertex
100
AcDb2dVertex
 10
164.4368190778144
 20
223.7479274614241
 30
0.0
  0
SEQEND
  5
21F
330
217
100
AcDbEntity
  8
STANDARDEBENE
  0
SPLINE
  5
220
330
1F
100
AcDbEntity
  8
STANDARDEBENE
 62
     7
100
AcDbSpline
210
0.0
220
0.0
230
1.0
 70
     8
 71
     3
 72
     8
 73
     4
 74
     0
 42
0.0000000001
 43
0.0000000001
 40
0.0
 40
0.0
 40
0.0
 40
0.0
 40
1.0
 40
1.0
 40
1.0
 40
1.0
 10
164.4368190778144
 20
216.2479545900352
 30
0.0
 10
164.4368190778144
 20
215.9723469512153
 30
0.0
 10
164.6610947939042
 20
215.7480712351255
 30
0.0
 10
164.9373914518212
 20
215.7480712351255
 30
0.0
  0
POLYLINE
  5
221
330
1F
100
AcDbEntity
  8
STANDARDEBENE
 62
     7
100
AcDb2dPolyline
 66
     1
 10
0.0
 20
0.0
 30
0.0
  0
VERTEX
  5
222
330
221
100
AcDbEntity
  8
STANDARDEBENE
 62
     7
100
AcDbVertex
100
AcDb2dVertex
 10
164.4368190778144
 20
216.2479545900352
 30
0.0
  0
VERTEX
  5
223
330
221
100
AcDbEntity
  8
STANDARDEBENE
 62
     7
100
AcDbVertex
100
AcDb2dVertex
 10
164.4368190778144
 20
216.3761121420865
 30
0.0
  0
VERTEX
  5
224
330
221
100
AcDbEntity
  8
STANDARDEBENE
 62
     7
100
AcDbVertex
100
AcDb2dVertex
 10
164.4368190778144
 20
216.7509385308817
 30
0.0
  0
VERTEX
  5
225
330
221
100
AcDbEntity
  8
STANDARDEBENE
 62
     7
100
AcDbVertex
100
AcDb2dVertex
 10
164.4368190778144
 20
217.34694004983
 30
0.0
  0
VERTEX
  5
226
330
221
100
AcDbEntity
  8
STANDARDEBENE
 62
     7
100
AcDbVertex
100
AcDb2dVertex
 10
164.4368190778144
 20
218.1231200626567
 30
0.0
  0
VERTEX
  5
227
330
221
100
AcDbEntity
  8
STANDARDEBENE
 62
     7
100
AcDbVertex
100
AcDb2dVertex
 10
164.4368190778144
 20
219.0274576275348
 30
0.0
  0
VERTEX
  5
228
330
221
100
AcDbEntity
  8
STANDARDEBENE
 62
     7
100
AcDbVertex
100
AcDb2dVertex
 10
164.4368190778144
 20
219.9979410257297
 30
0.0
  0
SEQEND
  5
229
330
221
100
AcDbEntity
  8
STANDARDEBENE
  0
SPLINE
  5
22A
330
1F
100
AcDbEntity
  8
STANDARDEBENE
 62
     7
100
AcDbSpline
210
0.0
220
0.0
230
1.0
 70
     8
 71
     3
 72
     8
 73
     4
 74
     0
 42
0.0000000001
 43
0.0000000001
 40
0.0
 40
0.0
 40
0.0
 40
0.0
 40
1.0
 40
1.0
 40
1.0
 40
1.0
 10
169.4377196842031
 20
222.8484130302254
 30
0.0
 10
169.4377196842031
 20
222.7626301526427
 30
0.0
 10
169.4904296451274
 20
222.6902831474524
 30
0.0
 10
169.5669107648999
 20
222.6606553262793
 30
0.0
  0
SPLINE
  5
22B
330
1F
100
AcDbEntity
  8
STANDARDEBENE
 62
     7
100
AcDbSpline
210
0.0
220
0.0
230
1.0
 70
     8
 71
     3
 72
     8
 73
     4
 74
     0
 42
0.0000000001
 43
0.0000000001
 40
0.0
 40
0.0
 40
0.0
 40
0.0
 40
1.0
 40
1.0
 40
1.0
 40
1.0
 10
169.5669107648999
 20
217.3352267251801
 30
0.0
 10
169.4866400400936
 20
217.305598904007
 30
0.0
 10
169.4377196842031
 20
217.2298068033315
 30
0.0
 10
169.4377196842031
 20
217.1478135307825
 30
0.0
  0
SPLINE
  5
22C
330
1F
100
AcDbEntity
  8
STANDARDEBENE
 62
     7
100
AcDbSpline
210
0.0
220
0.0
230
1.0
 70
     8
 71
     3
 72
     8
 73
     4
 74
     0
 42
0.0000000001
 43
0.0000000001
 40
0.0
 40
0.0
 40
0.0
 40
0.0
 40
1.0
 40
1.0
 40
1.0
 40
1.0
 10
170.0364772795395
 20
217.4981797416324
 30
0.0
 10
170.0120171015942
 20
217.4981797416324
 30
0.0
 10
169.987556923649
 20
217.4930120984045
 30
0.0
 10
169.9668863507374
 20
217.485432888337
 30
0.0
  0
SPLINE
  5
22D
330
1F
100
AcDbEntity
  8
STANDARDEBENE
 62
     7
100
AcDbSpline
210
0.0
220
0.0
230
1.0
 70
     8
 71
     3
 72
     8
 73
     4
 74
     0
 42
0.0000000001
 43
0.0000000001
 40
0.0
 40
0.0
 40
0.0
 40
0.0
 40
1.0
 40
1.0
 40
1.0
 40
1.0
 10
169.9668863507374
 20
222.5107936726709
 30
0.0
 10
169.9910020191342
 20
222.5021809339578
 30
0.0
 10
170.0147731779824
 20
222.497702309827
 30
0.0
 10
170.0364772795395
 20
222.497702309827
 30
0.0
  0
POLYLINE
  5
22E
330
1F
100
AcDbEntity
  8
STANDARDEBENE
 62
     7
100
AcDb2dPolyline
 66
     1
 10
0.0
 20
0.0
 30
0.0
  0
VERTEX
  5
22F
330
22E
100
AcDbEntity
  8
STANDARDEBENE
 62
     7
100
AcDbVertex
100
AcDb2dVertex
 10
75.6622205757025
 20
156.6584824912173
 30
0.0
  0
VERTEX
  5
230
330
22E
100
AcDbEntity
  8
STANDARDEBENE
 62
     7
100
AcDbVertex
100
AcDb2dVertex
 10
75.26534557580172
 20
153.4256048878589
 30
0.0
  0
SEQEND
  5
231
330
22E
100
AcDbEntity
  8
STANDARDEBENE
  0
POLYLINE
  5
232
330
1F
100
AcDbEntity
  8
STANDARDEBENE
 62
     7
100
AcDb2dPolyline
 66
     1
 10
0.0
 20
0.0
 30
0.0
  0
VERTEX
  5
233
330
232
100
AcDbEntity
  8
STANDARDEBENE
 62
     7
100
AcDbVertex
100
AcDb2dVertex
 10
118.8681965848663
 20
156.6584824912173
 30
0.0
  0
VERTEX
  5
234
330
232
100
AcDbEntity
  8
STANDARDEBENE
 62
     7
100
AcDbVertex
100
AcDb2dVertex
 10
119.2654160943156
 20
153.4256048878589
 30
0.0
  0
VERTEX
  5
235
330
232
100
AcDbEntity
  8
STANDARDEBENE
 62
     7
100
AcDbVertex
100
AcDb2dVertex
 10
119.2654160943156
 20
141.4253037840881
 30
0.0
  0
SEQEND
  5
236
330
232
100
AcDbEntity
  8
STANDARDEBENE
  0
POLYLINE
  5
237
330
1F
100
AcDbEntity
  8
STANDARDEBENE
 62
     7
100
AcDb2dPolyline
 66
     1
 10
0.0
 20
0.0
 30
0.0
  0
VERTEX
  5
238
330
237
100
AcDbEntity
  8
STANDARDEBENE
 62
     7
100
AcDbVertex
100
AcDb2dVertex
 10
75.26534557580172
 20
153.4256048878589
 30
0.0
  0
VERTEX
  5
239
330
237
100
AcDbEntity
  8
STANDARDEBENE
 62
     7
100
AcDbVertex
100
AcDb2dVertex
 10
75.26534557580172
 20
141.4253037840881
 30
0.0
  0
SEQEND
  5
23A
330
237
100
AcDbEntity
  8
STANDARDEBENE
  0
POLYLINE
  5
23B
330
1F
100
AcDbEntity
  8
STANDARDEBENE
 62
     7
100
AcDb2dPolyline
 66
     1
 10
0.0
 20
0.0
 30
0.0
  0
VERTEX
  5
23C
330
23B
100
AcDbEntity
  8
STANDARDEBENE
 62
     7
100
AcDbVertex
100
AcDb2dVertex
 10
118.7648437203088
 20
140.9254204291784
 30
0.0
  0
VERTEX
  5
23D
330
23B
100
AcDbEntity
  8
STANDARDEBENE
 62
     7
100
AcDbVertex
100
AcDb2dVertex
 10
119.2654160943156
 20
141.4253037840881
 30
0.0
  0
SEQEND
  5
23E
330
23B
100
AcDbEntity
  8
STANDARDEBENE
  0
POLYLINE
  5
23F
330
1F
100
AcDbEntity
  8
STANDARDEBENE
 62
     7
100
AcDb2dPolyline
 66
     1
 10
0.0
 20
0.0
 30
0.0
  0
VERTEX
  5
240
330
23F
100
AcDbEntity
  8
STANDARDEBENE
 62
     7
100
AcDbVertex
100
AcDb2dVertex
 10
75.76522893071147
 20
140.9254204291784
 30
0.0
  0
VERTEX
  5
241
330
23F
100
AcDbEntity
  8
STANDARDEBENE
 62
     7
100
AcDbVertex
100
AcDb2dVertex
 10
75.26534557580172
 20
141.4253037840881
 30
0.0
  0
SEQEND
  5
242
330
23F
100
AcDbEntity
  8
STANDARDEBENE
  0
POLYLINE
  5
243
330
1F
100
AcDbEntity
  8
STANDARDEBENE
 62
     7
100
AcDb2dPolyline
 66
     1
 10
0.0
 20
0.0
 30
0.0
  0
VERTEX
  5
244
330
243
100
AcDbEntity
  8
STANDARDEBENE
 62
     7
100
AcDbVertex
100
AcDb2dVertex
 10
75.39557018514417
 20
157.1807589667812
 30
0.0
  0
VERTEX
  5
245
330
243
100
AcDbEntity
  8
STANDARDEBENE
 62
     7
100
AcDbVertex
100
AcDb2dVertex
 10
75.6622205757025
 20
156.6584824912173
 30
0.0
  0
SEQEND
  5
246
330
243
100
AcDbEntity
  8
STANDARDEBENE
  0
POLYLINE
  5
247
330
1F
100
AcDbEntity
  8
STANDARDEBENE
 62
     7
100
AcDb2dPolyline
 66
     1
 10
0.0
 20
0.0
 30
0.0
  0
VERTEX
  5
248
330
247
100
AcDbEntity
  8
STANDARDEBENE
 62
     7
100
AcDbVertex
100
AcDb2dVertex
 10
119.1338134467791
 20
157.1807589667812
 30
0.0
  0
VERTEX
  5
249
330
247
100
AcDbEntity
  8
STANDARDEBENE
 62
     7
100
AcDbVertex
100
AcDb2dVertex
 10
118.8681965848663
 20
156.6584824912173
 30
0.0
  0
SEQEND
  5
24A
330
247
100
AcDbEntity
  8
STANDARDEBENE
  0
POLYLINE
  5
24B
330
1F
100
AcDbEntity
  8
STANDARDEBENE
 62
     7
100
AcDb2dPolyline
 66
     1
 10
0.0
 20
0.0
 30
0.0
  0
VERTEX
  5
24C
330
24B
100
AcDbEntity
  8
STANDARDEBENE
 62
     7
100
AcDbVertex
100
AcDb2dVertex
 10
110.3650119081726
 20
124.7255479288881
 30
0.0
  0
VERTEX
  5
24D
330
24B
100
AcDbEntity
  8
STANDARDEBENE
 62
     7
100
AcDbVertex
100
AcDb2dVertex
 10
110.7653320035587
 20
126.7254258580756
 30
0.0
  0
SEQEND
  5
24E
330
24B
100
AcDbEntity
  8
STANDARDEBENE
  0
POLYLINE
  5
24F
330
1F
100
AcDbEntity
  8
STANDARDEBENE
 62
     7
100
AcDb2dPolyline
 66
     1
 10
0.0
 20
0.0
 30
0.0
  0
VERTEX
  5
250
330
24F
100
AcDbEntity
  8
STANDARDEBENE
 62
     7
100
AcDbVertex
100
AcDb2dVertex
 10
110.7653320035587
 20
138.4256591450811
 30
0.0
  0
VERTEX
  5
251
330
24F
100
AcDbEntity
  8
STANDARDEBENE
 62
     7
100
AcDbVertex
100
AcDb2dVertex
 10
110.4859347597049
 20
139.4684895484662
 30
0.0
  0
SEQEND
  5
252
330
24F
100
AcDbEntity
  8
STANDARDEBENE
  0
POLYLINE
  5
253
330
1F
100
AcDbEntity
  8
STANDARDEBENE
 62
     7
100
AcDb2dPolyline
 66
     1
 10
0.0
 20
0.0
 30
0.0
  0
VERTEX
  5
254
330
253
100
AcDbEntity
  8
STANDARDEBENE
 62
     7
100
AcDbVertex
100
AcDb2dVertex
 10
83.76508515701012
 20
126.7254258580756
 30
0.0
  0
VERTEX
  5
255
330
253
100
AcDbEntity
  8
STANDARDEBENE
 62
     7
100
AcDbVertex
100
AcDb2dVertex
 10
84.1647162332991
 20
124.7255479288881
 30
0.0
  0
SEQEND
  5
256
330
253
100
AcDbEntity
  8
STANDARDEBENE
  0
POLYLINE
  5
257
330
1F
100
AcDbEntity
  8
STANDARDEBENE
 62
     7
100
AcDb2dPolyline
 66
     1
 10
0.0
 20
0.0
 30
0.0
  0
VERTEX
  5
258
330
257
100
AcDbEntity
  8
STANDARDEBENE
 62
     7
100
AcDbVertex
100
AcDb2dVertex
 10
84.04448240086388
 20
139.4684895484662
 30
0.0
  0
VERTEX
  5
259
330
257
100
AcDbEntity
  8
STANDARDEBENE
 62
     7
100
AcDbVertex
100
AcDb2dVertex
 10
83.76508515701012
 20
138.4256591450811
 30
0.0
  0
SEQEND
  5
25A
330
257
100
AcDbEntity
  8
STANDARDEBENE
  0
POLYLINE
  5
25B
330
1F
100
AcDbEntity
  8
STANDARDEBENE
 62
     7
100
AcDb2dPolyline
 66
     1
 10
0.0
 20
0.0
 30
0.0
  0
VERTEX
  5
25C
330
25B
100
AcDbEntity
  8
STANDARDEBENE
 62
     7
100
AcDbVertex
100
AcDb2dVertex
 10
110.7653320035587
 20
138.4256591450811
 30
0.0
  0
VERTEX
  5
25D
330
25B
100
AcDbEntity
  8
STANDARDEBENE
 62
     7
100
AcDbVertex
100
AcDb2dVertex
 10
110.7653320035587
 20
126.7254258580756
 30
0.0
  0
SEQEND
  5
25E
330
25B
100
AcDbEntity
  8
STANDARDEBENE
  0
POLYLINE
  5
25F
330
1F
100
AcDbEntity
  8
STANDARDEBENE
 62
     7
100
AcDb2dPolyline
 66
     1
 10
0.0
 20
0.0
 30
0.0
  0
VERTEX
  5
260
330
25F
100
AcDbEntity
  8
STANDARDEBENE
 62
     7
100
AcDbVertex
100
AcDb2dVertex
 10
83.76508515701012
 20
138.4256591450811
 30
0.0
  0
VERTEX
  5
261
330
25F
100
AcDbEntity
  8
STANDARDEBENE
 62
     7
100
AcDbVertex
100
AcDb2dVertex
 10
83.76508515701012
 20
126.7254258580756
 30
0.0
  0
SEQEND
  5
262
330
25F
100
AcDbEntity
  8
STANDARDEBENE
  0
POLYLINE
  5
263
330
1F
100
AcDbEntity
  8
STANDARDEBENE
 62
     7
100
AcDb2dPolyline
 66
     1
 10
0.0
 20
0.0
 30
0.0
  0
VERTEX
  5
264
330
263
100
AcDbEntity
  8
STANDARDEBENE
 62
     7
100
AcDbVertex
100
AcDb2dVertex
 10
84.06515297377538
 20
140.5254448433409
 30
0.0
  0
VERTEX
  5
265
330
263
100
AcDbEntity
  8
STANDARDEBENE
 62
     7
100
AcDbVertex
100
AcDb2dVertex
 10
84.06515297377538
 20
139.623863354851
 30
0.0
  0
SEQEND
  5
266
330
263
100
AcDbEntity
  8
STANDARDEBENE
  0
POLYLINE
  5
267
330
1F
100
AcDbEntity
  8
STANDARDEBENE
 62
     7
100
AcDb2dPolyline
 66
     1
 10
0.0
 20
0.0
 30
0.0
  0
VERTEX
  5
268
330
267
100
AcDbEntity
  8
STANDARDEBENE
 62
     7
100
AcDbVertex
100
AcDb2dVertex
 10
110.4645751676964
 20
139.623863354851
 30
0.0
  0
VERTEX
  5
269
330
267
100
AcDbEntity
  8
STANDARDEBENE
 62
     7
100
AcDbVertex
100
AcDb2dVertex
 10
110.4645751676964
 20
140.5254448433409
 30
0.0
  0
SEQEND
  5
26A
330
267
100
AcDbEntity
  8
STANDARDEBENE
  0
POLYLINE
  5
26B
330
1F
100
AcDbEntity
  8
STANDARDEBENE
 62
     7
100
AcDb2dPolyline
 66
     1
 10
0.0
 20
0.0
 30
0.0
  0
VERTEX
  5
26C
330
26B
100
AcDbEntity
  8
STANDARDEBENE
 62
     7
100
AcDbVertex
100
AcDb2dVertex
 10
114.5153184392531
 20
167.4257839208172
 30
0.0
  0
VERTEX
  5
26D
330
26B
100
AcDbEntity
  8
STANDARDEBENE
 62
     7
100
AcDbVertex
100
AcDb2dVertex
 10
114.5153184392531
 20
162.9251111788868
 30
0.0
  0
SEQEND
  5
26E
330
26B
100
AcDbEntity
  8
STANDARDEBENE
  0
POLYLINE
  5
26F
330
1F
100
AcDbEntity
  8
STANDARDEBENE
 62
     7
100
AcDb2dPolyline
 66
     1
 10
0.0
 20
0.0
 30
0.0
  0
VERTEX
  5
270
330
26F
100
AcDbEntity
  8
STANDARDEBENE
 62
     7
100
AcDbVertex
100
AcDb2dVertex
 10
106.0148898389477
 20
167.4257839208172
 30
0.0
  0
VERTEX
  5
271
330
26F
100
AcDbEntity
  8
STANDARDEBENE
 62
     7
100
AcDbVertex
100
AcDb2dVertex
 10
106.0148898389477
 20
162.9251111788868
 30
0.0
  0
SEQEND
  5
272
330
26F
100
AcDbEntity
  8
STANDARDEBENE
  0
POLYLINE
  5
273
330
1F
100
AcDbEntity
  8
STANDARDEBENE
 62
     7
100
AcDb2dPolyline
 66
     1
 10
0.0
 20
0.0
 30
0.0
  0
VERTEX
  5
274
330
273
100
AcDbEntity
  8
STANDARDEBENE
 62
     7
100
AcDbVertex
100
AcDb2dVertex
 10
112.9281629491985
 20
162.7955755886414
 30
0.0
  0
VERTEX
  5
275
330
273
100
AcDbEntity
  8
STANDARDEBENE
 62
     7
100
AcDbVertex
100
AcDb2dVertex
 10
112.7779567860416
 20
162.3959445123524
 30
0.0
  0
SEQEND
  5
276
330
273
100
AcDbEntity
  8
STANDARDEBENE
  0
POLYLINE
  5
277
330
1F
100
AcDbEntity
  8
STANDARDEBENE
 62
     7
100
AcDb2dPolyline
 66
     1
 10
0.0
 20
0.0
 30
0.0
  0
VERTEX
  5
278
330
277
100
AcDbEntity
  8
STANDARDEBENE
 62
     7
100
AcDbVertex
100
AcDb2dVertex
 10
107.6020453290023
 20
162.7955755886414
 30
0.0
  0
VERTEX
  5
279
330
277
100
AcDbEntity
  8
STANDARDEBENE
 62
     7
100
AcDbVertex
100
AcDb2dVertex
 10
107.7525960017077
 20
162.3959445123524
 30
0.0
  0
SEQEND
  5
27A
330
277
100
AcDbEntity
  8
STANDARDEBENE
  0
POLYLINE
  5
27B
330
1F
100
AcDbEntity
  8
STANDARDEBENE
 62
     7
100
AcDb2dPolyline
 66
     1
 10
0.0
 20
0.0
 30
0.0
  0
VERTEX
  5
27C
330
27B
100
AcDbEntity
  8
STANDARDEBENE
 62
     7
100
AcDbVertex
100
AcDb2dVertex
 10
107.7649983454546
 20
158.9256998300602
 30
0.0
  0
VERTEX
  5
27D
330
27B
100
AcDbEntity
  8
STANDARDEBENE
 62
     7
100
AcDbVertex
100
AcDb2dVertex
 10
107.7649983454546
 20
162.3256645644533
 30
0.0
  0
SEQEND
  5
27E
330
27B
100
AcDbEntity
  8
STANDARDEBENE
  0
POLYLINE
  5
27F
330
1F
100
AcDbEntity
  8
STANDARDEBENE
 62
     7
100
AcDb2dPolyline
 66
     1
 10
0.0
 20
0.0
 30
0.0
  0
VERTEX
  5
280
330
27F
100
AcDbEntity
  8
STANDARDEBENE
 62
     7
100
AcDbVertex
100
AcDb2dVertex
 10
112.7652099327462
 20
158.9256998300602
 30
0.0
  0
VERTEX
  5
281
330
27F
100
AcDbEntity
  8
STANDARDEBENE
 62
     7
100
AcDbVertex
100
AcDb2dVertex
 10
112.7652099327462
 20
162.3256645644533
 30
0.0
  0
SEQEND
  5
282
330
27F
100
AcDbEntity
  8
STANDARDEBENE
  0
SPLINE
  5
283
330
1F
100
AcDbEntity
  8
STANDARDEBENE
 62
     7
100
AcDbSpline
210
0.0
220
0.0
230
1.0
 70
     8
 71
     3
 72
    11
 73
     7
 74
     0
 42
0.0000000001
 43
0.0000000001
 40
0.0
 40
0.0
 40
0.0
 40
0.0
 40
1.0
 40
1.0
 40
1.0
 40
2.0
 40
2.0
 40
2.0
 40
2.0
 10
76.46492782376572
 20
158.9256998300602
 30
0.0
 10
75.8027804715007
 20
158.9256998300602
 30
0.0
 10
75.26534557580172
 20
158.3882649343613
 30
0.0
 10
75.26534557580172
 20
157.7257730725477
 30
0.0
 10
75.26534557580172
 20
157.5266465535003
 30
0.0
 10
75.31357691259522
 20
157.3388888495542
 30
0.0
 10
75.39557018514417
 20
157.1807589667812
 30
0.0
  0
POLYLINE
  5
284
330
1F
100
AcDbEntity
  8
STANDARDEBENE
 62
     7
100
AcDb2dPolyline
 66
     1
 10
0.0
 20
0.0
 30
0.0
  0
VERTEX
  5
285
330
284
100
AcDbEntity
  8
STANDARDEBENE
 62
     7
100
AcDbVertex
100
AcDb2dVertex
 10
118.0644558081575
 20
158.9256998300602
 30
0.0
  0
VERTEX
  5
286
330
284
100
AcDbEntity
  8
STANDARDEBENE
 62
     7
100
AcDbVertex
100
AcDb2dVertex
 10
117.9580023576633
 20
158.9256998300602
 30
0.0
  0
VERTEX
  5
287
330
284
100
AcDbEntity
  8
STANDARDEBENE
 62
     7
100
AcDbVertex
100
AcDb2dVertex
 10
117.6393310252777
 20
158.9256998300602
 30
0.0
  0
VERTEX
  5
288
330
284
100
AcDbEntity
  8
STANDARDEBENE
 62
     7
100
AcDbVertex
100
AcDb2dVertex
 10
117.1111978873889
 20
158.9256998300602
 30
0.0
  0
VERTEX
  5
289
330
284
100
AcDbEntity
  8
STANDARDEBENE
 62
     7
100
AcDbVertex
100
AcDb2dVertex
 10
116.3794596063218
 20
158.9256998300602
 30
0.0
  0
VERTEX
  5
28A
330
284
100
AcDbEntity
  8
STANDARDEBENE
 62
     7
100
AcDbVertex
100
AcDb2dVertex
 10
115.4513508825955
 20
158.9256998300602
 30
0.0
  0
VERTEX
  5
28B
330
284
100
AcDbEntity
  8
STANDARDEBENE
 62
     7
100
AcDbVertex
100
AcDb2dVertex
 10
114.3368624931172
 20
158.9256998300602
 30
0.0
  0
VERTEX
  5
28C
330
284
100
AcDbEntity
  8
STANDARDEBENE
 62
     7
100
AcDbVertex
100
AcDb2dVertex
 10
113.0473632529882
 20
158.9256998300602
 30
0.0
  0
VERTEX
  5
28D
330
284
100
AcDbEntity
  8
STANDARDEBENE
 62
     7
100
AcDbVertex
100
AcDb2dVertex
 10
111.5959445250524
 20
158.9256998300602
 30
0.0
  0
VERTEX
  5
28E
330
284
100
AcDbEntity
  8
STANDARDEBENE
 62
     7
100
AcDbVertex
100
AcDb2dVertex
 10
109.9967312007994
 20
158.9256998300602
 30
0.0
  0
VERTEX
  5
28F
330
284
100
AcDbEntity
  8
STANDARDEBENE
 62
     7
100
AcDbVertex
100
AcDb2dVertex
 10
108.267293267204
 20
158.9256998300602
 30
0.0
  0
VERTEX
  5
290
330
284
100
AcDbEntity
  8
STANDARDEBENE
 62
     7
100
AcDbVertex
100
AcDb2dVertex
 10
106.425889730338
 20
158.9256998300602
 30
0.0
  0
VERTEX
  5
291
330
284
100
AcDbEntity
  8
STANDARDEBENE
 62
     7
100
AcDbVertex
100
AcDb2dVertex
 10
104.4890570485305
 20
158.9256998300602
 30
0.0
  0
VERTEX
  5
292
330
284
100
AcDbEntity
  8
STANDARDEBENE
 62
     7
100
AcDbVertex
100
AcDb2dVertex
 10
102.4788438328872
 20
158.9256998300602
 30
0.0
  0
VERTEX
  5
293
330
284
100
AcDbEntity
  8
STANDARDEBENE
 62
     7
100
AcDbVertex
100
AcDb2dVertex
 10
100.4145426181255
 20
158.9256998300602
 30
0.0
  0
VERTEX
  5
294
330
284
100
AcDbEntity
  8
STANDARDEBENE
 62
     7
100
AcDbVertex
100
AcDb2dVertex
 10
98.31854652489953
 20
158.9256998300602
 30
0.0
  0
VERTEX
  5
295
330
284
100
AcDbEntity
  8
STANDARDEBENE
 62
     7
100
AcDbVertex
100
AcDb2dVertex
 10
96.21187063566926
 20
158.9256998300602
 30
0.0
  0
VERTEX
  5
296
330
284
100
AcDbEntity
  8
STANDARDEBENE
 62
     7
100
AcDbVertex
100
AcDb2dVertex
 10
94.11553003289474
 20
158.9256998300602
 30
0.0
  0
VERTEX
  5
297
330
284
100
AcDbEntity
  8
STANDARDEBENE
 62
     7
100
AcDbVertex
100
AcDb2dVertex
 10
92.05157332768155
 20
158.9256998300602
 30
0.0
  0
VERTEX
  5
298
330
284
100
AcDbEntity
  8
STANDARDEBENE
 62
     7
100
AcDbVertex
100
AcDb2dVertex
 10
90.0417046215868
 20
158.9256998300602
 30
0.0
  0
VERTEX
  5
299
330
284
100
AcDbEntity
  8
STANDARDEBENE
 62
     7
100
AcDbVertex
100
AcDb2dVertex
 10
88.10487193977934
 20
158.9256998300602
 30
0.0
  0
VERTEX
  5
29A
330
284
100
AcDbEntity
  8
STANDARDEBENE
 62
     7
100
AcDbVertex
100
AcDb2dVertex
 10
86.26243487426773
 20
158.9256998300602
 30
0.0
  0
VERTEX
  5
29B
330
284
100
AcDbEntity
  8
STANDARDEBENE
 62
     7
100
AcDbVertex
100
AcDb2dVertex
 10
84.5329969406723
 20
158.9256998300602
 30
0.0
  0
VERTEX
  5
29C
330
284
100
AcDbEntity
  8
STANDARDEBENE
 62
     7
100
AcDbVertex
100
AcDb2dVertex
 10
82.93447263551639
 20
158.9256998300602
 30
0.0
  0
VERTEX
  5
29D
330
284
100
AcDbEntity
  8
STANDARDEBENE
 62
     7
100
AcDbVertex
100
AcDb2dVertex
 10
81.48339841712915
 20
158.9256998300602
 30
0.0
  0
VERTEX
  5
29E
330
284
100
AcDbEntity
  8
STANDARDEBENE
 62
     7
100
AcDbVertex
100
AcDb2dVertex
 10
80.19286564835457
 20
158.9256998300602
 30
0.0
  0
VERTEX
  5
29F
330
284
100
AcDbEntity
  8
STANDARDEBENE
 62
     7
100
AcDbVertex
100
AcDb2dVertex
 10
79.07872176842477
 20
158.9256998300602
 30
0.0
  0
VERTEX
  5
2A0
330
284
100
AcDbEntity
  8
STANDARDEBENE
 62
     7
100
AcDbVertex
100
AcDb2dVertex
 10
78.15095755424699
 20
158.9256998300602
 30
0.0
  0
VERTEX
  5
2A1
330
284
100
AcDbEntity
  8
STANDARDEBENE
 62
     7
100
AcDbVertex
100
AcDb2dVertex
 10
77.4188747636314
 20
158.9256998300602
 30
0.0
  0
VERTEX
  5
2A2
330
284
100
AcDbEntity
  8
STANDARDEBENE
 62
     7
100
AcDbVertex
100
AcDb2dVertex
 10
76.89074162574259
 20
158.9256998300602
 30
0.0
  0
VERTEX
  5
2A3
330
284
100
AcDbEntity
  8
STANDARDEBENE
 62
     7
100
AcDbVertex
100
AcDb2dVertex
 10
76.57172578380846
 20
158.9256998300602
 30
0.0
  0
VERTEX
  5
2A4
330
284
100
AcDbEntity
  8
STANDARDEBENE
 62
     7
100
AcDbVertex
100
AcDb2dVertex
 10
76.46492782376572
 20
158.9256998300602
 30
0.0
  0
SEQEND
  5
2A5
330
284
100
AcDbEntity
  8
STANDARDEBENE
  0
SPLINE
  5
2A6
330
1F
100
AcDbEntity
  8
STANDARDEBENE
 62
     7
100
AcDbSpline
210
0.0
220
0.0
230
1.0
 70
     8
 71
     3
 72
     8
 73
     4
 74
     0
 42
0.0000000001
 43
0.0000000001
 40
0.0
 40
0.0
 40
0.0
 40
0.0
 40
1.0
 40
1.0
 40
1.0
 40
1.0
 10
119.2654160943156
 20
157.7257730725477
 30
0.0
 10
119.2654160943156
 20
158.3882649343613
 30
0.0
 10
118.7279811986166
 20
158.9256998300602
 30
0.0
 10
118.0644558081575
 20
158.9256998300602
 30
0.0
  0
SPLINE
  5
2A7
330
1F
100
AcDbEntity
  8
STANDARDEBENE
 62
     7
100
AcDbSpline
210
0.0
220
0.0
230
1.0
 70
     8
 71
     3
 72
     8
 73
     4
 74
     0
 42
0.0000000001
 43
0.0000000001
 40
0.0
 40
0.0
 40
0.0
 40
0.0
 40
1.0
 40
1.0
 40
1.0
 40
1.0
 10
119.1338134467791
 20
157.1807589667812
 30
0.0
 10
119.2247639675897
 20
157.357836874723
 30
0.0
 10
119.2661051134126
 20
157.5469726168633
 30
0.0
 10
119.2654160943156
 20
157.7257730725477
 30
0.0
  0
POLYLINE
  5
2A8
330
1F
100
AcDbEntity
  8
STANDARDEBENE
 62
     7
100
AcDb2dPolyline
 66
     1
 10
0.0
 20
0.0
 30
0.0
  0
VERTEX
  5
2A9
330
2A8
100
AcDbEntity
  8
STANDARDEBENE
 62
     7
100
AcDbVertex
100
AcDb2dVertex
 10
118.8681965848663
 20
156.6584824912173
 30
0.0
  0
VERTEX
  5
2AA
330
2A8
100
AcDbEntity
  8
STANDARDEBENE
 62
     7
100
AcDbVertex
100
AcDb2dVertex
 10
118.7641547012118
 20
156.6584824912173
 30
0.0
  0
VERTEX
  5
2AB
330
2A8
100
AcDbEntity
  8
STANDARDEBENE
 62
     7
100
AcDbVertex
100
AcDb2dVertex
 10
118.4530625788937
 20
156.6584824912173
 30
0.0
  0
VERTEX
  5
2AC
330
2A8
100
AcDbEntity
  8
STANDARDEBENE
 62
     7
100
AcDbVertex
100
AcDb2dVertex
 10
117.9380208038488
 20
156.6584824912173
 30
0.0
  0
VERTEX
  5
2AD
330
2A8
100
AcDbEntity
  8
STANDARDEBENE
 62
     7
100
AcDbVertex
100
AcDb2dVertex
 10
117.2231634906595
 20
156.6584824912173
 30
0.0
  0
VERTEX
  5
2AE
330
2A8
100
AcDbEntity
  8
STANDARDEBENE
 62
     7
100
AcDbVertex
100
AcDb2dVertex
 10
116.3171033780388
 20
156.6584824912173
 30
0.0
  0
VERTEX
  5
2AF
330
2A8
100
AcDbEntity
  8
STANDARDEBENE
 62
     7
100
AcDbVertex
100
AcDb2dVertex
 10
115.2270751665057
 20
156.6584824912173
 30
0.0
  0
VERTEX
  5
2B0
330
2A8
100
AcDbEntity
  8
STANDARDEBENE
 62
     7
100
AcDbVertex
100
AcDb2dVertex
 10
113.9641031616132
 20
156.6584824912173
 30
0.0
  0
VERTEX
  5
2B1
330
2A8
100
AcDbEntity
  8
STANDARDEBENE
 62
     7
100
AcDbVertex
100
AcDb2dVertex
 10
112.5405897071079
 20
156.6584824912173
 30
0.0
  0
VERTEX
  5
2B2
330
2A8
100
AcDbEntity
  8
STANDARDEBENE
 62
     7
100
AcDbVertex
100
AcDb2dVertex
 10
110.969626165834
 20
156.6584824912173
 30
0.0
  0
VERTEX
  5
2B3
330
2A8
100
AcDbEntity
  8
STANDARDEBENE
 62
     7
100
AcDbVertex
100
AcDb2dVertex
 10
109.2670599770235
 20
156.6584824912173
 30
0.0
  0
VERTEX
  5
2B4
330
2A8
100
AcDbEntity
  8
STANDARDEBENE
 62
     7
100
AcDbVertex
100
AcDb2dVertex
 10
107.4487385799086
 20
156.6584824912173
 30
0.0
  0
VERTEX
  5
2B5
330
2A8
100
AcDbEntity
  8
STANDARDEBENE
 62
     7
100
AcDbVertex
100
AcDb2dVertex
 10
105.5325764710127
 20
156.6584824912173
 30
0.0
  0
VERTEX
  5
2B6
330
2A8
100
AcDbEntity
  8
STANDARDEBENE
 62
     7
100
AcDbVertex
100
AcDb2dVertex
 10
103.5361436373104
 20
156.6584824912173
 30
0.0
  0
VERTEX
  5
2B7
330
2A8
100
AcDbEntity
  8
STANDARDEBENE
 62
     7
100
AcDbVertex
100
AcDb2dVertex
 10
101.4797661421648
 20
156.6584824912173
 30
0.0
  0
VERTEX
  5
2B8
330
2A8
100
AcDbEntity
  8
STANDARDEBENE
 62
     7
100
AcDbVertex
100
AcDb2dVertex
 10
99.38273652029321
 20
156.6584824912173
 30
0.0
  0
VERTEX
  5
2B9
330
2A8
100
AcDbEntity
  8
STANDARDEBENE
 62
     7
100
AcDbVertex
100
AcDb2dVertex
 10
97.26572534460719
 20
156.6584824912173
 30
0.0
  0
VERTEX
  5
2BA
330
2A8
100
AcDbEntity
  8
STANDARDEBENE
 62
     7
100
AcDbVertex
100
AcDb2dVertex
 10
95.14768064027558
 20
156.6584824912173
 30
0.0
  0
VERTEX
  5
2BB
330
2A8
100
AcDbEntity
  8
STANDARDEBENE
 62
     7
100
AcDbVertex
100
AcDb2dVertex
 10
93.04996199930696
 20
156.6584824912173
 30
0.0
  0
VERTEX
  5
2BC
330
2A8
100
AcDbEntity
  8
STANDARDEBENE
 62
     7
100
AcDbVertex
100
AcDb2dVertex
 10
90.99358450416133
 20
156.6584824912173
 30
0.0
  0
VERTEX
  5
2BD
330
2A8
100
AcDbEntity
  8
STANDARDEBENE
 62
     7
100
AcDbVertex
100
AcDb2dVertex
 10
88.99749618000757
 20
156.6584824912173
 30
0.0
  0
VERTEX
  5
2BE
330
2A8
100
AcDbEntity
  8
STANDARDEBENE
 62
     7
100
AcDbVertex
100
AcDb2dVertex
 10
87.08133407111161
 20
156.6584824912173
 30
0.0
  0
VERTEX
  5
2BF
330
2A8
100
AcDbEntity
  8
STANDARDEBENE
 62
     7
100
AcDbVertex
100
AcDb2dVertex
 10
85.26301267399676
 20
156.6584824912173
 30
0.0
  0
VERTEX
  5
2C0
330
2A8
100
AcDbEntity
  8
STANDARDEBENE
 62
     7
100
AcDbVertex
100
AcDb2dVertex
 10
83.56044648518628
 20
156.6584824912173
 30
0.0
  0
VERTEX
  5
2C1
330
2A8
100
AcDbEntity
  8
STANDARDEBENE
 62
     7
100
AcDbVertex
100
AcDb2dVertex
 10
81.98948294391235
 20
156.6584824912173
 30
0.0
  0
VERTEX
  5
2C2
330
2A8
100
AcDbEntity
  8
STANDARDEBENE
 62
     7
100
AcDbVertex
100
AcDb2dVertex
 10
80.56631399895565
 20
156.6584824912173
 30
0.0
  0
VERTEX
  5
2C3
330
2A8
100
AcDbEntity
  8
STANDARDEBENE
 62
     7
100
AcDbVertex
100
AcDb2dVertex
 10
79.30230846541748
 20
156.6584824912173
 30
0.0
  0
VERTEX
  5
2C4
330
2A8
100
AcDbEntity
  8
STANDARDEBENE
 62
     7
100
AcDbVertex
100
AcDb2dVertex
 10
78.21296927298148
 20
156.6584824912173
 30
0.0
  0
VERTEX
  5
2C5
330
2A8
100
AcDbEntity
  8
STANDARDEBENE
 62
     7
100
AcDbVertex
100
AcDb2dVertex
 10
77.30656465081225
 20
156.6584824912173
 30
0.0
  0
VERTEX
  5
2C6
330
2A8
100
AcDbEntity
  8
STANDARDEBENE
 62
     7
100
AcDbVertex
100
AcDb2dVertex
 10
76.59239635671996
 20
156.6584824912173
 30
0.0
  0
VERTEX
  5
2C7
330
2A8
100
AcDbEntity
  8
STANDARDEBENE
 62
     7
100
AcDbVertex
100
AcDb2dVertex
 10
76.07701007212658
 20
156.6584824912173
 30
0.0
  0
VERTEX
  5
2C8
330
2A8
100
AcDbEntity
  8
STANDARDEBENE
 62
     7
100
AcDbVertex
100
AcDb2dVertex
 10
75.76557344026
 20
156.6584824912173
 30
0.0
  0
VERTEX
  5
2C9
330
2A8
100
AcDbEntity
  8
STANDARDEBENE
 62
     7
100
AcDbVertex
100
AcDb2dVertex
 10
75.6622205757025
 20
156.6584824912173
 30
0.0
  0
SEQEND
  5
2CA
330
2A8
100
AcDbEntity
  8
STANDARDEBENE
  0
POLYLINE
  5
2CB
330
1F
100
AcDbEntity
  8
STANDARDEBENE
 62
     7
100
AcDb2dPolyline
 66
     1
 10
0.0
 20
0.0
 30
0.0
  0
VERTEX
  5
2CC
330
2CB
100
AcDbEntity
  8
STANDARDEBENE
 62
     7
100
AcDbVertex
100
AcDb2dVertex
 10
119.2654160943156
 20
153.4256048878589
 30
0.0
  0
VERTEX
  5
2CD
330
2CB
100
AcDbEntity
  8
STANDARDEBENE
 62
     7
100
AcDbVertex
100
AcDb2dVertex
 10
119.1593071533699
 20
153.4256048878589
 30
0.0
  0
VERTEX
  5
2CE
330
2CB
100
AcDbEntity
  8
STANDARDEBENE
 62
     7
100
AcDbVertex
100
AcDb2dVertex
 10
118.8420138591784
 20
153.4256048878589
 30
0.0
  0
VERTEX
  5
2CF
330
2CB
100
AcDbEntity
  8
STANDARDEBENE
 62
     7
100
AcDbVertex
100
AcDb2dVertex
 10
118.3183593454204
 20
153.4256048878589
 30
0.0
  0
VERTEX
  5
2D0
330
2CB
100
AcDbEntity
  8
STANDARDEBENE
 62
     7
100
AcDbVertex
100
AcDb2dVertex
 10
117.5904106693871
 20
153.4256048878589
 30
0.0
  0
VERTEX
  5
2D1
330
2CB
100
AcDbEntity
  8
STANDARDEBENE
 62
     7
100
AcDbVertex
100
AcDb2dVertex
 10
116.6671250793402
 20
153.4256048878589
 30
0.0
  0
VERTEX
  5
2D2
330
2CB
100
AcDbEntity
  8
STANDARDEBENE
 62
     7
100
AcDbVertex
100
AcDb2dVertex
 10
115.5571153139927
 20
153.4256048878589
 30
0.0
  0
VERTEX
  5
2D3
330
2CB
100
AcDbEntity
  8
STANDARDEBENE
 62
     7
100
AcDbVertex
100
AcDb2dVertex
 10
114.2710611693489
 20
153.4256048878589
 30
0.0
  0
VERTEX
  5
2D4
330
2CB
100
AcDbEntity
  8
STANDARDEBENE
 62
     7
100
AcDbVertex
100
AcDb2dVertex
 10
112.8210204796073
 20
153.4256048878589
 30
0.0
  0
VERTEX
  5
2D5
330
2CB
100
AcDbEntity
  8
STANDARDEBENE
 62
     7
100
AcDbVertex
100
AcDb2dVertex
 10
111.2218071553543
 20
153.4256048878589
 30
0.0
  0
VERTEX
  5
2D6
330
2CB
100
AcDbEntity
  8
STANDARDEBENE
 62
     7
100
AcDbVertex
100
AcDb2dVertex
 10
109.4875460880795
 20
153.4256048878589
 30
0.0
  0
VERTEX
  5
2D7
330
2CB
100
AcDbEntity
  8
STANDARDEBENE
 62
     7
100
AcDbVertex
100
AcDb2dVertex
 10
107.6358072647577
 20
153.4256048878589
 30
0.0
  0
VERTEX
  5
2D8
330
2CB
100
AcDbEntity
  8
STANDARDEBENE
 62
     7
100
AcDbVertex
100
AcDb2dVertex
 10
105.6841606723637
 20
153.4256048878589
 30
0.0
  0
VERTEX
  5
2D9
330
2CB
100
AcDbEntity
  8
STANDARDEBENE
 62
     7
100
AcDbVertex
100
AcDb2dVertex
 10
103.6515543360663
 20
153.4256048878589
 30
0.0
  0
VERTEX
  5
2DA
330
2CB
100
AcDbEntity
  8
STANDARDEBENE
 62
     7
100
AcDbVertex
100
AcDb2dVertex
 10
101.5569362810344
 20
153.4256048878589
 30
0.0
  0
VERTEX
  5
2DB
330
2CB
100
AcDbEntity
  8
STANDARDEBENE
 62
     7
100
AcDbVertex
100
AcDb2dVertex
 10
99.42166609927654
 20
153.4256048878589
 30
0.0
  0
VERTEX
  5
2DC
330
2CB
100
AcDbEntity
  8
STANDARDEBENE
 62
     7
100
AcDbVertex
100
AcDb2dVertex
 10
97.26572534460719
 20
153.4256048878589
 30
0.0
  0
VERTEX
  5
2DD
330
2CB
100
AcDbEntity
  8
STANDARDEBENE
 62
     7
100
AcDbVertex
100
AcDb2dVertex
 10
95.10840655174374
 20
153.4256048878589
 30
0.0
  0
VERTEX
  5
2DE
330
2CB
100
AcDbEntity
  8
STANDARDEBENE
 62
     7
100
AcDbVertex
100
AcDb2dVertex
 10
92.9734808795344
 20
153.4256048878589
 30
0.0
  0
VERTEX
  5
2DF
330
2CB
100
AcDbEntity
  8
STANDARDEBENE
 62
     7
100
AcDbVertex
100
AcDb2dVertex
 10
90.8788628245025
 20
153.4256048878589
 30
0.0
  0
VERTEX
  5
2E0
330
2CB
100
AcDbEntity
  8
STANDARDEBENE
 62
     7
100
AcDbVertex
100
AcDb2dVertex
 10
88.84591197865659
 20
153.4256048878589
 30
0.0
  0
VERTEX
  5
2E1
330
2CB
100
AcDbEntity
  8
STANDARDEBENE
 62
     7
100
AcDbVertex
100
AcDb2dVertex
 10
86.89392087671402
 20
153.4256048878589
 30
0.0
  0
VERTEX
  5
2E2
330
2CB
100
AcDbEntity
  8
STANDARDEBENE
 62
     7
100
AcDbVertex
100
AcDb2dVertex
 10
85.04287107248929
 20
153.4256048878589
 30
0.0
  0
VERTEX
  5
2E3
330
2CB
100
AcDbEntity
  8
STANDARDEBENE
 62
     7
100
AcDbVertex
100
AcDb2dVertex
 10
83.30861000521452
 20
153.4256048878589
 30
0.0
  0
VERTEX
  5
2E4
330
2CB
100
AcDbEntity
  8
STANDARDEBENE
 62
     7
100
AcDbVertex
100
AcDb2dVertex
 10
81.7087076618645
 20
153.4256048878589
 30
0.0
  0
VERTEX
  5
2E5
330
2CB
100
AcDbEntity
  8
STANDARDEBENE
 62
     7
100
AcDbVertex
100
AcDb2dVertex
 10
80.25866697212284
 20
153.4256048878589
 30
0.0
  0
VERTEX
  5
2E6
330
2CB
100
AcDbEntity
  8
STANDARDEBENE
 62
     7
100
AcDbVertex
100
AcDb2dVertex
 10
78.97261282747907
 20
153.4256048878589
 30
0.0
  0
VERTEX
  5
2E7
330
2CB
100
AcDbEntity
  8
STANDARDEBENE
 62
     7
100
AcDbVertex
100
AcDb2dVertex
 10
77.8629475716801
 20
153.4256048878589
 30
0.0
  0
VERTEX
  5
2E8
330
2CB
100
AcDbEntity
  8
STANDARDEBENE
 62
     7
100
AcDbVertex
100
AcDb2dVertex
 10
76.93966198163314
 20
153.4256048878589
 30
0.0
  0
VERTEX
  5
2E9
330
2CB
100
AcDbEntity
  8
STANDARDEBENE
 62
     7
100
AcDbVertex
100
AcDb2dVertex
 10
76.2124023246969
 20
153.4256048878589
 30
0.0
  0
VERTEX
  5
2EA
330
2CB
100
AcDbEntity
  8
STANDARDEBENE
 62
     7
100
AcDbVertex
100
AcDb2dVertex
 10
75.68805879184188
 20
153.4256048878589
 30
0.0
  0
VERTEX
  5
2EB
330
2CB
100
AcDbEntity
  8
STANDARDEBENE
 62
     7
100
AcDbVertex
100
AcDb2dVertex
 10
75.3711100071989
 20
153.4256048878589
 30
0.0
  0
VERTEX
  5
2EC
330
2CB
100
AcDbEntity
  8
STANDARDEBENE
 62
     7
100
AcDbVertex
100
AcDb2dVertex
 10
75.26534557580172
 20
153.4256048878589
 30
0.0
  0
SEQEND
  5
2ED
330
2CB
100
AcDbEntity
  8
STANDARDEBENE
  0
POLYLINE
  5
2EE
330
1F
100
AcDbEntity
  8
STANDARDEBENE
 62
     7
100
AcDb2dPolyline
 66
     1
 10
0.0
 20
0.0
 30
0.0
  0
VERTEX
  5
2EF
330
2EE
100
AcDbEntity
  8
STANDARDEBENE
 62
     7
100
AcDbVertex
100
AcDb2dVertex
 10
119.2654160943156
 20
141.4253037840881
 30
0.0
  0
VERTEX
  5
2F0
330
2EE
100
AcDbEntity
  8
STANDARDEBENE
 62
     7
100
AcDbVertex
100
AcDb2dVertex
 10
119.1593071533699
 20
141.4253037840881
 30
0.0
  0
VERTEX
  5
2F1
330
2EE
100
AcDbEntity
  8
STANDARDEBENE
 62
     7
100
AcDbVertex
100
AcDb2dVertex
 10
118.8420138591784
 20
141.4253037840881
 30
0.0
  0
VERTEX
  5
2F2
330
2EE
100
AcDbEntity
  8
STANDARDEBENE
 62
     7
100
AcDbVertex
100
AcDb2dVertex
 10
118.3183593454204
 20
141.4253037840881
 30
0.0
  0
VERTEX
  5
2F3
330
2EE
100
AcDbEntity
  8
STANDARDEBENE
 62
     7
100
AcDbVertex
100
AcDb2dVertex
 10
117.5904106693871
 20
141.4253037840881
 30
0.0
  0
VERTEX
  5
2F4
330
2EE
100
AcDbEntity
  8
STANDARDEBENE
 62
     7
100
AcDbVertex
100
AcDb2dVertex
 10
116.6671250793402
 20
141.4253037840881
 30
0.0
  0
VERTEX
  5
2F5
330
2EE
100
AcDbEntity
  8
STANDARDEBENE
 62
     7
100
AcDbVertex
100
AcDb2dVertex
 10
115.5571153139927
 20
141.4253037840881
 30
0.0
  0
VERTEX
  5
2F6
330
2EE
100
AcDbEntity
  8
STANDARDEBENE
 62
     7
100
AcDbVertex
100
AcDb2dVertex
 10
114.2710611693489
 20
141.4253037840881
 30
0.0
  0
VERTEX
  5
2F7
330
2EE
100
AcDbEntity
  8
STANDARDEBENE
 62
     7
100
AcDbVertex
100
AcDb2dVertex
 10
112.8210204796073
 20
141.4253037840881
 30
0.0
  0
VERTEX
  5
2F8
330
2EE
100
AcDbEntity
  8
STANDARDEBENE
 62
     7
100
AcDbVertex
100
AcDb2dVertex
 10
111.2218071553543
 20
141.4253037840881
 30
0.0
  0
VERTEX
  5
2F9
330
2EE
100
AcDbEntity
  8
STANDARDEBENE
 62
     7
100
AcDbVertex
100
AcDb2dVertex
 10
109.4875460880795
 20
141.4253037840881
 30
0.0
  0
VERTEX
  5
2FA
330
2EE
100
AcDbEntity
  8
STANDARDEBENE
 62
     7
100
AcDbVertex
100
AcDb2dVertex
 10
107.6358072647577
 20
141.4253037840881
 30
0.0
  0
VERTEX
  5
2FB
330
2EE
100
AcDbEntity
  8
STANDARDEBENE
 62
     7
100
AcDbVertex
100
AcDb2dVertex
 10
105.6841606723637
 20
141.4253037840881
 30
0.0
  0
VERTEX
  5
2FC
330
2EE
100
AcDbEntity
  8
STANDARDEBENE
 62
     7
100
AcDbVertex
100
AcDb2dVertex
 10
103.6515543360663
 20
141.4253037840881
 30
0.0
  0
VERTEX
  5
2FD
330
2EE
100
AcDbEntity
  8
STANDARDEBENE
 62
     7
100
AcDbVertex
100
AcDb2dVertex
 10
101.5569362810344
 20
141.4253037840881
 30
0.0
  0
VERTEX
  5
2FE
330
2EE
100
AcDbEntity
  8
STANDARDEBENE
 62
     7
100
AcDbVertex
100
AcDb2dVertex
 10
99.42166609927654
 20
141.4253037840881
 30
0.0
  0
VERTEX
  5
2FF
330
2EE
100
AcDbEntity
  8
STANDARDEBENE
 62
     7
100
AcDbVertex
100
AcDb2dVertex
 10
97.26572534460719
 20
141.4253037840881
 30
0.0
  0
VERTEX
  5
300
330
2EE
100
AcDbEntity
  8
STANDARDEBENE
 62
     7
100
AcDbVertex
100
AcDb2dVertex
 10
95.10840655174374
 20
141.4253037840881
 30
0.0
  0
VERTEX
  5
301
330
2EE
100
AcDbEntity
  8
STANDARDEBENE
 62
     7
100
AcDbVertex
100
AcDb2dVertex
 10
92.9734808795344
 20
141.4253037840881
 30
0.0
  0
VERTEX
  5
302
330
2EE
100
AcDbEntity
  8
STANDARDEBENE
 62
     7
100
AcDbVertex
100
AcDb2dVertex
 10
90.8788628245025
 20
141.4253037840881
 30
0.0
  0
VERTEX
  5
303
330
2EE
100
AcDbEntity
  8
STANDARDEBENE
 62
     7
100
AcDbVertex
100
AcDb2dVertex
 10
88.84591197865659
 20
141.4253037840881
 30
0.0
  0
VERTEX
  5
304
330
2EE
100
AcDbEntity
  8
STANDARDEBENE
 62
     7
100
AcDbVertex
100
AcDb2dVertex
 10
86.89392087671402
 20
141.4253037840881
 30
0.0
  0
VERTEX
  5
305
330
2EE
100
AcDbEntity
  8
STANDARDEBENE
 62
     7
100
AcDbVertex
100
AcDb2dVertex
 10
85.04287107248929
 20
141.4253037840881
 30
0.0
  0
VERTEX
  5
306
330
2EE
100
AcDbEntity
  8
STANDARDEBENE
 62
     7
100
AcDbVertex
100
AcDb2dVertex
 10
83.30861000521452
 20
141.4253037840881
 30
0.0
  0
VERTEX
  5
307
330
2EE
100
AcDbEntity
  8
STANDARDEBENE
 62
     7
100
AcDbVertex
100
AcDb2dVertex
 10
81.7087076618645
 20
141.4253037840881
 30
0.0
  0
VERTEX
  5
308
330
2EE
100
AcDbEntity
  8
STANDARDEBENE
 62
     7
100
AcDbVertex
100
AcDb2dVertex
 10
80.25866697212284
 20
141.4253037840881
 30
0.0
  0
VERTEX
  5
309
330
2EE
100
AcDbEntity
  8
STANDARDEBENE
 62
     7
100
AcDbVertex
100
AcDb2dVertex
 10
78.97261282747907
 20
141.4253037840881
 30
0.0
  0
VERTEX
  5
30A
330
2EE
100
AcDbEntity
  8
STANDARDEBENE
 62
     7
100
AcDbVertex
100
AcDb2dVertex
 10
77.8629475716801
 20
141.4253037840881
 30
0.0
  0
VERTEX
  5
30B
330
2EE
100
AcDbEntity
  8
STANDARDEBENE
 62
     7
100
AcDbVertex
100
AcDb2dVertex
 10
76.93966198163314
 20
141.4253037840881
 30
0.0
  0
VERTEX
  5
30C
330
2EE
100
AcDbEntity
  8
STANDARDEBENE
 62
     7
100
AcDbVertex
100
AcDb2dVertex
 10
76.2124023246969
 20
141.4253037840881
 30
0.0
  0
VERTEX
  5
30D
330
2EE
100
AcDbEntity
  8
STANDARDEBENE
 62
     7
100
AcDbVertex
100
AcDb2dVertex
 10
75.68805879184188
 20
141.4253037840881
 30
0.0
  0
VERTEX
  5
30E
330
2EE
100
AcDbEntity
  8
STANDARDEBENE
 62
     7
100
AcDbVertex
100
AcDb2dVertex
 10
75.3711100071989
 20
141.4253037840881
 30
0.0
  0
VERTEX
  5
30F
330
2EE
100
AcDbEntity
  8
STANDARDEBENE
 62
     7
100
AcDbVertex
100
AcDb2dVertex
 10
75.26534557580172
 20
141.4253037840881
 30
0.0
  0
SEQEND
  5
310
330
2EE
100
AcDbEntity
  8
STANDARDEBENE
  0
POLYLINE
  5
311
330
1F
100
AcDbEntity
  8
STANDARDEBENE
 62
     7
100
AcDb2dPolyline
 66
     1
 10
0.0
 20
0.0
 30
0.0
  0
VERTEX
  5
312
330
311
100
AcDbEntity
  8
STANDARDEBENE
 62
     7
100
AcDbVertex
100
AcDb2dVertex
 10
118.7648437203088
 20
140.9254204291784
 30
0.0
  0
VERTEX
  5
313
330
311
100
AcDbEntity
  8
STANDARDEBENE
 62
     7
100
AcDbVertex
100
AcDb2dVertex
 10
118.6614908557513
 20
140.9254204291784
 30
0.0
  0
VERTEX
  5
314
330
311
100
AcDbEntity
  8
STANDARDEBENE
 62
     7
100
AcDbVertex
100
AcDb2dVertex
 10
118.3521212811759
 20
140.9254204291784
 30
0.0
  0
VERTEX
  5
315
330
311
100
AcDbEntity
  8
STANDARDEBENE
 62
     7
100
AcDbVertex
100
AcDb2dVertex
 10
117.8391465634222
 20
140.9254204291784
 30
0.0
  0
VERTEX
  5
316
330
311
100
AcDbEntity
  8
STANDARDEBENE
 62
     7
100
AcDbVertex
100
AcDb2dVertex
 10
117.1280788552666
 20
140.9254204291784
 30
0.0
  0
VERTEX
  5
317
330
311
100
AcDbEntity
  8
STANDARDEBENE
 62
     7
100
AcDbVertex
100
AcDb2dVertex
 10
116.2261528572282
 20
140.9254204291784
 30
0.0
  0
VERTEX
  5
318
330
311
100
AcDbEntity
  8
STANDARDEBENE
 62
     7
100
AcDbVertex
100
AcDb2dVertex
 10
115.141292288923
 20
140.9254204291784
 30
0.0
  0
VERTEX
  5
319
330
311
100
AcDbEntity
  8
STANDARDEBENE
 62
     7
100
AcDbVertex
100
AcDb2dVertex
 10
113.8848659654524
 20
140.9254204291784
 30
0.0
  0
VERTEX
  5
31A
330
311
100
AcDbEntity
  8
STANDARDEBENE
 62
     7
100
AcDbVertex
100
AcDb2dVertex
 10
112.4678981923691
 20
140.9254204291784
 30
0.0
  0
VERTEX
  5
31B
330
311
100
AcDbEntity
  8
STANDARDEBENE
 62
     7
100
AcDbVertex
100
AcDb2dVertex
 10
110.9045138611628
 20
140.9254204291784
 30
0.0
  0
VERTEX
  5
31C
330
311
100
AcDbEntity
  8
STANDARDEBENE
 62
     7
100
AcDbVertex
100
AcDb2dVertex
 10
109.2095268824199
 20
140.9254204291784
 30
0.0
  0
VERTEX
  5
31D
330
311
100
AcDbEntity
  8
STANDARDEBENE
 62
     7
100
AcDbVertex
100
AcDb2dVertex
 10
107.3998182240181
 20
140.9254204291784
 30
0.0
  0
VERTEX
  5
31E
330
311
100
AcDbEntity
  8
STANDARDEBENE
 62
     7
100
AcDbVertex
100
AcDb2dVertex
 10
105.4929578729323
 20
140.9254204291784
 30
0.0
  0
VERTEX
  5
31F
330
311
100
AcDbEntity
  8
STANDARDEBENE
 62
     7
100
AcDbVertex
100
AcDb2dVertex
 10
103.5054822874917
 20
140.9254204291784
 30
0.0
  0
VERTEX
  5
320
330
311
100
AcDbEntity
  8
STANDARDEBENE
 62
     7
100
AcDbVertex
100
AcDb2dVertex
 10
101.4590955692533
 20
140.9254204291784
 30
0.0
  0
VERTEX
  5
321
330
311
100
AcDbEntity
  8
STANDARDEBENE
 62
     7
100
AcDbVertex
100
AcDb2dVertex
 10
99.37205672428894
 20
140.9254204291784
 30
0.0
  0
VERTEX
  5
322
330
311
100
AcDbEntity
  8
STANDARDEBENE
 62
     7
100
AcDbVertex
100
AcDb2dVertex
 10
97.26572534460719
 20
140.9254204291784
 30
0.0
  0
VERTEX
  5
323
330
311
100
AcDbEntity
  8
STANDARDEBENE
 62
     7
100
AcDbVertex
100
AcDb2dVertex
 10
95.15767141718281
 20
140.9254204291784
 30
0.0
  0
VERTEX
  5
324
330
311
100
AcDbEntity
  8
STANDARDEBENE
 62
     7
100
AcDbVertex
100
AcDb2dVertex
 10
93.07063257221846
 20
140.9254204291784
 30
0.0
  0
VERTEX
  5
325
330
311
100
AcDbEntity
  8
STANDARDEBENE
 62
     7
100
AcDbVertex
100
AcDb2dVertex
 10
91.02355683488301
 20
140.9254204291784
 30
0.0
  0
VERTEX
  5
326
330
311
100
AcDbEntity
  8
STANDARDEBENE
 62
     7
100
AcDbVertex
100
AcDb2dVertex
 10
89.03745928763647
 20
140.9254204291784
 30
0.0
  0
VERTEX
  5
327
330
311
100
AcDbEntity
  8
STANDARDEBENE
 62
     7
100
AcDbVertex
100
AcDb2dVertex
 10
87.13025442700216
 20
140.9254204291784
 30
0.0
  0
VERTEX
  5
328
330
311
100
AcDbEntity
  8
STANDARDEBENE
 62
     7
100
AcDbVertex
100
AcDb2dVertex
 10
85.32054576860043
 20
140.9254204291784
 30
0.0
  0
VERTEX
  5
329
330
311
100
AcDbEntity
  8
STANDARDEBENE
 62
     7
100
AcDbVertex
100
AcDb2dVertex
 10
83.62555878985751
 20
140.9254204291784
 30
0.0
  0
VERTEX
  5
32A
330
311
100
AcDbEntity
  8
STANDARDEBENE
 62
     7
100
AcDbVertex
100
AcDb2dVertex
 10
82.06217445865113
 20
140.9254204291784
 30
0.0
  0
VERTEX
  5
32B
330
311
100
AcDbEntity
  8
STANDARDEBENE
 62
     7
100
AcDbVertex
100
AcDb2dVertex
 10
80.64520668556787
 20
140.9254204291784
 30
0.0
  0
VERTEX
  5
32C
330
311
100
AcDbEntity
  8
STANDARDEBENE
 62
     7
100
AcDbVertex
100
AcDb2dVertex
 10
79.3880913430002
 20
140.9254204291784
 30
0.0
  0
VERTEX
  5
32D
330
311
100
AcDbEntity
  8
STANDARDEBENE
 62
     7
100
AcDbVertex
100
AcDb2dVertex
 10
78.30391979379208
 20
140.9254204291784
 30
0.0
  0
VERTEX
  5
32E
330
311
100
AcDbEntity
  8
STANDARDEBENE
 62
     7
100
AcDbVertex
100
AcDb2dVertex
 10
77.40164928620514
 20
140.9254204291784
 30
0.0
  0
VERTEX
  5
32F
330
311
100
AcDbEntity
  8
STANDARDEBENE
 62
     7
100
AcDbVertex
100
AcDb2dVertex
 10
76.6909260875981
 20
140.9254204291784
 30
0.0
  0
VERTEX
  5
330
330
311
100
AcDbEntity
  8
STANDARDEBENE
 62
     7
100
AcDbVertex
100
AcDb2dVertex
 10
76.17864038894146
 20
140.9254204291784
 30
0.0
  0
VERTEX
  5
331
330
311
100
AcDbEntity
  8
STANDARDEBENE
 62
     7
100
AcDbVertex
100
AcDb2dVertex
 10
75.86858179526897
 20
140.9254204291784
 30
0.0
  0
VERTEX
  5
332
330
311
100
AcDbEntity
  8
STANDARDEBENE
 62
     7
100
AcDbVertex
100
AcDb2dVertex
 10
75.76522893071147
 20
140.9254204291784
 30
0.0
  0
SEQEND
  5
333
330
311
100
AcDbEntity
  8
STANDARDEBENE
  0
SPLINE
  5
334
330
1F
100
AcDbEntity
  8
STANDARDEBENE
 62
     7
100
AcDbSpline
210
0.0
220
0.0
230
1.0
 70
     8
 71
     3
 72
     8
 73
     4
 74
     0
 42
0.0000000001
 43
0.0000000001
 40
0.0
 40
0.0
 40
0.0
 40
0.0
 40
1.0
 40
1.0
 40
1.0
 40
1.0
 10
110.6182264263385
 20
140.9254204291784
 30
0.0
 10
110.5155625808781
 20
140.8110432590681
 30
0.0
 10
110.4645751676964
 20
140.6677272868817
 30
0.0
 10
110.4645751676964
 20
140.5254448433409
 30
0.0
  0
SPLINE
  5
335
330
1F
100
AcDbEntity
  8
STANDARDEBENE
 62
     7
100
AcDbSpline
210
0.0
220
0.0
230
1.0
 70
     8
 71
     3
 72
     8
 73
     4
 74
     0
 42
0.0000000001
 43
0.0000000001
 40
0.0
 40
0.0
 40
0.0
 40
0.0
 40
1.0
 40
1.0
 40
1.0
 40
1.0
 10
84.06515297377538
 20
140.5254448433409
 30
0.0
 10
84.06515297377538
 20
140.6801296306286
 30
0.0
 10
84.00693086007466
 20
140.8196559977812
 30
0.0
 10
83.91253524377882
 20
140.9254204291784
 30
0.0
  0
SPLINE
  5
336
330
1F
100
AcDbEntity
  8
STANDARDEBENE
 62
     7
100
AcDbSpline
210
0.0
220
0.0
230
1.0
 70
     8
 71
     3
 72
    11
 73
     7
 74
     0
 42
0.0000000001
 43
0.0000000001
 40
0.0
 40
0.0
 40
0.0
 40
0.0
 40
1.0
 40
1.0
 40
1.0
 40
2.0
 40
2.0
 40
2.0
 40
2.0
 10
84.1647162332991
 20
124.7255479288881
 30
0.0
 10
83.90426701461422
 20
124.5302110148744
 30
0.0
 10
83.76646319520422
 20
124.2315212363032
 30
0.0
 10
83.76508515701012
 20
123.9252522476645
 30
0.0
 10
83.76508515701012
 20
123.373003441379
 30
0.0
 10
84.21260306054407
 20
122.925485537845
 30
0.0
 10
84.76554088592667
 20
122.925485537845
 30
0.0
  0
POLYLINE
  5
337
330
1F
100
AcDbEntity
  8
STANDARDEBENE
 62
     7
100
AcDb2dPolyline
 66
     1
 10
0.0
 20
0.0
 30
0.0
  0
VERTEX
  5
338
330
337
100
AcDbEntity
  8
STANDARDEBENE
 62
     7
100
AcDbVertex
100
AcDb2dVertex
 10
97.26572534460719
 20
124.7255479288881
 30
0.0
  0
VERTEX
  5
339
330
337
100
AcDbEntity
  8
STANDARDEBENE
 62
     7
100
AcDbVertex
100
AcDb2dVertex
 10
95.55557994572916
 20
124.7255479288881
 30
0.0
  0
VERTEX
  5
33A
330
337
100
AcDbEntity
  8
STANDARDEBENE
 62
     7
100
AcDbVertex
100
AcDb2dVertex
 10
93.87437334892725
 20
124.7255479288881
 30
0.0
  0
VERTEX
  5
33B
330
337
100
AcDbEntity
  8
STANDARDEBENE
 62
     7
100
AcDbVertex
100
AcDb2dVertex
 10
92.25138886582604
 20
124.7255479288881
 30
0.0
  0
VERTEX
  5
33C
330
337
100
AcDbEntity
  8
STANDARDEBENE
 62
     7
100
AcDbVertex
100
AcDb2dVertex
 10
90.71487627940462
 20
124.7255479288881
 30
0.0
  0
VERTEX
  5
33D
330
337
100
AcDbEntity
  8
STANDARDEBENE
 62
     7
100
AcDbVertex
100
AcDb2dVertex
 10
89.29067380580234
 20
124.7255479288881
 30
0.0
  0
VERTEX
  5
33E
330
337
100
AcDbEntity
  8
STANDARDEBENE
 62
     7
100
AcDbVertex
100
AcDb2dVertex
 10
88.0022080943189
 20
124.7255479288881
 30
0.0
  0
VERTEX
  5
33F
330
337
100
AcDbEntity
  8
STANDARDEBENE
 62
     7
100
AcDbVertex
100
AcDb2dVertex
 10
86.87256128470547
 20
124.7255479288881
 30
0.0
  0
VERTEX
  5
340
330
337
100
AcDbEntity
  8
STANDARDEBENE
 62
     7
100
AcDbVertex
100
AcDb2dVertex
 10
85.9199923830339
 20
124.7255479288881
 30
0.0
  0
VERTEX
  5
341
330
337
100
AcDbEntity
  8
STANDARDEBENE
 62
     7
100
AcDbVertex
100
AcDb2dVertex
 10
85.16207137627893
 20
124.7255479288881
 30
0.0
  0
VERTEX
  5
342
330
337
100
AcDbEntity
  8
STANDARDEBENE
 62
     7
100
AcDbVertex
100
AcDb2dVertex
 10
84.61085609863896
 20
124.7255479288881
 30
0.0
  0
VERTEX
  5
343
330
337
100
AcDbEntity
  8
STANDARDEBENE
 62
     7
100
AcDbVertex
100
AcDb2dVertex
 10
84.2777153652153
 20
124.7255479288881
 30
0.0
  0
VERTEX
  5
344
330
337
100
AcDbEntity
  8
STANDARDEBENE
 62
     7
100
AcDbVertex
100
AcDb2dVertex
 10
84.1647162332991
 20
124.7255479288881
 30
0.0
  0
SEQEND
  5
345
330
337
100
AcDbEntity
  8
STANDARDEBENE
  0
POLYLINE
  5
346
330
1F
100
AcDbEntity
  8
STANDARDEBENE
 62
     7
100
AcDb2dPolyline
 66
     1
 10
0.0
 20
0.0
 30
0.0
  0
VERTEX
  5
347
330
346
100
AcDbEntity
  8
STANDARDEBENE
 62
     7
100
AcDbVertex
100
AcDb2dVertex
 10
97.26572534460719
 20
122.925485537845
 30
0.0
  0
VERTEX
  5
348
330
346
100
AcDbEntity
  8
STANDARDEBENE
 62
     7
100
AcDbVertex
100
AcDb2dVertex
 10
95.63378361324433
 20
122.925485537845
 30
0.0
  0
VERTEX
  5
349
330
346
100
AcDbEntity
  8
STANDARDEBENE
 62
     7
100
AcDbVertex
100
AcDb2dVertex
 10
94.02974715531201
 20
122.925485537845
 30
0.0
  0
VERTEX
  5
34A
330
346
100
AcDbEntity
  8
STANDARDEBENE
 62
     7
100
AcDbVertex
100
AcDb2dVertex
 10
92.48117673469221
 20
122.925485537845
 30
0.0
  0
VERTEX
  5
34B
330
346
100
AcDbEntity
  8
STANDARDEBENE
 62
     7
100
AcDbVertex
100
AcDb2dVertex
 10
91.01494409616988
 20
122.925485537845
 30
0.0
  0
VERTEX
  5
34C
330
346
100
AcDbEntity
  8
STANDARDEBENE
 62
     7
100
AcDbVertex
100
AcDb2dVertex
 10
89.65585392723882
 20
122.925485537845
 30
0.0
  0
VERTEX
  5
34D
330
346
100
AcDbEntity
  8
STANDARDEBENE
 62
     7
100
AcDbVertex
100
AcDb2dVertex
 10
88.42595483900463
 20
122.925485537845
 30
0.0
  0
VERTEX
  5
34E
330
346
100
AcDbEntity
  8
STANDARDEBENE
 62
     7
100
AcDbVertex
100
AcDb2dVertex
 10
87.34798446166995
 20
122.925485537845
 30
0.0
  0
VERTEX
  5
34F
330
346
100
AcDbEntity
  8
STANDARDEBENE
 62
     7
100
AcDbVertex
100
AcDb2dVertex
 10
86.4398572917581
 20
122.925485537845
 30
0.0
  0
VERTEX
  5
350
330
346
100
AcDbEntity
  8
STANDARDEBENE
 62
     7
100
AcDbVertex
100
AcDb2dVertex
 10
85.71638723985564
 20
122.925485537845
 30
0.0
  0
VERTEX
  5
351
330
346
100
AcDbEntity
  8
STANDARDEBENE
 62
     7
100
AcDbVertex
100
AcDb2dVertex
 10
85.19101017835503
 20
122.925485537845
 30
0.0
  0
VERTEX
  5
352
330
346
100
AcDbEntity
  8
STANDARDEBENE
 62
     7
100
AcDbVertex
100
AcDb2dVertex
 10
84.8719943364209
 20
122.925485537845
 30
0.0
  0
VERTEX
  5
353
330
346
100
AcDbEntity
  8
STANDARDEBENE
 62
     7
100
AcDbVertex
100
AcDb2dVertex
 10
84.76554088592667
 20
122.925485537845
 30
0.0
  0
SEQEND
  5
354
330
346
100
AcDbEntity
  8
STANDARDEBENE
  0
SPLINE
  5
355
330
1F
100
AcDbEntity
  8
STANDARDEBENE
 62
     7
100
AcDbSpline
210
0.0
220
0.0
230
1.0
 70
     8
 71
     3
 72
     8
 73
     4
 74
     0
 42
0.0000000001
 43
0.0000000001
 40
0.0
 40
0.0
 40
0.0
 40
0.0
 40
1.0
 40
1.0
 40
1.0
 40
1.0
 10
110.7653320035587
 20
123.9252522476645
 30
0.0
 10
110.7653320035587
 20
124.2511582805692
 30
0.0
 10
110.6085801589798
 20
124.5408908108787
 30
0.0
 10
110.3650119081726
 20
124.7255479288881
 30
0.0
  0
SPLINE
  5
356
330
1F
100
AcDbEntity
  8
STANDARDEBENE
 62
     7
100
AcDbSpline
210
0.0
220
0.0
230
1.0
 70
     8
 71
     3
 72
     8
 73
     4
 74
     0
 42
0.0000000001
 43
0.0000000001
 40
0.0
 40
0.0
 40
0.0
 40
0.0
 40
1.0
 40
1.0
 40
1.0
 40
1.0
 10
109.7648762746421
 20
122.925485537845
 30
0.0
 10
110.3167805713791
 20
122.925485537845
 30
0.0
 10
110.7653320035587
 20
123.373003441379
 30
0.0
 10
110.7653320035587
 20
123.9252522476645
 30
0.0
  0
POLYLINE
  5
357
330
1F
100
AcDbEntity
  8
STANDARDEBENE
 62
     7
100
AcDb2dPolyline
 66
     1
 10
0.0
 20
0.0
 30
0.0
  0
VERTEX
  5
358
330
357
100
AcDbEntity
  8
STANDARDEBENE
 62
     7
100
AcDbVertex
100
AcDb2dVertex
 10
109.7648762746421
 20
122.925485537845
 30
0.0
  0
VERTEX
  5
359
330
357
100
AcDbEntity
  8
STANDARDEBENE
 62
     7
100
AcDbVertex
100
AcDb2dVertex
 10
109.6577338050509
 20
122.925485537845
 30
0.0
  0
VERTEX
  5
35A
330
357
100
AcDbEntity
  8
STANDARDEBENE
 62
     7
100
AcDbVertex
100
AcDb2dVertex
 10
109.3397514917623
 20
122.925485537845
 30
0.0
  0
VERTEX
  5
35B
330
357
100
AcDbEntity
  8
STANDARDEBENE
 62
     7
100
AcDbVertex
100
AcDb2dVertex
 10
108.8136854111646
 20
122.925485537845
 30
0.0
  0
VERTEX
  5
35C
330
357
100
AcDbEntity
  8
STANDARDEBENE
 62
     7
100
AcDbVertex
100
AcDb2dVertex
 10
108.0905598688107
 20
122.925485537845
 30
0.0
  0
VERTEX
  5
35D
330
357
100
AcDbEntity
  8
STANDARDEBENE
 62
     7
100
AcDbVertex
100
AcDb2dVertex
 10
107.1817436798018
 20
122.925485537845
 30
0.0
  0
VERTEX
  5
35E
330
357
100
AcDbEntity
  8
STANDARDEBENE
 62
     7
100
AcDbVertex
100
AcDb2dVertex
 10
106.1037733024671
 20
122.925485537845
 30
0.0
  0
VERTEX
  5
35F
330
357
100
AcDbEntity
  8
STANDARDEBENE
 62
     7
100
AcDbVertex
100
AcDb2dVertex
 10
104.8742187237815
 20
122.925485537845
 30
0.0
  0
VERTEX
  5
360
330
357
100
AcDbEntity
  8
STANDARDEBENE
 62
     7
100
AcDbVertex
100
AcDb2dVertex
 10
103.5151285548504
 20
122.925485537845
 30
0.0
  0
VERTEX
  5
361
330
357
100
AcDbEntity
  8
STANDARDEBENE
 62
     7
100
AcDbVertex
100
AcDb2dVertex
 10
102.0485514067795
 20
122.925485537845
 30
0.0
  0
VERTEX
  5
362
330
357
100
AcDbEntity
  8
STANDARDEBENE
 62
     7
100
AcDbVertex
100
AcDb2dVertex
 10
100.5003254957083
 20
122.925485537845
 30
0.0
  0
VERTEX
  5
363
330
357
100
AcDbEntity
  8
STANDARDEBENE
 62
     7
100
AcDbVertex
100
AcDb2dVertex
 10
98.89663354732446
 20
122.925485537845
 30
0.0
  0
VERTEX
  5
364
330
357
100
AcDbEntity
  8
STANDARDEBENE
 62
     7
100
AcDbVertex
100
AcDb2dVertex
 10
97.26572534460719
 20
122.925485537845
 30
0.0
  0
SEQEND
  5
365
330
357
100
AcDbEntity
  8
STANDARDEBENE
  0
POLYLINE
  5
366
330
1F
100
AcDbEntity
  8
STANDARDEBENE
 62
     7
100
AcDb2dPolyline
 66
     1
 10
0.0
 20
0.0
 30
0.0
  0
VERTEX
  5
367
330
366
100
AcDbEntity
  8
STANDARDEBENE
 62
     7
100
AcDbVertex
100
AcDb2dVertex
 10
110.3650119081726
 20
124.7255479288881
 30
0.0
  0
VERTEX
  5
368
330
366
100
AcDbEntity
  8
STANDARDEBENE
 62
     7
100
AcDbVertex
100
AcDb2dVertex
 10
110.253046304902
 20
124.7255479288881
 30
0.0
  0
VERTEX
  5
369
330
366
100
AcDbEntity
  8
STANDARDEBENE
 62
     7
100
AcDbVertex
100
AcDb2dVertex
 10
109.9185275332843
 20
124.7255479288881
 30
0.0
  0
VERTEX
  5
36A
330
366
100
AcDbEntity
  8
STANDARDEBENE
 62
     7
100
AcDbVertex
100
AcDb2dVertex
 10
109.3680012747413
 20
124.7255479288881
 30
0.0
  0
VERTEX
  5
36B
330
366
100
AcDbEntity
  8
STANDARDEBENE
 62
     7
100
AcDbVertex
100
AcDb2dVertex
 10
108.6100802679864
 20
124.7255479288881
 30
0.0
  0
VERTEX
  5
36C
330
366
100
AcDbEntity
  8
STANDARDEBENE
 62
     7
100
AcDbVertex
100
AcDb2dVertex
 10
107.6578558758633
 20
124.7255479288881
 30
0.0
  0
VERTEX
  5
36D
330
366
100
AcDbEntity
  8
STANDARDEBENE
 62
     7
100
AcDbVertex
100
AcDb2dVertex
 10
106.5278645567014
 20
124.7255479288881
 30
0.0
  0
VERTEX
  5
36E
330
366
100
AcDbEntity
  8
STANDARDEBENE
 62
     7
100
AcDbVertex
100
AcDb2dVertex
 10
105.240087864315
 20
124.7255479288881
 30
0.0
  0
VERTEX
  5
36F
330
366
100
AcDbEntity
  8
STANDARDEBENE
 62
     7
100
AcDbVertex
100
AcDb2dVertex
 10
103.8151963716157
 20
124.7255479288881
 30
0.0
  0
VERTEX
  5
370
330
366
100
AcDbEntity
  8
STANDARDEBENE
 62
     7
100
AcDbVertex
100
AcDb2dVertex
 10
102.2779947660972
 20
124.7255479288881
 30
0.0
  0
VERTEX
  5
371
330
366
100
AcDbEntity
  8
STANDARDEBENE
 62
     7
100
AcDbVertex
100
AcDb2dVertex
 10
100.655699302093
 20
124.7255479288881
 30
0.0
  0
VERTEX
  5
372
330
366
100
AcDbEntity
  8
STANDARDEBENE
 62
     7
100
AcDbVertex
100
AcDb2dVertex
 10
98.97483721483962
 20
124.7255479288881
 30
0.0
  0
VERTEX
  5
373
330
366
100
AcDbEntity
  8
STANDARDEBENE
 62
     7
100
AcDbVertex
100
AcDb2dVertex
 10
97.26572534460719
 20
124.7255479288881
 30
0.0
  0
SEQEND
  5
374
330
366
100
AcDbEntity
  8
STANDARDEBENE
  0
POLYLINE
  5
375
330
1F
100
AcDbEntity
  8
STANDARDEBENE
 62
     7
100
AcDb2dPolyline
 66
     1
 10
0.0
 20
0.0
 30
0.0
  0
VERTEX
  5
376
330
375
100
AcDbEntity
  8
STANDARDEBENE
 62
     7
100
AcDbVertex
100
AcDb2dVertex
 10
110.7653320035587
 20
126.7254258580756
 30
0.0
  0
VERTEX
  5
377
330
375
100
AcDbEntity
  8
STANDARDEBENE
 62
     7
100
AcDbVertex
100
AcDb2dVertex
 10
110.6495767952543
 20
126.7254258580756
 30
0.0
  0
VERTEX
  5
378
330
375
100
AcDbEntity
  8
STANDARDEBENE
 62
     7
100
AcDbVertex
100
AcDb2dVertex
 10
110.3054117562778
 20
126.7254258580756
 30
0.0
  0
VERTEX
  5
379
330
375
100
AcDbEntity
  8
STANDARDEBENE
 62
     7
100
AcDbVertex
100
AcDb2dVertex
 10
109.7373155107601
 20
126.7254258580756
 30
0.0
  0
VERTEX
  5
37A
330
375
100
AcDbEntity
  8
STANDARDEBENE
 62
     7
100
AcDbVertex
100
AcDb2dVertex
 10
108.956312364254
 20
126.7254258580756
 30
0.0
  0
VERTEX
  5
37B
330
375
100
AcDbEntity
  8
STANDARDEBENE
 62
     7
100
AcDbVertex
100
AcDb2dVertex
 10
107.9754936796034
 20
126.7254258580756
 30
0.0
  0
VERTEX
  5
37C
330
375
100
AcDbEntity
  8
STANDARDEBENE
 62
     7
100
AcDbVertex
100
AcDb2dVertex
 10
106.8110514055889
 20
126.7254258580756
 30
0.0
  0
VERTEX
  5
37D
330
375
100
AcDbEntity
  8
STANDARDEBENE
 62
     7
100
AcDbVertex
100
AcDb2dVertex
 10
105.4829670960251
 20
126.7254258580756
 30
0.0
  0
VERTEX
  5
37E
330
375
100
AcDbEntity
  8
STANDARDEBENE
 62
     7
100
AcDbVertex
100
AcDb2dVertex
 10
104.0153564193087
 20
126.7254258580756
 30
0.0
  0
VERTEX
  5
37F
330
375
100
AcDbEntity
  8
STANDARDEBENE
 62
     7
100
AcDbVertex
100
AcDb2dVertex
 10
102.4313015151908
 20
126.7254258580756
 30
0.0
  0
VERTEX
  5
380
330
375
100
AcDbEntity
  8
STANDARDEBENE
 62
     7
100
AcDbVertex
100
AcDb2dVertex
 10
100.7590521666505
 20
126.7254258580756
 30
0.0
  0
VERTEX
  5
381
330
375
100
AcDbEntity
  8
STANDARDEBENE
 62
     7
100
AcDbVertex
100
AcDb2dVertex
 10
99.02754717576396
 20
126.7254258580756
 30
0.0
  0
VERTEX
  5
382
330
375
100
AcDbEntity
  8
STANDARDEBENE
 62
     7
100
AcDbVertex
100
AcDb2dVertex
 10
97.26572534460719
 20
126.7254258580756
 30
0.0
  0
SEQEND
  5
383
330
375
100
AcDbEntity
  8
STANDARDEBENE
  0
POLYLINE
  5
384
330
1F
100
AcDbEntity
  8
STANDARDEBENE
 62
     7
100
AcDb2dPolyline
 66
     1
 10
0.0
 20
0.0
 30
0.0
  0
VERTEX
  5
385
330
384
100
AcDbEntity
  8
STANDARDEBENE
 62
     7
100
AcDbVertex
100
AcDb2dVertex
 10
110.7653320035587
 20
138.4256591450811
 30
0.0
  0
VERTEX
  5
386
330
384
100
AcDbEntity
  8
STANDARDEBENE
 62
     7
100
AcDbVertex
100
AcDb2dVertex
 10
110.6495767952543
 20
138.4256591450811
 30
0.0
  0
VERTEX
  5
387
330
384
100
AcDbEntity
  8
STANDARDEBENE
 62
     7
100
AcDbVertex
100
AcDb2dVertex
 10
110.3054117562778
 20
138.4256591450811
 30
0.0
  0
VERTEX
  5
388
330
384
100
AcDbEntity
  8
STANDARDEBENE
 62
     7
100
AcDbVertex
100
AcDb2dVertex
 10
109.7373155107601
 20
138.4256591450811
 30
0.0
  0
VERTEX
  5
389
330
384
100
AcDbEntity
  8
STANDARDEBENE
 62
     7
100
AcDbVertex
100
AcDb2dVertex
 10
108.956312364254
 20
138.4256591450811
 30
0.0
  0
VERTEX
  5
38A
330
384
100
AcDbEntity
  8
STANDARDEBENE
 62
     7
100
AcDbVertex
100
AcDb2dVertex
 10
107.9754936796034
 20
138.4256591450811
 30
0.0
  0
VERTEX
  5
38B
330
384
100
AcDbEntity
  8
STANDARDEBENE
 62
     7
100
AcDbVertex
100
AcDb2dVertex
 10
106.8110514055889
 20
138.4256591450811
 30
0.0
  0
VERTEX
  5
38C
330
384
100
AcDbEntity
  8
STANDARDEBENE
 62
     7
100
AcDbVertex
100
AcDb2dVertex
 10
105.4829670960251
 20
138.4256591450811
 30
0.0
  0
VERTEX
  5
38D
330
384
100
AcDbEntity
  8
STANDARDEBENE
 62
     7
100
AcDbVertex
100
AcDb2dVertex
 10
104.0153564193087
 20
138.4256591450811
 30
0.0
  0
VERTEX
  5
38E
330
384
100
AcDbEntity
  8
STANDARDEBENE
 62
     7
100
AcDbVertex
100
AcDb2dVertex
 10
102.4313015151908
 20
138.4256591450811
 30
0.0
  0
VERTEX
  5
38F
330
384
100
AcDbEntity
  8
STANDARDEBENE
 62
     7
100
AcDbVertex
100
AcDb2dVertex
 10
100.7590521666505
 20
138.4256591450811
 30
0.0
  0
VERTEX
  5
390
330
384
100
AcDbEntity
  8
STANDARDEBENE
 62
     7
100
AcDbVertex
100
AcDb2dVertex
 10
99.02754717576396
 20
138.4256591450811
 30
0.0
  0
VERTEX
  5
391
330
384
100
AcDbEntity
  8
STANDARDEBENE
 62
     7
100
AcDbVertex
100
AcDb2dVertex
 10
97.26572534460719
 20
138.4256591450811
 30
0.0
  0
SEQEND
  5
392
330
384
100
AcDbEntity
  8
STANDARDEBENE
  0
POLYLINE
  5
393
330
1F
100
AcDbEntity
  8
STANDARDEBENE
 62
     7
100
AcDb2dPolyline
 66
     1
 10
0.0
 20
0.0
 30
0.0
  0
VERTEX
  5
394
330
393
100
AcDbEntity
  8
STANDARDEBENE
 62
     7
100
AcDbVertex
100
AcDb2dVertex
 10
97.26572534460719
 20
126.7254258580756
 30
0.0
  0
VERTEX
  5
395
330
393
100
AcDbEntity
  8
STANDARDEBENE
 62
     7
100
AcDbVertex
100
AcDb2dVertex
 10
95.50286998480485
 20
126.7254258580756
 30
0.0
  0
VERTEX
  5
396
330
393
100
AcDbEntity
  8
STANDARDEBENE
 62
     7
100
AcDbVertex
100
AcDb2dVertex
 10
93.7703314652727
 20
126.7254258580756
 30
0.0
  0
VERTEX
  5
397
330
393
100
AcDbEntity
  8
STANDARDEBENE
 62
     7
100
AcDbVertex
100
AcDb2dVertex
 10
92.09842662628095
 20
126.7254258580756
 30
0.0
  0
VERTEX
  5
398
330
393
100
AcDbEntity
  8
STANDARDEBENE
 62
     7
100
AcDbVertex
100
AcDb2dVertex
 10
90.51437172216308
 20
126.7254258580756
 30
0.0
  0
VERTEX
  5
399
330
393
100
AcDbEntity
  8
STANDARDEBENE
 62
     7
100
AcDbVertex
100
AcDb2dVertex
 10
89.04676104544664
 20
126.7254258580756
 30
0.0
  0
VERTEX
  5
39A
330
393
100
AcDbEntity
  8
STANDARDEBENE
 62
     7
100
AcDbVertex
100
AcDb2dVertex
 10
87.71902124543136
 20
126.7254258580756
 30
0.0
  0
VERTEX
  5
39B
330
393
100
AcDbEntity
  8
STANDARDEBENE
 62
     7
100
AcDbVertex
100
AcDb2dVertex
 10
86.55457897141692
 20
126.7254258580756
 30
0.0
  0
VERTEX
  5
39C
330
393
100
AcDbEntity
  8
STANDARDEBENE
 62
     7
100
AcDbVertex
100
AcDb2dVertex
 10
85.57341577721776
 20
126.7254258580756
 30
0.0
  0
VERTEX
  5
39D
330
393
100
AcDbEntity
  8
STANDARDEBENE
 62
     7
100
AcDbVertex
100
AcDb2dVertex
 10
84.79241263071162
 20
126.7254258580756
 30
0.0
  0
VERTEX
  5
39E
330
393
100
AcDbEntity
  8
STANDARDEBENE
 62
     7
100
AcDbVertex
100
AcDb2dVertex
 10
84.22500540429097
 20
126.7254258580756
 30
0.0
  0
VERTEX
  5
39F
330
393
100
AcDbEntity
  8
STANDARDEBENE
 62
     7
100
AcDbVertex
100
AcDb2dVertex
 10
83.88118487486304
 20
126.7254258580756
 30
0.0
  0
VERTEX
  5
3A0
330
393
100
AcDbEntity
  8
STANDARDEBENE
 62
     7
100
AcDbVertex
100
AcDb2dVertex
 10
83.76508515701012
 20
126.7254258580756
 30
0.0
  0
SEQEND
  5
3A1
330
393
100
AcDbEntity
  8
STANDARDEBENE
  0
POLYLINE
  5
3A2
330
1F
100
AcDbEntity
  8
STANDARDEBENE
 62
     7
100
AcDb2dPolyline
 66
     1
 10
0.0
 20
0.0
 30
0.0
  0
VERTEX
  5
3A3
330
3A2
100
AcDbEntity
  8
STANDARDEBENE
 62
     7
100
AcDbVertex
100
AcDb2dVertex
 10
97.26572534460719
 20
138.4256591450811
 30
0.0
  0
VERTEX
  5
3A4
330
3A2
100
AcDbEntity
  8
STANDARDEBENE
 62
     7
100
AcDbVertex
100
AcDb2dVertex
 10
95.50286998480485
 20
138.4256591450811
 30
0.0
  0
VERTEX
  5
3A5
330
3A2
100
AcDbEntity
  8
STANDARDEBENE
 62
     7
100
AcDbVertex
100
AcDb2dVertex
 10
93.7703314652727
 20
138.4256591450811
 30
0.0
  0
VERTEX
  5
3A6
330
3A2
100
AcDbEntity
  8
STANDARDEBENE
 62
     7
100
AcDbVertex
100
AcDb2dVertex
 10
92.09842662628095
 20
138.4256591450811
 30
0.0
  0
VERTEX
  5
3A7
330
3A2
100
AcDbEntity
  8
STANDARDEBENE
 62
     7
100
AcDbVertex
100
AcDb2dVertex
 10
90.51437172216308
 20
138.4256591450811
 30
0.0
  0
VERTEX
  5
3A8
330
3A2
100
AcDbEntity
  8
STANDARDEBENE
 62
     7
100
AcDbVertex
100
AcDb2dVertex
 10
89.04676104544664
 20
138.4256591450811
 30
0.0
  0
VERTEX
  5
3A9
330
3A2
100
AcDbEntity
  8
STANDARDEBENE
 62
     7
100
AcDbVertex
100
AcDb2dVertex
 10
87.71902124543136
 20
138.4256591450811
 30
0.0
  0
VERTEX
  5
3AA
330
3A2
100
AcDbEntity
  8
STANDARDEBENE
 62
     7
100
AcDbVertex
100
AcDb2dVertex
 10
86.55457897141692
 20
138.4256591450811
 30
0.0
  0
VERTEX
  5
3AB
330
3A2
100
AcDbEntity
  8
STANDARDEBENE
 62
     7
100
AcDbVertex
100
AcDb2dVertex
 10
85.57341577721776
 20
138.4256591450811
 30
0.0
  0
VERTEX
  5
3AC
330
3A2
100
AcDbEntity
  8
STANDARDEBENE
 62
     7
100
AcDbVertex
100
AcDb2dVertex
 10
84.79241263071162
 20
138.4256591450811
 30
0.0
  0
VERTEX
  5
3AD
330
3A2
100
AcDbEntity
  8
STANDARDEBENE
 62
     7
100
AcDbVertex
100
AcDb2dVertex
 10
84.22500540429097
 20
138.4256591450811
 30
0.0
  0
VERTEX
  5
3AE
330
3A2
100
AcDbEntity
  8
STANDARDEBENE
 62
     7
100
AcDbVertex
100
AcDb2dVertex
 10
83.88118487486304
 20
138.4256591450811
 30
0.0
  0
VERTEX
  5
3AF
330
3A2
100
AcDbEntity
  8
STANDARDEBENE
 62
     7
100
AcDbVertex
100
AcDb2dVertex
 10
83.76508515701012
 20
138.4256591450811
 30
0.0
  0
SEQEND
  5
3B0
330
3A2
100
AcDbEntity
  8
STANDARDEBENE
  0
SPLINE
  5
3B1
330
1F
100
AcDbEntity
  8
STANDARDEBENE
 62
     7
100
AcDbSpline
210
0.0
220
0.0
230
1.0
 70
     8
 71
     3
 72
     8
 73
     4
 74
     0
 42
0.0000000001
 43
0.0000000001
 40
0.0
 40
0.0
 40
0.0
 40
0.0
 40
1.0
 40
1.0
 40
1.0
 40
1.0
 10
84.04448240086388
 20
139.4684895484662
 30
0.0
 10
84.05895180190193
 20
139.5225775475846
 30
0.0
 10
84.06584199287244
 20
139.5756320180575
 30
0.0
 10
84.06515297377538
 20
139.623863354851
 30
0.0
  0
SPLINE
  5
3B2
330
1F
100
AcDbEntity
  8
STANDARDEBENE
 62
     7
100
AcDbSpline
210
0.0
220
0.0
230
1.0
 70
     8
 71
     3
 72
     8
 73
     4
 74
     0
 42
0.0000000001
 43
0.0000000001
 40
0.0
 40
0.0
 40
0.0
 40
0.0
 40
1.0
 40
1.0
 40
1.0
 40
1.0
 10
110.4645751676964
 20
139.623863354851
 30
0.0
 10
110.4645751676964
 20
139.568741827087
 30
0.0
 10
110.4721543777639
 20
139.5153428470656
 30
0.0
 10
110.4859347597049
 20
139.4684895484662
 30
0.0
  0
SPLINE
  5
3B3
330
1F
100
AcDbEntity
  8
STANDARDEBENE
 62
     7
100
AcDbSpline
210
0.0
220
0.0
230
1.0
 70
     8
 71
     3
 72
     8
 73
     4
 74
     0
 42
0.0000000001
 43
0.0000000001
 40
0.0
 40
0.0
 40
0.0
 40
0.0
 40
1.0
 40
1.0
 40
1.0
 40
1.0
 10
106.5147731938574
 20
167.9256672757269
 30
0.0
 10
106.2391655550374
 20
167.9256672757269
 30
0.0
 10
106.0148898389477
 20
167.7017360691857
 30
0.0
 10
106.0148898389477
 20
167.4257839208172
 30
0.0
  0
POLYLINE
  5
3B4
330
1F
100
AcDbEntity
  8
STANDARDEBENE
 62
     7
100
AcDb2dPolyline
 66
     1
 10
0.0
 20
0.0
 30
0.0
  0
VERTEX
  5
3B5
330
3B4
100
AcDbEntity
  8
STANDARDEBENE
 62
     7
100
AcDbVertex
100
AcDb2dVertex
 10
106.5147731938574
 20
167.9256672757269
 30
0.0
  0
VERTEX
  5
3B6
330
3B4
100
AcDbEntity
  8
STANDARDEBENE
 62
     7
100
AcDbVertex
100
AcDb2dVertex
 10
106.6236382111913
 20
167.9256672757269
 30
0.0
  0
VERTEX
  5
3B7
330
3B4
100
AcDbEntity
  8
STANDARDEBENE
 62
     7
100
AcDbVertex
100
AcDb2dVertex
 10
106.9443766008681
 20
167.9256672757269
 30
0.0
  0
VERTEX
  5
3B8
330
3B4
100
AcDbEntity
  8
STANDARDEBENE
 62
     7
100
AcDbVertex
100
AcDb2dVertex
 10
107.4587293568159
 20
167.9256672757269
 30
0.0
  0
VERTEX
  5
3B9
330
3B4
100
AcDbEntity
  8
STANDARDEBENE
 62
     7
100
AcDbVertex
100
AcDb2dVertex
 10
108.1350016005704
 20
167.9256672757269
 30
0.0
  0
VERTEX
  5
3BA
330
3B4
100
AcDbEntity
  8
STANDARDEBENE
 62
     7
100
AcDbVertex
100
AcDb2dVertex
 10
108.9356417913425
 20
167.9256672757269
 30
0.0
  0
VERTEX
  5
3BB
330
3B4
100
AcDbEntity
  8
STANDARDEBENE
 62
     7
100
AcDbVertex
100
AcDb2dVertex
 10
109.8131076114356
 20
167.9256672757269
 30
0.0
  0
VERTEX
  5
3BC
330
3B4
100
AcDbEntity
  8
STANDARDEBENE
 62
     7
100
AcDbVertex
100
AcDb2dVertex
 10
110.7177896858622
 20
167.9256672757269
 30
0.0
  0
VERTEX
  5
3BD
330
3B4
100
AcDbEntity
  8
STANDARDEBENE
 62
     7
100
AcDbVertex
100
AcDb2dVertex
 10
111.5952555059554
 20
167.9256672757269
 30
0.0
  0
VERTEX
  5
3BE
330
3B4
100
AcDbEntity
  8
STANDARDEBENE
 62
     7
100
AcDbVertex
100
AcDb2dVertex
 10
112.3952066776304
 20
167.9256672757269
 30
0.0
  0
VERTEX
  5
3BF
330
3B4
100
AcDbEntity
  8
STANDARDEBENE
 62
     7
100
AcDbVertex
100
AcDb2dVertex
 10
113.072167940482
 20
167.9256672757269
 30
0.0
  0
VERTEX
  5
3C0
330
3B4
100
AcDbEntity
  8
STANDARDEBENE
 62
     7
100
AcDbVertex
100
AcDb2dVertex
 10
113.5851426582357
 20
167.9256672757269
 30
0.0
  0
VERTEX
  5
3C1
330
3B4
100
AcDbEntity
  8
STANDARDEBENE
 62
     7
100
AcDbVertex
100
AcDb2dVertex
 10
113.9058810479124
 20
167.9256672757269
 30
0.0
  0
VERTEX
  5
3C2
330
3B4
100
AcDbEntity
  8
STANDARDEBENE
 62
     7
100
AcDbVertex
100
AcDb2dVertex
 10
114.0150905747948
 20
167.9256672757269
 30
0.0
  0
SEQEND
  5
3C3
330
3B4
100
AcDbEntity
  8
STANDARDEBENE
  0
SPLINE
  5
3C4
330
1F
100
AcDbEntity
  8
STANDARDEBENE
 62
     7
100
AcDbSpline
210
0.0
220
0.0
230
1.0
 70
     8
 71
     3
 72
     8
 73
     4
 74
     0
 42
0.0000000001
 43
0.0000000001
 40
0.0
 40
0.0
 40
0.0
 40
0.0
 40
1.0
 40
1.0
 40
1.0
 40
1.0
 10
114.5149739297046
 20
167.4257839208172
 30
0.0
 10
114.5149739297046
 20
167.7017360691857
 30
0.0
 10
114.2913872327119
 20
167.9256672757269
 30
0.0
 10
114.0150905747948
 20
167.9256672757269
 30
0.0
  0
POLYLINE
  5
3C5
330
1F
100
AcDbEntity
  8
STANDARDEBENE
 62
     7
100
AcDb2dPolyline
 66
     1
 10
0.0
 20
0.0
 30
0.0
  0
VERTEX
  5
3C6
330
3C5
100
AcDbEntity
  8
STANDARDEBENE
 62
     7
100
AcDbVertex
100
AcDb2dVertex
 10
114.5153184392531
 20
162.9251111788868
 30
0.0
  0
VERTEX
  5
3C7
330
3C5
100
AcDbEntity
  8
STANDARDEBENE
 62
     7
100
AcDbVertex
100
AcDb2dVertex
 10
114.4085204792104
 20
162.9251111788868
 30
0.0
  0
VERTEX
  5
3C8
330
3C5
100
AcDbEntity
  8
STANDARDEBENE
 62
     7
100
AcDbVertex
100
AcDb2dVertex
 10
114.0939832614071
 20
162.9251111788868
 30
0.0
  0
VERTEX
  5
3C9
330
3C5
100
AcDbEntity
  8
STANDARDEBENE
 62
     7
100
AcDbVertex
100
AcDb2dVertex
 10
113.5878987346239
 20
162.9251111788868
 30
0.0
  0
VERTEX
  5
3CA
330
3C5
100
AcDbEntity
  8
STANDARDEBENE
 62
     7
100
AcDbVertex
100
AcDb2dVertex
 10
112.9150715863546
 20
162.9251111788868
 30
0.0
  0
VERTEX
  5
3CB
330
3C5
100
AcDbEntity
  8
STANDARDEBENE
 62
     7
100
AcDbVertex
100
AcDb2dVertex
 10
112.1082302237091
 20
162.9251111788868
 30
0.0
  0
VERTEX
  5
3CC
330
3C5
100
AcDbEntity
  8
STANDARDEBENE
 62
     7
100
AcDbVertex
100
AcDb2dVertex
 10
111.2107828498015
 20
162.9251111788868
 30
0.0
  0
VERTEX
  5
3CD
330
3C5
100
AcDbEntity
  8
STANDARDEBENE
 62
     7
100
AcDbVertex
100
AcDb2dVertex
 10
110.2654486486489
 20
162.9251111788868
 30
0.0
  0
VERTEX
  5
3CE
330
3C5
100
AcDbEntity
  8
STANDARDEBENE
 62
     7
100
AcDbVertex
100
AcDb2dVertex
 10
109.3190809188508
 20
162.9251111788868
 30
0.0
  0
VERTEX
  5
3CF
330
3C5
100
AcDbEntity
  8
STANDARDEBENE
 62
     7
100
AcDbVertex
100
AcDb2dVertex
 10
108.4209445258462
 20
162.9251111788868
 30
0.0
  0
VERTEX
  5
3D0
330
3C5
100
AcDbEntity
  8
STANDARDEBENE
 62
     7
100
AcDbVertex
100
AcDb2dVertex
 10
107.6151366918462
 20
162.9251111788868
 30
0.0
  0
VERTEX
  5
3D1
330
3C5
100
AcDbEntity
  8
STANDARDEBENE
 62
     7
100
AcDbVertex
100
AcDb2dVertex
 10
106.9419650340284
 20
162.9251111788868
 30
0.0
  0
VERTEX
  5
3D2
330
3C5
100
AcDbEntity
  8
STANDARDEBENE
 62
     7
100
AcDbVertex
100
AcDb2dVertex
 10
106.4358805072452
 20
162.9251111788868
 30
0.0
  0
VERTEX
  5
3D3
330
3C5
100
AcDbEntity
  8
STANDARDEBENE
 62
     7
100
AcDbVertex
100
AcDb2dVertex
 10
106.1220323085389
 20
162.9251111788868
 30
0.0
  0
VERTEX
  5
3D4
330
3C5
100
AcDbEntity
  8
STANDARDEBENE
 62
     7
100
AcDbVertex
100
AcDb2dVertex
 10
106.0148898389477
 20
162.9251111788868
 30
0.0
  0
SEQEND
  5
3D5
330
3C5
100
AcDbEntity
  8
STANDARDEBENE
  0
SPLINE
  5
3D6
330
1F
100
AcDbEntity
  8
STANDARDEBENE
 62
     7
100
AcDbSpline
210
0.0
220
0.0
230
1.0
 70
     8
 71
     3
 72
     8
 73
     4
 74
     0
 42
0.0000000001
 43
0.0000000001
 40
0.0
 40
0.0
 40
0.0
 40
0.0
 40
1.0
 40
1.0
 40
1.0
 40
1.0
 10
107.6020453290023
 20
162.7955755886414
 30
0.0
 10
107.5727620173776
 20
162.8758463134477
 30
0.0
 10
107.4969699167022
 20
162.9251111788868
 30
0.0
 10
107.4149766441532
 20
162.9251111788868
 30
0.0
  0
SPLINE
  5
3D7
330
1F
100
AcDbEntity
  8
STANDARDEBENE
 62
     7
100
AcDbSpline
210
0.0
220
0.0
230
1.0
 70
     8
 71
     3
 72
     8
 73
     4
 74
     0
 42
0.0000000001
 43
0.0000000001
 40
0.0
 40
0.0
 40
0.0
 40
0.0
 40
1.0
 40
1.0
 40
1.0
 40
1.0
 10
113.1148871244991
 20
162.9251111788868
 30
0.0
 10
113.0297932660134
 20
162.9251111788868
 30
0.0
 10
112.9571017512746
 20
162.8720567084139
 30
0.0
 10
112.9281629491985
 20
162.7955755886414
 30
0.0
  0
SPLINE
  5
3D8
330
1F
100
AcDbEntity
  8
STANDARDEBENE
 62
     7
100
AcDbSpline
210
0.0
220
0.0
230
1.0
 70
     8
 71
     3
 72
     8
 73
     4
 74
     0
 42
0.0000000001
 43
0.0000000001
 40
0.0
 40
0.0
 40
0.0
 40
0.0
 40
1.0
 40
1.0
 40
1.0
 40
1.0
 10
112.7779567860416
 20
162.3959445123524
 30
0.0
 10
112.7686550282314
 20
162.3721733535042
 30
0.0
 10
112.7648654231977
 20
162.3477131755589
 30
0.0
 10
112.7652099327462
 20
162.3256645644533
 30
0.0
  0
SPLINE
  5
3D9
330
1F
100
AcDbEntity
  8
STANDARDEBENE
 62
     7
100
AcDbSpline
210
0.0
220
0.0
230
1.0
 70
     8
 71
     3
 72
     8
 73
     4
 74
     0
 42
0.0000000001
 43
0.0000000001
 40
0.0
 40
0.0
 40
0.0
 40
0.0
 40
1.0
 40
1.0
 40
1.0
 40
1.0
 10
107.7649983454546
 20
162.3256645644533
 30
0.0
 10
107.7649983454546
 20
162.3508137614956
 30
0.0
 10
107.7605197213238
 20
162.3749294298924
 30
0.0
 10
107.7519069826106
 20
162.3959445123524
 30
0.0
  0
POLYLINE
  5
3DB
330
1F
100
AcDbEntity
  8
BEMAßUNG
 62
     7
100
AcDb2dPolyline
 66
     1
 10
0.0
 20
0.0
 30
0.0
  0
VERTEX
  5
3DC
330
3DB
100
AcDbEntity
  8
BEMAßUNG
 62
     7
100
AcDbVertex
100
AcDb2dVertex
 10
119.2654160943156
 20
219.9979410257297
 30
0.0
  0
VERTEX
  5
3DD
330
3DB
100
AcDbEntity
  8
BEMAßUNG
 62
     7
100
AcDbVertex
100
AcDb2dVertex
 10
119.2654160943156
 20
185.9979491722505
 30
0.0
  0
SEQEND
  5
3DE
330
3DB
100
AcDbEntity
  8
BEMAßUNG
  0
POLYLINE
  5
3DF
330
1F
100
AcDbEntity
  8
BEMAßUNG
 62
     7
100
AcDb2dPolyline
 66
     1
 10
0.0
 20
0.0
 30
0.0
  0
VERTEX
  5
3E0
330
3DF
100
AcDbEntity
  8
BEMAßUNG
 62
     7
100
AcDbVertex
100
AcDb2dVertex
 10
75.26534557580172
 20
219.9979410257297
 30
0.0
  0
VERTEX
  5
3E1
330
3DF
100
AcDbEntity
  8
BEMAßUNG
 62
     7
100
AcDbVertex
100
AcDb2dVertex
 10
75.26534557580172
 20
185.9979491722505
 30
0.0
  0
SEQEND
  5
3E2
330
3DF
100
AcDbEntity
  8
BEMAßUNG
  0
POLYLINE
  5
3E3
330
1F
100
AcDbEntity
  8
BEMAßUNG
 62
     7
100
AcDb2dPolyline
 66
     1
 10
0.0
 20
0.0
 30
0.0
  0
VERTEX
  5
3E4
330
3E3
100
AcDbEntity
  8
BEMAßUNG
 62
     7
100
AcDbVertex
100
AcDb2dVertex
 10
119.2654160943156
 20
187.9985161205351
 30
0.0
  0
VERTEX
  5
3E5
330
3E3
100
AcDbEntity
  8
BEMAßUNG
 62
     7
100
AcDbVertex
100
AcDb2dVertex
 10
75.26534557580172
 20
187.9985161205351
 30
0.0
  0
SEQEND
  5
3E6
330
3E3
100
AcDbEntity
  8
BEMAßUNG
  0
POLYLINE
  5
3E7
330
1F
100
AcDbEntity
  8
BEMAßUNG
 62
     7
100
AcDb2dPolyline
 66
     1
 10
0.0
 20
0.0
 30
0.0
  0
VERTEX
  5
3E8
330
3E7
100
AcDbEntity
  8
BEMAßUNG
 62
     7
100
AcDbVertex
100
AcDb2dVertex
 10
119.2654160943156
 20
187.9985161205351
 30
0.0
  0
VERTEX
  5
3E9
330
3E7
100
AcDbEntity
  8
BEMAßUNG
 62
     7
100
AcDbVertex
100
AcDb2dVertex
 10
115.7651990813018
 20
188.459125386913
 30
0.0
  0
VERTEX
  5
3EA
330
3E7
100
AcDbEntity
  8
BEMAßUNG
 62
     7
100
AcDbVertex
100
AcDb2dVertex
 10
115.7651990813018
 20
187.5368733255116
 30
0.0
  0
VERTEX
  5
3EB
330
3E7
100
AcDbEntity
  8
BEMAßUNG
 62
     7
100
AcDbVertex
100
AcDb2dVertex
 10
119.2654160943156
 20
187.9985161205351
 30
0.0
  0
SEQEND
  5
3EC
330
3E7
100
AcDbEntity
  8
BEMAßUNG
  0
POLYLINE
  5
3ED
330
1F
100
AcDbEntity
  8
BEMAßUNG
 62
     7
100
AcDb2dPolyline
 66
     1
 10
0.0
 20
0.0
 30
0.0
  0
VERTEX
  5
3EE
330
3ED
100
AcDbEntity
  8
BEMAßUNG
 62
     7
100
AcDbVertex
100
AcDb2dVertex
 10
115.7651990813018
 20
188.4553357818792
 30
0.0
  0
VERTEX
  5
3EF
330
3ED
100
AcDbEntity
  8
BEMAßUNG
 62
     7
100
AcDbVertex
100
AcDb2dVertex
 10
115.7920708260867
 20
188.4553357818792
 30
0.0
  0
SEQEND
  5
3F0
330
3ED
100
AcDbEntity
  8
BEMAßUNG
  0
POLYLINE
  5
3F1
330
1F
100
AcDbEntity
  8
BEMAßUNG
 62
     7
100
AcDb2dPolyline
 66
     1
 10
0.0
 20
0.0
 30
0.0
  0
VERTEX
  5
3F2
330
3F1
100
AcDbEntity
  8
BEMAßUNG
 62
     7
100
AcDbVertex
100
AcDb2dVertex
 10
115.7651990813018
 20
188.4553357818792
 30
0.0
  0
VERTEX
  5
3F3
330
3F1
100
AcDbEntity
  8
BEMAßUNG
 62
     7
100
AcDbVertex
100
AcDb2dVertex
 10
115.7920708260867
 20
188.4553357818792
 30
0.0
  0
SEQEND
  5
3F4
330
3F1
100
AcDbEntity
  8
BEMAßUNG
  0
POLYLINE
  5
3F5
330
1F
100
AcDbEntity
  8
BEMAßUNG
 62
     7
100
AcDb2dPolyline
 66
     1
 10
0.0
 20
0.0
 30
0.0
  0
VERTEX
  5
3F6
330
3F5
100
AcDbEntity
  8
BEMAßUNG
 62
     7
100
AcDbVertex
100
AcDb2dVertex
 10
115.7651990813018
 20
188.4046928782461
 30
0.0
  0
VERTEX
  5
3F7
330
3F5
100
AcDbEntity
  8
BEMAßUNG
 62
     7
100
AcDbVertex
100
AcDb2dVertex
 10
116.1786105395317
 20
188.4046928782461
 30
0.0
  0
SEQEND
  5
3F8
330
3F5
100
AcDbEntity
  8
BEMAßUNG
  0
POLYLINE
  5
3F9
330
1F
100
AcDbEntity
  8
BEMAßUNG
 62
     7
100
AcDb2dPolyline
 66
     1
 10
0.0
 20
0.0
 30
0.0
  0
VERTEX
  5
3FA
330
3F9
100
AcDbEntity
  8
BEMAßUNG
 62
     7
100
AcDbVertex
100
AcDb2dVertex
 10
115.7651990813018
 20
188.3537054650644
 30
0.0
  0
VERTEX
  5
3FB
330
3F9
100
AcDbEntity
  8
BEMAßUNG
 62
     7
100
AcDbVertex
100
AcDb2dVertex
 10
116.5644612338797
 20
188.3537054650644
 30
0.0
  0
SEQEND
  5
3FC
330
3F9
100
AcDbEntity
  8
BEMAßUNG
  0
POLYLINE
  5
3FD
330
1F
100
AcDbEntity
  8
BEMAßUNG
 62
     7
100
AcDb2dPolyline
 66
     1
 10
0.0
 20
0.0
 30
0.0
  0
VERTEX
  5
3FE
330
3FD
100
AcDbEntity
  8
BEMAßUNG
 62
     7
100
AcDbVertex
100
AcDb2dVertex
 10
115.7651990813018
 20
188.3030625614312
 30
0.0
  0
VERTEX
  5
3FF
330
3FD
100
AcDbEntity
  8
BEMAßUNG
 62
     7
100
AcDbVertex
100
AcDb2dVertex
 10
116.9496229091307
 20
188.3030625614312
 30
0.0
  0
SEQEND
  5
400
330
3FD
100
AcDbEntity
  8
BEMAßUNG
  0
POLYLINE
  5
401
330
1F
100
AcDbEntity
  8
BEMAßUNG
 62
     7
100
AcDb2dPolyline
 66
     1
 10
0.0
 20
0.0
 30
0.0
  0
VERTEX
  5
402
330
401
100
AcDbEntity
  8
BEMAßUNG
 62
     7
100
AcDbVertex
100
AcDb2dVertex
 10
115.7651990813018
 20
188.2527641673465
 30
0.0
  0
VERTEX
  5
403
330
401
100
AcDbEntity
  8
BEMAßUNG
 62
     7
100
AcDbVertex
100
AcDb2dVertex
 10
117.3354736034786
 20
188.2527641673465
 30
0.0
  0
SEQEND
  5
404
330
401
100
AcDbEntity
  8
BEMAßUNG
  0
POLYLINE
  5
405
330
1F
100
AcDbEntity
  8
BEMAßUNG
 62
     7
100
AcDb2dPolyline
 66
     1
 10
0.0
 20
0.0
 30
0.0
  0
VERTEX
  5
406
330
405
100
AcDbEntity
  8
BEMAßUNG
 62
     7
100
AcDbVertex
100
AcDb2dVertex
 10
115.7651990813018
 20
188.2017767541649
 30
0.0
  0
VERTEX
  5
407
330
405
100
AcDbEntity
  8
BEMAßUNG
 62
     7
100
AcDbVertex
100
AcDb2dVertex
 10
117.7220133169237
 20
188.2017767541649
 30
0.0
  0
SEQEND
  5
408
330
405
100
AcDbEntity
  8
BEMAßUNG
  0
POLYLINE
  5
409
330
1F
100
AcDbEntity
  8
BEMAßUNG
 62
     7
100
AcDb2dPolyline
 66
     1
 10
0.0
 20
0.0
 30
0.0
  0
VERTEX
  5
40A
330
409
100
AcDbEntity
  8
BEMAßUNG
 62
     7
100
AcDbVertex
100
AcDb2dVertex
 10
115.7651990813018
 20
188.1507893409832
 30
0.0
  0
VERTEX
  5
40B
330
409
100
AcDbEntity
  8
BEMAßUNG
 62
     7
100
AcDbVertex
100
AcDb2dVertex
 10
118.1078640112716
 20
188.1507893409832
 30
0.0
  0
SEQEND
  5
40C
330
409
100
AcDbEntity
  8
BEMAßUNG
  0
POLYLINE
  5
40D
330
1F
100
AcDbEntity
  8
BEMAßUNG
 62
     7
100
AcDb2dPolyline
 66
     1
 10
0.0
 20
0.0
 30
0.0
  0
VERTEX
  5
40E
330
40D
100
AcDbEntity
  8
BEMAßUNG
 62
     7
100
AcDbVertex
100
AcDb2dVertex
 10
115.7651990813018
 20
188.10014643735
 30
0.0
  0
VERTEX
  5
40F
330
40D
100
AcDbEntity
  8
BEMAßUNG
 62
     7
100
AcDbVertex
100
AcDb2dVertex
 10
118.4930256865226
 20
188.10014643735
 30
0.0
  0
SEQEND
  5
410
330
40D
100
AcDbEntity
  8
BEMAßUNG
  0
POLYLINE
  5
411
330
1F
100
AcDbEntity
  8
BEMAßUNG
 62
     7
100
AcDb2dPolyline
 66
     1
 10
0.0
 20
0.0
 30
0.0
  0
VERTEX
  5
412
330
411
100
AcDbEntity
  8
BEMAßUNG
 62
     7
100
AcDbVertex
100
AcDb2dVertex
 10
115.7651990813018
 20
188.0495035337168
 30
0.0
  0
VERTEX
  5
413
330
411
100
AcDbEntity
  8
BEMAßUNG
 62
     7
100
AcDbVertex
100
AcDb2dVertex
 10
118.8788763808706
 20
188.0495035337168
 30
0.0
  0
SEQEND
  5
414
330
411
100
AcDbEntity
  8
BEMAßUNG
  0
POLYLINE
  5
415
330
1F
100
AcDbEntity
  8
BEMAßUNG
 62
     7
100
AcDb2dPolyline
 66
     1
 10
0.0
 20
0.0
 30
0.0
  0
VERTEX
  5
416
330
415
100
AcDbEntity
  8
BEMAßUNG
 62
     7
100
AcDbVertex
100
AcDb2dVertex
 10
115.7651990813018
 20
187.9985161205351
 30
0.0
  0
VERTEX
  5
417
330
415
100
AcDbEntity
  8
BEMAßUNG
 62
     7
100
AcDbVertex
100
AcDb2dVertex
 10
119.2654160943156
 20
187.9985161205351
 30
0.0
  0
SEQEND
  5
418
330
415
100
AcDbEntity
  8
BEMAßUNG
  0
POLYLINE
  5
419
330
1F
100
AcDbEntity
  8
BEMAßUNG
 62
     7
100
AcDb2dPolyline
 66
     1
 10
0.0
 20
0.0
 30
0.0
  0
VERTEX
  5
41A
330
419
100
AcDbEntity
  8
BEMAßUNG
 62
     7
100
AcDbVertex
100
AcDb2dVertex
 10
115.7651990813018
 20
187.5413519496425
 30
0.0
  0
VERTEX
  5
41B
330
419
100
AcDbEntity
  8
BEMAßUNG
 62
     7
100
AcDbVertex
100
AcDb2dVertex
 10
115.7920708260867
 20
187.5413519496425
 30
0.0
  0
SEQEND
  5
41C
330
419
100
AcDbEntity
  8
BEMAßUNG
  0
POLYLINE
  5
41D
330
1F
100
AcDbEntity
  8
BEMAßUNG
 62
     7
100
AcDb2dPolyline
 66
     1
 10
0.0
 20
0.0
 30
0.0
  0
VERTEX
  5
41E
330
41D
100
AcDbEntity
  8
BEMAßUNG
 62
     7
100
AcDbVertex
100
AcDb2dVertex
 10
115.7651990813018
 20
187.5413519496425
 30
0.0
  0
VERTEX
  5
41F
330
41D
100
AcDbEntity
  8
BEMAßUNG
 62
     7
100
AcDbVertex
100
AcDb2dVertex
 10
115.7920708260867
 20
187.5413519496425
 30
0.0
  0
SEQEND
  5
420
330
41D
100
AcDbEntity
  8
BEMAßUNG
  0
POLYLINE
  5
421
330
1F
100
AcDbEntity
  8
BEMAßUNG
 62
     7
100
AcDb2dPolyline
 66
     1
 10
0.0
 20
0.0
 30
0.0
  0
VERTEX
  5
422
330
421
100
AcDbEntity
  8
BEMAßUNG
 62
     7
100
AcDbVertex
100
AcDb2dVertex
 10
115.7651990813018
 20
187.5919948532756
 30
0.0
  0
VERTEX
  5
423
330
421
100
AcDbEntity
  8
BEMAßUNG
 62
     7
100
AcDbVertex
100
AcDb2dVertex
 10
116.1786105395317
 20
187.5919948532756
 30
0.0
  0
SEQEND
  5
424
330
421
100
AcDbEntity
  8
BEMAßUNG
  0
POLYLINE
  5
425
330
1F
100
AcDbEntity
  8
BEMAßUNG
 62
     7
100
AcDb2dPolyline
 66
     1
 10
0.0
 20
0.0
 30
0.0
  0
VERTEX
  5
426
330
425
100
AcDbEntity
  8
BEMAßUNG
 62
     7
100
AcDbVertex
100
AcDb2dVertex
 10
115.7651990813018
 20
187.6429822664573
 30
0.0
  0
VERTEX
  5
427
330
425
100
AcDbEntity
  8
BEMAßUNG
 62
     7
100
AcDbVertex
100
AcDb2dVertex
 10
116.5644612338797
 20
187.6429822664573
 30
0.0
  0
SEQEND
  5
428
330
425
100
AcDbEntity
  8
BEMAßUNG
  0
POLYLINE
  5
429
330
1F
100
AcDbEntity
  8
BEMAßUNG
 62
     7
100
AcDb2dPolyline
 66
     1
 10
0.0
 20
0.0
 30
0.0
  0
VERTEX
  5
42A
330
429
100
AcDbEntity
  8
BEMAßUNG
 62
     7
100
AcDbVertex
100
AcDb2dVertex
 10
115.7651990813018
 20
187.6936251700905
 30
0.0
  0
VERTEX
  5
42B
330
429
100
AcDbEntity
  8
BEMAßUNG
 62
     7
100
AcDbVertex
100
AcDb2dVertex
 10
116.9496229091307
 20
187.6936251700905
 30
0.0
  0
SEQEND
  5
42C
330
429
100
AcDbEntity
  8
BEMAßUNG
  0
POLYLINE
  5
42D
330
1F
100
AcDbEntity
  8
BEMAßUNG
 62
     7
100
AcDb2dPolyline
 66
     1
 10
0.0
 20
0.0
 30
0.0
  0
VERTEX
  5
42E
330
42D
100
AcDbEntity
  8
BEMAßUNG
 62
     7
100
AcDbVertex
100
AcDb2dVertex
 10
115.7651990813018
 20
187.7442680737237
 30
0.0
  0
VERTEX
  5
42F
330
42D
100
AcDbEntity
  8
BEMAßUNG
 62
     7
100
AcDbVertex
100
AcDb2dVertex
 10
117.3354736034786
 20
187.7442680737237
 30
0.0
  0
SEQEND
  5
430
330
42D
100
AcDbEntity
  8
BEMAßUNG
  0
POLYLINE
  5
431
330
1F
100
AcDbEntity
  8
BEMAßUNG
 62
     7
100
AcDb2dPolyline
 66
     1
 10
0.0
 20
0.0
 30
0.0
  0
VERTEX
  5
432
330
431
100
AcDbEntity
  8
BEMAßUNG
 62
     7
100
AcDbVertex
100
AcDb2dVertex
 10
115.7651990813018
 20
187.7952554869053
 30
0.0
  0
VERTEX
  5
433
330
431
100
AcDbEntity
  8
BEMAßUNG
 62
     7
100
AcDbVertex
100
AcDb2dVertex
 10
117.7220133169237
 20
187.7952554869053
 30
0.0
  0
SEQEND
  5
434
330
431
100
AcDbEntity
  8
BEMAßUNG
  0
POLYLINE
  5
435
330
1F
100
AcDbEntity
  8
BEMAßUNG
 62
     7
100
AcDb2dPolyline
 66
     1
 10
0.0
 20
0.0
 30
0.0
  0
VERTEX
  5
436
330
435
100
AcDbEntity
  8
BEMAßUNG
 62
     7
100
AcDbVertex
100
AcDb2dVertex
 10
115.7651990813018
 20
187.8458983905385
 30
0.0
  0
VERTEX
  5
437
330
435
100
AcDbEntity
  8
BEMAßUNG
 62
     7
100
AcDbVertex
100
AcDb2dVertex
 10
118.1078640112716
 20
187.8458983905385
 30
0.0
  0
SEQEND
  5
438
330
435
100
AcDbEntity
  8
BEMAßUNG
  0
POLYLINE
  5
439
330
1F
100
AcDbEntity
  8
BEMAßUNG
 62
     7
100
AcDb2dPolyline
 66
     1
 10
0.0
 20
0.0
 30
0.0
  0
VERTEX
  5
43A
330
439
100
AcDbEntity
  8
BEMAßUNG
 62
     7
100
AcDbVertex
100
AcDb2dVertex
 10
115.7651990813018
 20
187.8965412941717
 30
0.0
  0
VERTEX
  5
43B
330
439
100
AcDbEntity
  8
BEMAßUNG
 62
     7
100
AcDbVertex
100
AcDb2dVertex
 10
118.4930256865226
 20
187.8965412941717
 30
0.0
  0
SEQEND
  5
43C
330
439
100
AcDbEntity
  8
BEMAßUNG
  0
POLYLINE
  5
43D
330
1F
100
AcDbEntity
  8
BEMAßUNG
 62
     7
100
AcDb2dPolyline
 66
     1
 10
0.0
 20
0.0
 30
0.0
  0
VERTEX
  5
43E
330
43D
100
AcDbEntity
  8
BEMAßUNG
 62
     7
100
AcDbVertex
100
AcDb2dVertex
 10
115.7651990813018
 20
187.9471841978049
 30
0.0
  0
VERTEX
  5
43F
330
43D
100
AcDbEntity
  8
BEMAßUNG
 62
     7
100
AcDbVertex
100
AcDb2dVertex
 10
118.8788763808706
 20
187.9471841978049
 30
0.0
  0
SEQEND
  5
440
330
43D
100
AcDbEntity
  8
BEMAßUNG
  0
POLYLINE
  5
441
330
1F
100
AcDbEntity
  8
BEMAßUNG
 62
     7
100
AcDb2dPolyline
 66
     1
 10
0.0
 20
0.0
 30
0.0
  0
VERTEX
  5
442
330
441
100
AcDbEntity
  8
BEMAßUNG
 62
     7
100
AcDbVertex
100
AcDb2dVertex
 10
115.7651990813018
 20
187.9985161205351
 30
0.0
  0
VERTEX
  5
443
330
441
100
AcDbEntity
  8
BEMAßUNG
 62
     7
100
AcDbVertex
100
AcDb2dVertex
 10
119.2654160943156
 20
187.9985161205351
 30
0.0
  0
SEQEND
  5
444
330
441
100
AcDbEntity
  8
BEMAßUNG
  0
POLYLINE
  5
445
330
1F
100
AcDbEntity
  8
BEMAßUNG
 62
     7
100
AcDb2dPolyline
 66
     1
 10
0.0
 20
0.0
 30
0.0
  0
VERTEX
  5
446
330
445
100
AcDbEntity
  8
BEMAßUNG
 62
     7
100
AcDbVertex
100
AcDb2dVertex
 10
75.26534557580172
 20
187.9985161205351
 30
0.0
  0
VERTEX
  5
447
330
445
100
AcDbEntity
  8
BEMAßUNG
 62
     7
100
AcDbVertex
100
AcDb2dVertex
 10
78.7648735697185
 20
187.5368733255116
 30
0.0
  0
VERTEX
  5
448
330
445
100
AcDbEntity
  8
BEMAßUNG
 62
     7
100
AcDbVertex
100
AcDb2dVertex
 10
78.7648735697185
 20
188.459125386913
 30
0.0
  0
VERTEX
  5
449
330
445
100
AcDbEntity
  8
BEMAßUNG
 62
     7
100
AcDbVertex
100
AcDb2dVertex
 10
75.26534557580172
 20
187.9985161205351
 30
0.0
  0
SEQEND
  5
44A
330
445
100
AcDbEntity
  8
BEMAßUNG
  0
POLYLINE
  5
44B
330
1F
100
AcDbEntity
  8
BEMAßUNG
 62
     7
100
AcDb2dPolyline
 66
     1
 10
0.0
 20
0.0
 30
0.0
  0
VERTEX
  5
44C
330
44B
100
AcDbEntity
  8
BEMAßUNG
 62
     7
100
AcDbVertex
100
AcDb2dVertex
 10
78.7648735697185
 20
187.5413519496425
 30
0.0
  0
VERTEX
  5
44D
330
44B
100
AcDbEntity
  8
BEMAßUNG
 62
     7
100
AcDbVertex
100
AcDb2dVertex
 10
78.73834633448209
 20
187.5413519496425
 30
0.0
  0
SEQEND
  5
44E
330
44B
100
AcDbEntity
  8
BEMAßUNG
  0
POLYLINE
  5
44F
330
1F
100
AcDbEntity
  8
BEMAßUNG
 62
     7
100
AcDb2dPolyline
 66
     1
 10
0.0
 20
0.0
 30
0.0
  0
VERTEX
  5
450
330
44F
100
AcDbEntity
  8
BEMAßUNG
 62
     7
100
AcDbVertex
100
AcDb2dVertex
 10
78.7648735697185
 20
187.5413519496425
 30
0.0
  0
VERTEX
  5
451
330
44F
100
AcDbEntity
  8
BEMAßUNG
 62
     7
100
AcDbVertex
100
AcDb2dVertex
 10
78.73834633448209
 20
187.5413519496425
 30
0.0
  0
SEQEND
  5
452
330
44F
100
AcDbEntity
  8
BEMAßUNG
  0
POLYLINE
  5
453
330
1F
100
AcDbEntity
  8
BEMAßUNG
 62
     7
100
AcDb2dPolyline
 66
     1
 10
0.0
 20
0.0
 30
0.0
  0
VERTEX
  5
454
330
453
100
AcDbEntity
  8
BEMAßUNG
 62
     7
100
AcDbVertex
100
AcDb2dVertex
 10
78.7648735697185
 20
187.5919948532756
 30
0.0
  0
VERTEX
  5
455
330
453
100
AcDbEntity
  8
BEMAßUNG
 62
     7
100
AcDbVertex
100
AcDb2dVertex
 10
78.35215113058558
 20
187.5919948532756
 30
0.0
  0
SEQEND
  5
456
330
453
100
AcDbEntity
  8
BEMAßUNG
  0
POLYLINE
  5
457
330
1F
100
AcDbEntity
  8
BEMAßUNG
 62
     7
100
AcDb2dPolyline
 66
     1
 10
0.0
 20
0.0
 30
0.0
  0
VERTEX
  5
458
330
457
100
AcDbEntity
  8
BEMAßUNG
 62
     7
100
AcDbVertex
100
AcDb2dVertex
 10
78.7648735697185
 20
187.6429822664573
 30
0.0
  0
VERTEX
  5
459
330
457
100
AcDbEntity
  8
BEMAßUNG
 62
     7
100
AcDbVertex
100
AcDb2dVertex
 10
77.96630043623759
 20
187.6429822664573
 30
0.0
  0
SEQEND
  5
45A
330
457
100
AcDbEntity
  8
BEMAßUNG
  0
POLYLINE
  5
45B
330
1F
100
AcDbEntity
  8
BEMAßUNG
 62
     7
100
AcDb2dPolyline
 66
     1
 10
0.0
 20
0.0
 30
0.0
  0
VERTEX
  5
45C
330
45B
100
AcDbEntity
  8
BEMAßUNG
 62
     7
100
AcDbVertex
100
AcDb2dVertex
 10
78.7648735697185
 20
187.6936251700905
 30
0.0
  0
VERTEX
  5
45D
330
45B
100
AcDbEntity
  8
BEMAßUNG
 62
     7
100
AcDbVertex
100
AcDb2dVertex
 10
77.57976072279256
 20
187.6936251700905
 30
0.0
  0
SEQEND
  5
45E
330
45B
100
AcDbEntity
  8
BEMAßUNG
  0
POLYLINE
  5
45F
330
1F
100
AcDbEntity
  8
BEMAßUNG
 62
     7
100
AcDb2dPolyline
 66
     1
 10
0.0
 20
0.0
 30
0.0
  0
VERTEX
  5
460
330
45F
100
AcDbEntity
  8
BEMAßUNG
 62
     7
100
AcDbVertex
100
AcDb2dVertex
 10
78.7648735697185
 20
187.7442680737237
 30
0.0
  0
VERTEX
  5
461
330
45F
100
AcDbEntity
  8
BEMAßUNG
 62
     7
100
AcDbVertex
100
AcDb2dVertex
 10
77.19528806663868
 20
187.7442680737237
 30
0.0
  0
SEQEND
  5
462
330
45F
100
AcDbEntity
  8
BEMAßUNG
  0
POLYLINE
  5
463
330
1F
100
AcDbEntity
  8
BEMAßUNG
 62
     7
100
AcDb2dPolyline
 66
     1
 10
0.0
 20
0.0
 30
0.0
  0
VERTEX
  5
464
330
463
100
AcDbEntity
  8
BEMAßUNG
 62
     7
100
AcDbVertex
100
AcDb2dVertex
 10
78.7648735697185
 20
187.7952554869053
 30
0.0
  0
VERTEX
  5
465
330
463
100
AcDbEntity
  8
BEMAßUNG
 62
     7
100
AcDbVertex
100
AcDb2dVertex
 10
76.80874835319365
 20
187.7952554869053
 30
0.0
  0
SEQEND
  5
466
330
463
100
AcDbEntity
  8
BEMAßUNG
  0
POLYLINE
  5
467
330
1F
100
AcDbEntity
  8
BEMAßUNG
 62
     7
100
AcDb2dPolyline
 66
     1
 10
0.0
 20
0.0
 30
0.0
  0
VERTEX
  5
468
330
467
100
AcDbEntity
  8
BEMAßUNG
 62
     7
100
AcDbVertex
100
AcDb2dVertex
 10
78.7648735697185
 20
187.8458983905385
 30
0.0
  0
VERTEX
  5
469
330
467
100
AcDbEntity
  8
BEMAßUNG
 62
     7
100
AcDbVertex
100
AcDb2dVertex
 10
76.42289765884567
 20
187.8458983905385
 30
0.0
  0
SEQEND
  5
46A
330
467
100
AcDbEntity
  8
BEMAßUNG
  0
POLYLINE
  5
46B
330
1F
100
AcDbEntity
  8
BEMAßUNG
 62
     7
100
AcDb2dPolyline
 66
     1
 10
0.0
 20
0.0
 30
0.0
  0
VERTEX
  5
46C
330
46B
100
AcDbEntity
  8
BEMAßUNG
 62
     7
100
AcDbVertex
100
AcDb2dVertex
 10
78.7648735697185
 20
187.8965412941717
 30
0.0
  0
VERTEX
  5
46D
330
46B
100
AcDbEntity
  8
BEMAßUNG
 62
     7
100
AcDbVertex
100
AcDb2dVertex
 10
76.03635794540064
 20
187.8965412941717
 30
0.0
  0
SEQEND
  5
46E
330
46B
100
AcDbEntity
  8
BEMAßUNG
  0
POLYLINE
  5
46F
330
1F
100
AcDbEntity
  8
BEMAßUNG
 62
     7
100
AcDb2dPolyline
 66
     1
 10
0.0
 20
0.0
 30
0.0
  0
VERTEX
  5
470
330
46F
100
AcDbEntity
  8
BEMAßUNG
 62
     7
100
AcDbVertex
100
AcDb2dVertex
 10
78.7648735697185
 20
187.9471841978049
 30
0.0
  0
VERTEX
  5
471
330
46F
100
AcDbEntity
  8
BEMAßUNG
 62
     7
100
AcDbVertex
100
AcDb2dVertex
 10
75.65050725105266
 20
187.9471841978049
 30
0.0
  0
SEQEND
  5
472
330
46F
100
AcDbEntity
  8
BEMAßUNG
  0
POLYLINE
  5
473
330
1F
100
AcDbEntity
  8
BEMAßUNG
 62
     7
100
AcDb2dPolyline
 66
     1
 10
0.0
 20
0.0
 30
0.0
  0
VERTEX
  5
474
330
473
100
AcDbEntity
  8
BEMAßUNG
 62
     7
100
AcDbVertex
100
AcDb2dVertex
 10
78.7648735697185
 20
187.9985161205351
 30
0.0
  0
VERTEX
  5
475
330
473
100
AcDbEntity
  8
BEMAßUNG
 62
     7
100
AcDbVertex
100
AcDb2dVertex
 10
75.26534557580172
 20
187.9985161205351
 30
0.0
  0
SEQEND
  5
476
330
473
100
AcDbEntity
  8
BEMAßUNG
  0
POLYLINE
  5
477
330
1F
100
AcDbEntity
  8
BEMAßUNG
 62
     7
100
AcDb2dPolyline
 66
     1
 10
0.0
 20
0.0
 30
0.0
  0
VERTEX
  5
478
330
477
100
AcDbEntity
  8
BEMAßUNG
 62
     7
100
AcDbVertex
100
AcDb2dVertex
 10
78.7648735697185
 20
188.4553357818792
 30
0.0
  0
VERTEX
  5
479
330
477
100
AcDbEntity
  8
BEMAßUNG
 62
     7
100
AcDbVertex
100
AcDb2dVertex
 10
78.73834633448209
 20
188.4553357818792
 30
0.0
  0
SEQEND
  5
47A
330
477
100
AcDbEntity
  8
BEMAßUNG
  0
POLYLINE
  5
47B
330
1F
100
AcDbEntity
  8
BEMAßUNG
 62
     7
100
AcDb2dPolyline
 66
     1
 10
0.0
 20
0.0
 30
0.0
  0
VERTEX
  5
47C
330
47B
100
AcDbEntity
  8
BEMAßUNG
 62
     7
100
AcDbVertex
100
AcDb2dVertex
 10
78.7648735697185
 20
188.4553357818792
 30
0.0
  0
VERTEX
  5
47D
330
47B
100
AcDbEntity
  8
BEMAßUNG
 62
     7
100
AcDbVertex
100
AcDb2dVertex
 10
78.73834633448209
 20
188.4553357818792
 30
0.0
  0
SEQEND
  5
47E
330
47B
100
AcDbEntity
  8
BEMAßUNG
  0
POLYLINE
  5
47F
330
1F
100
AcDbEntity
  8
BEMAßUNG
 62
     7
100
AcDb2dPolyline
 66
     1
 10
0.0
 20
0.0
 30
0.0
  0
VERTEX
  5
480
330
47F
100
AcDbEntity
  8
BEMAßUNG
 62
     7
100
AcDbVertex
100
AcDb2dVertex
 10
78.7648735697185
 20
188.4046928782461
 30
0.0
  0
VERTEX
  5
481
330
47F
100
AcDbEntity
  8
BEMAßUNG
 62
     7
100
AcDbVertex
100
AcDb2dVertex
 10
78.35215113058558
 20
188.4046928782461
 30
0.0
  0
SEQEND
  5
482
330
47F
100
AcDbEntity
  8
BEMAßUNG
  0
POLYLINE
  5
483
330
1F
100
AcDbEntity
  8
BEMAßUNG
 62
     7
100
AcDb2dPolyline
 66
     1
 10
0.0
 20
0.0
 30
0.0
  0
VERTEX
  5
484
330
483
100
AcDbEntity
  8
BEMAßUNG
 62
     7
100
AcDbVertex
100
AcDb2dVertex
 10
78.7648735697185
 20
188.3537054650644
 30
0.0
  0
VERTEX
  5
485
330
483
100
AcDbEntity
  8
BEMAßUNG
 62
     7
100
AcDbVertex
100
AcDb2dVertex
 10
77.96630043623759
 20
188.3537054650644
 30
0.0
  0
SEQEND
  5
486
330
483
100
AcDbEntity
  8
BEMAßUNG
  0
POLYLINE
  5
487
330
1F
100
AcDbEntity
  8
BEMAßUNG
 62
     7
100
AcDb2dPolyline
 66
     1
 10
0.0
 20
0.0
 30
0.0
  0
VERTEX
  5
488
330
487
100
AcDbEntity
  8
BEMAßUNG
 62
     7
100
AcDbVertex
100
AcDb2dVertex
 10
78.7648735697185
 20
188.3030625614312
 30
0.0
  0
VERTEX
  5
489
330
487
100
AcDbEntity
  8
BEMAßUNG
 62
     7
100
AcDbVertex
100
AcDb2dVertex
 10
77.57976072279256
 20
188.3030625614312
 30
0.0
  0
SEQEND
  5
48A
330
487
100
AcDbEntity
  8
BEMAßUNG
  0
POLYLINE
  5
48B
330
1F
100
AcDbEntity
  8
BEMAßUNG
 62
     7
100
AcDb2dPolyline
 66
     1
 10
0.0
 20
0.0
 30
0.0
  0
VERTEX
  5
48C
330
48B
100
AcDbEntity
  8
BEMAßUNG
 62
     7
100
AcDbVertex
100
AcDb2dVertex
 10
78.7648735697185
 20
188.2527641673465
 30
0.0
  0
VERTEX
  5
48D
330
48B
100
AcDbEntity
  8
BEMAßUNG
 62
     7
100
AcDbVertex
100
AcDb2dVertex
 10
77.19528806663868
 20
188.2527641673465
 30
0.0
  0
SEQEND
  5
48E
330
48B
100
AcDbEntity
  8
BEMAßUNG
  0
POLYLINE
  5
48F
330
1F
100
AcDbEntity
  8
BEMAßUNG
 62
     7
100
AcDb2dPolyline
 66
     1
 10
0.0
 20
0.0
 30
0.0
  0
VERTEX
  5
490
330
48F
100
AcDbEntity
  8
BEMAßUNG
 62
     7
100
AcDbVertex
100
AcDb2dVertex
 10
78.7648735697185
 20
188.2017767541649
 30
0.0
  0
VERTEX
  5
491
330
48F
100
AcDbEntity
  8
BEMAßUNG
 62
     7
100
AcDbVertex
100
AcDb2dVertex
 10
76.80874835319365
 20
188.2017767541649
 30
0.0
  0
SEQEND
  5
492
330
48F
100
AcDbEntity
  8
BEMAßUNG
  0
POLYLINE
  5
493
330
1F
100
AcDbEntity
  8
BEMAßUNG
 62
     7
100
AcDb2dPolyline
 66
     1
 10
0.0
 20
0.0
 30
0.0
  0
VERTEX
  5
494
330
493
100
AcDbEntity
  8
BEMAßUNG
 62
     7
100
AcDbVertex
100
AcDb2dVertex
 10
78.7648735697185
 20
188.1507893409832
 30
0.0
  0
VERTEX
  5
495
330
493
100
AcDbEntity
  8
BEMAßUNG
 62
     7
100
AcDbVertex
100
AcDb2dVertex
 10
76.42289765884567
 20
188.1507893409832
 30
0.0
  0
SEQEND
  5
496
330
493
100
AcDbEntity
  8
BEMAßUNG
  0
POLYLINE
  5
497
330
1F
100
AcDbEntity
  8
BEMAßUNG
 62
     7
100
AcDb2dPolyline
 66
     1
 10
0.0
 20
0.0
 30
0.0
  0
VERTEX
  5
498
330
497
100
AcDbEntity
  8
BEMAßUNG
 62
     7
100
AcDbVertex
100
AcDb2dVertex
 10
78.7648735697185
 20
188.10014643735
 30
0.0
  0
VERTEX
  5
499
330
497
100
AcDbEntity
  8
BEMAßUNG
 62
     7
100
AcDbVertex
100
AcDb2dVertex
 10
76.03635794540064
 20
188.10014643735
 30
0.0
  0
SEQEND
  5
49A
330
497
100
AcDbEntity
  8
BEMAßUNG
  0
POLYLINE
  5
49B
330
1F
100
AcDbEntity
  8
BEMAßUNG
 62
     7
100
AcDb2dPolyline
 66
     1
 10
0.0
 20
0.0
 30
0.0
  0
VERTEX
  5
49C
330
49B
100
AcDbEntity
  8
BEMAßUNG
 62
     7
100
AcDbVertex
100
AcDb2dVertex
 10
78.7648735697185
 20
188.0495035337168
 30
0.0
  0
VERTEX
  5
49D
330
49B
100
AcDbEntity
  8
BEMAßUNG
 62
     7
100
AcDbVertex
100
AcDb2dVertex
 10
75.65050725105266
 20
188.0495035337168
 30
0.0
  0
SEQEND
  5
49E
330
49B
100
AcDbEntity
  8
BEMAßUNG
  0
POLYLINE
  5
49F
330
1F
100
AcDbEntity
  8
BEMAßUNG
 62
     7
100
AcDb2dPolyline
 66
     1
 10
0.0
 20
0.0
 30
0.0
  0
VERTEX
  5
4A0
330
49F
100
AcDbEntity
  8
BEMAßUNG
 62
     7
100
AcDbVertex
100
AcDb2dVertex
 10
78.7648735697185
 20
187.9985161205351
 30
0.0
  0
VERTEX
  5
4A1
330
49F
100
AcDbEntity
  8
BEMAßUNG
 62
     7
100
AcDbVertex
100
AcDb2dVertex
 10
75.26534557580172
 20
187.9985161205351
 30
0.0
  0
SEQEND
  5
4A2
330
49F
100
AcDbEntity
  8
BEMAßUNG
  0
POLYLINE
  5
4A3
330
1F
100
AcDbEntity
  8
BEMAßUNG
 62
     7
100
AcDb2dPolyline
 66
     1
 10
0.0
 20
0.0
 30
0.0
  0
VERTEX
  5
4A4
330
4A3
100
AcDbEntity
  8
BEMAßUNG
 62
     7
100
AcDbVertex
100
AcDb2dVertex
 10
205.6370604954657
 20
233.4982367037782
 30
0.0
  0
VERTEX
  5
4A5
330
4A3
100
AcDbEntity
  8
BEMAßUNG
 62
     7
100
AcDbVertex
100
AcDb2dVertex
 10
221.43661290037
 20
233.4982367037782
 30
0.0
  0
SEQEND
  5
4A6
330
4A3
100
AcDbEntity
  8
BEMAßUNG
  0
POLYLINE
  5
4A7
330
1F
100
AcDbEntity
  8
BEMAßUNG
 62
     7
100
AcDb2dPolyline
 66
     1
 10
0.0
 20
0.0
 30
0.0
  0
VERTEX
  5
4A8
330
4A7
100
AcDbEntity
  8
BEMAßUNG
 62
     7
100
AcDbVertex
100
AcDb2dVertex
 10
205.6370604954657
 20
206.4983343667782
 30
0.0
  0
VERTEX
  5
4A9
330
4A7
100
AcDbEntity
  8
BEMAßUNG
 62
     7
100
AcDbVertex
100
AcDb2dVertex
 10
221.43661290037
 20
206.4983343667782
 30
0.0
  0
SEQEND
  5
4AA
330
4A7
100
AcDbEntity
  8
BEMAßUNG
  0
POLYLINE
  5
4AB
330
1F
100
AcDbEntity
  8
BEMAßUNG
 62
     7
100
AcDb2dPolyline
 66
     1
 10
0.0
 20
0.0
 30
0.0
  0
VERTEX
  5
4AC
330
4AB
100
AcDbEntity
  8
BEMAßUNG
 62
     7
100
AcDbVertex
100
AcDb2dVertex
 10
219.4374239902795
 20
233.4982367037782
 30
0.0
  0
VERTEX
  5
4AD
330
4AB
100
AcDbEntity
  8
BEMAßUNG
 62
     7
100
AcDbVertex
100
AcDb2dVertex
 10
219.4374239902795
 20
206.4983343667782
 30
0.0
  0
SEQEND
  5
4AE
330
4AB
100
AcDbEntity
  8
BEMAßUNG
  0
POLYLINE
  5
4AF
330
1F
100
AcDbEntity
  8
BEMAßUNG
 62
     7
100
AcDb2dPolyline
 66
     1
 10
0.0
 20
0.0
 30
0.0
  0
VERTEX
  5
4B0
330
4AF
100
AcDbEntity
  8
BEMAßUNG
 62
     7
100
AcDbVertex
100
AcDb2dVertex
 10
219.4374239902795
 20
233.4982367037782
 30
0.0
  0
VERTEX
  5
4B1
330
4AF
100
AcDbEntity
  8
BEMAßUNG
 62
     7
100
AcDbVertex
100
AcDb2dVertex
 10
218.9764702143531
 20
229.9980196907644
 30
0.0
  0
VERTEX
  5
4B2
330
4AF
100
AcDbEntity
  8
BEMAßUNG
 62
     7
100
AcDbVertex
100
AcDb2dVertex
 10
219.898377766206
 20
229.9980196907644
 30
0.0
  0
VERTEX
  5
4B3
330
4AF
100
AcDbEntity
  8
BEMAßUNG
 62
     7
100
AcDbVertex
100
AcDb2dVertex
 10
219.4374239902795
 20
233.4982367037782
 30
0.0
  0
SEQEND
  5
4B4
330
4AF
100
AcDbEntity
  8
BEMAßUNG
  0
POLYLINE
  5
4B5
330
1F
100
AcDbEntity
  8
BEMAßUNG
 62
     7
100
AcDb2dPolyline
 66
     1
 10
0.0
 20
0.0
 30
0.0
  0
VERTEX
  5
4B6
330
4B5
100
AcDbEntity
  8
BEMAßUNG
 62
     7
100
AcDbVertex
100
AcDb2dVertex
 10
218.9799153098384
 20
229.9980196907644
 30
0.0
  0
VERTEX
  5
4B7
330
4B5
100
AcDbEntity
  8
BEMAßUNG
 62
     7
100
AcDbVertex
100
AcDb2dVertex
 10
218.9799153098384
 20
230.0252359450979
 30
0.0
  0
SEQEND
  5
4B8
330
4B5
100
AcDbEntity
  8
BEMAßUNG
  0
POLYLINE
  5
4B9
330
1F
100
AcDbEntity
  8
BEMAßUNG
 62
     7
100
AcDb2dPolyline
 66
     1
 10
0.0
 20
0.0
 30
0.0
  0
VERTEX
  5
4BA
330
4B9
100
AcDbEntity
  8
BEMAßUNG
 62
     7
100
AcDbVertex
100
AcDb2dVertex
 10
218.9799153098384
 20
229.9980196907644
 30
0.0
  0
VERTEX
  5
4BB
330
4B9
100
AcDbEntity
  8
BEMAßUNG
 62
     7
100
AcDbVertex
100
AcDb2dVertex
 10
218.9799153098384
 20
230.0252359450979
 30
0.0
  0
SEQEND
  5
4BC
330
4B9
100
AcDbEntity
  8
BEMAßUNG
  0
POLYLINE
  5
4BD
330
1F
100
AcDbEntity
  8
BEMAßUNG
 62
     7
100
AcDb2dPolyline
 66
     1
 10
0.0
 20
0.0
 30
0.0
  0
VERTEX
  5
4BE
330
4BD
100
AcDbEntity
  8
BEMAßUNG
 62
     7
100
AcDbVertex
100
AcDb2dVertex
 10
219.0309027230201
 20
229.9980196907644
 30
0.0
  0
VERTEX
  5
4BF
330
4BD
100
AcDbEntity
  8
BEMAßUNG
 62
     7
100
AcDbVertex
100
AcDb2dVertex
 10
219.0309027230201
 20
230.4114311489944
 30
0.0
  0
SEQEND
  5
4C0
330
4BD
100
AcDbEntity
  8
BEMAßUNG
  0
POLYLINE
  5
4C1
330
1F
100
AcDbEntity
  8
BEMAßUNG
 62
     7
100
AcDb2dPolyline
 66
     1
 10
0.0
 20
0.0
 30
0.0
  0
VERTEX
  5
4C2
330
4C1
100
AcDbEntity
  8
BEMAßUNG
 62
     7
100
AcDbVertex
100
AcDb2dVertex
 10
219.0815456266532
 20
229.9980196907644
 30
0.0
  0
VERTEX
  5
4C3
330
4C1
100
AcDbEntity
  8
BEMAßUNG
 62
     7
100
AcDbVertex
100
AcDb2dVertex
 10
219.0815456266532
 20
230.7972818433423
 30
0.0
  0
SEQEND
  5
4C4
330
4C1
100
AcDbEntity
  8
BEMAßUNG
  0
POLYLINE
  5
4C5
330
1F
100
AcDbEntity
  8
BEMAßUNG
 62
     7
100
AcDb2dPolyline
 66
     1
 10
0.0
 20
0.0
 30
0.0
  0
VERTEX
  5
4C6
330
4C5
100
AcDbEntity
  8
BEMAßUNG
 62
     7
100
AcDbVertex
100
AcDb2dVertex
 10
219.1321885302864
 20
229.9980196907644
 30
0.0
  0
VERTEX
  5
4C7
330
4C5
100
AcDbEntity
  8
BEMAßUNG
 62
     7
100
AcDbVertex
100
AcDb2dVertex
 10
219.1321885302864
 20
231.1831325376903
 30
0.0
  0
SEQEND
  5
4C8
330
4C5
100
AcDbEntity
  8
BEMAßUNG
  0
POLYLINE
  5
4C9
330
1F
100
AcDbEntity
  8
BEMAßUNG
 62
     7
100
AcDb2dPolyline
 66
     1
 10
0.0
 20
0.0
 30
0.0
  0
VERTEX
  5
4CA
330
4C9
100
AcDbEntity
  8
BEMAßUNG
 62
     7
100
AcDbVertex
100
AcDb2dVertex
 10
219.1831759434681
 20
229.9980196907644
 30
0.0
  0
VERTEX
  5
4CB
330
4C9
100
AcDbEntity
  8
BEMAßUNG
 62
     7
100
AcDbVertex
100
AcDb2dVertex
 10
219.1831759434681
 20
231.5686387224898
 30
0.0
  0
SEQEND
  5
4CC
330
4C9
100
AcDbEntity
  8
BEMAßUNG
  0
POLYLINE
  5
4CD
330
1F
100
AcDbEntity
  8
BEMAßUNG
 62
     7
100
AcDb2dPolyline
 66
     1
 10
0.0
 20
0.0
 30
0.0
  0
VERTEX
  5
4CE
330
4CD
100
AcDbEntity
  8
BEMAßUNG
 62
     7
100
AcDbVertex
100
AcDb2dVertex
 10
219.2338188471013
 20
229.9980196907644
 30
0.0
  0
VERTEX
  5
4CF
330
4CD
100
AcDbEntity
  8
BEMAßUNG
 62
     7
100
AcDbVertex
100
AcDb2dVertex
 10
219.2338188471013
 20
231.9548339263863
 30
0.0
  0
SEQEND
  5
4D0
330
4CD
100
AcDbEntity
  8
BEMAßUNG
  0
POLYLINE
  5
4D1
330
1F
100
AcDbEntity
  8
BEMAßUNG
 62
     7
100
AcDb2dPolyline
 66
     1
 10
0.0
 20
0.0
 30
0.0
  0
VERTEX
  5
4D2
330
4D1
100
AcDbEntity
  8
BEMAßUNG
 62
     7
100
AcDbVertex
100
AcDb2dVertex
 10
219.2844617507344
 20
229.9980196907644
 30
0.0
  0
VERTEX
  5
4D3
330
4D1
100
AcDbEntity
  8
BEMAßUNG
 62
     7
100
AcDbVertex
100
AcDb2dVertex
 10
219.2844617507344
 20
232.3406846207343
 30
0.0
  0
SEQEND
  5
4D4
330
4D1
100
AcDbEntity
  8
BEMAßUNG
  0
POLYLINE
  5
4D5
330
1F
100
AcDbEntity
  8
BEMAßUNG
 62
     7
100
AcDb2dPolyline
 66
     1
 10
0.0
 20
0.0
 30
0.0
  0
VERTEX
  5
4D6
330
4D5
100
AcDbEntity
  8
BEMAßUNG
 62
     7
100
AcDbVertex
100
AcDb2dVertex
 10
219.3351046543676
 20
229.9980196907644
 30
0.0
  0
VERTEX
  5
4D7
330
4D5
100
AcDbEntity
  8
BEMAßUNG
 62
     7
100
AcDbVertex
100
AcDb2dVertex
 10
219.3351046543676
 20
232.7265353150823
 30
0.0
  0
SEQEND
  5
4D8
330
4D5
100
AcDbEntity
  8
BEMAßUNG
  0
POLYLINE
  5
4D9
330
1F
100
AcDbEntity
  8
BEMAßUNG
 62
     7
100
AcDb2dPolyline
 66
     1
 10
0.0
 20
0.0
 30
0.0
  0
VERTEX
  5
4DA
330
4D9
100
AcDbEntity
  8
BEMAßUNG
 62
     7
100
AcDbVertex
100
AcDb2dVertex
 10
219.3860920675493
 20
229.9980196907644
 30
0.0
  0
VERTEX
  5
4DB
330
4D9
100
AcDbEntity
  8
BEMAßUNG
 62
     7
100
AcDbVertex
100
AcDb2dVertex
 10
219.3860920675493
 20
233.1120414998817
 30
0.0
  0
SEQEND
  5
4DC
330
4D9
100
AcDbEntity
  8
BEMAßUNG
  0
POLYLINE
  5
4DD
330
1F
100
AcDbEntity
  8
BEMAßUNG
 62
     7
100
AcDb2dPolyline
 66
     1
 10
0.0
 20
0.0
 30
0.0
  0
VERTEX
  5
4DE
330
4DD
100
AcDbEntity
  8
BEMAßUNG
 62
     7
100
AcDbVertex
100
AcDb2dVertex
 10
219.4374239902795
 20
229.9980196907644
 30
0.0
  0
VERTEX
  5
4DF
330
4DD
100
AcDbEntity
  8
BEMAßUNG
 62
     7
100
AcDbVertex
100
AcDb2dVertex
 10
219.4374239902795
 20
233.4982367037782
 30
0.0
  0
SEQEND
  5
4E0
330
4DD
100
AcDbEntity
  8
BEMAßUNG
  0
POLYLINE
  5
4E1
330
1F
100
AcDbEntity
  8
BEMAßUNG
 62
     7
100
AcDb2dPolyline
 66
     1
 10
0.0
 20
0.0
 30
0.0
  0
VERTEX
  5
4E2
330
4E1
100
AcDbEntity
  8
BEMAßUNG
 62
     7
100
AcDbVertex
100
AcDb2dVertex
 10
219.8945881611722
 20
229.9980196907644
 30
0.0
  0
VERTEX
  5
4E3
330
4E1
100
AcDbEntity
  8
BEMAßUNG
 62
     7
100
AcDbVertex
100
AcDb2dVertex
 10
219.8945881611722
 20
230.0252359450979
 30
0.0
  0
SEQEND
  5
4E4
330
4E1
100
AcDbEntity
  8
BEMAßUNG
  0
POLYLINE
  5
4E5
330
1F
100
AcDbEntity
  8
BEMAßUNG
 62
     7
100
AcDb2dPolyline
 66
     1
 10
0.0
 20
0.0
 30
0.0
  0
VERTEX
  5
4E6
330
4E5
100
AcDbEntity
  8
BEMAßUNG
 62
     7
100
AcDbVertex
100
AcDb2dVertex
 10
219.8945881611722
 20
229.9980196907644
 30
0.0
  0
VERTEX
  5
4E7
330
4E5
100
AcDbEntity
  8
BEMAßUNG
 62
     7
100
AcDbVertex
100
AcDb2dVertex
 10
219.8945881611722
 20
230.0252359450979
 30
0.0
  0
SEQEND
  5
4E8
330
4E5
100
AcDbEntity
  8
BEMAßUNG
  0
POLYLINE
  5
4E9
330
1F
100
AcDbEntity
  8
BEMAßUNG
 62
     7
100
AcDb2dPolyline
 66
     1
 10
0.0
 20
0.0
 30
0.0
  0
VERTEX
  5
4EA
330
4E9
100
AcDbEntity
  8
BEMAßUNG
 62
     7
100
AcDbVertex
100
AcDb2dVertex
 10
219.843945257539
 20
229.9980196907644
 30
0.0
  0
VERTEX
  5
4EB
330
4E9
100
AcDbEntity
  8
BEMAßUNG
 62
     7
100
AcDbVertex
100
AcDb2dVertex
 10
219.843945257539
 20
230.4114311489944
 30
0.0
  0
SEQEND
  5
4EC
330
4E9
100
AcDbEntity
  8
BEMAßUNG
  0
POLYLINE
  5
4ED
330
1F
100
AcDbEntity
  8
BEMAßUNG
 62
     7
100
AcDb2dPolyline
 66
     1
 10
0.0
 20
0.0
 30
0.0
  0
VERTEX
  5
4EE
330
4ED
100
AcDbEntity
  8
BEMAßUNG
 62
     7
100
AcDbVertex
100
AcDb2dVertex
 10
219.7929578443573
 20
229.9980196907644
 30
0.0
  0
VERTEX
  5
4EF
330
4ED
100
AcDbEntity
  8
BEMAßUNG
 62
     7
100
AcDbVertex
100
AcDb2dVertex
 10
219.7929578443573
 20
230.7972818433423
 30
0.0
  0
SEQEND
  5
4F0
330
4ED
100
AcDbEntity
  8
BEMAßUNG
  0
POLYLINE
  5
4F1
330
1F
100
AcDbEntity
  8
BEMAßUNG
 62
     7
100
AcDb2dPolyline
 66
     1
 10
0.0
 20
0.0
 30
0.0
  0
VERTEX
  5
4F2
330
4F1
100
AcDbEntity
  8
BEMAßUNG
 62
     7
100
AcDbVertex
100
AcDb2dVertex
 10
219.7416259216271
 20
229.9980196907644
 30
0.0
  0
VERTEX
  5
4F3
330
4F1
100
AcDbEntity
  8
BEMAßUNG
 62
     7
100
AcDbVertex
100
AcDb2dVertex
 10
219.7416259216271
 20
231.1831325376903
 30
0.0
  0
SEQEND
  5
4F4
330
4F1
100
AcDbEntity
  8
BEMAßUNG
  0
POLYLINE
  5
4F5
330
1F
100
AcDbEntity
  8
BEMAßUNG
 62
     7
100
AcDb2dPolyline
 66
     1
 10
0.0
 20
0.0
 30
0.0
  0
VERTEX
  5
4F6
330
4F5
100
AcDbEntity
  8
BEMAßUNG
 62
     7
100
AcDbVertex
100
AcDb2dVertex
 10
219.691672037091
 20
229.9980196907644
 30
0.0
  0
VERTEX
  5
4F7
330
4F5
100
AcDbEntity
  8
BEMAßUNG
 62
     7
100
AcDbVertex
100
AcDb2dVertex
 10
219.691672037091
 20
231.5686387224898
 30
0.0
  0
SEQEND
  5
4F8
330
4F5
100
AcDbEntity
  8
BEMAßUNG
  0
POLYLINE
  5
4F9
330
1F
100
AcDbEntity
  8
BEMAßUNG
 62
     7
100
AcDb2dPolyline
 66
     1
 10
0.0
 20
0.0
 30
0.0
  0
VERTEX
  5
4FA
330
4F9
100
AcDbEntity
  8
BEMAßUNG
 62
     7
100
AcDbVertex
100
AcDb2dVertex
 10
219.6403401143608
 20
229.9980196907644
 30
0.0
  0
VERTEX
  5
4FB
330
4F9
100
AcDbEntity
  8
BEMAßUNG
 62
     7
100
AcDbVertex
100
AcDb2dVertex
 10
219.6403401143608
 20
231.9548339263863
 30
0.0
  0
SEQEND
  5
4FC
330
4F9
100
AcDbEntity
  8
BEMAßUNG
  0
POLYLINE
  5
4FD
330
1F
100
AcDbEntity
  8
BEMAßUNG
 62
     7
100
AcDb2dPolyline
 66
     1
 10
0.0
 20
0.0
 30
0.0
  0
VERTEX
  5
4FE
330
4FD
100
AcDbEntity
  8
BEMAßUNG
 62
     7
100
AcDbVertex
100
AcDb2dVertex
 10
219.5900417202761
 20
229.9980196907644
 30
0.0
  0
VERTEX
  5
4FF
330
4FD
100
AcDbEntity
  8
BEMAßUNG
 62
     7
100
AcDbVertex
100
AcDb2dVertex
 10
219.5900417202761
 20
232.3406846207343
 30
0.0
  0
SEQEND
  5
500
330
4FD
100
AcDbEntity
  8
BEMAßUNG
  0
POLYLINE
  5
501
330
1F
100
AcDbEntity
  8
BEMAßUNG
 62
     7
100
AcDb2dPolyline
 66
     1
 10
0.0
 20
0.0
 30
0.0
  0
VERTEX
  5
502
330
501
100
AcDbEntity
  8
BEMAßUNG
 62
     7
100
AcDbVertex
100
AcDb2dVertex
 10
219.5387097975459
 20
229.9980196907644
 30
0.0
  0
VERTEX
  5
503
330
501
100
AcDbEntity
  8
BEMAßUNG
 62
     7
100
AcDbVertex
100
AcDb2dVertex
 10
219.5387097975459
 20
232.7265353150823
 30
0.0
  0
SEQEND
  5
504
330
501
100
AcDbEntity
  8
BEMAßUNG
  0
POLYLINE
  5
505
330
1F
100
AcDbEntity
  8
BEMAßUNG
 62
     7
100
AcDb2dPolyline
 66
     1
 10
0.0
 20
0.0
 30
0.0
  0
VERTEX
  5
506
330
505
100
AcDbEntity
  8
BEMAßUNG
 62
     7
100
AcDbVertex
100
AcDb2dVertex
 10
219.4880668939127
 20
229.9980196907644
 30
0.0
  0
VERTEX
  5
507
330
505
100
AcDbEntity
  8
BEMAßUNG
 62
     7
100
AcDbVertex
100
AcDb2dVertex
 10
219.4880668939127
 20
233.1120414998817
 30
0.0
  0
SEQEND
  5
508
330
505
100
AcDbEntity
  8
BEMAßUNG
  0
POLYLINE
  5
509
330
1F
100
AcDbEntity
  8
BEMAßUNG
 62
     7
100
AcDb2dPolyline
 66
     1
 10
0.0
 20
0.0
 30
0.0
  0
VERTEX
  5
50A
330
509
100
AcDbEntity
  8
BEMAßUNG
 62
     7
100
AcDbVertex
100
AcDb2dVertex
 10
219.4374239902795
 20
229.9980196907644
 30
0.0
  0
VERTEX
  5
50B
330
509
100
AcDbEntity
  8
BEMAßUNG
 62
     7
100
AcDbVertex
100
AcDb2dVertex
 10
219.4374239902795
 20
233.4982367037782
 30
0.0
  0
SEQEND
  5
50C
330
509
100
AcDbEntity
  8
BEMAßUNG
  0
POLYLINE
  5
50D
330
1F
100
AcDbEntity
  8
BEMAßUNG
 62
     7
100
AcDb2dPolyline
 66
     1
 10
0.0
 20
0.0
 30
0.0
  0
VERTEX
  5
50E
330
50D
100
AcDbEntity
  8
BEMAßUNG
 62
     7
100
AcDbVertex
100
AcDb2dVertex
 10
219.4374239902795
 20
206.4983343667782
 30
0.0
  0
VERTEX
  5
50F
330
50D
100
AcDbEntity
  8
BEMAßUNG
 62
     7
100
AcDbVertex
100
AcDb2dVertex
 10
219.898377766206
 20
209.9982068702435
 30
0.0
  0
VERTEX
  5
510
330
50D
100
AcDbEntity
  8
BEMAßUNG
 62
     7
100
AcDbVertex
100
AcDb2dVertex
 10
218.9764702143531
 20
209.9982068702435
 30
0.0
  0
VERTEX
  5
511
330
50D
100
AcDbEntity
  8
BEMAßUNG
 62
     7
100
AcDbVertex
100
AcDb2dVertex
 10
219.4374239902795
 20
206.4983343667782
 30
0.0
  0
SEQEND
  5
512
330
50D
100
AcDbEntity
  8
BEMAßUNG
  0
POLYLINE
  5
513
330
1F
100
AcDbEntity
  8
BEMAßUNG
 62
     7
100
AcDb2dPolyline
 66
     1
 10
0.0
 20
0.0
 30
0.0
  0
VERTEX
  5
514
330
513
100
AcDbEntity
  8
BEMAßUNG
 62
     7
100
AcDbVertex
100
AcDb2dVertex
 10
219.8945881611722
 20
209.9982068702435
 30
0.0
  0
VERTEX
  5
515
330
513
100
AcDbEntity
  8
BEMAßUNG
 62
     7
100
AcDbVertex
100
AcDb2dVertex
 10
219.8945881611722
 20
209.97099061591
 30
0.0
  0
SEQEND
  5
516
330
513
100
AcDbEntity
  8
BEMAßUNG
  0
POLYLINE
  5
517
330
1F
100
AcDbEntity
  8
BEMAßUNG
 62
     7
100
AcDb2dPolyline
 66
     1
 10
0.0
 20
0.0
 30
0.0
  0
VERTEX
  5
518
330
517
100
AcDbEntity
  8
BEMAßUNG
 62
     7
100
AcDbVertex
100
AcDb2dVertex
 10
219.8945881611722
 20
209.9982068702435
 30
0.0
  0
VERTEX
  5
519
330
517
100
AcDbEntity
  8
BEMAßUNG
 62
     7
100
AcDbVertex
100
AcDb2dVertex
 10
219.8945881611722
 20
209.97099061591
 30
0.0
  0
SEQEND
  5
51A
330
517
100
AcDbEntity
  8
BEMAßUNG
  0
POLYLINE
  5
51B
330
1F
100
AcDbEntity
  8
BEMAßUNG
 62
     7
100
AcDb2dPolyline
 66
     1
 10
0.0
 20
0.0
 30
0.0
  0
VERTEX
  5
51C
330
51B
100
AcDbEntity
  8
BEMAßUNG
 62
     7
100
AcDbVertex
100
AcDb2dVertex
 10
219.843945257539
 20
209.9982068702435
 30
0.0
  0
VERTEX
  5
51D
330
51B
100
AcDbEntity
  8
BEMAßUNG
 62
     7
100
AcDbVertex
100
AcDb2dVertex
 10
219.843945257539
 20
209.585139921562
 30
0.0
  0
SEQEND
  5
51E
330
51B
100
AcDbEntity
  8
BEMAßUNG
  0
POLYLINE
  5
51F
330
1F
100
AcDbEntity
  8
BEMAßUNG
 62
     7
100
AcDb2dPolyline
 66
     1
 10
0.0
 20
0.0
 30
0.0
  0
VERTEX
  5
520
330
51F
100
AcDbEntity
  8
BEMAßUNG
 62
     7
100
AcDbVertex
100
AcDb2dVertex
 10
219.7929578443573
 20
209.9982068702435
 30
0.0
  0
VERTEX
  5
521
330
51F
100
AcDbEntity
  8
BEMAßUNG
 62
     7
100
AcDbVertex
100
AcDb2dVertex
 10
219.7929578443573
 20
209.1992892272141
 30
0.0
  0
SEQEND
  5
522
330
51F
100
AcDbEntity
  8
BEMAßUNG
  0
POLYLINE
  5
523
330
1F
100
AcDbEntity
  8
BEMAßUNG
 62
     7
100
AcDb2dPolyline
 66
     1
 10
0.0
 20
0.0
 30
0.0
  0
VERTEX
  5
524
330
523
100
AcDbEntity
  8
BEMAßUNG
 62
     7
100
AcDbVertex
100
AcDb2dVertex
 10
219.7416259216271
 20
209.9982068702435
 30
0.0
  0
VERTEX
  5
525
330
523
100
AcDbEntity
  8
BEMAßUNG
 62
     7
100
AcDbVertex
100
AcDb2dVertex
 10
219.7416259216271
 20
208.8134385328661
 30
0.0
  0
SEQEND
  5
526
330
523
100
AcDbEntity
  8
BEMAßUNG
  0
POLYLINE
  5
527
330
1F
100
AcDbEntity
  8
BEMAßUNG
 62
     7
100
AcDb2dPolyline
 66
     1
 10
0.0
 20
0.0
 30
0.0
  0
VERTEX
  5
528
330
527
100
AcDbEntity
  8
BEMAßUNG
 62
     7
100
AcDbVertex
100
AcDb2dVertex
 10
219.691672037091
 20
209.9982068702435
 30
0.0
  0
VERTEX
  5
529
330
527
100
AcDbEntity
  8
BEMAßUNG
 62
     7
100
AcDbVertex
100
AcDb2dVertex
 10
219.691672037091
 20
208.4275878385181
 30
0.0
  0
SEQEND
  5
52A
330
527
100
AcDbEntity
  8
BEMAßUNG
  0
POLYLINE
  5
52B
330
1F
100
AcDbEntity
  8
BEMAßUNG
 62
     7
100
AcDb2dPolyline
 66
     1
 10
0.0
 20
0.0
 30
0.0
  0
VERTEX
  5
52C
330
52B
100
AcDbEntity
  8
BEMAßUNG
 62
     7
100
AcDbVertex
100
AcDb2dVertex
 10
219.6403401143608
 20
209.9982068702435
 30
0.0
  0
VERTEX
  5
52D
330
52B
100
AcDbEntity
  8
BEMAßUNG
 62
     7
100
AcDbVertex
100
AcDb2dVertex
 10
219.6403401143608
 20
208.0417371441701
 30
0.0
  0
SEQEND
  5
52E
330
52B
100
AcDbEntity
  8
BEMAßUNG
  0
POLYLINE
  5
52F
330
1F
100
AcDbEntity
  8
BEMAßUNG
 62
     7
100
AcDb2dPolyline
 66
     1
 10
0.0
 20
0.0
 30
0.0
  0
VERTEX
  5
530
330
52F
100
AcDbEntity
  8
BEMAßUNG
 62
     7
100
AcDbVertex
100
AcDb2dVertex
 10
219.5900417202761
 20
209.9982068702435
 30
0.0
  0
VERTEX
  5
531
330
52F
100
AcDbEntity
  8
BEMAßUNG
 62
     7
100
AcDbVertex
100
AcDb2dVertex
 10
219.5900417202761
 20
207.6558864498222
 30
0.0
  0
SEQEND
  5
532
330
52F
100
AcDbEntity
  8
BEMAßUNG
  0
POLYLINE
  5
533
330
1F
100
AcDbEntity
  8
BEMAßUNG
 62
     7
100
AcDb2dPolyline
 66
     1
 10
0.0
 20
0.0
 30
0.0
  0
VERTEX
  5
534
330
533
100
AcDbEntity
  8
BEMAßUNG
 62
     7
100
AcDbVertex
100
AcDb2dVertex
 10
219.5387097975459
 20
209.9982068702435
 30
0.0
  0
VERTEX
  5
535
330
533
100
AcDbEntity
  8
BEMAßUNG
 62
     7
100
AcDbVertex
100
AcDb2dVertex
 10
219.5387097975459
 20
207.2700357554742
 30
0.0
  0
SEQEND
  5
536
330
533
100
AcDbEntity
  8
BEMAßUNG
  0
POLYLINE
  5
537
330
1F
100
AcDbEntity
  8
BEMAßUNG
 62
     7
100
AcDb2dPolyline
 66
     1
 10
0.0
 20
0.0
 30
0.0
  0
VERTEX
  5
538
330
537
100
AcDbEntity
  8
BEMAßUNG
 62
     7
100
AcDbVertex
100
AcDb2dVertex
 10
219.4880668939127
 20
209.9982068702435
 30
0.0
  0
VERTEX
  5
539
330
537
100
AcDbEntity
  8
BEMAßUNG
 62
     7
100
AcDbVertex
100
AcDb2dVertex
 10
219.4880668939127
 20
206.8841850611262
 30
0.0
  0
SEQEND
  5
53A
330
537
100
AcDbEntity
  8
BEMAßUNG
  0
POLYLINE
  5
53B
330
1F
100
AcDbEntity
  8
BEMAßUNG
 62
     7
100
AcDb2dPolyline
 66
     1
 10
0.0
 20
0.0
 30
0.0
  0
VERTEX
  5
53C
330
53B
100
AcDbEntity
  8
BEMAßUNG
 62
     7
100
AcDbVertex
100
AcDb2dVertex
 10
219.4374239902795
 20
209.9982068702435
 30
0.0
  0
VERTEX
  5
53D
330
53B
100
AcDbEntity
  8
BEMAßUNG
 62
     7
100
AcDbVertex
100
AcDb2dVertex
 10
219.4374239902795
 20
206.4983343667782
 30
0.0
  0
SEQEND
  5
53E
330
53B
100
AcDbEntity
  8
BEMAßUNG
  0
POLYLINE
  5
53F
330
1F
100
AcDbEntity
  8
BEMAßUNG
 62
     7
100
AcDb2dPolyline
 66
     1
 10
0.0
 20
0.0
 30
0.0
  0
VERTEX
  5
540
330
53F
100
AcDbEntity
  8
BEMAßUNG
 62
     7
100
AcDbVertex
100
AcDb2dVertex
 10
218.9799153098384
 20
209.9982068702435
 30
0.0
  0
VERTEX
  5
541
330
53F
100
AcDbEntity
  8
BEMAßUNG
 62
     7
100
AcDbVertex
100
AcDb2dVertex
 10
218.9799153098384
 20
209.97099061591
 30
0.0
  0
SEQEND
  5
542
330
53F
100
AcDbEntity
  8
BEMAßUNG
  0
POLYLINE
  5
543
330
1F
100
AcDbEntity
  8
BEMAßUNG
 62
     7
100
AcDb2dPolyline
 66
     1
 10
0.0
 20
0.0
 30
0.0
  0
VERTEX
  5
544
330
543
100
AcDbEntity
  8
BEMAßUNG
 62
     7
100
AcDbVertex
100
AcDb2dVertex
 10
218.9799153098384
 20
209.9982068702435
 30
0.0
  0
VERTEX
  5
545
330
543
100
AcDbEntity
  8
BEMAßUNG
 62
     7
100
AcDbVertex
100
AcDb2dVertex
 10
218.9799153098384
 20
209.97099061591
 30
0.0
  0
SEQEND
  5
546
330
543
100
AcDbEntity
  8
BEMAßUNG
  0
POLYLINE
  5
547
330
1F
100
AcDbEntity
  8
BEMAßUNG
 62
     7
100
AcDb2dPolyline
 66
     1
 10
0.0
 20
0.0
 30
0.0
  0
VERTEX
  5
548
330
547
100
AcDbEntity
  8
BEMAßUNG
 62
     7
100
AcDbVertex
100
AcDb2dVertex
 10
219.0309027230201
 20
209.9982068702435
 30
0.0
  0
VERTEX
  5
549
330
547
100
AcDbEntity
  8
BEMAßUNG
 62
     7
100
AcDbVertex
100
AcDb2dVertex
 10
219.0309027230201
 20
209.585139921562
 30
0.0
  0
SEQEND
  5
54A
330
547
100
AcDbEntity
  8
BEMAßUNG
  0
POLYLINE
  5
54B
330
1F
100
AcDbEntity
  8
BEMAßUNG
 62
     7
100
AcDb2dPolyline
 66
     1
 10
0.0
 20
0.0
 30
0.0
  0
VERTEX
  5
54C
330
54B
100
AcDbEntity
  8
BEMAßUNG
 62
     7
100
AcDbVertex
100
AcDb2dVertex
 10
219.0815456266532
 20
209.9982068702435
 30
0.0
  0
VERTEX
  5
54D
330
54B
100
AcDbEntity
  8
BEMAßUNG
 62
     7
100
AcDbVertex
100
AcDb2dVertex
 10
219.0815456266532
 20
209.1992892272141
 30
0.0
  0
SEQEND
  5
54E
330
54B
100
AcDbEntity
  8
BEMAßUNG
  0
POLYLINE
  5
54F
330
1F
100
AcDbEntity
  8
BEMAßUNG
 62
     7
100
AcDb2dPolyline
 66
     1
 10
0.0
 20
0.0
 30
0.0
  0
VERTEX
  5
550
330
54F
100
AcDbEntity
  8
BEMAßUNG
 62
     7
100
AcDbVertex
100
AcDb2dVertex
 10
219.1321885302864
 20
209.9982068702435
 30
0.0
  0
VERTEX
  5
551
330
54F
100
AcDbEntity
  8
BEMAßUNG
 62
     7
100
AcDbVertex
100
AcDb2dVertex
 10
219.1321885302864
 20
208.8134385328661
 30
0.0
  0
SEQEND
  5
552
330
54F
100
AcDbEntity
  8
BEMAßUNG
  0
POLYLINE
  5
553
330
1F
100
AcDbEntity
  8
BEMAßUNG
 62
     7
100
AcDb2dPolyline
 66
     1
 10
0.0
 20
0.0
 30
0.0
  0
VERTEX
  5
554
330
553
100
AcDbEntity
  8
BEMAßUNG
 62
     7
100
AcDbVertex
100
AcDb2dVertex
 10
219.1831759434681
 20
209.9982068702435
 30
0.0
  0
VERTEX
  5
555
330
553
100
AcDbEntity
  8
BEMAßUNG
 62
     7
100
AcDbVertex
100
AcDb2dVertex
 10
219.1831759434681
 20
208.4275878385181
 30
0.0
  0
SEQEND
  5
556
330
553
100
AcDbEntity
  8
BEMAßUNG
  0
POLYLINE
  5
557
330
1F
100
AcDbEntity
  8
BEMAßUNG
 62
     7
100
AcDb2dPolyline
 66
     1
 10
0.0
 20
0.0
 30
0.0
  0
VERTEX
  5
558
330
557
100
AcDbEntity
  8
BEMAßUNG
 62
     7
100
AcDbVertex
100
AcDb2dVertex
 10
219.2338188471013
 20
209.9982068702435
 30
0.0
  0
VERTEX
  5
559
330
557
100
AcDbEntity
  8
BEMAßUNG
 62
     7
100
AcDbVertex
100
AcDb2dVertex
 10
219.2338188471013
 20
208.0417371441701
 30
0.0
  0
SEQEND
  5
55A
330
557
100
AcDbEntity
  8
BEMAßUNG
  0
POLYLINE
  5
55B
330
1F
100
AcDbEntity
  8
BEMAßUNG
 62
     7
100
AcDb2dPolyline
 66
     1
 10
0.0
 20
0.0
 30
0.0
  0
VERTEX
  5
55C
330
55B
100
AcDbEntity
  8
BEMAßUNG
 62
     7
100
AcDbVertex
100
AcDb2dVertex
 10
219.2844617507344
 20
209.9982068702435
 30
0.0
  0
VERTEX
  5
55D
330
55B
100
AcDbEntity
  8
BEMAßUNG
 62
     7
100
AcDbVertex
100
AcDb2dVertex
 10
219.2844617507344
 20
207.6558864498222
 30
0.0
  0
SEQEND
  5
55E
330
55B
100
AcDbEntity
  8
BEMAßUNG
  0
POLYLINE
  5
55F
330
1F
100
AcDbEntity
  8
BEMAßUNG
 62
     7
100
AcDb2dPolyline
 66
     1
 10
0.0
 20
0.0
 30
0.0
  0
VERTEX
  5
560
330
55F
100
AcDbEntity
  8
BEMAßUNG
 62
     7
100
AcDbVertex
100
AcDb2dVertex
 10
219.3351046543676
 20
209.9982068702435
 30
0.0
  0
VERTEX
  5
561
330
55F
100
AcDbEntity
  8
BEMAßUNG
 62
     7
100
AcDbVertex
100
AcDb2dVertex
 10
219.3351046543676
 20
207.2700357554742
 30
0.0
  0
SEQEND
  5
562
330
55F
100
AcDbEntity
  8
BEMAßUNG
  0
POLYLINE
  5
563
330
1F
100
AcDbEntity
  8
BEMAßUNG
 62
     7
100
AcDb2dPolyline
 66
     1
 10
0.0
 20
0.0
 30
0.0
  0
VERTEX
  5
564
330
563
100
AcDbEntity
  8
BEMAßUNG
 62
     7
100
AcDbVertex
100
AcDb2dVertex
 10
219.3860920675493
 20
209.9982068702435
 30
0.0
  0
VERTEX
  5
565
330
563
100
AcDbEntity
  8
BEMAßUNG
 62
     7
100
AcDbVertex
100
AcDb2dVertex
 10
219.3860920675493
 20
206.8841850611262
 30
0.0
  0
SEQEND
  5
566
330
563
100
AcDbEntity
  8
BEMAßUNG
  0
POLYLINE
  5
567
330
1F
100
AcDbEntity
  8
BEMAßUNG
 62
     7
100
AcDb2dPolyline
 66
     1
 10
0.0
 20
0.0
 30
0.0
  0
VERTEX
  5
568
330
567
100
AcDbEntity
  8
BEMAßUNG
 62
     7
100
AcDbVertex
100
AcDb2dVertex
 10
219.4374239902795
 20
209.9982068702435
 30
0.0
  0
VERTEX
  5
569
330
567
100
AcDbEntity
  8
BEMAßUNG
 62
     7
100
AcDbVertex
100
AcDb2dVertex
 10
219.4374239902795
 20
206.4983343667782
 30
0.0
  0
SEQEND
  5
56A
330
567
100
AcDbEntity
  8
BEMAßUNG
  0
POLYLINE
  5
56B
330
1F
100
AcDbEntity
  8
BEMAßUNG
 62
     7
100
AcDb2dPolyline
 66
     1
 10
0.0
 20
0.0
 30
0.0
  0
VERTEX
  5
56C
330
56B
100
AcDbEntity
  8
BEMAßUNG
 62
     7
100
AcDbVertex
100
AcDb2dVertex
 10
209.4370008156963
 20
219.9979410257297
 30
0.0
  0
VERTEX
  5
56D
330
56B
100
AcDbEntity
  8
BEMAßUNG
 62
     7
100
AcDbVertex
100
AcDb2dVertex
 10
209.4370008156963
 20
185.6992593936794
 30
0.0
  0
SEQEND
  5
56E
330
56B
100
AcDbEntity
  8
BEMAßUNG
  0
POLYLINE
  5
56F
330
1F
100
AcDbEntity
  8
BEMAßUNG
 62
     7
100
AcDb2dPolyline
 66
     1
 10
0.0
 20
0.0
 30
0.0
  0
VERTEX
  5
570
330
56F
100
AcDbEntity
  8
BEMAßUNG
 62
     7
100
AcDbVertex
100
AcDb2dVertex
 10
173.4371310330296
 20
219.9979410257297
 30
0.0
  0
VERTEX
  5
571
330
56F
100
AcDbEntity
  8
BEMAßUNG
 62
     7
100
AcDbVertex
100
AcDb2dVertex
 10
173.4371310330296
 20
185.6992593936794
 30
0.0
  0
SEQEND
  5
572
330
56F
100
AcDbEntity
  8
BEMAßUNG
  0
POLYLINE
  5
573
330
1F
100
AcDbEntity
  8
BEMAßUNG
 62
     7
100
AcDb2dPolyline
 66
     1
 10
0.0
 20
0.0
 30
0.0
  0
VERTEX
  5
574
330
573
100
AcDbEntity
  8
BEMAßUNG
 62
     7
100
AcDbVertex
100
AcDb2dVertex
 10
209.4370008156963
 20
187.6998263419639
 30
0.0
  0
VERTEX
  5
575
330
573
100
AcDbEntity
  8
BEMAßUNG
 62
     7
100
AcDbVertex
100
AcDb2dVertex
 10
173.4371310330296
 20
187.6998263419639
 30
0.0
  0
SEQEND
  5
576
330
573
100
AcDbEntity
  8
BEMAßUNG
  0
POLYLINE
  5
577
330
1F
100
AcDbEntity
  8
BEMAßUNG
 62
     7
100
AcDb2dPolyline
 66
     1
 10
0.0
 20
0.0
 30
0.0
  0
VERTEX
  5
578
330
577
100
AcDbEntity
  8
BEMAßUNG
 62
     7
100
AcDbVertex
100
AcDb2dVertex
 10
209.4370008156963
 20
187.6998263419639
 30
0.0
  0
VERTEX
  5
579
330
577
100
AcDbEntity
  8
BEMAßUNG
 62
     7
100
AcDbVertex
100
AcDb2dVertex
 10
205.9367838026825
 20
188.1604356083419
 30
0.0
  0
VERTEX
  5
57A
330
577
100
AcDbEntity
  8
BEMAßUNG
 62
     7
100
AcDbVertex
100
AcDb2dVertex
 10
205.9367838026825
 20
187.2388725660375
 30
0.0
  0
VERTEX
  5
57B
330
577
100
AcDbEntity
  8
BEMAßUNG
 62
     7
100
AcDbVertex
100
AcDb2dVertex
 10
209.4370008156963
 20
187.6998263419639
 30
0.0
  0
SEQEND
  5
57C
330
577
100
AcDbEntity
  8
BEMAßUNG
  0
POLYLINE
  5
57D
330
1F
100
AcDbEntity
  8
BEMAßUNG
 62
     7
100
AcDb2dPolyline
 66
     1
 10
0.0
 20
0.0
 30
0.0
  0
VERTEX
  5
57E
330
57D
100
AcDbEntity
  8
BEMAßUNG
 62
     7
100
AcDbVertex
100
AcDb2dVertex
 10
205.9367838026825
 20
188.1569905128566
 30
0.0
  0
VERTEX
  5
57F
330
57D
100
AcDbEntity
  8
BEMAßUNG
 62
     7
100
AcDbVertex
100
AcDb2dVertex
 10
205.964000057016
 20
188.1569905128566
 30
0.0
  0
SEQEND
  5
580
330
57D
100
AcDbEntity
  8
BEMAßUNG
  0
POLYLINE
  5
581
330
1F
100
AcDbEntity
  8
BEMAßUNG
 62
     7
100
AcDb2dPolyline
 66
     1
 10
0.0
 20
0.0
 30
0.0
  0
VERTEX
  5
582
330
581
100
AcDbEntity
  8
BEMAßUNG
 62
     7
100
AcDbVertex
100
AcDb2dVertex
 10
205.9367838026825
 20
188.1569905128566
 30
0.0
  0
VERTEX
  5
583
330
581
100
AcDbEntity
  8
BEMAßUNG
 62
     7
100
AcDbVertex
100
AcDb2dVertex
 10
205.964000057016
 20
188.1569905128566
 30
0.0
  0
SEQEND
  5
584
330
581
100
AcDbEntity
  8
BEMAßUNG
  0
POLYLINE
  5
585
330
1F
100
AcDbEntity
  8
BEMAßUNG
 62
     7
100
AcDb2dPolyline
 66
     1
 10
0.0
 20
0.0
 30
0.0
  0
VERTEX
  5
586
330
585
100
AcDbEntity
  8
BEMAßUNG
 62
     7
100
AcDbVertex
100
AcDb2dVertex
 10
205.9367838026825
 20
188.1063476092234
 30
0.0
  0
VERTEX
  5
587
330
585
100
AcDbEntity
  8
BEMAßUNG
 62
     7
100
AcDbVertex
100
AcDb2dVertex
 10
206.3501952609125
 20
188.1063476092234
 30
0.0
  0
SEQEND
  5
588
330
585
100
AcDbEntity
  8
BEMAßUNG
  0
POLYLINE
  5
589
330
1F
100
AcDbEntity
  8
BEMAßUNG
 62
     7
100
AcDb2dPolyline
 66
     1
 10
0.0
 20
0.0
 30
0.0
  0
VERTEX
  5
58A
330
589
100
AcDbEntity
  8
BEMAßUNG
 62
     7
100
AcDbVertex
100
AcDb2dVertex
 10
205.9367838026825
 20
188.0553601960417
 30
0.0
  0
VERTEX
  5
58B
330
589
100
AcDbEntity
  8
BEMAßUNG
 62
     7
100
AcDbVertex
100
AcDb2dVertex
 10
206.7360459552604
 20
188.0553601960417
 30
0.0
  0
SEQEND
  5
58C
330
589
100
AcDbEntity
  8
BEMAßUNG
  0
POLYLINE
  5
58D
330
1F
100
AcDbEntity
  8
BEMAßUNG
 62
     7
100
AcDb2dPolyline
 66
     1
 10
0.0
 20
0.0
 30
0.0
  0
VERTEX
  5
58E
330
58D
100
AcDbEntity
  8
BEMAßUNG
 62
     7
100
AcDbVertex
100
AcDb2dVertex
 10
205.9367838026825
 20
188.00437278286
 30
0.0
  0
VERTEX
  5
58F
330
58D
100
AcDbEntity
  8
BEMAßUNG
 62
     7
100
AcDbVertex
100
AcDb2dVertex
 10
207.1218966496084
 20
188.00437278286
 30
0.0
  0
SEQEND
  5
590
330
58D
100
AcDbEntity
  8
BEMAßUNG
  0
POLYLINE
  5
591
330
1F
100
AcDbEntity
  8
BEMAßUNG
 62
     7
100
AcDb2dPolyline
 66
     1
 10
0.0
 20
0.0
 30
0.0
  0
VERTEX
  5
592
330
591
100
AcDbEntity
  8
BEMAßUNG
 62
     7
100
AcDbVertex
100
AcDb2dVertex
 10
205.9367838026825
 20
187.9537298792268
 30
0.0
  0
VERTEX
  5
593
330
591
100
AcDbEntity
  8
BEMAßUNG
 62
     7
100
AcDbVertex
100
AcDb2dVertex
 10
207.5077473439564
 20
187.9537298792268
 30
0.0
  0
SEQEND
  5
594
330
591
100
AcDbEntity
  8
BEMAßUNG
  0
POLYLINE
  5
595
330
1F
100
AcDbEntity
  8
BEMAßUNG
 62
     7
100
AcDb2dPolyline
 66
     1
 10
0.0
 20
0.0
 30
0.0
  0
VERTEX
  5
596
330
595
100
AcDbEntity
  8
BEMAßUNG
 62
     7
100
AcDbVertex
100
AcDb2dVertex
 10
205.9367838026825
 20
187.9023979564966
 30
0.0
  0
VERTEX
  5
597
330
595
100
AcDbEntity
  8
BEMAßUNG
 62
     7
100
AcDbVertex
100
AcDb2dVertex
 10
207.8935980383044
 20
187.9023979564966
 30
0.0
  0
SEQEND
  5
598
330
595
100
AcDbEntity
  8
BEMAßUNG
  0
POLYLINE
  5
599
330
1F
100
AcDbEntity
  8
BEMAßUNG
 62
     7
100
AcDb2dPolyline
 66
     1
 10
0.0
 20
0.0
 30
0.0
  0
VERTEX
  5
59A
330
599
100
AcDbEntity
  8
BEMAßUNG
 62
     7
100
AcDbVertex
100
AcDb2dVertex
 10
205.9367838026825
 20
187.8517550528635
 30
0.0
  0
VERTEX
  5
59B
330
599
100
AcDbEntity
  8
BEMAßUNG
 62
     7
100
AcDbVertex
100
AcDb2dVertex
 10
208.2794487326524
 20
187.8517550528635
 30
0.0
  0
SEQEND
  5
59C
330
599
100
AcDbEntity
  8
BEMAßUNG
  0
POLYLINE
  5
59D
330
1F
100
AcDbEntity
  8
BEMAßUNG
 62
     7
100
AcDb2dPolyline
 66
     1
 10
0.0
 20
0.0
 30
0.0
  0
VERTEX
  5
59E
330
59D
100
AcDbEntity
  8
BEMAßUNG
 62
     7
100
AcDbVertex
100
AcDb2dVertex
 10
205.9367838026825
 20
187.8007676396818
 30
0.0
  0
VERTEX
  5
59F
330
59D
100
AcDbEntity
  8
BEMAßUNG
 62
     7
100
AcDbVertex
100
AcDb2dVertex
 10
208.6652994270003
 20
187.8007676396818
 30
0.0
  0
SEQEND
  5
5A0
330
59D
100
AcDbEntity
  8
BEMAßUNG
  0
POLYLINE
  5
5A1
330
1F
100
AcDbEntity
  8
BEMAßUNG
 62
     7
100
AcDb2dPolyline
 66
     1
 10
0.0
 20
0.0
 30
0.0
  0
VERTEX
  5
5A2
330
5A1
100
AcDbEntity
  8
BEMAßUNG
 62
     7
100
AcDbVertex
100
AcDb2dVertex
 10
205.9367838026825
 20
187.7504692455971
 30
0.0
  0
VERTEX
  5
5A3
330
5A1
100
AcDbEntity
  8
BEMAßUNG
 62
     7
100
AcDbVertex
100
AcDb2dVertex
 10
209.0511501213483
 20
187.7504692455971
 30
0.0
  0
SEQEND
  5
5A4
330
5A1
100
AcDbEntity
  8
BEMAßUNG
  0
POLYLINE
  5
5A5
330
1F
100
AcDbEntity
  8
BEMAßUNG
 62
     7
100
AcDb2dPolyline
 66
     1
 10
0.0
 20
0.0
 30
0.0
  0
VERTEX
  5
5A6
330
5A5
100
AcDbEntity
  8
BEMAßUNG
 62
     7
100
AcDbVertex
100
AcDb2dVertex
 10
205.9367838026825
 20
187.6998263419639
 30
0.0
  0
VERTEX
  5
5A7
330
5A5
100
AcDbEntity
  8
BEMAßUNG
 62
     7
100
AcDbVertex
100
AcDb2dVertex
 10
209.4370008156963
 20
187.6998263419639
 30
0.0
  0
SEQEND
  5
5A8
330
5A5
100
AcDbEntity
  8
BEMAßUNG
  0
POLYLINE
  5
5A9
330
1F
100
AcDbEntity
  8
BEMAßUNG
 62
     7
100
AcDb2dPolyline
 66
     1
 10
0.0
 20
0.0
 30
0.0
  0
VERTEX
  5
5AA
330
5A9
100
AcDbEntity
  8
BEMAßUNG
 62
     7
100
AcDbVertex
100
AcDb2dVertex
 10
205.9367838026825
 20
187.2419731519742
 30
0.0
  0
VERTEX
  5
5AB
330
5A9
100
AcDbEntity
  8
BEMAßUNG
 62
     7
100
AcDbVertex
100
AcDb2dVertex
 10
205.964000057016
 20
187.2419731519742
 30
0.0
  0
SEQEND
  5
5AC
330
5A9
100
AcDbEntity
  8
BEMAßUNG
  0
POLYLINE
  5
5AD
330
1F
100
AcDbEntity
  8
BEMAßUNG
 62
     7
100
AcDb2dPolyline
 66
     1
 10
0.0
 20
0.0
 30
0.0
  0
VERTEX
  5
5AE
330
5AD
100
AcDbEntity
  8
BEMAßUNG
 62
     7
100
AcDbVertex
100
AcDb2dVertex
 10
205.9367838026825
 20
187.2419731519742
 30
0.0
  0
VERTEX
  5
5AF
330
5AD
100
AcDbEntity
  8
BEMAßUNG
 62
     7
100
AcDbVertex
100
AcDb2dVertex
 10
205.964000057016
 20
187.2419731519742
 30
0.0
  0
SEQEND
  5
5B0
330
5AD
100
AcDbEntity
  8
BEMAßUNG
  0
POLYLINE
  5
5B1
330
1F
100
AcDbEntity
  8
BEMAßUNG
 62
     7
100
AcDb2dPolyline
 66
     1
 10
0.0
 20
0.0
 30
0.0
  0
VERTEX
  5
5B2
330
5B1
100
AcDbEntity
  8
BEMAßUNG
 62
     7
100
AcDbVertex
100
AcDb2dVertex
 10
205.9367838026825
 20
187.2926160556074
 30
0.0
  0
VERTEX
  5
5B3
330
5B1
100
AcDbEntity
  8
BEMAßUNG
 62
     7
100
AcDbVertex
100
AcDb2dVertex
 10
206.3501952609125
 20
187.2926160556074
 30
0.0
  0
SEQEND
  5
5B4
330
5B1
100
AcDbEntity
  8
BEMAßUNG
  0
POLYLINE
  5
5B5
330
1F
100
AcDbEntity
  8
BEMAßUNG
 62
     7
100
AcDb2dPolyline
 66
     1
 10
0.0
 20
0.0
 30
0.0
  0
VERTEX
  5
5B6
330
5B5
100
AcDbEntity
  8
BEMAßUNG
 62
     7
100
AcDbVertex
100
AcDb2dVertex
 10
205.9367838026825
 20
187.3439479783376
 30
0.0
  0
VERTEX
  5
5B7
330
5B5
100
AcDbEntity
  8
BEMAßUNG
 62
     7
100
AcDbVertex
100
AcDb2dVertex
 10
206.7360459552604
 20
187.3439479783376
 30
0.0
  0
SEQEND
  5
5B8
330
5B5
100
AcDbEntity
  8
BEMAßUNG
  0
POLYLINE
  5
5B9
330
1F
100
AcDbEntity
  8
BEMAßUNG
 62
     7
100
AcDb2dPolyline
 66
     1
 10
0.0
 20
0.0
 30
0.0
  0
VERTEX
  5
5BA
330
5B9
100
AcDbEntity
  8
BEMAßUNG
 62
     7
100
AcDbVertex
100
AcDb2dVertex
 10
205.9367838026825
 20
187.3945908819708
 30
0.0
  0
VERTEX
  5
5BB
330
5B9
100
AcDbEntity
  8
BEMAßUNG
 62
     7
100
AcDbVertex
100
AcDb2dVertex
 10
207.1218966496084
 20
187.3945908819708
 30
0.0
  0
SEQEND
  5
5BC
330
5B9
100
AcDbEntity
  8
BEMAßUNG
  0
POLYLINE
  5
5BD
330
1F
100
AcDbEntity
  8
BEMAßUNG
 62
     7
100
AcDb2dPolyline
 66
     1
 10
0.0
 20
0.0
 30
0.0
  0
VERTEX
  5
5BE
330
5BD
100
AcDbEntity
  8
BEMAßUNG
 62
     7
100
AcDbVertex
100
AcDb2dVertex
 10
205.9367838026825
 20
187.4455782951525
 30
0.0
  0
VERTEX
  5
5BF
330
5BD
100
AcDbEntity
  8
BEMAßUNG
 62
     7
100
AcDbVertex
100
AcDb2dVertex
 10
207.5077473439564
 20
187.4455782951525
 30
0.0
  0
SEQEND
  5
5C0
330
5BD
100
AcDbEntity
  8
BEMAßUNG
  0
POLYLINE
  5
5C1
330
1F
100
AcDbEntity
  8
BEMAßUNG
 62
     7
100
AcDb2dPolyline
 66
     1
 10
0.0
 20
0.0
 30
0.0
  0
VERTEX
  5
5C2
330
5C1
100
AcDbEntity
  8
BEMAßUNG
 62
     7
100
AcDbVertex
100
AcDb2dVertex
 10
205.9367838026825
 20
187.4962211987857
 30
0.0
  0
VERTEX
  5
5C3
330
5C1
100
AcDbEntity
  8
BEMAßUNG
 62
     7
100
AcDbVertex
100
AcDb2dVertex
 10
207.8935980383044
 20
187.4962211987857
 30
0.0
  0
SEQEND
  5
5C4
330
5C1
100
AcDbEntity
  8
BEMAßUNG
  0
POLYLINE
  5
5C5
330
1F
100
AcDbEntity
  8
BEMAßUNG
 62
     7
100
AcDb2dPolyline
 66
     1
 10
0.0
 20
0.0
 30
0.0
  0
VERTEX
  5
5C6
330
5C5
100
AcDbEntity
  8
BEMAßUNG
 62
     7
100
AcDbVertex
100
AcDb2dVertex
 10
205.9367838026825
 20
187.5472086119674
 30
0.0
  0
VERTEX
  5
5C7
330
5C5
100
AcDbEntity
  8
BEMAßUNG
 62
     7
100
AcDbVertex
100
AcDb2dVertex
 10
208.2794487326524
 20
187.5472086119674
 30
0.0
  0
SEQEND
  5
5C8
330
5C5
100
AcDbEntity
  8
BEMAßUNG
  0
POLYLINE
  5
5C9
330
1F
100
AcDbEntity
  8
BEMAßUNG
 62
     7
100
AcDb2dPolyline
 66
     1
 10
0.0
 20
0.0
 30
0.0
  0
VERTEX
  5
5CA
330
5C9
100
AcDbEntity
  8
BEMAßUNG
 62
     7
100
AcDbVertex
100
AcDb2dVertex
 10
205.9367838026825
 20
187.5985405346976
 30
0.0
  0
VERTEX
  5
5CB
330
5C9
100
AcDbEntity
  8
BEMAßUNG
 62
     7
100
AcDbVertex
100
AcDb2dVertex
 10
208.6652994270003
 20
187.5985405346976
 30
0.0
  0
SEQEND
  5
5CC
330
5C9
100
AcDbEntity
  8
BEMAßUNG
  0
POLYLINE
  5
5CD
330
1F
100
AcDbEntity
  8
BEMAßUNG
 62
     7
100
AcDb2dPolyline
 66
     1
 10
0.0
 20
0.0
 30
0.0
  0
VERTEX
  5
5CE
330
5CD
100
AcDbEntity
  8
BEMAßUNG
 62
     7
100
AcDbVertex
100
AcDb2dVertex
 10
205.9367838026825
 20
187.6491834383308
 30
0.0
  0
VERTEX
  5
5CF
330
5CD
100
AcDbEntity
  8
BEMAßUNG
 62
     7
100
AcDbVertex
100
AcDb2dVertex
 10
209.0511501213483
 20
187.6491834383308
 30
0.0
  0
SEQEND
  5
5D0
330
5CD
100
AcDbEntity
  8
BEMAßUNG
  0
POLYLINE
  5
5D1
330
1F
100
AcDbEntity
  8
BEMAßUNG
 62
     7
100
AcDb2dPolyline
 66
     1
 10
0.0
 20
0.0
 30
0.0
  0
VERTEX
  5
5D2
330
5D1
100
AcDbEntity
  8
BEMAßUNG
 62
     7
100
AcDbVertex
100
AcDb2dVertex
 10
205.9367838026825
 20
187.6998263419639
 30
0.0
  0
VERTEX
  5
5D3
330
5D1
100
AcDbEntity
  8
BEMAßUNG
 62
     7
100
AcDbVertex
100
AcDb2dVertex
 10
209.4370008156963
 20
187.6998263419639
 30
0.0
  0
SEQEND
  5
5D4
330
5D1
100
AcDbEntity
  8
BEMAßUNG
  0
POLYLINE
  5
5D5
330
1F
100
AcDbEntity
  8
BEMAßUNG
 62
     7
100
AcDb2dPolyline
 66
     1
 10
0.0
 20
0.0
 30
0.0
  0
VERTEX
  5
5D6
330
5D5
100
AcDbEntity
  8
BEMAßUNG
 62
     7
100
AcDbVertex
100
AcDb2dVertex
 10
173.4371310330296
 20
187.6998263419639
 30
0.0
  0
VERTEX
  5
5D7
330
5D5
100
AcDbEntity
  8
BEMAßUNG
 62
     7
100
AcDbVertex
100
AcDb2dVertex
 10
176.9373480460434
 20
187.2388725660375
 30
0.0
  0
VERTEX
  5
5D8
330
5D5
100
AcDbEntity
  8
BEMAßUNG
 62
     7
100
AcDbVertex
100
AcDb2dVertex
 10
176.9373480460434
 20
188.1604356083419
 30
0.0
  0
VERTEX
  5
5D9
330
5D5
100
AcDbEntity
  8
BEMAßUNG
 62
     7
100
AcDbVertex
100
AcDb2dVertex
 10
173.4371310330296
 20
187.6998263419639
 30
0.0
  0
SEQEND
  5
5DA
330
5D5
100
AcDbEntity
  8
BEMAßUNG
  0
POLYLINE
  5
5DB
330
1F
100
AcDbEntity
  8
BEMAßUNG
 62
     7
100
AcDb2dPolyline
 66
     1
 10
0.0
 20
0.0
 30
0.0
  0
VERTEX
  5
5DC
330
5DB
100
AcDbEntity
  8
BEMAßUNG
 62
     7
100
AcDbVertex
100
AcDb2dVertex
 10
176.9373480460434
 20
187.2419731519742
 30
0.0
  0
VERTEX
  5
5DD
330
5DB
100
AcDbEntity
  8
BEMAßUNG
 62
     7
100
AcDbVertex
100
AcDb2dVertex
 10
176.9097872821615
 20
187.2419731519742
 30
0.0
  0
SEQEND
  5
5DE
330
5DB
100
AcDbEntity
  8
BEMAßUNG
  0
POLYLINE
  5
5DF
330
1F
100
AcDbEntity
  8
BEMAßUNG
 62
     7
100
AcDb2dPolyline
 66
     1
 10
0.0
 20
0.0
 30
0.0
  0
VERTEX
  5
5E0
330
5DF
100
AcDbEntity
  8
BEMAßUNG
 62
     7
100
AcDbVertex
100
AcDb2dVertex
 10
176.9373480460434
 20
187.2419731519742
 30
0.0
  0
VERTEX
  5
5E1
330
5DF
100
AcDbEntity
  8
BEMAßUNG
 62
     7
100
AcDbVertex
100
AcDb2dVertex
 10
176.9097872821615
 20
187.2419731519742
 30
0.0
  0
SEQEND
  5
5E2
330
5DF
100
AcDbEntity
  8
BEMAßUNG
  0
POLYLINE
  5
5E3
330
1F
100
AcDbEntity
  8
BEMAßUNG
 62
     7
100
AcDb2dPolyline
 66
     1
 10
0.0
 20
0.0
 30
0.0
  0
VERTEX
  5
5E4
330
5E3
100
AcDbEntity
  8
BEMAßUNG
 62
     7
100
AcDbVertex
100
AcDb2dVertex
 10
176.9373480460434
 20
187.2926160556074
 30
0.0
  0
VERTEX
  5
5E5
330
5E3
100
AcDbEntity
  8
BEMAßUNG
 62
     7
100
AcDbVertex
100
AcDb2dVertex
 10
176.5239365878135
 20
187.2926160556074
 30
0.0
  0
SEQEND
  5
5E6
330
5E3
100
AcDbEntity
  8
BEMAßUNG
  0
POLYLINE
  5
5E7
330
1F
100
AcDbEntity
  8
BEMAßUNG
 62
     7
100
AcDb2dPolyline
 66
     1
 10
0.0
 20
0.0
 30
0.0
  0
VERTEX
  5
5E8
330
5E7
100
AcDbEntity
  8
BEMAßUNG
 62
     7
100
AcDbVertex
100
AcDb2dVertex
 10
176.9373480460434
 20
187.3439479783376
 30
0.0
  0
VERTEX
  5
5E9
330
5E7
100
AcDbEntity
  8
BEMAßUNG
 62
     7
100
AcDbVertex
100
AcDb2dVertex
 10
176.1387749125625
 20
187.3439479783376
 30
0.0
  0
SEQEND
  5
5EA
330
5E7
100
AcDbEntity
  8
BEMAßUNG
  0
POLYLINE
  5
5EB
330
1F
100
AcDbEntity
  8
BEMAßUNG
 62
     7
100
AcDb2dPolyline
 66
     1
 10
0.0
 20
0.0
 30
0.0
  0
VERTEX
  5
5EC
330
5EB
100
AcDbEntity
  8
BEMAßUNG
 62
     7
100
AcDbVertex
100
AcDb2dVertex
 10
176.9373480460434
 20
187.3945908819708
 30
0.0
  0
VERTEX
  5
5ED
330
5EB
100
AcDbEntity
  8
BEMAßUNG
 62
     7
100
AcDbVertex
100
AcDb2dVertex
 10
175.7522351991175
 20
187.3945908819708
 30
0.0
  0
SEQEND
  5
5EE
330
5EB
100
AcDbEntity
  8
BEMAßUNG
  0
POLYLINE
  5
5EF
330
1F
100
AcDbEntity
  8
BEMAßUNG
 62
     7
100
AcDb2dPolyline
 66
     1
 10
0.0
 20
0.0
 30
0.0
  0
VERTEX
  5
5F0
330
5EF
100
AcDbEntity
  8
BEMAßUNG
 62
     7
100
AcDbVertex
100
AcDb2dVertex
 10
176.9373480460434
 20
187.4455782951525
 30
0.0
  0
VERTEX
  5
5F1
330
5EF
100
AcDbEntity
  8
BEMAßUNG
 62
     7
100
AcDbVertex
100
AcDb2dVertex
 10
175.3663845047695
 20
187.4455782951525
 30
0.0
  0
SEQEND
  5
5F2
330
5EF
100
AcDbEntity
  8
BEMAßUNG
  0
POLYLINE
  5
5F3
330
1F
100
AcDbEntity
  8
BEMAßUNG
 62
     7
100
AcDb2dPolyline
 66
     1
 10
0.0
 20
0.0
 30
0.0
  0
VERTEX
  5
5F4
330
5F3
100
AcDbEntity
  8
BEMAßUNG
 62
     7
100
AcDbVertex
100
AcDb2dVertex
 10
176.9373480460434
 20
187.4962211987857
 30
0.0
  0
VERTEX
  5
5F5
330
5F3
100
AcDbEntity
  8
BEMAßUNG
 62
     7
100
AcDbVertex
100
AcDb2dVertex
 10
174.9805338104215
 20
187.4962211987857
 30
0.0
  0
SEQEND
  5
5F6
330
5F3
100
AcDbEntity
  8
BEMAßUNG
  0
POLYLINE
  5
5F7
330
1F
100
AcDbEntity
  8
BEMAßUNG
 62
     7
100
AcDb2dPolyline
 66
     1
 10
0.0
 20
0.0
 30
0.0
  0
VERTEX
  5
5F8
330
5F7
100
AcDbEntity
  8
BEMAßUNG
 62
     7
100
AcDbVertex
100
AcDb2dVertex
 10
176.9373480460434
 20
187.5472086119674
 30
0.0
  0
VERTEX
  5
5F9
330
5F7
100
AcDbEntity
  8
BEMAßUNG
 62
     7
100
AcDbVertex
100
AcDb2dVertex
 10
174.5953721351706
 20
187.5472086119674
 30
0.0
  0
SEQEND
  5
5FA
330
5F7
100
AcDbEntity
  8
BEMAßUNG
  0
POLYLINE
  5
5FB
330
1F
100
AcDbEntity
  8
BEMAßUNG
 62
     7
100
AcDb2dPolyline
 66
     1
 10
0.0
 20
0.0
 30
0.0
  0
VERTEX
  5
5FC
330
5FB
100
AcDbEntity
  8
BEMAßUNG
 62
     7
100
AcDbVertex
100
AcDb2dVertex
 10
176.9373480460434
 20
187.5985405346976
 30
0.0
  0
VERTEX
  5
5FD
330
5FB
100
AcDbEntity
  8
BEMAßUNG
 62
     7
100
AcDbVertex
100
AcDb2dVertex
 10
174.2088324217256
 20
187.5985405346976
 30
0.0
  0
SEQEND
  5
5FE
330
5FB
100
AcDbEntity
  8
BEMAßUNG
  0
POLYLINE
  5
5FF
330
1F
100
AcDbEntity
  8
BEMAßUNG
 62
     7
100
AcDb2dPolyline
 66
     1
 10
0.0
 20
0.0
 30
0.0
  0
VERTEX
  5
600
330
5FF
100
AcDbEntity
  8
BEMAßUNG
 62
     7
100
AcDbVertex
100
AcDb2dVertex
 10
176.9373480460434
 20
187.6491834383308
 30
0.0
  0
VERTEX
  5
601
330
5FF
100
AcDbEntity
  8
BEMAßUNG
 62
     7
100
AcDbVertex
100
AcDb2dVertex
 10
173.8229817273776
 20
187.6491834383308
 30
0.0
  0
SEQEND
  5
602
330
5FF
100
AcDbEntity
  8
BEMAßUNG
  0
POLYLINE
  5
603
330
1F
100
AcDbEntity
  8
BEMAßUNG
 62
     7
100
AcDb2dPolyline
 66
     1
 10
0.0
 20
0.0
 30
0.0
  0
VERTEX
  5
604
330
603
100
AcDbEntity
  8
BEMAßUNG
 62
     7
100
AcDbVertex
100
AcDb2dVertex
 10
176.9373480460434
 20
187.6998263419639
 30
0.0
  0
VERTEX
  5
605
330
603
100
AcDbEntity
  8
BEMAßUNG
 62
     7
100
AcDbVertex
100
AcDb2dVertex
 10
173.4371310330296
 20
187.6998263419639
 30
0.0
  0
SEQEND
  5
606
330
603
100
AcDbEntity
  8
BEMAßUNG
  0
POLYLINE
  5
607
330
1F
100
AcDbEntity
  8
BEMAßUNG
 62
     7
100
AcDb2dPolyline
 66
     1
 10
0.0
 20
0.0
 30
0.0
  0
VERTEX
  5
608
330
607
100
AcDbEntity
  8
BEMAßUNG
 62
     7
100
AcDbVertex
100
AcDb2dVertex
 10
176.9373480460434
 20
188.1569905128566
 30
0.0
  0
VERTEX
  5
609
330
607
100
AcDbEntity
  8
BEMAßUNG
 62
     7
100
AcDbVertex
100
AcDb2dVertex
 10
176.9097872821615
 20
188.1569905128566
 30
0.0
  0
SEQEND
  5
60A
330
607
100
AcDbEntity
  8
BEMAßUNG
  0
POLYLINE
  5
60B
330
1F
100
AcDbEntity
  8
BEMAßUNG
 62
     7
100
AcDb2dPolyline
 66
     1
 10
0.0
 20
0.0
 30
0.0
  0
VERTEX
  5
60C
330
60B
100
AcDbEntity
  8
BEMAßUNG
 62
     7
100
AcDbVertex
100
AcDb2dVertex
 10
176.9373480460434
 20
188.1569905128566
 30
0.0
  0
VERTEX
  5
60D
330
60B
100
AcDbEntity
  8
BEMAßUNG
 62
     7
100
AcDbVertex
100
AcDb2dVertex
 10
176.9097872821615
 20
188.1569905128566
 30
0.0
  0
SEQEND
  5
60E
330
60B
100
AcDbEntity
  8
BEMAßUNG
  0
POLYLINE
  5
60F
330
1F
100
AcDbEntity
  8
BEMAßUNG
 62
     7
100
AcDb2dPolyline
 66
     1
 10
0.0
 20
0.0
 30
0.0
  0
VERTEX
  5
610
330
60F
100
AcDbEntity
  8
BEMAßUNG
 62
     7
100
AcDbVertex
100
AcDb2dVertex
 10
176.9373480460434
 20
188.1063476092234
 30
0.0
  0
VERTEX
  5
611
330
60F
100
AcDbEntity
  8
BEMAßUNG
 62
     7
100
AcDbVertex
100
AcDb2dVertex
 10
176.5239365878135
 20
188.1063476092234
 30
0.0
  0
SEQEND
  5
612
330
60F
100
AcDbEntity
  8
BEMAßUNG
  0
POLYLINE
  5
613
330
1F
100
AcDbEntity
  8
BEMAßUNG
 62
     7
100
AcDb2dPolyline
 66
     1
 10
0.0
 20
0.0
 30
0.0
  0
VERTEX
  5
614
330
613
100
AcDbEntity
  8
BEMAßUNG
 62
     7
100
AcDbVertex
100
AcDb2dVertex
 10
176.9373480460434
 20
188.0553601960417
 30
0.0
  0
VERTEX
  5
615
330
613
100
AcDbEntity
  8
BEMAßUNG
 62
     7
100
AcDbVertex
100
AcDb2dVertex
 10
176.1387749125625
 20
188.0553601960417
 30
0.0
  0
SEQEND
  5
616
330
613
100
AcDbEntity
  8
BEMAßUNG
  0
POLYLINE
  5
617
330
1F
100
AcDbEntity
  8
BEMAßUNG
 62
     7
100
AcDb2dPolyline
 66
     1
 10
0.0
 20
0.0
 30
0.0
  0
VERTEX
  5
618
330
617
100
AcDbEntity
  8
BEMAßUNG
 62
     7
100
AcDbVertex
100
AcDb2dVertex
 10
176.9373480460434
 20
188.00437278286
 30
0.0
  0
VERTEX
  5
619
330
617
100
AcDbEntity
  8
BEMAßUNG
 62
     7
100
AcDbVertex
100
AcDb2dVertex
 10
175.7522351991175
 20
188.00437278286
 30
0.0
  0
SEQEND
  5
61A
330
617
100
AcDbEntity
  8
BEMAßUNG
  0
POLYLINE
  5
61B
330
1F
100
AcDbEntity
  8
BEMAßUNG
 62
     7
100
AcDb2dPolyline
 66
     1
 10
0.0
 20
0.0
 30
0.0
  0
VERTEX
  5
61C
330
61B
100
AcDbEntity
  8
BEMAßUNG
 62
     7
100
AcDbVertex
100
AcDb2dVertex
 10
176.9373480460434
 20
187.9537298792268
 30
0.0
  0
VERTEX
  5
61D
330
61B
100
AcDbEntity
  8
BEMAßUNG
 62
     7
100
AcDbVertex
100
AcDb2dVertex
 10
175.3663845047695
 20
187.9537298792268
 30
0.0
  0
SEQEND
  5
61E
330
61B
100
AcDbEntity
  8
BEMAßUNG
  0
POLYLINE
  5
61F
330
1F
100
AcDbEntity
  8
BEMAßUNG
 62
     7
100
AcDb2dPolyline
 66
     1
 10
0.0
 20
0.0
 30
0.0
  0
VERTEX
  5
620
330
61F
100
AcDbEntity
  8
BEMAßUNG
 62
     7
100
AcDbVertex
100
AcDb2dVertex
 10
176.9373480460434
 20
187.9023979564966
 30
0.0
  0
VERTEX
  5
621
330
61F
100
AcDbEntity
  8
BEMAßUNG
 62
     7
100
AcDbVertex
100
AcDb2dVertex
 10
174.9805338104215
 20
187.9023979564966
 30
0.0
  0
SEQEND
  5
622
330
61F
100
AcDbEntity
  8
BEMAßUNG
  0
POLYLINE
  5
623
330
1F
100
AcDbEntity
  8
BEMAßUNG
 62
     7
100
AcDb2dPolyline
 66
     1
 10
0.0
 20
0.0
 30
0.0
  0
VERTEX
  5
624
330
623
100
AcDbEntity
  8
BEMAßUNG
 62
     7
100
AcDbVertex
100
AcDb2dVertex
 10
176.9373480460434
 20
187.8517550528635
 30
0.0
  0
VERTEX
  5
625
330
623
100
AcDbEntity
  8
BEMAßUNG
 62
     7
100
AcDbVertex
100
AcDb2dVertex
 10
174.5953721351706
 20
187.8517550528635
 30
0.0
  0
SEQEND
  5
626
330
623
100
AcDbEntity
  8
BEMAßUNG
  0
POLYLINE
  5
627
330
1F
100
AcDbEntity
  8
BEMAßUNG
 62
     7
100
AcDb2dPolyline
 66
     1
 10
0.0
 20
0.0
 30
0.0
  0
VERTEX
  5
628
330
627
100
AcDbEntity
  8
BEMAßUNG
 62
     7
100
AcDbVertex
100
AcDb2dVertex
 10
176.9373480460434
 20
187.8007676396818
 30
0.0
  0
VERTEX
  5
629
330
627
100
AcDbEntity
  8
BEMAßUNG
 62
     7
100
AcDbVertex
100
AcDb2dVertex
 10
174.2088324217256
 20
187.8007676396818
 30
0.0
  0
SEQEND
  5
62A
330
627
100
AcDbEntity
  8
BEMAßUNG
  0
POLYLINE
  5
62B
330
1F
100
AcDbEntity
  8
BEMAßUNG
 62
     7
100
AcDb2dPolyline
 66
     1
 10
0.0
 20
0.0
 30
0.0
  0
VERTEX
  5
62C
330
62B
100
AcDbEntity
  8
BEMAßUNG
 62
     7
100
AcDbVertex
100
AcDb2dVertex
 10
176.9373480460434
 20
187.7504692455971
 30
0.0
  0
VERTEX
  5
62D
330
62B
100
AcDbEntity
  8
BEMAßUNG
 62
     7
100
AcDbVertex
100
AcDb2dVertex
 10
173.8229817273776
 20
187.7504692455971
 30
0.0
  0
SEQEND
  5
62E
330
62B
100
AcDbEntity
  8
BEMAßUNG
  0
POLYLINE
  5
62F
330
1F
100
AcDbEntity
  8
BEMAßUNG
 62
     7
100
AcDb2dPolyline
 66
     1
 10
0.0
 20
0.0
 30
0.0
  0
VERTEX
  5
630
330
62F
100
AcDbEntity
  8
BEMAßUNG
 62
     7
100
AcDbVertex
100
AcDb2dVertex
 10
176.9373480460434
 20
187.6998263419639
 30
0.0
  0
VERTEX
  5
631
330
62F
100
AcDbEntity
  8
BEMAßUNG
 62
     7
100
AcDbVertex
100
AcDb2dVertex
 10
173.4371310330296
 20
187.6998263419639
 30
0.0
  0
SEQEND
  5
632
330
62F
100
AcDbEntity
  8
BEMAßUNG
  0
MTEXT
  5
634
330
1F
100
AcDbEntity
  8
TEXT
 62
     7
100
AcDbMText
 10
93.36312117891617
 20
189.3097194622212
 30
0.0
 40
4.361611543412703
 41
0.0
 71
     7
 72
     1
  1
\fINDEX Univers 45 Light|b0|i0|c0|p34;\W1;ø44
  0
MTEXT
  5
635
330
1F
100
AcDbEntity
  8
TEXT
 62
     7
100
AcDbMText
 10
218.2674695634887
 20
214.3300699333967
 30
0.0
 40
4.361611543412703
 41
0.0
 71
     7
 72
     1
  1
\fINDEX Univers 45 Light|b0|i0|c0|p34;\W1;ø27
 11
-4.371139000186241E-8
 21
0.999999999999999
 31
0.0
  0
MTEXT
  5
636
330
1F
100
AcDbEntity
  8
TEXT
 62
     7
100
AcDbMText
 10
188.27998042168
 20
189.1502115412541
 30
0.0
 40
4.361611543412703
 41
0.0
 71
     7
 72
     1
  1
\fINDEX Univers 45 Light|b0|i0|c0|p34;\W1;36
  0
ENDSEC
  0
SECTION
  2
OBJECTS
  0
DICTIONARY
  5
C
330
0
100
AcDbDictionary
  3
ACAD_GROUP
350
D
  3
ACAD_LAYOUT
350
1A
  3
ACAD_MLINESTYLE
350
17
  3
ACAD_PLOTSETTINGS
350
19
  3
ACAD_TABLESTYLE
350
658
  3
ACAD_VISUALSTYLE
350
2A
  3
ACDBHEADERROUNDTRIPXREC
350
638
  0
DICTIONARY
  5
D
102
{ACAD_REACTORS
330
C
102
}
330
C
100
AcDbDictionary
  0
DICTIONARY
  5
1A
102
{ACAD_REACTORS
330
C
102
}
330
C
100
AcDbDictionary
  0
DICTIONARY
  5
17
102
{ACAD_REACTORS
330
C
102
}
330
C
100
AcDbDictionary
  3
STANDARD
350
18
  0
DICTIONARY
  5
19
102
{ACAD_REACTORS
330
C
102
}
330
C
100
AcDbDictionary
  0
DICTIONARY
  5
658
102
{ACAD_REACTORS
330
C
102
}
330
C
100
AcDbDictionary
  0
DICTIONARY
  5
2A
102
{ACAD_REACTORS
330
C
102
}
330
C
100
AcDbDictionary
  3
2DWIREFRAME
350
2F
  3
3D_HIDDEN
350
31
  3
3DWIREFRAME
350
30
  3
BASIC
350
32
  3
BRIGHTEN
350
36
  3
COLORCHANGE
350
3A
  3
CONCEPTUAL
350
34
  3
DIM
350
35
  3
FACEPATTERN
350
39
  3
FLAT
350
2B
  3
FLATWITHEDGES
350
2C
  3
GOURAUD
350
2D
  3
GOURAUDWITHEDGES
350
2E
  3
LINEPATTERN
350
38
  3
REALISTIC
350
33
  3
THICKEN
350
37
  0
DICTIONARY
  5
638
102
{ACAD_REACTORS
330
C
102
}
330
C
100
AcDbDictionary
  3
CEPSNTYPE
350
641
  3
DIMSTYLEDATA
350
657
  3
FINGERPRINTGUID
350
642
  3
HYPERLINKBASE
350
63B
  3
INSUNITS
350
640
  3
LAYOUTDICT
350
63D
  3
LWETCUNION
350
63F
  3
PLOTSETDICT
350
63E
  3
PSVPSCALE
350
644
  3
PUCSBASE
350
647
  3
PUCSORGBACK
350
64D
  3
PUCSORGBOTTOM
350
649
  3
PUCSORGFRONT
350
64C
  3
PUCSORGLEFT
350
64A
  3
PUCSORGRIGHT
350
64B
  3
PUCSORGTOP
350
648
  3
PUCSORTHOREF
350
645
  3
PUCSORTHOVIEW
350
646
  3
STYLESHEET
350
63C
  3
TSTACKALIGN
350
639
  3
TSTACKSIZE
350
63A
  3
UCSBASE
350
650
  3
UCSORGBACK
350
656
  3
UCSORGBOTTOM
350
652
  3
UCSORGFRONT
350
655
  3
UCSORGLEFT
350
653
  3
UCSORGRIGHT
350
654
  3
UCSORGTOP
350
651
  3
UCSORTHOREF
350
64E
  3
UCSORTHOVIEW
350
64F
  3
VERSIONGUID
350
643
  0
MLINESTYLE
  5
18
102
{ACAD_REACTORS
330
17
102
}
330
17
100
AcDbMlineStyle
  2
Standard
 70
     0
  3

 62
   256
 51
90.0
 52
90.0
 71
     2
 49
0.5
 62
   256
  6
BYLAYER
 49
-0.5
 62
   256
  6
BYLAYER
  0
VISUALSTYLE
  5
2F
102
{ACAD_REACTORS
330
2A
102
}
330
2A
100
AcDbVisualStyle
  2
2dWireframe
 70
     4
 71
     0
 72
     2
 73
     0
 90
        0
 40
-0.6
 41
-30.0
 62
     5
 63
     7
 74
     1
 91
        4
 64
     7
 65
   257
 75
     1
175
     1
 42
1.0
 92
        0
 66
   257
 43
1.0
 76
     1
 77
     6
 78
     2
 67
     7
 79
     5
170
     0
171
     0
290
     0
174
     0
 93
        1
 44
0.0
173
     0
291
     0
 45
0.0
1001
ACAD
1000
AcDbSavedByObjectVersion
1070
     0
  0
VISUALSTYLE
  5
31
102
{ACAD_REACTORS
330
2A
102
}
330
2A
100
AcDbVisualStyle
  2
3D Hidden
 70
     6
 71
     1
 72
     2
 73
     2
 90
        0
 40
-0.6
 41
-30.0
 62
     5
 63
     7
 74
     2
 91
        2
 64
     7
 65
   257
 75
     2
175
     1
 42
40.0
 92
        0
 66
   257
 43
1.0
 76
     1
 77
     6
 78
     2
 67
     7
 79
     3
170
     0
171
     0
290
     0
174
     0
 93
        1
 44
0.0
173
     0
291
     0
 45
0.0
1001
ACAD
1000
AcDbSavedByObjectVersion
1070
     0
  0
VISUALSTYLE
  5
30
102
{ACAD_REACTORS
330
2A
102
}
330
2A
100
AcDbVisualStyle
  2
3dWireframe
 70
     5
 71
     0
 72
     2
 73
     0
 90
        0
 40
-0.6
 41
-30.0
 62
     5
 63
     7
 74
     1
 91
        4
 64
     7
 65
   257
 75
     1
175
     1
 42
1.0
 92
        0
 66
   257
 43
1.0
 76
     1
 77
     6
 78
     2
 67
     7
 79
     5
170
     0
171
     0
290
     0
174
     0
 93
        1
 44
0.0
173
     0
291
     0
 45
0.0
1001
ACAD
1000
AcDbSavedByObjectVersion
1070
     0
  0
VISUALSTYLE
  5
32
102
{ACAD_REACTORS
330
2A
102
}
330
2A
100
AcDbVisualStyle
  2
Basic
 70
     7
 71
     1
 72
     0
 73
     1
 90
        0
 40
-0.6
 41
-30.0
 62
     5
 63
     7
 74
     0
 91
        4
 64
     7
 65
   257
 75
     1
175
     1
 42
1.0
 92
        8
 66
     7
 43
1.0
 76
     1
 77
     6
 78
     2
 67
     7
 79
     5
170
     0
171
     0
290
     0
174
     0
 93
        1
 44
0.0
173
     0
291
     1
 45
0.0
1001
ACAD
1000
AcDbSavedByObjectVersion
1070
     0
  0
VISUALSTYLE
  5
36
102
{ACAD_REACTORS
330
2A
102
}
330
2A
100
AcDbVisualStyle
  2
Brighten
 70
    12
 71
     2
 72
     2
 73
     0
 90
        0
 40
-0.6
 41
-30.0
 62
     5
 63
     7
 74
     1
 91
        4
 64
     7
 65
   257
 75
     1
175
     1
 42
1.0
 92
        8
 66
     7
 43
1.0
 76
     1
 77
     6
 78
     2
 67
     7
 79
     5
170
     0
171
     0
290
     0
174
     0
 93
        1
 44
50.0
173
     0
291
     1
 45
0.0
1001
ACAD
1000
AcDbSavedByObjectVersion
1070
     0
  0
VISUALSTYLE
  5
3A
102
{ACAD_REACTORS
330
2A
102
}
330
2A
100
AcDbVisualStyle
  2
ColorChange
 70
    16
 71
     2
 72
     2
 73
     3
 90
        0
 40
-0.6
 41
-30.0
 62
     5
 63
     8
 74
     1
 91
        4
 64
     7
 65
   257
 75
     1
175
     1
 42
1.0
 92
        8
 66
     8
 43
1.0
 76
     1
 77
     6
 78
     2
 67
     7
 79
     5
170
     0
171
     0
290
     0
174
     0
 93
        1
 44
0.0
173
     0
291
     1
 45
0.0
1001
ACAD
1000
AcDbSavedByObjectVersion
1070
     0
  0
VISUALSTYLE
  5
34
102
{ACAD_REACTORS
330
2A
102
}
330
2A
100
AcDbVisualStyle
  2
Conceptual
 70
     9
 71
     3
 72
     2
 73
     0
 90
        0
 40
-0.6
 41
-30.0
 62
     5
 63
     7
 74
     2
 91
        2
 64
     7
 65
   257
 75
     1
175
     1
 42
40.0
 92
        8
 66
     7
 43
1.0
 76
     1
 77
     6
 78
     2
 67
     7
 79
     3
170
     0
171
     0
290
     0
174
     0
 93
        1
 44
0.0
173
     0
291
     0
 45
0.0
1001
ACAD
1000
AcDbSavedByObjectVersion
1070
     0
  0
VISUALSTYLE
  5
35
102
{ACAD_REACTORS
330
2A
102
}
330
2A
100
AcDbVisualStyle
  2
Dim
 70
    11
 71
     2
 72
     2
 73
     0
 90
        0
 40
-0.6
 41
-30.0
 62
     5
 63
     7
 74
     1
 91
        4
 64
     7
 65
   257
 75
     1
175
     1
 42
1.0
 92
        8
 66
     7
 43
1.0
 76
     1
 77
     6
 78
     2
 67
     7
 79
     5
170
     0
171
     0
290
     0
174
     0
 93
        1
 44
-50.0
173
     0
291
     1
 45
0.0
1001
ACAD
1000
AcDbSavedByObjectVersion
1070
     0
  0
VISUALSTYLE
  5
39
102
{ACAD_REACTORS
330
2A
102
}
330
2A
100
AcDbVisualStyle
  2
Facepattern
 70
    15
 71
     2
 72
     2
 73
     0
 90
        0
 40
-0.6
 41
-30.0
 62
     5
 63
     7
 74
     1
 91
        4
 64
     7
 65
   257
 75
     1
175
     1
 42
1.0
 92
        8
 66
     7
 43
1.0
 76
     1
 77
     6
 78
     2
 67
     7
 79
     5
170
     0
171
     0
290
     0
174
     0
 93
        1
 44
0.0
173
     0
291
     1
 45
0.0
1001
ACAD
1000
AcDbSavedByObjectVersion
1070
     0
  0
VISUALSTYLE
  5
2B
102
{ACAD_REACTORS
330
2A
102
}
330
2A
100
AcDbVisualStyle
  2
Flat
 70
     0
 71
     2
 72
     1
 73
     1
 90
        2
 40
-0.6
 41
30.0
 62
     5
 63
     7
 74
     0
 91
        4
 64
     7
 65
   257
 75
     1
175
     1
 42
1.0
 92
        8
 66
     7
 43
1.0
 76
     1
 77
     6
 78
     2
 67
     7
 79
     5
170
     0
171
     0
290
     0
174
     0
 93
       13
 44
0.0
173
     0
291
     1
 45
0.0
1001
ACAD
1000
AcDbSavedByObjectVersion
1070
     0
  0
VISUALSTYLE
  5
2C
102
{ACAD_REACTORS
330
2A
102
}
330
2A
100
AcDbVisualStyle
  2
FlatWithEdges
 70
     1
 71
     2
 72
     1
 73
     1
 90
        2
 40
-0.6
 41
30.0
 62
     5
 63
     7
 74
     1
 91
        4
 64
     7
 65
   257
 75
     1
175
     1
 42
1.0
 92
        0
 66
   257
 43
1.0
 76
     1
 77
     6
 78
     2
 67
     7
 79
     5
170
     0
171
     0
290
     0
174
     0
 93
       13
 44
0.0
173
     0
291
     1
 45
0.0
1001
ACAD
1000
AcDbSavedByObjectVersion
1070
     0
  0
VISUALSTYLE
  5
2D
102
{ACAD_REACTORS
330
2A
102
}
330
2A
100
AcDbVisualStyle
  2
Gouraud
 70
     2
 71
     2
 72
     2
 73
     1
 90
        2
 40
-0.6
 41
30.0
 62
     5
 63
     7
 74
     0
 91
        4
 64
     7
 65
   257
 75
     1
175
     1
 42
1.0
 92
        0
 66
     7
 43
1.0
 76
     1
 77
     6
 78
     2
 67
     7
 79
     5
170
     0
171
     0
290
     0
174
     0
 93
       13
 44
0.0
173
     0
291
     1
 45
0.0
1001
ACAD
1000
AcDbSavedByObjectVersion
1070
     0
  0
VISUALSTYLE
  5
2E
102
{ACAD_REACTORS
330
2A
102
}
330
2A
100
AcDbVisualStyle
  2
GouraudWithEdges
 70
     3
 71
     2
 72
     2
 73
     1
 90
        2
 40
-0.6
 41
30.0
 62
     5
 63
     7
 74
     1
 91
        4
 64
     7
 65
   257
 75
     1
175
     1
 42
1.0
 92
        0
 66
   257
 43
1.0
 76
     1
 77
     6
 78
     2
 67
     7
 79
     5
170
     0
171
     0
290
     0
174
     0
 93
       13
 44
0.0
173
     0
291
     1
 45
0.0
1001
ACAD
1000
AcDbSavedByObjectVersion
1070
     0
  0
VISUALSTYLE
  5
38
102
{ACAD_REACTORS
330
2A
102
}
330
2A
100
AcDbVisualStyle
  2
Linepattern
 70
    14
 71
     2
 72
     2
 73
     0
 90
        0
 40
-0.6
 41
-30.0
 62
     5
 63
     7
 74
     1
 91
        4
 64
     7
 65
   257
 75
     7
175
     7
 42
1.0
 92
        8
 66
     7
 43
1.0
 76
     1
 77
     6
 78
     2
 67
     7
 79
     5
170
     0
171
     0
290
     0
174
     0
 93
        1
 44
0.0
173
     0
291
     1
 45
0.0
1001
ACAD
1000
AcDbSavedByObjectVersion
1070
     0
  0
VISUALSTYLE
  5
33
102
{ACAD_REACTORS
330
2A
102
}
330
2A
100
AcDbVisualStyle
  2
Realistic
 70
     8
 71
     2
 72
     2
 73
     0
 90
        0
 40
-0.6
 41
-30.0
 62
     5
 63
     7
 74
     1
 91
        0
 64
     7
 65
   257
 75
     1
175
     1
 42
1.0
 92
        8
 66
     8
 43
1.0
 76
     1
 77
     6
 78
     2
 67
     7
 79
     5
170
     0
171
     0
290
     0
174
     0
 93
       13
 44
0.0
173
     0
291
     0
 45
0.0
1001
ACAD
1000
AcDbSavedByObjectVersion
1070
     0
  0
VISUALSTYLE
  5
37
102
{ACAD_REACTORS
330
2A
102
}
330
2A
100
AcDbVisualStyle
  2
Thicken
 70
    13
 71
     2
 72
     2
 73
     0
 90
        0
 40
-0.6
 41
-30.0
 62
     5
 63
     7
 74
     1
 91
        4
 64
     7
 65
   257
 75
     1
175
     1
 42
1.0
 92
       12
 66
     7
 43
1.0
 76
     1
 77
     6
 78
     2
 67
     7
 79
     5
170
     0
171
     0
290
     0
174
     0
 93
        1
 44
0.0
173
     0
291
     1
 45
0.0
1001
ACAD
1000
AcDbSavedByObjectVersion
1070
     0
  0
XRECORD
  5
641
102
{ACAD_REACTORS
330
638
102
}
330
638
100
AcDbXrecord
 90
        0
  0
XRECORD
  5
657
102
{ACAD_REACTORS
330
638
102
}
330
638
100
AcDbXrecord
1000
DSTYLE
1002
{
1070
   340
340
11
1002
}
  0
XRECORD
  5
642
102
{ACAD_REACTORS
330
638
102
}
330
638
100
AcDbXrecord
  1
{14DF7CC7-4EFE-4EF4-AFEA-6EE85C04D3C5}
  0
XRECORD
  5
63B
102
{ACAD_REACTORS
330
638
102
}
330
638
100
AcDbXrecord
  1

  0
XRECORD
  5
640
102
{ACAD_REACTORS
330
638
102
}
330
638
100
AcDbXrecord
 90
        1
  0
XRECORD
  5
63D
102
{ACAD_REACTORS
330
638
102
}
330
638
100
AcDbXrecord
340
1A
  0
XRECORD
  5
63F
102
{ACAD_REACTORS
330
638
102
}
330
638
100
AcDbXrecord
 90
    10269
  0
XRECORD
  5
63E
102
{ACAD_REACTORS
330
638
102
}
330
638
100
AcDbXrecord
340
19
  0
XRECORD
  5
644
102
{ACAD_REACTORS
330
638
102
}
330
638
100
AcDbXrecord
 40
0.0
  0
XRECORD
  5
647
102
{ACAD_REACTORS
330
638
102
}
330
638
100
AcDbXrecord
340
0
  0
XRECORD
  5
64D
102
{ACAD_REACTORS
330
638
102
}
330
638
100
AcDbXrecord
 10
0.0
 20
0.0
 30
0.0
  0
XRECORD
  5
649
102
{ACAD_REACTORS
330
638
102
}
330
638
100
AcDbXrecord
 10
0.0
 20
0.0
 30
0.0
  0
XRECORD
  5
64C
102
{ACAD_REACTORS
330
638
102
}
330
638
100
AcDbXrecord
 10
0.0
 20
0.0
 30
0.0
  0
XRECORD
  5
64A
102
{ACAD_REACTORS
330
638
102
}
330
638
100
AcDbXrecord
 10
0.0
 20
0.0
 30
0.0
  0
XRECORD
  5
64B
102
{ACAD_REACTORS
330
638
102
}
330
638
100
AcDbXrecord
 10
0.0
 20
0.0
 30
0.0
  0
XRECORD
  5
648
102
{ACAD_REACTORS
330
638
102
}
330
638
100
AcDbXrecord
 10
0.0
 20
0.0
 30
0.0
  0
XRECORD
  5
645
102
{ACAD_REACTORS
330
638
102
}
330
638
100
AcDbXrecord
340
0
  0
XRECORD
  5
646
102
{ACAD_REACTORS
330
638
102
}
330
638
100
AcDbXrecord
 70
     0
  0
XRECORD
  5
63C
102
{ACAD_REACTORS
330
638
102
}
330
638
100
AcDbXrecord
  1

  0
XRECORD
  5
639
102
{ACAD_REACTORS
330
638
102
}
330
638
100
AcDbXrecord
 90
        1
  0
XRECORD
  5
63A
102
{ACAD_REACTORS
330
638
102
}
330
638
100
AcDbXrecord
 90
       70
  0
XRECORD
  5
650
102
{ACAD_REACTORS
330
638
102
}
330
638
100
AcDbXrecord
340
0
  0
XRECORD
  5
656
102
{ACAD_REACTORS
330
638
102
}
330
638
100
AcDbXrecord
 10
0.0
 20
0.0
 30
0.0
  0
XRECORD
  5
652
102
{ACAD_REACTORS
330
638
102
}
330
638
100
AcDbXrecord
 10
0.0
 20
0.0
 30
0.0
  0
XRECORD
  5
655
102
{ACAD_REACTORS
330
638
102
}
330
638
100
AcDbXrecord
 10
0.0
 20
0.0
 30
0.0
  0
XRECORD
  5
653
102
{ACAD_REACTORS
330
638
102
}
330
638
100
AcDbXrecord
 10
0.0
 20
0.0
 30
0.0
  0
XRECORD
  5
654
102
{ACAD_REACTORS
330
638
102
}
330
638
100
AcDbXrecord
 10
0.0
 20
0.0
 30
0.0
  0
XRECORD
  5
651
102
{ACAD_REACTORS
330
638
102
}
330
638
100
AcDbXrecord
 10
0.0
 20
0.0
 30
0.0
  0
XRECORD
  5
64E
102
{ACAD_REACTORS
330
638
102
}
330
638
100
AcDbXrecord
340
0
  0
XRECORD
  5
64F
102
{ACAD_REACTORS
330
638
102
}
330
638
100
AcDbXrecord
 70
     0
  0
XRECORD
  5
643
102
{ACAD_REACTORS
330
638
102
}
330
638
100
AcDbXrecord
  1
{FAEB1C32-E019-11D5-929B-00C0DF256EC4}
  0
ENDSEC
  0
EOF
