ISO-10303-21;
HEADER;
/* Generated by software containing ST-Developer
 * from STEP Tools, Inc. (www.steptools.com) 
 */
/* OPTION: using custom schema-name function */

FILE_DESCRIPTION(
/* description */ (''),
/* implementation_level */ '2;1');

FILE_NAME(
/* name */ 'W9990211_stp.stp',
/* time_stamp */ '2017-05-09T13:11:06+02:00',
/* author */ (''),
/* organization */ (''),
/* preprocessor_version */ 'ST-DEVELOPER v15',
/* originating_system */ 'SIEMENS PLM Software NX 9.0',
/* authorisation */ '');

FILE_SCHEMA (('AUTOMOTIVE_DESIGN { 1 0 10303 214 3 1 1 1 }'));
ENDSEC;

DATA;
#10=PROPERTY_DEFINITION_REPRESENTATION(#14,#12);
#11=PROPERTY_DEFINITION_REPRESENTATION(#15,#13);
#12=REPRESENTATION('',(#16),#505);
#13=REPRESENTATION('',(#17),#505);
#14=PROPERTY_DEFINITION('pmi validation property','',#21);
#15=PROPERTY_DEFINITION('pmi validation property','',#21);
#16=VALUE_REPRESENTATION_ITEM('number of annotations',COUNT_MEASURE(0.));
#17=VALUE_REPRESENTATION_ITEM('number of views',COUNT_MEASURE(0.));
#18=SHAPE_REPRESENTATION_RELATIONSHIP('None',
'relationship between reic119C905Eo6bn-None and reic119C905Eo6bn-None',
#30,#19);
#19=ADVANCED_BREP_SHAPE_REPRESENTATION('reic119C905Eo6bn-None',(#40),#505);
#20=SHAPE_DEFINITION_REPRESENTATION(#21,#30);
#21=PRODUCT_DEFINITION_SHAPE('','',#22);
#22=PRODUCT_DEFINITION(' ','',#24,#23);
#23=PRODUCT_DEFINITION_CONTEXT('part definition',#29,'design');
#24=PRODUCT_DEFINITION_FORMATION_WITH_SPECIFIED_SOURCE(' ',' ',#26,
 .NOT_KNOWN.);
#25=PRODUCT_RELATED_PRODUCT_CATEGORY('part','',(#26));
#26=PRODUCT('reic119C905Eo6bn','reic119C905Eo6bn',' ',(#27));
#27=PRODUCT_CONTEXT(' ',#29,'mechanical');
#28=APPLICATION_PROTOCOL_DEFINITION('international standard',
'automotive_design',2010,#29);
#29=APPLICATION_CONTEXT(
'core data for automotive mechanical design processes');
#30=SHAPE_REPRESENTATION('reic119C905Eo6bn-None',(#271),#505);
#31=PRESENTATION_LAYER_ASSIGNMENT('210','Layer 210',(#40));
#32=STYLED_ITEM('',(#33),#40);
#33=PRESENTATION_STYLE_ASSIGNMENT((#34));
#34=SURFACE_STYLE_USAGE(.BOTH.,#35);
#35=SURFACE_SIDE_STYLE('',(#36));
#36=SURFACE_STYLE_FILL_AREA(#37);
#37=FILL_AREA_STYLE('',(#38));
#38=FILL_AREA_STYLE_COLOUR('',#39);
#39=COLOUR_RGB('Orange',1.,0.499992370489052,0.);
#40=MANIFOLD_SOLID_BREP('',#41);
#41=CLOSED_SHELL('',(#62,#63,#64,#65,#66,#67,#68,#69,#70,#71,#72,#73,#74,
#75,#76,#77,#78,#79,#80,#81));
#42=CONICAL_SURFACE('',#287,4.,45.);
#43=CONICAL_SURFACE('',#292,4.,45.);
#44=CONICAL_SURFACE('',#304,4.3135099835713,8.00000000000004);
#45=CONICAL_SURFACE('',#308,15.,44.9999999999999);
#46=PLANE('',#276);
#47=PLANE('',#278);
#48=PLANE('',#280);
#49=PLANE('',#293);
#50=PLANE('',#296);
#51=PLANE('',#298);
#52=PLANE('',#302);
#53=PLANE('',#306);
#54=FACE_OUTER_BOUND('',#128,.T.);
#55=FACE_OUTER_BOUND('',#129,.T.);
#56=FACE_OUTER_BOUND('',#130,.T.);
#57=FACE_OUTER_BOUND('',#133,.T.);
#58=FACE_OUTER_BOUND('',#134,.T.);
#59=FACE_OUTER_BOUND('',#137,.T.);
#60=FACE_OUTER_BOUND('',#138,.T.);
#61=FACE_OUTER_BOUND('',#145,.T.);
#62=ADVANCED_FACE('',(#98,#99,#100,#101),#82,.T.);
#63=ADVANCED_FACE('',(#54),#46,.T.);
#64=ADVANCED_FACE('',(#55),#47,.T.);
#65=ADVANCED_FACE('',(#56),#48,.T.);
#66=ADVANCED_FACE('',(#102,#103),#83,.F.);
#67=ADVANCED_FACE('',(#57),#84,.T.);
#68=ADVANCED_FACE('',(#58),#85,.T.);
#69=ADVANCED_FACE('',(#104,#105),#42,.T.);
#70=ADVANCED_FACE('',(#59),#86,.T.);
#71=ADVANCED_FACE('',(#60),#87,.T.);
#72=ADVANCED_FACE('',(#106,#107),#43,.T.);
#73=ADVANCED_FACE('',(#108,#109),#49,.T.);
#74=ADVANCED_FACE('',(#110,#111),#50,.T.);
#75=ADVANCED_FACE('',(#61),#51,.T.);
#76=ADVANCED_FACE('',(#112,#113),#88,.T.);
#77=ADVANCED_FACE('',(#114,#115),#52,.T.);
#78=ADVANCED_FACE('',(#116,#117),#44,.T.);
#79=ADVANCED_FACE('',(#118,#119),#53,.T.);
#80=ADVANCED_FACE('',(#120,#121),#89,.T.);
#81=ADVANCED_FACE('',(#122,#123),#45,.T.);
#82=CYLINDRICAL_SURFACE('',#274,15.);
#83=CYLINDRICAL_SURFACE('',#282,6.);
#84=CYLINDRICAL_SURFACE('',#284,4.);
#85=CYLINDRICAL_SURFACE('',#286,4.);
#86=CYLINDRICAL_SURFACE('',#289,4.);
#87=CYLINDRICAL_SURFACE('',#291,4.);
#88=CYLINDRICAL_SURFACE('',#300,4.);
#89=CYLINDRICAL_SURFACE('',#307,10.);
#90=B_SPLINE_CURVE_WITH_KNOTS('',3,(#388,#389,#390,#391,#392,#393,#394,
#395),.UNSPECIFIED.,.F.,.F.,(4,2,2,4),(0.,0.5,0.75,1.),.UNSPECIFIED.);
#91=B_SPLINE_CURVE_WITH_KNOTS('',3,(#398,#399,#400,#401,#402,#403,#404),
 .UNSPECIFIED.,.F.,.F.,(4,3,4),(0.,0.659434080822991,1.),.UNSPECIFIED.);
#92=B_SPLINE_CURVE_WITH_KNOTS('',3,(#406,#407,#408,#409,#410,#411,#412,
#413),.UNSPECIFIED.,.F.,.F.,(4,2,2,4),(0.,0.5,0.75,1.),.UNSPECIFIED.);
#93=B_SPLINE_CURVE_WITH_KNOTS('',3,(#415,#416,#417,#418,#419,#420,#421),
 .UNSPECIFIED.,.F.,.F.,(4,3,4),(0.,0.659434080822999,1.),.UNSPECIFIED.);
#94=B_SPLINE_CURVE_WITH_KNOTS('',3,(#422,#423,#424,#425,#426,#427,#428,
#429),.UNSPECIFIED.,.F.,.F.,(4,2,2,4),(0.,0.5,0.75,1.),.UNSPECIFIED.);
#95=B_SPLINE_CURVE_WITH_KNOTS('',3,(#432,#433,#434,#435,#436,#437,#438),
 .UNSPECIFIED.,.F.,.F.,(4,3,4),(0.,0.659434080822998,1.),.UNSPECIFIED.);
#96=B_SPLINE_CURVE_WITH_KNOTS('',3,(#440,#441,#442,#443,#444,#445,#446,
#447),.UNSPECIFIED.,.F.,.F.,(4,2,2,4),(0.,0.5,0.75,1.),.UNSPECIFIED.);
#97=B_SPLINE_CURVE_WITH_KNOTS('',3,(#449,#450,#451,#452,#453,#454,#455),
 .UNSPECIFIED.,.F.,.F.,(4,3,4),(0.,0.659434080822998,1.),.UNSPECIFIED.);
#98=FACE_BOUND('',#124,.T.);
#99=FACE_BOUND('',#125,.T.);
#100=FACE_BOUND('',#126,.T.);
#101=FACE_BOUND('',#127,.T.);
#102=FACE_BOUND('',#131,.T.);
#103=FACE_BOUND('',#132,.T.);
#104=FACE_BOUND('',#135,.T.);
#105=FACE_BOUND('',#136,.T.);
#106=FACE_BOUND('',#139,.T.);
#107=FACE_BOUND('',#140,.T.);
#108=FACE_BOUND('',#141,.T.);
#109=FACE_BOUND('',#142,.T.);
#110=FACE_BOUND('',#143,.T.);
#111=FACE_BOUND('',#144,.T.);
#112=FACE_BOUND('',#146,.T.);
#113=FACE_BOUND('',#147,.T.);
#114=FACE_BOUND('',#148,.T.);
#115=FACE_BOUND('',#149,.T.);
#116=FACE_BOUND('',#150,.T.);
#117=FACE_BOUND('',#151,.T.);
#118=FACE_BOUND('',#152,.T.);
#119=FACE_BOUND('',#153,.T.);
#120=FACE_BOUND('',#154,.T.);
#121=FACE_BOUND('',#155,.T.);
#122=FACE_BOUND('',#156,.T.);
#123=FACE_BOUND('',#157,.T.);
#124=EDGE_LOOP('',(#158));
#125=EDGE_LOOP('',(#159,#160,#161,#162));
#126=EDGE_LOOP('',(#163,#164,#165,#166));
#127=EDGE_LOOP('',(#167));
#128=EDGE_LOOP('',(#168));
#129=EDGE_LOOP('',(#169));
#130=EDGE_LOOP('',(#170));
#131=EDGE_LOOP('',(#171));
#132=EDGE_LOOP('',(#172));
#133=EDGE_LOOP('',(#173,#174));
#134=EDGE_LOOP('',(#175,#176));
#135=EDGE_LOOP('',(#177));
#136=EDGE_LOOP('',(#178,#179,#180,#181));
#137=EDGE_LOOP('',(#182,#183));
#138=EDGE_LOOP('',(#184,#185));
#139=EDGE_LOOP('',(#186));
#140=EDGE_LOOP('',(#187,#188,#189,#190));
#141=EDGE_LOOP('',(#191));
#142=EDGE_LOOP('',(#192));
#143=EDGE_LOOP('',(#193));
#144=EDGE_LOOP('',(#194));
#145=EDGE_LOOP('',(#195));
#146=EDGE_LOOP('',(#196));
#147=EDGE_LOOP('',(#197));
#148=EDGE_LOOP('',(#198));
#149=EDGE_LOOP('',(#199));
#150=EDGE_LOOP('',(#200));
#151=EDGE_LOOP('',(#201));
#152=EDGE_LOOP('',(#202));
#153=EDGE_LOOP('',(#203));
#154=EDGE_LOOP('',(#204));
#155=EDGE_LOOP('',(#205));
#156=EDGE_LOOP('',(#206));
#157=EDGE_LOOP('',(#207));
#158=ORIENTED_EDGE('',*,*,#229,.T.);
#159=ORIENTED_EDGE('',*,*,#230,.F.);
#160=ORIENTED_EDGE('',*,*,#231,.F.);
#161=ORIENTED_EDGE('',*,*,#232,.F.);
#162=ORIENTED_EDGE('',*,*,#233,.F.);
#163=ORIENTED_EDGE('',*,*,#234,.F.);
#164=ORIENTED_EDGE('',*,*,#235,.F.);
#165=ORIENTED_EDGE('',*,*,#236,.F.);
#166=ORIENTED_EDGE('',*,*,#237,.F.);
#167=ORIENTED_EDGE('',*,*,#238,.T.);
#168=ORIENTED_EDGE('',*,*,#239,.F.);
#169=ORIENTED_EDGE('',*,*,#240,.T.);
#170=ORIENTED_EDGE('',*,*,#241,.T.);
#171=ORIENTED_EDGE('',*,*,#242,.F.);
#172=ORIENTED_EDGE('',*,*,#239,.T.);
#173=ORIENTED_EDGE('',*,*,#243,.T.);
#174=ORIENTED_EDGE('',*,*,#233,.T.);
#175=ORIENTED_EDGE('',*,*,#244,.T.);
#176=ORIENTED_EDGE('',*,*,#231,.T.);
#177=ORIENTED_EDGE('',*,*,#240,.F.);
#178=ORIENTED_EDGE('',*,*,#244,.F.);
#179=ORIENTED_EDGE('',*,*,#230,.T.);
#180=ORIENTED_EDGE('',*,*,#243,.F.);
#181=ORIENTED_EDGE('',*,*,#232,.T.);
#182=ORIENTED_EDGE('',*,*,#245,.T.);
#183=ORIENTED_EDGE('',*,*,#237,.T.);
#184=ORIENTED_EDGE('',*,*,#246,.T.);
#185=ORIENTED_EDGE('',*,*,#235,.T.);
#186=ORIENTED_EDGE('',*,*,#241,.F.);
#187=ORIENTED_EDGE('',*,*,#246,.F.);
#188=ORIENTED_EDGE('',*,*,#234,.T.);
#189=ORIENTED_EDGE('',*,*,#245,.F.);
#190=ORIENTED_EDGE('',*,*,#236,.T.);
#191=ORIENTED_EDGE('',*,*,#238,.F.);
#192=ORIENTED_EDGE('',*,*,#242,.T.);
#193=ORIENTED_EDGE('',*,*,#247,.T.);
#194=ORIENTED_EDGE('',*,*,#248,.F.);
#195=ORIENTED_EDGE('',*,*,#249,.T.);
#196=ORIENTED_EDGE('',*,*,#249,.F.);
#197=ORIENTED_EDGE('',*,*,#250,.T.);
#198=ORIENTED_EDGE('',*,*,#250,.F.);
#199=ORIENTED_EDGE('',*,*,#251,.F.);
#200=ORIENTED_EDGE('',*,*,#251,.T.);
#201=ORIENTED_EDGE('',*,*,#252,.F.);
#202=ORIENTED_EDGE('',*,*,#252,.T.);
#203=ORIENTED_EDGE('',*,*,#253,.F.);
#204=ORIENTED_EDGE('',*,*,#253,.T.);
#205=ORIENTED_EDGE('',*,*,#248,.T.);
#206=ORIENTED_EDGE('',*,*,#247,.F.);
#207=ORIENTED_EDGE('',*,*,#229,.F.);
#208=VERTEX_POINT('',#387);
#209=VERTEX_POINT('',#396);
#210=VERTEX_POINT('',#397);
#211=VERTEX_POINT('',#405);
#212=VERTEX_POINT('',#414);
#213=VERTEX_POINT('',#430);
#214=VERTEX_POINT('',#431);
#215=VERTEX_POINT('',#439);
#216=VERTEX_POINT('',#448);
#217=VERTEX_POINT('',#457);
#218=VERTEX_POINT('',#460);
#219=VERTEX_POINT('',#463);
#220=VERTEX_POINT('',#466);
#221=VERTEX_POINT('',#469);
#222=VERTEX_POINT('',#483);
#223=VERTEX_POINT('',#485);
#224=VERTEX_POINT('',#488);
#225=VERTEX_POINT('',#491);
#226=VERTEX_POINT('',#494);
#227=VERTEX_POINT('',#497);
#228=VERTEX_POINT('',#500);
#229=EDGE_CURVE('',#208,#208,#254,.T.);
#230=EDGE_CURVE('',#209,#210,#90,.T.);
#231=EDGE_CURVE('',#211,#209,#91,.T.);
#232=EDGE_CURVE('',#212,#211,#92,.T.);
#233=EDGE_CURVE('',#210,#212,#93,.T.);
#234=EDGE_CURVE('',#213,#214,#94,.T.);
#235=EDGE_CURVE('',#215,#213,#95,.T.);
#236=EDGE_CURVE('',#216,#215,#96,.T.);
#237=EDGE_CURVE('',#214,#216,#97,.T.);
#238=EDGE_CURVE('',#217,#217,#255,.T.);
#239=EDGE_CURVE('',#218,#218,#256,.T.);
#240=EDGE_CURVE('',#219,#219,#257,.T.);
#241=EDGE_CURVE('',#220,#220,#258,.T.);
#242=EDGE_CURVE('',#221,#221,#259,.T.);
#243=EDGE_CURVE('',#212,#210,#260,.T.);
#244=EDGE_CURVE('',#209,#211,#261,.T.);
#245=EDGE_CURVE('',#216,#214,#262,.T.);
#246=EDGE_CURVE('',#213,#215,#263,.T.);
#247=EDGE_CURVE('',#222,#222,#264,.T.);
#248=EDGE_CURVE('',#223,#223,#265,.T.);
#249=EDGE_CURVE('',#224,#224,#266,.T.);
#250=EDGE_CURVE('',#225,#225,#267,.T.);
#251=EDGE_CURVE('',#226,#226,#268,.T.);
#252=EDGE_CURVE('',#227,#227,#269,.T.);
#253=EDGE_CURVE('',#228,#228,#270,.T.);
#254=CIRCLE('',#272,15.);
#255=CIRCLE('',#273,15.);
#256=CIRCLE('',#275,6.);
#257=CIRCLE('',#277,3.2331875);
#258=CIRCLE('',#279,3.2331875);
#259=CIRCLE('',#281,6.);
#260=CIRCLE('',#283,4.);
#261=CIRCLE('',#285,4.);
#262=CIRCLE('',#288,4.);
#263=CIRCLE('',#290,4.);
#264=CIRCLE('',#294,14.5);
#265=CIRCLE('',#295,10.);
#266=CIRCLE('',#297,4.);
#267=CIRCLE('',#299,4.);
#268=CIRCLE('',#301,4.3135099835713);
#269=CIRCLE('',#303,6.);
#270=CIRCLE('',#305,10.);
#271=AXIS2_PLACEMENT_3D('',#385,#309,#310);
#272=AXIS2_PLACEMENT_3D('',#386,#311,#312);
#273=AXIS2_PLACEMENT_3D('',#456,#313,#314);
#274=AXIS2_PLACEMENT_3D('',#458,#315,#316);
#275=AXIS2_PLACEMENT_3D('',#459,#317,#318);
#276=AXIS2_PLACEMENT_3D('',#461,#319,#320);
#277=AXIS2_PLACEMENT_3D('',#462,#321,#322);
#278=AXIS2_PLACEMENT_3D('',#464,#323,#324);
#279=AXIS2_PLACEMENT_3D('',#465,#325,#326);
#280=AXIS2_PLACEMENT_3D('',#467,#327,#328);
#281=AXIS2_PLACEMENT_3D('',#468,#329,#330);
#282=AXIS2_PLACEMENT_3D('',#470,#331,#332);
#283=AXIS2_PLACEMENT_3D('',#471,#333,#334);
#284=AXIS2_PLACEMENT_3D('',#472,#335,#336);
#285=AXIS2_PLACEMENT_3D('',#473,#337,#338);
#286=AXIS2_PLACEMENT_3D('',#474,#339,#340);
#287=AXIS2_PLACEMENT_3D('',#475,#341,#342);
#288=AXIS2_PLACEMENT_3D('',#476,#343,#344);
#289=AXIS2_PLACEMENT_3D('',#477,#345,#346);
#290=AXIS2_PLACEMENT_3D('',#478,#347,#348);
#291=AXIS2_PLACEMENT_3D('',#479,#349,#350);
#292=AXIS2_PLACEMENT_3D('',#480,#351,#352);
#293=AXIS2_PLACEMENT_3D('',#481,#353,#354);
#294=AXIS2_PLACEMENT_3D('',#482,#355,#356);
#295=AXIS2_PLACEMENT_3D('',#484,#357,#358);
#296=AXIS2_PLACEMENT_3D('',#486,#359,#360);
#297=AXIS2_PLACEMENT_3D('',#487,#361,#362);
#298=AXIS2_PLACEMENT_3D('',#489,#363,#364);
#299=AXIS2_PLACEMENT_3D('',#490,#365,#366);
#300=AXIS2_PLACEMENT_3D('',#492,#367,#368);
#301=AXIS2_PLACEMENT_3D('',#493,#369,#370);
#302=AXIS2_PLACEMENT_3D('',#495,#371,#372);
#303=AXIS2_PLACEMENT_3D('',#496,#373,#374);
#304=AXIS2_PLACEMENT_3D('',#498,#375,#376);
#305=AXIS2_PLACEMENT_3D('',#499,#377,#378);
#306=AXIS2_PLACEMENT_3D('',#501,#379,#380);
#307=AXIS2_PLACEMENT_3D('',#502,#381,#382);
#308=AXIS2_PLACEMENT_3D('',#503,#383,#384);
#309=DIRECTION('',(0.,0.,1.));
#310=DIRECTION('',(1.,0.,0.));
#311=DIRECTION('',(0.,0.,1.));
#312=DIRECTION('',(-1.,0.,0.));
#313=DIRECTION('',(0.,0.,-1.));
#314=DIRECTION('',(-1.,0.,0.));
#315=DIRECTION('',(0.,0.,-1.));
#316=DIRECTION('',(-1.,0.,0.));
#317=DIRECTION('',(0.,0.,-1.));
#318=DIRECTION('',(1.,0.,0.));
#319=DIRECTION('',(0.,0.,1.));
#320=DIRECTION('',(1.,0.,0.));
#321=DIRECTION('',(0.,-1.,0.));
#322=DIRECTION('',(-1.,0.,0.));
#323=DIRECTION('',(0.,-1.,0.));
#324=DIRECTION('',(-1.,0.,0.));
#325=DIRECTION('',(0.,-1.,0.));
#326=DIRECTION('',(-1.,0.,0.));
#327=DIRECTION('',(0.,-1.,0.));
#328=DIRECTION('',(-1.,0.,0.));
#329=DIRECTION('',(0.,0.,-1.));
#330=DIRECTION('',(1.,0.,0.));
#331=DIRECTION('',(0.,0.,-1.));
#332=DIRECTION('',(-1.,0.,0.));
#333=DIRECTION('',(0.,1.,0.));
#334=DIRECTION('',(-1.,0.,0.));
#335=DIRECTION('',(0.,1.,0.));
#336=DIRECTION('',(1.,0.,0.));
#337=DIRECTION('',(0.,1.,0.));
#338=DIRECTION('',(-1.,0.,0.));
#339=DIRECTION('',(0.,1.,0.));
#340=DIRECTION('',(1.,0.,0.));
#341=DIRECTION('',(0.,1.,0.));
#342=DIRECTION('',(1.,2.07337467248224E-017,0.));
#343=DIRECTION('',(0.,1.,0.));
#344=DIRECTION('',(-1.,0.,0.));
#345=DIRECTION('',(0.,1.,0.));
#346=DIRECTION('',(1.,0.,0.));
#347=DIRECTION('',(0.,1.,0.));
#348=DIRECTION('',(-1.,0.,0.));
#349=DIRECTION('',(0.,1.,0.));
#350=DIRECTION('',(1.,0.,0.));
#351=DIRECTION('',(0.,1.,0.));
#352=DIRECTION('',(1.,2.07337467248224E-017,0.));
#353=DIRECTION('',(0.,0.,1.));
#354=DIRECTION('',(1.,0.,0.));
#355=DIRECTION('',(0.,0.,-1.));
#356=DIRECTION('',(-1.,0.,0.));
#357=DIRECTION('',(0.,0.,-1.));
#358=DIRECTION('',(1.,0.,0.));
#359=DIRECTION('',(0.,0.,-1.));
#360=DIRECTION('',(-1.,0.,0.));
#361=DIRECTION('',(0.,0.,-1.));
#362=DIRECTION('',(-1.,0.,0.));
#363=DIRECTION('',(0.,0.,-1.));
#364=DIRECTION('',(0.,1.,0.));
#365=DIRECTION('',(0.,0.,-1.));
#366=DIRECTION('',(-1.,0.,0.));
#367=DIRECTION('',(0.,0.,-1.));
#368=DIRECTION('',(0.,1.,0.));
#369=DIRECTION('',(0.,0.,1.));
#370=DIRECTION('',(0.,1.,0.));
#371=DIRECTION('',(0.,0.,-1.));
#372=DIRECTION('',(0.,1.,0.));
#373=DIRECTION('',(0.,0.,1.));
#374=DIRECTION('',(-1.,0.,0.));
#375=DIRECTION('',(0.,0.,1.));
#376=DIRECTION('',(0.,-1.,-1.43707679302621E-016));
#377=DIRECTION('',(0.,0.,1.));
#378=DIRECTION('',(0.,-1.,0.));
#379=DIRECTION('',(0.,0.,-1.));
#380=DIRECTION('',(0.,1.,0.));
#381=DIRECTION('',(0.,0.,1.));
#382=DIRECTION('',(0.,-1.,0.));
#383=DIRECTION('',(0.,0.,1.));
#384=DIRECTION('',(1.,0.,-5.4690789390402E-017));
#385=CARTESIAN_POINT('',(0.,0.,0.));
#386=CARTESIAN_POINT('',(7.105427357601E-015,0.,0.5));
#387=CARTESIAN_POINT('',(-15.,0.,0.5));
#388=CARTESIAN_POINT('',(3.91543056209423,-14.4799655908921,34.5681708338843));
#389=CARTESIAN_POINT('',(3.44023357229331,-14.6084604277895,36.2140636151014));
#390=CARTESIAN_POINT('',(1.69146496879033,-14.9998847395242,37.2295840340496));
#391=CARTESIAN_POINT('',(-0.844198816956944,-15.0000575779682,37.2301561962808));
#392=CARTESIAN_POINT('',(-1.69479684021717,-14.9211400641911,36.9888614944354));
#393=CARTESIAN_POINT('',(-3.10846261200191,-14.6918418632452,36.0704875664383));
#394=CARTESIAN_POINT('',(-3.68070052169521,-14.5434373697613,35.3811820425398));
#395=CARTESIAN_POINT('',(-3.91543056209421,-14.4799655908921,34.5681708338843));
#396=CARTESIAN_POINT('',(3.91543056209423,-14.4799655908921,34.5681708338843));
#397=CARTESIAN_POINT('',(-3.91543056209421,-14.4799655908921,34.5681708338843));
#398=CARTESIAN_POINT('',(3.91543056209423,-14.4799655908921,32.9318291661162));
#399=CARTESIAN_POINT('',(3.98927143632145,-14.4599987744058,33.2852013516151));
#400=CARTESIAN_POINT('',(4.01512860233113,-14.452659037938,33.6529325009153));
#401=CARTESIAN_POINT('',(3.9913020870138,-14.45923606731,34.0136430355604));
#402=CARTESIAN_POINT('',(3.9789990694415,-14.4626321706369,34.1998988932529));
#403=CARTESIAN_POINT('',(3.95355890612911,-14.4696555606244,34.3857041932593));
#404=CARTESIAN_POINT('',(3.91543056209423,-14.4799655908921,34.5681708338843));
#405=CARTESIAN_POINT('',(3.91543056209423,-14.4799655908921,32.9318291661162));
#406=CARTESIAN_POINT('',(-3.91543056209421,-14.4799655908921,32.9318291661162));
#407=CARTESIAN_POINT('',(-3.44023357229329,-14.6084604277895,31.2859363848992));
#408=CARTESIAN_POINT('',(-1.69146496879031,-14.9998847395242,30.2704159659509));
#409=CARTESIAN_POINT('',(0.844198816956958,-15.0000575779682,30.2698438037197));
#410=CARTESIAN_POINT('',(1.69479684021718,-14.9211400641911,30.5111385055651));
#411=CARTESIAN_POINT('',(3.10846261200191,-14.6918418632452,31.4295124335622));
#412=CARTESIAN_POINT('',(3.68070052169522,-14.5434373697613,32.1188179574607));
#413=CARTESIAN_POINT('',(3.91543056209423,-14.4799655908921,32.9318291661162));
#414=CARTESIAN_POINT('',(-3.91543056209421,-14.4799655908921,32.9318291661162));
#415=CARTESIAN_POINT('',(-3.91543056209421,-14.4799655908921,34.5681708338843));
#416=CARTESIAN_POINT('',(-3.98927143632144,-14.4599987744058,34.2147986483854));
#417=CARTESIAN_POINT('',(-4.01512860233112,-14.452659037938,33.8470674990852));
#418=CARTESIAN_POINT('',(-3.99130208701378,-14.45923606731,33.4863569644401));
#419=CARTESIAN_POINT('',(-3.97899906944148,-14.4626321706369,33.3001011067477));
#420=CARTESIAN_POINT('',(-3.95355890612909,-14.4696555606244,33.1142958067412));
#421=CARTESIAN_POINT('',(-3.91543056209421,-14.4799655908921,32.9318291661162));
#422=CARTESIAN_POINT('',(3.91543056209423,-14.4799655908921,24.0681708338843));
#423=CARTESIAN_POINT('',(3.4402335722933,-14.6084604277895,25.7140636151014));
#424=CARTESIAN_POINT('',(1.69146496879033,-14.9998847395242,26.7295840340496));
#425=CARTESIAN_POINT('',(-0.844198816956946,-15.0000575779682,26.7301561962808));
#426=CARTESIAN_POINT('',(-1.69479684021717,-14.9211400641911,26.4888614944354));
#427=CARTESIAN_POINT('',(-3.1084626120019,-14.6918418632452,25.5704875664383));
#428=CARTESIAN_POINT('',(-3.68070052169521,-14.5434373697613,24.8811820425398));
#429=CARTESIAN_POINT('',(-3.91543056209421,-14.4799655908921,24.0681708338843));
#430=CARTESIAN_POINT('',(3.91543056209423,-14.4799655908921,24.0681708338843));
#431=CARTESIAN_POINT('',(-3.91543056209421,-14.4799655908921,24.0681708338843));
#432=CARTESIAN_POINT('',(3.91543056209423,-14.4799655908921,22.4318291661162));
#433=CARTESIAN_POINT('',(3.98927143632146,-14.4599987744058,22.7852013516151));
#434=CARTESIAN_POINT('',(4.01512860233113,-14.452659037938,23.1529325009153));
#435=CARTESIAN_POINT('',(3.9913020870138,-14.45923606731,23.5136430355604));
#436=CARTESIAN_POINT('',(3.97899906944149,-14.4626321706369,23.6998988932529));
#437=CARTESIAN_POINT('',(3.95355890612911,-14.4696555606244,23.8857041932593));
#438=CARTESIAN_POINT('',(3.91543056209423,-14.4799655908921,24.0681708338843));
#439=CARTESIAN_POINT('',(3.91543056209423,-14.4799655908921,22.4318291661162));
#440=CARTESIAN_POINT('',(-3.91543056209421,-14.4799655908921,22.4318291661162));
#441=CARTESIAN_POINT('',(-3.44023357229328,-14.6084604277895,20.7859363848992));
#442=CARTESIAN_POINT('',(-1.69146496879031,-14.9998847395242,19.7704159659509));
#443=CARTESIAN_POINT('',(0.844198816956962,-15.0000575779682,19.7698438037197));
#444=CARTESIAN_POINT('',(1.69479684021719,-14.9211400641911,20.0111385055651));
#445=CARTESIAN_POINT('',(3.10846261200192,-14.6918418632452,20.9295124335623));
#446=CARTESIAN_POINT('',(3.68070052169522,-14.5434373697613,21.6188179574607));
#447=CARTESIAN_POINT('',(3.91543056209423,-14.4799655908921,22.4318291661162));
#448=CARTESIAN_POINT('',(-3.91543056209421,-14.4799655908921,22.4318291661162));
#449=CARTESIAN_POINT('',(-3.91543056209421,-14.4799655908921,24.0681708338843));
#450=CARTESIAN_POINT('',(-3.98927143632144,-14.4599987744058,23.7147986483854));
#451=CARTESIAN_POINT('',(-4.01512860233112,-14.452659037938,23.3470674990852));
#452=CARTESIAN_POINT('',(-3.99130208701378,-14.45923606731,22.9863569644401));
#453=CARTESIAN_POINT('',(-3.97899906944148,-14.4626321706369,22.8001011067476));
#454=CARTESIAN_POINT('',(-3.95355890612909,-14.4696555606244,22.6142958067412));
#455=CARTESIAN_POINT('',(-3.91543056209421,-14.4799655908921,22.4318291661162));
#456=CARTESIAN_POINT('',(7.105427357601E-015,0.,40.0000000000002));
#457=CARTESIAN_POINT('',(-15.,0.,40.0000000000002));
#458=CARTESIAN_POINT('',(7.105427357601E-015,0.,41.0000000000001));
#459=CARTESIAN_POINT('',(7.105427357601E-015,0.,5.00000000000023));
#460=CARTESIAN_POINT('',(6.00000000000001,0.,5.00000000000023));
#461=CARTESIAN_POINT('',(7.105427357601E-015,6.,5.00000000000012));
#462=CARTESIAN_POINT('',(7.105427357601E-015,-15.2467780908921,33.7500000000003));
#463=CARTESIAN_POINT('',(-3.23318749999999,-15.2467780908921,33.7500000000003));
#464=CARTESIAN_POINT('',(7.105427357601E-015,-15.2467780908921,33.7500000000003));
#465=CARTESIAN_POINT('',(7.105427357601E-015,-15.2467780908921,23.2500000000003));
#466=CARTESIAN_POINT('',(-3.23318749999999,-15.2467780908921,23.2500000000003));
#467=CARTESIAN_POINT('',(7.105427357601E-015,-15.2467780908921,23.2500000000003));
#468=CARTESIAN_POINT('',(7.105427357601E-015,0.,40.0000000000002));
#469=CARTESIAN_POINT('',(6.00000000000001,0.,40.0000000000002));
#470=CARTESIAN_POINT('',(7.105427357601E-015,0.,41.0000000000001));
#471=CARTESIAN_POINT('',(7.105427357601E-015,-14.4799655908921,33.7500000000003));
#472=CARTESIAN_POINT('',(7.105427357601E-015,-15.2467780908921,33.7500000000003));
#473=CARTESIAN_POINT('',(7.105427357601E-015,-14.4799655908921,33.7500000000003));
#474=CARTESIAN_POINT('',(7.105427357601E-015,-15.2467780908921,33.7500000000003));
#475=CARTESIAN_POINT('',(7.105427357601E-015,-14.4799655908921,33.7500000000003));
#476=CARTESIAN_POINT('',(7.105427357601E-015,-14.4799655908921,23.2500000000003));
#477=CARTESIAN_POINT('',(7.105427357601E-015,-15.2467780908921,23.2500000000003));
#478=CARTESIAN_POINT('',(7.105427357601E-015,-14.4799655908921,23.2500000000003));
#479=CARTESIAN_POINT('',(7.105427357601E-015,-15.2467780908921,23.2500000000003));
#480=CARTESIAN_POINT('',(7.105427357601E-015,-14.4799655908921,23.2500000000003));
#481=CARTESIAN_POINT('',(7.105427357601E-015,15.,40.0000000000002));
#482=CARTESIAN_POINT('',(7.105427357601E-015,0.,0.));
#483=CARTESIAN_POINT('',(-14.5,0.,0.));
#484=CARTESIAN_POINT('',(-9.34807244633295E-015,-6.73533494602307E-016,
0.));
#485=CARTESIAN_POINT('',(9.99999999999999,-6.73533494602307E-016,0.));
#486=CARTESIAN_POINT('',(7.105427357601E-015,10.,0.));
#487=CARTESIAN_POINT('',(0.,0.,-28.));
#488=CARTESIAN_POINT('',(-4.,0.,-28.));
#489=CARTESIAN_POINT('',(0.,0.,-28.));
#490=CARTESIAN_POINT('',(0.,0.,-23.));
#491=CARTESIAN_POINT('',(-4.,0.,-23.));
#492=CARTESIAN_POINT('',(0.,0.,-100.81126254777));
#493=CARTESIAN_POINT('',(0.,0.,-23.));
#494=CARTESIAN_POINT('',(0.,4.3135099835713,-23.));
#495=CARTESIAN_POINT('',(-3.5,0.,-23.));
#496=CARTESIAN_POINT('',(0.,0.,-11.));
#497=CARTESIAN_POINT('',(-6.,0.,-11.));
#498=CARTESIAN_POINT('',(0.,0.,-23.));
#499=CARTESIAN_POINT('',(0.,0.,-11.));
#500=CARTESIAN_POINT('',(0.,-10.,-11.));
#501=CARTESIAN_POINT('',(-6.,0.,-11.));
#502=CARTESIAN_POINT('',(0.,0.,-5.5));
#503=CARTESIAN_POINT('',(7.105427357601E-015,0.,0.5));
#504=MECHANICAL_DESIGN_GEOMETRIC_PRESENTATION_REPRESENTATION('',(#32),#505);
#505=(
GEOMETRIC_REPRESENTATION_CONTEXT(3)
GLOBAL_UNCERTAINTY_ASSIGNED_CONTEXT((#506))
GLOBAL_UNIT_ASSIGNED_CONTEXT((#512,#508,#507))
REPRESENTATION_CONTEXT('W9990211_stp','TOP_LEVEL_ASSEMBLY_PART')
);
#506=UNCERTAINTY_MEASURE_WITH_UNIT(LENGTH_MEASURE(0.0508),#512,
'DISTANCE_ACCURACY_VALUE','Maximum Tolerance applied to model');
#507=(
NAMED_UNIT(*)
SI_UNIT($,.STERADIAN.)
SOLID_ANGLE_UNIT()
);
#508=(
CONVERSION_BASED_UNIT('DEGREE',#510)
NAMED_UNIT(#509)
PLANE_ANGLE_UNIT()
);
#509=DIMENSIONAL_EXPONENTS(0.,0.,0.,0.,0.,0.,0.);
#510=PLANE_ANGLE_MEASURE_WITH_UNIT(PLANE_ANGLE_MEASURE(0.0174532925),#511);
#511=(
NAMED_UNIT(*)
PLANE_ANGLE_UNIT()
SI_UNIT($,.RADIAN.)
);
#512=(
LENGTH_UNIT()
NAMED_UNIT(*)
SI_UNIT(.MILLI.,.METRE.)
);
ENDSEC;
END-ISO-10303-21;
