  0
SECTION
  2
HEADER
  9
$ACADVER
  1
AC1014
  9
$ACADMAINTVER
 70
     9
  9
$DWGCODEPAGE
  3
ANSI_1252
  9
$INSBASE
 10
0.0
 20
0.0
 30
0.0
  9
$EXTMIN
 10
1.000000000000000E+20
 20
1.000000000000000E+20
 30
1.000000000000000E+20
  9
$EXTMAX
 10
-1.000000000000000E+20
 20
-1.000000000000000E+20
 30
-1.000000000000000E+20
  9
$LIMMIN
 10
0.0
 20
0.0
  9
$LIMMAX
 10
12.0
 20
9.0
  9
$ORTHOMODE
 70
     0
  9
$REGENMODE
 70
     1
  9
$FILLMODE
 70
     1
  9
$QTEXTMODE
 70
     0
  9
$MIRRTEXT
 70
     1
  9
$DRAGMODE
 70
     2
  9
$LTSCALE
 40
1.0
  9
$OSMODE
 70
    37
  9
$ATTMODE
 70
     1
  9
$TEXTSIZE
 40
0.2
  9
$TRACEWID
 40
0.05
  9
$TEXTSTYLE
  7
STANDARD
  9
$CLAYER
  8
0
  9
$CELTYPE
  6
BYLAYER
  9
$CECOLOR
 62
   256
  9
$CELTSCALE
 40
1.0
  9
$DELOBJ
 70
     1
  9
$DISPSILH
 70
     0
  9
$DIMSCALE
 40
1.0
  9
$DIMASZ
 40
0.18
  9
$DIMEXO
 40
0.0625
  9
$DIMDLI
 40
0.38
  9
$DIMRND
 40
0.0
  9
$DIMDLE
 40
0.0
  9
$DIMEXE
 40
0.18
  9
$DIMTP
 40
0.0
  9
$DIMTM
 40
0.0
  9
$DIMTXT
 40
0.18
  9
$DIMCEN
 40
0.09
  9
$DIMTSZ
 40
0.0
  9
$DIMTOL
 70
     0
  9
$DIMLIM
 70
     0
  9
$DIMTIH
 70
     1
  9
$DIMTOH
 70
     1
  9
$DIMSE1
 70
     0
  9
$DIMSE2
 70
     0
  9
$DIMTAD
 70
     0
  9
$DIMZIN
 70
     0
  9
$DIMBLK
  1

  9
$DIMASO
 70
     1
  9
$DIMSHO
 70
     1
  9
$DIMPOST
  1

  9
$DIMAPOST
  1

  9
$DIMALT
 70
     0
  9
$DIMALTD
 70
     2
  9
$DIMALTF
 40
25.4
  9
$DIMLFAC
 40
1.0
  9
$DIMTOFL
 70
     0
  9
$DIMTVP
 40
0.0
  9
$DIMTIX
 70
     0
  9
$DIMSOXD
 70
     0
  9
$DIMSAH
 70
     0
  9
$DIMBLK1
  1

  9
$DIMBLK2
  1

  9
$DIMSTYLE
  2
STANDARD
  9
$DIMCLRD
 70
     0
  9
$DIMCLRE
 70
     0
  9
$DIMCLRT
 70
     0
  9
$DIMTFAC
 40
1.0
  9
$DIMGAP
 40
0.09
  9
$DIMJUST
 70
     0
  9
$DIMSD1
 70
     0
  9
$DIMSD2
 70
     0
  9
$DIMTOLJ
 70
     1
  9
$DIMTZIN
 70
     0
  9
$DIMALTZ
 70
     0
  9
$DIMALTTZ
 70
     0
  9
$DIMFIT
 70
     3
  9
$DIMUPT
 70
     0
  9
$DIMUNIT
 70
     2
  9
$DIMDEC
 70
     4
  9
$DIMTDEC
 70
     4
  9
$DIMALTU
 70
     2
  9
$DIMALTTD
 70
     2
  9
$DIMTXSTY
  7
STANDARD
  9
$DIMAUNIT
 70
     0
  9
$LUNITS
 70
     2
  9
$LUPREC
 70
     4
  9
$SKETCHINC
 40
0.1
  9
$FILLETRAD
 40
0.5
  9
$AUNITS
 70
     0
  9
$AUPREC
 70
     0
  9
$MENU
  1
.
  9
$ELEVATION
 40
0.0
  9
$PELEVATION
 40
0.0
  9
$THICKNESS
 40
0.0
  9
$LIMCHECK
 70
     0
  9
$CHAMFERA
 40
0.5
  9
$CHAMFERB
 40
0.5
  9
$CHAMFERC
 40
1.0
  9
$CHAMFERD
 40
0.0
  9
$SKPOLY
 70
     0
  9
$TDCREATE
 40
2458352.521381296
  9
$TDUPDATE
 40
2458352.521381308
  9
$TDINDWG
 40
0.0000000116
  9
$TDUSRTIMER
 40
0.0000000116
  9
$USRTIMER
 70
     1
  9
$ANGBASE
 50
0.0
  9
$ANGDIR
 70
     0
  9
$PDMODE
 70
     0
  9
$PDSIZE
 40
0.0
  9
$PLINEWID
 40
0.0
  9
$COORDS
 70
     1
  9
$SPLFRAME
 70
     0
  9
$SPLINETYPE
 70
     6
  9
$SPLINESEGS
 70
     8
  9
$ATTDIA
 70
     0
  9
$ATTREQ
 70
     1
  9
$HANDLING
 70
     1
  9
$HANDSEED
  5
5BB
  9
$SURFTAB1
 70
     6
  9
$SURFTAB2
 70
     6
  9
$SURFTYPE
 70
     6
  9
$SURFU
 70
     6
  9
$SURFV
 70
     6
  9
$UCSNAME
  2

  9
$UCSORG
 10
0.0
 20
0.0
 30
0.0
  9
$UCSXDIR
 10
1.0
 20
0.0
 30
0.0
  9
$UCSYDIR
 10
0.0
 20
1.0
 30
0.0
  9
$PUCSNAME
  2

  9
$PUCSORG
 10
0.0
 20
0.0
 30
0.0
  9
$PUCSXDIR
 10
1.0
 20
0.0
 30
0.0
  9
$PUCSYDIR
 10
0.0
 20
1.0
 30
0.0
  9
$USERI1
 70
     0
  9
$USERI2
 70
     0
  9
$USERI3
 70
     0
  9
$USERI4
 70
     0
  9
$USERI5
 70
     0
  9
$USERR1
 40
0.0
  9
$USERR2
 40
0.0
  9
$USERR3
 40
0.0
  9
$USERR4
 40
0.0
  9
$USERR5
 40
0.0
  9
$WORLDVIEW
 70
     1
  9
$SHADEDGE
 70
     3
  9
$SHADEDIF
 70
    70
  9
$TILEMODE
 70
     1
  9
$MAXACTVP
 70
    64
  9
$PINSBASE
 10
0.0
 20
0.0
 30
0.0
  9
$PLIMCHECK
 70
     0
  9
$PEXTMIN
 10
1.000000000000000E+20
 20
1.000000000000000E+20
 30
1.000000000000000E+20
  9
$PEXTMAX
 10
-1.000000000000000E+20
 20
-1.000000000000000E+20
 30
-1.000000000000000E+20
  9
$PLIMMIN
 10
0.0
 20
0.0
  9
$PLIMMAX
 10
12.0
 20
9.0
  9
$UNITMODE
 70
     0
  9
$VISRETAIN
 70
     1
  9
$PLINEGEN
 70
     0
  9
$PSLTSCALE
 70
     1
  9
$TREEDEPTH
 70
  3020
  9
$PICKSTYLE
 70
     1
  9
$CMLSTYLE
  2
STANDARD
  9
$CMLJUST
 70
     0
  9
$CMLSCALE
 40
1.0
  9
$PROXYGRAPHICS
 70
     1
  9
$MEASUREMENT
 70
     0
  0
ENDSEC
  0
SECTION
  2
CLASSES
  0
CLASS
  1
ACDBDICTIONARYWDFLT
  2
AcDbDictionaryWithDefault
  3
ObjectDBX Classes
 90
        0
280
     0
281
     0
  0
CLASS
  1
VISUALSTYLE
  2
AcDbVisualStyle
  3
ObjectDBX Classes
 90
     4095
280
     0
281
     0
  0
CLASS
  1
XRECORD
  2
AcDbXrecord
  3
AutoCAD 2000
 90
        0
280
     0
281
     0
  0
CLASS
  1
LWPOLYLINE
  2
AcDbPolyline
  3
AutoCAD 2000
 90
        0
280
     0
281
     1
  0
CLASS
  1
HATCH
  2
AcDbHatch
  3
AutoCAD 2000
 90
        0
280
     0
281
     1
  0
CLASS
  1
ACDBPLACEHOLDER
  2
AcDbPlaceHolder
  3
ObjectDBX Classes
 90
        0
280
     0
281
     0
  0
CLASS
  1
LAYOUT
  2
AcDbLayout
  3
ObjectDBX Classes
 90
        0
280
     0
281
     0
  0
ENDSEC
  0
SECTION
  2
TABLES
  0
TABLE
  2
VPORT
  5
8
330
0
100
AcDbSymbolTable
 70
     1
  0
VPORT
  5
29
330
8
100
AcDbSymbolTableRecord
100
AcDbViewportTableRecord
  2
*ACTIVE
 70
     0
 10
0.0
 20
0.0
 11
1.0
 21
1.0
 12
0.0
 22
0.0
 13
0.0
 23
0.0
 14
0.5
 24
0.5
 15
0.5
 25
0.5
 16
0.0
 26
0.0
 36
1.0
 17
125.0611002291514
 27
87.519291834674
 37
0.0
 40
217.999957899059
 41
1.192660680943798
 42
50.0
 43
0.0
 44
0.0
 50
0.0
 51
0.0
 71
     0
 72
   100
 73
     1
 74
     3
 75
     0
 76
     0
 77
     0
 78
     0
  0
ENDTAB
  0
TABLE
  2
LTYPE
  5
5
330
0
100
AcDbSymbolTable
 70
     6
  0
LTYPE
  5
14
330
5
100
AcDbSymbolTableRecord
100
AcDbLinetypeTableRecord
  2
BYBLOCK
 70
     0
  3

 72
    65
 73
     0
 40
0.0
  0
LTYPE
  5
15
330
5
100
AcDbSymbolTableRecord
100
AcDbLinetypeTableRecord
  2
BYLAYER
 70
     0
  3

 72
    65
 73
     0
 40
0.0
  0
LTYPE
  5
16
330
5
100
AcDbSymbolTableRecord
100
AcDbLinetypeTableRecord
  2
CONTINUOUS
 70
     0
  3
Solid line
 72
    65
 73
     0
 40
0.0
  0
LTYPE
  5
40
330
5
100
AcDbSymbolTableRecord
100
AcDbLinetypeTableRecord
  2
AI-LINETYPE-1
 70
     0
  3
Adobe Illustrator Linetype No. 1
 72
    65
 73
     4
 40
8.819444442239584
 49
7.055555553791667
 74
     0
 49
-0.7055555553791667
 74
     0
 49
0.3527777776895833
 74
     0
 49
-0.7055555553791667
 74
     0
  0
LTYPE
  5
45
330
5
100
AcDbSymbolTableRecord
100
AcDbLinetypeTableRecord
  2
AI-LINETYPE-2
 70
     0
  3
Adobe Illustrator Linetype No. 2
 72
    65
 73
     4
 40
8.819444442239584
 49
7.055555553791667
 74
     0
 49
-0.7055555553791667
 74
     0
 49
0.3527777776895833
 74
     0
 49
-0.7055555553791667
 74
     0
  0
LTYPE
  5
4C
330
5
100
AcDbSymbolTableRecord
100
AcDbLinetypeTableRecord
  2
AI-LINETYPE-3
 70
     0
  3
Adobe Illustrator Linetype No. 3
 72
    65
 73
     4
 40
8.819444442239584
 49
7.055555553791667
 74
     0
 49
-0.7055555553791667
 74
     0
 49
0.3527777776895833
 74
     0
 49
-0.7055555553791667
 74
     0
  0
LTYPE
  5
337
330
5
100
AcDbSymbolTableRecord
100
AcDbLinetypeTableRecord
  2
AI-LINETYPE-4
 70
     0
  3
Adobe Illustrator Linetype No. 4
 72
    65
 73
     4
 40
4.938888887654167
 49
1.763888888447917
 74
     0
 49
-0.7055555553791667
 74
     0
 49
1.763888888447917
 74
     0
 49
-0.7055555553791667
 74
     0
  0
LTYPE
  5
33C
330
5
100
AcDbSymbolTableRecord
100
AcDbLinetypeTableRecord
  2
AI-LINETYPE-5
 70
     0
  3
Adobe Illustrator Linetype No. 5
 72
    65
 73
     4
 40
4.938888887654167
 49
1.763888888447917
 74
     0
 49
-0.7055555553791667
 74
     0
 49
1.763888888447917
 74
     0
 49
-0.7055555553791667
 74
     0
  0
ENDTAB
  0
TABLE
  2
LAYER
  5
2
330
0
100
AcDbSymbolTable
 70
     5
  0
LAYER
  5
10
330
2
100
AcDbSymbolTableRecord
100
AcDbLayerTableRecord
  2
0
 70
     0
 62
     7
  6
CONTINUOUS
  0
LAYER
  5
3B
330
2
100
AcDbSymbolTableRecord
100
AcDbLayerTableRecord
  2
GRAU_10_
 70
     0
 62
     7
  6
CONTINUOUS
  0
LAYER
  5
332
330
2
100
AcDbSymbolTableRecord
100
AcDbLayerTableRecord
  2
STANDARDEBENE
 70
     0
 62
     7
  6
CONTINUOUS
  0
LAYER
  5
33D
330
2
100
AcDbSymbolTableRecord
100
AcDbLayerTableRecord
  2
BEMAßUNG
 70
     1
 62
     7
  6
CONTINUOUS
  0
LAYER
  5
596
330
2
100
AcDbSymbolTableRecord
100
AcDbLayerTableRecord
  2
TEXT
 70
     1
 62
     7
  6
CONTINUOUS
  0
ENDTAB
  0
TABLE
  2
STYLE
  5
3
330
0
100
AcDbSymbolTable
 70
     1
  0
STYLE
  5
11
330
3
100
AcDbSymbolTableRecord
100
AcDbTextStyleTableRecord
  2
STANDARD
 70
     0
 40
0.0
 41
1.0
 50
0.0
 71
     0
 42
0.2
  3
txt
  4

  0
ENDTAB
  0
TABLE
  2
VIEW
  5
6
330
0
100
AcDbSymbolTable
 70
     0
  0
ENDTAB
  0
TABLE
  2
UCS
  5
7
330
0
100
AcDbSymbolTable
 70
     0
  0
ENDTAB
  0
TABLE
  2
APPID
  5
9
330
0
100
AcDbSymbolTable
 70
     1
  0
APPID
  5
12
330
9
100
AcDbSymbolTableRecord
100
AcDbRegAppTableRecord
  2
ACAD
 70
     0
  0
ENDTAB
  0
TABLE
  2
DIMSTYLE
  5
A
330
0
100
AcDbSymbolTable
 70
     1
  0
DIMSTYLE
105
27
330
A
100
AcDbSymbolTableRecord
100
AcDbDimStyleTableRecord
  2
STANDARD
 70
     0
  3

  4

  5

  6

  7

 40
1.0
 41
0.18
 42
0.0625
 43
0.38
 44
0.18
 45
0.0
 46
0.0
 47
0.0
 48
0.0
140
0.18
141
0.09
142
0.0
143
25.4
144
1.0
145
0.0
146
1.0
147
0.09
 71
     0
 72
     0
 73
     1
 74
     1
 75
     0
 76
     0
 77
     0
 78
     0
170
     0
171
     2
172
     0
173
     0
174
     0
175
     0
176
     0
177
     0
178
     0
270
     2
271
     4
272
     4
273
     2
274
     2
340
11
275
     0
280
     0
281
     0
282
     0
283
     1
284
     0
285
     0
286
     0
287
     3
288
     0
  0
ENDTAB
  0
TABLE
  2
BLOCK_RECORD
  5
1
330
0
100
AcDbSymbolTable
 70
     1
  0
BLOCK_RECORD
  5
1F
330
1
100
AcDbSymbolTableRecord
100
AcDbBlockTableRecord
  2
*MODEL_SPACE
  0
BLOCK_RECORD
  5
1B
330
1
100
AcDbSymbolTableRecord
100
AcDbBlockTableRecord
  2
*PAPER_SPACE
  0
ENDTAB
  0
ENDSEC
  0
SECTION
  2
BLOCKS
  0
BLOCK
  5
20
330
1F
100
AcDbEntity
  8
0
100
AcDbBlockBegin
  2
*MODEL_SPACE
 70
     0
 71
     0
 10
0.0
 20
0.0
 30
0.0
  3
*MODEL_SPACE
  1

  0
ENDBLK
  5
21
330
1F
100
AcDbEntity
  8
0
100
AcDbBlockEnd
  0
BLOCK
  5
1C
330
1B
100
AcDbEntity
 67
     1
  8
0
100
AcDbBlockBegin
  2
*PAPER_SPACE
 70
     0
 71
     0
 10
0.0
 20
0.0
 30
0.0
  3
*PAPER_SPACE
  1

  0
ENDBLK
  5
1D
330
1B
100
AcDbEntity
 67
     1
  8
0
100
AcDbBlockEnd
  0
ENDSEC
  0
SECTION
  2
ENTITIES
  0
POLYLINE
  5
3C
330
1F
100
AcDbEntity
  8
GRAU_10_
  6
AI-LINETYPE-1
 62
   250
100
AcDb2dPolyline
 66
     1
 10
0.0
 20
0.0
 30
0.0
  0
VERTEX
  5
3D
330
3C
100
AcDbEntity
  8
GRAU_10_
  6
AI-LINETYPE-1
 62
   250
100
AcDbVertex
100
AcDb2dVertex
 10
156.3115613758527
 20
133.7234483172636
 30
0.0
  0
VERTEX
  5
3E
330
3C
100
AcDbEntity
  8
GRAU_10_
  6
AI-LINETYPE-1
 62
   250
100
AcDbVertex
100
AcDb2dVertex
 10
156.3115613758527
 20
113.7815131008949
 30
0.0
  0
SEQEND
  5
3F
330
3C
100
AcDbEntity
  8
GRAU_10_
  6
AI-LINETYPE-1
  0
POLYLINE
  5
41
330
1F
100
AcDbEntity
  8
GRAU_10_
  6
AI-LINETYPE-2
 62
   250
100
AcDb2dPolyline
 66
     1
 10
0.0
 20
0.0
 30
0.0
  0
VERTEX
  5
42
330
41
100
AcDbEntity
  8
GRAU_10_
  6
AI-LINETYPE-2
 62
   250
100
AcDbVertex
100
AcDb2dVertex
 10
146.8657985743947
 20
124.1233452380664
 30
0.0
  0
VERTEX
  5
43
330
41
100
AcDbEntity
  8
GRAU_10_
  6
AI-LINETYPE-2
 62
   250
100
AcDbVertex
100
AcDb2dVertex
 10
166.6532212582499
 20
124.1233452380664
 30
0.0
  0
SEQEND
  5
44
330
41
100
AcDbEntity
  8
GRAU_10_
  6
AI-LINETYPE-2
  0
POLYLINE
  5
46
330
1F
100
AcDbEntity
  8
GRAU_10_
  6
AI-LINETYPE-3
 62
   250
100
AcDb2dPolyline
 66
     1
 10
0.0
 20
0.0
 30
0.0
  0
VERTEX
  5
47
330
46
100
AcDbEntity
  8
GRAU_10_
  6
AI-LINETYPE-3
 62
   250
100
AcDbVertex
100
AcDb2dVertex
 10
94.49259573375532
 20
124.1233452380664
 30
0.0
  0
VERTEX
  5
48
330
46
100
AcDbEntity
  8
GRAU_10_
  6
AI-LINETYPE-3
 62
   250
100
AcDbVertex
100
AcDb2dVertex
 10
93.49214000483877
 20
124.1233452380664
 30
0.0
  0
VERTEX
  5
49
330
46
100
AcDbEntity
  8
GRAU_10_
  6
AI-LINETYPE-3
 62
   250
100
AcDbVertex
100
AcDb2dVertex
 10
92.4927178045678
 20
124.1233452380664
 30
0.0
  0
VERTEX
  5
4A
330
46
100
AcDbEntity
  8
GRAU_10_
  6
AI-LINETYPE-3
 62
   250
100
AcDbVertex
100
AcDb2dVertex
 10
49.24798447119495
 20
124.1233452380664
 30
0.0
  0
SEQEND
  5
4B
330
46
100
AcDbEntity
  8
GRAU_10_
  6
AI-LINETYPE-3
  0
POLYLINE
  5
4D
330
1F
100
AcDbEntity
  8
GRAU_10_
 62
     7
100
AcDb2dPolyline
 66
     1
 10
0.0
 20
0.0
 30
0.0
  0
VERTEX
  5
4E
330
4D
100
AcDbEntity
  8
GRAU_10_
 62
     7
100
AcDbVertex
100
AcDb2dVertex
 10
50.49200845091867
 20
116.819915064111
 30
0.0
  0
VERTEX
  5
4F
330
4D
100
AcDbEntity
  8
GRAU_10_
 62
     7
100
AcDbVertex
100
AcDb2dVertex
 10
52.49257539920325
 20
116.819915064111
 30
0.0
  0
SEQEND
  5
50
330
4D
100
AcDbEntity
  8
GRAU_10_
  0
POLYLINE
  5
51
330
1F
100
AcDbEntity
  8
GRAU_10_
 62
     7
100
AcDb2dPolyline
 66
     1
 10
0.0
 20
0.0
 30
0.0
  0
VERTEX
  5
52
330
51
100
AcDbEntity
  8
GRAU_10_
 62
     7
100
AcDbVertex
100
AcDb2dVertex
 10
52.49257539920325
 20
123.4146890967505
 30
0.0
  0
VERTEX
  5
53
330
51
100
AcDbEntity
  8
GRAU_10_
 62
     7
100
AcDbVertex
100
AcDb2dVertex
 10
50.49200845091867
 20
123.4146890967505
 30
0.0
  0
SEQEND
  5
54
330
51
100
AcDbEntity
  8
GRAU_10_
  0
POLYLINE
  5
55
330
1F
100
AcDbEntity
  8
GRAU_10_
 62
     7
100
AcDb2dPolyline
 66
     1
 10
0.0
 20
0.0
 30
0.0
  0
VERTEX
  5
56
330
55
100
AcDbEntity
  8
GRAU_10_
 62
     7
100
AcDbVertex
100
AcDb2dVertex
 10
52.49257539920325
 20
131.4333210934438
 30
0.0
  0
VERTEX
  5
57
330
55
100
AcDbEntity
  8
GRAU_10_
 62
     7
100
AcDbVertex
100
AcDb2dVertex
 10
50.49200845091867
 20
131.4333210934438
 30
0.0
  0
SEQEND
  5
58
330
55
100
AcDbEntity
  8
GRAU_10_
  0
POLYLINE
  5
59
330
1F
100
AcDbEntity
  8
GRAU_10_
 62
     7
100
AcDb2dPolyline
 66
     1
 10
0.0
 20
0.0
 30
0.0
  0
VERTEX
  5
5A
330
59
100
AcDbEntity
  8
GRAU_10_
 62
     7
100
AcDbVertex
100
AcDb2dVertex
 10
50.49200845091867
 20
124.9150281805768
 30
0.0
  0
VERTEX
  5
5B
330
59
100
AcDbEntity
  8
GRAU_10_
 62
     7
100
AcDbVertex
100
AcDb2dVertex
 10
52.49257539920325
 20
124.9150281805768
 30
0.0
  0
SEQEND
  5
5C
330
59
100
AcDbEntity
  8
GRAU_10_
  0
POLYLINE
  5
5D
330
1F
100
AcDbEntity
  8
GRAU_10_
 62
     7
100
AcDb2dPolyline
 66
     1
 10
0.0
 20
0.0
 30
0.0
  0
VERTEX
  5
5E
330
5D
100
AcDbEntity
  8
GRAU_10_
 62
     7
100
AcDbVertex
100
AcDb2dVertex
 10
79.48300372361884
 20
118.1230224314068
 30
0.0
  0
VERTEX
  5
5F
330
5D
100
AcDbEntity
  8
GRAU_10_
 62
     7
100
AcDbVertex
100
AcDb2dVertex
 10
92.4927178045678
 20
118.1230224314068
 30
0.0
  0
SEQEND
  5
60
330
5D
100
AcDbEntity
  8
GRAU_10_
  0
POLYLINE
  5
61
330
1F
100
AcDbEntity
  8
GRAU_10_
 62
     7
100
AcDb2dPolyline
 66
     1
 10
0.0
 20
0.0
 30
0.0
  0
VERTEX
  5
62
330
61
100
AcDbEntity
  8
GRAU_10_
 62
     7
100
AcDbVertex
100
AcDb2dVertex
 10
92.4927178045678
 20
130.1234957899518
 30
0.0
  0
VERTEX
  5
63
330
61
100
AcDbEntity
  8
GRAU_10_
 62
     7
100
AcDbVertex
100
AcDb2dVertex
 10
79.48644881910408
 20
130.1234957899518
 30
0.0
  0
SEQEND
  5
64
330
61
100
AcDbEntity
  8
GRAU_10_
  0
POLYLINE
  5
65
330
1F
100
AcDbEntity
  8
GRAU_10_
 62
     7
100
AcDb2dPolyline
 66
     1
 10
0.0
 20
0.0
 30
0.0
  0
VERTEX
  5
66
330
65
100
AcDbEntity
  8
GRAU_10_
 62
     7
100
AcDbVertex
100
AcDb2dVertex
 10
52.49257539920325
 20
118.1702202395547
 30
0.0
  0
VERTEX
  5
67
330
65
100
AcDbEntity
  8
GRAU_10_
 62
     7
100
AcDbVertex
100
AcDb2dVertex
 10
78.74213593951586
 20
118.1702202395547
 30
0.0
  0
SEQEND
  5
68
330
65
100
AcDbEntity
  8
GRAU_10_
  0
POLYLINE
  5
69
330
1F
100
AcDbEntity
  8
GRAU_10_
 62
     7
100
AcDb2dPolyline
 66
     1
 10
0.0
 20
0.0
 30
0.0
  0
VERTEX
  5
6A
330
69
100
AcDbEntity
  8
GRAU_10_
 62
     7
100
AcDbVertex
100
AcDb2dVertex
 10
78.74213593951586
 20
130.0837049370971
 30
0.0
  0
VERTEX
  5
6B
330
69
100
AcDbEntity
  8
GRAU_10_
 62
     7
100
AcDbVertex
100
AcDb2dVertex
 10
52.49257539920325
 20
130.0837049370971
 30
0.0
  0
SEQEND
  5
6C
330
69
100
AcDbEntity
  8
GRAU_10_
  0
POLYLINE
  5
6D
330
1F
100
AcDbEntity
  8
GRAU_10_
 62
     7
100
AcDb2dPolyline
 66
     1
 10
0.0
 20
0.0
 30
0.0
  0
VERTEX
  5
6E
330
6D
100
AcDbEntity
  8
GRAU_10_
 62
     7
100
AcDbVertex
100
AcDb2dVertex
 10
52.49257539920325
 20
124.9150281805768
 30
0.0
  0
VERTEX
  5
6F
330
6D
100
AcDbEntity
  8
GRAU_10_
 62
     7
100
AcDbVertex
100
AcDb2dVertex
 10
78.74213593951586
 20
124.9150281805768
 30
0.0
  0
SEQEND
  5
70
330
6D
100
AcDbEntity
  8
GRAU_10_
  0
POLYLINE
  5
71
330
1F
100
AcDbEntity
  8
GRAU_10_
 62
     7
100
AcDb2dPolyline
 66
     1
 10
0.0
 20
0.0
 30
0.0
  0
VERTEX
  5
72
330
71
100
AcDbEntity
  8
GRAU_10_
 62
     7
100
AcDbVertex
100
AcDb2dVertex
 10
78.74213593951586
 20
123.4146890967505
 30
0.0
  0
VERTEX
  5
73
330
71
100
AcDbEntity
  8
GRAU_10_
 62
     7
100
AcDbVertex
100
AcDb2dVertex
 10
52.49257539920325
 20
123.4146890967505
 30
0.0
  0
SEQEND
  5
74
330
71
100
AcDbEntity
  8
GRAU_10_
  0
POLYLINE
  5
75
330
1F
100
AcDbEntity
  8
GRAU_10_
 62
     7
100
AcDb2dPolyline
 66
     1
 10
0.0
 20
0.0
 30
0.0
  0
VERTEX
  5
76
330
75
100
AcDbEntity
  8
GRAU_10_
 62
     7
100
AcDbVertex
100
AcDb2dVertex
 10
50.49200845091867
 20
124.8526719522938
 30
0.0
  0
VERTEX
  5
77
330
75
100
AcDbEntity
  8
GRAU_10_
 62
     7
100
AcDbVertex
100
AcDb2dVertex
 10
78.74213593951586
 20
124.8526719522938
 30
0.0
  0
SEQEND
  5
78
330
75
100
AcDbEntity
  8
GRAU_10_
  0
POLYLINE
  5
79
330
1F
100
AcDbEntity
  8
GRAU_10_
 62
     7
100
AcDb2dPolyline
 66
     1
 10
0.0
 20
0.0
 30
0.0
  0
VERTEX
  5
7A
330
79
100
AcDbEntity
  8
GRAU_10_
 62
     7
100
AcDbVertex
100
AcDb2dVertex
 10
52.49257539920325
 20
116.819915064111
 30
0.0
  0
VERTEX
  5
7B
330
79
100
AcDbEntity
  8
GRAU_10_
 62
     7
100
AcDbVertex
100
AcDb2dVertex
 10
52.49257539920325
 20
117.054870576205
 30
0.0
  0
VERTEX
  5
7C
330
79
100
AcDbEntity
  8
GRAU_10_
 62
     7
100
AcDbVertex
100
AcDb2dVertex
 10
52.49257539920325
 20
117.4972208365111
 30
0.0
  0
VERTEX
  5
7D
330
79
100
AcDbEntity
  8
GRAU_10_
 62
     7
100
AcDbVertex
100
AcDb2dVertex
 10
52.49257539920325
 20
118.1343912465081
 30
0.0
  0
VERTEX
  5
7E
330
79
100
AcDbEntity
  8
GRAU_10_
 62
     7
100
AcDbVertex
100
AcDb2dVertex
 10
52.49257539920325
 20
118.94674476193
 30
0.0
  0
VERTEX
  5
7F
330
79
100
AcDbEntity
  8
GRAU_10_
 62
     7
100
AcDbVertex
100
AcDb2dVertex
 10
52.49257539920325
 20
119.9106824787029
 30
0.0
  0
VERTEX
  5
80
330
79
100
AcDbEntity
  8
GRAU_10_
 62
     7
100
AcDbVertex
100
AcDb2dVertex
 10
52.49257539920325
 20
120.9989881424933
 30
0.0
  0
VERTEX
  5
81
330
79
100
AcDbEntity
  8
GRAU_10_
 62
     7
100
AcDbVertex
100
AcDb2dVertex
 10
52.49257539920325
 20
122.1782443270943
 30
0.0
  0
VERTEX
  5
82
330
79
100
AcDbEntity
  8
GRAU_10_
 62
     7
100
AcDbVertex
100
AcDb2dVertex
 10
52.49257539920325
 20
123.4146890967505
 30
0.0
  0
SEQEND
  5
83
330
79
100
AcDbEntity
  8
GRAU_10_
  0
POLYLINE
  5
84
330
1F
100
AcDbEntity
  8
GRAU_10_
 62
     7
100
AcDb2dPolyline
 66
     1
 10
0.0
 20
0.0
 30
0.0
  0
VERTEX
  5
85
330
84
100
AcDbEntity
  8
GRAU_10_
 62
     7
100
AcDbVertex
100
AcDb2dVertex
 10
50.49200845091867
 20
116.819915064111
 30
0.0
  0
VERTEX
  5
86
330
84
100
AcDbEntity
  8
GRAU_10_
 62
     7
100
AcDbVertex
100
AcDb2dVertex
 10
50.49200845091867
 20
117.054870576205
 30
0.0
  0
VERTEX
  5
87
330
84
100
AcDbEntity
  8
GRAU_10_
 62
     7
100
AcDbVertex
100
AcDb2dVertex
 10
50.49200845091867
 20
117.4972208365111
 30
0.0
  0
VERTEX
  5
88
330
84
100
AcDbEntity
  8
GRAU_10_
 62
     7
100
AcDbVertex
100
AcDb2dVertex
 10
50.49200845091867
 20
118.1343912465081
 30
0.0
  0
VERTEX
  5
89
330
84
100
AcDbEntity
  8
GRAU_10_
 62
     7
100
AcDbVertex
100
AcDb2dVertex
 10
50.49200845091867
 20
118.94674476193
 30
0.0
  0
VERTEX
  5
8A
330
84
100
AcDbEntity
  8
GRAU_10_
 62
     7
100
AcDbVertex
100
AcDb2dVertex
 10
50.49200845091867
 20
119.9106824787029
 30
0.0
  0
VERTEX
  5
8B
330
84
100
AcDbEntity
  8
GRAU_10_
 62
     7
100
AcDbVertex
100
AcDb2dVertex
 10
50.49200845091867
 20
120.9989881424933
 30
0.0
  0
VERTEX
  5
8C
330
84
100
AcDbEntity
  8
GRAU_10_
 62
     7
100
AcDbVertex
100
AcDb2dVertex
 10
50.49200845091867
 20
122.1782443270943
 30
0.0
  0
VERTEX
  5
8D
330
84
100
AcDbEntity
  8
GRAU_10_
 62
     7
100
AcDbVertex
100
AcDb2dVertex
 10
50.49200845091867
 20
123.4146890967505
 30
0.0
  0
SEQEND
  5
8E
330
84
100
AcDbEntity
  8
GRAU_10_
  0
POLYLINE
  5
8F
330
1F
100
AcDbEntity
  8
GRAU_10_
 62
     7
100
AcDb2dPolyline
 66
     1
 10
0.0
 20
0.0
 30
0.0
  0
VERTEX
  5
90
330
8F
100
AcDbEntity
  8
GRAU_10_
 62
     7
100
AcDbVertex
100
AcDb2dVertex
 10
50.49200845091867
 20
124.9150281805768
 30
0.0
  0
VERTEX
  5
91
330
8F
100
AcDbEntity
  8
GRAU_10_
 62
     7
100
AcDbVertex
100
AcDb2dVertex
 10
50.49200845091867
 20
126.1463053070051
 30
0.0
  0
VERTEX
  5
92
330
8F
100
AcDbEntity
  8
GRAU_10_
 62
     7
100
AcDbVertex
100
AcDb2dVertex
 10
50.49200845091867
 20
127.3186713006356
 30
0.0
  0
VERTEX
  5
93
330
8F
100
AcDbEntity
  8
GRAU_10_
 62
     7
100
AcDbVertex
100
AcDb2dVertex
 10
50.49200845091867
 20
128.3973306970673
 30
0.0
  0
VERTEX
  5
94
330
8F
100
AcDbEntity
  8
GRAU_10_
 62
     7
100
AcDbVertex
100
AcDb2dVertex
 10
50.49200845091867
 20
129.3516221464815
 30
0.0
  0
VERTEX
  5
95
330
8F
100
AcDbEntity
  8
GRAU_10_
 62
     7
100
AcDbVertex
100
AcDb2dVertex
 10
50.49200845091867
 20
130.1527791015764
 30
0.0
  0
VERTEX
  5
96
330
8F
100
AcDbEntity
  8
GRAU_10_
 62
     7
100
AcDbVertex
100
AcDb2dVertex
 10
50.49200845091867
 20
130.7782361869235
 30
0.0
  0
VERTEX
  5
97
330
8F
100
AcDbEntity
  8
GRAU_10_
 62
     7
100
AcDbVertex
100
AcDb2dVertex
 10
50.49200845091867
 20
131.2093898869025
 30
0.0
  0
VERTEX
  5
98
330
8F
100
AcDbEntity
  8
GRAU_10_
 62
     7
100
AcDbVertex
100
AcDb2dVertex
 10
50.49200845091867
 20
131.4333210934438
 30
0.0
  0
SEQEND
  5
99
330
8F
100
AcDbEntity
  8
GRAU_10_
  0
POLYLINE
  5
9A
330
1F
100
AcDbEntity
  8
GRAU_10_
 62
     7
100
AcDb2dPolyline
 66
     1
 10
0.0
 20
0.0
 30
0.0
  0
VERTEX
  5
9B
330
9A
100
AcDbEntity
  8
GRAU_10_
 62
     7
100
AcDbVertex
100
AcDb2dVertex
 10
52.49257539920325
 20
124.9150281805768
 30
0.0
  0
VERTEX
  5
9C
330
9A
100
AcDbEntity
  8
GRAU_10_
 62
     7
100
AcDbVertex
100
AcDb2dVertex
 10
52.49257539920325
 20
126.1463053070051
 30
0.0
  0
VERTEX
  5
9D
330
9A
100
AcDbEntity
  8
GRAU_10_
 62
     7
100
AcDbVertex
100
AcDb2dVertex
 10
52.49257539920325
 20
127.3186713006356
 30
0.0
  0
VERTEX
  5
9E
330
9A
100
AcDbEntity
  8
GRAU_10_
 62
     7
100
AcDbVertex
100
AcDb2dVertex
 10
52.49257539920325
 20
128.3973306970673
 30
0.0
  0
VERTEX
  5
9F
330
9A
100
AcDbEntity
  8
GRAU_10_
 62
     7
100
AcDbVertex
100
AcDb2dVertex
 10
52.49257539920325
 20
129.3516221464815
 30
0.0
  0
VERTEX
  5
A0
330
9A
100
AcDbEntity
  8
GRAU_10_
 62
     7
100
AcDbVertex
100
AcDb2dVertex
 10
52.49257539920325
 20
130.1527791015764
 30
0.0
  0
VERTEX
  5
A1
330
9A
100
AcDbEntity
  8
GRAU_10_
 62
     7
100
AcDbVertex
100
AcDb2dVertex
 10
52.49257539920325
 20
130.7782361869235
 30
0.0
  0
VERTEX
  5
A2
330
9A
100
AcDbEntity
  8
GRAU_10_
 62
     7
100
AcDbVertex
100
AcDb2dVertex
 10
52.49257539920325
 20
131.2093898869025
 30
0.0
  0
VERTEX
  5
A3
330
9A
100
AcDbEntity
  8
GRAU_10_
 62
     7
100
AcDbVertex
100
AcDb2dVertex
 10
52.49257539920325
 20
131.4333210934438
 30
0.0
  0
SEQEND
  5
A4
330
9A
100
AcDbEntity
  8
GRAU_10_
  0
POLYLINE
  5
A5
330
1F
100
AcDbEntity
  8
GRAU_10_
 62
     7
100
AcDb2dPolyline
 66
     1
 10
0.0
 20
0.0
 30
0.0
  0
VERTEX
  5
A6
330
A5
100
AcDbEntity
  8
GRAU_10_
 62
     7
100
AcDbVertex
100
AcDb2dVertex
 10
92.4927178045678
 20
118.1230224314068
 30
0.0
  0
VERTEX
  5
A7
330
A5
100
AcDbEntity
  8
GRAU_10_
 62
     7
100
AcDbVertex
100
AcDb2dVertex
 10
92.4927178045678
 20
118.2256862768672
 30
0.0
  0
VERTEX
  5
A8
330
A5
100
AcDbEntity
  8
GRAU_10_
 62
     7
100
AcDbVertex
100
AcDb2dVertex
 10
92.4927178045678
 20
118.5285101700207
 30
0.0
  0
VERTEX
  5
A9
330
A5
100
AcDbEntity
  8
GRAU_10_
 62
     7
100
AcDbVertex
100
AcDb2dVertex
 10
92.4927178045678
 20
119.0218478435084
 30
0.0
  0
VERTEX
  5
AA
330
A5
100
AcDbEntity
  8
GRAU_10_
 62
     7
100
AcDbVertex
100
AcDb2dVertex
 10
92.4927178045678
 20
119.6895073485499
 30
0.0
  0
VERTEX
  5
AB
330
A5
100
AcDbEntity
  8
GRAU_10_
 62
     7
100
AcDbVertex
100
AcDb2dVertex
 10
92.4927178045678
 20
120.5073730167482
 30
0.0
  0
VERTEX
  5
AC
330
A5
100
AcDbEntity
  8
GRAU_10_
 62
     7
100
AcDbVertex
100
AcDb2dVertex
 10
92.4927178045678
 20
121.4487453580927
 30
0.0
  0
VERTEX
  5
AD
330
A5
100
AcDbEntity
  8
GRAU_10_
 62
     7
100
AcDbVertex
100
AcDb2dVertex
 10
92.4927178045678
 20
122.4815849845706
 30
0.0
  0
VERTEX
  5
AE
330
A5
100
AcDbEntity
  8
GRAU_10_
 62
     7
100
AcDbVertex
100
AcDb2dVertex
 10
92.4927178045678
 20
123.5700629031353
 30
0.0
  0
VERTEX
  5
AF
330
A5
100
AcDbEntity
  8
GRAU_10_
 62
     7
100
AcDbVertex
100
AcDb2dVertex
 10
92.4927178045678
 20
124.6773165920946
 30
0.0
  0
VERTEX
  5
B0
330
A5
100
AcDbEntity
  8
GRAU_10_
 62
     7
100
AcDbVertex
100
AcDb2dVertex
 10
92.4927178045678
 20
125.7652777463365
 30
0.0
  0
VERTEX
  5
B1
330
A5
100
AcDbEntity
  8
GRAU_10_
 62
     7
100
AcDbVertex
100
AcDb2dVertex
 10
92.4927178045678
 20
126.7977728632658
 30
0.0
  0
VERTEX
  5
B2
330
A5
100
AcDbEntity
  8
GRAU_10_
 62
     7
100
AcDbVertex
100
AcDb2dVertex
 10
92.4927178045678
 20
127.7393174593846
 30
0.0
  0
VERTEX
  5
B3
330
A5
100
AcDbEntity
  8
GRAU_10_
 62
     7
100
AcDbVertex
100
AcDb2dVertex
 10
92.4927178045678
 20
128.5571831275829
 30
0.0
  0
VERTEX
  5
B4
330
A5
100
AcDbEntity
  8
GRAU_10_
 62
     7
100
AcDbVertex
100
AcDb2dVertex
 10
92.4927178045678
 20
129.2250148873986
 30
0.0
  0
VERTEX
  5
B5
330
A5
100
AcDbEntity
  8
GRAU_10_
 62
     7
100
AcDbVertex
100
AcDb2dVertex
 10
92.4927178045678
 20
129.7185248156607
 30
0.0
  0
VERTEX
  5
B6
330
A5
100
AcDbEntity
  8
GRAU_10_
 62
     7
100
AcDbVertex
100
AcDb2dVertex
 10
92.4927178045678
 20
130.0215209635884
 30
0.0
  0
VERTEX
  5
B7
330
A5
100
AcDbEntity
  8
GRAU_10_
 62
     7
100
AcDbVertex
100
AcDb2dVertex
 10
92.4927178045678
 20
130.1234957899518
 30
0.0
  0
SEQEND
  5
B8
330
A5
100
AcDbEntity
  8
GRAU_10_
  0
POLYLINE
  5
B9
330
1F
100
AcDbEntity
  8
GRAU_10_
 62
     7
100
AcDb2dPolyline
 66
     1
 10
0.0
 20
0.0
 30
0.0
  0
VERTEX
  5
BA
330
B9
100
AcDbEntity
  8
GRAU_10_
 62
     7
100
AcDbVertex
100
AcDb2dVertex
 10
50.49200845091867
 20
124.8526719522938
 30
0.0
  0
VERTEX
  5
BB
330
B9
100
AcDbEntity
  8
GRAU_10_
 62
     7
100
AcDbVertex
100
AcDb2dVertex
 10
50.49200845091867
 20
124.883677811661
 30
0.0
  0
VERTEX
  5
BC
330
B9
100
AcDbEntity
  8
GRAU_10_
 62
     7
100
AcDbVertex
100
AcDb2dVertex
 10
50.49200845091867
 20
124.9150281805768
 30
0.0
  0
SEQEND
  5
BD
330
B9
100
AcDbEntity
  8
GRAU_10_
  0
POLYLINE
  5
BE
330
1F
100
AcDbEntity
  8
GRAU_10_
 62
     7
100
AcDb2dPolyline
 66
     1
 10
0.0
 20
0.0
 30
0.0
  0
VERTEX
  5
BF
330
BE
100
AcDbEntity
  8
GRAU_10_
 62
     7
100
AcDbVertex
100
AcDb2dVertex
 10
78.74213593951586
 20
118.1702202395547
 30
0.0
  0
VERTEX
  5
C0
330
BE
100
AcDbEntity
  8
GRAU_10_
 62
     7
100
AcDbVertex
100
AcDb2dVertex
 10
78.8158609829002
 20
118.1698757300062
 30
0.0
  0
VERTEX
  5
C1
330
BE
100
AcDbEntity
  8
GRAU_10_
 62
     7
100
AcDbVertex
100
AcDb2dVertex
 10
78.8888970071875
 20
118.168497691812
 30
0.0
  0
VERTEX
  5
C2
330
BE
100
AcDbEntity
  8
GRAU_10_
 62
     7
100
AcDbVertex
100
AcDb2dVertex
 10
78.92455374545983
 20
118.167808672715
 30
0.0
  0
VERTEX
  5
C3
330
BE
100
AcDbEntity
  8
GRAU_10_
 62
     7
100
AcDbVertex
100
AcDb2dVertex
 10
78.96021048373217
 20
118.1667751440694
 30
0.0
  0
VERTEX
  5
C4
330
BE
100
AcDbEntity
  8
GRAU_10_
 62
     7
100
AcDbVertex
100
AcDb2dVertex
 10
78.99535045768172
 20
118.1650525963268
 30
0.0
  0
VERTEX
  5
C5
330
BE
100
AcDbEntity
  8
GRAU_10_
 62
     7
100
AcDbVertex
100
AcDb2dVertex
 10
79.02962915775996
 20
118.1633300485842
 30
0.0
  0
VERTEX
  5
C6
330
BE
100
AcDbEntity
  8
GRAU_10_
 62
     7
100
AcDbVertex
100
AcDb2dVertex
 10
79.09629175539955
 20
118.1600572078732
 30
0.0
  0
VERTEX
  5
C7
330
BE
100
AcDbEntity
  8
GRAU_10_
 62
     7
100
AcDbVertex
100
AcDb2dVertex
 10
79.15916474800535
 20
118.1554063289681
 30
0.0
  0
VERTEX
  5
C8
330
BE
100
AcDbEntity
  8
GRAU_10_
 62
     7
100
AcDbVertex
100
AcDb2dVertex
 10
79.17432316814045
 20
118.154717309871
 30
0.0
  0
VERTEX
  5
C9
330
BE
100
AcDbEntity
  8
GRAU_10_
 62
     7
100
AcDbVertex
100
AcDb2dVertex
 10
79.18913707872703
 20
118.1533392716769
 30
0.0
  0
VERTEX
  5
CA
330
BE
100
AcDbEntity
  8
GRAU_10_
 62
     7
100
AcDbVertex
100
AcDb2dVertex
 10
79.20360647976507
 20
118.1526502525799
 30
0.0
  0
VERTEX
  5
CB
330
BE
100
AcDbEntity
  8
GRAU_10_
 62
     7
100
AcDbVertex
100
AcDb2dVertex
 10
79.21842039035165
 20
118.1516167239343
 30
0.0
  0
VERTEX
  5
CC
330
BE
100
AcDbEntity
  8
GRAU_10_
 62
     7
100
AcDbVertex
100
AcDb2dVertex
 10
79.24580889945939
 20
118.1488606475461
 30
0.0
  0
VERTEX
  5
CD
330
BE
100
AcDbEntity
  8
GRAU_10_
 62
     7
100
AcDbVertex
100
AcDb2dVertex
 10
79.27268064424433
 20
118.146793590255
 30
0.0
  0
VERTEX
  5
CE
330
BE
100
AcDbEntity
  8
GRAU_10_
 62
     7
100
AcDbVertex
100
AcDb2dVertex
 10
79.32177325490915
 20
118.1424872208984
 30
0.0
  0
VERTEX
  5
CF
330
BE
100
AcDbEntity
  8
GRAU_10_
 62
     7
100
AcDbVertex
100
AcDb2dVertex
 10
79.36552596757181
 20
118.1378363419933
 30
0.0
  0
VERTEX
  5
D0
330
BE
100
AcDbEntity
  8
GRAU_10_
 62
     7
100
AcDbVertex
100
AcDb2dVertex
 10
79.3756889992533
 20
118.1364583037992
 30
0.0
  0
VERTEX
  5
D1
330
BE
100
AcDbEntity
  8
GRAU_10_
 62
     7
100
AcDbVertex
100
AcDb2dVertex
 10
79.38550752138626
 20
118.1361137942507
 30
0.0
  0
VERTEX
  5
D2
330
BE
100
AcDbEntity
  8
GRAU_10_
 62
     7
100
AcDbVertex
100
AcDb2dVertex
 10
79.39480927919644
 20
118.1347357560566
 30
0.0
  0
VERTEX
  5
D3
330
BE
100
AcDbEntity
  8
GRAU_10_
 62
     7
100
AcDbVertex
100
AcDb2dVertex
 10
79.40359427268383
 20
118.1340467369595
 30
0.0
  0
VERTEX
  5
D4
330
BE
100
AcDbEntity
  8
GRAU_10_
 62
     7
100
AcDbVertex
100
AcDb2dVertex
 10
79.42013073101303
 20
118.1323241892169
 30
0.0
  0
VERTEX
  5
D5
330
BE
100
AcDbEntity
  8
GRAU_10_
 62
     7
100
AcDbVertex
100
AcDb2dVertex
 10
79.4349446415996
 20
118.1300848771515
 30
0.0
  0
VERTEX
  5
D6
330
BE
100
AcDbEntity
  8
GRAU_10_
 62
     7
100
AcDbVertex
100
AcDb2dVertex
 10
79.44803600444355
 20
118.1290513485059
 30
0.0
  0
VERTEX
  5
D7
330
BE
100
AcDbEntity
  8
GRAU_10_
 62
     7
100
AcDbVertex
100
AcDb2dVertex
 10
79.46009383864192
 20
118.1276733103118
 30
0.0
  0
VERTEX
  5
D8
330
BE
100
AcDbEntity
  8
GRAU_10_
 62
     7
100
AcDbVertex
100
AcDb2dVertex
 10
79.4652614818698
 20
118.1266397816663
 30
0.0
  0
VERTEX
  5
D9
330
BE
100
AcDbEntity
  8
GRAU_10_
 62
     7
100
AcDbVertex
100
AcDb2dVertex
 10
79.46991236077488
 20
118.1261230173435
 30
0.0
  0
VERTEX
  5
DA
330
BE
100
AcDbEntity
  8
GRAU_10_
 62
     7
100
AcDbVertex
100
AcDb2dVertex
 10
79.47421873013145
 20
118.1257785077949
 30
0.0
  0
VERTEX
  5
DB
330
BE
100
AcDbEntity
  8
GRAU_10_
 62
     7
100
AcDbVertex
100
AcDb2dVertex
 10
79.47800833516523
 20
118.1247449791494
 30
0.0
  0
VERTEX
  5
DC
330
BE
100
AcDbEntity
  8
GRAU_10_
 62
     7
100
AcDbVertex
100
AcDb2dVertex
 10
79.48903264071802
 20
118.1240559600523
 30
0.0
  0
VERTEX
  5
DD
330
BE
100
AcDbEntity
  8
GRAU_10_
 62
     7
100
AcDbVertex
100
AcDb2dVertex
 10
79.49213322665474
 20
118.1230224314068
 30
0.0
  0
SEQEND
  5
DE
330
BE
100
AcDbEntity
  8
GRAU_10_
  0
POLYLINE
  5
DF
330
1F
100
AcDbEntity
  8
GRAU_10_
 62
     7
100
AcDb2dPolyline
 66
     1
 10
0.0
 20
0.0
 30
0.0
  0
VERTEX
  5
E0
330
DF
100
AcDbEntity
  8
GRAU_10_
 62
     7
100
AcDbVertex
100
AcDb2dVertex
 10
78.74213593951586
 20
124.9150281805768
 30
0.0
  0
VERTEX
  5
E1
330
DF
100
AcDbEntity
  8
GRAU_10_
 62
     7
100
AcDbVertex
100
AcDb2dVertex
 10
78.8158609829002
 20
124.9115830850916
 30
0.0
  0
VERTEX
  5
E2
330
DF
100
AcDbEntity
  8
GRAU_10_
 62
     7
100
AcDbVertex
100
AcDb2dVertex
 10
78.8888970071875
 20
124.9002142699902
 30
0.0
  0
VERTEX
  5
E3
330
DF
100
AcDbEntity
  8
GRAU_10_
 62
     7
100
AcDbVertex
100
AcDb2dVertex
 10
78.92455374545983
 20
124.8921182955999
 30
0.0
  0
VERTEX
  5
E4
330
DF
100
AcDbEntity
  8
GRAU_10_
 62
     7
100
AcDbVertex
100
AcDb2dVertex
 10
78.96021048373217
 20
124.8826442830155
 30
0.0
  0
VERTEX
  5
E5
330
DF
100
AcDbEntity
  8
GRAU_10_
 62
     7
100
AcDbVertex
100
AcDb2dVertex
 10
78.99535045768172
 20
124.8712754679141
 30
0.0
  0
VERTEX
  5
E6
330
DF
100
AcDbEntity
  8
GRAU_10_
 62
     7
100
AcDbVertex
100
AcDb2dVertex
 10
79.02962915775996
 20
124.8574950859731
 30
0.0
  0
VERTEX
  5
E7
330
DF
100
AcDbEntity
  8
GRAU_10_
 62
     7
100
AcDbVertex
100
AcDb2dVertex
 10
79.09629175539955
 20
124.8264892266059
 30
0.0
  0
VERTEX
  5
E8
330
DF
100
AcDbEntity
  8
GRAU_10_
 62
     7
100
AcDbVertex
100
AcDb2dVertex
 10
79.15916474800535
 20
124.7884209214939
 30
0.0
  0
VERTEX
  5
E9
330
DF
100
AcDbEntity
  8
GRAU_10_
 62
     7
100
AcDbVertex
100
AcDb2dVertex
 10
79.17432316814045
 20
124.7782578898124
 30
0.0
  0
VERTEX
  5
EA
330
DF
100
AcDbEntity
  8
GRAU_10_
 62
     7
100
AcDbVertex
100
AcDb2dVertex
 10
79.18913707872703
 20
124.7675780938081
 30
0.0
  0
VERTEX
  5
EB
330
DF
100
AcDbEntity
  8
GRAU_10_
 62
     7
100
AcDbVertex
100
AcDb2dVertex
 10
79.20360647976507
 20
124.7560370239325
 30
0.0
  0
VERTEX
  5
EC
330
DF
100
AcDbEntity
  8
GRAU_10_
 62
     7
100
AcDbVertex
100
AcDb2dVertex
 10
79.21842039035165
 20
124.7443236992827
 30
0.0
  0
VERTEX
  5
ED
330
DF
100
AcDbEntity
  8
GRAU_10_
 62
     7
100
AcDbVertex
100
AcDb2dVertex
 10
79.24580889945939
 20
124.7203802856602
 30
0.0
  0
VERTEX
  5
EE
330
DF
100
AcDbEntity
  8
GRAU_10_
 62
     7
100
AcDbVertex
100
AcDb2dVertex
 10
79.27268064424433
 20
124.6948865790693
 30
0.0
  0
VERTEX
  5
EF
330
DF
100
AcDbEntity
  8
GRAU_10_
 62
     7
100
AcDbVertex
100
AcDb2dVertex
 10
79.32177325490915
 20
124.6409708347252
 30
0.0
  0
VERTEX
  5
F0
330
DF
100
AcDbEntity
  8
GRAU_10_
 62
     7
100
AcDbVertex
100
AcDb2dVertex
 10
79.36552596757181
 20
124.5817151923789
 30
0.0
  0
VERTEX
  5
F1
330
DF
100
AcDbEntity
  8
GRAU_10_
 62
     7
100
AcDbVertex
100
AcDb2dVertex
 10
79.3756889992533
 20
124.5662122626953
 30
0.0
  0
VERTEX
  5
F2
330
DF
100
AcDbEntity
  8
GRAU_10_
 62
     7
100
AcDbVertex
100
AcDb2dVertex
 10
79.38550752138626
 20
124.5507093330116
 30
0.0
  0
VERTEX
  5
F3
330
DF
100
AcDbEntity
  8
GRAU_10_
 62
     7
100
AcDbVertex
100
AcDb2dVertex
 10
79.39480927919644
 20
124.5350341485537
 30
0.0
  0
VERTEX
  5
F4
330
DF
100
AcDbEntity
  8
GRAU_10_
 62
     7
100
AcDbVertex
100
AcDb2dVertex
 10
79.40359427268383
 20
124.5184976902245
 30
0.0
  0
VERTEX
  5
F5
330
DF
100
AcDbEntity
  8
GRAU_10_
 62
     7
100
AcDbVertex
100
AcDb2dVertex
 10
79.42013073101303
 20
124.4861137926632
 30
0.0
  0
VERTEX
  5
F6
330
DF
100
AcDbEntity
  8
GRAU_10_
 62
     7
100
AcDbVertex
100
AcDb2dVertex
 10
79.4349446415996
 20
124.4523518569078
 30
0.0
  0
VERTEX
  5
F7
330
DF
100
AcDbEntity
  8
GRAU_10_
 62
     7
100
AcDbVertex
100
AcDb2dVertex
 10
79.44803600444355
 20
124.418417666378
 30
0.0
  0
VERTEX
  5
F8
330
DF
100
AcDbEntity
  8
GRAU_10_
 62
     7
100
AcDbVertex
100
AcDb2dVertex
 10
79.46009383864192
 20
124.3831054376542
 30
0.0
  0
VERTEX
  5
F9
330
DF
100
AcDbEntity
  8
GRAU_10_
 62
     7
100
AcDbVertex
100
AcDb2dVertex
 10
79.46457246277275
 20
124.365879960228
 30
0.0
  0
VERTEX
  5
FA
330
DF
100
AcDbEntity
  8
GRAU_10_
 62
     7
100
AcDbVertex
100
AcDb2dVertex
 10
79.46991236077488
 20
124.3477932089304
 30
0.0
  0
VERTEX
  5
FB
330
DF
100
AcDbEntity
  8
GRAU_10_
 62
     7
100
AcDbVertex
100
AcDb2dVertex
 10
79.47421873013145
 20
124.3298787124071
 30
0.0
  0
VERTEX
  5
FC
330
DF
100
AcDbEntity
  8
GRAU_10_
 62
     7
100
AcDbVertex
100
AcDb2dVertex
 10
79.47800833516523
 20
124.311447451561
 30
0.0
  0
VERTEX
  5
FD
330
DF
100
AcDbEntity
  8
GRAU_10_
 62
     7
100
AcDbVertex
100
AcDb2dVertex
 10
79.48903264071802
 20
124.2387559368223
 30
0.0
  0
VERTEX
  5
FE
330
DF
100
AcDbEntity
  8
GRAU_10_
 62
     7
100
AcDbVertex
100
AcDb2dVertex
 10
79.49213322665474
 20
124.165719912535
 30
0.0
  0
VERTEX
  5
FF
330
DF
100
AcDbEntity
  8
GRAU_10_
 62
     7
100
AcDbVertex
100
AcDb2dVertex
 10
79.49144420755769
 20
124.1288573908428
 30
0.0
  0
VERTEX
  5
100
330
DF
100
AcDbEntity
  8
GRAU_10_
 62
     7
100
AcDbVertex
100
AcDb2dVertex
 10
79.48903264071802
 20
124.0916503596021
 30
0.0
  0
VERTEX
  5
101
330
DF
100
AcDbEntity
  8
GRAU_10_
 62
     7
100
AcDbVertex
100
AcDb2dVertex
 10
79.48679332865261
 20
124.0737358630788
 30
0.0
  0
VERTEX
  5
102
330
DF
100
AcDbEntity
  8
GRAU_10_
 62
     7
100
AcDbVertex
100
AcDb2dVertex
 10
79.48438176181294
 20
124.055476857007
 30
0.0
  0
VERTEX
  5
103
330
DF
100
AcDbEntity
  8
GRAU_10_
 62
     7
100
AcDbVertex
100
AcDb2dVertex
 10
79.48110892110195
 20
124.0367010866124
 30
0.0
  0
VERTEX
  5
104
330
DF
100
AcDbEntity
  8
GRAU_10_
 62
     7
100
AcDbVertex
100
AcDb2dVertex
 10
79.47800833516523
 20
124.0186143353148
 30
0.0
  0
VERTEX
  5
105
330
DF
100
AcDbEntity
  8
GRAU_10_
 62
     7
100
AcDbVertex
100
AcDb2dVertex
 10
79.46009383864192
 20
123.9474731135444
 30
0.0
  0
VERTEX
  5
106
330
DF
100
AcDbEntity
  8
GRAU_10_
 62
     7
100
AcDbVertex
100
AcDb2dVertex
 10
79.43528915114813
 20
123.8787434586137
 30
0.0
  0
VERTEX
  5
107
330
DF
100
AcDbEntity
  8
GRAU_10_
 62
     7
100
AcDbVertex
100
AcDb2dVertex
 10
79.42047524056156
 20
123.8448092680839
 30
0.0
  0
VERTEX
  5
108
330
DF
100
AcDbEntity
  8
GRAU_10_
 62
     7
100
AcDbVertex
100
AcDb2dVertex
 10
79.40359427268383
 20
123.8112195871028
 30
0.0
  0
VERTEX
  5
109
330
DF
100
AcDbEntity
  8
GRAU_10_
 62
     7
100
AcDbVertex
100
AcDb2dVertex
 10
79.38602428570906
 20
123.7795247086385
 30
0.0
  0
VERTEX
  5
10A
330
DF
100
AcDbEntity
  8
GRAU_10_
 62
     7
100
AcDbVertex
100
AcDb2dVertex
 10
79.36587047712034
 20
123.7485188492712
 30
0.0
  0
VERTEX
  5
10B
330
DF
100
AcDbEntity
  8
GRAU_10_
 62
     7
100
AcDbVertex
100
AcDb2dVertex
 10
79.32280678355473
 20
123.6896077164734
 30
0.0
  0
VERTEX
  5
10C
330
DF
100
AcDbEntity
  8
GRAU_10_
 62
     7
100
AcDbVertex
100
AcDb2dVertex
 10
79.27302515379286
 20
123.634830698258
 30
0.0
  0
VERTEX
  5
10D
330
DF
100
AcDbEntity
  8
GRAU_10_
 62
     7
100
AcDbVertex
100
AcDb2dVertex
 10
79.21842039035165
 20
123.5855658328189
 30
0.0
  0
VERTEX
  5
10E
330
DF
100
AcDbEntity
  8
GRAU_10_
 62
     7
100
AcDbVertex
100
AcDb2dVertex
 10
79.15950925755388
 20
123.5418131201562
 30
0.0
  0
VERTEX
  5
10F
330
DF
100
AcDbEntity
  8
GRAU_10_
 62
     7
100
AcDbVertex
100
AcDb2dVertex
 10
79.12884790773515
 20
123.5223483306646
 30
0.0
  0
VERTEX
  5
110
330
DF
100
AcDbEntity
  8
GRAU_10_
 62
     7
100
AcDbVertex
100
AcDb2dVertex
 10
79.09663626494806
 20
123.5039170698185
 30
0.0
  0
VERTEX
  5
111
330
DF
100
AcDbEntity
  8
GRAU_10_
 62
     7
100
AcDbVertex
100
AcDb2dVertex
 10
79.06356334828966
 20
123.4873806114893
 30
0.0
  0
VERTEX
  5
112
330
DF
100
AcDbEntity
  8
GRAU_10_
 62
     7
100
AcDbVertex
100
AcDb2dVertex
 10
79.02962915775996
 20
123.4722221913542
 30
0.0
  0
VERTEX
  5
113
330
DF
100
AcDbEntity
  8
GRAU_10_
 62
     7
100
AcDbVertex
100
AcDb2dVertex
 10
78.9605549932807
 20
123.4470729943119
 30
0.0
  0
VERTEX
  5
114
330
DF
100
AcDbEntity
  8
GRAU_10_
 62
     7
100
AcDbVertex
100
AcDb2dVertex
 10
78.88993053583307
 20
123.4295030073371
 30
0.0
  0
VERTEX
  5
115
330
DF
100
AcDbEntity
  8
GRAU_10_
 62
     7
100
AcDbVertex
100
AcDb2dVertex
 10
78.85324026891517
 20
123.4227850711408
 30
0.0
  0
VERTEX
  5
116
330
DF
100
AcDbEntity
  8
GRAU_10_
 62
     7
100
AcDbVertex
100
AcDb2dVertex
 10
78.81655000199726
 20
123.41830644701
 30
0.0
  0
VERTEX
  5
117
330
DF
100
AcDbEntity
  8
GRAU_10_
 62
     7
100
AcDbVertex
100
AcDb2dVertex
 10
78.77951522553082
 20
123.4160671349446
 30
0.0
  0
VERTEX
  5
118
330
DF
100
AcDbEntity
  8
GRAU_10_
 62
     7
100
AcDbVertex
100
AcDb2dVertex
 10
78.74213593951586
 20
123.4146890967505
 30
0.0
  0
SEQEND
  5
119
330
DF
100
AcDbEntity
  8
GRAU_10_
  0
POLYLINE
  5
11A
330
1F
100
AcDbEntity
  8
GRAU_10_
 62
     7
100
AcDb2dPolyline
 66
     1
 10
0.0
 20
0.0
 30
0.0
  0
VERTEX
  5
11B
330
11A
100
AcDbEntity
  8
GRAU_10_
 62
     7
100
AcDbVertex
100
AcDb2dVertex
 10
79.48972165981507
 20
130.1234957899518
 30
0.0
  0
VERTEX
  5
11C
330
11A
100
AcDbEntity
  8
GRAU_10_
 62
     7
100
AcDbVertex
100
AcDb2dVertex
 10
79.43528915114813
 20
130.1188449110467
 30
0.0
  0
VERTEX
  5
11D
330
11A
100
AcDbEntity
  8
GRAU_10_
 62
     7
100
AcDbVertex
100
AcDb2dVertex
 10
79.36621498666887
 20
130.1133327582703
 30
0.0
  0
VERTEX
  5
11E
330
11A
100
AcDbEntity
  8
GRAU_10_
 62
     7
100
AcDbVertex
100
AcDb2dVertex
 10
79.27302515379286
 20
130.1050645291057
 30
0.0
  0
VERTEX
  5
11F
330
11A
100
AcDbEntity
  8
GRAU_10_
 62
     7
100
AcDbVertex
100
AcDb2dVertex
 10
79.02962915775996
 20
130.0899061089706
 30
0.0
  0
VERTEX
  5
120
330
11A
100
AcDbEntity
  8
GRAU_10_
 62
     7
100
AcDbVertex
100
AcDb2dVertex
 10
78.74213593951586
 20
130.0837049370971
 30
0.0
  0
SEQEND
  5
121
330
11A
100
AcDbEntity
  8
GRAU_10_
  0
POLYLINE
  5
122
330
1F
100
AcDbEntity
  8
GRAU_10_
 62
     7
100
AcDb2dPolyline
 66
     1
 10
0.0
 20
0.0
 30
0.0
  0
VERTEX
  5
123
330
122
100
AcDbEntity
  8
GRAU_10_
 62
     7
100
AcDbVertex
100
AcDb2dVertex
 10
157.061214153443
 20
116.819915064111
 30
0.0
  0
VERTEX
  5
124
330
122
100
AcDbEntity
  8
GRAU_10_
 62
     7
100
AcDbVertex
100
AcDb2dVertex
 10
157.061214153443
 20
119.194791636868
 30
0.0
  0
SEQEND
  5
125
330
122
100
AcDbEntity
  8
GRAU_10_
  0
POLYLINE
  5
126
330
1F
100
AcDbEntity
  8
GRAU_10_
 62
     7
100
AcDb2dPolyline
 66
     1
 10
0.0
 20
0.0
 30
0.0
  0
VERTEX
  5
127
330
126
100
AcDbEntity
  8
GRAU_10_
 62
     7
100
AcDbVertex
100
AcDb2dVertex
 10
163.6191256643904
 20
123.4146890967505
 30
0.0
  0
VERTEX
  5
128
330
126
100
AcDbEntity
  8
GRAU_10_
 62
     7
100
AcDbVertex
100
AcDb2dVertex
 10
161.1689737552807
 20
123.4146890967505
 30
0.0
  0
SEQEND
  5
129
330
126
100
AcDbEntity
  8
GRAU_10_
  0
POLYLINE
  5
12A
330
1F
100
AcDbEntity
  8
GRAU_10_
 62
     7
100
AcDb2dPolyline
 66
     1
 10
0.0
 20
0.0
 30
0.0
  0
VERTEX
  5
12B
330
12A
100
AcDbEntity
  8
GRAU_10_
 62
     7
100
AcDbVertex
100
AcDb2dVertex
 10
155.5612195791653
 20
116.819915064111
 30
0.0
  0
VERTEX
  5
12C
330
12A
100
AcDbEntity
  8
GRAU_10_
 62
     7
100
AcDbVertex
100
AcDb2dVertex
 10
155.5612195791653
 20
119.1668863634375
 30
0.0
  0
SEQEND
  5
12D
330
12A
100
AcDbEntity
  8
GRAU_10_
  0
POLYLINE
  5
12E
330
1F
100
AcDbEntity
  8
GRAU_10_
 62
     7
100
AcDb2dPolyline
 66
     1
 10
0.0
 20
0.0
 30
0.0
  0
VERTEX
  5
12F
330
12E
100
AcDbEntity
  8
GRAU_10_
 62
     7
100
AcDbVertex
100
AcDb2dVertex
 10
149.0101982591884
 20
123.3530218875645
 30
0.0
  0
VERTEX
  5
130
330
12E
100
AcDbEntity
  8
GRAU_10_
 62
     7
100
AcDbVertex
100
AcDb2dVertex
 10
151.2789658909997
 20
123.3530218875645
 30
0.0
  0
SEQEND
  5
131
330
12E
100
AcDbEntity
  8
GRAU_10_
  0
POLYLINE
  5
132
330
1F
100
AcDbEntity
  8
GRAU_10_
 62
     7
100
AcDb2dPolyline
 66
     1
 10
0.0
 20
0.0
 30
0.0
  0
VERTEX
  5
133
330
132
100
AcDbEntity
  8
GRAU_10_
 62
     7
100
AcDbVertex
100
AcDb2dVertex
 10
156.9995469442571
 20
131.4333210934438
 30
0.0
  0
VERTEX
  5
134
330
132
100
AcDbEntity
  8
GRAU_10_
 62
     7
100
AcDbVertex
100
AcDb2dVertex
 10
156.9995469442571
 20
129.0622341257206
 30
0.0
  0
SEQEND
  5
135
330
132
100
AcDbEntity
  8
GRAU_10_
  0
POLYLINE
  5
136
330
1F
100
AcDbEntity
  8
GRAU_10_
 62
     7
100
AcDb2dPolyline
 66
     1
 10
0.0
 20
0.0
 30
0.0
  0
VERTEX
  5
137
330
136
100
AcDbEntity
  8
GRAU_10_
 62
     7
100
AcDbVertex
100
AcDb2dVertex
 10
163.6105129256772
 20
124.9150281805768
 30
0.0
  0
VERTEX
  5
138
330
136
100
AcDbEntity
  8
GRAU_10_
 62
     7
100
AcDbVertex
100
AcDb2dVertex
 10
161.156743666308
 20
124.9150281805768
 30
0.0
  0
SEQEND
  5
139
330
136
100
AcDbEntity
  8
GRAU_10_
  0
POLYLINE
  5
13A
330
1F
100
AcDbEntity
  8
GRAU_10_
 62
     7
100
AcDb2dPolyline
 66
     1
 10
0.0
 20
0.0
 30
0.0
  0
VERTEX
  5
13B
330
13A
100
AcDbEntity
  8
GRAU_10_
 62
     7
100
AcDbVertex
100
AcDb2dVertex
 10
149.0058918898319
 20
124.8526719522938
 30
0.0
  0
VERTEX
  5
13C
330
13A
100
AcDbEntity
  8
GRAU_10_
 62
     7
100
AcDbVertex
100
AcDb2dVertex
 10
151.2729369739005
 20
124.8526719522938
 30
0.0
  0
SEQEND
  5
13D
330
13A
100
AcDbEntity
  8
GRAU_10_
  0
POLYLINE
  5
13E
330
1F
100
AcDbEntity
  8
GRAU_10_
 62
     7
100
AcDb2dPolyline
 66
     1
 10
0.0
 20
0.0
 30
0.0
  0
VERTEX
  5
13F
330
13E
100
AcDbEntity
  8
GRAU_10_
 62
     7
100
AcDbVertex
100
AcDb2dVertex
 10
155.4995523699793
 20
131.4200574758256
 30
0.0
  0
VERTEX
  5
140
330
13E
100
AcDbEntity
  8
GRAU_10_
 62
     7
100
AcDbVertex
100
AcDb2dVertex
 10
155.4995523699793
 20
129.0711913739822
 30
0.0
  0
SEQEND
  5
141
330
13E
100
AcDbEntity
  8
GRAU_10_
  0
SPLINE
  5
142
330
1F
100
AcDbEntity
  8
GRAU_10_
 62
     7
100
AcDbSpline
210
0.0
220
0.0
230
1.0
 70
     8
 71
     3
 72
     8
 73
     4
 74
     0
 42
0.0000000001
 43
0.0000000001
 40
0.0
 40
0.0
 40
0.0
 40
0.0
 40
1.0
 40
1.0
 40
1.0
 40
1.0
 10
157.061214153443
 20
116.819915064111
 30
0.0
 10
160.5841687966595
 20
117.181477835288
 30
0.0
 10
163.2680704344434
 20
119.9775173311167
 30
0.0
 10
163.6191256643904
 20
123.4146890967505
 30
0.0
  0
SPLINE
  5
143
330
1F
100
AcDbEntity
  8
GRAU_10_
 62
     7
100
AcDbSpline
210
0.0
220
0.0
230
1.0
 70
     8
 71
     3
 72
     8
 73
     4
 74
     0
 42
0.0000000001
 43
0.0000000001
 40
0.0
 40
0.0
 40
0.0
 40
0.0
 40
1.0
 40
1.0
 40
1.0
 40
1.0
 10
157.061214153443
 20
119.194791636868
 30
0.0
 10
159.2435098885746
 20
119.5677232231463
 30
0.0
 10
160.852197225412
 20
121.3026733095181
 30
0.0
 10
161.1689737552807
 20
123.4146890967505
 30
0.0
  0
SPLINE
  5
144
330
1F
100
AcDbEntity
  8
GRAU_10_
 62
     7
100
AcDbSpline
210
0.0
220
0.0
230
1.0
 70
     8
 71
     3
 72
     8
 73
     4
 74
     0
 42
0.0000000001
 43
0.0000000001
 40
0.0
 40
0.0
 40
0.0
 40
0.0
 40
1.0
 40
1.0
 40
1.0
 40
1.0
 10
149.0101982591884
 20
123.3530218875645
 30
0.0
 10
149.3791679856587
 20
119.8528048745507
 30
0.0
 10
152.1505750487679
 20
117.1881957714842
 30
0.0
 10
155.5612195791653
 20
116.819915064111
 30
0.0
  0
SPLINE
  5
145
330
1F
100
AcDbEntity
  8
GRAU_10_
 62
     7
100
AcDbSpline
210
0.0
220
0.0
230
1.0
 70
     8
 71
     3
 72
     8
 73
     4
 74
     0
 42
0.0000000001
 43
0.0000000001
 40
0.0
 40
0.0
 40
0.0
 40
0.0
 40
1.0
 40
1.0
 40
1.0
 40
1.0
 10
151.2789658909997
 20
123.3530218875645
 30
0.0
 10
151.6270927897842
 20
121.1226670704138
 30
0.0
 10
153.399422162171
 20
119.467815454074
 30
0.0
 10
155.5612195791653
 20
119.1668863634375
 30
0.0
  0
SPLINE
  5
146
330
1F
100
AcDbEntity
  8
GRAU_10_
 62
     7
100
AcDbSpline
210
0.0
220
0.0
230
1.0
 70
     8
 71
     3
 72
     8
 73
     4
 74
     0
 42
0.0000000001
 43
0.0000000001
 40
0.0
 40
0.0
 40
0.0
 40
0.0
 40
1.0
 40
1.0
 40
1.0
 40
1.0
 10
163.6105129256772
 20
124.9150281805768
 30
0.0
 10
163.2293131102344
 20
128.4279920468861
 30
0.0
 10
160.4296562641461
 20
131.092256640404
 30
0.0
 10
156.9995469442571
 20
131.4333210934438
 30
0.0
  0
SPLINE
  5
147
330
1F
100
AcDbEntity
  8
GRAU_10_
 62
     7
100
AcDbSpline
210
0.0
220
0.0
230
1.0
 70
     8
 71
     3
 72
     8
 73
     4
 74
     0
 42
0.0000000001
 43
0.0000000001
 40
0.0
 40
0.0
 40
0.0
 40
0.0
 40
1.0
 40
1.0
 40
1.0
 40
1.0
 10
161.156743666308
 20
124.9150281805768
 30
0.0
 10
160.8070664745552
 20
127.0935343106745
 30
0.0
 10
159.0993326425168
 20
128.7163465390015
 30
0.0
 10
156.9995469442571
 20
129.0622341257206
 30
0.0
  0
SPLINE
  5
148
330
1F
100
AcDbEntity
  8
GRAU_10_
 62
     7
100
AcDbSpline
210
0.0
220
0.0
230
1.0
 70
     8
 71
     3
 72
     8
 73
     4
 74
     0
 42
0.0000000001
 43
0.0000000001
 40
0.0
 40
0.0
 40
0.0
 40
0.0
 40
1.0
 40
1.0
 40
1.0
 40
1.0
 10
155.4995523699793
 20
131.4200574758256
 30
0.0
 10
152.0088093695499
 20
131.0314507050894
 30
0.0
 10
149.3640095655236
 20
128.2565985464949
 30
0.0
 10
149.0058918898319
 20
124.8526719522938
 30
0.0
  0
SPLINE
  5
149
330
1F
100
AcDbEntity
  8
GRAU_10_
 62
     7
100
AcDbSpline
210
0.0
220
0.0
230
1.0
 70
     8
 71
     3
 72
     8
 73
     4
 74
     0
 42
0.0000000001
 43
0.0000000001
 40
0.0
 40
0.0
 40
0.0
 40
0.0
 40
1.0
 40
1.0
 40
1.0
 40
1.0
 10
155.4995523699793
 20
129.0711913739822
 30
0.0
 10
153.2731594126366
 20
128.7470078888202
 30
0.0
 10
151.6041829048073
 20
127.0027560446382
 30
0.0
 10
151.2729369739005
 20
124.8526719522938
 30
0.0
  0
POLYLINE
  5
14A
330
1F
100
AcDbEntity
  8
GRAU_10_
 62
     7
100
AcDb2dPolyline
 66
     1
 10
0.0
 20
0.0
 30
0.0
  0
VERTEX
  5
14B
330
14A
100
AcDbEntity
  8
GRAU_10_
 62
     7
100
AcDbVertex
100
AcDb2dVertex
 10
157.061214153443
 20
118.1702202395547
 30
0.0
  0
VERTEX
  5
14C
330
14A
100
AcDbEntity
  8
GRAU_10_
 62
     7
100
AcDbVertex
100
AcDb2dVertex
 10
157.0574245484093
 20
118.1698757300062
 30
0.0
  0
VERTEX
  5
14D
330
14A
100
AcDbEntity
  8
GRAU_10_
 62
     7
100
AcDbVertex
100
AcDb2dVertex
 10
157.0470892619535
 20
118.168497691812
 30
0.0
  0
VERTEX
  5
14E
330
14A
100
AcDbEntity
  8
GRAU_10_
 62
     7
100
AcDbVertex
100
AcDb2dVertex
 10
157.0386487780146
 20
118.167808672715
 30
0.0
  0
VERTEX
  5
14F
330
14A
100
AcDbEntity
  8
GRAU_10_
 62
     7
100
AcDbVertex
100
AcDb2dVertex
 10
157.0291747654302
 20
118.1667751440694
 30
0.0
  0
VERTEX
  5
150
330
14A
100
AcDbEntity
  8
GRAU_10_
 62
     7
100
AcDbVertex
100
AcDb2dVertex
 10
157.0171169312318
 20
118.1650525963268
 30
0.0
  0
VERTEX
  5
151
330
14A
100
AcDbEntity
  8
GRAU_10_
 62
     7
100
AcDbVertex
100
AcDb2dVertex
 10
157.0036810588394
 20
118.1633300485842
 30
0.0
  0
VERTEX
  5
152
330
14A
100
AcDbEntity
  8
GRAU_10_
 62
     7
100
AcDbVertex
100
AcDb2dVertex
 10
156.9723306899236
 20
118.1600572078732
 30
0.0
  0
VERTEX
  5
153
330
14A
100
AcDbEntity
  8
GRAU_10_
 62
     7
100
AcDbVertex
100
AcDb2dVertex
 10
156.9349514039086
 20
118.1554063289681
 30
0.0
  0
VERTEX
  5
154
330
14A
100
AcDbEntity
  8
GRAU_10_
 62
     7
100
AcDbVertex
100
AcDb2dVertex
 10
156.9247883722271
 20
118.154717309871
 30
0.0
  0
VERTEX
  5
155
330
14A
100
AcDbEntity
  8
GRAU_10_
 62
     7
100
AcDbVertex
100
AcDb2dVertex
 10
156.9137640666743
 20
118.1533392716769
 30
0.0
  0
VERTEX
  5
156
330
14A
100
AcDbEntity
  8
GRAU_10_
 62
     7
100
AcDbVertex
100
AcDb2dVertex
 10
156.9029120158958
 20
118.1526502525799
 30
0.0
  0
VERTEX
  5
157
330
14A
100
AcDbEntity
  8
GRAU_10_
 62
     7
100
AcDbVertex
100
AcDb2dVertex
 10
156.8908541816974
 20
118.1516167239343
 30
0.0
  0
VERTEX
  5
158
330
14A
100
AcDbEntity
  8
GRAU_10_
 62
     7
100
AcDbVertex
100
AcDb2dVertex
 10
156.8672552776235
 20
118.1488606475461
 30
0.0
  0
VERTEX
  5
159
330
14A
100
AcDbEntity
  8
GRAU_10_
 62
     7
100
AcDbVertex
100
AcDb2dVertex
 10
156.8417615710326
 20
118.146793590255
 30
0.0
  0
VERTEX
  5
15A
330
14A
100
AcDbEntity
  8
GRAU_10_
 62
     7
100
AcDbVertex
100
AcDb2dVertex
 10
156.7875013171399
 20
118.1424872208984
 30
0.0
  0
VERTEX
  5
15B
330
14A
100
AcDbEntity
  8
GRAU_10_
 62
     7
100
AcDbVertex
100
AcDb2dVertex
 10
156.7282456747936
 20
118.1378363419933
 30
0.0
  0
VERTEX
  5
15C
330
14A
100
AcDbEntity
  8
GRAU_10_
 62
     7
100
AcDbVertex
100
AcDb2dVertex
 10
156.71274274511
 20
118.1364583037992
 30
0.0
  0
VERTEX
  5
15D
330
14A
100
AcDbEntity
  8
GRAU_10_
 62
     7
100
AcDbVertex
100
AcDb2dVertex
 10
156.6968953058779
 20
118.1361137942507
 30
0.0
  0
VERTEX
  5
15E
330
14A
100
AcDbEntity
  8
GRAU_10_
 62
     7
100
AcDbVertex
100
AcDb2dVertex
 10
156.6813923761943
 20
118.1347357560566
 30
0.0
  0
VERTEX
  5
15F
330
14A
100
AcDbEntity
  8
GRAU_10_
 62
     7
100
AcDbVertex
100
AcDb2dVertex
 10
156.6646836630908
 20
118.1340467369595
 30
0.0
  0
VERTEX
  5
160
330
14A
100
AcDbEntity
  8
GRAU_10_
 62
     7
100
AcDbVertex
100
AcDb2dVertex
 10
156.6322997655294
 20
118.1323241892169
 30
0.0
  0
VERTEX
  5
161
330
14A
100
AcDbEntity
  8
GRAU_10_
 62
     7
100
AcDbVertex
100
AcDb2dVertex
 10
156.5983655749997
 20
118.1300848771515
 30
0.0
  0
VERTEX
  5
162
330
14A
100
AcDbEntity
  8
GRAU_10_
 62
     7
100
AcDbVertex
100
AcDb2dVertex
 10
156.5646036392443
 20
118.1290513485059
 30
0.0
  0
VERTEX
  5
163
330
14A
100
AcDbEntity
  8
GRAU_10_
 62
     7
100
AcDbVertex
100
AcDb2dVertex
 10
156.529635920069
 20
118.1276733103118
 30
0.0
  0
VERTEX
  5
164
330
14A
100
AcDbEntity
  8
GRAU_10_
 62
     7
100
AcDbVertex
100
AcDb2dVertex
 10
156.5120659330942
 20
118.1266397816663
 30
0.0
  0
VERTEX
  5
165
330
14A
100
AcDbEntity
  8
GRAU_10_
 62
     7
100
AcDbVertex
100
AcDb2dVertex
 10
156.4939791817966
 20
118.1261230173435
 30
0.0
  0
VERTEX
  5
166
330
14A
100
AcDbEntity
  8
GRAU_10_
 62
     7
100
AcDbVertex
100
AcDb2dVertex
 10
156.4764091948219
 20
118.1257785077949
 30
0.0
  0
VERTEX
  5
167
330
14A
100
AcDbEntity
  8
GRAU_10_
 62
     7
100
AcDbVertex
100
AcDb2dVertex
 10
156.4576334244273
 20
118.1247449791494
 30
0.0
  0
VERTEX
  5
168
330
14A
100
AcDbEntity
  8
GRAU_10_
 62
     7
100
AcDbVertex
100
AcDb2dVertex
 10
156.385286419237
 20
118.1240559600523
 30
0.0
  0
VERTEX
  5
169
330
14A
100
AcDbEntity
  8
GRAU_10_
 62
     7
100
AcDbVertex
100
AcDb2dVertex
 10
156.3115613758527
 20
118.1230224314068
 30
0.0
  0
VERTEX
  5
16A
330
14A
100
AcDbEntity
  8
GRAU_10_
 62
     7
100
AcDbVertex
100
AcDb2dVertex
 10
156.2752156184833
 20
118.1237114505038
 30
0.0
  0
VERTEX
  5
16B
330
14A
100
AcDbEntity
  8
GRAU_10_
 62
     7
100
AcDbVertex
100
AcDb2dVertex
 10
156.2378363324683
 20
118.1240559600523
 30
0.0
  0
VERTEX
  5
16C
330
14A
100
AcDbEntity
  8
GRAU_10_
 62
     7
100
AcDbVertex
100
AcDb2dVertex
 10
156.2195773263965
 20
118.1240559600523
 30
0.0
  0
VERTEX
  5
16D
330
14A
100
AcDbEntity
  8
GRAU_10_
 62
     7
100
AcDbVertex
100
AcDb2dVertex
 10
156.2014905750989
 20
118.1244004696008
 30
0.0
  0
VERTEX
  5
16E
330
14A
100
AcDbEntity
  8
GRAU_10_
 62
     7
100
AcDbVertex
100
AcDb2dVertex
 10
156.1828870594786
 20
118.1244004696008
 30
0.0
  0
VERTEX
  5
16F
330
14A
100
AcDbEntity
  8
GRAU_10_
 62
     7
100
AcDbVertex
100
AcDb2dVertex
 10
156.1651448177296
 20
118.1247449791494
 30
0.0
  0
VERTEX
  5
170
330
14A
100
AcDbEntity
  8
GRAU_10_
 62
     7
100
AcDbVertex
100
AcDb2dVertex
 10
156.0940035959592
 20
118.1276733103118
 30
0.0
  0
VERTEX
  5
171
330
14A
100
AcDbEntity
  8
GRAU_10_
 62
     7
100
AcDbVertex
100
AcDb2dVertex
 10
156.0244126671571
 20
118.1300848771515
 30
0.0
  0
VERTEX
  5
172
330
14A
100
AcDbEntity
  8
GRAU_10_
 62
     7
100
AcDbVertex
100
AcDb2dVertex
 10
155.9906507314016
 20
118.1323241892169
 30
0.0
  0
VERTEX
  5
173
330
14A
100
AcDbEntity
  8
GRAU_10_
 62
     7
100
AcDbVertex
100
AcDb2dVertex
 10
155.958094579066
 20
118.1340467369595
 30
0.0
  0
VERTEX
  5
174
330
14A
100
AcDbEntity
  8
GRAU_10_
 62
     7
100
AcDbVertex
100
AcDb2dVertex
 10
155.9260551910532
 20
118.1357692847022
 30
0.0
  0
VERTEX
  5
175
330
14A
100
AcDbEntity
  8
GRAU_10_
 62
     7
100
AcDbVertex
100
AcDb2dVertex
 10
155.8947048221374
 20
118.1378363419933
 30
0.0
  0
VERTEX
  5
176
330
14A
100
AcDbEntity
  8
GRAU_10_
 62
     7
100
AcDbVertex
100
AcDb2dVertex
 10
155.8361381988882
 20
118.1424872208984
 30
0.0
  0
VERTEX
  5
177
330
14A
100
AcDbEntity
  8
GRAU_10_
 62
     7
100
AcDbVertex
100
AcDb2dVertex
 10
155.7810166711242
 20
118.146793590255
 30
0.0
  0
VERTEX
  5
178
330
14A
100
AcDbEntity
  8
GRAU_10_
 62
     7
100
AcDbVertex
100
AcDb2dVertex
 10
155.7315795509109
 20
118.1516167239343
 30
0.0
  0
VERTEX
  5
179
330
14A
100
AcDbEntity
  8
GRAU_10_
 62
     7
100
AcDbVertex
100
AcDb2dVertex
 10
155.6881713477967
 20
118.1554063289681
 30
0.0
  0
VERTEX
  5
17A
330
14A
100
AcDbEntity
  8
GRAU_10_
 62
     7
100
AcDbVertex
100
AcDb2dVertex
 10
155.6688788130793
 20
118.157990150582
 30
0.0
  0
VERTEX
  5
17B
330
14A
100
AcDbEntity
  8
GRAU_10_
 62
     7
100
AcDbVertex
100
AcDb2dVertex
 10
155.6501030426847
 20
118.1600572078732
 30
0.0
  0
VERTEX
  5
17C
330
14A
100
AcDbEntity
  8
GRAU_10_
 62
     7
100
AcDbVertex
100
AcDb2dVertex
 10
155.6335665843555
 20
118.1619520103901
 30
0.0
  0
VERTEX
  5
17D
330
14A
100
AcDbEntity
  8
GRAU_10_
 62
     7
100
AcDbVertex
100
AcDb2dVertex
 10
155.6187526737689
 20
118.1633300485842
 30
0.0
  0
VERTEX
  5
17E
330
14A
100
AcDbEntity
  8
GRAU_10_
 62
     7
100
AcDbVertex
100
AcDb2dVertex
 10
155.5937757315009
 20
118.1664306345209
 30
0.0
  0
VERTEX
  5
17F
330
14A
100
AcDbEntity
  8
GRAU_10_
 62
     7
100
AcDbVertex
100
AcDb2dVertex
 10
155.5756889802033
 20
118.168497691812
 30
0.0
  0
VERTEX
  5
180
330
14A
100
AcDbEntity
  8
GRAU_10_
 62
     7
100
AcDbVertex
100
AcDb2dVertex
 10
155.5696600631041
 20
118.1695312204576
 30
0.0
  0
VERTEX
  5
181
330
14A
100
AcDbEntity
  8
GRAU_10_
 62
     7
100
AcDbVertex
100
AcDb2dVertex
 10
155.5648369294248
 20
118.1698757300062
 30
0.0
  0
VERTEX
  5
182
330
14A
100
AcDbEntity
  8
GRAU_10_
 62
     7
100
AcDbVertex
100
AcDb2dVertex
 10
155.5619085982623
 20
118.1702202395547
 30
0.0
  0
VERTEX
  5
183
330
14A
100
AcDbEntity
  8
GRAU_10_
 62
     7
100
AcDbVertex
100
AcDb2dVertex
 10
155.5612195791653
 20
118.1702202395547
 30
0.0
  0
SEQEND
  5
184
330
14A
100
AcDbEntity
  8
GRAU_10_
  0
POLYLINE
  5
185
330
1F
100
AcDbEntity
  8
GRAU_10_
 62
     7
100
AcDb2dPolyline
 66
     1
 10
0.0
 20
0.0
 30
0.0
  0
VERTEX
  5
186
330
185
100
AcDbEntity
  8
GRAU_10_
 62
     7
100
AcDbVertex
100
AcDb2dVertex
 10
155.5612195791653
 20
119.1668863634375
 30
0.0
  0
VERTEX
  5
187
330
185
100
AcDbEntity
  8
GRAU_10_
 62
     7
100
AcDbVertex
100
AcDb2dVertex
 10
155.5648369294248
 20
119.1661973443404
 30
0.0
  0
VERTEX
  5
188
330
185
100
AcDbEntity
  8
GRAU_10_
 62
     7
100
AcDbVertex
100
AcDb2dVertex
 10
155.5756889802033
 20
119.1651638156948
 30
0.0
  0
VERTEX
  5
189
330
185
100
AcDbEntity
  8
GRAU_10_
 62
     7
100
AcDbVertex
100
AcDb2dVertex
 10
155.5834404450451
 20
119.1641302870492
 30
0.0
  0
VERTEX
  5
18A
330
185
100
AcDbEntity
  8
GRAU_10_
 62
     7
100
AcDbVertex
100
AcDb2dVertex
 10
155.5934312219524
 20
119.1624077393066
 30
0.0
  0
VERTEX
  5
18B
330
185
100
AcDbEntity
  8
GRAU_10_
 62
     7
100
AcDbVertex
100
AcDb2dVertex
 10
155.6053168013765
 20
119.1610297011125
 30
0.0
  0
VERTEX
  5
18C
330
185
100
AcDbEntity
  8
GRAU_10_
 62
     7
100
AcDbVertex
100
AcDb2dVertex
 10
155.6187526737689
 20
119.1594794081442
 30
0.0
  0
VERTEX
  5
18D
330
185
100
AcDbEntity
  8
GRAU_10_
 62
     7
100
AcDbVertex
100
AcDb2dVertex
 10
155.6501030426847
 20
119.1556898031104
 30
0.0
  0
VERTEX
  5
18E
330
185
100
AcDbEntity
  8
GRAU_10_
 62
     7
100
AcDbVertex
100
AcDb2dVertex
 10
155.6874823286997
 20
119.1517279433023
 30
0.0
  0
VERTEX
  5
18F
330
185
100
AcDbEntity
  8
GRAU_10_
 62
     7
100
AcDbVertex
100
AcDb2dVertex
 10
155.6978176151554
 20
119.1506944146568
 30
0.0
  0
VERTEX
  5
190
330
185
100
AcDbEntity
  8
GRAU_10_
 62
     7
100
AcDbVertex
100
AcDb2dVertex
 10
155.7086696659339
 20
119.1493163764627
 30
0.0
  0
VERTEX
  5
191
330
185
100
AcDbEntity
  8
GRAU_10_
 62
     7
100
AcDbVertex
100
AcDb2dVertex
 10
155.7200384810353
 20
119.1486273573656
 30
0.0
  0
VERTEX
  5
192
330
185
100
AcDbEntity
  8
GRAU_10_
 62
     7
100
AcDbVertex
100
AcDb2dVertex
 10
155.7315795509109
 20
119.1472493191715
 30
0.0
  0
VERTEX
  5
193
330
185
100
AcDbEntity
  8
GRAU_10_
 62
     7
100
AcDbVertex
100
AcDb2dVertex
 10
155.7556952193076
 20
119.1450100071061
 30
0.0
  0
VERTEX
  5
194
330
185
100
AcDbEntity
  8
GRAU_10_
 62
     7
100
AcDbVertex
100
AcDb2dVertex
 10
155.7810166711242
 20
119.1425984402664
 30
0.0
  0
VERTEX
  5
195
330
185
100
AcDbEntity
  8
GRAU_10_
 62
     7
100
AcDbVertex
100
AcDb2dVertex
 10
155.8352769250169
 20
119.1382920709099
 30
0.0
  0
VERTEX
  5
196
330
185
100
AcDbEntity
  8
GRAU_10_
 62
     7
100
AcDbVertex
100
AcDb2dVertex
 10
155.8947048221374
 20
119.1338134467791
 30
0.0
  0
VERTEX
  5
197
330
185
100
AcDbEntity
  8
GRAU_10_
 62
     7
100
AcDbVertex
100
AcDb2dVertex
 10
155.9098632422725
 20
119.133124427682
 30
0.0
  0
VERTEX
  5
198
330
185
100
AcDbEntity
  8
GRAU_10_
 62
     7
100
AcDbVertex
100
AcDb2dVertex
 10
155.9260551910532
 20
119.1320908990364
 30
0.0
  0
VERTEX
  5
199
330
185
100
AcDbEntity
  8
GRAU_10_
 62
     7
100
AcDbVertex
100
AcDb2dVertex
 10
155.9419026302854
 20
119.1314018799394
 30
0.0
  0
VERTEX
  5
19A
330
185
100
AcDbEntity
  8
GRAU_10_
 62
     7
100
AcDbVertex
100
AcDb2dVertex
 10
155.958094579066
 20
119.1301960965195
 30
0.0
  0
VERTEX
  5
19B
330
185
100
AcDbEntity
  8
GRAU_10_
 62
     7
100
AcDbVertex
100
AcDb2dVertex
 10
155.9906507314016
 20
119.1284735487769
 30
0.0
  0
VERTEX
  5
19C
330
185
100
AcDbEntity
  8
GRAU_10_
 62
     7
100
AcDbVertex
100
AcDb2dVertex
 10
156.0244126671571
 20
119.1270955105828
 30
0.0
  0
VERTEX
  5
19D
330
185
100
AcDbEntity
  8
GRAU_10_
 62
     7
100
AcDbVertex
100
AcDb2dVertex
 10
156.0583468576868
 20
119.1255452176145
 30
0.0
  0
VERTEX
  5
19E
330
185
100
AcDbEntity
  8
GRAU_10_
 62
     7
100
AcDbVertex
100
AcDb2dVertex
 10
156.0936590864106
 20
119.1248561985174
 30
0.0
  0
VERTEX
  5
19F
330
185
100
AcDbEntity
  8
GRAU_10_
 62
     7
100
AcDbVertex
100
AcDb2dVertex
 10
156.1108845638369
 20
119.1245116889689
 30
0.0
  0
VERTEX
  5
1A0
330
185
100
AcDbEntity
  8
GRAU_10_
 62
     7
100
AcDbVertex
100
AcDb2dVertex
 10
156.1291435699087
 20
119.1238226698718
 30
0.0
  0
VERTEX
  5
1A1
330
185
100
AcDbEntity
  8
GRAU_10_
 62
     7
100
AcDbVertex
100
AcDb2dVertex
 10
156.1472303212063
 20
119.1238226698718
 30
0.0
  0
VERTEX
  5
1A2
330
185
100
AcDbEntity
  8
GRAU_10_
 62
     7
100
AcDbVertex
100
AcDb2dVertex
 10
156.1651448177296
 20
119.1234781603233
 30
0.0
  0
VERTEX
  5
1A3
330
185
100
AcDbEntity
  8
GRAU_10_
 62
     7
100
AcDbVertex
100
AcDb2dVertex
 10
156.2378363324683
 20
119.1234781603233
 30
0.0
  0
VERTEX
  5
1A4
330
185
100
AcDbEntity
  8
GRAU_10_
 62
     7
100
AcDbVertex
100
AcDb2dVertex
 10
156.3115613758527
 20
119.1238226698718
 30
0.0
  0
VERTEX
  5
1A5
330
185
100
AcDbEntity
  8
GRAU_10_
 62
     7
100
AcDbVertex
100
AcDb2dVertex
 10
156.3482516427706
 20
119.1248561985174
 30
0.0
  0
VERTEX
  5
1A6
330
185
100
AcDbEntity
  8
GRAU_10_
 62
     7
100
AcDbVertex
100
AcDb2dVertex
 10
156.385286419237
 20
119.1264064914858
 30
0.0
  0
VERTEX
  5
1A7
330
185
100
AcDbEntity
  8
GRAU_10_
 62
     7
100
AcDbVertex
100
AcDb2dVertex
 10
156.4033731705346
 20
119.1267510010343
 30
0.0
  0
VERTEX
  5
1A8
330
185
100
AcDbEntity
  8
GRAU_10_
 62
     7
100
AcDbVertex
100
AcDb2dVertex
 10
156.4219766861549
 20
119.1274400201313
 30
0.0
  0
VERTEX
  5
1A9
330
185
100
AcDbEntity
  8
GRAU_10_
 62
     7
100
AcDbVertex
100
AcDb2dVertex
 10
156.4400634374525
 20
119.1284735487769
 30
0.0
  0
VERTEX
  5
1AA
330
185
100
AcDbEntity
  8
GRAU_10_
 62
     7
100
AcDbVertex
100
AcDb2dVertex
 10
156.4583224435243
 20
119.1288180583254
 30
0.0
  0
VERTEX
  5
1AB
330
185
100
AcDbEntity
  8
GRAU_10_
 62
     7
100
AcDbVertex
100
AcDb2dVertex
 10
156.529635920069
 20
119.133124427682
 30
0.0
  0
VERTEX
  5
1AC
330
185
100
AcDbEntity
  8
GRAU_10_
 62
     7
100
AcDbVertex
100
AcDb2dVertex
 10
156.5983655749997
 20
119.1379475613614
 30
0.0
  0
VERTEX
  5
1AD
330
185
100
AcDbEntity
  8
GRAU_10_
 62
     7
100
AcDbVertex
100
AcDb2dVertex
 10
156.6322997655294
 20
119.140359128201
 30
0.0
  0
VERTEX
  5
1AE
330
185
100
AcDbEntity
  8
GRAU_10_
 62
     7
100
AcDbVertex
100
AcDb2dVertex
 10
156.6653726821878
 20
119.1432874593635
 30
0.0
  0
VERTEX
  5
1AF
330
185
100
AcDbEntity
  8
GRAU_10_
 62
     7
100
AcDbVertex
100
AcDb2dVertex
 10
156.6975843249749
 20
119.1465603000745
 30
0.0
  0
VERTEX
  5
1B0
330
185
100
AcDbEntity
  8
GRAU_10_
 62
     7
100
AcDbVertex
100
AcDb2dVertex
 10
156.7282456747936
 20
119.1493163764627
 30
0.0
  0
VERTEX
  5
1B1
330
185
100
AcDbEntity
  8
GRAU_10_
 62
     7
100
AcDbVertex
100
AcDb2dVertex
 10
156.7578734959668
 20
119.1520724528509
 30
0.0
  0
VERTEX
  5
1B2
330
185
100
AcDbEntity
  8
GRAU_10_
 62
     7
100
AcDbVertex
100
AcDb2dVertex
 10
156.7868122980429
 20
119.1556898031104
 30
0.0
  0
VERTEX
  5
1B3
330
185
100
AcDbEntity
  8
GRAU_10_
 62
     7
100
AcDbVertex
100
AcDb2dVertex
 10
156.8147175714734
 20
119.1591348985956
 30
0.0
  0
VERTEX
  5
1B4
330
185
100
AcDbEntity
  8
GRAU_10_
 62
     7
100
AcDbVertex
100
AcDb2dVertex
 10
156.8417615710326
 20
119.1624077393066
 30
0.0
  0
VERTEX
  5
1B5
330
185
100
AcDbEntity
  8
GRAU_10_
 62
     7
100
AcDbVertex
100
AcDb2dVertex
 10
156.8908541816974
 20
119.1686089111801
 30
0.0
  0
VERTEX
  5
1B6
330
185
100
AcDbEntity
  8
GRAU_10_
 62
     7
100
AcDbVertex
100
AcDb2dVertex
 10
156.9342623848116
 20
119.1748100830535
 30
0.0
  0
VERTEX
  5
1B7
330
185
100
AcDbEntity
  8
GRAU_10_
 62
     7
100
AcDbVertex
100
AcDb2dVertex
 10
156.9544161934003
 20
119.1775661594417
 30
0.0
  0
VERTEX
  5
1B8
330
185
100
AcDbEntity
  8
GRAU_10_
 62
     7
100
AcDbVertex
100
AcDb2dVertex
 10
156.9723306899236
 20
119.1806667453784
 30
0.0
  0
VERTEX
  5
1B9
330
185
100
AcDbEntity
  8
GRAU_10_
 62
     7
100
AcDbVertex
100
AcDb2dVertex
 10
156.9807711738625
 20
119.1813557644755
 30
0.0
  0
VERTEX
  5
1BA
330
185
100
AcDbEntity
  8
GRAU_10_
 62
     7
100
AcDbVertex
100
AcDb2dVertex
 10
156.9892116578013
 20
119.1827338026696
 30
0.0
  0
VERTEX
  5
1BB
330
185
100
AcDbEntity
  8
GRAU_10_
 62
     7
100
AcDbVertex
100
AcDb2dVertex
 10
156.9971353774174
 20
119.1841118408637
 30
0.0
  0
VERTEX
  5
1BC
330
185
100
AcDbEntity
  8
GRAU_10_
 62
     7
100
AcDbVertex
100
AcDb2dVertex
 10
157.0036810588394
 20
119.1856621338321
 30
0.0
  0
VERTEX
  5
1BD
330
185
100
AcDbEntity
  8
GRAU_10_
 62
     7
100
AcDbVertex
100
AcDb2dVertex
 10
157.0284857463332
 20
119.1894517388658
 30
0.0
  0
VERTEX
  5
1BE
330
185
100
AcDbEntity
  8
GRAU_10_
 62
     7
100
AcDbVertex
100
AcDb2dVertex
 10
157.046744752405
 20
119.1923800700283
 30
0.0
  0
VERTEX
  5
1BF
330
185
100
AcDbEntity
  8
GRAU_10_
 62
     7
100
AcDbVertex
100
AcDb2dVertex
 10
157.0527736695042
 20
119.1930690891253
 30
0.0
  0
VERTEX
  5
1C0
330
185
100
AcDbEntity
  8
GRAU_10_
 62
     7
100
AcDbVertex
100
AcDb2dVertex
 10
157.0574245484093
 20
119.1944471273194
 30
0.0
  0
VERTEX
  5
1C1
330
185
100
AcDbEntity
  8
GRAU_10_
 62
     7
100
AcDbVertex
100
AcDb2dVertex
 10
157.060525134346
 20
119.194791636868
 30
0.0
  0
VERTEX
  5
1C2
330
185
100
AcDbEntity
  8
GRAU_10_
 62
     7
100
AcDbVertex
100
AcDb2dVertex
 10
157.061214153443
 20
119.194791636868
 30
0.0
  0
SEQEND
  5
1C3
330
185
100
AcDbEntity
  8
GRAU_10_
  0
POLYLINE
  5
1C4
330
1F
100
AcDbEntity
  8
GRAU_10_
 62
     7
100
AcDb2dPolyline
 66
     1
 10
0.0
 20
0.0
 30
0.0
  0
VERTEX
  5
1C5
330
1C4
100
AcDbEntity
  8
GRAU_10_
 62
     7
100
AcDbVertex
100
AcDb2dVertex
 10
162.259174221588
 20
124.9150281805768
 30
0.0
  0
VERTEX
  5
1C6
330
1C4
100
AcDbEntity
  8
GRAU_10_
 62
     7
100
AcDbVertex
100
AcDb2dVertex
 10
162.259174221588
 20
124.9115830850916
 30
0.0
  0
VERTEX
  5
1C7
330
1C4
100
AcDbEntity
  8
GRAU_10_
 62
     7
100
AcDbVertex
100
AcDb2dVertex
 10
162.2605522597821
 20
124.9002142699902
 30
0.0
  0
VERTEX
  5
1C8
330
1C4
100
AcDbEntity
  8
GRAU_10_
 62
     7
100
AcDbVertex
100
AcDb2dVertex
 10
162.2615857884277
 20
124.8921182955999
 30
0.0
  0
VERTEX
  5
1C9
330
1C4
100
AcDbEntity
  8
GRAU_10_
 62
     7
100
AcDbVertex
100
AcDb2dVertex
 10
162.2633083361703
 20
124.8826442830155
 30
0.0
  0
VERTEX
  5
1CA
330
1C4
100
AcDbEntity
  8
GRAU_10_
 62
     7
100
AcDbVertex
100
AcDb2dVertex
 10
162.2646863743644
 20
124.8712754679141
 30
0.0
  0
VERTEX
  5
1CB
330
1C4
100
AcDbEntity
  8
GRAU_10_
 62
     7
100
AcDbVertex
100
AcDb2dVertex
 10
162.266408922107
 20
124.8574950859731
 30
0.0
  0
VERTEX
  5
1CC
330
1C4
100
AcDbEntity
  8
GRAU_10_
 62
     7
100
AcDbVertex
100
AcDb2dVertex
 10
162.2700262723665
 20
124.8264892266059
 30
0.0
  0
VERTEX
  5
1CD
330
1C4
100
AcDbEntity
  8
GRAU_10_
 62
     7
100
AcDbVertex
100
AcDb2dVertex
 10
162.2743326417231
 20
124.7884209214939
 30
0.0
  0
VERTEX
  5
1CE
330
1C4
100
AcDbEntity
  8
GRAU_10_
 62
     7
100
AcDbVertex
100
AcDb2dVertex
 10
162.2757106799172
 20
124.7782578898124
 30
0.0
  0
VERTEX
  5
1CF
330
1C4
100
AcDbEntity
  8
GRAU_10_
 62
     7
100
AcDbVertex
100
AcDb2dVertex
 10
162.2767442085628
 20
124.7675780938081
 30
0.0
  0
VERTEX
  5
1D0
330
1C4
100
AcDbEntity
  8
GRAU_10_
 62
     7
100
AcDbVertex
100
AcDb2dVertex
 10
162.2777777372083
 20
124.7560370239325
 30
0.0
  0
VERTEX
  5
1D1
330
1C4
100
AcDbEntity
  8
GRAU_10_
 62
     7
100
AcDbVertex
100
AcDb2dVertex
 10
162.2791557754024
 20
124.7443236992827
 30
0.0
  0
VERTEX
  5
1D2
330
1C4
100
AcDbEntity
  8
GRAU_10_
 62
     7
100
AcDbVertex
100
AcDb2dVertex
 10
162.2817395970164
 20
124.7203802856602
 30
0.0
  0
VERTEX
  5
1D3
330
1C4
100
AcDbEntity
  8
GRAU_10_
 62
     7
100
AcDbVertex
100
AcDb2dVertex
 10
162.2838066543075
 20
124.6948865790693
 30
0.0
  0
VERTEX
  5
1D4
330
1C4
100
AcDbEntity
  8
GRAU_10_
 62
     7
100
AcDbVertex
100
AcDb2dVertex
 10
162.2888020427611
 20
124.6409708347252
 30
0.0
  0
VERTEX
  5
1D5
330
1C4
100
AcDbEntity
  8
GRAU_10_
 62
     7
100
AcDbVertex
100
AcDb2dVertex
 10
162.2936251764405
 20
124.5817151923789
 30
0.0
  0
VERTEX
  5
1D6
330
1C4
100
AcDbEntity
  8
GRAU_10_
 62
     7
100
AcDbVertex
100
AcDb2dVertex
 10
162.2946587050861
 20
124.5662122626953
 30
0.0
  0
VERTEX
  5
1D7
330
1C4
100
AcDbEntity
  8
GRAU_10_
 62
     7
100
AcDbVertex
100
AcDb2dVertex
 10
162.2962089980544
 20
124.5507093330116
 30
0.0
  0
VERTEX
  5
1D8
330
1C4
100
AcDbEntity
  8
GRAU_10_
 62
     7
100
AcDbVertex
100
AcDb2dVertex
 10
162.2972425267
 20
124.5350341485537
 30
0.0
  0
VERTEX
  5
1D9
330
1C4
100
AcDbEntity
  8
GRAU_10_
 62
     7
100
AcDbVertex
100
AcDb2dVertex
 10
162.2986205648941
 20
124.5184976902245
 30
0.0
  0
VERTEX
  5
1DA
330
1C4
100
AcDbEntity
  8
GRAU_10_
 62
     7
100
AcDbVertex
100
AcDb2dVertex
 10
162.3003431126367
 20
124.4861137926632
 30
0.0
  0
VERTEX
  5
1DB
330
1C4
100
AcDbEntity
  8
GRAU_10_
 62
     7
100
AcDbVertex
100
AcDb2dVertex
 10
162.3020656603794
 20
124.4523518569078
 30
0.0
  0
VERTEX
  5
1DC
330
1C4
100
AcDbEntity
  8
GRAU_10_
 62
     7
100
AcDbVertex
100
AcDb2dVertex
 10
162.3039604628962
 20
124.418417666378
 30
0.0
  0
VERTEX
  5
1DD
330
1C4
100
AcDbEntity
  8
GRAU_10_
 62
     7
100
AcDbVertex
100
AcDb2dVertex
 10
162.3056830106389
 20
124.3831054376542
 30
0.0
  0
VERTEX
  5
1DE
330
1C4
100
AcDbEntity
  8
GRAU_10_
 62
     7
100
AcDbVertex
100
AcDb2dVertex
 10
162.3063720297359
 20
124.365879960228
 30
0.0
  0
VERTEX
  5
1DF
330
1C4
100
AcDbEntity
  8
GRAU_10_
 62
     7
100
AcDbVertex
100
AcDb2dVertex
 10
162.3074055583815
 20
124.3477932089304
 30
0.0
  0
VERTEX
  5
1E0
330
1C4
100
AcDbEntity
  8
GRAU_10_
 62
     7
100
AcDbVertex
100
AcDb2dVertex
 10
162.3074055583815
 20
124.3298787124071
 30
0.0
  0
VERTEX
  5
1E1
330
1C4
100
AcDbEntity
  8
GRAU_10_
 62
     7
100
AcDbVertex
100
AcDb2dVertex
 10
162.3080945774785
 20
124.311447451561
 30
0.0
  0
VERTEX
  5
1E2
330
1C4
100
AcDbEntity
  8
GRAU_10_
 62
     7
100
AcDbVertex
100
AcDb2dVertex
 10
162.3098171252212
 20
124.2387559368223
 30
0.0
  0
VERTEX
  5
1E3
330
1C4
100
AcDbEntity
  8
GRAU_10_
 62
     7
100
AcDbVertex
100
AcDb2dVertex
 10
162.3113674181895
 20
124.165719912535
 30
0.0
  0
VERTEX
  5
1E4
330
1C4
100
AcDbEntity
  8
GRAU_10_
 62
     7
100
AcDbVertex
100
AcDb2dVertex
 10
162.3117119277381
 20
124.1288573908428
 30
0.0
  0
VERTEX
  5
1E5
330
1C4
100
AcDbEntity
  8
GRAU_10_
 62
     7
100
AcDbVertex
100
AcDb2dVertex
 10
162.3113674181895
 20
124.0916503596021
 30
0.0
  0
VERTEX
  5
1E6
330
1C4
100
AcDbEntity
  8
GRAU_10_
 62
     7
100
AcDbVertex
100
AcDb2dVertex
 10
162.3113674181895
 20
124.0737358630788
 30
0.0
  0
VERTEX
  5
1E7
330
1C4
100
AcDbEntity
  8
GRAU_10_
 62
     7
100
AcDbVertex
100
AcDb2dVertex
 10
162.3105061443182
 20
124.055476857007
 30
0.0
  0
VERTEX
  5
1E8
330
1C4
100
AcDbEntity
  8
GRAU_10_
 62
     7
100
AcDbVertex
100
AcDb2dVertex
 10
162.3105061443182
 20
124.0367010866124
 30
0.0
  0
VERTEX
  5
1E9
330
1C4
100
AcDbEntity
  8
GRAU_10_
 62
     7
100
AcDbVertex
100
AcDb2dVertex
 10
162.3105061443182
 20
124.0186143353148
 30
0.0
  0
VERTEX
  5
1EA
330
1C4
100
AcDbEntity
  8
GRAU_10_
 62
     7
100
AcDbVertex
100
AcDb2dVertex
 10
162.3087835965756
 20
123.9474731135444
 30
0.0
  0
VERTEX
  5
1EB
330
1C4
100
AcDbEntity
  8
GRAU_10_
 62
     7
100
AcDbVertex
100
AcDb2dVertex
 10
162.3063720297359
 20
123.8787434586137
 30
0.0
  0
VERTEX
  5
1EC
330
1C4
100
AcDbEntity
  8
GRAU_10_
 62
     7
100
AcDbVertex
100
AcDb2dVertex
 10
162.3046494819933
 20
123.8448092680839
 30
0.0
  0
VERTEX
  5
1ED
330
1C4
100
AcDbEntity
  8
GRAU_10_
 62
     7
100
AcDbVertex
100
AcDb2dVertex
 10
162.3032714437992
 20
123.8112195871028
 30
0.0
  0
VERTEX
  5
1EE
330
1C4
100
AcDbEntity
  8
GRAU_10_
 62
     7
100
AcDbVertex
100
AcDb2dVertex
 10
162.3013766412823
 20
123.7795247086385
 30
0.0
  0
VERTEX
  5
1EF
330
1C4
100
AcDbEntity
  8
GRAU_10_
 62
     7
100
AcDbVertex
100
AcDb2dVertex
 10
162.2996540935397
 20
123.7485188492712
 30
0.0
  0
VERTEX
  5
1F0
330
1C4
100
AcDbEntity
  8
GRAU_10_
 62
     7
100
AcDbVertex
100
AcDb2dVertex
 10
162.2953477241831
 20
123.6896077164734
 30
0.0
  0
VERTEX
  5
1F1
330
1C4
100
AcDbEntity
  8
GRAU_10_
 62
     7
100
AcDbVertex
100
AcDb2dVertex
 10
162.2912136096008
 20
123.634830698258
 30
0.0
  0
VERTEX
  5
1F2
330
1C4
100
AcDbEntity
  8
GRAU_10_
 62
     7
100
AcDbVertex
100
AcDb2dVertex
 10
162.2869072402443
 20
123.5855658328189
 30
0.0
  0
VERTEX
  5
1F3
330
1C4
100
AcDbEntity
  8
GRAU_10_
 62
     7
100
AcDbVertex
100
AcDb2dVertex
 10
162.2827731256619
 20
123.5418131201562
 30
0.0
  0
VERTEX
  5
1F4
330
1C4
100
AcDbEntity
  8
GRAU_10_
 62
     7
100
AcDbVertex
100
AcDb2dVertex
 10
162.2808783231451
 20
123.5223483306646
 30
0.0
  0
VERTEX
  5
1F5
330
1C4
100
AcDbEntity
  8
GRAU_10_
 62
     7
100
AcDbVertex
100
AcDb2dVertex
 10
162.2791557754024
 20
123.5039170698185
 30
0.0
  0
VERTEX
  5
1F6
330
1C4
100
AcDbEntity
  8
GRAU_10_
 62
     7
100
AcDbVertex
100
AcDb2dVertex
 10
162.2777777372083
 20
123.4873806114893
 30
0.0
  0
VERTEX
  5
1F7
330
1C4
100
AcDbEntity
  8
GRAU_10_
 62
     7
100
AcDbVertex
100
AcDb2dVertex
 10
162.2760551894657
 20
123.4722221913542
 30
0.0
  0
VERTEX
  5
1F8
330
1C4
100
AcDbEntity
  8
GRAU_10_
 62
     7
100
AcDbVertex
100
AcDb2dVertex
 10
162.2731268583032
 20
123.4470729943119
 30
0.0
  0
VERTEX
  5
1F9
330
1C4
100
AcDbEntity
  8
GRAU_10_
 62
     7
100
AcDbVertex
100
AcDb2dVertex
 10
162.2707152914636
 20
123.4295030073371
 30
0.0
  0
VERTEX
  5
1FA
330
1C4
100
AcDbEntity
  8
GRAU_10_
 62
     7
100
AcDbVertex
100
AcDb2dVertex
 10
162.2700262723665
 20
123.4227850711408
 30
0.0
  0
VERTEX
  5
1FB
330
1C4
100
AcDbEntity
  8
GRAU_10_
 62
     7
100
AcDbVertex
100
AcDb2dVertex
 10
162.2700262723665
 20
123.41830644701
 30
0.0
  0
VERTEX
  5
1FC
330
1C4
100
AcDbEntity
  8
GRAU_10_
 62
     7
100
AcDbVertex
100
AcDb2dVertex
 10
162.2693372532695
 20
123.4160671349446
 30
0.0
  0
VERTEX
  5
1FD
330
1C4
100
AcDbEntity
  8
GRAU_10_
 62
     7
100
AcDbVertex
100
AcDb2dVertex
 10
162.2693372532695
 20
123.4146890967505
 30
0.0
  0
SEQEND
  5
1FE
330
1C4
100
AcDbEntity
  8
GRAU_10_
  0
POLYLINE
  5
1FF
330
1F
100
AcDbEntity
  8
GRAU_10_
 62
     7
100
AcDb2dPolyline
 66
     1
 10
0.0
 20
0.0
 30
0.0
  0
VERTEX
  5
200
330
1FF
100
AcDbEntity
  8
GRAU_10_
 62
     7
100
AcDbVertex
100
AcDb2dVertex
 10
161.1689737552807
 20
123.4146890967505
 30
0.0
  0
VERTEX
  5
201
330
1FF
100
AcDbEntity
  8
GRAU_10_
 62
     7
100
AcDbVertex
100
AcDb2dVertex
 10
161.1693182648292
 20
123.41830644701
 30
0.0
  0
VERTEX
  5
202
330
1FF
100
AcDbEntity
  8
GRAU_10_
 62
     7
100
AcDbVertex
100
AcDb2dVertex
 10
161.1706963030233
 20
123.4295030073371
 30
0.0
  0
VERTEX
  5
203
330
1FF
100
AcDbEntity
  8
GRAU_10_
 62
     7
100
AcDbVertex
100
AcDb2dVertex
 10
161.1719020864431
 20
123.4377712365017
 30
0.0
  0
VERTEX
  5
204
330
1FF
100
AcDbEntity
  8
GRAU_10_
 62
     7
100
AcDbVertex
100
AcDb2dVertex
 10
161.1736246341858
 20
123.4470729943119
 30
0.0
  0
VERTEX
  5
205
330
1FF
100
AcDbEntity
  8
GRAU_10_
 62
     7
100
AcDbVertex
100
AcDb2dVertex
 10
161.1750026723799
 20
123.4584418094132
 30
0.0
  0
VERTEX
  5
206
330
1FF
100
AcDbEntity
  8
GRAU_10_
 62
     7
100
AcDbVertex
100
AcDb2dVertex
 10
161.1767252201225
 20
123.4722221913542
 30
0.0
  0
VERTEX
  5
207
330
1FF
100
AcDbEntity
  8
GRAU_10_
 62
     7
100
AcDbVertex
100
AcDb2dVertex
 10
161.1810315894791
 20
123.5035725602699
 30
0.0
  0
VERTEX
  5
208
330
1FF
100
AcDbEntity
  8
GRAU_10_
 62
     7
100
AcDbVertex
100
AcDb2dVertex
 10
161.1851657040613
 20
123.5414686106077
 30
0.0
  0
VERTEX
  5
209
330
1FF
100
AcDbEntity
  8
GRAU_10_
 62
     7
100
AcDbVertex
100
AcDb2dVertex
 10
161.1863714874812
 20
123.5516316422892
 30
0.0
  0
VERTEX
  5
20A
330
1FF
100
AcDbEntity
  8
GRAU_10_
 62
     7
100
AcDbVertex
100
AcDb2dVertex
 10
161.1880940352238
 20
123.5621391835192
 30
0.0
  0
VERTEX
  5
20B
330
1FF
100
AcDbEntity
  8
GRAU_10_
 62
     7
100
AcDbVertex
100
AcDb2dVertex
 10
161.1887830543209
 20
123.573852508169
 30
0.0
  0
VERTEX
  5
20C
330
1FF
100
AcDbEntity
  8
GRAU_10_
 62
     7
100
AcDbVertex
100
AcDb2dVertex
 10
161.1905056020635
 20
123.5855658328189
 30
0.0
  0
VERTEX
  5
20D
330
1FF
100
AcDbEntity
  8
GRAU_10_
 62
     7
100
AcDbVertex
100
AcDb2dVertex
 10
161.1929171689032
 20
123.6095092464414
 30
0.0
  0
VERTEX
  5
20E
330
1FF
100
AcDbEntity
  8
GRAU_10_
 62
     7
100
AcDbVertex
100
AcDb2dVertex
 10
161.1955009905171
 20
123.634830698258
 30
0.0
  0
VERTEX
  5
20F
330
1FF
100
AcDbEntity
  8
GRAU_10_
 62
     7
100
AcDbVertex
100
AcDb2dVertex
 10
161.2008408885193
 20
123.6892632069249
 30
0.0
  0
VERTEX
  5
210
330
1FF
100
AcDbEntity
  8
GRAU_10_
 62
     7
100
AcDbVertex
100
AcDb2dVertex
 10
161.2049750031015
 20
123.7481743397227
 30
0.0
  0
VERTEX
  5
211
330
1FF
100
AcDbEntity
  8
GRAU_10_
 62
     7
100
AcDbVertex
100
AcDb2dVertex
 10
161.2063530412956
 20
123.7636772694063
 30
0.0
  0
VERTEX
  5
212
330
1FF
100
AcDbEntity
  8
GRAU_10_
 62
     7
100
AcDbVertex
100
AcDb2dVertex
 10
161.2073865699412
 20
123.7791801990899
 30
0.0
  0
VERTEX
  5
213
330
1FF
100
AcDbEntity
  8
GRAU_10_
 62
     7
100
AcDbVertex
100
AcDb2dVertex
 10
161.2089368629096
 20
123.7953721478706
 30
0.0
  0
VERTEX
  5
214
330
1FF
100
AcDbEntity
  8
GRAU_10_
 62
     7
100
AcDbVertex
100
AcDb2dVertex
 10
161.2099703915551
 20
123.8112195871028
 30
0.0
  0
VERTEX
  5
215
330
1FF
100
AcDbEntity
  8
GRAU_10_
 62
     7
100
AcDbVertex
100
AcDb2dVertex
 10
161.2116929392978
 20
123.8439479942126
 30
0.0
  0
VERTEX
  5
216
330
1FF
100
AcDbEntity
  8
GRAU_10_
 62
     7
100
AcDbVertex
100
AcDb2dVertex
 10
161.2134154870404
 20
123.8775376751938
 30
0.0
  0
VERTEX
  5
217
330
1FF
100
AcDbEntity
  8
GRAU_10_
 62
     7
100
AcDbVertex
100
AcDb2dVertex
 10
161.2147935252345
 20
123.9118163752721
 30
0.0
  0
VERTEX
  5
218
330
1FF
100
AcDbEntity
  8
GRAU_10_
 62
     7
100
AcDbVertex
100
AcDb2dVertex
 10
161.2159993086543
 20
123.9466118396731
 30
0.0
  0
VERTEX
  5
219
330
1FF
100
AcDbEntity
  8
GRAU_10_
 62
     7
100
AcDbVertex
100
AcDb2dVertex
 10
161.2166883277514
 20
123.9643540814221
 30
0.0
  0
VERTEX
  5
21A
330
1FF
100
AcDbEntity
  8
GRAU_10_
 62
     7
100
AcDbVertex
100
AcDb2dVertex
 10
161.217721856397
 20
123.9824408327197
 30
0.0
  0
VERTEX
  5
21B
330
1FF
100
AcDbEntity
  8
GRAU_10_
 62
     7
100
AcDbVertex
100
AcDb2dVertex
 10
161.217721856397
 20
124.0006998387915
 30
0.0
  0
VERTEX
  5
21C
330
1FF
100
AcDbEntity
  8
GRAU_10_
 62
     7
100
AcDbVertex
100
AcDb2dVertex
 10
161.218410875494
 20
124.0182698257663
 30
0.0
  0
VERTEX
  5
21D
330
1FF
100
AcDbEntity
  8
GRAU_10_
 62
     7
100
AcDbVertex
100
AcDb2dVertex
 10
161.2194444041396
 20
124.0913058500536
 30
0.0
  0
VERTEX
  5
21E
330
1FF
100
AcDbEntity
  8
GRAU_10_
 62
     7
100
AcDbVertex
100
AcDb2dVertex
 10
161.2194444041396
 20
124.1643418743409
 30
0.0
  0
VERTEX
  5
21F
330
1FF
100
AcDbEntity
  8
GRAU_10_
 62
     7
100
AcDbVertex
100
AcDb2dVertex
 10
161.2190998945911
 20
124.2013766508073
 30
0.0
  0
VERTEX
  5
220
330
1FF
100
AcDbEntity
  8
GRAU_10_
 62
     7
100
AcDbVertex
100
AcDb2dVertex
 10
161.217721856397
 20
124.2384114272737
 30
0.0
  0
VERTEX
  5
221
330
1FF
100
AcDbEntity
  8
GRAU_10_
 62
     7
100
AcDbVertex
100
AcDb2dVertex
 10
161.217721856397
 20
124.2568426881198
 30
0.0
  0
VERTEX
  5
222
330
1FF
100
AcDbEntity
  8
GRAU_10_
 62
     7
100
AcDbVertex
100
AcDb2dVertex
 10
161.2173773468485
 20
124.2747571846431
 30
0.0
  0
VERTEX
  5
223
330
1FF
100
AcDbEntity
  8
GRAU_10_
 62
     7
100
AcDbVertex
100
AcDb2dVertex
 10
161.2166883277514
 20
124.2931884454892
 30
0.0
  0
VERTEX
  5
224
330
1FF
100
AcDbEntity
  8
GRAU_10_
 62
     7
100
AcDbVertex
100
AcDb2dVertex
 10
161.2159993086543
 20
124.311447451561
 30
0.0
  0
VERTEX
  5
225
330
1FF
100
AcDbEntity
  8
GRAU_10_
 62
     7
100
AcDbVertex
100
AcDb2dVertex
 10
161.2123819583948
 20
124.3827609281057
 30
0.0
  0
VERTEX
  5
226
330
1FF
100
AcDbEntity
  8
GRAU_10_
 62
     7
100
AcDbVertex
100
AcDb2dVertex
 10
161.2089368629096
 20
124.4520073473592
 30
0.0
  0
VERTEX
  5
227
330
1FF
100
AcDbEntity
  8
GRAU_10_
 62
     7
100
AcDbVertex
100
AcDb2dVertex
 10
161.2063530412956
 20
124.4857692831147
 30
0.0
  0
VERTEX
  5
228
330
1FF
100
AcDbEntity
  8
GRAU_10_
 62
     7
100
AcDbVertex
100
AcDb2dVertex
 10
161.203941474456
 20
124.5184976902245
 30
0.0
  0
VERTEX
  5
229
330
1FF
100
AcDbEntity
  8
GRAU_10_
 62
     7
100
AcDbVertex
100
AcDb2dVertex
 10
161.2008408885193
 20
124.5507093330116
 30
0.0
  0
VERTEX
  5
22A
330
1FF
100
AcDbEntity
  8
GRAU_10_
 62
     7
100
AcDbVertex
100
AcDb2dVertex
 10
161.1982570669053
 20
124.5813706828304
 30
0.0
  0
VERTEX
  5
22B
330
1FF
100
AcDbEntity
  8
GRAU_10_
 62
     7
100
AcDbVertex
100
AcDb2dVertex
 10
161.1955009905171
 20
124.6116875231006
 30
0.0
  0
VERTEX
  5
22C
330
1FF
100
AcDbEntity
  8
GRAU_10_
 62
     7
100
AcDbVertex
100
AcDb2dVertex
 10
161.1922281498061
 20
124.6406263251767
 30
0.0
  0
VERTEX
  5
22D
330
1FF
100
AcDbEntity
  8
GRAU_10_
 62
     7
100
AcDbVertex
100
AcDb2dVertex
 10
161.1894720734179
 20
124.6681870890586
 30
0.0
  0
VERTEX
  5
22E
330
1FF
100
AcDbEntity
  8
GRAU_10_
 62
     7
100
AcDbVertex
100
AcDb2dVertex
 10
161.1863714874812
 20
124.6948865790693
 30
0.0
  0
VERTEX
  5
22F
330
1FF
100
AcDbEntity
  8
GRAU_10_
 62
     7
100
AcDbVertex
100
AcDb2dVertex
 10
161.180342570382
 20
124.7443236992827
 30
0.0
  0
VERTEX
  5
230
330
1FF
100
AcDbEntity
  8
GRAU_10_
 62
     7
100
AcDbVertex
100
AcDb2dVertex
 10
161.1750026723799
 20
124.7880764119454
 30
0.0
  0
VERTEX
  5
231
330
1FF
100
AcDbEntity
  8
GRAU_10_
 62
     7
100
AcDbVertex
100
AcDb2dVertex
 10
161.1725911055402
 20
124.807541201437
 30
0.0
  0
VERTEX
  5
232
330
1FF
100
AcDbEntity
  8
GRAU_10_
 62
     7
100
AcDbVertex
100
AcDb2dVertex
 10
161.1700072839263
 20
124.8258002075088
 30
0.0
  0
VERTEX
  5
233
330
1FF
100
AcDbEntity
  8
GRAU_10_
 62
     7
100
AcDbVertex
100
AcDb2dVertex
 10
161.1682847361836
 20
124.834412946222
 30
0.0
  0
VERTEX
  5
234
330
1FF
100
AcDbEntity
  8
GRAU_10_
 62
     7
100
AcDbVertex
100
AcDb2dVertex
 10
161.1675957170866
 20
124.842336665838
 30
0.0
  0
VERTEX
  5
235
330
1FF
100
AcDbEntity
  8
GRAU_10_
 62
     7
100
AcDbVertex
100
AcDb2dVertex
 10
161.166562188441
 20
124.8506048950026
 30
0.0
  0
VERTEX
  5
236
330
1FF
100
AcDbEntity
  8
GRAU_10_
 62
     7
100
AcDbVertex
100
AcDb2dVertex
 10
161.1651841502469
 20
124.8574950859731
 30
0.0
  0
VERTEX
  5
237
330
1FF
100
AcDbEntity
  8
GRAU_10_
 62
     7
100
AcDbVertex
100
AcDb2dVertex
 10
161.1615667999874
 20
124.8826442830155
 30
0.0
  0
VERTEX
  5
238
330
1FF
100
AcDbEntity
  8
GRAU_10_
 62
     7
100
AcDbVertex
100
AcDb2dVertex
 10
161.1584662140507
 20
124.9002142699902
 30
0.0
  0
VERTEX
  5
239
330
1FF
100
AcDbEntity
  8
GRAU_10_
 62
     7
100
AcDbVertex
100
AcDb2dVertex
 10
161.1574326854051
 20
124.9065876966379
 30
0.0
  0
VERTEX
  5
23A
330
1FF
100
AcDbEntity
  8
GRAU_10_
 62
     7
100
AcDbVertex
100
AcDb2dVertex
 10
161.156743666308
 20
124.9115830850916
 30
0.0
  0
VERTEX
  5
23B
330
1FF
100
AcDbEntity
  8
GRAU_10_
 62
     7
100
AcDbVertex
100
AcDb2dVertex
 10
161.156743666308
 20
124.9136501423827
 30
0.0
  0
VERTEX
  5
23C
330
1FF
100
AcDbEntity
  8
GRAU_10_
 62
     7
100
AcDbVertex
100
AcDb2dVertex
 10
161.156743666308
 20
124.9150281805768
 30
0.0
  0
SEQEND
  5
23D
330
1FF
100
AcDbEntity
  8
GRAU_10_
  0
POLYLINE
  5
23E
330
1F
100
AcDbEntity
  8
GRAU_10_
 62
     7
100
AcDb2dPolyline
 66
     1
 10
0.0
 20
0.0
 30
0.0
  0
VERTEX
  5
23F
330
23E
100
AcDbEntity
  8
GRAU_10_
 62
     7
100
AcDbVertex
100
AcDb2dVertex
 10
155.4995523699793
 20
130.0682020074135
 30
0.0
  0
VERTEX
  5
240
330
23E
100
AcDbEntity
  8
GRAU_10_
 62
     7
100
AcDbVertex
100
AcDb2dVertex
 10
155.502652955916
 20
130.068546516962
 30
0.0
  0
VERTEX
  5
241
330
23E
100
AcDbEntity
  8
GRAU_10_
 62
     7
100
AcDbVertex
100
AcDb2dVertex
 10
155.5136772614688
 20
130.0699245551561
 30
0.0
  0
VERTEX
  5
242
330
23E
100
AcDbEntity
  8
GRAU_10_
 62
     7
100
AcDbVertex
100
AcDb2dVertex
 10
155.5221177454077
 20
130.0713025933502
 30
0.0
  0
VERTEX
  5
243
330
23E
100
AcDbEntity
  8
GRAU_10_
 62
     7
100
AcDbVertex
100
AcDb2dVertex
 10
155.5315917579921
 20
130.0726806315443
 30
0.0
  0
VERTEX
  5
244
330
23E
100
AcDbEntity
  8
GRAU_10_
 62
     7
100
AcDbVertex
100
AcDb2dVertex
 10
155.543305082642
 20
130.0740586697384
 30
0.0
  0
VERTEX
  5
245
330
23E
100
AcDbEntity
  8
GRAU_10_
 62
     7
100
AcDbVertex
100
AcDb2dVertex
 10
155.5563964454859
 20
130.0757812174811
 30
0.0
  0
VERTEX
  5
246
330
23E
100
AcDbEntity
  8
GRAU_10_
 62
     7
100
AcDbVertex
100
AcDb2dVertex
 10
155.5877468144017
 20
130.0797430772891
 30
0.0
  0
VERTEX
  5
247
330
23E
100
AcDbEntity
  8
GRAU_10_
 62
     7
100
AcDbVertex
100
AcDb2dVertex
 10
155.6258151195137
 20
130.0843939561942
 30
0.0
  0
VERTEX
  5
248
330
23E
100
AcDbEntity
  8
GRAU_10_
 62
     7
100
AcDbVertex
100
AcDb2dVertex
 10
155.6359781511952
 20
130.0850829752912
 30
0.0
  0
VERTEX
  5
249
330
23E
100
AcDbEntity
  8
GRAU_10_
 62
     7
100
AcDbVertex
100
AcDb2dVertex
 10
155.647002456748
 20
130.0868055230339
 30
0.0
  0
VERTEX
  5
24A
330
23E
100
AcDbEntity
  8
GRAU_10_
 62
     7
100
AcDbVertex
100
AcDb2dVertex
 10
155.6578545075265
 20
130.0878390516794
 30
0.0
  0
VERTEX
  5
24B
330
23E
100
AcDbEntity
  8
GRAU_10_
 62
     7
100
AcDbVertex
100
AcDb2dVertex
 10
155.6692233226278
 20
130.088872580325
 30
0.0
  0
VERTEX
  5
24C
330
23E
100
AcDbEntity
  8
GRAU_10_
 62
     7
100
AcDbVertex
100
AcDb2dVertex
 10
155.6935112457988
 20
130.0918009114875
 30
0.0
  0
VERTEX
  5
24D
330
23E
100
AcDbEntity
  8
GRAU_10_
 62
     7
100
AcDbVertex
100
AcDb2dVertex
 10
155.7190049523897
 20
130.0938679687786
 30
0.0
  0
VERTEX
  5
24E
330
23E
100
AcDbEntity
  8
GRAU_10_
 62
     7
100
AcDbVertex
100
AcDb2dVertex
 10
155.7732652062824
 20
130.0992078667808
 30
0.0
  0
VERTEX
  5
24F
330
23E
100
AcDbEntity
  8
GRAU_10_
 62
     7
100
AcDbVertex
100
AcDb2dVertex
 10
155.8318318295316
 20
130.1040310004601
 30
0.0
  0
VERTEX
  5
250
330
23E
100
AcDbEntity
  8
GRAU_10_
 62
     7
100
AcDbVertex
100
AcDb2dVertex
 10
155.8476792687638
 20
130.1050645291057
 30
0.0
  0
VERTEX
  5
251
330
23E
100
AcDbEntity
  8
GRAU_10_
 62
     7
100
AcDbVertex
100
AcDb2dVertex
 10
155.8631821984474
 20
130.1069593316226
 30
0.0
  0
VERTEX
  5
252
330
23E
100
AcDbEntity
  8
GRAU_10_
 62
     7
100
AcDbVertex
100
AcDb2dVertex
 10
155.8790296376796
 20
130.1076483507196
 30
0.0
  0
VERTEX
  5
253
330
23E
100
AcDbEntity
  8
GRAU_10_
 62
     7
100
AcDbVertex
100
AcDb2dVertex
 10
155.8953938412345
 20
130.1086818793652
 30
0.0
  0
VERTEX
  5
254
330
23E
100
AcDbEntity
  8
GRAU_10_
 62
     7
100
AcDbVertex
100
AcDb2dVertex
 10
155.9284667578929
 20
130.1109211914306
 30
0.0
  0
VERTEX
  5
255
330
23E
100
AcDbEntity
  8
GRAU_10_
 62
     7
100
AcDbVertex
100
AcDb2dVertex
 10
155.9617119293256
 20
130.1133327582703
 30
0.0
  0
VERTEX
  5
256
330
23E
100
AcDbEntity
  8
GRAU_10_
 62
     7
100
AcDbVertex
100
AcDb2dVertex
 10
155.995473865081
 20
130.1153998155614
 30
0.0
  0
VERTEX
  5
257
330
23E
100
AcDbEntity
  8
GRAU_10_
 62
     7
100
AcDbVertex
100
AcDb2dVertex
 10
156.0304415842563
 20
130.117122363304
 30
0.0
  0
VERTEX
  5
258
330
23E
100
AcDbEntity
  8
GRAU_10_
 62
     7
100
AcDbVertex
100
AcDb2dVertex
 10
156.0480115712311
 20
130.1174668728526
 30
0.0
  0
VERTEX
  5
259
330
23E
100
AcDbEntity
  8
GRAU_10_
 62
     7
100
AcDbVertex
100
AcDb2dVertex
 10
156.0660983225286
 20
130.1185004014982
 30
0.0
  0
VERTEX
  5
25A
330
23E
100
AcDbEntity
  8
GRAU_10_
 62
     7
100
AcDbVertex
100
AcDb2dVertex
 10
156.0843573286004
 20
130.1188449110467
 30
0.0
  0
VERTEX
  5
25B
330
23E
100
AcDbEntity
  8
GRAU_10_
 62
     7
100
AcDbVertex
100
AcDb2dVertex
 10
156.102444079898
 20
130.1198784396923
 30
0.0
  0
VERTEX
  5
25C
330
23E
100
AcDbEntity
  8
GRAU_10_
 62
     7
100
AcDbVertex
100
AcDb2dVertex
 10
156.1751355946368
 20
130.1221177517577
 30
0.0
  0
VERTEX
  5
25D
330
23E
100
AcDbEntity
  8
GRAU_10_
 62
     7
100
AcDbVertex
100
AcDb2dVertex
 10
156.2481716189241
 20
130.1228067708547
 30
0.0
  0
VERTEX
  5
25E
330
23E
100
AcDbEntity
  8
GRAU_10_
 62
     7
100
AcDbVertex
100
AcDb2dVertex
 10
156.285550904939
 20
130.1234957899518
 30
0.0
  0
VERTEX
  5
25F
330
23E
100
AcDbEntity
  8
GRAU_10_
 62
     7
100
AcDbVertex
100
AcDb2dVertex
 10
156.3218966623084
 20
130.1234957899518
 30
0.0
  0
VERTEX
  5
260
330
23E
100
AcDbEntity
  8
GRAU_10_
 62
     7
100
AcDbVertex
100
AcDb2dVertex
 10
156.3405001779288
 20
130.1234957899518
 30
0.0
  0
VERTEX
  5
261
330
23E
100
AcDbEntity
  8
GRAU_10_
 62
     7
100
AcDbVertex
100
AcDb2dVertex
 10
156.3592759483234
 20
130.1234957899518
 30
0.0
  0
VERTEX
  5
262
330
23E
100
AcDbEntity
  8
GRAU_10_
 62
     7
100
AcDbVertex
100
AcDb2dVertex
 10
156.3771904448467
 20
130.1228067708547
 30
0.0
  0
VERTEX
  5
263
330
23E
100
AcDbEntity
  8
GRAU_10_
 62
     7
100
AcDbVertex
100
AcDb2dVertex
 10
156.3956217056928
 20
130.1224622613062
 30
0.0
  0
VERTEX
  5
264
330
23E
100
AcDbEntity
  8
GRAU_10_
 62
     7
100
AcDbVertex
100
AcDb2dVertex
 10
156.4660739083661
 20
130.1210842231121
 30
0.0
  0
VERTEX
  5
265
330
23E
100
AcDbEntity
  8
GRAU_10_
 62
     7
100
AcDbVertex
100
AcDb2dVertex
 10
156.5356648371682
 20
130.1188449110467
 30
0.0
  0
VERTEX
  5
266
330
23E
100
AcDbEntity
  8
GRAU_10_
 62
     7
100
AcDbVertex
100
AcDb2dVertex
 10
156.5694267729236
 20
130.1174668728526
 30
0.0
  0
VERTEX
  5
267
330
23E
100
AcDbEntity
  8
GRAU_10_
 62
     7
100
AcDbVertex
100
AcDb2dVertex
 10
156.6026719443563
 20
130.1160888346585
 30
0.0
  0
VERTEX
  5
268
330
23E
100
AcDbEntity
  8
GRAU_10_
 62
     7
100
AcDbVertex
100
AcDb2dVertex
 10
156.6347113323691
 20
130.1143662869159
 30
0.0
  0
VERTEX
  5
269
330
23E
100
AcDbEntity
  8
GRAU_10_
 62
     7
100
AcDbVertex
100
AcDb2dVertex
 10
156.6653726821878
 20
130.1133327582703
 30
0.0
  0
VERTEX
  5
26A
330
23E
100
AcDbEntity
  8
GRAU_10_
 62
     7
100
AcDbVertex
100
AcDb2dVertex
 10
156.7246283245341
 20
130.1090263889137
 30
0.0
  0
VERTEX
  5
26B
330
23E
100
AcDbEntity
  8
GRAU_10_
 62
     7
100
AcDbVertex
100
AcDb2dVertex
 10
156.7790608332011
 20
130.1050645291057
 30
0.0
  0
VERTEX
  5
26C
330
23E
100
AcDbEntity
  8
GRAU_10_
 62
     7
100
AcDbVertex
100
AcDb2dVertex
 10
156.8284979534144
 20
130.1012749240719
 30
0.0
  0
VERTEX
  5
26D
330
23E
100
AcDbEntity
  8
GRAU_10_
 62
     7
100
AcDbVertex
100
AcDb2dVertex
 10
156.8722506660771
 20
130.0971408094896
 30
0.0
  0
VERTEX
  5
26E
330
23E
100
AcDbEntity
  8
GRAU_10_
 62
     7
100
AcDbVertex
100
AcDb2dVertex
 10
156.891887710343
 20
130.0952460069727
 30
0.0
  0
VERTEX
  5
26F
330
23E
100
AcDbEntity
  8
GRAU_10_
 62
     7
100
AcDbVertex
100
AcDb2dVertex
 10
156.9106634807376
 20
130.0935234592301
 30
0.0
  0
VERTEX
  5
270
330
23E
100
AcDbEntity
  8
GRAU_10_
 62
     7
100
AcDbVertex
100
AcDb2dVertex
 10
156.9271999390668
 20
130.0918009114875
 30
0.0
  0
VERTEX
  5
271
330
23E
100
AcDbEntity
  8
GRAU_10_
 62
     7
100
AcDbVertex
100
AcDb2dVertex
 10
156.9420138496534
 20
130.0899061089706
 30
0.0
  0
VERTEX
  5
272
330
23E
100
AcDbEntity
  8
GRAU_10_
 62
     7
100
AcDbVertex
100
AcDb2dVertex
 10
156.9669907919215
 20
130.0871500325824
 30
0.0
  0
VERTEX
  5
273
330
23E
100
AcDbEntity
  8
GRAU_10_
 62
     7
100
AcDbVertex
100
AcDb2dVertex
 10
156.984388524122
 20
130.0854274848398
 30
0.0
  0
VERTEX
  5
274
330
23E
100
AcDbEntity
  8
GRAU_10_
 62
     7
100
AcDbVertex
100
AcDb2dVertex
 10
156.9911064603182
 20
130.0850829752912
 30
0.0
  0
VERTEX
  5
275
330
23E
100
AcDbEntity
  8
GRAU_10_
 62
     7
100
AcDbVertex
100
AcDb2dVertex
 10
156.9952405749005
 20
130.0843939561942
 30
0.0
  0
VERTEX
  5
276
330
23E
100
AcDbEntity
  8
GRAU_10_
 62
     7
100
AcDbVertex
100
AcDb2dVertex
 10
156.9985134156115
 20
130.0837049370971
 30
0.0
  0
VERTEX
  5
277
330
23E
100
AcDbEntity
  8
GRAU_10_
 62
     7
100
AcDbVertex
100
AcDb2dVertex
 10
156.9995469442571
 20
130.0837049370971
 30
0.0
  0
SEQEND
  5
278
330
23E
100
AcDbEntity
  8
GRAU_10_
  0
POLYLINE
  5
279
330
1F
100
AcDbEntity
  8
GRAU_10_
 62
     7
100
AcDb2dPolyline
 66
     1
 10
0.0
 20
0.0
 30
0.0
  0
VERTEX
  5
27A
330
279
100
AcDbEntity
  8
GRAU_10_
 62
     7
100
AcDbVertex
100
AcDb2dVertex
 10
156.9995469442571
 20
129.0622341257206
 30
0.0
  0
VERTEX
  5
27B
330
279
100
AcDbEntity
  8
GRAU_10_
 62
     7
100
AcDbVertex
100
AcDb2dVertex
 10
156.9959295939975
 20
129.0627508900433
 30
0.0
  0
VERTEX
  5
27C
330
279
100
AcDbEntity
  8
GRAU_10_
 62
     7
100
AcDbVertex
100
AcDb2dVertex
 10
156.985077543219
 20
129.0641289282374
 30
0.0
  0
VERTEX
  5
27D
330
279
100
AcDbEntity
  8
GRAU_10_
 62
     7
100
AcDbVertex
100
AcDb2dVertex
 10
156.9766370592802
 20
129.0655069664315
 30
0.0
  0
VERTEX
  5
27E
330
279
100
AcDbEntity
  8
GRAU_10_
 62
     7
100
AcDbVertex
100
AcDb2dVertex
 10
156.9669907919215
 20
129.0672295141742
 30
0.0
  0
VERTEX
  5
27F
330
279
100
AcDbEntity
  8
GRAU_10_
 62
     7
100
AcDbVertex
100
AcDb2dVertex
 10
156.9554497220459
 20
129.069124316691
 30
0.0
  0
VERTEX
  5
280
330
279
100
AcDbEntity
  8
GRAU_10_
 62
     7
100
AcDbVertex
100
AcDb2dVertex
 10
156.9420138496534
 20
129.0708468644337
 30
0.0
  0
VERTEX
  5
281
330
279
100
AcDbEntity
  8
GRAU_10_
 62
     7
100
AcDbVertex
100
AcDb2dVertex
 10
156.9106634807376
 20
129.0753254885645
 30
0.0
  0
VERTEX
  5
282
330
279
100
AcDbEntity
  8
GRAU_10_
 62
     7
100
AcDbVertex
100
AcDb2dVertex
 10
156.8732841947227
 20
129.0806653865666
 30
0.0
  0
VERTEX
  5
283
330
279
100
AcDbEntity
  8
GRAU_10_
 62
     7
100
AcDbVertex
100
AcDb2dVertex
 10
156.8622598891698
 20
129.082215679535
 30
0.0
  0
VERTEX
  5
284
330
279
100
AcDbEntity
  8
GRAU_10_
 62
     7
100
AcDbVertex
100
AcDb2dVertex
 10
156.8520968574884
 20
129.0832492081806
 30
0.0
  0
VERTEX
  5
285
330
279
100
AcDbEntity
  8
GRAU_10_
 62
     7
100
AcDbVertex
100
AcDb2dVertex
 10
156.840728042387
 20
129.0846272463747
 30
0.0
  0
VERTEX
  5
286
330
279
100
AcDbEntity
  8
GRAU_10_
 62
     7
100
AcDbVertex
100
AcDb2dVertex
 10
156.8291869725115
 20
129.0860052845688
 30
0.0
  0
VERTEX
  5
287
330
279
100
AcDbEntity
  8
GRAU_10_
 62
     7
100
AcDbVertex
100
AcDb2dVertex
 10
156.8050713041147
 20
129.0891058705055
 30
0.0
  0
VERTEX
  5
288
330
279
100
AcDbEntity
  8
GRAU_10_
 62
     7
100
AcDbVertex
100
AcDb2dVertex
 10
156.7797498522981
 20
129.0915174373452
 30
0.0
  0
VERTEX
  5
289
330
279
100
AcDbEntity
  8
GRAU_10_
 62
     7
100
AcDbVertex
100
AcDb2dVertex
 10
156.725834107954
 20
129.0980631187672
 30
0.0
  0
VERTEX
  5
28A
330
279
100
AcDbEntity
  8
GRAU_10_
 62
     7
100
AcDbVertex
100
AcDb2dVertex
 10
156.6669229751562
 20
129.103230761995
 30
0.0
  0
VERTEX
  5
28B
330
279
100
AcDbEntity
  8
GRAU_10_
 62
     7
100
AcDbVertex
100
AcDb2dVertex
 10
156.6509032811498
 20
129.1046088001891
 30
0.0
  0
VERTEX
  5
28C
330
279
100
AcDbEntity
  8
GRAU_10_
 62
     7
100
AcDbVertex
100
AcDb2dVertex
 10
156.6350558419176
 20
129.1059868383832
 30
0.0
  0
VERTEX
  5
28D
330
279
100
AcDbEntity
  8
GRAU_10_
 62
     7
100
AcDbVertex
100
AcDb2dVertex
 10
156.619552912234
 20
129.1075371313516
 30
0.0
  0
VERTEX
  5
28E
330
279
100
AcDbEntity
  8
GRAU_10_
 62
     7
100
AcDbVertex
100
AcDb2dVertex
 10
156.6033609634533
 20
129.1085706599972
 30
0.0
  0
VERTEX
  5
28F
330
279
100
AcDbEntity
  8
GRAU_10_
 62
     7
100
AcDbVertex
100
AcDb2dVertex
 10
156.5706325563435
 20
129.1109822268369
 30
0.0
  0
VERTEX
  5
290
330
279
100
AcDbEntity
  8
GRAU_10_
 62
     7
100
AcDbVertex
100
AcDb2dVertex
 10
156.5366983658137
 20
129.1132215389023
 30
0.0
  0
VERTEX
  5
291
330
279
100
AcDbEntity
  8
GRAU_10_
 62
     7
100
AcDbVertex
100
AcDb2dVertex
 10
156.502764175284
 20
129.1152885961934
 30
0.0
  0
VERTEX
  5
292
330
279
100
AcDbEntity
  8
GRAU_10_
 62
     7
100
AcDbVertex
100
AcDb2dVertex
 10
156.467968710883
 20
129.117011143936
 30
0.0
  0
VERTEX
  5
293
330
279
100
AcDbEntity
  8
GRAU_10_
 62
     7
100
AcDbVertex
100
AcDb2dVertex
 10
156.4505709786825
 20
129.1180446725816
 30
0.0
  0
VERTEX
  5
294
330
279
100
AcDbEntity
  8
GRAU_10_
 62
     7
100
AcDbVertex
100
AcDb2dVertex
 10
156.4323119726107
 20
129.1187336916786
 30
0.0
  0
VERTEX
  5
295
330
279
100
AcDbEntity
  8
GRAU_10_
 62
     7
100
AcDbVertex
100
AcDb2dVertex
 10
156.4142252213131
 20
129.1197672203242
 30
0.0
  0
VERTEX
  5
296
330
279
100
AcDbEntity
  8
GRAU_10_
 62
     7
100
AcDbVertex
100
AcDb2dVertex
 10
156.3959662152413
 20
129.1201117298727
 30
0.0
  0
VERTEX
  5
297
330
279
100
AcDbEntity
  8
GRAU_10_
 62
     7
100
AcDbVertex
100
AcDb2dVertex
 10
156.323619210051
 20
129.1220065323896
 30
0.0
  0
VERTEX
  5
298
330
279
100
AcDbEntity
  8
GRAU_10_
 62
     7
100
AcDbVertex
100
AcDb2dVertex
 10
156.2498941666667
 20
129.1233845705837
 30
0.0
  0
VERTEX
  5
299
330
279
100
AcDbEntity
  8
GRAU_10_
 62
     7
100
AcDbVertex
100
AcDb2dVertex
 10
156.2135484092973
 20
129.1233845705837
 30
0.0
  0
VERTEX
  5
29A
330
279
100
AcDbEntity
  8
GRAU_10_
 62
     7
100
AcDbVertex
100
AcDb2dVertex
 10
156.1761691232824
 20
129.1233845705837
 30
0.0
  0
VERTEX
  5
29B
330
279
100
AcDbEntity
  8
GRAU_10_
 62
     7
100
AcDbVertex
100
AcDb2dVertex
 10
156.1580823719848
 20
129.1230400610352
 30
0.0
  0
VERTEX
  5
29C
330
279
100
AcDbEntity
  8
GRAU_10_
 62
     7
100
AcDbVertex
100
AcDb2dVertex
 10
156.1394788563644
 20
129.1230400610352
 30
0.0
  0
VERTEX
  5
29D
330
279
100
AcDbEntity
  8
GRAU_10_
 62
     7
100
AcDbVertex
100
AcDb2dVertex
 10
156.1210475955183
 20
129.1226955514867
 30
0.0
  0
VERTEX
  5
29E
330
279
100
AcDbEntity
  8
GRAU_10_
 62
     7
100
AcDbVertex
100
AcDb2dVertex
 10
156.103133098995
 20
129.1220065323896
 30
0.0
  0
VERTEX
  5
29F
330
279
100
AcDbEntity
  8
GRAU_10_
 62
     7
100
AcDbVertex
100
AcDb2dVertex
 10
156.0318196224504
 20
129.1197672203242
 30
0.0
  0
VERTEX
  5
2A0
330
279
100
AcDbEntity
  8
GRAU_10_
 62
     7
100
AcDbVertex
100
AcDb2dVertex
 10
155.9630899675197
 20
129.1166666343875
 30
0.0
  0
VERTEX
  5
2A1
330
279
100
AcDbEntity
  8
GRAU_10_
 62
     7
100
AcDbVertex
100
AcDb2dVertex
 10
155.9291557769899
 20
129.1149440866449
 30
0.0
  0
VERTEX
  5
2A2
330
279
100
AcDbEntity
  8
GRAU_10_
 62
     7
100
AcDbVertex
100
AcDb2dVertex
 10
155.8960828603315
 20
129.1132215389023
 30
0.0
  0
VERTEX
  5
2A3
330
279
100
AcDbEntity
  8
GRAU_10_
 62
     7
100
AcDbVertex
100
AcDb2dVertex
 10
155.8638712175444
 20
129.1109822268369
 30
0.0
  0
VERTEX
  5
2A4
330
279
100
AcDbEntity
  8
GRAU_10_
 62
     7
100
AcDbVertex
100
AcDb2dVertex
 10
155.8332098677257
 20
129.1082261504486
 30
0.0
  0
VERTEX
  5
2A5
330
279
100
AcDbEntity
  8
GRAU_10_
 62
     7
100
AcDbVertex
100
AcDb2dVertex
 10
155.8028930274555
 20
129.1059868383832
 30
0.0
  0
VERTEX
  5
2A6
330
279
100
AcDbEntity
  8
GRAU_10_
 62
     7
100
AcDbVertex
100
AcDb2dVertex
 10
155.7739542253794
 20
129.103230761995
 30
0.0
  0
VERTEX
  5
2A7
330
279
100
AcDbEntity
  8
GRAU_10_
 62
     7
100
AcDbVertex
100
AcDb2dVertex
 10
155.7460489519489
 20
129.1011637047039
 30
0.0
  0
VERTEX
  5
2A8
330
279
100
AcDbEntity
  8
GRAU_10_
 62
     7
100
AcDbVertex
100
AcDb2dVertex
 10
155.7196939714867
 20
129.0980631187672
 30
0.0
  0
VERTEX
  5
2A9
330
279
100
AcDbEntity
  8
GRAU_10_
 62
     7
100
AcDbVertex
100
AcDb2dVertex
 10
155.6699123417249
 20
129.0930677303135
 30
0.0
  0
VERTEX
  5
2AA
330
279
100
AcDbEntity
  8
GRAU_10_
 62
     7
100
AcDbVertex
100
AcDb2dVertex
 10
155.6265041386108
 20
129.0877278323114
 30
0.0
  0
VERTEX
  5
2AB
330
279
100
AcDbEntity
  8
GRAU_10_
 62
     7
100
AcDbVertex
100
AcDb2dVertex
 10
155.606350330022
 20
129.0860052845688
 30
0.0
  0
VERTEX
  5
2AC
330
279
100
AcDbEntity
  8
GRAU_10_
 62
     7
100
AcDbVertex
100
AcDb2dVertex
 10
155.5884358334987
 20
129.0832492081806
 30
0.0
  0
VERTEX
  5
2AD
330
279
100
AcDbEntity
  8
GRAU_10_
 62
     7
100
AcDbVertex
100
AcDb2dVertex
 10
155.5799953495599
 20
129.0825601890835
 30
0.0
  0
VERTEX
  5
2AE
330
279
100
AcDbEntity
  8
GRAU_10_
 62
     7
100
AcDbVertex
100
AcDb2dVertex
 10
155.571554865621
 20
129.0810098961152
 30
0.0
  0
VERTEX
  5
2AF
330
279
100
AcDbEntity
  8
GRAU_10_
 62
     7
100
AcDbVertex
100
AcDb2dVertex
 10
155.5636311460049
 20
129.0803208770181
 30
0.0
  0
VERTEX
  5
2B0
330
279
100
AcDbEntity
  8
GRAU_10_
 62
     7
100
AcDbVertex
100
AcDb2dVertex
 10
155.5563964454859
 20
129.0792873483725
 30
0.0
  0
VERTEX
  5
2B1
330
279
100
AcDbEntity
  8
GRAU_10_
 62
     7
100
AcDbVertex
100
AcDb2dVertex
 10
155.5315917579921
 20
129.075669998113
 30
0.0
  0
VERTEX
  5
2B2
330
279
100
AcDbEntity
  8
GRAU_10_
 62
     7
100
AcDbVertex
100
AcDb2dVertex
 10
155.5136772614688
 20
129.0736029408219
 30
0.0
  0
VERTEX
  5
2B3
330
279
100
AcDbEntity
  8
GRAU_10_
 62
     7
100
AcDbVertex
100
AcDb2dVertex
 10
155.5076483443696
 20
129.0725694121763
 30
0.0
  0
VERTEX
  5
2B4
330
279
100
AcDbEntity
  8
GRAU_10_
 62
     7
100
AcDbVertex
100
AcDb2dVertex
 10
155.502652955916
 20
129.0718803930793
 30
0.0
  0
VERTEX
  5
2B5
330
279
100
AcDbEntity
  8
GRAU_10_
 62
     7
100
AcDbVertex
100
AcDb2dVertex
 10
155.5002413890763
 20
129.0711913739822
 30
0.0
  0
VERTEX
  5
2B6
330
279
100
AcDbEntity
  8
GRAU_10_
 62
     7
100
AcDbVertex
100
AcDb2dVertex
 10
155.4995523699793
 20
129.0711913739822
 30
0.0
  0
SEQEND
  5
2B7
330
279
100
AcDbEntity
  8
GRAU_10_
  0
POLYLINE
  5
2B8
330
1F
100
AcDbEntity
  8
GRAU_10_
 62
     7
100
AcDb2dPolyline
 66
     1
 10
0.0
 20
0.0
 30
0.0
  0
VERTEX
  5
2B9
330
2B8
100
AcDbEntity
  8
GRAU_10_
 62
     7
100
AcDbVertex
100
AcDb2dVertex
 10
150.3613647085034
 20
123.3530218875645
 30
0.0
  0
VERTEX
  5
2BA
330
2B8
100
AcDbEntity
  8
GRAU_10_
 62
     7
100
AcDbVertex
100
AcDb2dVertex
 10
150.3601589250836
 20
123.3568114925983
 30
0.0
  0
VERTEX
  5
2BB
330
2B8
100
AcDbEntity
  8
GRAU_10_
 62
     7
100
AcDbVertex
100
AcDb2dVertex
 10
150.3587808868895
 20
123.3671467790541
 30
0.0
  0
VERTEX
  5
2BC
330
2B8
100
AcDbEntity
  8
GRAU_10_
 62
     7
100
AcDbVertex
100
AcDb2dVertex
 10
150.3577473582439
 20
123.3752427534444
 30
0.0
  0
VERTEX
  5
2BD
330
2B8
100
AcDbEntity
  8
GRAU_10_
 62
     7
100
AcDbVertex
100
AcDb2dVertex
 10
150.3570583391468
 20
123.3854057851259
 30
0.0
  0
VERTEX
  5
2BE
330
2B8
100
AcDbEntity
  8
GRAU_10_
 62
     7
100
AcDbVertex
100
AcDb2dVertex
 10
150.3553357914042
 20
123.3971191097757
 30
0.0
  0
VERTEX
  5
2BF
330
2B8
100
AcDbEntity
  8
GRAU_10_
 62
     7
100
AcDbVertex
100
AcDb2dVertex
 10
150.3536132436616
 20
123.4098659630712
 30
0.0
  0
VERTEX
  5
2C0
330
2B8
100
AcDbEntity
  8
GRAU_10_
 62
     7
100
AcDbVertex
100
AcDb2dVertex
 10
150.3499958934021
 20
123.4415608415354
 30
0.0
  0
VERTEX
  5
2C1
330
2B8
100
AcDbEntity
  8
GRAU_10_
 62
     7
100
AcDbVertex
100
AcDb2dVertex
 10
150.3458617788198
 20
123.4789401275504
 30
0.0
  0
VERTEX
  5
2C2
330
2B8
100
AcDbEntity
  8
GRAU_10_
 62
     7
100
AcDbVertex
100
AcDb2dVertex
 10
150.3450005049485
 20
123.4894476687804
 30
0.0
  0
VERTEX
  5
2C3
330
2B8
100
AcDbEntity
  8
GRAU_10_
 62
     7
100
AcDbVertex
100
AcDb2dVertex
 10
150.3439669763029
 20
123.5004719743332
 30
0.0
  0
VERTEX
  5
2C4
330
2B8
100
AcDbEntity
  8
GRAU_10_
 62
     7
100
AcDbVertex
100
AcDb2dVertex
 10
150.3425889381088
 20
123.511496279886
 30
0.0
  0
VERTEX
  5
2C5
330
2B8
100
AcDbEntity
  8
GRAU_10_
 62
     7
100
AcDbVertex
100
AcDb2dVertex
 10
150.3415554094632
 20
123.5230373497616
 30
0.0
  0
VERTEX
  5
2C6
330
2B8
100
AcDbEntity
  8
GRAU_10_
 62
     7
100
AcDbVertex
100
AcDb2dVertex
 10
150.3391438426235
 20
123.5469807633841
 30
0.0
  0
VERTEX
  5
2C7
330
2B8
100
AcDbEntity
  8
GRAU_10_
 62
     7
100
AcDbVertex
100
AcDb2dVertex
 10
150.3365600210096
 20
123.5724744699749
 30
0.0
  0
VERTEX
  5
2C8
330
2B8
100
AcDbEntity
  8
GRAU_10_
 62
     7
100
AcDbVertex
100
AcDb2dVertex
 10
150.3317368873303
 20
123.6267347238676
 30
0.0
  0
VERTEX
  5
2C9
330
2B8
100
AcDbEntity
  8
GRAU_10_
 62
     7
100
AcDbVertex
100
AcDb2dVertex
 10
150.3274305179737
 20
123.6856458566654
 30
0.0
  0
VERTEX
  5
2CA
330
2B8
100
AcDbEntity
  8
GRAU_10_
 62
     7
100
AcDbVertex
100
AcDb2dVertex
 10
150.3263969893281
 20
123.701148786349
 30
0.0
  0
VERTEX
  5
2CB
330
2B8
100
AcDbEntity
  8
GRAU_10_
 62
     7
100
AcDbVertex
100
AcDb2dVertex
 10
150.3253634606826
 20
123.717512989904
 30
0.0
  0
VERTEX
  5
2CC
330
2B8
100
AcDbEntity
  8
GRAU_10_
 62
     7
100
AcDbVertex
100
AcDb2dVertex
 10
150.3239854224884
 20
123.7333604291361
 30
0.0
  0
VERTEX
  5
2CD
330
2B8
100
AcDbEntity
  8
GRAU_10_
 62
     7
100
AcDbVertex
100
AcDb2dVertex
 10
150.3227796390686
 20
123.7488633588197
 30
0.0
  0
VERTEX
  5
2CE
330
2B8
100
AcDbEntity
  8
GRAU_10_
 62
     7
100
AcDbVertex
100
AcDb2dVertex
 10
150.321057091326
 20
123.7819362754781
 30
0.0
  0
VERTEX
  5
2CF
330
2B8
100
AcDbEntity
  8
GRAU_10_
 62
     7
100
AcDbVertex
100
AcDb2dVertex
 10
150.3189900340348
 20
123.8151814469108
 30
0.0
  0
VERTEX
  5
2D0
330
2B8
100
AcDbEntity
  8
GRAU_10_
 62
     7
100
AcDbVertex
100
AcDb2dVertex
 10
150.3172674862922
 20
123.8498046565376
 30
0.0
  0
VERTEX
  5
2D1
330
2B8
100
AcDbEntity
  8
GRAU_10_
 62
     7
100
AcDbVertex
100
AcDb2dVertex
 10
150.3160617028724
 20
123.8842556113901
 30
0.0
  0
VERTEX
  5
2D2
330
2B8
100
AcDbEntity
  8
GRAU_10_
 62
     7
100
AcDbVertex
100
AcDb2dVertex
 10
150.3153726837753
 20
123.9021701079133
 30
0.0
  0
VERTEX
  5
2D3
330
2B8
100
AcDbEntity
  8
GRAU_10_
 62
     7
100
AcDbVertex
100
AcDb2dVertex
 10
150.3146836646783
 20
123.9199123496624
 30
0.0
  0
VERTEX
  5
2D4
330
2B8
100
AcDbEntity
  8
GRAU_10_
 62
     7
100
AcDbVertex
100
AcDb2dVertex
 10
150.3143391551297
 20
123.9383436105085
 30
0.0
  0
VERTEX
  5
2D5
330
2B8
100
AcDbEntity
  8
GRAU_10_
 62
     7
100
AcDbVertex
100
AcDb2dVertex
 10
150.3136501360327
 20
123.9559135974832
 30
0.0
  0
VERTEX
  5
2D6
330
2B8
100
AcDbEntity
  8
GRAU_10_
 62
     7
100
AcDbVertex
100
AcDb2dVertex
 10
150.3119275882901
 20
124.0289496217706
 30
0.0
  0
VERTEX
  5
2D7
330
2B8
100
AcDbEntity
  8
GRAU_10_
 62
     7
100
AcDbVertex
100
AcDb2dVertex
 10
150.311238569193
 20
124.1019856460578
 30
0.0
  0
VERTEX
  5
2D8
330
2B8
100
AcDbEntity
  8
GRAU_10_
 62
     7
100
AcDbVertex
100
AcDb2dVertex
 10
150.311238569193
 20
124.1390204225243
 30
0.0
  0
VERTEX
  5
2D9
330
2B8
100
AcDbEntity
  8
GRAU_10_
 62
     7
100
AcDbVertex
100
AcDb2dVertex
 10
150.311238569193
 20
124.1760551989907
 30
0.0
  0
VERTEX
  5
2DA
330
2B8
100
AcDbEntity
  8
GRAU_10_
 62
     7
100
AcDbVertex
100
AcDb2dVertex
 10
150.3119275882901
 20
124.1943142050625
 30
0.0
  0
VERTEX
  5
2DB
330
2B8
100
AcDbEntity
  8
GRAU_10_
 62
     7
100
AcDbVertex
100
AcDb2dVertex
 10
150.3119275882901
 20
124.2127454659086
 30
0.0
  0
VERTEX
  5
2DC
330
2B8
100
AcDbEntity
  8
GRAU_10_
 62
     7
100
AcDbVertex
100
AcDb2dVertex
 10
150.3126166073871
 20
124.2306599624319
 30
0.0
  0
VERTEX
  5
2DD
330
2B8
100
AcDbEntity
  8
GRAU_10_
 62
     7
100
AcDbVertex
100
AcDb2dVertex
 10
150.3126166073871
 20
124.249091223278
 30
0.0
  0
VERTEX
  5
2DE
330
2B8
100
AcDbEntity
  8
GRAU_10_
 62
     7
100
AcDbVertex
100
AcDb2dVertex
 10
150.3143391551297
 20
124.3200601902742
 30
0.0
  0
VERTEX
  5
2DF
330
2B8
100
AcDbEntity
  8
GRAU_10_
 62
     7
100
AcDbVertex
100
AcDb2dVertex
 10
150.3172674862922
 20
124.3894788643019
 30
0.0
  0
VERTEX
  5
2E0
330
2B8
100
AcDbEntity
  8
GRAU_10_
 62
     7
100
AcDbVertex
100
AcDb2dVertex
 10
150.3186455244863
 20
124.4234130548317
 30
0.0
  0
VERTEX
  5
2E1
330
2B8
100
AcDbEntity
  8
GRAU_10_
 62
     7
100
AcDbVertex
100
AcDb2dVertex
 10
150.3203680722289
 20
124.4561414619415
 30
0.0
  0
VERTEX
  5
2E2
330
2B8
100
AcDbEntity
  8
GRAU_10_
 62
     7
100
AcDbVertex
100
AcDb2dVertex
 10
150.3220906199716
 20
124.4881808499543
 30
0.0
  0
VERTEX
  5
2E3
330
2B8
100
AcDbEntity
  8
GRAU_10_
 62
     7
100
AcDbVertex
100
AcDb2dVertex
 10
150.3246744415855
 20
124.5195312188701
 30
0.0
  0
VERTEX
  5
2E4
330
2B8
100
AcDbEntity
  8
GRAU_10_
 62
     7
100
AcDbVertex
100
AcDb2dVertex
 10
150.3288085561678
 20
124.5777533325709
 30
0.0
  0
VERTEX
  5
2E5
330
2B8
100
AcDbEntity
  8
GRAU_10_
 62
     7
100
AcDbVertex
100
AcDb2dVertex
 10
150.3331149255244
 20
124.6325303507863
 30
0.0
  0
VERTEX
  5
2E6
330
2B8
100
AcDbEntity
  8
GRAU_10_
 62
     7
100
AcDbVertex
100
AcDb2dVertex
 10
150.3372490401067
 20
124.6826564900967
 30
0.0
  0
VERTEX
  5
2E7
330
2B8
100
AcDbEntity
  8
GRAU_10_
 62
     7
100
AcDbVertex
100
AcDb2dVertex
 10
150.3415554094632
 20
124.7258924384366
 30
0.0
  0
VERTEX
  5
2E8
330
2B8
100
AcDbEntity
  8
GRAU_10_
 62
     7
100
AcDbVertex
100
AcDb2dVertex
 10
150.3439669763029
 20
124.7457017374768
 30
0.0
  0
VERTEX
  5
2E9
330
2B8
100
AcDbEntity
  8
GRAU_10_
 62
     7
100
AcDbVertex
100
AcDb2dVertex
 10
150.3458617788198
 20
124.7641329983229
 30
0.0
  0
VERTEX
  5
2EA
330
2B8
100
AcDbEntity
  8
GRAU_10_
 62
     7
100
AcDbVertex
100
AcDb2dVertex
 10
150.3475843265624
 20
124.7803249471035
 30
0.0
  0
VERTEX
  5
2EB
330
2B8
100
AcDbEntity
  8
GRAU_10_
 62
     7
100
AcDbVertex
100
AcDb2dVertex
 10
150.349306874305
 20
124.7954833672386
 30
0.0
  0
VERTEX
  5
2EC
330
2B8
100
AcDbEntity
  8
GRAU_10_
 62
     7
100
AcDbVertex
100
AcDb2dVertex
 10
150.3517184411447
 20
124.820632564281
 30
0.0
  0
VERTEX
  5
2ED
330
2B8
100
AcDbEntity
  8
GRAU_10_
 62
     7
100
AcDbVertex
100
AcDb2dVertex
 10
150.3543022627587
 20
124.8385470608043
 30
0.0
  0
VERTEX
  5
2EE
330
2B8
100
AcDbEntity
  8
GRAU_10_
 62
     7
100
AcDbVertex
100
AcDb2dVertex
 10
150.3546467723072
 20
124.8445759779034
 30
0.0
  0
VERTEX
  5
2EF
330
2B8
100
AcDbEntity
  8
GRAU_10_
 62
     7
100
AcDbVertex
100
AcDb2dVertex
 10
150.3553357914042
 20
124.8492268568085
 30
0.0
  0
VERTEX
  5
2F0
330
2B8
100
AcDbEntity
  8
GRAU_10_
 62
     7
100
AcDbVertex
100
AcDb2dVertex
 10
150.3560248105013
 20
124.8523274427453
 30
0.0
  0
VERTEX
  5
2F1
330
2B8
100
AcDbEntity
  8
GRAU_10_
 62
     7
100
AcDbVertex
100
AcDb2dVertex
 10
150.3560248105013
 20
124.8526719522938
 30
0.0
  0
SEQEND
  5
2F2
330
2B8
100
AcDbEntity
  8
GRAU_10_
  0
POLYLINE
  5
2F3
330
1F
100
AcDbEntity
  8
GRAU_10_
 62
     7
100
AcDb2dPolyline
 66
     1
 10
0.0
 20
0.0
 30
0.0
  0
VERTEX
  5
2F4
330
2F3
100
AcDbEntity
  8
GRAU_10_
 62
     7
100
AcDbVertex
100
AcDb2dVertex
 10
151.2729369739005
 20
124.8526719522938
 30
0.0
  0
VERTEX
  5
2F5
330
2F3
100
AcDbEntity
  8
GRAU_10_
 62
     7
100
AcDbVertex
100
AcDb2dVertex
 10
151.2722479548035
 20
124.8492268568085
 30
0.0
  0
VERTEX
  5
2F6
330
2F3
100
AcDbEntity
  8
GRAU_10_
 62
     7
100
AcDbVertex
100
AcDb2dVertex
 10
151.2703531522866
 20
124.8385470608043
 30
0.0
  0
VERTEX
  5
2F7
330
2F3
100
AcDbEntity
  8
GRAU_10_
 62
     7
100
AcDbVertex
100
AcDb2dVertex
 10
151.269319623641
 20
124.8304510864139
 30
0.0
  0
VERTEX
  5
2F8
330
2F3
100
AcDbEntity
  8
GRAU_10_
 62
     7
100
AcDbVertex
100
AcDb2dVertex
 10
151.2679415854469
 20
124.820632564281
 30
0.0
  0
VERTEX
  5
2F9
330
2F3
100
AcDbEntity
  8
GRAU_10_
 62
     7
100
AcDbVertex
100
AcDb2dVertex
 10
151.2669080568013
 20
124.8089192396311
 30
0.0
  0
VERTEX
  5
2FA
330
2F3
100
AcDbEntity
  8
GRAU_10_
 62
     7
100
AcDbVertex
100
AcDb2dVertex
 10
151.2644964899617
 20
124.7954833672386
 30
0.0
  0
VERTEX
  5
2FB
330
2F3
100
AcDbEntity
  8
GRAU_10_
 62
     7
100
AcDbVertex
100
AcDb2dVertex
 10
151.2608791397022
 20
124.7644775078714
 30
0.0
  0
VERTEX
  5
2FC
330
2F3
100
AcDbEntity
  8
GRAU_10_
 62
     7
100
AcDbVertex
100
AcDb2dVertex
 10
151.2558837512485
 20
124.7267537123079
 30
0.0
  0
VERTEX
  5
2FD
330
2F3
100
AcDbEntity
  8
GRAU_10_
 62
     7
100
AcDbVertex
100
AcDb2dVertex
 10
151.254850222603
 20
124.7165906806264
 30
0.0
  0
VERTEX
  5
2FE
330
2F3
100
AcDbEntity
  8
GRAU_10_
 62
     7
100
AcDbVertex
100
AcDb2dVertex
 10
151.2534721844088
 20
124.7052218655251
 30
0.0
  0
VERTEX
  5
2FF
330
2F3
100
AcDbEntity
  8
GRAU_10_
 62
     7
100
AcDbVertex
100
AcDb2dVertex
 10
151.2517496366662
 20
124.6941975599723
 30
0.0
  0
VERTEX
  5
300
330
2F3
100
AcDbEntity
  8
GRAU_10_
 62
     7
100
AcDbVertex
100
AcDb2dVertex
 10
151.2507161080207
 20
124.6826564900967
 30
0.0
  0
VERTEX
  5
301
330
2F3
100
AcDbEntity
  8
GRAU_10_
 62
     7
100
AcDbVertex
100
AcDb2dVertex
 10
151.2481322864067
 20
124.6587130764742
 30
0.0
  0
VERTEX
  5
302
330
2F3
100
AcDbEntity
  8
GRAU_10_
 62
     7
100
AcDbVertex
100
AcDb2dVertex
 10
151.2457207195671
 20
124.6332193698834
 30
0.0
  0
VERTEX
  5
303
330
2F3
100
AcDbEntity
  8
GRAU_10_
 62
     7
100
AcDbVertex
100
AcDb2dVertex
 10
151.2403808215649
 20
124.5791313707649
 30
0.0
  0
VERTEX
  5
304
330
2F3
100
AcDbEntity
  8
GRAU_10_
 62
     7
100
AcDbVertex
100
AcDb2dVertex
 10
151.2348686687885
 20
124.5198757284187
 30
0.0
  0
VERTEX
  5
305
330
2F3
100
AcDbEntity
  8
GRAU_10_
 62
     7
100
AcDbVertex
100
AcDb2dVertex
 10
151.2336628853687
 20
124.504372798735
 30
0.0
  0
VERTEX
  5
306
330
2F3
100
AcDbEntity
  8
GRAU_10_
 62
     7
100
AcDbVertex
100
AcDb2dVertex
 10
151.2329738662716
 20
124.4885253595029
 30
0.0
  0
VERTEX
  5
307
330
2F3
100
AcDbEntity
  8
GRAU_10_
 62
     7
100
AcDbVertex
100
AcDb2dVertex
 10
151.231251318529
 20
124.4726779202707
 30
0.0
  0
VERTEX
  5
308
330
2F3
100
AcDbEntity
  8
GRAU_10_
 62
     7
100
AcDbVertex
100
AcDb2dVertex
 10
151.2305622994319
 20
124.4568304810386
 30
0.0
  0
VERTEX
  5
309
330
2F3
100
AcDbEntity
  8
GRAU_10_
 62
     7
100
AcDbVertex
100
AcDb2dVertex
 10
151.2281507325923
 20
124.4237575643802
 30
0.0
  0
VERTEX
  5
30A
330
2F3
100
AcDbEntity
  8
GRAU_10_
 62
     7
100
AcDbVertex
100
AcDb2dVertex
 10
151.2262559300754
 20
124.390167883399
 30
0.0
  0
VERTEX
  5
30B
330
2F3
100
AcDbEntity
  8
GRAU_10_
 62
     7
100
AcDbVertex
100
AcDb2dVertex
 10
151.2245333823328
 20
124.3558891833208
 30
0.0
  0
VERTEX
  5
30C
330
2F3
100
AcDbEntity
  8
GRAU_10_
 62
     7
100
AcDbVertex
100
AcDb2dVertex
 10
151.2234998536872
 20
124.3214382284683
 30
0.0
  0
VERTEX
  5
30D
330
2F3
100
AcDbEntity
  8
GRAU_10_
 62
     7
100
AcDbVertex
100
AcDb2dVertex
 10
151.2228108345901
 20
124.3033514771707
 30
0.0
  0
VERTEX
  5
30E
330
2F3
100
AcDbEntity
  8
GRAU_10_
 62
     7
100
AcDbVertex
100
AcDb2dVertex
 10
151.2221218154931
 20
124.2857814901959
 30
0.0
  0
VERTEX
  5
30F
330
2F3
100
AcDbEntity
  8
GRAU_10_
 62
     7
100
AcDbVertex
100
AcDb2dVertex
 10
151.2217773059446
 20
124.2673502293498
 30
0.0
  0
VERTEX
  5
310
330
2F3
100
AcDbEntity
  8
GRAU_10_
 62
     7
100
AcDbVertex
100
AcDb2dVertex
 10
151.2210882868475
 20
124.2494357328265
 30
0.0
  0
VERTEX
  5
311
330
2F3
100
AcDbEntity
  8
GRAU_10_
 62
     7
100
AcDbVertex
100
AcDb2dVertex
 10
151.2195379938792
 20
124.1763997085392
 30
0.0
  0
VERTEX
  5
312
330
2F3
100
AcDbEntity
  8
GRAU_10_
 62
     7
100
AcDbVertex
100
AcDb2dVertex
 10
151.2191934843306
 20
124.1030191747034
 30
0.0
  0
VERTEX
  5
313
330
2F3
100
AcDbEntity
  8
GRAU_10_
 62
     7
100
AcDbVertex
100
AcDb2dVertex
 10
151.2195379938792
 20
124.0663289077855
 30
0.0
  0
VERTEX
  5
314
330
2F3
100
AcDbEntity
  8
GRAU_10_
 62
     7
100
AcDbVertex
100
AcDb2dVertex
 10
151.2203992677505
 20
124.0296386408676
 30
0.0
  0
VERTEX
  5
315
330
2F3
100
AcDbEntity
  8
GRAU_10_
 62
     7
100
AcDbVertex
100
AcDb2dVertex
 10
151.2203992677505
 20
124.0113796347958
 30
0.0
  0
VERTEX
  5
316
330
2F3
100
AcDbEntity
  8
GRAU_10_
 62
     7
100
AcDbVertex
100
AcDb2dVertex
 10
151.2210882868475
 20
123.9926038644012
 30
0.0
  0
VERTEX
  5
317
330
2F3
100
AcDbEntity
  8
GRAU_10_
 62
     7
100
AcDbVertex
100
AcDb2dVertex
 10
151.2217773059446
 20
123.9741726035551
 30
0.0
  0
VERTEX
  5
318
330
2F3
100
AcDbEntity
  8
GRAU_10_
 62
     7
100
AcDbVertex
100
AcDb2dVertex
 10
151.2221218154931
 20
123.9566026165803
 30
0.0
  0
VERTEX
  5
319
330
2F3
100
AcDbEntity
  8
GRAU_10_
 62
     7
100
AcDbVertex
100
AcDb2dVertex
 10
151.2252224014298
 20
123.8852891400356
 30
0.0
  0
VERTEX
  5
31A
330
2F3
100
AcDbEntity
  8
GRAU_10_
 62
     7
100
AcDbVertex
100
AcDb2dVertex
 10
151.2288397516893
 20
123.8162149755564
 30
0.0
  0
VERTEX
  5
31B
330
2F3
100
AcDbEntity
  8
GRAU_10_
 62
     7
100
AcDbVertex
100
AcDb2dVertex
 10
151.231251318529
 20
123.7822807850267
 30
0.0
  0
VERTEX
  5
31C
330
2F3
100
AcDbEntity
  8
GRAU_10_
 62
     7
100
AcDbVertex
100
AcDb2dVertex
 10
151.2329738662716
 20
123.7492078683683
 30
0.0
  0
VERTEX
  5
31D
330
2F3
100
AcDbEntity
  8
GRAU_10_
 62
     7
100
AcDbVertex
100
AcDb2dVertex
 10
151.2362467069826
 20
123.717512989904
 30
0.0
  0
VERTEX
  5
31E
330
2F3
100
AcDbEntity
  8
GRAU_10_
 62
     7
100
AcDbVertex
100
AcDb2dVertex
 10
151.2386582738223
 20
123.6859903662139
 30
0.0
  0
VERTEX
  5
31F
330
2F3
100
AcDbEntity
  8
GRAU_10_
 62
     7
100
AcDbVertex
100
AcDb2dVertex
 10
151.2414143502105
 20
123.6567070545893
 30
0.0
  0
VERTEX
  5
320
330
2F3
100
AcDbEntity
  8
GRAU_10_
 62
     7
100
AcDbVertex
100
AcDb2dVertex
 10
151.2439981718244
 20
123.6277682525132
 30
0.0
  0
VERTEX
  5
321
330
2F3
100
AcDbEntity
  8
GRAU_10_
 62
     7
100
AcDbVertex
100
AcDb2dVertex
 10
151.2470987577611
 20
123.5996907243084
 30
0.0
  0
VERTEX
  5
322
330
2F3
100
AcDbEntity
  8
GRAU_10_
 62
     7
100
AcDbVertex
100
AcDb2dVertex
 10
151.2500270889236
 20
123.5728189795235
 30
0.0
  0
VERTEX
  5
323
330
2F3
100
AcDbEntity
  8
GRAU_10_
 62
     7
100
AcDbVertex
100
AcDb2dVertex
 10
151.2551947321515
 20
123.5233818593101
 30
0.0
  0
VERTEX
  5
324
330
2F3
100
AcDbEntity
  8
GRAU_10_
 62
     7
100
AcDbVertex
100
AcDb2dVertex
 10
151.2608791397022
 20
123.479973656196
 30
0.0
  0
VERTEX
  5
325
330
2F3
100
AcDbEntity
  8
GRAU_10_
 62
     7
100
AcDbVertex
100
AcDb2dVertex
 10
151.2632907065418
 20
123.4601643571558
 30
0.0
  0
VERTEX
  5
326
330
2F3
100
AcDbEntity
  8
GRAU_10_
 62
     7
100
AcDbVertex
100
AcDb2dVertex
 10
151.2662190377043
 20
123.441905351084
 30
0.0
  0
VERTEX
  5
327
330
2F3
100
AcDbEntity
  8
GRAU_10_
 62
     7
100
AcDbVertex
100
AcDb2dVertex
 10
151.2669080568013
 20
123.4331203575966
 30
0.0
  0
VERTEX
  5
328
330
2F3
100
AcDbEntity
  8
GRAU_10_
 62
     7
100
AcDbVertex
100
AcDb2dVertex
 10
151.268630604544
 20
123.4250243832062
 30
0.0
  0
VERTEX
  5
329
330
2F3
100
AcDbEntity
  8
GRAU_10_
 62
     7
100
AcDbVertex
100
AcDb2dVertex
 10
151.269319623641
 20
123.4174451731387
 30
0.0
  0
VERTEX
  5
32A
330
2F3
100
AcDbEntity
  8
GRAU_10_
 62
     7
100
AcDbVertex
100
AcDb2dVertex
 10
151.2703531522866
 20
123.4105549821682
 30
0.0
  0
VERTEX
  5
32B
330
2F3
100
AcDbEntity
  8
GRAU_10_
 62
     7
100
AcDbVertex
100
AcDb2dVertex
 10
151.2743150120946
 20
123.3854057851259
 30
0.0
  0
VERTEX
  5
32C
330
2F3
100
AcDbEntity
  8
GRAU_10_
 62
     7
100
AcDbVertex
100
AcDb2dVertex
 10
151.2770710884828
 20
123.3674912886026
 30
0.0
  0
VERTEX
  5
32D
330
2F3
100
AcDbEntity
  8
GRAU_10_
 62
     7
100
AcDbVertex
100
AcDb2dVertex
 10
151.2777601075799
 20
123.3614623715034
 30
0.0
  0
VERTEX
  5
32E
330
2F3
100
AcDbEntity
  8
GRAU_10_
 62
     7
100
AcDbVertex
100
AcDb2dVertex
 10
151.2784491266769
 20
123.3568114925983
 30
0.0
  0
VERTEX
  5
32F
330
2F3
100
AcDbEntity
  8
GRAU_10_
 62
     7
100
AcDbVertex
100
AcDb2dVertex
 10
151.2789658909997
 20
123.3537109066616
 30
0.0
  0
VERTEX
  5
330
330
2F3
100
AcDbEntity
  8
GRAU_10_
 62
     7
100
AcDbVertex
100
AcDb2dVertex
 10
151.2789658909997
 20
123.3530218875645
 30
0.0
  0
SEQEND
  5
331
330
2F3
100
AcDbEntity
  8
GRAU_10_
  0
POLYLINE
  5
333
330
1F
100
AcDbEntity
  8
STANDARDEBENE
  6
AI-LINETYPE-4
 62
     7
100
AcDb2dPolyline
 66
     1
 10
0.0
 20
0.0
 30
0.0
  0
VERTEX
  5
334
330
333
100
AcDbEntity
  8
STANDARDEBENE
  6
AI-LINETYPE-4
 62
     7
100
AcDbVertex
100
AcDb2dVertex
 10
50.49200845091867
 20
129.0622341257206
 30
0.0
  0
VERTEX
  5
335
330
333
100
AcDbEntity
  8
STANDARDEBENE
  6
AI-LINETYPE-4
 62
     7
100
AcDbVertex
100
AcDb2dVertex
 10
92.19609508328779
 20
129.0622341257206
 30
0.0
  0
SEQEND
  5
336
330
333
100
AcDbEntity
  8
STANDARDEBENE
  6
AI-LINETYPE-4
  0
POLYLINE
  5
338
330
1F
100
AcDbEntity
  8
STANDARDEBENE
  6
AI-LINETYPE-5
 62
     7
100
AcDb2dPolyline
 66
     1
 10
0.0
 20
0.0
 30
0.0
  0
VERTEX
  5
339
330
338
100
AcDbEntity
  8
STANDARDEBENE
  6
AI-LINETYPE-5
 62
     7
100
AcDbVertex
100
AcDb2dVertex
 10
92.38850366613899
 20
119.194791636868
 30
0.0
  0
VERTEX
  5
33A
330
338
100
AcDbEntity
  8
STANDARDEBENE
  6
AI-LINETYPE-5
 62
     7
100
AcDbVertex
100
AcDb2dVertex
 10
50.49200845091867
 20
119.194791636868
 30
0.0
  0
SEQEND
  5
33B
330
338
100
AcDbEntity
  8
STANDARDEBENE
  6
AI-LINETYPE-5
  0
POLYLINE
  5
33E
330
1F
100
AcDbEntity
  8
BEMAßUNG
 62
     7
100
AcDb2dPolyline
 66
     1
 10
0.0
 20
0.0
 30
0.0
  0
VERTEX
  5
33F
330
33E
100
AcDbEntity
  8
BEMAßUNG
 62
     7
100
AcDbVertex
100
AcDb2dVertex
 10
92.4927178045678
 20
130.1234957899518
 30
0.0
  0
VERTEX
  5
340
330
33E
100
AcDbEntity
  8
BEMAßUNG
 62
     7
100
AcDbVertex
100
AcDb2dVertex
 10
114.4922362995019
 20
130.1234957899518
 30
0.0
  0
SEQEND
  5
341
330
33E
100
AcDbEntity
  8
BEMAßUNG
  0
POLYLINE
  5
342
330
1F
100
AcDbEntity
  8
BEMAßUNG
 62
     7
100
AcDb2dPolyline
 66
     1
 10
0.0
 20
0.0
 30
0.0
  0
VERTEX
  5
343
330
342
100
AcDbEntity
  8
BEMAßUNG
 62
     7
100
AcDbVertex
100
AcDb2dVertex
 10
92.4927178045678
 20
118.1230224314068
 30
0.0
  0
VERTEX
  5
344
330
342
100
AcDbEntity
  8
BEMAßUNG
 62
     7
100
AcDbVertex
100
AcDb2dVertex
 10
114.4922362995019
 20
118.1230224314068
 30
0.0
  0
SEQEND
  5
345
330
342
100
AcDbEntity
  8
BEMAßUNG
  0
POLYLINE
  5
346
330
1F
100
AcDbEntity
  8
BEMAßUNG
 62
     7
100
AcDb2dPolyline
 66
     1
 10
0.0
 20
0.0
 30
0.0
  0
VERTEX
  5
347
330
346
100
AcDbEntity
  8
BEMAßUNG
 62
     7
100
AcDbVertex
100
AcDb2dVertex
 10
112.4920138607659
 20
118.1230224314068
 30
0.0
  0
VERTEX
  5
348
330
346
100
AcDbEntity
  8
BEMAßUNG
 62
     7
100
AcDbVertex
100
AcDb2dVertex
 10
112.4920138607659
 20
146.2594617689907
 30
0.0
  0
SEQEND
  5
349
330
346
100
AcDbEntity
  8
BEMAßUNG
  0
POLYLINE
  5
34A
330
1F
100
AcDbEntity
  8
BEMAßUNG
 62
     7
100
AcDb2dPolyline
 66
     1
 10
0.0
 20
0.0
 30
0.0
  0
VERTEX
  5
34B
330
34A
100
AcDbEntity
  8
BEMAßUNG
 62
     7
100
AcDbVertex
100
AcDb2dVertex
 10
112.4920138607659
 20
130.1234957899518
 30
0.0
  0
VERTEX
  5
34C
330
34A
100
AcDbEntity
  8
BEMAßUNG
 62
     7
100
AcDbVertex
100
AcDb2dVertex
 10
112.0312323396137
 20
126.6232787769379
 30
0.0
  0
VERTEX
  5
34D
330
34A
100
AcDbEntity
  8
BEMAßUNG
 62
     7
100
AcDbVertex
100
AcDb2dVertex
 10
112.9531398914666
 20
126.6232787769379
 30
0.0
  0
VERTEX
  5
34E
330
34A
100
AcDbEntity
  8
BEMAßUNG
 62
     7
100
AcDbVertex
100
AcDb2dVertex
 10
112.4920138607659
 20
130.1234957899518
 30
0.0
  0
SEQEND
  5
34F
330
34A
100
AcDbEntity
  8
BEMAßUNG
  0
POLYLINE
  5
350
330
1F
100
AcDbEntity
  8
BEMAßUNG
 62
     7
100
AcDb2dPolyline
 66
     1
 10
0.0
 20
0.0
 30
0.0
  0
VERTEX
  5
351
330
350
100
AcDbEntity
  8
BEMAßUNG
 62
     7
100
AcDbVertex
100
AcDb2dVertex
 10
112.0348496898732
 20
126.6232787769379
 30
0.0
  0
VERTEX
  5
352
330
350
100
AcDbEntity
  8
BEMAßUNG
 62
     7
100
AcDbVertex
100
AcDb2dVertex
 10
112.0348496898732
 20
126.6503227764971
 30
0.0
  0
SEQEND
  5
353
330
350
100
AcDbEntity
  8
BEMAßUNG
  0
POLYLINE
  5
354
330
1F
100
AcDbEntity
  8
BEMAßUNG
 62
     7
100
AcDb2dPolyline
 66
     1
 10
0.0
 20
0.0
 30
0.0
  0
VERTEX
  5
355
330
354
100
AcDbEntity
  8
BEMAßUNG
 62
     7
100
AcDbVertex
100
AcDb2dVertex
 10
112.0348496898732
 20
126.6232787769379
 30
0.0
  0
VERTEX
  5
356
330
354
100
AcDbEntity
  8
BEMAßUNG
 62
     7
100
AcDbVertex
100
AcDb2dVertex
 10
112.0348496898732
 20
126.6503227764971
 30
0.0
  0
SEQEND
  5
357
330
354
100
AcDbEntity
  8
BEMAßUNG
  0
POLYLINE
  5
358
330
1F
100
AcDbEntity
  8
BEMAßUNG
 62
     7
100
AcDb2dPolyline
 66
     1
 10
0.0
 20
0.0
 30
0.0
  0
VERTEX
  5
359
330
358
100
AcDbEntity
  8
BEMAßUNG
 62
     7
100
AcDbVertex
100
AcDb2dVertex
 10
112.0856648482807
 20
126.6232787769379
 30
0.0
  0
VERTEX
  5
35A
330
358
100
AcDbEntity
  8
BEMAßUNG
 62
     7
100
AcDbVertex
100
AcDb2dVertex
 10
112.0856648482807
 20
127.0366902351679
 30
0.0
  0
SEQEND
  5
35B
330
358
100
AcDbEntity
  8
BEMAßUNG
  0
POLYLINE
  5
35C
330
1F
100
AcDbEntity
  8
BEMAßUNG
 62
     7
100
AcDb2dPolyline
 66
     1
 10
0.0
 20
0.0
 30
0.0
  0
VERTEX
  5
35D
330
35C
100
AcDbEntity
  8
BEMAßUNG
 62
     7
100
AcDbVertex
100
AcDb2dVertex
 10
112.1364800066881
 20
126.6232787769379
 30
0.0
  0
VERTEX
  5
35E
330
35C
100
AcDbEntity
  8
BEMAßUNG
 62
     7
100
AcDbVertex
100
AcDb2dVertex
 10
112.1364800066881
 20
127.4223686747416
 30
0.0
  0
SEQEND
  5
35F
330
35C
100
AcDbEntity
  8
BEMAßUNG
  0
POLYLINE
  5
360
330
1F
100
AcDbEntity
  8
BEMAßUNG
 62
     7
100
AcDb2dPolyline
 66
     1
 10
0.0
 20
0.0
 30
0.0
  0
VERTEX
  5
361
330
360
100
AcDbEntity
  8
BEMAßUNG
 62
     7
100
AcDbVertex
100
AcDb2dVertex
 10
112.1876396746441
 20
126.6232787769379
 30
0.0
  0
VERTEX
  5
362
330
360
100
AcDbEntity
  8
BEMAßUNG
 62
     7
100
AcDbVertex
100
AcDb2dVertex
 10
112.1876396746441
 20
127.8082193690896
 30
0.0
  0
SEQEND
  5
363
330
360
100
AcDbEntity
  8
BEMAßUNG
  0
POLYLINE
  5
364
330
1F
100
AcDbEntity
  8
BEMAßUNG
 62
     7
100
AcDb2dPolyline
 66
     1
 10
0.0
 20
0.0
 30
0.0
  0
VERTEX
  5
365
330
364
100
AcDbEntity
  8
BEMAßUNG
 62
     7
100
AcDbVertex
100
AcDb2dVertex
 10
112.2384548330515
 20
126.6232787769379
 30
0.0
  0
VERTEX
  5
366
330
364
100
AcDbEntity
  8
BEMAßUNG
 62
     7
100
AcDbVertex
100
AcDb2dVertex
 10
112.2384548330515
 20
128.1937255538891
 30
0.0
  0
SEQEND
  5
367
330
364
100
AcDbEntity
  8
BEMAßUNG
  0
POLYLINE
  5
368
330
1F
100
AcDbEntity
  8
BEMAßUNG
 62
     7
100
AcDb2dPolyline
 66
     1
 10
0.0
 20
0.0
 30
0.0
  0
VERTEX
  5
369
330
368
100
AcDbEntity
  8
BEMAßUNG
 62
     7
100
AcDbVertex
100
AcDb2dVertex
 10
112.2890977366847
 20
126.6232787769379
 30
0.0
  0
VERTEX
  5
36A
330
368
100
AcDbEntity
  8
BEMAßUNG
 62
     7
100
AcDbVertex
100
AcDb2dVertex
 10
112.2890977366847
 20
128.5800930125598
 30
0.0
  0
SEQEND
  5
36B
330
368
100
AcDbEntity
  8
BEMAßUNG
  0
POLYLINE
  5
36C
330
1F
100
AcDbEntity
  8
BEMAßUNG
 62
     7
100
AcDb2dPolyline
 66
     1
 10
0.0
 20
0.0
 30
0.0
  0
VERTEX
  5
36D
330
36C
100
AcDbEntity
  8
BEMAßUNG
 62
     7
100
AcDbVertex
100
AcDb2dVertex
 10
112.3399128950921
 20
126.6232787769379
 30
0.0
  0
VERTEX
  5
36E
330
36C
100
AcDbEntity
  8
BEMAßUNG
 62
     7
100
AcDbVertex
100
AcDb2dVertex
 10
112.3399128950921
 20
128.9657714521336
 30
0.0
  0
SEQEND
  5
36F
330
36C
100
AcDbEntity
  8
BEMAßUNG
  0
POLYLINE
  5
370
330
1F
100
AcDbEntity
  8
BEMAßUNG
 62
     7
100
AcDb2dPolyline
 66
     1
 10
0.0
 20
0.0
 30
0.0
  0
VERTEX
  5
371
330
370
100
AcDbEntity
  8
BEMAßUNG
 62
     7
100
AcDbVertex
100
AcDb2dVertex
 10
112.3907280534995
 20
126.6232787769379
 30
0.0
  0
VERTEX
  5
372
330
370
100
AcDbEntity
  8
BEMAßUNG
 62
     7
100
AcDbVertex
100
AcDb2dVertex
 10
112.3907280534995
 20
129.3519666560301
 30
0.0
  0
SEQEND
  5
373
330
370
100
AcDbEntity
  8
BEMAßUNG
  0
POLYLINE
  5
374
330
1F
100
AcDbEntity
  8
BEMAßUNG
 62
     7
100
AcDb2dPolyline
 66
     1
 10
0.0
 20
0.0
 30
0.0
  0
VERTEX
  5
375
330
374
100
AcDbEntity
  8
BEMAßUNG
 62
     7
100
AcDbVertex
100
AcDb2dVertex
 10
112.441543211907
 20
126.6232787769379
 30
0.0
  0
VERTEX
  5
376
330
374
100
AcDbEntity
  8
BEMAßUNG
 62
     7
100
AcDbVertex
100
AcDb2dVertex
 10
112.441543211907
 20
129.737128331281
 30
0.0
  0
SEQEND
  5
377
330
374
100
AcDbEntity
  8
BEMAßUNG
  0
POLYLINE
  5
378
330
1F
100
AcDbEntity
  8
BEMAßUNG
 62
     7
100
AcDb2dPolyline
 66
     1
 10
0.0
 20
0.0
 30
0.0
  0
VERTEX
  5
379
330
378
100
AcDbEntity
  8
BEMAßUNG
 62
     7
100
AcDbVertex
100
AcDb2dVertex
 10
112.4920138607659
 20
126.6232787769379
 30
0.0
  0
VERTEX
  5
37A
330
378
100
AcDbEntity
  8
BEMAßUNG
 62
     7
100
AcDbVertex
100
AcDb2dVertex
 10
112.4920138607659
 20
130.1234957899518
 30
0.0
  0
SEQEND
  5
37B
330
378
100
AcDbEntity
  8
BEMAßUNG
  0
POLYLINE
  5
37C
330
1F
100
AcDbEntity
  8
BEMAßUNG
 62
     7
100
AcDb2dPolyline
 66
     1
 10
0.0
 20
0.0
 30
0.0
  0
VERTEX
  5
37D
330
37C
100
AcDbEntity
  8
BEMAßUNG
 62
     7
100
AcDbVertex
100
AcDb2dVertex
 10
112.9495225412071
 20
126.6232787769379
 30
0.0
  0
VERTEX
  5
37E
330
37C
100
AcDbEntity
  8
BEMAßUNG
 62
     7
100
AcDbVertex
100
AcDb2dVertex
 10
112.9495225412071
 20
126.6503227764971
 30
0.0
  0
SEQEND
  5
37F
330
37C
100
AcDbEntity
  8
BEMAßUNG
  0
POLYLINE
  5
380
330
1F
100
AcDbEntity
  8
BEMAßUNG
 62
     7
100
AcDb2dPolyline
 66
     1
 10
0.0
 20
0.0
 30
0.0
  0
VERTEX
  5
381
330
380
100
AcDbEntity
  8
BEMAßUNG
 62
     7
100
AcDbVertex
100
AcDb2dVertex
 10
112.9495225412071
 20
126.6232787769379
 30
0.0
  0
VERTEX
  5
382
330
380
100
AcDbEntity
  8
BEMAßUNG
 62
     7
100
AcDbVertex
100
AcDb2dVertex
 10
112.9495225412071
 20
126.6503227764971
 30
0.0
  0
SEQEND
  5
383
330
380
100
AcDbEntity
  8
BEMAßUNG
  0
POLYLINE
  5
384
330
1F
100
AcDbEntity
  8
BEMAßUNG
 62
     7
100
AcDb2dPolyline
 66
     1
 10
0.0
 20
0.0
 30
0.0
  0
VERTEX
  5
385
330
384
100
AcDbEntity
  8
BEMAßUNG
 62
     7
100
AcDbVertex
100
AcDb2dVertex
 10
112.8987073827996
 20
126.6232787769379
 30
0.0
  0
VERTEX
  5
386
330
384
100
AcDbEntity
  8
BEMAßUNG
 62
     7
100
AcDbVertex
100
AcDb2dVertex
 10
112.8987073827996
 20
127.0366902351679
 30
0.0
  0
SEQEND
  5
387
330
384
100
AcDbEntity
  8
BEMAßUNG
  0
POLYLINE
  5
388
330
1F
100
AcDbEntity
  8
BEMAßUNG
 62
     7
100
AcDb2dPolyline
 66
     1
 10
0.0
 20
0.0
 30
0.0
  0
VERTEX
  5
389
330
388
100
AcDbEntity
  8
BEMAßUNG
 62
     7
100
AcDbVertex
100
AcDb2dVertex
 10
112.8478922243922
 20
126.6232787769379
 30
0.0
  0
VERTEX
  5
38A
330
388
100
AcDbEntity
  8
BEMAßUNG
 62
     7
100
AcDbVertex
100
AcDb2dVertex
 10
112.8478922243922
 20
127.4223686747416
 30
0.0
  0
SEQEND
  5
38B
330
388
100
AcDbEntity
  8
BEMAßUNG
  0
POLYLINE
  5
38C
330
1F
100
AcDbEntity
  8
BEMAßUNG
 62
     7
100
AcDb2dPolyline
 66
     1
 10
0.0
 20
0.0
 30
0.0
  0
VERTEX
  5
38D
330
38C
100
AcDbEntity
  8
BEMAßUNG
 62
     7
100
AcDbVertex
100
AcDb2dVertex
 10
112.797249320759
 20
126.6232787769379
 30
0.0
  0
VERTEX
  5
38E
330
38C
100
AcDbEntity
  8
BEMAßUNG
 62
     7
100
AcDbVertex
100
AcDb2dVertex
 10
112.797249320759
 20
127.8082193690896
 30
0.0
  0
SEQEND
  5
38F
330
38C
100
AcDbEntity
  8
BEMAßUNG
  0
POLYLINE
  5
390
330
1F
100
AcDbEntity
  8
BEMAßUNG
 62
     7
100
AcDb2dPolyline
 66
     1
 10
0.0
 20
0.0
 30
0.0
  0
VERTEX
  5
391
330
390
100
AcDbEntity
  8
BEMAßUNG
 62
     7
100
AcDbVertex
100
AcDb2dVertex
 10
112.7464341623516
 20
126.6232787769379
 30
0.0
  0
VERTEX
  5
392
330
390
100
AcDbEntity
  8
BEMAßUNG
 62
     7
100
AcDbVertex
100
AcDb2dVertex
 10
112.7464341623516
 20
128.1937255538891
 30
0.0
  0
SEQEND
  5
393
330
390
100
AcDbEntity
  8
BEMAßUNG
  0
POLYLINE
  5
394
330
1F
100
AcDbEntity
  8
BEMAßUNG
 62
     7
100
AcDb2dPolyline
 66
     1
 10
0.0
 20
0.0
 30
0.0
  0
VERTEX
  5
395
330
394
100
AcDbEntity
  8
BEMAßUNG
 62
     7
100
AcDbVertex
100
AcDb2dVertex
 10
112.6952744943956
 20
126.6232787769379
 30
0.0
  0
VERTEX
  5
396
330
394
100
AcDbEntity
  8
BEMAßUNG
 62
     7
100
AcDbVertex
100
AcDb2dVertex
 10
112.6952744943956
 20
128.5800930125598
 30
0.0
  0
SEQEND
  5
397
330
394
100
AcDbEntity
  8
BEMAßUNG
  0
POLYLINE
  5
398
330
1F
100
AcDbEntity
  8
BEMAßUNG
 62
     7
100
AcDb2dPolyline
 66
     1
 10
0.0
 20
0.0
 30
0.0
  0
VERTEX
  5
399
330
398
100
AcDbEntity
  8
BEMAßUNG
 62
     7
100
AcDbVertex
100
AcDb2dVertex
 10
112.6444593359882
 20
126.6232787769379
 30
0.0
  0
VERTEX
  5
39A
330
398
100
AcDbEntity
  8
BEMAßUNG
 62
     7
100
AcDbVertex
100
AcDb2dVertex
 10
112.6444593359882
 20
128.9657714521336
 30
0.0
  0
SEQEND
  5
39B
330
398
100
AcDbEntity
  8
BEMAßUNG
  0
POLYLINE
  5
39C
330
1F
100
AcDbEntity
  8
BEMAßUNG
 62
     7
100
AcDb2dPolyline
 66
     1
 10
0.0
 20
0.0
 30
0.0
  0
VERTEX
  5
39D
330
39C
100
AcDbEntity
  8
BEMAßUNG
 62
     7
100
AcDbVertex
100
AcDb2dVertex
 10
112.5936441775808
 20
126.6232787769379
 30
0.0
  0
VERTEX
  5
39E
330
39C
100
AcDbEntity
  8
BEMAßUNG
 62
     7
100
AcDbVertex
100
AcDb2dVertex
 10
112.5936441775808
 20
129.3519666560301
 30
0.0
  0
SEQEND
  5
39F
330
39C
100
AcDbEntity
  8
BEMAßUNG
  0
POLYLINE
  5
3A0
330
1F
100
AcDbEntity
  8
BEMAßUNG
 62
     7
100
AcDb2dPolyline
 66
     1
 10
0.0
 20
0.0
 30
0.0
  0
VERTEX
  5
3A1
330
3A0
100
AcDbEntity
  8
BEMAßUNG
 62
     7
100
AcDbVertex
100
AcDb2dVertex
 10
112.5428290191733
 20
126.6232787769379
 30
0.0
  0
VERTEX
  5
3A2
330
3A0
100
AcDbEntity
  8
BEMAßUNG
 62
     7
100
AcDbVertex
100
AcDb2dVertex
 10
112.5428290191733
 20
129.737128331281
 30
0.0
  0
SEQEND
  5
3A3
330
3A0
100
AcDbEntity
  8
BEMAßUNG
  0
POLYLINE
  5
3A4
330
1F
100
AcDbEntity
  8
BEMAßUNG
 62
     7
100
AcDb2dPolyline
 66
     1
 10
0.0
 20
0.0
 30
0.0
  0
VERTEX
  5
3A5
330
3A4
100
AcDbEntity
  8
BEMAßUNG
 62
     7
100
AcDbVertex
100
AcDb2dVertex
 10
112.4920138607659
 20
126.6232787769379
 30
0.0
  0
VERTEX
  5
3A6
330
3A4
100
AcDbEntity
  8
BEMAßUNG
 62
     7
100
AcDbVertex
100
AcDb2dVertex
 10
112.4920138607659
 20
130.1234957899518
 30
0.0
  0
SEQEND
  5
3A7
330
3A4
100
AcDbEntity
  8
BEMAßUNG
  0
POLYLINE
  5
3A8
330
1F
100
AcDbEntity
  8
BEMAßUNG
 62
     7
100
AcDb2dPolyline
 66
     1
 10
0.0
 20
0.0
 30
0.0
  0
VERTEX
  5
3A9
330
3A8
100
AcDbEntity
  8
BEMAßUNG
 62
     7
100
AcDbVertex
100
AcDb2dVertex
 10
112.4920138607659
 20
118.1230224314068
 30
0.0
  0
VERTEX
  5
3AA
330
3A8
100
AcDbEntity
  8
BEMAßUNG
 62
     7
100
AcDbVertex
100
AcDb2dVertex
 10
112.9531398914666
 20
121.6232394444206
 30
0.0
  0
VERTEX
  5
3AB
330
3A8
100
AcDbEntity
  8
BEMAßUNG
 62
     7
100
AcDbVertex
100
AcDb2dVertex
 10
112.0312323396137
 20
121.6232394444206
 30
0.0
  0
VERTEX
  5
3AC
330
3A8
100
AcDbEntity
  8
BEMAßUNG
 62
     7
100
AcDbVertex
100
AcDb2dVertex
 10
112.4920138607659
 20
118.1230224314068
 30
0.0
  0
SEQEND
  5
3AD
330
3A8
100
AcDbEntity
  8
BEMAßUNG
  0
POLYLINE
  5
3AE
330
1F
100
AcDbEntity
  8
BEMAßUNG
 62
     7
100
AcDb2dPolyline
 66
     1
 10
0.0
 20
0.0
 30
0.0
  0
VERTEX
  5
3AF
330
3AE
100
AcDbEntity
  8
BEMAßUNG
 62
     7
100
AcDbVertex
100
AcDb2dVertex
 10
112.9495225412071
 20
121.6232394444206
 30
0.0
  0
VERTEX
  5
3B0
330
3AE
100
AcDbEntity
  8
BEMAßUNG
 62
     7
100
AcDbVertex
100
AcDb2dVertex
 10
112.9495225412071
 20
121.5961954448614
 30
0.0
  0
SEQEND
  5
3B1
330
3AE
100
AcDbEntity
  8
BEMAßUNG
  0
POLYLINE
  5
3B2
330
1F
100
AcDbEntity
  8
BEMAßUNG
 62
     7
100
AcDb2dPolyline
 66
     1
 10
0.0
 20
0.0
 30
0.0
  0
VERTEX
  5
3B3
330
3B2
100
AcDbEntity
  8
BEMAßUNG
 62
     7
100
AcDbVertex
100
AcDb2dVertex
 10
112.9495225412071
 20
121.6232394444206
 30
0.0
  0
VERTEX
  5
3B4
330
3B2
100
AcDbEntity
  8
BEMAßUNG
 62
     7
100
AcDbVertex
100
AcDb2dVertex
 10
112.9495225412071
 20
121.5961954448614
 30
0.0
  0
SEQEND
  5
3B5
330
3B2
100
AcDbEntity
  8
BEMAßUNG
  0
POLYLINE
  5
3B6
330
1F
100
AcDbEntity
  8
BEMAßUNG
 62
     7
100
AcDb2dPolyline
 66
     1
 10
0.0
 20
0.0
 30
0.0
  0
VERTEX
  5
3B7
330
3B6
100
AcDbEntity
  8
BEMAßUNG
 62
     7
100
AcDbVertex
100
AcDb2dVertex
 10
112.8987073827996
 20
121.6232394444206
 30
0.0
  0
VERTEX
  5
3B8
330
3B6
100
AcDbEntity
  8
BEMAßUNG
 62
     7
100
AcDbVertex
100
AcDb2dVertex
 10
112.8987073827996
 20
121.2105170052877
 30
0.0
  0
SEQEND
  5
3B9
330
3B6
100
AcDbEntity
  8
BEMAßUNG
  0
POLYLINE
  5
3BA
330
1F
100
AcDbEntity
  8
BEMAßUNG
 62
     7
100
AcDb2dPolyline
 66
     1
 10
0.0
 20
0.0
 30
0.0
  0
VERTEX
  5
3BB
330
3BA
100
AcDbEntity
  8
BEMAßUNG
 62
     7
100
AcDbVertex
100
AcDb2dVertex
 10
112.8478922243922
 20
121.6232394444206
 30
0.0
  0
VERTEX
  5
3BC
330
3BA
100
AcDbEntity
  8
BEMAßUNG
 62
     7
100
AcDbVertex
100
AcDb2dVertex
 10
112.8478922243922
 20
120.8246663109397
 30
0.0
  0
SEQEND
  5
3BD
330
3BA
100
AcDbEntity
  8
BEMAßUNG
  0
POLYLINE
  5
3BE
330
1F
100
AcDbEntity
  8
BEMAßUNG
 62
     7
100
AcDb2dPolyline
 66
     1
 10
0.0
 20
0.0
 30
0.0
  0
VERTEX
  5
3BF
330
3BE
100
AcDbEntity
  8
BEMAßUNG
 62
     7
100
AcDbVertex
100
AcDb2dVertex
 10
112.797249320759
 20
121.6232394444206
 30
0.0
  0
VERTEX
  5
3C0
330
3BE
100
AcDbEntity
  8
BEMAßUNG
 62
     7
100
AcDbVertex
100
AcDb2dVertex
 10
112.797249320759
 20
120.4382988522689
 30
0.0
  0
SEQEND
  5
3C1
330
3BE
100
AcDbEntity
  8
BEMAßUNG
  0
POLYLINE
  5
3C2
330
1F
100
AcDbEntity
  8
BEMAßUNG
 62
     7
100
AcDb2dPolyline
 66
     1
 10
0.0
 20
0.0
 30
0.0
  0
VERTEX
  5
3C3
330
3C2
100
AcDbEntity
  8
BEMAßUNG
 62
     7
100
AcDbVertex
100
AcDb2dVertex
 10
112.7464341623516
 20
121.6232394444206
 30
0.0
  0
VERTEX
  5
3C4
330
3C2
100
AcDbEntity
  8
BEMAßUNG
 62
     7
100
AcDbVertex
100
AcDb2dVertex
 10
112.7464341623516
 20
120.0527926674694
 30
0.0
  0
SEQEND
  5
3C5
330
3C2
100
AcDbEntity
  8
BEMAßUNG
  0
POLYLINE
  5
3C6
330
1F
100
AcDbEntity
  8
BEMAßUNG
 62
     7
100
AcDb2dPolyline
 66
     1
 10
0.0
 20
0.0
 30
0.0
  0
VERTEX
  5
3C7
330
3C6
100
AcDbEntity
  8
BEMAßUNG
 62
     7
100
AcDbVertex
100
AcDb2dVertex
 10
112.6952744943956
 20
121.6232394444206
 30
0.0
  0
VERTEX
  5
3C8
330
3C6
100
AcDbEntity
  8
BEMAßUNG
 62
     7
100
AcDbVertex
100
AcDb2dVertex
 10
112.6952744943956
 20
119.6671142278957
 30
0.0
  0
SEQEND
  5
3C9
330
3C6
100
AcDbEntity
  8
BEMAßUNG
  0
POLYLINE
  5
3CA
330
1F
100
AcDbEntity
  8
BEMAßUNG
 62
     7
100
AcDb2dPolyline
 66
     1
 10
0.0
 20
0.0
 30
0.0
  0
VERTEX
  5
3CB
330
3CA
100
AcDbEntity
  8
BEMAßUNG
 62
     7
100
AcDbVertex
100
AcDb2dVertex
 10
112.6444593359882
 20
121.6232394444206
 30
0.0
  0
VERTEX
  5
3CC
330
3CA
100
AcDbEntity
  8
BEMAßUNG
 62
     7
100
AcDbVertex
100
AcDb2dVertex
 10
112.6444593359882
 20
119.2812635335477
 30
0.0
  0
SEQEND
  5
3CD
330
3CA
100
AcDbEntity
  8
BEMAßUNG
  0
POLYLINE
  5
3CE
330
1F
100
AcDbEntity
  8
BEMAßUNG
 62
     7
100
AcDb2dPolyline
 66
     1
 10
0.0
 20
0.0
 30
0.0
  0
VERTEX
  5
3CF
330
3CE
100
AcDbEntity
  8
BEMAßUNG
 62
     7
100
AcDbVertex
100
AcDb2dVertex
 10
112.5936441775808
 20
121.6232394444206
 30
0.0
  0
VERTEX
  5
3D0
330
3CE
100
AcDbEntity
  8
BEMAßUNG
 62
     7
100
AcDbVertex
100
AcDb2dVertex
 10
112.5936441775808
 20
118.894896074877
 30
0.0
  0
SEQEND
  5
3D1
330
3CE
100
AcDbEntity
  8
BEMAßUNG
  0
POLYLINE
  5
3D2
330
1F
100
AcDbEntity
  8
BEMAßUNG
 62
     7
100
AcDb2dPolyline
 66
     1
 10
0.0
 20
0.0
 30
0.0
  0
VERTEX
  5
3D3
330
3D2
100
AcDbEntity
  8
BEMAßUNG
 62
     7
100
AcDbVertex
100
AcDb2dVertex
 10
112.5428290191733
 20
121.6232394444206
 30
0.0
  0
VERTEX
  5
3D4
330
3D2
100
AcDbEntity
  8
BEMAßUNG
 62
     7
100
AcDbVertex
100
AcDb2dVertex
 10
112.5428290191733
 20
118.5093898900775
 30
0.0
  0
SEQEND
  5
3D5
330
3D2
100
AcDbEntity
  8
BEMAßUNG
  0
POLYLINE
  5
3D6
330
1F
100
AcDbEntity
  8
BEMAßUNG
 62
     7
100
AcDb2dPolyline
 66
     1
 10
0.0
 20
0.0
 30
0.0
  0
VERTEX
  5
3D7
330
3D6
100
AcDbEntity
  8
BEMAßUNG
 62
     7
100
AcDbVertex
100
AcDb2dVertex
 10
112.4920138607659
 20
121.6232394444206
 30
0.0
  0
VERTEX
  5
3D8
330
3D6
100
AcDbEntity
  8
BEMAßUNG
 62
     7
100
AcDbVertex
100
AcDb2dVertex
 10
112.4920138607659
 20
118.1230224314068
 30
0.0
  0
SEQEND
  5
3D9
330
3D6
100
AcDbEntity
  8
BEMAßUNG
  0
POLYLINE
  5
3DA
330
1F
100
AcDbEntity
  8
BEMAßUNG
 62
     7
100
AcDb2dPolyline
 66
     1
 10
0.0
 20
0.0
 30
0.0
  0
VERTEX
  5
3DB
330
3DA
100
AcDbEntity
  8
BEMAßUNG
 62
     7
100
AcDbVertex
100
AcDb2dVertex
 10
112.0348496898732
 20
121.6232394444206
 30
0.0
  0
VERTEX
  5
3DC
330
3DA
100
AcDbEntity
  8
BEMAßUNG
 62
     7
100
AcDbVertex
100
AcDb2dVertex
 10
112.0348496898732
 20
121.5961954448614
 30
0.0
  0
SEQEND
  5
3DD
330
3DA
100
AcDbEntity
  8
BEMAßUNG
  0
POLYLINE
  5
3DE
330
1F
100
AcDbEntity
  8
BEMAßUNG
 62
     7
100
AcDb2dPolyline
 66
     1
 10
0.0
 20
0.0
 30
0.0
  0
VERTEX
  5
3DF
330
3DE
100
AcDbEntity
  8
BEMAßUNG
 62
     7
100
AcDbVertex
100
AcDb2dVertex
 10
112.0348496898732
 20
121.6232394444206
 30
0.0
  0
VERTEX
  5
3E0
330
3DE
100
AcDbEntity
  8
BEMAßUNG
 62
     7
100
AcDbVertex
100
AcDb2dVertex
 10
112.0348496898732
 20
121.5961954448614
 30
0.0
  0
SEQEND
  5
3E1
330
3DE
100
AcDbEntity
  8
BEMAßUNG
  0
POLYLINE
  5
3E2
330
1F
100
AcDbEntity
  8
BEMAßUNG
 62
     7
100
AcDb2dPolyline
 66
     1
 10
0.0
 20
0.0
 30
0.0
  0
VERTEX
  5
3E3
330
3E2
100
AcDbEntity
  8
BEMAßUNG
 62
     7
100
AcDbVertex
100
AcDb2dVertex
 10
112.0856648482807
 20
121.6232394444206
 30
0.0
  0
VERTEX
  5
3E4
330
3E2
100
AcDbEntity
  8
BEMAßUNG
 62
     7
100
AcDbVertex
100
AcDb2dVertex
 10
112.0856648482807
 20
121.2105170052877
 30
0.0
  0
SEQEND
  5
3E5
330
3E2
100
AcDbEntity
  8
BEMAßUNG
  0
POLYLINE
  5
3E6
330
1F
100
AcDbEntity
  8
BEMAßUNG
 62
     7
100
AcDb2dPolyline
 66
     1
 10
0.0
 20
0.0
 30
0.0
  0
VERTEX
  5
3E7
330
3E6
100
AcDbEntity
  8
BEMAßUNG
 62
     7
100
AcDbVertex
100
AcDb2dVertex
 10
112.1364800066881
 20
121.6232394444206
 30
0.0
  0
VERTEX
  5
3E8
330
3E6
100
AcDbEntity
  8
BEMAßUNG
 62
     7
100
AcDbVertex
100
AcDb2dVertex
 10
112.1364800066881
 20
120.8246663109397
 30
0.0
  0
SEQEND
  5
3E9
330
3E6
100
AcDbEntity
  8
BEMAßUNG
  0
POLYLINE
  5
3EA
330
1F
100
AcDbEntity
  8
BEMAßUNG
 62
     7
100
AcDb2dPolyline
 66
     1
 10
0.0
 20
0.0
 30
0.0
  0
VERTEX
  5
3EB
330
3EA
100
AcDbEntity
  8
BEMAßUNG
 62
     7
100
AcDbVertex
100
AcDb2dVertex
 10
112.1876396746441
 20
121.6232394444206
 30
0.0
  0
VERTEX
  5
3EC
330
3EA
100
AcDbEntity
  8
BEMAßUNG
 62
     7
100
AcDbVertex
100
AcDb2dVertex
 10
112.1876396746441
 20
120.4382988522689
 30
0.0
  0
SEQEND
  5
3ED
330
3EA
100
AcDbEntity
  8
BEMAßUNG
  0
POLYLINE
  5
3EE
330
1F
100
AcDbEntity
  8
BEMAßUNG
 62
     7
100
AcDb2dPolyline
 66
     1
 10
0.0
 20
0.0
 30
0.0
  0
VERTEX
  5
3EF
330
3EE
100
AcDbEntity
  8
BEMAßUNG
 62
     7
100
AcDbVertex
100
AcDb2dVertex
 10
112.2384548330515
 20
121.6232394444206
 30
0.0
  0
VERTEX
  5
3F0
330
3EE
100
AcDbEntity
  8
BEMAßUNG
 62
     7
100
AcDbVertex
100
AcDb2dVertex
 10
112.2384548330515
 20
120.0527926674694
 30
0.0
  0
SEQEND
  5
3F1
330
3EE
100
AcDbEntity
  8
BEMAßUNG
  0
POLYLINE
  5
3F2
330
1F
100
AcDbEntity
  8
BEMAßUNG
 62
     7
100
AcDb2dPolyline
 66
     1
 10
0.0
 20
0.0
 30
0.0
  0
VERTEX
  5
3F3
330
3F2
100
AcDbEntity
  8
BEMAßUNG
 62
     7
100
AcDbVertex
100
AcDb2dVertex
 10
112.2890977366847
 20
121.6232394444206
 30
0.0
  0
VERTEX
  5
3F4
330
3F2
100
AcDbEntity
  8
BEMAßUNG
 62
     7
100
AcDbVertex
100
AcDb2dVertex
 10
112.2890977366847
 20
119.6671142278957
 30
0.0
  0
SEQEND
  5
3F5
330
3F2
100
AcDbEntity
  8
BEMAßUNG
  0
POLYLINE
  5
3F6
330
1F
100
AcDbEntity
  8
BEMAßUNG
 62
     7
100
AcDb2dPolyline
 66
     1
 10
0.0
 20
0.0
 30
0.0
  0
VERTEX
  5
3F7
330
3F6
100
AcDbEntity
  8
BEMAßUNG
 62
     7
100
AcDbVertex
100
AcDb2dVertex
 10
112.3399128950921
 20
121.6232394444206
 30
0.0
  0
VERTEX
  5
3F8
330
3F6
100
AcDbEntity
  8
BEMAßUNG
 62
     7
100
AcDbVertex
100
AcDb2dVertex
 10
112.3399128950921
 20
119.2812635335477
 30
0.0
  0
SEQEND
  5
3F9
330
3F6
100
AcDbEntity
  8
BEMAßUNG
  0
POLYLINE
  5
3FA
330
1F
100
AcDbEntity
  8
BEMAßUNG
 62
     7
100
AcDb2dPolyline
 66
     1
 10
0.0
 20
0.0
 30
0.0
  0
VERTEX
  5
3FB
330
3FA
100
AcDbEntity
  8
BEMAßUNG
 62
     7
100
AcDbVertex
100
AcDb2dVertex
 10
112.3907280534995
 20
121.6232394444206
 30
0.0
  0
VERTEX
  5
3FC
330
3FA
100
AcDbEntity
  8
BEMAßUNG
 62
     7
100
AcDbVertex
100
AcDb2dVertex
 10
112.3907280534995
 20
118.894896074877
 30
0.0
  0
SEQEND
  5
3FD
330
3FA
100
AcDbEntity
  8
BEMAßUNG
  0
POLYLINE
  5
3FE
330
1F
100
AcDbEntity
  8
BEMAßUNG
 62
     7
100
AcDb2dPolyline
 66
     1
 10
0.0
 20
0.0
 30
0.0
  0
VERTEX
  5
3FF
330
3FE
100
AcDbEntity
  8
BEMAßUNG
 62
     7
100
AcDbVertex
100
AcDb2dVertex
 10
112.441543211907
 20
121.6232394444206
 30
0.0
  0
VERTEX
  5
400
330
3FE
100
AcDbEntity
  8
BEMAßUNG
 62
     7
100
AcDbVertex
100
AcDb2dVertex
 10
112.441543211907
 20
118.5093898900775
 30
0.0
  0
SEQEND
  5
401
330
3FE
100
AcDbEntity
  8
BEMAßUNG
  0
POLYLINE
  5
402
330
1F
100
AcDbEntity
  8
BEMAßUNG
 62
     7
100
AcDb2dPolyline
 66
     1
 10
0.0
 20
0.0
 30
0.0
  0
VERTEX
  5
403
330
402
100
AcDbEntity
  8
BEMAßUNG
 62
     7
100
AcDbVertex
100
AcDb2dVertex
 10
112.4920138607659
 20
121.6232394444206
 30
0.0
  0
VERTEX
  5
404
330
402
100
AcDbEntity
  8
BEMAßUNG
 62
     7
100
AcDbVertex
100
AcDb2dVertex
 10
112.4920138607659
 20
118.1230224314068
 30
0.0
  0
SEQEND
  5
405
330
402
100
AcDbEntity
  8
BEMAßUNG
  0
POLYLINE
  5
406
330
1F
100
AcDbEntity
  8
BEMAßUNG
 62
     7
100
AcDb2dPolyline
 66
     1
 10
0.0
 20
0.0
 30
0.0
  0
VERTEX
  5
407
330
406
100
AcDbEntity
  8
BEMAßUNG
 62
     7
100
AcDbVertex
100
AcDb2dVertex
 10
92.4927178045678
 20
118.1230224314068
 30
0.0
  0
VERTEX
  5
408
330
406
100
AcDbEntity
  8
BEMAßUNG
 62
     7
100
AcDbVertex
100
AcDb2dVertex
 10
92.4927178045678
 20
104.820130724663
 30
0.0
  0
SEQEND
  5
409
330
406
100
AcDbEntity
  8
BEMAßUNG
  0
POLYLINE
  5
40A
330
1F
100
AcDbEntity
  8
BEMAßUNG
 62
     7
100
AcDb2dPolyline
 66
     1
 10
0.0
 20
0.0
 30
0.0
  0
VERTEX
  5
40B
330
40A
100
AcDbEntity
  8
BEMAßUNG
 62
     7
100
AcDbVertex
100
AcDb2dVertex
 10
52.49257539920325
 20
116.819915064111
 30
0.0
  0
VERTEX
  5
40C
330
40A
100
AcDbEntity
  8
BEMAßUNG
 62
     7
100
AcDbVertex
100
AcDb2dVertex
 10
52.49257539920325
 20
104.820130724663
 30
0.0
  0
SEQEND
  5
40D
330
40A
100
AcDbEntity
  8
BEMAßUNG
  0
POLYLINE
  5
40E
330
1F
100
AcDbEntity
  8
BEMAßUNG
 62
     7
100
AcDb2dPolyline
 66
     1
 10
0.0
 20
0.0
 30
0.0
  0
VERTEX
  5
40F
330
40E
100
AcDbEntity
  8
BEMAßUNG
 62
     7
100
AcDbVertex
100
AcDb2dVertex
 10
92.4927178045678
 20
106.8200086538506
 30
0.0
  0
VERTEX
  5
410
330
40E
100
AcDbEntity
  8
BEMAßUNG
 62
     7
100
AcDbVertex
100
AcDb2dVertex
 10
52.49257539920325
 20
106.8200086538506
 30
0.0
  0
SEQEND
  5
411
330
40E
100
AcDbEntity
  8
BEMAßUNG
  0
POLYLINE
  5
412
330
1F
100
AcDbEntity
  8
BEMAßUNG
 62
     7
100
AcDb2dPolyline
 66
     1
 10
0.0
 20
0.0
 30
0.0
  0
VERTEX
  5
413
330
412
100
AcDbEntity
  8
BEMAßUNG
 62
     7
100
AcDbVertex
100
AcDb2dVertex
 10
92.4927178045678
 20
106.8200086538506
 30
0.0
  0
VERTEX
  5
414
330
412
100
AcDbEntity
  8
BEMAßUNG
 62
     7
100
AcDbVertex
100
AcDb2dVertex
 10
88.99250079155397
 20
107.2804456654542
 30
0.0
  0
VERTEX
  5
415
330
412
100
AcDbEntity
  8
BEMAßUNG
 62
     7
100
AcDbVertex
100
AcDb2dVertex
 10
88.99250079155397
 20
106.3590548779241
 30
0.0
  0
VERTEX
  5
416
330
412
100
AcDbEntity
  8
BEMAßUNG
 62
     7
100
AcDbVertex
100
AcDb2dVertex
 10
92.4927178045678
 20
106.8200086538506
 30
0.0
  0
SEQEND
  5
417
330
412
100
AcDbEntity
  8
BEMAßUNG
  0
POLYLINE
  5
418
330
1F
100
AcDbEntity
  8
BEMAßUNG
 62
     7
100
AcDb2dPolyline
 66
     1
 10
0.0
 20
0.0
 30
0.0
  0
VERTEX
  5
419
330
418
100
AcDbEntity
  8
BEMAßUNG
 62
     7
100
AcDbVertex
100
AcDb2dVertex
 10
88.99250079155397
 20
107.2768283151947
 30
0.0
  0
VERTEX
  5
41A
330
418
100
AcDbEntity
  8
BEMAßUNG
 62
     7
100
AcDbVertex
100
AcDb2dVertex
 10
89.01920028156465
 20
107.2768283151947
 30
0.0
  0
SEQEND
  5
41B
330
418
100
AcDbEntity
  8
BEMAßUNG
  0
POLYLINE
  5
41C
330
1F
100
AcDbEntity
  8
BEMAßUNG
 62
     7
100
AcDb2dPolyline
 66
     1
 10
0.0
 20
0.0
 30
0.0
  0
VERTEX
  5
41D
330
41C
100
AcDbEntity
  8
BEMAßUNG
 62
     7
100
AcDbVertex
100
AcDb2dVertex
 10
88.99250079155397
 20
107.2768283151947
 30
0.0
  0
VERTEX
  5
41E
330
41C
100
AcDbEntity
  8
BEMAßUNG
 62
     7
100
AcDbVertex
100
AcDb2dVertex
 10
89.01920028156465
 20
107.2768283151947
 30
0.0
  0
SEQEND
  5
41F
330
41C
100
AcDbEntity
  8
BEMAßUNG
  0
POLYLINE
  5
420
330
1F
100
AcDbEntity
  8
BEMAßUNG
 62
     7
100
AcDb2dPolyline
 66
     1
 10
0.0
 20
0.0
 30
0.0
  0
VERTEX
  5
421
330
420
100
AcDbEntity
  8
BEMAßUNG
 62
     7
100
AcDbVertex
100
AcDb2dVertex
 10
88.99250079155397
 20
107.2261854115615
 30
0.0
  0
VERTEX
  5
422
330
420
100
AcDbEntity
  8
BEMAßUNG
 62
     7
100
AcDbVertex
100
AcDb2dVertex
 10
89.40522323068689
 20
107.2261854115615
 30
0.0
  0
SEQEND
  5
423
330
420
100
AcDbEntity
  8
BEMAßUNG
  0
POLYLINE
  5
424
330
1F
100
AcDbEntity
  8
BEMAßUNG
 62
     7
100
AcDb2dPolyline
 66
     1
 10
0.0
 20
0.0
 30
0.0
  0
VERTEX
  5
425
330
424
100
AcDbEntity
  8
BEMAßUNG
 62
     7
100
AcDbVertex
100
AcDb2dVertex
 10
88.99250079155397
 20
107.1753702531541
 30
0.0
  0
VERTEX
  5
426
330
424
100
AcDbEntity
  8
BEMAßUNG
 62
     7
100
AcDbVertex
100
AcDb2dVertex
 10
89.79107392503488
 20
107.1753702531541
 30
0.0
  0
SEQEND
  5
427
330
424
100
AcDbEntity
  8
BEMAßUNG
  0
POLYLINE
  5
428
330
1F
100
AcDbEntity
  8
BEMAßUNG
 62
     7
100
AcDb2dPolyline
 66
     1
 10
0.0
 20
0.0
 30
0.0
  0
VERTEX
  5
429
330
428
100
AcDbEntity
  8
BEMAßUNG
 62
     7
100
AcDbVertex
100
AcDb2dVertex
 10
88.99250079155397
 20
107.1245550947466
 30
0.0
  0
VERTEX
  5
42A
330
428
100
AcDbEntity
  8
BEMAßUNG
 62
     7
100
AcDbVertex
100
AcDb2dVertex
 10
90.17744138370564
 20
107.1245550947466
 30
0.0
  0
SEQEND
  5
42B
330
428
100
AcDbEntity
  8
BEMAßUNG
  0
POLYLINE
  5
42C
330
1F
100
AcDbEntity
  8
BEMAßUNG
 62
     7
100
AcDb2dPolyline
 66
     1
 10
0.0
 20
0.0
 30
0.0
  0
VERTEX
  5
42D
330
42C
100
AcDbEntity
  8
BEMAßUNG
 62
     7
100
AcDbVertex
100
AcDb2dVertex
 10
88.99250079155397
 20
107.0740844458877
 30
0.0
  0
VERTEX
  5
42E
330
42C
100
AcDbEntity
  8
BEMAßUNG
 62
     7
100
AcDbVertex
100
AcDb2dVertex
 10
90.56329207805362
 20
107.0740844458877
 30
0.0
  0
SEQEND
  5
42F
330
42C
100
AcDbEntity
  8
BEMAßUNG
  0
POLYLINE
  5
430
330
1F
100
AcDbEntity
  8
BEMAßUNG
 62
     7
100
AcDb2dPolyline
 66
     1
 10
0.0
 20
0.0
 30
0.0
  0
VERTEX
  5
431
330
430
100
AcDbEntity
  8
BEMAßUNG
 62
     7
100
AcDbVertex
100
AcDb2dVertex
 10
88.99250079155397
 20
107.0232692874803
 30
0.0
  0
VERTEX
  5
432
330
430
100
AcDbEntity
  8
BEMAßUNG
 62
     7
100
AcDbVertex
100
AcDb2dVertex
 10
90.94862600807882
 20
107.0232692874803
 30
0.0
  0
SEQEND
  5
433
330
430
100
AcDbEntity
  8
BEMAßUNG
  0
POLYLINE
  5
434
330
1F
100
AcDbEntity
  8
BEMAßUNG
 62
     7
100
AcDb2dPolyline
 66
     1
 10
0.0
 20
0.0
 30
0.0
  0
VERTEX
  5
435
330
434
100
AcDbEntity
  8
BEMAßUNG
 62
     7
100
AcDbVertex
100
AcDb2dVertex
 10
88.99250079155397
 20
106.9724541290729
 30
0.0
  0
VERTEX
  5
436
330
434
100
AcDbEntity
  8
BEMAßUNG
 62
     7
100
AcDbVertex
100
AcDb2dVertex
 10
91.3344767024268
 20
106.9724541290729
 30
0.0
  0
SEQEND
  5
437
330
434
100
AcDbEntity
  8
BEMAßUNG
  0
POLYLINE
  5
438
330
1F
100
AcDbEntity
  8
BEMAßUNG
 62
     7
100
AcDb2dPolyline
 66
     1
 10
0.0
 20
0.0
 30
0.0
  0
VERTEX
  5
439
330
438
100
AcDbEntity
  8
BEMAßUNG
 62
     7
100
AcDbVertex
100
AcDb2dVertex
 10
88.99250079155397
 20
106.9216389706654
 30
0.0
  0
VERTEX
  5
43A
330
438
100
AcDbEntity
  8
BEMAßUNG
 62
     7
100
AcDbVertex
100
AcDb2dVertex
 10
91.72084416109757
 20
106.9216389706654
 30
0.0
  0
SEQEND
  5
43B
330
438
100
AcDbEntity
  8
BEMAßUNG
  0
POLYLINE
  5
43C
330
1F
100
AcDbEntity
  8
BEMAßUNG
 62
     7
100
AcDb2dPolyline
 66
     1
 10
0.0
 20
0.0
 30
0.0
  0
VERTEX
  5
43D
330
43C
100
AcDbEntity
  8
BEMAßUNG
 62
     7
100
AcDbVertex
100
AcDb2dVertex
 10
88.99250079155397
 20
106.870823812258
 30
0.0
  0
VERTEX
  5
43E
330
43C
100
AcDbEntity
  8
BEMAßUNG
 62
     7
100
AcDbVertex
100
AcDb2dVertex
 10
92.10669485544555
 20
106.870823812258
 30
0.0
  0
SEQEND
  5
43F
330
43C
100
AcDbEntity
  8
BEMAßUNG
  0
POLYLINE
  5
440
330
1F
100
AcDbEntity
  8
BEMAßUNG
 62
     7
100
AcDb2dPolyline
 66
     1
 10
0.0
 20
0.0
 30
0.0
  0
VERTEX
  5
441
330
440
100
AcDbEntity
  8
BEMAßUNG
 62
     7
100
AcDbVertex
100
AcDb2dVertex
 10
88.99250079155397
 20
106.8200086538506
 30
0.0
  0
VERTEX
  5
442
330
440
100
AcDbEntity
  8
BEMAßUNG
 62
     7
100
AcDbVertex
100
AcDb2dVertex
 10
92.4927178045678
 20
106.8200086538506
 30
0.0
  0
SEQEND
  5
443
330
440
100
AcDbEntity
  8
BEMAßUNG
  0
POLYLINE
  5
444
330
1F
100
AcDbEntity
  8
BEMAßUNG
 62
     7
100
AcDb2dPolyline
 66
     1
 10
0.0
 20
0.0
 30
0.0
  0
VERTEX
  5
445
330
444
100
AcDbEntity
  8
BEMAßUNG
 62
     7
100
AcDbVertex
100
AcDb2dVertex
 10
88.99250079155397
 20
106.3624999734094
 30
0.0
  0
VERTEX
  5
446
330
444
100
AcDbEntity
  8
BEMAßUNG
 62
     7
100
AcDbVertex
100
AcDb2dVertex
 10
89.01920028156465
 20
106.3624999734094
 30
0.0
  0
SEQEND
  5
447
330
444
100
AcDbEntity
  8
BEMAßUNG
  0
POLYLINE
  5
448
330
1F
100
AcDbEntity
  8
BEMAßUNG
 62
     7
100
AcDb2dPolyline
 66
     1
 10
0.0
 20
0.0
 30
0.0
  0
VERTEX
  5
449
330
448
100
AcDbEntity
  8
BEMAßUNG
 62
     7
100
AcDbVertex
100
AcDb2dVertex
 10
88.99250079155397
 20
106.3624999734094
 30
0.0
  0
VERTEX
  5
44A
330
448
100
AcDbEntity
  8
BEMAßUNG
 62
     7
100
AcDbVertex
100
AcDb2dVertex
 10
89.01920028156465
 20
106.3624999734094
 30
0.0
  0
SEQEND
  5
44B
330
448
100
AcDbEntity
  8
BEMAßUNG
  0
POLYLINE
  5
44C
330
1F
100
AcDbEntity
  8
BEMAßUNG
 62
     7
100
AcDb2dPolyline
 66
     1
 10
0.0
 20
0.0
 30
0.0
  0
VERTEX
  5
44D
330
44C
100
AcDbEntity
  8
BEMAßUNG
 62
     7
100
AcDbVertex
100
AcDb2dVertex
 10
88.99250079155397
 20
106.4133151318168
 30
0.0
  0
VERTEX
  5
44E
330
44C
100
AcDbEntity
  8
BEMAßUNG
 62
     7
100
AcDbVertex
100
AcDb2dVertex
 10
89.40522323068689
 20
106.4133151318168
 30
0.0
  0
SEQEND
  5
44F
330
44C
100
AcDbEntity
  8
BEMAßUNG
  0
POLYLINE
  5
450
330
1F
100
AcDbEntity
  8
BEMAßUNG
 62
     7
100
AcDb2dPolyline
 66
     1
 10
0.0
 20
0.0
 30
0.0
  0
VERTEX
  5
451
330
450
100
AcDbEntity
  8
BEMAßUNG
 62
     7
100
AcDbVertex
100
AcDb2dVertex
 10
88.99250079155397
 20
106.4641302902242
 30
0.0
  0
VERTEX
  5
452
330
450
100
AcDbEntity
  8
BEMAßUNG
 62
     7
100
AcDbVertex
100
AcDb2dVertex
 10
89.79107392503488
 20
106.4641302902242
 30
0.0
  0
SEQEND
  5
453
330
450
100
AcDbEntity
  8
BEMAßUNG
  0
POLYLINE
  5
454
330
1F
100
AcDbEntity
  8
BEMAßUNG
 62
     7
100
AcDb2dPolyline
 66
     1
 10
0.0
 20
0.0
 30
0.0
  0
VERTEX
  5
455
330
454
100
AcDbEntity
  8
BEMAßUNG
 62
     7
100
AcDbVertex
100
AcDb2dVertex
 10
88.99250079155397
 20
106.5149454486317
 30
0.0
  0
VERTEX
  5
456
330
454
100
AcDbEntity
  8
BEMAßUNG
 62
     7
100
AcDbVertex
100
AcDb2dVertex
 10
90.17744138370564
 20
106.5149454486317
 30
0.0
  0
SEQEND
  5
457
330
454
100
AcDbEntity
  8
BEMAßUNG
  0
POLYLINE
  5
458
330
1F
100
AcDbEntity
  8
BEMAßUNG
 62
     7
100
AcDb2dPolyline
 66
     1
 10
0.0
 20
0.0
 30
0.0
  0
VERTEX
  5
459
330
458
100
AcDbEntity
  8
BEMAßUNG
 62
     7
100
AcDbVertex
100
AcDb2dVertex
 10
88.99250079155397
 20
106.5657606070391
 30
0.0
  0
VERTEX
  5
45A
330
458
100
AcDbEntity
  8
BEMAßUNG
 62
     7
100
AcDbVertex
100
AcDb2dVertex
 10
90.56329207805362
 20
106.5657606070391
 30
0.0
  0
SEQEND
  5
45B
330
458
100
AcDbEntity
  8
BEMAßUNG
  0
POLYLINE
  5
45C
330
1F
100
AcDbEntity
  8
BEMAßUNG
 62
     7
100
AcDb2dPolyline
 66
     1
 10
0.0
 20
0.0
 30
0.0
  0
VERTEX
  5
45D
330
45C
100
AcDbEntity
  8
BEMAßUNG
 62
     7
100
AcDbVertex
100
AcDb2dVertex
 10
88.99250079155397
 20
106.6169202749951
 30
0.0
  0
VERTEX
  5
45E
330
45C
100
AcDbEntity
  8
BEMAßUNG
 62
     7
100
AcDbVertex
100
AcDb2dVertex
 10
90.94862600807882
 20
106.6169202749951
 30
0.0
  0
SEQEND
  5
45F
330
45C
100
AcDbEntity
  8
BEMAßUNG
  0
POLYLINE
  5
460
330
1F
100
AcDbEntity
  8
BEMAßUNG
 62
     7
100
AcDb2dPolyline
 66
     1
 10
0.0
 20
0.0
 30
0.0
  0
VERTEX
  5
461
330
460
100
AcDbEntity
  8
BEMAßUNG
 62
     7
100
AcDbVertex
100
AcDb2dVertex
 10
88.99250079155397
 20
106.6677354334025
 30
0.0
  0
VERTEX
  5
462
330
460
100
AcDbEntity
  8
BEMAßUNG
 62
     7
100
AcDbVertex
100
AcDb2dVertex
 10
91.3344767024268
 20
106.6677354334025
 30
0.0
  0
SEQEND
  5
463
330
460
100
AcDbEntity
  8
BEMAßUNG
  0
POLYLINE
  5
464
330
1F
100
AcDbEntity
  8
BEMAßUNG
 62
     7
100
AcDb2dPolyline
 66
     1
 10
0.0
 20
0.0
 30
0.0
  0
VERTEX
  5
465
330
464
100
AcDbEntity
  8
BEMAßUNG
 62
     7
100
AcDbVertex
100
AcDb2dVertex
 10
88.99250079155397
 20
106.7183783370357
 30
0.0
  0
VERTEX
  5
466
330
464
100
AcDbEntity
  8
BEMAßUNG
 62
     7
100
AcDbVertex
100
AcDb2dVertex
 10
91.72084416109757
 20
106.7183783370357
 30
0.0
  0
SEQEND
  5
467
330
464
100
AcDbEntity
  8
BEMAßUNG
  0
POLYLINE
  5
468
330
1F
100
AcDbEntity
  8
BEMAßUNG
 62
     7
100
AcDb2dPolyline
 66
     1
 10
0.0
 20
0.0
 30
0.0
  0
VERTEX
  5
469
330
468
100
AcDbEntity
  8
BEMAßUNG
 62
     7
100
AcDbVertex
100
AcDb2dVertex
 10
88.99250079155397
 20
106.7691934954431
 30
0.0
  0
VERTEX
  5
46A
330
468
100
AcDbEntity
  8
BEMAßUNG
 62
     7
100
AcDbVertex
100
AcDb2dVertex
 10
92.10669485544555
 20
106.7691934954431
 30
0.0
  0
SEQEND
  5
46B
330
468
100
AcDbEntity
  8
BEMAßUNG
  0
POLYLINE
  5
46C
330
1F
100
AcDbEntity
  8
BEMAßUNG
 62
     7
100
AcDb2dPolyline
 66
     1
 10
0.0
 20
0.0
 30
0.0
  0
VERTEX
  5
46D
330
46C
100
AcDbEntity
  8
BEMAßUNG
 62
     7
100
AcDbVertex
100
AcDb2dVertex
 10
88.99250079155397
 20
106.8200086538506
 30
0.0
  0
VERTEX
  5
46E
330
46C
100
AcDbEntity
  8
BEMAßUNG
 62
     7
100
AcDbVertex
100
AcDb2dVertex
 10
92.4927178045678
 20
106.8200086538506
 30
0.0
  0
SEQEND
  5
46F
330
46C
100
AcDbEntity
  8
BEMAßUNG
  0
POLYLINE
  5
470
330
1F
100
AcDbEntity
  8
BEMAßUNG
 62
     7
100
AcDb2dPolyline
 66
     1
 10
0.0
 20
0.0
 30
0.0
  0
VERTEX
  5
471
330
470
100
AcDbEntity
  8
BEMAßUNG
 62
     7
100
AcDbVertex
100
AcDb2dVertex
 10
52.49257539920325
 20
106.8200086538506
 30
0.0
  0
VERTEX
  5
472
330
470
100
AcDbEntity
  8
BEMAßUNG
 62
     7
100
AcDbVertex
100
AcDb2dVertex
 10
55.99210339312003
 20
106.3590548779241
 30
0.0
  0
VERTEX
  5
473
330
470
100
AcDbEntity
  8
BEMAßUNG
 62
     7
100
AcDbVertex
100
AcDb2dVertex
 10
55.99210339312003
 20
107.2804456654542
 30
0.0
  0
VERTEX
  5
474
330
470
100
AcDbEntity
  8
BEMAßUNG
 62
     7
100
AcDbVertex
100
AcDb2dVertex
 10
52.49257539920325
 20
106.8200086538506
 30
0.0
  0
SEQEND
  5
475
330
470
100
AcDbEntity
  8
BEMAßUNG
  0
POLYLINE
  5
476
330
1F
100
AcDbEntity
  8
BEMAßUNG
 62
     7
100
AcDb2dPolyline
 66
     1
 10
0.0
 20
0.0
 30
0.0
  0
VERTEX
  5
477
330
476
100
AcDbEntity
  8
BEMAßUNG
 62
     7
100
AcDbVertex
100
AcDb2dVertex
 10
55.99210339312003
 20
106.3624999734094
 30
0.0
  0
VERTEX
  5
478
330
476
100
AcDbEntity
  8
BEMAßUNG
 62
     7
100
AcDbVertex
100
AcDb2dVertex
 10
55.96505939356082
 20
106.3624999734094
 30
0.0
  0
SEQEND
  5
479
330
476
100
AcDbEntity
  8
BEMAßUNG
  0
POLYLINE
  5
47A
330
1F
100
AcDbEntity
  8
BEMAßUNG
 62
     7
100
AcDb2dPolyline
 66
     1
 10
0.0
 20
0.0
 30
0.0
  0
VERTEX
  5
47B
330
47A
100
AcDbEntity
  8
BEMAßUNG
 62
     7
100
AcDbVertex
100
AcDb2dVertex
 10
55.99210339312003
 20
106.3624999734094
 30
0.0
  0
VERTEX
  5
47C
330
47A
100
AcDbEntity
  8
BEMAßUNG
 62
     7
100
AcDbVertex
100
AcDb2dVertex
 10
55.96505939356082
 20
106.3624999734094
 30
0.0
  0
SEQEND
  5
47D
330
47A
100
AcDbEntity
  8
BEMAßUNG
  0
POLYLINE
  5
47E
330
1F
100
AcDbEntity
  8
BEMAßUNG
 62
     7
100
AcDb2dPolyline
 66
     1
 10
0.0
 20
0.0
 30
0.0
  0
VERTEX
  5
47F
330
47E
100
AcDbEntity
  8
BEMAßUNG
 62
     7
100
AcDbVertex
100
AcDb2dVertex
 10
55.99210339312003
 20
106.4133151318168
 30
0.0
  0
VERTEX
  5
480
330
47E
100
AcDbEntity
  8
BEMAßUNG
 62
     7
100
AcDbVertex
100
AcDb2dVertex
 10
55.5793809539871
 20
106.4133151318168
 30
0.0
  0
SEQEND
  5
481
330
47E
100
AcDbEntity
  8
BEMAßUNG
  0
POLYLINE
  5
482
330
1F
100
AcDbEntity
  8
BEMAßUNG
 62
     7
100
AcDb2dPolyline
 66
     1
 10
0.0
 20
0.0
 30
0.0
  0
VERTEX
  5
483
330
482
100
AcDbEntity
  8
BEMAßUNG
 62
     7
100
AcDbVertex
100
AcDb2dVertex
 10
55.99210339312003
 20
106.4641302902242
 30
0.0
  0
VERTEX
  5
484
330
482
100
AcDbEntity
  8
BEMAßUNG
 62
     7
100
AcDbVertex
100
AcDb2dVertex
 10
55.19353025963912
 20
106.4641302902242
 30
0.0
  0
SEQEND
  5
485
330
482
100
AcDbEntity
  8
BEMAßUNG
  0
POLYLINE
  5
486
330
1F
100
AcDbEntity
  8
BEMAßUNG
 62
     7
100
AcDb2dPolyline
 66
     1
 10
0.0
 20
0.0
 30
0.0
  0
VERTEX
  5
487
330
486
100
AcDbEntity
  8
BEMAßUNG
 62
     7
100
AcDbVertex
100
AcDb2dVertex
 10
55.99210339312003
 20
106.5149454486317
 30
0.0
  0
VERTEX
  5
488
330
486
100
AcDbEntity
  8
BEMAßUNG
 62
     7
100
AcDbVertex
100
AcDb2dVertex
 10
54.80750731051688
 20
106.5149454486317
 30
0.0
  0
SEQEND
  5
489
330
486
100
AcDbEntity
  8
BEMAßUNG
  0
POLYLINE
  5
48A
330
1F
100
AcDbEntity
  8
BEMAßUNG
 62
     7
100
AcDb2dPolyline
 66
     1
 10
0.0
 20
0.0
 30
0.0
  0
VERTEX
  5
48B
330
48A
100
AcDbEntity
  8
BEMAßUNG
 62
     7
100
AcDbVertex
100
AcDb2dVertex
 10
55.99210339312003
 20
106.5657606070391
 30
0.0
  0
VERTEX
  5
48C
330
48A
100
AcDbEntity
  8
BEMAßUNG
 62
     7
100
AcDbVertex
100
AcDb2dVertex
 10
54.4216566161689
 20
106.5657606070391
 30
0.0
  0
SEQEND
  5
48D
330
48A
100
AcDbEntity
  8
BEMAßUNG
  0
POLYLINE
  5
48E
330
1F
100
AcDbEntity
  8
BEMAßUNG
 62
     7
100
AcDb2dPolyline
 66
     1
 10
0.0
 20
0.0
 30
0.0
  0
VERTEX
  5
48F
330
48E
100
AcDbEntity
  8
BEMAßUNG
 62
     7
100
AcDbVertex
100
AcDb2dVertex
 10
55.99210339312003
 20
106.6169202749951
 30
0.0
  0
VERTEX
  5
490
330
48E
100
AcDbEntity
  8
BEMAßUNG
 62
     7
100
AcDbVertex
100
AcDb2dVertex
 10
54.03597817659517
 20
106.6169202749951
 30
0.0
  0
SEQEND
  5
491
330
48E
100
AcDbEntity
  8
BEMAßUNG
  0
POLYLINE
  5
492
330
1F
100
AcDbEntity
  8
BEMAßUNG
 62
     7
100
AcDb2dPolyline
 66
     1
 10
0.0
 20
0.0
 30
0.0
  0
VERTEX
  5
493
330
492
100
AcDbEntity
  8
BEMAßUNG
 62
     7
100
AcDbVertex
100
AcDb2dVertex
 10
55.99210339312003
 20
106.6677354334025
 30
0.0
  0
VERTEX
  5
494
330
492
100
AcDbEntity
  8
BEMAßUNG
 62
     7
100
AcDbVertex
100
AcDb2dVertex
 10
53.65012748224719
 20
106.6677354334025
 30
0.0
  0
SEQEND
  5
495
330
492
100
AcDbEntity
  8
BEMAßUNG
  0
POLYLINE
  5
496
330
1F
100
AcDbEntity
  8
BEMAßUNG
 62
     7
100
AcDb2dPolyline
 66
     1
 10
0.0
 20
0.0
 30
0.0
  0
VERTEX
  5
497
330
496
100
AcDbEntity
  8
BEMAßUNG
 62
     7
100
AcDbVertex
100
AcDb2dVertex
 10
55.99210339312003
 20
106.7183783370357
 30
0.0
  0
VERTEX
  5
498
330
496
100
AcDbEntity
  8
BEMAßUNG
 62
     7
100
AcDbVertex
100
AcDb2dVertex
 10
53.26410453312495
 20
106.7183783370357
 30
0.0
  0
SEQEND
  5
499
330
496
100
AcDbEntity
  8
BEMAßUNG
  0
POLYLINE
  5
49A
330
1F
100
AcDbEntity
  8
BEMAßUNG
 62
     7
100
AcDb2dPolyline
 66
     1
 10
0.0
 20
0.0
 30
0.0
  0
VERTEX
  5
49B
330
49A
100
AcDbEntity
  8
BEMAßUNG
 62
     7
100
AcDbVertex
100
AcDb2dVertex
 10
55.99210339312003
 20
106.7691934954431
 30
0.0
  0
VERTEX
  5
49C
330
49A
100
AcDbEntity
  8
BEMAßUNG
 62
     7
100
AcDbVertex
100
AcDb2dVertex
 10
52.87790932922844
 20
106.7691934954431
 30
0.0
  0
SEQEND
  5
49D
330
49A
100
AcDbEntity
  8
BEMAßUNG
  0
POLYLINE
  5
49E
330
1F
100
AcDbEntity
  8
BEMAßUNG
 62
     7
100
AcDb2dPolyline
 66
     1
 10
0.0
 20
0.0
 30
0.0
  0
VERTEX
  5
49F
330
49E
100
AcDbEntity
  8
BEMAßUNG
 62
     7
100
AcDbVertex
100
AcDb2dVertex
 10
55.99210339312003
 20
106.8200086538506
 30
0.0
  0
VERTEX
  5
4A0
330
49E
100
AcDbEntity
  8
BEMAßUNG
 62
     7
100
AcDbVertex
100
AcDb2dVertex
 10
52.49257539920325
 20
106.8200086538506
 30
0.0
  0
SEQEND
  5
4A1
330
49E
100
AcDbEntity
  8
BEMAßUNG
  0
POLYLINE
  5
4A2
330
1F
100
AcDbEntity
  8
BEMAßUNG
 62
     7
100
AcDb2dPolyline
 66
     1
 10
0.0
 20
0.0
 30
0.0
  0
VERTEX
  5
4A3
330
4A2
100
AcDbEntity
  8
BEMAßUNG
 62
     7
100
AcDbVertex
100
AcDb2dVertex
 10
55.99210339312003
 20
107.2768283151947
 30
0.0
  0
VERTEX
  5
4A4
330
4A2
100
AcDbEntity
  8
BEMAßUNG
 62
     7
100
AcDbVertex
100
AcDb2dVertex
 10
55.96505939356082
 20
107.2768283151947
 30
0.0
  0
SEQEND
  5
4A5
330
4A2
100
AcDbEntity
  8
BEMAßUNG
  0
POLYLINE
  5
4A6
330
1F
100
AcDbEntity
  8
BEMAßUNG
 62
     7
100
AcDb2dPolyline
 66
     1
 10
0.0
 20
0.0
 30
0.0
  0
VERTEX
  5
4A7
330
4A6
100
AcDbEntity
  8
BEMAßUNG
 62
     7
100
AcDbVertex
100
AcDb2dVertex
 10
55.99210339312003
 20
107.2768283151947
 30
0.0
  0
VERTEX
  5
4A8
330
4A6
100
AcDbEntity
  8
BEMAßUNG
 62
     7
100
AcDbVertex
100
AcDb2dVertex
 10
55.96505939356082
 20
107.2768283151947
 30
0.0
  0
SEQEND
  5
4A9
330
4A6
100
AcDbEntity
  8
BEMAßUNG
  0
POLYLINE
  5
4AA
330
1F
100
AcDbEntity
  8
BEMAßUNG
 62
     7
100
AcDb2dPolyline
 66
     1
 10
0.0
 20
0.0
 30
0.0
  0
VERTEX
  5
4AB
330
4AA
100
AcDbEntity
  8
BEMAßUNG
 62
     7
100
AcDbVertex
100
AcDb2dVertex
 10
55.99210339312003
 20
107.2261854115615
 30
0.0
  0
VERTEX
  5
4AC
330
4AA
100
AcDbEntity
  8
BEMAßUNG
 62
     7
100
AcDbVertex
100
AcDb2dVertex
 10
55.5793809539871
 20
107.2261854115615
 30
0.0
  0
SEQEND
  5
4AD
330
4AA
100
AcDbEntity
  8
BEMAßUNG
  0
POLYLINE
  5
4AE
330
1F
100
AcDbEntity
  8
BEMAßUNG
 62
     7
100
AcDb2dPolyline
 66
     1
 10
0.0
 20
0.0
 30
0.0
  0
VERTEX
  5
4AF
330
4AE
100
AcDbEntity
  8
BEMAßUNG
 62
     7
100
AcDbVertex
100
AcDb2dVertex
 10
55.99210339312003
 20
107.1753702531541
 30
0.0
  0
VERTEX
  5
4B0
330
4AE
100
AcDbEntity
  8
BEMAßUNG
 62
     7
100
AcDbVertex
100
AcDb2dVertex
 10
55.19353025963912
 20
107.1753702531541
 30
0.0
  0
SEQEND
  5
4B1
330
4AE
100
AcDbEntity
  8
BEMAßUNG
  0
POLYLINE
  5
4B2
330
1F
100
AcDbEntity
  8
BEMAßUNG
 62
     7
100
AcDb2dPolyline
 66
     1
 10
0.0
 20
0.0
 30
0.0
  0
VERTEX
  5
4B3
330
4B2
100
AcDbEntity
  8
BEMAßUNG
 62
     7
100
AcDbVertex
100
AcDb2dVertex
 10
55.99210339312003
 20
107.1245550947466
 30
0.0
  0
VERTEX
  5
4B4
330
4B2
100
AcDbEntity
  8
BEMAßUNG
 62
     7
100
AcDbVertex
100
AcDb2dVertex
 10
54.80750731051688
 20
107.1245550947466
 30
0.0
  0
SEQEND
  5
4B5
330
4B2
100
AcDbEntity
  8
BEMAßUNG
  0
POLYLINE
  5
4B6
330
1F
100
AcDbEntity
  8
BEMAßUNG
 62
     7
100
AcDb2dPolyline
 66
     1
 10
0.0
 20
0.0
 30
0.0
  0
VERTEX
  5
4B7
330
4B6
100
AcDbEntity
  8
BEMAßUNG
 62
     7
100
AcDbVertex
100
AcDb2dVertex
 10
55.99210339312003
 20
107.0740844458877
 30
0.0
  0
VERTEX
  5
4B8
330
4B6
100
AcDbEntity
  8
BEMAßUNG
 62
     7
100
AcDbVertex
100
AcDb2dVertex
 10
54.4216566161689
 20
107.0740844458877
 30
0.0
  0
SEQEND
  5
4B9
330
4B6
100
AcDbEntity
  8
BEMAßUNG
  0
POLYLINE
  5
4BA
330
1F
100
AcDbEntity
  8
BEMAßUNG
 62
     7
100
AcDb2dPolyline
 66
     1
 10
0.0
 20
0.0
 30
0.0
  0
VERTEX
  5
4BB
330
4BA
100
AcDbEntity
  8
BEMAßUNG
 62
     7
100
AcDbVertex
100
AcDb2dVertex
 10
55.99210339312003
 20
107.0232692874803
 30
0.0
  0
VERTEX
  5
4BC
330
4BA
100
AcDbEntity
  8
BEMAßUNG
 62
     7
100
AcDbVertex
100
AcDb2dVertex
 10
54.03597817659517
 20
107.0232692874803
 30
0.0
  0
SEQEND
  5
4BD
330
4BA
100
AcDbEntity
  8
BEMAßUNG
  0
POLYLINE
  5
4BE
330
1F
100
AcDbEntity
  8
BEMAßUNG
 62
     7
100
AcDb2dPolyline
 66
     1
 10
0.0
 20
0.0
 30
0.0
  0
VERTEX
  5
4BF
330
4BE
100
AcDbEntity
  8
BEMAßUNG
 62
     7
100
AcDbVertex
100
AcDb2dVertex
 10
55.99210339312003
 20
106.9724541290729
 30
0.0
  0
VERTEX
  5
4C0
330
4BE
100
AcDbEntity
  8
BEMAßUNG
 62
     7
100
AcDbVertex
100
AcDb2dVertex
 10
53.65012748224719
 20
106.9724541290729
 30
0.0
  0
SEQEND
  5
4C1
330
4BE
100
AcDbEntity
  8
BEMAßUNG
  0
POLYLINE
  5
4C2
330
1F
100
AcDbEntity
  8
BEMAßUNG
 62
     7
100
AcDb2dPolyline
 66
     1
 10
0.0
 20
0.0
 30
0.0
  0
VERTEX
  5
4C3
330
4C2
100
AcDbEntity
  8
BEMAßUNG
 62
     7
100
AcDbVertex
100
AcDb2dVertex
 10
55.99210339312003
 20
106.9216389706654
 30
0.0
  0
VERTEX
  5
4C4
330
4C2
100
AcDbEntity
  8
BEMAßUNG
 62
     7
100
AcDbVertex
100
AcDb2dVertex
 10
53.26410453312495
 20
106.9216389706654
 30
0.0
  0
SEQEND
  5
4C5
330
4C2
100
AcDbEntity
  8
BEMAßUNG
  0
POLYLINE
  5
4C6
330
1F
100
AcDbEntity
  8
BEMAßUNG
 62
     7
100
AcDb2dPolyline
 66
     1
 10
0.0
 20
0.0
 30
0.0
  0
VERTEX
  5
4C7
330
4C6
100
AcDbEntity
  8
BEMAßUNG
 62
     7
100
AcDbVertex
100
AcDb2dVertex
 10
55.99210339312003
 20
106.870823812258
 30
0.0
  0
VERTEX
  5
4C8
330
4C6
100
AcDbEntity
  8
BEMAßUNG
 62
     7
100
AcDbVertex
100
AcDb2dVertex
 10
52.87790932922844
 20
106.870823812258
 30
0.0
  0
SEQEND
  5
4C9
330
4C6
100
AcDbEntity
  8
BEMAßUNG
  0
POLYLINE
  5
4CA
330
1F
100
AcDbEntity
  8
BEMAßUNG
 62
     7
100
AcDb2dPolyline
 66
     1
 10
0.0
 20
0.0
 30
0.0
  0
VERTEX
  5
4CB
330
4CA
100
AcDbEntity
  8
BEMAßUNG
 62
     7
100
AcDbVertex
100
AcDb2dVertex
 10
55.99210339312003
 20
106.8200086538506
 30
0.0
  0
VERTEX
  5
4CC
330
4CA
100
AcDbEntity
  8
BEMAßUNG
 62
     7
100
AcDbVertex
100
AcDb2dVertex
 10
52.49257539920325
 20
106.8200086538506
 30
0.0
  0
SEQEND
  5
4CD
330
4CA
100
AcDbEntity
  8
BEMAßUNG
  0
POLYLINE
  5
4CE
330
1F
100
AcDbEntity
  8
BEMAßUNG
 62
     7
100
AcDb2dPolyline
 66
     1
 10
0.0
 20
0.0
 30
0.0
  0
VERTEX
  5
4CF
330
4CE
100
AcDbEntity
  8
BEMAßUNG
 62
     7
100
AcDbVertex
100
AcDb2dVertex
 10
50.49200845091867
 20
119.194791636868
 30
0.0
  0
VERTEX
  5
4D0
330
4CE
100
AcDbEntity
  8
BEMAßUNG
 62
     7
100
AcDbVertex
100
AcDb2dVertex
 10
38.4922241114707
 20
119.194791636868
 30
0.0
  0
SEQEND
  5
4D1
330
4CE
100
AcDbEntity
  8
BEMAßUNG
  0
POLYLINE
  5
4D2
330
1F
100
AcDbEntity
  8
BEMAßUNG
 62
     7
100
AcDb2dPolyline
 66
     1
 10
0.0
 20
0.0
 30
0.0
  0
VERTEX
  5
4D3
330
4D2
100
AcDbEntity
  8
BEMAßUNG
 62
     7
100
AcDbVertex
100
AcDb2dVertex
 10
50.49200845091867
 20
129.0622341257206
 30
0.0
  0
VERTEX
  5
4D4
330
4D2
100
AcDbEntity
  8
BEMAßUNG
 62
     7
100
AcDbVertex
100
AcDb2dVertex
 10
38.4922241114707
 20
129.0622341257206
 30
0.0
  0
SEQEND
  5
4D5
330
4D2
100
AcDbEntity
  8
BEMAßUNG
  0
POLYLINE
  5
4D6
330
1F
100
AcDbEntity
  8
BEMAßUNG
 62
     7
100
AcDb2dPolyline
 66
     1
 10
0.0
 20
0.0
 30
0.0
  0
VERTEX
  5
4D7
330
4D6
100
AcDbEntity
  8
BEMAßUNG
 62
     7
100
AcDbVertex
100
AcDb2dVertex
 10
40.49227429543249
 20
119.194791636868
 30
0.0
  0
VERTEX
  5
4D8
330
4D6
100
AcDbEntity
  8
BEMAßUNG
 62
     7
100
AcDbVertex
100
AcDb2dVertex
 10
40.49227429543249
 20
127.7055555236292
 30
0.0
  0
SEQEND
  5
4D9
330
4D6
100
AcDbEntity
  8
BEMAßUNG
  0
POLYLINE
  5
4DA
330
1F
100
AcDbEntity
  8
BEMAßUNG
 62
     7
100
AcDb2dPolyline
 66
     1
 10
0.0
 20
0.0
 30
0.0
  0
VERTEX
  5
4DB
330
4DA
100
AcDbEntity
  8
BEMAßUNG
 62
     7
100
AcDbVertex
100
AcDb2dVertex
 10
40.49227429543249
 20
119.194791636868
 30
0.0
  0
VERTEX
  5
4DC
330
4DA
100
AcDbEntity
  8
BEMAßUNG
 62
     7
100
AcDbVertex
100
AcDb2dVertex
 10
40.9528835618104
 20
122.6950086498818
 30
0.0
  0
VERTEX
  5
4DD
330
4DA
100
AcDbEntity
  8
BEMAßUNG
 62
     7
100
AcDbVertex
100
AcDb2dVertex
 10
40.03149277428032
 20
122.6950086498818
 30
0.0
  0
VERTEX
  5
4DE
330
4DA
100
AcDbEntity
  8
BEMAßUNG
 62
     7
100
AcDbVertex
100
AcDb2dVertex
 10
40.49227429543249
 20
119.194791636868
 30
0.0
  0
SEQEND
  5
4DF
330
4DA
100
AcDbEntity
  8
BEMAßUNG
  0
POLYLINE
  5
4E0
330
1F
100
AcDbEntity
  8
BEMAßUNG
 62
     7
100
AcDb2dPolyline
 66
     1
 10
0.0
 20
0.0
 30
0.0
  0
VERTEX
  5
4E1
330
4E0
100
AcDbEntity
  8
BEMAßUNG
 62
     7
100
AcDbVertex
100
AcDb2dVertex
 10
40.94978297587367
 20
122.6950086498818
 30
0.0
  0
VERTEX
  5
4E2
330
4E0
100
AcDbEntity
  8
BEMAßUNG
 62
     7
100
AcDbVertex
100
AcDb2dVertex
 10
40.94978297587367
 20
122.6677923955483
 30
0.0
  0
SEQEND
  5
4E3
330
4E0
100
AcDbEntity
  8
BEMAßUNG
  0
POLYLINE
  5
4E4
330
1F
100
AcDbEntity
  8
BEMAßUNG
 62
     7
100
AcDb2dPolyline
 66
     1
 10
0.0
 20
0.0
 30
0.0
  0
VERTEX
  5
4E5
330
4E4
100
AcDbEntity
  8
BEMAßUNG
 62
     7
100
AcDbVertex
100
AcDb2dVertex
 10
40.94978297587367
 20
122.6950086498818
 30
0.0
  0
VERTEX
  5
4E6
330
4E4
100
AcDbEntity
  8
BEMAßUNG
 62
     7
100
AcDbVertex
100
AcDb2dVertex
 10
40.94978297587367
 20
122.6677923955483
 30
0.0
  0
SEQEND
  5
4E7
330
4E4
100
AcDbEntity
  8
BEMAßUNG
  0
POLYLINE
  5
4E8
330
1F
100
AcDbEntity
  8
BEMAßUNG
 62
     7
100
AcDb2dPolyline
 66
     1
 10
0.0
 20
0.0
 30
0.0
  0
VERTEX
  5
4E9
330
4E8
100
AcDbEntity
  8
BEMAßUNG
 62
     7
100
AcDbVertex
100
AcDb2dVertex
 10
40.89862330791771
 20
122.6950086498818
 30
0.0
  0
VERTEX
  5
4EA
330
4E8
100
AcDbEntity
  8
BEMAßUNG
 62
     7
100
AcDbVertex
100
AcDb2dVertex
 10
40.89862330791771
 20
122.2815971916518
 30
0.0
  0
SEQEND
  5
4EB
330
4E8
100
AcDbEntity
  8
BEMAßUNG
  0
POLYLINE
  5
4EC
330
1F
100
AcDbEntity
  8
BEMAßUNG
 62
     7
100
AcDb2dPolyline
 66
     1
 10
0.0
 20
0.0
 30
0.0
  0
VERTEX
  5
4ED
330
4EC
100
AcDbEntity
  8
BEMAßUNG
 62
     7
100
AcDbVertex
100
AcDb2dVertex
 10
40.8481526590588
 20
122.6950086498818
 30
0.0
  0
VERTEX
  5
4EE
330
4EC
100
AcDbEntity
  8
BEMAßUNG
 62
     7
100
AcDbVertex
100
AcDb2dVertex
 10
40.8481526590588
 20
121.8960910068524
 30
0.0
  0
SEQEND
  5
4EF
330
4EC
100
AcDbEntity
  8
BEMAßUNG
  0
POLYLINE
  5
4F0
330
1F
100
AcDbEntity
  8
BEMAßUNG
 62
     7
100
AcDb2dPolyline
 66
     1
 10
0.0
 20
0.0
 30
0.0
  0
VERTEX
  5
4F1
330
4F0
100
AcDbEntity
  8
BEMAßUNG
 62
     7
100
AcDbVertex
100
AcDb2dVertex
 10
40.79733750065136
 20
122.6950086498818
 30
0.0
  0
VERTEX
  5
4F2
330
4F0
100
AcDbEntity
  8
BEMAßUNG
 62
     7
100
AcDbVertex
100
AcDb2dVertex
 10
40.79733750065136
 20
121.5097235481816
 30
0.0
  0
SEQEND
  5
4F3
330
4F0
100
AcDbEntity
  8
BEMAßUNG
  0
POLYLINE
  5
4F4
330
1F
100
AcDbEntity
  8
BEMAßUNG
 62
     7
100
AcDb2dPolyline
 66
     1
 10
0.0
 20
0.0
 30
0.0
  0
VERTEX
  5
4F5
330
4F4
100
AcDbEntity
  8
BEMAßUNG
 62
     7
100
AcDbVertex
100
AcDb2dVertex
 10
40.7461778326954
 20
122.6950086498818
 30
0.0
  0
VERTEX
  5
4F6
330
4F4
100
AcDbEntity
  8
BEMAßUNG
 62
     7
100
AcDbVertex
100
AcDb2dVertex
 10
40.7461778326954
 20
121.1240451086079
 30
0.0
  0
SEQEND
  5
4F7
330
4F4
100
AcDbEntity
  8
BEMAßUNG
  0
POLYLINE
  5
4F8
330
1F
100
AcDbEntity
  8
BEMAßUNG
 62
     7
100
AcDb2dPolyline
 66
     1
 10
0.0
 20
0.0
 30
0.0
  0
VERTEX
  5
4F9
330
4F8
100
AcDbEntity
  8
BEMAßUNG
 62
     7
100
AcDbVertex
100
AcDb2dVertex
 10
40.69570718383649
 20
122.6950086498818
 30
0.0
  0
VERTEX
  5
4FA
330
4F8
100
AcDbEntity
  8
BEMAßUNG
 62
     7
100
AcDbVertex
100
AcDb2dVertex
 10
40.69570718383649
 20
120.7381944142599
 30
0.0
  0
SEQEND
  5
4FB
330
4F8
100
AcDbEntity
  8
BEMAßUNG
  0
POLYLINE
  5
4FC
330
1F
100
AcDbEntity
  8
BEMAßUNG
 62
     7
100
AcDb2dPolyline
 66
     1
 10
0.0
 20
0.0
 30
0.0
  0
VERTEX
  5
4FD
330
4FC
100
AcDbEntity
  8
BEMAßUNG
 62
     7
100
AcDbVertex
100
AcDb2dVertex
 10
40.64454751588053
 20
122.6950086498818
 30
0.0
  0
VERTEX
  5
4FE
330
4FC
100
AcDbEntity
  8
BEMAßUNG
 62
     7
100
AcDbVertex
100
AcDb2dVertex
 10
40.64454751588053
 20
120.3526882294604
 30
0.0
  0
SEQEND
  5
4FF
330
4FC
100
AcDbEntity
  8
BEMAßUNG
  0
POLYLINE
  5
500
330
1F
100
AcDbEntity
  8
BEMAßUNG
 62
     7
100
AcDb2dPolyline
 66
     1
 10
0.0
 20
0.0
 30
0.0
  0
VERTEX
  5
501
330
500
100
AcDbEntity
  8
BEMAßUNG
 62
     7
100
AcDbVertex
100
AcDb2dVertex
 10
40.59373235747309
 20
122.6950086498818
 30
0.0
  0
VERTEX
  5
502
330
500
100
AcDbEntity
  8
BEMAßUNG
 62
     7
100
AcDbVertex
100
AcDb2dVertex
 10
40.59373235747309
 20
119.9663207707897
 30
0.0
  0
SEQEND
  5
503
330
500
100
AcDbEntity
  8
BEMAßUNG
  0
POLYLINE
  5
504
330
1F
100
AcDbEntity
  8
BEMAßUNG
 62
     7
100
AcDb2dPolyline
 66
     1
 10
0.0
 20
0.0
 30
0.0
  0
VERTEX
  5
505
330
504
100
AcDbEntity
  8
BEMAßUNG
 62
     7
100
AcDbVertex
100
AcDb2dVertex
 10
40.54326170861419
 20
122.6950086498818
 30
0.0
  0
VERTEX
  5
506
330
504
100
AcDbEntity
  8
BEMAßUNG
 62
     7
100
AcDbVertex
100
AcDb2dVertex
 10
40.54326170861419
 20
119.580642331216
 30
0.0
  0
SEQEND
  5
507
330
504
100
AcDbEntity
  8
BEMAßUNG
  0
POLYLINE
  5
508
330
1F
100
AcDbEntity
  8
BEMAßUNG
 62
     7
100
AcDb2dPolyline
 66
     1
 10
0.0
 20
0.0
 30
0.0
  0
VERTEX
  5
509
330
508
100
AcDbEntity
  8
BEMAßUNG
 62
     7
100
AcDbVertex
100
AcDb2dVertex
 10
40.49227429543249
 20
122.6950086498818
 30
0.0
  0
VERTEX
  5
50A
330
508
100
AcDbEntity
  8
BEMAßUNG
 62
     7
100
AcDbVertex
100
AcDb2dVertex
 10
40.49227429543249
 20
119.194791636868
 30
0.0
  0
SEQEND
  5
50B
330
508
100
AcDbEntity
  8
BEMAßUNG
  0
POLYLINE
  5
50C
330
1F
100
AcDbEntity
  8
BEMAßUNG
 62
     7
100
AcDb2dPolyline
 66
     1
 10
0.0
 20
0.0
 30
0.0
  0
VERTEX
  5
50D
330
50C
100
AcDbEntity
  8
BEMAßUNG
 62
     7
100
AcDbVertex
100
AcDb2dVertex
 10
40.0352823793141
 20
122.6950086498818
 30
0.0
  0
VERTEX
  5
50E
330
50C
100
AcDbEntity
  8
BEMAßUNG
 62
     7
100
AcDbVertex
100
AcDb2dVertex
 10
40.0352823793141
 20
122.6677923955483
 30
0.0
  0
SEQEND
  5
50F
330
50C
100
AcDbEntity
  8
BEMAßUNG
  0
POLYLINE
  5
510
330
1F
100
AcDbEntity
  8
BEMAßUNG
 62
     7
100
AcDb2dPolyline
 66
     1
 10
0.0
 20
0.0
 30
0.0
  0
VERTEX
  5
511
330
510
100
AcDbEntity
  8
BEMAßUNG
 62
     7
100
AcDbVertex
100
AcDb2dVertex
 10
40.0352823793141
 20
122.6950086498818
 30
0.0
  0
VERTEX
  5
512
330
510
100
AcDbEntity
  8
BEMAßUNG
 62
     7
100
AcDbVertex
100
AcDb2dVertex
 10
40.0352823793141
 20
122.6677923955483
 30
0.0
  0
SEQEND
  5
513
330
510
100
AcDbEntity
  8
BEMAßUNG
  0
POLYLINE
  5
514
330
1F
100
AcDbEntity
  8
BEMAßUNG
 62
     7
100
AcDb2dPolyline
 66
     1
 10
0.0
 20
0.0
 30
0.0
  0
VERTEX
  5
515
330
514
100
AcDbEntity
  8
BEMAßUNG
 62
     7
100
AcDbVertex
100
AcDb2dVertex
 10
40.08575302817301
 20
122.6950086498818
 30
0.0
  0
VERTEX
  5
516
330
514
100
AcDbEntity
  8
BEMAßUNG
 62
     7
100
AcDbVertex
100
AcDb2dVertex
 10
40.08575302817301
 20
122.2815971916518
 30
0.0
  0
SEQEND
  5
517
330
514
100
AcDbEntity
  8
BEMAßUNG
  0
POLYLINE
  5
518
330
1F
100
AcDbEntity
  8
BEMAßUNG
 62
     7
100
AcDb2dPolyline
 66
     1
 10
0.0
 20
0.0
 30
0.0
  0
VERTEX
  5
519
330
518
100
AcDbEntity
  8
BEMAßUNG
 62
     7
100
AcDbVertex
100
AcDb2dVertex
 10
40.13691269612897
 20
122.6950086498818
 30
0.0
  0
VERTEX
  5
51A
330
518
100
AcDbEntity
  8
BEMAßUNG
 62
     7
100
AcDbVertex
100
AcDb2dVertex
 10
40.13691269612897
 20
121.8960910068524
 30
0.0
  0
SEQEND
  5
51B
330
518
100
AcDbEntity
  8
BEMAßUNG
  0
POLYLINE
  5
51C
330
1F
100
AcDbEntity
  8
BEMAßUNG
 62
     7
100
AcDb2dPolyline
 66
     1
 10
0.0
 20
0.0
 30
0.0
  0
VERTEX
  5
51D
330
51C
100
AcDbEntity
  8
BEMAßUNG
 62
     7
100
AcDbVertex
100
AcDb2dVertex
 10
40.1877278545364
 20
122.6950086498818
 30
0.0
  0
VERTEX
  5
51E
330
51C
100
AcDbEntity
  8
BEMAßUNG
 62
     7
100
AcDbVertex
100
AcDb2dVertex
 10
40.1877278545364
 20
121.5097235481816
 30
0.0
  0
SEQEND
  5
51F
330
51C
100
AcDbEntity
  8
BEMAßUNG
  0
POLYLINE
  5
520
330
1F
100
AcDbEntity
  8
BEMAßUNG
 62
     7
100
AcDb2dPolyline
 66
     1
 10
0.0
 20
0.0
 30
0.0
  0
VERTEX
  5
521
330
520
100
AcDbEntity
  8
BEMAßUNG
 62
     7
100
AcDbVertex
100
AcDb2dVertex
 10
40.23819850339531
 20
122.6950086498818
 30
0.0
  0
VERTEX
  5
522
330
520
100
AcDbEntity
  8
BEMAßUNG
 62
     7
100
AcDbVertex
100
AcDb2dVertex
 10
40.23819850339531
 20
121.1240451086079
 30
0.0
  0
SEQEND
  5
523
330
520
100
AcDbEntity
  8
BEMAßUNG
  0
POLYLINE
  5
524
330
1F
100
AcDbEntity
  8
BEMAßUNG
 62
     7
100
AcDb2dPolyline
 66
     1
 10
0.0
 20
0.0
 30
0.0
  0
VERTEX
  5
525
330
524
100
AcDbEntity
  8
BEMAßUNG
 62
     7
100
AcDbVertex
100
AcDb2dVertex
 10
40.28935817135127
 20
122.6950086498818
 30
0.0
  0
VERTEX
  5
526
330
524
100
AcDbEntity
  8
BEMAßUNG
 62
     7
100
AcDbVertex
100
AcDb2dVertex
 10
40.28935817135127
 20
120.7381944142599
 30
0.0
  0
SEQEND
  5
527
330
524
100
AcDbEntity
  8
BEMAßUNG
  0
POLYLINE
  5
528
330
1F
100
AcDbEntity
  8
BEMAßUNG
 62
     7
100
AcDb2dPolyline
 66
     1
 10
0.0
 20
0.0
 30
0.0
  0
VERTEX
  5
529
330
528
100
AcDbEntity
  8
BEMAßUNG
 62
     7
100
AcDbVertex
100
AcDb2dVertex
 10
40.33982882021019
 20
122.6950086498818
 30
0.0
  0
VERTEX
  5
52A
330
528
100
AcDbEntity
  8
BEMAßUNG
 62
     7
100
AcDbVertex
100
AcDb2dVertex
 10
40.33982882021019
 20
120.3526882294604
 30
0.0
  0
SEQEND
  5
52B
330
528
100
AcDbEntity
  8
BEMAßUNG
  0
POLYLINE
  5
52C
330
1F
100
AcDbEntity
  8
BEMAßUNG
 62
     7
100
AcDb2dPolyline
 66
     1
 10
0.0
 20
0.0
 30
0.0
  0
VERTEX
  5
52D
330
52C
100
AcDbEntity
  8
BEMAßUNG
 62
     7
100
AcDbVertex
100
AcDb2dVertex
 10
40.39064397861762
 20
122.6950086498818
 30
0.0
  0
VERTEX
  5
52E
330
52C
100
AcDbEntity
  8
BEMAßUNG
 62
     7
100
AcDbVertex
100
AcDb2dVertex
 10
40.39064397861762
 20
119.9663207707897
 30
0.0
  0
SEQEND
  5
52F
330
52C
100
AcDbEntity
  8
BEMAßUNG
  0
POLYLINE
  5
530
330
1F
100
AcDbEntity
  8
BEMAßUNG
 62
     7
100
AcDb2dPolyline
 66
     1
 10
0.0
 20
0.0
 30
0.0
  0
VERTEX
  5
531
330
530
100
AcDbEntity
  8
BEMAßUNG
 62
     7
100
AcDbVertex
100
AcDb2dVertex
 10
40.44180364657358
 20
122.6950086498818
 30
0.0
  0
VERTEX
  5
532
330
530
100
AcDbEntity
  8
BEMAßUNG
 62
     7
100
AcDbVertex
100
AcDb2dVertex
 10
40.44180364657358
 20
119.580642331216
 30
0.0
  0
SEQEND
  5
533
330
530
100
AcDbEntity
  8
BEMAßUNG
  0
POLYLINE
  5
534
330
1F
100
AcDbEntity
  8
BEMAßUNG
 62
     7
100
AcDb2dPolyline
 66
     1
 10
0.0
 20
0.0
 30
0.0
  0
VERTEX
  5
535
330
534
100
AcDbEntity
  8
BEMAßUNG
 62
     7
100
AcDbVertex
100
AcDb2dVertex
 10
40.49227429543249
 20
122.6950086498818
 30
0.0
  0
VERTEX
  5
536
330
534
100
AcDbEntity
  8
BEMAßUNG
 62
     7
100
AcDbVertex
100
AcDb2dVertex
 10
40.49227429543249
 20
119.194791636868
 30
0.0
  0
SEQEND
  5
537
330
534
100
AcDbEntity
  8
BEMAßUNG
  0
POLYLINE
  5
538
330
1F
100
AcDbEntity
  8
BEMAßUNG
 62
     7
100
AcDb2dPolyline
 66
     1
 10
0.0
 20
0.0
 30
0.0
  0
VERTEX
  5
539
330
538
100
AcDbEntity
  8
BEMAßUNG
 62
     7
100
AcDbVertex
100
AcDb2dVertex
 10
40.49227429543249
 20
129.0622341257206
 30
0.0
  0
VERTEX
  5
53A
330
538
100
AcDbEntity
  8
BEMAßUNG
 62
     7
100
AcDbVertex
100
AcDb2dVertex
 10
40.03149277428032
 20
125.5620171127067
 30
0.0
  0
VERTEX
  5
53B
330
538
100
AcDbEntity
  8
BEMAßUNG
 62
     7
100
AcDbVertex
100
AcDb2dVertex
 10
40.9528835618104
 20
125.5620171127067
 30
0.0
  0
VERTEX
  5
53C
330
538
100
AcDbEntity
  8
BEMAßUNG
 62
     7
100
AcDbVertex
100
AcDb2dVertex
 10
40.49227429543249
 20
129.0622341257206
 30
0.0
  0
SEQEND
  5
53D
330
538
100
AcDbEntity
  8
BEMAßUNG
  0
POLYLINE
  5
53E
330
1F
100
AcDbEntity
  8
BEMAßUNG
 62
     7
100
AcDb2dPolyline
 66
     1
 10
0.0
 20
0.0
 30
0.0
  0
VERTEX
  5
53F
330
53E
100
AcDbEntity
  8
BEMAßUNG
 62
     7
100
AcDbVertex
100
AcDb2dVertex
 10
40.0352823793141
 20
125.5620171127067
 30
0.0
  0
VERTEX
  5
540
330
53E
100
AcDbEntity
  8
BEMAßUNG
 62
     7
100
AcDbVertex
100
AcDb2dVertex
 10
40.0352823793141
 20
125.5892333670402
 30
0.0
  0
SEQEND
  5
541
330
53E
100
AcDbEntity
  8
BEMAßUNG
  0
POLYLINE
  5
542
330
1F
100
AcDbEntity
  8
BEMAßUNG
 62
     7
100
AcDb2dPolyline
 66
     1
 10
0.0
 20
0.0
 30
0.0
  0
VERTEX
  5
543
330
542
100
AcDbEntity
  8
BEMAßUNG
 62
     7
100
AcDbVertex
100
AcDb2dVertex
 10
40.0352823793141
 20
125.5620171127067
 30
0.0
  0
VERTEX
  5
544
330
542
100
AcDbEntity
  8
BEMAßUNG
 62
     7
100
AcDbVertex
100
AcDb2dVertex
 10
40.0352823793141
 20
125.5892333670402
 30
0.0
  0
SEQEND
  5
545
330
542
100
AcDbEntity
  8
BEMAßUNG
  0
POLYLINE
  5
546
330
1F
100
AcDbEntity
  8
BEMAßUNG
 62
     7
100
AcDb2dPolyline
 66
     1
 10
0.0
 20
0.0
 30
0.0
  0
VERTEX
  5
547
330
546
100
AcDbEntity
  8
BEMAßUNG
 62
     7
100
AcDbVertex
100
AcDb2dVertex
 10
40.08575302817301
 20
125.5620171127067
 30
0.0
  0
VERTEX
  5
548
330
546
100
AcDbEntity
  8
BEMAßUNG
 62
     7
100
AcDbVertex
100
AcDb2dVertex
 10
40.08575302817301
 20
125.9754285709367
 30
0.0
  0
SEQEND
  5
549
330
546
100
AcDbEntity
  8
BEMAßUNG
  0
POLYLINE
  5
54A
330
1F
100
AcDbEntity
  8
BEMAßUNG
 62
     7
100
AcDb2dPolyline
 66
     1
 10
0.0
 20
0.0
 30
0.0
  0
VERTEX
  5
54B
330
54A
100
AcDbEntity
  8
BEMAßUNG
 62
     7
100
AcDbVertex
100
AcDb2dVertex
 10
40.13691269612897
 20
125.5620171127067
 30
0.0
  0
VERTEX
  5
54C
330
54A
100
AcDbEntity
  8
BEMAßUNG
 62
     7
100
AcDbVertex
100
AcDb2dVertex
 10
40.13691269612897
 20
126.3607625009619
 30
0.0
  0
SEQEND
  5
54D
330
54A
100
AcDbEntity
  8
BEMAßUNG
  0
POLYLINE
  5
54E
330
1F
100
AcDbEntity
  8
BEMAßUNG
 62
     7
100
AcDb2dPolyline
 66
     1
 10
0.0
 20
0.0
 30
0.0
  0
VERTEX
  5
54F
330
54E
100
AcDbEntity
  8
BEMAßUNG
 62
     7
100
AcDbVertex
100
AcDb2dVertex
 10
40.1877278545364
 20
125.5620171127067
 30
0.0
  0
VERTEX
  5
550
330
54E
100
AcDbEntity
  8
BEMAßUNG
 62
     7
100
AcDbVertex
100
AcDb2dVertex
 10
40.1877278545364
 20
126.7471299596327
 30
0.0
  0
SEQEND
  5
551
330
54E
100
AcDbEntity
  8
BEMAßUNG
  0
POLYLINE
  5
552
330
1F
100
AcDbEntity
  8
BEMAßUNG
 62
     7
100
AcDb2dPolyline
 66
     1
 10
0.0
 20
0.0
 30
0.0
  0
VERTEX
  5
553
330
552
100
AcDbEntity
  8
BEMAßUNG
 62
     7
100
AcDbVertex
100
AcDb2dVertex
 10
40.23819850339531
 20
125.5620171127067
 30
0.0
  0
VERTEX
  5
554
330
552
100
AcDbEntity
  8
BEMAßUNG
 62
     7
100
AcDbVertex
100
AcDb2dVertex
 10
40.23819850339531
 20
127.1326361444321
 30
0.0
  0
SEQEND
  5
555
330
552
100
AcDbEntity
  8
BEMAßUNG
  0
POLYLINE
  5
556
330
1F
100
AcDbEntity
  8
BEMAßUNG
 62
     7
100
AcDb2dPolyline
 66
     1
 10
0.0
 20
0.0
 30
0.0
  0
VERTEX
  5
557
330
556
100
AcDbEntity
  8
BEMAßUNG
 62
     7
100
AcDbVertex
100
AcDb2dVertex
 10
40.28935817135127
 20
125.5620171127067
 30
0.0
  0
VERTEX
  5
558
330
556
100
AcDbEntity
  8
BEMAßUNG
 62
     7
100
AcDbVertex
100
AcDb2dVertex
 10
40.28935817135127
 20
127.5188313483286
 30
0.0
  0
SEQEND
  5
559
330
556
100
AcDbEntity
  8
BEMAßUNG
  0
POLYLINE
  5
55A
330
1F
100
AcDbEntity
  8
BEMAßUNG
 62
     7
100
AcDb2dPolyline
 66
     1
 10
0.0
 20
0.0
 30
0.0
  0
VERTEX
  5
55B
330
55A
100
AcDbEntity
  8
BEMAßUNG
 62
     7
100
AcDbVertex
100
AcDb2dVertex
 10
40.33982882021019
 20
125.5620171127067
 30
0.0
  0
VERTEX
  5
55C
330
55A
100
AcDbEntity
  8
BEMAßUNG
 62
     7
100
AcDbVertex
100
AcDb2dVertex
 10
40.33982882021019
 20
127.9048542974509
 30
0.0
  0
SEQEND
  5
55D
330
55A
100
AcDbEntity
  8
BEMAßUNG
  0
POLYLINE
  5
55E
330
1F
100
AcDbEntity
  8
BEMAßUNG
 62
     7
100
AcDb2dPolyline
 66
     1
 10
0.0
 20
0.0
 30
0.0
  0
VERTEX
  5
55F
330
55E
100
AcDbEntity
  8
BEMAßUNG
 62
     7
100
AcDbVertex
100
AcDb2dVertex
 10
40.39064397861762
 20
125.5620171127067
 30
0.0
  0
VERTEX
  5
560
330
55E
100
AcDbEntity
  8
BEMAßUNG
 62
     7
100
AcDbVertex
100
AcDb2dVertex
 10
40.39064397861762
 20
128.2905327370246
 30
0.0
  0
SEQEND
  5
561
330
55E
100
AcDbEntity
  8
BEMAßUNG
  0
POLYLINE
  5
562
330
1F
100
AcDbEntity
  8
BEMAßUNG
 62
     7
100
AcDb2dPolyline
 66
     1
 10
0.0
 20
0.0
 30
0.0
  0
VERTEX
  5
563
330
562
100
AcDbEntity
  8
BEMAßUNG
 62
     7
100
AcDbVertex
100
AcDb2dVertex
 10
40.44180364657358
 20
125.5620171127067
 30
0.0
  0
VERTEX
  5
564
330
562
100
AcDbEntity
  8
BEMAßUNG
 62
     7
100
AcDbVertex
100
AcDb2dVertex
 10
40.44180364657358
 20
128.676038921824
 30
0.0
  0
SEQEND
  5
565
330
562
100
AcDbEntity
  8
BEMAßUNG
  0
POLYLINE
  5
566
330
1F
100
AcDbEntity
  8
BEMAßUNG
 62
     7
100
AcDb2dPolyline
 66
     1
 10
0.0
 20
0.0
 30
0.0
  0
VERTEX
  5
567
330
566
100
AcDbEntity
  8
BEMAßUNG
 62
     7
100
AcDbVertex
100
AcDb2dVertex
 10
40.49227429543249
 20
125.5620171127067
 30
0.0
  0
VERTEX
  5
568
330
566
100
AcDbEntity
  8
BEMAßUNG
 62
     7
100
AcDbVertex
100
AcDb2dVertex
 10
40.49227429543249
 20
129.0622341257206
 30
0.0
  0
SEQEND
  5
569
330
566
100
AcDbEntity
  8
BEMAßUNG
  0
POLYLINE
  5
56A
330
1F
100
AcDbEntity
  8
BEMAßUNG
 62
     7
100
AcDb2dPolyline
 66
     1
 10
0.0
 20
0.0
 30
0.0
  0
VERTEX
  5
56B
330
56A
100
AcDbEntity
  8
BEMAßUNG
 62
     7
100
AcDbVertex
100
AcDb2dVertex
 10
40.94978297587367
 20
125.5620171127067
 30
0.0
  0
VERTEX
  5
56C
330
56A
100
AcDbEntity
  8
BEMAßUNG
 62
     7
100
AcDbVertex
100
AcDb2dVertex
 10
40.94978297587367
 20
125.5892333670402
 30
0.0
  0
SEQEND
  5
56D
330
56A
100
AcDbEntity
  8
BEMAßUNG
  0
POLYLINE
  5
56E
330
1F
100
AcDbEntity
  8
BEMAßUNG
 62
     7
100
AcDb2dPolyline
 66
     1
 10
0.0
 20
0.0
 30
0.0
  0
VERTEX
  5
56F
330
56E
100
AcDbEntity
  8
BEMAßUNG
 62
     7
100
AcDbVertex
100
AcDb2dVertex
 10
40.94978297587367
 20
125.5620171127067
 30
0.0
  0
VERTEX
  5
570
330
56E
100
AcDbEntity
  8
BEMAßUNG
 62
     7
100
AcDbVertex
100
AcDb2dVertex
 10
40.94978297587367
 20
125.5892333670402
 30
0.0
  0
SEQEND
  5
571
330
56E
100
AcDbEntity
  8
BEMAßUNG
  0
POLYLINE
  5
572
330
1F
100
AcDbEntity
  8
BEMAßUNG
 62
     7
100
AcDb2dPolyline
 66
     1
 10
0.0
 20
0.0
 30
0.0
  0
VERTEX
  5
573
330
572
100
AcDbEntity
  8
BEMAßUNG
 62
     7
100
AcDbVertex
100
AcDb2dVertex
 10
40.89862330791771
 20
125.5620171127067
 30
0.0
  0
VERTEX
  5
574
330
572
100
AcDbEntity
  8
BEMAßUNG
 62
     7
100
AcDbVertex
100
AcDb2dVertex
 10
40.89862330791771
 20
125.9754285709367
 30
0.0
  0
SEQEND
  5
575
330
572
100
AcDbEntity
  8
BEMAßUNG
  0
POLYLINE
  5
576
330
1F
100
AcDbEntity
  8
BEMAßUNG
 62
     7
100
AcDb2dPolyline
 66
     1
 10
0.0
 20
0.0
 30
0.0
  0
VERTEX
  5
577
330
576
100
AcDbEntity
  8
BEMAßUNG
 62
     7
100
AcDbVertex
100
AcDb2dVertex
 10
40.8481526590588
 20
125.5620171127067
 30
0.0
  0
VERTEX
  5
578
330
576
100
AcDbEntity
  8
BEMAßUNG
 62
     7
100
AcDbVertex
100
AcDb2dVertex
 10
40.8481526590588
 20
126.3607625009619
 30
0.0
  0
SEQEND
  5
579
330
576
100
AcDbEntity
  8
BEMAßUNG
  0
POLYLINE
  5
57A
330
1F
100
AcDbEntity
  8
BEMAßUNG
 62
     7
100
AcDb2dPolyline
 66
     1
 10
0.0
 20
0.0
 30
0.0
  0
VERTEX
  5
57B
330
57A
100
AcDbEntity
  8
BEMAßUNG
 62
     7
100
AcDbVertex
100
AcDb2dVertex
 10
40.79733750065136
 20
125.5620171127067
 30
0.0
  0
VERTEX
  5
57C
330
57A
100
AcDbEntity
  8
BEMAßUNG
 62
     7
100
AcDbVertex
100
AcDb2dVertex
 10
40.79733750065136
 20
126.7471299596327
 30
0.0
  0
SEQEND
  5
57D
330
57A
100
AcDbEntity
  8
BEMAßUNG
  0
POLYLINE
  5
57E
330
1F
100
AcDbEntity
  8
BEMAßUNG
 62
     7
100
AcDb2dPolyline
 66
     1
 10
0.0
 20
0.0
 30
0.0
  0
VERTEX
  5
57F
330
57E
100
AcDbEntity
  8
BEMAßUNG
 62
     7
100
AcDbVertex
100
AcDb2dVertex
 10
40.7461778326954
 20
125.5620171127067
 30
0.0
  0
VERTEX
  5
580
330
57E
100
AcDbEntity
  8
BEMAßUNG
 62
     7
100
AcDbVertex
100
AcDb2dVertex
 10
40.7461778326954
 20
127.1326361444321
 30
0.0
  0
SEQEND
  5
581
330
57E
100
AcDbEntity
  8
BEMAßUNG
  0
POLYLINE
  5
582
330
1F
100
AcDbEntity
  8
BEMAßUNG
 62
     7
100
AcDb2dPolyline
 66
     1
 10
0.0
 20
0.0
 30
0.0
  0
VERTEX
  5
583
330
582
100
AcDbEntity
  8
BEMAßUNG
 62
     7
100
AcDbVertex
100
AcDb2dVertex
 10
40.69570718383649
 20
125.5620171127067
 30
0.0
  0
VERTEX
  5
584
330
582
100
AcDbEntity
  8
BEMAßUNG
 62
     7
100
AcDbVertex
100
AcDb2dVertex
 10
40.69570718383649
 20
127.5188313483286
 30
0.0
  0
SEQEND
  5
585
330
582
100
AcDbEntity
  8
BEMAßUNG
  0
POLYLINE
  5
586
330
1F
100
AcDbEntity
  8
BEMAßUNG
 62
     7
100
AcDb2dPolyline
 66
     1
 10
0.0
 20
0.0
 30
0.0
  0
VERTEX
  5
587
330
586
100
AcDbEntity
  8
BEMAßUNG
 62
     7
100
AcDbVertex
100
AcDb2dVertex
 10
40.64454751588053
 20
125.5620171127067
 30
0.0
  0
VERTEX
  5
588
330
586
100
AcDbEntity
  8
BEMAßUNG
 62
     7
100
AcDbVertex
100
AcDb2dVertex
 10
40.64454751588053
 20
127.9048542974509
 30
0.0
  0
SEQEND
  5
589
330
586
100
AcDbEntity
  8
BEMAßUNG
  0
POLYLINE
  5
58A
330
1F
100
AcDbEntity
  8
BEMAßUNG
 62
     7
100
AcDb2dPolyline
 66
     1
 10
0.0
 20
0.0
 30
0.0
  0
VERTEX
  5
58B
330
58A
100
AcDbEntity
  8
BEMAßUNG
 62
     7
100
AcDbVertex
100
AcDb2dVertex
 10
40.59373235747309
 20
125.5620171127067
 30
0.0
  0
VERTEX
  5
58C
330
58A
100
AcDbEntity
  8
BEMAßUNG
 62
     7
100
AcDbVertex
100
AcDb2dVertex
 10
40.59373235747309
 20
128.2905327370246
 30
0.0
  0
SEQEND
  5
58D
330
58A
100
AcDbEntity
  8
BEMAßUNG
  0
POLYLINE
  5
58E
330
1F
100
AcDbEntity
  8
BEMAßUNG
 62
     7
100
AcDb2dPolyline
 66
     1
 10
0.0
 20
0.0
 30
0.0
  0
VERTEX
  5
58F
330
58E
100
AcDbEntity
  8
BEMAßUNG
 62
     7
100
AcDbVertex
100
AcDb2dVertex
 10
40.54326170861419
 20
125.5620171127067
 30
0.0
  0
VERTEX
  5
590
330
58E
100
AcDbEntity
  8
BEMAßUNG
 62
     7
100
AcDbVertex
100
AcDb2dVertex
 10
40.54326170861419
 20
128.676038921824
 30
0.0
  0
SEQEND
  5
591
330
58E
100
AcDbEntity
  8
BEMAßUNG
  0
POLYLINE
  5
592
330
1F
100
AcDbEntity
  8
BEMAßUNG
 62
     7
100
AcDb2dPolyline
 66
     1
 10
0.0
 20
0.0
 30
0.0
  0
VERTEX
  5
593
330
592
100
AcDbEntity
  8
BEMAßUNG
 62
     7
100
AcDbVertex
100
AcDb2dVertex
 10
40.49227429543249
 20
125.5620171127067
 30
0.0
  0
VERTEX
  5
594
330
592
100
AcDbEntity
  8
BEMAßUNG
 62
     7
100
AcDbVertex
100
AcDb2dVertex
 10
40.49227429543249
 20
129.0622341257206
 30
0.0
  0
SEQEND
  5
595
330
592
100
AcDbEntity
  8
BEMAßUNG
  0
MTEXT
  5
597
330
1F
100
AcDbEntity
  8
TEXT
 62
     7
100
AcDbMText
 10
111.7141113001965
 20
131.8162434566293
 30
0.0
 40
3.311186211711877
 41
0.0
 71
     7
 72
     1
  1
\fINDEX Univers 45 Light|b0|i0|c0|p34;\W1;ø12
 11
-4.371139000186241E-8
 21
0.999999999999999
 31
0.0
  0
MTEXT
  5
598
330
1F
100
AcDbEntity
  8
TEXT
 62
     7
100
AcDbMText
 10
70.61980656871658
 20
108.5754570583596
 30
0.0
 40
3.311186211711877
 41
0.0
 71
     7
 72
     1
  1
\fINDEX Univers 45 Light|b0|i0|c0|p34;\W1;40
  0
MTEXT
  5
599
330
1F
100
AcDbEntity
  8
TEXT
 62
     7
100
AcDbMText
 10
39.62583278089215
 20
121.9951375020533
 30
0.0
 40
3.311186211711877
 41
0.0
 71
     7
 72
     1
  1
\fINDEX Univers 45 Light|b0|i0|c0|p34;\W1;D
 11
-4.371139000186241E-8
 21
0.999999999999999
 31
0.0
  0
ENDSEC
  0
SECTION
  2
OBJECTS
  0
DICTIONARY
  5
C
330
0
100
AcDbDictionary
  3
ACAD_GROUP
350
D
  3
ACAD_LAYOUT
350
1A
  3
ACAD_MLINESTYLE
350
17
  3
ACAD_PLOTSETTINGS
350
19
  3
ACAD_TABLESTYLE
350
5BA
  3
ACAD_VISUALSTYLE
350
2A
  3
ACDBHEADERROUNDTRIPXREC
350
59A
  0
DICTIONARY
  5
D
102
{ACAD_REACTORS
330
C
102
}
330
C
100
AcDbDictionary
  0
DICTIONARY
  5
1A
102
{ACAD_REACTORS
330
C
102
}
330
C
100
AcDbDictionary
  0
DICTIONARY
  5
17
102
{ACAD_REACTORS
330
C
102
}
330
C
100
AcDbDictionary
  3
STANDARD
350
18
  0
DICTIONARY
  5
19
102
{ACAD_REACTORS
330
C
102
}
330
C
100
AcDbDictionary
  0
DICTIONARY
  5
5BA
102
{ACAD_REACTORS
330
C
102
}
330
C
100
AcDbDictionary
  0
DICTIONARY
  5
2A
102
{ACAD_REACTORS
330
C
102
}
330
C
100
AcDbDictionary
  3
2DWIREFRAME
350
2F
  3
3D_HIDDEN
350
31
  3
3DWIREFRAME
350
30
  3
BASIC
350
32
  3
BRIGHTEN
350
36
  3
COLORCHANGE
350
3A
  3
CONCEPTUAL
350
34
  3
DIM
350
35
  3
FACEPATTERN
350
39
  3
FLAT
350
2B
  3
FLATWITHEDGES
350
2C
  3
GOURAUD
350
2D
  3
GOURAUDWITHEDGES
350
2E
  3
LINEPATTERN
350
38
  3
REALISTIC
350
33
  3
THICKEN
350
37
  0
DICTIONARY
  5
59A
102
{ACAD_REACTORS
330
C
102
}
330
C
100
AcDbDictionary
  3
CEPSNTYPE
350
5A3
  3
DIMSTYLEDATA
350
5B9
  3
FINGERPRINTGUID
350
5A4
  3
HYPERLINKBASE
350
59D
  3
INSUNITS
350
5A2
  3
LAYOUTDICT
350
59F
  3
LWETCUNION
350
5A1
  3
PLOTSETDICT
350
5A0
  3
PSVPSCALE
350
5A6
  3
PUCSBASE
350
5A9
  3
PUCSORGBACK
350
5AF
  3
PUCSORGBOTTOM
350
5AB
  3
PUCSORGFRONT
350
5AE
  3
PUCSORGLEFT
350
5AC
  3
PUCSORGRIGHT
350
5AD
  3
PUCSORGTOP
350
5AA
  3
PUCSORTHOREF
350
5A7
  3
PUCSORTHOVIEW
350
5A8
  3
STYLESHEET
350
59E
  3
TSTACKALIGN
350
59B
  3
TSTACKSIZE
350
59C
  3
UCSBASE
350
5B2
  3
UCSORGBACK
350
5B8
  3
UCSORGBOTTOM
350
5B4
  3
UCSORGFRONT
350
5B7
  3
UCSORGLEFT
350
5B5
  3
UCSORGRIGHT
350
5B6
  3
UCSORGTOP
350
5B3
  3
UCSORTHOREF
350
5B0
  3
UCSORTHOVIEW
350
5B1
  3
VERSIONGUID
350
5A5
  0
MLINESTYLE
  5
18
102
{ACAD_REACTORS
330
17
102
}
330
17
100
AcDbMlineStyle
  2
Standard
 70
     0
  3

 62
   256
 51
90.0
 52
90.0
 71
     2
 49
0.5
 62
   256
  6
BYLAYER
 49
-0.5
 62
   256
  6
BYLAYER
  0
VISUALSTYLE
  5
2F
102
{ACAD_REACTORS
330
2A
102
}
330
2A
100
AcDbVisualStyle
  2
2dWireframe
 70
     4
 71
     0
 72
     2
 73
     0
 90
        0
 40
-0.6
 41
-30.0
 62
     5
 63
     7
 74
     1
 91
        4
 64
     7
 65
   257
 75
     1
175
     1
 42
1.0
 92
        0
 66
   257
 43
1.0
 76
     1
 77
     6
 78
     2
 67
     7
 79
     5
170
     0
171
     0
290
     0
174
     0
 93
        1
 44
0.0
173
     0
291
     0
 45
0.0
1001
ACAD
1000
AcDbSavedByObjectVersion
1070
     0
  0
VISUALSTYLE
  5
31
102
{ACAD_REACTORS
330
2A
102
}
330
2A
100
AcDbVisualStyle
  2
3D Hidden
 70
     6
 71
     1
 72
     2
 73
     2
 90
        0
 40
-0.6
 41
-30.0
 62
     5
 63
     7
 74
     2
 91
        2
 64
     7
 65
   257
 75
     2
175
     1
 42
40.0
 92
        0
 66
   257
 43
1.0
 76
     1
 77
     6
 78
     2
 67
     7
 79
     3
170
     0
171
     0
290
     0
174
     0
 93
        1
 44
0.0
173
     0
291
     0
 45
0.0
1001
ACAD
1000
AcDbSavedByObjectVersion
1070
     0
  0
VISUALSTYLE
  5
30
102
{ACAD_REACTORS
330
2A
102
}
330
2A
100
AcDbVisualStyle
  2
3dWireframe
 70
     5
 71
     0
 72
     2
 73
     0
 90
        0
 40
-0.6
 41
-30.0
 62
     5
 63
     7
 74
     1
 91
        4
 64
     7
 65
   257
 75
     1
175
     1
 42
1.0
 92
        0
 66
   257
 43
1.0
 76
     1
 77
     6
 78
     2
 67
     7
 79
     5
170
     0
171
     0
290
     0
174
     0
 93
        1
 44
0.0
173
     0
291
     0
 45
0.0
1001
ACAD
1000
AcDbSavedByObjectVersion
1070
     0
  0
VISUALSTYLE
  5
32
102
{ACAD_REACTORS
330
2A
102
}
330
2A
100
AcDbVisualStyle
  2
Basic
 70
     7
 71
     1
 72
     0
 73
     1
 90
        0
 40
-0.6
 41
-30.0
 62
     5
 63
     7
 74
     0
 91
        4
 64
     7
 65
   257
 75
     1
175
     1
 42
1.0
 92
        8
 66
     7
 43
1.0
 76
     1
 77
     6
 78
     2
 67
     7
 79
     5
170
     0
171
     0
290
     0
174
     0
 93
        1
 44
0.0
173
     0
291
     1
 45
0.0
1001
ACAD
1000
AcDbSavedByObjectVersion
1070
     0
  0
VISUALSTYLE
  5
36
102
{ACAD_REACTORS
330
2A
102
}
330
2A
100
AcDbVisualStyle
  2
Brighten
 70
    12
 71
     2
 72
     2
 73
     0
 90
        0
 40
-0.6
 41
-30.0
 62
     5
 63
     7
 74
     1
 91
        4
 64
     7
 65
   257
 75
     1
175
     1
 42
1.0
 92
        8
 66
     7
 43
1.0
 76
     1
 77
     6
 78
     2
 67
     7
 79
     5
170
     0
171
     0
290
     0
174
     0
 93
        1
 44
50.0
173
     0
291
     1
 45
0.0
1001
ACAD
1000
AcDbSavedByObjectVersion
1070
     0
  0
VISUALSTYLE
  5
3A
102
{ACAD_REACTORS
330
2A
102
}
330
2A
100
AcDbVisualStyle
  2
ColorChange
 70
    16
 71
     2
 72
     2
 73
     3
 90
        0
 40
-0.6
 41
-30.0
 62
     5
 63
     8
 74
     1
 91
        4
 64
     7
 65
   257
 75
     1
175
     1
 42
1.0
 92
        8
 66
     8
 43
1.0
 76
     1
 77
     6
 78
     2
 67
     7
 79
     5
170
     0
171
     0
290
     0
174
     0
 93
        1
 44
0.0
173
     0
291
     1
 45
0.0
1001
ACAD
1000
AcDbSavedByObjectVersion
1070
     0
  0
VISUALSTYLE
  5
34
102
{ACAD_REACTORS
330
2A
102
}
330
2A
100
AcDbVisualStyle
  2
Conceptual
 70
     9
 71
     3
 72
     2
 73
     0
 90
        0
 40
-0.6
 41
-30.0
 62
     5
 63
     7
 74
     2
 91
        2
 64
     7
 65
   257
 75
     1
175
     1
 42
40.0
 92
        8
 66
     7
 43
1.0
 76
     1
 77
     6
 78
     2
 67
     7
 79
     3
170
     0
171
     0
290
     0
174
     0
 93
        1
 44
0.0
173
     0
291
     0
 45
0.0
1001
ACAD
1000
AcDbSavedByObjectVersion
1070
     0
  0
VISUALSTYLE
  5
35
102
{ACAD_REACTORS
330
2A
102
}
330
2A
100
AcDbVisualStyle
  2
Dim
 70
    11
 71
     2
 72
     2
 73
     0
 90
        0
 40
-0.6
 41
-30.0
 62
     5
 63
     7
 74
     1
 91
        4
 64
     7
 65
   257
 75
     1
175
     1
 42
1.0
 92
        8
 66
     7
 43
1.0
 76
     1
 77
     6
 78
     2
 67
     7
 79
     5
170
     0
171
     0
290
     0
174
     0
 93
        1
 44
-50.0
173
     0
291
     1
 45
0.0
1001
ACAD
1000
AcDbSavedByObjectVersion
1070
     0
  0
VISUALSTYLE
  5
39
102
{ACAD_REACTORS
330
2A
102
}
330
2A
100
AcDbVisualStyle
  2
Facepattern
 70
    15
 71
     2
 72
     2
 73
     0
 90
        0
 40
-0.6
 41
-30.0
 62
     5
 63
     7
 74
     1
 91
        4
 64
     7
 65
   257
 75
     1
175
     1
 42
1.0
 92
        8
 66
     7
 43
1.0
 76
     1
 77
     6
 78
     2
 67
     7
 79
     5
170
     0
171
     0
290
     0
174
     0
 93
        1
 44
0.0
173
     0
291
     1
 45
0.0
1001
ACAD
1000
AcDbSavedByObjectVersion
1070
     0
  0
VISUALSTYLE
  5
2B
102
{ACAD_REACTORS
330
2A
102
}
330
2A
100
AcDbVisualStyle
  2
Flat
 70
     0
 71
     2
 72
     1
 73
     1
 90
        2
 40
-0.6
 41
30.0
 62
     5
 63
     7
 74
     0
 91
        4
 64
     7
 65
   257
 75
     1
175
     1
 42
1.0
 92
        8
 66
     7
 43
1.0
 76
     1
 77
     6
 78
     2
 67
     7
 79
     5
170
     0
171
     0
290
     0
174
     0
 93
       13
 44
0.0
173
     0
291
     1
 45
0.0
1001
ACAD
1000
AcDbSavedByObjectVersion
1070
     0
  0
VISUALSTYLE
  5
2C
102
{ACAD_REACTORS
330
2A
102
}
330
2A
100
AcDbVisualStyle
  2
FlatWithEdges
 70
     1
 71
     2
 72
     1
 73
     1
 90
        2
 40
-0.6
 41
30.0
 62
     5
 63
     7
 74
     1
 91
        4
 64
     7
 65
   257
 75
     1
175
     1
 42
1.0
 92
        0
 66
   257
 43
1.0
 76
     1
 77
     6
 78
     2
 67
     7
 79
     5
170
     0
171
     0
290
     0
174
     0
 93
       13
 44
0.0
173
     0
291
     1
 45
0.0
1001
ACAD
1000
AcDbSavedByObjectVersion
1070
     0
  0
VISUALSTYLE
  5
2D
102
{ACAD_REACTORS
330
2A
102
}
330
2A
100
AcDbVisualStyle
  2
Gouraud
 70
     2
 71
     2
 72
     2
 73
     1
 90
        2
 40
-0.6
 41
30.0
 62
     5
 63
     7
 74
     0
 91
        4
 64
     7
 65
   257
 75
     1
175
     1
 42
1.0
 92
        0
 66
     7
 43
1.0
 76
     1
 77
     6
 78
     2
 67
     7
 79
     5
170
     0
171
     0
290
     0
174
     0
 93
       13
 44
0.0
173
     0
291
     1
 45
0.0
1001
ACAD
1000
AcDbSavedByObjectVersion
1070
     0
  0
VISUALSTYLE
  5
2E
102
{ACAD_REACTORS
330
2A
102
}
330
2A
100
AcDbVisualStyle
  2
GouraudWithEdges
 70
     3
 71
     2
 72
     2
 73
     1
 90
        2
 40
-0.6
 41
30.0
 62
     5
 63
     7
 74
     1
 91
        4
 64
     7
 65
   257
 75
     1
175
     1
 42
1.0
 92
        0
 66
   257
 43
1.0
 76
     1
 77
     6
 78
     2
 67
     7
 79
     5
170
     0
171
     0
290
     0
174
     0
 93
       13
 44
0.0
173
     0
291
     1
 45
0.0
1001
ACAD
1000
AcDbSavedByObjectVersion
1070
     0
  0
VISUALSTYLE
  5
38
102
{ACAD_REACTORS
330
2A
102
}
330
2A
100
AcDbVisualStyle
  2
Linepattern
 70
    14
 71
     2
 72
     2
 73
     0
 90
        0
 40
-0.6
 41
-30.0
 62
     5
 63
     7
 74
     1
 91
        4
 64
     7
 65
   257
 75
     7
175
     7
 42
1.0
 92
        8
 66
     7
 43
1.0
 76
     1
 77
     6
 78
     2
 67
     7
 79
     5
170
     0
171
     0
290
     0
174
     0
 93
        1
 44
0.0
173
     0
291
     1
 45
0.0
1001
ACAD
1000
AcDbSavedByObjectVersion
1070
     0
  0
VISUALSTYLE
  5
33
102
{ACAD_REACTORS
330
2A
102
}
330
2A
100
AcDbVisualStyle
  2
Realistic
 70
     8
 71
     2
 72
     2
 73
     0
 90
        0
 40
-0.6
 41
-30.0
 62
     5
 63
     7
 74
     1
 91
        0
 64
     7
 65
   257
 75
     1
175
     1
 42
1.0
 92
        8
 66
     8
 43
1.0
 76
     1
 77
     6
 78
     2
 67
     7
 79
     5
170
     0
171
     0
290
     0
174
     0
 93
       13
 44
0.0
173
     0
291
     0
 45
0.0
1001
ACAD
1000
AcDbSavedByObjectVersion
1070
     0
  0
VISUALSTYLE
  5
37
102
{ACAD_REACTORS
330
2A
102
}
330
2A
100
AcDbVisualStyle
  2
Thicken
 70
    13
 71
     2
 72
     2
 73
     0
 90
        0
 40
-0.6
 41
-30.0
 62
     5
 63
     7
 74
     1
 91
        4
 64
     7
 65
   257
 75
     1
175
     1
 42
1.0
 92
       12
 66
     7
 43
1.0
 76
     1
 77
     6
 78
     2
 67
     7
 79
     5
170
     0
171
     0
290
     0
174
     0
 93
        1
 44
0.0
173
     0
291
     1
 45
0.0
1001
ACAD
1000
AcDbSavedByObjectVersion
1070
     0
  0
XRECORD
  5
5A3
102
{ACAD_REACTORS
330
59A
102
}
330
59A
100
AcDbXrecord
 90
        0
  0
XRECORD
  5
5B9
102
{ACAD_REACTORS
330
59A
102
}
330
59A
100
AcDbXrecord
1000
DSTYLE
1002
{
1070
   340
340
11
1002
}
  0
XRECORD
  5
5A4
102
{ACAD_REACTORS
330
59A
102
}
330
59A
100
AcDbXrecord
  1
{90C830F7-F78F-4BA5-A856-A71879F5EDED}
  0
XRECORD
  5
59D
102
{ACAD_REACTORS
330
59A
102
}
330
59A
100
AcDbXrecord
  1

  0
XRECORD
  5
5A2
102
{ACAD_REACTORS
330
59A
102
}
330
59A
100
AcDbXrecord
 90
        1
  0
XRECORD
  5
59F
102
{ACAD_REACTORS
330
59A
102
}
330
59A
100
AcDbXrecord
340
1A
  0
XRECORD
  5
5A1
102
{ACAD_REACTORS
330
59A
102
}
330
59A
100
AcDbXrecord
 90
    10269
  0
XRECORD
  5
5A0
102
{ACAD_REACTORS
330
59A
102
}
330
59A
100
AcDbXrecord
340
19
  0
XRECORD
  5
5A6
102
{ACAD_REACTORS
330
59A
102
}
330
59A
100
AcDbXrecord
 40
0.0
  0
XRECORD
  5
5A9
102
{ACAD_REACTORS
330
59A
102
}
330
59A
100
AcDbXrecord
340
0
  0
XRECORD
  5
5AF
102
{ACAD_REACTORS
330
59A
102
}
330
59A
100
AcDbXrecord
 10
0.0
 20
0.0
 30
0.0
  0
XRECORD
  5
5AB
102
{ACAD_REACTORS
330
59A
102
}
330
59A
100
AcDbXrecord
 10
0.0
 20
0.0
 30
0.0
  0
XRECORD
  5
5AE
102
{ACAD_REACTORS
330
59A
102
}
330
59A
100
AcDbXrecord
 10
0.0
 20
0.0
 30
0.0
  0
XRECORD
  5
5AC
102
{ACAD_REACTORS
330
59A
102
}
330
59A
100
AcDbXrecord
 10
0.0
 20
0.0
 30
0.0
  0
XRECORD
  5
5AD
102
{ACAD_REACTORS
330
59A
102
}
330
59A
100
AcDbXrecord
 10
0.0
 20
0.0
 30
0.0
  0
XRECORD
  5
5AA
102
{ACAD_REACTORS
330
59A
102
}
330
59A
100
AcDbXrecord
 10
0.0
 20
0.0
 30
0.0
  0
XRECORD
  5
5A7
102
{ACAD_REACTORS
330
59A
102
}
330
59A
100
AcDbXrecord
340
0
  0
XRECORD
  5
5A8
102
{ACAD_REACTORS
330
59A
102
}
330
59A
100
AcDbXrecord
 70
     0
  0
XRECORD
  5
59E
102
{ACAD_REACTORS
330
59A
102
}
330
59A
100
AcDbXrecord
  1

  0
XRECORD
  5
59B
102
{ACAD_REACTORS
330
59A
102
}
330
59A
100
AcDbXrecord
 90
        1
  0
XRECORD
  5
59C
102
{ACAD_REACTORS
330
59A
102
}
330
59A
100
AcDbXrecord
 90
       70
  0
XRECORD
  5
5B2
102
{ACAD_REACTORS
330
59A
102
}
330
59A
100
AcDbXrecord
340
0
  0
XRECORD
  5
5B8
102
{ACAD_REACTORS
330
59A
102
}
330
59A
100
AcDbXrecord
 10
0.0
 20
0.0
 30
0.0
  0
XRECORD
  5
5B4
102
{ACAD_REACTORS
330
59A
102
}
330
59A
100
AcDbXrecord
 10
0.0
 20
0.0
 30
0.0
  0
XRECORD
  5
5B7
102
{ACAD_REACTORS
330
59A
102
}
330
59A
100
AcDbXrecord
 10
0.0
 20
0.0
 30
0.0
  0
XRECORD
  5
5B5
102
{ACAD_REACTORS
330
59A
102
}
330
59A
100
AcDbXrecord
 10
0.0
 20
0.0
 30
0.0
  0
XRECORD
  5
5B6
102
{ACAD_REACTORS
330
59A
102
}
330
59A
100
AcDbXrecord
 10
0.0
 20
0.0
 30
0.0
  0
XRECORD
  5
5B3
102
{ACAD_REACTORS
330
59A
102
}
330
59A
100
AcDbXrecord
 10
0.0
 20
0.0
 30
0.0
  0
XRECORD
  5
5B0
102
{ACAD_REACTORS
330
59A
102
}
330
59A
100
AcDbXrecord
340
0
  0
XRECORD
  5
5B1
102
{ACAD_REACTORS
330
59A
102
}
330
59A
100
AcDbXrecord
 70
     0
  0
XRECORD
  5
5A5
102
{ACAD_REACTORS
330
59A
102
}
330
59A
100
AcDbXrecord
  1
{FAEB1C32-E019-11D5-929B-00C0DF256EC4}
  0
ENDSEC
  0
EOF
