  0
SECTION
  2
HEADER
  9
$ACADVER
  1
AC1014
  9
$ACADMAINTVER
 70
     9
  9
$DWGCODEPAGE
  3
ANSI_1252
  9
$INSBASE
 10
0.0
 20
0.0
 30
0.0
  9
$EXTMIN
 10
1.000000000000000E+20
 20
1.000000000000000E+20
 30
1.000000000000000E+20
  9
$EXTMAX
 10
-1.000000000000000E+20
 20
-1.000000000000000E+20
 30
-1.000000000000000E+20
  9
$LIMMIN
 10
0.0
 20
0.0
  9
$LIMMAX
 10
12.0
 20
9.0
  9
$ORTHOMODE
 70
     0
  9
$REGENMODE
 70
     1
  9
$FILLMODE
 70
     1
  9
$QTEXTMODE
 70
     0
  9
$MIRRTEXT
 70
     1
  9
$DRAGMODE
 70
     2
  9
$LTSCALE
 40
1.0
  9
$OSMODE
 70
    37
  9
$ATTMODE
 70
     1
  9
$TEXTSIZE
 40
0.2
  9
$TRACEWID
 40
0.05
  9
$TEXTSTYLE
  7
STANDARD
  9
$CLAYER
  8
0
  9
$CELTYPE
  6
BYLAYER
  9
$CECOLOR
 62
   256
  9
$CELTSCALE
 40
1.0
  9
$DELOBJ
 70
     1
  9
$DISPSILH
 70
     0
  9
$DIMSCALE
 40
1.0
  9
$DIMASZ
 40
0.18
  9
$DIMEXO
 40
0.0625
  9
$DIMDLI
 40
0.38
  9
$DIMRND
 40
0.0
  9
$DIMDLE
 40
0.0
  9
$DIMEXE
 40
0.18
  9
$DIMTP
 40
0.0
  9
$DIMTM
 40
0.0
  9
$DIMTXT
 40
0.18
  9
$DIMCEN
 40
0.09
  9
$DIMTSZ
 40
0.0
  9
$DIMTOL
 70
     0
  9
$DIMLIM
 70
     0
  9
$DIMTIH
 70
     1
  9
$DIMTOH
 70
     1
  9
$DIMSE1
 70
     0
  9
$DIMSE2
 70
     0
  9
$DIMTAD
 70
     0
  9
$DIMZIN
 70
     0
  9
$DIMBLK
  1

  9
$DIMASO
 70
     1
  9
$DIMSHO
 70
     1
  9
$DIMPOST
  1

  9
$DIMAPOST
  1

  9
$DIMALT
 70
     0
  9
$DIMALTD
 70
     2
  9
$DIMALTF
 40
25.4
  9
$DIMLFAC
 40
1.0
  9
$DIMTOFL
 70
     0
  9
$DIMTVP
 40
0.0
  9
$DIMTIX
 70
     0
  9
$DIMSOXD
 70
     0
  9
$DIMSAH
 70
     0
  9
$DIMBLK1
  1

  9
$DIMBLK2
  1

  9
$DIMSTYLE
  2
STANDARD
  9
$DIMCLRD
 70
     0
  9
$DIMCLRE
 70
     0
  9
$DIMCLRT
 70
     0
  9
$DIMTFAC
 40
1.0
  9
$DIMGAP
 40
0.09
  9
$DIMJUST
 70
     0
  9
$DIMSD1
 70
     0
  9
$DIMSD2
 70
     0
  9
$DIMTOLJ
 70
     1
  9
$DIMTZIN
 70
     0
  9
$DIMALTZ
 70
     0
  9
$DIMALTTZ
 70
     0
  9
$DIMFIT
 70
     3
  9
$DIMUPT
 70
     0
  9
$DIMUNIT
 70
     2
  9
$DIMDEC
 70
     4
  9
$DIMTDEC
 70
     4
  9
$DIMALTU
 70
     2
  9
$DIMALTTD
 70
     2
  9
$DIMTXSTY
  7
STANDARD
  9
$DIMAUNIT
 70
     0
  9
$LUNITS
 70
     2
  9
$LUPREC
 70
     4
  9
$SKETCHINC
 40
0.1
  9
$FILLETRAD
 40
0.5
  9
$AUNITS
 70
     0
  9
$AUPREC
 70
     0
  9
$MENU
  1
.
  9
$ELEVATION
 40
0.0
  9
$PELEVATION
 40
0.0
  9
$THICKNESS
 40
0.0
  9
$LIMCHECK
 70
     0
  9
$CHAMFERA
 40
0.5
  9
$CHAMFERB
 40
0.5
  9
$CHAMFERC
 40
1.0
  9
$CHAMFERD
 40
0.0
  9
$SKPOLY
 70
     0
  9
$TDCREATE
 40
2458275.486261678
  9
$TDUPDATE
 40
2458275.48626169
  9
$TDINDWG
 40
0.0000000116
  9
$TDUSRTIMER
 40
0.0000000116
  9
$USRTIMER
 70
     1
  9
$ANGBASE
 50
0.0
  9
$ANGDIR
 70
     0
  9
$PDMODE
 70
     0
  9
$PDSIZE
 40
0.0
  9
$PLINEWID
 40
0.0
  9
$COORDS
 70
     1
  9
$SPLFRAME
 70
     0
  9
$SPLINETYPE
 70
     6
  9
$SPLINESEGS
 70
     8
  9
$ATTDIA
 70
     0
  9
$ATTREQ
 70
     1
  9
$HANDLING
 70
     1
  9
$HANDSEED
  5
75F
  9
$SURFTAB1
 70
     6
  9
$SURFTAB2
 70
     6
  9
$SURFTYPE
 70
     6
  9
$SURFU
 70
     6
  9
$SURFV
 70
     6
  9
$UCSNAME
  2

  9
$UCSORG
 10
0.0
 20
0.0
 30
0.0
  9
$UCSXDIR
 10
1.0
 20
0.0
 30
0.0
  9
$UCSYDIR
 10
0.0
 20
1.0
 30
0.0
  9
$PUCSNAME
  2

  9
$PUCSORG
 10
0.0
 20
0.0
 30
0.0
  9
$PUCSXDIR
 10
1.0
 20
0.0
 30
0.0
  9
$PUCSYDIR
 10
0.0
 20
1.0
 30
0.0
  9
$USERI1
 70
     0
  9
$USERI2
 70
     0
  9
$USERI3
 70
     0
  9
$USERI4
 70
     0
  9
$USERI5
 70
     0
  9
$USERR1
 40
0.0
  9
$USERR2
 40
0.0
  9
$USERR3
 40
0.0
  9
$USERR4
 40
0.0
  9
$USERR5
 40
0.0
  9
$WORLDVIEW
 70
     1
  9
$SHADEDGE
 70
     3
  9
$SHADEDIF
 70
    70
  9
$TILEMODE
 70
     1
  9
$MAXACTVP
 70
    64
  9
$PINSBASE
 10
0.0
 20
0.0
 30
0.0
  9
$PLIMCHECK
 70
     0
  9
$PEXTMIN
 10
1.000000000000000E+20
 20
1.000000000000000E+20
 30
1.000000000000000E+20
  9
$PEXTMAX
 10
-1.000000000000000E+20
 20
-1.000000000000000E+20
 30
-1.000000000000000E+20
  9
$PLIMMIN
 10
0.0
 20
0.0
  9
$PLIMMAX
 10
12.0
 20
9.0
  9
$UNITMODE
 70
     0
  9
$VISRETAIN
 70
     1
  9
$PLINEGEN
 70
     0
  9
$PSLTSCALE
 70
     1
  9
$TREEDEPTH
 70
  3020
  9
$PICKSTYLE
 70
     1
  9
$CMLSTYLE
  2
STANDARD
  9
$CMLJUST
 70
     0
  9
$CMLSCALE
 40
1.0
  9
$PROXYGRAPHICS
 70
     1
  9
$MEASUREMENT
 70
     0
  0
ENDSEC
  0
SECTION
  2
CLASSES
  0
CLASS
  1
ACDBDICTIONARYWDFLT
  2
AcDbDictionaryWithDefault
  3
ObjectDBX Classes
 90
        0
280
     0
281
     0
  0
CLASS
  1
VISUALSTYLE
  2
AcDbVisualStyle
  3
ObjectDBX Classes
 90
     4095
280
     0
281
     0
  0
CLASS
  1
XRECORD
  2
AcDbXrecord
  3
AutoCAD 2000
 90
        0
280
     0
281
     0
  0
CLASS
  1
LWPOLYLINE
  2
AcDbPolyline
  3
AutoCAD 2000
 90
        0
280
     0
281
     1
  0
CLASS
  1
HATCH
  2
AcDbHatch
  3
AutoCAD 2000
 90
        0
280
     0
281
     1
  0
CLASS
  1
ACDBPLACEHOLDER
  2
AcDbPlaceHolder
  3
ObjectDBX Classes
 90
        0
280
     0
281
     0
  0
CLASS
  1
LAYOUT
  2
AcDbLayout
  3
ObjectDBX Classes
 90
        0
280
     0
281
     0
  0
ENDSEC
  0
SECTION
  2
TABLES
  0
TABLE
  2
VPORT
  5
8
330
0
100
AcDbSymbolTable
 70
     1
  0
VPORT
  5
29
330
8
100
AcDbSymbolTableRecord
100
AcDbViewportTableRecord
  2
*ACTIVE
 70
     0
 10
0.0
 20
0.0
 11
1.0
 21
1.0
 12
0.0
 22
0.0
 13
0.0
 23
0.0
 14
0.5
 24
0.5
 15
0.5
 25
0.5
 16
0.0
 26
0.0
 36
1.0
 17
19.69879760249718
 27
168.6300170476862
 37
0.0
 40
57.99714896553544
 41
1.305574200906461
 42
50.0
 43
0.0
 44
0.0
 50
0.0
 51
0.0
 71
     0
 72
   100
 73
     1
 74
     3
 75
     0
 76
     0
 77
     0
 78
     0
  0
ENDTAB
  0
TABLE
  2
LTYPE
  5
5
330
0
100
AcDbSymbolTable
 70
     5
  0
LTYPE
  5
14
330
5
100
AcDbSymbolTableRecord
100
AcDbLinetypeTableRecord
  2
BYBLOCK
 70
     0
  3

 72
    65
 73
     0
 40
0.0
  0
LTYPE
  5
15
330
5
100
AcDbSymbolTableRecord
100
AcDbLinetypeTableRecord
  2
BYLAYER
 70
     0
  3

 72
    65
 73
     0
 40
0.0
  0
LTYPE
  5
16
330
5
100
AcDbSymbolTableRecord
100
AcDbLinetypeTableRecord
  2
CONTINUOUS
 70
     0
  3
Solid line
 72
    65
 73
     0
 40
0.0
  0
LTYPE
  5
57
330
5
100
AcDbSymbolTableRecord
100
AcDbLinetypeTableRecord
  2
AI-LINETYPE-1
 70
     0
  3
Adobe Illustrator Linetype No. 1
 72
    65
 73
     4
 40
8.819444442239584
 49
7.055555553791667
 74
     0
 49
-0.7055555553791667
 74
     0
 49
0.3527777776895833
 74
     0
 49
-0.7055555553791667
 74
     0
  0
LTYPE
  5
5C
330
5
100
AcDbSymbolTableRecord
100
AcDbLinetypeTableRecord
  2
AI-LINETYPE-2
 70
     0
  3
Adobe Illustrator Linetype No. 2
 72
    65
 73
     4
 40
8.819444442239584
 49
7.055555553791667
 74
     0
 49
-0.7055555553791667
 74
     0
 49
0.3527777776895833
 74
     0
 49
-0.7055555553791667
 74
     0
  0
LTYPE
  5
62
330
5
100
AcDbSymbolTableRecord
100
AcDbLinetypeTableRecord
  2
AI-LINETYPE-3
 70
     0
  3
Adobe Illustrator Linetype No. 3
 72
    65
 73
     4
 40
8.819444442239584
 49
7.055555553791667
 74
     0
 49
-0.7055555553791667
 74
     0
 49
0.3527777776895833
 74
     0
 49
-0.7055555553791667
 74
     0
  0
LTYPE
  5
69
330
5
100
AcDbSymbolTableRecord
100
AcDbLinetypeTableRecord
  2
AI-LINETYPE-4
 70
     0
  3
Adobe Illustrator Linetype No. 4
 72
    65
 73
     4
 40
8.819444442239584
 49
7.055555553791667
 74
     0
 49
-0.7055555553791667
 74
     0
 49
0.3527777776895833
 74
     0
 49
-0.7055555553791667
 74
     0
  0
ENDTAB
  0
TABLE
  2
LAYER
  5
2
330
0
100
AcDbSymbolTable
 70
     5
  0
LAYER
  5
10
330
2
100
AcDbSymbolTableRecord
100
AcDbLayerTableRecord
  2
0
 70
     0
 62
     7
  6
CONTINUOUS
  0
LAYER
  5
3B
330
2
100
AcDbSymbolTableRecord
100
AcDbLayerTableRecord
  2
GRAU_10_
 70
     1
 62
     7
  6
CONTINUOUS
  0
LAYER
  5
43
330
2
100
AcDbSymbolTableRecord
100
AcDbLayerTableRecord
  2
STANDARDEBENE
 70
     0
 62
     7
  6
CONTINUOUS
  0
LAYER
  5
48C
330
2
100
AcDbSymbolTableRecord
100
AcDbLayerTableRecord
  2
BEMAßUNG
 70
     1
 62
     7
  6
CONTINUOUS
  0
LAYER
  5
739
330
2
100
AcDbSymbolTableRecord
100
AcDbLayerTableRecord
  2
TEXT
 70
     1
 62
     7
  6
CONTINUOUS
  0
ENDTAB
  0
TABLE
  2
STYLE
  5
3
330
0
100
AcDbSymbolTable
 70
     1
  0
STYLE
  5
11
330
3
100
AcDbSymbolTableRecord
100
AcDbTextStyleTableRecord
  2
STANDARD
 70
     0
 40
0.0
 41
1.0
 50
0.0
 71
     0
 42
0.2
  3
txt
  4

  0
ENDTAB
  0
TABLE
  2
VIEW
  5
6
330
0
100
AcDbSymbolTable
 70
     0
  0
ENDTAB
  0
TABLE
  2
UCS
  5
7
330
0
100
AcDbSymbolTable
 70
     0
  0
ENDTAB
  0
TABLE
  2
APPID
  5
9
330
0
100
AcDbSymbolTable
 70
     1
  0
APPID
  5
12
330
9
100
AcDbSymbolTableRecord
100
AcDbRegAppTableRecord
  2
ACAD
 70
     0
  0
ENDTAB
  0
TABLE
  2
DIMSTYLE
  5
A
330
0
100
AcDbSymbolTable
 70
     1
  0
DIMSTYLE
105
27
330
A
100
AcDbSymbolTableRecord
100
AcDbDimStyleTableRecord
  2
STANDARD
 70
     0
  3

  4

  5

  6

  7

 40
1.0
 41
0.18
 42
0.0625
 43
0.38
 44
0.18
 45
0.0
 46
0.0
 47
0.0
 48
0.0
140
0.18
141
0.09
142
0.0
143
25.4
144
1.0
145
0.0
146
1.0
147
0.09
 71
     0
 72
     0
 73
     1
 74
     1
 75
     0
 76
     0
 77
     0
 78
     0
170
     0
171
     2
172
     0
173
     0
174
     0
175
     0
176
     0
177
     0
178
     0
270
     2
271
     4
272
     4
273
     2
274
     2
340
11
275
     0
280
     0
281
     0
282
     0
283
     1
284
     0
285
     0
286
     0
287
     3
288
     0
  0
ENDTAB
  0
TABLE
  2
BLOCK_RECORD
  5
1
330
0
100
AcDbSymbolTable
 70
     1
  0
BLOCK_RECORD
  5
1F
330
1
100
AcDbSymbolTableRecord
100
AcDbBlockTableRecord
  2
*MODEL_SPACE
  0
BLOCK_RECORD
  5
1B
330
1
100
AcDbSymbolTableRecord
100
AcDbBlockTableRecord
  2
*PAPER_SPACE
  0
ENDTAB
  0
ENDSEC
  0
SECTION
  2
BLOCKS
  0
BLOCK
  5
20
330
1F
100
AcDbEntity
  8
0
100
AcDbBlockBegin
  2
*MODEL_SPACE
 70
     0
 71
     0
 10
0.0
 20
0.0
 30
0.0
  3
*MODEL_SPACE
  1

  0
ENDBLK
  5
21
330
1F
100
AcDbEntity
  8
0
100
AcDbBlockEnd
  0
BLOCK
  5
1C
330
1B
100
AcDbEntity
 67
     1
  8
0
100
AcDbBlockBegin
  2
*PAPER_SPACE
 70
     0
 71
     0
 10
0.0
 20
0.0
 30
0.0
  3
*PAPER_SPACE
  1

  0
ENDBLK
  5
1D
330
1B
100
AcDbEntity
 67
     1
  8
0
100
AcDbBlockEnd
  0
ENDSEC
  0
SECTION
  2
ENTITIES
  0
SPLINE
  5
3C
330
1F
100
AcDbEntity
  8
GRAU_10_
100
AcDbSpline
210
0.0
220
0.0
230
1.0
 70
    11
 71
     3
 72
    98
 73
    94
 74
     0
 42
0.0000000001
 43
0.0000000001
 40
0.0
 40
0.0
 40
0.0
 40
0.0
 40
1.0
 40
1.0
 40
1.0
 40
2.0
 40
2.0
 40
2.0
 40
3.0
 40
3.0
 40
3.0
 40
4.0
 40
4.0
 40
4.0
 40
5.0
 40
5.0
 40
5.0
 40
6.0
 40
6.0
 40
6.0
 40
7.0
 40
7.0
 40
7.0
 40
8.0
 40
8.0
 40
8.0
 40
9.0
 40
9.0
 40
9.0
 40
10.0
 40
10.0
 40
10.0
 40
11.0
 40
11.0
 40
11.0
 40
12.0
 40
12.0
 40
12.0
 40
13.0
 40
13.0
 40
13.0
 40
14.0
 40
14.0
 40
14.0
 40
15.0
 40
15.0
 40
15.0
 40
16.0
 40
16.0
 40
16.0
 40
17.0
 40
17.0
 40
17.0
 40
18.0
 40
18.0
 40
18.0
 40
19.0
 40
19.0
 40
19.0
 40
20.0
 40
20.0
 40
20.0
 40
21.0
 40
21.0
 40
21.0
 40
22.0
 40
22.0
 40
22.0
 40
23.0
 40
23.0
 40
23.0
 40
24.0
 40
24.0
 40
24.0
 40
25.0
 40
25.0
 40
25.0
 40
26.0
 40
26.0
 40
26.0
 40
27.0
 40
27.0
 40
27.0
 40
28.0
 40
28.0
 40
28.0
 40
29.0
 40
29.0
 40
29.0
 40
30.0
 40
30.0
 40
30.0
 40
31.0
 40
31.0
 40
31.0
 40
31.0
 10
-45.14590927690797
 20
118.6697590849159
 30
0.0
 10
-45.14590927690797
 20
118.6697590849159
 30
0.0
 10
-45.72778590436667
 20
119.2981445014255
 30
0.0
 10
-45.70435925506697
 20
119.4145887288269
 30
0.0
 10
-45.68093260576727
 20
119.5310329562284
 30
0.0
 10
-45.49455294001525
 20
122.2299207593731
 30
0.0
 10
-45.49455294001525
 20
122.2299207593731
 30
0.0
 10
-45.49455294001525
 20
122.2299207593731
 30
0.0
 10
-45.6109971674167
 20
122.834879526583
 30
0.0
 10
-45.68093260576727
 20
122.834879526583
 30
0.0
 10
-45.75086804411784
 20
122.834879526583
 30
0.0
 10
-47.05380315663933
 20
122.7880262279836
 30
0.0
 10
-47.05380315663933
 20
122.7880262279836
 30
0.0
 10
-47.05380315663933
 20
122.7880262279836
 30
0.0
 10
-47.6353352745495
 20
123.3929849951934
 30
0.0
 10
-47.6353352745495
 20
123.3929849951934
 30
0.0
 10
-47.6353352745495
 20
123.3929849951934
 30
0.0
 10
-47.84479708005269
 20
131.1411769962946
 30
0.0
 10
-47.84479708005269
 20
131.1411769962946
 30
0.0
 10
-47.84479708005269
 20
131.1411769962946
 30
0.0
 10
-47.2863471018937
 20
134.3520059885474
 30
0.0
 10
-47.2863471018937
 20
134.3520059885474
 30
0.0
 10
-47.2863471018937
 20
134.3520059885474
 30
0.0
 10
-47.75212401149947
 20
135.4458238051143
 30
0.0
 10
-47.72869736219977
 20
135.7483031887192
 30
0.0
 10
-47.70527071290007
 20
136.0504380627756
 30
0.0
 10
-46.84434135113614
 20
136.7952677066866
 30
0.0
 10
-46.77475042233409
 20
136.8183498464378
 30
0.0
 10
-46.70481498398352
 20
136.841431986189
 30
0.0
 10
-15.15463053006551
 20
136.7721855669354
 30
0.0
 10
-15.15463053006551
 20
136.7721855669354
 30
0.0
 10
-15.15463053006551
 20
136.7721855669354
 30
0.0
 10
-15.08469509171494
 20
139.7966348934363
 30
0.0
 10
-15.08469509171494
 20
139.7966348934363
 30
0.0
 10
-15.08469509171494
 20
139.7966348934363
 30
0.0
 10
-15.17736816026816
 20
140.6341376059005
 30
0.0
 10
-15.3172390369693
 20
140.6341376059005
 30
0.0
 10
-15.45710991367045
 20
140.6341376059005
 30
0.0
 10
-16.9691623221466
 20
140.7970906223528
 30
0.0
 10
-16.9691623221466
 20
140.7970906223528
 30
0.0
 10
-16.9691623221466
 20
140.7970906223528
 30
0.0
 10
-16.9691623221466
 20
145.3111992366757
 30
0.0
 10
-16.9691623221466
 20
145.3111992366757
 30
0.0
 10
-16.9691623221466
 20
145.3111992366757
 30
0.0
 10
-16.66668293854166
 20
145.8224514066868
 30
0.0
 10
-16.31769476588585
 20
145.846222565535
 30
0.0
 10
-15.96905110277857
 20
145.8696492148347
 30
0.0
 10
-8.872498912712432
 20
145.8696492148347
 30
0.0
 10
-8.872498912712432
 20
145.8696492148347
 30
0.0
 10
-8.872498912712432
 20
145.8696492148347
 30
0.0
 10
-8.38363986335548
 20
145.6601874093315
 30
0.0
 10
-8.360557723604305
 20
145.4042168147774
 30
0.0
 10
-8.33747558385313
 20
145.1482462202234
 30
0.0
 10
-8.360557723604305
 20
140.8439439209522
 30
0.0
 10
-8.360557723604305
 20
140.8439439209522
 30
0.0
 10
-8.360557723604305
 20
140.8439439209522
 30
0.0
 10
-9.779937063527239
 20
140.7509263428505
 30
0.0
 10
-9.779937063527239
 20
140.7509263428505
 30
0.0
 10
-9.779937063527239
 20
140.7509263428505
 30
0.0
 10
-10.19886067453362
 20
139.9595879098886
 30
0.0
 10
-10.19886067453362
 20
139.9595879098886
 30
0.0
 10
-10.19886067453362
 20
139.9595879098886
 30
0.0
 10
-10.12892523618305
 20
136.8652031450372
 30
0.0
 10
-10.12892523618305
 20
136.8652031450372
 30
0.0
 10
-10.12892523618305
 20
136.8652031450372
 30
0.0
 10
-4.707722980593902
 20
136.8886297943369
 30
0.0
 10
-4.707722980593902
 20
136.8886297943369
 30
0.0
 10
-4.707722980593902
 20
136.8886297943369
 30
0.0
 10
-3.590823024275906
 20
136.3298353066293
 30
0.0
 10
-3.590823024275906
 20
135.9577649942224
 30
0.0
 10
-3.590823024275906
 20
135.5856946818154
 30
0.0
 10
-4.172355142186079
 20
134.4222859364465
 30
0.0
 10
-4.172355142186079
 20
134.4222859364465
 30
0.0
 10
-4.172355142186079
 20
134.4222859364465
 30
0.0
 10
-3.567396374976207
 20
131.2810478729957
 30
0.0
 10
-3.567396374976207
 20
131.2810478729957
 30
0.0
 10
-3.567396374976207
 20
131.2810478729957
 30
0.0
 10
-3.613905164027079
 20
123.4164116444931
 30
0.0
 10
-3.613905164027079
 20
123.4164116444931
 30
0.0
 10
-3.613905164027079
 20
123.4164116444931
 30
0.0
 10
-4.149273002434904
 20
122.8121418963803
 30
0.0
 10
-4.149273002434904
 20
122.8121418963803
 30
0.0
 10
-4.149273002434904
 20
122.8121418963803
 30
0.0
 10
-5.428781465656694
 20
122.7418619484812
 30
0.0
 10
-5.428781465656694
 20
122.7418619484812
 30
0.0
 10
-5.428781465656694
 20
122.7418619484812
 30
0.0
 10
-5.544881183509613
 20
119.2051269233237
 30
0.0
 10
-5.544881183509613
 20
119.2051269233237
 30
0.0
 10
-5.544881183509613
 20
119.2051269233237
 30
0.0
 10
-6.080249021917438
 20
118.6697590849159
 30
0.0
 10
-6.080249021917438
 20
118.6697590849159
 30
0.0
 10
-6.080249021917438
 20
118.6697590849159
 30
0.0
 10
-45.21584471525854
 20
118.6931857342156
 30
0.0
 10
-45.14590927690797
 20
118.6697590849159
 30
0.0
  0
HATCH
  5
3D
330
1F
100
AcDbEntity
  8
GRAU_10_
 62
   255
100
AcDbHatch
 10
0.0
 20
0.0
 30
0.0
210
0.0
220
0.0
230
1.0
  2
SOLID
 70
     1
 71
     0
 91
        1
 92
        1
 93
        1
 72
     4
 94
        3
 73
     0
 74
     1
 95
       98
 96
       94
 40
0.0
 40
0.0
 40
0.0
 40
0.0
 40
1.0
 40
1.0
 40
1.0
 40
2.0
 40
2.0
 40
2.0
 40
3.0
 40
3.0
 40
3.0
 40
4.0
 40
4.0
 40
4.0
 40
5.0
 40
5.0
 40
5.0
 40
6.0
 40
6.0
 40
6.0
 40
7.0
 40
7.0
 40
7.0
 40
8.0
 40
8.0
 40
8.0
 40
9.0
 40
9.0
 40
9.0
 40
10.0
 40
10.0
 40
10.0
 40
11.0
 40
11.0
 40
11.0
 40
12.0
 40
12.0
 40
12.0
 40
13.0
 40
13.0
 40
13.0
 40
14.0
 40
14.0
 40
14.0
 40
15.0
 40
15.0
 40
15.0
 40
16.0
 40
16.0
 40
16.0
 40
17.0
 40
17.0
 40
17.0
 40
18.0
 40
18.0
 40
18.0
 40
19.0
 40
19.0
 40
19.0
 40
20.0
 40
20.0
 40
20.0
 40
21.0
 40
21.0
 40
21.0
 40
22.0
 40
22.0
 40
22.0
 40
23.0
 40
23.0
 40
23.0
 40
24.0
 40
24.0
 40
24.0
 40
25.0
 40
25.0
 40
25.0
 40
26.0
 40
26.0
 40
26.0
 40
27.0
 40
27.0
 40
27.0
 40
28.0
 40
28.0
 40
28.0
 40
29.0
 40
29.0
 40
29.0
 40
30.0
 40
30.0
 40
30.0
 40
31.0
 40
31.0
 40
31.0
 40
31.0
 10
-45.14590927690797
 20
118.6697590849159
 10
-45.14590927690797
 20
118.6697590849159
 10
-45.72778590436667
 20
119.2981445014255
 10
-45.70435925506697
 20
119.4145887288269
 10
-45.68093260576727
 20
119.5310329562284
 10
-45.49455294001525
 20
122.2299207593731
 10
-45.49455294001525
 20
122.2299207593731
 10
-45.49455294001525
 20
122.2299207593731
 10
-45.6109971674167
 20
122.834879526583
 10
-45.68093260576727
 20
122.834879526583
 10
-45.75086804411784
 20
122.834879526583
 10
-47.05380315663933
 20
122.7880262279836
 10
-47.05380315663933
 20
122.7880262279836
 10
-47.05380315663933
 20
122.7880262279836
 10
-47.6353352745495
 20
123.3929849951934
 10
-47.6353352745495
 20
123.3929849951934
 10
-47.6353352745495
 20
123.3929849951934
 10
-47.84479708005269
 20
131.1411769962946
 10
-47.84479708005269
 20
131.1411769962946
 10
-47.84479708005269
 20
131.1411769962946
 10
-47.2863471018937
 20
134.3520059885474
 10
-47.2863471018937
 20
134.3520059885474
 10
-47.2863471018937
 20
134.3520059885474
 10
-47.75212401149947
 20
135.4458238051143
 10
-47.72869736219977
 20
135.7483031887192
 10
-47.70527071290007
 20
136.0504380627756
 10
-46.84434135113614
 20
136.7952677066866
 10
-46.77475042233409
 20
136.8183498464378
 10
-46.70481498398352
 20
136.841431986189
 10
-15.15463053006551
 20
136.7721855669354
 10
-15.15463053006551
 20
136.7721855669354
 10
-15.15463053006551
 20
136.7721855669354
 10
-15.08469509171494
 20
139.7966348934363
 10
-15.08469509171494
 20
139.7966348934363
 10
-15.08469509171494
 20
139.7966348934363
 10
-15.17736816026816
 20
140.6341376059005
 10
-15.3172390369693
 20
140.6341376059005
 10
-15.45710991367045
 20
140.6341376059005
 10
-16.9691623221466
 20
140.7970906223528
 10
-16.9691623221466
 20
140.7970906223528
 10
-16.9691623221466
 20
140.7970906223528
 10
-16.9691623221466
 20
145.3111992366757
 10
-16.9691623221466
 20
145.3111992366757
 10
-16.9691623221466
 20
145.3111992366757
 10
-16.66668293854166
 20
145.8224514066868
 10
-16.31769476588585
 20
145.846222565535
 10
-15.96905110277857
 20
145.8696492148347
 10
-8.872498912712432
 20
145.8696492148347
 10
-8.872498912712432
 20
145.8696492148347
 10
-8.872498912712432
 20
145.8696492148347
 10
-8.38363986335548
 20
145.6601874093315
 10
-8.360557723604305
 20
145.4042168147774
 10
-8.33747558385313
 20
145.1482462202234
 10
-8.360557723604305
 20
140.8439439209522
 10
-8.360557723604305
 20
140.8439439209522
 10
-8.360557723604305
 20
140.8439439209522
 10
-9.779937063527239
 20
140.7509263428505
 10
-9.779937063527239
 20
140.7509263428505
 10
-9.779937063527239
 20
140.7509263428505
 10
-10.19886067453362
 20
139.9595879098886
 10
-10.19886067453362
 20
139.9595879098886
 10
-10.19886067453362
 20
139.9595879098886
 10
-10.12892523618305
 20
136.8652031450372
 10
-10.12892523618305
 20
136.8652031450372
 10
-10.12892523618305
 20
136.8652031450372
 10
-4.707722980593902
 20
136.8886297943369
 10
-4.707722980593902
 20
136.8886297943369
 10
-4.707722980593902
 20
136.8886297943369
 10
-3.590823024275906
 20
136.3298353066293
 10
-3.590823024275906
 20
135.9577649942224
 10
-3.590823024275906
 20
135.5856946818154
 10
-4.172355142186079
 20
134.4222859364465
 10
-4.172355142186079
 20
134.4222859364465
 10
-4.172355142186079
 20
134.4222859364465
 10
-3.567396374976207
 20
131.2810478729957
 10
-3.567396374976207
 20
131.2810478729957
 10
-3.567396374976207
 20
131.2810478729957
 10
-3.613905164027079
 20
123.4164116444931
 10
-3.613905164027079
 20
123.4164116444931
 10
-3.613905164027079
 20
123.4164116444931
 10
-4.149273002434904
 20
122.8121418963803
 10
-4.149273002434904
 20
122.8121418963803
 10
-4.149273002434904
 20
122.8121418963803
 10
-5.428781465656694
 20
122.7418619484812
 10
-5.428781465656694
 20
122.7418619484812
 10
-5.428781465656694
 20
122.7418619484812
 10
-5.544881183509613
 20
119.2051269233237
 10
-5.544881183509613
 20
119.2051269233237
 10
-5.544881183509613
 20
119.2051269233237
 10
-6.080249021917438
 20
118.6697590849159
 10
-6.080249021917438
 20
118.6697590849159
 10
-6.080249021917438
 20
118.6697590849159
 10
-45.21584471525854
 20
118.6931857342156
 10
-45.14590927690797
 20
118.6697590849159
 97
        0
 75
     0
 76
     1
 98
        0
  0
SPLINE
  5
3E
330
1F
100
AcDbEntity
  8
GRAU_10_
100
AcDbSpline
210
0.0
220
0.0
230
1.0
 70
    11
 71
     3
 72
   101
 73
    97
 74
     0
 42
0.0000000001
 43
0.0000000001
 40
0.0
 40
0.0
 40
0.0
 40
0.0
 40
1.0
 40
1.0
 40
1.0
 40
2.0
 40
2.0
 40
2.0
 40
3.0
 40
3.0
 40
3.0
 40
4.0
 40
4.0
 40
4.0
 40
5.0
 40
5.0
 40
5.0
 40
6.0
 40
6.0
 40
6.0
 40
7.0
 40
7.0
 40
7.0
 40
8.0
 40
8.0
 40
8.0
 40
9.0
 40
9.0
 40
9.0
 40
10.0
 40
10.0
 40
10.0
 40
11.0
 40
11.0
 40
11.0
 40
12.0
 40
12.0
 40
12.0
 40
13.0
 40
13.0
 40
13.0
 40
14.0
 40
14.0
 40
14.0
 40
15.0
 40
15.0
 40
15.0
 40
16.0
 40
16.0
 40
16.0
 40
17.0
 40
17.0
 40
17.0
 40
18.0
 40
18.0
 40
18.0
 40
19.0
 40
19.0
 40
19.0
 40
20.0
 40
20.0
 40
20.0
 40
21.0
 40
21.0
 40
21.0
 40
22.0
 40
22.0
 40
22.0
 40
23.0
 40
23.0
 40
23.0
 40
24.0
 40
24.0
 40
24.0
 40
25.0
 40
25.0
 40
25.0
 40
26.0
 40
26.0
 40
26.0
 40
27.0
 40
27.0
 40
27.0
 40
28.0
 40
28.0
 40
28.0
 40
29.0
 40
29.0
 40
29.0
 40
30.0
 40
30.0
 40
30.0
 40
31.0
 40
31.0
 40
31.0
 40
32.0
 40
32.0
 40
32.0
 40
32.0
 10
30.35680337782747
 20
193.6410657610515
 30
0.0
 10
30.35680337782747
 20
193.6410657610515
 30
0.0
 10
29.59509276603873
 20
193.3806165423667
 30
0.0
 10
29.57511121222428
 20
194.102019536978
 30
0.0
 10
29.55512965840983
 20
194.8237670411378
 30
0.0
 10
29.53514810459538
 20
200.8971258720848
 30
0.0
 10
29.59509276603873
 20
201.1176119831407
 30
0.0
 10
29.6553819370306
 20
201.3380980941967
 30
0.0
 10
29.49484048741796
 20
202.1797349212433
 30
0.0
 10
30.31684027019857
 20
202.2200425384207
 30
0.0
 10
31.13849554343065
 20
202.2600056460496
 30
0.0
 10
34.68625487414094
 20
202.2600056460496
 30
0.0
 10
34.68625487414094
 20
202.2600056460496
 30
0.0
 10
34.68625487414094
 20
202.2600056460496
 30
0.0
 10
34.38584254782715
 20
200.9973781507055
 30
0.0
 10
34.52605793407682
 20
200.8568182549073
 30
0.0
 10
34.66627332032649
 20
200.7166028686577
 30
0.0
 10
35.24780543823666
 20
200.4158460327953
 30
0.0
 10
35.24780543823666
 20
200.4158460327953
 30
0.0
 10
35.24780543823666
 20
200.4158460327953
 30
0.0
 10
38.53477104071353
 20
200.4561536499728
 30
0.0
 10
38.53477104071353
 20
200.4561536499728
 30
0.0
 10
38.53477104071353
 20
200.4561536499728
 30
0.0
 10
38.49480793308463
 20
218.9366793614985
 30
0.0
 10
38.49480793308463
 20
218.9366793614985
 30
0.0
 10
38.49480793308463
 20
218.9366793614985
 30
0.0
 10
38.97574326282551
 20
219.9991468091495
 30
0.0
 10
39.57725693455014
 20
220.019128362964
 30
0.0
 10
40.17842609672623
 20
220.0391099167784
 30
0.0
 10
40.61939831883821
 20
219.5981376946664
 30
0.0
 10
40.90017360088607
 20
219.5981376946664
 30
0.0
 10
41.18060437338541
 20
219.5981376946664
 30
0.0
 10
44.08723143429069
 20
219.9188760843432
 30
0.0
 10
44.08723143429069
 20
219.9188760843432
 30
0.0
 10
44.08723143429069
 20
219.9188760843432
 30
0.0
 10
52.04471298612077
 20
220.0594359801414
 30
0.0
 10
52.04471298612077
 20
220.0594359801414
 30
0.0
 10
52.04471298612077
 20
220.0594359801414
 30
0.0
 10
52.62590059448242
 20
219.5581745870375
 30
0.0
 10
52.62590059448242
 20
219.5581745870375
 30
0.0
 10
52.62590059448242
 20
219.5581745870375
 30
0.0
 10
52.60591904066797
 20
217.9947902558312
 30
0.0
 10
52.60591904066797
 20
217.9947902558312
 30
0.0
 10
52.60591904066797
 20
217.9947902558312
 30
0.0
 10
53.0668728165944
 20
217.9345010848393
 30
0.0
 10
53.0668728165944
 20
217.9345010848393
 30
0.0
 10
53.0668728165944
 20
217.9345010848393
 30
0.0
 10
56.0937337099349
 20
217.9345010848393
 30
0.0
 10
56.0937337099349
 20
217.9345010848393
 30
0.0
 10
56.0937337099349
 20
217.9345010848393
 30
0.0
 10
56.63495821066766
 20
217.5138549260903
 30
0.0
 10
56.63495821066766
 20
217.5138549260903
 30
0.0
 10
56.63495821066766
 20
217.5138549260903
 30
0.0
 10
56.61463214730468
 20
178.5677394844379
 30
0.0
 10
56.61463214730468
 20
178.5677394844379
 30
0.0
 10
56.61463214730468
 20
178.5677394844379
 30
0.0
 10
56.07340764657193
 20
178.0065334298907
 30
0.0
 10
56.07340764657193
 20
178.0065334298907
 30
0.0
 10
56.07340764657193
 20
178.0065334298907
 30
0.0
 10
52.90667587653028
 20
177.90628115127
 30
0.0
 10
52.90667587653028
 20
177.90628115127
 30
0.0
 10
52.90667587653028
 20
177.90628115127
 30
0.0
 10
52.52564831586164
 20
177.6458319325851
 30
0.0
 10
52.52564831586164
 20
177.6458319325851
 30
0.0
 10
52.52564831586164
 20
177.6458319325851
 30
0.0
 10
52.5456298696761
 20
176.362878373878
 30
0.0
 10
52.5456298696761
 20
176.362878373878
 30
0.0
 10
52.5456298696761
 20
176.362878373878
 30
0.0
 10
52.04471298612077
 20
175.8016723193308
 30
0.0
 10
52.04471298612077
 20
175.8016723193308
 30
0.0
 10
52.04471298612077
 20
175.8016723193308
 30
0.0
 10
44.08723143429069
 20
175.8619614903227
 30
0.0
 10
44.02694226329882
 20
175.8619614903227
 30
0.0
 10
43.96699760185547
 20
175.8619614903227
 30
0.0
 10
40.7599582146364
 20
176.3229152662491
 30
0.0
 10
40.7599582146364
 20
176.3229152662491
 30
0.0
 10
40.7599582146364
 20
176.3229152662491
 30
0.0
 10
39.69749076698535
 20
175.8619614903227
 30
0.0
 10
39.69749076698535
 20
175.8619614903227
 30
0.0
 10
39.69749076698535
 20
175.8619614903227
 30
0.0
 10
38.65500487314875
 20
175.8419799365083
 30
0.0
 10
38.5950602117054
 20
176.6436536559259
 30
0.0
 10
38.53477104071353
 20
177.4453273753435
 30
0.0
 10
38.57507865789096
 20
195.384973095685
 30
0.0
 10
38.57507865789096
 20
195.384973095685
 30
0.0
 10
38.57507865789096
 20
195.384973095685
 30
0.0
 10
35.22747937487369
 20
195.4049546494995
 30
0.0
 10
35.22747937487369
 20
195.4049546494995
 30
0.0
 10
35.22747937487369
 20
195.4049546494995
 30
0.0
 10
34.70658093750392
 20
195.1844685384435
 30
0.0
 10
34.70658093750392
 20
195.1844685384435
 30
0.0
 10
34.70658093750392
 20
195.1844685384435
 30
0.0
 10
34.64629176651204
 20
193.6210842072371
 30
0.0
 10
34.64629176651204
 20
193.6210842072371
 30
0.0
 10
34.64629176651204
 20
193.6210842072371
 30
0.0
 10
30.35680337782747
 20
193.6410657610515
 30
0.0
 10
30.35680337782747
 20
193.6410657610515
 30
0.0
  0
HATCH
  5
3F
330
1F
100
AcDbEntity
  8
GRAU_10_
 62
   255
100
AcDbHatch
 10
0.0
 20
0.0
 30
0.0
210
0.0
220
0.0
230
1.0
  2
SOLID
 70
     1
 71
     0
 91
        1
 92
        1
 93
        1
 72
     4
 94
        3
 73
     0
 74
     1
 95
      101
 96
       97
 40
0.0
 40
0.0
 40
0.0
 40
0.0
 40
1.0
 40
1.0
 40
1.0
 40
2.0
 40
2.0
 40
2.0
 40
3.0
 40
3.0
 40
3.0
 40
4.0
 40
4.0
 40
4.0
 40
5.0
 40
5.0
 40
5.0
 40
6.0
 40
6.0
 40
6.0
 40
7.0
 40
7.0
 40
7.0
 40
8.0
 40
8.0
 40
8.0
 40
9.0
 40
9.0
 40
9.0
 40
10.0
 40
10.0
 40
10.0
 40
11.0
 40
11.0
 40
11.0
 40
12.0
 40
12.0
 40
12.0
 40
13.0
 40
13.0
 40
13.0
 40
14.0
 40
14.0
 40
14.0
 40
15.0
 40
15.0
 40
15.0
 40
16.0
 40
16.0
 40
16.0
 40
17.0
 40
17.0
 40
17.0
 40
18.0
 40
18.0
 40
18.0
 40
19.0
 40
19.0
 40
19.0
 40
20.0
 40
20.0
 40
20.0
 40
21.0
 40
21.0
 40
21.0
 40
22.0
 40
22.0
 40
22.0
 40
23.0
 40
23.0
 40
23.0
 40
24.0
 40
24.0
 40
24.0
 40
25.0
 40
25.0
 40
25.0
 40
26.0
 40
26.0
 40
26.0
 40
27.0
 40
27.0
 40
27.0
 40
28.0
 40
28.0
 40
28.0
 40
29.0
 40
29.0
 40
29.0
 40
30.0
 40
30.0
 40
30.0
 40
31.0
 40
31.0
 40
31.0
 40
32.0
 40
32.0
 40
32.0
 40
32.0
 10
30.35680337782747
 20
193.6410657610515
 10
30.35680337782747
 20
193.6410657610515
 10
29.59509276603873
 20
193.3806165423667
 10
29.57511121222428
 20
194.102019536978
 10
29.55512965840983
 20
194.8237670411378
 10
29.53514810459538
 20
200.8971258720848
 10
29.59509276603873
 20
201.1176119831407
 10
29.6553819370306
 20
201.3380980941967
 10
29.49484048741796
 20
202.1797349212433
 10
30.31684027019857
 20
202.2200425384207
 10
31.13849554343065
 20
202.2600056460496
 10
34.68625487414094
 20
202.2600056460496
 10
34.68625487414094
 20
202.2600056460496
 10
34.68625487414094
 20
202.2600056460496
 10
34.38584254782715
 20
200.9973781507055
 10
34.52605793407682
 20
200.8568182549073
 10
34.66627332032649
 20
200.7166028686577
 10
35.24780543823666
 20
200.4158460327953
 10
35.24780543823666
 20
200.4158460327953
 10
35.24780543823666
 20
200.4158460327953
 10
38.53477104071353
 20
200.4561536499728
 10
38.53477104071353
 20
200.4561536499728
 10
38.53477104071353
 20
200.4561536499728
 10
38.49480793308463
 20
218.9366793614985
 10
38.49480793308463
 20
218.9366793614985
 10
38.49480793308463
 20
218.9366793614985
 10
38.97574326282551
 20
219.9991468091495
 10
39.57725693455014
 20
220.019128362964
 10
40.17842609672623
 20
220.0391099167784
 10
40.61939831883821
 20
219.5981376946664
 10
40.90017360088607
 20
219.5981376946664
 10
41.18060437338541
 20
219.5981376946664
 10
44.08723143429069
 20
219.9188760843432
 10
44.08723143429069
 20
219.9188760843432
 10
44.08723143429069
 20
219.9188760843432
 10
52.04471298612077
 20
220.0594359801414
 10
52.04471298612077
 20
220.0594359801414
 10
52.04471298612077
 20
220.0594359801414
 10
52.62590059448242
 20
219.5581745870375
 10
52.62590059448242
 20
219.5581745870375
 10
52.62590059448242
 20
219.5581745870375
 10
52.60591904066797
 20
217.9947902558312
 10
52.60591904066797
 20
217.9947902558312
 10
52.60591904066797
 20
217.9947902558312
 10
53.0668728165944
 20
217.9345010848393
 10
53.0668728165944
 20
217.9345010848393
 10
53.0668728165944
 20
217.9345010848393
 10
56.0937337099349
 20
217.9345010848393
 10
56.0937337099349
 20
217.9345010848393
 10
56.0937337099349
 20
217.9345010848393
 10
56.63495821066766
 20
217.5138549260903
 10
56.63495821066766
 20
217.5138549260903
 10
56.63495821066766
 20
217.5138549260903
 10
56.61463214730468
 20
178.5677394844379
 10
56.61463214730468
 20
178.5677394844379
 10
56.61463214730468
 20
178.5677394844379
 10
56.07340764657193
 20
178.0065334298907
 10
56.07340764657193
 20
178.0065334298907
 10
56.07340764657193
 20
178.0065334298907
 10
52.90667587653028
 20
177.90628115127
 10
52.90667587653028
 20
177.90628115127
 10
52.90667587653028
 20
177.90628115127
 10
52.52564831586164
 20
177.6458319325851
 10
52.52564831586164
 20
177.6458319325851
 10
52.52564831586164
 20
177.6458319325851
 10
52.5456298696761
 20
176.362878373878
 10
52.5456298696761
 20
176.362878373878
 10
52.5456298696761
 20
176.362878373878
 10
52.04471298612077
 20
175.8016723193308
 10
52.04471298612077
 20
175.8016723193308
 10
52.04471298612077
 20
175.8016723193308
 10
44.08723143429069
 20
175.8619614903227
 10
44.02694226329882
 20
175.8619614903227
 10
43.96699760185547
 20
175.8619614903227
 10
40.7599582146364
 20
176.3229152662491
 10
40.7599582146364
 20
176.3229152662491
 10
40.7599582146364
 20
176.3229152662491
 10
39.69749076698535
 20
175.8619614903227
 10
39.69749076698535
 20
175.8619614903227
 10
39.69749076698535
 20
175.8619614903227
 10
38.65500487314875
 20
175.8419799365083
 10
38.5950602117054
 20
176.6436536559259
 10
38.53477104071353
 20
177.4453273753435
 10
38.57507865789096
 20
195.384973095685
 10
38.57507865789096
 20
195.384973095685
 10
38.57507865789096
 20
195.384973095685
 10
35.22747937487369
 20
195.4049546494995
 10
35.22747937487369
 20
195.4049546494995
 10
35.22747937487369
 20
195.4049546494995
 10
34.70658093750392
 20
195.1844685384435
 10
34.70658093750392
 20
195.1844685384435
 10
34.70658093750392
 20
195.1844685384435
 10
34.64629176651204
 20
193.6210842072371
 10
34.64629176651204
 20
193.6210842072371
 10
34.64629176651204
 20
193.6210842072371
 10
30.35680337782747
 20
193.6410657610515
 10
30.35680337782747
 20
193.6410657610515
 97
        0
 75
     0
 76
     1
 98
        0
  0
SPLINE
  5
40
330
1F
100
AcDbEntity
  8
GRAU_10_
100
AcDbSpline
210
0.0
220
0.0
230
1.0
 70
    11
 71
     3
 72
    17
 73
    13
 74
     0
 42
0.0000000001
 43
0.0000000001
 40
0.0
 40
0.0
 40
0.0
 40
0.0
 40
1.0
 40
1.0
 40
1.0
 40
2.0
 40
2.0
 40
2.0
 40
3.0
 40
3.0
 40
3.0
 40
4.0
 40
4.0
 40
4.0
 40
4.0
 10
-25.65114745452471
 20
175.8812540250401
 30
0.0
 10
-37.81026746016549
 20
175.8812540250401
 30
0.0
 10
-47.6670301530138
 20
185.7380167178884
 30
0.0
 10
-47.6670301530138
 20
197.8971367235292
 30
0.0
 10
-47.6670301530138
 20
210.0559122196215
 30
0.0
 10
-37.81026746016549
 20
219.9126749124698
 30
0.0
 10
-25.65114745452471
 20
219.9126749124698
 30
0.0
 10
-13.49271646798099
 20
219.9126749124698
 30
0.0
 10
-3.635953775132678
 20
210.0559122196215
 30
0.0
 10
-3.635953775132678
 20
197.8971367235292
 30
0.0
 10
-3.635953775132678
 20
185.7380167178884
 30
0.0
 10
-13.49271646798099
 20
175.8812540250401
 30
0.0
 10
-25.65114745452471
 20
175.8812540250401
 30
0.0
  0
SPLINE
  5
41
330
1F
100
AcDbEntity
  8
GRAU_10_
100
AcDbSpline
210
0.0
220
0.0
230
1.0
 70
    11
 71
     3
 72
    17
 73
    13
 74
     0
 42
0.0000000001
 43
0.0000000001
 40
0.0
 40
0.0
 40
0.0
 40
0.0
 40
1.0
 40
1.0
 40
1.0
 40
2.0
 40
2.0
 40
2.0
 40
3.0
 40
3.0
 40
3.0
 40
4.0
 40
4.0
 40
4.0
 40
4.0
 10
-19.03036295097158
 20
197.9798190151752
 30
0.0
 10
-19.03036295097158
 20
201.6364433632194
 30
0.0
 10
-21.99452310648054
 20
204.6009480282769
 30
0.0
 10
-25.65114745452471
 20
204.6009480282769
 30
0.0
 10
-29.30846082166594
 20
204.6009480282769
 30
0.0
 10
-32.2726209771749
 20
201.6364433632194
 30
0.0
 10
-32.2726209771749
 20
197.9798190151752
 30
0.0
 10
-32.2726209771749
 20
194.3228501575825
 30
0.0
 10
-29.30846082166594
 20
191.3586900020735
 30
0.0
 10
-25.65114745452471
 20
191.3586900020735
 30
0.0
 10
-21.99452310648054
 20
191.3586900020735
 30
0.0
 10
-19.03036295097158
 20
194.3228501575825
 30
0.0
 10
-19.03036295097158
 20
197.9798190151752
 30
0.0
  0
HATCH
  5
42
330
1F
100
AcDbEntity
  8
GRAU_10_
 62
   255
100
AcDbHatch
 10
0.0
 20
0.0
 30
0.0
210
0.0
220
0.0
230
1.0
  2
SOLID
 70
     1
 71
     0
 91
        2
 92
        1
 93
        1
 72
     4
 94
        3
 73
     0
 74
     1
 95
       17
 96
       13
 40
0.0
 40
0.0
 40
0.0
 40
0.0
 40
1.0
 40
1.0
 40
1.0
 40
2.0
 40
2.0
 40
2.0
 40
3.0
 40
3.0
 40
3.0
 40
4.0
 40
4.0
 40
4.0
 40
4.0
 10
-25.65114745452471
 20
175.8812540250401
 10
-37.81026746016549
 20
175.8812540250401
 10
-47.6670301530138
 20
185.7380167178884
 10
-47.6670301530138
 20
197.8971367235292
 10
-47.6670301530138
 20
210.0559122196215
 10
-37.81026746016549
 20
219.9126749124698
 10
-25.65114745452471
 20
219.9126749124698
 10
-13.49271646798099
 20
219.9126749124698
 10
-3.635953775132678
 20
210.0559122196215
 10
-3.635953775132678
 20
197.8971367235292
 10
-3.635953775132678
 20
185.7380167178884
 10
-13.49271646798099
 20
175.8812540250401
 10
-25.65114745452471
 20
175.8812540250401
 97
        0
 92
        1
 93
        1
 72
     4
 94
        3
 73
     0
 74
     1
 95
       17
 96
       13
 40
0.0
 40
0.0
 40
0.0
 40
0.0
 40
1.0
 40
1.0
 40
1.0
 40
2.0
 40
2.0
 40
2.0
 40
3.0
 40
3.0
 40
3.0
 40
4.0
 40
4.0
 40
4.0
 40
4.0
 10
-19.03036295097158
 20
197.9798190151752
 10
-19.03036295097158
 20
201.6364433632194
 10
-21.99452310648054
 20
204.6009480282769
 10
-25.65114745452471
 20
204.6009480282769
 10
-29.30846082166594
 20
204.6009480282769
 10
-32.2726209771749
 20
201.6364433632194
 10
-32.2726209771749
 20
197.9798190151752
 10
-32.2726209771749
 20
194.3228501575825
 10
-29.30846082166594
 20
191.3586900020735
 10
-25.65114745452471
 20
191.3586900020735
 10
-21.99452310648054
 20
191.3586900020735
 10
-19.03036295097158
 20
194.3228501575825
 10
-19.03036295097158
 20
197.9798190151752
 97
        0
 75
     0
 76
     1
 98
        0
  0
SPLINE
  5
44
330
1F
100
AcDbEntity
  8
STANDARDEBENE
 62
     7
100
AcDbSpline
210
0.0
220
0.0
230
1.0
 70
     8
 71
     3
 72
     8
 73
     4
 74
     0
 42
0.0000000001
 43
0.0000000001
 40
0.0
 40
0.0
 40
0.0
 40
0.0
 40
1.0
 40
1.0
 40
1.0
 40
1.0
 10
-13.50339626398526
 20
197.9412339457404
 30
0.0
 10
-13.50339626398526
 20
204.6309203589985
 30
0.0
 10
-18.92701008641408
 20
210.0535006527818
 30
0.0
 10
-25.61635199012369
 20
210.0535006527818
 30
0.0
  0
SPLINE
  5
45
330
1F
100
AcDbEntity
  8
STANDARDEBENE
 62
     7
100
AcDbSpline
210
0.0
220
0.0
230
1.0
 70
     8
 71
     3
 72
     8
 73
     4
 74
     0
 42
0.0000000001
 43
0.0000000001
 40
0.0
 40
0.0
 40
0.0
 40
0.0
 40
1.0
 40
1.0
 40
1.0
 40
1.0
 10
-25.61635199012369
 20
185.828278219602
 30
0.0
 10
-18.92701008641408
 20
185.828278219602
 30
0.0
 10
-13.50339626398526
 20
191.2522365515793
 30
0.0
 10
-13.50339626398526
 20
197.9412339457404
 30
0.0
  0
SPLINE
  5
46
330
1F
100
AcDbEntity
  8
STANDARDEBENE
 62
     7
100
AcDbSpline
210
0.0
220
0.0
230
1.0
 70
     8
 71
     3
 72
    11
 73
     7
 74
     0
 42
0.0000000001
 43
0.0000000001
 40
0.0
 40
0.0
 40
0.0
 40
0.0
 40
1.0
 40
1.0
 40
1.0
 40
2.0
 40
2.0
 40
2.0
 40
2.0
 10
-37.77616101486151
 20
197.9412339457404
 30
0.0
 10
-37.77616101486151
 20
191.2250202972458
 30
0.0
 10
-32.3318766195212
 20
185.7814249210026
 30
0.0
 10
-25.61635199012369
 20
185.7814249210026
 30
0.0
 10
-18.90013834162913
 20
185.7814249210026
 30
0.0
 10
-13.45550943674029
 20
191.2250202972458
 30
0.0
 10
-13.45550943674029
 20
197.9412339457404
 30
0.0
  0
SPLINE
  5
47
330
1F
100
AcDbEntity
  8
STANDARDEBENE
 62
     7
100
AcDbSpline
210
0.0
220
0.0
230
1.0
 70
     8
 71
     3
 72
     8
 73
     4
 74
     0
 42
0.0000000001
 43
0.0000000001
 40
0.0
 40
0.0
 40
0.0
 40
0.0
 40
1.0
 40
1.0
 40
1.0
 40
1.0
 10
-13.50339626398526
 20
197.9412339457404
 30
0.0
 10
-13.50339626398526
 20
204.6309203589985
 30
0.0
 10
-18.92701008641408
 20
210.0535006527818
 30
0.0
 10
-25.61635199012369
 20
210.0535006527818
 30
0.0
  0
SPLINE
  5
48
330
1F
100
AcDbEntity
  8
STANDARDEBENE
 62
     7
100
AcDbSpline
210
0.0
220
0.0
230
1.0
 70
     8
 71
     3
 72
     8
 73
     4
 74
     0
 42
0.0000000001
 43
0.0000000001
 40
0.0
 40
0.0
 40
0.0
 40
0.0
 40
1.0
 40
1.0
 40
1.0
 40
1.0
 10
-25.61635199012369
 20
185.828278219602
 30
0.0
 10
-18.92701008641408
 20
185.828278219602
 30
0.0
 10
-13.50339626398526
 20
191.2522365515793
 30
0.0
 10
-13.50339626398526
 20
197.9412339457404
 30
0.0
  0
SPLINE
  5
49
330
1F
100
AcDbEntity
  8
STANDARDEBENE
 62
     7
100
AcDbSpline
210
0.0
220
0.0
230
1.0
 70
     8
 71
     3
 72
    11
 73
     7
 74
     0
 42
0.0000000001
 43
0.0000000001
 40
0.0
 40
0.0
 40
0.0
 40
0.0
 40
1.0
 40
1.0
 40
1.0
 40
2.0
 40
2.0
 40
2.0
 40
2.0
 10
-13.50339626398526
 20
197.9412339457404
 30
0.0
 10
-13.50339626398526
 20
204.6309203589985
 30
0.0
 10
-18.92701008641408
 20
210.0535006527818
 30
0.0
 10
-25.61635199012369
 20
210.0535006527818
 30
0.0
 10
-32.30534938428477
 20
210.0535006527818
 30
0.0
 10
-37.72861869716507
 20
204.6309203589985
 30
0.0
 10
-37.72861869716507
 20
197.9412339457404
 30
0.0
  0
POLYLINE
  5
4A
330
1F
100
AcDbEntity
  8
STANDARDEBENE
 62
     7
100
AcDb2dPolyline
 66
     1
 10
0.0
 20
0.0
 30
0.0
  0
VERTEX
  5
4B
330
4A
100
AcDbEntity
  8
STANDARDEBENE
 62
     7
100
AcDbVertex
100
AcDb2dVertex
 10
35.16098903200837
 20
195.4380275661579
 30
0.0
  0
VERTEX
  5
4C
330
4A
100
AcDbEntity
  8
STANDARDEBENE
 62
     7
100
AcDbVertex
100
AcDb2dVertex
 10
35.16098903200837
 20
197.9412339457404
 30
0.0
  0
VERTEX
  5
4D
330
4A
100
AcDbEntity
  8
STANDARDEBENE
 62
     7
100
AcDbVertex
100
AcDb2dVertex
 10
35.16098903200837
 20
200.4447848348715
 30
0.0
  0
SEQEND
  5
4E
330
4A
100
AcDbEntity
  8
STANDARDEBENE
  0
POLYLINE
  5
4F
330
1F
100
AcDbEntity
  8
STANDARDEBENE
 62
     7
100
AcDb2dPolyline
 66
     1
 10
0.0
 20
0.0
 30
0.0
  0
VERTEX
  5
50
330
4F
100
AcDbEntity
  8
STANDARDEBENE
 62
     7
100
AcDbVertex
100
AcDb2dVertex
 10
-15.11949055611596
 20
140.1962659697252
 30
0.0
  0
VERTEX
  5
51
330
4F
100
AcDbEntity
  8
STANDARDEBENE
 62
     7
100
AcDbVertex
100
AcDb2dVertex
 10
-10.1130777969509
 20
140.1962659697252
 30
0.0
  0
SEQEND
  5
52
330
4F
100
AcDbEntity
  8
STANDARDEBENE
  0
POLYLINE
  5
53
330
1F
100
AcDbEntity
  8
STANDARDEBENE
  6
AI-LINETYPE-1
 62
   250
100
AcDb2dPolyline
 66
     1
 10
0.0
 20
0.0
 30
0.0
  0
VERTEX
  5
54
330
53
100
AcDbEntity
  8
STANDARDEBENE
  6
AI-LINETYPE-1
 62
   250
100
AcDbVertex
100
AcDb2dVertex
 10
-25.61635199012369
 20
174.1242553275627
 30
0.0
  0
VERTEX
  5
55
330
53
100
AcDbEntity
  8
STANDARDEBENE
  6
AI-LINETYPE-1
 62
   250
100
AcDbVertex
100
AcDb2dVertex
 10
-25.61635199012369
 20
221.274521157789
 30
0.0
  0
SEQEND
  5
56
330
53
100
AcDbEntity
  8
STANDARDEBENE
  6
AI-LINETYPE-1
  0
POLYLINE
  5
58
330
1F
100
AcDbEntity
  8
STANDARDEBENE
  6
AI-LINETYPE-2
 62
   250
100
AcDb2dPolyline
 66
     1
 10
0.0
 20
0.0
 30
0.0
  0
VERTEX
  5
59
330
58
100
AcDbEntity
  8
STANDARDEBENE
  6
AI-LINETYPE-2
 62
   250
100
AcDbVertex
100
AcDb2dVertex
 10
-49.05678167176359
 20
197.9412339457404
 30
0.0
  0
VERTEX
  5
5A
330
58
100
AcDbEntity
  8
STANDARDEBENE
  6
AI-LINETYPE-2
 62
   250
100
AcDbVertex
100
AcDb2dVertex
 10
-2.144227430019499
 20
197.9412339457404
 30
0.0
  0
SEQEND
  5
5B
330
58
100
AcDbEntity
  8
STANDARDEBENE
  6
AI-LINETYPE-2
  0
POLYLINE
  5
5D
330
1F
100
AcDbEntity
  8
STANDARDEBENE
  6
AI-LINETYPE-3
 62
   250
100
AcDb2dPolyline
 66
     1
 10
0.0
 20
0.0
 30
0.0
  0
VERTEX
  5
5E
330
5D
100
AcDbEntity
  8
STANDARDEBENE
  6
AI-LINETYPE-3
 62
   250
100
AcDbVertex
100
AcDb2dVertex
 10
28.02206216747365
 20
197.9412339457404
 30
0.0
  0
VERTEX
  5
5F
330
5D
100
AcDbEntity
  8
STANDARDEBENE
  6
AI-LINETYPE-3
 62
   250
100
AcDbVertex
100
AcDb2dVertex
 10
44.09756672074644
 20
197.9412339457404
 30
0.0
  0
VERTEX
  5
60
330
5D
100
AcDbEntity
  8
STANDARDEBENE
  6
AI-LINETYPE-3
 62
   250
100
AcDbVertex
100
AcDb2dVertex
 10
57.48210719049059
 20
197.9412339457404
 30
0.0
  0
SEQEND
  5
61
330
5D
100
AcDbEntity
  8
STANDARDEBENE
  6
AI-LINETYPE-3
  0
POLYLINE
  5
63
330
1F
100
AcDbEntity
  8
STANDARDEBENE
  6
AI-LINETYPE-4
 62
   250
100
AcDb2dPolyline
 66
     1
 10
0.0
 20
0.0
 30
0.0
  0
VERTEX
  5
64
330
63
100
AcDbEntity
  8
STANDARDEBENE
  6
AI-LINETYPE-4
 62
   250
100
AcDbVertex
100
AcDb2dVertex
 10
-25.61635199012369
 20
139.2598890168343
 30
0.0
  0
VERTEX
  5
65
330
63
100
AcDbEntity
  8
STANDARDEBENE
  6
AI-LINETYPE-4
 62
   250
100
AcDbVertex
100
AcDb2dVertex
 10
-25.61635199012369
 20
135.2597886489108
 30
0.0
  0
VERTEX
  5
66
330
63
100
AcDbEntity
  8
STANDARDEBENE
  6
AI-LINETYPE-4
 62
   250
100
AcDbVertex
100
AcDb2dVertex
 10
-25.61635199012369
 20
131.2600327905357
 30
0.0
  0
VERTEX
  5
67
330
63
100
AcDbEntity
  8
STANDARDEBENE
  6
AI-LINETYPE-4
 62
   250
100
AcDbVertex
100
AcDb2dVertex
 10
-25.61635199012369
 20
115.9853406828092
 30
0.0
  0
SEQEND
  5
68
330
63
100
AcDbEntity
  8
STANDARDEBENE
  6
AI-LINETYPE-4
  0
SPLINE
  5
6A
330
1F
100
AcDbEntity
  8
STANDARDEBENE
 62
     7
100
AcDbSpline
210
0.0
220
0.0
230
1.0
 70
    11
 71
     3
 72
    17
 73
    13
 74
     0
 42
0.0000000001
 43
0.0000000001
 40
0.0
 40
0.0
 40
0.0
 40
0.0
 40
1.0
 40
1.0
 40
1.0
 40
2.0
 40
2.0
 40
2.0
 40
3.0
 40
3.0
 40
3.0
 40
4.0
 40
4.0
 40
4.0
 40
4.0
 10
-6.116422524512561
 20
197.9412339457404
 30
0.0
 10
-6.116422524512561
 20
208.7106024326314
 30
0.0
 10
-14.84663899368417
 20
217.4411634113515
 30
0.0
 10
-25.61635199012369
 20
217.4411634113515
 30
0.0
 10
-36.38503145791763
 20
217.4411634113515
 30
0.0
 10
-45.11559243663777
 20
208.7106024326314
 30
0.0
 10
-45.11559243663777
 20
197.9412339457404
 30
0.0
 10
-45.11559243663777
 20
187.1718654588494
 30
0.0
 10
-36.38503145791763
 20
178.4406154610322
 30
0.0
 10
-25.61635199012369
 20
178.4406154610322
 30
0.0
 10
-14.84663899368417
 20
178.4406154610322
 30
0.0
 10
-6.116422524512561
 20
187.1718654588494
 30
0.0
 10
-6.116422524512561
 20
197.9412339457404
 30
0.0
  0
SPLINE
  5
6B
330
1F
100
AcDbEntity
  8
STANDARDEBENE
 62
     7
100
AcDbSpline
210
0.0
220
0.0
230
1.0
 70
    11
 71
     3
 72
    17
 73
    13
 74
     0
 42
0.0000000001
 43
0.0000000001
 40
0.0
 40
0.0
 40
0.0
 40
0.0
 40
1.0
 40
1.0
 40
1.0
 40
2.0
 40
2.0
 40
2.0
 40
3.0
 40
3.0
 40
3.0
 40
4.0
 40
4.0
 40
4.0
 40
4.0
 10
-5.616194660054285
 20
197.9412339457404
 30
0.0
 10
-5.616194660054285
 20
208.9868990905484
 30
0.0
 10
-14.57103135486419
 20
217.9410467662613
 30
0.0
 10
-25.61635199012369
 20
217.9410467662613
 30
0.0
 10
-36.6616726253832
 20
217.9410467662613
 30
0.0
 10
-45.61616481064457
 20
208.9868990905484
 30
0.0
 10
-45.61616481064457
 20
197.9412339457404
 30
0.0
 10
-45.61616481064457
 20
186.8948797818353
 30
0.0
 10
-36.6616726253832
 20
177.9414211252195
 30
0.0
 10
-25.61635199012369
 20
177.9414211252195
 30
0.0
 10
-14.57103135486419
 20
177.9414211252195
 30
0.0
 10
-5.616194660054285
 20
186.8948797818353
 30
0.0
 10
-5.616194660054285
 20
197.9412339457404
 30
0.0
  0
SPLINE
  5
6C
330
1F
100
AcDbEntity
  8
STANDARDEBENE
 62
     7
100
AcDbSpline
210
0.0
220
0.0
230
1.0
 70
    11
 71
     3
 72
    17
 73
    13
 74
     0
 42
0.0000000001
 43
0.0000000001
 40
0.0
 40
0.0
 40
0.0
 40
0.0
 40
1.0
 40
1.0
 40
1.0
 40
2.0
 40
2.0
 40
2.0
 40
3.0
 40
3.0
 40
3.0
 40
4.0
 40
4.0
 40
4.0
 40
4.0
 10
-13.90681694530802
 20
197.9412339457404
 30
0.0
 10
-13.90681694530802
 20
204.4073336620058
 30
0.0
 10
-19.14956325476122
 20
209.649390952362
 30
0.0
 10
-25.61635199012369
 20
209.649390952362
 30
0.0
 10
-32.08245170638911
 20
209.649390952362
 30
0.0
 10
-37.32485350629379
 20
204.4073336620058
 30
0.0
 10
-37.32485350629379
 20
197.9412339457404
 30
0.0
 10
-37.32485350629379
 20
191.4744452103779
 30
0.0
 10
-32.08245170638911
 20
186.2323879200218
 30
0.0
 10
-25.61635199012369
 20
186.2323879200218
 30
0.0
 10
-19.14956325476122
 20
186.2323879200218
 30
0.0
 10
-13.90681694530802
 20
191.4744452103779
 30
0.0
 10
-13.90681694530802
 20
197.9412339457404
 30
0.0
  0
SPLINE
  5
6D
330
1F
100
AcDbEntity
  8
STANDARDEBENE
 62
     7
100
AcDbSpline
210
0.0
220
0.0
230
1.0
 70
    11
 71
     3
 72
    17
 73
    13
 74
     0
 42
0.0000000001
 43
0.0000000001
 40
0.0
 40
0.0
 40
0.0
 40
0.0
 40
1.0
 40
1.0
 40
1.0
 40
2.0
 40
2.0
 40
2.0
 40
3.0
 40
3.0
 40
3.0
 40
4.0
 40
4.0
 40
4.0
 40
4.0
 10
-4.116200085776506
 20
197.9412339457404
 30
0.0
 10
-4.116200085776506
 20
209.815444554751
 30
0.0
 10
-13.74214138111308
 20
219.440352321442
 30
0.0
 10
-25.61635199012369
 20
219.440352321442
 30
0.0
 10
-37.48952907048873
 20
219.440352321442
 30
0.0
 10
-47.11650389447087
 20
209.815444554751
 30
0.0
 10
-47.11650389447087
 20
197.9412339457404
 30
0.0
 10
-47.11650389447087
 20
186.0670233367298
 30
0.0
 10
-37.48952907048873
 20
176.4414265509417
 30
0.0
 10
-25.61635199012369
 20
176.4414265509417
 30
0.0
 10
-13.74214138111308
 20
176.4414265509417
 30
0.0
 10
-4.116200085776506
 20
186.0670233367298
 30
0.0
 10
-4.116200085776506
 20
197.9412339457404
 30
0.0
  0
SPLINE
  5
6E
330
1F
100
AcDbEntity
  8
STANDARDEBENE
 62
     7
100
AcDbSpline
210
0.0
220
0.0
230
1.0
 70
    11
 71
     3
 72
    17
 73
    13
 74
     0
 42
0.0000000001
 43
0.0000000001
 40
0.0
 40
0.0
 40
0.0
 40
0.0
 40
1.0
 40
1.0
 40
1.0
 40
2.0
 40
2.0
 40
2.0
 40
3.0
 40
3.0
 40
3.0
 40
4.0
 40
4.0
 40
4.0
 40
4.0
 10
-3.615972221318229
 20
197.9412339457404
 30
0.0
 10
-3.615972221318229
 20
210.091052193571
 30
0.0
 10
-13.46584472319604
 20
219.9409246954488
 30
0.0
 10
-25.61635199012369
 20
219.9409246954488
 30
0.0
 10
-37.76651474750282
 20
219.9409246954488
 30
0.0
 10
-47.6160427398321
 20
210.091052193571
 30
0.0
 10
-47.6160427398321
 20
197.9412339457404
 30
0.0
 10
-47.6160427398321
 20
185.7914156979098
 30
0.0
 10
-37.76651474750282
 20
175.9408541769349
 30
0.0
 10
-25.61635199012369
 20
175.9408541769349
 30
0.0
 10
-13.46584472319604
 20
175.9408541769349
 30
0.0
 10
-3.615972221318229
 20
185.7914156979098
 30
0.0
 10
-3.615972221318229
 20
197.9412339457404
 30
0.0
  0
SPLINE
  5
6F
330
1F
100
AcDbEntity
  8
STANDARDEBENE
 62
     7
100
AcDbSpline
210
0.0
220
0.0
230
1.0
 70
     8
 71
     3
 72
    11
 73
     7
 74
     0
 42
0.0000000001
 43
0.0000000001
 40
0.0
 40
0.0
 40
0.0
 40
0.0
 40
1.0
 40
1.0
 40
1.0
 40
2.0
 40
2.0
 40
2.0
 40
2.0
 10
-19.11580131900577
 20
197.9412339457404
 30
0.0
 10
-19.11580131900577
 20
201.5303344222737
 30
0.0
 10
-22.02621798494484
 20
204.4410955977613
 30
0.0
 10
-25.61635199012369
 20
204.4410955977613
 30
0.0
 10
-29.2057969762055
 20
204.4410955977613
 30
0.0
 10
-32.11586913259603
 20
201.5303344222737
 30
0.0
 10
-32.11586913259603
 20
197.9412339457404
 30
0.0
  0
SPLINE
  5
70
330
1F
100
AcDbEntity
  8
STANDARDEBENE
 62
     7
100
AcDbSpline
210
0.0
220
0.0
230
1.0
 70
    11
 71
     3
 72
    17
 73
    13
 74
     0
 42
0.0000000001
 43
0.0000000001
 40
0.0
 40
0.0
 40
0.0
 40
0.0
 40
1.0
 40
1.0
 40
1.0
 40
2.0
 40
2.0
 40
2.0
 40
3.0
 40
3.0
 40
3.0
 40
4.0
 40
4.0
 40
4.0
 40
4.0
 10
-18.6155734545475
 20
197.9412339457404
 30
0.0
 10
-18.6155734545475
 20
201.8073200992878
 30
0.0
 10
-21.75061034612485
 20
204.940978952671
 30
0.0
 10
-25.61635199012369
 20
204.940978952671
 30
0.0
 10
-29.48174912457401
 20
204.940978952671
 30
0.0
 10
-32.61575248750579
 20
201.8073200992878
 30
0.0
 10
-32.61575248750579
 20
197.9412339457404
 30
0.0
 10
-32.61575248750579
 20
194.075147792193
 30
0.0
 10
-29.48174912457401
 20
190.9407999197127
 30
0.0
 10
-25.61635199012369
 20
190.9407999197127
 30
0.0
 10
-21.75061034612485
 20
190.9407999197127
 30
0.0
 10
-18.6155734545475
 20
194.075147792193
 30
0.0
 10
-18.6155734545475
 20
197.9412339457404
 30
0.0
  0
SPLINE
  5
71
330
1F
100
AcDbEntity
  8
STANDARDEBENE
 62
     7
100
AcDbSpline
210
0.0
220
0.0
230
1.0
 70
     8
 71
     3
 72
    11
 73
     7
 74
     0
 42
0.0000000001
 43
0.0000000001
 40
0.0
 40
0.0
 40
0.0
 40
0.0
 40
1.0
 40
1.0
 40
1.0
 40
2.0
 40
2.0
 40
2.0
 40
2.0
 10
-32.11586913259603
 20
197.9412339457404
 30
0.0
 10
-32.11586913259603
 20
194.3514444501101
 30
0.0
 10
-29.2057969762055
 20
191.4406832746225
 30
0.0
 10
-25.61635199012369
 20
191.4406832746225
 30
0.0
 10
-22.02621798494484
 20
191.4406832746225
 30
0.0
 10
-19.11580131900577
 20
194.3514444501101
 30
0.0
 10
-19.11580131900577
 20
197.9412339457404
 30
0.0
  0
POLYLINE
  5
72
330
1F
100
AcDbEntity
  8
STANDARDEBENE
 62
     7
100
AcDb2dPolyline
 66
     1
 10
0.0
 20
0.0
 30
0.0
  0
VERTEX
  5
73
330
72
100
AcDbEntity
  8
STANDARDEBENE
 62
     7
100
AcDbVertex
100
AcDb2dVertex
 10
44.09756672074644
 20
175.9408541769349
 30
0.0
  0
VERTEX
  5
74
330
72
100
AcDbEntity
  8
STANDARDEBENE
 62
     7
100
AcDbVertex
100
AcDb2dVertex
 10
52.09776745659362
 20
175.9408541769349
 30
0.0
  0
SEQEND
  5
75
330
72
100
AcDbEntity
  8
STANDARDEBENE
  0
POLYLINE
  5
76
330
1F
100
AcDbEntity
  8
STANDARDEBENE
 62
     7
100
AcDb2dPolyline
 66
     1
 10
0.0
 20
0.0
 30
0.0
  0
VERTEX
  5
77
330
76
100
AcDbEntity
  8
STANDARDEBENE
 62
     7
100
AcDbVertex
100
AcDb2dVertex
 10
44.09756672074644
 20
219.9409246954488
 30
0.0
  0
VERTEX
  5
78
330
76
100
AcDbEntity
  8
STANDARDEBENE
 62
     7
100
AcDbVertex
100
AcDb2dVertex
 10
40.86434460783947
 20
219.5443942050966
 30
0.0
  0
SEQEND
  5
79
330
76
100
AcDbEntity
  8
STANDARDEBENE
  0
POLYLINE
  5
7A
330
1F
100
AcDbEntity
  8
STANDARDEBENE
 62
     7
100
AcDb2dPolyline
 66
     1
 10
0.0
 20
0.0
 30
0.0
  0
VERTEX
  5
7B
330
7A
100
AcDbEntity
  8
STANDARDEBENE
 62
     7
100
AcDbVertex
100
AcDb2dVertex
 10
40.86434460783947
 20
176.3380736863842
 30
0.0
  0
VERTEX
  5
7C
330
7A
100
AcDbEntity
  8
STANDARDEBENE
 62
     7
100
AcDbVertex
100
AcDb2dVertex
 10
44.09756672074644
 20
175.9408541769349
 30
0.0
  0
SEQEND
  5
7D
330
7A
100
AcDbEntity
  8
STANDARDEBENE
  0
POLYLINE
  5
7E
330
1F
100
AcDbEntity
  8
STANDARDEBENE
 62
     7
100
AcDb2dPolyline
 66
     1
 10
0.0
 20
0.0
 30
0.0
  0
VERTEX
  5
7F
330
7E
100
AcDbEntity
  8
STANDARDEBENE
 62
     7
100
AcDbVertex
100
AcDb2dVertex
 10
52.09776745659362
 20
219.9409246954488
 30
0.0
  0
VERTEX
  5
80
330
7E
100
AcDbEntity
  8
STANDARDEBENE
 62
     7
100
AcDbVertex
100
AcDb2dVertex
 10
44.09756672074644
 20
219.9409246954488
 30
0.0
  0
SEQEND
  5
81
330
7E
100
AcDbEntity
  8
STANDARDEBENE
  0
POLYLINE
  5
82
330
1F
100
AcDbEntity
  8
STANDARDEBENE
 62
     7
100
AcDb2dPolyline
 66
     1
 10
0.0
 20
0.0
 30
0.0
  0
VERTEX
  5
83
330
82
100
AcDbEntity
  8
STANDARDEBENE
 62
     7
100
AcDbVertex
100
AcDb2dVertex
 10
52.59799532105189
 20
219.440352321442
 30
0.0
  0
VERTEX
  5
84
330
82
100
AcDbEntity
  8
STANDARDEBENE
 62
     7
100
AcDbVertex
100
AcDb2dVertex
 10
52.09776745659362
 20
219.9409246954488
 30
0.0
  0
SEQEND
  5
85
330
82
100
AcDbEntity
  8
STANDARDEBENE
  0
POLYLINE
  5
86
330
1F
100
AcDbEntity
  8
STANDARDEBENE
 62
     7
100
AcDb2dPolyline
 66
     1
 10
0.0
 20
0.0
 30
0.0
  0
VERTEX
  5
87
330
86
100
AcDbEntity
  8
STANDARDEBENE
 62
     7
100
AcDbVertex
100
AcDb2dVertex
 10
52.09776745659362
 20
175.9408541769349
 30
0.0
  0
VERTEX
  5
88
330
86
100
AcDbEntity
  8
STANDARDEBENE
 62
     7
100
AcDbVertex
100
AcDb2dVertex
 10
52.59799532105189
 20
176.4414265509417
 30
0.0
  0
SEQEND
  5
89
330
86
100
AcDbEntity
  8
STANDARDEBENE
  0
POLYLINE
  5
8A
330
1F
100
AcDbEntity
  8
STANDARDEBENE
 62
     7
100
AcDb2dPolyline
 66
     1
 10
0.0
 20
0.0
 30
0.0
  0
VERTEX
  5
8B
330
8A
100
AcDbEntity
  8
STANDARDEBENE
 62
     7
100
AcDbVertex
100
AcDb2dVertex
 10
40.34241264182412
 20
176.0717678053744
 30
0.0
  0
VERTEX
  5
8C
330
8A
100
AcDbEntity
  8
STANDARDEBENE
 62
     7
100
AcDbVertex
100
AcDb2dVertex
 10
40.86434460783947
 20
176.3380736863842
 30
0.0
  0
SEQEND
  5
8D
330
8A
100
AcDbEntity
  8
STANDARDEBENE
  0
POLYLINE
  5
8E
330
1F
100
AcDbEntity
  8
STANDARDEBENE
 62
     7
100
AcDb2dPolyline
 66
     1
 10
0.0
 20
0.0
 30
0.0
  0
VERTEX
  5
8F
330
8E
100
AcDbEntity
  8
STANDARDEBENE
 62
     7
100
AcDbVertex
100
AcDb2dVertex
 10
40.86434460783947
 20
219.5443942050966
 30
0.0
  0
VERTEX
  5
90
330
8E
100
AcDbEntity
  8
STANDARDEBENE
 62
     7
100
AcDbVertex
100
AcDb2dVertex
 10
40.34241264182412
 20
219.8107000861064
 30
0.0
  0
SEQEND
  5
91
330
8E
100
AcDbEntity
  8
STANDARDEBENE
  0
POLYLINE
  5
92
330
1F
100
AcDbEntity
  8
STANDARDEBENE
 62
     7
100
AcDb2dPolyline
 66
     1
 10
0.0
 20
0.0
 30
0.0
  0
VERTEX
  5
93
330
92
100
AcDbEntity
  8
STANDARDEBENE
 62
     7
100
AcDbVertex
100
AcDb2dVertex
 10
53.09787867596165
 20
177.9414211252195
 30
0.0
  0
VERTEX
  5
94
330
92
100
AcDbEntity
  8
STANDARDEBENE
 62
     7
100
AcDbVertex
100
AcDb2dVertex
 10
56.09752331496868
 20
177.9414211252195
 30
0.0
  0
VERTEX
  5
95
330
92
100
AcDbEntity
  8
STANDARDEBENE
 62
     7
100
AcDbVertex
100
AcDb2dVertex
 10
56.59740666987843
 20
178.4406154610322
 30
0.0
  0
SEQEND
  5
96
330
92
100
AcDbEntity
  8
STANDARDEBENE
  0
POLYLINE
  5
97
330
1F
100
AcDbEntity
  8
STANDARDEBENE
 62
     7
100
AcDb2dPolyline
 66
     1
 10
0.0
 20
0.0
 30
0.0
  0
VERTEX
  5
98
330
97
100
AcDbEntity
  8
STANDARDEBENE
 62
     7
100
AcDbVertex
100
AcDb2dVertex
 10
56.09752331496868
 20
217.9410467662613
 30
0.0
  0
VERTEX
  5
99
330
97
100
AcDbEntity
  8
STANDARDEBENE
 62
     7
100
AcDbVertex
100
AcDb2dVertex
 10
53.09787867596165
 20
217.9410467662613
 30
0.0
  0
SEQEND
  5
9A
330
97
100
AcDbEntity
  8
STANDARDEBENE
  0
POLYLINE
  5
9B
330
1F
100
AcDbEntity
  8
STANDARDEBENE
 62
     7
100
AcDb2dPolyline
 66
     1
 10
0.0
 20
0.0
 30
0.0
  0
VERTEX
  5
9C
330
9B
100
AcDbEntity
  8
STANDARDEBENE
 62
     7
100
AcDbVertex
100
AcDb2dVertex
 10
56.59740666987843
 20
217.4411634113515
 30
0.0
  0
VERTEX
  5
9D
330
9B
100
AcDbEntity
  8
STANDARDEBENE
 62
     7
100
AcDbVertex
100
AcDb2dVertex
 10
56.09752331496868
 20
217.9410467662613
 30
0.0
  0
SEQEND
  5
9E
330
9B
100
AcDbEntity
  8
STANDARDEBENE
  0
POLYLINE
  5
9F
330
1F
100
AcDbEntity
  8
STANDARDEBENE
 62
     7
100
AcDb2dPolyline
 66
     1
 10
0.0
 20
0.0
 30
0.0
  0
VERTEX
  5
A0
330
9F
100
AcDbEntity
  8
STANDARDEBENE
 62
     7
100
AcDbVertex
100
AcDb2dVertex
 10
34.59771592017002
 20
202.1911037363446
 30
0.0
  0
VERTEX
  5
A1
330
9F
100
AcDbEntity
  8
STANDARDEBENE
 62
     7
100
AcDbVertex
100
AcDb2dVertex
 10
30.09773219733668
 20
202.1911037363446
 30
0.0
  0
SEQEND
  5
A2
330
9F
100
AcDbEntity
  8
STANDARDEBENE
  0
POLYLINE
  5
A3
330
1F
100
AcDbEntity
  8
STANDARDEBENE
 62
     7
100
AcDb2dPolyline
 66
     1
 10
0.0
 20
0.0
 30
0.0
  0
VERTEX
  5
A4
330
A3
100
AcDbEntity
  8
STANDARDEBENE
 62
     7
100
AcDbVertex
100
AcDb2dVertex
 10
30.09773219733668
 20
193.6913641551362
 30
0.0
  0
VERTEX
  5
A5
330
A3
100
AcDbEntity
  8
STANDARDEBENE
 62
     7
100
AcDbVertex
100
AcDb2dVertex
 10
34.59771592017002
 20
193.6913641551362
 30
0.0
  0
SEQEND
  5
A6
330
A3
100
AcDbEntity
  8
STANDARDEBENE
  0
POLYLINE
  5
A7
330
1F
100
AcDbEntity
  8
STANDARDEBENE
 62
     7
100
AcDb2dPolyline
 66
     1
 10
0.0
 20
0.0
 30
0.0
  0
VERTEX
  5
A8
330
A7
100
AcDbEntity
  8
STANDARDEBENE
 62
     7
100
AcDbVertex
100
AcDb2dVertex
 10
34.72725151041541
 20
195.2785196451908
 30
0.0
  0
VERTEX
  5
A9
330
A7
100
AcDbEntity
  8
STANDARDEBENE
 62
     7
100
AcDbVertex
100
AcDb2dVertex
 10
35.12722709625292
 20
195.4280367892506
 30
0.0
  0
SEQEND
  5
AA
330
A7
100
AcDbEntity
  8
STANDARDEBENE
  0
POLYLINE
  5
AB
330
1F
100
AcDbEntity
  8
STANDARDEBENE
 62
     7
100
AcDb2dPolyline
 66
     1
 10
0.0
 20
0.0
 30
0.0
  0
VERTEX
  5
AC
330
AB
100
AcDbEntity
  8
STANDARDEBENE
 62
     7
100
AcDbVertex
100
AcDb2dVertex
 10
35.12722709625292
 20
200.4537420831331
 30
0.0
  0
VERTEX
  5
AD
330
AB
100
AcDbEntity
  8
STANDARDEBENE
 62
     7
100
AcDbVertex
100
AcDb2dVertex
 10
34.72725151041541
 20
200.60394824629
 30
0.0
  0
SEQEND
  5
AE
330
AB
100
AcDbEntity
  8
STANDARDEBENE
  0
POLYLINE
  5
AF
330
1F
100
AcDbEntity
  8
STANDARDEBENE
 62
     7
100
AcDb2dPolyline
 66
     1
 10
0.0
 20
0.0
 30
0.0
  0
VERTEX
  5
B0
330
AF
100
AcDbEntity
  8
STANDARDEBENE
 62
     7
100
AcDbVertex
100
AcDb2dVertex
 10
35.19785155370054
 20
195.4414726616431
 30
0.0
  0
VERTEX
  5
B1
330
AF
100
AcDbEntity
  8
STANDARDEBENE
 62
     7
100
AcDbVertex
100
AcDb2dVertex
 10
38.59747177854508
 20
195.4414726616431
 30
0.0
  0
SEQEND
  5
B2
330
AF
100
AcDbEntity
  8
STANDARDEBENE
  0
POLYLINE
  5
B3
330
1F
100
AcDbEntity
  8
STANDARDEBENE
 62
     7
100
AcDb2dPolyline
 66
     1
 10
0.0
 20
0.0
 30
0.0
  0
VERTEX
  5
B4
330
B3
100
AcDbEntity
  8
STANDARDEBENE
 62
     7
100
AcDbVertex
100
AcDb2dVertex
 10
38.59747177854508
 20
200.4409952298377
 30
0.0
  0
VERTEX
  5
B5
330
B3
100
AcDbEntity
  8
STANDARDEBENE
 62
     7
100
AcDbVertex
100
AcDb2dVertex
 10
35.19785155370054
 20
200.4409952298377
 30
0.0
  0
SEQEND
  5
B6
330
B3
100
AcDbEntity
  8
STANDARDEBENE
  0
SPLINE
  5
B7
330
1F
100
AcDbEntity
  8
STANDARDEBENE
 62
     7
100
AcDbSpline
210
0.0
220
0.0
230
1.0
 70
     8
 71
     3
 72
    11
 73
     7
 74
     0
 42
0.0000000001
 43
0.0000000001
 40
0.0
 40
0.0
 40
0.0
 40
0.0
 40
1.0
 40
1.0
 40
1.0
 40
2.0
 40
2.0
 40
2.0
 40
2.0
 10
38.59747177854508
 20
177.1414699535445
 30
0.0
 10
38.59747177854508
 20
176.4782890726339
 30
0.0
 10
39.13456216469553
 20
175.9408541769349
 30
0.0
 10
39.79774304560612
 20
175.9408541769349
 30
0.0
 10
39.99618054555651
 20
175.9408541769349
 30
0.0
 10
40.18393824950263
 20
175.9897745328255
 30
0.0
 10
40.34241264182412
 20
176.0717678053744
 30
0.0
  0
POLYLINE
  5
B8
330
1F
100
AcDbEntity
  8
STANDARDEBENE
 62
     7
100
AcDb2dPolyline
 66
     1
 10
0.0
 20
0.0
 30
0.0
  0
VERTEX
  5
B9
330
B8
100
AcDbEntity
  8
STANDARDEBENE
 62
     7
100
AcDbVertex
100
AcDb2dVertex
 10
38.59747177854508
 20
177.1414699535445
 30
0.0
  0
VERTEX
  5
BA
330
B8
100
AcDbEntity
  8
STANDARDEBENE
 62
     7
100
AcDbVertex
100
AcDb2dVertex
 10
38.59747177854508
 20
177.2548135950092
 30
0.0
  0
VERTEX
  5
BB
330
B8
100
AcDbEntity
  8
STANDARDEBENE
 62
     7
100
AcDbVertex
100
AcDb2dVertex
 10
38.59747177854508
 20
177.5958780480489
 30
0.0
  0
VERTEX
  5
BC
330
B8
100
AcDbEntity
  8
STANDARDEBENE
 62
     7
100
AcDbVertex
100
AcDb2dVertex
 10
38.59747177854508
 20
178.1588066503388
 30
0.0
  0
VERTEX
  5
BD
330
B8
100
AcDbEntity
  8
STANDARDEBENE
 62
     7
100
AcDbVertex
100
AcDb2dVertex
 10
38.59747177854508
 20
178.9387762681993
 30
0.0
  0
VERTEX
  5
BE
330
B8
100
AcDbEntity
  8
STANDARDEBENE
 62
     7
100
AcDbVertex
100
AcDb2dVertex
 10
38.59747177854508
 20
179.9278631820146
 30
0.0
  0
VERTEX
  5
BF
330
B8
100
AcDbEntity
  8
STANDARDEBENE
 62
     7
100
AcDbVertex
100
AcDb2dVertex
 10
38.59747177854508
 20
181.113320538489
 30
0.0
  0
VERTEX
  5
C0
330
B8
100
AcDbEntity
  8
STANDARDEBENE
 62
     7
100
AcDbVertex
100
AcDb2dVertex
 10
38.59747177854508
 20
182.48412403207
 30
0.0
  0
VERTEX
  5
C1
330
B8
100
AcDbEntity
  8
STANDARDEBENE
 62
     7
100
AcDbVertex
100
AcDb2dVertex
 10
38.59747177854508
 20
184.023048185331
 30
0.0
  0
VERTEX
  5
C2
330
B8
100
AcDbEntity
  8
STANDARDEBENE
 62
     7
100
AcDbVertex
100
AcDb2dVertex
 10
38.59747177854508
 20
185.7149345781372
 30
0.0
  0
VERTEX
  5
C3
330
B8
100
AcDbEntity
  8
STANDARDEBENE
 62
     7
100
AcDbVertex
100
AcDb2dVertex
 10
38.59747177854508
 20
187.5415242044167
 30
0.0
  0
VERTEX
  5
C4
330
B8
100
AcDbEntity
  8
STANDARDEBENE
 62
     7
100
AcDbVertex
100
AcDb2dVertex
 10
38.59747177854508
 20
189.4807684530638
 30
0.0
  0
VERTEX
  5
C5
330
B8
100
AcDbEntity
  8
STANDARDEBENE
 62
     7
100
AcDbVertex
100
AcDb2dVertex
 10
38.59747177854508
 20
191.5140638084583
 30
0.0
  0
VERTEX
  5
C6
330
B8
100
AcDbEntity
  8
STANDARDEBENE
 62
     7
100
AcDbVertex
100
AcDb2dVertex
 10
38.59747177854508
 20
193.6166055831063
 30
0.0
  0
VERTEX
  5
C7
330
B8
100
AcDbEntity
  8
STANDARDEBENE
 62
     7
100
AcDbVertex
100
AcDb2dVertex
 10
38.59747177854508
 20
195.7670341849992
 30
0.0
  0
VERTEX
  5
C8
330
B8
100
AcDbEntity
  8
STANDARDEBENE
 62
     7
100
AcDbVertex
100
AcDb2dVertex
 10
38.59747177854508
 20
197.9412339457404
 30
0.0
  0
SEQEND
  5
C9
330
B8
100
AcDbEntity
  8
STANDARDEBENE
  0
SPLINE
  5
CA
330
1F
100
AcDbEntity
  8
STANDARDEBENE
 62
     7
100
AcDbSpline
210
0.0
220
0.0
230
1.0
 70
     8
 71
     3
 72
    11
 73
     7
 74
     0
 42
0.0000000001
 43
0.0000000001
 40
0.0
 40
0.0
 40
0.0
 40
0.0
 40
1.0
 40
1.0
 40
1.0
 40
2.0
 40
2.0
 40
2.0
 40
2.0
 10
40.34241264182412
 20
219.8107000861064
 30
0.0
 10
40.16499022433376
 20
219.9002725687229
 30
0.0
 10
39.97585448219354
 20
219.9426472431914
 30
0.0
 10
39.79774304560612
 20
219.9409246954488
 30
0.0
 10
39.13456216469553
 20
219.9409246954488
 30
0.0
 10
38.59747177854508
 20
219.4034897997498
 30
0.0
 10
38.59747177854508
 20
218.7406534283878
 30
0.0
  0
POLYLINE
  5
CB
330
1F
100
AcDbEntity
  8
STANDARDEBENE
 62
     7
100
AcDb2dPolyline
 66
     1
 10
0.0
 20
0.0
 30
0.0
  0
VERTEX
  5
CC
330
CB
100
AcDbEntity
  8
STANDARDEBENE
 62
     7
100
AcDbVertex
100
AcDb2dVertex
 10
38.59747177854508
 20
197.9412339457404
 30
0.0
  0
VERTEX
  5
CD
330
CB
100
AcDbEntity
  8
STANDARDEBENE
 62
     7
100
AcDbVertex
100
AcDb2dVertex
 10
38.59747177854508
 20
200.1154337064816
 30
0.0
  0
VERTEX
  5
CE
330
CB
100
AcDbEntity
  8
STANDARDEBENE
 62
     7
100
AcDbVertex
100
AcDb2dVertex
 10
38.59747177854508
 20
202.2651732892775
 30
0.0
  0
VERTEX
  5
CF
330
CB
100
AcDbEntity
  8
STANDARDEBENE
 62
     7
100
AcDbVertex
100
AcDb2dVertex
 10
38.59747177854508
 20
204.3684040830225
 30
0.0
  0
VERTEX
  5
D0
330
CB
100
AcDbEntity
  8
STANDARDEBENE
 62
     7
100
AcDbVertex
100
AcDb2dVertex
 10
38.59747177854508
 20
206.4010104193199
 30
0.0
  0
VERTEX
  5
D1
330
CB
100
AcDbEntity
  8
STANDARDEBENE
 62
     7
100
AcDbVertex
100
AcDb2dVertex
 10
38.59747177854508
 20
208.3409436870641
 30
0.0
  0
VERTEX
  5
D2
330
CB
100
AcDbEntity
  8
STANDARDEBENE
 62
     7
100
AcDbVertex
100
AcDb2dVertex
 10
38.59747177854508
 20
210.1668442942465
 30
0.0
  0
VERTEX
  5
D3
330
CB
100
AcDbEntity
  8
STANDARDEBENE
 62
     7
100
AcDbVertex
100
AcDb2dVertex
 10
38.59747177854508
 20
211.8594197061497
 30
0.0
  0
VERTEX
  5
D4
330
CB
100
AcDbEntity
  8
STANDARDEBENE
 62
     7
100
AcDbVertex
100
AcDb2dVertex
 10
38.59747177854508
 20
213.3983438594108
 30
0.0
  0
VERTEX
  5
D5
330
CB
100
AcDbEntity
  8
STANDARDEBENE
 62
     7
100
AcDbVertex
100
AcDb2dVertex
 10
38.59747177854508
 20
214.7688028434432
 30
0.0
  0
VERTEX
  5
D6
330
CB
100
AcDbEntity
  8
STANDARDEBENE
 62
     7
100
AcDbVertex
100
AcDb2dVertex
 10
38.59747177854508
 20
215.9539156903692
 30
0.0
  0
VERTEX
  5
D7
330
CB
100
AcDbEntity
  8
STANDARDEBENE
 62
     7
100
AcDbVertex
100
AcDb2dVertex
 10
38.59747177854508
 20
216.9430026041844
 30
0.0
  0
VERTEX
  5
D8
330
CB
100
AcDbEntity
  8
STANDARDEBENE
 62
     7
100
AcDbVertex
100
AcDb2dVertex
 10
38.59747177854508
 20
217.722972222045
 30
0.0
  0
VERTEX
  5
D9
330
CB
100
AcDbEntity
  8
STANDARDEBENE
 62
     7
100
AcDbVertex
100
AcDb2dVertex
 10
38.59747177854508
 20
218.2865898434318
 30
0.0
  0
VERTEX
  5
DA
330
CB
100
AcDbEntity
  8
STANDARDEBENE
 62
     7
100
AcDbVertex
100
AcDb2dVertex
 10
38.59747177854508
 20
218.626620767826
 30
0.0
  0
VERTEX
  5
DB
330
CB
100
AcDbEntity
  8
STANDARDEBENE
 62
     7
100
AcDbVertex
100
AcDb2dVertex
 10
38.59747177854508
 20
218.7406534283878
 30
0.0
  0
SEQEND
  5
DC
330
CB
100
AcDbEntity
  8
STANDARDEBENE
  0
POLYLINE
  5
DD
330
1F
100
AcDbEntity
  8
STANDARDEBENE
 62
     7
100
AcDb2dPolyline
 66
     1
 10
0.0
 20
0.0
 30
0.0
  0
VERTEX
  5
DE
330
DD
100
AcDbEntity
  8
STANDARDEBENE
 62
     7
100
AcDbVertex
100
AcDb2dVertex
 10
44.09756672074644
 20
197.9412339457404
 30
0.0
  0
VERTEX
  5
DF
330
DD
100
AcDbEntity
  8
STANDARDEBENE
 62
     7
100
AcDbVertex
100
AcDb2dVertex
 10
44.09756672074644
 20
195.784604171974
 30
0.0
  0
VERTEX
  5
E0
330
DD
100
AcDbEntity
  8
STANDARDEBENE
 62
     7
100
AcDbVertex
100
AcDb2dVertex
 10
44.09756672074644
 20
193.6493339902161
 30
0.0
  0
VERTEX
  5
E1
330
DD
100
AcDbEntity
  8
STANDARDEBENE
 62
     7
100
AcDbVertex
100
AcDb2dVertex
 10
44.09756672074644
 20
191.5547159351842
 30
0.0
  0
VERTEX
  5
E2
330
DD
100
AcDbEntity
  8
STANDARDEBENE
 62
     7
100
AcDbVertex
100
AcDb2dVertex
 10
44.09756672074644
 20
189.5221095988868
 30
0.0
  0
VERTEX
  5
E3
330
DD
100
AcDbEntity
  8
STANDARDEBENE
 62
     7
100
AcDbVertex
100
AcDb2dVertex
 10
44.09756672074644
 20
187.5701184969443
 30
0.0
  0
VERTEX
  5
E4
330
DD
100
AcDbEntity
  8
STANDARDEBENE
 62
     7
100
AcDbVertex
100
AcDb2dVertex
 10
44.09756672074644
 20
185.718724183171
 30
0.0
  0
VERTEX
  5
E5
330
DD
100
AcDbEntity
  8
STANDARDEBENE
 62
     7
100
AcDbVertex
100
AcDb2dVertex
 10
44.09756672074644
 20
183.9841186063477
 30
0.0
  0
VERTEX
  5
E6
330
DD
100
AcDbEntity
  8
STANDARDEBENE
 62
     7
100
AcDbVertex
100
AcDb2dVertex
 10
44.09756672074644
 20
182.3849052820948
 30
0.0
  0
VERTEX
  5
E7
330
DD
100
AcDbEntity
  8
STANDARDEBENE
 62
     7
100
AcDbVertex
100
AcDb2dVertex
 10
44.09756672074644
 20
180.9348645923531
 30
0.0
  0
VERTEX
  5
E8
330
DD
100
AcDbEntity
  8
STANDARDEBENE
 62
     7
100
AcDbVertex
100
AcDb2dVertex
 10
44.09756672074644
 20
179.6484659381608
 30
0.0
  0
VERTEX
  5
E9
330
DD
100
AcDbEntity
  8
STANDARDEBENE
 62
     7
100
AcDbVertex
100
AcDb2dVertex
 10
44.09756672074644
 20
178.5391451919104
 30
0.0
  0
VERTEX
  5
EA
330
DD
100
AcDbEntity
  8
STANDARDEBENE
 62
     7
100
AcDbVertex
100
AcDb2dVertex
 10
44.09756672074644
 20
177.6158596018634
 30
0.0
  0
VERTEX
  5
EB
330
DD
100
AcDbEntity
  8
STANDARDEBENE
 62
     7
100
AcDbVertex
100
AcDb2dVertex
 10
44.09756672074644
 20
176.8885999449272
 30
0.0
  0
VERTEX
  5
EC
330
DD
100
AcDbEntity
  8
STANDARDEBENE
 62
     7
100
AcDbVertex
100
AcDb2dVertex
 10
44.09756672074644
 20
176.3642564120721
 30
0.0
  0
VERTEX
  5
ED
330
DD
100
AcDbEntity
  8
STANDARDEBENE
 62
     7
100
AcDbVertex
100
AcDb2dVertex
 10
44.09756672074644
 20
176.0473076274291
 30
0.0
  0
VERTEX
  5
EE
330
DD
100
AcDbEntity
  8
STANDARDEBENE
 62
     7
100
AcDbVertex
100
AcDb2dVertex
 10
44.09756672074644
 20
175.9408541769349
 30
0.0
  0
SEQEND
  5
EF
330
DD
100
AcDbEntity
  8
STANDARDEBENE
  0
POLYLINE
  5
F0
330
1F
100
AcDbEntity
  8
STANDARDEBENE
 62
     7
100
AcDb2dPolyline
 66
     1
 10
0.0
 20
0.0
 30
0.0
  0
VERTEX
  5
F1
330
F0
100
AcDbEntity
  8
STANDARDEBENE
 62
     7
100
AcDbVertex
100
AcDb2dVertex
 10
52.09776745659362
 20
197.9412339457404
 30
0.0
  0
VERTEX
  5
F2
330
F0
100
AcDbEntity
  8
STANDARDEBENE
 62
     7
100
AcDbVertex
100
AcDb2dVertex
 10
52.09776745659362
 20
195.784604171974
 30
0.0
  0
VERTEX
  5
F3
330
F0
100
AcDbEntity
  8
STANDARDEBENE
 62
     7
100
AcDbVertex
100
AcDb2dVertex
 10
52.09776745659362
 20
193.6493339902161
 30
0.0
  0
VERTEX
  5
F4
330
F0
100
AcDbEntity
  8
STANDARDEBENE
 62
     7
100
AcDbVertex
100
AcDb2dVertex
 10
52.09776745659362
 20
191.5547159351842
 30
0.0
  0
VERTEX
  5
F5
330
F0
100
AcDbEntity
  8
STANDARDEBENE
 62
     7
100
AcDbVertex
100
AcDb2dVertex
 10
52.09776745659362
 20
189.5221095988868
 30
0.0
  0
VERTEX
  5
F6
330
F0
100
AcDbEntity
  8
STANDARDEBENE
 62
     7
100
AcDbVertex
100
AcDb2dVertex
 10
52.09776745659362
 20
187.5701184969443
 30
0.0
  0
VERTEX
  5
F7
330
F0
100
AcDbEntity
  8
STANDARDEBENE
 62
     7
100
AcDbVertex
100
AcDb2dVertex
 10
52.09776745659362
 20
185.718724183171
 30
0.0
  0
VERTEX
  5
F8
330
F0
100
AcDbEntity
  8
STANDARDEBENE
 62
     7
100
AcDbVertex
100
AcDb2dVertex
 10
52.09776745659362
 20
183.9841186063477
 30
0.0
  0
VERTEX
  5
F9
330
F0
100
AcDbEntity
  8
STANDARDEBENE
 62
     7
100
AcDbVertex
100
AcDb2dVertex
 10
52.09776745659362
 20
182.3849052820948
 30
0.0
  0
VERTEX
  5
FA
330
F0
100
AcDbEntity
  8
STANDARDEBENE
 62
     7
100
AcDbVertex
100
AcDb2dVertex
 10
52.09776745659362
 20
180.9348645923531
 30
0.0
  0
VERTEX
  5
FB
330
F0
100
AcDbEntity
  8
STANDARDEBENE
 62
     7
100
AcDbVertex
100
AcDb2dVertex
 10
52.09776745659362
 20
179.6484659381608
 30
0.0
  0
VERTEX
  5
FC
330
F0
100
AcDbEntity
  8
STANDARDEBENE
 62
     7
100
AcDbVertex
100
AcDb2dVertex
 10
52.09776745659362
 20
178.5391451919104
 30
0.0
  0
VERTEX
  5
FD
330
F0
100
AcDbEntity
  8
STANDARDEBENE
 62
     7
100
AcDbVertex
100
AcDb2dVertex
 10
52.09776745659362
 20
177.6158596018634
 30
0.0
  0
VERTEX
  5
FE
330
F0
100
AcDbEntity
  8
STANDARDEBENE
 62
     7
100
AcDbVertex
100
AcDb2dVertex
 10
52.09776745659362
 20
176.8885999449272
 30
0.0
  0
VERTEX
  5
FF
330
F0
100
AcDbEntity
  8
STANDARDEBENE
 62
     7
100
AcDbVertex
100
AcDb2dVertex
 10
52.09776745659362
 20
176.3642564120721
 30
0.0
  0
VERTEX
  5
100
330
F0
100
AcDbEntity
  8
STANDARDEBENE
 62
     7
100
AcDbVertex
100
AcDb2dVertex
 10
52.09776745659362
 20
176.0473076274291
 30
0.0
  0
VERTEX
  5
101
330
F0
100
AcDbEntity
  8
STANDARDEBENE
 62
     7
100
AcDbVertex
100
AcDb2dVertex
 10
52.09776745659362
 20
175.9408541769349
 30
0.0
  0
SEQEND
  5
102
330
F0
100
AcDbEntity
  8
STANDARDEBENE
  0
POLYLINE
  5
103
330
1F
100
AcDbEntity
  8
STANDARDEBENE
 62
     7
100
AcDb2dPolyline
 66
     1
 10
0.0
 20
0.0
 30
0.0
  0
VERTEX
  5
104
330
103
100
AcDbEntity
  8
STANDARDEBENE
 62
     7
100
AcDbVertex
100
AcDb2dVertex
 10
40.86434460783947
 20
219.5443942050966
 30
0.0
  0
VERTEX
  5
105
330
103
100
AcDbEntity
  8
STANDARDEBENE
 62
     7
100
AcDbVertex
100
AcDb2dVertex
 10
40.86434460783947
 20
219.440352321442
 30
0.0
  0
VERTEX
  5
106
330
103
100
AcDbEntity
  8
STANDARDEBENE
 62
     7
100
AcDbVertex
100
AcDb2dVertex
 10
40.86434460783947
 20
219.1292601991239
 30
0.0
  0
VERTEX
  5
107
330
103
100
AcDbEntity
  8
STANDARDEBENE
 62
     7
100
AcDbVertex
100
AcDb2dVertex
 10
40.86434460783947
 20
218.6142184240791
 30
0.0
  0
VERTEX
  5
108
330
103
100
AcDbEntity
  8
STANDARDEBENE
 62
     7
100
AcDbVertex
100
AcDb2dVertex
 10
40.86434460783947
 20
217.8997056204383
 30
0.0
  0
VERTEX
  5
109
330
103
100
AcDbEntity
  8
STANDARDEBENE
 62
     7
100
AcDbVertex
100
AcDb2dVertex
 10
40.86434460783947
 20
216.993300998269
 30
0.0
  0
VERTEX
  5
10A
330
103
100
AcDbEntity
  8
STANDARDEBENE
 62
     7
100
AcDbVertex
100
AcDb2dVertex
 10
40.86434460783947
 20
215.903272786736
 30
0.0
  0
VERTEX
  5
10B
330
103
100
AcDbEntity
  8
STANDARDEBENE
 62
     7
100
AcDbVertex
100
AcDb2dVertex
 10
40.86434460783947
 20
214.6406452913919
 30
0.0
  0
VERTEX
  5
10C
330
103
100
AcDbEntity
  8
STANDARDEBENE
 62
     7
100
AcDbVertex
100
AcDb2dVertex
 10
40.86434460783947
 20
213.2167873273382
 30
0.0
  0
VERTEX
  5
10D
330
103
100
AcDbEntity
  8
STANDARDEBENE
 62
     7
100
AcDbVertex
100
AcDb2dVertex
 10
40.86434460783947
 20
211.6458237860643
 30
0.0
  0
VERTEX
  5
10E
330
103
100
AcDbEntity
  8
STANDARDEBENE
 62
     7
100
AcDbVertex
100
AcDb2dVertex
 10
40.86434460783947
 20
209.9425685781567
 30
0.0
  0
VERTEX
  5
10F
330
103
100
AcDbEntity
  8
STANDARDEBENE
 62
     7
100
AcDbVertex
100
AcDb2dVertex
 10
40.86434460783947
 20
208.1249362001389
 30
0.0
  0
VERTEX
  5
110
330
103
100
AcDbEntity
  8
STANDARDEBENE
 62
     7
100
AcDbVertex
100
AcDb2dVertex
 10
40.86434460783947
 20
206.2080850721459
 30
0.0
  0
VERTEX
  5
111
330
103
100
AcDbEntity
  8
STANDARDEBENE
 62
     7
100
AcDbVertex
100
AcDb2dVertex
 10
40.86434460783947
 20
204.2119967479921
 30
0.0
  0
VERTEX
  5
112
330
103
100
AcDbEntity
  8
STANDARDEBENE
 62
     7
100
AcDbVertex
100
AcDb2dVertex
 10
40.86434460783947
 20
202.1556192528465
 30
0.0
  0
VERTEX
  5
113
330
103
100
AcDbEntity
  8
STANDARDEBENE
 62
     7
100
AcDbVertex
100
AcDb2dVertex
 10
40.86434460783947
 20
200.0582451214264
 30
0.0
  0
VERTEX
  5
114
330
103
100
AcDbEntity
  8
STANDARDEBENE
 62
     7
100
AcDbVertex
100
AcDb2dVertex
 10
40.86434460783947
 20
197.9412339457404
 30
0.0
  0
SEQEND
  5
115
330
103
100
AcDbEntity
  8
STANDARDEBENE
  0
POLYLINE
  5
116
330
1F
100
AcDbEntity
  8
STANDARDEBENE
 62
     7
100
AcDb2dPolyline
 66
     1
 10
0.0
 20
0.0
 30
0.0
  0
VERTEX
  5
117
330
116
100
AcDbEntity
  8
STANDARDEBENE
 62
     7
100
AcDbVertex
100
AcDb2dVertex
 10
44.09756672074644
 20
219.9409246954488
 30
0.0
  0
VERTEX
  5
118
330
116
100
AcDbEntity
  8
STANDARDEBENE
 62
     7
100
AcDbVertex
100
AcDb2dVertex
 10
44.09756672074644
 20
219.8351602640516
 30
0.0
  0
VERTEX
  5
119
330
116
100
AcDbEntity
  8
STANDARDEBENE
 62
     7
100
AcDbVertex
100
AcDb2dVertex
 10
44.09756672074644
 20
219.5189004985057
 30
0.0
  0
VERTEX
  5
11A
330
116
100
AcDbEntity
  8
STANDARDEBENE
 62
     7
100
AcDbVertex
100
AcDb2dVertex
 10
44.09756672074644
 20
218.9938679465536
 30
0.0
  0
VERTEX
  5
11B
330
116
100
AcDbEntity
  8
STANDARDEBENE
 62
     7
100
AcDbVertex
100
AcDb2dVertex
 10
44.09756672074644
 20
218.2666082896174
 30
0.0
  0
VERTEX
  5
11C
330
116
100
AcDbEntity
  8
STANDARDEBENE
 62
     7
100
AcDbVertex
100
AcDb2dVertex
 10
44.09756672074644
 20
217.3433226995704
 30
0.0
  0
VERTEX
  5
11D
330
116
100
AcDbEntity
  8
STANDARDEBENE
 62
     7
100
AcDbVertex
100
AcDb2dVertex
 10
44.09756672074644
 20
216.2333129342229
 30
0.0
  0
VERTEX
  5
11E
330
116
100
AcDbEntity
  8
STANDARDEBENE
 62
     7
100
AcDbVertex
100
AcDb2dVertex
 10
44.09756672074644
 20
214.9472587895792
 30
0.0
  0
VERTEX
  5
11F
330
116
100
AcDbEntity
  8
STANDARDEBENE
 62
     7
100
AcDbVertex
100
AcDb2dVertex
 10
44.09756672074644
 20
213.4972180998375
 30
0.0
  0
VERTEX
  5
120
330
116
100
AcDbEntity
  8
STANDARDEBENE
 62
     7
100
AcDbVertex
100
AcDb2dVertex
 10
44.09756672074644
 20
211.8983492851331
 30
0.0
  0
VERTEX
  5
121
330
116
100
AcDbEntity
  8
STANDARDEBENE
 62
     7
100
AcDbVertex
100
AcDb2dVertex
 10
44.09756672074644
 20
210.1630546892127
 30
0.0
  0
VERTEX
  5
122
330
116
100
AcDbEntity
  8
STANDARDEBENE
 62
     7
100
AcDbVertex
100
AcDb2dVertex
 10
44.09756672074644
 20
208.3116603754395
 30
0.0
  0
VERTEX
  5
123
330
116
100
AcDbEntity
  8
STANDARDEBENE
 62
     7
100
AcDbVertex
100
AcDb2dVertex
 10
44.09756672074644
 20
206.360358292594
 30
0.0
  0
VERTEX
  5
124
330
116
100
AcDbEntity
  8
STANDARDEBENE
 62
     7
100
AcDbVertex
100
AcDb2dVertex
 10
44.09756672074644
 20
204.3270629371995
 30
0.0
  0
VERTEX
  5
125
330
116
100
AcDbEntity
  8
STANDARDEBENE
 62
     7
100
AcDbVertex
100
AcDb2dVertex
 10
44.09756672074644
 20
202.2331339012646
 30
0.0
  0
VERTEX
  5
126
330
116
100
AcDbEntity
  8
STANDARDEBENE
 62
     7
100
AcDbVertex
100
AcDb2dVertex
 10
44.09756672074644
 20
200.0971747004097
 30
0.0
  0
VERTEX
  5
127
330
116
100
AcDbEntity
  8
STANDARDEBENE
 62
     7
100
AcDbVertex
100
AcDb2dVertex
 10
44.09756672074644
 20
197.9412339457404
 30
0.0
  0
SEQEND
  5
128
330
116
100
AcDbEntity
  8
STANDARDEBENE
  0
POLYLINE
  5
129
330
1F
100
AcDbEntity
  8
STANDARDEBENE
 62
     7
100
AcDb2dPolyline
 66
     1
 10
0.0
 20
0.0
 30
0.0
  0
VERTEX
  5
12A
330
129
100
AcDbEntity
  8
STANDARDEBENE
 62
     7
100
AcDbVertex
100
AcDb2dVertex
 10
40.86434460783947
 20
197.9412339457404
 30
0.0
  0
VERTEX
  5
12B
330
129
100
AcDbEntity
  8
STANDARDEBENE
 62
     7
100
AcDbVertex
100
AcDb2dVertex
 10
40.86434460783947
 20
195.8235337509573
 30
0.0
  0
VERTEX
  5
12C
330
129
100
AcDbEntity
  8
STANDARDEBENE
 62
     7
100
AcDbVertex
100
AcDb2dVertex
 10
40.86434460783947
 20
193.7268486386343
 30
0.0
  0
VERTEX
  5
12D
330
129
100
AcDbEntity
  8
STANDARDEBENE
 62
     7
100
AcDbVertex
100
AcDb2dVertex
 10
40.86434460783947
 20
191.6697821243916
 30
0.0
  0
VERTEX
  5
12E
330
129
100
AcDbEntity
  8
STANDARDEBENE
 62
     7
100
AcDbVertex
100
AcDb2dVertex
 10
40.86434460783947
 20
189.6736938002378
 30
0.0
  0
VERTEX
  5
12F
330
129
100
AcDbEntity
  8
STANDARDEBENE
 62
     7
100
AcDbVertex
100
AcDb2dVertex
 10
40.86434460783947
 20
187.7575316913419
 30
0.0
  0
VERTEX
  5
130
330
129
100
AcDbEntity
  8
STANDARDEBENE
 62
     7
100
AcDbVertex
100
AcDb2dVertex
 10
40.86434460783947
 20
185.939210294227
 30
0.0
  0
VERTEX
  5
131
330
129
100
AcDbEntity
  8
STANDARDEBENE
 62
     7
100
AcDbVertex
100
AcDb2dVertex
 10
40.86434460783947
 20
184.2359550863195
 30
0.0
  0
VERTEX
  5
132
330
129
100
AcDbEntity
  8
STANDARDEBENE
 62
     7
100
AcDbVertex
100
AcDb2dVertex
 10
40.86434460783947
 20
182.6656805641426
 30
0.0
  0
VERTEX
  5
133
330
129
100
AcDbEntity
  8
STANDARDEBENE
 62
     7
100
AcDbVertex
100
AcDb2dVertex
 10
40.86434460783947
 20
181.2418226000889
 30
0.0
  0
VERTEX
  5
134
330
129
100
AcDbEntity
  8
STANDARDEBENE
 62
     7
100
AcDbVertex
100
AcDb2dVertex
 10
40.86434460783947
 20
179.9791951047448
 30
0.0
  0
VERTEX
  5
135
330
129
100
AcDbEntity
  8
STANDARDEBENE
 62
     7
100
AcDbVertex
100
AcDb2dVertex
 10
40.86434460783947
 20
178.8884778741147
 30
0.0
  0
VERTEX
  5
136
330
129
100
AcDbEntity
  8
STANDARDEBENE
 62
     7
100
AcDbVertex
100
AcDb2dVertex
 10
40.86434460783947
 20
177.9827622710425
 30
0.0
  0
VERTEX
  5
137
330
129
100
AcDbEntity
  8
STANDARDEBENE
 62
     7
100
AcDbVertex
100
AcDb2dVertex
 10
40.86434460783947
 20
177.2682494674017
 30
0.0
  0
VERTEX
  5
138
330
129
100
AcDbEntity
  8
STANDARDEBENE
 62
     7
100
AcDbVertex
100
AcDb2dVertex
 10
40.86434460783947
 20
176.7525186732598
 30
0.0
  0
VERTEX
  5
139
330
129
100
AcDbEntity
  8
STANDARDEBENE
 62
     7
100
AcDbVertex
100
AcDb2dVertex
 10
40.86434460783947
 20
176.4417710604903
 30
0.0
  0
VERTEX
  5
13A
330
129
100
AcDbEntity
  8
STANDARDEBENE
 62
     7
100
AcDbVertex
100
AcDb2dVertex
 10
40.86434460783947
 20
176.3380736863842
 30
0.0
  0
SEQEND
  5
13B
330
129
100
AcDbEntity
  8
STANDARDEBENE
  0
POLYLINE
  5
13C
330
1F
100
AcDbEntity
  8
STANDARDEBENE
 62
     7
100
AcDb2dPolyline
 66
     1
 10
0.0
 20
0.0
 30
0.0
  0
VERTEX
  5
13D
330
13C
100
AcDbEntity
  8
STANDARDEBENE
 62
     7
100
AcDbVertex
100
AcDb2dVertex
 10
52.09776745659362
 20
219.9409246954488
 30
0.0
  0
VERTEX
  5
13E
330
13C
100
AcDbEntity
  8
STANDARDEBENE
 62
     7
100
AcDbVertex
100
AcDb2dVertex
 10
52.09776745659362
 20
219.8351602640516
 30
0.0
  0
VERTEX
  5
13F
330
13C
100
AcDbEntity
  8
STANDARDEBENE
 62
     7
100
AcDbVertex
100
AcDb2dVertex
 10
52.09776745659362
 20
219.5189004985057
 30
0.0
  0
VERTEX
  5
140
330
13C
100
AcDbEntity
  8
STANDARDEBENE
 62
     7
100
AcDbVertex
100
AcDb2dVertex
 10
52.09776745659362
 20
218.9938679465536
 30
0.0
  0
VERTEX
  5
141
330
13C
100
AcDbEntity
  8
STANDARDEBENE
 62
     7
100
AcDbVertex
100
AcDb2dVertex
 10
52.09776745659362
 20
218.2666082896174
 30
0.0
  0
VERTEX
  5
142
330
13C
100
AcDbEntity
  8
STANDARDEBENE
 62
     7
100
AcDbVertex
100
AcDb2dVertex
 10
52.09776745659362
 20
217.3433226995704
 30
0.0
  0
VERTEX
  5
143
330
13C
100
AcDbEntity
  8
STANDARDEBENE
 62
     7
100
AcDbVertex
100
AcDb2dVertex
 10
52.09776745659362
 20
216.2333129342229
 30
0.0
  0
VERTEX
  5
144
330
13C
100
AcDbEntity
  8
STANDARDEBENE
 62
     7
100
AcDbVertex
100
AcDb2dVertex
 10
52.09776745659362
 20
214.9472587895792
 30
0.0
  0
VERTEX
  5
145
330
13C
100
AcDbEntity
  8
STANDARDEBENE
 62
     7
100
AcDbVertex
100
AcDb2dVertex
 10
52.09776745659362
 20
213.4972180998375
 30
0.0
  0
VERTEX
  5
146
330
13C
100
AcDbEntity
  8
STANDARDEBENE
 62
     7
100
AcDbVertex
100
AcDb2dVertex
 10
52.09776745659362
 20
211.8983492851331
 30
0.0
  0
VERTEX
  5
147
330
13C
100
AcDbEntity
  8
STANDARDEBENE
 62
     7
100
AcDbVertex
100
AcDb2dVertex
 10
52.09776745659362
 20
210.1630546892127
 30
0.0
  0
VERTEX
  5
148
330
13C
100
AcDbEntity
  8
STANDARDEBENE
 62
     7
100
AcDbVertex
100
AcDb2dVertex
 10
52.09776745659362
 20
208.3116603754395
 30
0.0
  0
VERTEX
  5
149
330
13C
100
AcDbEntity
  8
STANDARDEBENE
 62
     7
100
AcDbVertex
100
AcDb2dVertex
 10
52.09776745659362
 20
206.360358292594
 30
0.0
  0
VERTEX
  5
14A
330
13C
100
AcDbEntity
  8
STANDARDEBENE
 62
     7
100
AcDbVertex
100
AcDb2dVertex
 10
52.09776745659362
 20
204.3270629371995
 30
0.0
  0
VERTEX
  5
14B
330
13C
100
AcDbEntity
  8
STANDARDEBENE
 62
     7
100
AcDbVertex
100
AcDb2dVertex
 10
52.09776745659362
 20
202.2331339012646
 30
0.0
  0
VERTEX
  5
14C
330
13C
100
AcDbEntity
  8
STANDARDEBENE
 62
     7
100
AcDbVertex
100
AcDb2dVertex
 10
52.09776745659362
 20
200.0971747004097
 30
0.0
  0
VERTEX
  5
14D
330
13C
100
AcDbEntity
  8
STANDARDEBENE
 62
     7
100
AcDbVertex
100
AcDb2dVertex
 10
52.09776745659362
 20
197.9412339457404
 30
0.0
  0
SEQEND
  5
14E
330
13C
100
AcDbEntity
  8
STANDARDEBENE
  0
POLYLINE
  5
14F
330
1F
100
AcDbEntity
  8
STANDARDEBENE
 62
     7
100
AcDb2dPolyline
 66
     1
 10
0.0
 20
0.0
 30
0.0
  0
VERTEX
  5
150
330
14F
100
AcDbEntity
  8
STANDARDEBENE
 62
     7
100
AcDbVertex
100
AcDb2dVertex
 10
52.59799532105189
 20
219.440352321442
 30
0.0
  0
VERTEX
  5
151
330
14F
100
AcDbEntity
  8
STANDARDEBENE
 62
     7
100
AcDbVertex
100
AcDb2dVertex
 10
52.59799532105189
 20
219.3369994568845
 30
0.0
  0
VERTEX
  5
152
330
14F
100
AcDbEntity
  8
STANDARDEBENE
 62
     7
100
AcDbVertex
100
AcDb2dVertex
 10
52.59799532105189
 20
219.0276298823091
 30
0.0
  0
VERTEX
  5
153
330
14F
100
AcDbEntity
  8
STANDARDEBENE
 62
     7
100
AcDbVertex
100
AcDb2dVertex
 10
52.59799532105189
 20
218.5153441836524
 30
0.0
  0
VERTEX
  5
154
330
14F
100
AcDbEntity
  8
STANDARDEBENE
 62
     7
100
AcDbVertex
100
AcDb2dVertex
 10
52.59799532105189
 20
217.8042764754969
 30
0.0
  0
VERTEX
  5
155
330
14F
100
AcDbEntity
  8
STANDARDEBENE
 62
     7
100
AcDbVertex
100
AcDb2dVertex
 10
52.59799532105189
 20
216.9023504774584
 30
0.0
  0
VERTEX
  5
156
330
14F
100
AcDbEntity
  8
STANDARDEBENE
 62
     7
100
AcDbVertex
100
AcDb2dVertex
 10
52.59799532105189
 20
215.8174899091533
 30
0.0
  0
VERTEX
  5
157
330
14F
100
AcDbEntity
  8
STANDARDEBENE
 62
     7
100
AcDbVertex
100
AcDb2dVertex
 10
52.59799532105189
 20
214.5610635856827
 30
0.0
  0
VERTEX
  5
158
330
14F
100
AcDbEntity
  8
STANDARDEBENE
 62
     7
100
AcDbVertex
100
AcDb2dVertex
 10
52.59799532105189
 20
213.1434067935024
 30
0.0
  0
VERTEX
  5
159
330
14F
100
AcDbEntity
  8
STANDARDEBENE
 62
     7
100
AcDbVertex
100
AcDb2dVertex
 10
52.59799532105189
 20
211.580711481393
 30
0.0
  0
VERTEX
  5
15A
330
14F
100
AcDbEntity
  8
STANDARDEBENE
 62
     7
100
AcDbVertex
100
AcDb2dVertex
 10
52.59799532105189
 20
209.8857245026501
 30
0.0
  0
VERTEX
  5
15B
330
14F
100
AcDbEntity
  8
STANDARDEBENE
 62
     7
100
AcDbVertex
100
AcDb2dVertex
 10
52.59799532105189
 20
208.0760158442484
 30
0.0
  0
VERTEX
  5
15C
330
14F
100
AcDbEntity
  8
STANDARDEBENE
 62
     7
100
AcDbVertex
100
AcDb2dVertex
 10
52.59799532105189
 20
206.1688109836141
 30
0.0
  0
VERTEX
  5
15D
330
14F
100
AcDbEntity
  8
STANDARDEBENE
 62
     7
100
AcDbVertex
100
AcDb2dVertex
 10
52.59799532105189
 20
204.181679907722
 30
0.0
  0
VERTEX
  5
15E
330
14F
100
AcDbEntity
  8
STANDARDEBENE
 62
     7
100
AcDbVertex
100
AcDb2dVertex
 10
52.59799532105189
 20
202.1352931894835
 30
0.0
  0
VERTEX
  5
15F
330
14F
100
AcDbEntity
  8
STANDARDEBENE
 62
     7
100
AcDbVertex
100
AcDb2dVertex
 10
52.59799532105189
 20
200.0482543445192
 30
0.0
  0
VERTEX
  5
160
330
14F
100
AcDbEntity
  8
STANDARDEBENE
 62
     7
100
AcDbVertex
100
AcDb2dVertex
 10
52.59799532105189
 20
197.9412339457404
 30
0.0
  0
VERTEX
  5
161
330
14F
100
AcDbEntity
  8
STANDARDEBENE
 62
     7
100
AcDbVertex
100
AcDb2dVertex
 10
52.59799532105189
 20
195.8335245278645
 30
0.0
  0
VERTEX
  5
162
330
14F
100
AcDbEntity
  8
STANDARDEBENE
 62
     7
100
AcDbVertex
100
AcDb2dVertex
 10
52.59799532105189
 20
193.7468301924487
 30
0.0
  0
VERTEX
  5
163
330
14F
100
AcDbEntity
  8
STANDARDEBENE
 62
     7
100
AcDbVertex
100
AcDb2dVertex
 10
52.59799532105189
 20
191.7000989646618
 30
0.0
  0
VERTEX
  5
164
330
14F
100
AcDbEntity
  8
STANDARDEBENE
 62
     7
100
AcDbVertex
100
AcDb2dVertex
 10
52.59799532105189
 20
189.7136569078667
 30
0.0
  0
VERTEX
  5
165
330
14F
100
AcDbEntity
  8
STANDARDEBENE
 62
     7
100
AcDbVertex
100
AcDb2dVertex
 10
52.59799532105189
 20
187.8064520472324
 30
0.0
  0
VERTEX
  5
166
330
14F
100
AcDbEntity
  8
STANDARDEBENE
 62
     7
100
AcDbVertex
100
AcDb2dVertex
 10
52.59799532105189
 20
185.9960543697336
 30
0.0
  0
VERTEX
  5
167
330
14F
100
AcDbEntity
  8
STANDARDEBENE
 62
     7
100
AcDbVertex
100
AcDb2dVertex
 10
52.59799532105189
 20
184.3017564100878
 30
0.0
  0
VERTEX
  5
168
330
14F
100
AcDbEntity
  8
STANDARDEBENE
 62
     7
100
AcDbVertex
100
AcDb2dVertex
 10
52.59799532105189
 20
182.7383720788814
 30
0.0
  0
VERTEX
  5
169
330
14F
100
AcDbEntity
  8
STANDARDEBENE
 62
     7
100
AcDbVertex
100
AcDb2dVertex
 10
52.59799532105189
 20
181.3214043057981
 30
0.0
  0
VERTEX
  5
16A
330
14F
100
AcDbEntity
  8
STANDARDEBENE
 62
     7
100
AcDbVertex
100
AcDb2dVertex
 10
52.59799532105189
 20
180.0649779823275
 30
0.0
  0
VERTEX
  5
16B
330
14F
100
AcDbEntity
  8
STANDARDEBENE
 62
     7
100
AcDbVertex
100
AcDb2dVertex
 10
52.59799532105189
 20
178.9801174140223
 30
0.0
  0
VERTEX
  5
16C
330
14F
100
AcDbEntity
  8
STANDARDEBENE
 62
     7
100
AcDbVertex
100
AcDb2dVertex
 10
52.59799532105189
 20
178.0775023968869
 30
0.0
  0
VERTEX
  5
16D
330
14F
100
AcDbEntity
  8
STANDARDEBENE
 62
     7
100
AcDbVertex
100
AcDb2dVertex
 10
52.59799532105189
 20
177.3671237078284
 30
0.0
  0
VERTEX
  5
16E
330
14F
100
AcDbEntity
  8
STANDARDEBENE
 62
     7
100
AcDbVertex
100
AcDb2dVertex
 10
52.59799532105189
 20
176.8548380091717
 30
0.0
  0
VERTEX
  5
16F
330
14F
100
AcDbEntity
  8
STANDARDEBENE
 62
     7
100
AcDbVertex
100
AcDb2dVertex
 10
52.59799532105189
 20
176.5447794154992
 30
0.0
  0
VERTEX
  5
170
330
14F
100
AcDbEntity
  8
STANDARDEBENE
 62
     7
100
AcDbVertex
100
AcDb2dVertex
 10
52.59799532105189
 20
176.4414265509417
 30
0.0
  0
SEQEND
  5
171
330
14F
100
AcDbEntity
  8
STANDARDEBENE
  0
SPLINE
  5
172
330
1F
100
AcDbEntity
  8
STANDARDEBENE
 62
     7
100
AcDbSpline
210
0.0
220
0.0
230
1.0
 70
     8
 71
     3
 72
     8
 73
     4
 74
     0
 42
0.0000000001
 43
0.0000000001
 40
0.0
 40
0.0
 40
0.0
 40
0.0
 40
1.0
 40
1.0
 40
1.0
 40
1.0
 10
52.59799532105189
 20
218.4412746307196
 30
0.0
 10
52.59799532105189
 20
218.1649779728025
 30
0.0
 10
52.82158201804461
 20
217.9410467662613
 30
0.0
 10
53.09787867596165
 20
217.9410467662613
 30
0.0
  0
SPLINE
  5
173
330
1F
100
AcDbEntity
  8
STANDARDEBENE
 62
     7
100
AcDbSpline
210
0.0
220
0.0
230
1.0
 70
     8
 71
     3
 72
     8
 73
     4
 74
     0
 42
0.0000000001
 43
0.0000000001
 40
0.0
 40
0.0
 40
0.0
 40
0.0
 40
1.0
 40
1.0
 40
1.0
 40
1.0
 10
53.09787867596165
 20
177.9414211252195
 30
0.0
 10
52.82158201804461
 20
177.9414211252195
 30
0.0
 10
52.59799532105189
 20
177.7171454091298
 30
0.0
 10
52.59799532105189
 20
177.4408487512127
 30
0.0
  0
POLYLINE
  5
174
330
1F
100
AcDbEntity
  8
STANDARDEBENE
 62
     7
100
AcDb2dPolyline
 66
     1
 10
0.0
 20
0.0
 30
0.0
  0
VERTEX
  5
175
330
174
100
AcDbEntity
  8
STANDARDEBENE
 62
     7
100
AcDbVertex
100
AcDb2dVertex
 10
56.09752331496868
 20
197.9412339457404
 30
0.0
  0
VERTEX
  5
176
330
174
100
AcDbEntity
  8
STANDARDEBENE
 62
     7
100
AcDbVertex
100
AcDb2dVertex
 10
56.09752331496868
 20
195.8504054957423
 30
0.0
  0
VERTEX
  5
177
330
174
100
AcDbEntity
  8
STANDARDEBENE
 62
     7
100
AcDbVertex
100
AcDb2dVertex
 10
56.09752331496868
 20
193.7826591854953
 30
0.0
  0
VERTEX
  5
178
330
174
100
AcDbEntity
  8
STANDARDEBENE
 62
     7
100
AcDbVertex
100
AcDb2dVertex
 10
56.09752331496868
 20
191.7607326452022
 30
0.0
  0
VERTEX
  5
179
330
174
100
AcDbEntity
  8
STANDARDEBENE
 62
     7
100
AcDbVertex
100
AcDb2dVertex
 10
56.09752331496868
 20
189.80632997642
 30
0.0
  0
VERTEX
  5
17A
330
174
100
AcDbEntity
  8
STANDARDEBENE
 62
     7
100
AcDbVertex
100
AcDb2dVertex
 10
56.09752331496868
 20
187.9411552807057
 30
0.0
  0
VERTEX
  5
17B
330
174
100
AcDbEntity
  8
STANDARDEBENE
 62
     7
100
AcDbVertex
100
AcDb2dVertex
 10
56.09752331496868
 20
186.1851901118739
 30
0.0
  0
VERTEX
  5
17C
330
174
100
AcDbEntity
  8
STANDARDEBENE
 62
     7
100
AcDbVertex
100
AcDb2dVertex
 10
56.09752331496868
 20
184.5584160237389
 30
0.0
  0
VERTEX
  5
17D
330
174
100
AcDbEntity
  8
STANDARDEBENE
 62
     7
100
AcDbVertex
100
AcDb2dVertex
 10
56.09752331496868
 20
183.0784030032756
 30
0.0
  0
VERTEX
  5
17E
330
174
100
AcDbEntity
  8
STANDARDEBENE
 62
     7
100
AcDbVertex
100
AcDb2dVertex
 10
56.09752331496868
 20
181.7606539801675
 30
0.0
  0
VERTEX
  5
17F
330
174
100
AcDbEntity
  8
STANDARDEBENE
 62
     7
100
AcDbVertex
100
AcDb2dVertex
 10
56.09752331496868
 20
180.6206718840983
 30
0.0
  0
VERTEX
  5
180
330
174
100
AcDbEntity
  8
STANDARDEBENE
 62
     7
100
AcDbVertex
100
AcDb2dVertex
 10
56.09752331496868
 20
179.6701700397179
 30
0.0
  0
VERTEX
  5
181
330
174
100
AcDbEntity
  8
STANDARDEBENE
 62
     7
100
AcDbVertex
100
AcDb2dVertex
 10
56.09752331496868
 20
178.9198282430305
 30
0.0
  0
VERTEX
  5
182
330
174
100
AcDbEntity
  8
STANDARDEBENE
 62
     7
100
AcDbVertex
100
AcDb2dVertex
 10
56.09752331496868
 20
178.3779147232007
 30
0.0
  0
VERTEX
  5
183
330
174
100
AcDbEntity
  8
STANDARDEBENE
 62
     7
100
AcDbVertex
100
AcDb2dVertex
 10
56.09752331496868
 20
178.0506306521019
 30
0.0
  0
VERTEX
  5
184
330
174
100
AcDbEntity
  8
STANDARDEBENE
 62
     7
100
AcDbVertex
100
AcDb2dVertex
 10
56.09752331496868
 20
177.9414211252195
 30
0.0
  0
SEQEND
  5
185
330
174
100
AcDbEntity
  8
STANDARDEBENE
  0
POLYLINE
  5
186
330
1F
100
AcDbEntity
  8
STANDARDEBENE
 62
     7
100
AcDb2dPolyline
 66
     1
 10
0.0
 20
0.0
 30
0.0
  0
VERTEX
  5
187
330
186
100
AcDbEntity
  8
STANDARDEBENE
 62
     7
100
AcDbVertex
100
AcDb2dVertex
 10
56.59740666987843
 20
178.4406154610322
 30
0.0
  0
VERTEX
  5
188
330
186
100
AcDbEntity
  8
STANDARDEBENE
 62
     7
100
AcDbVertex
100
AcDb2dVertex
 10
56.59740666987843
 20
178.5477579306235
 30
0.0
  0
VERTEX
  5
189
330
186
100
AcDbEntity
  8
STANDARDEBENE
 62
     7
100
AcDbVertex
100
AcDb2dVertex
 10
56.59740666987843
 20
178.8671182821061
 30
0.0
  0
VERTEX
  5
18A
330
186
100
AcDbEntity
  8
STANDARDEBENE
 62
     7
100
AcDbVertex
100
AcDb2dVertex
 10
56.59740666987843
 20
179.3952514199949
 30
0.0
  0
VERTEX
  5
18B
330
186
100
AcDbEntity
  8
STANDARDEBENE
 62
     7
100
AcDbVertex
100
AcDb2dVertex
 10
56.59740666987843
 20
180.126989701062
 30
0.0
  0
VERTEX
  5
18C
330
186
100
AcDbEntity
  8
STANDARDEBENE
 62
     7
100
AcDbVertex
100
AcDb2dVertex
 10
56.59740666987843
 20
181.0540648961427
 30
0.0
  0
VERTEX
  5
18D
330
186
100
AcDbEntity
  8
STANDARDEBENE
 62
     7
100
AcDbVertex
100
AcDb2dVertex
 10
56.59740666987843
 20
182.1651081901358
 30
0.0
  0
VERTEX
  5
18E
330
186
100
AcDbEntity
  8
STANDARDEBENE
 62
     7
100
AcDbVertex
100
AcDb2dVertex
 10
56.59740666987843
 20
183.4497842965855
 30
0.0
  0
VERTEX
  5
18F
330
186
100
AcDbEntity
  8
STANDARDEBENE
 62
     7
100
AcDbVertex
100
AcDb2dVertex
 10
56.59740666987843
 20
184.8929347953566
 30
0.0
  0
VERTEX
  5
190
330
186
100
AcDbEntity
  8
STANDARDEBENE
 62
     7
100
AcDbVertex
100
AcDb2dVertex
 10
56.59740666987843
 20
186.4790567567657
 30
0.0
  0
VERTEX
  5
191
330
186
100
AcDbEntity
  8
STANDARDEBENE
 62
     7
100
AcDbVertex
100
AcDb2dVertex
 10
56.59740666987843
 20
188.1909247033863
 30
0.0
  0
VERTEX
  5
192
330
186
100
AcDbEntity
  8
STANDARDEBENE
 62
     7
100
AcDbVertex
100
AcDb2dVertex
 10
56.59740666987843
 20
190.0092461005012
 30
0.0
  0
VERTEX
  5
193
330
186
100
AcDbEntity
  8
STANDARDEBENE
 62
     7
100
AcDbVertex
100
AcDb2dVertex
 10
56.59740666987843
 20
191.9154174324899
 30
0.0
  0
VERTEX
  5
194
330
186
100
AcDbEntity
  8
STANDARDEBENE
 62
     7
100
AcDbVertex
100
AcDb2dVertex
 10
56.59740666987843
 20
193.8867010691499
 30
0.0
  0
VERTEX
  5
195
330
186
100
AcDbEntity
  8
STANDARDEBENE
 62
     7
100
AcDbVertex
100
AcDb2dVertex
 10
56.59740666987843
 20
195.9031154566666
 30
0.0
  0
VERTEX
  5
196
330
186
100
AcDbEntity
  8
STANDARDEBENE
 62
     7
100
AcDbVertex
100
AcDb2dVertex
 10
56.59740666987843
 20
197.9412339457404
 30
0.0
  0
SEQEND
  5
197
330
186
100
AcDbEntity
  8
STANDARDEBENE
  0
POLYLINE
  5
198
330
1F
100
AcDbEntity
  8
STANDARDEBENE
 62
     7
100
AcDb2dPolyline
 66
     1
 10
0.0
 20
0.0
 30
0.0
  0
VERTEX
  5
199
330
198
100
AcDbEntity
  8
STANDARDEBENE
 62
     7
100
AcDbVertex
100
AcDb2dVertex
 10
56.09752331496868
 20
217.9410467662613
 30
0.0
  0
VERTEX
  5
19A
330
198
100
AcDbEntity
  8
STANDARDEBENE
 62
     7
100
AcDbVertex
100
AcDb2dVertex
 10
56.09752331496868
 20
217.8311482202818
 30
0.0
  0
VERTEX
  5
19B
330
198
100
AcDbEntity
  8
STANDARDEBENE
 62
     7
100
AcDbVertex
100
AcDb2dVertex
 10
56.09752331496868
 20
217.5042086587316
 30
0.0
  0
VERTEX
  5
19C
330
198
100
AcDbEntity
  8
STANDARDEBENE
 62
     7
100
AcDbVertex
100
AcDb2dVertex
 10
56.09752331496868
 20
216.9626396484503
 30
0.0
  0
VERTEX
  5
19D
330
198
100
AcDbEntity
  8
STANDARDEBENE
 62
     7
100
AcDbVertex
100
AcDb2dVertex
 10
56.09752331496868
 20
216.2116088326659
 30
0.0
  0
VERTEX
  5
19E
330
198
100
AcDbEntity
  8
STANDARDEBENE
 62
     7
100
AcDbVertex
100
AcDb2dVertex
 10
56.09752331496868
 20
215.2617960073825
 30
0.0
  0
VERTEX
  5
19F
330
198
100
AcDbEntity
  8
STANDARDEBENE
 62
     7
100
AcDbVertex
100
AcDb2dVertex
 10
56.09752331496868
 20
214.1218139113133
 30
0.0
  0
VERTEX
  5
1A0
330
198
100
AcDbEntity
  8
STANDARDEBENE
 62
     7
100
AcDbVertex
100
AcDb2dVertex
 10
56.09752331496868
 20
212.8040648882052
 30
0.0
  0
VERTEX
  5
1A1
330
198
100
AcDbEntity
  8
STANDARDEBENE
 62
     7
100
AcDbVertex
100
AcDb2dVertex
 10
56.09752331496868
 20
211.3237073581934
 30
0.0
  0
VERTEX
  5
1A2
330
198
100
AcDbEntity
  8
STANDARDEBENE
 62
     7
100
AcDbVertex
100
AcDb2dVertex
 10
56.09752331496868
 20
209.6969332700584
 30
0.0
  0
VERTEX
  5
1A3
330
198
100
AcDbEntity
  8
STANDARDEBENE
 62
     7
100
AcDbVertex
100
AcDb2dVertex
 10
56.09752331496868
 20
207.9413126107751
 30
0.0
  0
VERTEX
  5
1A4
330
198
100
AcDbEntity
  8
STANDARDEBENE
 62
     7
100
AcDbVertex
100
AcDb2dVertex
 10
56.09752331496868
 20
206.0761379150608
 30
0.0
  0
VERTEX
  5
1A5
330
198
100
AcDbEntity
  8
STANDARDEBENE
 62
     7
100
AcDbVertex
100
AcDb2dVertex
 10
56.09752331496868
 20
204.1217352462786
 30
0.0
  0
VERTEX
  5
1A6
330
198
100
AcDbEntity
  8
STANDARDEBENE
 62
     7
100
AcDbVertex
100
AcDb2dVertex
 10
56.09752331496868
 20
202.0991196868884
 30
0.0
  0
VERTEX
  5
1A7
330
198
100
AcDbEntity
  8
STANDARDEBENE
 62
     7
100
AcDbVertex
100
AcDb2dVertex
 10
56.09752331496868
 20
200.0313733766415
 30
0.0
  0
VERTEX
  5
1A8
330
198
100
AcDbEntity
  8
STANDARDEBENE
 62
     7
100
AcDbVertex
100
AcDb2dVertex
 10
56.09752331496868
 20
197.9412339457404
 30
0.0
  0
SEQEND
  5
1A9
330
198
100
AcDbEntity
  8
STANDARDEBENE
  0
POLYLINE
  5
1AA
330
1F
100
AcDbEntity
  8
STANDARDEBENE
 62
     7
100
AcDb2dPolyline
 66
     1
 10
0.0
 20
0.0
 30
0.0
  0
VERTEX
  5
1AB
330
1AA
100
AcDbEntity
  8
STANDARDEBENE
 62
     7
100
AcDbVertex
100
AcDb2dVertex
 10
56.59740666987843
 20
197.9412339457404
 30
0.0
  0
VERTEX
  5
1AC
330
1AA
100
AcDbEntity
  8
STANDARDEBENE
 62
     7
100
AcDbVertex
100
AcDb2dVertex
 10
56.59740666987843
 20
199.9793524348142
 30
0.0
  0
VERTEX
  5
1AD
330
1AA
100
AcDbEntity
  8
STANDARDEBENE
 62
     7
100
AcDbVertex
100
AcDb2dVertex
 10
56.59740666987843
 20
201.9950778032339
 30
0.0
  0
VERTEX
  5
1AE
330
1AA
100
AcDbEntity
  8
STANDARDEBENE
 62
     7
100
AcDbVertex
100
AcDb2dVertex
 10
56.59740666987843
 20
203.9670504589909
 30
0.0
  0
VERTEX
  5
1AF
330
1AA
100
AcDbEntity
  8
STANDARDEBENE
 62
     7
100
AcDbVertex
100
AcDb2dVertex
 10
56.59740666987843
 20
205.8725327718826
 30
0.0
  0
VERTEX
  5
1B0
330
1AA
100
AcDbEntity
  8
STANDARDEBENE
 62
     7
100
AcDbVertex
100
AcDb2dVertex
 10
56.59740666987843
 20
207.6908541689974
 30
0.0
  0
VERTEX
  5
1B1
330
1AA
100
AcDbEntity
  8
STANDARDEBENE
 62
     7
100
AcDbVertex
100
AcDb2dVertex
 10
56.59740666987843
 20
209.4034111347151
 30
0.0
  0
VERTEX
  5
1B2
330
1AA
100
AcDbEntity
  8
STANDARDEBENE
 62
     7
100
AcDbVertex
100
AcDb2dVertex
 10
56.59740666987843
 20
210.9891885865756
 30
0.0
  0
VERTEX
  5
1B3
330
1AA
100
AcDbEntity
  8
STANDARDEBENE
 62
     7
100
AcDbVertex
100
AcDb2dVertex
 10
56.59740666987843
 20
212.4323390853468
 30
0.0
  0
VERTEX
  5
1B4
330
1AA
100
AcDbEntity
  8
STANDARDEBENE
 62
     7
100
AcDbVertex
100
AcDb2dVertex
 10
56.59740666987843
 20
213.7166706822479
 30
0.0
  0
VERTEX
  5
1B5
330
1AA
100
AcDbEntity
  8
STANDARDEBENE
 62
     7
100
AcDbVertex
100
AcDb2dVertex
 10
56.59740666987843
 20
214.8290920144351
 30
0.0
  0
VERTEX
  5
1B6
330
1AA
100
AcDbEntity
  8
STANDARDEBENE
 62
     7
100
AcDbVertex
100
AcDb2dVertex
 10
56.59740666987843
 20
215.7554781904188
 30
0.0
  0
VERTEX
  5
1B7
330
1AA
100
AcDbEntity
  8
STANDARDEBENE
 62
     7
100
AcDbVertex
100
AcDb2dVertex
 10
56.59740666987843
 20
216.4865274523888
 30
0.0
  0
VERTEX
  5
1B8
330
1AA
100
AcDbEntity
  8
STANDARDEBENE
 62
     7
100
AcDbVertex
100
AcDb2dVertex
 10
56.59740666987843
 20
217.0150050998261
 30
0.0
  0
VERTEX
  5
1B9
330
1AA
100
AcDbEntity
  8
STANDARDEBENE
 62
     7
100
AcDbVertex
100
AcDb2dVertex
 10
56.59740666987843
 20
217.3347099608573
 30
0.0
  0
VERTEX
  5
1BA
330
1AA
100
AcDbEntity
  8
STANDARDEBENE
 62
     7
100
AcDbVertex
100
AcDb2dVertex
 10
56.59740666987843
 20
217.4411634113515
 30
0.0
  0
SEQEND
  5
1BB
330
1AA
100
AcDbEntity
  8
STANDARDEBENE
  0
SPLINE
  5
1BC
330
1F
100
AcDbEntity
  8
STANDARDEBENE
 62
     7
100
AcDbSpline
210
0.0
220
0.0
230
1.0
 70
     8
 71
     3
 72
     8
 73
     4
 74
     0
 42
0.0000000001
 43
0.0000000001
 40
0.0
 40
0.0
 40
0.0
 40
0.0
 40
1.0
 40
1.0
 40
1.0
 40
1.0
 10
29.59784884242693
 20
194.1915920195945
 30
0.0
 10
29.59784884242693
 20
193.9149508521289
 30
0.0
 10
29.82143553941964
 20
193.6913641551362
 30
0.0
 10
30.09773219733668
 20
193.6913641551362
 30
0.0
  0
POLYLINE
  5
1BD
330
1F
100
AcDbEntity
  8
STANDARDEBENE
 62
     7
100
AcDb2dPolyline
 66
     1
 10
0.0
 20
0.0
 30
0.0
  0
VERTEX
  5
1BE
330
1BD
100
AcDbEntity
  8
STANDARDEBENE
 62
     7
100
AcDbVertex
100
AcDb2dVertex
 10
29.59784884242693
 20
194.1915920195945
 30
0.0
  0
VERTEX
  5
1BF
330
1BD
100
AcDbEntity
  8
STANDARDEBENE
 62
     7
100
AcDbVertex
100
AcDb2dVertex
 10
29.59784884242693
 20
194.3187160430002
 30
0.0
  0
VERTEX
  5
1C0
330
1BD
100
AcDbEntity
  8
STANDARDEBENE
 62
     7
100
AcDbVertex
100
AcDb2dVertex
 10
29.59784884242693
 20
194.6935424317954
 30
0.0
  0
VERTEX
  5
1C1
330
1BD
100
AcDbEntity
  8
STANDARDEBENE
 62
     7
100
AcDbVertex
100
AcDb2dVertex
 10
29.59784884242693
 20
195.2891994411951
 30
0.0
  0
VERTEX
  5
1C2
330
1BD
100
AcDbEntity
  8
STANDARDEBENE
 62
     7
100
AcDbVertex
100
AcDb2dVertex
 10
29.59784884242693
 20
196.0657239635704
 30
0.0
  0
VERTEX
  5
1C3
330
1BD
100
AcDbEntity
  8
STANDARDEBENE
 62
     7
100
AcDbVertex
100
AcDb2dVertex
 10
29.59784884242693
 20
196.970406037997
 30
0.0
  0
VERTEX
  5
1C4
330
1BD
100
AcDbEntity
  8
STANDARDEBENE
 62
     7
100
AcDbVertex
100
AcDb2dVertex
 10
29.59784884242693
 20
197.9412339457404
 30
0.0
  0
SEQEND
  5
1C5
330
1BD
100
AcDbEntity
  8
STANDARDEBENE
  0
POLYLINE
  5
1C6
330
1F
100
AcDbEntity
  8
STANDARDEBENE
 62
     7
100
AcDb2dPolyline
 66
     1
 10
0.0
 20
0.0
 30
0.0
  0
VERTEX
  5
1C7
330
1C6
100
AcDbEntity
  8
STANDARDEBENE
 62
     7
100
AcDbVertex
100
AcDb2dVertex
 10
34.59771592017002
 20
202.1911037363446
 30
0.0
  0
VERTEX
  5
1C8
330
1C6
100
AcDbEntity
  8
STANDARDEBENE
 62
     7
100
AcDbVertex
100
AcDb2dVertex
 10
34.59771592017002
 20
202.0846502858504
 30
0.0
  0
VERTEX
  5
1C9
330
1C6
100
AcDbEntity
  8
STANDARDEBENE
 62
     7
100
AcDbVertex
100
AcDb2dVertex
 10
34.59771592017002
 20
201.7701130680471
 30
0.0
  0
VERTEX
  5
1CA
330
1C6
100
AcDbEntity
  8
STANDARDEBENE
 62
     7
100
AcDbVertex
100
AcDb2dVertex
 10
34.59771592017002
 20
201.2640285412639
 30
0.0
  0
VERTEX
  5
1CB
330
1C6
100
AcDbEntity
  8
STANDARDEBENE
 62
     7
100
AcDbVertex
100
AcDb2dVertex
 10
34.59771592017002
 20
200.590856883446
 30
0.0
  0
VERTEX
  5
1CC
330
1C6
100
AcDbEntity
  8
STANDARDEBENE
 62
     7
100
AcDbVertex
100
AcDb2dVertex
 10
34.59771592017002
 20
199.7853935589946
 30
0.0
  0
VERTEX
  5
1CD
330
1C6
100
AcDbEntity
  8
STANDARDEBENE
 62
     7
100
AcDbVertex
100
AcDb2dVertex
 10
34.59771592017002
 20
198.886568146893
 30
0.0
  0
VERTEX
  5
1CE
330
1C6
100
AcDbEntity
  8
STANDARDEBENE
 62
     7
100
AcDbVertex
100
AcDb2dVertex
 10
34.59771592017002
 20
197.9412339457404
 30
0.0
  0
SEQEND
  5
1CF
330
1C6
100
AcDbEntity
  8
STANDARDEBENE
  0
SPLINE
  5
1D0
330
1F
100
AcDbEntity
  8
STANDARDEBENE
 62
     7
100
AcDbSpline
210
0.0
220
0.0
230
1.0
 70
     8
 71
     3
 72
     8
 73
     4
 74
     0
 42
0.0000000001
 43
0.0000000001
 40
0.0
 40
0.0
 40
0.0
 40
0.0
 40
1.0
 40
1.0
 40
1.0
 40
1.0
 10
30.09773219733668
 20
202.1911037363446
 30
0.0
 10
29.82143553941964
 20
202.1911037363446
 30
0.0
 10
29.59784884242693
 20
201.9668280202548
 30
0.0
 10
29.59784884242693
 20
201.6912203814348
 30
0.0
  0
POLYLINE
  5
1D1
330
1F
100
AcDbEntity
  8
STANDARDEBENE
 62
     7
100
AcDb2dPolyline
 66
     1
 10
0.0
 20
0.0
 30
0.0
  0
VERTEX
  5
1D2
330
1D1
100
AcDbEntity
  8
STANDARDEBENE
 62
     7
100
AcDbVertex
100
AcDb2dVertex
 10
29.59784884242693
 20
197.9412339457404
 30
0.0
  0
VERTEX
  5
1D3
330
1D1
100
AcDbEntity
  8
STANDARDEBENE
 62
     7
100
AcDbVertex
100
AcDb2dVertex
 10
29.59784884242693
 20
198.9120618534838
 30
0.0
  0
VERTEX
  5
1D4
330
1D1
100
AcDbEntity
  8
STANDARDEBENE
 62
     7
100
AcDbVertex
100
AcDb2dVertex
 10
29.59784884242693
 20
199.8160549088134
 30
0.0
  0
VERTEX
  5
1D5
330
1D1
100
AcDbEntity
  8
STANDARDEBENE
 62
     7
100
AcDbVertex
100
AcDb2dVertex
 10
29.59784884242693
 20
200.5925794311887
 30
0.0
  0
VERTEX
  5
1D6
330
1D1
100
AcDbEntity
  8
STANDARDEBENE
 62
     7
100
AcDbVertex
100
AcDb2dVertex
 10
29.59784884242693
 20
201.1882364405884
 30
0.0
  0
VERTEX
  5
1D7
330
1D1
100
AcDbEntity
  8
STANDARDEBENE
 62
     7
100
AcDbVertex
100
AcDb2dVertex
 10
29.59784884242693
 20
201.5630628293835
 30
0.0
  0
VERTEX
  5
1D8
330
1D1
100
AcDbEntity
  8
STANDARDEBENE
 62
     7
100
AcDbVertex
100
AcDb2dVertex
 10
29.59784884242693
 20
201.6912203814348
 30
0.0
  0
SEQEND
  5
1D9
330
1D1
100
AcDbEntity
  8
STANDARDEBENE
  0
POLYLINE
  5
1DA
330
1F
100
AcDbEntity
  8
STANDARDEBENE
 62
     7
100
AcDb2dPolyline
 66
     1
 10
0.0
 20
0.0
 30
0.0
  0
VERTEX
  5
1DB
330
1DA
100
AcDbEntity
  8
STANDARDEBENE
 62
     7
100
AcDbVertex
100
AcDb2dVertex
 10
34.59771592017002
 20
197.9412339457404
 30
0.0
  0
VERTEX
  5
1DC
330
1DA
100
AcDbEntity
  8
STANDARDEBENE
 62
     7
100
AcDbVertex
100
AcDb2dVertex
 10
34.59771592017002
 20
196.9952107254908
 30
0.0
  0
VERTEX
  5
1DD
330
1DA
100
AcDbEntity
  8
STANDARDEBENE
 62
     7
100
AcDbVertex
100
AcDb2dVertex
 10
34.59771592017002
 20
196.0963853133891
 30
0.0
  0
VERTEX
  5
1DE
330
1DA
100
AcDbEntity
  8
STANDARDEBENE
 62
     7
100
AcDbVertex
100
AcDb2dVertex
 10
34.59771592017002
 20
195.2909219889377
 30
0.0
  0
VERTEX
  5
1DF
330
1DA
100
AcDbEntity
  8
STANDARDEBENE
 62
     7
100
AcDbVertex
100
AcDb2dVertex
 10
34.59771592017002
 20
194.6187838597654
 30
0.0
  0
VERTEX
  5
1E0
330
1DA
100
AcDbEntity
  8
STANDARDEBENE
 62
     7
100
AcDbVertex
100
AcDb2dVertex
 10
34.59771592017002
 20
194.1120103138852
 30
0.0
  0
VERTEX
  5
1E1
330
1DA
100
AcDbEntity
  8
STANDARDEBENE
 62
     7
100
AcDbVertex
100
AcDb2dVertex
 10
34.59771592017002
 20
193.7978176056304
 30
0.0
  0
VERTEX
  5
1E2
330
1DA
100
AcDbEntity
  8
STANDARDEBENE
 62
     7
100
AcDbVertex
100
AcDb2dVertex
 10
34.59771592017002
 20
193.6913641551362
 30
0.0
  0
SEQEND
  5
1E3
330
1DA
100
AcDbEntity
  8
STANDARDEBENE
  0
SPLINE
  5
1E4
330
1F
100
AcDbEntity
  8
STANDARDEBENE
 62
     7
100
AcDbSpline
210
0.0
220
0.0
230
1.0
 70
     8
 71
     3
 72
     8
 73
     4
 74
     0
 42
0.0000000001
 43
0.0000000001
 40
0.0
 40
0.0
 40
0.0
 40
0.0
 40
1.0
 40
1.0
 40
1.0
 40
1.0
 10
34.72725151041541
 20
195.2785196451908
 30
0.0
 10
34.64732529515761
 20
195.2485473144691
 30
0.0
 10
34.59771592017002
 20
195.1730997233421
 30
0.0
 10
34.59771592017002
 20
195.0911064507932
 30
0.0
  0
SPLINE
  5
1E5
330
1F
100
AcDbEntity
  8
STANDARDEBENE
 62
     7
100
AcDbSpline
210
0.0
220
0.0
230
1.0
 70
     8
 71
     3
 72
     8
 73
     4
 74
     0
 42
0.0000000001
 43
0.0000000001
 40
0.0
 40
0.0
 40
0.0
 40
0.0
 40
1.0
 40
1.0
 40
1.0
 40
1.0
 10
34.59771592017002
 20
200.7913614406876
 30
0.0
 10
34.59771592017002
 20
200.7059230726534
 30
0.0
 10
34.65077039064286
 20
200.6328870483661
 30
0.0
 10
34.72725151041541
 20
200.60394824629
 30
0.0
  0
SPLINE
  5
1E6
330
1F
100
AcDbEntity
  8
STANDARDEBENE
 62
     7
100
AcDbSpline
210
0.0
220
0.0
230
1.0
 70
     8
 71
     3
 72
     8
 73
     4
 74
     0
 42
0.0000000001
 43
0.0000000001
 40
0.0
 40
0.0
 40
0.0
 40
0.0
 40
1.0
 40
1.0
 40
1.0
 40
1.0
 10
35.19785155370054
 20
195.4414726616431
 30
0.0
 10
35.17270235665821
 20
195.4414726616431
 30
0.0
 10
35.14824217871294
 20
195.4369940375123
 30
0.0
 10
35.12722709625292
 20
195.4280367892506
 30
0.0
  0
SPLINE
  5
1E7
330
1F
100
AcDbEntity
  8
STANDARDEBENE
 62
     7
100
AcDbSpline
210
0.0
220
0.0
230
1.0
 70
     8
 71
     3
 72
     8
 73
     4
 74
     0
 42
0.0000000001
 43
0.0000000001
 40
0.0
 40
0.0
 40
0.0
 40
0.0
 40
1.0
 40
1.0
 40
1.0
 40
1.0
 10
35.12722709625292
 20
200.4537420831331
 30
0.0
 10
35.15099825510114
 20
200.4447848348715
 30
0.0
 10
35.17545843304642
 20
200.4409952298377
 30
0.0
 10
35.19785155370054
 20
200.4409952298377
 30
0.0
  0
POLYLINE
  5
1E8
330
1F
100
AcDbEntity
  8
STANDARDEBENE
 62
     7
100
AcDb2dPolyline
 66
     1
 10
0.0
 20
0.0
 30
0.0
  0
VERTEX
  5
1E9
330
1E8
100
AcDbEntity
  8
STANDARDEBENE
 62
     7
100
AcDbVertex
100
AcDb2dVertex
 10
-3.615972221318229
 20
131.2600327905357
 30
0.0
  0
VERTEX
  5
1EA
330
1E8
100
AcDbEntity
  8
STANDARDEBENE
 62
     7
100
AcDbVertex
100
AcDb2dVertex
 10
-3.615972221318229
 20
123.2600043094628
 30
0.0
  0
SEQEND
  5
1EB
330
1E8
100
AcDbEntity
  8
STANDARDEBENE
  0
POLYLINE
  5
1EC
330
1F
100
AcDbEntity
  8
STANDARDEBENE
 62
     7
100
AcDb2dPolyline
 66
     1
 10
0.0
 20
0.0
 30
0.0
  0
VERTEX
  5
1ED
330
1EC
100
AcDbEntity
  8
STANDARDEBENE
 62
     7
100
AcDbVertex
100
AcDb2dVertex
 10
-47.6160427398321
 20
131.2600327905357
 30
0.0
  0
VERTEX
  5
1EE
330
1EC
100
AcDbEntity
  8
STANDARDEBENE
 62
     7
100
AcDbVertex
100
AcDb2dVertex
 10
-47.6160427398321
 20
123.2600043094628
 30
0.0
  0
SEQEND
  5
1EF
330
1EC
100
AcDbEntity
  8
STANDARDEBENE
  0
POLYLINE
  5
1F0
330
1F
100
AcDbEntity
  8
STANDARDEBENE
 62
     7
100
AcDb2dPolyline
 66
     1
 10
0.0
 20
0.0
 30
0.0
  0
VERTEX
  5
1F1
330
1F0
100
AcDbEntity
  8
STANDARDEBENE
 62
     7
100
AcDbVertex
100
AcDb2dVertex
 10
-4.116200085776506
 20
122.7597764450045
 30
0.0
  0
VERTEX
  5
1F2
330
1F0
100
AcDbEntity
  8
STANDARDEBENE
 62
     7
100
AcDbVertex
100
AcDb2dVertex
 10
-3.615972221318229
 20
123.2600043094628
 30
0.0
  0
SEQEND
  5
1F3
330
1F0
100
AcDbEntity
  8
STANDARDEBENE
  0
POLYLINE
  5
1F4
330
1F
100
AcDbEntity
  8
STANDARDEBENE
 62
     7
100
AcDb2dPolyline
 66
     1
 10
0.0
 20
0.0
 30
0.0
  0
VERTEX
  5
1F5
330
1F4
100
AcDbEntity
  8
STANDARDEBENE
 62
     7
100
AcDbVertex
100
AcDb2dVertex
 10
-47.11650389447087
 20
122.7597764450045
 30
0.0
  0
VERTEX
  5
1F6
330
1F4
100
AcDbEntity
  8
STANDARDEBENE
 62
     7
100
AcDbVertex
100
AcDb2dVertex
 10
-47.6160427398321
 20
123.2600043094628
 30
0.0
  0
SEQEND
  5
1F7
330
1F4
100
AcDbEntity
  8
STANDARDEBENE
  0
POLYLINE
  5
1F8
330
1F
100
AcDbEntity
  8
STANDARDEBENE
 62
     7
100
AcDb2dPolyline
 66
     1
 10
0.0
 20
0.0
 30
0.0
  0
VERTEX
  5
1F9
330
1F8
100
AcDbEntity
  8
STANDARDEBENE
 62
     7
100
AcDbVertex
100
AcDb2dVertex
 10
-47.21916773993132
 20
134.4925658843456
 30
0.0
  0
VERTEX
  5
1FA
330
1F8
100
AcDbEntity
  8
STANDARDEBENE
 62
     7
100
AcDbVertex
100
AcDb2dVertex
 10
-47.6160427398321
 20
131.2600327905357
 30
0.0
  0
SEQEND
  5
1FB
330
1F8
100
AcDbEntity
  8
STANDARDEBENE
  0
POLYLINE
  5
1FC
330
1F
100
AcDbEntity
  8
STANDARDEBENE
 62
     7
100
AcDb2dPolyline
 66
     1
 10
0.0
 20
0.0
 30
0.0
  0
VERTEX
  5
1FD
330
1FC
100
AcDbEntity
  8
STANDARDEBENE
 62
     7
100
AcDbVertex
100
AcDb2dVertex
 10
-4.012847221219011
 20
134.4925658843456
 30
0.0
  0
VERTEX
  5
1FE
330
1FC
100
AcDbEntity
  8
STANDARDEBENE
 62
     7
100
AcDbVertex
100
AcDb2dVertex
 10
-3.615972221318229
 20
131.2600327905357
 30
0.0
  0
SEQEND
  5
1FF
330
1FC
100
AcDbEntity
  8
STANDARDEBENE
  0
POLYLINE
  5
200
330
1F
100
AcDbEntity
  8
STANDARDEBENE
 62
     7
100
AcDb2dPolyline
 66
     1
 10
0.0
 20
0.0
 30
0.0
  0
VERTEX
  5
201
330
200
100
AcDbEntity
  8
STANDARDEBENE
 62
     7
100
AcDbVertex
100
AcDb2dVertex
 10
-47.48512911139261
 20
135.015186869458
 30
0.0
  0
VERTEX
  5
202
330
200
100
AcDbEntity
  8
STANDARDEBENE
 62
     7
100
AcDbVertex
100
AcDb2dVertex
 10
-47.21916773993132
 20
134.4925658843456
 30
0.0
  0
SEQEND
  5
203
330
200
100
AcDbEntity
  8
STANDARDEBENE
  0
POLYLINE
  5
204
330
1F
100
AcDbEntity
  8
STANDARDEBENE
 62
     7
100
AcDb2dPolyline
 66
     1
 10
0.0
 20
0.0
 30
0.0
  0
VERTEX
  5
205
330
204
100
AcDbEntity
  8
STANDARDEBENE
 62
     7
100
AcDbVertex
100
AcDb2dVertex
 10
-3.746541340209198
 20
135.015186869458
 30
0.0
  0
VERTEX
  5
206
330
204
100
AcDbEntity
  8
STANDARDEBENE
 62
     7
100
AcDbVertex
100
AcDb2dVertex
 10
-4.012847221219011
 20
134.4925658843456
 30
0.0
  0
SEQEND
  5
207
330
204
100
AcDbEntity
  8
STANDARDEBENE
  0
POLYLINE
  5
208
330
1F
100
AcDbEntity
  8
STANDARDEBENE
 62
     7
100
AcDb2dPolyline
 66
     1
 10
0.0
 20
0.0
 30
0.0
  0
VERTEX
  5
209
330
208
100
AcDbEntity
  8
STANDARDEBENE
 62
     7
100
AcDbVertex
100
AcDb2dVertex
 10
-6.116422524512561
 20
118.7607096057265
 30
0.0
  0
VERTEX
  5
20A
330
208
100
AcDbEntity
  8
STANDARDEBENE
 62
     7
100
AcDbVertex
100
AcDb2dVertex
 10
-5.616194660054285
 20
119.2595594319907
 30
0.0
  0
SEQEND
  5
20B
330
208
100
AcDbEntity
  8
STANDARDEBENE
  0
POLYLINE
  5
20C
330
1F
100
AcDbEntity
  8
STANDARDEBENE
 62
     7
100
AcDb2dPolyline
 66
     1
 10
0.0
 20
0.0
 30
0.0
  0
VERTEX
  5
20D
330
20C
100
AcDbEntity
  8
STANDARDEBENE
 62
     7
100
AcDbVertex
100
AcDb2dVertex
 10
-45.11559243663777
 20
118.7607096057265
 30
0.0
  0
VERTEX
  5
20E
330
20C
100
AcDbEntity
  8
STANDARDEBENE
 62
     7
100
AcDbVertex
100
AcDb2dVertex
 10
-45.61616481064457
 20
119.2595594319907
 30
0.0
  0
SEQEND
  5
20F
330
20C
100
AcDbEntity
  8
STANDARDEBENE
  0
POLYLINE
  5
210
330
1F
100
AcDbEntity
  8
STANDARDEBENE
 62
     7
100
AcDb2dPolyline
 66
     1
 10
0.0
 20
0.0
 30
0.0
  0
VERTEX
  5
211
330
210
100
AcDbEntity
  8
STANDARDEBENE
 62
     7
100
AcDbVertex
100
AcDb2dVertex
 10
-5.616194660054285
 20
122.2602375996433
 30
0.0
  0
VERTEX
  5
212
330
210
100
AcDbEntity
  8
STANDARDEBENE
 62
     7
100
AcDbVertex
100
AcDb2dVertex
 10
-5.616194660054285
 20
119.2595594319907
 30
0.0
  0
SEQEND
  5
213
330
210
100
AcDbEntity
  8
STANDARDEBENE
  0
POLYLINE
  5
214
330
1F
100
AcDbEntity
  8
STANDARDEBENE
 62
     7
100
AcDb2dPolyline
 66
     1
 10
0.0
 20
0.0
 30
0.0
  0
VERTEX
  5
215
330
214
100
AcDbEntity
  8
STANDARDEBENE
 62
     7
100
AcDbVertex
100
AcDb2dVertex
 10
-45.61616481064457
 20
122.2602375996433
 30
0.0
  0
VERTEX
  5
216
330
214
100
AcDbEntity
  8
STANDARDEBENE
 62
     7
100
AcDbVertex
100
AcDb2dVertex
 10
-45.61616481064457
 20
119.2595594319907
 30
0.0
  0
SEQEND
  5
217
330
214
100
AcDbEntity
  8
STANDARDEBENE
  0
POLYLINE
  5
218
330
1F
100
AcDbEntity
  8
STANDARDEBENE
 62
     7
100
AcDb2dPolyline
 66
     1
 10
0.0
 20
0.0
 30
0.0
  0
VERTEX
  5
219
330
218
100
AcDbEntity
  8
STANDARDEBENE
 62
     7
100
AcDbVertex
100
AcDb2dVertex
 10
-8.366069876380704
 20
145.260211823494
 30
0.0
  0
VERTEX
  5
21A
330
218
100
AcDbEntity
  8
STANDARDEBENE
 62
     7
100
AcDbVertex
100
AcDb2dVertex
 10
-8.366069876380704
 20
140.7595390815636
 30
0.0
  0
SEQEND
  5
21B
330
218
100
AcDbEntity
  8
STANDARDEBENE
  0
POLYLINE
  5
21C
330
1F
100
AcDbEntity
  8
STANDARDEBENE
 62
     7
100
AcDb2dPolyline
 66
     1
 10
0.0
 20
0.0
 30
0.0
  0
VERTEX
  5
21D
330
21C
100
AcDbEntity
  8
STANDARDEBENE
 62
     7
100
AcDbVertex
100
AcDb2dVertex
 10
-16.86615396713763
 20
145.260211823494
 30
0.0
  0
VERTEX
  5
21E
330
21C
100
AcDbEntity
  8
STANDARDEBENE
 62
     7
100
AcDbVertex
100
AcDb2dVertex
 10
-16.86615396713763
 20
140.7595390815636
 30
0.0
  0
SEQEND
  5
21F
330
21C
100
AcDbEntity
  8
STANDARDEBENE
  0
POLYLINE
  5
220
330
1F
100
AcDbEntity
  8
STANDARDEBENE
 62
     7
100
AcDb2dPolyline
 66
     1
 10
0.0
 20
0.0
 30
0.0
  0
VERTEX
  5
221
330
220
100
AcDbEntity
  8
STANDARDEBENE
 62
     7
100
AcDbVertex
100
AcDb2dVertex
 10
-9.953225366435305
 20
140.6300034913182
 30
0.0
  0
VERTEX
  5
222
330
220
100
AcDbEntity
  8
STANDARDEBENE
 62
     7
100
AcDbVertex
100
AcDb2dVertex
 10
-10.10308702004367
 20
140.2303724150292
 30
0.0
  0
SEQEND
  5
223
330
220
100
AcDbEntity
  8
STANDARDEBENE
  0
POLYLINE
  5
224
330
1F
100
AcDbEntity
  8
STANDARDEBENE
 62
     7
100
AcDb2dPolyline
 66
     1
 10
0.0
 20
0.0
 30
0.0
  0
VERTEX
  5
225
330
224
100
AcDbEntity
  8
STANDARDEBENE
 62
     7
100
AcDbVertex
100
AcDb2dVertex
 10
-15.2786539675345
 20
140.6300034913182
 30
0.0
  0
VERTEX
  5
226
330
224
100
AcDbEntity
  8
STANDARDEBENE
 62
     7
100
AcDbVertex
100
AcDb2dVertex
 10
-15.12913682347466
 20
140.2303724150292
 30
0.0
  0
SEQEND
  5
227
330
224
100
AcDbEntity
  8
STANDARDEBENE
  0
POLYLINE
  5
228
330
1F
100
AcDbEntity
  8
STANDARDEBENE
 62
     7
100
AcDb2dPolyline
 66
     1
 10
0.0
 20
0.0
 30
0.0
  0
VERTEX
  5
229
330
228
100
AcDbEntity
  8
STANDARDEBENE
 62
     7
100
AcDbVertex
100
AcDb2dVertex
 10
-15.11604546063071
 20
136.75943871364
 30
0.0
  0
VERTEX
  5
22A
330
228
100
AcDbEntity
  8
STANDARDEBENE
 62
     7
100
AcDbVertex
100
AcDb2dVertex
 10
-15.11604546063071
 20
140.1600924671301
 30
0.0
  0
SEQEND
  5
22B
330
228
100
AcDbEntity
  8
STANDARDEBENE
  0
POLYLINE
  5
22C
330
1F
100
AcDbEntity
  8
STANDARDEBENE
 62
     7
100
AcDb2dPolyline
 66
     1
 10
0.0
 20
0.0
 30
0.0
  0
VERTEX
  5
22D
330
22C
100
AcDbEntity
  8
STANDARDEBENE
 62
     7
100
AcDbVertex
100
AcDb2dVertex
 10
-10.11617838288762
 20
136.75943871364
 30
0.0
  0
VERTEX
  5
22E
330
22C
100
AcDbEntity
  8
STANDARDEBENE
 62
     7
100
AcDbVertex
100
AcDb2dVertex
 10
-10.11617838288762
 20
140.1600924671301
 30
0.0
  0
SEQEND
  5
22F
330
22C
100
AcDbEntity
  8
STANDARDEBENE
  0
SPLINE
  5
230
330
1F
100
AcDbEntity
  8
STANDARDEBENE
 62
     7
100
AcDbSpline
210
0.0
220
0.0
230
1.0
 70
     8
 71
     3
 72
    11
 73
     7
 74
     0
 42
0.0000000001
 43
0.0000000001
 40
0.0
 40
0.0
 40
0.0
 40
0.0
 40
1.0
 40
1.0
 40
1.0
 40
2.0
 40
2.0
 40
2.0
 40
2.0
 10
-46.41577147277106
 20
136.75943871364
 30
0.0
 10
-47.07860784413313
 20
136.75943871364
 30
0.0
 10
-47.6160427398321
 20
136.2226928370381
 30
0.0
 10
-47.6160427398321
 20
135.559856465676
 30
0.0
 10
-47.6160427398321
 20
135.3614189657256
 30
0.0
 10
-47.5678114030386
 20
135.1736612617795
 30
0.0
 10
-47.48512911139261
 20
135.015186869458
 30
0.0
  0
POLYLINE
  5
231
330
1F
100
AcDbEntity
  8
STANDARDEBENE
 62
     7
100
AcDb2dPolyline
 66
     1
 10
0.0
 20
0.0
 30
0.0
  0
VERTEX
  5
232
330
231
100
AcDbEntity
  8
STANDARDEBENE
 62
     7
100
AcDbVertex
100
AcDb2dVertex
 10
-46.41577147277106
 20
136.75943871364
 30
0.0
  0
VERTEX
  5
233
330
231
100
AcDbEntity
  8
STANDARDEBENE
 62
     7
100
AcDbVertex
100
AcDb2dVertex
 10
-46.30897351272831
 20
136.75943871364
 30
0.0
  0
VERTEX
  5
234
330
231
100
AcDbEntity
  8
STANDARDEBENE
 62
     7
100
AcDbVertex
100
AcDb2dVertex
 10
-45.98995767079418
 20
136.75943871364
 30
0.0
  0
VERTEX
  5
235
330
231
100
AcDbEntity
  8
STANDARDEBENE
 62
     7
100
AcDbVertex
100
AcDb2dVertex
 10
-45.4621690424539
 20
136.75943871364
 30
0.0
  0
VERTEX
  5
236
330
231
100
AcDbEntity
  8
STANDARDEBENE
 62
     7
100
AcDbVertex
100
AcDb2dVertex
 10
-44.73008625183832
 20
136.75943871364
 30
0.0
  0
VERTEX
  5
237
330
231
100
AcDbEntity
  8
STANDARDEBENE
 62
     7
100
AcDbVertex
100
AcDb2dVertex
 10
-43.80266654720906
 20
136.75943871364
 30
0.0
  0
VERTEX
  5
238
330
231
100
AcDbEntity
  8
STANDARDEBENE
 62
     7
100
AcDbVertex
100
AcDb2dVertex
 10
-42.68783364818221
 20
136.75943871364
 30
0.0
  0
VERTEX
  5
239
330
231
100
AcDbEntity
  8
STANDARDEBENE
 62
     7
100
AcDbVertex
100
AcDb2dVertex
 10
-41.39833440805319
 20
136.75943871364
 30
0.0
  0
VERTEX
  5
23A
330
231
100
AcDbEntity
  8
STANDARDEBENE
 62
     7
100
AcDbVertex
100
AcDb2dVertex
 10
-39.94657117056892
 20
136.75943871364
 30
0.0
  0
VERTEX
  5
23B
330
231
100
AcDbEntity
  8
STANDARDEBENE
 62
     7
100
AcDbVertex
100
AcDb2dVertex
 10
-38.34770235586446
 20
136.75943871364
 30
0.0
  0
VERTEX
  5
23C
330
231
100
AcDbEntity
  8
STANDARDEBENE
 62
     7
100
AcDbVertex
100
AcDb2dVertex
 10
-36.61826442226905
 20
136.75943871364
 30
0.0
  0
VERTEX
  5
23D
330
231
100
AcDbEntity
  8
STANDARDEBENE
 62
     7
100
AcDbVertex
100
AcDb2dVertex
 10
-34.77617186630596
 20
136.75943871364
 30
0.0
  0
VERTEX
  5
23E
330
231
100
AcDbEntity
  8
STANDARDEBENE
 62
     7
100
AcDbVertex
100
AcDb2dVertex
 10
-32.84002820359555
 20
136.75943871364
 30
0.0
  0
VERTEX
  5
23F
330
231
100
AcDbEntity
  8
STANDARDEBENE
 62
     7
100
AcDbVertex
100
AcDb2dVertex
 10
-30.82981498795227
 20
136.75943871364
 30
0.0
  0
VERTEX
  5
240
330
231
100
AcDbEntity
  8
STANDARDEBENE
 62
     7
100
AcDbVertex
100
AcDb2dVertex
 10
-28.76585828273909
 20
136.75943871364
 30
0.0
  0
VERTEX
  5
241
330
231
100
AcDbEntity
  8
STANDARDEBENE
 62
     7
100
AcDbVertex
100
AcDb2dVertex
 10
-26.66986218951309
 20
136.75943871364
 30
0.0
  0
VERTEX
  5
242
330
231
100
AcDbEntity
  8
STANDARDEBENE
 62
     7
100
AcDbVertex
100
AcDb2dVertex
 10
-24.56215277163724
 20
136.75943871364
 30
0.0
  0
VERTEX
  5
243
330
231
100
AcDbEntity
  8
STANDARDEBENE
 62
     7
100
AcDbVertex
100
AcDb2dVertex
 10
-22.46581216886272
 20
136.75943871364
 30
0.0
  0
VERTEX
  5
244
330
231
100
AcDbEntity
  8
STANDARDEBENE
 62
     7
100
AcDbVertex
100
AcDb2dVertex
 10
-20.40254448274659
 20
136.75943871364
 30
0.0
  0
VERTEX
  5
245
330
231
100
AcDbEntity
  8
STANDARDEBENE
 62
     7
100
AcDbVertex
100
AcDb2dVertex
 10
-18.39198675755478
 20
136.75943871364
 30
0.0
  0
VERTEX
  5
246
330
231
100
AcDbEntity
  8
STANDARDEBENE
 62
     7
100
AcDbVertex
100
AcDb2dVertex
 10
-16.4561876043929
 20
136.75943871364
 30
0.0
  0
VERTEX
  5
247
330
231
100
AcDbEntity
  8
STANDARDEBENE
 62
     7
100
AcDbVertex
100
AcDb2dVertex
 10
-14.61409504842981
 20
136.75943871364
 30
0.0
  0
VERTEX
  5
248
330
231
100
AcDbEntity
  8
STANDARDEBENE
 62
     7
100
AcDbVertex
100
AcDb2dVertex
 10
-12.88431260528587
 20
136.75943871364
 30
0.0
  0
VERTEX
  5
249
330
231
100
AcDbEntity
  8
STANDARDEBENE
 62
     7
100
AcDbVertex
100
AcDb2dVertex
 10
-11.28544379058142
 20
136.75943871364
 30
0.0
  0
VERTEX
  5
24A
330
231
100
AcDbEntity
  8
STANDARDEBENE
 62
     7
100
AcDbVertex
100
AcDb2dVertex
 10
-9.833680553097135
 20
136.75943871364
 30
0.0
  0
VERTEX
  5
24B
330
231
100
AcDbEntity
  8
STANDARDEBENE
 62
     7
100
AcDbVertex
100
AcDb2dVertex
 10
-8.543836803419596
 20
136.75943871364
 30
0.0
  0
VERTEX
  5
24C
330
231
100
AcDbEntity
  8
STANDARDEBENE
 62
     7
100
AcDbVertex
100
AcDb2dVertex
 10
-7.429348413941274
 20
136.75943871364
 30
0.0
  0
VERTEX
  5
24D
330
231
100
AcDbEntity
  8
STANDARDEBENE
 62
     7
100
AcDbVertex
100
AcDb2dVertex
 10
-6.501928709312018
 20
136.75943871364
 30
0.0
  0
VERTEX
  5
24E
330
231
100
AcDbEntity
  8
STANDARDEBENE
 62
     7
100
AcDbVertex
100
AcDb2dVertex
 10
-5.770190428244953
 20
136.75943871364
 30
0.0
  0
VERTEX
  5
24F
330
231
100
AcDbEntity
  8
STANDARDEBENE
 62
     7
100
AcDbVertex
100
AcDb2dVertex
 10
-5.241712780807628
 20
136.75943871364
 30
0.0
  0
VERTEX
  5
250
330
231
100
AcDbEntity
  8
STANDARDEBENE
 62
     7
100
AcDbVertex
100
AcDb2dVertex
 10
-4.922696938873493
 20
136.75943871364
 30
0.0
  0
VERTEX
  5
251
330
231
100
AcDbEntity
  8
STANDARDEBENE
 62
     7
100
AcDbVertex
100
AcDb2dVertex
 10
-4.815898978830748
 20
136.75943871364
 30
0.0
  0
SEQEND
  5
252
330
231
100
AcDbEntity
  8
STANDARDEBENE
  0
SPLINE
  5
253
330
1F
100
AcDbEntity
  8
STANDARDEBENE
 62
     7
100
AcDbSpline
210
0.0
220
0.0
230
1.0
 70
     8
 71
     3
 72
     8
 73
     4
 74
     0
 42
0.0000000001
 43
0.0000000001
 40
0.0
 40
0.0
 40
0.0
 40
0.0
 40
1.0
 40
1.0
 40
1.0
 40
1.0
 10
-3.615972221318229
 20
135.559856465676
 30
0.0
 10
-3.615972221318229
 20
136.2226928370381
 30
0.0
 10
-4.153062607468679
 20
136.75943871364
 30
0.0
 10
-4.815898978830748
 20
136.75943871364
 30
0.0
  0
SPLINE
  5
254
330
1F
100
AcDbEntity
  8
STANDARDEBENE
 62
     7
100
AcDbSpline
210
0.0
220
0.0
230
1.0
 70
     8
 71
     3
 72
     8
 73
     4
 74
     0
 42
0.0000000001
 43
0.0000000001
 40
0.0
 40
0.0
 40
0.0
 40
0.0
 40
1.0
 40
1.0
 40
1.0
 40
1.0
 10
-3.746541340209198
 20
135.015186869458
 30
0.0
 10
-3.656968857592702
 20
135.1922647773999
 30
0.0
 10
-3.614249673575604
 20
135.3814005195401
 30
0.0
 10
-3.615972221318229
 20
135.559856465676
 30
0.0
  0
POLYLINE
  5
255
330
1F
100
AcDbEntity
  8
STANDARDEBENE
 62
     7
100
AcDb2dPolyline
 66
     1
 10
0.0
 20
0.0
 30
0.0
  0
VERTEX
  5
256
330
255
100
AcDbEntity
  8
STANDARDEBENE
 62
     7
100
AcDbVertex
100
AcDb2dVertex
 10
-3.615972221318229
 20
123.2600043094628
 30
0.0
  0
VERTEX
  5
257
330
255
100
AcDbEntity
  8
STANDARDEBENE
 62
     7
100
AcDbVertex
100
AcDb2dVertex
 10
-3.722081162263924
 20
123.2600043094628
 30
0.0
  0
VERTEX
  5
258
330
255
100
AcDbEntity
  8
STANDARDEBENE
 62
     7
100
AcDbVertex
100
AcDb2dVertex
 10
-4.03902994690691
 20
123.2600043094628
 30
0.0
  0
VERTEX
  5
259
330
255
100
AcDbEntity
  8
STANDARDEBENE
 62
     7
100
AcDbVertex
100
AcDb2dVertex
 10
-4.563028970213409
 20
123.2600043094628
 30
0.0
  0
VERTEX
  5
25A
330
255
100
AcDbEntity
  8
STANDARDEBENE
 62
     7
100
AcDbVertex
100
AcDb2dVertex
 10
-5.2909776462467
 20
123.2600043094628
 30
0.0
  0
VERTEX
  5
25B
330
255
100
AcDbEntity
  8
STANDARDEBENE
 62
     7
100
AcDbVertex
100
AcDb2dVertex
 10
-6.213574217196607
 20
123.2600043094628
 30
0.0
  0
VERTEX
  5
25C
330
255
100
AcDbEntity
  8
STANDARDEBENE
 62
     7
100
AcDbVertex
100
AcDb2dVertex
 10
-7.323583982544104
 20
123.2600043094628
 30
0.0
  0
VERTEX
  5
25D
330
255
100
AcDbEntity
  8
STANDARDEBENE
 62
     7
100
AcDbVertex
100
AcDb2dVertex
 10
-8.609982636736394
 20
123.2600043094628
 30
0.0
  0
VERTEX
  5
25E
330
255
100
AcDbEntity
  8
STANDARDEBENE
 62
     7
100
AcDbVertex
100
AcDb2dVertex
 10
-10.05967881692952
 20
123.2600043094628
 30
0.0
  0
VERTEX
  5
25F
330
255
100
AcDbEntity
  8
STANDARDEBENE
 62
     7
100
AcDbVertex
100
AcDb2dVertex
 10
-11.65958116027955
 20
123.2600043094628
 30
0.0
  0
VERTEX
  5
260
330
255
100
AcDbEntity
  8
STANDARDEBENE
 62
     7
100
AcDbVertex
100
AcDb2dVertex
 10
-13.39349771800579
 20
123.2600043094628
 30
0.0
  0
VERTEX
  5
261
330
255
100
AcDbEntity
  8
STANDARDEBENE
 62
     7
100
AcDbVertex
100
AcDb2dVertex
 10
-15.24489203177906
 20
123.2600043094628
 30
0.0
  0
VERTEX
  5
262
330
255
100
AcDbEntity
  8
STANDARDEBENE
 62
     7
100
AcDbVertex
100
AcDb2dVertex
 10
-17.19722764327014
 20
123.2600043094628
 30
0.0
  0
VERTEX
  5
263
330
255
100
AcDbEntity
  8
STANDARDEBENE
 62
     7
100
AcDbVertex
100
AcDb2dVertex
 10
-19.22983397956754
 20
123.2600043094628
 30
0.0
  0
VERTEX
  5
264
330
255
100
AcDbEntity
  8
STANDARDEBENE
 62
     7
100
AcDbVertex
100
AcDb2dVertex
 10
-21.32376301550239
 20
123.2600043094628
 30
0.0
  0
VERTEX
  5
265
330
255
100
AcDbEntity
  8
STANDARDEBENE
 62
     7
100
AcDbVertex
100
AcDb2dVertex
 10
-23.45972221635729
 20
123.2600043094628
 30
0.0
  0
VERTEX
  5
266
330
255
100
AcDbEntity
  8
STANDARDEBENE
 62
     7
100
AcDbVertex
100
AcDb2dVertex
 10
-25.61635199012369
 20
123.2600043094628
 30
0.0
  0
VERTEX
  5
267
330
255
100
AcDbEntity
  8
STANDARDEBENE
 62
     7
100
AcDbVertex
100
AcDb2dVertex
 10
-27.77229274479304
 20
123.2600043094628
 30
0.0
  0
VERTEX
  5
268
330
255
100
AcDbEntity
  8
STANDARDEBENE
 62
     7
100
AcDbVertex
100
AcDb2dVertex
 10
-29.90859645519646
 20
123.2600043094628
 30
0.0
  0
VERTEX
  5
269
330
255
100
AcDbEntity
  8
STANDARDEBENE
 62
     7
100
AcDbVertex
100
AcDb2dVertex
 10
-32.00252549113132
 20
123.2600043094628
 30
0.0
  0
VERTEX
  5
26A
330
255
100
AcDbEntity
  8
STANDARDEBENE
 62
     7
100
AcDbVertex
100
AcDb2dVertex
 10
-34.03513182742872
 20
123.2600043094628
 30
0.0
  0
VERTEX
  5
26B
330
255
100
AcDbEntity
  8
STANDARDEBENE
 62
     7
100
AcDbVertex
100
AcDb2dVertex
 10
-35.98677841982275
 20
123.2600043094628
 30
0.0
  0
VERTEX
  5
26C
330
255
100
AcDbEntity
  8
STANDARDEBENE
 62
     7
100
AcDbVertex
100
AcDb2dVertex
 10
-37.83851724314454
 20
123.2600043094628
 30
0.0
  0
VERTEX
  5
26D
330
255
100
AcDbEntity
  8
STANDARDEBENE
 62
     7
100
AcDbVertex
100
AcDb2dVertex
 10
-39.57243380087078
 20
123.2600043094628
 30
0.0
  0
VERTEX
  5
26E
330
255
100
AcDbEntity
  8
STANDARDEBENE
 62
     7
100
AcDbVertex
100
AcDb2dVertex
 10
-41.17199163467228
 20
123.2600043094628
 30
0.0
  0
VERTEX
  5
26F
330
255
100
AcDbEntity
  8
STANDARDEBENE
 62
     7
100
AcDbVertex
100
AcDb2dVertex
 10
-42.62203232441394
 20
123.2600043094628
 30
0.0
  0
VERTEX
  5
270
330
255
100
AcDbEntity
  8
STANDARDEBENE
 62
     7
100
AcDbVertex
100
AcDb2dVertex
 10
-43.9080864690577
 20
123.2600043094628
 30
0.0
  0
VERTEX
  5
271
330
255
100
AcDbEntity
  8
STANDARDEBENE
 62
     7
100
AcDbVertex
100
AcDb2dVertex
 10
-45.01844074395373
 20
123.2600043094628
 30
0.0
  0
VERTEX
  5
272
330
255
100
AcDbEntity
  8
STANDARDEBENE
 62
     7
100
AcDbVertex
100
AcDb2dVertex
 10
-45.94138182445216
 20
123.2600043094628
 30
0.0
  0
VERTEX
  5
273
330
255
100
AcDbEntity
  8
STANDARDEBENE
 62
     7
100
AcDbVertex
100
AcDb2dVertex
 10
-46.66898599093692
 20
123.2600043094628
 30
0.0
  0
VERTEX
  5
274
330
255
100
AcDbEntity
  8
STANDARDEBENE
 62
     7
100
AcDbVertex
100
AcDb2dVertex
 10
-47.19332952379195
 20
123.2600043094628
 30
0.0
  0
VERTEX
  5
275
330
255
100
AcDbEntity
  8
STANDARDEBENE
 62
     7
100
AcDbVertex
100
AcDb2dVertex
 10
-47.50993379888641
 20
123.2600043094628
 30
0.0
  0
VERTEX
  5
276
330
255
100
AcDbEntity
  8
STANDARDEBENE
 62
     7
100
AcDbVertex
100
AcDb2dVertex
 10
-47.6160427398321
 20
123.2600043094628
 30
0.0
  0
SEQEND
  5
277
330
255
100
AcDbEntity
  8
STANDARDEBENE
  0
POLYLINE
  5
278
330
1F
100
AcDbEntity
  8
STANDARDEBENE
 62
     7
100
AcDb2dPolyline
 66
     1
 10
0.0
 20
0.0
 30
0.0
  0
VERTEX
  5
279
330
278
100
AcDbEntity
  8
STANDARDEBENE
 62
     7
100
AcDbVertex
100
AcDb2dVertex
 10
-3.615972221318229
 20
131.2600327905357
 30
0.0
  0
VERTEX
  5
27A
330
278
100
AcDbEntity
  8
STANDARDEBENE
 62
     7
100
AcDbVertex
100
AcDb2dVertex
 10
-3.722081162263924
 20
131.2600327905357
 30
0.0
  0
VERTEX
  5
27B
330
278
100
AcDbEntity
  8
STANDARDEBENE
 62
     7
100
AcDbVertex
100
AcDb2dVertex
 10
-4.03902994690691
 20
131.2600327905357
 30
0.0
  0
VERTEX
  5
27C
330
278
100
AcDbEntity
  8
STANDARDEBENE
 62
     7
100
AcDbVertex
100
AcDb2dVertex
 10
-4.563028970213409
 20
131.2600327905357
 30
0.0
  0
VERTEX
  5
27D
330
278
100
AcDbEntity
  8
STANDARDEBENE
 62
     7
100
AcDbVertex
100
AcDb2dVertex
 10
-5.2909776462467
 20
131.2600327905357
 30
0.0
  0
VERTEX
  5
27E
330
278
100
AcDbEntity
  8
STANDARDEBENE
 62
     7
100
AcDbVertex
100
AcDb2dVertex
 10
-6.213574217196607
 20
131.2600327905357
 30
0.0
  0
VERTEX
  5
27F
330
278
100
AcDbEntity
  8
STANDARDEBENE
 62
     7
100
AcDbVertex
100
AcDb2dVertex
 10
-7.323583982544104
 20
131.2600327905357
 30
0.0
  0
VERTEX
  5
280
330
278
100
AcDbEntity
  8
STANDARDEBENE
 62
     7
100
AcDbVertex
100
AcDb2dVertex
 10
-8.609982636736394
 20
131.2600327905357
 30
0.0
  0
VERTEX
  5
281
330
278
100
AcDbEntity
  8
STANDARDEBENE
 62
     7
100
AcDbVertex
100
AcDb2dVertex
 10
-10.05967881692952
 20
131.2600327905357
 30
0.0
  0
VERTEX
  5
282
330
278
100
AcDbEntity
  8
STANDARDEBENE
 62
     7
100
AcDbVertex
100
AcDb2dVertex
 10
-11.65958116027955
 20
131.2600327905357
 30
0.0
  0
VERTEX
  5
283
330
278
100
AcDbEntity
  8
STANDARDEBENE
 62
     7
100
AcDbVertex
100
AcDb2dVertex
 10
-13.39349771800579
 20
131.2600327905357
 30
0.0
  0
VERTEX
  5
284
330
278
100
AcDbEntity
  8
STANDARDEBENE
 62
     7
100
AcDbVertex
100
AcDb2dVertex
 10
-15.24489203177906
 20
131.2600327905357
 30
0.0
  0
VERTEX
  5
285
330
278
100
AcDbEntity
  8
STANDARDEBENE
 62
     7
100
AcDbVertex
100
AcDb2dVertex
 10
-17.19722764327014
 20
131.2600327905357
 30
0.0
  0
VERTEX
  5
286
330
278
100
AcDbEntity
  8
STANDARDEBENE
 62
     7
100
AcDbVertex
100
AcDb2dVertex
 10
-19.22983397956754
 20
131.2600327905357
 30
0.0
  0
VERTEX
  5
287
330
278
100
AcDbEntity
  8
STANDARDEBENE
 62
     7
100
AcDbVertex
100
AcDb2dVertex
 10
-21.32376301550239
 20
131.2600327905357
 30
0.0
  0
VERTEX
  5
288
330
278
100
AcDbEntity
  8
STANDARDEBENE
 62
     7
100
AcDbVertex
100
AcDb2dVertex
 10
-23.45972221635729
 20
131.2600327905357
 30
0.0
  0
VERTEX
  5
289
330
278
100
AcDbEntity
  8
STANDARDEBENE
 62
     7
100
AcDbVertex
100
AcDb2dVertex
 10
-25.61635199012369
 20
131.2600327905357
 30
0.0
  0
VERTEX
  5
28A
330
278
100
AcDbEntity
  8
STANDARDEBENE
 62
     7
100
AcDbVertex
100
AcDb2dVertex
 10
-27.77229274479304
 20
131.2600327905357
 30
0.0
  0
VERTEX
  5
28B
330
278
100
AcDbEntity
  8
STANDARDEBENE
 62
     7
100
AcDbVertex
100
AcDb2dVertex
 10
-29.90859645519646
 20
131.2600327905357
 30
0.0
  0
VERTEX
  5
28C
330
278
100
AcDbEntity
  8
STANDARDEBENE
 62
     7
100
AcDbVertex
100
AcDb2dVertex
 10
-32.00252549113132
 20
131.2600327905357
 30
0.0
  0
VERTEX
  5
28D
330
278
100
AcDbEntity
  8
STANDARDEBENE
 62
     7
100
AcDbVertex
100
AcDb2dVertex
 10
-34.03513182742872
 20
131.2600327905357
 30
0.0
  0
VERTEX
  5
28E
330
278
100
AcDbEntity
  8
STANDARDEBENE
 62
     7
100
AcDbVertex
100
AcDb2dVertex
 10
-35.98677841982275
 20
131.2600327905357
 30
0.0
  0
VERTEX
  5
28F
330
278
100
AcDbEntity
  8
STANDARDEBENE
 62
     7
100
AcDbVertex
100
AcDb2dVertex
 10
-37.83851724314454
 20
131.2600327905357
 30
0.0
  0
VERTEX
  5
290
330
278
100
AcDbEntity
  8
STANDARDEBENE
 62
     7
100
AcDbVertex
100
AcDb2dVertex
 10
-39.57243380087078
 20
131.2600327905357
 30
0.0
  0
VERTEX
  5
291
330
278
100
AcDbEntity
  8
STANDARDEBENE
 62
     7
100
AcDbVertex
100
AcDb2dVertex
 10
-41.17199163467228
 20
131.2600327905357
 30
0.0
  0
VERTEX
  5
292
330
278
100
AcDbEntity
  8
STANDARDEBENE
 62
     7
100
AcDbVertex
100
AcDb2dVertex
 10
-42.62203232441394
 20
131.2600327905357
 30
0.0
  0
VERTEX
  5
293
330
278
100
AcDbEntity
  8
STANDARDEBENE
 62
     7
100
AcDbVertex
100
AcDb2dVertex
 10
-43.9080864690577
 20
131.2600327905357
 30
0.0
  0
VERTEX
  5
294
330
278
100
AcDbEntity
  8
STANDARDEBENE
 62
     7
100
AcDbVertex
100
AcDb2dVertex
 10
-45.01844074395373
 20
131.2600327905357
 30
0.0
  0
VERTEX
  5
295
330
278
100
AcDbEntity
  8
STANDARDEBENE
 62
     7
100
AcDbVertex
100
AcDb2dVertex
 10
-45.94138182445216
 20
131.2600327905357
 30
0.0
  0
VERTEX
  5
296
330
278
100
AcDbEntity
  8
STANDARDEBENE
 62
     7
100
AcDbVertex
100
AcDb2dVertex
 10
-46.66898599093692
 20
131.2600327905357
 30
0.0
  0
VERTEX
  5
297
330
278
100
AcDbEntity
  8
STANDARDEBENE
 62
     7
100
AcDbVertex
100
AcDb2dVertex
 10
-47.19332952379195
 20
131.2600327905357
 30
0.0
  0
VERTEX
  5
298
330
278
100
AcDbEntity
  8
STANDARDEBENE
 62
     7
100
AcDbVertex
100
AcDb2dVertex
 10
-47.50993379888641
 20
131.2600327905357
 30
0.0
  0
VERTEX
  5
299
330
278
100
AcDbEntity
  8
STANDARDEBENE
 62
     7
100
AcDbVertex
100
AcDb2dVertex
 10
-47.6160427398321
 20
131.2600327905357
 30
0.0
  0
SEQEND
  5
29A
330
278
100
AcDbEntity
  8
STANDARDEBENE
  0
POLYLINE
  5
29B
330
1F
100
AcDbEntity
  8
STANDARDEBENE
 62
     7
100
AcDb2dPolyline
 66
     1
 10
0.0
 20
0.0
 30
0.0
  0
VERTEX
  5
29C
330
29B
100
AcDbEntity
  8
STANDARDEBENE
 62
     7
100
AcDbVertex
100
AcDb2dVertex
 10
-4.116200085776506
 20
122.7597764450045
 30
0.0
  0
VERTEX
  5
29D
330
29B
100
AcDbEntity
  8
STANDARDEBENE
 62
     7
100
AcDbVertex
100
AcDb2dVertex
 10
-4.219897459882525
 20
122.7597764450045
 30
0.0
  0
VERTEX
  5
29E
330
29B
100
AcDbEntity
  8
STANDARDEBENE
 62
     7
100
AcDbVertex
100
AcDb2dVertex
 10
-4.529267034457961
 20
122.7597764450045
 30
0.0
  0
VERTEX
  5
29F
330
29B
100
AcDbEntity
  8
STANDARDEBENE
 62
     7
100
AcDbVertex
100
AcDb2dVertex
 10
-5.041897242663137
 20
122.7597764450045
 30
0.0
  0
VERTEX
  5
2A0
330
29B
100
AcDbEntity
  8
STANDARDEBENE
 62
     7
100
AcDbVertex
100
AcDb2dVertex
 10
-5.752620441270179
 20
122.7597764450045
 30
0.0
  0
VERTEX
  5
2A1
330
29B
100
AcDbEntity
  8
STANDARDEBENE
 62
     7
100
AcDbVertex
100
AcDb2dVertex
 10
-6.654546439308586
 20
122.7597764450045
 30
0.0
  0
VERTEX
  5
2A2
330
29B
100
AcDbEntity
  8
STANDARDEBENE
 62
     7
100
AcDbVertex
100
AcDb2dVertex
 10
-7.739407007613759
 20
122.7597764450045
 30
0.0
  0
VERTEX
  5
2A3
330
29B
100
AcDbEntity
  8
STANDARDEBENE
 62
     7
100
AcDbVertex
100
AcDb2dVertex
 10
-8.99686685972995
 20
122.7597764450045
 30
0.0
  0
VERTEX
  5
2A4
330
29B
100
AcDbEntity
  8
STANDARDEBENE
 62
     7
100
AcDbVertex
100
AcDb2dVertex
 10
-10.41280110416763
 20
122.7597764450045
 30
0.0
  0
VERTEX
  5
2A5
330
29B
100
AcDbEntity
  8
STANDARDEBENE
 62
     7
100
AcDbVertex
100
AcDb2dVertex
 10
-11.97652994492253
 20
122.7597764450045
 30
0.0
  0
VERTEX
  5
2A6
330
29B
100
AcDbEntity
  8
STANDARDEBENE
 62
     7
100
AcDbVertex
100
AcDb2dVertex
 10
-13.67151692366545
 20
122.7597764450045
 30
0.0
  0
VERTEX
  5
2A7
330
29B
100
AcDbEntity
  8
STANDARDEBENE
 62
     7
100
AcDbVertex
100
AcDb2dVertex
 10
-15.48122558206719
 20
122.7597764450045
 30
0.0
  0
VERTEX
  5
2A8
330
29B
100
AcDbEntity
  8
STANDARDEBENE
 62
     7
100
AcDbVertex
100
AcDb2dVertex
 10
-17.38808593315298
 20
122.7597764450045
 30
0.0
  0
VERTEX
  5
2A9
330
29B
100
AcDbEntity
  8
STANDARDEBENE
 62
     7
100
AcDbVertex
100
AcDb2dVertex
 10
-19.37521700904508
 20
122.7597764450045
 30
0.0
  0
VERTEX
  5
2AA
330
29B
100
AcDbEntity
  8
STANDARDEBENE
 62
     7
100
AcDbVertex
100
AcDb2dVertex
 10
-21.42160372728349
 20
122.7597764450045
 30
0.0
  0
VERTEX
  5
2AB
330
29B
100
AcDbEntity
  8
STANDARDEBENE
 62
     7
100
AcDbVertex
100
AcDb2dVertex
 10
-23.50864257224784
 20
122.7597764450045
 30
0.0
  0
VERTEX
  5
2AC
330
29B
100
AcDbEntity
  8
STANDARDEBENE
 62
     7
100
AcDbVertex
100
AcDb2dVertex
 10
-25.61635199012369
 20
122.7597764450045
 30
0.0
  0
VERTEX
  5
2AD
330
29B
100
AcDbEntity
  8
STANDARDEBENE
 62
     7
100
AcDbVertex
100
AcDb2dVertex
 10
-27.72371689845102
 20
122.7597764450045
 30
0.0
  0
VERTEX
  5
2AE
330
29B
100
AcDbEntity
  8
STANDARDEBENE
 62
     7
100
AcDbVertex
100
AcDb2dVertex
 10
-29.81075574341537
 20
122.7597764450045
 30
0.0
  0
VERTEX
  5
2AF
330
29B
100
AcDbEntity
  8
STANDARDEBENE
 62
     7
100
AcDbVertex
100
AcDb2dVertex
 10
-31.85714246165377
 20
122.7597764450045
 30
0.0
  0
VERTEX
  5
2B0
330
29B
100
AcDbEntity
  8
STANDARDEBENE
 62
     7
100
AcDbVertex
100
AcDb2dVertex
 10
-33.84358451844883
 20
122.7597764450045
 30
0.0
  0
VERTEX
  5
2B1
330
29B
100
AcDbEntity
  8
STANDARDEBENE
 62
     7
100
AcDbVertex
100
AcDb2dVertex
 10
-35.75113388863166
 20
122.7597764450045
 30
0.0
  0
VERTEX
  5
2B2
330
29B
100
AcDbEntity
  8
STANDARDEBENE
 62
     7
100
AcDbVertex
100
AcDb2dVertex
 10
-37.56049803748488
 20
122.7597764450045
 30
0.0
  0
VERTEX
  5
2B3
330
29B
100
AcDbEntity
  8
STANDARDEBENE
 62
     7
100
AcDbVertex
100
AcDb2dVertex
 10
-39.25514050667928
 20
122.7597764450045
 30
0.0
  0
VERTEX
  5
2B4
330
29B
100
AcDbEntity
  8
STANDARDEBENE
 62
     7
100
AcDbVertex
100
AcDb2dVertex
 10
-40.81886934743417
 20
122.7597764450045
 30
0.0
  0
VERTEX
  5
2B5
330
29B
100
AcDbEntity
  8
STANDARDEBENE
 62
     7
100
AcDbVertex
100
AcDb2dVertex
 10
-42.23583712051743
 20
122.7597764450045
 30
0.0
  0
VERTEX
  5
2B6
330
29B
100
AcDbEntity
  8
STANDARDEBENE
 62
     7
100
AcDbVertex
100
AcDb2dVertex
 10
-43.49260795353657
 20
122.7597764450045
 30
0.0
  0
VERTEX
  5
2B7
330
29B
100
AcDbEntity
  8
STANDARDEBENE
 62
     7
100
AcDbVertex
100
AcDb2dVertex
 10
-44.57746852184174
 20
122.7597764450045
 30
0.0
  0
VERTEX
  5
2B8
330
29B
100
AcDbEntity
  8
STANDARDEBENE
 62
     7
100
AcDbVertex
100
AcDb2dVertex
 10
-45.47905001033163
 20
122.7597764450045
 30
0.0
  0
VERTEX
  5
2B9
330
29B
100
AcDbEntity
  8
STANDARDEBENE
 62
     7
100
AcDbVertex
100
AcDb2dVertex
 10
-46.19011771848719
 20
122.7597764450045
 30
0.0
  0
VERTEX
  5
2BA
330
29B
100
AcDbEntity
  8
STANDARDEBENE
 62
     7
100
AcDbVertex
100
AcDb2dVertex
 10
-46.70309243624089
 20
122.7597764450045
 30
0.0
  0
VERTEX
  5
2BB
330
29B
100
AcDbEntity
  8
STANDARDEBENE
 62
     7
100
AcDbVertex
100
AcDb2dVertex
 10
-47.01246201081633
 20
122.7597764450045
 30
0.0
  0
VERTEX
  5
2BC
330
29B
100
AcDbEntity
  8
STANDARDEBENE
 62
     7
100
AcDbVertex
100
AcDb2dVertex
 10
-47.11650389447087
 20
122.7597764450045
 30
0.0
  0
SEQEND
  5
2BD
330
29B
100
AcDbEntity
  8
STANDARDEBENE
  0
POLYLINE
  5
2BE
330
1F
100
AcDbEntity
  8
STANDARDEBENE
 62
     7
100
AcDb2dPolyline
 66
     1
 10
0.0
 20
0.0
 30
0.0
  0
VERTEX
  5
2BF
330
2BE
100
AcDbEntity
  8
STANDARDEBENE
 62
     7
100
AcDbVertex
100
AcDb2dVertex
 10
-4.012847221219011
 20
134.4925658843456
 30
0.0
  0
VERTEX
  5
2C0
330
2BE
100
AcDbEntity
  8
STANDARDEBENE
 62
     7
100
AcDbVertex
100
AcDb2dVertex
 10
-4.117233614422081
 20
134.4925658843456
 30
0.0
  0
VERTEX
  5
2C1
330
2BE
100
AcDbEntity
  8
STANDARDEBENE
 62
     7
100
AcDbVertex
100
AcDb2dVertex
 10
-4.427981227191616
 20
134.4925658843456
 30
0.0
  0
VERTEX
  5
2C2
330
2BE
100
AcDbEntity
  8
STANDARDEBENE
 62
     7
100
AcDbVertex
100
AcDb2dVertex
 10
-4.943367511784992
 20
134.4925658843456
 30
0.0
  0
VERTEX
  5
2C3
330
2BE
100
AcDbEntity
  8
STANDARDEBENE
 62
     7
100
AcDbVertex
100
AcDb2dVertex
 10
-5.657191296328758
 20
134.4925658843456
 30
0.0
  0
VERTEX
  5
2C4
330
2BE
100
AcDbEntity
  8
STANDARDEBENE
 62
     7
100
AcDbVertex
100
AcDb2dVertex
 10
-6.563940428046515
 20
134.4925658843456
 30
0.0
  0
VERTEX
  5
2C5
330
2BE
100
AcDbEntity
  8
STANDARDEBENE
 62
     7
100
AcDbVertex
100
AcDb2dVertex
 10
-7.653624130031039
 20
134.4925658843456
 30
0.0
  0
VERTEX
  5
2C6
330
2BE
100
AcDbEntity
  8
STANDARDEBENE
 62
     7
100
AcDbVertex
100
AcDb2dVertex
 10
-8.917285154020679
 20
134.4925658843456
 30
0.0
  0
VERTEX
  5
2C7
330
2BE
100
AcDbEntity
  8
STANDARDEBENE
 62
     7
100
AcDbVertex
100
AcDb2dVertex
 10
-10.34045409897739
 20
134.4925658843456
 30
0.0
  0
VERTEX
  5
2C8
330
2BE
100
AcDbEntity
  8
STANDARDEBENE
 62
     7
100
AcDbVertex
100
AcDb2dVertex
 10
-11.91141764025131
 20
134.4925658843456
 30
0.0
  0
VERTEX
  5
2C9
330
2BE
100
AcDbEntity
  8
STANDARDEBENE
 62
     7
100
AcDbVertex
100
AcDb2dVertex
 10
-13.61398382906178
 20
134.4925658843456
 30
0.0
  0
VERTEX
  5
2CA
330
2BE
100
AcDbEntity
  8
STANDARDEBENE
 62
     7
100
AcDbVertex
100
AcDb2dVertex
 10
-15.43230522617665
 20
134.4925658843456
 30
0.0
  0
VERTEX
  5
2CB
330
2BE
100
AcDbEntity
  8
STANDARDEBENE
 62
     7
100
AcDbVertex
100
AcDb2dVertex
 10
-17.34881184462113
 20
134.4925658843456
 30
0.0
  0
VERTEX
  5
2CC
330
2BE
100
AcDbEntity
  8
STANDARDEBENE
 62
     7
100
AcDbVertex
100
AcDb2dVertex
 10
-19.34558918787194
 20
134.4925658843456
 30
0.0
  0
VERTEX
  5
2CD
330
2BE
100
AcDbEntity
  8
STANDARDEBENE
 62
     7
100
AcDbVertex
100
AcDb2dVertex
 10
-21.40162217346904
 20
134.4925658843456
 30
0.0
  0
VERTEX
  5
2CE
330
2BE
100
AcDbEntity
  8
STANDARDEBENE
 62
     7
100
AcDbVertex
100
AcDb2dVertex
 10
-23.49865179534062
 20
134.4925658843456
 30
0.0
  0
VERTEX
  5
2CF
330
2BE
100
AcDbEntity
  8
STANDARDEBENE
 62
     7
100
AcDbVertex
100
AcDb2dVertex
 10
-25.61635199012369
 20
134.4925658843456
 30
0.0
  0
VERTEX
  5
2D0
330
2BE
100
AcDbEntity
  8
STANDARDEBENE
 62
     7
100
AcDbVertex
100
AcDb2dVertex
 10
-27.73370767535824
 20
134.4925658843456
 30
0.0
  0
VERTEX
  5
2D1
330
2BE
100
AcDbEntity
  8
STANDARDEBENE
 62
     7
100
AcDbVertex
100
AcDb2dVertex
 10
-29.83073729722982
 20
134.4925658843456
 30
0.0
  0
VERTEX
  5
2D2
330
2BE
100
AcDbEntity
  8
STANDARDEBENE
 62
     7
100
AcDbVertex
100
AcDb2dVertex
 10
-31.88677028282692
 20
134.4925658843456
 30
0.0
  0
VERTEX
  5
2D3
330
2BE
100
AcDbEntity
  8
STANDARDEBENE
 62
     7
100
AcDbVertex
100
AcDb2dVertex
 10
-33.88354762607773
 20
134.4925658843456
 30
0.0
  0
VERTEX
  5
2D4
330
2BE
100
AcDbEntity
  8
STANDARDEBENE
 62
     7
100
AcDbVertex
100
AcDb2dVertex
 10
-35.79970973497368
 20
134.4925658843456
 30
0.0
  0
VERTEX
  5
2D5
330
2BE
100
AcDbEntity
  8
STANDARDEBENE
 62
     7
100
AcDbVertex
100
AcDb2dVertex
 10
-37.61803113208855
 20
134.4925658843456
 30
0.0
  0
VERTEX
  5
2D6
330
2BE
100
AcDbEntity
  8
STANDARDEBENE
 62
     7
100
AcDbVertex
100
AcDb2dVertex
 10
-39.32025281135049
 20
134.4925658843456
 30
0.0
  0
VERTEX
  5
2D7
330
2BE
100
AcDbEntity
  8
STANDARDEBENE
 62
     7
100
AcDbVertex
100
AcDb2dVertex
 10
-40.89121635262442
 20
134.4925658843456
 30
0.0
  0
VERTEX
  5
2D8
330
2BE
100
AcDbEntity
  8
STANDARDEBENE
 62
     7
100
AcDbVertex
100
AcDb2dVertex
 10
-42.3154188262267
 20
134.4925658843456
 30
0.0
  0
VERTEX
  5
2D9
330
2BE
100
AcDbEntity
  8
STANDARDEBENE
 62
     7
100
AcDbVertex
100
AcDb2dVertex
 10
-43.57839083111929
 20
134.4925658843456
 30
0.0
  0
VERTEX
  5
2DA
330
2BE
100
AcDbEntity
  8
STANDARDEBENE
 62
     7
100
AcDbVertex
100
AcDb2dVertex
 10
-44.66841904265234
 20
134.4925658843456
 30
0.0
  0
VERTEX
  5
2DB
330
2BE
100
AcDbEntity
  8
STANDARDEBENE
 62
     7
100
AcDbVertex
100
AcDb2dVertex
 10
-45.57413464572453
 20
134.4925658843456
 30
0.0
  0
VERTEX
  5
2DC
330
2BE
100
AcDbEntity
  8
STANDARDEBENE
 62
     7
100
AcDbVertex
100
AcDb2dVertex
 10
-46.28899195891387
 20
134.4925658843456
 30
0.0
  0
VERTEX
  5
2DD
330
2BE
100
AcDbEntity
  8
STANDARDEBENE
 62
     7
100
AcDbVertex
100
AcDb2dVertex
 10
-46.80403373395872
 20
134.4925658843456
 30
0.0
  0
VERTEX
  5
2DE
330
2BE
100
AcDbEntity
  8
STANDARDEBENE
 62
     7
100
AcDbVertex
100
AcDb2dVertex
 10
-47.11512585627678
 20
134.4925658843456
 30
0.0
  0
VERTEX
  5
2DF
330
2BE
100
AcDbEntity
  8
STANDARDEBENE
 62
     7
100
AcDbVertex
100
AcDb2dVertex
 10
-47.21916773993132
 20
134.4925658843456
 30
0.0
  0
SEQEND
  5
2E0
330
2BE
100
AcDbEntity
  8
STANDARDEBENE
  0
SPLINE
  5
2E1
330
1F
100
AcDbEntity
  8
STANDARDEBENE
 62
     7
100
AcDbSpline
210
0.0
220
0.0
230
1.0
 70
     8
 71
     3
 72
     8
 73
     4
 74
     0
 42
0.0000000001
 43
0.0000000001
 40
0.0
 40
0.0
 40
0.0
 40
0.0
 40
1.0
 40
1.0
 40
1.0
 40
1.0
 10
-5.115966795596009
 20
122.7597764450045
 30
0.0
 10
-5.39191894396452
 20
122.7597764450045
 30
0.0
 10
-5.616194660054285
 20
122.5365342575603
 30
0.0
 10
-5.616194660054285
 20
122.2602375996433
 30
0.0
  0
SPLINE
  5
2E2
330
1F
100
AcDbEntity
  8
STANDARDEBENE
 62
     7
100
AcDbSpline
210
0.0
220
0.0
230
1.0
 70
     8
 71
     3
 72
     8
 73
     4
 74
     0
 42
0.0000000001
 43
0.0000000001
 40
0.0
 40
0.0
 40
0.0
 40
0.0
 40
1.0
 40
1.0
 40
1.0
 40
1.0
 10
-45.61616481064457
 20
122.2602375996433
 30
0.0
 10
-45.61616481064457
 20
122.5365342575603
 30
0.0
 10
-45.84009601718581
 20
122.7597764450045
 30
0.0
 10
-46.11604816555433
 20
122.7597764450045
 30
0.0
  0
POLYLINE
  5
2E3
330
1F
100
AcDbEntity
  8
STANDARDEBENE
 62
     7
100
AcDb2dPolyline
 66
     1
 10
0.0
 20
0.0
 30
0.0
  0
VERTEX
  5
2E4
330
2E3
100
AcDbEntity
  8
STANDARDEBENE
 62
     7
100
AcDbVertex
100
AcDb2dVertex
 10
-45.11559243663777
 20
118.7607096057265
 30
0.0
  0
VERTEX
  5
2E5
330
2E3
100
AcDbEntity
  8
STANDARDEBENE
 62
     7
100
AcDbVertex
100
AcDb2dVertex
 10
-45.00913898614355
 20
118.7607096057265
 30
0.0
  0
VERTEX
  5
2E6
330
2E3
100
AcDbEntity
  8
STANDARDEBENE
 62
     7
100
AcDbVertex
100
AcDb2dVertex
 10
-44.68977863466089
 20
118.7607096057265
 30
0.0
  0
VERTEX
  5
2E7
330
2E3
100
AcDbEntity
  8
STANDARDEBENE
 62
     7
100
AcDbVertex
100
AcDb2dVertex
 10
-44.16164549677209
 20
118.7607096057265
 30
0.0
  0
VERTEX
  5
2E8
330
2E3
100
AcDbEntity
  8
STANDARDEBENE
 62
     7
100
AcDbVertex
100
AcDb2dVertex
 10
-43.43025172525355
 20
118.7607096057265
 30
0.0
  0
VERTEX
  5
2E9
330
2E3
100
AcDbEntity
  8
STANDARDEBENE
 62
     7
100
AcDbVertex
100
AcDb2dVertex
 10
-42.50352103972134
 20
118.7607096057265
 30
0.0
  0
VERTEX
  5
2EA
330
2E3
100
AcDbEntity
  8
STANDARDEBENE
 62
     7
100
AcDbVertex
100
AcDb2dVertex
 10
-41.39213323617975
 20
118.7607096057265
 30
0.0
  0
VERTEX
  5
2EB
330
2E3
100
AcDbEntity
  8
STANDARDEBENE
 62
     7
100
AcDbVertex
100
AcDb2dVertex
 10
-40.10780163927861
 20
118.7607096057265
 30
0.0
  0
VERTEX
  5
2EC
330
2E3
100
AcDbEntity
  8
STANDARDEBENE
 62
     7
100
AcDbVertex
100
AcDb2dVertex
 10
-38.6639621214104
 20
118.7607096057265
 30
0.0
  0
VERTEX
  5
2ED
330
2E3
100
AcDbEntity
  8
STANDARDEBENE
 62
     7
100
AcDbVertex
100
AcDb2dVertex
 10
-37.07749565045285
 20
118.7607096057265
 30
0.0
  0
VERTEX
  5
2EE
330
2E3
100
AcDbEntity
  8
STANDARDEBENE
 62
     7
100
AcDbVertex
100
AcDb2dVertex
 10
-35.36597221338073
 20
118.7607096057265
 30
0.0
  0
VERTEX
  5
2EF
330
2E3
100
AcDbEntity
  8
STANDARDEBENE
 62
     7
100
AcDbVertex
100
AcDb2dVertex
 10
-33.54730630671734
 20
118.7607096057265
 30
0.0
  0
VERTEX
  5
2F0
330
2E3
100
AcDbEntity
  8
STANDARDEBENE
 62
     7
100
AcDbVertex
100
AcDb2dVertex
 10
-31.64147948427713
 20
118.7607096057265
 30
0.0
  0
VERTEX
  5
2F1
330
2E3
100
AcDbEntity
  8
STANDARDEBENE
 62
     7
100
AcDbVertex
100
AcDb2dVertex
 10
-29.6705403571657
 20
118.7607096057265
 30
0.0
  0
VERTEX
  5
2F2
330
2E3
100
AcDbEntity
  8
STANDARDEBENE
 62
     7
100
AcDbVertex
100
AcDb2dVertex
 10
-27.65412596964897
 20
118.7607096057265
 30
0.0
  0
VERTEX
  5
2F3
330
2E3
100
AcDbEntity
  8
STANDARDEBENE
 62
     7
100
AcDbVertex
100
AcDb2dVertex
 10
-25.61635199012369
 20
118.7607096057265
 30
0.0
  0
VERTEX
  5
2F4
330
2E3
100
AcDbEntity
  8
STANDARDEBENE
 62
     7
100
AcDbVertex
100
AcDb2dVertex
 10
-23.57754448195284
 20
118.7607096057265
 30
0.0
  0
VERTEX
  5
2F5
330
2E3
100
AcDbEntity
  8
STANDARDEBENE
 62
     7
100
AcDbVertex
100
AcDb2dVertex
 10
-21.56181911353316
 20
118.7607096057265
 30
0.0
  0
VERTEX
  5
2F6
330
2E3
100
AcDbEntity
  8
STANDARDEBENE
 62
     7
100
AcDbVertex
100
AcDb2dVertex
 10
-19.59019096732468
 20
118.7607096057265
 30
0.0
  0
VERTEX
  5
2F7
330
2E3
100
AcDbEntity
  8
STANDARDEBENE
 62
     7
100
AcDbVertex
100
AcDb2dVertex
 10
-17.68505316398151
 20
118.7607096057265
 30
0.0
  0
VERTEX
  5
2F8
330
2E3
100
AcDbEntity
  8
STANDARDEBENE
 62
     7
100
AcDbVertex
100
AcDb2dVertex
 10
-15.8660427477696
 20
118.7607096057265
 30
0.0
  0
VERTEX
  5
2F9
330
2E3
100
AcDbEntity
  8
STANDARDEBENE
 62
     7
100
AcDbVertex
100
AcDb2dVertex
 10
-14.15417480114896
 20
118.7607096057265
 30
0.0
  0
VERTEX
  5
2FA
330
2E3
100
AcDbEntity
  8
STANDARDEBENE
 62
     7
100
AcDbVertex
100
AcDb2dVertex
 10
-12.56770833019141
 20
118.7607096057265
 30
0.0
  0
VERTEX
  5
2FB
330
2E3
100
AcDbEntity
  8
STANDARDEBENE
 62
     7
100
AcDbVertex
100
AcDb2dVertex
 10
-11.12455783142025
 20
118.7607096057265
 30
0.0
  0
VERTEX
  5
2FC
330
2E3
100
AcDbEntity
  8
STANDARDEBENE
 62
     7
100
AcDbVertex
100
AcDb2dVertex
 10
-9.840570744067636
 20
118.7607096057265
 30
0.0
  0
VERTEX
  5
2FD
330
2E3
100
AcDbEntity
  8
STANDARDEBENE
 62
     7
100
AcDbVertex
100
AcDb2dVertex
 10
-8.728493921428989
 20
118.7607096057265
 30
0.0
  0
VERTEX
  5
2FE
330
2E3
100
AcDbEntity
  8
STANDARDEBENE
 62
     7
100
AcDbVertex
100
AcDb2dVertex
 10
-7.801418726348257
 20
118.7607096057265
 30
0.0
  0
VERTEX
  5
2FF
330
2E3
100
AcDbEntity
  8
STANDARDEBENE
 62
     7
100
AcDbVertex
100
AcDb2dVertex
 10
-7.070713973926766
 20
118.7607096057265
 30
0.0
  0
VERTEX
  5
300
330
2E3
100
AcDbEntity
  8
STANDARDEBENE
 62
     7
100
AcDbVertex
100
AcDb2dVertex
 10
-6.542580836037966
 20
118.7607096057265
 30
0.0
  0
VERTEX
  5
301
330
2E3
100
AcDbEntity
  8
STANDARDEBENE
 62
     7
100
AcDbVertex
100
AcDb2dVertex
 10
-6.222531465458256
 20
118.7607096057265
 30
0.0
  0
VERTEX
  5
302
330
2E3
100
AcDbEntity
  8
STANDARDEBENE
 62
     7
100
AcDbVertex
100
AcDb2dVertex
 10
-6.116422524512561
 20
118.7607096057265
 30
0.0
  0
SEQEND
  5
303
330
2E3
100
AcDbEntity
  8
STANDARDEBENE
  0
POLYLINE
  5
304
330
1F
100
AcDbEntity
  8
STANDARDEBENE
 62
     7
100
AcDb2dPolyline
 66
     1
 10
0.0
 20
0.0
 30
0.0
  0
VERTEX
  5
305
330
304
100
AcDbEntity
  8
STANDARDEBENE
 62
     7
100
AcDbVertex
100
AcDb2dVertex
 10
-5.616194660054285
 20
119.2595594319907
 30
0.0
  0
VERTEX
  5
306
330
304
100
AcDbEntity
  8
STANDARDEBENE
 62
     7
100
AcDbVertex
100
AcDb2dVertex
 10
-5.718858505514731
 20
119.2595594319907
 30
0.0
  0
VERTEX
  5
307
330
304
100
AcDbEntity
  8
STANDARDEBENE
 62
     7
100
AcDbVertex
100
AcDb2dVertex
 10
-6.02512749415344
 20
119.2595594319907
 30
0.0
  0
VERTEX
  5
308
330
304
100
AcDbEntity
  8
STANDARDEBENE
 62
     7
100
AcDbVertex
100
AcDb2dVertex
 10
-6.533279078227792
 20
119.2595594319907
 30
0.0
  0
VERTEX
  5
309
330
304
100
AcDbEntity
  8
STANDARDEBENE
 62
     7
100
AcDbVertex
100
AcDb2dVertex
 10
-7.236767576315809
 20
119.2595594319907
 30
0.0
  0
VERTEX
  5
30A
330
304
100
AcDbEntity
  8
STANDARDEBENE
 62
     7
100
AcDbVertex
100
AcDb2dVertex
 10
-8.129047306995517
 20
119.2595594319907
 30
0.0
  0
VERTEX
  5
30B
330
304
100
AcDbEntity
  8
STANDARDEBENE
 62
     7
100
AcDbVertex
100
AcDb2dVertex
 10
-9.200127493359691
 20
119.2595594319907
 30
0.0
  0
VERTEX
  5
30C
330
304
100
AcDbEntity
  8
STANDARDEBENE
 62
     7
100
AcDbVertex
100
AcDb2dVertex
 10
-10.44070637759816
 20
119.2595594319907
 30
0.0
  0
VERTEX
  5
30D
330
304
100
AcDbEntity
  8
STANDARDEBENE
 62
     7
100
AcDbVertex
100
AcDb2dVertex
 10
-11.83665906822139
 20
119.2595594319907
 30
0.0
  0
VERTEX
  5
30E
330
304
100
AcDbEntity
  8
STANDARDEBENE
 62
     7
100
AcDbVertex
100
AcDb2dVertex
 10
-13.37420518328839
 20
119.2595594319907
 30
0.0
  0
VERTEX
  5
30F
330
304
100
AcDbEntity
  8
STANDARDEBENE
 62
     7
100
AcDbVertex
100
AcDb2dVertex
 10
-15.03611924537292
 20
119.2595594319907
 30
0.0
  0
VERTEX
  5
310
330
304
100
AcDbEntity
  8
STANDARDEBENE
 62
     7
100
AcDbVertex
100
AcDb2dVertex
 10
-16.80758734388838
 20
119.2595594319907
 30
0.0
  0
VERTEX
  5
311
330
304
100
AcDbEntity
  8
STANDARDEBENE
 62
     7
100
AcDbVertex
100
AcDb2dVertex
 10
-18.67035047276297
 20
119.2595594319907
 30
0.0
  0
VERTEX
  5
312
330
304
100
AcDbEntity
  8
STANDARDEBENE
 62
     7
100
AcDbVertex
100
AcDb2dVertex
 10
-20.60304903998813
 20
119.2595594319907
 30
0.0
  0
VERTEX
  5
313
330
304
100
AcDbEntity
  8
STANDARDEBENE
 62
     7
100
AcDbVertex
100
AcDb2dVertex
 10
-22.58742403949203
 20
119.2595594319907
 30
0.0
  0
VERTEX
  5
314
330
304
100
AcDbEntity
  8
STANDARDEBENE
 62
     7
100
AcDbVertex
100
AcDb2dVertex
 10
-24.60314940791172
 20
119.2595594319907
 30
0.0
  0
VERTEX
  5
315
330
304
100
AcDbEntity
  8
STANDARDEBENE
 62
     7
100
AcDbVertex
100
AcDb2dVertex
 10
-26.62886555323862
 20
119.2595594319907
 30
0.0
  0
VERTEX
  5
316
330
304
100
AcDbEntity
  8
STANDARDEBENE
 62
     7
100
AcDbVertex
100
AcDb2dVertex
 10
-28.64424641210977
 20
119.2595594319907
 30
0.0
  0
VERTEX
  5
317
330
304
100
AcDbEntity
  8
STANDARDEBENE
 62
     7
100
AcDbVertex
100
AcDb2dVertex
 10
-30.62862141161368
 20
119.2595594319907
 30
0.0
  0
VERTEX
  5
318
330
304
100
AcDbEntity
  8
STANDARDEBENE
 62
     7
100
AcDbVertex
100
AcDb2dVertex
 10
-32.56200899793589
 20
119.2595594319907
 30
0.0
  0
VERTEX
  5
319
330
304
100
AcDbEntity
  8
STANDARDEBENE
 62
     7
100
AcDbVertex
100
AcDb2dVertex
 10
-34.4237385981649
 20
119.2595594319907
 30
0.0
  0
VERTEX
  5
31A
330
304
100
AcDbEntity
  8
STANDARDEBENE
 62
     7
100
AcDbVertex
100
AcDb2dVertex
 10
-36.19555120622889
 20
119.2595594319907
 30
0.0
  0
VERTEX
  5
31B
330
304
100
AcDbEntity
  8
STANDARDEBENE
 62
     7
100
AcDbVertex
100
AcDb2dVertex
 10
-37.85849879695899
 20
119.2595594319907
 30
0.0
  0
VERTEX
  5
31C
330
304
100
AcDbEntity
  8
STANDARDEBENE
 62
     7
100
AcDbVertex
100
AcDb2dVertex
 10
-39.39570040247747
 20
119.2595594319907
 30
0.0
  0
VERTEX
  5
31D
330
304
100
AcDbEntity
  8
STANDARDEBENE
 62
     7
100
AcDbVertex
100
AcDb2dVertex
 10
-40.79130858355217
 20
119.2595594319907
 30
0.0
  0
VERTEX
  5
31E
330
304
100
AcDbEntity
  8
STANDARDEBENE
 62
     7
100
AcDbVertex
100
AcDb2dVertex
 10
-42.03085393914507
 20
119.2595594319907
 30
0.0
  0
VERTEX
  5
31F
330
304
100
AcDbEntity
  8
STANDARDEBENE
 62
     7
100
AcDbVertex
100
AcDb2dVertex
 10
-43.10296765415482
 20
119.2595594319907
 30
0.0
  0
VERTEX
  5
320
330
304
100
AcDbEntity
  8
STANDARDEBENE
 62
     7
100
AcDbVertex
100
AcDb2dVertex
 10
-43.99524738483452
 20
119.2595594319907
 30
0.0
  0
VERTEX
  5
321
330
304
100
AcDbEntity
  8
STANDARDEBENE
 62
     7
100
AcDbVertex
100
AcDb2dVertex
 10
-44.69908039247107
 20
119.2595594319907
 30
0.0
  0
VERTEX
  5
322
330
304
100
AcDbEntity
  8
STANDARDEBENE
 62
     7
100
AcDbVertex
100
AcDb2dVertex
 10
-45.20654295744836
 20
119.2595594319907
 30
0.0
  0
VERTEX
  5
323
330
304
100
AcDbEntity
  8
STANDARDEBENE
 62
     7
100
AcDbVertex
100
AcDb2dVertex
 10
-45.51350096518413
 20
119.2595594319907
 30
0.0
  0
VERTEX
  5
324
330
304
100
AcDbEntity
  8
STANDARDEBENE
 62
     7
100
AcDbVertex
100
AcDb2dVertex
 10
-45.61616481064457
 20
119.2595594319907
 30
0.0
  0
SEQEND
  5
325
330
304
100
AcDbEntity
  8
STANDARDEBENE
  0
POLYLINE
  5
326
330
1F
100
AcDbEntity
  8
STANDARDEBENE
 62
     7
100
AcDb2dPolyline
 66
     1
 10
0.0
 20
0.0
 30
0.0
  0
VERTEX
  5
327
330
326
100
AcDbEntity
  8
STANDARDEBENE
 62
     7
100
AcDbVertex
100
AcDb2dVertex
 10
-8.366069876380704
 20
140.7595390815636
 30
0.0
  0
VERTEX
  5
328
330
326
100
AcDbEntity
  8
STANDARDEBENE
 62
     7
100
AcDbVertex
100
AcDb2dVertex
 10
-8.47286783642345
 20
140.7595390815636
 30
0.0
  0
VERTEX
  5
329
330
326
100
AcDbEntity
  8
STANDARDEBENE
 62
     7
100
AcDbVertex
100
AcDb2dVertex
 10
-8.786716035129711
 20
140.7595390815636
 30
0.0
  0
VERTEX
  5
32A
330
326
100
AcDbEntity
  8
STANDARDEBENE
 62
     7
100
AcDbVertex
100
AcDb2dVertex
 10
-9.293145071461437
 20
140.7595390815636
 30
0.0
  0
VERTEX
  5
32B
330
326
100
AcDbEntity
  8
STANDARDEBENE
 62
     7
100
AcDbVertex
100
AcDb2dVertex
 10
-9.96597221973073
 20
140.7595390815636
 30
0.0
  0
VERTEX
  5
32C
330
326
100
AcDbEntity
  8
STANDARDEBENE
 62
     7
100
AcDbVertex
100
AcDb2dVertex
 10
-10.77178005373067
 20
140.7595390815636
 30
0.0
  0
VERTEX
  5
32D
330
326
100
AcDbEntity
  8
STANDARDEBENE
 62
     7
100
AcDbVertex
100
AcDb2dVertex
 10
-11.67060546583235
 20
140.7595390815636
 30
0.0
  0
VERTEX
  5
32E
330
326
100
AcDbEntity
  8
STANDARDEBENE
 62
     7
100
AcDbVertex
100
AcDb2dVertex
 10
-12.6159396669849
 20
140.7595390815636
 30
0.0
  0
VERTEX
  5
32F
330
326
100
AcDbEntity
  8
STANDARDEBENE
 62
     7
100
AcDbVertex
100
AcDb2dVertex
 10
-13.56161837768598
 20
140.7595390815636
 30
0.0
  0
VERTEX
  5
330
330
326
100
AcDbEntity
  8
STANDARDEBENE
 62
     7
100
AcDbVertex
100
AcDb2dVertex
 10
-14.45975477069062
 20
140.7595390815636
 30
0.0
  0
VERTEX
  5
331
330
326
100
AcDbEntity
  8
STANDARDEBENE
 62
     7
100
AcDbVertex
100
AcDb2dVertex
 10
-15.26625162378761
 20
140.7595390815636
 30
0.0
  0
VERTEX
  5
332
330
326
100
AcDbEntity
  8
STANDARDEBENE
 62
     7
100
AcDbVertex
100
AcDb2dVertex
 10
-15.93873426250837
 20
140.7595390815636
 30
0.0
  0
VERTEX
  5
333
330
326
100
AcDbEntity
  8
STANDARDEBENE
 62
     7
100
AcDbVertex
100
AcDb2dVertex
 10
-16.4451632988401
 20
140.7595390815636
 30
0.0
  0
VERTEX
  5
334
330
326
100
AcDbEntity
  8
STANDARDEBENE
 62
     7
100
AcDbVertex
100
AcDb2dVertex
 10
-16.75935600709488
 20
140.7595390815636
 30
0.0
  0
VERTEX
  5
335
330
326
100
AcDbEntity
  8
STANDARDEBENE
 62
     7
100
AcDbVertex
100
AcDb2dVertex
 10
-16.86615396713763
 20
140.7595390815636
 30
0.0
  0
SEQEND
  5
336
330
326
100
AcDbEntity
  8
STANDARDEBENE
  0
SPLINE
  5
337
330
1F
100
AcDbEntity
  8
STANDARDEBENE
 62
     7
100
AcDbSpline
210
0.0
220
0.0
230
1.0
 70
     8
 71
     3
 72
     8
 73
     4
 74
     0
 42
0.0000000001
 43
0.0000000001
 40
0.0
 40
0.0
 40
0.0
 40
0.0
 40
1.0
 40
1.0
 40
1.0
 40
1.0
 10
-16.36592610267935
 20
145.7594061593067
 30
0.0
 10
-16.64222276059639
 20
145.7594061593067
 30
0.0
 10
-16.86615396713763
 20
145.535819462314
 30
0.0
 10
-16.86615396713763
 20
145.260211823494
 30
0.0
  0
POLYLINE
  5
338
330
1F
100
AcDbEntity
  8
STANDARDEBENE
 62
     7
100
AcDb2dPolyline
 66
     1
 10
0.0
 20
0.0
 30
0.0
  0
VERTEX
  5
339
330
338
100
AcDbEntity
  8
STANDARDEBENE
 62
     7
100
AcDbVertex
100
AcDb2dVertex
 10
-16.36592610267935
 20
145.7594061593067
 30
0.0
  0
VERTEX
  5
33A
330
338
100
AcDbEntity
  8
STANDARDEBENE
 62
     7
100
AcDbVertex
100
AcDb2dVertex
 10
-16.25671657579693
 20
145.7594061593067
 30
0.0
  0
VERTEX
  5
33B
330
338
100
AcDbEntity
  8
STANDARDEBENE
 62
     7
100
AcDbVertex
100
AcDb2dVertex
 10
-15.93701171476575
 20
145.7594061593067
 30
0.0
  0
VERTEX
  5
33C
330
338
100
AcDbEntity
  8
STANDARDEBENE
 62
     7
100
AcDbVertex
100
AcDb2dVertex
 10
-15.423347977915
 20
145.7594061593067
 30
0.0
  0
VERTEX
  5
33D
330
338
100
AcDbEntity
  8
STANDARDEBENE
 62
     7
100
AcDbVertex
100
AcDb2dVertex
 10
-14.7463867150634
 20
145.7594061593067
 30
0.0
  0
VERTEX
  5
33E
330
338
100
AcDbEntity
  8
STANDARDEBENE
 62
     7
100
AcDbVertex
100
AcDb2dVertex
 10
-13.94574652429134
 20
145.7594061593067
 30
0.0
  0
VERTEX
  5
33F
330
338
100
AcDbEntity
  8
STANDARDEBENE
 62
     7
100
AcDbVertex
100
AcDb2dVertex
 10
-13.06793619464968
 20
145.7594061593067
 30
0.0
  0
VERTEX
  5
340
330
338
100
AcDbEntity
  8
STANDARDEBENE
 62
     7
100
AcDbVertex
100
AcDb2dVertex
 10
-12.16428764886865
 20
145.7594061593067
 30
0.0
  0
VERTEX
  5
341
330
338
100
AcDbEntity
  8
STANDARDEBENE
 62
     7
100
AcDbVertex
100
AcDb2dVertex
 10
-11.28647731922699
 20
145.7594061593067
 30
0.0
  0
VERTEX
  5
342
330
338
100
AcDbEntity
  8
STANDARDEBENE
 62
     7
100
AcDbVertex
100
AcDb2dVertex
 10
-10.48583712845493
 20
145.7594061593067
 30
0.0
  0
VERTEX
  5
343
330
338
100
AcDbEntity
  8
STANDARDEBENE
 62
     7
100
AcDbVertex
100
AcDb2dVertex
 10
-9.809220375151861
 20
145.7594061593067
 30
0.0
  0
VERTEX
  5
344
330
338
100
AcDbEntity
  8
STANDARDEBENE
 62
     7
100
AcDbVertex
100
AcDb2dVertex
 10
-9.295556638301111
 20
145.7594061593067
 30
0.0
  0
VERTEX
  5
345
330
338
100
AcDbEntity
  8
STANDARDEBENE
 62
     7
100
AcDbVertex
100
AcDb2dVertex
 10
-8.974818248624352
 20
145.7594061593067
 30
0.0
  0
VERTEX
  5
346
330
338
100
AcDbEntity
  8
STANDARDEBENE
 62
     7
100
AcDbVertex
100
AcDb2dVertex
 10
-8.865953231290456
 20
145.7594061593067
 30
0.0
  0
SEQEND
  5
347
330
338
100
AcDbEntity
  8
STANDARDEBENE
  0
SPLINE
  5
348
330
1F
100
AcDbEntity
  8
STANDARDEBENE
 62
     7
100
AcDbSpline
210
0.0
220
0.0
230
1.0
 70
     8
 71
     3
 72
     8
 73
     4
 74
     0
 42
0.0000000001
 43
0.0000000001
 40
0.0
 40
0.0
 40
0.0
 40
0.0
 40
1.0
 40
1.0
 40
1.0
 40
1.0
 10
-8.366069876380704
 20
145.260211823494
 30
0.0
 10
-8.366069876380704
 20
145.535819462314
 30
0.0
 10
-8.590001082921944
 20
145.7594061593067
 30
0.0
 10
-8.865953231290456
 20
145.7594061593067
 30
0.0
  0
SPLINE
  5
349
330
1F
100
AcDbEntity
  8
STANDARDEBENE
 62
     7
100
AcDbSpline
210
0.0
220
0.0
230
1.0
 70
     8
 71
     3
 72
     8
 73
     4
 74
     0
 42
0.0000000001
 43
0.0000000001
 40
0.0
 40
0.0
 40
0.0
 40
0.0
 40
1.0
 40
1.0
 40
1.0
 40
1.0
 10
-15.2786539675345
 20
140.6300034913182
 30
0.0
 10
-15.30828178870765
 20
140.7095851970275
 30
0.0
 10
-15.38407388938315
 20
140.7595390815636
 30
0.0
 10
-15.46641167148062
 20
140.7595390815636
 30
0.0
  0
SPLINE
  5
34A
330
1F
100
AcDbEntity
  8
STANDARDEBENE
 62
     7
100
AcDbSpline
210
0.0
220
0.0
230
1.0
 70
     8
 71
     3
 72
     8
 73
     4
 74
     0
 42
0.0000000001
 43
0.0000000001
 40
0.0
 40
0.0
 40
0.0
 40
0.0
 40
1.0
 40
1.0
 40
1.0
 40
1.0
 10
-9.765812172037714
 20
140.7595390815636
 30
0.0
 10
-9.85125054007191
 20
140.7595390815636
 30
0.0
 10
-9.923597545262156
 20
140.7068291206393
 30
0.0
 10
-9.953225366435305
 20
140.6300034913182
 30
0.0
  0
SPLINE
  5
34B
330
1F
100
AcDbEntity
  8
STANDARDEBENE
 62
     7
100
AcDbSpline
210
0.0
220
0.0
230
1.0
 70
     8
 71
     3
 72
     8
 73
     4
 74
     0
 42
0.0000000001
 43
0.0000000001
 40
0.0
 40
0.0
 40
0.0
 40
0.0
 40
1.0
 40
1.0
 40
1.0
 40
1.0
 10
-10.10308702004367
 20
140.2303724150292
 30
0.0
 10
-10.11204426830532
 20
140.206601256181
 30
0.0
 10
-10.11617838288762
 20
140.1821410782357
 30
0.0
 10
-10.11617838288762
 20
140.1600924671301
 30
0.0
  0
SPLINE
  5
34C
330
1F
100
AcDbEntity
  8
STANDARDEBENE
 62
     7
100
AcDbSpline
210
0.0
220
0.0
230
1.0
 70
     8
 71
     3
 72
     8
 73
     4
 74
     0
 42
0.0000000001
 43
0.0000000001
 40
0.0
 40
0.0
 40
0.0
 40
0.0
 40
1.0
 40
1.0
 40
1.0
 40
1.0
 10
-15.11604546063071
 20
140.1600924671301
 30
0.0
 10
-15.11604546063071
 20
140.1845526450754
 30
0.0
 10
-15.12052408476154
 20
140.2090128230207
 30
0.0
 10
-15.12913682347466
 20
140.2303724150292
 30
0.0
  0
POLYLINE
  5
34D
330
1F
100
AcDbEntity
  8
STANDARDEBENE
 62
     7
100
AcDb2dPolyline
 66
     1
 10
0.0
 20
0.0
 30
0.0
  0
VERTEX
  5
34E
330
34D
100
AcDbEntity
  8
STANDARDEBENE
 62
     7
100
AcDbVertex
100
AcDb2dVertex
 10
38.58334688705555
 20
195.4745455783015
 30
0.0
  0
VERTEX
  5
34F
330
34D
100
AcDbEntity
  8
STANDARDEBENE
 62
     7
100
AcDbVertex
100
AcDb2dVertex
 10
38.60815157454935
 20
195.4745455783015
 30
0.0
  0
SEQEND
  5
350
330
34D
100
AcDbEntity
  8
STANDARDEBENE
  0
POLYLINE
  5
351
330
1F
100
AcDbEntity
  8
STANDARDEBENE
 62
     7
100
AcDb2dPolyline
 66
     1
 10
0.0
 20
0.0
 30
0.0
  0
VERTEX
  5
352
330
351
100
AcDbEntity
  8
STANDARDEBENE
 62
     7
100
AcDbVertex
100
AcDb2dVertex
 10
38.658449968634
 20
195.4745455783015
 30
0.0
  0
VERTEX
  5
353
330
351
100
AcDbEntity
  8
STANDARDEBENE
 62
     7
100
AcDbVertex
100
AcDb2dVertex
 10
38.68291014657927
 20
195.4745455783015
 30
0.0
  0
SEQEND
  5
354
330
351
100
AcDbEntity
  8
STANDARDEBENE
  0
POLYLINE
  5
355
330
1F
100
AcDbEntity
  8
STANDARDEBENE
 62
     7
100
AcDb2dPolyline
 66
     1
 10
0.0
 20
0.0
 30
0.0
  0
VERTEX
  5
356
330
355
100
AcDbEntity
  8
STANDARDEBENE
 62
     7
100
AcDbVertex
100
AcDb2dVertex
 10
38.68291014657927
 20
200.4744126560446
 30
0.0
  0
VERTEX
  5
357
330
355
100
AcDbEntity
  8
STANDARDEBENE
 62
     7
100
AcDbVertex
100
AcDb2dVertex
 10
38.658449968634
 20
200.4744126560446
 30
0.0
  0
SEQEND
  5
358
330
355
100
AcDbEntity
  8
STANDARDEBENE
  0
POLYLINE
  5
359
330
1F
100
AcDbEntity
  8
STANDARDEBENE
 62
     7
100
AcDb2dPolyline
 66
     1
 10
0.0
 20
0.0
 30
0.0
  0
VERTEX
  5
35A
330
359
100
AcDbEntity
  8
STANDARDEBENE
 62
     7
100
AcDbVertex
100
AcDb2dVertex
 10
38.60815157454935
 20
200.4744126560446
 30
0.0
  0
VERTEX
  5
35B
330
359
100
AcDbEntity
  8
STANDARDEBENE
 62
     7
100
AcDbVertex
100
AcDb2dVertex
 10
38.58334688705555
 20
200.4744126560446
 30
0.0
  0
SEQEND
  5
35C
330
359
100
AcDbEntity
  8
STANDARDEBENE
  0
POLYLINE
  5
35D
330
1F
100
AcDbEntity
  8
STANDARDEBENE
 62
     7
100
AcDb2dPolyline
 66
     1
 10
0.0
 20
0.0
 30
0.0
  0
VERTEX
  5
35E
330
35D
100
AcDbEntity
  8
STANDARDEBENE
 62
     7
100
AcDbVertex
100
AcDb2dVertex
 10
47.58365884227075
 20
209.6831528881174
 30
0.0
  0
VERTEX
  5
35F
330
35D
100
AcDbEntity
  8
STANDARDEBENE
 62
     7
100
AcDbVertex
100
AcDb2dVertex
 10
48.08698729266575
 20
209.7079575756112
 30
0.0
  0
SEQEND
  5
360
330
35D
100
AcDbEntity
  8
STANDARDEBENE
  0
POLYLINE
  5
361
330
1F
100
AcDbEntity
  8
STANDARDEBENE
 62
     7
100
AcDb2dPolyline
 66
     1
 10
0.0
 20
0.0
 30
0.0
  0
VERTEX
  5
362
330
361
100
AcDbEntity
  8
STANDARDEBENE
 62
     7
100
AcDbVertex
100
AcDb2dVertex
 10
49.09329968390723
 20
209.7589449887929
 30
0.0
  0
VERTEX
  5
363
330
361
100
AcDbEntity
  8
STANDARDEBENE
 62
     7
100
AcDbVertex
100
AcDb2dVertex
 10
50.09926756560019
 20
209.8092433828776
 30
0.0
  0
SEQEND
  5
364
330
361
100
AcDbEntity
  8
STANDARDEBENE
  0
POLYLINE
  5
365
330
1F
100
AcDbEntity
  8
STANDARDEBENE
 62
     7
100
AcDb2dPolyline
 66
     1
 10
0.0
 20
0.0
 30
0.0
  0
VERTEX
  5
366
330
365
100
AcDbEntity
  8
STANDARDEBENE
 62
     7
100
AcDbVertex
100
AcDb2dVertex
 10
51.10523544729314
 20
209.8591972674137
 30
0.0
  0
VERTEX
  5
367
330
365
100
AcDbEntity
  8
STANDARDEBENE
 62
     7
100
AcDbVertex
100
AcDb2dVertex
 10
52.11154783853461
 20
209.9101846805954
 30
0.0
  0
SEQEND
  5
368
330
365
100
AcDbEntity
  8
STANDARDEBENE
  0
POLYLINE
  5
369
330
1F
100
AcDbEntity
  8
STANDARDEBENE
 62
     7
100
AcDb2dPolyline
 66
     1
 10
0.0
 20
0.0
 30
0.0
  0
VERTEX
  5
36A
330
369
100
AcDbEntity
  8
STANDARDEBENE
 62
     7
100
AcDbVertex
100
AcDb2dVertex
 10
53.11751572022757
 20
209.9608275842286
 30
0.0
  0
VERTEX
  5
36B
330
369
100
AcDbEntity
  8
STANDARDEBENE
 62
     7
100
AcDbVertex
100
AcDb2dVertex
 10
54.12348360192052
 20
210.0107814687647
 30
0.0
  0
SEQEND
  5
36C
330
369
100
AcDbEntity
  8
STANDARDEBENE
  0
POLYLINE
  5
36D
330
1F
100
AcDbEntity
  8
STANDARDEBENE
 62
     7
100
AcDb2dPolyline
 66
     1
 10
0.0
 20
0.0
 30
0.0
  0
VERTEX
  5
36E
330
36D
100
AcDbEntity
  8
STANDARDEBENE
 62
     7
100
AcDbVertex
100
AcDb2dVertex
 10
55.13082952180757
 20
210.0610798628493
 30
0.0
  0
VERTEX
  5
36F
330
36D
100
AcDbEntity
  8
STANDARDEBENE
 62
     7
100
AcDbVertex
100
AcDb2dVertex
 10
55.633124443557
 20
210.0865735694402
 30
0.0
  0
SEQEND
  5
370
330
36D
100
AcDbEntity
  8
STANDARDEBENE
  0
POLYLINE
  5
371
330
1F
100
AcDbEntity
  8
STANDARDEBENE
 62
     7
100
AcDb2dPolyline
 66
     1
 10
0.0
 20
0.0
 30
0.0
  0
VERTEX
  5
372
330
371
100
AcDbEntity
  8
STANDARDEBENE
 62
     7
100
AcDbVertex
100
AcDb2dVertex
 10
47.58365884227075
 20
186.2654608366802
 30
0.0
  0
VERTEX
  5
373
330
371
100
AcDbEntity
  8
STANDARDEBENE
 62
     7
100
AcDbVertex
100
AcDb2dVertex
 10
48.08698729266575
 20
186.2403116396378
 30
0.0
  0
SEQEND
  5
374
330
371
100
AcDbEntity
  8
STANDARDEBENE
  0
POLYLINE
  5
375
330
1F
100
AcDbEntity
  8
STANDARDEBENE
 62
     7
100
AcDb2dPolyline
 66
     1
 10
0.0
 20
0.0
 30
0.0
  0
VERTEX
  5
376
330
375
100
AcDbEntity
  8
STANDARDEBENE
 62
     7
100
AcDbVertex
100
AcDb2dVertex
 10
49.09329968390723
 20
186.1900132455532
 30
0.0
  0
VERTEX
  5
377
330
375
100
AcDbEntity
  8
STANDARDEBENE
 62
     7
100
AcDbVertex
100
AcDb2dVertex
 10
50.09926756560019
 20
186.1397148514685
 30
0.0
  0
SEQEND
  5
378
330
375
100
AcDbEntity
  8
STANDARDEBENE
  0
POLYLINE
  5
379
330
1F
100
AcDbEntity
  8
STANDARDEBENE
 62
     7
100
AcDb2dPolyline
 66
     1
 10
0.0
 20
0.0
 30
0.0
  0
VERTEX
  5
37A
330
379
100
AcDbEntity
  8
STANDARDEBENE
 62
     7
100
AcDbVertex
100
AcDb2dVertex
 10
51.10523544729314
 20
186.0887274382869
 30
0.0
  0
VERTEX
  5
37B
330
379
100
AcDbEntity
  8
STANDARDEBENE
 62
     7
100
AcDbVertex
100
AcDb2dVertex
 10
52.11154783853461
 20
186.0387735537507
 30
0.0
  0
SEQEND
  5
37C
330
379
100
AcDbEntity
  8
STANDARDEBENE
  0
POLYLINE
  5
37D
330
1F
100
AcDbEntity
  8
STANDARDEBENE
 62
     7
100
AcDb2dPolyline
 66
     1
 10
0.0
 20
0.0
 30
0.0
  0
VERTEX
  5
37E
330
37D
100
AcDbEntity
  8
STANDARDEBENE
 62
     7
100
AcDbVertex
100
AcDb2dVertex
 10
53.11751572022757
 20
185.9884751596661
 30
0.0
  0
VERTEX
  5
37F
330
37D
100
AcDbEntity
  8
STANDARDEBENE
 62
     7
100
AcDbVertex
100
AcDb2dVertex
 10
54.12348360192052
 20
185.9378322560329
 30
0.0
  0
SEQEND
  5
380
330
37D
100
AcDbEntity
  8
STANDARDEBENE
  0
POLYLINE
  5
381
330
1F
100
AcDbEntity
  8
STANDARDEBENE
 62
     7
100
AcDb2dPolyline
 66
     1
 10
0.0
 20
0.0
 30
0.0
  0
VERTEX
  5
382
330
381
100
AcDbEntity
  8
STANDARDEBENE
 62
     7
100
AcDbVertex
100
AcDb2dVertex
 10
55.13082952180757
 20
185.8871893523997
 30
0.0
  0
VERTEX
  5
383
330
381
100
AcDbEntity
  8
STANDARDEBENE
 62
     7
100
AcDbVertex
100
AcDb2dVertex
 10
55.633124443557
 20
185.8616956458089
 30
0.0
  0
SEQEND
  5
384
330
381
100
AcDbEntity
  8
STANDARDEBENE
  0
POLYLINE
  5
385
330
1F
100
AcDbEntity
  8
STANDARDEBENE
 62
     7
100
AcDb2dPolyline
 66
     1
 10
0.0
 20
0.0
 30
0.0
  0
VERTEX
  5
386
330
385
100
AcDbEntity
  8
STANDARDEBENE
 62
     7
100
AcDbVertex
100
AcDb2dVertex
 10
47.08343097781248
 20
191.4744452103779
 30
0.0
  0
VERTEX
  5
387
330
385
100
AcDbEntity
  8
STANDARDEBENE
 62
     7
100
AcDbVertex
100
AcDb2dVertex
 10
47.20883245347557
 20
191.3490437347148
 30
0.0
  0
SEQEND
  5
388
330
385
100
AcDbEntity
  8
STANDARDEBENE
  0
POLYLINE
  5
389
330
1F
100
AcDbEntity
  8
STANDARDEBENE
 62
     7
100
AcDb2dPolyline
 66
     1
 10
0.0
 20
0.0
 30
0.0
  0
VERTEX
  5
38A
330
389
100
AcDbEntity
  8
STANDARDEBENE
 62
     7
100
AcDbVertex
100
AcDb2dVertex
 10
47.45825736660766
 20
191.0992743120342
 30
0.0
  0
VERTEX
  5
38B
330
389
100
AcDbEntity
  8
STANDARDEBENE
 62
     7
100
AcDbVertex
100
AcDb2dVertex
 10
47.58365884227075
 20
190.9742173459196
 30
0.0
  0
SEQEND
  5
38C
330
389
100
AcDbEntity
  8
STANDARDEBENE
  0
POLYLINE
  5
38D
330
1F
100
AcDbEntity
  8
STANDARDEBENE
 62
     7
100
AcDb2dPolyline
 66
     1
 10
0.0
 20
0.0
 30
0.0
  0
VERTEX
  5
38E
330
38D
100
AcDbEntity
  8
STANDARDEBENE
 62
     7
100
AcDbVertex
100
AcDb2dVertex
 10
47.58365884227075
 20
204.9743963788779
 30
0.0
  0
VERTEX
  5
38F
330
38D
100
AcDbEntity
  8
STANDARDEBENE
 62
     7
100
AcDbVertex
100
AcDb2dVertex
 10
47.45825736660766
 20
204.8496839223119
 30
0.0
  0
SEQEND
  5
390
330
38D
100
AcDbEntity
  8
STANDARDEBENE
  0
POLYLINE
  5
391
330
1F
100
AcDbEntity
  8
STANDARDEBENE
 62
     7
100
AcDb2dPolyline
 66
     1
 10
0.0
 20
0.0
 30
0.0
  0
VERTEX
  5
392
330
391
100
AcDbEntity
  8
STANDARDEBENE
 62
     7
100
AcDbVertex
100
AcDb2dVertex
 10
47.20883245347557
 20
204.5995699900828
 30
0.0
  0
VERTEX
  5
393
330
391
100
AcDbEntity
  8
STANDARDEBENE
 62
     7
100
AcDbVertex
100
AcDb2dVertex
 10
47.08343097781248
 20
204.4741685144197
 30
0.0
  0
SEQEND
  5
394
330
391
100
AcDbEntity
  8
STANDARDEBENE
  0
POLYLINE
  5
395
330
1F
100
AcDbEntity
  8
STANDARDEBENE
 62
     7
100
AcDb2dPolyline
 66
     1
 10
0.0
 20
0.0
 30
0.0
  0
VERTEX
  5
396
330
395
100
AcDbEntity
  8
STANDARDEBENE
 62
     7
100
AcDbVertex
100
AcDb2dVertex
 10
38.58334688705555
 20
190.9742173459196
 30
0.0
  0
VERTEX
  5
397
330
395
100
AcDbEntity
  8
STANDARDEBENE
 62
     7
100
AcDbVertex
100
AcDb2dVertex
 10
38.70840385317013
 20
191.0992743120342
 30
0.0
  0
SEQEND
  5
398
330
395
100
AcDbEntity
  8
STANDARDEBENE
  0
POLYLINE
  5
399
330
1F
100
AcDbEntity
  8
STANDARDEBENE
 62
     7
100
AcDb2dPolyline
 66
     1
 10
0.0
 20
0.0
 30
0.0
  0
VERTEX
  5
39A
330
399
100
AcDbEntity
  8
STANDARDEBENE
 62
     7
100
AcDbVertex
100
AcDb2dVertex
 10
38.95851778539926
 20
191.3490437347148
 30
0.0
  0
VERTEX
  5
39B
330
399
100
AcDbEntity
  8
STANDARDEBENE
 62
     7
100
AcDbVertex
100
AcDb2dVertex
 10
39.0832302419653
 20
191.4744452103779
 30
0.0
  0
SEQEND
  5
39C
330
399
100
AcDbEntity
  8
STANDARDEBENE
  0
POLYLINE
  5
39D
330
1F
100
AcDbEntity
  8
STANDARDEBENE
 62
     7
100
AcDb2dPolyline
 66
     1
 10
0.0
 20
0.0
 30
0.0
  0
VERTEX
  5
39E
330
39D
100
AcDbEntity
  8
STANDARDEBENE
 62
     7
100
AcDbVertex
100
AcDb2dVertex
 10
39.0832302419653
 20
204.4741685144197
 30
0.0
  0
VERTEX
  5
39F
330
39D
100
AcDbEntity
  8
STANDARDEBENE
 62
     7
100
AcDbVertex
100
AcDb2dVertex
 10
38.95851778539926
 20
204.5995699900828
 30
0.0
  0
SEQEND
  5
3A0
330
39D
100
AcDbEntity
  8
STANDARDEBENE
  0
POLYLINE
  5
3A1
330
1F
100
AcDbEntity
  8
STANDARDEBENE
 62
     7
100
AcDb2dPolyline
 66
     1
 10
0.0
 20
0.0
 30
0.0
  0
VERTEX
  5
3A2
330
3A1
100
AcDbEntity
  8
STANDARDEBENE
 62
     7
100
AcDbVertex
100
AcDb2dVertex
 10
38.70840385317013
 20
204.8496839223119
 30
0.0
  0
VERTEX
  5
3A3
330
3A1
100
AcDbEntity
  8
STANDARDEBENE
 62
     7
100
AcDbVertex
100
AcDb2dVertex
 10
38.58334688705555
 20
204.9743963788779
 30
0.0
  0
SEQEND
  5
3A4
330
3A1
100
AcDbEntity
  8
STANDARDEBENE
  0
POLYLINE
  5
3A5
330
1F
100
AcDbEntity
  8
STANDARDEBENE
 62
     7
100
AcDb2dPolyline
 66
     1
 10
0.0
 20
0.0
 30
0.0
  0
VERTEX
  5
3A6
330
3A5
100
AcDbEntity
  8
STANDARDEBENE
 62
     7
100
AcDbVertex
100
AcDb2dVertex
 10
39.0832302419653
 20
191.4744452103779
 30
0.0
  0
VERTEX
  5
3A7
330
3A5
100
AcDbEntity
  8
STANDARDEBENE
 62
     7
100
AcDbVertex
100
AcDb2dVertex
 10
39.58345810642358
 20
191.4744452103779
 30
0.0
  0
SEQEND
  5
3A8
330
3A5
100
AcDbEntity
  8
STANDARDEBENE
  0
POLYLINE
  5
3A9
330
1F
100
AcDbEntity
  8
STANDARDEBENE
 62
     7
100
AcDb2dPolyline
 66
     1
 10
0.0
 20
0.0
 30
0.0
  0
VERTEX
  5
3AA
330
3A9
100
AcDbEntity
  8
STANDARDEBENE
 62
     7
100
AcDbVertex
100
AcDb2dVertex
 10
40.58391383534013
 20
191.4744452103779
 30
0.0
  0
VERTEX
  5
3AB
330
3A9
100
AcDbEntity
  8
STANDARDEBENE
 62
     7
100
AcDbVertex
100
AcDb2dVertex
 10
41.58333603561111
 20
191.4744452103779
 30
0.0
  0
SEQEND
  5
3AC
330
3A9
100
AcDbEntity
  8
STANDARDEBENE
  0
POLYLINE
  5
3AD
330
1F
100
AcDbEntity
  8
STANDARDEBENE
 62
     7
100
AcDb2dPolyline
 66
     1
 10
0.0
 20
0.0
 30
0.0
  0
VERTEX
  5
3AE
330
3AD
100
AcDbEntity
  8
STANDARDEBENE
 62
     7
100
AcDbVertex
100
AcDb2dVertex
 10
42.58344725497914
 20
191.4744452103779
 30
0.0
  0
VERTEX
  5
3AF
330
3AD
100
AcDbEntity
  8
STANDARDEBENE
 62
     7
100
AcDbVertex
100
AcDb2dVertex
 10
43.58321396479865
 20
191.4744452103779
 30
0.0
  0
SEQEND
  5
3B0
330
3AD
100
AcDbEntity
  8
STANDARDEBENE
  0
POLYLINE
  5
3B1
330
1F
100
AcDbEntity
  8
STANDARDEBENE
 62
     7
100
AcDb2dPolyline
 66
     1
 10
0.0
 20
0.0
 30
0.0
  0
VERTEX
  5
3B2
330
3B1
100
AcDbEntity
  8
STANDARDEBENE
 62
     7
100
AcDbVertex
100
AcDb2dVertex
 10
44.58332518416667
 20
191.4744452103779
 30
0.0
  0
VERTEX
  5
3B3
330
3B1
100
AcDbEntity
  8
STANDARDEBENE
 62
     7
100
AcDbVertex
100
AcDb2dVertex
 10
45.5834364035347
 20
191.4744452103779
 30
0.0
  0
SEQEND
  5
3B4
330
3B1
100
AcDbEntity
  8
STANDARDEBENE
  0
POLYLINE
  5
3B5
330
1F
100
AcDbEntity
  8
STANDARDEBENE
 62
     7
100
AcDb2dPolyline
 66
     1
 10
0.0
 20
0.0
 30
0.0
  0
VERTEX
  5
3B6
330
3B5
100
AcDbEntity
  8
STANDARDEBENE
 62
     7
100
AcDbVertex
100
AcDb2dVertex
 10
46.5832031133542
 20
191.4744452103779
 30
0.0
  0
VERTEX
  5
3B7
330
3B5
100
AcDbEntity
  8
STANDARDEBENE
 62
     7
100
AcDbVertex
100
AcDb2dVertex
 10
47.08343097781248
 20
191.4744452103779
 30
0.0
  0
SEQEND
  5
3B8
330
3B5
100
AcDbEntity
  8
STANDARDEBENE
  0
POLYLINE
  5
3B9
330
1F
100
AcDbEntity
  8
STANDARDEBENE
 62
     7
100
AcDb2dPolyline
 66
     1
 10
0.0
 20
0.0
 30
0.0
  0
VERTEX
  5
3BA
330
3B9
100
AcDbEntity
  8
STANDARDEBENE
 62
     7
100
AcDbVertex
100
AcDb2dVertex
 10
47.08343097781248
 20
204.4741685144197
 30
0.0
  0
VERTEX
  5
3BB
330
3B9
100
AcDbEntity
  8
STANDARDEBENE
 62
     7
100
AcDbVertex
100
AcDb2dVertex
 10
46.5832031133542
 20
204.4741685144197
 30
0.0
  0
SEQEND
  5
3BC
330
3B9
100
AcDbEntity
  8
STANDARDEBENE
  0
POLYLINE
  5
3BD
330
1F
100
AcDbEntity
  8
STANDARDEBENE
 62
     7
100
AcDb2dPolyline
 66
     1
 10
0.0
 20
0.0
 30
0.0
  0
VERTEX
  5
3BE
330
3BD
100
AcDbEntity
  8
STANDARDEBENE
 62
     7
100
AcDbVertex
100
AcDb2dVertex
 10
45.5834364035347
 20
204.4741685144197
 30
0.0
  0
VERTEX
  5
3BF
330
3BD
100
AcDbEntity
  8
STANDARDEBENE
 62
     7
100
AcDbVertex
100
AcDb2dVertex
 10
44.58332518416667
 20
204.4741685144197
 30
0.0
  0
SEQEND
  5
3C0
330
3BD
100
AcDbEntity
  8
STANDARDEBENE
  0
POLYLINE
  5
3C1
330
1F
100
AcDbEntity
  8
STANDARDEBENE
 62
     7
100
AcDb2dPolyline
 66
     1
 10
0.0
 20
0.0
 30
0.0
  0
VERTEX
  5
3C2
330
3C1
100
AcDbEntity
  8
STANDARDEBENE
 62
     7
100
AcDbVertex
100
AcDb2dVertex
 10
43.58321396479865
 20
204.4741685144197
 30
0.0
  0
VERTEX
  5
3C3
330
3C1
100
AcDbEntity
  8
STANDARDEBENE
 62
     7
100
AcDbVertex
100
AcDb2dVertex
 10
42.58344725497914
 20
204.4741685144197
 30
0.0
  0
SEQEND
  5
3C4
330
3C1
100
AcDbEntity
  8
STANDARDEBENE
  0
POLYLINE
  5
3C5
330
1F
100
AcDbEntity
  8
STANDARDEBENE
 62
     7
100
AcDb2dPolyline
 66
     1
 10
0.0
 20
0.0
 30
0.0
  0
VERTEX
  5
3C6
330
3C5
100
AcDbEntity
  8
STANDARDEBENE
 62
     7
100
AcDbVertex
100
AcDb2dVertex
 10
41.58333603561111
 20
204.4741685144197
 30
0.0
  0
VERTEX
  5
3C7
330
3C5
100
AcDbEntity
  8
STANDARDEBENE
 62
     7
100
AcDbVertex
100
AcDb2dVertex
 10
40.58391383534013
 20
204.4741685144197
 30
0.0
  0
SEQEND
  5
3C8
330
3C5
100
AcDbEntity
  8
STANDARDEBENE
  0
POLYLINE
  5
3C9
330
1F
100
AcDbEntity
  8
STANDARDEBENE
 62
     7
100
AcDb2dPolyline
 66
     1
 10
0.0
 20
0.0
 30
0.0
  0
VERTEX
  5
3CA
330
3C9
100
AcDbEntity
  8
STANDARDEBENE
 62
     7
100
AcDbVertex
100
AcDb2dVertex
 10
39.58345810642358
 20
204.4741685144197
 30
0.0
  0
VERTEX
  5
3CB
330
3C9
100
AcDbEntity
  8
STANDARDEBENE
 62
     7
100
AcDbVertex
100
AcDb2dVertex
 10
39.0832302419653
 20
204.4741685144197
 30
0.0
  0
SEQEND
  5
3CC
330
3C9
100
AcDbEntity
  8
STANDARDEBENE
  0
POLYLINE
  5
3CD
330
1F
100
AcDbEntity
  8
STANDARDEBENE
 62
     7
100
AcDb2dPolyline
 66
     1
 10
0.0
 20
0.0
 30
0.0
  0
VERTEX
  5
3CE
330
3CD
100
AcDbEntity
  8
STANDARDEBENE
 62
     7
100
AcDbVertex
100
AcDb2dVertex
 10
38.58334688705555
 20
195.3749823187778
 30
0.0
  0
VERTEX
  5
3CF
330
3CD
100
AcDbEntity
  8
STANDARDEBENE
 62
     7
100
AcDbVertex
100
AcDb2dVertex
 10
38.60815157454935
 20
195.3994424967231
 30
0.0
  0
SEQEND
  5
3D0
330
3CD
100
AcDbEntity
  8
STANDARDEBENE
  0
POLYLINE
  5
3D1
330
1F
100
AcDbEntity
  8
STANDARDEBENE
 62
     7
100
AcDb2dPolyline
 66
     1
 10
0.0
 20
0.0
 30
0.0
  0
VERTEX
  5
3D2
330
3D1
100
AcDbEntity
  8
STANDARDEBENE
 62
     7
100
AcDbVertex
100
AcDb2dVertex
 10
38.658449968634
 20
195.4493963812592
 30
0.0
  0
VERTEX
  5
3D3
330
3D1
100
AcDbEntity
  8
STANDARDEBENE
 62
     7
100
AcDbVertex
100
AcDb2dVertex
 10
38.68291014657927
 20
195.4745455783015
 30
0.0
  0
SEQEND
  5
3D4
330
3D1
100
AcDbEntity
  8
STANDARDEBENE
  0
POLYLINE
  5
3D5
330
1F
100
AcDbEntity
  8
STANDARDEBENE
 62
     7
100
AcDb2dPolyline
 66
     1
 10
0.0
 20
0.0
 30
0.0
  0
VERTEX
  5
3D6
330
3D5
100
AcDbEntity
  8
STANDARDEBENE
 62
     7
100
AcDbVertex
100
AcDb2dVertex
 10
38.68291014657927
 20
200.4744126560446
 30
0.0
  0
VERTEX
  5
3D7
330
3D5
100
AcDbEntity
  8
STANDARDEBENE
 62
     7
100
AcDbVertex
100
AcDb2dVertex
 10
38.658449968634
 20
200.4992173435384
 30
0.0
  0
SEQEND
  5
3D8
330
3D5
100
AcDbEntity
  8
STANDARDEBENE
  0
POLYLINE
  5
3D9
330
1F
100
AcDbEntity
  8
STANDARDEBENE
 62
     7
100
AcDb2dPolyline
 66
     1
 10
0.0
 20
0.0
 30
0.0
  0
VERTEX
  5
3DA
330
3D9
100
AcDbEntity
  8
STANDARDEBENE
 62
     7
100
AcDbVertex
100
AcDb2dVertex
 10
38.60815157454935
 20
200.549515737623
 30
0.0
  0
VERTEX
  5
3DB
330
3D9
100
AcDbEntity
  8
STANDARDEBENE
 62
     7
100
AcDbVertex
100
AcDb2dVertex
 10
38.58334688705555
 20
200.5746649346654
 30
0.0
  0
SEQEND
  5
3DC
330
3D9
100
AcDbEntity
  8
STANDARDEBENE
  0
POLYLINE
  5
3DD
330
1F
100
AcDbEntity
  8
STANDARDEBENE
 62
     7
100
AcDb2dPolyline
 66
     1
 10
0.0
 20
0.0
 30
0.0
  0
VERTEX
  5
3DE
330
3DD
100
AcDbEntity
  8
STANDARDEBENE
 62
     7
100
AcDbVertex
100
AcDb2dVertex
 10
56.5832817783889
 20
211.0853067506141
 30
0.0
  0
VERTEX
  5
3DF
330
3DD
100
AcDbEntity
  8
STANDARDEBENE
 62
     7
100
AcDbVertex
100
AcDb2dVertex
 10
56.48957518119011
 20
210.7211601578232
 30
0.0
  0
SEQEND
  5
3E0
330
3DD
100
AcDbEntity
  8
STANDARDEBENE
  0
POLYLINE
  5
3E1
330
1F
100
AcDbEntity
  8
STANDARDEBENE
 62
     7
100
AcDb2dPolyline
 66
     1
 10
0.0
 20
0.0
 30
0.0
  0
VERTEX
  5
3E2
330
3E1
100
AcDbEntity
  8
STANDARDEBENE
 62
     7
100
AcDbVertex
100
AcDb2dVertex
 10
55.99244790266856
 20
210.1995727013564
 30
0.0
  0
VERTEX
  5
3E3
330
3E1
100
AcDbEntity
  8
STANDARDEBENE
 62
     7
100
AcDbVertex
100
AcDb2dVertex
 10
55.633124443557
 20
210.0865735694402
 30
0.0
  0
SEQEND
  5
3E4
330
3E1
100
AcDbEntity
  8
STANDARDEBENE
  0
POLYLINE
  5
3E5
330
1F
100
AcDbEntity
  8
STANDARDEBENE
 62
     7
100
AcDb2dPolyline
 66
     1
 10
0.0
 20
0.0
 30
0.0
  0
VERTEX
  5
3E6
330
3E5
100
AcDbEntity
  8
STANDARDEBENE
 62
     7
100
AcDbVertex
100
AcDb2dVertex
 10
55.633124443557
 20
185.8616956458089
 30
0.0
  0
VERTEX
  5
3E7
330
3E5
100
AcDbEntity
  8
STANDARDEBENE
 62
     7
100
AcDbVertex
100
AcDb2dVertex
 10
55.99244790266856
 20
185.7500745520868
 30
0.0
  0
SEQEND
  5
3E8
330
3E5
100
AcDbEntity
  8
STANDARDEBENE
  0
POLYLINE
  5
3E9
330
1F
100
AcDbEntity
  8
STANDARDEBENE
 62
     7
100
AcDb2dPolyline
 66
     1
 10
0.0
 20
0.0
 30
0.0
  0
VERTEX
  5
3EA
330
3E9
100
AcDbEntity
  8
STANDARDEBENE
 62
     7
100
AcDbVertex
100
AcDb2dVertex
 10
56.48957518119011
 20
185.2274535669744
 30
0.0
  0
VERTEX
  5
3EB
330
3E9
100
AcDbEntity
  8
STANDARDEBENE
 62
     7
100
AcDbVertex
100
AcDb2dVertex
 10
56.5832817783889
 20
184.862962464635
 30
0.0
  0
SEQEND
  5
3EC
330
3E9
100
AcDbEntity
  8
STANDARDEBENE
  0
POLYLINE
  5
3ED
330
1F
100
AcDbEntity
  8
STANDARDEBENE
 62
     7
100
AcDb2dPolyline
 66
     1
 10
0.0
 20
0.0
 30
0.0
  0
VERTEX
  5
3EE
330
3ED
100
AcDbEntity
  8
STANDARDEBENE
 62
     7
100
AcDbVertex
100
AcDb2dVertex
 10
47.58365884227075
 20
186.2654608366802
 30
0.0
  0
VERTEX
  5
3EF
330
3ED
100
AcDbEntity
  8
STANDARDEBENE
 62
     7
100
AcDbVertex
100
AcDb2dVertex
 10
47.58365884227075
 20
186.3743258540141
 30
0.0
  0
VERTEX
  5
3F0
330
3ED
100
AcDbEntity
  8
STANDARDEBENE
 62
     7
100
AcDbVertex
100
AcDb2dVertex
 10
47.58365884227075
 20
186.6995428678217
 30
0.0
  0
VERTEX
  5
3F1
330
3ED
100
AcDbEntity
  8
STANDARDEBENE
 62
     7
100
AcDbVertex
100
AcDb2dVertex
 10
47.58365884227075
 20
186.7532863573915
 30
0.0
  0
SEQEND
  5
3F2
330
3ED
100
AcDbEntity
  8
STANDARDEBENE
  0
POLYLINE
  5
3F3
330
1F
100
AcDbEntity
  8
STANDARDEBENE
 62
     7
100
AcDb2dPolyline
 66
     1
 10
0.0
 20
0.0
 30
0.0
  0
VERTEX
  5
3F4
330
3F3
100
AcDbEntity
  8
STANDARDEBENE
 62
     7
100
AcDbVertex
100
AcDb2dVertex
 10
47.58365884227075
 20
187.7292819083628
 30
0.0
  0
VERTEX
  5
3F5
330
3F3
100
AcDbEntity
  8
STANDARDEBENE
 62
     7
100
AcDbVertex
100
AcDb2dVertex
 10
47.58365884227075
 20
187.9697495732333
 30
0.0
  0
VERTEX
  5
3F6
330
3F3
100
AcDbEntity
  8
STANDARDEBENE
 62
     7
100
AcDbVertex
100
AcDb2dVertex
 10
47.58365884227075
 20
188.7049329497856
 30
0.0
  0
SEQEND
  5
3F7
330
3F3
100
AcDbEntity
  8
STANDARDEBENE
  0
POLYLINE
  5
3F8
330
1F
100
AcDbEntity
  8
STANDARDEBENE
 62
     7
100
AcDb2dPolyline
 66
     1
 10
0.0
 20
0.0
 30
0.0
  0
VERTEX
  5
3F9
330
3F8
100
AcDbEntity
  8
STANDARDEBENE
 62
     7
100
AcDbVertex
100
AcDb2dVertex
 10
47.58365884227075
 20
189.6812730103054
 30
0.0
  0
VERTEX
  5
3FA
330
3F8
100
AcDbEntity
  8
STANDARDEBENE
 62
     7
100
AcDbVertex
100
AcDb2dVertex
 10
47.58365884227075
 20
189.9823743557162
 30
0.0
  0
VERTEX
  5
3FB
330
3F8
100
AcDbEntity
  8
STANDARDEBENE
 62
     7
100
AcDbVertex
100
AcDb2dVertex
 10
47.58365884227075
 20
190.6565795421796
 30
0.0
  0
SEQEND
  5
3FC
330
3F8
100
AcDbEntity
  8
STANDARDEBENE
  0
POLYLINE
  5
3FD
330
1F
100
AcDbEntity
  8
STANDARDEBENE
 62
     7
100
AcDb2dPolyline
 66
     1
 10
0.0
 20
0.0
 30
0.0
  0
VERTEX
  5
3FE
330
3FD
100
AcDbEntity
  8
STANDARDEBENE
 62
     7
100
AcDbVertex
100
AcDb2dVertex
 10
47.58365884227075
 20
191.6315415645053
 30
0.0
  0
VERTEX
  5
3FF
330
3FD
100
AcDbEntity
  8
STANDARDEBENE
 62
     7
100
AcDbVertex
100
AcDb2dVertex
 10
47.58365884227075
 20
192.5879000712107
 30
0.0
  0
VERTEX
  5
400
330
3FD
100
AcDbEntity
  8
STANDARDEBENE
 62
     7
100
AcDbVertex
100
AcDb2dVertex
 10
47.58365884227075
 20
192.6075371154766
 30
0.0
  0
SEQEND
  5
401
330
3FD
100
AcDbEntity
  8
STANDARDEBENE
  0
POLYLINE
  5
402
330
1F
100
AcDbEntity
  8
STANDARDEBENE
 62
     7
100
AcDb2dPolyline
 66
     1
 10
0.0
 20
0.0
 30
0.0
  0
VERTEX
  5
403
330
402
100
AcDbEntity
  8
STANDARDEBENE
 62
     7
100
AcDbVertex
100
AcDb2dVertex
 10
47.58365884227075
 20
193.5835326664479
 30
0.0
  0
VERTEX
  5
404
330
402
100
AcDbEntity
  8
STANDARDEBENE
 62
     7
100
AcDbVertex
100
AcDb2dVertex
 10
47.58365884227075
 20
194.053443690636
 30
0.0
  0
VERTEX
  5
405
330
402
100
AcDbEntity
  8
STANDARDEBENE
 62
     7
100
AcDbVertex
100
AcDb2dVertex
 10
47.58365884227075
 20
194.5595282174191
 30
0.0
  0
SEQEND
  5
406
330
402
100
AcDbEntity
  8
STANDARDEBENE
  0
POLYLINE
  5
407
330
1F
100
AcDbEntity
  8
STANDARDEBENE
 62
     7
100
AcDb2dPolyline
 66
     1
 10
0.0
 20
0.0
 30
0.0
  0
VERTEX
  5
408
330
407
100
AcDbEntity
  8
STANDARDEBENE
 62
     7
100
AcDbVertex
100
AcDb2dVertex
 10
47.58365884227075
 20
195.5348347492934
 30
0.0
  0
VERTEX
  5
409
330
407
100
AcDbEntity
  8
STANDARDEBENE
 62
     7
100
AcDbVertex
100
AcDb2dVertex
 10
47.58365884227075
 20
195.5923678438971
 30
0.0
  0
VERTEX
  5
40A
330
407
100
AcDbEntity
  8
STANDARDEBENE
 62
     7
100
AcDbVertex
100
AcDb2dVertex
 10
47.58365884227075
 20
196.5111748098132
 30
0.0
  0
SEQEND
  5
40B
330
407
100
AcDbEntity
  8
STANDARDEBENE
  0
POLYLINE
  5
40C
330
1F
100
AcDbEntity
  8
STANDARDEBENE
 62
     7
100
AcDb2dPolyline
 66
     1
 10
0.0
 20
0.0
 30
0.0
  0
VERTEX
  5
40D
330
40C
100
AcDbEntity
  8
STANDARDEBENE
 62
     7
100
AcDbVertex
100
AcDb2dVertex
 10
47.58365884227075
 20
197.4864813416874
 30
0.0
  0
VERTEX
  5
40E
330
40C
100
AcDbEntity
  8
STANDARDEBENE
 62
     7
100
AcDbVertex
100
AcDb2dVertex
 10
47.58365884227075
 20
198.4617878735616
 30
0.0
  0
SEQEND
  5
40F
330
40C
100
AcDbEntity
  8
STANDARDEBENE
  0
POLYLINE
  5
410
330
1F
100
AcDbEntity
  8
STANDARDEBENE
 62
     7
100
AcDb2dPolyline
 66
     1
 10
0.0
 20
0.0
 30
0.0
  0
VERTEX
  5
411
330
410
100
AcDbEntity
  8
STANDARDEBENE
 62
     7
100
AcDbVertex
100
AcDb2dVertex
 10
47.58365884227075
 20
199.4381279340815
 30
0.0
  0
VERTEX
  5
412
330
410
100
AcDbEntity
  8
STANDARDEBENE
 62
     7
100
AcDbVertex
100
AcDb2dVertex
 10
47.58365884227075
 20
200.356590390449
 30
0.0
  0
VERTEX
  5
413
330
410
100
AcDbEntity
  8
STANDARDEBENE
 62
     7
100
AcDbVertex
100
AcDb2dVertex
 10
47.58365884227075
 20
200.4137789755042
 30
0.0
  0
SEQEND
  5
414
330
410
100
AcDbEntity
  8
STANDARDEBENE
  0
POLYLINE
  5
415
330
1F
100
AcDbEntity
  8
STANDARDEBENE
 62
     7
100
AcDb2dPolyline
 66
     1
 10
0.0
 20
0.0
 30
0.0
  0
VERTEX
  5
416
330
415
100
AcDbEntity
  8
STANDARDEBENE
 62
     7
100
AcDbVertex
100
AcDb2dVertex
 10
47.58365884227075
 20
201.389430016927
 30
0.0
  0
VERTEX
  5
417
330
415
100
AcDbEntity
  8
STANDARDEBENE
 62
     7
100
AcDbVertex
100
AcDb2dVertex
 10
47.58365884227075
 20
201.8951700341616
 30
0.0
  0
VERTEX
  5
418
330
415
100
AcDbEntity
  8
STANDARDEBENE
 62
     7
100
AcDbVertex
100
AcDb2dVertex
 10
47.58365884227075
 20
202.3654255678982
 30
0.0
  0
SEQEND
  5
419
330
415
100
AcDbEntity
  8
STANDARDEBENE
  0
POLYLINE
  5
41A
330
1F
100
AcDbEntity
  8
STANDARDEBENE
 62
     7
100
AcDb2dPolyline
 66
     1
 10
0.0
 20
0.0
 30
0.0
  0
VERTEX
  5
41B
330
41A
100
AcDbEntity
  8
STANDARDEBENE
 62
     7
100
AcDbVertex
100
AcDb2dVertex
 10
47.58365884227075
 20
203.341076609321
 30
0.0
  0
VERTEX
  5
41C
330
41A
100
AcDbEntity
  8
STANDARDEBENE
 62
     7
100
AcDbVertex
100
AcDb2dVertex
 10
47.58365884227075
 20
203.361402672684
 30
0.0
  0
VERTEX
  5
41D
330
41A
100
AcDbEntity
  8
STANDARDEBENE
 62
     7
100
AcDbVertex
100
AcDb2dVertex
 10
47.58365884227075
 20
204.3163831411952
 30
0.0
  0
SEQEND
  5
41E
330
41A
100
AcDbEntity
  8
STANDARDEBENE
  0
POLYLINE
  5
41F
330
1F
100
AcDbEntity
  8
STANDARDEBENE
 62
     7
100
AcDb2dPolyline
 66
     1
 10
0.0
 20
0.0
 30
0.0
  0
VERTEX
  5
420
330
41F
100
AcDbEntity
  8
STANDARDEBENE
 62
     7
100
AcDbVertex
100
AcDb2dVertex
 10
47.58365884227075
 20
205.292034182618
 30
0.0
  0
VERTEX
  5
421
330
41F
100
AcDbEntity
  8
STANDARDEBENE
 62
     7
100
AcDbVertex
100
AcDb2dVertex
 10
47.58365884227075
 20
205.9665838786299
 30
0.0
  0
VERTEX
  5
422
330
41F
100
AcDbEntity
  8
STANDARDEBENE
 62
     7
100
AcDbVertex
100
AcDb2dVertex
 10
47.58365884227075
 20
206.2683742431378
 30
0.0
  0
SEQEND
  5
423
330
41F
100
AcDbEntity
  8
STANDARDEBENE
  0
POLYLINE
  5
424
330
1F
100
AcDbEntity
  8
STANDARDEBENE
 62
     7
100
AcDb2dPolyline
 66
     1
 10
0.0
 20
0.0
 30
0.0
  0
VERTEX
  5
425
330
424
100
AcDbEntity
  8
STANDARDEBENE
 62
     7
100
AcDbVertex
100
AcDb2dVertex
 10
47.58365884227075
 20
207.2440252845605
 30
0.0
  0
VERTEX
  5
426
330
424
100
AcDbEntity
  8
STANDARDEBENE
 62
     7
100
AcDbVertex
100
AcDb2dVertex
 10
47.58365884227075
 20
207.9781751324673
 30
0.0
  0
VERTEX
  5
427
330
424
100
AcDbEntity
  8
STANDARDEBENE
 62
     7
100
AcDbVertex
100
AcDb2dVertex
 10
47.58365884227075
 20
208.2193318164348
 30
0.0
  0
SEQEND
  5
428
330
424
100
AcDbEntity
  8
STANDARDEBENE
  0
POLYLINE
  5
429
330
1F
100
AcDbEntity
  8
STANDARDEBENE
 62
     7
100
AcDb2dPolyline
 66
     1
 10
0.0
 20
0.0
 30
0.0
  0
VERTEX
  5
42A
330
429
100
AcDbEntity
  8
STANDARDEBENE
 62
     7
100
AcDbVertex
100
AcDb2dVertex
 10
47.58365884227075
 20
209.195327367406
 30
0.0
  0
VERTEX
  5
42B
330
429
100
AcDbEntity
  8
STANDARDEBENE
 62
     7
100
AcDbVertex
100
AcDb2dVertex
 10
47.58365884227075
 20
209.2487263474274
 30
0.0
  0
VERTEX
  5
42C
330
429
100
AcDbEntity
  8
STANDARDEBENE
 62
     7
100
AcDbVertex
100
AcDb2dVertex
 10
47.58365884227075
 20
209.5742878707835
 30
0.0
  0
VERTEX
  5
42D
330
429
100
AcDbEntity
  8
STANDARDEBENE
 62
     7
100
AcDbVertex
100
AcDb2dVertex
 10
47.58365884227075
 20
209.6831528881174
 30
0.0
  0
SEQEND
  5
42E
330
429
100
AcDbEntity
  8
STANDARDEBENE
  0
POLYLINE
  5
42F
330
1F
100
AcDbEntity
  8
STANDARDEBENE
 62
     7
100
AcDb2dPolyline
 66
     1
 10
0.0
 20
0.0
 30
0.0
  0
VERTEX
  5
430
330
42F
100
AcDbEntity
  8
STANDARDEBENE
 62
     7
100
AcDbVertex
100
AcDb2dVertex
 10
47.08343097781248
 20
196.3492553220065
 30
0.0
  0
VERTEX
  5
431
330
42F
100
AcDbEntity
  8
STANDARDEBENE
 62
     7
100
AcDbVertex
100
AcDb2dVertex
 10
47.08343097781248
 20
195.4869479220484
 30
0.0
  0
VERTEX
  5
432
330
42F
100
AcDbEntity
  8
STANDARDEBENE
 62
     7
100
AcDbVertex
100
AcDb2dVertex
 10
47.08343097781248
 20
195.2661173014439
 30
0.0
  0
SEQEND
  5
433
330
42F
100
AcDbEntity
  8
STANDARDEBENE
  0
POLYLINE
  5
434
330
1F
100
AcDbEntity
  8
STANDARDEBENE
 62
     7
100
AcDb2dPolyline
 66
     1
 10
0.0
 20
0.0
 30
0.0
  0
VERTEX
  5
435
330
434
100
AcDbEntity
  8
STANDARDEBENE
 62
     7
100
AcDbVertex
100
AcDb2dVertex
 10
47.08343097781248
 20
194.1829792808813
 30
0.0
  0
VERTEX
  5
436
330
434
100
AcDbEntity
  8
STANDARDEBENE
 62
     7
100
AcDbVertex
100
AcDb2dVertex
 10
47.08343097781248
 20
193.378204975527
 30
0.0
  0
VERTEX
  5
437
330
434
100
AcDbEntity
  8
STANDARDEBENE
 62
     7
100
AcDbVertex
100
AcDb2dVertex
 10
47.08343097781248
 20
193.0991522412218
 30
0.0
  0
SEQEND
  5
438
330
434
100
AcDbEntity
  8
STANDARDEBENE
  0
POLYLINE
  5
439
330
1F
100
AcDbEntity
  8
STANDARDEBENE
 62
     7
100
AcDb2dPolyline
 66
     1
 10
0.0
 20
0.0
 30
0.0
  0
VERTEX
  5
43A
330
439
100
AcDbEntity
  8
STANDARDEBENE
 62
     7
100
AcDbVertex
100
AcDb2dVertex
 10
47.08343097781248
 20
192.0163587302077
 30
0.0
  0
VERTEX
  5
43B
330
439
100
AcDbEntity
  8
STANDARDEBENE
 62
     7
100
AcDbVertex
100
AcDb2dVertex
 10
47.08343097781248
 20
191.9691609220598
 30
0.0
  0
VERTEX
  5
43C
330
439
100
AcDbEntity
  8
STANDARDEBENE
 62
     7
100
AcDbVertex
100
AcDb2dVertex
 10
47.08343097781248
 20
191.599157666944
 30
0.0
  0
VERTEX
  5
43D
330
439
100
AcDbEntity
  8
STANDARDEBENE
 62
     7
100
AcDbVertex
100
AcDb2dVertex
 10
47.08343097781248
 20
191.4744452103779
 30
0.0
  0
SEQEND
  5
43E
330
439
100
AcDbEntity
  8
STANDARDEBENE
  0
POLYLINE
  5
43F
330
1F
100
AcDbEntity
  8
STANDARDEBENE
 62
     7
100
AcDb2dPolyline
 66
     1
 10
0.0
 20
0.0
 30
0.0
  0
VERTEX
  5
440
330
43F
100
AcDbEntity
  8
STANDARDEBENE
 62
     7
100
AcDbVertex
100
AcDb2dVertex
 10
47.08343097781248
 20
204.4741685144197
 30
0.0
  0
VERTEX
  5
441
330
43F
100
AcDbEntity
  8
STANDARDEBENE
 62
     7
100
AcDbVertex
100
AcDb2dVertex
 10
47.08343097781248
 20
204.3498005674022
 30
0.0
  0
VERTEX
  5
442
330
43F
100
AcDbEntity
  8
STANDARDEBENE
 62
     7
100
AcDbVertex
100
AcDb2dVertex
 10
47.08343097781248
 20
203.9794528027378
 30
0.0
  0
VERTEX
  5
443
330
43F
100
AcDbEntity
  8
STANDARDEBENE
 62
     7
100
AcDbVertex
100
AcDb2dVertex
 10
47.08343097781248
 20
203.9329440136869
 30
0.0
  0
SEQEND
  5
444
330
43F
100
AcDbEntity
  8
STANDARDEBENE
  0
POLYLINE
  5
445
330
1F
100
AcDbEntity
  8
STANDARDEBENE
 62
     7
100
AcDb2dPolyline
 66
     1
 10
0.0
 20
0.0
 30
0.0
  0
VERTEX
  5
446
330
445
100
AcDbEntity
  8
STANDARDEBENE
 62
     7
100
AcDbVertex
100
AcDb2dVertex
 10
47.08343097781248
 20
202.8494614835759
 30
0.0
  0
VERTEX
  5
447
330
445
100
AcDbEntity
  8
STANDARDEBENE
 62
     7
100
AcDbVertex
100
AcDb2dVertex
 10
47.08343097781248
 20
202.5707532588191
 30
0.0
  0
VERTEX
  5
448
330
445
100
AcDbEntity
  8
STANDARDEBENE
 62
     7
100
AcDbVertex
100
AcDb2dVertex
 10
47.08343097781248
 20
201.7659789534648
 30
0.0
  0
SEQEND
  5
449
330
445
100
AcDbEntity
  8
STANDARDEBENE
  0
POLYLINE
  5
44A
330
1F
100
AcDbEntity
  8
STANDARDEBENE
 62
     7
100
AcDb2dPolyline
 66
     1
 10
0.0
 20
0.0
 30
0.0
  0
VERTEX
  5
44B
330
44A
100
AcDbEntity
  8
STANDARDEBENE
 62
     7
100
AcDbVertex
100
AcDb2dVertex
 10
47.08343097781248
 20
200.6828409329022
 30
0.0
  0
VERTEX
  5
44C
330
44A
100
AcDbEntity
  8
STANDARDEBENE
 62
     7
100
AcDbVertex
100
AcDb2dVertex
 10
47.08343097781248
 20
200.4616658027492
 30
0.0
  0
VERTEX
  5
44D
330
44A
100
AcDbEntity
  8
STANDARDEBENE
 62
     7
100
AcDbVertex
100
AcDb2dVertex
 10
47.08343097781248
 20
199.5997029123397
 30
0.0
  0
SEQEND
  5
44E
330
44A
100
AcDbEntity
  8
STANDARDEBENE
  0
POLYLINE
  5
44F
330
1F
100
AcDbEntity
  8
STANDARDEBENE
 62
     7
100
AcDb2dPolyline
 66
     1
 10
0.0
 20
0.0
 30
0.0
  0
VERTEX
  5
450
330
44F
100
AcDbEntity
  8
STANDARDEBENE
 62
     7
100
AcDbVertex
100
AcDb2dVertex
 10
47.08343097781248
 20
198.5162203822286
 30
0.0
  0
VERTEX
  5
451
330
44F
100
AcDbEntity
  8
STANDARDEBENE
 62
     7
100
AcDbVertex
100
AcDb2dVertex
 10
47.08343097781248
 20
197.9746513719473
 30
0.0
  0
SEQEND
  5
452
330
44F
100
AcDbEntity
  8
STANDARDEBENE
  0
POLYLINE
  5
453
330
1F
100
AcDbEntity
  8
STANDARDEBENE
 62
     7
100
AcDb2dPolyline
 66
     1
 10
0.0
 20
0.0
 30
0.0
  0
VERTEX
  5
454
330
453
100
AcDbEntity
  8
STANDARDEBENE
 62
     7
100
AcDbVertex
100
AcDb2dVertex
 10
39.0832302419653
 20
197.9746513719473
 30
0.0
  0
VERTEX
  5
455
330
453
100
AcDbEntity
  8
STANDARDEBENE
 62
     7
100
AcDbVertex
100
AcDb2dVertex
 10
39.0832302419653
 20
197.4327378521175
 30
0.0
  0
SEQEND
  5
456
330
453
100
AcDbEntity
  8
STANDARDEBENE
  0
POLYLINE
  5
457
330
1F
100
AcDbEntity
  8
STANDARDEBENE
 62
     7
100
AcDb2dPolyline
 66
     1
 10
0.0
 20
0.0
 30
0.0
  0
VERTEX
  5
458
330
457
100
AcDbEntity
  8
STANDARDEBENE
 62
     7
100
AcDbVertex
100
AcDb2dVertex
 10
39.0832302419653
 20
196.3492553220065
 30
0.0
  0
VERTEX
  5
459
330
457
100
AcDbEntity
  8
STANDARDEBENE
 62
     7
100
AcDbVertex
100
AcDb2dVertex
 10
39.0832302419653
 20
195.4869479220484
 30
0.0
  0
VERTEX
  5
45A
330
457
100
AcDbEntity
  8
STANDARDEBENE
 62
     7
100
AcDbVertex
100
AcDb2dVertex
 10
39.0832302419653
 20
195.2661173014439
 30
0.0
  0
SEQEND
  5
45B
330
457
100
AcDbEntity
  8
STANDARDEBENE
  0
POLYLINE
  5
45C
330
1F
100
AcDbEntity
  8
STANDARDEBENE
 62
     7
100
AcDb2dPolyline
 66
     1
 10
0.0
 20
0.0
 30
0.0
  0
VERTEX
  5
45D
330
45C
100
AcDbEntity
  8
STANDARDEBENE
 62
     7
100
AcDbVertex
100
AcDb2dVertex
 10
39.0832302419653
 20
194.1829792808813
 30
0.0
  0
VERTEX
  5
45E
330
45C
100
AcDbEntity
  8
STANDARDEBENE
 62
     7
100
AcDbVertex
100
AcDb2dVertex
 10
39.0832302419653
 20
193.378204975527
 30
0.0
  0
VERTEX
  5
45F
330
45C
100
AcDbEntity
  8
STANDARDEBENE
 62
     7
100
AcDbVertex
100
AcDb2dVertex
 10
39.0832302419653
 20
193.0991522412218
 30
0.0
  0
SEQEND
  5
460
330
45C
100
AcDbEntity
  8
STANDARDEBENE
  0
POLYLINE
  5
461
330
1F
100
AcDbEntity
  8
STANDARDEBENE
 62
     7
100
AcDb2dPolyline
 66
     1
 10
0.0
 20
0.0
 30
0.0
  0
VERTEX
  5
462
330
461
100
AcDbEntity
  8
STANDARDEBENE
 62
     7
100
AcDbVertex
100
AcDb2dVertex
 10
39.0832302419653
 20
192.0163587302077
 30
0.0
  0
VERTEX
  5
463
330
461
100
AcDbEntity
  8
STANDARDEBENE
 62
     7
100
AcDbVertex
100
AcDb2dVertex
 10
39.0832302419653
 20
191.9691609220598
 30
0.0
  0
VERTEX
  5
464
330
461
100
AcDbEntity
  8
STANDARDEBENE
 62
     7
100
AcDbVertex
100
AcDb2dVertex
 10
39.0832302419653
 20
191.599157666944
 30
0.0
  0
VERTEX
  5
465
330
461
100
AcDbEntity
  8
STANDARDEBENE
 62
     7
100
AcDbVertex
100
AcDb2dVertex
 10
39.0832302419653
 20
191.4744452103779
 30
0.0
  0
SEQEND
  5
466
330
461
100
AcDbEntity
  8
STANDARDEBENE
  0
POLYLINE
  5
467
330
1F
100
AcDbEntity
  8
STANDARDEBENE
 62
     7
100
AcDb2dPolyline
 66
     1
 10
0.0
 20
0.0
 30
0.0
  0
VERTEX
  5
468
330
467
100
AcDbEntity
  8
STANDARDEBENE
 62
     7
100
AcDbVertex
100
AcDb2dVertex
 10
39.0832302419653
 20
204.4741685144197
 30
0.0
  0
VERTEX
  5
469
330
467
100
AcDbEntity
  8
STANDARDEBENE
 62
     7
100
AcDbVertex
100
AcDb2dVertex
 10
39.0832302419653
 20
204.3498005674022
 30
0.0
  0
VERTEX
  5
46A
330
467
100
AcDbEntity
  8
STANDARDEBENE
 62
     7
100
AcDbVertex
100
AcDb2dVertex
 10
39.0832302419653
 20
203.9794528027378
 30
0.0
  0
VERTEX
  5
46B
330
467
100
AcDbEntity
  8
STANDARDEBENE
 62
     7
100
AcDbVertex
100
AcDb2dVertex
 10
39.0832302419653
 20
203.9329440136869
 30
0.0
  0
SEQEND
  5
46C
330
467
100
AcDbEntity
  8
STANDARDEBENE
  0
POLYLINE
  5
46D
330
1F
100
AcDbEntity
  8
STANDARDEBENE
 62
     7
100
AcDb2dPolyline
 66
     1
 10
0.0
 20
0.0
 30
0.0
  0
VERTEX
  5
46E
330
46D
100
AcDbEntity
  8
STANDARDEBENE
 62
     7
100
AcDbVertex
100
AcDb2dVertex
 10
39.0832302419653
 20
202.8494614835759
 30
0.0
  0
VERTEX
  5
46F
330
46D
100
AcDbEntity
  8
STANDARDEBENE
 62
     7
100
AcDbVertex
100
AcDb2dVertex
 10
39.0832302419653
 20
202.5707532588191
 30
0.0
  0
VERTEX
  5
470
330
46D
100
AcDbEntity
  8
STANDARDEBENE
 62
     7
100
AcDbVertex
100
AcDb2dVertex
 10
39.0832302419653
 20
201.7659789534648
 30
0.0
  0
SEQEND
  5
471
330
46D
100
AcDbEntity
  8
STANDARDEBENE
  0
POLYLINE
  5
472
330
1F
100
AcDbEntity
  8
STANDARDEBENE
 62
     7
100
AcDb2dPolyline
 66
     1
 10
0.0
 20
0.0
 30
0.0
  0
VERTEX
  5
473
330
472
100
AcDbEntity
  8
STANDARDEBENE
 62
     7
100
AcDbVertex
100
AcDb2dVertex
 10
39.0832302419653
 20
200.6828409329022
 30
0.0
  0
VERTEX
  5
474
330
472
100
AcDbEntity
  8
STANDARDEBENE
 62
     7
100
AcDbVertex
100
AcDb2dVertex
 10
39.0832302419653
 20
200.4616658027492
 30
0.0
  0
VERTEX
  5
475
330
472
100
AcDbEntity
  8
STANDARDEBENE
 62
     7
100
AcDbVertex
100
AcDb2dVertex
 10
39.0832302419653
 20
199.5997029123397
 30
0.0
  0
SEQEND
  5
476
330
472
100
AcDbEntity
  8
STANDARDEBENE
  0
POLYLINE
  5
477
330
1F
100
AcDbEntity
  8
STANDARDEBENE
 62
     7
100
AcDb2dPolyline
 66
     1
 10
0.0
 20
0.0
 30
0.0
  0
VERTEX
  5
478
330
477
100
AcDbEntity
  8
STANDARDEBENE
 62
     7
100
AcDbVertex
100
AcDb2dVertex
 10
39.0832302419653
 20
198.5162203822286
 30
0.0
  0
VERTEX
  5
479
330
477
100
AcDbEntity
  8
STANDARDEBENE
 62
     7
100
AcDbVertex
100
AcDb2dVertex
 10
39.0832302419653
 20
197.9746513719473
 30
0.0
  0
SEQEND
  5
47A
330
477
100
AcDbEntity
  8
STANDARDEBENE
  0
POLYLINE
  5
47B
330
1F
100
AcDbEntity
  8
STANDARDEBENE
 62
     7
100
AcDb2dPolyline
 66
     1
 10
0.0
 20
0.0
 30
0.0
  0
VERTEX
  5
47C
330
47B
100
AcDbEntity
  8
STANDARDEBENE
 62
     7
100
AcDbVertex
100
AcDb2dVertex
 10
38.68291014657927
 20
195.4745455783015
 30
0.0
  0
VERTEX
  5
47D
330
47B
100
AcDbEntity
  8
STANDARDEBENE
 62
     7
100
AcDbVertex
100
AcDb2dVertex
 10
38.68291014657927
 20
195.5968464680279
 30
0.0
  0
VERTEX
  5
47E
330
47B
100
AcDbEntity
  8
STANDARDEBENE
 62
     7
100
AcDbVertex
100
AcDb2dVertex
 10
38.68291014657927
 20
195.9516913030086
 30
0.0
  0
VERTEX
  5
47F
330
47B
100
AcDbEntity
  8
STANDARDEBENE
 62
     7
100
AcDbVertex
100
AcDb2dVertex
 10
38.68291014657927
 20
196.0994858993258
 30
0.0
  0
SEQEND
  5
480
330
47B
100
AcDbEntity
  8
STANDARDEBENE
  0
POLYLINE
  5
481
330
1F
100
AcDbEntity
  8
STANDARDEBENE
 62
     7
100
AcDb2dPolyline
 66
     1
 10
0.0
 20
0.0
 30
0.0
  0
VERTEX
  5
482
330
481
100
AcDbEntity
  8
STANDARDEBENE
 62
     7
100
AcDbVertex
100
AcDb2dVertex
 10
38.68291014657927
 20
197.3493665413745
 30
0.0
  0
VERTEX
  5
483
330
481
100
AcDbEntity
  8
STANDARDEBENE
 62
     7
100
AcDbVertex
100
AcDb2dVertex
 10
38.68291014657927
 20
197.9746513719473
 30
0.0
  0
VERTEX
  5
484
330
481
100
AcDbEntity
  8
STANDARDEBENE
 62
     7
100
AcDbVertex
100
AcDb2dVertex
 10
38.68291014657927
 20
198.5992471834231
 30
0.0
  0
SEQEND
  5
485
330
481
100
AcDbEntity
  8
STANDARDEBENE
  0
POLYLINE
  5
486
330
1F
100
AcDbEntity
  8
STANDARDEBENE
 62
     7
100
AcDb2dPolyline
 66
     1
 10
0.0
 20
0.0
 30
0.0
  0
VERTEX
  5
487
330
486
100
AcDbEntity
  8
STANDARDEBENE
 62
     7
100
AcDbVertex
100
AcDb2dVertex
 10
38.68291014657927
 20
199.8494723350203
 30
0.0
  0
VERTEX
  5
488
330
486
100
AcDbEntity
  8
STANDARDEBENE
 62
     7
100
AcDbVertex
100
AcDb2dVertex
 10
38.68291014657927
 20
199.996922421789
 30
0.0
  0
VERTEX
  5
489
330
486
100
AcDbEntity
  8
STANDARDEBENE
 62
     7
100
AcDbVertex
100
AcDb2dVertex
 10
38.68291014657927
 20
200.3517672567697
 30
0.0
  0
VERTEX
  5
48A
330
486
100
AcDbEntity
  8
STANDARDEBENE
 62
     7
100
AcDbVertex
100
AcDb2dVertex
 10
38.68291014657927
 20
200.4744126560446
 30
0.0
  0
SEQEND
  5
48B
330
486
100
AcDbEntity
  8
STANDARDEBENE
  0
POLYLINE
  5
48D
330
1F
100
AcDbEntity
  8
BEMAßUNG
 62
     7
100
AcDb2dPolyline
 66
     1
 10
0.0
 20
0.0
 30
0.0
  0
VERTEX
  5
48E
330
48D
100
AcDbEntity
  8
BEMAßUNG
 62
     7
100
AcDbVertex
100
AcDb2dVertex
 10
-47.6160427398321
 20
197.9412339457404
 30
0.0
  0
VERTEX
  5
48F
330
48D
100
AcDbEntity
  8
BEMAßUNG
 62
     7
100
AcDbVertex
100
AcDb2dVertex
 10
-47.6160427398321
 20
163.6708020966691
 30
0.0
  0
SEQEND
  5
490
330
48D
100
AcDbEntity
  8
BEMAßUNG
  0
POLYLINE
  5
491
330
1F
100
AcDbEntity
  8
BEMAßUNG
 62
     7
100
AcDb2dPolyline
 66
     1
 10
0.0
 20
0.0
 30
0.0
  0
VERTEX
  5
492
330
491
100
AcDbEntity
  8
BEMAßUNG
 62
     7
100
AcDbVertex
100
AcDb2dVertex
 10
-3.615972221318229
 20
197.9412339457404
 30
0.0
  0
VERTEX
  5
493
330
491
100
AcDbEntity
  8
BEMAßUNG
 62
     7
100
AcDbVertex
100
AcDb2dVertex
 10
-3.615972221318229
 20
163.6708020966691
 30
0.0
  0
SEQEND
  5
494
330
491
100
AcDbEntity
  8
BEMAßUNG
  0
POLYLINE
  5
495
330
1F
100
AcDbEntity
  8
BEMAßUNG
 62
     7
100
AcDb2dPolyline
 66
     1
 10
0.0
 20
0.0
 30
0.0
  0
VERTEX
  5
496
330
495
100
AcDbEntity
  8
BEMAßUNG
 62
     7
100
AcDbVertex
100
AcDb2dVertex
 10
-47.6160427398321
 20
165.6699910067596
 30
0.0
  0
VERTEX
  5
497
330
495
100
AcDbEntity
  8
BEMAßUNG
 62
     7
100
AcDbVertex
100
AcDb2dVertex
 10
-3.615972221318229
 20
165.6699910067596
 30
0.0
  0
SEQEND
  5
498
330
495
100
AcDbEntity
  8
BEMAßUNG
  0
POLYLINE
  5
499
330
1F
100
AcDbEntity
  8
BEMAßUNG
 62
     7
100
AcDb2dPolyline
 66
     1
 10
0.0
 20
0.0
 30
0.0
  0
VERTEX
  5
49A
330
499
100
AcDbEntity
  8
BEMAßUNG
 62
     7
100
AcDbVertex
100
AcDb2dVertex
 10
-47.6160427398321
 20
165.6699910067596
 30
0.0
  0
VERTEX
  5
49B
330
499
100
AcDbEntity
  8
BEMAßUNG
 62
     7
100
AcDbVertex
100
AcDb2dVertex
 10
-44.11617023636679
 20
165.2097262499302
 30
0.0
  0
VERTEX
  5
49C
330
499
100
AcDbEntity
  8
BEMAßUNG
 62
     7
100
AcDbVertex
100
AcDb2dVertex
 10
-44.11617023636679
 20
166.1316338017831
 30
0.0
  0
VERTEX
  5
49D
330
499
100
AcDbEntity
  8
BEMAßUNG
 62
     7
100
AcDbVertex
100
AcDb2dVertex
 10
-47.6160427398321
 20
165.6699910067596
 30
0.0
  0
SEQEND
  5
49E
330
499
100
AcDbEntity
  8
BEMAßUNG
  0
POLYLINE
  5
49F
330
1F
100
AcDbEntity
  8
BEMAßUNG
 62
     7
100
AcDb2dPolyline
 66
     1
 10
0.0
 20
0.0
 30
0.0
  0
VERTEX
  5
4A0
330
49F
100
AcDbEntity
  8
BEMAßUNG
 62
     7
100
AcDbVertex
100
AcDb2dVertex
 10
-44.11617023636679
 20
165.2128268358669
 30
0.0
  0
VERTEX
  5
4A1
330
49F
100
AcDbEntity
  8
BEMAßUNG
 62
     7
100
AcDbVertex
100
AcDb2dVertex
 10
-44.14338649070027
 20
165.2128268358669
 30
0.0
  0
SEQEND
  5
4A2
330
49F
100
AcDbEntity
  8
BEMAßUNG
  0
POLYLINE
  5
4A3
330
1F
100
AcDbEntity
  8
BEMAßUNG
 62
     7
100
AcDb2dPolyline
 66
     1
 10
0.0
 20
0.0
 30
0.0
  0
VERTEX
  5
4A4
330
4A3
100
AcDbEntity
  8
BEMAßUNG
 62
     7
100
AcDbVertex
100
AcDb2dVertex
 10
-44.11617023636679
 20
165.2128268358669
 30
0.0
  0
VERTEX
  5
4A5
330
4A3
100
AcDbEntity
  8
BEMAßUNG
 62
     7
100
AcDbVertex
100
AcDb2dVertex
 10
-44.14338649070027
 20
165.2128268358669
 30
0.0
  0
SEQEND
  5
4A6
330
4A3
100
AcDbEntity
  8
BEMAßUNG
  0
POLYLINE
  5
4A7
330
1F
100
AcDbEntity
  8
BEMAßUNG
 62
     7
100
AcDb2dPolyline
 66
     1
 10
0.0
 20
0.0
 30
0.0
  0
VERTEX
  5
4A8
330
4A7
100
AcDbEntity
  8
BEMAßUNG
 62
     7
100
AcDbVertex
100
AcDb2dVertex
 10
-44.11617023636679
 20
165.2641587585972
 30
0.0
  0
VERTEX
  5
4A9
330
4A7
100
AcDbEntity
  8
BEMAßUNG
 62
     7
100
AcDbVertex
100
AcDb2dVertex
 10
-44.52923718504825
 20
165.2641587585972
 30
0.0
  0
SEQEND
  5
4AA
330
4A7
100
AcDbEntity
  8
BEMAßUNG
  0
POLYLINE
  5
4AB
330
1F
100
AcDbEntity
  8
BEMAßUNG
 62
     7
100
AcDb2dPolyline
 66
     1
 10
0.0
 20
0.0
 30
0.0
  0
VERTEX
  5
4AC
330
4AB
100
AcDbEntity
  8
BEMAßUNG
 62
     7
100
AcDbVertex
100
AcDb2dVertex
 10
-44.11617023636679
 20
165.3148016622303
 30
0.0
  0
VERTEX
  5
4AD
330
4AB
100
AcDbEntity
  8
BEMAßUNG
 62
     7
100
AcDbVertex
100
AcDb2dVertex
 10
-44.91474336984771
 20
165.3148016622303
 30
0.0
  0
SEQEND
  5
4AE
330
4AB
100
AcDbEntity
  8
BEMAßUNG
  0
POLYLINE
  5
4AF
330
1F
100
AcDbEntity
  8
BEMAßUNG
 62
     7
100
AcDb2dPolyline
 66
     1
 10
0.0
 20
0.0
 30
0.0
  0
VERTEX
  5
4B0
330
4AF
100
AcDbEntity
  8
BEMAßUNG
 62
     7
100
AcDbVertex
100
AcDb2dVertex
 10
-44.11617023636679
 20
165.365789075412
 30
0.0
  0
VERTEX
  5
4B1
330
4AF
100
AcDbEntity
  8
BEMAßUNG
 62
     7
100
AcDbVertex
100
AcDb2dVertex
 10
-45.30059406419569
 20
165.365789075412
 30
0.0
  0
SEQEND
  5
4B2
330
4AF
100
AcDbEntity
  8
BEMAßUNG
  0
POLYLINE
  5
4B3
330
1F
100
AcDbEntity
  8
BEMAßUNG
 62
     7
100
AcDb2dPolyline
 66
     1
 10
0.0
 20
0.0
 30
0.0
  0
VERTEX
  5
4B4
330
4B3
100
AcDbEntity
  8
BEMAßUNG
 62
     7
100
AcDbVertex
100
AcDb2dVertex
 10
-44.11617023636679
 20
165.4164319790452
 30
0.0
  0
VERTEX
  5
4B5
330
4B3
100
AcDbEntity
  8
BEMAßUNG
 62
     7
100
AcDbVertex
100
AcDb2dVertex
 10
-45.68678926809219
 20
165.4164319790452
 30
0.0
  0
SEQEND
  5
4B6
330
4B3
100
AcDbEntity
  8
BEMAßUNG
  0
POLYLINE
  5
4B7
330
1F
100
AcDbEntity
  8
BEMAßUNG
 62
     7
100
AcDb2dPolyline
 66
     1
 10
0.0
 20
0.0
 30
0.0
  0
VERTEX
  5
4B8
330
4B7
100
AcDbEntity
  8
BEMAßUNG
 62
     7
100
AcDbVertex
100
AcDb2dVertex
 10
-44.11617023636679
 20
165.4670748826784
 30
0.0
  0
VERTEX
  5
4B9
330
4B7
100
AcDbEntity
  8
BEMAßUNG
 62
     7
100
AcDbVertex
100
AcDb2dVertex
 10
-46.07263996244018
 20
165.4670748826784
 30
0.0
  0
SEQEND
  5
4BA
330
4B7
100
AcDbEntity
  8
BEMAßUNG
  0
POLYLINE
  5
4BB
330
1F
100
AcDbEntity
  8
BEMAßUNG
 62
     7
100
AcDb2dPolyline
 66
     1
 10
0.0
 20
0.0
 30
0.0
  0
VERTEX
  5
4BC
330
4BB
100
AcDbEntity
  8
BEMAßUNG
 62
     7
100
AcDbVertex
100
AcDb2dVertex
 10
-44.11617023636679
 20
165.5177177863116
 30
0.0
  0
VERTEX
  5
4BD
330
4BB
100
AcDbEntity
  8
BEMAßUNG
 62
     7
100
AcDbVertex
100
AcDb2dVertex
 10
-46.45849065678816
 20
165.5177177863116
 30
0.0
  0
SEQEND
  5
4BE
330
4BB
100
AcDbEntity
  8
BEMAßUNG
  0
POLYLINE
  5
4BF
330
1F
100
AcDbEntity
  8
BEMAßUNG
 62
     7
100
AcDb2dPolyline
 66
     1
 10
0.0
 20
0.0
 30
0.0
  0
VERTEX
  5
4C0
330
4BF
100
AcDbEntity
  8
BEMAßUNG
 62
     7
100
AcDbVertex
100
AcDb2dVertex
 10
-44.11617023636679
 20
165.5687051994933
 30
0.0
  0
VERTEX
  5
4C1
330
4BF
100
AcDbEntity
  8
BEMAßUNG
 62
     7
100
AcDbVertex
100
AcDb2dVertex
 10
-46.84399684158761
 20
165.5687051994933
 30
0.0
  0
SEQEND
  5
4C2
330
4BF
100
AcDbEntity
  8
BEMAßUNG
  0
POLYLINE
  5
4C3
330
1F
100
AcDbEntity
  8
BEMAßUNG
 62
     7
100
AcDb2dPolyline
 66
     1
 10
0.0
 20
0.0
 30
0.0
  0
VERTEX
  5
4C4
330
4C3
100
AcDbEntity
  8
BEMAßUNG
 62
     7
100
AcDbVertex
100
AcDb2dVertex
 10
-44.11617023636679
 20
165.6193481031264
 30
0.0
  0
VERTEX
  5
4C5
330
4C3
100
AcDbEntity
  8
BEMAßUNG
 62
     7
100
AcDbVertex
100
AcDb2dVertex
 10
-47.23019204548412
 20
165.6193481031264
 30
0.0
  0
SEQEND
  5
4C6
330
4C3
100
AcDbEntity
  8
BEMAßUNG
  0
POLYLINE
  5
4C7
330
1F
100
AcDbEntity
  8
BEMAßUNG
 62
     7
100
AcDb2dPolyline
 66
     1
 10
0.0
 20
0.0
 30
0.0
  0
VERTEX
  5
4C8
330
4C7
100
AcDbEntity
  8
BEMAßUNG
 62
     7
100
AcDbVertex
100
AcDb2dVertex
 10
-44.11617023636679
 20
165.6699910067596
 30
0.0
  0
VERTEX
  5
4C9
330
4C7
100
AcDbEntity
  8
BEMAßUNG
 62
     7
100
AcDbVertex
100
AcDb2dVertex
 10
-47.6160427398321
 20
165.6699910067596
 30
0.0
  0
SEQEND
  5
4CA
330
4C7
100
AcDbEntity
  8
BEMAßUNG
  0
POLYLINE
  5
4CB
330
1F
100
AcDbEntity
  8
BEMAßUNG
 62
     7
100
AcDb2dPolyline
 66
     1
 10
0.0
 20
0.0
 30
0.0
  0
VERTEX
  5
4CC
330
4CB
100
AcDbEntity
  8
BEMAßUNG
 62
     7
100
AcDbVertex
100
AcDb2dVertex
 10
-44.11617023636679
 20
166.1274996872008
 30
0.0
  0
VERTEX
  5
4CD
330
4CB
100
AcDbEntity
  8
BEMAßUNG
 62
     7
100
AcDbVertex
100
AcDb2dVertex
 10
-44.14338649070027
 20
166.1274996872008
 30
0.0
  0
SEQEND
  5
4CE
330
4CB
100
AcDbEntity
  8
BEMAßUNG
  0
POLYLINE
  5
4CF
330
1F
100
AcDbEntity
  8
BEMAßUNG
 62
     7
100
AcDb2dPolyline
 66
     1
 10
0.0
 20
0.0
 30
0.0
  0
VERTEX
  5
4D0
330
4CF
100
AcDbEntity
  8
BEMAßUNG
 62
     7
100
AcDbVertex
100
AcDb2dVertex
 10
-44.11617023636679
 20
166.1274996872008
 30
0.0
  0
VERTEX
  5
4D1
330
4CF
100
AcDbEntity
  8
BEMAßUNG
 62
     7
100
AcDbVertex
100
AcDb2dVertex
 10
-44.14338649070027
 20
166.1274996872008
 30
0.0
  0
SEQEND
  5
4D2
330
4CF
100
AcDbEntity
  8
BEMAßUNG
  0
POLYLINE
  5
4D3
330
1F
100
AcDbEntity
  8
BEMAßUNG
 62
     7
100
AcDb2dPolyline
 66
     1
 10
0.0
 20
0.0
 30
0.0
  0
VERTEX
  5
4D4
330
4D3
100
AcDbEntity
  8
BEMAßUNG
 62
     7
100
AcDbVertex
100
AcDb2dVertex
 10
-44.11617023636679
 20
166.0765122740191
 30
0.0
  0
VERTEX
  5
4D5
330
4D3
100
AcDbEntity
  8
BEMAßUNG
 62
     7
100
AcDbVertex
100
AcDb2dVertex
 10
-44.52923718504825
 20
166.0765122740191
 30
0.0
  0
SEQEND
  5
4D6
330
4D3
100
AcDbEntity
  8
BEMAßUNG
  0
POLYLINE
  5
4D7
330
1F
100
AcDbEntity
  8
BEMAßUNG
 62
     7
100
AcDb2dPolyline
 66
     1
 10
0.0
 20
0.0
 30
0.0
  0
VERTEX
  5
4D8
330
4D7
100
AcDbEntity
  8
BEMAßUNG
 62
     7
100
AcDbVertex
100
AcDb2dVertex
 10
-44.11617023636679
 20
166.0265583894829
 30
0.0
  0
VERTEX
  5
4D9
330
4D7
100
AcDbEntity
  8
BEMAßUNG
 62
     7
100
AcDbVertex
100
AcDb2dVertex
 10
-44.91474336984771
 20
166.0265583894829
 30
0.0
  0
SEQEND
  5
4DA
330
4D7
100
AcDbEntity
  8
BEMAßUNG
  0
POLYLINE
  5
4DB
330
1F
100
AcDbEntity
  8
BEMAßUNG
 62
     7
100
AcDb2dPolyline
 66
     1
 10
0.0
 20
0.0
 30
0.0
  0
VERTEX
  5
4DC
330
4DB
100
AcDbEntity
  8
BEMAßUNG
 62
     7
100
AcDbVertex
100
AcDb2dVertex
 10
-44.11617023636679
 20
165.9752264667527
 30
0.0
  0
VERTEX
  5
4DD
330
4DB
100
AcDbEntity
  8
BEMAßUNG
 62
     7
100
AcDbVertex
100
AcDb2dVertex
 10
-45.30059406419569
 20
165.9752264667527
 30
0.0
  0
SEQEND
  5
4DE
330
4DB
100
AcDbEntity
  8
BEMAßUNG
  0
POLYLINE
  5
4DF
330
1F
100
AcDbEntity
  8
BEMAßUNG
 62
     7
100
AcDb2dPolyline
 66
     1
 10
0.0
 20
0.0
 30
0.0
  0
VERTEX
  5
4E0
330
4DF
100
AcDbEntity
  8
BEMAßUNG
 62
     7
100
AcDbVertex
100
AcDb2dVertex
 10
-44.11617023636679
 20
165.924239053571
 30
0.0
  0
VERTEX
  5
4E1
330
4DF
100
AcDbEntity
  8
BEMAßUNG
 62
     7
100
AcDbVertex
100
AcDb2dVertex
 10
-45.68678926809219
 20
165.924239053571
 30
0.0
  0
SEQEND
  5
4E2
330
4DF
100
AcDbEntity
  8
BEMAßUNG
  0
POLYLINE
  5
4E3
330
1F
100
AcDbEntity
  8
BEMAßUNG
 62
     7
100
AcDb2dPolyline
 66
     1
 10
0.0
 20
0.0
 30
0.0
  0
VERTEX
  5
4E4
330
4E3
100
AcDbEntity
  8
BEMAßUNG
 62
     7
100
AcDbVertex
100
AcDb2dVertex
 10
-44.11617023636679
 20
165.8735961499379
 30
0.0
  0
VERTEX
  5
4E5
330
4E3
100
AcDbEntity
  8
BEMAßUNG
 62
     7
100
AcDbVertex
100
AcDb2dVertex
 10
-46.07263996244018
 20
165.8735961499379
 30
0.0
  0
SEQEND
  5
4E6
330
4E3
100
AcDbEntity
  8
BEMAßUNG
  0
POLYLINE
  5
4E7
330
1F
100
AcDbEntity
  8
BEMAßUNG
 62
     7
100
AcDb2dPolyline
 66
     1
 10
0.0
 20
0.0
 30
0.0
  0
VERTEX
  5
4E8
330
4E7
100
AcDbEntity
  8
BEMAßUNG
 62
     7
100
AcDbVertex
100
AcDb2dVertex
 10
-44.11617023636679
 20
165.8229532463047
 30
0.0
  0
VERTEX
  5
4E9
330
4E7
100
AcDbEntity
  8
BEMAßUNG
 62
     7
100
AcDbVertex
100
AcDb2dVertex
 10
-46.45849065678816
 20
165.8229532463047
 30
0.0
  0
SEQEND
  5
4EA
330
4E7
100
AcDbEntity
  8
BEMAßUNG
  0
POLYLINE
  5
4EB
330
1F
100
AcDbEntity
  8
BEMAßUNG
 62
     7
100
AcDb2dPolyline
 66
     1
 10
0.0
 20
0.0
 30
0.0
  0
VERTEX
  5
4EC
330
4EB
100
AcDbEntity
  8
BEMAßUNG
 62
     7
100
AcDbVertex
100
AcDb2dVertex
 10
-44.11617023636679
 20
165.7723103426715
 30
0.0
  0
VERTEX
  5
4ED
330
4EB
100
AcDbEntity
  8
BEMAßUNG
 62
     7
100
AcDbVertex
100
AcDb2dVertex
 10
-46.84399684158761
 20
165.7723103426715
 30
0.0
  0
SEQEND
  5
4EE
330
4EB
100
AcDbEntity
  8
BEMAßUNG
  0
POLYLINE
  5
4EF
330
1F
100
AcDbEntity
  8
BEMAßUNG
 62
     7
100
AcDb2dPolyline
 66
     1
 10
0.0
 20
0.0
 30
0.0
  0
VERTEX
  5
4F0
330
4EF
100
AcDbEntity
  8
BEMAßUNG
 62
     7
100
AcDbVertex
100
AcDb2dVertex
 10
-44.11617023636679
 20
165.7209784199413
 30
0.0
  0
VERTEX
  5
4F1
330
4EF
100
AcDbEntity
  8
BEMAßUNG
 62
     7
100
AcDbVertex
100
AcDb2dVertex
 10
-47.23019204548412
 20
165.7209784199413
 30
0.0
  0
SEQEND
  5
4F2
330
4EF
100
AcDbEntity
  8
BEMAßUNG
  0
POLYLINE
  5
4F3
330
1F
100
AcDbEntity
  8
BEMAßUNG
 62
     7
100
AcDb2dPolyline
 66
     1
 10
0.0
 20
0.0
 30
0.0
  0
VERTEX
  5
4F4
330
4F3
100
AcDbEntity
  8
BEMAßUNG
 62
     7
100
AcDbVertex
100
AcDb2dVertex
 10
-44.11617023636679
 20
165.6699910067596
 30
0.0
  0
VERTEX
  5
4F5
330
4F3
100
AcDbEntity
  8
BEMAßUNG
 62
     7
100
AcDbVertex
100
AcDb2dVertex
 10
-47.6160427398321
 20
165.6699910067596
 30
0.0
  0
SEQEND
  5
4F6
330
4F3
100
AcDbEntity
  8
BEMAßUNG
  0
POLYLINE
  5
4F7
330
1F
100
AcDbEntity
  8
BEMAßUNG
 62
     7
100
AcDb2dPolyline
 66
     1
 10
0.0
 20
0.0
 30
0.0
  0
VERTEX
  5
4F8
330
4F7
100
AcDbEntity
  8
BEMAßUNG
 62
     7
100
AcDbVertex
100
AcDb2dVertex
 10
-3.615972221318229
 20
165.6699910067596
 30
0.0
  0
VERTEX
  5
4F9
330
4F7
100
AcDbEntity
  8
BEMAßUNG
 62
     7
100
AcDbVertex
100
AcDb2dVertex
 10
-7.115844724783539
 20
166.1316338017831
 30
0.0
  0
VERTEX
  5
4FA
330
4F7
100
AcDbEntity
  8
BEMAßUNG
 62
     7
100
AcDbVertex
100
AcDb2dVertex
 10
-7.115844724783539
 20
165.2097262499302
 30
0.0
  0
VERTEX
  5
4FB
330
4F7
100
AcDbEntity
  8
BEMAßUNG
 62
     7
100
AcDbVertex
100
AcDb2dVertex
 10
-3.615972221318229
 20
165.6699910067596
 30
0.0
  0
SEQEND
  5
4FC
330
4F7
100
AcDbEntity
  8
BEMAßUNG
  0
POLYLINE
  5
4FD
330
1F
100
AcDbEntity
  8
BEMAßUNG
 62
     7
100
AcDb2dPolyline
 66
     1
 10
0.0
 20
0.0
 30
0.0
  0
VERTEX
  5
4FE
330
4FD
100
AcDbEntity
  8
BEMAßUNG
 62
     7
100
AcDbVertex
100
AcDb2dVertex
 10
-7.115844724783539
 20
166.1274996872008
 30
0.0
  0
VERTEX
  5
4FF
330
4FD
100
AcDbEntity
  8
BEMAßUNG
 62
     7
100
AcDbVertex
100
AcDb2dVertex
 10
-7.088628470450065
 20
166.1274996872008
 30
0.0
  0
SEQEND
  5
500
330
4FD
100
AcDbEntity
  8
BEMAßUNG
  0
POLYLINE
  5
501
330
1F
100
AcDbEntity
  8
BEMAßUNG
 62
     7
100
AcDb2dPolyline
 66
     1
 10
0.0
 20
0.0
 30
0.0
  0
VERTEX
  5
502
330
501
100
AcDbEntity
  8
BEMAßUNG
 62
     7
100
AcDbVertex
100
AcDb2dVertex
 10
-7.115844724783539
 20
166.1274996872008
 30
0.0
  0
VERTEX
  5
503
330
501
100
AcDbEntity
  8
BEMAßUNG
 62
     7
100
AcDbVertex
100
AcDb2dVertex
 10
-7.088628470450065
 20
166.1274996872008
 30
0.0
  0
SEQEND
  5
504
330
501
100
AcDbEntity
  8
BEMAßUNG
  0
POLYLINE
  5
505
330
1F
100
AcDbEntity
  8
BEMAßUNG
 62
     7
100
AcDb2dPolyline
 66
     1
 10
0.0
 20
0.0
 30
0.0
  0
VERTEX
  5
506
330
505
100
AcDbEntity
  8
BEMAßUNG
 62
     7
100
AcDbVertex
100
AcDb2dVertex
 10
-7.115844724783539
 20
166.0765122740191
 30
0.0
  0
VERTEX
  5
507
330
505
100
AcDbEntity
  8
BEMAßUNG
 62
     7
100
AcDbVertex
100
AcDb2dVertex
 10
-6.702777776102083
 20
166.0765122740191
 30
0.0
  0
SEQEND
  5
508
330
505
100
AcDbEntity
  8
BEMAßUNG
  0
POLYLINE
  5
509
330
1F
100
AcDbEntity
  8
BEMAßUNG
 62
     7
100
AcDb2dPolyline
 66
     1
 10
0.0
 20
0.0
 30
0.0
  0
VERTEX
  5
50A
330
509
100
AcDbEntity
  8
BEMAßUNG
 62
     7
100
AcDbVertex
100
AcDb2dVertex
 10
-7.115844724783539
 20
166.0265583894829
 30
0.0
  0
VERTEX
  5
50B
330
509
100
AcDbEntity
  8
BEMAßUNG
 62
     7
100
AcDbVertex
100
AcDb2dVertex
 10
-6.316927081754102
 20
166.0265583894829
 30
0.0
  0
SEQEND
  5
50C
330
509
100
AcDbEntity
  8
BEMAßUNG
  0
POLYLINE
  5
50D
330
1F
100
AcDbEntity
  8
BEMAßUNG
 62
     7
100
AcDb2dPolyline
 66
     1
 10
0.0
 20
0.0
 30
0.0
  0
VERTEX
  5
50E
330
50D
100
AcDbEntity
  8
BEMAßUNG
 62
     7
100
AcDbVertex
100
AcDb2dVertex
 10
-7.115844724783539
 20
165.9752264667527
 30
0.0
  0
VERTEX
  5
50F
330
50D
100
AcDbEntity
  8
BEMAßUNG
 62
     7
100
AcDbVertex
100
AcDb2dVertex
 10
-5.930731877857595
 20
165.9752264667527
 30
0.0
  0
SEQEND
  5
510
330
50D
100
AcDbEntity
  8
BEMAßUNG
  0
POLYLINE
  5
511
330
1F
100
AcDbEntity
  8
BEMAßUNG
 62
     7
100
AcDb2dPolyline
 66
     1
 10
0.0
 20
0.0
 30
0.0
  0
VERTEX
  5
512
330
511
100
AcDbEntity
  8
BEMAßUNG
 62
     7
100
AcDbVertex
100
AcDb2dVertex
 10
-7.115844724783539
 20
165.924239053571
 30
0.0
  0
VERTEX
  5
513
330
511
100
AcDbEntity
  8
BEMAßUNG
 62
     7
100
AcDbVertex
100
AcDb2dVertex
 10
-5.545225693058138
 20
165.924239053571
 30
0.0
  0
SEQEND
  5
514
330
511
100
AcDbEntity
  8
BEMAßUNG
  0
POLYLINE
  5
515
330
1F
100
AcDbEntity
  8
BEMAßUNG
 62
     7
100
AcDb2dPolyline
 66
     1
 10
0.0
 20
0.0
 30
0.0
  0
VERTEX
  5
516
330
515
100
AcDbEntity
  8
BEMAßUNG
 62
     7
100
AcDbVertex
100
AcDb2dVertex
 10
-7.115844724783539
 20
165.8735961499379
 30
0.0
  0
VERTEX
  5
517
330
515
100
AcDbEntity
  8
BEMAßUNG
 62
     7
100
AcDbVertex
100
AcDb2dVertex
 10
-5.159374998710157
 20
165.8735961499379
 30
0.0
  0
SEQEND
  5
518
330
515
100
AcDbEntity
  8
BEMAßUNG
  0
POLYLINE
  5
519
330
1F
100
AcDbEntity
  8
BEMAßUNG
 62
     7
100
AcDb2dPolyline
 66
     1
 10
0.0
 20
0.0
 30
0.0
  0
VERTEX
  5
51A
330
519
100
AcDbEntity
  8
BEMAßUNG
 62
     7
100
AcDbVertex
100
AcDb2dVertex
 10
-7.115844724783539
 20
165.8229532463047
 30
0.0
  0
VERTEX
  5
51B
330
519
100
AcDbEntity
  8
BEMAßUNG
 62
     7
100
AcDbVertex
100
AcDb2dVertex
 10
-4.773524304362175
 20
165.8229532463047
 30
0.0
  0
SEQEND
  5
51C
330
519
100
AcDbEntity
  8
BEMAßUNG
  0
POLYLINE
  5
51D
330
1F
100
AcDbEntity
  8
BEMAßUNG
 62
     7
100
AcDb2dPolyline
 66
     1
 10
0.0
 20
0.0
 30
0.0
  0
VERTEX
  5
51E
330
51D
100
AcDbEntity
  8
BEMAßUNG
 62
     7
100
AcDbVertex
100
AcDb2dVertex
 10
-7.115844724783539
 20
165.7723103426715
 30
0.0
  0
VERTEX
  5
51F
330
51D
100
AcDbEntity
  8
BEMAßUNG
 62
     7
100
AcDbVertex
100
AcDb2dVertex
 10
-4.387329100465668
 20
165.7723103426715
 30
0.0
  0
SEQEND
  5
520
330
51D
100
AcDbEntity
  8
BEMAßUNG
  0
POLYLINE
  5
521
330
1F
100
AcDbEntity
  8
BEMAßUNG
 62
     7
100
AcDb2dPolyline
 66
     1
 10
0.0
 20
0.0
 30
0.0
  0
VERTEX
  5
522
330
521
100
AcDbEntity
  8
BEMAßUNG
 62
     7
100
AcDbVertex
100
AcDb2dVertex
 10
-7.115844724783539
 20
165.7209784199413
 30
0.0
  0
VERTEX
  5
523
330
521
100
AcDbEntity
  8
BEMAßUNG
 62
     7
100
AcDbVertex
100
AcDb2dVertex
 10
-4.001822915666211
 20
165.7209784199413
 30
0.0
  0
SEQEND
  5
524
330
521
100
AcDbEntity
  8
BEMAßUNG
  0
POLYLINE
  5
525
330
1F
100
AcDbEntity
  8
BEMAßUNG
 62
     7
100
AcDb2dPolyline
 66
     1
 10
0.0
 20
0.0
 30
0.0
  0
VERTEX
  5
526
330
525
100
AcDbEntity
  8
BEMAßUNG
 62
     7
100
AcDbVertex
100
AcDb2dVertex
 10
-7.115844724783539
 20
165.6699910067596
 30
0.0
  0
VERTEX
  5
527
330
525
100
AcDbEntity
  8
BEMAßUNG
 62
     7
100
AcDbVertex
100
AcDb2dVertex
 10
-3.615972221318229
 20
165.6699910067596
 30
0.0
  0
SEQEND
  5
528
330
525
100
AcDbEntity
  8
BEMAßUNG
  0
POLYLINE
  5
529
330
1F
100
AcDbEntity
  8
BEMAßUNG
 62
     7
100
AcDb2dPolyline
 66
     1
 10
0.0
 20
0.0
 30
0.0
  0
VERTEX
  5
52A
330
529
100
AcDbEntity
  8
BEMAßUNG
 62
     7
100
AcDbVertex
100
AcDb2dVertex
 10
-7.115844724783539
 20
165.2128268358669
 30
0.0
  0
VERTEX
  5
52B
330
529
100
AcDbEntity
  8
BEMAßUNG
 62
     7
100
AcDbVertex
100
AcDb2dVertex
 10
-7.088628470450065
 20
165.2128268358669
 30
0.0
  0
SEQEND
  5
52C
330
529
100
AcDbEntity
  8
BEMAßUNG
  0
POLYLINE
  5
52D
330
1F
100
AcDbEntity
  8
BEMAßUNG
 62
     7
100
AcDb2dPolyline
 66
     1
 10
0.0
 20
0.0
 30
0.0
  0
VERTEX
  5
52E
330
52D
100
AcDbEntity
  8
BEMAßUNG
 62
     7
100
AcDbVertex
100
AcDb2dVertex
 10
-7.115844724783539
 20
165.2128268358669
 30
0.0
  0
VERTEX
  5
52F
330
52D
100
AcDbEntity
  8
BEMAßUNG
 62
     7
100
AcDbVertex
100
AcDb2dVertex
 10
-7.088628470450065
 20
165.2128268358669
 30
0.0
  0
SEQEND
  5
530
330
52D
100
AcDbEntity
  8
BEMAßUNG
  0
POLYLINE
  5
531
330
1F
100
AcDbEntity
  8
BEMAßUNG
 62
     7
100
AcDb2dPolyline
 66
     1
 10
0.0
 20
0.0
 30
0.0
  0
VERTEX
  5
532
330
531
100
AcDbEntity
  8
BEMAßUNG
 62
     7
100
AcDbVertex
100
AcDb2dVertex
 10
-7.115844724783539
 20
165.2641587585972
 30
0.0
  0
VERTEX
  5
533
330
531
100
AcDbEntity
  8
BEMAßUNG
 62
     7
100
AcDbVertex
100
AcDb2dVertex
 10
-6.702777776102083
 20
165.2641587585972
 30
0.0
  0
SEQEND
  5
534
330
531
100
AcDbEntity
  8
BEMAßUNG
  0
POLYLINE
  5
535
330
1F
100
AcDbEntity
  8
BEMAßUNG
 62
     7
100
AcDb2dPolyline
 66
     1
 10
0.0
 20
0.0
 30
0.0
  0
VERTEX
  5
536
330
535
100
AcDbEntity
  8
BEMAßUNG
 62
     7
100
AcDbVertex
100
AcDb2dVertex
 10
-7.115844724783539
 20
165.3148016622303
 30
0.0
  0
VERTEX
  5
537
330
535
100
AcDbEntity
  8
BEMAßUNG
 62
     7
100
AcDbVertex
100
AcDb2dVertex
 10
-6.316927081754102
 20
165.3148016622303
 30
0.0
  0
SEQEND
  5
538
330
535
100
AcDbEntity
  8
BEMAßUNG
  0
POLYLINE
  5
539
330
1F
100
AcDbEntity
  8
BEMAßUNG
 62
     7
100
AcDb2dPolyline
 66
     1
 10
0.0
 20
0.0
 30
0.0
  0
VERTEX
  5
53A
330
539
100
AcDbEntity
  8
BEMAßUNG
 62
     7
100
AcDbVertex
100
AcDb2dVertex
 10
-7.115844724783539
 20
165.365789075412
 30
0.0
  0
VERTEX
  5
53B
330
539
100
AcDbEntity
  8
BEMAßUNG
 62
     7
100
AcDbVertex
100
AcDb2dVertex
 10
-5.930731877857595
 20
165.365789075412
 30
0.0
  0
SEQEND
  5
53C
330
539
100
AcDbEntity
  8
BEMAßUNG
  0
POLYLINE
  5
53D
330
1F
100
AcDbEntity
  8
BEMAßUNG
 62
     7
100
AcDb2dPolyline
 66
     1
 10
0.0
 20
0.0
 30
0.0
  0
VERTEX
  5
53E
330
53D
100
AcDbEntity
  8
BEMAßUNG
 62
     7
100
AcDbVertex
100
AcDb2dVertex
 10
-7.115844724783539
 20
165.4164319790452
 30
0.0
  0
VERTEX
  5
53F
330
53D
100
AcDbEntity
  8
BEMAßUNG
 62
     7
100
AcDbVertex
100
AcDb2dVertex
 10
-5.545225693058138
 20
165.4164319790452
 30
0.0
  0
SEQEND
  5
540
330
53D
100
AcDbEntity
  8
BEMAßUNG
  0
POLYLINE
  5
541
330
1F
100
AcDbEntity
  8
BEMAßUNG
 62
     7
100
AcDb2dPolyline
 66
     1
 10
0.0
 20
0.0
 30
0.0
  0
VERTEX
  5
542
330
541
100
AcDbEntity
  8
BEMAßUNG
 62
     7
100
AcDbVertex
100
AcDb2dVertex
 10
-7.115844724783539
 20
165.4670748826784
 30
0.0
  0
VERTEX
  5
543
330
541
100
AcDbEntity
  8
BEMAßUNG
 62
     7
100
AcDbVertex
100
AcDb2dVertex
 10
-5.159374998710157
 20
165.4670748826784
 30
0.0
  0
SEQEND
  5
544
330
541
100
AcDbEntity
  8
BEMAßUNG
  0
POLYLINE
  5
545
330
1F
100
AcDbEntity
  8
BEMAßUNG
 62
     7
100
AcDb2dPolyline
 66
     1
 10
0.0
 20
0.0
 30
0.0
  0
VERTEX
  5
546
330
545
100
AcDbEntity
  8
BEMAßUNG
 62
     7
100
AcDbVertex
100
AcDb2dVertex
 10
-7.115844724783539
 20
165.5177177863116
 30
0.0
  0
VERTEX
  5
547
330
545
100
AcDbEntity
  8
BEMAßUNG
 62
     7
100
AcDbVertex
100
AcDb2dVertex
 10
-4.773524304362175
 20
165.5177177863116
 30
0.0
  0
SEQEND
  5
548
330
545
100
AcDbEntity
  8
BEMAßUNG
  0
POLYLINE
  5
549
330
1F
100
AcDbEntity
  8
BEMAßUNG
 62
     7
100
AcDb2dPolyline
 66
     1
 10
0.0
 20
0.0
 30
0.0
  0
VERTEX
  5
54A
330
549
100
AcDbEntity
  8
BEMAßUNG
 62
     7
100
AcDbVertex
100
AcDb2dVertex
 10
-7.115844724783539
 20
165.5687051994933
 30
0.0
  0
VERTEX
  5
54B
330
549
100
AcDbEntity
  8
BEMAßUNG
 62
     7
100
AcDbVertex
100
AcDb2dVertex
 10
-4.387329100465668
 20
165.5687051994933
 30
0.0
  0
SEQEND
  5
54C
330
549
100
AcDbEntity
  8
BEMAßUNG
  0
POLYLINE
  5
54D
330
1F
100
AcDbEntity
  8
BEMAßUNG
 62
     7
100
AcDb2dPolyline
 66
     1
 10
0.0
 20
0.0
 30
0.0
  0
VERTEX
  5
54E
330
54D
100
AcDbEntity
  8
BEMAßUNG
 62
     7
100
AcDbVertex
100
AcDb2dVertex
 10
-7.115844724783539
 20
165.6193481031264
 30
0.0
  0
VERTEX
  5
54F
330
54D
100
AcDbEntity
  8
BEMAßUNG
 62
     7
100
AcDbVertex
100
AcDb2dVertex
 10
-4.001822915666211
 20
165.6193481031264
 30
0.0
  0
SEQEND
  5
550
330
54D
100
AcDbEntity
  8
BEMAßUNG
  0
POLYLINE
  5
551
330
1F
100
AcDbEntity
  8
BEMAßUNG
 62
     7
100
AcDb2dPolyline
 66
     1
 10
0.0
 20
0.0
 30
0.0
  0
VERTEX
  5
552
330
551
100
AcDbEntity
  8
BEMAßUNG
 62
     7
100
AcDbVertex
100
AcDb2dVertex
 10
-7.115844724783539
 20
165.6699910067596
 30
0.0
  0
VERTEX
  5
553
330
551
100
AcDbEntity
  8
BEMAßUNG
 62
     7
100
AcDbVertex
100
AcDb2dVertex
 10
-3.615972221318229
 20
165.6699910067596
 30
0.0
  0
SEQEND
  5
554
330
551
100
AcDbEntity
  8
BEMAßUNG
  0
POLYLINE
  5
555
330
1F
100
AcDbEntity
  8
BEMAßUNG
 62
     7
100
AcDb2dPolyline
 66
     1
 10
0.0
 20
0.0
 30
0.0
  0
VERTEX
  5
556
330
555
100
AcDbEntity
  8
BEMAßUNG
 62
     7
100
AcDbVertex
100
AcDb2dVertex
 10
38.59747177854508
 20
197.9412339457404
 30
0.0
  0
VERTEX
  5
557
330
555
100
AcDbEntity
  8
BEMAßUNG
 62
     7
100
AcDbVertex
100
AcDb2dVertex
 10
38.59747177854508
 20
163.6425523136901
 30
0.0
  0
SEQEND
  5
558
330
555
100
AcDbEntity
  8
BEMAßUNG
  0
POLYLINE
  5
559
330
1F
100
AcDbEntity
  8
BEMAßUNG
 62
     7
100
AcDb2dPolyline
 66
     1
 10
0.0
 20
0.0
 30
0.0
  0
VERTEX
  5
55A
330
559
100
AcDbEntity
  8
BEMAßUNG
 62
     7
100
AcDbVertex
100
AcDb2dVertex
 10
56.59740666987843
 20
197.9412339457404
 30
0.0
  0
VERTEX
  5
55B
330
559
100
AcDbEntity
  8
BEMAßUNG
 62
     7
100
AcDbVertex
100
AcDb2dVertex
 10
56.59740666987843
 20
163.6425523136901
 30
0.0
  0
SEQEND
  5
55C
330
559
100
AcDbEntity
  8
BEMAßUNG
  0
POLYLINE
  5
55D
330
1F
100
AcDbEntity
  8
BEMAßUNG
 62
     7
100
AcDb2dPolyline
 66
     1
 10
0.0
 20
0.0
 30
0.0
  0
VERTEX
  5
55E
330
55D
100
AcDbEntity
  8
BEMAßUNG
 62
     7
100
AcDbVertex
100
AcDb2dVertex
 10
38.59747177854508
 20
165.6417412237805
 30
0.0
  0
VERTEX
  5
55F
330
55D
100
AcDbEntity
  8
BEMAßUNG
 62
     7
100
AcDbVertex
100
AcDb2dVertex
 10
56.59740666987843
 20
165.6417412237805
 30
0.0
  0
SEQEND
  5
560
330
55D
100
AcDbEntity
  8
BEMAßUNG
  0
POLYLINE
  5
561
330
1F
100
AcDbEntity
  8
BEMAßUNG
 62
     7
100
AcDb2dPolyline
 66
     1
 10
0.0
 20
0.0
 30
0.0
  0
VERTEX
  5
562
330
561
100
AcDbEntity
  8
BEMAßUNG
 62
     7
100
AcDbVertex
100
AcDb2dVertex
 10
38.59747177854508
 20
165.6417412237805
 30
0.0
  0
VERTEX
  5
563
330
561
100
AcDbEntity
  8
BEMAßUNG
 62
     7
100
AcDbVertex
100
AcDb2dVertex
 10
42.09734428201039
 20
165.1821654860482
 30
0.0
  0
VERTEX
  5
564
330
561
100
AcDbEntity
  8
BEMAßUNG
 62
     7
100
AcDbVertex
100
AcDb2dVertex
 10
42.09734428201039
 20
166.103384018804
 30
0.0
  0
VERTEX
  5
565
330
561
100
AcDbEntity
  8
BEMAßUNG
 62
     7
100
AcDbVertex
100
AcDb2dVertex
 10
38.59747177854508
 20
165.6417412237805
 30
0.0
  0
SEQEND
  5
566
330
561
100
AcDbEntity
  8
BEMAßUNG
  0
POLYLINE
  5
567
330
1F
100
AcDbEntity
  8
BEMAßUNG
 62
     7
100
AcDb2dPolyline
 66
     1
 10
0.0
 20
0.0
 30
0.0
  0
VERTEX
  5
568
330
567
100
AcDbEntity
  8
BEMAßUNG
 62
     7
100
AcDbVertex
100
AcDb2dVertex
 10
42.09734428201039
 20
165.1845770528879
 30
0.0
  0
VERTEX
  5
569
330
567
100
AcDbEntity
  8
BEMAßUNG
 62
     7
100
AcDbVertex
100
AcDb2dVertex
 10
42.07047253722544
 20
165.1845770528879
 30
0.0
  0
SEQEND
  5
56A
330
567
100
AcDbEntity
  8
BEMAßUNG
  0
POLYLINE
  5
56B
330
1F
100
AcDbEntity
  8
BEMAßUNG
 62
     7
100
AcDb2dPolyline
 66
     1
 10
0.0
 20
0.0
 30
0.0
  0
VERTEX
  5
56C
330
56B
100
AcDbEntity
  8
BEMAßUNG
 62
     7
100
AcDbVertex
100
AcDb2dVertex
 10
42.09734428201039
 20
165.1845770528879
 30
0.0
  0
VERTEX
  5
56D
330
56B
100
AcDbEntity
  8
BEMAßUNG
 62
     7
100
AcDbVertex
100
AcDb2dVertex
 10
42.07047253722544
 20
165.1845770528879
 30
0.0
  0
SEQEND
  5
56E
330
56B
100
AcDbEntity
  8
BEMAßUNG
  0
POLYLINE
  5
56F
330
1F
100
AcDbEntity
  8
BEMAßUNG
 62
     7
100
AcDb2dPolyline
 66
     1
 10
0.0
 20
0.0
 30
0.0
  0
VERTEX
  5
570
330
56F
100
AcDbEntity
  8
BEMAßUNG
 62
     7
100
AcDbVertex
100
AcDb2dVertex
 10
42.09734428201039
 20
165.2359089756181
 30
0.0
  0
VERTEX
  5
571
330
56F
100
AcDbEntity
  8
BEMAßUNG
 62
     7
100
AcDbVertex
100
AcDb2dVertex
 10
41.68427733332894
 20
165.2359089756181
 30
0.0
  0
SEQEND
  5
572
330
56F
100
AcDbEntity
  8
BEMAßUNG
  0
POLYLINE
  5
573
330
1F
100
AcDbEntity
  8
BEMAßUNG
 62
     7
100
AcDb2dPolyline
 66
     1
 10
0.0
 20
0.0
 30
0.0
  0
VERTEX
  5
574
330
573
100
AcDbEntity
  8
BEMAßUNG
 62
     7
100
AcDbVertex
100
AcDb2dVertex
 10
42.09734428201039
 20
165.2868963887998
 30
0.0
  0
VERTEX
  5
575
330
573
100
AcDbEntity
  8
BEMAßUNG
 62
     7
100
AcDbVertex
100
AcDb2dVertex
 10
41.29877114852948
 20
165.2868963887998
 30
0.0
  0
SEQEND
  5
576
330
573
100
AcDbEntity
  8
BEMAßUNG
  0
POLYLINE
  5
577
330
1F
100
AcDbEntity
  8
BEMAßUNG
 62
     7
100
AcDb2dPolyline
 66
     1
 10
0.0
 20
0.0
 30
0.0
  0
VERTEX
  5
578
330
577
100
AcDbEntity
  8
BEMAßUNG
 62
     7
100
AcDbVertex
100
AcDb2dVertex
 10
42.09734428201039
 20
165.337539292433
 30
0.0
  0
VERTEX
  5
579
330
577
100
AcDbEntity
  8
BEMAßUNG
 62
     7
100
AcDbVertex
100
AcDb2dVertex
 10
40.91223143508444
 20
165.337539292433
 30
0.0
  0
SEQEND
  5
57A
330
577
100
AcDbEntity
  8
BEMAßUNG
  0
POLYLINE
  5
57B
330
1F
100
AcDbEntity
  8
BEMAßUNG
 62
     7
100
AcDb2dPolyline
 66
     1
 10
0.0
 20
0.0
 30
0.0
  0
VERTEX
  5
57C
330
57B
100
AcDbEntity
  8
BEMAßUNG
 62
     7
100
AcDbVertex
100
AcDb2dVertex
 10
42.09734428201039
 20
165.3888712151632
 30
0.0
  0
VERTEX
  5
57D
330
57B
100
AcDbEntity
  8
BEMAßUNG
 62
     7
100
AcDbVertex
100
AcDb2dVertex
 10
40.52706975983351
 20
165.3888712151632
 30
0.0
  0
SEQEND
  5
57E
330
57B
100
AcDbEntity
  8
BEMAßUNG
  0
POLYLINE
  5
57F
330
1F
100
AcDbEntity
  8
BEMAßUNG
 62
     7
100
AcDb2dPolyline
 66
     1
 10
0.0
 20
0.0
 30
0.0
  0
VERTEX
  5
580
330
57F
100
AcDbEntity
  8
BEMAßUNG
 62
     7
100
AcDbVertex
100
AcDb2dVertex
 10
42.09734428201039
 20
165.4395141187964
 30
0.0
  0
VERTEX
  5
581
330
57F
100
AcDbEntity
  8
BEMAßUNG
 62
     7
100
AcDbVertex
100
AcDb2dVertex
 10
40.140874555937
 20
165.4395141187964
 30
0.0
  0
SEQEND
  5
582
330
57F
100
AcDbEntity
  8
BEMAßUNG
  0
POLYLINE
  5
583
330
1F
100
AcDbEntity
  8
BEMAßUNG
 62
     7
100
AcDb2dPolyline
 66
     1
 10
0.0
 20
0.0
 30
0.0
  0
VERTEX
  5
584
330
583
100
AcDbEntity
  8
BEMAßUNG
 62
     7
100
AcDbVertex
100
AcDb2dVertex
 10
42.09734428201039
 20
165.489812512881
 30
0.0
  0
VERTEX
  5
585
330
583
100
AcDbEntity
  8
BEMAßUNG
 62
     7
100
AcDbVertex
100
AcDb2dVertex
 10
39.75536837113755
 20
165.489812512881
 30
0.0
  0
SEQEND
  5
586
330
583
100
AcDbEntity
  8
BEMAßUNG
  0
POLYLINE
  5
587
330
1F
100
AcDbEntity
  8
BEMAßUNG
 62
     7
100
AcDb2dPolyline
 66
     1
 10
0.0
 20
0.0
 30
0.0
  0
VERTEX
  5
588
330
587
100
AcDbEntity
  8
BEMAßUNG
 62
     7
100
AcDbVertex
100
AcDb2dVertex
 10
42.09734428201039
 20
165.5404554165142
 30
0.0
  0
VERTEX
  5
589
330
587
100
AcDbEntity
  8
BEMAßUNG
 62
     7
100
AcDbVertex
100
AcDb2dVertex
 10
39.36882865769252
 20
165.5404554165142
 30
0.0
  0
SEQEND
  5
58A
330
587
100
AcDbEntity
  8
BEMAßUNG
  0
POLYLINE
  5
58B
330
1F
100
AcDbEntity
  8
BEMAßUNG
 62
     7
100
AcDb2dPolyline
 66
     1
 10
0.0
 20
0.0
 30
0.0
  0
VERTEX
  5
58C
330
58B
100
AcDbEntity
  8
BEMAßUNG
 62
     7
100
AcDbVertex
100
AcDb2dVertex
 10
42.09734428201039
 20
165.5910983201474
 30
0.0
  0
VERTEX
  5
58D
330
58B
100
AcDbEntity
  8
BEMAßUNG
 62
     7
100
AcDbVertex
100
AcDb2dVertex
 10
38.98366698244158
 20
165.5910983201474
 30
0.0
  0
SEQEND
  5
58E
330
58B
100
AcDbEntity
  8
BEMAßUNG
  0
POLYLINE
  5
58F
330
1F
100
AcDbEntity
  8
BEMAßUNG
 62
     7
100
AcDb2dPolyline
 66
     1
 10
0.0
 20
0.0
 30
0.0
  0
VERTEX
  5
590
330
58F
100
AcDbEntity
  8
BEMAßUNG
 62
     7
100
AcDbVertex
100
AcDb2dVertex
 10
42.09734428201039
 20
165.6417412237805
 30
0.0
  0
VERTEX
  5
591
330
58F
100
AcDbEntity
  8
BEMAßUNG
 62
     7
100
AcDbVertex
100
AcDb2dVertex
 10
38.59747177854508
 20
165.6417412237805
 30
0.0
  0
SEQEND
  5
592
330
58F
100
AcDbEntity
  8
BEMAßUNG
  0
POLYLINE
  5
593
330
1F
100
AcDbEntity
  8
BEMAßUNG
 62
     7
100
AcDb2dPolyline
 66
     1
 10
0.0
 20
0.0
 30
0.0
  0
VERTEX
  5
594
330
593
100
AcDbEntity
  8
BEMAßUNG
 62
     7
100
AcDbVertex
100
AcDb2dVertex
 10
42.09734428201039
 20
166.0992499042217
 30
0.0
  0
VERTEX
  5
595
330
593
100
AcDbEntity
  8
BEMAßUNG
 62
     7
100
AcDbVertex
100
AcDb2dVertex
 10
42.07047253722544
 20
166.0992499042217
 30
0.0
  0
SEQEND
  5
596
330
593
100
AcDbEntity
  8
BEMAßUNG
  0
POLYLINE
  5
597
330
1F
100
AcDbEntity
  8
BEMAßUNG
 62
     7
100
AcDb2dPolyline
 66
     1
 10
0.0
 20
0.0
 30
0.0
  0
VERTEX
  5
598
330
597
100
AcDbEntity
  8
BEMAßUNG
 62
     7
100
AcDbVertex
100
AcDb2dVertex
 10
42.09734428201039
 20
166.0992499042217
 30
0.0
  0
VERTEX
  5
599
330
597
100
AcDbEntity
  8
BEMAßUNG
 62
     7
100
AcDbVertex
100
AcDb2dVertex
 10
42.07047253722544
 20
166.0992499042217
 30
0.0
  0
SEQEND
  5
59A
330
597
100
AcDbEntity
  8
BEMAßUNG
  0
POLYLINE
  5
59B
330
1F
100
AcDbEntity
  8
BEMAßUNG
 62
     7
100
AcDb2dPolyline
 66
     1
 10
0.0
 20
0.0
 30
0.0
  0
VERTEX
  5
59C
330
59B
100
AcDbEntity
  8
BEMAßUNG
 62
     7
100
AcDbVertex
100
AcDb2dVertex
 10
42.09734428201039
 20
166.04826249104
 30
0.0
  0
VERTEX
  5
59D
330
59B
100
AcDbEntity
  8
BEMAßUNG
 62
     7
100
AcDbVertex
100
AcDb2dVertex
 10
41.68427733332894
 20
166.04826249104
 30
0.0
  0
SEQEND
  5
59E
330
59B
100
AcDbEntity
  8
BEMAßUNG
  0
POLYLINE
  5
59F
330
1F
100
AcDbEntity
  8
BEMAßUNG
 62
     7
100
AcDb2dPolyline
 66
     1
 10
0.0
 20
0.0
 30
0.0
  0
VERTEX
  5
5A0
330
59F
100
AcDbEntity
  8
BEMAßUNG
 62
     7
100
AcDbVertex
100
AcDb2dVertex
 10
42.09734428201039
 20
165.9983086065039
 30
0.0
  0
VERTEX
  5
5A1
330
59F
100
AcDbEntity
  8
BEMAßUNG
 62
     7
100
AcDbVertex
100
AcDb2dVertex
 10
41.29877114852948
 20
165.9983086065039
 30
0.0
  0
SEQEND
  5
5A2
330
59F
100
AcDbEntity
  8
BEMAßUNG
  0
POLYLINE
  5
5A3
330
1F
100
AcDbEntity
  8
BEMAßUNG
 62
     7
100
AcDb2dPolyline
 66
     1
 10
0.0
 20
0.0
 30
0.0
  0
VERTEX
  5
5A4
330
5A3
100
AcDbEntity
  8
BEMAßUNG
 62
     7
100
AcDbVertex
100
AcDb2dVertex
 10
42.09734428201039
 20
165.9476657028707
 30
0.0
  0
VERTEX
  5
5A5
330
5A3
100
AcDbEntity
  8
BEMAßUNG
 62
     7
100
AcDbVertex
100
AcDb2dVertex
 10
40.91223143508444
 20
165.9476657028707
 30
0.0
  0
SEQEND
  5
5A6
330
5A3
100
AcDbEntity
  8
BEMAßUNG
  0
POLYLINE
  5
5A7
330
1F
100
AcDbEntity
  8
BEMAßUNG
 62
     7
100
AcDb2dPolyline
 66
     1
 10
0.0
 20
0.0
 30
0.0
  0
VERTEX
  5
5A8
330
5A7
100
AcDbEntity
  8
BEMAßUNG
 62
     7
100
AcDbVertex
100
AcDb2dVertex
 10
42.09734428201039
 20
165.896678289689
 30
0.0
  0
VERTEX
  5
5A9
330
5A7
100
AcDbEntity
  8
BEMAßUNG
 62
     7
100
AcDbVertex
100
AcDb2dVertex
 10
40.52706975983351
 20
165.896678289689
 30
0.0
  0
SEQEND
  5
5AA
330
5A7
100
AcDbEntity
  8
BEMAßUNG
  0
POLYLINE
  5
5AB
330
1F
100
AcDbEntity
  8
BEMAßUNG
 62
     7
100
AcDb2dPolyline
 66
     1
 10
0.0
 20
0.0
 30
0.0
  0
VERTEX
  5
5AC
330
5AB
100
AcDbEntity
  8
BEMAßUNG
 62
     7
100
AcDbVertex
100
AcDb2dVertex
 10
42.09734428201039
 20
165.8453463669588
 30
0.0
  0
VERTEX
  5
5AD
330
5AB
100
AcDbEntity
  8
BEMAßUNG
 62
     7
100
AcDbVertex
100
AcDb2dVertex
 10
40.140874555937
 20
165.8453463669588
 30
0.0
  0
SEQEND
  5
5AE
330
5AB
100
AcDbEntity
  8
BEMAßUNG
  0
POLYLINE
  5
5AF
330
1F
100
AcDbEntity
  8
BEMAßUNG
 62
     7
100
AcDb2dPolyline
 66
     1
 10
0.0
 20
0.0
 30
0.0
  0
VERTEX
  5
5B0
330
5AF
100
AcDbEntity
  8
BEMAßUNG
 62
     7
100
AcDbVertex
100
AcDb2dVertex
 10
42.09734428201039
 20
165.7947034633256
 30
0.0
  0
VERTEX
  5
5B1
330
5AF
100
AcDbEntity
  8
BEMAßUNG
 62
     7
100
AcDbVertex
100
AcDb2dVertex
 10
39.75536837113755
 20
165.7947034633256
 30
0.0
  0
SEQEND
  5
5B2
330
5AF
100
AcDbEntity
  8
BEMAßUNG
  0
POLYLINE
  5
5B3
330
1F
100
AcDbEntity
  8
BEMAßUNG
 62
     7
100
AcDb2dPolyline
 66
     1
 10
0.0
 20
0.0
 30
0.0
  0
VERTEX
  5
5B4
330
5B3
100
AcDbEntity
  8
BEMAßUNG
 62
     7
100
AcDbVertex
100
AcDb2dVertex
 10
42.09734428201039
 20
165.7440605596925
 30
0.0
  0
VERTEX
  5
5B5
330
5B3
100
AcDbEntity
  8
BEMAßUNG
 62
     7
100
AcDbVertex
100
AcDb2dVertex
 10
39.36882865769252
 20
165.7440605596925
 30
0.0
  0
SEQEND
  5
5B6
330
5B3
100
AcDbEntity
  8
BEMAßUNG
  0
POLYLINE
  5
5B7
330
1F
100
AcDbEntity
  8
BEMAßUNG
 62
     7
100
AcDb2dPolyline
 66
     1
 10
0.0
 20
0.0
 30
0.0
  0
VERTEX
  5
5B8
330
5B7
100
AcDbEntity
  8
BEMAßUNG
 62
     7
100
AcDbVertex
100
AcDb2dVertex
 10
42.09734428201039
 20
165.6927286369622
 30
0.0
  0
VERTEX
  5
5B9
330
5B7
100
AcDbEntity
  8
BEMAßUNG
 62
     7
100
AcDbVertex
100
AcDb2dVertex
 10
38.98366698244158
 20
165.6927286369622
 30
0.0
  0
SEQEND
  5
5BA
330
5B7
100
AcDbEntity
  8
BEMAßUNG
  0
POLYLINE
  5
5BB
330
1F
100
AcDbEntity
  8
BEMAßUNG
 62
     7
100
AcDb2dPolyline
 66
     1
 10
0.0
 20
0.0
 30
0.0
  0
VERTEX
  5
5BC
330
5BB
100
AcDbEntity
  8
BEMAßUNG
 62
     7
100
AcDbVertex
100
AcDb2dVertex
 10
42.09734428201039
 20
165.6417412237805
 30
0.0
  0
VERTEX
  5
5BD
330
5BB
100
AcDbEntity
  8
BEMAßUNG
 62
     7
100
AcDbVertex
100
AcDb2dVertex
 10
38.59747177854508
 20
165.6417412237805
 30
0.0
  0
SEQEND
  5
5BE
330
5BB
100
AcDbEntity
  8
BEMAßUNG
  0
POLYLINE
  5
5BF
330
1F
100
AcDbEntity
  8
BEMAßUNG
 62
     7
100
AcDb2dPolyline
 66
     1
 10
0.0
 20
0.0
 30
0.0
  0
VERTEX
  5
5C0
330
5BF
100
AcDbEntity
  8
BEMAßUNG
 62
     7
100
AcDbVertex
100
AcDb2dVertex
 10
56.59740666987843
 20
165.6417412237805
 30
0.0
  0
VERTEX
  5
5C1
330
5BF
100
AcDbEntity
  8
BEMAßUNG
 62
     7
100
AcDbVertex
100
AcDb2dVertex
 10
53.09787867596165
 20
166.103384018804
 30
0.0
  0
VERTEX
  5
5C2
330
5BF
100
AcDbEntity
  8
BEMAßUNG
 62
     7
100
AcDbVertex
100
AcDb2dVertex
 10
53.09787867596165
 20
165.1821654860482
 30
0.0
  0
VERTEX
  5
5C3
330
5BF
100
AcDbEntity
  8
BEMAßUNG
 62
     7
100
AcDbVertex
100
AcDb2dVertex
 10
56.59740666987843
 20
165.6417412237805
 30
0.0
  0
SEQEND
  5
5C4
330
5BF
100
AcDbEntity
  8
BEMAßUNG
  0
POLYLINE
  5
5C5
330
1F
100
AcDbEntity
  8
BEMAßUNG
 62
     7
100
AcDb2dPolyline
 66
     1
 10
0.0
 20
0.0
 30
0.0
  0
VERTEX
  5
5C6
330
5C5
100
AcDbEntity
  8
BEMAßUNG
 62
     7
100
AcDbVertex
100
AcDb2dVertex
 10
53.09787867596165
 20
166.0992499042217
 30
0.0
  0
VERTEX
  5
5C7
330
5C5
100
AcDbEntity
  8
BEMAßUNG
 62
     7
100
AcDbVertex
100
AcDb2dVertex
 10
53.12475042074659
 20
166.0992499042217
 30
0.0
  0
SEQEND
  5
5C8
330
5C5
100
AcDbEntity
  8
BEMAßUNG
  0
POLYLINE
  5
5C9
330
1F
100
AcDbEntity
  8
BEMAßUNG
 62
     7
100
AcDb2dPolyline
 66
     1
 10
0.0
 20
0.0
 30
0.0
  0
VERTEX
  5
5CA
330
5C9
100
AcDbEntity
  8
BEMAßUNG
 62
     7
100
AcDbVertex
100
AcDb2dVertex
 10
53.09787867596165
 20
166.0992499042217
 30
0.0
  0
VERTEX
  5
5CB
330
5C9
100
AcDbEntity
  8
BEMAßUNG
 62
     7
100
AcDbVertex
100
AcDb2dVertex
 10
53.12475042074659
 20
166.0992499042217
 30
0.0
  0
SEQEND
  5
5CC
330
5C9
100
AcDbEntity
  8
BEMAßUNG
  0
POLYLINE
  5
5CD
330
1F
100
AcDbEntity
  8
BEMAßUNG
 62
     7
100
AcDb2dPolyline
 66
     1
 10
0.0
 20
0.0
 30
0.0
  0
VERTEX
  5
5CE
330
5CD
100
AcDbEntity
  8
BEMAßUNG
 62
     7
100
AcDbVertex
100
AcDb2dVertex
 10
53.09787867596165
 20
166.04826249104
 30
0.0
  0
VERTEX
  5
5CF
330
5CD
100
AcDbEntity
  8
BEMAßUNG
 62
     7
100
AcDbVertex
100
AcDb2dVertex
 10
53.51060111509457
 20
166.04826249104
 30
0.0
  0
SEQEND
  5
5D0
330
5CD
100
AcDbEntity
  8
BEMAßUNG
  0
POLYLINE
  5
5D1
330
1F
100
AcDbEntity
  8
BEMAßUNG
 62
     7
100
AcDb2dPolyline
 66
     1
 10
0.0
 20
0.0
 30
0.0
  0
VERTEX
  5
5D2
330
5D1
100
AcDbEntity
  8
BEMAßUNG
 62
     7
100
AcDbVertex
100
AcDb2dVertex
 10
53.09787867596165
 20
165.9983086065039
 30
0.0
  0
VERTEX
  5
5D3
330
5D1
100
AcDbEntity
  8
BEMAßUNG
 62
     7
100
AcDbVertex
100
AcDb2dVertex
 10
53.89645180944255
 20
165.9983086065039
 30
0.0
  0
SEQEND
  5
5D4
330
5D1
100
AcDbEntity
  8
BEMAßUNG
  0
POLYLINE
  5
5D5
330
1F
100
AcDbEntity
  8
BEMAßUNG
 62
     7
100
AcDb2dPolyline
 66
     1
 10
0.0
 20
0.0
 30
0.0
  0
VERTEX
  5
5D6
330
5D5
100
AcDbEntity
  8
BEMAßUNG
 62
     7
100
AcDbVertex
100
AcDb2dVertex
 10
53.09787867596165
 20
165.9476657028707
 30
0.0
  0
VERTEX
  5
5D7
330
5D5
100
AcDbEntity
  8
BEMAßUNG
 62
     7
100
AcDbVertex
100
AcDb2dVertex
 10
54.28230250379054
 20
165.9476657028707
 30
0.0
  0
SEQEND
  5
5D8
330
5D5
100
AcDbEntity
  8
BEMAßUNG
  0
POLYLINE
  5
5D9
330
1F
100
AcDbEntity
  8
BEMAßUNG
 62
     7
100
AcDb2dPolyline
 66
     1
 10
0.0
 20
0.0
 30
0.0
  0
VERTEX
  5
5DA
330
5D9
100
AcDbEntity
  8
BEMAßUNG
 62
     7
100
AcDbVertex
100
AcDb2dVertex
 10
53.09787867596165
 20
165.896678289689
 30
0.0
  0
VERTEX
  5
5DB
330
5D9
100
AcDbEntity
  8
BEMAßUNG
 62
     7
100
AcDbVertex
100
AcDb2dVertex
 10
54.66815319813852
 20
165.896678289689
 30
0.0
  0
SEQEND
  5
5DC
330
5D9
100
AcDbEntity
  8
BEMAßUNG
  0
POLYLINE
  5
5DD
330
1F
100
AcDbEntity
  8
BEMAßUNG
 62
     7
100
AcDb2dPolyline
 66
     1
 10
0.0
 20
0.0
 30
0.0
  0
VERTEX
  5
5DE
330
5DD
100
AcDbEntity
  8
BEMAßUNG
 62
     7
100
AcDbVertex
100
AcDb2dVertex
 10
53.09787867596165
 20
165.8453463669588
 30
0.0
  0
VERTEX
  5
5DF
330
5DD
100
AcDbEntity
  8
BEMAßUNG
 62
     7
100
AcDbVertex
100
AcDb2dVertex
 10
55.0540038924865
 20
165.8453463669588
 30
0.0
  0
SEQEND
  5
5E0
330
5DD
100
AcDbEntity
  8
BEMAßUNG
  0
POLYLINE
  5
5E1
330
1F
100
AcDbEntity
  8
BEMAßUNG
 62
     7
100
AcDb2dPolyline
 66
     1
 10
0.0
 20
0.0
 30
0.0
  0
VERTEX
  5
5E2
330
5E1
100
AcDbEntity
  8
BEMAßUNG
 62
     7
100
AcDbVertex
100
AcDb2dVertex
 10
53.09787867596165
 20
165.7947034633256
 30
0.0
  0
VERTEX
  5
5E3
330
5E1
100
AcDbEntity
  8
BEMAßUNG
 62
     7
100
AcDbVertex
100
AcDb2dVertex
 10
55.43985458683449
 20
165.7947034633256
 30
0.0
  0
SEQEND
  5
5E4
330
5E1
100
AcDbEntity
  8
BEMAßUNG
  0
POLYLINE
  5
5E5
330
1F
100
AcDbEntity
  8
BEMAßUNG
 62
     7
100
AcDb2dPolyline
 66
     1
 10
0.0
 20
0.0
 30
0.0
  0
VERTEX
  5
5E6
330
5E5
100
AcDbEntity
  8
BEMAßUNG
 62
     7
100
AcDbVertex
100
AcDb2dVertex
 10
53.09787867596165
 20
165.7440605596925
 30
0.0
  0
VERTEX
  5
5E7
330
5E5
100
AcDbEntity
  8
BEMAßUNG
 62
     7
100
AcDbVertex
100
AcDb2dVertex
 10
55.82570528118247
 20
165.7440605596925
 30
0.0
  0
SEQEND
  5
5E8
330
5E5
100
AcDbEntity
  8
BEMAßUNG
  0
POLYLINE
  5
5E9
330
1F
100
AcDbEntity
  8
BEMAßUNG
 62
     7
100
AcDb2dPolyline
 66
     1
 10
0.0
 20
0.0
 30
0.0
  0
VERTEX
  5
5EA
330
5E9
100
AcDbEntity
  8
BEMAßUNG
 62
     7
100
AcDbVertex
100
AcDb2dVertex
 10
53.09787867596165
 20
165.6927286369622
 30
0.0
  0
VERTEX
  5
5EB
330
5E9
100
AcDbEntity
  8
BEMAßUNG
 62
     7
100
AcDbVertex
100
AcDb2dVertex
 10
56.21190048507897
 20
165.6927286369622
 30
0.0
  0
SEQEND
  5
5EC
330
5E9
100
AcDbEntity
  8
BEMAßUNG
  0
POLYLINE
  5
5ED
330
1F
100
AcDbEntity
  8
BEMAßUNG
 62
     7
100
AcDb2dPolyline
 66
     1
 10
0.0
 20
0.0
 30
0.0
  0
VERTEX
  5
5EE
330
5ED
100
AcDbEntity
  8
BEMAßUNG
 62
     7
100
AcDbVertex
100
AcDb2dVertex
 10
53.09787867596165
 20
165.6417412237805
 30
0.0
  0
VERTEX
  5
5EF
330
5ED
100
AcDbEntity
  8
BEMAßUNG
 62
     7
100
AcDbVertex
100
AcDb2dVertex
 10
56.59740666987843
 20
165.6417412237805
 30
0.0
  0
SEQEND
  5
5F0
330
5ED
100
AcDbEntity
  8
BEMAßUNG
  0
POLYLINE
  5
5F1
330
1F
100
AcDbEntity
  8
BEMAßUNG
 62
     7
100
AcDb2dPolyline
 66
     1
 10
0.0
 20
0.0
 30
0.0
  0
VERTEX
  5
5F2
330
5F1
100
AcDbEntity
  8
BEMAßUNG
 62
     7
100
AcDbVertex
100
AcDb2dVertex
 10
53.09787867596165
 20
165.1845770528879
 30
0.0
  0
VERTEX
  5
5F3
330
5F1
100
AcDbEntity
  8
BEMAßUNG
 62
     7
100
AcDbVertex
100
AcDb2dVertex
 10
53.12475042074659
 20
165.1845770528879
 30
0.0
  0
SEQEND
  5
5F4
330
5F1
100
AcDbEntity
  8
BEMAßUNG
  0
POLYLINE
  5
5F5
330
1F
100
AcDbEntity
  8
BEMAßUNG
 62
     7
100
AcDb2dPolyline
 66
     1
 10
0.0
 20
0.0
 30
0.0
  0
VERTEX
  5
5F6
330
5F5
100
AcDbEntity
  8
BEMAßUNG
 62
     7
100
AcDbVertex
100
AcDb2dVertex
 10
53.09787867596165
 20
165.1845770528879
 30
0.0
  0
VERTEX
  5
5F7
330
5F5
100
AcDbEntity
  8
BEMAßUNG
 62
     7
100
AcDbVertex
100
AcDb2dVertex
 10
53.12475042074659
 20
165.1845770528879
 30
0.0
  0
SEQEND
  5
5F8
330
5F5
100
AcDbEntity
  8
BEMAßUNG
  0
POLYLINE
  5
5F9
330
1F
100
AcDbEntity
  8
BEMAßUNG
 62
     7
100
AcDb2dPolyline
 66
     1
 10
0.0
 20
0.0
 30
0.0
  0
VERTEX
  5
5FA
330
5F9
100
AcDbEntity
  8
BEMAßUNG
 62
     7
100
AcDbVertex
100
AcDb2dVertex
 10
53.09787867596165
 20
165.2359089756181
 30
0.0
  0
VERTEX
  5
5FB
330
5F9
100
AcDbEntity
  8
BEMAßUNG
 62
     7
100
AcDbVertex
100
AcDb2dVertex
 10
53.51060111509457
 20
165.2359089756181
 30
0.0
  0
SEQEND
  5
5FC
330
5F9
100
AcDbEntity
  8
BEMAßUNG
  0
POLYLINE
  5
5FD
330
1F
100
AcDbEntity
  8
BEMAßUNG
 62
     7
100
AcDb2dPolyline
 66
     1
 10
0.0
 20
0.0
 30
0.0
  0
VERTEX
  5
5FE
330
5FD
100
AcDbEntity
  8
BEMAßUNG
 62
     7
100
AcDbVertex
100
AcDb2dVertex
 10
53.09787867596165
 20
165.2868963887998
 30
0.0
  0
VERTEX
  5
5FF
330
5FD
100
AcDbEntity
  8
BEMAßUNG
 62
     7
100
AcDbVertex
100
AcDb2dVertex
 10
53.89645180944255
 20
165.2868963887998
 30
0.0
  0
SEQEND
  5
600
330
5FD
100
AcDbEntity
  8
BEMAßUNG
  0
POLYLINE
  5
601
330
1F
100
AcDbEntity
  8
BEMAßUNG
 62
     7
100
AcDb2dPolyline
 66
     1
 10
0.0
 20
0.0
 30
0.0
  0
VERTEX
  5
602
330
601
100
AcDbEntity
  8
BEMAßUNG
 62
     7
100
AcDbVertex
100
AcDb2dVertex
 10
53.09787867596165
 20
165.337539292433
 30
0.0
  0
VERTEX
  5
603
330
601
100
AcDbEntity
  8
BEMAßUNG
 62
     7
100
AcDbVertex
100
AcDb2dVertex
 10
54.28230250379054
 20
165.337539292433
 30
0.0
  0
SEQEND
  5
604
330
601
100
AcDbEntity
  8
BEMAßUNG
  0
POLYLINE
  5
605
330
1F
100
AcDbEntity
  8
BEMAßUNG
 62
     7
100
AcDb2dPolyline
 66
     1
 10
0.0
 20
0.0
 30
0.0
  0
VERTEX
  5
606
330
605
100
AcDbEntity
  8
BEMAßUNG
 62
     7
100
AcDbVertex
100
AcDb2dVertex
 10
53.09787867596165
 20
165.3888712151632
 30
0.0
  0
VERTEX
  5
607
330
605
100
AcDbEntity
  8
BEMAßUNG
 62
     7
100
AcDbVertex
100
AcDb2dVertex
 10
54.66815319813852
 20
165.3888712151632
 30
0.0
  0
SEQEND
  5
608
330
605
100
AcDbEntity
  8
BEMAßUNG
  0
POLYLINE
  5
609
330
1F
100
AcDbEntity
  8
BEMAßUNG
 62
     7
100
AcDb2dPolyline
 66
     1
 10
0.0
 20
0.0
 30
0.0
  0
VERTEX
  5
60A
330
609
100
AcDbEntity
  8
BEMAßUNG
 62
     7
100
AcDbVertex
100
AcDb2dVertex
 10
53.09787867596165
 20
165.4395141187964
 30
0.0
  0
VERTEX
  5
60B
330
609
100
AcDbEntity
  8
BEMAßUNG
 62
     7
100
AcDbVertex
100
AcDb2dVertex
 10
55.0540038924865
 20
165.4395141187964
 30
0.0
  0
SEQEND
  5
60C
330
609
100
AcDbEntity
  8
BEMAßUNG
  0
POLYLINE
  5
60D
330
1F
100
AcDbEntity
  8
BEMAßUNG
 62
     7
100
AcDb2dPolyline
 66
     1
 10
0.0
 20
0.0
 30
0.0
  0
VERTEX
  5
60E
330
60D
100
AcDbEntity
  8
BEMAßUNG
 62
     7
100
AcDbVertex
100
AcDb2dVertex
 10
53.09787867596165
 20
165.489812512881
 30
0.0
  0
VERTEX
  5
60F
330
60D
100
AcDbEntity
  8
BEMAßUNG
 62
     7
100
AcDbVertex
100
AcDb2dVertex
 10
55.43985458683449
 20
165.489812512881
 30
0.0
  0
SEQEND
  5
610
330
60D
100
AcDbEntity
  8
BEMAßUNG
  0
POLYLINE
  5
611
330
1F
100
AcDbEntity
  8
BEMAßUNG
 62
     7
100
AcDb2dPolyline
 66
     1
 10
0.0
 20
0.0
 30
0.0
  0
VERTEX
  5
612
330
611
100
AcDbEntity
  8
BEMAßUNG
 62
     7
100
AcDbVertex
100
AcDb2dVertex
 10
53.09787867596165
 20
165.5404554165142
 30
0.0
  0
VERTEX
  5
613
330
611
100
AcDbEntity
  8
BEMAßUNG
 62
     7
100
AcDbVertex
100
AcDb2dVertex
 10
55.82570528118247
 20
165.5404554165142
 30
0.0
  0
SEQEND
  5
614
330
611
100
AcDbEntity
  8
BEMAßUNG
  0
POLYLINE
  5
615
330
1F
100
AcDbEntity
  8
BEMAßUNG
 62
     7
100
AcDb2dPolyline
 66
     1
 10
0.0
 20
0.0
 30
0.0
  0
VERTEX
  5
616
330
615
100
AcDbEntity
  8
BEMAßUNG
 62
     7
100
AcDbVertex
100
AcDb2dVertex
 10
53.09787867596165
 20
165.5910983201474
 30
0.0
  0
VERTEX
  5
617
330
615
100
AcDbEntity
  8
BEMAßUNG
 62
     7
100
AcDbVertex
100
AcDb2dVertex
 10
56.21190048507897
 20
165.5910983201474
 30
0.0
  0
SEQEND
  5
618
330
615
100
AcDbEntity
  8
BEMAßUNG
  0
POLYLINE
  5
619
330
1F
100
AcDbEntity
  8
BEMAßUNG
 62
     7
100
AcDb2dPolyline
 66
     1
 10
0.0
 20
0.0
 30
0.0
  0
VERTEX
  5
61A
330
619
100
AcDbEntity
  8
BEMAßUNG
 62
     7
100
AcDbVertex
100
AcDb2dVertex
 10
53.09787867596165
 20
165.6417412237805
 30
0.0
  0
VERTEX
  5
61B
330
619
100
AcDbEntity
  8
BEMAßUNG
 62
     7
100
AcDbVertex
100
AcDb2dVertex
 10
56.59740666987843
 20
165.6417412237805
 30
0.0
  0
SEQEND
  5
61C
330
619
100
AcDbEntity
  8
BEMAßUNG
  0
POLYLINE
  5
61D
330
1F
100
AcDbEntity
  8
BEMAßUNG
 62
     7
100
AcDb2dPolyline
 66
     1
 10
0.0
 20
0.0
 30
0.0
  0
VERTEX
  5
61E
330
61D
100
AcDbEntity
  8
BEMAßUNG
 62
     7
100
AcDbVertex
100
AcDb2dVertex
 10
56.09752331496868
 20
217.9410467662613
 30
0.0
  0
VERTEX
  5
61F
330
61D
100
AcDbEntity
  8
BEMAßUNG
 62
     7
100
AcDbVertex
100
AcDb2dVertex
 10
88.4545491315322
 20
217.9410467662613
 30
0.0
  0
SEQEND
  5
620
330
61D
100
AcDbEntity
  8
BEMAßUNG
  0
POLYLINE
  5
621
330
1F
100
AcDbEntity
  8
BEMAßUNG
 62
     7
100
AcDb2dPolyline
 66
     1
 10
0.0
 20
0.0
 30
0.0
  0
VERTEX
  5
622
330
621
100
AcDbEntity
  8
BEMAßUNG
 62
     7
100
AcDbVertex
100
AcDb2dVertex
 10
56.09752331496868
 20
177.9414211252195
 30
0.0
  0
VERTEX
  5
623
330
621
100
AcDbEntity
  8
BEMAßUNG
 62
     7
100
AcDbVertex
100
AcDb2dVertex
 10
88.4545491315322
 20
177.9414211252195
 30
0.0
  0
SEQEND
  5
624
330
621
100
AcDbEntity
  8
BEMAßUNG
  0
POLYLINE
  5
625
330
1F
100
AcDbEntity
  8
BEMAßUNG
 62
     7
100
AcDb2dPolyline
 66
     1
 10
0.0
 20
0.0
 30
0.0
  0
VERTEX
  5
626
330
625
100
AcDbEntity
  8
BEMAßUNG
 62
     7
100
AcDbVertex
100
AcDb2dVertex
 10
86.45432669279614
 20
217.9410467662613
 30
0.0
  0
VERTEX
  5
627
330
625
100
AcDbEntity
  8
BEMAßUNG
 62
     7
100
AcDbVertex
100
AcDb2dVertex
 10
86.45432669279614
 20
177.9414211252195
 30
0.0
  0
SEQEND
  5
628
330
625
100
AcDbEntity
  8
BEMAßUNG
  0
POLYLINE
  5
629
330
1F
100
AcDbEntity
  8
BEMAßUNG
 62
     7
100
AcDb2dPolyline
 66
     1
 10
0.0
 20
0.0
 30
0.0
  0
VERTEX
  5
62A
330
629
100
AcDbEntity
  8
BEMAßUNG
 62
     7
100
AcDbVertex
100
AcDb2dVertex
 10
86.45432669279614
 20
217.9410467662613
 30
0.0
  0
VERTEX
  5
62B
330
629
100
AcDbEntity
  8
BEMAßUNG
 62
     7
100
AcDbVertex
100
AcDb2dVertex
 10
85.99406193596677
 20
214.4408297532474
 30
0.0
  0
VERTEX
  5
62C
330
629
100
AcDbEntity
  8
BEMAßUNG
 62
     7
100
AcDbVertex
100
AcDb2dVertex
 10
86.91493595917404
 20
214.4408297532474
 30
0.0
  0
VERTEX
  5
62D
330
629
100
AcDbEntity
  8
BEMAßUNG
 62
     7
100
AcDbVertex
100
AcDb2dVertex
 10
86.45432669279614
 20
217.9410467662613
 30
0.0
  0
SEQEND
  5
62E
330
629
100
AcDbEntity
  8
BEMAßUNG
  0
POLYLINE
  5
62F
330
1F
100
AcDbEntity
  8
BEMAßUNG
 62
     7
100
AcDb2dPolyline
 66
     1
 10
0.0
 20
0.0
 30
0.0
  0
VERTEX
  5
630
330
62F
100
AcDbEntity
  8
BEMAßUNG
 62
     7
100
AcDbVertex
100
AcDb2dVertex
 10
85.99716252190349
 20
214.4408297532474
 30
0.0
  0
VERTEX
  5
631
330
62F
100
AcDbEntity
  8
BEMAßUNG
 62
     7
100
AcDbVertex
100
AcDb2dVertex
 10
85.99716252190349
 20
214.4683905171294
 30
0.0
  0
SEQEND
  5
632
330
62F
100
AcDbEntity
  8
BEMAßUNG
  0
POLYLINE
  5
633
330
1F
100
AcDbEntity
  8
BEMAßUNG
 62
     7
100
AcDb2dPolyline
 66
     1
 10
0.0
 20
0.0
 30
0.0
  0
VERTEX
  5
634
330
633
100
AcDbEntity
  8
BEMAßUNG
 62
     7
100
AcDbVertex
100
AcDb2dVertex
 10
85.99716252190349
 20
214.4408297532474
 30
0.0
  0
VERTEX
  5
635
330
633
100
AcDbEntity
  8
BEMAßUNG
 62
     7
100
AcDbVertex
100
AcDb2dVertex
 10
85.99716252190349
 20
214.4683905171294
 30
0.0
  0
SEQEND
  5
636
330
633
100
AcDbEntity
  8
BEMAßUNG
  0
POLYLINE
  5
637
330
1F
100
AcDbEntity
  8
BEMAßUNG
 62
     7
100
AcDb2dPolyline
 66
     1
 10
0.0
 20
0.0
 30
0.0
  0
VERTEX
  5
638
330
637
100
AcDbEntity
  8
BEMAßUNG
 62
     7
100
AcDbVertex
100
AcDb2dVertex
 10
86.04814993508519
 20
214.4408297532474
 30
0.0
  0
VERTEX
  5
639
330
637
100
AcDbEntity
  8
BEMAßUNG
 62
     7
100
AcDbVertex
100
AcDb2dVertex
 10
86.04814993508519
 20
214.8542412114774
 30
0.0
  0
SEQEND
  5
63A
330
637
100
AcDbEntity
  8
BEMAßUNG
  0
POLYLINE
  5
63B
330
1F
100
AcDbEntity
  8
BEMAßUNG
 62
     7
100
AcDb2dPolyline
 66
     1
 10
0.0
 20
0.0
 30
0.0
  0
VERTEX
  5
63C
330
63B
100
AcDbEntity
  8
BEMAßUNG
 62
     7
100
AcDbVertex
100
AcDb2dVertex
 10
86.0991373482669
 20
214.4408297532474
 30
0.0
  0
VERTEX
  5
63D
330
63B
100
AcDbEntity
  8
BEMAßUNG
 62
     7
100
AcDbVertex
100
AcDb2dVertex
 10
86.0991373482669
 20
215.2400919058254
 30
0.0
  0
SEQEND
  5
63E
330
63B
100
AcDbEntity
  8
BEMAßUNG
  0
POLYLINE
  5
63F
330
1F
100
AcDbEntity
  8
BEMAßUNG
 62
     7
100
AcDb2dPolyline
 66
     1
 10
0.0
 20
0.0
 30
0.0
  0
VERTEX
  5
640
330
63F
100
AcDbEntity
  8
BEMAßUNG
 62
     7
100
AcDbVertex
100
AcDb2dVertex
 10
86.14978025190005
 20
214.4408297532474
 30
0.0
  0
VERTEX
  5
641
330
63F
100
AcDbEntity
  8
BEMAßUNG
 62
     7
100
AcDbVertex
100
AcDb2dVertex
 10
86.14978025190005
 20
215.6259426001734
 30
0.0
  0
SEQEND
  5
642
330
63F
100
AcDbEntity
  8
BEMAßUNG
  0
POLYLINE
  5
643
330
1F
100
AcDbEntity
  8
BEMAßUNG
 62
     7
100
AcDb2dPolyline
 66
     1
 10
0.0
 20
0.0
 30
0.0
  0
VERTEX
  5
644
330
643
100
AcDbEntity
  8
BEMAßUNG
 62
     7
100
AcDbVertex
100
AcDb2dVertex
 10
86.20076766508176
 20
214.4408297532474
 30
0.0
  0
VERTEX
  5
645
330
643
100
AcDbEntity
  8
BEMAßUNG
 62
     7
100
AcDbVertex
100
AcDb2dVertex
 10
86.20076766508176
 20
216.0117932945214
 30
0.0
  0
SEQEND
  5
646
330
643
100
AcDbEntity
  8
BEMAßUNG
  0
POLYLINE
  5
647
330
1F
100
AcDbEntity
  8
BEMAßUNG
 62
     7
100
AcDb2dPolyline
 66
     1
 10
0.0
 20
0.0
 30
0.0
  0
VERTEX
  5
648
330
647
100
AcDbEntity
  8
BEMAßUNG
 62
     7
100
AcDbVertex
100
AcDb2dVertex
 10
86.25175507826346
 20
214.4408297532474
 30
0.0
  0
VERTEX
  5
649
330
647
100
AcDbEntity
  8
BEMAßUNG
 62
     7
100
AcDbVertex
100
AcDb2dVertex
 10
86.25175507826346
 20
216.3976439888694
 30
0.0
  0
SEQEND
  5
64A
330
647
100
AcDbEntity
  8
BEMAßUNG
  0
POLYLINE
  5
64B
330
1F
100
AcDbEntity
  8
BEMAßUNG
 62
     7
100
AcDb2dPolyline
 66
     1
 10
0.0
 20
0.0
 30
0.0
  0
VERTEX
  5
64C
330
64B
100
AcDbEntity
  8
BEMAßUNG
 62
     7
100
AcDbVertex
100
AcDb2dVertex
 10
86.30239798189663
 20
214.4408297532474
 30
0.0
  0
VERTEX
  5
64D
330
64B
100
AcDbEntity
  8
BEMAßUNG
 62
     7
100
AcDbVertex
100
AcDb2dVertex
 10
86.30239798189663
 20
216.7834946832173
 30
0.0
  0
SEQEND
  5
64E
330
64B
100
AcDbEntity
  8
BEMAßUNG
  0
POLYLINE
  5
64F
330
1F
100
AcDbEntity
  8
BEMAßUNG
 62
     7
100
AcDb2dPolyline
 66
     1
 10
0.0
 20
0.0
 30
0.0
  0
VERTEX
  5
650
330
64F
100
AcDbEntity
  8
BEMAßUNG
 62
     7
100
AcDbVertex
100
AcDb2dVertex
 10
86.35269637598127
 20
214.4408297532474
 30
0.0
  0
VERTEX
  5
651
330
64F
100
AcDbEntity
  8
BEMAßUNG
 62
     7
100
AcDbVertex
100
AcDb2dVertex
 10
86.35269637598127
 20
217.1693453775653
 30
0.0
  0
SEQEND
  5
652
330
64F
100
AcDbEntity
  8
BEMAßUNG
  0
POLYLINE
  5
653
330
1F
100
AcDbEntity
  8
BEMAßUNG
 62
     7
100
AcDb2dPolyline
 66
     1
 10
0.0
 20
0.0
 30
0.0
  0
VERTEX
  5
654
330
653
100
AcDbEntity
  8
BEMAßUNG
 62
     7
100
AcDbVertex
100
AcDb2dVertex
 10
86.40368378916297
 20
214.4408297532474
 30
0.0
  0
VERTEX
  5
655
330
653
100
AcDbEntity
  8
BEMAßUNG
 62
     7
100
AcDbVertex
100
AcDb2dVertex
 10
86.40368378916297
 20
217.5551960719133
 30
0.0
  0
SEQEND
  5
656
330
653
100
AcDbEntity
  8
BEMAßUNG
  0
POLYLINE
  5
657
330
1F
100
AcDbEntity
  8
BEMAßUNG
 62
     7
100
AcDb2dPolyline
 66
     1
 10
0.0
 20
0.0
 30
0.0
  0
VERTEX
  5
658
330
657
100
AcDbEntity
  8
BEMAßUNG
 62
     7
100
AcDbVertex
100
AcDb2dVertex
 10
86.45432669279614
 20
214.4408297532474
 30
0.0
  0
VERTEX
  5
659
330
657
100
AcDbEntity
  8
BEMAßUNG
 62
     7
100
AcDbVertex
100
AcDb2dVertex
 10
86.45432669279614
 20
217.9410467662613
 30
0.0
  0
SEQEND
  5
65A
330
657
100
AcDbEntity
  8
BEMAßUNG
  0
POLYLINE
  5
65B
330
1F
100
AcDbEntity
  8
BEMAßUNG
 62
     7
100
AcDb2dPolyline
 66
     1
 10
0.0
 20
0.0
 30
0.0
  0
VERTEX
  5
65C
330
65B
100
AcDbEntity
  8
BEMAßUNG
 62
     7
100
AcDbVertex
100
AcDb2dVertex
 10
86.91183537323732
 20
214.4408297532474
 30
0.0
  0
VERTEX
  5
65D
330
65B
100
AcDbEntity
  8
BEMAßUNG
 62
     7
100
AcDbVertex
100
AcDb2dVertex
 10
86.91183537323732
 20
214.4683905171294
 30
0.0
  0
SEQEND
  5
65E
330
65B
100
AcDbEntity
  8
BEMAßUNG
  0
POLYLINE
  5
65F
330
1F
100
AcDbEntity
  8
BEMAßUNG
 62
     7
100
AcDb2dPolyline
 66
     1
 10
0.0
 20
0.0
 30
0.0
  0
VERTEX
  5
660
330
65F
100
AcDbEntity
  8
BEMAßUNG
 62
     7
100
AcDbVertex
100
AcDb2dVertex
 10
86.91183537323732
 20
214.4408297532474
 30
0.0
  0
VERTEX
  5
661
330
65F
100
AcDbEntity
  8
BEMAßUNG
 62
     7
100
AcDbVertex
100
AcDb2dVertex
 10
86.91183537323732
 20
214.4683905171294
 30
0.0
  0
SEQEND
  5
662
330
65F
100
AcDbEntity
  8
BEMAßUNG
  0
POLYLINE
  5
663
330
1F
100
AcDbEntity
  8
BEMAßUNG
 62
     7
100
AcDb2dPolyline
 66
     1
 10
0.0
 20
0.0
 30
0.0
  0
VERTEX
  5
664
330
663
100
AcDbEntity
  8
BEMAßUNG
 62
     7
100
AcDbVertex
100
AcDb2dVertex
 10
86.86084796005562
 20
214.4408297532474
 30
0.0
  0
VERTEX
  5
665
330
663
100
AcDbEntity
  8
BEMAßUNG
 62
     7
100
AcDbVertex
100
AcDb2dVertex
 10
86.86084796005562
 20
214.8542412114774
 30
0.0
  0
SEQEND
  5
666
330
663
100
AcDbEntity
  8
BEMAßUNG
  0
POLYLINE
  5
667
330
1F
100
AcDbEntity
  8
BEMAßUNG
 62
     7
100
AcDb2dPolyline
 66
     1
 10
0.0
 20
0.0
 30
0.0
  0
VERTEX
  5
668
330
667
100
AcDbEntity
  8
BEMAßUNG
 62
     7
100
AcDbVertex
100
AcDb2dVertex
 10
86.81020505642245
 20
214.4408297532474
 30
0.0
  0
VERTEX
  5
669
330
667
100
AcDbEntity
  8
BEMAßUNG
 62
     7
100
AcDbVertex
100
AcDb2dVertex
 10
86.81020505642245
 20
215.2400919058254
 30
0.0
  0
SEQEND
  5
66A
330
667
100
AcDbEntity
  8
BEMAßUNG
  0
POLYLINE
  5
66B
330
1F
100
AcDbEntity
  8
BEMAßUNG
 62
     7
100
AcDb2dPolyline
 66
     1
 10
0.0
 20
0.0
 30
0.0
  0
VERTEX
  5
66C
330
66B
100
AcDbEntity
  8
BEMAßUNG
 62
     7
100
AcDbVertex
100
AcDb2dVertex
 10
86.75887313369223
 20
214.4408297532474
 30
0.0
  0
VERTEX
  5
66D
330
66B
100
AcDbEntity
  8
BEMAßUNG
 62
     7
100
AcDbVertex
100
AcDb2dVertex
 10
86.75887313369223
 20
215.6259426001734
 30
0.0
  0
SEQEND
  5
66E
330
66B
100
AcDbEntity
  8
BEMAßUNG
  0
POLYLINE
  5
66F
330
1F
100
AcDbEntity
  8
BEMAßUNG
 62
     7
100
AcDb2dPolyline
 66
     1
 10
0.0
 20
0.0
 30
0.0
  0
VERTEX
  5
670
330
66F
100
AcDbEntity
  8
BEMAßUNG
 62
     7
100
AcDbVertex
100
AcDb2dVertex
 10
86.70823023005906
 20
214.4408297532474
 30
0.0
  0
VERTEX
  5
671
330
66F
100
AcDbEntity
  8
BEMAßUNG
 62
     7
100
AcDbVertex
100
AcDb2dVertex
 10
86.70823023005906
 20
216.0117932945214
 30
0.0
  0
SEQEND
  5
672
330
66F
100
AcDbEntity
  8
BEMAßUNG
  0
POLYLINE
  5
673
330
1F
100
AcDbEntity
  8
BEMAßUNG
 62
     7
100
AcDb2dPolyline
 66
     1
 10
0.0
 20
0.0
 30
0.0
  0
VERTEX
  5
674
330
673
100
AcDbEntity
  8
BEMAßUNG
 62
     7
100
AcDbVertex
100
AcDb2dVertex
 10
86.65758732642588
 20
214.4408297532474
 30
0.0
  0
VERTEX
  5
675
330
673
100
AcDbEntity
  8
BEMAßUNG
 62
     7
100
AcDbVertex
100
AcDb2dVertex
 10
86.65758732642588
 20
216.3976439888694
 30
0.0
  0
SEQEND
  5
676
330
673
100
AcDbEntity
  8
BEMAßUNG
  0
POLYLINE
  5
677
330
1F
100
AcDbEntity
  8
BEMAßUNG
 62
     7
100
AcDb2dPolyline
 66
     1
 10
0.0
 20
0.0
 30
0.0
  0
VERTEX
  5
678
330
677
100
AcDbEntity
  8
BEMAßUNG
 62
     7
100
AcDbVertex
100
AcDb2dVertex
 10
86.60694442279271
 20
214.4408297532474
 30
0.0
  0
VERTEX
  5
679
330
677
100
AcDbEntity
  8
BEMAßUNG
 62
     7
100
AcDbVertex
100
AcDb2dVertex
 10
86.60694442279271
 20
216.7834946832173
 30
0.0
  0
SEQEND
  5
67A
330
677
100
AcDbEntity
  8
BEMAßUNG
  0
POLYLINE
  5
67B
330
1F
100
AcDbEntity
  8
BEMAßUNG
 62
     7
100
AcDb2dPolyline
 66
     1
 10
0.0
 20
0.0
 30
0.0
  0
VERTEX
  5
67C
330
67B
100
AcDbEntity
  8
BEMAßUNG
 62
     7
100
AcDbVertex
100
AcDb2dVertex
 10
86.55595700961102
 20
214.4408297532474
 30
0.0
  0
VERTEX
  5
67D
330
67B
100
AcDbEntity
  8
BEMAßUNG
 62
     7
100
AcDbVertex
100
AcDb2dVertex
 10
86.55595700961102
 20
217.1693453775653
 30
0.0
  0
SEQEND
  5
67E
330
67B
100
AcDbEntity
  8
BEMAßUNG
  0
POLYLINE
  5
67F
330
1F
100
AcDbEntity
  8
BEMAßUNG
 62
     7
100
AcDb2dPolyline
 66
     1
 10
0.0
 20
0.0
 30
0.0
  0
VERTEX
  5
680
330
67F
100
AcDbEntity
  8
BEMAßUNG
 62
     7
100
AcDbVertex
100
AcDb2dVertex
 10
86.50531410597785
 20
214.4408297532474
 30
0.0
  0
VERTEX
  5
681
330
67F
100
AcDbEntity
  8
BEMAßUNG
 62
     7
100
AcDbVertex
100
AcDb2dVertex
 10
86.50531410597785
 20
217.5551960719133
 30
0.0
  0
SEQEND
  5
682
330
67F
100
AcDbEntity
  8
BEMAßUNG
  0
POLYLINE
  5
683
330
1F
100
AcDbEntity
  8
BEMAßUNG
 62
     7
100
AcDb2dPolyline
 66
     1
 10
0.0
 20
0.0
 30
0.0
  0
VERTEX
  5
684
330
683
100
AcDbEntity
  8
BEMAßUNG
 62
     7
100
AcDbVertex
100
AcDb2dVertex
 10
86.45432669279614
 20
214.4408297532474
 30
0.0
  0
VERTEX
  5
685
330
683
100
AcDbEntity
  8
BEMAßUNG
 62
     7
100
AcDbVertex
100
AcDb2dVertex
 10
86.45432669279614
 20
217.9410467662613
 30
0.0
  0
SEQEND
  5
686
330
683
100
AcDbEntity
  8
BEMAßUNG
  0
POLYLINE
  5
687
330
1F
100
AcDbEntity
  8
BEMAßUNG
 62
     7
100
AcDb2dPolyline
 66
     1
 10
0.0
 20
0.0
 30
0.0
  0
VERTEX
  5
688
330
687
100
AcDbEntity
  8
BEMAßUNG
 62
     7
100
AcDbVertex
100
AcDb2dVertex
 10
86.45432669279614
 20
177.9414211252195
 30
0.0
  0
VERTEX
  5
689
330
687
100
AcDbEntity
  8
BEMAßUNG
 62
     7
100
AcDbVertex
100
AcDb2dVertex
 10
86.91493595917404
 20
181.4409491191363
 30
0.0
  0
VERTEX
  5
68A
330
687
100
AcDbEntity
  8
BEMAßUNG
 62
     7
100
AcDbVertex
100
AcDb2dVertex
 10
85.99406193596677
 20
181.4409491191363
 30
0.0
  0
VERTEX
  5
68B
330
687
100
AcDbEntity
  8
BEMAßUNG
 62
     7
100
AcDbVertex
100
AcDb2dVertex
 10
86.45432669279614
 20
177.9414211252195
 30
0.0
  0
SEQEND
  5
68C
330
687
100
AcDbEntity
  8
BEMAßUNG
  0
POLYLINE
  5
68D
330
1F
100
AcDbEntity
  8
BEMAßUNG
 62
     7
100
AcDb2dPolyline
 66
     1
 10
0.0
 20
0.0
 30
0.0
  0
VERTEX
  5
68E
330
68D
100
AcDbEntity
  8
BEMAßUNG
 62
     7
100
AcDbVertex
100
AcDb2dVertex
 10
86.91183537323732
 20
181.4409491191363
 30
0.0
  0
VERTEX
  5
68F
330
68D
100
AcDbEntity
  8
BEMAßUNG
 62
     7
100
AcDbVertex
100
AcDb2dVertex
 10
86.91183537323732
 20
181.4133883552543
 30
0.0
  0
SEQEND
  5
690
330
68D
100
AcDbEntity
  8
BEMAßUNG
  0
POLYLINE
  5
691
330
1F
100
AcDbEntity
  8
BEMAßUNG
 62
     7
100
AcDb2dPolyline
 66
     1
 10
0.0
 20
0.0
 30
0.0
  0
VERTEX
  5
692
330
691
100
AcDbEntity
  8
BEMAßUNG
 62
     7
100
AcDbVertex
100
AcDb2dVertex
 10
86.91183537323732
 20
181.4409491191363
 30
0.0
  0
VERTEX
  5
693
330
691
100
AcDbEntity
  8
BEMAßUNG
 62
     7
100
AcDbVertex
100
AcDb2dVertex
 10
86.91183537323732
 20
181.4133883552543
 30
0.0
  0
SEQEND
  5
694
330
691
100
AcDbEntity
  8
BEMAßUNG
  0
POLYLINE
  5
695
330
1F
100
AcDbEntity
  8
BEMAßUNG
 62
     7
100
AcDb2dPolyline
 66
     1
 10
0.0
 20
0.0
 30
0.0
  0
VERTEX
  5
696
330
695
100
AcDbEntity
  8
BEMAßUNG
 62
     7
100
AcDbVertex
100
AcDb2dVertex
 10
86.86084796005562
 20
181.4409491191363
 30
0.0
  0
VERTEX
  5
697
330
695
100
AcDbEntity
  8
BEMAßUNG
 62
     7
100
AcDbVertex
100
AcDb2dVertex
 10
86.86084796005562
 20
181.0282266800034
 30
0.0
  0
SEQEND
  5
698
330
695
100
AcDbEntity
  8
BEMAßUNG
  0
POLYLINE
  5
699
330
1F
100
AcDbEntity
  8
BEMAßUNG
 62
     7
100
AcDb2dPolyline
 66
     1
 10
0.0
 20
0.0
 30
0.0
  0
VERTEX
  5
69A
330
699
100
AcDbEntity
  8
BEMAßUNG
 62
     7
100
AcDbVertex
100
AcDb2dVertex
 10
86.81020505642245
 20
181.4409491191363
 30
0.0
  0
VERTEX
  5
69B
330
699
100
AcDbEntity
  8
BEMAßUNG
 62
     7
100
AcDbVertex
100
AcDb2dVertex
 10
86.81020505642245
 20
180.6416869665583
 30
0.0
  0
SEQEND
  5
69C
330
699
100
AcDbEntity
  8
BEMAßUNG
  0
POLYLINE
  5
69D
330
1F
100
AcDbEntity
  8
BEMAßUNG
 62
     7
100
AcDb2dPolyline
 66
     1
 10
0.0
 20
0.0
 30
0.0
  0
VERTEX
  5
69E
330
69D
100
AcDbEntity
  8
BEMAßUNG
 62
     7
100
AcDbVertex
100
AcDb2dVertex
 10
86.75887313369223
 20
181.4409491191363
 30
0.0
  0
VERTEX
  5
69F
330
69D
100
AcDbEntity
  8
BEMAßUNG
 62
     7
100
AcDbVertex
100
AcDb2dVertex
 10
86.75887313369223
 20
180.2558362722104
 30
0.0
  0
SEQEND
  5
6A0
330
69D
100
AcDbEntity
  8
BEMAßUNG
  0
POLYLINE
  5
6A1
330
1F
100
AcDbEntity
  8
BEMAßUNG
 62
     7
100
AcDb2dPolyline
 66
     1
 10
0.0
 20
0.0
 30
0.0
  0
VERTEX
  5
6A2
330
6A1
100
AcDbEntity
  8
BEMAßUNG
 62
     7
100
AcDbVertex
100
AcDb2dVertex
 10
86.70823023005906
 20
181.4409491191363
 30
0.0
  0
VERTEX
  5
6A3
330
6A1
100
AcDbEntity
  8
BEMAßUNG
 62
     7
100
AcDbVertex
100
AcDb2dVertex
 10
86.70823023005906
 20
179.8699855778624
 30
0.0
  0
SEQEND
  5
6A4
330
6A1
100
AcDbEntity
  8
BEMAßUNG
  0
POLYLINE
  5
6A5
330
1F
100
AcDbEntity
  8
BEMAßUNG
 62
     7
100
AcDb2dPolyline
 66
     1
 10
0.0
 20
0.0
 30
0.0
  0
VERTEX
  5
6A6
330
6A5
100
AcDbEntity
  8
BEMAßUNG
 62
     7
100
AcDbVertex
100
AcDb2dVertex
 10
86.65758732642588
 20
181.4409491191363
 30
0.0
  0
VERTEX
  5
6A7
330
6A5
100
AcDbEntity
  8
BEMAßUNG
 62
     7
100
AcDbVertex
100
AcDb2dVertex
 10
86.65758732642588
 20
179.4848239026115
 30
0.0
  0
SEQEND
  5
6A8
330
6A5
100
AcDbEntity
  8
BEMAßUNG
  0
POLYLINE
  5
6A9
330
1F
100
AcDbEntity
  8
BEMAßUNG
 62
     7
100
AcDb2dPolyline
 66
     1
 10
0.0
 20
0.0
 30
0.0
  0
VERTEX
  5
6AA
330
6A9
100
AcDbEntity
  8
BEMAßUNG
 62
     7
100
AcDbVertex
100
AcDb2dVertex
 10
86.60694442279271
 20
181.4409491191363
 30
0.0
  0
VERTEX
  5
6AB
330
6A9
100
AcDbEntity
  8
BEMAßUNG
 62
     7
100
AcDbVertex
100
AcDb2dVertex
 10
86.60694442279271
 20
179.0982841891664
 30
0.0
  0
SEQEND
  5
6AC
330
6A9
100
AcDbEntity
  8
BEMAßUNG
  0
POLYLINE
  5
6AD
330
1F
100
AcDbEntity
  8
BEMAßUNG
 62
     7
100
AcDb2dPolyline
 66
     1
 10
0.0
 20
0.0
 30
0.0
  0
VERTEX
  5
6AE
330
6AD
100
AcDbEntity
  8
BEMAßUNG
 62
     7
100
AcDbVertex
100
AcDb2dVertex
 10
86.55595700961102
 20
181.4409491191363
 30
0.0
  0
VERTEX
  5
6AF
330
6AD
100
AcDbEntity
  8
BEMAßUNG
 62
     7
100
AcDbVertex
100
AcDb2dVertex
 10
86.55595700961102
 20
178.7124334948184
 30
0.0
  0
SEQEND
  5
6B0
330
6AD
100
AcDbEntity
  8
BEMAßUNG
  0
POLYLINE
  5
6B1
330
1F
100
AcDbEntity
  8
BEMAßUNG
 62
     7
100
AcDb2dPolyline
 66
     1
 10
0.0
 20
0.0
 30
0.0
  0
VERTEX
  5
6B2
330
6B1
100
AcDbEntity
  8
BEMAßUNG
 62
     7
100
AcDbVertex
100
AcDb2dVertex
 10
86.50531410597785
 20
181.4409491191363
 30
0.0
  0
VERTEX
  5
6B3
330
6B1
100
AcDbEntity
  8
BEMAßUNG
 62
     7
100
AcDbVertex
100
AcDb2dVertex
 10
86.50531410597785
 20
178.3265828004704
 30
0.0
  0
SEQEND
  5
6B4
330
6B1
100
AcDbEntity
  8
BEMAßUNG
  0
POLYLINE
  5
6B5
330
1F
100
AcDbEntity
  8
BEMAßUNG
 62
     7
100
AcDb2dPolyline
 66
     1
 10
0.0
 20
0.0
 30
0.0
  0
VERTEX
  5
6B6
330
6B5
100
AcDbEntity
  8
BEMAßUNG
 62
     7
100
AcDbVertex
100
AcDb2dVertex
 10
86.45432669279614
 20
181.4409491191363
 30
0.0
  0
VERTEX
  5
6B7
330
6B5
100
AcDbEntity
  8
BEMAßUNG
 62
     7
100
AcDbVertex
100
AcDb2dVertex
 10
86.45432669279614
 20
177.9414211252195
 30
0.0
  0
SEQEND
  5
6B8
330
6B5
100
AcDbEntity
  8
BEMAßUNG
  0
POLYLINE
  5
6B9
330
1F
100
AcDbEntity
  8
BEMAßUNG
 62
     7
100
AcDb2dPolyline
 66
     1
 10
0.0
 20
0.0
 30
0.0
  0
VERTEX
  5
6BA
330
6B9
100
AcDbEntity
  8
BEMAßUNG
 62
     7
100
AcDbVertex
100
AcDb2dVertex
 10
85.99716252190349
 20
181.4409491191363
 30
0.0
  0
VERTEX
  5
6BB
330
6B9
100
AcDbEntity
  8
BEMAßUNG
 62
     7
100
AcDbVertex
100
AcDb2dVertex
 10
85.99716252190349
 20
181.4133883552543
 30
0.0
  0
SEQEND
  5
6BC
330
6B9
100
AcDbEntity
  8
BEMAßUNG
  0
POLYLINE
  5
6BD
330
1F
100
AcDbEntity
  8
BEMAßUNG
 62
     7
100
AcDb2dPolyline
 66
     1
 10
0.0
 20
0.0
 30
0.0
  0
VERTEX
  5
6BE
330
6BD
100
AcDbEntity
  8
BEMAßUNG
 62
     7
100
AcDbVertex
100
AcDb2dVertex
 10
85.99716252190349
 20
181.4409491191363
 30
0.0
  0
VERTEX
  5
6BF
330
6BD
100
AcDbEntity
  8
BEMAßUNG
 62
     7
100
AcDbVertex
100
AcDb2dVertex
 10
85.99716252190349
 20
181.4133883552543
 30
0.0
  0
SEQEND
  5
6C0
330
6BD
100
AcDbEntity
  8
BEMAßUNG
  0
POLYLINE
  5
6C1
330
1F
100
AcDbEntity
  8
BEMAßUNG
 62
     7
100
AcDb2dPolyline
 66
     1
 10
0.0
 20
0.0
 30
0.0
  0
VERTEX
  5
6C2
330
6C1
100
AcDbEntity
  8
BEMAßUNG
 62
     7
100
AcDbVertex
100
AcDb2dVertex
 10
86.04814993508519
 20
181.4409491191363
 30
0.0
  0
VERTEX
  5
6C3
330
6C1
100
AcDbEntity
  8
BEMAßUNG
 62
     7
100
AcDbVertex
100
AcDb2dVertex
 10
86.04814993508519
 20
181.0282266800034
 30
0.0
  0
SEQEND
  5
6C4
330
6C1
100
AcDbEntity
  8
BEMAßUNG
  0
POLYLINE
  5
6C5
330
1F
100
AcDbEntity
  8
BEMAßUNG
 62
     7
100
AcDb2dPolyline
 66
     1
 10
0.0
 20
0.0
 30
0.0
  0
VERTEX
  5
6C6
330
6C5
100
AcDbEntity
  8
BEMAßUNG
 62
     7
100
AcDbVertex
100
AcDb2dVertex
 10
86.0991373482669
 20
181.4409491191363
 30
0.0
  0
VERTEX
  5
6C7
330
6C5
100
AcDbEntity
  8
BEMAßUNG
 62
     7
100
AcDbVertex
100
AcDb2dVertex
 10
86.0991373482669
 20
180.6416869665583
 30
0.0
  0
SEQEND
  5
6C8
330
6C5
100
AcDbEntity
  8
BEMAßUNG
  0
POLYLINE
  5
6C9
330
1F
100
AcDbEntity
  8
BEMAßUNG
 62
     7
100
AcDb2dPolyline
 66
     1
 10
0.0
 20
0.0
 30
0.0
  0
VERTEX
  5
6CA
330
6C9
100
AcDbEntity
  8
BEMAßUNG
 62
     7
100
AcDbVertex
100
AcDb2dVertex
 10
86.14978025190005
 20
181.4409491191363
 30
0.0
  0
VERTEX
  5
6CB
330
6C9
100
AcDbEntity
  8
BEMAßUNG
 62
     7
100
AcDbVertex
100
AcDb2dVertex
 10
86.14978025190005
 20
180.2558362722104
 30
0.0
  0
SEQEND
  5
6CC
330
6C9
100
AcDbEntity
  8
BEMAßUNG
  0
POLYLINE
  5
6CD
330
1F
100
AcDbEntity
  8
BEMAßUNG
 62
     7
100
AcDb2dPolyline
 66
     1
 10
0.0
 20
0.0
 30
0.0
  0
VERTEX
  5
6CE
330
6CD
100
AcDbEntity
  8
BEMAßUNG
 62
     7
100
AcDbVertex
100
AcDb2dVertex
 10
86.20076766508176
 20
181.4409491191363
 30
0.0
  0
VERTEX
  5
6CF
330
6CD
100
AcDbEntity
  8
BEMAßUNG
 62
     7
100
AcDbVertex
100
AcDb2dVertex
 10
86.20076766508176
 20
179.8699855778624
 30
0.0
  0
SEQEND
  5
6D0
330
6CD
100
AcDbEntity
  8
BEMAßUNG
  0
POLYLINE
  5
6D1
330
1F
100
AcDbEntity
  8
BEMAßUNG
 62
     7
100
AcDb2dPolyline
 66
     1
 10
0.0
 20
0.0
 30
0.0
  0
VERTEX
  5
6D2
330
6D1
100
AcDbEntity
  8
BEMAßUNG
 62
     7
100
AcDbVertex
100
AcDb2dVertex
 10
86.25175507826346
 20
181.4409491191363
 30
0.0
  0
VERTEX
  5
6D3
330
6D1
100
AcDbEntity
  8
BEMAßUNG
 62
     7
100
AcDbVertex
100
AcDb2dVertex
 10
86.25175507826346
 20
179.4848239026115
 30
0.0
  0
SEQEND
  5
6D4
330
6D1
100
AcDbEntity
  8
BEMAßUNG
  0
POLYLINE
  5
6D5
330
1F
100
AcDbEntity
  8
BEMAßUNG
 62
     7
100
AcDb2dPolyline
 66
     1
 10
0.0
 20
0.0
 30
0.0
  0
VERTEX
  5
6D6
330
6D5
100
AcDbEntity
  8
BEMAßUNG
 62
     7
100
AcDbVertex
100
AcDb2dVertex
 10
86.30239798189663
 20
181.4409491191363
 30
0.0
  0
VERTEX
  5
6D7
330
6D5
100
AcDbEntity
  8
BEMAßUNG
 62
     7
100
AcDbVertex
100
AcDb2dVertex
 10
86.30239798189663
 20
179.0982841891664
 30
0.0
  0
SEQEND
  5
6D8
330
6D5
100
AcDbEntity
  8
BEMAßUNG
  0
POLYLINE
  5
6D9
330
1F
100
AcDbEntity
  8
BEMAßUNG
 62
     7
100
AcDb2dPolyline
 66
     1
 10
0.0
 20
0.0
 30
0.0
  0
VERTEX
  5
6DA
330
6D9
100
AcDbEntity
  8
BEMAßUNG
 62
     7
100
AcDbVertex
100
AcDb2dVertex
 10
86.35269637598127
 20
181.4409491191363
 30
0.0
  0
VERTEX
  5
6DB
330
6D9
100
AcDbEntity
  8
BEMAßUNG
 62
     7
100
AcDbVertex
100
AcDb2dVertex
 10
86.35269637598127
 20
178.7124334948184
 30
0.0
  0
SEQEND
  5
6DC
330
6D9
100
AcDbEntity
  8
BEMAßUNG
  0
POLYLINE
  5
6DD
330
1F
100
AcDbEntity
  8
BEMAßUNG
 62
     7
100
AcDb2dPolyline
 66
     1
 10
0.0
 20
0.0
 30
0.0
  0
VERTEX
  5
6DE
330
6DD
100
AcDbEntity
  8
BEMAßUNG
 62
     7
100
AcDbVertex
100
AcDb2dVertex
 10
86.40368378916297
 20
181.4409491191363
 30
0.0
  0
VERTEX
  5
6DF
330
6DD
100
AcDbEntity
  8
BEMAßUNG
 62
     7
100
AcDbVertex
100
AcDb2dVertex
 10
86.40368378916297
 20
178.3265828004704
 30
0.0
  0
SEQEND
  5
6E0
330
6DD
100
AcDbEntity
  8
BEMAßUNG
  0
POLYLINE
  5
6E1
330
1F
100
AcDbEntity
  8
BEMAßUNG
 62
     7
100
AcDb2dPolyline
 66
     1
 10
0.0
 20
0.0
 30
0.0
  0
VERTEX
  5
6E2
330
6E1
100
AcDbEntity
  8
BEMAßUNG
 62
     7
100
AcDbVertex
100
AcDb2dVertex
 10
86.45432669279614
 20
181.4409491191363
 30
0.0
  0
VERTEX
  5
6E3
330
6E1
100
AcDbEntity
  8
BEMAßUNG
 62
     7
100
AcDbVertex
100
AcDb2dVertex
 10
86.45432669279614
 20
177.9414211252195
 30
0.0
  0
SEQEND
  5
6E4
330
6E1
100
AcDbEntity
  8
BEMAßUNG
  0
POLYLINE
  5
6E5
330
1F
100
AcDbEntity
  8
BEMAßUNG
 62
     7
100
AcDb2dPolyline
 66
     1
 10
0.0
 20
0.0
 30
0.0
  0
VERTEX
  5
6E6
330
6E5
100
AcDbEntity
  8
BEMAßUNG
 62
     7
100
AcDbVertex
100
AcDb2dVertex
 10
78.73696829628798
 20
207.5310017384818
 30
0.0
  0
VERTEX
  5
6E7
330
6E5
100
AcDbEntity
  8
BEMAßUNG
 62
     7
100
AcDbVertex
100
AcDb2dVertex
 10
62.37414277954536
 20
207.5310017384818
 30
0.0
  0
VERTEX
  5
6E8
330
6E5
100
AcDbEntity
  8
BEMAßUNG
 62
     7
100
AcDbVertex
100
AcDb2dVertex
 10
49.17770452329585
 20
186.1590073861859
 30
0.0
  0
VERTEX
  5
6E9
330
6E5
100
AcDbEntity
  8
BEMAßUNG
 62
     7
100
AcDbVertex
100
AcDb2dVertex
 10
50.50578883285966
 20
189.4294365303336
 30
0.0
  0
VERTEX
  5
6EA
330
6E5
100
AcDbEntity
  8
BEMAßUNG
 62
     7
100
AcDbVertex
100
AcDb2dVertex
 10
51.3060845140832
 20
188.9746839262806
 30
0.0
  0
VERTEX
  5
6EB
330
6E5
100
AcDbEntity
  8
BEMAßUNG
 62
     7
100
AcDbVertex
100
AcDb2dVertex
 10
49.17770452329585
 20
186.1590073861859
 30
0.0
  0
SEQEND
  5
6EC
330
6E5
100
AcDbEntity
  8
BEMAßUNG
  0
POLYLINE
  5
6ED
330
1F
100
AcDbEntity
  8
BEMAßUNG
 62
     7
100
AcDb2dPolyline
 66
     1
 10
0.0
 20
0.0
 30
0.0
  0
VERTEX
  5
6EE
330
6ED
100
AcDbEntity
  8
BEMAßUNG
 62
     7
100
AcDbVertex
100
AcDb2dVertex
 10
50.59639484412174
 20
189.3774155885064
 30
0.0
  0
VERTEX
  5
6EF
330
6ED
100
AcDbEntity
  8
BEMAßUNG
 62
     7
100
AcDbVertex
100
AcDb2dVertex
 10
50.20262043015768
 20
188.6832288482285
 30
0.0
  0
SEQEND
  5
6F0
330
6ED
100
AcDbEntity
  8
BEMAßUNG
  0
POLYLINE
  5
6F1
330
1F
100
AcDbEntity
  8
BEMAßUNG
 62
     7
100
AcDb2dPolyline
 66
     1
 10
0.0
 20
0.0
 30
0.0
  0
VERTEX
  5
6F2
330
6F1
100
AcDbEntity
  8
BEMAßUNG
 62
     7
100
AcDbVertex
100
AcDb2dVertex
 10
50.64083657588146
 20
189.3526109010126
 30
0.0
  0
VERTEX
  5
6F3
330
6F1
100
AcDbEntity
  8
BEMAßUNG
 62
     7
100
AcDbVertex
100
AcDb2dVertex
 10
50.05585936248604
 20
188.3218383318258
 30
0.0
  0
SEQEND
  5
6F4
330
6F1
100
AcDbEntity
  8
BEMAßUNG
  0
POLYLINE
  5
6F5
330
1F
100
AcDbEntity
  8
BEMAßUNG
 62
     7
100
AcDb2dPolyline
 66
     1
 10
0.0
 20
0.0
 30
0.0
  0
VERTEX
  5
6F6
330
6F5
100
AcDbEntity
  8
BEMAßUNG
 62
     7
100
AcDbVertex
100
AcDb2dVertex
 10
50.68493379809266
 20
189.3274617039702
 30
0.0
  0
VERTEX
  5
6F7
330
6F5
100
AcDbEntity
  8
BEMAßUNG
 62
     7
100
AcDbVertex
100
AcDb2dVertex
 10
49.90944280436292
 20
187.9621703631657
 30
0.0
  0
SEQEND
  5
6F8
330
6F5
100
AcDbEntity
  8
BEMAßUNG
  0
POLYLINE
  5
6F9
330
1F
100
AcDbEntity
  8
BEMAßUNG
 62
     7
100
AcDb2dPolyline
 66
     1
 10
0.0
 20
0.0
 30
0.0
  0
VERTEX
  5
6FA
330
6F9
100
AcDbEntity
  8
BEMAßUNG
 62
     7
100
AcDbVertex
100
AcDb2dVertex
 10
50.73006454894943
 20
189.3023125069279
 30
0.0
  0
VERTEX
  5
6FB
330
6F9
100
AcDbEntity
  8
BEMAßUNG
 62
     7
100
AcDbVertex
100
AcDb2dVertex
 10
49.76268173669128
 20
187.600779846763
 30
0.0
  0
SEQEND
  5
6FC
330
6F9
100
AcDbEntity
  8
BEMAßUNG
  0
POLYLINE
  5
6FD
330
1F
100
AcDbEntity
  8
BEMAßUNG
 62
     7
100
AcDb2dPolyline
 66
     1
 10
0.0
 20
0.0
 30
0.0
  0
VERTEX
  5
6FE
330
6FD
100
AcDbEntity
  8
BEMAßUNG
 62
     7
100
AcDbVertex
100
AcDb2dVertex
 10
50.77312824251506
 20
189.2771633098856
 30
0.0
  0
VERTEX
  5
6FF
330
6FD
100
AcDbEntity
  8
BEMAßUNG
 62
     7
100
AcDbVertex
100
AcDb2dVertex
 10
49.61729870721373
 20
187.2400783494573
 30
0.0
  0
SEQEND
  5
700
330
6FD
100
AcDbEntity
  8
BEMAßUNG
  0
POLYLINE
  5
701
330
1F
100
AcDbEntity
  8
BEMAßUNG
 62
     7
100
AcDb2dPolyline
 66
     1
 10
0.0
 20
0.0
 30
0.0
  0
VERTEX
  5
702
330
701
100
AcDbEntity
  8
BEMAßUNG
 62
     7
100
AcDbVertex
100
AcDb2dVertex
 10
50.81825899337183
 20
189.2523586223918
 30
0.0
  0
VERTEX
  5
703
330
701
100
AcDbEntity
  8
BEMAßUNG
 62
     7
100
AcDbVertex
100
AcDb2dVertex
 10
49.46950411089652
 20
186.8800658712487
 30
0.0
  0
SEQEND
  5
704
330
701
100
AcDbEntity
  8
BEMAßUNG
  0
POLYLINE
  5
705
330
1F
100
AcDbEntity
  8
BEMAßUNG
 62
     7
100
AcDb2dPolyline
 66
     1
 10
0.0
 20
0.0
 30
0.0
  0
VERTEX
  5
706
330
705
100
AcDbEntity
  8
BEMAßUNG
 62
     7
100
AcDbVertex
100
AcDb2dVertex
 10
50.86132268693745
 20
189.227553934898
 30
0.0
  0
VERTEX
  5
707
330
705
100
AcDbEntity
  8
BEMAßUNG
 62
     7
100
AcDbVertex
100
AcDb2dVertex
 10
49.32377657187045
 20
186.5190198643946
 30
0.0
  0
SEQEND
  5
708
330
705
100
AcDbEntity
  8
BEMAßUNG
  0
POLYLINE
  5
709
330
1F
100
AcDbEntity
  8
BEMAßUNG
 62
     7
100
AcDb2dPolyline
 66
     1
 10
0.0
 20
0.0
 30
0.0
  0
VERTEX
  5
70A
330
709
100
AcDbEntity
  8
BEMAßUNG
 62
     7
100
AcDbVertex
100
AcDb2dVertex
 10
50.90576441869717
 20
189.2024047378557
 30
0.0
  0
VERTEX
  5
70B
330
709
100
AcDbEntity
  8
BEMAßUNG
 62
     7
100
AcDbVertex
100
AcDb2dVertex
 10
49.17770452329585
 20
186.1590073861859
 30
0.0
  0
SEQEND
  5
70C
330
709
100
AcDbEntity
  8
BEMAßUNG
  0
POLYLINE
  5
70D
330
1F
100
AcDbEntity
  8
BEMAßUNG
 62
     7
100
AcDb2dPolyline
 66
     1
 10
0.0
 20
0.0
 30
0.0
  0
VERTEX
  5
70E
330
70D
100
AcDbEntity
  8
BEMAßUNG
 62
     7
100
AcDbVertex
100
AcDb2dVertex
 10
51.30367294724353
 20
188.9764064740233
 30
0.0
  0
VERTEX
  5
70F
330
70D
100
AcDbEntity
  8
BEMAßUNG
 62
     7
100
AcDbVertex
100
AcDb2dVertex
 10
51.28989256530253
 20
188.9526353151751
 30
0.0
  0
SEQEND
  5
710
330
70D
100
AcDbEntity
  8
BEMAßUNG
  0
POLYLINE
  5
711
330
1F
100
AcDbEntity
  8
BEMAßUNG
 62
     7
100
AcDb2dPolyline
 66
     1
 10
0.0
 20
0.0
 30
0.0
  0
VERTEX
  5
712
330
711
100
AcDbEntity
  8
BEMAßUNG
 62
     7
100
AcDbVertex
100
AcDb2dVertex
 10
51.30367294724353
 20
188.9764064740233
 30
0.0
  0
VERTEX
  5
713
330
711
100
AcDbEntity
  8
BEMAßUNG
 62
     7
100
AcDbVertex
100
AcDb2dVertex
 10
51.28989256530253
 20
188.9526353151751
 30
0.0
  0
SEQEND
  5
714
330
711
100
AcDbEntity
  8
BEMAßUNG
  0
POLYLINE
  5
715
330
1F
100
AcDbEntity
  8
BEMAßUNG
 62
     7
100
AcDb2dPolyline
 66
     1
 10
0.0
 20
0.0
 30
0.0
  0
VERTEX
  5
716
330
715
100
AcDbEntity
  8
BEMAßUNG
 62
     7
100
AcDbVertex
100
AcDb2dVertex
 10
51.25923121548381
 20
189.0015556710656
 30
0.0
  0
VERTEX
  5
717
330
715
100
AcDbEntity
  8
BEMAßUNG
 62
     7
100
AcDbVertex
100
AcDb2dVertex
 10
51.05493705320849
 20
188.6425767215026
 30
0.0
  0
SEQEND
  5
718
330
715
100
AcDbEntity
  8
BEMAßUNG
  0
POLYLINE
  5
719
330
1F
100
AcDbEntity
  8
BEMAßUNG
 62
     7
100
AcDb2dPolyline
 66
     1
 10
0.0
 20
0.0
 30
0.0
  0
VERTEX
  5
71A
330
719
100
AcDbEntity
  8
BEMAßUNG
 62
     7
100
AcDbVertex
100
AcDb2dVertex
 10
51.21478948372408
 20
189.0263603585594
 30
0.0
  0
VERTEX
  5
71B
330
719
100
AcDbEntity
  8
BEMAßUNG
 62
     7
100
AcDbVertex
100
AcDb2dVertex
 10
50.8206705602115
 20
188.331829108733
 30
0.0
  0
SEQEND
  5
71C
330
719
100
AcDbEntity
  8
BEMAßUNG
  0
POLYLINE
  5
71D
330
1F
100
AcDbEntity
  8
BEMAßUNG
 62
     7
100
AcDb2dPolyline
 66
     1
 10
0.0
 20
0.0
 30
0.0
  0
VERTEX
  5
71E
330
71D
100
AcDbEntity
  8
BEMAßUNG
 62
     7
100
AcDbVertex
100
AcDb2dVertex
 10
51.17103677106141
 20
189.0511650460532
 30
0.0
  0
VERTEX
  5
71F
330
71D
100
AcDbEntity
  8
BEMAßUNG
 62
     7
100
AcDbVertex
100
AcDb2dVertex
 10
50.58571504811746
 20
188.0217705150605
 30
0.0
  0
SEQEND
  5
720
330
71D
100
AcDbEntity
  8
BEMAßUNG
  0
POLYLINE
  5
721
330
1F
100
AcDbEntity
  8
BEMAßUNG
 62
     7
100
AcDb2dPolyline
 66
     1
 10
0.0
 20
0.0
 30
0.0
  0
VERTEX
  5
722
330
721
100
AcDbEntity
  8
BEMAßUNG
 62
     7
100
AcDbVertex
100
AcDb2dVertex
 10
51.12693954885021
 20
189.0766587526441
 30
0.0
  0
VERTEX
  5
723
330
721
100
AcDbEntity
  8
BEMAßUNG
 62
     7
100
AcDbVertex
100
AcDb2dVertex
 10
50.35110404557195
 20
187.711022902291
 30
0.0
  0
SEQEND
  5
724
330
721
100
AcDbEntity
  8
BEMAßUNG
  0
POLYLINE
  5
725
330
1F
100
AcDbEntity
  8
BEMAßUNG
 62
     7
100
AcDb2dPolyline
 66
     1
 10
0.0
 20
0.0
 30
0.0
  0
VERTEX
  5
726
330
725
100
AcDbEntity
  8
BEMAßUNG
 62
     7
100
AcDbVertex
100
AcDb2dVertex
 10
51.08249781709049
 20
189.1018079496864
 30
0.0
  0
VERTEX
  5
727
330
725
100
AcDbEntity
  8
BEMAßUNG
 62
     7
100
AcDbVertex
100
AcDb2dVertex
 10
50.11614853347791
 20
187.40061979907
 30
0.0
  0
SEQEND
  5
728
330
725
100
AcDbEntity
  8
BEMAßUNG
  0
POLYLINE
  5
729
330
1F
100
AcDbEntity
  8
BEMAßUNG
 62
     7
100
AcDb2dPolyline
 66
     1
 10
0.0
 20
0.0
 30
0.0
  0
VERTEX
  5
72A
330
729
100
AcDbEntity
  8
BEMAßUNG
 62
     7
100
AcDbVertex
100
AcDb2dVertex
 10
51.03805608533077
 20
189.1266126371802
 30
0.0
  0
VERTEX
  5
72B
330
729
100
AcDbEntity
  8
BEMAßUNG
 62
     7
100
AcDbVertex
100
AcDb2dVertex
 10
49.88188204048092
 20
187.0905612053975
 30
0.0
  0
SEQEND
  5
72C
330
729
100
AcDbEntity
  8
BEMAßUNG
  0
POLYLINE
  5
72D
330
1F
100
AcDbEntity
  8
BEMAßUNG
 62
     7
100
AcDb2dPolyline
 66
     1
 10
0.0
 20
0.0
 30
0.0
  0
VERTEX
  5
72E
330
72D
100
AcDbEntity
  8
BEMAßUNG
 62
     7
100
AcDbVertex
100
AcDb2dVertex
 10
50.99430337266809
 20
189.1517618342225
 30
0.0
  0
VERTEX
  5
72F
330
72D
100
AcDbEntity
  8
BEMAßUNG
 62
     7
100
AcDbVertex
100
AcDb2dVertex
 10
49.64761554748393
 20
186.779813592628
 30
0.0
  0
SEQEND
  5
730
330
72D
100
AcDbEntity
  8
BEMAßUNG
  0
POLYLINE
  5
731
330
1F
100
AcDbEntity
  8
BEMAßUNG
 62
     7
100
AcDb2dPolyline
 66
     1
 10
0.0
 20
0.0
 30
0.0
  0
VERTEX
  5
732
330
731
100
AcDbEntity
  8
BEMAßUNG
 62
     7
100
AcDbVertex
100
AcDb2dVertex
 10
50.94986164090837
 20
189.1769110312648
 30
0.0
  0
VERTEX
  5
733
330
731
100
AcDbEntity
  8
BEMAßUNG
 62
     7
100
AcDbVertex
100
AcDb2dVertex
 10
49.41197101629285
 20
186.4690659798584
 30
0.0
  0
SEQEND
  5
734
330
731
100
AcDbEntity
  8
BEMAßUNG
  0
POLYLINE
  5
735
330
1F
100
AcDbEntity
  8
BEMAßUNG
 62
     7
100
AcDb2dPolyline
 66
     1
 10
0.0
 20
0.0
 30
0.0
  0
VERTEX
  5
736
330
735
100
AcDbEntity
  8
BEMAßUNG
 62
     7
100
AcDbVertex
100
AcDb2dVertex
 10
50.90576441869717
 20
189.2024047378557
 30
0.0
  0
VERTEX
  5
737
330
735
100
AcDbEntity
  8
BEMAßUNG
 62
     7
100
AcDbVertex
100
AcDb2dVertex
 10
49.17770452329585
 20
186.1590073861859
 30
0.0
  0
SEQEND
  5
738
330
735
100
AcDbEntity
  8
BEMAßUNG
  0
MTEXT
  5
73A
330
1F
100
AcDbEntity
  8
TEXT
 62
     7
100
AcDbMText
 10
-31.40187309327801
 20
167.1443196196723
 30
0.0
 40
4.361611543412703
 41
0.0
 71
     7
 72
     1
  1
\fINDEX Univers 45 Light|b0|i0|c0|p34;\W1;ø44
  0
MTEXT
  5
73B
330
1F
100
AcDbEntity
  8
TEXT
 62
     7
100
AcDbMText
 10
43.83022731109106
 20
166.7658758806176
 30
0.0
 40
4.361611543412703
 41
0.0
 71
     7
 72
     1
  1
\fINDEX Univers 45 Light|b0|i0|c0|p34;\W1;18
  0
MTEXT
  5
73C
330
1F
100
AcDbEntity
  8
TEXT
 62
     7
100
AcDbMText
 10
85.16069333808483
 20
192.399108838619
 30
0.0
 40
4.361611543412703
 41
0.0
 71
     7
 72
     1
  1
\fINDEX Univers 45 Light|b0|i0|c0|p34;\W1;ø40
 11
-4.371139000186241E-8
 21
0.999999999999999
 31
0.0
  0
MTEXT
  5
73D
330
1F
100
AcDbEntity
  8
TEXT
 62
     7
100
AcDbMText
 10
62.91140542047007
 20
208.6387721917639
 30
0.0
 40
4.361611543412703
 41
0.0
 71
     7
 72
     1
  1
\fINDEX Univers 45 Light|b0|i0|c0|p34;\W1;KK-32
  0
ENDSEC
  0
SECTION
  2
OBJECTS
  0
DICTIONARY
  5
C
330
0
100
AcDbDictionary
  3
ACAD_GROUP
350
D
  3
ACAD_LAYOUT
350
1A
  3
ACAD_MLINESTYLE
350
17
  3
ACAD_PLOTSETTINGS
350
19
  3
ACAD_TABLESTYLE
350
75E
  3
ACAD_VISUALSTYLE
350
2A
  3
ACDBHEADERROUNDTRIPXREC
350
73E
  0
DICTIONARY
  5
D
102
{ACAD_REACTORS
330
C
102
}
330
C
100
AcDbDictionary
  0
DICTIONARY
  5
1A
102
{ACAD_REACTORS
330
C
102
}
330
C
100
AcDbDictionary
  0
DICTIONARY
  5
17
102
{ACAD_REACTORS
330
C
102
}
330
C
100
AcDbDictionary
  3
STANDARD
350
18
  0
DICTIONARY
  5
19
102
{ACAD_REACTORS
330
C
102
}
330
C
100
AcDbDictionary
  0
DICTIONARY
  5
75E
102
{ACAD_REACTORS
330
C
102
}
330
C
100
AcDbDictionary
  0
DICTIONARY
  5
2A
102
{ACAD_REACTORS
330
C
102
}
330
C
100
AcDbDictionary
  3
2DWIREFRAME
350
2F
  3
3D_HIDDEN
350
31
  3
3DWIREFRAME
350
30
  3
BASIC
350
32
  3
BRIGHTEN
350
36
  3
COLORCHANGE
350
3A
  3
CONCEPTUAL
350
34
  3
DIM
350
35
  3
FACEPATTERN
350
39
  3
FLAT
350
2B
  3
FLATWITHEDGES
350
2C
  3
GOURAUD
350
2D
  3
GOURAUDWITHEDGES
350
2E
  3
LINEPATTERN
350
38
  3
REALISTIC
350
33
  3
THICKEN
350
37
  0
DICTIONARY
  5
73E
102
{ACAD_REACTORS
330
C
102
}
330
C
100
AcDbDictionary
  3
CEPSNTYPE
350
747
  3
DIMSTYLEDATA
350
75D
  3
FINGERPRINTGUID
350
748
  3
HYPERLINKBASE
350
741
  3
INSUNITS
350
746
  3
LAYOUTDICT
350
743
  3
LWETCUNION
350
745
  3
PLOTSETDICT
350
744
  3
PSVPSCALE
350
74A
  3
PUCSBASE
350
74D
  3
PUCSORGBACK
350
753
  3
PUCSORGBOTTOM
350
74F
  3
PUCSORGFRONT
350
752
  3
PUCSORGLEFT
350
750
  3
PUCSORGRIGHT
350
751
  3
PUCSORGTOP
350
74E
  3
PUCSORTHOREF
350
74B
  3
PUCSORTHOVIEW
350
74C
  3
STYLESHEET
350
742
  3
TSTACKALIGN
350
73F
  3
TSTACKSIZE
350
740
  3
UCSBASE
350
756
  3
UCSORGBACK
350
75C
  3
UCSORGBOTTOM
350
758
  3
UCSORGFRONT
350
75B
  3
UCSORGLEFT
350
759
  3
UCSORGRIGHT
350
75A
  3
UCSORGTOP
350
757
  3
UCSORTHOREF
350
754
  3
UCSORTHOVIEW
350
755
  3
VERSIONGUID
350
749
  0
MLINESTYLE
  5
18
102
{ACAD_REACTORS
330
17
102
}
330
17
100
AcDbMlineStyle
  2
Standard
 70
     0
  3

 62
   256
 51
90.0
 52
90.0
 71
     2
 49
0.5
 62
   256
  6
BYLAYER
 49
-0.5
 62
   256
  6
BYLAYER
  0
VISUALSTYLE
  5
2F
102
{ACAD_REACTORS
330
2A
102
}
330
2A
100
AcDbVisualStyle
  2
2dWireframe
 70
     4
 71
     0
 72
     2
 73
     0
 90
        0
 40
-0.6
 41
-30.0
 62
     5
 63
     7
 74
     1
 91
        4
 64
     7
 65
   257
 75
     1
175
     1
 42
1.0
 92
        0
 66
   257
 43
1.0
 76
     1
 77
     6
 78
     2
 67
     7
 79
     5
170
     0
171
     0
290
     0
174
     0
 93
        1
 44
0.0
173
     0
291
     0
 45
0.0
1001
ACAD
1000
AcDbSavedByObjectVersion
1070
     0
  0
VISUALSTYLE
  5
31
102
{ACAD_REACTORS
330
2A
102
}
330
2A
100
AcDbVisualStyle
  2
3D Hidden
 70
     6
 71
     1
 72
     2
 73
     2
 90
        0
 40
-0.6
 41
-30.0
 62
     5
 63
     7
 74
     2
 91
        2
 64
     7
 65
   257
 75
     2
175
     1
 42
40.0
 92
        0
 66
   257
 43
1.0
 76
     1
 77
     6
 78
     2
 67
     7
 79
     3
170
     0
171
     0
290
     0
174
     0
 93
        1
 44
0.0
173
     0
291
     0
 45
0.0
1001
ACAD
1000
AcDbSavedByObjectVersion
1070
     0
  0
VISUALSTYLE
  5
30
102
{ACAD_REACTORS
330
2A
102
}
330
2A
100
AcDbVisualStyle
  2
3dWireframe
 70
     5
 71
     0
 72
     2
 73
     0
 90
        0
 40
-0.6
 41
-30.0
 62
     5
 63
     7
 74
     1
 91
        4
 64
     7
 65
   257
 75
     1
175
     1
 42
1.0
 92
        0
 66
   257
 43
1.0
 76
     1
 77
     6
 78
     2
 67
     7
 79
     5
170
     0
171
     0
290
     0
174
     0
 93
        1
 44
0.0
173
     0
291
     0
 45
0.0
1001
ACAD
1000
AcDbSavedByObjectVersion
1070
     0
  0
VISUALSTYLE
  5
32
102
{ACAD_REACTORS
330
2A
102
}
330
2A
100
AcDbVisualStyle
  2
Basic
 70
     7
 71
     1
 72
     0
 73
     1
 90
        0
 40
-0.6
 41
-30.0
 62
     5
 63
     7
 74
     0
 91
        4
 64
     7
 65
   257
 75
     1
175
     1
 42
1.0
 92
        8
 66
     7
 43
1.0
 76
     1
 77
     6
 78
     2
 67
     7
 79
     5
170
     0
171
     0
290
     0
174
     0
 93
        1
 44
0.0
173
     0
291
     1
 45
0.0
1001
ACAD
1000
AcDbSavedByObjectVersion
1070
     0
  0
VISUALSTYLE
  5
36
102
{ACAD_REACTORS
330
2A
102
}
330
2A
100
AcDbVisualStyle
  2
Brighten
 70
    12
 71
     2
 72
     2
 73
     0
 90
        0
 40
-0.6
 41
-30.0
 62
     5
 63
     7
 74
     1
 91
        4
 64
     7
 65
   257
 75
     1
175
     1
 42
1.0
 92
        8
 66
     7
 43
1.0
 76
     1
 77
     6
 78
     2
 67
     7
 79
     5
170
     0
171
     0
290
     0
174
     0
 93
        1
 44
50.0
173
     0
291
     1
 45
0.0
1001
ACAD
1000
AcDbSavedByObjectVersion
1070
     0
  0
VISUALSTYLE
  5
3A
102
{ACAD_REACTORS
330
2A
102
}
330
2A
100
AcDbVisualStyle
  2
ColorChange
 70
    16
 71
     2
 72
     2
 73
     3
 90
        0
 40
-0.6
 41
-30.0
 62
     5
 63
     8
 74
     1
 91
        4
 64
     7
 65
   257
 75
     1
175
     1
 42
1.0
 92
        8
 66
     8
 43
1.0
 76
     1
 77
     6
 78
     2
 67
     7
 79
     5
170
     0
171
     0
290
     0
174
     0
 93
        1
 44
0.0
173
     0
291
     1
 45
0.0
1001
ACAD
1000
AcDbSavedByObjectVersion
1070
     0
  0
VISUALSTYLE
  5
34
102
{ACAD_REACTORS
330
2A
102
}
330
2A
100
AcDbVisualStyle
  2
Conceptual
 70
     9
 71
     3
 72
     2
 73
     0
 90
        0
 40
-0.6
 41
-30.0
 62
     5
 63
     7
 74
     2
 91
        2
 64
     7
 65
   257
 75
     1
175
     1
 42
40.0
 92
        8
 66
     7
 43
1.0
 76
     1
 77
     6
 78
     2
 67
     7
 79
     3
170
     0
171
     0
290
     0
174
     0
 93
        1
 44
0.0
173
     0
291
     0
 45
0.0
1001
ACAD
1000
AcDbSavedByObjectVersion
1070
     0
  0
VISUALSTYLE
  5
35
102
{ACAD_REACTORS
330
2A
102
}
330
2A
100
AcDbVisualStyle
  2
Dim
 70
    11
 71
     2
 72
     2
 73
     0
 90
        0
 40
-0.6
 41
-30.0
 62
     5
 63
     7
 74
     1
 91
        4
 64
     7
 65
   257
 75
     1
175
     1
 42
1.0
 92
        8
 66
     7
 43
1.0
 76
     1
 77
     6
 78
     2
 67
     7
 79
     5
170
     0
171
     0
290
     0
174
     0
 93
        1
 44
-50.0
173
     0
291
     1
 45
0.0
1001
ACAD
1000
AcDbSavedByObjectVersion
1070
     0
  0
VISUALSTYLE
  5
39
102
{ACAD_REACTORS
330
2A
102
}
330
2A
100
AcDbVisualStyle
  2
Facepattern
 70
    15
 71
     2
 72
     2
 73
     0
 90
        0
 40
-0.6
 41
-30.0
 62
     5
 63
     7
 74
     1
 91
        4
 64
     7
 65
   257
 75
     1
175
     1
 42
1.0
 92
        8
 66
     7
 43
1.0
 76
     1
 77
     6
 78
     2
 67
     7
 79
     5
170
     0
171
     0
290
     0
174
     0
 93
        1
 44
0.0
173
     0
291
     1
 45
0.0
1001
ACAD
1000
AcDbSavedByObjectVersion
1070
     0
  0
VISUALSTYLE
  5
2B
102
{ACAD_REACTORS
330
2A
102
}
330
2A
100
AcDbVisualStyle
  2
Flat
 70
     0
 71
     2
 72
     1
 73
     1
 90
        2
 40
-0.6
 41
30.0
 62
     5
 63
     7
 74
     0
 91
        4
 64
     7
 65
   257
 75
     1
175
     1
 42
1.0
 92
        8
 66
     7
 43
1.0
 76
     1
 77
     6
 78
     2
 67
     7
 79
     5
170
     0
171
     0
290
     0
174
     0
 93
       13
 44
0.0
173
     0
291
     1
 45
0.0
1001
ACAD
1000
AcDbSavedByObjectVersion
1070
     0
  0
VISUALSTYLE
  5
2C
102
{ACAD_REACTORS
330
2A
102
}
330
2A
100
AcDbVisualStyle
  2
FlatWithEdges
 70
     1
 71
     2
 72
     1
 73
     1
 90
        2
 40
-0.6
 41
30.0
 62
     5
 63
     7
 74
     1
 91
        4
 64
     7
 65
   257
 75
     1
175
     1
 42
1.0
 92
        0
 66
   257
 43
1.0
 76
     1
 77
     6
 78
     2
 67
     7
 79
     5
170
     0
171
     0
290
     0
174
     0
 93
       13
 44
0.0
173
     0
291
     1
 45
0.0
1001
ACAD
1000
AcDbSavedByObjectVersion
1070
     0
  0
VISUALSTYLE
  5
2D
102
{ACAD_REACTORS
330
2A
102
}
330
2A
100
AcDbVisualStyle
  2
Gouraud
 70
     2
 71
     2
 72
     2
 73
     1
 90
        2
 40
-0.6
 41
30.0
 62
     5
 63
     7
 74
     0
 91
        4
 64
     7
 65
   257
 75
     1
175
     1
 42
1.0
 92
        0
 66
     7
 43
1.0
 76
     1
 77
     6
 78
     2
 67
     7
 79
     5
170
     0
171
     0
290
     0
174
     0
 93
       13
 44
0.0
173
     0
291
     1
 45
0.0
1001
ACAD
1000
AcDbSavedByObjectVersion
1070
     0
  0
VISUALSTYLE
  5
2E
102
{ACAD_REACTORS
330
2A
102
}
330
2A
100
AcDbVisualStyle
  2
GouraudWithEdges
 70
     3
 71
     2
 72
     2
 73
     1
 90
        2
 40
-0.6
 41
30.0
 62
     5
 63
     7
 74
     1
 91
        4
 64
     7
 65
   257
 75
     1
175
     1
 42
1.0
 92
        0
 66
   257
 43
1.0
 76
     1
 77
     6
 78
     2
 67
     7
 79
     5
170
     0
171
     0
290
     0
174
     0
 93
       13
 44
0.0
173
     0
291
     1
 45
0.0
1001
ACAD
1000
AcDbSavedByObjectVersion
1070
     0
  0
VISUALSTYLE
  5
38
102
{ACAD_REACTORS
330
2A
102
}
330
2A
100
AcDbVisualStyle
  2
Linepattern
 70
    14
 71
     2
 72
     2
 73
     0
 90
        0
 40
-0.6
 41
-30.0
 62
     5
 63
     7
 74
     1
 91
        4
 64
     7
 65
   257
 75
     7
175
     7
 42
1.0
 92
        8
 66
     7
 43
1.0
 76
     1
 77
     6
 78
     2
 67
     7
 79
     5
170
     0
171
     0
290
     0
174
     0
 93
        1
 44
0.0
173
     0
291
     1
 45
0.0
1001
ACAD
1000
AcDbSavedByObjectVersion
1070
     0
  0
VISUALSTYLE
  5
33
102
{ACAD_REACTORS
330
2A
102
}
330
2A
100
AcDbVisualStyle
  2
Realistic
 70
     8
 71
     2
 72
     2
 73
     0
 90
        0
 40
-0.6
 41
-30.0
 62
     5
 63
     7
 74
     1
 91
        0
 64
     7
 65
   257
 75
     1
175
     1
 42
1.0
 92
        8
 66
     8
 43
1.0
 76
     1
 77
     6
 78
     2
 67
     7
 79
     5
170
     0
171
     0
290
     0
174
     0
 93
       13
 44
0.0
173
     0
291
     0
 45
0.0
1001
ACAD
1000
AcDbSavedByObjectVersion
1070
     0
  0
VISUALSTYLE
  5
37
102
{ACAD_REACTORS
330
2A
102
}
330
2A
100
AcDbVisualStyle
  2
Thicken
 70
    13
 71
     2
 72
     2
 73
     0
 90
        0
 40
-0.6
 41
-30.0
 62
     5
 63
     7
 74
     1
 91
        4
 64
     7
 65
   257
 75
     1
175
     1
 42
1.0
 92
       12
 66
     7
 43
1.0
 76
     1
 77
     6
 78
     2
 67
     7
 79
     5
170
     0
171
     0
290
     0
174
     0
 93
        1
 44
0.0
173
     0
291
     1
 45
0.0
1001
ACAD
1000
AcDbSavedByObjectVersion
1070
     0
  0
XRECORD
  5
747
102
{ACAD_REACTORS
330
73E
102
}
330
73E
100
AcDbXrecord
 90
        0
  0
XRECORD
  5
75D
102
{ACAD_REACTORS
330
73E
102
}
330
73E
100
AcDbXrecord
1000
DSTYLE
1002
{
1070
   340
340
11
1002
}
  0
XRECORD
  5
748
102
{ACAD_REACTORS
330
73E
102
}
330
73E
100
AcDbXrecord
  1
{500D7FDD-552D-4018-A3C7-87AD6D960804}
  0
XRECORD
  5
741
102
{ACAD_REACTORS
330
73E
102
}
330
73E
100
AcDbXrecord
  1

  0
XRECORD
  5
746
102
{ACAD_REACTORS
330
73E
102
}
330
73E
100
AcDbXrecord
 90
        1
  0
XRECORD
  5
743
102
{ACAD_REACTORS
330
73E
102
}
330
73E
100
AcDbXrecord
340
1A
  0
XRECORD
  5
745
102
{ACAD_REACTORS
330
73E
102
}
330
73E
100
AcDbXrecord
 90
    10269
  0
XRECORD
  5
744
102
{ACAD_REACTORS
330
73E
102
}
330
73E
100
AcDbXrecord
340
19
  0
XRECORD
  5
74A
102
{ACAD_REACTORS
330
73E
102
}
330
73E
100
AcDbXrecord
 40
0.0
  0
XRECORD
  5
74D
102
{ACAD_REACTORS
330
73E
102
}
330
73E
100
AcDbXrecord
340
0
  0
XRECORD
  5
753
102
{ACAD_REACTORS
330
73E
102
}
330
73E
100
AcDbXrecord
 10
0.0
 20
0.0
 30
0.0
  0
XRECORD
  5
74F
102
{ACAD_REACTORS
330
73E
102
}
330
73E
100
AcDbXrecord
 10
0.0
 20
0.0
 30
0.0
  0
XRECORD
  5
752
102
{ACAD_REACTORS
330
73E
102
}
330
73E
100
AcDbXrecord
 10
0.0
 20
0.0
 30
0.0
  0
XRECORD
  5
750
102
{ACAD_REACTORS
330
73E
102
}
330
73E
100
AcDbXrecord
 10
0.0
 20
0.0
 30
0.0
  0
XRECORD
  5
751
102
{ACAD_REACTORS
330
73E
102
}
330
73E
100
AcDbXrecord
 10
0.0
 20
0.0
 30
0.0
  0
XRECORD
  5
74E
102
{ACAD_REACTORS
330
73E
102
}
330
73E
100
AcDbXrecord
 10
0.0
 20
0.0
 30
0.0
  0
XRECORD
  5
74B
102
{ACAD_REACTORS
330
73E
102
}
330
73E
100
AcDbXrecord
340
0
  0
XRECORD
  5
74C
102
{ACAD_REACTORS
330
73E
102
}
330
73E
100
AcDbXrecord
 70
     0
  0
XRECORD
  5
742
102
{ACAD_REACTORS
330
73E
102
}
330
73E
100
AcDbXrecord
  1

  0
XRECORD
  5
73F
102
{ACAD_REACTORS
330
73E
102
}
330
73E
100
AcDbXrecord
 90
        1
  0
XRECORD
  5
740
102
{ACAD_REACTORS
330
73E
102
}
330
73E
100
AcDbXrecord
 90
       70
  0
XRECORD
  5
756
102
{ACAD_REACTORS
330
73E
102
}
330
73E
100
AcDbXrecord
340
0
  0
XRECORD
  5
75C
102
{ACAD_REACTORS
330
73E
102
}
330
73E
100
AcDbXrecord
 10
0.0
 20
0.0
 30
0.0
  0
XRECORD
  5
758
102
{ACAD_REACTORS
330
73E
102
}
330
73E
100
AcDbXrecord
 10
0.0
 20
0.0
 30
0.0
  0
XRECORD
  5
75B
102
{ACAD_REACTORS
330
73E
102
}
330
73E
100
AcDbXrecord
 10
0.0
 20
0.0
 30
0.0
  0
XRECORD
  5
759
102
{ACAD_REACTORS
330
73E
102
}
330
73E
100
AcDbXrecord
 10
0.0
 20
0.0
 30
0.0
  0
XRECORD
  5
75A
102
{ACAD_REACTORS
330
73E
102
}
330
73E
100
AcDbXrecord
 10
0.0
 20
0.0
 30
0.0
  0
XRECORD
  5
757
102
{ACAD_REACTORS
330
73E
102
}
330
73E
100
AcDbXrecord
 10
0.0
 20
0.0
 30
0.0
  0
XRECORD
  5
754
102
{ACAD_REACTORS
330
73E
102
}
330
73E
100
AcDbXrecord
340
0
  0
XRECORD
  5
755
102
{ACAD_REACTORS
330
73E
102
}
330
73E
100
AcDbXrecord
 70
     0
  0
XRECORD
  5
749
102
{ACAD_REACTORS
330
73E
102
}
330
73E
100
AcDbXrecord
  1
{FAEB1C32-E019-11D5-929B-00C0DF256EC4}
  0
ENDSEC
  0
EOF
