  0
SECTION
  2
HEADER
  9
$ACADVER
  1
AC1032
  9
$ACADMAINTVER
 90
      228
  9
$DWGCODEPAGE
  3
ANSI_1252
  9
$REQUIREDVERSIONS
160
                 0
  9
$INSBASE
 10
0.0
 20
0.0
 30
0.0
  9
$EXTMIN
 10
1.000000000000000E+20
 20
1.000000000000000E+20
 30
1.000000000000000E+20
  9
$EXTMAX
 10
-1.000000000000000E+20
 20
-1.000000000000000E+20
 30
-1.000000000000000E+20
  9
$LIMMIN
 10
0.0
 20
0.0
  9
$LIMMAX
 10
12.0
 20
9.0
  9
$ORTHOMODE
 70
     0
  9
$REGENMODE
 70
     1
  9
$FILLMODE
 70
     1
  9
$QTEXTMODE
 70
     0
  9
$MIRRTEXT
 70
     0
  9
$LTSCALE
 40
1.0
  9
$ATTMODE
 70
     1
  9
$TEXTSIZE
 40
0.2
  9
$TRACEWID
 40
0.05
  9
$TEXTSTYLE
  7
Standard
  9
$CLAYER
  8
0
  9
$CELTYPE
  6
ByLayer
  9
$CECOLOR
 62
   256
  9
$CELTSCALE
 40
1.0
  9
$DISPSILH
 70
     0
  9
$DIMSCALE
 40
1.0
  9
$DIMASZ
 40
0.18
  9
$DIMEXO
 40
0.0625
  9
$DIMDLI
 40
0.38
  9
$DIMRND
 40
0.0
  9
$DIMDLE
 40
0.0
  9
$DIMEXE
 40
0.18
  9
$DIMTP
 40
0.0
  9
$DIMTM
 40
0.0
  9
$DIMTXT
 40
0.18
  9
$DIMCEN
 40
0.09
  9
$DIMTSZ
 40
0.0
  9
$DIMTOL
 70
     0
  9
$DIMLIM
 70
     0
  9
$DIMTIH
 70
     1
  9
$DIMTOH
 70
     1
  9
$DIMSE1
 70
     0
  9
$DIMSE2
 70
     0
  9
$DIMTAD
 70
     0
  9
$DIMZIN
 70
     0
  9
$DIMBLK
  1

  9
$DIMASO
 70
     1
  9
$DIMSHO
 70
     1
  9
$DIMPOST
  1

  9
$DIMAPOST
  1

  9
$DIMALT
 70
     0
  9
$DIMALTD
 70
     2
  9
$DIMALTF
 40
25.4
  9
$DIMLFAC
 40
1.0
  9
$DIMTOFL
 70
     0
  9
$DIMTVP
 40
0.0
  9
$DIMTIX
 70
     0
  9
$DIMSOXD
 70
     0
  9
$DIMSAH
 70
     0
  9
$DIMBLK1
  1

  9
$DIMBLK2
  1

  9
$DIMSTYLE
  2
Standard
  9
$DIMCLRD
 70
     0
  9
$DIMCLRE
 70
     0
  9
$DIMCLRT
 70
     0
  9
$DIMTFAC
 40
1.0
  9
$DIMGAP
 40
0.09
  9
$DIMJUST
 70
     0
  9
$DIMSD1
 70
     0
  9
$DIMSD2
 70
     0
  9
$DIMTOLJ
 70
     1
  9
$DIMTZIN
 70
     0
  9
$DIMALTZ
 70
     0
  9
$DIMALTTZ
 70
     0
  9
$DIMUPT
 70
     0
  9
$DIMDEC
 70
     4
  9
$DIMTDEC
 70
     4
  9
$DIMALTU
 70
     2
  9
$DIMALTTD
 70
     2
  9
$DIMTXSTY
  7
Standard
  9
$DIMAUNIT
 70
     0
  9
$DIMADEC
 70
     0
  9
$DIMALTRND
 40
0.0
  9
$DIMAZIN
 70
     0
  9
$DIMDSEP
 70
    46
  9
$DIMATFIT
 70
     3
  9
$DIMFRAC
 70
     0
  9
$DIMLDRBLK
  1

  9
$DIMLUNIT
 70
     2
  9
$DIMLWD
 70
    -2
  9
$DIMLWE
 70
    -2
  9
$DIMTMOVE
 70
     0
  9
$DIMFXL
 40
1.0
  9
$DIMFXLON
 70
     0
  9
$DIMJOGANG
 40
0.7853981633974483
  9
$DIMTFILL
 70
     0
  9
$DIMTFILLCLR
 70
     0
  9
$DIMARCSYM
 70
     0
  9
$DIMLTYPE
  6

  9
$DIMLTEX1
  6

  9
$DIMLTEX2
  6

  9
$DIMTXTDIRECTION
 70
     0
  9
$LUNITS
 70
     2
  9
$LUPREC
 70
     4
  9
$SKETCHINC
 40
0.1
  9
$FILLETRAD
 40
0.0
  9
$AUNITS
 70
     0
  9
$AUPREC
 70
     0
  9
$MENU
  1
.
  9
$ELEVATION
 40
0.0
  9
$PELEVATION
 40
0.0
  9
$THICKNESS
 40
0.0
  9
$LIMCHECK
 70
     0
  9
$CHAMFERA
 40
0.0
  9
$CHAMFERB
 40
0.0
  9
$CHAMFERC
 40
0.0
  9
$CHAMFERD
 40
0.0
  9
$SKPOLY
 70
     0
  9
$TDCREATE
 40
2460101.416388889
  9
$TDUCREATE
 40
2460101.333055555
  9
$TDUPDATE
 40
2460101.416388889
  9
$TDUUPDATE
 40
2460101.333055555
  9
$TDINDWG
 40
0.0000000000
  9
$TDUSRTIMER
 40
0.0000000000
  9
$USRTIMER
 70
     1
  9
$ANGBASE
 50
0.0
  9
$ANGDIR
 70
     0
  9
$PDMODE
 70
     0
  9
$PDSIZE
 40
0.0
  9
$PLINEWID
 40
0.0
  9
$SPLFRAME
 70
     0
  9
$SPLINETYPE
 70
     6
  9
$SPLINESEGS
 70
     8
  9
$HANDSEED
  5
2C5
  9
$SURFTAB1
 70
     6
  9
$SURFTAB2
 70
     6
  9
$SURFTYPE
 70
     6
  9
$SURFU
 70
     6
  9
$SURFV
 70
     6
  9
$UCSBASE
  2

  9
$UCSNAME
  2

  9
$UCSORG
 10
0.0
 20
0.0
 30
0.0
  9
$UCSXDIR
 10
1.0
 20
0.0
 30
0.0
  9
$UCSYDIR
 10
0.0
 20
1.0
 30
0.0
  9
$UCSORTHOREF
  2

  9
$UCSORTHOVIEW
 70
     0
  9
$UCSORGTOP
 10
0.0
 20
0.0
 30
0.0
  9
$UCSORGBOTTOM
 10
0.0
 20
0.0
 30
0.0
  9
$UCSORGLEFT
 10
0.0
 20
0.0
 30
0.0
  9
$UCSORGRIGHT
 10
0.0
 20
0.0
 30
0.0
  9
$UCSORGFRONT
 10
0.0
 20
0.0
 30
0.0
  9
$UCSORGBACK
 10
0.0
 20
0.0
 30
0.0
  9
$PUCSBASE
  2

  9
$PUCSNAME
  2

  9
$PUCSORG
 10
0.0
 20
0.0
 30
0.0
  9
$PUCSXDIR
 10
1.0
 20
0.0
 30
0.0
  9
$PUCSYDIR
 10
0.0
 20
1.0
 30
0.0
  9
$PUCSORTHOREF
  2

  9
$PUCSORTHOVIEW
 70
     0
  9
$PUCSORGTOP
 10
0.0
 20
0.0
 30
0.0
  9
$PUCSORGBOTTOM
 10
0.0
 20
0.0
 30
0.0
  9
$PUCSORGLEFT
 10
0.0
 20
0.0
 30
0.0
  9
$PUCSORGRIGHT
 10
0.0
 20
0.0
 30
0.0
  9
$PUCSORGFRONT
 10
0.0
 20
0.0
 30
0.0
  9
$PUCSORGBACK
 10
0.0
 20
0.0
 30
0.0
  9
$USERI1
 70
     0
  9
$USERI2
 70
     0
  9
$USERI3
 70
     0
  9
$USERI4
 70
     0
  9
$USERI5
 70
     0
  9
$USERR1
 40
0.0
  9
$USERR2
 40
0.0
  9
$USERR3
 40
0.0
  9
$USERR4
 40
0.0
  9
$USERR5
 40
0.0
  9
$WORLDVIEW
 70
     1
  9
$SHADEDGE
 70
     3
  9
$SHADEDIF
 70
    70
  9
$TILEMODE
 70
     1
  9
$MAXACTVP
 70
    64
  9
$PINSBASE
 10
0.0
 20
0.0
 30
0.0
  9
$PLIMCHECK
 70
     0
  9
$PEXTMIN
 10
1.000000000000000E+20
 20
1.000000000000000E+20
 30
1.000000000000000E+20
  9
$PEXTMAX
 10
-1.000000000000000E+20
 20
-1.000000000000000E+20
 30
-1.000000000000000E+20
  9
$PLIMMIN
 10
0.0
 20
0.0
  9
$PLIMMAX
 10
12.0
 20
9.0
  9
$UNITMODE
 70
     0
  9
$VISRETAIN
 70
     1
  9
$PLINEGEN
 70
     0
  9
$PSLTSCALE
 70
     1
  9
$TREEDEPTH
 70
  3020
  9
$CMLSTYLE
  2
Standard
  9
$CMLJUST
 70
     0
  9
$CMLSCALE
 40
1.0
  9
$PROXYGRAPHICS
 70
     1
  9
$MEASUREMENT
 70
     0
  9
$CELWEIGHT
370
    -1
  9
$ENDCAPS
280
     0
  9
$JOINSTYLE
280
     0
  9
$LWDISPLAY
290
     1
  9
$INSUNITS
 70
     4
  9
$HYPERLINKBASE
  1

  9
$STYLESHEET
  1

  9
$XEDIT
290
     1
  9
$CEPSNTYPE
380
     0
  9
$PSTYLEMODE
290
     1
  9
$FINGERPRINTGUID
  2
{244C3895-EE3D-8E4F-80F5-9702D939FD9B}
  9
$VERSIONGUID
  2
{C768730F-B529-6843-AC73-1668CA2CDF2D}
  9
$EXTNAMES
290
     1
  9
$PSVPSCALE
 40
0.0
  9
$OLESTARTUP
290
     0
  9
$SORTENTS
280
   127
  9
$INDEXCTL
280
     0
  9
$HIDETEXT
280
     1
  9
$XCLIPFRAME
280
     2
  9
$HALOGAP
280
     0
  9
$OBSCOLOR
 70
   257
  9
$OBSLTYPE
280
     0
  9
$INTERSECTIONDISPLAY
280
     0
  9
$INTERSECTIONCOLOR
 70
   257
  9
$DIMASSOC
280
     2
  9
$PROJECTNAME
  1

  9
$CAMERADISPLAY
290
     0
  9
$LENSLENGTH
 40
50.0
  9
$CAMERAHEIGHT
 40
0.0
  9
$STEPSPERSEC
 40
2.0
  9
$STEPSIZE
 40
6.0
  9
$3DDWFPREC
 40
2.0
  9
$PSOLWIDTH
 40
0.25
  9
$PSOLHEIGHT
 40
4.0
  9
$LOFTANG1
 40
1.570796326794896
  9
$LOFTANG2
 40
1.570796326794896
  9
$LOFTMAG1
 40
0.0
  9
$LOFTMAG2
 40
0.0
  9
$LOFTPARAM
 70
     7
  9
$LOFTNORMALS
280
     1
  9
$LATITUDE
 40
37.795
  9
$LONGITUDE
 40
-122.394
  9
$NORTHDIRECTION
 40
0.0
  9
$TIMEZONE
 70
 -8000
  9
$LIGHTGLYPHDISPLAY
280
     1
  9
$TILEMODELIGHTSYNCH
280
     1
  9
$CMATERIAL
347
11
  9
$SOLIDHIST
280
     0
  9
$SHOWHIST
280
     1
  9
$DWFFRAME
280
     2
  9
$DGNFRAME
280
     0
  9
$REALWORLDSCALE
290
     1
  9
$INTERFERECOLOR
 62
     1
  9
$INTERFEREOBJVS
345
33
  9
$INTERFEREVPVS
346
30
  9
$CSHADOW
280
     0
  9
$SHADOWPLANELOCATION
 40
0.0
  0
ENDSEC
  0
SECTION
  2
CLASSES
  0
CLASS
  1
ACDBDICTIONARYWDFLT
  2
AcDbDictionaryWithDefault
  3
ObjectDBX Classes
 90
        0
 91
        1
280
     0
281
     0
  0
CLASS
  1
MATERIAL
  2
AcDbMaterial
  3
ObjectDBX Classes
 90
     1153
 91
        3
280
     0
281
     0
  0
CLASS
  1
VISUALSTYLE
  2
AcDbVisualStyle
  3
ObjectDBX Classes
 90
     4095
 91
       24
280
     0
281
     0
  0
CLASS
  1
SCALE
  2
AcDbScale
  3
ObjectDBX Classes
 90
     1153
 91
       17
280
     0
281
     0
  0
CLASS
  1
TABLESTYLE
  2
AcDbTableStyle
  3
ObjectDBX Classes
 90
     4095
 91
        1
280
     0
281
     0
  0
CLASS
  1
MLEADERSTYLE
  2
AcDbMLeaderStyle
  3
ACDB_MLEADERSTYLE_CLASS
 90
     4095
 91
        1
280
     0
281
     0
  0
CLASS
  1
ACDBSECTIONVIEWSTYLE
  2
AcDbSectionViewStyle
  3
ObjectDBX Classes
 90
     1025
 91
        1
280
     0
281
     0
  0
CLASS
  1
ACDBDETAILVIEWSTYLE
  2
AcDbDetailViewStyle
  3
ObjectDBX Classes
 90
     1025
 91
        1
280
     0
281
     0
  0
CLASS
  1
DICTIONARYVAR
  2
AcDbDictionaryVar
  3
ObjectDBX Classes
 90
        0
 91
        5
280
     0
281
     0
  0
CLASS
  1
CELLSTYLEMAP
  2
AcDbCellStyleMap
  3
ObjectDBX Classes
 90
     1152
 91
        1
280
     0
281
     0
  0
ENDSEC
  0
SECTION
  2
TABLES
  0
TABLE
  2
VPORT
  5
8
330
0
100
AcDbSymbolTable
 70
     1
  0
VPORT
  5
57
330
8
100
AcDbSymbolTableRecord
100
AcDbViewportTableRecord
  2
*Active
 70
     0
 10
0.0
 20
0.0
 11
1.0
 21
1.0
 12
0.0
 22
0.0
 13
0.0
 23
0.0
 14
1.0
 24
1.0
 15
0.0
 25
0.0
 16
0.0
 26
0.0
 36
1.0
 17
-79.51625220234365
 27
-102.20055122445
 37
0.0
 40
183.6044476515478
 41
0.9292963872047192
 42
50.0
 43
0.0
 44
0.0
 50
0.0
 51
0.0
 71
     0
 72
   100
 73
     1
 74
     1
 75
     0
 76
     0
 77
     0
 78
     0
281
     0
 65
     1
110
0.0
120
0.0
130
0.0
111
1.0
121
0.0
131
0.0
112
0.0
122
1.0
132
0.0
 79
     0
146
0.0
 60
     3
 61
     5
292
     1
282
     1
141
0.0
142
0.0
 63
   250
421
  3355443
  0
ENDTAB
  0
TABLE
  2
LTYPE
  5
5
330
0
100
AcDbSymbolTable
 70
     6
  0
LTYPE
  5
5B
330
5
100
AcDbSymbolTableRecord
100
AcDbLinetypeTableRecord
  2
ByBlock
 70
     0
  3

 72
    65
 73
     0
 40
0.0
  0
LTYPE
  5
5C
330
5
100
AcDbSymbolTableRecord
100
AcDbLinetypeTableRecord
  2
ByLayer
 70
     0
  3

 72
    65
 73
     0
 40
0.0
  0
LTYPE
  5
5D
330
5
100
AcDbSymbolTableRecord
100
AcDbLinetypeTableRecord
  2
Continuous
 70
     0
  3
Solid line
 72
    65
 73
     0
 40
0.0
  0
LTYPE
  5
D6
330
5
100
AcDbSymbolTableRecord
100
AcDbLinetypeTableRecord
  2
AI-Linetype-0
 70
     0
  3
Adobe Illustrator Linetype No. 0
 72
    65
 73
     4
 40
8.819444442239584
 49
7.055555553791666
 74
     0
 49
-0.7055555553791667
 74
     0
 49
0.3527777776895833
 74
     0
 49
-0.7055555553791667
 74
     0
  0
LTYPE
  5
D8
330
5
100
AcDbSymbolTableRecord
100
AcDbLinetypeTableRecord
  2
AI-Linetype-1
 70
     0
  3
Adobe Illustrator Linetype No. 1
 72
    65
 73
     4
 40
8.819444442239584
 49
7.055555553791666
 74
     0
 49
-0.7055555553791667
 74
     0
 49
0.3527777776895833
 74
     0
 49
-0.7055555553791667
 74
     0
  0
LTYPE
  5
DA
330
5
100
AcDbSymbolTableRecord
100
AcDbLinetypeTableRecord
  2
AI-Linetype-2
 70
     0
  3
Adobe Illustrator Linetype No. 2
 72
    65
 73
     4
 40
8.819444442239584
 49
7.055555553791666
 74
     0
 49
-0.7055555553791667
 74
     0
 49
0.3527777776895833
 74
     0
 49
-0.7055555553791667
 74
     0
  0
LTYPE
  5
DC
330
5
100
AcDbSymbolTableRecord
100
AcDbLinetypeTableRecord
  2
AI-Linetype-3
 70
     0
  3
Adobe Illustrator Linetype No. 3
 72
    65
 73
     4
 40
8.819444442239584
 49
7.055555553791666
 74
     0
 49
-0.7055555553791667
 74
     0
 49
0.3527777776895833
 74
     0
 49
-0.7055555553791667
 74
     0
  0
LTYPE
  5
DE
330
5
100
AcDbSymbolTableRecord
100
AcDbLinetypeTableRecord
  2
AI-Linetype-4
 70
     0
  3
Adobe Illustrator Linetype No. 4
 72
    65
 73
     4
 40
8.819444442239584
 49
7.055555553791666
 74
     0
 49
-0.7055555553791667
 74
     0
 49
0.3527777776895833
 74
     0
 49
-0.7055555553791667
 74
     0
  0
ENDTAB
  0
TABLE
  2
LAYER
  5
2
330
0
100
AcDbSymbolTable
 70
     5
  0
LAYER
  5
54
330
2
100
AcDbSymbolTableRecord
100
AcDbLayerTableRecord
  2
0
 70
     0
 62
     7
  6
Continuous
370
    -3
390
F
347
21
348
0
  0
LAYER
  5
78
330
2
100
AcDbSymbolTableRecord
100
AcDbLayerTableRecord
  2
grau 10%
 70
     5
 62
     7
  6
Continuous
370
     0
390
F
347
21
348
0
  0
LAYER
  5
7D
330
2
100
AcDbSymbolTableRecord
100
AcDbLayerTableRecord
  2
Standardebene
 70
     0
 62
     7
  6
Continuous
370
     0
390
F
347
21
348
0
  0
LAYER
  5
176
330
2
100
AcDbSymbolTableRecord
100
AcDbLayerTableRecord
  2
Bemaßung
 70
     5
 62
     7
  6
Continuous
370
     0
390
F
347
21
348
0
  0
LAYER
  5
252
330
2
100
AcDbSymbolTableRecord
100
AcDbLayerTableRecord
  2
Text
 70
     5
 62
     7
  6
Continuous
370
     0
390
F
347
21
348
0
  0
ENDTAB
  0
TABLE
  2
STYLE
  5
3
330
0
100
AcDbSymbolTable
 70
     2
  0
STYLE
  5
55
330
3
100
AcDbSymbolTableRecord
100
AcDbTextStyleTableRecord
  2
Standard
 70
     0
 40
0.0
 41
1.0
 50
0.0
 71
     0
 42
0.2
  3
txt
  4

  0
STYLE
  5
5A
330
3
100
AcDbSymbolTableRecord
100
AcDbTextStyleTableRecord
  2
Annotative
 70
     0
 40
0.0
 41
1.0
 50
0.0
 71
     0
 42
0.2
  3
txt
  4

1001
AcadAnnotative
1000
AnnotativeData
1002
{
1070
     1
1070
     1
1002
}
  0
ENDTAB
  0
TABLE
  2
VIEW
  5
6
330
0
100
AcDbSymbolTable
 70
     0
  0
ENDTAB
  0
TABLE
  2
UCS
  5
7
330
0
100
AcDbSymbolTable
 70
     0
  0
ENDTAB
  0
TABLE
  2
APPID
  5
9
330
0
100
AcDbSymbolTable
 70
     2
  0
APPID
  5
56
330
9
100
AcDbSymbolTableRecord
100
AcDbRegAppTableRecord
  2
ACAD
 70
     0
  0
APPID
  5
5E
330
9
100
AcDbSymbolTableRecord
100
AcDbRegAppTableRecord
  2
AcadAnnotative
 70
     0
  0
ENDTAB
  0
TABLE
  2
DIMSTYLE
  5
A
330
0
100
AcDbSymbolTable
 70
     2
100
AcDbDimStyleTable
 71
     0
  0
DIMSTYLE
105
58
330
A
100
AcDbSymbolTableRecord
100
AcDbDimStyleTableRecord
  2
Standard
 70
     0
340
55
  0
DIMSTYLE
105
59
330
A
100
AcDbSymbolTableRecord
100
AcDbDimStyleTableRecord
  2
Annotative
 70
     0
340
55
1001
AcadAnnotative
1000
AnnotativeData
1002
{
1070
     1
1070
     1
1002
}
  0
ENDTAB
  0
TABLE
  2
BLOCK_RECORD
  5
1
330
0
100
AcDbSymbolTable
 70
     1
  0
BLOCK_RECORD
  5
70
330
1
100
AcDbSymbolTableRecord
100
AcDbBlockTableRecord
  2
*Model_Space
340
73
 70
     0
280
     1
281
     0
  0
BLOCK_RECORD
  5
6C
330
1
100
AcDbSymbolTableRecord
100
AcDbBlockTableRecord
  2
*Paper_Space
340
6F
 70
     0
280
     1
281
     0
  0
BLOCK_RECORD
  5
74
330
1
100
AcDbSymbolTableRecord
100
AcDbBlockTableRecord
  2
*Paper_Space0
340
77
 70
     0
280
     1
281
     0
  0
ENDTAB
  0
ENDSEC
  0
SECTION
  2
BLOCKS
  0
BLOCK
  5
71
330
70
100
AcDbEntity
  8
0
100
AcDbBlockBegin
  2
*Model_Space
 70
     0
 10
0.0
 20
0.0
 30
0.0
  3
*Model_Space
  1

  0
ENDBLK
  5
72
330
70
100
AcDbEntity
  8
0
100
AcDbBlockEnd
  0
BLOCK
  5
6D
330
6C
100
AcDbEntity
 67
     1
  8
0
100
AcDbBlockBegin
  2
*Paper_Space
 70
     0
 10
0.0
 20
0.0
 30
0.0
  3
*Paper_Space
  1

  0
ENDBLK
  5
6E
330
6C
100
AcDbEntity
 67
     1
  8
0
100
AcDbBlockEnd
  0
BLOCK
  5
75
330
74
100
AcDbEntity
 67
     1
  8
0
100
AcDbBlockBegin
  2
*Paper_Space0
 70
     0
 10
0.0
 20
0.0
 30
0.0
  3
*Paper_Space0
  1

  0
ENDBLK
  5
76
330
74
100
AcDbEntity
 67
     1
  8
0
100
AcDbBlockEnd
  0
ENDSEC
  0
SECTION
  2
ENTITIES
  0
SPLINE
  5
79
330
70
100
AcDbEntity
  8
grau 10%
100
AcDbSpline
210
0.0
220
0.0
230
1.0
 70
    11
 71
     3
 72
   224
 73
   220
 74
     0
 42
0.0000000001
 43
0.0000000001
 40
0.0
 40
0.0
 40
0.0
 40
0.0
 40
1.0
 40
1.0
 40
1.0
 40
2.0
 40
2.0
 40
2.0
 40
3.0
 40
3.0
 40
3.0
 40
4.0
 40
4.0
 40
4.0
 40
5.0
 40
5.0
 40
5.0
 40
6.0
 40
6.0
 40
6.0
 40
7.0
 40
7.0
 40
7.0
 40
8.0
 40
8.0
 40
8.0
 40
9.0
 40
9.0
 40
9.0
 40
10.0
 40
10.0
 40
10.0
 40
11.0
 40
11.0
 40
11.0
 40
12.0
 40
12.0
 40
12.0
 40
13.0
 40
13.0
 40
13.0
 40
14.0
 40
14.0
 40
14.0
 40
15.0
 40
15.0
 40
15.0
 40
16.0
 40
16.0
 40
16.0
 40
17.0
 40
17.0
 40
17.0
 40
18.0
 40
18.0
 40
18.0
 40
19.0
 40
19.0
 40
19.0
 40
20.0
 40
20.0
 40
20.0
 40
21.0
 40
21.0
 40
21.0
 40
22.0
 40
22.0
 40
22.0
 40
23.0
 40
23.0
 40
23.0
 40
24.0
 40
24.0
 40
24.0
 40
25.0
 40
25.0
 40
25.0
 40
26.0
 40
26.0
 40
26.0
 40
27.0
 40
27.0
 40
27.0
 40
28.0
 40
28.0
 40
28.0
 40
29.0
 40
29.0
 40
29.0
 40
30.0
 40
30.0
 40
30.0
 40
31.0
 40
31.0
 40
31.0
 40
32.0
 40
32.0
 40
32.0
 40
33.0
 40
33.0
 40
33.0
 40
34.0
 40
34.0
 40
34.0
 40
35.0
 40
35.0
 40
35.0
 40
36.0
 40
36.0
 40
36.0
 40
37.0
 40
37.0
 40
37.0
 40
38.0
 40
38.0
 40
38.0
 40
39.0
 40
39.0
 40
39.0
 40
40.0
 40
40.0
 40
40.0
 40
41.0
 40
41.0
 40
41.0
 40
42.0
 40
42.0
 40
42.0
 40
43.0
 40
43.0
 40
43.0
 40
44.0
 40
44.0
 40
44.0
 40
45.0
 40
45.0
 40
45.0
 40
46.0
 40
46.0
 40
46.0
 40
47.0
 40
47.0
 40
47.0
 40
48.0
 40
48.0
 40
48.0
 40
49.0
 40
49.0
 40
49.0
 40
50.0
 40
50.0
 40
50.0
 40
51.0
 40
51.0
 40
51.0
 40
52.0
 40
52.0
 40
52.0
 40
53.0
 40
53.0
 40
53.0
 40
54.0
 40
54.0
 40
54.0
 40
55.0
 40
55.0
 40
55.0
 40
56.0
 40
56.0
 40
56.0
 40
57.0
 40
57.0
 40
57.0
 40
58.0
 40
58.0
 40
58.0
 40
59.0
 40
59.0
 40
59.0
 40
60.0
 40
60.0
 40
60.0
 40
61.0
 40
61.0
 40
61.0
 40
62.0
 40
62.0
 40
62.0
 40
63.0
 40
63.0
 40
63.0
 40
64.0
 40
64.0
 40
64.0
 40
65.0
 40
65.0
 40
65.0
 40
66.0
 40
66.0
 40
66.0
 40
67.0
 40
67.0
 40
67.0
 40
68.0
 40
68.0
 40
68.0
 40
69.0
 40
69.0
 40
69.0
 40
70.0
 40
70.0
 40
70.0
 40
71.0
 40
71.0
 40
71.0
 40
72.0
 40
72.0
 40
72.0
 40
73.0
 40
73.0
 40
73.0
 40
73.0
 10
-88.63195942228653
 20
-100.6589652526132
 30
0.0
 10
-88.63195942228653
 20
-100.6589652526132
 30
0.0
 10
-82.71174859043309
 20
-100.6589652526132
 30
0.0
 10
-82.71174859043309
 20
-100.6589652526132
 30
0.0
 10
-82.71174859043309
 20
-100.6589652526132
 30
0.0
 10
-82.71174859043309
 20
-107.299901084286
 30
0.0
 10
-82.71174859043309
 20
-107.299901084286
 30
0.0
 10
-82.71174859043309
 20
-107.299901084286
 30
0.0
 10
-88.53999025564291
 20
-107.299901084286
 30
0.0
 10
-88.53999025564291
 20
-107.299901084286
 30
0.0
 10
-88.53999025564291
 20
-107.299901084286
 30
0.0
 10
-88.63195942228653
 20
-107.3305574731673
 30
0.0
 10
-88.63195942228653
 20
-107.3305574731673
 30
0.0
 10
-88.63195942228653
 20
-107.3305574731673
 30
0.0
 10
-88.63195942228653
 20
-147.1772307965388
 30
0.0
 10
-88.63195942228653
 20
-147.1772307965388
 30
0.0
 10
-88.63195942228653
 20
-147.1772307965388
 30
0.0
 10
-88.84676581112177
 20
-148.8798069072247
 30
0.0
 10
-88.84676581112177
 20
-148.8798069072247
 30
0.0
 10
-88.84676581112177
 20
-148.8798069072247
 30
0.0
 10
-88.64748164450482
 20
-149.2325846849143
 30
0.0
 10
-88.64748164450482
 20
-149.2325846849143
 30
0.0
 10
-88.64748164450482
 20
-149.2325846849143
 30
0.0
 10
-88.64748164450482
 20
-149.6005319070444
 30
0.0
 10
-88.64748164450482
 20
-149.6005319070444
 30
0.0
 10
-88.64748164450482
 20
-149.6005319070444
 30
0.0
 10
-88.83145525556988
 20
-149.9381402402935
 30
0.0
 10
-88.83145525556988
 20
-149.9381402402935
 30
0.0
 10
-88.83145525556988
 20
-149.9381402402935
 30
0.0
 10
-89.16888719993004
 20
-150.1527702402395
 30
0.0
 10
-89.16888719993004
 20
-150.1527702402395
 30
0.0
 10
-89.16888719993004
 20
-150.1527702402395
 30
0.0
 10
-103.8468769184827
 20
-150.1527702402395
 30
0.0
 10
-103.8468769184827
 20
-150.1527702402395
 30
0.0
 10
-103.8468769184827
 20
-150.1527702402395
 30
0.0
 10
-104.1995135850612
 20
-149.8768274625309
 30
0.0
 10
-104.1995135850612
 20
-149.8768274625309
 30
0.0
 10
-104.1995135850612
 20
-149.8768274625309
 30
0.0
 10
-104.3376613628044
 20
-149.6160188514846
 30
0.0
 10
-104.3376613628044
 20
-149.6160188514846
 30
0.0
 10
-104.3376613628044
 20
-149.6160188514846
 30
0.0
 10
-104.2914827517048
 20
-149.3094196848946
 30
0.0
 10
-104.2914827517048
 20
-149.3094196848946
 30
0.0
 10
-104.2914827517048
 20
-149.3094196848946
 30
0.0
 10
-104.0921985850882
 20
-148.9104632961054
 30
0.0
 10
-104.0921985850882
 20
-148.9104632961054
 30
0.0
 10
-104.0921985850882
 20
-148.9104632961054
 30
0.0
 10
-104.0921985850882
 20
-148.5576855184158
 30
0.0
 10
-104.0921985850882
 20
-148.5576855184158
 30
0.0
 10
-104.0921985850882
 20
-148.5576855184158
 30
0.0
 10
-104.0461963628775
 20
-147.882786351918
 30
0.0
 10
-104.0461963628775
 20
-147.882786351918
 30
0.0
 10
-104.0461963628775
 20
-147.882786351918
 30
0.0
 10
-104.245656918383
 20
-147.6529869075314
 30
0.0
 10
-104.245656918383
 20
-147.6529869075314
 30
0.0
 10
-104.245656918383
 20
-147.6529869075314
 30
0.0
 10
-104.245656918383
 20
-145.3830382969873
 30
0.0
 10
-104.245656918383
 20
-145.3830382969873
 30
0.0
 10
-104.245656918383
 20
-145.3830382969873
 30
0.0
 10
-104.3069696961456
 20
-144.7077863527117
 30
0.0
 10
-104.3069696961456
 20
-144.7077863527117
 30
0.0
 10
-104.3069696961456
 20
-144.7077863527117
 30
0.0
 10
-104.322315529475
 20
-138.6189124653451
 30
0.0
 10
-104.322315529475
 20
-138.6189124653451
 30
0.0
 10
-104.322315529475
 20
-138.6189124653451
 30
0.0
 10
-104.13834191841
 20
-137.8982227433029
 30
0.0
 10
-104.13834191841
 20
-137.8982227433029
 30
0.0
 10
-104.13834191841
 20
-137.8982227433029
 30
0.0
 10
-104.2303463628314
 20
-137.76007496556
 30
0.0
 10
-104.2303463628314
 20
-137.76007496556
 30
0.0
 10
-104.2303463628314
 20
-137.76007496556
 30
0.0
 10
-104.245656918383
 20
-135.6437610772003
 30
0.0
 10
-104.245656918383
 20
-135.6437610772003
 30
0.0
 10
-104.245656918383
 20
-135.6437610772003
 30
0.0
 10
-104.1843441406207
 20
-135.5207474661198
 30
0.0
 10
-104.1843441406207
 20
-135.5207474661198
 30
0.0
 10
-104.1843441406207
 20
-135.5207474661198
 30
0.0
 10
-104.322315529475
 20
-134.7542319107557
 30
0.0
 10
-104.322315529475
 20
-134.7542319107557
 30
0.0
 10
-104.322315529475
 20
-134.7542319107557
 30
0.0
 10
-104.3069696961456
 20
-107.299901084286
 30
0.0
 10
-104.3069696961456
 20
-107.299901084286
 30
0.0
 10
-104.3069696961456
 20
-107.299901084286
 30
0.0
 10
-105.5186202513981
 20
-107.2692446954047
 30
0.0
 10
-105.5186202513981
 20
-107.2692446954047
 30
0.0
 10
-105.5186202513981
 20
-107.2692446954047
 30
0.0
 10
-105.5186202513981
 20
-100.6283088637319
 30
0.0
 10
-105.5186202513981
 20
-100.6283088637319
 30
0.0
 10
-105.5186202513981
 20
-100.6283088637319
 30
0.0
 10
-104.3069696961456
 20
-100.6283088637319
 30
0.0
 10
-104.3069696961456
 20
-100.6283088637319
 30
0.0
 10
-104.3069696961456
 20
-100.6283088637319
 30
0.0
 10
-104.3069696961456
 20
-68.26680387182223
 30
0.0
 10
-104.3069696961456
 20
-68.26680387182223
 30
0.0
 10
-104.3069696961456
 20
-68.26680387182223
 30
0.0
 10
-103.7394208073986
 20
-67.68390914974583
 30
0.0
 10
-103.7394208073986
 20
-67.68390914974583
 30
0.0
 10
-103.7394208073986
 20
-67.68390914974583
 30
0.0
 10
-107.957231917455
 20
-67.65339387197555
 30
0.0
 10
-107.957231917455
 20
-67.65339387197555
 30
0.0
 10
-107.957231917455
 20
-67.65339387197555
 30
0.0
 10
-108.033890528547
 20
-65.5980752613782
 30
0.0
 10
-108.033890528547
 20
-65.5980752613782
 30
0.0
 10
-108.033890528547
 20
-65.5980752613782
 30
0.0
 10
-108.402014139566
 20
-66.4416022056117
 30
0.0
 10
-108.402014139566
 20
-66.4416022056117
 30
0.0
 10
-108.402014139566
 20
-66.4416022056117
 30
0.0
 10
-110.963427750037
 20
-66.48760442782242
 30
0.0
 10
-110.963427750037
 20
-66.48760442782242
 30
0.0
 10
-110.963427750037
 20
-66.48760442782242
 30
0.0
 10
-111.4081746943702
 20
-65.73604665023252
 30
0.0
 10
-111.4081746943702
 20
-65.73604665023252
 30
0.0
 10
-111.4081746943702
 20
-65.73604665023252
 30
0.0
 10
-111.4541769165809
 20
-64.61640053940148
 30
0.0
 10
-111.4541769165809
 20
-64.61640053940148
 30
0.0
 10
-111.4541769165809
 20
-64.61640053940148
 30
0.0
 10
-111.6074941387647
 20
-64.4170810950067
 30
0.0
 10
-111.6074941387647
 20
-64.4170810950067
 30
0.0
 10
-111.6074941387647
 20
-64.4170810950067
 30
0.0
 10
-111.8069546942705
 20
-64.35576831724438
 30
0.0
 10
-111.8069546942705
 20
-64.35576831724438
 30
0.0
 10
-111.8069546942705
 20
-64.35576831724438
 30
0.0
 10
-118.1566019149053
 20
-64.40159415056623
 30
0.0
 10
-118.1566019149053
 20
-64.40159415056623
 30
0.0
 10
-118.1566019149053
 20
-64.40159415056623
 30
0.0
 10
-118.7854988591924
 20
-63.78818415071955
 30
0.0
 10
-118.7854988591924
 20
-63.78818415071955
 30
0.0
 10
-118.7854988591924
 20
-63.78818415071955
 30
0.0
 10
-120.3499271921348
 20
-63.77283831739013
 30
0.0
 10
-120.3499271921348
 20
-63.77283831739013
 30
0.0
 10
-120.3499271921348
 20
-63.77283831739013
 30
0.0
 10
-120.9173349697707
 20
-64.34042248391498
 30
0.0
 10
-120.9173349697707
 20
-64.34042248391498
 30
0.0
 10
-120.9173349697707
 20
-64.34042248391498
 30
0.0
 10
-123.6627221913065
 20
-64.38624831723682
 30
0.0
 10
-123.6627221913065
 20
-64.38624831723682
 30
0.0
 10
-123.6627221913065
 20
-64.38624831723682
 30
0.0
 10
-124.0461916356552
 20
-64.11030553952783
 30
0.0
 10
-124.0461916356552
 20
-64.11030553952783
 30
0.0
 10
-124.0461916356552
 20
-64.11030553952783
 30
0.0
 10
-124.2609627467126
 20
-63.80352998404897
 30
0.0
 10
-124.2609627467126
 20
-63.80352998404897
 30
0.0
 10
-124.2609627467126
 20
-63.80352998404897
 30
0.0
 10
-124.2609627467126
 20
-63.55806720633273
 30
0.0
 10
-124.2609627467126
 20
-63.55806720633273
 30
0.0
 10
-124.2609627467126
 20
-63.55806720633273
 30
0.0
 10
-124.2609627467126
 20
-58.22075109655601
 30
0.0
 10
-124.2609627467126
 20
-58.22075109655601
 30
0.0
 10
-124.2609627467126
 20
-58.22075109655601
 30
0.0
 10
-124.1228149689691
 20
-57.76065831889309
 30
0.0
 10
-123.4634380246895
 20
-57.76065831889309
 30
0.0
 10
-123.4634380246895
 20
-57.76065831889309
 30
0.0
 10
-120.9633371919815
 20
-57.76065831889309
 30
0.0
 10
-120.9633371919815
 20
-57.76065831889309
 30
0.0
 10
-120.9633371919815
 20
-57.76065831889309
 30
0.0
 10
-120.3652730254642
 20
-58.31272026319963
 30
0.0
 10
-120.3652730254642
 20
-58.31272026319963
 30
0.0
 10
-120.3652730254642
 20
-58.31272026319963
 30
0.0
 10
-118.7241860814301
 20
-58.32806609652904
 30
0.0
 10
-118.7241860814301
 20
-58.32806609652904
 30
0.0
 10
-118.7241860814301
 20
-58.32806609652904
 30
0.0
 10
-118.202604137116
 20
-57.74531248556368
 30
0.0
 10
-118.202604137116
 20
-57.74531248556368
 30
0.0
 10
-118.202604137116
 20
-57.74531248556368
 30
0.0
 10
-111.7149855276269
 20
-57.74531248556368
 30
0.0
 10
-111.7149855276269
 20
-57.74531248556368
 30
0.0
 10
-111.7149855276269
 20
-57.74531248556368
 30
0.0
 10
-111.5001791387917
 20
-57.68382331891249
 30
0.0
 10
-111.5001791387917
 20
-57.68382331891249
 30
0.0
 10
-111.5001791387917
 20
-57.68382331891249
 30
0.0
 10
-111.4695227499103
 20
-57.36187831899278
 30
0.0
 10
-111.4695227499103
 20
-57.36187831899278
 30
0.0
 10
-111.4695227499103
 20
-57.36187831899278
 30
0.0
 10
-111.4695227499103
 20
-56.48751859698909
 30
0.0
 10
-111.4695227499103
 20
-56.48751859698909
 30
0.0
 10
-111.4695227499103
 20
-56.48751859698909
 30
0.0
 10
-110.9787383055886
 20
-55.68995859718847
 30
0.0
 10
-110.9787383055886
 20
-55.68995859718847
 30
0.0
 10
-110.9787383055886
 20
-55.68995859718847
 30
0.0
 10
-108.402014139566
 20
-55.64399165275559
 30
0.0
 10
-108.402014139566
 20
-55.64399165275559
 30
0.0
 10
-108.402014139566
 20
-55.64399165275559
 30
0.0
 10
-108.0492363618764
 20
-56.38020359701606
 30
0.0
 10
-108.0492363618764
 20
-56.38020359701606
 30
0.0
 10
-108.0492363618764
 20
-56.38020359701606
 30
0.0
 10
-108.0647233063172
 20
-54.50917609748368
 30
0.0
 10
-108.0647233063172
 20
-54.50917609748368
 30
0.0
 10
-108.0647233063172
 20
-54.50917609748368
 30
0.0
 10
-102.2824838633181
 20
-54.44765165305466
 30
0.0
 10
-102.2824838633181
 20
-54.44765165305466
 30
0.0
 10
-102.2824838633181
 20
-54.44765165305466
 30
0.0
 10
-102.2516510855482
 20
-54.24836748643803
 30
0.0
 10
-102.2516510855482
 20
-54.24836748643803
 30
0.0
 10
-102.2516510855482
 20
-54.24836748643803
 30
0.0
 10
-102.0063646967205
 20
-53.95690248651074
 30
0.0
 10
-102.0063646967205
 20
-53.95690248651074
 30
0.0
 10
-102.0063646967205
 20
-53.95690248651074
 30
0.0
 10
-90.93277608837796
 20
-53.95690248651074
 30
0.0
 10
-90.93277608837796
 20
-53.95690248651074
 30
0.0
 10
-90.93277608837796
 20
-53.95690248651074
 30
0.0
 10
-90.70265914399113
 20
-54.23302165310829
 30
0.0
 10
-90.70265914399113
 20
-54.23302165310829
 30
0.0
 10
-90.70265914399113
 20
-54.23302165310829
 30
0.0
 10
-90.70265914399113
 20
-54.43234109750309
 30
0.0
 10
-90.70265914399113
 20
-54.43234109750309
 30
0.0
 10
-90.70265914399113
 20
-54.43234109750309
 30
0.0
 10
-89.59849997760022
 20
-54.50917609748368
 30
0.0
 10
-89.59849997760022
 20
-54.50917609748368
 30
0.0
 10
-89.59849997760022
 20
-54.50917609748368
 30
0.0
 10
-89.59849997760022
 20
-67.60725053865378
 30
0.0
 10
-89.59849997760022
 20
-67.60725053865378
 30
0.0
 10
-89.59849997760022
 20
-67.60725053865378
 30
0.0
 10
-89.16888719993004
 20
-67.60725053865378
 30
0.0
 10
-89.16888719993004
 20
-67.60725053865378
 30
0.0
 10
-89.16888719993004
 20
-67.60725053865378
 30
0.0
 10
-88.63213581117539
 20
-68.20531470517105
 30
0.0
 10
-88.63213581117539
 20
-68.20531470517105
 30
0.0
 10
-88.63213581117539
 20
-68.20531470517105
 30
0.0
 10
-88.63195942228653
 20
-100.6589652526132
 30
0.0
 10
-88.63195942228653
 20
-100.6589652526132
 30
0.0
  0
HATCH
  5
7A
330
70
100
AcDbEntity
  8
grau 10%
 62
   255
440
 33554687
100
AcDbHatch
 10
0.0
 20
0.0
 30
0.0
210
0.0
220
0.0
230
1.0
  2
SOLID
 70
     1
 71
     1
 91
        1
 92
        1
 93
        1
 72
     4
 94
        3
 73
     0
 74
     0
 95
      224
 96
      220
 40
0.0
 40
0.0
 40
0.0
 40
0.0
 40
1.0
 40
1.0
 40
1.0
 40
2.0
 40
2.0
 40
2.0
 40
3.0
 40
3.0
 40
3.0
 40
4.0
 40
4.0
 40
4.0
 40
5.0
 40
5.0
 40
5.0
 40
6.0
 40
6.0
 40
6.0
 40
7.0
 40
7.0
 40
7.0
 40
8.0
 40
8.0
 40
8.0
 40
9.0
 40
9.0
 40
9.0
 40
10.0
 40
10.0
 40
10.0
 40
11.0
 40
11.0
 40
11.0
 40
12.0
 40
12.0
 40
12.0
 40
13.0
 40
13.0
 40
13.0
 40
14.0
 40
14.0
 40
14.0
 40
15.0
 40
15.0
 40
15.0
 40
16.0
 40
16.0
 40
16.0
 40
17.0
 40
17.0
 40
17.0
 40
18.0
 40
18.0
 40
18.0
 40
19.0
 40
19.0
 40
19.0
 40
20.0
 40
20.0
 40
20.0
 40
21.0
 40
21.0
 40
21.0
 40
22.0
 40
22.0
 40
22.0
 40
23.0
 40
23.0
 40
23.0
 40
24.0
 40
24.0
 40
24.0
 40
25.0
 40
25.0
 40
25.0
 40
26.0
 40
26.0
 40
26.0
 40
27.0
 40
27.0
 40
27.0
 40
28.0
 40
28.0
 40
28.0
 40
29.0
 40
29.0
 40
29.0
 40
30.0
 40
30.0
 40
30.0
 40
31.0
 40
31.0
 40
31.0
 40
32.0
 40
32.0
 40
32.0
 40
33.0
 40
33.0
 40
33.0
 40
34.0
 40
34.0
 40
34.0
 40
35.0
 40
35.0
 40
35.0
 40
36.0
 40
36.0
 40
36.0
 40
37.0
 40
37.0
 40
37.0
 40
38.0
 40
38.0
 40
38.0
 40
39.0
 40
39.0
 40
39.0
 40
40.0
 40
40.0
 40
40.0
 40
41.0
 40
41.0
 40
41.0
 40
42.0
 40
42.0
 40
42.0
 40
43.0
 40
43.0
 40
43.0
 40
44.0
 40
44.0
 40
44.0
 40
45.0
 40
45.0
 40
45.0
 40
46.0
 40
46.0
 40
46.0
 40
47.0
 40
47.0
 40
47.0
 40
48.0
 40
48.0
 40
48.0
 40
49.0
 40
49.0
 40
49.0
 40
50.0
 40
50.0
 40
50.0
 40
51.0
 40
51.0
 40
51.0
 40
52.0
 40
52.0
 40
52.0
 40
53.0
 40
53.0
 40
53.0
 40
54.0
 40
54.0
 40
54.0
 40
55.0
 40
55.0
 40
55.0
 40
56.0
 40
56.0
 40
56.0
 40
57.0
 40
57.0
 40
57.0
 40
58.0
 40
58.0
 40
58.0
 40
59.0
 40
59.0
 40
59.0
 40
60.0
 40
60.0
 40
60.0
 40
61.0
 40
61.0
 40
61.0
 40
62.0
 40
62.0
 40
62.0
 40
63.0
 40
63.0
 40
63.0
 40
64.0
 40
64.0
 40
64.0
 40
65.0
 40
65.0
 40
65.0
 40
66.0
 40
66.0
 40
66.0
 40
67.0
 40
67.0
 40
67.0
 40
68.0
 40
68.0
 40
68.0
 40
69.0
 40
69.0
 40
69.0
 40
70.0
 40
70.0
 40
70.0
 40
71.0
 40
71.0
 40
71.0
 40
72.0
 40
72.0
 40
72.0
 40
73.0
 40
73.0
 40
73.0
 40
73.0
 10
-88.63195942228653
 20
-100.6589652526132
 10
-88.63195942228653
 20
-100.6589652526132
 10
-82.71174859043309
 20
-100.6589652526132
 10
-82.71174859043309
 20
-100.6589652526132
 10
-82.71174859043309
 20
-100.6589652526132
 10
-82.71174859043309
 20
-107.299901084286
 10
-82.71174859043309
 20
-107.299901084286
 10
-82.71174859043309
 20
-107.299901084286
 10
-88.53999025564291
 20
-107.299901084286
 10
-88.53999025564291
 20
-107.299901084286
 10
-88.53999025564291
 20
-107.299901084286
 10
-88.63195942228653
 20
-107.3305574731673
 10
-88.63195942228653
 20
-107.3305574731673
 10
-88.63195942228653
 20
-107.3305574731673
 10
-88.63195942228653
 20
-147.1772307965388
 10
-88.63195942228653
 20
-147.1772307965388
 10
-88.63195942228653
 20
-147.1772307965388
 10
-88.84676581112177
 20
-148.8798069072247
 10
-88.84676581112177
 20
-148.8798069072247
 10
-88.84676581112177
 20
-148.8798069072247
 10
-88.64748164450482
 20
-149.2325846849143
 10
-88.64748164450482
 20
-149.2325846849143
 10
-88.64748164450482
 20
-149.2325846849143
 10
-88.64748164450482
 20
-149.6005319070444
 10
-88.64748164450482
 20
-149.6005319070444
 10
-88.64748164450482
 20
-149.6005319070444
 10
-88.83145525556988
 20
-149.9381402402935
 10
-88.83145525556988
 20
-149.9381402402935
 10
-88.83145525556988
 20
-149.9381402402935
 10
-89.16888719993004
 20
-150.1527702402395
 10
-89.16888719993004
 20
-150.1527702402395
 10
-89.16888719993004
 20
-150.1527702402395
 10
-103.8468769184827
 20
-150.1527702402395
 10
-103.8468769184827
 20
-150.1527702402395
 10
-103.8468769184827
 20
-150.1527702402395
 10
-104.1995135850612
 20
-149.8768274625309
 10
-104.1995135850612
 20
-149.8768274625309
 10
-104.1995135850612
 20
-149.8768274625309
 10
-104.3376613628044
 20
-149.6160188514846
 10
-104.3376613628044
 20
-149.6160188514846
 10
-104.3376613628044
 20
-149.6160188514846
 10
-104.2914827517048
 20
-149.3094196848946
 10
-104.2914827517048
 20
-149.3094196848946
 10
-104.2914827517048
 20
-149.3094196848946
 10
-104.0921985850882
 20
-148.9104632961054
 10
-104.0921985850882
 20
-148.9104632961054
 10
-104.0921985850882
 20
-148.9104632961054
 10
-104.0921985850882
 20
-148.5576855184158
 10
-104.0921985850882
 20
-148.5576855184158
 10
-104.0921985850882
 20
-148.5576855184158
 10
-104.0461963628775
 20
-147.882786351918
 10
-104.0461963628775
 20
-147.882786351918
 10
-104.0461963628775
 20
-147.882786351918
 10
-104.245656918383
 20
-147.6529869075314
 10
-104.245656918383
 20
-147.6529869075314
 10
-104.245656918383
 20
-147.6529869075314
 10
-104.245656918383
 20
-145.3830382969873
 10
-104.245656918383
 20
-145.3830382969873
 10
-104.245656918383
 20
-145.3830382969873
 10
-104.3069696961456
 20
-144.7077863527117
 10
-104.3069696961456
 20
-144.7077863527117
 10
-104.3069696961456
 20
-144.7077863527117
 10
-104.322315529475
 20
-138.6189124653451
 10
-104.322315529475
 20
-138.6189124653451
 10
-104.322315529475
 20
-138.6189124653451
 10
-104.13834191841
 20
-137.8982227433029
 10
-104.13834191841
 20
-137.8982227433029
 10
-104.13834191841
 20
-137.8982227433029
 10
-104.2303463628314
 20
-137.76007496556
 10
-104.2303463628314
 20
-137.76007496556
 10
-104.2303463628314
 20
-137.76007496556
 10
-104.245656918383
 20
-135.6437610772003
 10
-104.245656918383
 20
-135.6437610772003
 10
-104.245656918383
 20
-135.6437610772003
 10
-104.1843441406207
 20
-135.5207474661198
 10
-104.1843441406207
 20
-135.5207474661198
 10
-104.1843441406207
 20
-135.5207474661198
 10
-104.322315529475
 20
-134.7542319107557
 10
-104.322315529475
 20
-134.7542319107557
 10
-104.322315529475
 20
-134.7542319107557
 10
-104.3069696961456
 20
-107.299901084286
 10
-104.3069696961456
 20
-107.299901084286
 10
-104.3069696961456
 20
-107.299901084286
 10
-105.5186202513981
 20
-107.2692446954047
 10
-105.5186202513981
 20
-107.2692446954047
 10
-105.5186202513981
 20
-107.2692446954047
 10
-105.5186202513981
 20
-100.6283088637319
 10
-105.5186202513981
 20
-100.6283088637319
 10
-105.5186202513981
 20
-100.6283088637319
 10
-104.3069696961456
 20
-100.6283088637319
 10
-104.3069696961456
 20
-100.6283088637319
 10
-104.3069696961456
 20
-100.6283088637319
 10
-104.3069696961456
 20
-68.26680387182223
 10
-104.3069696961456
 20
-68.26680387182223
 10
-104.3069696961456
 20
-68.26680387182223
 10
-103.7394208073986
 20
-67.68390914974583
 10
-103.7394208073986
 20
-67.68390914974583
 10
-103.7394208073986
 20
-67.68390914974583
 10
-107.957231917455
 20
-67.65339387197555
 10
-107.957231917455
 20
-67.65339387197555
 10
-107.957231917455
 20
-67.65339387197555
 10
-108.033890528547
 20
-65.5980752613782
 10
-108.033890528547
 20
-65.5980752613782
 10
-108.033890528547
 20
-65.5980752613782
 10
-108.402014139566
 20
-66.4416022056117
 10
-108.402014139566
 20
-66.4416022056117
 10
-108.402014139566
 20
-66.4416022056117
 10
-110.963427750037
 20
-66.48760442782242
 10
-110.963427750037
 20
-66.48760442782242
 10
-110.963427750037
 20
-66.48760442782242
 10
-111.4081746943702
 20
-65.73604665023252
 10
-111.4081746943702
 20
-65.73604665023252
 10
-111.4081746943702
 20
-65.73604665023252
 10
-111.4541769165809
 20
-64.61640053940148
 10
-111.4541769165809
 20
-64.61640053940148
 10
-111.4541769165809
 20
-64.61640053940148
 10
-111.6074941387647
 20
-64.4170810950067
 10
-111.6074941387647
 20
-64.4170810950067
 10
-111.6074941387647
 20
-64.4170810950067
 10
-111.8069546942705
 20
-64.35576831724438
 10
-111.8069546942705
 20
-64.35576831724438
 10
-111.8069546942705
 20
-64.35576831724438
 10
-118.1566019149053
 20
-64.40159415056623
 10
-118.1566019149053
 20
-64.40159415056623
 10
-118.1566019149053
 20
-64.40159415056623
 10
-118.7854988591924
 20
-63.78818415071955
 10
-118.7854988591924
 20
-63.78818415071955
 10
-118.7854988591924
 20
-63.78818415071955
 10
-120.3499271921348
 20
-63.77283831739013
 10
-120.3499271921348
 20
-63.77283831739013
 10
-120.3499271921348
 20
-63.77283831739013
 10
-120.9173349697707
 20
-64.34042248391498
 10
-120.9173349697707
 20
-64.34042248391498
 10
-120.9173349697707
 20
-64.34042248391498
 10
-123.6627221913065
 20
-64.38624831723682
 10
-123.6627221913065
 20
-64.38624831723682
 10
-123.6627221913065
 20
-64.38624831723682
 10
-124.0461916356552
 20
-64.11030553952783
 10
-124.0461916356552
 20
-64.11030553952783
 10
-124.0461916356552
 20
-64.11030553952783
 10
-124.2609627467126
 20
-63.80352998404897
 10
-124.2609627467126
 20
-63.80352998404897
 10
-124.2609627467126
 20
-63.80352998404897
 10
-124.2609627467126
 20
-63.55806720633273
 10
-124.2609627467126
 20
-63.55806720633273
 10
-124.2609627467126
 20
-63.55806720633273
 10
-124.2609627467126
 20
-58.22075109655601
 10
-124.2609627467126
 20
-58.22075109655601
 10
-124.2609627467126
 20
-58.22075109655601
 10
-124.1228149689691
 20
-57.76065831889309
 10
-123.4634380246895
 20
-57.76065831889309
 10
-123.4634380246895
 20
-57.76065831889309
 10
-120.9633371919815
 20
-57.76065831889309
 10
-120.9633371919815
 20
-57.76065831889309
 10
-120.9633371919815
 20
-57.76065831889309
 10
-120.3652730254642
 20
-58.31272026319963
 10
-120.3652730254642
 20
-58.31272026319963
 10
-120.3652730254642
 20
-58.31272026319963
 10
-118.7241860814301
 20
-58.32806609652904
 10
-118.7241860814301
 20
-58.32806609652904
 10
-118.7241860814301
 20
-58.32806609652904
 10
-118.202604137116
 20
-57.74531248556368
 10
-118.202604137116
 20
-57.74531248556368
 10
-118.202604137116
 20
-57.74531248556368
 10
-111.7149855276269
 20
-57.74531248556368
 10
-111.7149855276269
 20
-57.74531248556368
 10
-111.7149855276269
 20
-57.74531248556368
 10
-111.5001791387917
 20
-57.68382331891249
 10
-111.5001791387917
 20
-57.68382331891249
 10
-111.5001791387917
 20
-57.68382331891249
 10
-111.4695227499103
 20
-57.36187831899278
 10
-111.4695227499103
 20
-57.36187831899278
 10
-111.4695227499103
 20
-57.36187831899278
 10
-111.4695227499103
 20
-56.48751859698909
 10
-111.4695227499103
 20
-56.48751859698909
 10
-111.4695227499103
 20
-56.48751859698909
 10
-110.9787383055886
 20
-55.68995859718847
 10
-110.9787383055886
 20
-55.68995859718847
 10
-110.9787383055886
 20
-55.68995859718847
 10
-108.402014139566
 20
-55.64399165275559
 10
-108.402014139566
 20
-55.64399165275559
 10
-108.402014139566
 20
-55.64399165275559
 10
-108.0492363618764
 20
-56.38020359701606
 10
-108.0492363618764
 20
-56.38020359701606
 10
-108.0492363618764
 20
-56.38020359701606
 10
-108.0647233063172
 20
-54.50917609748368
 10
-108.0647233063172
 20
-54.50917609748368
 10
-108.0647233063172
 20
-54.50917609748368
 10
-102.2824838633181
 20
-54.44765165305466
 10
-102.2824838633181
 20
-54.44765165305466
 10
-102.2824838633181
 20
-54.44765165305466
 10
-102.2516510855482
 20
-54.24836748643803
 10
-102.2516510855482
 20
-54.24836748643803
 10
-102.2516510855482
 20
-54.24836748643803
 10
-102.0063646967205
 20
-53.95690248651074
 10
-102.0063646967205
 20
-53.95690248651074
 10
-102.0063646967205
 20
-53.95690248651074
 10
-90.93277608837796
 20
-53.95690248651074
 10
-90.93277608837796
 20
-53.95690248651074
 10
-90.93277608837796
 20
-53.95690248651074
 10
-90.70265914399113
 20
-54.23302165310829
 10
-90.70265914399113
 20
-54.23302165310829
 10
-90.70265914399113
 20
-54.23302165310829
 10
-90.70265914399113
 20
-54.43234109750309
 10
-90.70265914399113
 20
-54.43234109750309
 10
-90.70265914399113
 20
-54.43234109750309
 10
-89.59849997760022
 20
-54.50917609748368
 10
-89.59849997760022
 20
-54.50917609748368
 10
-89.59849997760022
 20
-54.50917609748368
 10
-89.59849997760022
 20
-67.60725053865378
 10
-89.59849997760022
 20
-67.60725053865378
 10
-89.59849997760022
 20
-67.60725053865378
 10
-89.16888719993004
 20
-67.60725053865378
 10
-89.16888719993004
 20
-67.60725053865378
 10
-89.16888719993004
 20
-67.60725053865378
 10
-88.63213581117539
 20
-68.20531470517105
 10
-88.63213581117539
 20
-68.20531470517105
 10
-88.63213581117539
 20
-68.20531470517105
 10
-88.63195942228653
 20
-100.6589652526132
 10
-88.63195942228653
 20
-100.6589652526132
 97
        0
 97
        1
330
79
 75
     0
 76
     1
 98
        1
 10
0.0
 20
0.0
450
        0
451
        0
460
0.0
461
0.0
452
        0
462
0.0
453
        0
470

  0
LWPOLYLINE
  5
7B
330
70
100
AcDbEntity
  8
grau 10%
100
AcDbPolyline
 90
       45
 70
     1
 43
0.0
 10
-57.29022915234381
 20
-67.6639066497508
 10
-54.65056943078211
 20
-67.68390914974583
 10
-55.21797720841775
 20
-68.26680387182223
 10
-55.21797720841775
 20
-100.6283088637319
 10
-61.07362970695399
 20
-100.6283088637319
 10
-61.07362970695399
 20
-107.2692446954047
 10
-55.21797720841775
 20
-107.299901084286
 10
-55.23349943063603
 20
-134.7542319107557
 10
-55.21628387508462
 20
-135.2944052439538
 10
-55.19215387509061
 20
-135.7071199660732
 10
-55.22866637508187
 20
-139.9552699650109
 10
-55.09912637511404
 20
-140.7152591314877
 10
-55.20524193064338
 20
-140.8544652425638
 10
-55.13944887510434
 20
-143.0148763531354
 10
-55.32959609727862
 20
-143.9853680195589
 10
-55.22213998619456
 20
-147.2020310743108
 10
-55.10773415288975
 20
-148.0967460740866
 10
-55.0033472084717
 20
-148.5576855184158
 10
-55.0033472084717
 20
-148.9104632961054
 10
-55.20249026397697
 20
-149.3094196848946
 10
-55.24866887507657
 20
-149.6160188514846
 10
-55.11052109733368
 20
-149.8768274625309
 10
-54.7577433196441
 20
-150.1527702402395
 10
-40.07989471220249
 20
-150.1527702402395
 10
-39.74263915673121
 20
-149.9381402402935
 10
-39.55831276788806
 20
-149.6005319070444
 10
-39.55831276788806
 20
-149.2325846849143
 10
-39.75777332339358
 20
-148.8798069072247
 10
-39.54279054566977
 20
-147.1772307965388
 10
-39.54279054566977
 20
-107.3305574731673
 10
-39.45117415680361
 20
-107.299901084286
 10
-33.62275610270553
 20
-107.299901084286
 10
-33.62275610270553
 20
-100.6589652526132
 10
-39.54279054566977
 20
-100.6589652526132
 10
-39.54314332344753
 20
-68.20531470517105
 10
-40.07989471220249
 20
-67.60725053865378
 10
-37.46715193507745
 20
-67.60725053865378
 10
-37.46715193507745
 20
-54.50917609748368
 10
-41.61366665626294
 20
-54.43234109750309
 10
-41.61366665626294
 20
-54.23302165310829
 10
-41.84378360065041
 20
-53.95690248651074
 10
-52.91737220899302
 20
-53.95690248651074
 10
-53.16265859782038
 20
-54.24836748643803
 10
-53.1933149867017
 20
-54.44765165305466
 10
-57.22545915236054
 20
-54.5022616530411
  0
HATCH
  5
7C
330
70
100
AcDbEntity
  8
grau 10%
 62
   255
440
 33554687
100
AcDbHatch
 10
0.0
 20
0.0
 30
0.0
210
0.0
220
0.0
230
1.0
  2
SOLID
 70
     1
 71
     1
 91
        1
 92
        1
 93
       45
 72
     1
 10
-57.29022915234381
 20
-67.6639066497508
 11
-54.65056943078211
 21
-67.68390914974583
 72
     1
 10
-54.65056943078211
 20
-67.68390914974583
 11
-55.21797720841775
 21
-68.26680387182223
 72
     1
 10
-55.21797720841775
 20
-68.26680387182223
 11
-55.21797720841775
 21
-100.6283088637319
 72
     1
 10
-55.21797720841775
 20
-100.6283088637319
 11
-61.07362970695399
 21
-100.6283088637319
 72
     1
 10
-61.07362970695399
 20
-100.6283088637319
 11
-61.07362970695399
 21
-107.2692446954047
 72
     1
 10
-61.07362970695399
 20
-107.2692446954047
 11
-55.21797720841775
 21
-107.299901084286
 72
     1
 10
-55.21797720841775
 20
-107.299901084286
 11
-55.23349943063603
 21
-134.7542319107557
 72
     1
 10
-55.23349943063603
 20
-134.7542319107557
 11
-55.21628387508462
 21
-135.2944052439538
 72
     1
 10
-55.21628387508462
 20
-135.2944052439538
 11
-55.19215387509061
 21
-135.7071199660732
 72
     1
 10
-55.19215387509061
 20
-135.7071199660732
 11
-55.22866637508187
 21
-139.9552699650109
 72
     1
 10
-55.22866637508187
 20
-139.9552699650109
 11
-55.09912637511404
 21
-140.7152591314877
 72
     1
 10
-55.09912637511404
 20
-140.7152591314877
 11
-55.20524193064338
 21
-140.8544652425638
 72
     1
 10
-55.20524193064338
 20
-140.8544652425638
 11
-55.13944887510434
 21
-143.0148763531354
 72
     1
 10
-55.13944887510434
 20
-143.0148763531354
 11
-55.32959609727862
 21
-143.9853680195589
 72
     1
 10
-55.32959609727862
 20
-143.9853680195589
 11
-55.22213998619456
 21
-147.2020310743108
 72
     1
 10
-55.22213998619456
 20
-147.2020310743108
 11
-55.10773415288975
 21
-148.0967460740866
 72
     1
 10
-55.10773415288975
 20
-148.0967460740866
 11
-55.0033472084717
 21
-148.5576855184158
 72
     1
 10
-55.0033472084717
 20
-148.5576855184158
 11
-55.0033472084717
 21
-148.9104632961054
 72
     1
 10
-55.0033472084717
 20
-148.9104632961054
 11
-55.20249026397697
 21
-149.3094196848946
 72
     1
 10
-55.20249026397697
 20
-149.3094196848946
 11
-55.24866887507657
 21
-149.6160188514846
 72
     1
 10
-55.24866887507657
 20
-149.6160188514846
 11
-55.11052109733368
 21
-149.8768274625309
 72
     1
 10
-55.11052109733368
 20
-149.8768274625309
 11
-54.7577433196441
 21
-150.1527702402395
 72
     1
 10
-54.7577433196441
 20
-150.1527702402395
 11
-40.07989471220249
 21
-150.1527702402395
 72
     1
 10
-40.07989471220249
 20
-150.1527702402395
 11
-39.74263915673121
 21
-149.9381402402935
 72
     1
 10
-39.74263915673121
 20
-149.9381402402935
 11
-39.55831276788806
 21
-149.6005319070444
 72
     1
 10
-39.55831276788806
 20
-149.6005319070444
 11
-39.55831276788806
 21
-149.2325846849143
 72
     1
 10
-39.55831276788806
 20
-149.2325846849143
 11
-39.75777332339358
 21
-148.8798069072247
 72
     1
 10
-39.75777332339358
 20
-148.8798069072247
 11
-39.54279054566977
 21
-147.1772307965388
 72
     1
 10
-39.54279054566977
 20
-147.1772307965388
 11
-39.54279054566977
 21
-107.3305574731673
 72
     1
 10
-39.54279054566977
 20
-107.3305574731673
 11
-39.45117415680361
 21
-107.299901084286
 72
     1
 10
-39.45117415680361
 20
-107.299901084286
 11
-33.62275610270553
 21
-107.299901084286
 72
     1
 10
-33.62275610270553
 20
-107.299901084286
 11
-33.62275610270553
 21
-100.6589652526132
 72
     1
 10
-33.62275610270553
 20
-100.6589652526132
 11
-39.54279054566977
 21
-100.6589652526132
 72
     1
 10
-39.54279054566977
 20
-100.6589652526132
 11
-39.54314332344753
 21
-68.20531470517105
 72
     1
 10
-39.54314332344753
 20
-68.20531470517105
 11
-40.07989471220249
 21
-67.60725053865378
 72
     1
 10
-40.07989471220249
 20
-67.60725053865378
 11
-37.46715193507745
 21
-67.60725053865378
 72
     1
 10
-37.46715193507745
 20
-67.60725053865378
 11
-37.46715193507745
 21
-54.50917609748368
 72
     1
 10
-37.46715193507745
 20
-54.50917609748368
 11
-41.61366665626294
 21
-54.43234109750309
 72
     1
 10
-41.61366665626294
 20
-54.43234109750309
 11
-41.61366665626294
 21
-54.23302165310829
 72
     1
 10
-41.61366665626294
 20
-54.23302165310829
 11
-41.84378360065041
 21
-53.95690248651074
 72
     1
 10
-41.84378360065041
 20
-53.95690248651074
 11
-52.91737220899302
 21
-53.95690248651074
 72
     1
 10
-52.91737220899302
 20
-53.95690248651074
 11
-53.16265859782038
 21
-54.24836748643803
 72
     1
 10
-53.16265859782038
 20
-54.24836748643803
 11
-53.1933149867017
 21
-54.44765165305466
 72
     1
 10
-53.1933149867017
 20
-54.44765165305466
 11
-57.22545915236054
 21
-54.5022616530411
 72
     1
 10
-57.22545915236054
 20
-54.5022616530411
 11
-57.29022915234381
 21
-67.6639066497508
 97
        1
330
7B
 75
     0
 76
     1
 98
        1
 10
0.0
 20
0.0
450
        0
451
        0
460
0.0
461
0.0
452
        0
462
0.0
453
        0
470

  0
SPLINE
  5
7E
330
70
100
AcDbEntity
  8
Standardebene
 62
     7
370
     9
100
AcDbSpline
210
0.0
220
0.0
230
1.0
 70
     8
 71
     3
 72
    17
 73
    13
 74
     0
 42
0.0000000001
 43
0.0000000001
 40
0.0
 40
0.0
 40
0.0
 40
0.0
 40
1.0
 40
1.0
 40
1.0
 40
2.0
 40
2.0
 40
2.0
 40
3.0
 40
3.0
 40
3.0
 40
4.0
 40
4.0
 40
4.0
 40
4.0
 10
-23.35846386966574
 20
-166.5668815378989
 30
0.0
 10
-23.41612694330199
 20
-166.7785479928458
 30
0.0
 10
-23.44178348329506
 20
-166.9922028296424
 30
0.0
 10
-23.44056479764589
 20
-167.1844985968947
 30
0.0
 10
-23.44056479764589
 20
-168.5023467736648
 30
0.0
 10
-22.3719699069122
 20
-169.5710058057481
 30
0.0
 10
-21.05405758879249
 20
-169.5710058057481
 30
0.0
 10
-19.73614527067151
 20
-169.5710058057481
 30
0.0
 10
-18.66755037993909
 20
-168.5023467736648
 30
0.0
 10
-18.66755037993909
 20
-167.1844985968947
 30
0.0
 10
-18.66755037993909
 20
-166.0858214130193
 30
0.0
 10
-19.40851125495338
 20
-165.1612879943508
 30
0.0
 10
-20.43579911629661
 20
-164.8793867611706
 30
0.0
  0
SPLINE
  5
7F
330
70
100
AcDbEntity
  8
Standardebene
 62
     7
370
     9
100
AcDbSpline
210
0.0
220
0.0
230
1.0
 70
     8
 71
     3
 72
    17
 73
    13
 74
     0
 42
0.0000000001
 43
0.0000000001
 40
0.0
 40
0.0
 40
0.0
 40
0.0
 40
1.0
 40
1.0
 40
1.0
 40
2.0
 40
2.0
 40
2.0
 40
3.0
 40
3.0
 40
3.0
 40
4.0
 40
4.0
 40
4.0
 40
4.0
 10
-23.35846386966574
 20
-178.7034946534389
 30
0.0
 10
-23.41612694330199
 20
-178.9152252497354
 30
0.0
 10
-23.44178348329506
 20
-179.1288159451824
 30
0.0
 10
-23.44056479764589
 20
-179.3211117124335
 30
0.0
 10
-23.44056479764589
 20
-180.6383826170544
 30
0.0
 10
-22.3719699069122
 20
-181.7070416491371
 30
0.0
 10
-21.05405758879249
 20
-181.7070416491371
 30
0.0
 10
-19.73614527067151
 20
-181.7070416491371
 30
0.0
 10
-18.66755037993909
 20
-180.6383826170544
 30
0.0
 10
-18.66755037993909
 20
-179.3211117124335
 30
0.0
 10
-18.66755037993909
 20
-178.2224345285587
 30
0.0
 10
-19.40851125495338
 20
-177.2973238377398
 30
0.0
 10
-20.43579911629661
 20
-177.0160640180602
 30
0.0
  0
SPLINE
  5
80
330
70
100
AcDbEntity
  8
Standardebene
 62
     7
370
     9
100
AcDbSpline
210
0.0
220
0.0
230
1.0
 70
     8
 71
     3
 72
     8
 73
     4
 74
     0
 42
0.0000000001
 43
0.0000000001
 40
0.0
 40
0.0
 40
0.0
 40
0.0
 40
1.0
 40
1.0
 40
1.0
 40
1.0
 10
-20.15582212361648
 20
-165.9824255568445
 30
0.0
 10
-20.25543364014195
 20
-165.908534721663
 30
0.0
 10
-20.36190828111511
 20
-165.8477928632284
 30
0.0
 10
-20.46145565629096
 20
-165.8064216924889
 30
0.0
  0
SPLINE
  5
81
330
70
100
AcDbEntity
  8
Standardebene
 62
     7
370
     9
100
AcDbSpline
210
0.0
220
0.0
230
1.0
 70
     9
 71
     3
 72
    17
 73
    13
 74
     0
 42
0.0000000001
 43
0.0000000001
 40
0.0
 40
0.0
 40
0.0
 40
0.0
 40
1.0
 40
1.0
 40
1.0
 40
2.0
 40
2.0
 40
2.0
 40
3.0
 40
3.0
 40
3.0
 40
4.0
 40
4.0
 40
4.0
 40
4.0
 10
-21.05405758879249
 20
-165.2470449792791
 30
0.0
 10
-22.12329389302494
 20
-165.2470449792791
 30
0.0
 10
-22.99080565155721
 20
-166.1146208791623
 30
0.0
 10
-22.99080565155721
 20
-167.1844985968947
 30
0.0
 10
-22.99080565155721
 20
-168.2543121732776
 30
0.0
 10
-22.12329389302494
 20
-169.1224653453099
 30
0.0
 10
-21.05405758879249
 20
-169.1224653453099
 30
0.0
 10
-19.98353845755997
 20
-169.1224653453099
 30
0.0
 10
-19.11602669902642
 20
-168.2543121732776
 30
0.0
 10
-19.11602669902642
 20
-167.1844985968947
 30
0.0
 10
-19.11602669902642
 20
-166.1146208791623
 30
0.0
 10
-19.98353845755997
 20
-165.2470449792791
 30
0.0
 10
-21.05405758879249
 20
-165.2470449792791
 30
0.0
  0
LWPOLYLINE
  5
82
330
70
100
AcDbEntity
  8
Standardebene
 62
     7
370
     9
100
AcDbPolyline
 90
        3
 70
     0
 43
0.0
 10
-20.15582212361648
 20
-165.9824255568445
 10
-19.56386160461499
 20
-166.3244272349593
 10
-19.56386160461499
 20
-167.0078533190385
  0
SPLINE
  5
83
330
70
100
AcDbEntity
  8
Standardebene
 62
     7
370
     9
100
AcDbSpline
210
0.0
220
0.0
230
1.0
 70
     8
 71
     3
 72
     8
 73
     4
 74
     0
 42
0.0000000001
 43
0.0000000001
 40
0.0
 40
0.0
 40
0.0
 40
0.0
 40
1.0
 40
1.0
 40
1.0
 40
1.0
 10
-19.56386160461499
 20
-167.3610797334001
 30
0.0
 10
-19.5494939422183
 20
-167.2370945038816
 30
0.0
 10
-19.55007121436808
 20
-167.1155466456621
 30
0.0
 10
-19.56386160461499
 20
-167.0078533190385
 30
0.0
  0
LWPOLYLINE
  5
84
330
70
100
AcDbEntity
  8
Standardebene
 62
     7
370
     9
100
AcDbPolyline
 90
        3
 70
     0
 43
0.0
 10
-19.56386160461499
 20
-167.3610797334001
 10
-19.56386160461499
 20
-168.0563719672267
 10
-21.06406363938881
 20
-168.9226650401105
  0
LINE
  5
85
330
70
100
AcDbEntity
  8
Standardebene
 62
     7
370
     9
100
AcDbLine
 10
-22.56426567416455
 20
-168.0563719672267
 30
0.0
 11
-21.06406363938881
 21
-168.9226650401105
 31
0.0
  0
LINE
  5
86
330
70
100
AcDbEntity
  8
Standardebene
 62
     7
370
     9
100
AcDbLine
 10
-22.56426567416455
 20
-166.3244272349593
 30
0.0
 11
-22.56426567416455
 21
-168.0563719672267
 31
0.0
  0
LINE
  5
87
330
70
100
AcDbEntity
  8
Standardebene
 62
     7
370
     9
100
AcDbLine
 10
-21.06406363938881
 20
-165.4581983034265
 30
0.0
 11
-22.56426567416455
 21
-166.3244272349593
 31
0.0
  0
LINE
  5
88
330
70
100
AcDbEntity
  8
Standardebene
 62
     7
370
     9
100
AcDbLine
 10
-21.06406363938881
 20
-165.4581983034265
 30
0.0
 11
-20.46145565629096
 21
-165.8057802789895
 31
0.0
  0
SPLINE
  5
89
330
70
100
AcDbEntity
  8
Standardebene
 62
     7
370
     9
100
AcDbSpline
210
0.0
220
0.0
230
1.0
 70
     8
 71
     3
 72
    14
 73
    10
 74
     0
 42
0.0000000001
 43
0.0000000001
 40
0.0
 40
0.0
 40
0.0
 40
0.0
 40
1.0
 40
1.0
 40
1.0
 40
2.0
 40
2.0
 40
2.0
 40
3.0
 40
3.0
 40
3.0
 40
3.0
 10
-21.05405758879249
 20
-165.6849379756197
 30
0.0
 10
-21.88212241708477
 20
-165.6849379756197
 30
0.0
 10
-22.55361821006692
 20
-166.3563696272515
 30
0.0
 10
-22.55361821006692
 20
-167.1844985968947
 30
0.0
 10
-22.55361821006692
 20
-168.0131406973381
 30
0.0
 10
-21.88212241708477
 20
-168.6852779038196
 30
0.0
 10
-21.05405758879249
 20
-168.6852779038196
 30
0.0
 10
-20.28737603243358
 20
-168.6852779038196
 30
0.0
 10
-19.65532716969142
 20
-168.110250701213
 30
0.0
 10
-19.56386160461499
 20
-167.3610797334001
 30
0.0
  0
SPLINE
  5
8A
330
70
100
AcDbEntity
  8
Standardebene
 62
     7
370
     9
100
AcDbSpline
210
0.0
220
0.0
230
1.0
 70
     8
 71
     3
 72
     8
 73
     4
 74
     0
 42
0.0000000001
 43
0.0000000001
 40
0.0
 40
0.0
 40
0.0
 40
0.0
 40
1.0
 40
1.0
 40
1.0
 40
1.0
 10
-19.56386160461499
 20
-167.0078533190385
 30
0.0
 10
-19.61402014030223
 20
-166.5831734407951
 30
0.0
 10
-19.83825829984622
 20
-166.2210955201354
 30
0.0
 10
-20.15582212361648
 20
-165.9824255568445
 30
0.0
  0
SPLINE
  5
8B
330
70
100
AcDbEntity
  8
Standardebene
 62
     7
370
     9
100
AcDbSpline
210
0.0
220
0.0
230
1.0
 70
     8
 71
     3
 72
     8
 73
     4
 74
     0
 42
0.0000000001
 43
0.0000000001
 40
0.0
 40
0.0
 40
0.0
 40
0.0
 40
1.0
 40
1.0
 40
1.0
 40
1.0
 10
-20.46145565629096
 20
-165.8064216924889
 30
0.0
 10
-20.65817717669075
 20
-165.7218833932104
 30
0.0
 10
-20.8629805071893
 20
-165.6824364629704
 30
0.0
 10
-21.05405758879249
 20
-165.6849379756197
 30
0.0
  0
SPLINE
  5
8C
330
70
100
AcDbEntity
  8
Standardebene
 62
     7
370
     9
100
AcDbSpline
210
0.0
220
0.0
230
1.0
 70
     9
 71
     3
 72
    17
 73
    13
 74
     0
 42
0.0000000001
 43
0.0000000001
 40
0.0
 40
0.0
 40
0.0
 40
0.0
 40
1.0
 40
1.0
 40
1.0
 40
2.0
 40
2.0
 40
2.0
 40
3.0
 40
3.0
 40
3.0
 40
4.0
 40
4.0
 40
4.0
 40
4.0
 10
-21.05405758879249
 20
-164.1840945273452
 30
0.0
 10
-22.71018724537769
 20
-164.1840945273452
 30
0.0
 10
-24.05311468999236
 20
-165.5276633854593
 30
0.0
 10
-24.05311468999236
 20
-167.1844985968947
 30
0.0
 10
-24.05311468999236
 20
-168.8418469391304
 30
0.0
 10
-22.71018724537769
 20
-170.1848385250947
 30
0.0
 10
-21.05405758879249
 20
-170.1848385250947
 30
0.0
 10
-19.39728651870597
 20
-170.1848385250947
 30
0.0
 10
-18.05307624709251
 20
-168.8418469391304
 30
0.0
 10
-18.05307624709251
 20
-167.1844985968947
 30
0.0
 10
-18.05307624709251
 20
-165.5276633854593
 30
0.0
 10
-19.39728651870597
 20
-164.1840945273452
 30
0.0
 10
-21.05405758879249
 20
-164.1840945273452
 30
0.0
  0
SPLINE
  5
8D
330
70
100
AcDbEntity
  8
Standardebene
 62
     7
370
     9
100
AcDbSpline
210
0.0
220
0.0
230
1.0
 70
     9
 71
     3
 72
    17
 73
    13
 74
     0
 42
0.0000000001
 43
0.0000000001
 40
0.0
 40
0.0
 40
0.0
 40
0.0
 40
1.0
 40
1.0
 40
1.0
 40
2.0
 40
2.0
 40
2.0
 40
3.0
 40
3.0
 40
3.0
 40
4.0
 40
4.0
 40
4.0
 40
4.0
 10
-21.05405758879249
 20
-177.3837222361688
 30
0.0
 10
-22.12329389302494
 20
-177.3837222361688
 30
0.0
 10
-22.99080565155721
 20
-178.2506567225519
 30
0.0
 10
-22.99080565155721
 20
-179.3211117124335
 30
0.0
 10
-22.99080565155721
 20
-180.3909894301666
 30
0.0
 10
-22.12329389302494
 20
-181.2585011886995
 30
0.0
 10
-21.05405758879249
 20
-181.2585011886995
 30
0.0
 10
-19.98353845755997
 20
-181.2585011886995
 30
0.0
 10
-19.11602669902642
 20
-180.3909894301666
 30
0.0
 10
-19.11602669902642
 20
-179.3211117124335
 30
0.0
 10
-19.11602669902642
 20
-178.2506567225519
 30
0.0
 10
-19.98353845755997
 20
-177.3837222361688
 30
0.0
 10
-21.05405758879249
 20
-177.3837222361688
 30
0.0
  0
SPLINE
  5
8E
330
70
100
AcDbEntity
  8
Standardebene
 62
     7
370
     9
100
AcDbSpline
210
0.0
220
0.0
230
1.0
 70
     8
 71
     3
 72
     8
 73
     4
 74
     0
 42
0.0000000001
 43
0.0000000001
 40
0.0
 40
0.0
 40
0.0
 40
0.0
 40
1.0
 40
1.0
 40
1.0
 40
1.0
 10
-20.15582212361648
 20
-178.1191028137341
 30
0.0
 10
-20.25543364014195
 20
-178.0452119785527
 30
0.0
 10
-20.36190828111511
 20
-177.9844059787684
 30
0.0
 10
-20.46145565629096
 20
-177.9424575358779
 30
0.0
  0
LWPOLYLINE
  5
8F
330
70
100
AcDbEntity
  8
Standardebene
 62
     7
370
     9
100
AcDbPolyline
 90
        3
 70
     0
 43
0.0
 10
-20.15582212361648
 20
-178.1191028137341
 10
-19.56386160461499
 20
-178.4604630783483
 10
-19.56386160461499
 20
-179.1444664345786
  0
SPLINE
  5
90
330
70
100
AcDbEntity
  8
Standardebene
 62
     7
370
     9
100
AcDbSpline
210
0.0
220
0.0
230
1.0
 70
     8
 71
     3
 72
     8
 73
     4
 74
     0
 42
0.0000000001
 43
0.0000000001
 40
0.0
 40
0.0
 40
0.0
 40
0.0
 40
1.0
 40
1.0
 40
1.0
 40
1.0
 10
-19.56386160461499
 20
-179.4971155767897
 30
0.0
 10
-19.5494939422183
 20
-179.3731303472712
 30
0.0
 10
-19.55007121436808
 20
-179.2515824890511
 30
0.0
 10
-19.56386160461499
 20
-179.1444664345786
 30
0.0
  0
LWPOLYLINE
  5
91
330
70
100
AcDbEntity
  8
Standardebene
 62
     7
370
     9
100
AcDbPolyline
 90
        3
 70
     0
 43
0.0
 10
-19.56386160461499
 20
-179.4971155767897
 10
-19.56386160461499
 20
-180.1924078106164
 10
-21.06406363938881
 20
-181.0593422969995
  0
LINE
  5
92
330
70
100
AcDbEntity
  8
Standardebene
 62
     7
370
     9
100
AcDbLine
 10
-22.56426567416455
 20
-180.1924078106164
 30
0.0
 11
-21.06406363938881
 21
-181.0593422969995
 31
0.0
  0
LINE
  5
93
330
70
100
AcDbEntity
  8
Standardebene
 62
     7
370
     9
100
AcDbLine
 10
-22.56426567416455
 20
-178.4604630783483
 30
0.0
 11
-22.56426567416455
 21
-180.1924078106164
 31
0.0
  0
LINE
  5
94
330
70
100
AcDbEntity
  8
Standardebene
 62
     7
370
     9
100
AcDbLine
 10
-21.06406363938881
 20
-177.5942341468161
 30
0.0
 11
-22.56426567416455
 21
-178.4604630783483
 31
0.0
  0
LINE
  5
95
330
70
100
AcDbEntity
  8
Standardebene
 62
     7
370
     9
100
AcDbLine
 10
-21.06406363938881
 20
-177.5942341468161
 30
0.0
 11
-20.46145565629096
 21
-177.9424575358779
 31
0.0
  0
SPLINE
  5
96
330
70
100
AcDbEntity
  8
Standardebene
 62
     7
370
     9
100
AcDbSpline
210
0.0
220
0.0
230
1.0
 70
     8
 71
     3
 72
    14
 73
    10
 74
     0
 42
0.0000000001
 43
0.0000000001
 40
0.0
 40
0.0
 40
0.0
 40
0.0
 40
1.0
 40
1.0
 40
1.0
 40
2.0
 40
2.0
 40
2.0
 40
3.0
 40
3.0
 40
3.0
 40
3.0
 10
-21.05405758879249
 20
-177.8209738190087
 30
0.0
 10
-21.88212241708477
 20
-177.8209738190087
 30
0.0
 10
-22.55361821006692
 20
-178.4924054706412
 30
0.0
 10
-22.55361821006692
 20
-179.3211117124335
 30
0.0
 10
-22.55361821006692
 20
-180.1491765407271
 30
0.0
 10
-21.88212241708477
 20
-180.8206723337086
 30
0.0
 10
-21.05405758879249
 20
-180.8206723337086
 30
0.0
 10
-20.28737603243358
 20
-180.8206723337086
 30
0.0
 10
-19.65532716969142
 20
-180.2469279581021
 30
0.0
 10
-19.56386160461499
 20
-179.4971155767897
 30
0.0
  0
SPLINE
  5
97
330
70
100
AcDbEntity
  8
Standardebene
 62
     7
370
     9
100
AcDbSpline
210
0.0
220
0.0
230
1.0
 70
     8
 71
     3
 72
     8
 73
     4
 74
     0
 42
0.0000000001
 43
0.0000000001
 40
0.0
 40
0.0
 40
0.0
 40
0.0
 40
1.0
 40
1.0
 40
1.0
 40
1.0
 10
-19.56386160461499
 20
-179.1444664345786
 30
0.0
 10
-19.61402014030223
 20
-178.7192092841847
 30
0.0
 10
-19.83825829984622
 20
-178.3571313635244
 30
0.0
 10
-20.15582212361648
 20
-178.1191028137341
 30
0.0
  0
SPLINE
  5
98
330
70
100
AcDbEntity
  8
Standardebene
 62
     7
370
     9
100
AcDbSpline
210
0.0
220
0.0
230
1.0
 70
     8
 71
     3
 72
     8
 73
     4
 74
     0
 42
0.0000000001
 43
0.0000000001
 40
0.0
 40
0.0
 40
0.0
 40
0.0
 40
1.0
 40
1.0
 40
1.0
 40
1.0
 10
-20.46145565629096
 20
-177.9424575358779
 30
0.0
 10
-20.65817717669075
 20
-177.8585606500995
 30
0.0
 10
-20.8629805071893
 20
-177.8190495785086
 30
0.0
 10
-21.05405758879249
 20
-177.8209738190087
 30
0.0
  0
SPLINE
  5
99
330
70
100
AcDbEntity
  8
Standardebene
 62
     7
370
     9
100
AcDbSpline
210
0.0
220
0.0
230
1.0
 70
     9
 71
     3
 72
    17
 73
    13
 74
     0
 42
0.0000000001
 43
0.0000000001
 40
0.0
 40
0.0
 40
0.0
 40
0.0
 40
1.0
 40
1.0
 40
1.0
 40
2.0
 40
2.0
 40
2.0
 40
3.0
 40
3.0
 40
3.0
 40
4.0
 40
4.0
 40
4.0
 40
4.0
 10
-21.05405758879249
 20
-176.3207717842336
 30
0.0
 10
-22.71018724537769
 20
-176.3207717842336
 30
0.0
 10
-24.05311468999236
 20
-177.6636992288482
 30
0.0
 10
-24.05311468999236
 20
-179.3211117124335
 30
0.0
 10
-24.05311468999236
 20
-180.9778827825194
 30
0.0
 10
-22.71018724537769
 20
-182.3208743684843
 30
0.0
 10
-21.05405758879249
 20
-182.3208743684843
 30
0.0
 10
-19.39728651870597
 20
-182.3208743684843
 30
0.0
 10
-18.05307624709251
 20
-180.9778827825194
 30
0.0
 10
-18.05307624709251
 20
-179.3211117124335
 30
0.0
 10
-18.05307624709251
 20
-177.6636992288482
 30
0.0
 10
-19.39728651870597
 20
-176.3207717842336
 30
0.0
 10
-21.05405758879249
 20
-176.3207717842336
 30
0.0
  0
LINE
  5
9A
330
70
100
AcDbEntity
  8
Standardebene
 62
     7
370
     9
100
AcDbLine
 10
-117.282631033035
 20
-188.4122662537228
 30
0.0
 11
-117.282631033035
 21
-187.896762223901
 31
0.0
  0
LINE
  5
9B
330
70
100
AcDbEntity
  8
Standardebene
 62
     7
370
     9
100
AcDbLine
 10
-117.282631033035
 20
-186.8688970904074
 30
0.0
 11
-117.282631033035
 21
-185.839749129915
 31
0.0
  0
LINE
  5
9C
330
70
100
AcDbEntity
  8
Standardebene
 62
     7
370
     9
100
AcDbLine
 10
-117.282631033035
 20
-184.8106011694232
 30
0.0
 11
-117.282631033035
 21
-183.7820946224295
 31
0.0
  0
LINE
  5
9D
330
70
100
AcDbEntity
  8
Standardebene
 62
     7
370
     9
100
AcDbLine
 10
-117.3120719126774
 20
-182.7529466619371
 30
0.0
 11
-117.3120719126774
 21
-181.7244401149447
 31
0.0
  0
LINE
  5
9E
330
70
100
AcDbEntity
  8
Standardebene
 62
     7
370
     9
100
AcDbLine
 10
-117.3120719126774
 20
-180.695292154451
 30
0.0
 11
-117.3120719126774
 21
-179.6667856074586
 31
0.0
  0
LINE
  5
9F
330
70
100
AcDbEntity
  8
Standardebene
 62
     7
370
     9
100
AcDbLine
 10
-117.3120719126774
 20
-178.6376376469661
 30
0.0
 11
-117.3120719126774
 21
-177.6091310999724
 31
0.0
  0
LINE
  5
A0
330
70
100
AcDbEntity
  8
Standardebene
 62
     7
370
     9
100
AcDbLine
 10
-117.3120719126774
 20
-176.57998313948
 30
0.0
 11
-117.3120719126774
 21
-175.5508351789883
 31
0.0
  0
LINE
  5
A1
330
70
100
AcDbEntity
  8
Standardebene
 62
     7
370
     9
100
AcDbLine
 10
-117.3120719126774
 20
-174.5223286319946
 30
0.0
 11
-117.3120719126774
 21
-173.4937579436526
 31
0.0
  0
LINE
  5
A2
330
70
100
AcDbEntity
  8
Standardebene
 62
     7
370
     9
100
AcDbLine
 10
-117.3120719126774
 20
-172.4646099831588
 30
0.0
 11
-117.3120719126774
 21
-171.435526164016
 31
0.0
  0
LINE
  5
A3
330
70
100
AcDbEntity
  8
Standardebene
 62
     7
370
     9
100
AcDbLine
 10
-117.3120719126774
 20
-170.406955475674
 30
0.0
 11
-117.3120719126774
 21
-169.3778075151803
 31
0.0
  0
LINE
  5
A4
330
70
100
AcDbEntity
  8
Standardebene
 62
     7
370
     9
100
AcDbLine
 10
-117.3120719126774
 20
-168.3493009681879
 30
0.0
 11
-117.3120719126774
 21
-167.3201530076961
 31
0.0
  0
LINE
  5
A5
330
70
100
AcDbEntity
  8
Standardebene
 62
     7
370
     9
100
AcDbLine
 10
-117.3120719126774
 20
-166.2910050472024
 30
0.0
 11
-117.3120719126774
 21
-165.26249850021
 31
0.0
  0
LINE
  5
A6
330
70
100
AcDbEntity
  8
Standardebene
 62
     7
370
     9
100
AcDbLine
 10
-117.3120719126774
 20
-164.2333505397176
 30
0.0
 11
-117.3120719126774
 21
-163.2042025792239
 31
0.0
  0
LINE
  5
A7
330
70
100
AcDbEntity
  8
Standardebene
 62
     7
370
     9
100
AcDbLine
 10
-117.3120719126774
 20
-162.1756960322315
 30
0.0
 11
-117.3120719126774
 21
-161.146548071739
 31
0.0
  0
LINE
  5
A8
330
70
100
AcDbEntity
  8
Standardebene
 62
     7
370
     9
100
AcDbLine
 10
-117.3120719126774
 20
-160.1180415247454
 30
0.0
 11
-117.3120719126774
 21
-159.0888935642536
 31
0.0
  0
LINE
  5
A9
330
70
100
AcDbEntity
  8
Standardebene
 62
     7
370
     9
100
AcDbLine
 10
-117.3120719126774
 20
-158.0597456037611
 30
0.0
 11
-117.3120719126774
 21
-157.0318804702675
 31
0.0
  0
LINE
  5
AA
330
70
100
AcDbEntity
  8
Standardebene
 62
     7
370
     9
100
AcDbLine
 10
-117.3120719126774
 20
-156.002091096275
 30
0.0
 11
-117.3120719126774
 21
-154.9742259627814
 31
0.0
  0
LINE
  5
AB
330
70
100
AcDbEntity
  8
Standardebene
 62
     7
370
     9
100
AcDbLine
 10
-117.3120719126774
 20
-153.945078002289
 30
0.0
 11
-117.3120719126774
 21
-153.4307926581183
 31
0.0
  0
LINE
  5
AC
330
70
100
AcDbEntity
  8
Standardebene
 62
     7
370
     9
100
AcDbLine
 10
-103.2408066945457
 20
-188.4122662537228
 30
0.0
 11
-103.2408066945457
 21
-187.896762223901
 31
0.0
  0
LINE
  5
AD
330
70
100
AcDbEntity
  8
Standardebene
 62
     7
370
     9
100
AcDbLine
 10
-103.2408066945457
 20
-186.8688970904074
 30
0.0
 11
-103.2408066945457
 21
-185.839749129915
 31
0.0
  0
LINE
  5
AE
330
70
100
AcDbEntity
  8
Standardebene
 62
     7
370
     9
100
AcDbLine
 10
-103.2408066945457
 20
-184.8106011694232
 30
0.0
 11
-103.2408066945457
 21
-183.7820946224295
 31
0.0
  0
LINE
  5
AF
330
70
100
AcDbEntity
  8
Standardebene
 62
     7
370
     9
100
AcDbLine
 10
-103.2408066945457
 20
-182.7529466619371
 30
0.0
 11
-103.2408066945457
 21
-181.7244401149447
 31
0.0
  0
LINE
  5
B0
330
70
100
AcDbEntity
  8
Standardebene
 62
     7
370
     9
100
AcDbLine
 10
-103.2408066945457
 20
-180.695292154451
 30
0.0
 11
-103.2408066945457
 21
-179.6667856074586
 31
0.0
  0
LINE
  5
B1
330
70
100
AcDbEntity
  8
Standardebene
 62
     7
370
     9
100
AcDbLine
 10
-103.2408066945457
 20
-178.6376376469661
 30
0.0
 11
-103.2408066945457
 21
-177.6091310999724
 31
0.0
  0
LINE
  5
B2
330
70
100
AcDbEntity
  8
Standardebene
 62
     7
370
     9
100
AcDbLine
 10
-103.2408066945457
 20
-176.57998313948
 30
0.0
 11
-103.2408066945457
 21
-175.5508351789883
 31
0.0
  0
LINE
  5
B3
330
70
100
AcDbEntity
  8
Standardebene
 62
     7
370
     9
100
AcDbLine
 10
-103.2408066945457
 20
-174.5223286319946
 30
0.0
 11
-103.2408066945457
 21
-173.4937579436526
 31
0.0
  0
LINE
  5
B4
330
70
100
AcDbEntity
  8
Standardebene
 62
     7
370
     9
100
AcDbLine
 10
-103.2408066945457
 20
-172.4646099831588
 30
0.0
 11
-103.2408066945457
 21
-171.435526164016
 31
0.0
  0
LINE
  5
B5
330
70
100
AcDbEntity
  8
Standardebene
 62
     7
370
     9
100
AcDbLine
 10
-103.2408066945457
 20
-170.406955475674
 30
0.0
 11
-103.2408066945457
 21
-169.3778075151803
 31
0.0
  0
LINE
  5
B6
330
70
100
AcDbEntity
  8
Standardebene
 62
     7
370
     9
100
AcDbLine
 10
-103.2408066945457
 20
-168.3493009681879
 30
0.0
 11
-103.2408066945457
 21
-167.3201530076961
 31
0.0
  0
LINE
  5
B7
330
70
100
AcDbEntity
  8
Standardebene
 62
     7
370
     9
100
AcDbLine
 10
-103.2408066945457
 20
-166.2910050472024
 30
0.0
 11
-103.2408066945457
 21
-165.26249850021
 31
0.0
  0
LINE
  5
B8
330
70
100
AcDbEntity
  8
Standardebene
 62
     7
370
     9
100
AcDbLine
 10
-103.2408066945457
 20
-164.2333505397176
 30
0.0
 11
-103.2408066945457
 21
-163.2042025792239
 31
0.0
  0
LINE
  5
B9
330
70
100
AcDbEntity
  8
Standardebene
 62
     7
370
     9
100
AcDbLine
 10
-103.2408066945457
 20
-162.1756960322315
 30
0.0
 11
-103.2408066945457
 21
-161.146548071739
 31
0.0
  0
LINE
  5
BA
330
70
100
AcDbEntity
  8
Standardebene
 62
     7
370
     9
100
AcDbLine
 10
-103.2408066945457
 20
-160.1180415247454
 30
0.0
 11
-103.2408066945457
 21
-159.0888935642536
 31
0.0
  0
LINE
  5
BB
330
70
100
AcDbEntity
  8
Standardebene
 62
     7
370
     9
100
AcDbLine
 10
-103.2408066945457
 20
-158.0597456037611
 30
0.0
 11
-103.2408066945457
 21
-157.0318804702675
 31
0.0
  0
LINE
  5
BC
330
70
100
AcDbEntity
  8
Standardebene
 62
     7
370
     9
100
AcDbLine
 10
-103.2408066945457
 20
-156.002091096275
 30
0.0
 11
-103.2408066945457
 21
-154.9742259627814
 31
0.0
  0
LINE
  5
BD
330
70
100
AcDbEntity
  8
Standardebene
 62
     7
370
     9
100
AcDbLine
 10
-103.2408066945457
 20
-153.945078002289
 30
0.0
 11
-103.2408066945457
 21
-153.4307926581183
 31
0.0
  0
LINE
  5
BE
330
70
100
AcDbEntity
  8
Standardebene
 62
     7
370
     9
100
AcDbLine
 10
-117.282631033035
 20
-188.4122662537228
 30
0.0
 11
-117.4276546253484
 21
-188.6615836811101
 31
0.0
  0
LINE
  5
BF
330
70
100
AcDbEntity
  8
Standardebene
 62
     7
370
     9
100
AcDbLine
 10
-117.7164189829763
 20
-189.1614372215351
 30
0.0
 11
-117.8604804550402
 21
-189.4113319210728
 31
0.0
  0
LINE
  5
C0
330
70
100
AcDbEntity
  8
Standardebene
 62
     7
370
     9
100
AcDbLine
 10
-103.2408066945457
 20
-188.4122662537228
 30
0.0
 11
-103.0964245157311
 21
-188.6615836811101
 31
0.0
  0
LINE
  5
C1
330
70
100
AcDbEntity
  8
Standardebene
 62
     7
370
     9
100
AcDbLine
 10
-102.8073394513538
 20
-189.1614372215351
 30
0.0
 11
-102.6629572725392
 21
-189.4113319210728
 31
0.0
  0
LINE
  5
C2
330
70
100
AcDbEntity
  8
Standardebene
 62
     7
370
     9
100
AcDbLine
 10
-117.3120719126774
 20
-153.4307926581183
 30
0.0
 11
-116.7765557816617
 21
-153.4307926581183
 31
0.0
  0
LINE
  5
C3
330
70
100
AcDbEntity
  8
Standardebene
 62
     7
370
     9
100
AcDbLine
 10
-115.7762072873116
 20
-153.4307926581183
 30
0.0
 11
-114.7761794997115
 21
-153.4307926581183
 31
0.0
  0
LINE
  5
C4
330
70
100
AcDbEntity
  8
Standardebene
 62
     7
370
     9
100
AcDbLine
 10
-113.7764724188615
 20
-153.4307926581183
 30
0.0
 11
-112.775867359111
 21
-153.4307926581183
 31
0.0
  0
LINE
  5
C5
330
70
100
AcDbEntity
  8
Standardebene
 62
     7
370
     9
100
AcDbLine
 10
-111.7764809850116
 20
-153.4307926581183
 30
0.0
 11
-110.7764531974116
 21
-153.4307926581183
 31
0.0
  0
LINE
  5
C6
330
70
100
AcDbEntity
  8
Standardebene
 62
     7
370
     9
100
AcDbLine
 10
-109.7757839963115
 20
-153.4307926581183
 30
0.0
 11
-108.7763976222115
 21
-153.4307926581183
 31
0.0
  0
LINE
  5
C7
330
70
100
AcDbEntity
  8
Standardebene
 62
     7
370
     9
100
AcDbLine
 10
-107.776113269211
 20
-153.4307926581183
 30
0.0
 11
-106.7757647748616
 21
-153.4307926581183
 31
0.0
  0
LINE
  5
C8
330
70
100
AcDbEntity
  8
Standardebene
 62
     7
370
     9
100
AcDbLine
 10
-105.7763784007615
 20
-153.4307926581183
 30
0.0
 11
-104.7760299064115
 21
-153.4307926581183
 31
0.0
  0
LINE
  5
C9
330
70
100
AcDbEntity
  8
Standardebene
 62
     7
370
     9
100
AcDbLine
 10
-103.7403395282207
 20
-153.4307926581183
 30
0.0
 11
-103.2408066945457
 21
-153.4307926581183
 31
0.0
  0
LINE
  5
CA
330
70
100
AcDbEntity
  8
Standardebene
 62
     7
370
     9
100
AcDbLine
 10
-124.266469501989
 20
-180.6971522536015
 30
0.0
 11
-124.4259248980493
 21
-180.9746277336323
 31
0.0
  0
LINE
  5
CB
330
70
100
AcDbEntity
  8
Standardebene
 62
     7
370
     9
100
AcDbLine
 10
-124.4259248980493
 20
-184.8494066861631
 30
0.0
 11
-124.1261923695738
 21
-185.3693364691336
 31
0.0
  0
LINE
  5
CC
330
70
100
AcDbEntity
  8
Standardebene
 62
     7
370
     9
100
AcDbLine
 10
-124.2674316222384
 20
-162.6993460135004
 30
0.0
 11
-124.4259248980493
 21
-162.974319980882
 31
0.0
  0
LINE
  5
CD
330
70
100
AcDbEntity
  8
Standardebene
 62
     7
370
     9
100
AcDbLine
 10
-124.4259248980493
 20
-166.8491630747637
 30
0.0
 11
-124.2674316222384
 21
-167.1247784556441
 31
0.0
  0
LINE
  5
CE
330
70
100
AcDbEntity
  8
Standardebene
 62
     7
370
     9
100
AcDbLine
 10
-124.1666014200638
 20
-185.2979471466007
 30
0.0
 11
-124.1261923695738
 21
-185.2979471466007
 31
0.0
  0
SPLINE
  5
CF
330
70
100
AcDbEntity
  8
Standardebene
 62
     7
370
     9
100
AcDbSpline
210
0.0
220
0.0
230
1.0
 70
     8
 71
     3
 72
    17
 73
    13
 74
     0
 42
0.0000000001
 43
0.0000000001
 40
0.0
 40
0.0
 40
0.0
 40
0.0
 40
1.0
 40
1.0
 40
1.0
 40
2.0
 40
2.0
 40
2.0
 40
3.0
 40
3.0
 40
3.0
 40
4.0
 40
4.0
 40
4.0
 40
4.0
 10
-112.2080239877034
 20
-104.894199287702
 30
0.0
 10
-112.2553603039914
 20
-105.0720632512074
 30
0.0
 10
-112.2778739178359
 20
-105.2502479214628
 30
0.0
 10
-112.2760138186867
 20
-105.4118841234223
 30
0.0
 10
-112.2760138186867
 20
-106.5165264528463
 30
0.0
 10
-111.3809212796599
 20
-107.4118755572728
 30
0.0
 10
-110.2759582434865
 20
-107.4118755572728
 30
0.0
 10
-109.1719573275625
 20
-107.4118755572728
 30
0.0
 10
-108.2762233750364
 20
-106.5165264528463
 30
0.0
 10
-108.2762233750364
 20
-105.4118841234223
 30
0.0
 10
-108.2762233750364
 20
-104.4917123165523
 30
0.0
 10
-108.898266187181
 20
-103.7162433952462
 30
0.0
 10
-109.7585941145155
 20
-103.4801390859554
 30
0.0
  0
LWPOLYLINE
  5
D0
330
70
100
AcDbEntity
  8
Standardebene
 62
     7
370
     9
100
AcDbPolyline
 90
        5
 70
     0
 43
0.0
 10
-124.4259248980493
 20
-164.9117735984977
 10
-124.4259248980493
 20
-164.1707485821325
 10
-124.4259248980493
 20
-163.5418426455403
 10
-124.4259248980493
 20
-163.1215243790946
 10
-124.4259248980493
 20
-162.974319980882
  0
LWPOLYLINE
  5
D1
330
70
100
AcDbEntity
  8
Standardebene
 62
     7
370
     9
100
AcDbPolyline
 90
        5
 70
     0
 43
0.0
 10
-124.4259248980493
 20
-166.8491630747637
 10
-124.4259248980493
 20
-166.7019586765492
 10
-124.4259248980493
 20
-166.2822818236042
 10
-124.4259248980493
 20
-165.6527344735119
 10
-124.4259248980493
 20
-164.9117735984977
  0
LWPOLYLINE
  5
D2
330
70
100
AcDbEntity
  8
Standardebene
 62
     7
370
     9
100
AcDbPolyline
 90
        5
 70
     0
 43
0.0
 10
-124.4259248980493
 20
-182.9120172098971
 10
-124.4259248980493
 20
-182.1704149213828
 10
-124.4259248980493
 20
-181.5421503982899
 10
-124.4259248980493
 20
-181.1218321318449
 10
-124.4259248980493
 20
-180.9746277336323
  0
LWPOLYLINE
  5
D3
330
70
100
AcDbEntity
  8
Standardebene
 62
     7
370
     9
100
AcDbPolyline
 90
        5
 70
     0
 43
0.0
 10
-124.4259248980493
 20
-184.8494066861631
 10
-124.4259248980493
 20
-184.7016250157995
 10
-124.4259248980493
 20
-184.2825895763546
 10
-124.4259248980493
 20
-183.6530422262617
 10
-124.4259248980493
 20
-182.9120172098971
  0
SPLINE
  5
D4
330
70
100
AcDbEntity
  8
Standardebene
 62
     7
370
     9
100
AcDbSpline
210
0.0
220
0.0
230
1.0
 70
     9
 71
     3
 72
    17
 73
    13
 74
     0
 42
0.0000000001
 43
0.0000000001
 40
0.0
 40
0.0
 40
0.0
 40
0.0
 40
1.0
 40
1.0
 40
1.0
 40
2.0
 40
2.0
 40
2.0
 40
3.0
 40
3.0
 40
3.0
 40
4.0
 40
4.0
 40
4.0
 40
4.0
 10
-91.27594340988682
 20
-103.403041183275
 30
0.0
 10
-92.38590947135868
 20
-103.403041183275
 30
0.0
 10
-93.28568432893453
 20
-104.3022387686998
 30
0.0
 10
-93.28568432893453
 20
-105.4118841234223
 30
0.0
 10
-93.28568432893453
 20
-106.5215294781448
 30
0.0
 10
-92.38590947135868
 20
-107.42130433572
 30
0.0
 10
-91.27594340988682
 20
-107.42130433572
 30
0.0
 10
-90.16668290326396
 20
-107.42130433572
 30
0.0
 10
-89.26716461108853
 20
-106.5215294781448
 30
0.0
 10
-89.26716461108853
 20
-105.4118841234223
 30
0.0
 10
-89.26716461108853
 20
-104.3022387686998
 30
0.0
 10
-90.16668290326396
 20
-103.403041183275
 30
0.0
 10
-91.27594340988682
 20
-103.403041183275
 30
0.0
  0
LINE
  5
D5
330
70
100
AcDbEntity
  8
Standardebene
  6
AI-Linetype-0
 62
     7
370
     9
100
AcDbLine
 10
-110.2759582434865
 20
-67.12251282644519
 30
0.0
 11
-110.2759582434865
 21
-12.24246822531425
 31
0.0
  0
LINE
  5
D7
330
70
100
AcDbEntity
  8
Standardebene
  6
AI-Linetype-1
 62
     7
370
     9
100
AcDbLine
 10
-110.2759582434865
 20
-192.1586342235858
 30
0.0
 11
-110.2759582434865
 21
-77.38198589772953
 31
0.0
  0
LINE
  5
D9
330
70
100
AcDbEntity
  8
Standardebene
  6
AI-Linetype-2
 62
     7
370
     9
100
AcDbLine
 10
-163.1108559003782
 20
-27.4121540619223
 30
0.0
 11
-102.9034873349794
 21
-27.4121540619223
 31
0.0
  0
LINE
  5
DB
330
70
100
AcDbEntity
  8
Standardebene
  6
AI-Linetype-3
 62
     7
370
     9
100
AcDbLine
 10
-21.05405758879249
 20
-66.73946068434094
 30
0.0
 11
-21.05405758879249
 21
-12.24246822531425
 31
0.0
  0
LINE
  5
DD
330
70
100
AcDbEntity
  8
Standardebene
  6
AI-Linetype-4
 62
     7
370
     9
100
AcDbLine
 10
-21.05405758879249
 20
-191.9237485999442
 30
0.0
 11
-21.05405758879249
 21
-76.99957516912532
 31
0.0
  0
LINE
  5
DF
330
70
100
AcDbEntity
  8
Standardebene
 62
     7
370
    35
100
AcDbLine
 10
-6.80390214555509
 20
-40.41174560452254
 30
0.0
 11
-7.803609226405134
 21
-39.41171781692247
 31
0.0
  0
LINE
  5
E0
330
70
100
AcDbEntity
  8
Standardebene
 62
     7
370
    35
100
AcDbLine
 10
-34.30322312417978
 20
-39.41171781692247
 30
0.0
 11
-35.30421303202989
 21
-40.41174560452254
 31
0.0
  0
LINE
  5
E1
330
70
100
AcDbEntity
  8
Standardebene
 62
     7
370
    35
100
AcDbLine
 10
-35.30421303202989
 20
-177.9066186811992
 30
0.0
 11
-35.30421303202989
 21
-183.9117242907471
 31
0.0
  0
LINE
  5
E2
330
70
100
AcDbEntity
  8
Standardebene
 62
     7
370
    35
100
AcDbLine
 10
-35.30421303202989
 20
-40.41174560452254
 30
0.0
 11
-35.30421303202989
 21
-99.41332093157207
 31
0.0
  0
LINE
  5
E3
330
70
100
AcDbEntity
  8
Standardebene
 62
     7
370
    35
100
AcDbLine
 10
-35.30421303202989
 20
-111.8011404662845
 30
0.0
 11
-35.30421303202989
 21
-178.9860286424043
 31
0.0
  0
LINE
  5
E4
330
70
100
AcDbEntity
  8
Standardebene
 62
     7
370
    35
100
AcDbLine
 10
-6.80390214555509
 20
-183.9117242907471
 30
0.0
 11
-6.80390214555509
 21
-111.4132053933216
 31
0.0
  0
LINE
  5
E5
330
70
100
AcDbEntity
  8
Standardebene
 62
     7
370
    35
100
AcDbLine
 10
-6.80390214555509
 20
-99.41274365942227
 30
0.0
 11
-6.80390214555509
 21
-40.41174560452254
 31
0.0
  0
LINE
  5
E6
330
70
100
AcDbEntity
  8
Standardebene
 62
     7
370
    35
100
AcDbLine
 10
-35.30421303202989
 20
-183.9117242907471
 30
0.0
 11
-34.90640837942868
 21
-187.1450897434395
 31
0.0
  0
LINE
  5
E7
330
70
100
AcDbEntity
  8
Standardebene
 62
     7
370
    35
100
AcDbLine
 10
-7.200359829805329
 20
-187.1450897434395
 30
0.0
 11
-6.80390214555509
 21
-183.9117242907471
 31
0.0
  0
LINE
  5
E8
330
70
100
AcDbEntity
  8
Standardebene
 62
     7
370
    35
100
AcDbLine
 10
-6.934173227371476
 20
-187.6668796255579
 30
0.0
 11
-7.200359829805329
 21
-187.1450897434395
 31
0.0
  0
LINE
  5
E9
330
70
100
AcDbEntity
  8
Standardebene
 62
     7
370
    35
100
AcDbLine
 10
-34.90640837942868
 20
-187.1450897434395
 30
0.0
 11
-35.17265912321215
 21
-187.6668796255579
 31
0.0
  0
LINE
  5
EA
330
70
100
AcDbEntity
  8
Standardebene
 62
     7
370
    35
100
AcDbLine
 10
-31.55341930901757
 20
-15.01170686952252
 30
0.0
 11
-31.55341930901757
 21
-15.41194889342272
 31
0.0
  0
LWPOLYLINE
  5
EB
330
70
100
AcDbEntity
  8
Standardebene
 62
     7
370
    35
100
AcDbPolyline
 90
        3
 70
     0
 43
0.0
 10
-10.55405445506737
 20
-15.41194889342272
 10
-10.55405445506737
 20
-15.01170686952252
 10
-11.05326658199236
 20
-14.51217403584752
  0
LINE
  5
EC
330
70
100
AcDbEntity
  8
Standardebene
 62
     7
370
    35
100
AcDbLine
 10
-31.05356576859255
 20
-14.51217403584752
 30
0.0
 11
-31.55341930901757
 21
-15.01170686952252
 31
0.0
  0
LINE
  5
ED
330
70
100
AcDbEntity
  8
Standardebene
 62
     7
370
    35
100
AcDbLine
 10
-39.05308251454274
 20
-15.41194889342272
 30
0.0
 11
-39.05308251454274
 21
-39.41171781692247
 31
0.0
  0
LINE
  5
EE
330
70
100
AcDbEntity
  8
Standardebene
 62
     7
370
    35
100
AcDbLine
 10
-3.053749836042165
 20
-39.41171781692247
 30
0.0
 11
-3.053749836042165
 21
-15.41194889342272
 31
0.0
  0
LINE
  5
EF
330
70
100
AcDbEntity
  8
Standardebene
 62
     7
370
    35
100
AcDbLine
 10
3.946059829057345
 20
-103.2117075362721
 30
0.0
 11
3.946059829057345
 21
-99.61190255112233
 31
0.0
  0
LINE
  5
F0
330
70
100
AcDbEntity
  8
Standardebene
 62
     7
370
    35
100
AcDbLine
 10
3.946059829057345
 20
-111.2121864024723
 30
0.0
 11
3.946059829057345
 21
-107.5848006368294
 31
0.0
  0
SPLINE
  5
F1
330
70
100
AcDbEntity
  8
Standardebene
 62
     7
370
    35
100
AcDbSpline
210
0.0
220
0.0
230
1.0
 70
     8
 71
     3
 72
    11
 73
     7
 74
     0
 42
0.0000000001
 43
0.0000000001
 40
0.0
 40
0.0
 40
0.0
 40
0.0
 40
1.0
 40
1.0
 40
1.0
 40
2.0
 40
2.0
 40
2.0
 40
2.0
 10
-35.17265912321215
 20
-187.6668796255579
 30
0.0
 10
-35.26348327478983
 20
-187.8441663169142
 30
0.0
 10
-35.30479030417903
 20
-188.0339605715173
 30
0.0
 10
-35.30421303202989
 20
-188.2118245350227
 30
0.0
 10
-35.30421303202989
 20
-188.874532963057
 30
0.0
 10
-34.76613124701405
 20
-189.4113319210728
 30
0.0
 10
-34.1034228189797
 20
-189.4113319210728
 30
0.0
  0
SPLINE
  5
F2
330
70
100
AcDbEntity
  8
Standardebene
 62
     7
370
    35
100
AcDbSpline
210
0.0
220
0.0
230
1.0
 70
     8
 71
     3
 72
    11
 73
     7
 74
     0
 42
0.0000000001
 43
0.0000000001
 40
0.0
 40
0.0
 40
0.0
 40
0.0
 40
1.0
 40
1.0
 40
1.0
 40
2.0
 40
2.0
 40
2.0
 40
2.0
 10
-8.003409531605212
 20
-189.4113319210728
 30
0.0
 10
-7.340059690070824
 20
-189.4113319210728
 30
0.0
 10
-6.80390214555509
 20
-188.874532963057
 30
0.0
 10
-6.80390214555509
 20
-188.2118245350227
 30
0.0
 10
-6.80390214555509
 20
-188.0133070568214
 30
0.0
 10
-6.852136440742226
 20
-187.8253729013688
 30
0.0
 10
-6.934173227371476
 20
-187.6668796255579
 30
0.0
  0
LWPOLYLINE
  5
F3
330
70
100
AcDbEntity
  8
Standardebene
 62
     7
370
    35
100
AcDbPolyline
 90
       29
 70
     0
 43
0.0
 10
-21.05405758879249
 20
-170.6846920655197
 10
-20.47524604653659
 20
-170.6358163568312
 10
-19.91400923417691
 20
-170.4936149839172
 10
-18.90365468922988
 20
-169.9468099753044
 10
-18.11567820467633
 20
-169.0861613412192
 10
-17.83570121199621
 20
-168.5612285329503
 10
-17.64904988354365
 20
-167.9944114231417
 10
-17.5613686581146
 20
-167.414958467387
 10
-17.57201612221288
 20
-166.8287065285337
 10
-17.87142794393779
 20
-165.7287465176588
 10
-18.51091720327741
 20
-164.7779151454965
 10
-18.95188898441766
 20
-164.3858190730441
 10
-19.45302535184275
 20
-164.0719754475729
 10
-20.00233187310408
 20
-163.8465186023791
 10
-20.58422220015963
 20
-163.715606107062
 10
-21.16489384156345
 20
-163.6867424995694
 10
-21.74242255681928
 20
-163.7531287968025
 10
-22.80787452140371
 20
-164.1552950612022
 10
-23.69738676298026
 20
-164.8913170522676
 10
-24.04625156554404
 20
-165.3704529366484
 10
-24.30993665532865
 20
-165.9022488693651
 10
-24.47907739523589
 20
-166.4704129475227
 10
-24.55110813126754
 20
-167.059166399026
 10
-24.40326231955429
 20
-168.1985733401415
 10
-23.90090726648002
 20
-169.2202167626862
 10
-23.07598536433702
 20
-170.0414184665301
 10
-22.56234143366445
 20
-170.3426903874055
 10
-22.00488896095408
 20
-170.5524967432019
 10
-21.05405758879249
 20
-170.6846920655197
  0
LWPOLYLINE
  5
F4
330
70
100
AcDbEntity
  8
Standardebene
 62
     7
370
    35
100
AcDbPolyline
 90
       19
 70
     0
 43
0.0
 10
-17.69914427787999
 20
-180.3208187932836
 10
-17.55630149146715
 20
-179.1870562909678
 10
-17.78560681765987
 20
-178.0671483202467
 10
-18.36313553291441
 20
-177.081808901794
 10
-18.77588512006145
 20
-176.6640562893478
 10
-19.25258363314263
 20
-176.3201303707348
 10
-19.78688107850916
 20
-176.0583053800988
 10
-20.35940676846587
 20
-175.8904474671916
 10
-20.94001426852007
 20
-175.8227783429584
 10
-21.52382883607445
 20
-175.8522192226008
 10
-22.6130772415021
 20
-176.1879991897673
 10
-23.54453792596917
 20
-176.8619323540491
 10
-23.92220219467466
 20
-177.3161172532852
 10
-24.21911250375097
 20
-177.8284783569577
 10
-24.42519866124896
 20
-178.3847121440176
 10
-24.53545764187206
 20
-178.9697453972224
 10
-24.54546369246902
 20
-179.5497756251262
 10
-24.4602839796905
 20
-180.1228785872327
 10
-24.40768807270364
 20
-180.3208187932836
  0
LWPOLYLINE
  5
F5
330
70
100
AcDbEntity
  8
Standardebene
 62
     7
370
    35
100
AcDbPolyline
 90
       12
 70
     0
 43
0.0
 10
-17.69914427787999
 20
-183.9117242907471
 10
-16.04923633224244
 20
-183.9117242907471
 10
-14.47264194963788
 20
-183.9117242907471
 10
-12.99379898440639
 20
-183.9117242907471
 10
-11.63137256939796
 20
-183.9117242907471
 10
-10.40806874250397
 20
-183.9117242907471
 10
-9.340692537420723
 20
-183.9117242907471
 10
-8.445599998393989
 20
-183.9117242907471
 10
-7.735298688671252
 20
-183.9117242907471
 10
-7.219794658850756
 20
-183.9117242907471
 10
-6.9085166873784
 20
-183.9117242907471
 10
-6.80390214555509
 20
-183.9117242907471
  0
LWPOLYLINE
  5
F6
330
70
100
AcDbEntity
  8
Standardebene
 62
     7
370
    35
100
AcDbPolyline
 90
       12
 70
     0
 43
0.0
 10
-35.09544528851448
 20
-183.9117242907471
 10
-28.03659957911915
 20
-183.9117242907471
 10
-27.7253216076468
 20
-183.9117242907471
 10
-27.21039484997608
 20
-183.9117242907471
 10
-26.49945212675266
 20
-183.9117242907471
 10
-25.60435958772657
 20
-183.9117242907471
 10
-24.53762479614336
 20
-183.9117242907471
 10
-23.31367955574933
 20
-183.9117242907471
 10
-21.95260010908995
 20
-183.9117242907471
 10
-20.47247431685967
 20
-183.9117242907471
 10
-18.89581579290421
 20
-183.9117242907471
 10
-17.24597198861627
 20
-183.9117242907471
  0
LWPOLYLINE
  5
F7
330
70
100
AcDbEntity
  8
Standardebene
 62
     7
370
    35
100
AcDbPolyline
 90
       14
 70
     0
 43
0.0
 10
-21.05405758879249
 20
-40.41174560452254
 10
-22.77092910381296
 20
-40.41174560452254
 10
-24.46406831933981
 20
-40.41174560452254
 10
-26.10704899917878
 20
-40.41174560452254
 10
-27.67613884383625
 20
-40.41174560452254
 10
-29.14811868461878
 20
-40.41174560452254
 10
-30.50361783382927
 20
-40.41174560452254
 10
-31.72005853627557
 20
-40.41174560452254
 10
-32.78114888906027
 20
-40.41174560452254
 10
-33.6718156749383
 20
-40.41174560452254
 10
-34.37775537286131
 20
-40.41174560452254
 10
-34.8895392043834
 20
-40.41174560452254
 10
-35.20023990370533
 20
-40.41174560452254
 10
-35.30421303202989
 20
-40.41174560452254
  0
LWPOLYLINE
  5
F8
330
70
100
AcDbEntity
  8
Standardebene
 62
     7
370
    35
100
AcDbPolyline
 90
       14
 70
     0
 43
0.0
 10
-6.80390214555509
 20
-40.41174560452254
 10
-6.907875273878365
 20
-40.41174560452254
 10
-7.217934559700268
 20
-40.41174560452254
 10
-7.729654249872737
 20
-40.41174560452254
 10
-8.435593947796387
 20
-40.41174560452254
 10
-9.325683461524
 20
-40.41174560452254
 10
-10.38741522780937
 20
-40.41174560452254
 10
-11.60443320240482
 20
-40.41174560452254
 10
-12.95871366596613
 20
-40.41174560452254
 10
-14.43133492024741
 20
-40.41174560452254
 10
-16.00042476490488
 20
-40.41174560452254
 10
-17.64340544474514
 20
-40.41174560452254
 10
-19.33590324677195
 20
-40.41174560452254
 10
-21.05405758879249
 20
-40.41174560452254
  0
LWPOLYLINE
  5
F9
330
70
100
AcDbEntity
  8
Standardebene
 62
     7
370
    35
100
AcDbPolyline
 90
       12
 70
     0
 43
0.0
 10
-24.40768807270364
 20
-180.3208187932836
 10
-24.1953160629071
 20
-180.8614020909486
 10
-23.89782848168037
 20
-181.3599728043742
 10
-23.07848687698562
 20
-182.1755300694203
 10
-22.02432378999951
 20
-182.6835295612931
 10
-21.44551224774361
 20
-182.7981501537146
 10
-20.85547596924158
 20
-182.8144420566108
 10
-19.71799326862615
 20
-182.5557599921259
 10
-18.72765082487367
 20
-181.9362828339809
 10
-18.32048153517553
 20
-181.5071772025868
 10
-17.99169297515786
 20
-181.0167524406103
 10
-17.69914427787999
 20
-180.3208187932836
  0
LWPOLYLINE
  5
FA
330
70
100
AcDbEntity
  8
Standardebene
 62
     7
370
    35
100
AcDbPolyline
 90
       26
 70
     0
 43
0.0
 10
-34.90640837942868
 20
-187.1450897434395
 10
-34.79743222580629
 20
-187.1450897434395
 10
-34.47108103708695
 20
-187.1450897434395
 10
-33.93364066557243
 20
-187.1450897434395
 10
-33.19325706270727
 20
-187.1450897434395
 10
-32.26121910608978
 20
-187.1450897434395
 10
-31.15189445811795
 20
-187.1450897434395
 10
-29.88414067568421
 20
-187.1450897434395
 10
-28.47662289163599
 20
-187.1450897434395
 10
-26.95204714386725
 20
-187.1450897434395
 10
-25.33472300402135
 20
-187.1450897434395
 10
-23.64972973994354
 20
-187.1450897434395
 10
-21.92342944647396
 20
-187.1450897434395
 10
-20.18333876276004
 20
-187.1450897434395
 10
-18.45832129629054
 20
-187.1450897434395
 10
-16.77275076006231
 20
-187.1450897434395
 10
-15.15542662021642
 20
-187.1450897434395
 10
-13.63078673109805
 20
-187.1450897434395
 10
-12.22333308839945
 20
-187.1450897434395
 10
-10.95493789246696
 20
-187.1450897434395
 10
-9.846190516644259
 20
-187.1450897434395
 10
-8.914793973526814
 20
-187.1450897434395
 10
-8.173127543661586
 20
-187.1450897434395
 10
-7.635687172147064
 20
-187.1450897434395
 10
-7.309977396927761
 20
-187.1450897434395
 10
-7.200359829805329
 20
-187.1450897434395
  0
LWPOLYLINE
  5
FB
330
70
100
AcDbEntity
  8
Standardebene
 62
     7
370
    35
100
AcDbPolyline
 90
       26
 70
     0
 43
0.0
 10
-34.1034228189797
 20
-189.4113319210728
 10
-34.00066837630559
 20
-189.4113319210728
 10
-33.69311060313229
 20
-189.4113319210728
 10
-33.18703535175898
 20
-189.4113319210728
 10
-32.48924160528309
 20
-189.4113319210728
 10
-31.61108238265253
 20
-189.4113319210728
 10
-30.56686120491441
 20
-189.4113319210728
 10
-29.37171543066273
 20
-189.4113319210728
 10
-28.04572130244361
 20
-189.4113319210728
 10
-26.61004546575308
 20
-189.4113319210728
 10
-25.08604699013411
 20
-189.4113319210728
 10
-23.49880514343127
 20
-189.4113319210728
 10
-21.87269363863759
 20
-189.4113319210728
 10
-20.23407457059642
 20
-189.4113319210728
 10
-18.60802720715364
 20
-189.4113319210728
 10
-17.02078536045081
 20
-189.4113319210728
 10
-15.49678688483183
 20
-189.4113319210728
 10
-14.06111104814002
 20
-189.4113319210728
 10
-12.73505277857192
 20
-189.4113319210728
 10
-11.54054841781964
 20
-189.4113319210728
 10
-10.49574996793109
 20
-189.4113319210728
 10
-9.617590745300548
 20
-189.4113319210728
 10
-8.919155585325899
 20
-189.4113319210728
 10
-8.413080333952587
 20
-189.4113319210728
 10
-8.106099832929057
 20
-189.4113319210728
 10
-8.003409531605212
 20
-189.4113319210728
  0
LINE
  5
FC
330
70
100
AcDbEntity
  8
Standardebene
 62
     7
370
    35
100
AcDbLine
 10
-11.90198492497988
 20
-15.41194889342272
 30
0.0
 11
-11.90198492497988
 21
-39.41171781692247
 31
0.0
  0
LINE
  5
FD
330
70
100
AcDbEntity
  8
Standardebene
 62
     7
370
    35
100
AcDbLine
 10
-30.20484742560375
 20
-15.41194889342272
 30
0.0
 11
-11.90198492497988
 21
-15.41194889342272
 31
0.0
  0
LINE
  5
FE
330
70
100
AcDbEntity
  8
Standardebene
 62
     7
370
    35
100
AcDbLine
 10
-30.20484742560375
 20
-39.41171781692247
 30
0.0
 11
-30.20484742560375
 21
-15.41194889342272
 31
0.0
  0
LINE
  5
FF
330
70
100
AcDbEntity
  8
Standardebene
 62
     7
370
    35
100
AcDbLine
 10
-11.90198492497988
 20
-39.41171781692247
 30
0.0
 11
-30.20484742560375
 21
-39.41171781692247
 31
0.0
  0
LWPOLYLINE
  5
100
330
70
100
AcDbEntity
  8
Standardebene
 62
     7
370
    35
100
AcDbPolyline
 90
       10
 70
     0
 43
0.0
 10
-30.20484742560375
 20
-15.41194889342272
 10
-31.92672196592462
 20
-15.41194889342272
 10
-33.50459917552925
 20
-15.41194889342272
 10
-34.91705584352632
 20
-15.41194889342272
 10
-36.14606825056973
 20
-15.41194889342272
 10
-37.17393338406209
 20
-15.41194889342272
 10
-37.98763054995832
 20
-15.41194889342272
 10
-38.57766682846099
 20
-15.41194889342272
 10
-38.93403616897185
 20
-15.41194889342272
 10
-39.05308251454274
 20
-15.41194889342272
  0
LWPOLYLINE
  5
101
330
70
100
AcDbEntity
  8
Standardebene
 62
     7
370
    35
100
AcDbPolyline
 90
       10
 70
     0
 43
0.0
 10
-3.053749836042165
 20
-15.41194889342272
 10
-3.172732040262162
 20
-15.41194889342272
 10
-3.529806935622674
 20
-15.41194889342272
 10
-4.118560387125271
 20
-15.41194889342272
 10
-4.932898966521542
 20
-15.41194889342272
 10
-5.960764100015185
 20
-15.41194889342272
 10
-7.189712365707693
 20
-15.41194889342272
 10
-8.602233175055671
 20
-15.41194889342272
 10
-10.18004624331067
 20
-15.41194889342272
 10
-11.90198492497988
 20
-15.41194889342272
  0
LWPOLYLINE
  5
102
330
70
100
AcDbEntity
  8
Standardebene
 62
     7
370
    35
100
AcDbPolyline
 90
       10
 70
     0
 43
0.0
 10
-11.90198492497988
 20
-39.41171781692247
 10
-10.18004624331067
 20
-39.41171781692247
 10
-8.602233175055671
 20
-39.41171781692247
 10
-7.189712365707693
 20
-39.41171781692247
 10
-5.960764100015185
 20
-39.41171781692247
 10
-4.932898966521542
 20
-39.41171781692247
 10
-4.118560387125271
 20
-39.41171781692247
 10
-3.529806935622674
 20
-39.41171781692247
 10
-3.172732040262162
 20
-39.41171781692247
 10
-3.053749836042165
 20
-39.41171781692247
  0
LWPOLYLINE
  5
103
330
70
100
AcDbEntity
  8
Standardebene
 62
     7
370
    35
100
AcDbPolyline
 90
       10
 70
     0
 43
0.0
 10
-39.05308251454274
 20
-39.41171781692247
 10
-38.93403616897185
 20
-39.41171781692247
 10
-38.57766682846099
 20
-39.41171781692247
 10
-37.98763054995832
 20
-39.41171781692247
 10
-37.17393338406209
 20
-39.41171781692247
 10
-36.14606825056973
 20
-39.41171781692247
 10
-34.91705584352632
 20
-39.41171781692247
 10
-33.50459917552925
 20
-39.41171781692247
 10
-31.92672196592462
 20
-39.41171781692247
 10
-30.20484742560375
 20
-39.41171781692247
  0
LWPOLYLINE
  5
104
330
70
100
AcDbEntity
  8
Standardebene
 62
     7
370
    35
100
AcDbPolyline
 90
       20
 70
     0
 43
0.0
 10
-21.05405758879249
 20
-26.01220495717206
 10
-21.70297562657929
 20
-26.12060383864533
 10
-22.27858010133565
 20
-26.43066312446787
 10
-22.72962207442248
 20
-26.92076717969504
 10
-22.99831018950622
 20
-27.54524736313858
 10
-23.04340155854408
 20
-28.21052144517308
 10
-22.87554364563691
 20
-28.83596374886602
 10
-22.51410713847731
 20
-29.3784071456803
 10
-21.97859100746097
 20
-29.78487088052943
 10
-21.33217448232213
 20
-29.99191915827747
 10
-20.67132615343826
 20
-29.9746651351319
 10
-20.06435655853877
 20
-29.75042697558728
 10
-19.55449696751678
 20
-29.33581728929168
 10
-19.19934631265574
 20
-28.76014867318506
 10
-19.0552848405918
 20
-28.09994175779995
 10
-19.13353728757174
 20
-27.45038230651247
 10
-19.41357842160212
 20
-26.86720915245813
 10
-19.87834664358624
 20
-26.39397427227688
 10
-20.48781775113305
 20
-26.09366447165218
 10
-21.05405758879249
 20
-26.01220495717206
  0
LWPOLYLINE
  5
105
330
70
100
AcDbEntity
  8
Standardebene
 62
     7
370
    35
100
AcDbPolyline
 90
       23
 70
     0
 43
0.0
 10
-31.05356576859255
 20
-14.51217403584752
 10
-30.95209415291787
 20
-14.51217403584752
 10
-30.64832071939324
 20
-14.51217403584752
 10
-30.14968586461803
 20
-14.51217403584752
 10
-29.46568250838968
 20
-14.51217403584752
 10
-28.61131972660301
 20
-14.51217403584752
 10
-27.60224800865476
 20
-14.51217403584752
 10
-26.45969814139123
 20
-14.51217403584752
 10
-25.2075948483536
 20
-14.51217403584752
 10
-23.87146638683828
 20
-14.51217403584752
 10
-22.47652030738652
 20
-14.51217403584752
 10
-21.05405758879249
 20
-14.51217403584752
 10
-19.63024790184812
 20
-14.51217403584752
 10
-18.2365846493958
 20
-14.51217403584752
 10
-16.89923750223067
 20
-14.51217403584752
 10
-15.64777562269372
 20
-14.51217403584752
 10
-14.5052257554289
 20
-14.51217403584752
 10
-13.49615403748194
 20
-14.51217403584752
 10
-12.64114984219523
 20
-14.51217403584752
 10
-11.95714648596624
 20
-14.51217403584752
 10
-11.45851163119039
 20
-14.51217403584752
 10
-11.15537961116707
 20
-14.51217403584752
 10
-11.05326658199236
 20
-14.51217403584752
  0
LWPOLYLINE
  5
106
330
70
100
AcDbEntity
  8
Standardebene
 62
     7
370
    35
100
AcDbPolyline
 90
       12
 70
     0
 43
0.0
 10
-21.05405758879249
 20
-15.01170686952252
 10
-22.54855104341882
 20
-15.01170686952252
 10
-24.01180766060189
 20
-15.01170686952252
 10
-25.41554110500144
 20
-15.01170686952252
 10
-26.73031049697315
 20
-15.01170686952252
 10
-27.92917646952323
 20
-15.01170686952252
 10
-28.98904813665748
 20
-15.01170686952252
 10
-29.88728360183348
 20
-15.01170686952252
 10
-30.60508944950394
 20
-15.01170686952252
 10
-31.12809801727408
 20
-15.01170686952252
 10
-31.44694466804314
 20
-15.01170686952252
 10
-31.55341930901757
 20
-15.01170686952252
  0
LWPOLYLINE
  5
107
330
70
100
AcDbEntity
  8
Standardebene
 62
     7
370
    35
100
AcDbPolyline
 90
       12
 70
     0
 43
0.0
 10
-10.55405445506737
 20
-15.01170686952252
 10
-10.66052909604053
 20
-15.01170686952252
 10
-10.97873433331083
 20
-15.01170686952252
 10
-11.50296158673014
 20
-15.01170686952252
 10
-12.22083157575021
 20
-15.01170686952252
 10
-13.11778421392615
 20
-15.01170686952252
 10
-14.17823315321081
 20
-15.01170686952252
 10
-15.37652185361177
 20
-15.01170686952252
 10
-16.69193265908223
 20
-15.01170686952252
 10
-18.09502468998174
 20
-15.01170686952252
 10
-19.55949999281526
 20
-15.01170686952252
 10
-21.05405758879249
 20
-15.01170686952252
  0
LWPOLYLINE
  5
108
330
70
100
AcDbEntity
  8
Standardebene
 62
     7
370
    35
100
AcDbPolyline
 90
        3
 70
     0
 43
0.0
 10
3.944777002058558
 20
-99.61190255112233
 10
3.94541841555731
 20
-99.61190255112233
 10
3.946059829057345
 20
-99.61190255112233
  0
LINE
  5
109
330
70
100
AcDbEntity
  8
Standardebene
 62
     7
370
    35
100
AcDbLine
 10
3.944777002058558
 20
-99.41210224592225
 30
0.0
 11
3.944777002058558
 21
-99.61190255112233
 31
0.0
  0
LINE
  5
10A
330
70
100
AcDbEntity
  8
Standardebene
 62
     7
370
    35
100
AcDbLine
 10
-2.271995062437555
 20
-99.41210224592225
 30
0.0
 11
-2.271995062437555
 21
-111.4119867076724
 31
0.0
  0
LWPOLYLINE
  5
10B
330
70
100
AcDbEntity
  8
Standardebene
 62
     7
370
    35
100
AcDbPolyline
 90
        8
 70
     0
 43
0.0
 10
3.944777002058558
 20
-99.41210224592225
 10
3.790709479397018
 20
-99.41210224592225
 10
3.381038677049001
 20
-99.41210224592225
 10
2.718330249014648
 20
-99.41210224592225
 10
1.811948832391526
 20
-99.41210224592225
 10
0.6701045199770082
 20
-99.41210224592225
 10
-0.6960420933311133
 20
-99.41210224592225
 10
-2.271995062437555
 20
-99.41210224592225
  0
LINE
  5
10C
330
70
100
AcDbEntity
  8
Standardebene
 62
     7
370
    35
100
AcDbLine
 10
3.944777002058558
 20
-111.2121864024723
 30
0.0
 11
3.944777002058558
 21
-111.4119867076724
 31
0.0
  0
LWPOLYLINE
  5
10D
330
70
100
AcDbEntity
  8
Standardebene
 62
     7
370
    35
100
AcDbPolyline
 90
        8
 70
     0
 43
0.0
 10
-2.271995062437555
 20
-111.4119867076724
 10
-0.6960420933311133
 20
-111.4119867076724
 10
0.6701045199770082
 20
-111.4119867076724
 10
1.811948832391526
 20
-111.4119867076724
 10
2.718330249014648
 20
-111.4119867076724
 10
3.381038677049001
 20
-111.4119867076724
 10
3.790709479397018
 20
-111.4119867076724
 10
3.944777002058558
 20
-111.4119867076724
  0
LWPOLYLINE
  5
10E
330
70
100
AcDbEntity
  8
Standardebene
 62
     7
370
    35
100
AcDbPolyline
 90
        3
 70
     0
 43
0.0
 10
3.946059829057345
 20
-111.2121864024723
 10
3.94541841555731
 20
-111.2121864024723
 10
3.944777002058558
 20
-111.2121864024723
  0
LWPOLYLINE
  5
10F
330
70
100
AcDbEntity
  8
Standardebene
 62
     7
370
    35
100
AcDbPolyline
 90
       10
 70
     0
 43
0.0
 10
3.946059829057345
 20
-103.2117075362721
 10
3.936053778461028
 20
-103.3354362003915
 10
3.909114411466598
 20
-103.6915489755026
 10
3.877172019175614
 20
-104.2421383237646
 10
3.851451337831636
 20
-105.4147063428216
 10
3.850874065681219
 20
-105.66209952971
 10
3.867743240727788
 20
-106.3690013478831
 10
3.898466947370245
 20
-106.9693643837327
 10
3.928549240512025
 20
-107.3956477957263
 10
3.944199729908141
 20
-107.5848006368294
  0
LINE
  5
110
330
70
100
AcDbEntity
  8
Standardebene
 62
     7
370
    35
100
AcDbLine
 10
-39.83477314679646
 20
-111.4119867076724
 30
0.0
 11
-39.83477314679646
 21
-99.41210224592225
 31
0.0
  0
LWPOLYLINE
  5
111
330
70
100
AcDbEntity
  8
Standardebene
 62
     7
370
    35
100
AcDbPolyline
 90
        8
 70
     0
 43
0.0
 10
-45.97335690566224
 20
-111.4119867076724
 10
-45.68459254803369
 20
-111.4119867076724
 10
-45.1909607185576
 20
-111.4119867076724
 10
-44.49566848473223
 20
-111.4119867076724
 10
-43.60371887185477
 20
-111.4119867076724
 10
-42.52383510352468
 20
-111.4119867076724
 10
-41.26422727253934
 20
-111.4119867076724
 10
-39.83477314679646
 20
-111.4119867076724
  0
LINE
  5
112
330
70
100
AcDbEntity
  8
Standardebene
 62
     7
370
    35
100
AcDbLine
 10
-45.97335690566224
 20
-111.4119867076724
 30
0.0
 11
-45.97335690566224
 21
-99.41210224592225
 31
0.0
  0
LWPOLYLINE
  5
113
330
70
100
AcDbEntity
  8
Standardebene
 62
     7
370
    35
100
AcDbPolyline
 90
        8
 70
     0
 43
0.0
 10
-39.83477314679646
 20
-99.41210224592225
 10
-41.26422727253934
 20
-99.41210224592225
 10
-42.52383510352468
 20
-99.41210224592225
 10
-43.60371887185477
 20
-99.41210224592225
 10
-44.49566848473223
 20
-99.41210224592225
 10
-45.1909607185576
 20
-99.41210224592225
 10
-45.68459254803369
 20
-99.41210224592225
 10
-45.97335690566224
 20
-99.41210224592225
  0
LINE
  5
114
330
70
100
AcDbEntity
  8
Standardebene
 62
     7
370
    35
100
AcDbLine
 10
-39.83477314679646
 20
-99.41210224592225
 30
0.0
 11
-2.271995062437555
 21
-99.41210224592225
 31
0.0
  0
LINE
  5
115
330
70
100
AcDbEntity
  8
Standardebene
 62
     7
370
    35
100
AcDbLine
 10
-2.271995062437555
 20
-111.4119867076724
 30
0.0
 11
-39.83477314679646
 21
-111.4119867076724
 31
0.0
  0
LWPOLYLINE
  5
116
330
70
100
AcDbEntity
  8
Standardebene
 62
     7
370
    35
100
AcDbPolyline
 90
        7
 70
     0
 43
0.0
 10
-21.05405758879249
 20
-37.22693515376862
 10
-23.13614995062058
 20
-36.02460554831924
 10
-24.21289079280203
 20
-35.40352485642409
 10
-25.30342202522976
 20
-34.77307952743203
 10
-25.60591263175369
 20
-34.59893576222567
 10
-27.58281317960933
 20
-33.45734801521091
 10
-29.55336373381681
 20
-32.31922390109544
  0
LWPOLYLINE
  5
117
330
70
100
AcDbEntity
  8
Standardebene
 62
     7
370
    35
100
AcDbPolyline
 90
        7
 70
     0
 43
0.0
 10
-12.5534044754172
 20
-32.31922390109544
 10
-14.63613825074661
 20
-33.52123279979544
 10
-15.71287909292678
 20
-34.14327561193935
 10
-16.80341032535451
 20
-34.77307952743203
 10
-17.1053236597293
 20
-34.94754399938841
 10
-19.08280147973536
 20
-36.08881103965315
 10
-21.05405758879249
 20
-37.22693515376862
  0
LWPOLYLINE
  5
118
330
70
100
AcDbEntity
  8
Standardebene
 62
     7
370
    35
100
AcDbPolyline
 90
        7
 70
     0
 43
0.0
 10
-12.5534044754172
 20
-22.50476351599913
 10
-12.5534044754172
 20
-24.27654002660621
 10
-12.5534044754172
 20
-26.09738466995123
 10
-12.5534044754172
 20
-27.4121540619223
 10
-12.5534044754172
 20
-29.25839867986063
 10
-12.5534044754172
 20
-31.10592612479841
 10
-12.5534044754172
 20
-32.31922390109544
  0
LWPOLYLINE
  5
119
330
70
100
AcDbEntity
  8
Standardebene
 62
     7
370
    35
100
AcDbPolyline
 90
        7
 70
     0
 43
0.0
 10
-21.05405758879249
 20
-17.59679569792619
 10
-18.97196522696248
 20
-18.79976671687561
 10
-17.89458297128163
 20
-19.42110397417051
 10
-16.80341032535451
 20
-20.05065132426279
 10
-16.50149699098036
 20
-20.22537236161892
 10
-14.52466058447433
 20
-21.36631869513365
 10
-12.5534044754172
 20
-22.50476351599913
  0
LWPOLYLINE
  5
11A
330
70
100
AcDbEntity
  8
Standardebene
 62
     7
370
    35
100
AcDbPolyline
 90
        7
 70
     0
 43
0.0
 10
-29.55336373381681
 20
-22.50476351599913
 10
-27.4713355133377
 20
-21.30211320380038
 10
-26.39453052980726
 20
-20.68077594650548
 10
-25.30342202522976
 20
-20.05065132426279
 10
-25.00150869085561
 20
-19.87618685230641
 10
-23.02403087084955
 20
-18.73491981204166
 10
-21.05405758879249
 20
-17.59679569792619
  0
LWPOLYLINE
  5
11B
330
70
100
AcDbEntity
  8
Standardebene
 62
     7
370
    35
100
AcDbPolyline
 90
        7
 70
     0
 43
0.0
 10
-29.55336373381681
 20
-32.31922390109544
 10
-29.55336373381681
 20
-31.10592612479841
 10
-29.55336373381681
 20
-29.28251582745517
 10
-29.55336373381681
 20
-27.4121540619223
 10
-29.55336373381681
 20
-26.09738466995123
 10
-29.55336373381681
 20
-24.29308849490211
 10
-29.55336373381681
 20
-22.50476351599913
  0
SPLINE
  5
11C
330
70
100
AcDbEntity
  8
Standardebene
 62
     7
370
    35
100
AcDbSpline
210
0.0
220
0.0
230
1.0
 70
     9
 71
     3
 72
    17
 73
    13
 74
     0
 42
0.0000000001
 43
0.0000000001
 40
0.0
 40
0.0
 40
0.0
 40
0.0
 40
1.0
 40
1.0
 40
1.0
 40
2.0
 40
2.0
 40
2.0
 40
3.0
 40
3.0
 40
3.0
 40
4.0
 40
4.0
 40
4.0
 40
4.0
 10
-21.05405758879249
 20
-18.9122065033973
 30
0.0
 10
-25.74753673251865
 20
-18.9122065033973
 30
0.0
 10
-29.55336373381681
 20
-22.71777693929571
 30
0.0
 10
-29.55336373381681
 20
-27.4121540619223
 30
0.0
 10
-29.55336373381681
 20
-32.10595391239911
 30
0.0
 10
-25.74753673251865
 20
-35.91216576179691
 30
0.0
 10
-21.05405758879249
 20
-35.91216576179691
 30
0.0
 10
-16.35871834591521
 20
-35.91216576179691
 30
0.0
 10
-12.5534044754172
 20
-32.10595391239911
 30
0.0
 10
-12.5534044754172
 20
-27.4121540619223
 30
0.0
 10
-12.5534044754172
 20
-22.71777693929571
 30
0.0
 10
-16.35871834591521
 20
-18.9122065033973
 30
0.0
 10
-21.05405758879249
 20
-18.9122065033973
 30
0.0
  0
SPLINE
  5
11D
330
70
100
AcDbEntity
  8
Standardebene
 62
     7
370
    35
100
AcDbSpline
210
0.0
220
0.0
230
1.0
 70
     9
 71
     3
 72
    17
 73
    13
 74
     0
 42
0.0000000001
 43
0.0000000001
 40
0.0
 40
0.0
 40
0.0
 40
0.0
 40
1.0
 40
1.0
 40
1.0
 40
2.0
 40
2.0
 40
2.0
 40
3.0
 40
3.0
 40
3.0
 40
4.0
 40
4.0
 40
4.0
 40
4.0
 10
-21.05405758879249
 20
-23.91196059329733
 30
0.0
 10
-22.98644403975877
 20
-23.91196059329733
 30
0.0
 10
-24.55360964391742
 20
-25.47886963205558
 30
0.0
 10
-24.55360964391742
 20
-27.4121540619223
 30
0.0
 10
-24.55360964391742
 20
-29.34454051288922
 30
0.0
 10
-22.98644403975877
 20
-30.91177025839748
 30
0.0
 10
-21.05405758879249
 20
-30.91177025839748
 30
0.0
 10
-19.12038831082486
 20
-30.91177025839748
 30
0.0
 10
-17.55379997881662
 20
-29.34454051288922
 30
0.0
 10
-17.55379997881662
 20
-27.4121540619223
 30
0.0
 10
-17.55379997881662
 20
-25.47886963205558
 30
0.0
 10
-19.12038831082486
 20
-23.91196059329733
 30
0.0
 10
-21.05405758879249
 20
-23.91196059329733
 30
0.0
  0
SPLINE
  5
11E
330
70
100
AcDbEntity
  8
Standardebene
 62
     7
370
    35
100
AcDbSpline
210
0.0
220
0.0
230
1.0
 70
     9
 71
     3
 72
    17
 73
    13
 74
     0
 42
0.0000000001
 43
0.0000000001
 40
0.0
 40
0.0
 40
0.0
 40
0.0
 40
1.0
 40
1.0
 40
1.0
 40
2.0
 40
2.0
 40
2.0
 40
3.0
 40
3.0
 40
3.0
 40
4.0
 40
4.0
 40
4.0
 40
4.0
 10
-21.05405758879249
 20
-21.41205147767219
 30
0.0
 10
-24.36695831546358
 20
-21.41205147767219
 30
0.0
 10
-27.05351875954193
 20
-24.09861192175053
 30
0.0
 10
-27.05351875954193
 20
-27.4121540619223
 30
0.0
 10
-27.05351875954193
 20
-30.72569620209406
 30
0.0
 10
-24.36695831546358
 20
-33.4122566461724
 30
0.0
 10
-21.05405758879249
 20
-33.4122566461724
 30
0.0
 10
-17.73987403512005
 20
-33.4122566461724
 30
0.0
 10
-15.0533135910417
 20
-30.72569620209406
 30
0.0
 10
-15.0533135910417
 20
-27.4121540619223
 30
0.0
 10
-15.0533135910417
 20
-24.09861192175053
 30
0.0
 10
-17.73987403512005
 20
-21.41205147767219
 30
0.0
 10
-21.05405758879249
 20
-21.41205147767219
 30
0.0
  0
SPLINE
  5
11F
330
70
100
AcDbEntity
  8
Standardebene
 62
     7
370
    35
100
AcDbSpline
210
0.0
220
0.0
230
1.0
 70
     9
 71
     3
 72
    17
 73
    13
 74
     0
 42
0.0000000001
 43
0.0000000001
 40
0.0
 40
0.0
 40
0.0
 40
0.0
 40
1.0
 40
1.0
 40
1.0
 40
2.0
 40
2.0
 40
2.0
 40
3.0
 40
3.0
 40
3.0
 40
4.0
 40
4.0
 40
4.0
 40
4.0
 10
-21.05405758879249
 20
-24.41181413372235
 30
0.0
 10
-22.71018724537769
 20
-24.41181413372235
 30
0.0
 10
-24.05311468999236
 20
-25.75474157833702
 30
0.0
 10
-24.05311468999236
 20
-27.4121540619223
 30
0.0
 10
-24.05311468999236
 20
-29.06860442525816
 30
0.0
 10
-22.71018724537769
 20
-30.41191671797246
 30
0.0
 10
-21.05405758879249
 20
-30.41191671797246
 30
0.0
 10
-19.39728651870597
 20
-30.41191671797246
 30
0.0
 10
-18.05307624709251
 20
-29.06860442525816
 30
0.0
 10
-18.05307624709251
 20
-27.4121540619223
 30
0.0
 10
-18.05307624709251
 20
-25.75474157833702
 30
0.0
 10
-19.39728651870597
 20
-24.41181413372235
 30
0.0
 10
-21.05405758879249
 20
-24.41181413372235
 30
0.0
  0
LINE
  5
120
330
70
100
AcDbEntity
  8
Standardebene
 62
     7
370
    35
100
AcDbLine
 10
-124.5261136867239
 20
-168.4119670671226
 30
0.0
 11
-124.5261136867239
 21
-179.4193282792205
 31
0.0
  0
LINE
  5
121
330
70
100
AcDbEntity
  8
Standardebene
 62
     7
370
    35
100
AcDbLine
 10
-124.5261136867239
 20
-40.41174560452254
 30
0.0
 11
-124.5261136867239
 21
-99.41210224592225
 31
0.0
  0
LINE
  5
122
330
70
100
AcDbEntity
  8
Standardebene
 62
     7
370
    35
100
AcDbLine
 10
-124.5261136867239
 20
-111.4113452941724
 30
0.0
 11
-124.5261136867239
 21
-161.4190205264702
 31
0.0
  0
LINE
  5
123
330
70
100
AcDbEntity
  8
Standardebene
 62
     7
370
    35
100
AcDbLine
 10
-96.02612350699853
 20
-183.9117242907471
 30
0.0
 11
-96.02612350699853
 21
-111.4132053933216
 31
0.0
  0
LINE
  5
124
330
70
100
AcDbEntity
  8
Standardebene
 62
     7
370
    35
100
AcDbLine
 10
-96.02612350699853
 20
-99.41274365942227
 30
0.0
 11
-96.02612350699853
 21
-40.41174560452254
 31
0.0
  0
LINE
  5
125
330
70
100
AcDbEntity
  8
Standardebene
 62
     7
370
    35
100
AcDbLine
 10
-124.2207367194505
 20
-186.4003445287752
 30
0.0
 11
-124.129335295723
 21
-187.1450897434395
 31
0.0
  0
LINE
  5
126
330
70
100
AcDbEntity
  8
Standardebene
 62
     7
370
    35
100
AcDbLine
 10
-96.42296603935033
 20
-187.1450897434395
 30
0.0
 11
-96.02612350699853
 21
-183.9117242907471
 31
0.0
  0
LINE
  5
127
330
70
100
AcDbEntity
  8
Standardebene
 62
     7
370
    35
100
AcDbLine
 10
-96.02612350699853
 20
-40.41174560452254
 30
0.0
 11
-97.02647200134862
 21
-39.41171781692247
 31
0.0
  0
LINE
  5
128
330
70
100
AcDbEntity
  8
Standardebene
 62
     7
370
    35
100
AcDbLine
 10
-123.5260858991239
 20
-39.41171781692247
 30
0.0
 11
-124.5261136867239
 21
-40.41174560452254
 31
0.0
  0
LINE
  5
129
330
70
100
AcDbEntity
  8
Standardebene
 62
     7
370
    35
100
AcDbLine
 10
-96.15703600231624
 20
-187.6668796255579
 30
0.0
 11
-96.42296603935033
 21
-187.1450897434395
 31
0.0
  0
LINE
  5
12A
330
70
100
AcDbEntity
  8
Standardebene
 62
     7
370
    35
100
AcDbLine
 10
-124.129335295723
 20
-187.1450897434395
 30
0.0
 11
-124.3955218981562
 21
-187.6668796255579
 31
0.0
  0
LINE
  5
12B
330
70
100
AcDbEntity
  8
Standardebene
 62
     7
370
    35
100
AcDbLine
 10
-120.776282083961
 20
-15.01170686952252
 30
0.0
 11
-120.776282083961
 21
-15.41194889342272
 31
0.0
  0
LWPOLYLINE
  5
12C
330
70
100
AcDbEntity
  8
Standardebene
 62
     7
370
    35
100
AcDbPolyline
 90
        3
 70
     0
 43
0.0
 10
-99.77595510976208
 20
-15.41194889342272
 10
-99.77595510976208
 20
-15.01170686952252
 10
-100.2758086501864
 20
-14.51217403584752
  0
LINE
  5
12D
330
70
100
AcDbEntity
  8
Standardebene
 62
     7
370
    35
100
AcDbLine
 10
-120.276107836786
 20
-14.51217403584752
 30
0.0
 11
-120.776282083961
 21
-15.01170686952252
 31
0.0
  0
LINE
  5
12E
330
70
100
AcDbEntity
  8
Standardebene
 62
     7
370
    35
100
AcDbLine
 10
-97.77622024131133
 20
-39.41171781692247
 30
0.0
 11
-97.77622024131133
 21
-15.41194889342272
 31
0.0
  0
LINE
  5
12F
330
70
100
AcDbEntity
  8
Standardebene
 62
     7
370
    35
100
AcDbLine
 10
-149.7764465108615
 20
-21.41205147767219
 30
0.0
 11
-150.7761535917109
 21
-22.41207926527225
 31
0.0
  0
LWPOLYLINE
  5
130
330
70
100
AcDbEntity
  8
Standardebene
 62
     7
370
    35
100
AcDbPolyline
 90
        3
 70
     0
 43
0.0
 10
-150.7761535917109
 20
-32.41222885857234
 10
-149.7764465108615
 20
-33.4122566461724
 10
-138.2760948827863
 20
-33.4122566461724
  0
LINE
  5
131
330
70
100
AcDbEntity
  8
Standardebene
 62
     7
370
    35
100
AcDbLine
 10
-138.2760948827863
 20
-21.41205147767219
 30
0.0
 11
-149.7764465108615
 21
-21.41205147767219
 31
0.0
  0
LINE
  5
132
330
70
100
AcDbEntity
  8
Standardebene
 62
     7
370
    35
100
AcDbLine
 10
-159.5764750922115
 20
-33.4122566461724
 30
0.0
 11
-154.7762006007615
 21
-33.4122566461724
 31
0.0
  0
LINE
  5
133
330
70
100
AcDbEntity
  8
Standardebene
 62
     7
370
    35
100
AcDbLine
 10
-154.7762006007615
 20
-21.41205147767219
 30
0.0
 11
-159.5764750922115
 21
-21.41205147767219
 31
0.0
  0
LINE
  5
134
330
70
100
AcDbEntity
  8
Standardebene
 62
     7
370
    35
100
AcDbLine
 10
-154.7762006007615
 20
-33.4122566461724
 30
0.0
 11
-153.7762369545111
 21
-32.41222885857234
 31
0.0
  0
LINE
  5
135
330
70
100
AcDbEntity
  8
Standardebene
 62
     7
370
    35
100
AcDbLine
 10
-153.7762369545111
 20
-22.41207926527225
 30
0.0
 11
-154.7762006007615
 21
-21.41205147767219
 31
0.0
  0
LINE
  5
136
330
70
100
AcDbEntity
  8
Standardebene
 62
     7
370
    35
100
AcDbLine
 10
-153.7762369545111
 20
-32.41222885857234
 30
0.0
 11
-150.7761535917109
 21
-32.41222885857234
 31
0.0
  0
LINE
  5
137
330
70
100
AcDbEntity
  8
Standardebene
 62
     7
370
    35
100
AcDbLine
 10
-150.7761535917109
 20
-22.41207926527225
 30
0.0
 11
-153.7762369545111
 21
-22.41207926527225
 31
0.0
  0
LINE
  5
138
330
70
100
AcDbEntity
  8
Standardebene
 62
     7
370
    35
100
AcDbLine
 10
-131.2762852176861
 20
-18.9122065033973
 30
0.0
 11
-132.0351415293467
 21
-17.59679569792619
 31
0.0
  0
LINE
  5
139
330
70
100
AcDbEntity
  8
Standardebene
 62
     7
370
    35
100
AcDbLine
 10
-136.717075230076
 20
-17.59679569792619
 30
0.0
 11
-137.4759315417366
 21
-18.9122065033973
 31
0.0
  0
LINE
  5
13A
330
70
100
AcDbEntity
  8
Standardebene
 62
     7
370
    35
100
AcDbLine
 10
-132.0351415293467
 20
-37.22693515376862
 30
0.0
 11
-131.2762852176861
 21
-35.91216576179691
 31
0.0
  0
LINE
  5
13B
330
70
100
AcDbEntity
  8
Standardebene
 62
     7
370
    35
100
AcDbLine
 10
-137.4759315417366
 20
-35.91216576179691
 30
0.0
 11
-136.717075230076
 21
-37.22693515376862
 31
0.0
  0
SPLINE
  5
13C
330
70
100
AcDbEntity
  8
Standardebene
 62
     7
370
    35
100
AcDbSpline
210
0.0
220
0.0
230
1.0
 70
     8
 71
     3
 72
    11
 73
     7
 74
     0
 42
0.0000000001
 43
0.0000000001
 40
0.0
 40
0.0
 40
0.0
 40
0.0
 40
1.0
 40
1.0
 40
1.0
 40
2.0
 40
2.0
 40
2.0
 40
2.0
 10
-124.3955218981562
 20
-187.6668796255579
 30
0.0
 10
-124.4851273640841
 20
-187.8441663169142
 30
0.0
 10
-124.5279737858738
 20
-188.0339605715173
 30
0.0
 10
-124.5261136867239
 20
-188.2118245350227
 30
0.0
 10
-124.5261136867239
 20
-188.874532963057
 30
0.0
 10
-123.9886733152081
 20
-189.4113319210728
 30
0.0
 10
-123.3262855939238
 20
-189.4113319210728
 30
0.0
  0
SPLINE
  5
13D
330
70
100
AcDbEntity
  8
Standardebene
 62
     7
370
    35
100
AcDbSpline
210
0.0
220
0.0
230
1.0
 70
     8
 71
     3
 72
    11
 73
     7
 74
     0
 42
0.0000000001
 43
0.0000000001
 40
0.0
 40
0.0
 40
0.0
 40
0.0
 40
1.0
 40
1.0
 40
1.0
 40
2.0
 40
2.0
 40
2.0
 40
2.0
 10
-97.22659301329869
 20
-189.4113319210728
 30
0.0
 10
-96.56324317176432
 20
-189.4113319210728
 30
0.0
 10
-96.02612350699853
 20
-188.874532963057
 30
0.0
 10
-96.02612350699853
 20
-188.2118245350227
 30
0.0
 10
-96.02612350699853
 20
-188.0133070568214
 30
0.0
 10
-96.07467850893698
 20
-187.8253729013688
 30
0.0
 10
-96.15703600231624
 20
-187.6668796255579
 30
0.0
  0
SPLINE
  5
13E
330
70
100
AcDbEntity
  8
Standardebene
 62
     7
370
    35
100
AcDbSpline
210
0.0
220
0.0
230
1.0
 70
     8
 71
     3
 72
     8
 73
     4
 74
     0
 42
0.0000000001
 43
0.0000000001
 40
0.0
 40
0.0
 40
0.0
 40
0.0
 40
1.0
 40
1.0
 40
1.0
 40
1.0
 10
-137.4759315417366
 20
-34.21152200832234
 30
0.0
 10
-137.4759315417366
 20
-33.76990881368269
 30
0.0
 10
-137.8345458294969
 20
-33.4122566461724
 30
0.0
 10
-138.2760948827863
 20
-33.4122566461724
 30
0.0
  0
SPLINE
  5
13F
330
70
100
AcDbEntity
  8
Standardebene
 62
     7
370
    35
100
AcDbSpline
210
0.0
220
0.0
230
1.0
 70
     8
 71
     3
 72
     8
 73
     4
 74
     0
 42
0.0000000001
 43
0.0000000001
 40
0.0
 40
0.0
 40
0.0
 40
0.0
 40
1.0
 40
1.0
 40
1.0
 40
1.0
 10
-138.2760948827863
 20
-21.41205147767219
 30
0.0
 10
-137.8345458294969
 20
-21.41205147767219
 30
0.0
 10
-137.4759315417366
 20
-21.05375789666187
 30
0.0
 10
-137.4759315417366
 20
-20.61220884337248
 30
0.0
  0
SPLINE
  5
140
330
70
100
AcDbEntity
  8
Standardebene
 62
     7
370
    35
100
AcDbSpline
210
0.0
220
0.0
230
1.0
 70
     8
 71
     3
 72
     8
 73
     4
 74
     0
 42
0.0000000001
 43
0.0000000001
 40
0.0
 40
0.0
 40
0.0
 40
0.0
 40
1.0
 40
1.0
 40
1.0
 40
1.0
 10
-160.7757259128612
 20
-32.21210784662225
 30
0.0
 10
-160.7757259128612
 20
-32.87449556790658
 30
0.0
 10
-160.2385421067458
 20
-33.4122566461724
 30
0.0
 10
-159.5764750922115
 20
-33.4122566461724
 30
0.0
  0
SPLINE
  5
141
330
70
100
AcDbEntity
  8
Standardebene
 62
     7
370
    35
100
AcDbSpline
210
0.0
220
0.0
230
1.0
 70
     8
 71
     3
 72
     8
 73
     4
 74
     0
 42
0.0000000001
 43
0.0000000001
 40
0.0
 40
0.0
 40
0.0
 40
0.0
 40
1.0
 40
1.0
 40
1.0
 40
1.0
 10
-159.5764750922115
 20
-21.41205147767219
 30
0.0
 10
-160.2385421067458
 20
-21.41205147767219
 30
0.0
 10
-160.7757259128612
 20
-21.94917114243797
 30
0.0
 10
-160.7757259128612
 20
-22.61187957047233
 30
0.0
  0
LWPOLYLINE
  5
142
330
70
100
AcDbEntity
  8
Standardebene
 62
     7
370
    35
100
AcDbPolyline
 90
       26
 70
     0
 43
0.0
 10
-123.5260858991239
 20
-39.41171781692247
 10
-123.4217920640499
 20
-39.41171781692247
 10
-123.1098726790782
 20
-39.41171781692247
 10
-122.5955873349062
 20
-39.41171781692247
 10
-121.8872102656836
 20
-39.41171781692247
 10
-120.9955172182065
 20
-39.41171781692247
 10
-119.9347475721719
 20
-39.41171781692247
 10
-118.7224119161249
 20
-39.41171781692247
 10
-117.3757001318615
 20
-39.41171781692247
 10
-115.9174465399763
 20
-39.41171781692247
 10
-114.3702930370128
 20
-39.41171781692247
 10
-112.7589340427155
 20
-39.41171781692247
 10
-111.1081281181781
 20
-39.41171781692247
 10
-109.4441090755443
 20
-39.41171781692247
 10
-107.7933031510076
 20
-39.41171781692247
 10
-106.1816234499602
 20
-39.41171781692247
 10
-104.6347906537468
 20
-39.41171781692247
 10
-103.1766012032112
 20
-39.41171781692247
 10
-101.8301459843482
 20
-39.41171781692247
 10
-100.6171689148012
 20
-39.41171781692247
 10
-99.55704068226658
 20
-39.41171781692247
 10
-98.66477036263912
 20
-39.41171781692247
 10
-97.95632915206622
 20
-39.41171781692247
 10
-97.44236451464491
 20
-39.41171781692247
 10
-97.13076583642255
 20
-39.41171781692247
 10
-97.02647200134862
 20
-39.41171781692247
  0
LWPOLYLINE
  5
143
330
70
100
AcDbEntity
  8
Standardebene
 62
     7
370
    35
100
AcDbPolyline
 90
       15
 70
     0
 43
0.0
 10
-124.5261136867239
 20
-168.4119670671226
 10
-124.5142475369765
 20
-168.3630913584342
 10
-124.4803809041854
 20
-168.2208899855194
 10
-124.3632587991146
 20
-167.6740849769067
 10
-124.2195180338007
 20
-166.8134363428221
 10
-124.158134761866
 20
-166.2885035345532
 10
-124.1133640995769
 20
-165.7216864247446
 10
-124.0920691713823
 20
-165.1422334689899
 10
-124.0939292705321
 20
-164.555981530136
 10
-124.1662807133138
 20
-163.4560215192617
 10
-124.2975139153809
 20
-162.5051901470988
 10
-124.3698653581632
 20
-162.1130940746464
 10
-124.4362516553963
 20
-161.7992504491758
 10
-124.486987463234
 20
-161.5737936039814
 10
-124.5245742943247
 20
-161.4196619399702
  0
LWPOLYLINE
  5
144
330
70
100
AcDbEntity
  8
Standardebene
 62
     7
370
    35
100
AcDbPolyline
 90
        9
 70
     0
 43
0.0
 10
-124.1255509560737
 20
-183.9117242907471
 10
-124.0901449308828
 20
-182.7779617884314
 10
-124.146204470769
 20
-181.6580538177103
 10
-124.2699331348883
 20
-180.6727143992575
 10
-124.3432466979194
 20
-180.2549617868114
 10
-124.411813801053
 20
-179.9110358681978
 10
-124.4697334400884
 20
-179.6492108775623
 10
-124.5091803703284
 20
-179.4813529646552
 10
-124.5245742943247
 20
-179.4193282792205
  0
LWPOLYLINE
  5
145
330
70
100
AcDbEntity
  8
Standardebene
 62
     7
370
    35
100
AcDbPolyline
 90
       25
 70
     0
 43
0.0
 10
-124.1255509560737
 20
-183.9117242907471
 10
-123.6200529768508
 20
-183.9117242907471
 10
-122.9182183253259
 20
-183.9117242907471
 10
-122.0324904233973
 20
-183.9117242907471
 10
-118.9814146873604
 20
-183.9117242907471
 10
-117.7671547908139
 20
-183.9117242907471
 10
-116.4139005888516
 20
-183.9117242907471
 10
-116.9347283507219
 20
-183.9117242907471
 10
-115.3656385060644
 20
-183.9117242907471
 10
-113.7216957059754
 20
-183.9117242907471
 10
-112.0273378047988
 20
-183.9117242907471
 10
-110.3075799290288
 20
-183.9117242907471
 10
-108.586924074359
 20
-183.9117242907471
 10
-106.8919247596823
 20
-183.9117242907471
 10
-105.245480446944
 20
-183.9117242907471
 10
-103.6733118174869
 20
-183.9117242907471
 10
-102.1972269303063
 20
-183.9117242907471
 10
-102.8035551117045
 20
-183.9117242907471
 10
-99.61964263985105
 20
-183.9117242907471
 10
-98.55579420901607
 20
-183.9117242907471
 10
-97.66288247588985
 20
-183.9117242907471
 10
-96.95508267881635
 20
-183.9117242907471
 10
-96.44143874814506
 20
-183.9117242907471
 10
-96.1304173420731
 20
-183.9117242907471
 10
-96.02612350699853
 20
-183.9117242907471
  0
LWPOLYLINE
  5
146
330
70
100
AcDbEntity
  8
Standardebene
 62
     7
370
    35
100
AcDbPolyline
 90
       27
 70
     0
 43
0.0
 10
-96.02612350699853
 20
-40.41174560452254
 10
-96.12977592857307
 20
-40.41174560452254
 10
-96.44015592114563
 20
-40.41174560452254
 10
-96.95193975266708
 20
-40.41174560452254
 10
-97.65845672274114
 20
-40.41174560452254
 10
-98.5482255297181
 20
-40.41174560452254
 10
-99.60963658925281
 20
-40.41174560452254
 10
-100.8270394119485
 20
-40.41174560452254
 10
-102.1809350274102
 20
-40.41174560452254
 10
-103.6541976951915
 20
-40.41174560452254
 10
-105.2232875398496
 20
-40.41174560452254
 10
-106.8656268061892
 20
-40.41174560452254
 10
-108.558445314966
 20
-40.41174560452254
 10
-110.2759582434865
 20
-40.41174560452254
 10
-111.9941125855071
 20
-40.41174560452254
 10
-113.6862896807839
 20
-40.41174560452254
 10
-115.3289496538735
 20
-40.41174560452254
 10
-116.898680912031
 20
-40.41174560452254
 10
-118.3713021663129
 20
-40.41174560452254
 10
-119.7258391952746
 20
-40.41174560452254
 10
-120.9422798977203
 20
-40.41174560452254
 10
-122.0040116640044
 20
-40.41174560452254
 10
-122.893780470982
 20
-40.41174560452254
 10
-123.600040875655
 20
-40.41174560452254
 10
-124.1124019793275
 20
-40.41174560452254
 10
-124.42246126515
 20
-40.41174560452254
 10
-124.5261136867239
 20
-40.41174560452254
  0
LWPOLYLINE
  5
147
330
70
100
AcDbEntity
  8
Standardebene
 62
     7
370
    35
100
AcDbPolyline
 90
        7
 70
     0
 43
0.0
 10
-124.2176579346515
 20
-186.4003445287752
 10
-124.2185559135513
 20
-186.4053475540744
 10
-124.1875756415084
 20
-186.1466654895889
 10
-124.1343383210221
 20
-185.5271883314438
 10
-124.1133640995769
 20
-185.0980827000504
 10
-124.1057954202789
 20
-184.6076579380738
 10
-124.1255509560737
 20
-183.9117242907471
  0
LWPOLYLINE
  5
148
330
70
100
AcDbEntity
  8
Standardebene
 62
     7
370
    35
100
AcDbPolyline
 90
       26
 70
     0
 43
0.0
 10
-124.129335295723
 20
-187.1450897434395
 10
-124.0197177286006
 20
-187.1450897434395
 10
-123.6936872466326
 20
-187.1450897434395
 10
-123.1565675818661
 20
-187.1450897434395
 10
-122.4158632722516
 20
-187.1450897434395
 10
-121.4835046088847
 20
-187.1450897434395
 10
-118.3813082169098
 20
-187.1450897434395
 10
-117.1129130209767
 20
-187.1450897434395
 10
-115.7060366504285
 20
-187.1450897434395
 10
-116.174589212062
 20
-187.1450897434395
 10
-114.5566236587167
 20
-187.1450897434395
 10
-112.8720152427372
 20
-187.1450897434395
 10
-111.1460356560189
 20
-187.1450897434395
 10
-109.4062656790538
 20
-187.1450897434395
 10
-107.6802219509858
 20
-187.1450897434395
 10
-105.9952928282564
 20
-187.1450897434395
 10
-104.3776479816611
 20
-187.1450897434395
 10
-102.8536495060421
 20
-187.1450897434395
 10
-103.4105247066027
 20
-187.1450897434395
 10
-100.1778006674111
 20
-187.1450897434395
 10
-99.06879672618861
 20
-187.1450897434395
 10
-98.13669462822089
 20
-187.1450897434395
 10
-97.39631102535636
 20
-187.1450897434395
 10
-96.85861408844079
 20
-187.1450897434395
 10
-96.53258360647212
 20
-187.1450897434395
 10
-96.42296603935033
 20
-187.1450897434395
  0
LWPOLYLINE
  5
149
330
70
100
AcDbEntity
  8
Standardebene
 62
     7
370
    35
100
AcDbPolyline
 90
       26
 70
     0
 43
0.0
 10
-123.3262855939238
 20
-189.4113319210728
 10
-123.2235952925999
 20
-189.4113319210728
 10
-122.9162940848264
 20
-189.4113319210728
 10
-122.409577419953
 20
-189.4113319210728
 10
-121.7121043802272
 20
-189.4113319210728
 10
-118.8404961414451
 20
-189.4113319210728
 10
-117.7959542569563
 20
-189.4113319210728
 10
-116.6014498962053
 20
-189.4113319210728
 10
-115.2757123333866
 20
-189.4113319210728
 10
-115.8322668271978
 20
-189.4113319210728
 10
-114.3092304718282
 20
-189.4113319210728
 10
-112.7216679183747
 20
-189.4113319210728
 10
-111.0952998481819
 20
-189.4113319210728
 10
-109.4566807801414
 20
-189.4113319210728
 10
-107.8305692753477
 20
-189.4113319210728
 10
-106.2430067218949
 20
-189.4113319210728
 10
-104.7199703665253
 20
-189.4113319210728
 10
-103.2833965509343
 20
-189.4113319210728
 10
-103.9223085381248
 20
-189.4113319210728
 10
-102.7274834706238
 20
-189.4113319210728
 10
-99.71835617747544
 20
-189.4113319210728
 10
-98.84013281349529
 20
-189.4113319210728
 10
-98.14233906702003
 20
-189.4113319210728
 10
-97.63626381564671
 20
-189.4113319210728
 10
-97.32902674922343
 20
-189.4113319210728
 10
-97.22659301329869
 20
-189.4113319210728
  0
LINE
  5
14A
330
70
100
AcDbEntity
  8
Standardebene
 62
     7
370
    35
100
AcDbLine
 10
-131.2762852176861
 20
-15.41194889342272
 30
0.0
 11
-131.2762852176861
 21
-39.41171781692247
 31
0.0
  0
LWPOLYLINE
  5
14B
330
70
100
AcDbEntity
  8
Standardebene
 62
     7
370
    35
100
AcDbPolyline
 90
       25
 70
     0
 43
0.0
 10
-97.77622024131133
 20
-15.41194889342272
 10
-97.88269488228449
 20
-15.41194889342272
 10
-98.20000214065563
 20
-15.41194889342272
 10
-98.72397282867455
 20
-15.41194889342272
 10
-99.44992462779275
 20
-15.41194889342272
 10
-100.3691343144133
 20
-15.41194889342272
 10
-101.469030183938
 20
-15.41194889342272
 10
-102.7384516414708
 20
-15.41194889342272
 10
-104.1612350668149
 20
-15.41194889342272
 10
-105.7215375465252
 20
-15.41194889342272
 10
-107.3996035448057
 20
-15.41194889342272
 10
-109.1772810596111
 20
-15.41194889342272
 10
-111.0323130424972
 20
-15.41194889342272
 10
-112.9437252720195
 20
-15.41194889342272
 10
-114.8889399929833
 20
-15.41194889342272
 10
-116.8442249058943
 20
-15.41194889342272
 10
-118.7869381142088
 20
-15.41194889342272
 10
-120.6936038838324
 20
-15.41194889342272
 10
-122.5429914279194
 20
-15.41194889342272
 10
-124.3122022845276
 20
-15.41194889342272
 10
-125.9805829389605
 20
-15.41194889342272
 10
-127.5283778554233
 20
-15.41194889342272
 10
-128.9376915972711
 20
-15.41194889342272
 10
-130.1920398375576
 20
-15.41194889342272
 10
-131.2762852176861
 20
-15.41194889342272
  0
LWPOLYLINE
  5
14C
330
70
100
AcDbEntity
  8
Standardebene
 62
     7
370
    35
100
AcDbPolyline
 90
       21
 70
     0
 43
0.0
 10
-131.2762852176861
 20
-39.41171781692247
 10
-130.1980049831061
 20
-39.41171781692247
 10
-128.9511612807674
 20
-39.41171781692247
 10
-127.549993490368
 20
-39.41171781692247
 10
-126.0115632110027
 20
-39.41171781692247
 10
-124.3535734552676
 20
-39.41171781692247
 10
-122.5955873349062
 20
-39.41171781692247
 10
-120.7574886684156
 20
-39.41171781692247
 10
-118.8611496561403
 20
-39.41171781692247
 10
-116.9294046186734
 20
-39.41171781692247
 10
-114.9838691909596
 20
-39.41171781692247
 10
-113.0470569868434
 20
-39.41171781692247
 10
-111.1428927298697
 20
-39.41171781692247
 10
-109.292543065532
 20
-39.41171781692247
 10
-107.5180084768759
 20
-39.41171781692247
 10
-105.8396217718454
 20
-39.41171781692247
 10
-104.2780364651356
 20
-39.41171781692247
 10
-102.8505707212431
 20
-39.41171781692247
 10
-101.5733240190119
 20
-39.41171781692247
 10
-100.4627806853896
 20
-39.41171781692247
 10
-99.53164070767263
 20
-39.41171781692247
  0
LWPOLYLINE
  5
14D
330
70
100
AcDbEntity
  8
Standardebene
 62
     7
370
    35
100
AcDbPolyline
 90
       23
 70
     0
 43
0.0
 10
-120.276107836786
 20
-14.51217403584752
 10
-120.1743155143619
 20
-14.51217403584752
 10
-119.870862787588
 20
-14.51217403584752
 10
-119.3722920741624
 20
-14.51217403584752
 10
-118.6885452833331
 20
-14.51217403584752
 10
-117.8338617947971
 20
-14.51217403584752
 10
-116.8247900768488
 20
-14.51217403584752
 10
-115.6828816230847
 20
-14.51217403584752
 10
-114.4301369165477
 20
-14.51217403584752
 10
-113.0934311828819
 20
-14.51217403584752
 10
-111.6991265169309
 20
-14.51217403584752
 10
-110.2759582434865
 20
-14.51217403584752
 10
-108.8531748181425
 20
-14.51217403584752
 10
-107.4588060108411
 20
-14.51217403584752
 10
-106.1221002771748
 20
-14.51217403584752
 10
-104.8696762773884
 20
-14.51217403584752
 10
-103.7274471168736
 20
-14.51217403584752
 10
-102.718696105676
 20
-14.51217403584752
 10
-101.8633712036399
 20
-14.51217403584752
 10
-101.1803299676603
 20
-14.51217403584752
 10
-100.6813744061351
 20
-14.51217403584752
 10
-100.3779216793605
 20
-14.51217403584752
 10
-100.2758086501864
 20
-14.51217403584752
  0
LWPOLYLINE
  5
14E
330
70
100
AcDbEntity
  8
Standardebene
 62
     7
370
    35
100
AcDbPolyline
 90
       23
 70
     0
 43
0.0
 10
-99.77595510976208
 20
-15.01170686952252
 10
-99.88307116423463
 20
-15.01170686952252
 10
-100.2015971082549
 20
-15.01170686952252
 10
-100.7255677962738
 20
-15.01170686952252
 10
-101.4427322304449
 20
-15.01170686952252
 10
-102.3406469888702
 20
-15.01170686952252
 10
-103.4001979492551
 20
-15.01170686952252
 10
-104.5993846285559
 20
-15.01170686952252
 10
-105.9141540205269
 20
-15.01170686952252
 10
-107.3182081716758
 20
-15.01170686952252
 10
-108.7817213542606
 20
-15.01170686952252
 10
-110.2759582434865
 20
-15.01170686952252
 10
-111.7701951327124
 20
-15.01170686952252
 10
-113.2343497287972
 20
-15.01170686952252
 10
-114.6384038799455
 20
-15.01170686952252
 10
-115.9528525651672
 20
-15.01170686952252
 10
-117.1520392444673
 20
-15.01170686952252
 10
-118.2119109116029
 20
-15.01170686952252
 10
-119.1091842565282
 20
-15.01170686952252
 10
-119.8276315176987
 20
-15.01170686952252
 10
-120.3506400854675
 20
-15.01170686952252
 10
-120.6691660294885
 20
-15.01170686952252
 10
-120.776282083961
 20
-15.01170686952252
  0
LINE
  5
14F
330
70
100
AcDbEntity
  8
Standardebene
 62
     7
370
    35
100
AcDbLine
 10
-110.0263842506988
 20
-99.61190255112233
 30
0.0
 11
-110.0263842506988
 21
-99.41210224592225
 31
0.0
  0
LWPOLYLINE
  5
150
330
70
100
AcDbEntity
  8
Standardebene
 62
     7
370
    35
100
AcDbPolyline
 90
        3
 70
     0
 43
0.0
 10
-110.5259170843738
 20
-99.61190255112233
 10
-110.2759582434865
 20
-99.61190255112233
 10
-110.0263842506988
 20
-99.61190255112233
  0
LINE
  5
151
330
70
100
AcDbEntity
  8
Standardebene
 62
     7
370
    35
100
AcDbLine
 10
-110.5259170843738
 20
-99.41210224592225
 30
0.0
 11
-110.5259170843738
 21
-99.61190255112233
 31
0.0
  0
LINE
  5
152
330
70
100
AcDbEntity
  8
Standardebene
 62
     7
370
    35
100
AcDbLine
 10
-126.7760639614617
 20
-99.41210224592225
 30
0.0
 11
-126.7760639614617
 21
-111.4119867076724
 31
0.0
  0
LWPOLYLINE
  5
153
330
70
100
AcDbEntity
  8
Standardebene
 62
     7
370
    35
100
AcDbPolyline
 90
        8
 70
     0
 43
0.0
 10
-110.5259170843738
 20
-99.41210224592225
 10
-113.0593079846911
 20
-99.41210224592225
 10
-115.5632580053647
 20
-99.41210224592225
 10
-118.0133292920519
 20
-99.41210224592225
 10
-120.3829031845098
 20
-99.41210224592225
 10
-122.6485680899934
 20
-99.41210224592225
 10
-124.7870406984589
 20
-99.41210224592225
 10
-126.7760639614617
 20
-99.41210224592225
  0
LINE
  5
154
330
70
100
AcDbEntity
  8
Standardebene
 62
     7
370
    35
100
AcDbLine
 10
-110.5259170843738
 20
-111.2121864024723
 30
0.0
 11
-110.5259170843738
 21
-111.4119867076724
 31
0.0
  0
LWPOLYLINE
  5
155
330
70
100
AcDbEntity
  8
Standardebene
 62
     7
370
    35
100
AcDbPolyline
 90
        8
 70
     0
 43
0.0
 10
-126.7760639614617
 20
-111.4119867076724
 10
-124.7870406984589
 20
-111.4119867076724
 10
-122.6485680899934
 20
-111.4119867076724
 10
-120.3829031845098
 20
-111.4119867076724
 10
-118.0133292920519
 20
-111.4119867076724
 10
-115.5632580053647
 20
-111.4119867076724
 10
-113.0593079846911
 20
-111.4119867076724
 10
-110.5259170843738
 20
-111.4119867076724
  0
LWPOLYLINE
  5
156
330
70
100
AcDbEntity
  8
Standardebene
 62
     7
370
    35
100
AcDbPolyline
 90
        4
 70
     0
 43
0.0
 10
-110.0263842506988
 20
-111.4119867076724
 10
-110.0263842506988
 20
-111.2121864024723
 10
-110.2759582434865
 20
-111.2121864024723
 10
-110.5259170843738
 20
-111.2121864024723
  0
LWPOLYLINE
  5
157
330
70
100
AcDbEntity
  8
Standardebene
 62
     7
370
    35
100
AcDbPolyline
 90
       17
 70
     0
 43
0.0
 10
-110.0263842506988
 20
-111.4119867076724
 10
-107.6552068244915
 20
-111.4119867076724
 10
-105.3068637188787
 20
-111.4119867076724
 10
-103.0039968304046
 20
-111.4119867076724
 10
-100.7665541189137
 20
-111.4119867076724
 10
-98.6158946539513
 20
-111.4119867076724
 10
-96.56952902406287
 20
-111.4119867076724
 10
-94.64714862369355
 20
-111.4119867076724
 10
-92.86575091058915
 20
-111.4119867076724
 10
-91.24117879819529
 20
-111.4119867076724
 10
-89.78927519995824
 20
-111.4119867076724
 10
-88.52177798292553
 20
-111.4119867076724
 10
-87.4515795584424
 20
-111.4119867076724
 10
-86.58656931255936
 20
-111.4119867076724
 10
-85.93514976212139
 20
-111.4119867076724
 10
-85.50386332482936
 20
-111.4119867076724
 10
-85.29591706818154
 20
-111.4119867076724
  0
LINE
  5
158
330
70
100
AcDbEntity
  8
Standardebene
 62
     7
370
    35
100
AcDbLine
 10
-85.29591706818154
 20
-99.41210224592225
 30
0.0
 11
-85.29591706818154
 21
-111.4119867076724
 31
0.0
  0
LWPOLYLINE
  5
159
330
70
100
AcDbEntity
  8
Standardebene
 62
     7
370
    35
100
AcDbPolyline
 90
       17
 70
     0
 43
0.0
 10
-85.29591706818154
 20
-99.41210224592225
 10
-85.50386332482936
 20
-99.41210224592225
 10
-85.93514976212139
 20
-99.41210224592225
 10
-86.58656931255936
 20
-99.41210224592225
 10
-87.4515795584424
 20
-99.41210224592225
 10
-88.52177798292553
 20
-99.41210224592225
 10
-89.78927519995824
 20
-99.41210224592225
 10
-91.24117879819529
 20
-99.41210224592225
 10
-92.86575091058915
 20
-99.41210224592225
 10
-94.64714862369355
 20
-99.41210224592225
 10
-96.56952902406287
 20
-99.41210224592225
 10
-98.6158946539513
 20
-99.41210224592225
 10
-100.7665541189137
 20
-99.41210224592225
 10
-103.0039968304046
 20
-99.41210224592225
 10
-105.3068637188787
 20
-99.41210224592225
 10
-107.6552068244915
 20
-99.41210224592225
 10
-110.0263842506988
 20
-99.41210224592225
  0
LWPOLYLINE
  5
15A
330
70
100
AcDbEntity
  8
Standardebene
 62
     7
370
    35
100
AcDbPolyline
 90
       26
 70
     0
 43
0.0
 10
-89.17601975276147
 20
-105.4118841234223
 10
-89.21456870410166
 20
-105.013181491922
 10
-89.34862412556865
 20
-104.5778541495809
 10
-89.66965158223819
 20
-104.0592071936104
 10
-90.00318660215461
 20
-103.7416433698395
 10
-90.37270491941233
 20
-103.5161223832961
 10
-91.2437444521948
 20
-103.311960466297
 10
-91.69658238308121
 20
-103.3542296159368
 10
-92.15288394686693
 20
-103.5036148200493
 10
-92.75080961141759
 20
-103.9170058206957
 10
-93.12565166072381
 20
-104.4171800678707
 10
-93.32173176762548
 20
-104.937366416241
 10
-93.37310898896189
 20
-105.5205395702947
 10
-93.28164342388545
 20
-106.0332213807172
 10
-93.07716080013628
 20
-106.4926658706522
 10
-92.65498243454143
 20
-106.9963037507265
 10
-92.31734236822633
 20
-107.2355509861666
 10
-91.96469322601453
 20
-107.3956477957263
 10
-91.46766190498812
 20
-107.5033411223492
 10
-90.98159875481
 20
-107.4908335591031
 10
-90.50740175437871
 20
-107.3664634814837
 10
-90.06829007238831
 20
-107.1293970519428
 10
-89.58440772810941
 20
-106.6558414650115
 10
-89.32226203072463
 20
-106.1810671924298
 10
-89.20674345940392
 20
-105.7710756833324
 10
-89.17601975276147
 20
-105.4118841234223
  0
LWPOLYLINE
  5
15B
330
70
100
AcDbEntity
  8
Standardebene
 62
     7
370
    35
100
AcDbPolyline
 90
       20
 70
     0
 43
0.0
 10
-110.2759582434865
 20
-103.2117075362721
 10
-111.0025514561048
 20
-103.3354362003915
 10
-111.6477492955938
 20
-103.6915489755026
 10
-112.1394568845704
 20
-104.2421383237646
 10
-112.4216146831504
 20
-104.9255002664942
 10
-112.4617030268904
 20
-105.66209952971
 10
-112.2568996963912
 20
-106.3690013478831
 10
-111.8297183054979
 20
-106.9693643837327
 10
-111.2267896156488
 20
-107.3956477957263
 10
-110.5152696202769
 20
-107.5989117338256
 10
-109.7795683359608
 20
-107.5547183436863
 10
-109.1005680050303
 20
-107.2715984248576
 10
-108.5524801694168
 20
-106.7789287156302
 10
-108.1963673943064
 20
-106.1303313845928
 10
-108.0761023630863
 20
-105.4015573660747
 10
-108.2029739533543
 20
-104.6765035458563
 10
-108.5612675343653
 20
-104.0338072190165
 10
-109.1140376885265
 20
-103.5437031637893
 10
-109.7986824582556
 20
-103.2643034432596
 10
-110.2759582434865
 20
-103.2117075362721
  0
SPLINE
  5
15C
330
70
100
AcDbEntity
  8
Standardebene
 62
     7
370
    35
100
AcDbSpline
210
0.0
220
0.0
230
1.0
 70
     9
 71
     3
 72
    17
 73
    13
 74
     0
 42
0.0000000001
 43
0.0000000001
 40
0.0
 40
0.0
 40
0.0
 40
0.0
 40
1.0
 40
1.0
 40
1.0
 40
2.0
 40
2.0
 40
2.0
 40
3.0
 40
3.0
 40
3.0
 40
4.0
 40
4.0
 40
4.0
 40
4.0
 10
-110.2759582434865
 20
-103.7619761777848
 30
0.0
 10
-111.1873426854081
 20
-103.7619761777848
 30
0.0
 10
-111.9261868958741
 20
-104.5004996815001
 30
0.0
 10
-111.9261868958741
 20
-105.4118841234223
 30
0.0
 10
-111.9261868958741
 20
-106.3232685653445
 30
0.0
 10
-111.1873426854081
 20
-107.0617920690599
 30
0.0
 10
-110.2759582434865
 20
-107.0617920690599
 30
0.0
 10
-109.3652152150637
 20
-107.0617920690599
 30
0.0
 10
-108.6257937324492
 20
-106.3232685653445
 30
0.0
 10
-108.6257937324492
 20
-105.4118841234223
 30
0.0
 10
-108.6257937324492
 20
-104.5004996815001
 30
0.0
 10
-109.3652152150637
 20
-103.7619761777848
 30
0.0
 10
-110.2759582434865
 20
-103.7619761777848
 30
0.0
  0
LWPOLYLINE
  5
15D
330
70
100
AcDbEntity
  8
Standardebene
 62
     7
370
    35
100
AcDbPolyline
 90
       18
 70
     0
 43
0.0
 10
-149.7764465108615
 20
-21.41205147767219
 10
-149.7764465108615
 20
-21.5141645068469
 10
-149.7764465108615
 20
-21.81671925472108
 10
-149.7764465108615
 20
-22.31060764959757
 10
-149.7764465108615
 20
-22.97774183078127
 10
-149.7764465108615
 20
-23.79605717387635
 10
-149.7764465108615
 20
-24.73752390894102
 10
-149.7764465108615
 20
-25.77013550233274
 10
-149.7764465108615
 20
-26.85816522211122
 10
-149.7764465108615
 20
-27.96588633633361
 10
-149.7764465108615
 20
-29.05423676286147
 10
-149.7764465108615
 20
-30.0862069427538
 10
-149.7764465108615
 20
-31.02793024321822
 10
-149.7764465108615
 20
-31.84630972766357
 10
-149.7764465108615
 20
-32.51312320209724
 10
-149.7764465108615
 20
-33.00669089022372
 10
-149.7764465108615
 20
-33.30988705159729
 10
-149.7764465108615
 20
-33.4122566461724
  0
LINE
  5
15E
330
70
100
AcDbEntity
  8
Standardebene
 62
     7
370
    35
100
AcDbLine
 10
-132.0351415293467
 20
-37.22693515376862
 30
0.0
 11
-136.717075230076
 21
-37.22693515376862
 31
0.0
  0
LWPOLYLINE
  5
15F
330
70
100
AcDbEntity
  8
Standardebene
 62
     7
370
    35
100
AcDbPolyline
 90
        8
 70
     0
 43
0.0
 10
-132.0351415293467
 20
-32.31922390109544
 10
-136.717075230076
 20
-32.31922390109544
 10
-137.2676645783387
 20
-33.52123279979544
 10
-137.4226942212497
 20
-34.14327561193935
 10
-137.4759315417366
 20
-34.77307952743203
 10
-137.4718264953372
 20
-34.94754399938841
 10
-137.2463696501441
 20
-36.08881103965315
 10
-136.717075230076
 20
-37.22693515376862
  0
LWPOLYLINE
  5
160
330
70
100
AcDbEntity
  8
Standardebene
 62
     7
370
    35
100
AcDbPolyline
 90
        4
 70
     0
 43
0.0
 10
-131.2762852176861
 20
-34.77307952743203
 10
-131.2800695573355
 20
-34.94754399938841
 10
-131.5059112506289
 20
-36.08881103965315
 10
-132.0351415293467
 20
-37.22693515376862
  0
LINE
  5
161
330
70
100
AcDbEntity
  8
Standardebene
 62
     7
370
    35
100
AcDbLine
 10
-132.0351415293467
 20
-22.50476351599913
 30
0.0
 11
-136.717075230076
 21
-22.50476351599913
 31
0.0
  0
LWPOLYLINE
  5
162
330
70
100
AcDbEntity
  8
Standardebene
 62
     7
370
    35
100
AcDbPolyline
 90
        4
 70
     0
 43
0.0
 10
-132.0351415293467
 20
-32.31922390109544
 10
-131.484872887834
 20
-33.52123279979544
 10
-131.3295225381737
 20
-34.14327561193935
 10
-131.2762852176861
 20
-34.77307952743203
  0
LWPOLYLINE
  5
163
330
70
100
AcDbEntity
  8
Standardebene
 62
     7
370
    35
100
AcDbPolyline
 90
        7
 70
     0
 43
0.0
 10
-136.717075230076
 20
-22.50476351599913
 10
-137.1530439859172
 20
-24.27654002660621
 10
-137.4176270546009
 20
-26.09738466995123
 10
-137.4759315417366
 20
-27.4121540619223
 10
-137.3615675147148
 20
-29.25839867986063
 10
-137.0330355200969
 20
-31.10592612479841
 10
-136.717075230076
 20
-32.31922390109544
  0
LWPOLYLINE
  5
164
330
70
100
AcDbEntity
  8
Standardebene
 62
     7
370
    35
100
AcDbPolyline
 90
        4
 70
     0
 43
0.0
 10
-131.2762852176861
 20
-27.4121540619223
 10
-131.3906492447079
 20
-29.25839867986063
 10
-131.7195019460752
 20
-31.10592612479841
 10
-132.0351415293467
 20
-32.31922390109544
  0
LINE
  5
165
330
70
100
AcDbEntity
  8
Standardebene
 62
     7
370
    35
100
AcDbLine
 10
-132.0351415293467
 20
-17.59679569792619
 30
0.0
 11
-136.717075230076
 21
-17.59679569792619
 31
0.0
  0
LWPOLYLINE
  5
166
330
70
100
AcDbEntity
  8
Standardebene
 62
     7
370
    35
100
AcDbPolyline
 90
        4
 70
     0
 43
0.0
 10
-132.0351415293467
 20
-22.50476351599913
 10
-131.5994934802555
 20
-24.27654002660621
 10
-131.3339482913217
 20
-26.09738466995123
 10
-131.2762852176861
 20
-27.4121540619223
  0
LWPOLYLINE
  5
167
330
70
100
AcDbEntity
  8
Standardebene
 62
     7
370
    35
100
AcDbPolyline
 90
        7
 70
     0
 43
0.0
 10
-136.717075230076
 20
-17.59679569792619
 10
-137.2676645783387
 20
-18.79976671687561
 10
-137.4226942212497
 20
-19.42110397417051
 10
-137.4759315417366
 20
-20.05065132426279
 10
-137.4718264953372
 20
-20.22537236161892
 10
-137.2463696501441
 20
-21.36631869513365
 10
-136.717075230076
 20
-22.50476351599913
  0
LWPOLYLINE
  5
168
330
70
100
AcDbEntity
  8
Standardebene
 62
     7
370
    35
100
AcDbPolyline
 90
        4
 70
     0
 43
0.0
 10
-131.2762852176861
 20
-20.05065132426279
 10
-131.2800695573355
 20
-20.22537236161892
 10
-131.5059112506289
 20
-21.36631869513365
 10
-132.0351415293467
 20
-22.50476351599913
  0
LWPOLYLINE
  5
169
330
70
100
AcDbEntity
  8
Standardebene
 62
     7
370
    35
100
AcDbPolyline
 90
        4
 70
     0
 43
0.0
 10
-132.0351415293467
 20
-17.59679569792619
 10
-131.484872887834
 20
-18.79976671687561
 10
-131.3295225381737
 20
-19.42110397417051
 10
-131.2762852176861
 20
-20.05065132426279
  0
LWPOLYLINE
  5
16A
330
70
100
AcDbEntity
  8
Standardebene
 62
     7
370
    35
100
AcDbPolyline
 90
        4
 70
     0
 43
0.0
 10
-137.4759315417366
 20
-20.05065132426279
 10
-137.4759315417366
 20
-19.42456760706916
 10
-137.4759315417366
 20
-19.0411947582149
 10
-137.4759315417366
 20
-18.9122065033973
  0
LWPOLYLINE
  5
16B
330
70
100
AcDbEntity
  8
Standardebene
 62
     7
370
    35
100
AcDbPolyline
 90
        7
 70
     0
 43
0.0
 10
-137.4759315417366
 20
-27.4121540619223
 10
-137.4759315417366
 20
-25.93613331609134
 10
-137.4759315417366
 20
-24.50513979794927
 10
-137.4759315417366
 20
-23.16189164658459
 10
-137.4759315417366
 20
-21.9485938702882
 10
-137.4759315417366
 20
-20.90033178750036
 10
-137.4759315417366
 20
-20.05065132426279
  0
LWPOLYLINE
  5
16C
330
70
100
AcDbEntity
  8
Standardebene
 62
     7
370
    35
100
AcDbPolyline
 90
        7
 70
     0
 43
0.0
 10
-137.4759315417366
 20
-34.77307952743203
 10
-137.4759315417366
 20
-33.92307835744444
 10
-137.4759315417366
 20
-32.87577839490666
 10
-137.4759315417366
 20
-31.66215991186025
 10
-137.4759315417366
 20
-30.31948903264533
 10
-137.4759315417366
 20
-28.8882389491035
 10
-137.4759315417366
 20
-27.4121540619223
  0
LWPOLYLINE
  5
16D
330
70
100
AcDbEntity
  8
Standardebene
 62
     7
370
    35
100
AcDbPolyline
 90
        4
 70
     0
 43
0.0
 10
-137.4759315417366
 20
-35.91216576179691
 10
-137.4759315417366
 20
-35.78279265887967
 10
-137.4759315417366
 20
-35.39948395137566
 10
-137.4759315417366
 20
-34.77307952743203
  0
LWPOLYLINE
  5
16E
330
70
100
AcDbEntity
  8
Standardebene
 62
     7
370
    35
100
AcDbPolyline
 90
        8
 70
     0
 43
0.0
 10
-153.7762369545111
 20
-27.4121540619223
 10
-153.7762369545111
 20
-26.29975062915016
 10
-153.7762369545111
 20
-25.24238047466452
 10
-153.7762369545111
 20
-24.29469202865156
 10
-153.7762369545111
 20
-23.50293120444999
 10
-153.7762369545111
 20
-22.90725048714881
 10
-153.7762369545111
 20
-22.53766802854082
 10
-153.7762369545111
 20
-22.41207926527225
  0
LWPOLYLINE
  5
16F
330
70
100
AcDbEntity
  8
Standardebene
 62
     7
370
    35
100
AcDbPolyline
 90
        8
 70
     0
 43
0.0
 10
-153.7762369545111
 20
-32.41222885857234
 10
-153.7762369545111
 20
-32.28664009530314
 10
-153.7762369545111
 20
-31.91680107129603
 10
-153.7762369545111
 20
-31.32112035399484
 10
-153.7762369545111
 20
-30.52968023654265
 10
-153.7762369545111
 20
-29.58102967028028
 10
-153.7762369545111
 20
-28.52494234279406
 10
-153.7762369545111
 20
-27.4121540619223
  0
LWPOLYLINE
  5
170
330
70
100
AcDbEntity
  8
Standardebene
 62
     7
370
    35
100
AcDbPolyline
 90
        8
 70
     0
 43
0.0
 10
-150.7761535917109
 20
-27.4121540619223
 10
-150.7761535917109
 20
-26.29975062915016
 10
-150.7761535917109
 20
-25.24238047466452
 10
-150.7761535917109
 20
-24.29469202865156
 10
-150.7761535917109
 20
-23.50293120444999
 10
-150.7761535917109
 20
-22.90725048714881
 10
-150.7761535917109
 20
-22.53766802854082
 10
-150.7761535917109
 20
-22.41207926527225
  0
LWPOLYLINE
  5
171
330
70
100
AcDbEntity
  8
Standardebene
 62
     7
370
    35
100
AcDbPolyline
 90
        8
 70
     0
 43
0.0
 10
-150.7761535917109
 20
-32.41222885857234
 10
-150.7761535917109
 20
-32.28664009530314
 10
-150.7761535917109
 20
-31.91680107129603
 10
-150.7761535917109
 20
-31.32112035399484
 10
-150.7761535917109
 20
-30.52968023654265
 10
-150.7761535917109
 20
-29.58102967028028
 10
-150.7761535917109
 20
-28.52494234279406
 10
-150.7761535917109
 20
-27.4121540619223
  0
LWPOLYLINE
  5
172
330
70
100
AcDbEntity
  8
Standardebene
 62
     7
370
    35
100
AcDbPolyline
 90
        8
 70
     0
 43
0.0
 10
-160.7757259128612
 20
-27.4121540619223
 10
-160.7757259128612
 20
-26.34387987793926
 10
-160.7757259128612
 20
-25.3294844279425
 10
-160.7757259128612
 20
-24.4189979649207
 10
-160.7757259128612
 20
-23.65924367436101
 10
-160.7757259128612
 20
-23.08761596330346
 10
-160.7757259128612
 20
-22.73214460169239
 10
-160.7757259128612
 20
-22.61187957047233
  0
LWPOLYLINE
  5
173
330
70
100
AcDbEntity
  8
Standardebene
 62
     7
370
    35
100
AcDbPolyline
 90
        8
 70
     0
 43
0.0
 10
-160.7757259128612
 20
-32.21210784662225
 10
-160.7757259128612
 20
-32.09152210865216
 10
-160.7757259128612
 20
-31.73701286729115
 10
-160.7757259128612
 20
-31.16480788408382
 10
-160.7757259128612
 20
-30.40498945217452
 10
-160.7757259128612
 20
-29.49520854400108
 10
-160.7757259128612
 20
-28.4804923872556
 10
-160.7757259128612
 20
-27.4121540619223
  0
LWPOLYLINE
  5
174
330
70
100
AcDbEntity
  8
Standardebene
 62
     7
370
    35
100
AcDbPolyline
 90
        9
 70
     0
 43
0.0
 10
-154.7762006007615
 20
-27.4121540619223
 10
-154.7762006007615
 20
-26.24176684876454
 10
-154.7762006007615
 20
-25.11582959114654
 10
-154.7762006007615
 20
-24.07892052730535
 10
-154.7762006007615
 20
-23.16939618453295
 10
-154.7762006007615
 20
-22.4230474361199
 10
-154.7762006007615
 20
-21.86841718280815
 10
-154.7762006007615
 20
-21.52763419034379
 10
-154.7762006007615
 20
-21.41205147767219
  0
LWPOLYLINE
  5
175
330
70
100
AcDbEntity
  8
Standardebene
 62
     7
370
    35
100
AcDbPolyline
 90
        9
 70
     0
 43
0.0
 10
-154.7762006007615
 20
-33.4122566461724
 10
-154.7762006007615
 20
-33.29699464025082
 10
-154.7762006007615
 20
-32.95563437563668
 10
-154.7762006007615
 20
-32.4003627088249
 10
-154.7762006007615
 20
-31.65433466716186
 10
-154.7762006007615
 20
-30.74545173788886
 10
-154.7762006007615
 20
-29.70783711919866
 10
-154.7762006007615
 20
-28.58254127508005
 10
-154.7762006007615
 20
-27.4121540619223
  0
LINE
  5
177
330
70
100
AcDbEntity
  8
Bemaßung
 62
     7
370
     9
100
AcDbLine
 10
-92.5945358101848
 20
-149.6170419070403
 30
0.0
 11
-92.5945358101848
 21
-156.5957977386286
 31
0.0
  0
LINE
  5
178
330
70
100
AcDbEntity
  8
Bemaßung
 62
     7
370
     9
100
AcDbLine
 10
-100.3175469193651
 20
-149.6170419070403
 30
0.0
 11
-100.3175469193651
 21
-156.5957977386286
 31
0.0
  0
LINE
  5
179
330
70
100
AcDbEntity
  8
Bemaßung
 62
     7
370
     9
100
AcDbLine
 10
-81.49597053518162
 20
-155.4961188500151
 30
0.0
 11
-99.70466608618506
 21
-155.4961188500151
 31
0.0
  0
LWPOLYLINE
  5
17A
330
70
100
AcDbEntity
  8
Bemaßung
 62
     7
370
     9
100
AcDbPolyline
 90
        4
 70
     0
 43
0.0
 10
-92.5945358101848
 20
-155.4961188500151
 10
-93.96945192095213
 20
-155.3152496833932
 10
-93.96945192095213
 20
-155.6773055166365
 10
-92.5945358101848
 20
-155.4961188500151
  0
LINE
  5
17B
330
70
100
AcDbEntity
  8
Bemaßung
 62
     7
370
     9
100
AcDbLine
 10
-93.96945192095213
 20
-155.328337738946
 30
0.0
 11
-93.86799303208873
 21
-155.328337738946
 31
0.0
  0
LINE
  5
17C
330
70
100
AcDbEntity
  8
Bemaßung
 62
     7
370
     9
100
AcDbLine
 10
-93.96945192095213
 20
-155.328337738946
 30
0.0
 11
-93.86799303208873
 21
-155.328337738946
 31
0.0
  0
LINE
  5
17D
330
70
100
AcDbEntity
  8
Bemaßung
 62
     7
370
     9
100
AcDbLine
 10
-93.96945192095213
 20
-155.3562424611609
 30
0.0
 11
-93.65544442103043
 21
-155.3562424611609
 31
0.0
  0
LINE
  5
17E
330
70
100
AcDbEntity
  8
Bemaßung
 62
     7
370
     9
100
AcDbLine
 10
-93.96945192095213
 20
-155.3844999611535
 30
0.0
 11
-93.44338969886127
 21
-155.3844999611535
 31
0.0
  0
LINE
  5
17F
330
70
100
AcDbEntity
  8
Bemaßung
 62
     7
370
     9
100
AcDbLine
 10
-93.96945192095213
 20
-155.4124046833691
 30
0.0
 11
-93.23084108780332
 21
-155.4124046833691
 31
0.0
  0
LINE
  5
180
330
70
100
AcDbEntity
  8
Bemaßung
 62
     7
370
     9
100
AcDbLine
 10
-93.96945192095213
 20
-155.4399566278069
 30
0.0
 11
-93.01896275452303
 21
-155.4399566278069
 31
0.0
  0
LINE
  5
181
330
70
100
AcDbEntity
  8
Bemaßung
 62
     7
370
     9
100
AcDbLine
 10
-93.96945192095213
 20
-155.4682141277995
 30
0.0
 11
-92.80655525457611
 21
-155.4682141277995
 31
0.0
  0
LINE
  5
182
330
70
100
AcDbEntity
  8
Bemaßung
 62
     7
370
     9
100
AcDbLine
 10
-93.96945192095213
 20
-155.4961188500151
 30
0.0
 11
-92.5945358101848
 21
-155.4961188500151
 31
0.0
  0
LINE
  5
183
330
70
100
AcDbEntity
  8
Bemaßung
 62
     7
370
     9
100
AcDbLine
 10
-93.96945192095213
 20
-155.6638999610842
 30
0.0
 11
-93.86799303208873
 21
-155.6638999610842
 31
0.0
  0
LINE
  5
184
330
70
100
AcDbEntity
  8
Bemaßung
 62
     7
370
     9
100
AcDbLine
 10
-93.96945192095213
 20
-155.6638999610842
 30
0.0
 11
-93.86799303208873
 21
-155.6638999610842
 31
0.0
  0
LINE
  5
185
330
70
100
AcDbEntity
  8
Bemaßung
 62
     7
370
     9
100
AcDbLine
 10
-93.96945192095213
 20
-155.6359952388686
 30
0.0
 11
-93.65544442103043
 21
-155.6359952388686
 31
0.0
  0
LINE
  5
186
330
70
100
AcDbEntity
  8
Bemaßung
 62
     7
370
     9
100
AcDbLine
 10
-93.96945192095213
 20
-155.6080905166537
 30
0.0
 11
-93.44338969886127
 21
-155.6080905166537
 31
0.0
  0
LINE
  5
187
330
70
100
AcDbEntity
  8
Bemaßung
 62
     7
370
     9
100
AcDbLine
 10
-93.96945192095213
 20
-155.5801505166606
 30
0.0
 11
-93.23084108780332
 21
-155.5801505166606
 31
0.0
  0
LINE
  5
188
330
70
100
AcDbEntity
  8
Bemaßung
 62
     7
370
     9
100
AcDbLine
 10
-93.96945192095213
 20
-155.5519282944455
 30
0.0
 11
-93.01896275452303
 21
-155.5519282944455
 31
0.0
  0
LINE
  5
189
330
70
100
AcDbEntity
  8
Bemaßung
 62
     7
370
     9
100
AcDbLine
 10
-93.96945192095213
 20
-155.52402357223
 30
0.0
 11
-92.80655525457611
 21
-155.52402357223
 31
0.0
  0
LINE
  5
18A
330
70
100
AcDbEntity
  8
Bemaßung
 62
     7
370
     9
100
AcDbLine
 10
-93.96945192095213
 20
-155.4961188500151
 30
0.0
 11
-92.5945358101848
 21
-155.4961188500151
 31
0.0
  0
LWPOLYLINE
  5
18B
330
70
100
AcDbEntity
  8
Bemaßung
 62
     7
370
     9
100
AcDbPolyline
 90
        4
 70
     0
 43
0.0
 10
-100.2688283082661
 20
-155.4961188500151
 10
-98.89422969749873
 20
-155.6773055166365
 10
-98.89422969749873
 20
-155.3152496833932
 10
-100.2688283082661
 20
-155.4961188500151
  0
LINE
  5
18C
330
70
100
AcDbEntity
  8
Bemaßung
 62
     7
370
     9
100
AcDbLine
 10
-98.89422969749873
 20
-155.6638999610842
 30
0.0
 11
-98.99586497525099
 21
-155.6638999610842
 31
0.0
  0
LINE
  5
18D
330
70
100
AcDbEntity
  8
Bemaßung
 62
     7
370
     9
100
AcDbLine
 10
-98.89422969749873
 20
-155.6638999610842
 30
0.0
 11
-98.99586497525099
 21
-155.6638999610842
 31
0.0
  0
LINE
  5
18E
330
70
100
AcDbEntity
  8
Bemaßung
 62
     7
370
     9
100
AcDbLine
 10
-98.89422969749873
 20
-155.6359952388686
 30
0.0
 11
-99.20788441964232
 21
-155.6359952388686
 31
0.0
  0
LINE
  5
18F
330
70
100
AcDbEntity
  8
Bemaßung
 62
     7
370
     9
100
AcDbLine
 10
-98.89422969749873
 20
-155.6080905166537
 30
0.0
 11
-99.4199391418118
 21
-155.6080905166537
 31
0.0
  0
LINE
  5
190
330
70
100
AcDbEntity
  8
Bemaßung
 62
     7
370
     9
100
AcDbLine
 10
-98.89422969749873
 20
-155.5801505166606
 30
0.0
 11
-99.63217025286985
 21
-155.5801505166606
 31
0.0
  0
LINE
  5
191
330
70
100
AcDbEntity
  8
Bemaßung
 62
     7
370
     9
100
AcDbLine
 10
-98.89422969749873
 20
-155.5519282944455
 30
0.0
 11
-99.8447188639278
 21
-155.5519282944455
 31
0.0
  0
LINE
  5
192
330
70
100
AcDbEntity
  8
Bemaßung
 62
     7
370
     9
100
AcDbLine
 10
-98.89422969749873
 20
-155.52402357223
 30
0.0
 11
-100.0567735860969
 21
-155.52402357223
 31
0.0
  0
LINE
  5
193
330
70
100
AcDbEntity
  8
Bemaßung
 62
     7
370
     9
100
AcDbLine
 10
-98.89422969749873
 20
-155.4961188500151
 30
0.0
 11
-100.2688283082661
 21
-155.4961188500151
 31
0.0
  0
LINE
  5
194
330
70
100
AcDbEntity
  8
Bemaßung
 62
     7
370
     9
100
AcDbLine
 10
-98.89422969749873
 20
-155.328337738946
 30
0.0
 11
-98.99586497525099
 21
-155.328337738946
 31
0.0
  0
LINE
  5
195
330
70
100
AcDbEntity
  8
Bemaßung
 62
     7
370
     9
100
AcDbLine
 10
-98.89422969749873
 20
-155.328337738946
 30
0.0
 11
-98.99586497525099
 21
-155.328337738946
 31
0.0
  0
LINE
  5
196
330
70
100
AcDbEntity
  8
Bemaßung
 62
     7
370
     9
100
AcDbLine
 10
-98.89422969749873
 20
-155.3562424611609
 30
0.0
 11
-99.20788441964232
 21
-155.3562424611609
 31
0.0
  0
LINE
  5
197
330
70
100
AcDbEntity
  8
Bemaßung
 62
     7
370
     9
100
AcDbLine
 10
-98.89422969749873
 20
-155.3844999611535
 30
0.0
 11
-99.4199391418118
 21
-155.3844999611535
 31
0.0
  0
LINE
  5
198
330
70
100
AcDbEntity
  8
Bemaßung
 62
     7
370
     9
100
AcDbLine
 10
-98.89422969749873
 20
-155.4124046833691
 30
0.0
 11
-99.63217025286985
 21
-155.4124046833691
 31
0.0
  0
LINE
  5
199
330
70
100
AcDbEntity
  8
Bemaßung
 62
     7
370
     9
100
AcDbLine
 10
-98.89422969749873
 20
-155.4399566278069
 30
0.0
 11
-99.8447188639278
 21
-155.4399566278069
 31
0.0
  0
LINE
  5
19A
330
70
100
AcDbEntity
  8
Bemaßung
 62
     7
370
     9
100
AcDbLine
 10
-98.89422969749873
 20
-155.4682141277995
 30
0.0
 11
-100.0567735860969
 21
-155.4682141277995
 31
0.0
  0
LINE
  5
19B
330
70
100
AcDbEntity
  8
Bemaßung
 62
     7
370
     9
100
AcDbLine
 10
-98.89422969749873
 20
-155.4961188500151
 30
0.0
 11
-100.2688283082661
 21
-155.4961188500151
 31
0.0
  0
LINE
  5
19C
330
70
100
AcDbEntity
  8
Bemaßung
 62
     7
370
     9
100
AcDbLine
 10
-103.6415602518672
 20
-150.1665285735697
 30
0.0
 11
-110.8318063611808
 21
-150.1665285735697
 31
0.0
  0
LINE
  5
19D
330
70
100
AcDbEntity
  8
Bemaßung
 62
     7
370
     9
100
AcDbLine
 10
-100.2162644193902
 20
-130.3772121896282
 30
0.0
 11
-110.8318063611808
 21
-130.3772121896282
 31
0.0
  0
LINE
  5
19E
330
70
100
AcDbEntity
  8
Bemaßung
 62
     7
370
     9
100
AcDbLine
 10
-109.731809972567
 20
-150.1665285735697
 30
0.0
 11
-109.731809972567
 21
-130.3772121896282
 31
0.0
  0
LWPOLYLINE
  5
19F
330
70
100
AcDbEntity
  8
Bemaßung
 62
     7
370
     9
100
AcDbPolyline
 90
        4
 70
     0
 43
0.0
 10
-109.731809972567
 20
-150.1665285735697
 10
-109.5507644170566
 20
-148.7919652405795
 10
-109.9126791391885
 20
-148.7919652405795
 10
-109.731809972567
 20
-150.1665285735697
  0
LINE
  5
1A0
330
70
100
AcDbEntity
  8
Bemaßung
 62
     7
370
     9
100
AcDbLine
 10
-109.5643816392757
 20
-148.7919652405795
 30
0.0
 11
-109.5643816392757
 21
-148.8935652405542
 31
0.0
  0
LINE
  5
1A1
330
70
100
AcDbEntity
  8
Bemaßung
 62
     7
370
     9
100
AcDbLine
 10
-109.5643816392757
 20
-148.7919652405795
 30
0.0
 11
-109.5643816392757
 21
-148.8935652405542
 31
0.0
  0
LINE
  5
1A2
330
70
100
AcDbEntity
  8
Bemaßung
 62
     7
370
     9
100
AcDbLine
 10
-109.5919335837132
 20
-148.7919652405795
 30
0.0
 11
-109.5919335837132
 21
-149.1054435738345
 31
0.0
  0
LINE
  5
1A3
330
70
100
AcDbEntity
  8
Bemaßung
 62
     7
370
     9
100
AcDbLine
 10
-109.6198383059284
 20
-148.7919652405795
 30
0.0
 11
-109.6198383059284
 21
-149.3180274626703
 31
0.0
  0
LINE
  5
1A4
330
70
100
AcDbEntity
  8
Bemaßung
 62
     7
370
     9
100
AcDbLine
 10
-109.6480958059214
 20
-148.7919652405795
 30
0.0
 11
-109.6480958059214
 21
-149.5302232959508
 31
0.0
  0
LINE
  5
1A5
330
70
100
AcDbEntity
  8
Bemaßung
 62
     7
370
     9
100
AcDbLine
 10
-109.6761769170255
 20
-148.7919652405795
 30
0.0
 11
-109.6761769170255
 21
-149.7421016292311
 31
0.0
  0
LINE
  5
1A6
330
70
100
AcDbEntity
  8
Bemaßung
 62
     7
370
     9
100
AcDbLine
 10
-109.7037288614629
 20
-148.7919652405795
 30
0.0
 11
-109.7037288614629
 21
-149.9546855180669
 31
0.0
  0
LINE
  5
1A7
330
70
100
AcDbEntity
  8
Bemaßung
 62
     7
370
     9
100
AcDbLine
 10
-109.731809972567
 20
-148.7919652405795
 30
0.0
 11
-109.731809972567
 21
-150.1665285735697
 31
0.0
  0
LINE
  5
1A8
330
70
100
AcDbEntity
  8
Bemaßung
 62
     7
370
     9
100
AcDbLine
 10
-109.8994146947472
 20
-148.7919652405795
 30
0.0
 11
-109.8994146947472
 21
-148.8935652405542
 31
0.0
  0
LINE
  5
1A9
330
70
100
AcDbEntity
  8
Bemaßung
 62
     7
370
     9
100
AcDbLine
 10
-109.8994146947472
 20
-148.7919652405795
 30
0.0
 11
-109.8994146947472
 21
-148.8935652405542
 31
0.0
  0
LINE
  5
1AA
330
70
100
AcDbEntity
  8
Bemaßung
 62
     7
370
     9
100
AcDbLine
 10
-109.871509972532
 20
-148.7919652405795
 30
0.0
 11
-109.871509972532
 21
-149.1054435738345
 31
0.0
  0
LINE
  5
1AB
330
70
100
AcDbEntity
  8
Bemaßung
 62
     7
370
     9
100
AcDbLine
 10
-109.8436052503168
 20
-148.7919652405795
 30
0.0
 11
-109.8436052503168
 21
-149.3180274626703
 31
0.0
  0
LINE
  5
1AC
330
70
100
AcDbEntity
  8
Bemaßung
 62
     7
370
     9
100
AcDbLine
 10
-109.8155241392127
 20
-148.7919652405795
 30
0.0
 11
-109.8155241392127
 21
-149.5302232959508
 31
0.0
  0
LINE
  5
1AD
330
70
100
AcDbEntity
  8
Bemaßung
 62
     7
370
     9
100
AcDbLine
 10
-109.7876194169975
 20
-148.7919652405795
 30
0.0
 11
-109.7876194169975
 21
-149.7421016292311
 31
0.0
  0
LINE
  5
1AE
330
70
100
AcDbEntity
  8
Bemaßung
 62
     7
370
     9
100
AcDbLine
 10
-109.7595383058934
 20
-148.7919652405795
 30
0.0
 11
-109.7595383058934
 21
-149.9546855180669
 31
0.0
  0
LINE
  5
1AF
330
70
100
AcDbEntity
  8
Bemaßung
 62
     7
370
     9
100
AcDbLine
 10
-109.731809972567
 20
-148.7919652405795
 30
0.0
 11
-109.731809972567
 21
-150.1665285735697
 31
0.0
  0
LWPOLYLINE
  5
1B0
330
70
100
AcDbEntity
  8
Bemaßung
 62
     7
370
     9
100
AcDbPolyline
 90
        4
 70
     0
 43
0.0
 10
-109.731809972567
 20
-130.3772121896282
 10
-109.9126791391885
 20
-131.752163578173
 10
-109.5507644170566
 20
-131.752163578173
 10
-109.731809972567
 20
-130.3772121896282
  0
LINE
  5
1B1
330
70
100
AcDbEntity
  8
Bemaßung
 62
     7
370
     9
100
AcDbLine
 10
-109.8994146947472
 20
-131.752163578173
 30
0.0
 11
-109.8994146947472
 21
-131.6505283004207
 31
0.0
  0
LINE
  5
1B2
330
70
100
AcDbEntity
  8
Bemaßung
 62
     7
370
     9
100
AcDbLine
 10
-109.8994146947472
 20
-131.752163578173
 30
0.0
 11
-109.8994146947472
 21
-131.6505283004207
 31
0.0
  0
LINE
  5
1B3
330
70
100
AcDbEntity
  8
Bemaßung
 62
     7
370
     9
100
AcDbLine
 10
-109.871509972532
 20
-131.752163578173
 30
0.0
 11
-109.871509972532
 21
-131.4383324671402
 31
0.0
  0
LINE
  5
1B4
330
70
100
AcDbEntity
  8
Bemaßung
 62
     7
370
     9
100
AcDbLine
 10
-109.8436052503168
 20
-131.752163578173
 30
0.0
 11
-109.8436052503168
 21
-131.2261013560822
 31
0.0
  0
LINE
  5
1B5
330
70
100
AcDbEntity
  8
Bemaßung
 62
     7
370
     9
100
AcDbLine
 10
-109.8155241392127
 20
-131.752163578173
 30
0.0
 11
-109.8155241392127
 21
-131.0135527450245
 31
0.0
  0
LINE
  5
1B6
330
70
100
AcDbEntity
  8
Bemaßung
 62
     7
370
     9
100
AcDbLine
 10
-109.7876194169975
 20
-131.752163578173
 30
0.0
 11
-109.7876194169975
 21
-130.8016744117443
 31
0.0
  0
LINE
  5
1B7
330
70
100
AcDbEntity
  8
Bemaßung
 62
     7
370
     9
100
AcDbLine
 10
-109.7595383058934
 20
-131.752163578173
 30
0.0
 11
-109.7595383058934
 21
-130.5890905229084
 31
0.0
  0
LINE
  5
1B8
330
70
100
AcDbEntity
  8
Bemaßung
 62
     7
370
     9
100
AcDbLine
 10
-109.731809972567
 20
-131.752163578173
 30
0.0
 11
-109.731809972567
 21
-130.3772121896282
 31
0.0
  0
LINE
  5
1B9
330
70
100
AcDbEntity
  8
Bemaßung
 62
     7
370
     9
100
AcDbLine
 10
-109.5643816392757
 20
-131.752163578173
 30
0.0
 11
-109.5643816392757
 21
-131.6505283004207
 31
0.0
  0
LINE
  5
1BA
330
70
100
AcDbEntity
  8
Bemaßung
 62
     7
370
     9
100
AcDbLine
 10
-109.5643816392757
 20
-131.752163578173
 30
0.0
 11
-109.5643816392757
 21
-131.6505283004207
 31
0.0
  0
LINE
  5
1BB
330
70
100
AcDbEntity
  8
Bemaßung
 62
     7
370
     9
100
AcDbLine
 10
-109.5919335837132
 20
-131.752163578173
 30
0.0
 11
-109.5919335837132
 21
-131.4383324671402
 31
0.0
  0
LINE
  5
1BC
330
70
100
AcDbEntity
  8
Bemaßung
 62
     7
370
     9
100
AcDbLine
 10
-109.6198383059284
 20
-131.752163578173
 30
0.0
 11
-109.6198383059284
 21
-131.2261013560822
 31
0.0
  0
LINE
  5
1BD
330
70
100
AcDbEntity
  8
Bemaßung
 62
     7
370
     9
100
AcDbLine
 10
-109.6480958059214
 20
-131.752163578173
 30
0.0
 11
-109.6480958059214
 21
-131.0135527450245
 31
0.0
  0
LINE
  5
1BE
330
70
100
AcDbEntity
  8
Bemaßung
 62
     7
370
     9
100
AcDbLine
 10
-109.6761769170255
 20
-131.752163578173
 30
0.0
 11
-109.6761769170255
 21
-130.8016744117443
 31
0.0
  0
LINE
  5
1BF
330
70
100
AcDbEntity
  8
Bemaßung
 62
     7
370
     9
100
AcDbLine
 10
-109.7037288614629
 20
-131.752163578173
 30
0.0
 11
-109.7037288614629
 21
-130.5890905229084
 31
0.0
  0
LINE
  5
1C0
330
70
100
AcDbEntity
  8
Bemaßung
 62
     7
370
     9
100
AcDbLine
 10
-109.731809972567
 20
-131.752163578173
 30
0.0
 11
-109.731809972567
 21
-130.3772121896282
 31
0.0
  0
LINE
  5
1C1
330
70
100
AcDbEntity
  8
Bemaßung
 62
     7
370
     9
100
AcDbLine
 10
-104.3014663628134
 20
-87.32904525594561
 30
0.0
 11
-88.62645608895434
 21
-87.32904525594561
 31
0.0
  0
LWPOLYLINE
  5
1C2
330
70
100
AcDbEntity
  8
Bemaßung
 62
     7
370
     9
100
AcDbPolyline
 90
        4
 70
     0
 43
0.0
 10
-104.3014663628134
 20
-87.32904525594561
 10
-102.9265502520461
 20
-87.51009081145571
 10
-102.9265502520461
 20
-87.14764692265744
 10
-104.3014663628134
 20
-87.32904525594561
  0
LINE
  5
1C3
330
70
100
AcDbEntity
  8
Bemaßung
 62
     7
370
     9
100
AcDbLine
 10
-102.9265502520461
 20
-87.49647358923693
 30
0.0
 11
-103.0281502520209
 21
-87.49647358923693
 31
0.0
  0
LINE
  5
1C4
330
70
100
AcDbEntity
  8
Bemaßung
 62
     7
370
     9
100
AcDbLine
 10
-102.9265502520461
 20
-87.49647358923693
 30
0.0
 11
-103.0281502520209
 21
-87.49647358923693
 31
0.0
  0
LINE
  5
1C5
330
70
100
AcDbEntity
  8
Bemaßung
 62
     7
370
     9
100
AcDbLine
 10
-102.9265502520461
 20
-87.46856886702172
 30
0.0
 11
-103.24020497419
 21
-87.46856886702172
 31
0.0
  0
LINE
  5
1C6
330
70
100
AcDbEntity
  8
Bemaßung
 62
     7
370
     9
100
AcDbLine
 10
-102.9265502520461
 20
-87.44048775591762
 30
0.0
 11
-103.4526124741369
 21
-87.44048775591762
 31
0.0
  0
LINE
  5
1C7
330
70
100
AcDbEntity
  8
Bemaßung
 62
     7
370
     9
100
AcDbLine
 10
-102.9265502520461
 20
-87.41258303370241
 30
0.0
 11
-103.6646319185283
 21
-87.41258303370241
 31
0.0
  0
LINE
  5
1C8
330
70
100
AcDbEntity
  8
Bemaßung
 62
     7
370
     9
100
AcDbLine
 10
-102.9265502520461
 20
-87.38467831148717
 30
0.0
 11
-103.8770394184752
 21
-87.38467831148717
 31
0.0
  0
LINE
  5
1C9
330
70
100
AcDbEntity
  8
Bemaßung
 62
     7
370
     9
100
AcDbLine
 10
-102.9265502520461
 20
-87.35677358927196
 30
0.0
 11
-104.0894116406443
 21
-87.35677358927196
 31
0.0
  0
LINE
  5
1CA
330
70
100
AcDbEntity
  8
Bemaßung
 62
     7
370
     9
100
AcDbLine
 10
-102.9265502520461
 20
-87.32904525594561
 30
0.0
 11
-104.3014663628134
 21
-87.32904525594561
 31
0.0
  0
LINE
  5
1CB
330
70
100
AcDbEntity
  8
Bemaßung
 62
     7
370
     9
100
AcDbLine
 10
-102.9265502520461
 20
-87.1614405337651
 30
0.0
 11
-103.0281502520209
 21
-87.1614405337651
 31
0.0
  0
LINE
  5
1CC
330
70
100
AcDbEntity
  8
Bemaßung
 62
     7
370
     9
100
AcDbLine
 10
-102.9265502520461
 20
-87.1614405337651
 30
0.0
 11
-103.0281502520209
 21
-87.1614405337651
 31
0.0
  0
LINE
  5
1CD
330
70
100
AcDbEntity
  8
Bemaßung
 62
     7
370
     9
100
AcDbLine
 10
-102.9265502520461
 20
-87.18934525598031
 30
0.0
 11
-103.24020497419
 21
-87.18934525598031
 31
0.0
  0
LINE
  5
1CE
330
70
100
AcDbEntity
  8
Bemaßung
 62
     7
370
     9
100
AcDbLine
 10
-102.9265502520461
 20
-87.21724997819555
 30
0.0
 11
-103.4526124741369
 21
-87.21724997819555
 31
0.0
  0
LINE
  5
1CF
330
70
100
AcDbEntity
  8
Bemaßung
 62
     7
370
     9
100
AcDbLine
 10
-102.9265502520461
 20
-87.24515470041108
 30
0.0
 11
-103.6646319185283
 21
-87.24515470041108
 31
0.0
  0
LINE
  5
1D0
330
70
100
AcDbEntity
  8
Bemaßung
 62
     7
370
     9
100
AcDbLine
 10
-102.9265502520461
 20
-87.2730594226263
 30
0.0
 11
-103.8770394184752
 21
-87.2730594226263
 31
0.0
  0
LINE
  5
1D1
330
70
100
AcDbEntity
  8
Bemaßung
 62
     7
370
     9
100
AcDbLine
 10
-102.9265502520461
 20
-87.30096414484151
 30
0.0
 11
-104.0894116406443
 21
-87.30096414484151
 31
0.0
  0
LINE
  5
1D2
330
70
100
AcDbEntity
  8
Bemaßung
 62
     7
370
     9
100
AcDbLine
 10
-102.9265502520461
 20
-87.32904525594561
 30
0.0
 11
-104.3014663628134
 21
-87.32904525594561
 31
0.0
  0
LWPOLYLINE
  5
1D3
330
70
100
AcDbEntity
  8
Bemaßung
 62
     7
370
     9
100
AcDbPolyline
 90
        4
 70
     0
 43
0.0
 10
-88.62645608895434
 20
-87.32904525594561
 10
-90.0014074774995
 20
-87.14764692265744
 10
-90.0014074774995
 20
-87.51009081145571
 10
-88.62645608895434
 20
-87.32904525594561
  0
LINE
  5
1D4
330
70
100
AcDbEntity
  8
Bemaßung
 62
     7
370
     9
100
AcDbLine
 10
-90.0014074774995
 20
-87.1614405337651
 30
0.0
 11
-89.89977219974722
 21
-87.1614405337651
 31
0.0
  0
LINE
  5
1D5
330
70
100
AcDbEntity
  8
Bemaßung
 62
     7
370
     9
100
AcDbLine
 10
-90.0014074774995
 20
-87.1614405337651
 30
0.0
 11
-89.89977219974722
 21
-87.1614405337651
 31
0.0
  0
LINE
  5
1D6
330
70
100
AcDbEntity
  8
Bemaßung
 62
     7
370
     9
100
AcDbLine
 10
-90.0014074774995
 20
-87.18934525598031
 30
0.0
 11
-89.68771747757806
 21
-87.18934525598031
 31
0.0
  0
LINE
  5
1D7
330
70
100
AcDbEntity
  8
Bemaßung
 62
     7
370
     9
100
AcDbLine
 10
-90.0014074774995
 20
-87.21724997819555
 30
0.0
 11
-89.47534525540898
 21
-87.21724997819555
 31
0.0
  0
LINE
  5
1D8
330
70
100
AcDbEntity
  8
Bemaßung
 62
     7
370
     9
100
AcDbLine
 10
-90.0014074774995
 20
-87.24515470041108
 30
0.0
 11
-89.26329053323982
 21
-87.24515470041108
 31
0.0
  0
LINE
  5
1D9
330
70
100
AcDbEntity
  8
Bemaßung
 62
     7
370
     9
100
AcDbLine
 10
-90.0014074774995
 20
-87.2730594226263
 30
0.0
 11
-89.05088303329291
 21
-87.2730594226263
 31
0.0
  0
LINE
  5
1DA
330
70
100
AcDbEntity
  8
Bemaßung
 62
     7
370
     9
100
AcDbLine
 10
-90.0014074774995
 20
-87.30096414484151
 30
0.0
 11
-88.83886358890126
 21
-87.30096414484151
 31
0.0
  0
LINE
  5
1DB
330
70
100
AcDbEntity
  8
Bemaßung
 62
     7
370
     9
100
AcDbLine
 10
-90.0014074774995
 20
-87.32904525594561
 30
0.0
 11
-88.62645608895434
 21
-87.32904525594561
 31
0.0
  0
LINE
  5
1DC
330
70
100
AcDbEntity
  8
Bemaßung
 62
     7
370
     9
100
AcDbLine
 10
-90.0014074774995
 20
-87.49647358923693
 30
0.0
 11
-89.89977219974722
 21
-87.49647358923693
 31
0.0
  0
LINE
  5
1DD
330
70
100
AcDbEntity
  8
Bemaßung
 62
     7
370
     9
100
AcDbLine
 10
-90.0014074774995
 20
-87.49647358923693
 30
0.0
 11
-89.89977219974722
 21
-87.49647358923693
 31
0.0
  0
LINE
  5
1DE
330
70
100
AcDbEntity
  8
Bemaßung
 62
     7
370
     9
100
AcDbLine
 10
-90.0014074774995
 20
-87.46856886702172
 30
0.0
 11
-89.68771747757806
 21
-87.46856886702172
 31
0.0
  0
LINE
  5
1DF
330
70
100
AcDbEntity
  8
Bemaßung
 62
     7
370
     9
100
AcDbLine
 10
-90.0014074774995
 20
-87.44048775591762
 30
0.0
 11
-89.47534525540898
 21
-87.44048775591762
 31
0.0
  0
LINE
  5
1E0
330
70
100
AcDbEntity
  8
Bemaßung
 62
     7
370
     9
100
AcDbLine
 10
-90.0014074774995
 20
-87.41258303370241
 30
0.0
 11
-89.26329053323982
 21
-87.41258303370241
 31
0.0
  0
LINE
  5
1E1
330
70
100
AcDbEntity
  8
Bemaßung
 62
     7
370
     9
100
AcDbLine
 10
-90.0014074774995
 20
-87.38467831148717
 30
0.0
 11
-89.05088303329291
 21
-87.38467831148717
 31
0.0
  0
LINE
  5
1E2
330
70
100
AcDbEntity
  8
Bemaßung
 62
     7
370
     9
100
AcDbLine
 10
-90.0014074774995
 20
-87.35677358927196
 30
0.0
 11
-88.83886358890126
 21
-87.35677358927196
 31
0.0
  0
LINE
  5
1E3
330
70
100
AcDbEntity
  8
Bemaßung
 62
     7
370
     9
100
AcDbLine
 10
-90.0014074774995
 20
-87.32904525594561
 30
0.0
 11
-88.62645608895434
 21
-87.32904525594561
 31
0.0
  0
LINE
  5
1E4
330
70
100
AcDbEntity
  8
Bemaßung
 62
     7
370
     9
100
AcDbLine
 10
-41.8913380450829
 20
-53.97189554206271
 30
0.0
 11
-24.7631030491371
 21
-53.97189554206271
 31
0.0
  0
LINE
  5
1E5
330
70
100
AcDbEntity
  8
Bemaßung
 62
     7
370
     9
100
AcDbLine
 10
-37.49159943507171
 20
-67.66665831641656
 30
0.0
 11
-24.68076471582464
 21
-67.66665831641656
 31
0.0
  0
LINE
  5
1E6
330
70
100
AcDbEntity
  8
Bemaßung
 62
     7
370
     9
100
AcDbLine
 10
-25.8634874933068
 20
-53.97189554206271
 30
0.0
 11
-25.8634874933068
 21
-67.66665831641656
 31
0.0
  0
LWPOLYLINE
  5
1E7
330
70
100
AcDbEntity
  8
Bemaßung
 62
     7
370
     9
100
AcDbPolyline
 90
        4
 70
     0
 43
0.0
 10
-25.8634874933068
 20
-53.97189554206271
 10
-26.044356659928
 20
-55.34684693060789
 10
-25.68226554890719
 20
-55.34684693060789
 10
-25.8634874933068
 20
-53.97189554206271
  0
LINE
  5
1E8
330
70
100
AcDbEntity
  8
Bemaßung
 62
     7
370
     9
100
AcDbLine
 10
-26.03091582659811
 20
-55.34684693060789
 30
0.0
 11
-26.03091582659811
 21
-55.2450352639664
 31
0.0
  0
LINE
  5
1E9
330
70
100
AcDbEntity
  8
Bemaßung
 62
     7
370
     9
100
AcDbLine
 10
-26.03091582659811
 20
-55.34684693060789
 30
0.0
 11
-26.03091582659811
 21
-55.2450352639664
 31
0.0
  0
LINE
  5
1EA
330
70
100
AcDbEntity
  8
Bemaßung
 62
     7
370
     9
100
AcDbLine
 10
-26.00265832660481
 20
-55.34684693060789
 30
0.0
 11
-26.00265832660481
 21
-55.03280415290836
 31
0.0
  0
LINE
  5
1EB
330
70
100
AcDbEntity
  8
Bemaßung
 62
     7
370
     9
100
AcDbLine
 10
-25.97475360438992
 20
-55.34684693060789
 30
0.0
 11
-25.97475360438992
 21
-54.82078470851703
 31
0.0
  0
LINE
  5
1EC
330
70
100
AcDbEntity
  8
Bemaßung
 62
     7
370
     9
100
AcDbLine
 10
-25.94684888217437
 20
-55.34684693060789
 30
0.0
 11
-25.94684888217437
 21
-54.608553597459
 31
0.0
  0
LINE
  5
1ED
330
70
100
AcDbEntity
  8
Bemaßung
 62
     7
370
     9
100
AcDbLine
 10
-25.91894415995947
 20
-55.34684693060789
 30
0.0
 11
-25.91894415995947
 21
-54.39600498640103
 31
0.0
  0
LINE
  5
1EE
330
70
100
AcDbEntity
  8
Bemaßung
 62
     7
370
     9
100
AcDbLine
 10
-25.8913922155217
 20
-55.34684693060789
 30
0.0
 11
-25.8913922155217
 21
-54.18395026423188
 31
0.0
  0
LINE
  5
1EF
330
70
100
AcDbEntity
  8
Bemaßung
 62
     7
370
     9
100
AcDbLine
 10
-25.8634874933068
 20
-55.34684693060789
 30
0.0
 11
-25.8634874933068
 21
-53.97189554206271
 31
0.0
  0
LINE
  5
1F0
330
70
100
AcDbEntity
  8
Bemaßung
 62
     7
370
     9
100
AcDbLine
 10
-25.69535360445995
 20
-55.34684693060789
 30
0.0
 11
-25.69535360445995
 21
-55.2450352639664
 31
0.0
  0
LINE
  5
1F1
330
70
100
AcDbEntity
  8
Bemaßung
 62
     7
370
     9
100
AcDbLine
 10
-25.69535360445995
 20
-55.34684693060789
 30
0.0
 11
-25.69535360445995
 21
-55.2450352639664
 31
0.0
  0
LINE
  5
1F2
330
70
100
AcDbEntity
  8
Bemaßung
 62
     7
370
     9
100
AcDbLine
 10
-25.72361110445261
 20
-55.34684693060789
 30
0.0
 11
-25.72361110445261
 21
-55.03280415290836
 31
0.0
  0
LINE
  5
1F3
330
70
100
AcDbEntity
  8
Bemaßung
 62
     7
370
     9
100
AcDbLine
 10
-25.75151582666816
 20
-55.34684693060789
 30
0.0
 11
-25.75151582666816
 21
-54.82078470851703
 31
0.0
  0
LINE
  5
1F4
330
70
100
AcDbEntity
  8
Bemaßung
 62
     7
370
     9
100
AcDbLine
 10
-25.77942054888306
 20
-55.34684693060789
 30
0.0
 11
-25.77942054888306
 21
-54.608553597459
 31
0.0
  0
LINE
  5
1F5
330
70
100
AcDbEntity
  8
Bemaßung
 62
     7
370
     9
100
AcDbLine
 10
-25.80697249332083
 20
-55.34684693060789
 30
0.0
 11
-25.80697249332083
 21
-54.39600498640103
 31
0.0
  0
LINE
  5
1F6
330
70
100
AcDbEntity
  8
Bemaßung
 62
     7
370
     9
100
AcDbLine
 10
-25.83487721553573
 20
-55.34684693060789
 30
0.0
 11
-25.83487721553573
 21
-54.18395026423188
 31
0.0
  0
LINE
  5
1F7
330
70
100
AcDbEntity
  8
Bemaßung
 62
     7
370
     9
100
AcDbLine
 10
-25.8634874933068
 20
-55.34684693060789
 30
0.0
 11
-25.8634874933068
 21
-53.97189554206271
 31
0.0
  0
LWPOLYLINE
  5
1F8
330
70
100
AcDbEntity
  8
Bemaßung
 62
     7
370
     9
100
AcDbPolyline
 90
        4
 70
     0
 43
0.0
 10
-25.8634874933068
 20
-67.66665831641656
 10
-25.68226554890719
 20
-66.29191859453811
 10
-26.044356659928
 20
-66.29191859453811
 10
-25.8634874933068
 20
-67.66665831641656
  0
LINE
  5
1F9
330
70
100
AcDbEntity
  8
Bemaßung
 62
     7
370
     9
100
AcDbLine
 10
-25.69535360445995
 20
-66.29191859453811
 30
0.0
 11
-25.69535360445995
 21
-66.39351859451288
 31
0.0
  0
LINE
  5
1FA
330
70
100
AcDbEntity
  8
Bemaßung
 62
     7
370
     9
100
AcDbLine
 10
-25.69535360445995
 20
-66.29191859453811
 30
0.0
 11
-25.69535360445995
 21
-66.39351859451288
 31
0.0
  0
LINE
  5
1FB
330
70
100
AcDbEntity
  8
Bemaßung
 62
     7
370
     9
100
AcDbLine
 10
-25.72361110445261
 20
-66.29191859453811
 30
0.0
 11
-25.72361110445261
 21
-66.60574970557092
 31
0.0
  0
LINE
  5
1FC
330
70
100
AcDbEntity
  8
Bemaßung
 62
     7
370
     9
100
AcDbLine
 10
-25.75151582666816
 20
-66.29191859453811
 30
0.0
 11
-25.75151582666816
 21
-66.81780442774009
 31
0.0
  0
LINE
  5
1FD
330
70
100
AcDbEntity
  8
Bemaßung
 62
     7
370
     9
100
AcDbLine
 10
-25.77942054888306
 20
-66.29191859453811
 30
0.0
 11
-25.77942054888306
 21
-67.03017664990916
 31
0.0
  0
LINE
  5
1FE
330
70
100
AcDbEntity
  8
Bemaßung
 62
     7
370
     9
100
AcDbLine
 10
-25.80697249332083
 20
-66.29191859453811
 30
0.0
 11
-25.80697249332083
 21
-67.24240776096721
 31
0.0
  0
LINE
  5
1FF
330
70
100
AcDbEntity
  8
Bemaßung
 62
     7
370
     9
100
AcDbLine
 10
-25.83487721553573
 20
-66.29191859453811
 30
0.0
 11
-25.83487721553573
 21
-67.45463887202524
 31
0.0
  0
LINE
  5
200
330
70
100
AcDbEntity
  8
Bemaßung
 62
     7
370
     9
100
AcDbLine
 10
-25.8634874933068
 20
-66.29191859453811
 30
0.0
 11
-25.8634874933068
 21
-67.66665831641656
 31
0.0
  0
LINE
  5
201
330
70
100
AcDbEntity
  8
Bemaßung
 62
     7
370
     9
100
AcDbLine
 10
-26.03091582659811
 20
-66.29191859453811
 30
0.0
 11
-26.03091582659811
 21
-66.39351859451288
 31
0.0
  0
LINE
  5
202
330
70
100
AcDbEntity
  8
Bemaßung
 62
     7
370
     9
100
AcDbLine
 10
-26.03091582659811
 20
-66.29191859453811
 30
0.0
 11
-26.03091582659811
 21
-66.39351859451288
 31
0.0
  0
LINE
  5
203
330
70
100
AcDbEntity
  8
Bemaßung
 62
     7
370
     9
100
AcDbLine
 10
-26.00265832660481
 20
-66.29191859453811
 30
0.0
 11
-26.00265832660481
 21
-66.60574970557092
 31
0.0
  0
LINE
  5
204
330
70
100
AcDbEntity
  8
Bemaßung
 62
     7
370
     9
100
AcDbLine
 10
-25.97475360438992
 20
-66.29191859453811
 30
0.0
 11
-25.97475360438992
 21
-66.81780442774009
 31
0.0
  0
LINE
  5
205
330
70
100
AcDbEntity
  8
Bemaßung
 62
     7
370
     9
100
AcDbLine
 10
-25.94684888217437
 20
-66.29191859453811
 30
0.0
 11
-25.94684888217437
 21
-67.03017664990916
 31
0.0
  0
LINE
  5
206
330
70
100
AcDbEntity
  8
Bemaßung
 62
     7
370
     9
100
AcDbLine
 10
-25.91894415995947
 20
-66.29191859453811
 30
0.0
 11
-25.91894415995947
 21
-67.24240776096721
 31
0.0
  0
LINE
  5
207
330
70
100
AcDbEntity
  8
Bemaßung
 62
     7
370
     9
100
AcDbLine
 10
-25.8913922155217
 20
-66.29191859453811
 30
0.0
 11
-25.8913922155217
 21
-67.45463887202524
 31
0.0
  0
LINE
  5
208
330
70
100
AcDbEntity
  8
Bemaßung
 62
     7
370
     9
100
AcDbLine
 10
-25.8634874933068
 20
-66.29191859453811
 30
0.0
 11
-25.8634874933068
 21
-67.66665831641656
 31
0.0
  0
LINE
  5
209
330
70
100
AcDbEntity
  8
Bemaßung
 62
     7
370
     9
100
AcDbLine
 10
-40.21391498994673
 20
-150.1665285735697
 30
0.0
 11
-25.18202666014348
 21
-150.1665285735697
 31
0.0
  0
LINE
  5
20A
330
70
100
AcDbEntity
  8
Bemaßung
 62
     7
370
     9
100
AcDbLine
 10
-25.87138971552699
 20
-67.66665831641656
 30
0.0
 11
-25.87138971552699
 21
-150.1665285735697
 31
0.0
  0
LWPOLYLINE
  5
20B
330
70
100
AcDbEntity
  8
Bemaßung
 62
     7
370
     9
100
AcDbPolyline
 90
        4
 70
     0
 43
0.0
 10
-25.87138971552699
 20
-67.66665831641656
 10
-26.05225888214819
 20
-69.0417860938506
 10
-25.69020304890554
 20
-69.0417860938506
 10
-25.87138971552699
 20
-67.66665831641656
  0
LINE
  5
20C
330
70
100
AcDbEntity
  8
Bemaßung
 62
     7
370
     9
100
AcDbLine
 10
-26.03885332659582
 20
-69.0417860938506
 30
0.0
 11
-26.03885332659582
 21
-68.94015081609833
 31
0.0
  0
LINE
  5
20D
330
70
100
AcDbEntity
  8
Bemaßung
 62
     7
370
     9
100
AcDbLine
 10
-26.03885332659582
 20
-69.0417860938506
 30
0.0
 11
-26.03885332659582
 21
-68.94015081609833
 31
0.0
  0
LINE
  5
20E
330
70
100
AcDbEntity
  8
Bemaßung
 62
     7
370
     9
100
AcDbLine
 10
-26.01094860438092
 20
-69.0417860938506
 30
0.0
 11
-26.01094860438092
 21
-68.72791970504028
 31
0.0
  0
LINE
  5
20F
330
70
100
AcDbEntity
  8
Bemaßung
 62
     7
370
     9
100
AcDbLine
 10
-25.98304388216539
 20
-69.0417860938506
 30
0.0
 11
-25.98304388216539
 21
-68.51590026064896
 31
0.0
  0
LINE
  5
210
330
70
100
AcDbEntity
  8
Bemaßung
 62
     7
370
     9
100
AcDbLine
 10
-25.95513915995049
 20
-69.0417860938506
 30
0.0
 11
-25.95513915995049
 21
-68.30349276070204
 31
0.0
  0
LINE
  5
211
330
70
100
AcDbEntity
  8
Bemaßung
 62
     7
370
     9
100
AcDbLine
 10
-25.92688165995718
 20
-69.0417860938506
 30
0.0
 11
-25.92688165995718
 21
-68.09126164964401
 31
0.0
  0
LINE
  5
212
330
70
100
AcDbEntity
  8
Bemaßung
 62
     7
370
     9
100
AcDbLine
 10
-25.89897693774228
 20
-69.0417860938506
 30
0.0
 11
-25.89897693774228
 21
-67.87906581636348
 31
0.0
  0
LINE
  5
213
330
70
100
AcDbEntity
  8
Bemaßung
 62
     7
370
     9
100
AcDbLine
 10
-25.87138971552699
 20
-69.0417860938506
 30
0.0
 11
-25.87138971552699
 21
-67.66665831641656
 31
0.0
  0
LINE
  5
214
330
70
100
AcDbEntity
  8
Bemaßung
 62
     7
370
     9
100
AcDbLine
 10
-25.70364388223542
 20
-69.0417860938506
 30
0.0
 11
-25.70364388223542
 21
-68.94015081609833
 31
0.0
  0
LINE
  5
215
330
70
100
AcDbEntity
  8
Bemaßung
 62
     7
370
     9
100
AcDbLine
 10
-25.70364388223542
 20
-69.0417860938506
 30
0.0
 11
-25.70364388223542
 21
-68.94015081609833
 31
0.0
  0
LINE
  5
216
330
70
100
AcDbEntity
  8
Bemaßung
 62
     7
370
     9
100
AcDbLine
 10
-25.73154860445032
 20
-69.0417860938506
 30
0.0
 11
-25.73154860445032
 21
-68.72791970504028
 31
0.0
  0
LINE
  5
217
330
70
100
AcDbEntity
  8
Bemaßung
 62
     7
370
     9
100
AcDbLine
 10
-25.75945332666587
 20
-69.0417860938506
 30
0.0
 11
-25.75945332666587
 21
-68.51590026064896
 31
0.0
  0
LINE
  5
218
330
70
100
AcDbEntity
  8
Bemaßung
 62
     7
370
     9
100
AcDbLine
 10
-25.7873580488814
 20
-69.0417860938506
 30
0.0
 11
-25.7873580488814
 21
-68.30349276070204
 31
0.0
  0
LINE
  5
219
330
70
100
AcDbEntity
  8
Bemaßung
 62
     7
370
     9
100
AcDbLine
 10
-25.8152627710963
 20
-69.0417860938506
 30
0.0
 11
-25.8152627710963
 21
-68.09126164964401
 31
0.0
  0
LINE
  5
21A
330
70
100
AcDbEntity
  8
Bemaßung
 62
     7
370
     9
100
AcDbLine
 10
-25.84348499331144
 20
-69.0417860938506
 30
0.0
 11
-25.84348499331144
 21
-67.87906581636348
 31
0.0
  0
LINE
  5
21B
330
70
100
AcDbEntity
  8
Bemaßung
 62
     7
370
     9
100
AcDbLine
 10
-25.87138971552699
 20
-69.0417860938506
 30
0.0
 11
-25.87138971552699
 21
-67.66665831641656
 31
0.0
  0
LWPOLYLINE
  5
21C
330
70
100
AcDbEntity
  8
Bemaßung
 62
     7
370
     9
100
AcDbPolyline
 90
        4
 70
     0
 43
0.0
 10
-25.87138971552699
 20
-150.1665285735697
 10
-25.69020304890554
 20
-148.7919652405795
 10
-26.05225888214819
 20
-148.7919652405795
 10
-25.87138971552699
 20
-150.1665285735697
  0
LINE
  5
21D
330
70
100
AcDbEntity
  8
Bemaßung
 62
     7
370
     9
100
AcDbLine
 10
-25.70364388223542
 20
-148.7919652405795
 30
0.0
 11
-25.70364388223542
 21
-148.8935652405542
 31
0.0
  0
LINE
  5
21E
330
70
100
AcDbEntity
  8
Bemaßung
 62
     7
370
     9
100
AcDbLine
 10
-25.70364388223542
 20
-148.7919652405795
 30
0.0
 11
-25.70364388223542
 21
-148.8935652405542
 31
0.0
  0
LINE
  5
21F
330
70
100
AcDbEntity
  8
Bemaßung
 62
     7
370
     9
100
AcDbLine
 10
-25.73154860445032
 20
-148.7919652405795
 30
0.0
 11
-25.73154860445032
 21
-149.1054435738345
 31
0.0
  0
LINE
  5
220
330
70
100
AcDbEntity
  8
Bemaßung
 62
     7
370
     9
100
AcDbLine
 10
-25.75945332666587
 20
-148.7919652405795
 30
0.0
 11
-25.75945332666587
 21
-149.3180274626703
 31
0.0
  0
LINE
  5
221
330
70
100
AcDbEntity
  8
Bemaßung
 62
     7
370
     9
100
AcDbLine
 10
-25.7873580488814
 20
-148.7919652405795
 30
0.0
 11
-25.7873580488814
 21
-149.5302232959508
 31
0.0
  0
LINE
  5
222
330
70
100
AcDbEntity
  8
Bemaßung
 62
     7
370
     9
100
AcDbLine
 10
-25.8152627710963
 20
-148.7919652405795
 30
0.0
 11
-25.8152627710963
 21
-149.7421016292311
 31
0.0
  0
LINE
  5
223
330
70
100
AcDbEntity
  8
Bemaßung
 62
     7
370
     9
100
AcDbLine
 10
-25.84348499331144
 20
-148.7919652405795
 30
0.0
 11
-25.84348499331144
 21
-149.9546855180669
 31
0.0
  0
LINE
  5
224
330
70
100
AcDbEntity
  8
Bemaßung
 62
     7
370
     9
100
AcDbLine
 10
-25.87138971552699
 20
-148.7919652405795
 30
0.0
 11
-25.87138971552699
 21
-150.1665285735697
 31
0.0
  0
LINE
  5
225
330
70
100
AcDbEntity
  8
Bemaßung
 62
     7
370
     9
100
AcDbLine
 10
-26.03885332659582
 20
-148.7919652405795
 30
0.0
 11
-26.03885332659582
 21
-148.8935652405542
 31
0.0
  0
LINE
  5
226
330
70
100
AcDbEntity
  8
Bemaßung
 62
     7
370
     9
100
AcDbLine
 10
-26.03885332659582
 20
-148.7919652405795
 30
0.0
 11
-26.03885332659582
 21
-148.8935652405542
 31
0.0
  0
LINE
  5
227
330
70
100
AcDbEntity
  8
Bemaßung
 62
     7
370
     9
100
AcDbLine
 10
-26.01094860438092
 20
-148.7919652405795
 30
0.0
 11
-26.01094860438092
 21
-149.1054435738345
 31
0.0
  0
LINE
  5
228
330
70
100
AcDbEntity
  8
Bemaßung
 62
     7
370
     9
100
AcDbLine
 10
-25.98304388216539
 20
-148.7919652405795
 30
0.0
 11
-25.98304388216539
 21
-149.3180274626703
 31
0.0
  0
LINE
  5
229
330
70
100
AcDbEntity
  8
Bemaßung
 62
     7
370
     9
100
AcDbLine
 10
-25.95513915995049
 20
-148.7919652405795
 30
0.0
 11
-25.95513915995049
 21
-149.5302232959508
 31
0.0
  0
LINE
  5
22A
330
70
100
AcDbEntity
  8
Bemaßung
 62
     7
370
     9
100
AcDbLine
 10
-25.92688165995718
 20
-148.7919652405795
 30
0.0
 11
-25.92688165995718
 21
-149.7421016292311
 31
0.0
  0
LINE
  5
22B
330
70
100
AcDbEntity
  8
Bemaßung
 62
     7
370
     9
100
AcDbLine
 10
-25.89897693774228
 20
-148.7919652405795
 30
0.0
 11
-25.89897693774228
 21
-149.9546855180669
 31
0.0
  0
LINE
  5
22C
330
70
100
AcDbEntity
  8
Bemaßung
 62
     7
370
     9
100
AcDbLine
 10
-25.87138971552699
 20
-148.7919652405795
 30
0.0
 11
-25.87138971552699
 21
-150.1665285735697
 31
0.0
  0
LINE
  5
22D
330
70
100
AcDbEntity
  8
Bemaßung
 62
     7
370
     9
100
AcDbLine
 10
-33.64240582492248
 20
-100.6669027526109
 30
0.0
 11
-33.64240582492248
 21
-86.21694858955699
 31
0.0
  0
LINE
  5
22E
330
70
100
AcDbEntity
  8
Bemaßung
 62
     7
370
     9
100
AcDbLine
 10
-61.09740692917024
 20
-100.6669027526109
 30
0.0
 11
-61.09740692917024
 21
-86.21694858955699
 31
0.0
  0
LINE
  5
22F
330
70
100
AcDbEntity
  8
Bemaßung
 62
     7
370
     9
100
AcDbLine
 10
-33.64240582492248
 20
-87.31733303372637
 30
0.0
 11
-61.09740692917024
 21
-87.31733303372637
 31
0.0
  0
LWPOLYLINE
  5
230
330
70
100
AcDbEntity
  8
Bemaßung
 62
     7
370
     9
100
AcDbPolyline
 90
        4
 70
     0
 43
0.0
 10
-33.64240582492248
 20
-87.31733303372637
 10
-35.0173219356898
 20
-87.13628747821596
 10
-35.0173219356898
 20
-87.49837858923646
 10
-33.64240582492248
 20
-87.31733303372637
  0
LINE
  5
231
330
70
100
AcDbEntity
  8
Bemaßung
 62
     7
370
     9
100
AcDbLine
 10
-35.0173219356898
 20
-87.14955192265696
 30
0.0
 11
-34.91568665793752
 21
-87.14955192265696
 31
0.0
  0
LINE
  5
232
330
70
100
AcDbEntity
  8
Bemaßung
 62
     7
370
     9
100
AcDbLine
 10
-35.0173219356898
 20
-87.14955192265696
 30
0.0
 11
-34.91568665793752
 21
-87.14955192265696
 31
0.0
  0
LINE
  5
233
330
70
100
AcDbEntity
  8
Bemaßung
 62
     7
370
     9
100
AcDbLine
 10
-35.0173219356898
 20
-87.17745664487219
 30
0.0
 11
-34.70349082465765
 21
-87.17745664487219
 31
0.0
  0
LINE
  5
234
330
70
100
AcDbEntity
  8
Bemaßung
 62
     7
370
     9
100
AcDbLine
 10
-35.0173219356898
 20
-87.20553775597629
 30
0.0
 11
-34.49090693582184
 21
-87.20553775597629
 31
0.0
  0
LINE
  5
235
330
70
100
AcDbEntity
  8
Bemaßung
 62
     7
370
     9
100
AcDbLine
 10
-35.0173219356898
 20
-87.23344247819152
 30
0.0
 11
-34.27902860254156
 21
-87.23344247819152
 31
0.0
  0
LINE
  5
236
330
70
100
AcDbEntity
  8
Bemaßung
 62
     7
370
     9
100
AcDbLine
 10
-35.0173219356898
 20
-87.26152358929562
 30
0.0
 11
-34.06683276926104
 21
-87.26152358929562
 31
0.0
  0
LINE
  5
237
330
70
100
AcDbEntity
  8
Bemaßung
 62
     7
370
     9
100
AcDbLine
 10
-35.0173219356898
 20
-87.28942831151083
 30
0.0
 11
-33.85424888042524
 21
-87.28942831151083
 31
0.0
  0
LINE
  5
238
330
70
100
AcDbEntity
  8
Bemaßung
 62
     7
370
     9
100
AcDbLine
 10
-35.0173219356898
 20
-87.31733303372637
 30
0.0
 11
-33.64240582492248
 21
-87.31733303372637
 31
0.0
  0
LINE
  5
239
330
70
100
AcDbEntity
  8
Bemaßung
 62
     7
370
     9
100
AcDbLine
 10
-35.0173219356898
 20
-87.48493775590658
 30
0.0
 11
-34.91568665793752
 21
-87.48493775590658
 31
0.0
  0
LINE
  5
23A
330
70
100
AcDbEntity
  8
Bemaßung
 62
     7
370
     9
100
AcDbLine
 10
-35.0173219356898
 20
-87.48493775590658
 30
0.0
 11
-34.91568665793752
 21
-87.48493775590658
 31
0.0
  0
LINE
  5
23B
330
70
100
AcDbEntity
  8
Bemaßung
 62
     7
370
     9
100
AcDbLine
 10
-35.0173219356898
 20
-87.45703303369136
 30
0.0
 11
-34.70349082465765
 21
-87.45703303369136
 31
0.0
  0
LINE
  5
23C
330
70
100
AcDbEntity
  8
Bemaßung
 62
     7
370
     9
100
AcDbLine
 10
-35.0173219356898
 20
-87.42912831147613
 30
0.0
 11
-34.49090693582184
 21
-87.42912831147613
 31
0.0
  0
LINE
  5
23D
330
70
100
AcDbEntity
  8
Bemaßung
 62
     7
370
     9
100
AcDbLine
 10
-35.0173219356898
 20
-87.40122358926091
 30
0.0
 11
-34.27902860254156
 21
-87.40122358926091
 31
0.0
  0
LINE
  5
23E
330
70
100
AcDbEntity
  8
Bemaßung
 62
     7
370
     9
100
AcDbLine
 10
-35.0173219356898
 20
-87.3733188670457
 30
0.0
 11
-34.06683276926104
 21
-87.3733188670457
 31
0.0
  0
LINE
  5
23F
330
70
100
AcDbEntity
  8
Bemaßung
 62
     7
370
     9
100
AcDbLine
 10
-35.0173219356898
 20
-87.3452377559416
 30
0.0
 11
-33.85424888042524
 21
-87.3452377559416
 31
0.0
  0
LINE
  5
240
330
70
100
AcDbEntity
  8
Bemaßung
 62
     7
370
     9
100
AcDbLine
 10
-35.0173219356898
 20
-87.31733303372637
 30
0.0
 11
-33.64240582492248
 21
-87.31733303372637
 31
0.0
  0
LWPOLYLINE
  5
241
330
70
100
AcDbEntity
  8
Bemaßung
 62
     7
370
     9
100
AcDbPolyline
 90
        4
 70
     0
 43
0.0
 10
-61.09740692917024
 20
-87.31733303372637
 10
-59.72210276284699
 20
-87.49837858923646
 10
-59.72210276284699
 20
-87.13628747821596
 10
-61.09740692917024
 20
-87.31733303372637
  0
LINE
  5
242
330
70
100
AcDbEntity
  8
Bemaßung
 62
     7
370
     9
100
AcDbLine
 10
-59.72210276284699
 20
-87.48493775590658
 30
0.0
 11
-59.82373804059992
 21
-87.48493775590658
 31
0.0
  0
LINE
  5
243
330
70
100
AcDbEntity
  8
Bemaßung
 62
     7
370
     9
100
AcDbLine
 10
-59.72210276284699
 20
-87.48493775590658
 30
0.0
 11
-59.82373804059992
 21
-87.48493775590658
 31
0.0
  0
LINE
  5
244
330
70
100
AcDbEntity
  8
Bemaßung
 62
     7
370
     9
100
AcDbLine
 10
-59.72210276284699
 20
-87.45703303369136
 30
0.0
 11
-60.03596915165796
 21
-87.45703303369136
 31
0.0
  0
LINE
  5
245
330
70
100
AcDbEntity
  8
Bemaßung
 62
     7
370
     9
100
AcDbLine
 10
-59.72210276284699
 20
-87.42912831147613
 30
0.0
 11
-60.24784748493823
 21
-87.42912831147613
 31
0.0
  0
LINE
  5
246
330
70
100
AcDbEntity
  8
Bemaßung
 62
     7
370
     9
100
AcDbLine
 10
-59.72210276284699
 20
-87.40122358926091
 30
0.0
 11
-60.46039609599588
 21
-87.40122358926091
 31
0.0
  0
LINE
  5
247
330
70
100
AcDbEntity
  8
Bemaßung
 62
     7
370
     9
100
AcDbLine
 10
-59.72210276284699
 20
-87.3733188670457
 30
0.0
 11
-60.67262720705391
 21
-87.3733188670457
 31
0.0
  0
LINE
  5
248
330
70
100
AcDbEntity
  8
Bemaßung
 62
     7
370
     9
100
AcDbLine
 10
-59.72210276284699
 20
-87.3452377559416
 30
0.0
 11
-60.88482304033444
 21
-87.3452377559416
 31
0.0
  0
LINE
  5
249
330
70
100
AcDbEntity
  8
Bemaßung
 62
     7
370
     9
100
AcDbLine
 10
-59.72210276284699
 20
-87.31733303372637
 30
0.0
 11
-61.09740692917024
 21
-87.31733303372637
 31
0.0
  0
LINE
  5
24A
330
70
100
AcDbEntity
  8
Bemaßung
 62
     7
370
     9
100
AcDbLine
 10
-59.72210276284699
 20
-87.14955192265696
 30
0.0
 11
-59.82373804059992
 21
-87.14955192265696
 31
0.0
  0
LINE
  5
24B
330
70
100
AcDbEntity
  8
Bemaßung
 62
     7
370
     9
100
AcDbLine
 10
-59.72210276284699
 20
-87.14955192265696
 30
0.0
 11
-59.82373804059992
 21
-87.14955192265696
 31
0.0
  0
LINE
  5
24C
330
70
100
AcDbEntity
  8
Bemaßung
 62
     7
370
     9
100
AcDbLine
 10
-59.72210276284699
 20
-87.17745664487219
 30
0.0
 11
-60.03596915165796
 21
-87.17745664487219
 31
0.0
  0
LINE
  5
24D
330
70
100
AcDbEntity
  8
Bemaßung
 62
     7
370
     9
100
AcDbLine
 10
-59.72210276284699
 20
-87.20553775597629
 30
0.0
 11
-60.24784748493823
 21
-87.20553775597629
 31
0.0
  0
LINE
  5
24E
330
70
100
AcDbEntity
  8
Bemaßung
 62
     7
370
     9
100
AcDbLine
 10
-59.72210276284699
 20
-87.23344247819152
 30
0.0
 11
-60.46039609599588
 21
-87.23344247819152
 31
0.0
  0
LINE
  5
24F
330
70
100
AcDbEntity
  8
Bemaßung
 62
     7
370
     9
100
AcDbLine
 10
-59.72210276284699
 20
-87.26152358929562
 30
0.0
 11
-60.67262720705391
 21
-87.26152358929562
 31
0.0
  0
LINE
  5
250
330
70
100
AcDbEntity
  8
Bemaßung
 62
     7
370
     9
100
AcDbLine
 10
-59.72210276284699
 20
-87.28942831151083
 30
0.0
 11
-60.88482304033444
 21
-87.28942831151083
 31
0.0
  0
LINE
  5
251
330
70
100
AcDbEntity
  8
Bemaßung
 62
     7
370
     9
100
AcDbLine
 10
-59.72210276284699
 20
-87.31733303372637
 30
0.0
 11
-61.09740692917024
 21
-87.31733303372637
 31
0.0
  0
MTEXT
  5
253
330
70
100
AcDbEntity
  8
Text
100
AcDbMText
 10
-90.54830866876963
 20
-154.7867621140811
 30
0.0
 40
0.2
 41
0.0
 46
0.0
 71
     7
 72
     1
  1
\C7;\FINDEX Univers 45 Light|b0|i0|c1;\H2.497667;\W1.000000;ø14H5
 73
     1
 44
1.0
  0
MTEXT
  5
254
330
70
100
AcDbEntity
  8
Text
100
AcDbMText
 10
-110.4595825353196
 20
-142.2758978593963
 30
0.0
 40
0.2
 41
0.0
 46
0.0
 71
     7
 72
     1
  1
\C7;\FINDEX Univers 45 Light|b0|i0|c1;\H2.497667;\W1.000000;36
 11
0.0000000000000001
 21
1.0
 31
0.0
 73
     1
 44
1.0
  0
MTEXT
  5
255
330
70
100
AcDbEntity
  8
Text
100
AcDbMText
 10
-101.033112268579
 20
-86.48843313810012
 30
0.0
 40
0.2
 41
0.0
 46
0.0
 71
     7
 72
     1
  1
\C7;\FINDEX Univers 45 Light|b0|i0|c1;\H2.497667;\W1.000000;ø28,5
 73
     1
 44
1.0
  0
MTEXT
  5
256
330
70
100
AcDbEntity
  8
Text
100
AcDbMText
 10
-26.71189511050998
 20
-62.78152532067615
 30
0.0
 40
0.2
 41
0.0
 46
0.0
 71
     7
 72
     1
  1
\C7;\FINDEX Univers 45 Light|b0|i0|c1;\H2.497667;\W1.000000;25
 11
0.0000000000000001
 21
1.0
 31
0.0
 73
     1
 44
1.0
  0
MTEXT
  5
257
330
70
100
AcDbEntity
  8
Text
100
AcDbMText
 10
-26.44937883453394
 20
-109.9507391760713
 30
0.0
 40
0.2
 41
0.0
 46
0.0
 71
     7
 72
     1
  1
\C7;\FINDEX Univers 45 Light|b0|i0|c1;\H2.497667;\W1.000000;150
 11
0.0000000000000001
 21
1.0
 31
0.0
 73
     1
 44
1.0
  0
MTEXT
  5
258
330
70
100
AcDbEntity
  8
Text
100
AcDbMText
 10
-50.00211862899298
 20
-86.63441905928758
 30
0.0
 40
0.2
 41
0.0
 46
0.0
 71
     7
 72
     1
  1
\C7;\FINDEX Univers 45 Light|b0|i0|c1;\H2.497667;\W1.000000;ø50
 73
     1
 44
1.0
  0
LINE
  5
259
330
70
100
AcDbEntity
  8
Text
 62
     7
370
     9
100
AcDbLine
 10
-68.26255612017424
 20
-150.1283399992986
 30
0.0
 11
-49.44442237578972
 21
-150.1283399992986
 31
0.0
  0
LINE
  5
25A
330
70
100
AcDbEntity
  8
Text
 62
     7
370
     9
100
AcDbLine
 10
-68.20560072377256
 20
-137.9533980590594
 30
0.0
 11
-46.45266989838051
 21
-137.9533980590594
 31
0.0
  0
LINE
  5
25B
330
70
100
AcDbEntity
  8
Text
 62
     7
370
     9
100
AcDbLine
 10
-66.9568779024162
 20
-150.1283399992986
 30
0.0
 11
-66.9568779024162
 21
-137.9533980590594
 31
0.0
  0
MTEXT
  5
25C
330
70
100
AcDbEntity
  8
Text
100
AcDbMText
 10
-67.90202732609678
 20
-147.7434474151854
 30
0.0
 40
0.2
 41
0.0
 46
0.0
 71
     7
 72
     1
  1
\C7;\FINDEX Univers 45 Light|b0|i0|c1;\H2.497667;\W1.000000;22,5
 11
0.0000000000000001
 21
1.0
 31
0.0
 73
     1
 44
1.0
  0
LWPOLYLINE
  5
25D
330
70
100
AcDbEntity
  8
Text
 62
     7
370
     9
100
AcDbPolyline
 90
        4
 70
     0
 43
0.0
 10
-66.9568779024162
 20
-150.1283399992986
 10
-66.70347762470162
 20
-148.2033904164469
 10
-67.21008415235283
 20
-148.2033904164469
 10
-66.9568779024162
 20
-150.1283399992986
  0
LINE
  5
25E
330
70
100
AcDbEntity
  8
Text
 62
     7
370
     9
100
AcDbLine
 10
-66.70541790247866
 20
-148.2033904164469
 30
0.0
 11
-66.70541790247866
 21
-148.2183305553319
 31
0.0
  0
LINE
  5
25F
330
70
100
AcDbEntity
  8
Text
 62
     7
370
     9
100
AcDbLine
 10
-66.70541790247866
 20
-148.2033904164469
 30
0.0
 11
-66.70541790247866
 21
-148.2183305553319
 31
0.0
  0
LINE
  5
260
330
70
100
AcDbEntity
  8
Text
 62
     7
370
     9
100
AcDbLine
 10
-66.73335790247172
 20
-148.2033904164469
 30
0.0
 11
-66.73335790247172
 21
-148.4305969441675
 31
0.0
  0
LINE
  5
261
330
70
100
AcDbEntity
  8
Text
 62
     7
370
     9
100
AcDbLine
 10
-66.76129790246479
 20
-148.2033904164469
 30
0.0
 11
-66.76129790246479
 21
-148.6426693052257
 31
0.0
  0
LINE
  5
262
330
70
100
AcDbEntity
  8
Text
 62
     7
370
     9
100
AcDbLine
 10
-66.78923790245784
 20
-148.2033904164469
 30
0.0
 11
-66.78923790245784
 21
-148.8549356940619
 31
0.0
  0
LINE
  5
263
330
70
100
AcDbEntity
  8
Text
 62
     7
370
     9
100
AcDbLine
 10
-66.81717790245091
 20
-148.2033904164469
 30
0.0
 11
-66.81717790245091
 21
-149.0672020828975
 31
0.0
  0
LINE
  5
264
330
70
100
AcDbEntity
  8
Text
 62
     7
370
     9
100
AcDbLine
 10
-66.84511790244396
 20
-148.2033904164469
 30
0.0
 11
-66.84511790244396
 21
-149.279468471733
 31
0.0
  0
LINE
  5
265
330
70
100
AcDbEntity
  8
Text
 62
     7
370
     9
100
AcDbLine
 10
-66.87305790243702
 20
-148.2033904164469
 30
0.0
 11
-66.87305790243702
 21
-149.4917348605692
 31
0.0
  0
LINE
  5
266
330
70
100
AcDbEntity
  8
Text
 62
     7
370
     9
100
AcDbLine
 10
-66.90099790243007
 20
-148.2033904164469
 30
0.0
 11
-66.90099790243007
 21
-149.7038072216275
 31
0.0
  0
LINE
  5
267
330
70
100
AcDbEntity
  8
Text
 62
     7
370
     9
100
AcDbLine
 10
-66.92893790242314
 20
-148.2033904164469
 30
0.0
 11
-66.92893790242314
 21
-149.916073610463
 31
0.0
  0
LINE
  5
268
330
70
100
AcDbEntity
  8
Text
 62
     7
370
     9
100
AcDbLine
 10
-66.9568779024162
 20
-148.2033904164469
 30
0.0
 11
-66.9568779024162
 21
-150.1283399992986
 31
0.0
  0
LINE
  5
269
330
70
100
AcDbEntity
  8
Text
 62
     7
370
     9
100
AcDbLine
 10
-67.20814387457514
 20
-148.2033904164469
 30
0.0
 11
-67.20814387457514
 21
-148.2183305553319
 31
0.0
  0
LINE
  5
26A
330
70
100
AcDbEntity
  8
Text
 62
     7
370
     9
100
AcDbLine
 10
-67.20814387457514
 20
-148.2033904164469
 30
0.0
 11
-67.20814387457514
 21
-148.2183305553319
 31
0.0
  0
LINE
  5
26B
330
70
100
AcDbEntity
  8
Text
 62
     7
370
     9
100
AcDbLine
 10
-67.18020387458273
 20
-148.2033904164469
 30
0.0
 11
-67.18020387458273
 21
-148.4305969441675
 31
0.0
  0
LINE
  5
26C
330
70
100
AcDbEntity
  8
Text
 62
     7
370
     9
100
AcDbLine
 10
-67.15226387458966
 20
-148.2033904164469
 30
0.0
 11
-67.15226387458966
 21
-148.6426693052257
 31
0.0
  0
LINE
  5
26D
330
70
100
AcDbEntity
  8
Text
 62
     7
370
     9
100
AcDbLine
 10
-67.1243238745966
 20
-148.2033904164469
 30
0.0
 11
-67.1243238745966
 21
-148.8549356940619
 31
0.0
  0
LINE
  5
26E
330
70
100
AcDbEntity
  8
Text
 62
     7
370
     9
100
AcDbLine
 10
-67.09638387460355
 20
-148.2033904164469
 30
0.0
 11
-67.09638387460355
 21
-149.0672020828975
 31
0.0
  0
LINE
  5
26F
330
70
100
AcDbEntity
  8
Text
 62
     7
370
     9
100
AcDbLine
 10
-67.06844387461048
 20
-148.2033904164469
 30
0.0
 11
-67.06844387461048
 21
-149.279468471733
 31
0.0
  0
LINE
  5
270
330
70
100
AcDbEntity
  8
Text
 62
     7
370
     9
100
AcDbLine
 10
-67.04050387461743
 20
-148.2033904164469
 30
0.0
 11
-67.04050387461743
 21
-149.4917348605692
 31
0.0
  0
LINE
  5
271
330
70
100
AcDbEntity
  8
Text
 62
     7
370
     9
100
AcDbLine
 10
-67.01256387462436
 20
-148.2033904164469
 30
0.0
 11
-67.01256387462436
 21
-149.7038072216275
 31
0.0
  0
LINE
  5
272
330
70
100
AcDbEntity
  8
Text
 62
     7
370
     9
100
AcDbLine
 10
-66.98462387463131
 20
-148.2033904164469
 30
0.0
 11
-66.98462387463131
 21
-149.916073610463
 31
0.0
  0
LINE
  5
273
330
70
100
AcDbEntity
  8
Text
 62
     7
370
     9
100
AcDbLine
 10
-66.9568779024162
 20
-148.2033904164469
 30
0.0
 11
-66.9568779024162
 21
-150.1283399992986
 31
0.0
  0
LWPOLYLINE
  5
274
330
70
100
AcDbEntity
  8
Text
 62
     7
370
     9
100
AcDbPolyline
 90
        4
 70
     0
 43
0.0
 10
-66.9568779024162
 20
-137.9533980590594
 10
-67.21008415235283
 20
-139.8783476419112
 10
-66.70347762470162
 20
-139.8783476419112
 10
-66.9568779024162
 20
-137.9533980590594
  0
LINE
  5
275
330
70
100
AcDbEntity
  8
Text
 62
     7
370
     9
100
AcDbLine
 10
-67.20814387457514
 20
-139.8783476419112
 30
0.0
 11
-67.20814387457514
 21
-139.8634075030261
 31
0.0
  0
LINE
  5
276
330
70
100
AcDbEntity
  8
Text
 62
     7
370
     9
100
AcDbLine
 10
-67.20814387457514
 20
-139.8783476419112
 30
0.0
 11
-67.20814387457514
 21
-139.8634075030261
 31
0.0
  0
LINE
  5
277
330
70
100
AcDbEntity
  8
Text
 62
     7
370
     9
100
AcDbLine
 10
-67.18020387458273
 20
-139.8783476419112
 30
0.0
 11
-67.18020387458273
 21
-139.6511411141906
 31
0.0
  0
LINE
  5
278
330
70
100
AcDbEntity
  8
Text
 62
     7
370
     9
100
AcDbLine
 10
-67.15226387458966
 20
-139.8783476419112
 30
0.0
 11
-67.15226387458966
 21
-139.438874725355
 31
0.0
  0
LINE
  5
279
330
70
100
AcDbEntity
  8
Text
 62
     7
370
     9
100
AcDbLine
 10
-67.1243238745966
 20
-139.8783476419112
 30
0.0
 11
-67.1243238745966
 21
-139.2266083365188
 31
0.0
  0
LINE
  5
27A
330
70
100
AcDbEntity
  8
Text
 62
     7
370
     9
100
AcDbLine
 10
-67.09638387460355
 20
-139.8783476419112
 30
0.0
 11
-67.09638387460355
 21
-139.0145359754606
 31
0.0
  0
LINE
  5
27B
330
70
100
AcDbEntity
  8
Text
 62
     7
370
     9
100
AcDbLine
 10
-67.06844387461048
 20
-139.8783476419112
 30
0.0
 11
-67.06844387461048
 21
-138.802269586625
 31
0.0
  0
LINE
  5
27C
330
70
100
AcDbEntity
  8
Text
 62
     7
370
     9
100
AcDbLine
 10
-67.04050387461743
 20
-139.8783476419112
 30
0.0
 11
-67.04050387461743
 21
-138.5900031977894
 31
0.0
  0
LINE
  5
27D
330
70
100
AcDbEntity
  8
Text
 62
     7
370
     9
100
AcDbLine
 10
-67.01256387462436
 20
-139.8783476419112
 30
0.0
 11
-67.01256387462436
 21
-138.3777368089532
 31
0.0
  0
LINE
  5
27E
330
70
100
AcDbEntity
  8
Text
 62
     7
370
     9
100
AcDbLine
 10
-66.98462387463131
 20
-139.8783476419112
 30
0.0
 11
-66.98462387463131
 21
-138.1652763923397
 31
0.0
  0
LINE
  5
27F
330
70
100
AcDbEntity
  8
Text
 62
     7
370
     9
100
AcDbLine
 10
-66.9568779024162
 20
-139.8783476419112
 30
0.0
 11
-66.9568779024162
 21
-137.9533980590594
 31
0.0
  0
LINE
  5
280
330
70
100
AcDbEntity
  8
Text
 62
     7
370
     9
100
AcDbLine
 10
-66.70541790247866
 20
-139.8783476419112
 30
0.0
 11
-66.70541790247866
 21
-139.8634075030261
 31
0.0
  0
LINE
  5
281
330
70
100
AcDbEntity
  8
Text
 62
     7
370
     9
100
AcDbLine
 10
-66.70541790247866
 20
-139.8783476419112
 30
0.0
 11
-66.70541790247866
 21
-139.8634075030261
 31
0.0
  0
LINE
  5
282
330
70
100
AcDbEntity
  8
Text
 62
     7
370
     9
100
AcDbLine
 10
-66.73335790247172
 20
-139.8783476419112
 30
0.0
 11
-66.73335790247172
 21
-139.6511411141906
 31
0.0
  0
LINE
  5
283
330
70
100
AcDbEntity
  8
Text
 62
     7
370
     9
100
AcDbLine
 10
-66.76129790246479
 20
-139.8783476419112
 30
0.0
 11
-66.76129790246479
 21
-139.438874725355
 31
0.0
  0
LINE
  5
284
330
70
100
AcDbEntity
  8
Text
 62
     7
370
     9
100
AcDbLine
 10
-66.78923790245784
 20
-139.8783476419112
 30
0.0
 11
-66.78923790245784
 21
-139.2266083365188
 31
0.0
  0
LINE
  5
285
330
70
100
AcDbEntity
  8
Text
 62
     7
370
     9
100
AcDbLine
 10
-66.81717790245091
 20
-139.8783476419112
 30
0.0
 11
-66.81717790245091
 21
-139.0145359754606
 31
0.0
  0
LINE
  5
286
330
70
100
AcDbEntity
  8
Text
 62
     7
370
     9
100
AcDbLine
 10
-66.84511790244396
 20
-139.8783476419112
 30
0.0
 11
-66.84511790244396
 21
-138.802269586625
 31
0.0
  0
LINE
  5
287
330
70
100
AcDbEntity
  8
Text
 62
     7
370
     9
100
AcDbLine
 10
-66.87305790243702
 20
-139.8783476419112
 30
0.0
 11
-66.87305790243702
 21
-138.5900031977894
 31
0.0
  0
LINE
  5
288
330
70
100
AcDbEntity
  8
Text
 62
     7
370
     9
100
AcDbLine
 10
-66.90099790243007
 20
-139.8783476419112
 30
0.0
 11
-66.90099790243007
 21
-138.3777368089532
 31
0.0
  0
LINE
  5
289
330
70
100
AcDbEntity
  8
Text
 62
     7
370
     9
100
AcDbLine
 10
-66.92893790242314
 20
-139.8783476419112
 30
0.0
 11
-66.92893790242314
 21
-138.1652763923397
 31
0.0
  0
LINE
  5
28A
330
70
100
AcDbEntity
  8
Text
 62
     7
370
     9
100
AcDbLine
 10
-66.9568779024162
 20
-139.8783476419112
 30
0.0
 11
-66.9568779024162
 21
-137.9533980590594
 31
0.0
  0
LINE
  5
28B
330
70
100
AcDbEntity
  8
Text
 62
     7
370
     9
100
AcDbLine
 10
-62.05337911342813
 20
-144.5530588907425
 30
0.0
 11
-46.44325882582349
 21
-144.5530588907425
 31
0.0
  0
LINE
  5
28C
330
70
100
AcDbEntity
  8
Text
 62
     7
370
     9
100
AcDbLine
 10
-61.07745868993724
 20
-137.9533980590594
 30
0.0
 11
-61.07745868993724
 21
-144.5530588907425
 31
0.0
  0
MTEXT
  5
28D
330
70
100
AcDbEntity
  8
Text
100
AcDbMText
 10
-62.36019289890693
 20
-143.3748187236506
 30
0.0
 40
0.2
 41
0.0
 46
0.0
 71
     7
 72
     1
  1
\C7;\FINDEX Univers 45 Light|b0|i0|c1;\H2.497667;\W1.000000;12
 11
0.0000000000000001
 21
1.0
 31
0.0
 73
     1
 44
1.0
  0
LWPOLYLINE
  5
28E
330
70
100
AcDbEntity
  8
Text
 62
     7
370
     9
100
AcDbPolyline
 90
        4
 70
     0
 43
0.0
 10
-61.07745868993724
 20
-137.9533980590594
 10
-61.3306649398745
 20
-139.8783476419112
 10
-60.82405841222328
 20
-139.8783476419112
 10
-61.07745868993724
 20
-137.9533980590594
  0
LINE
  5
28F
330
70
100
AcDbEntity
  8
Text
 62
     7
370
     9
100
AcDbLine
 10
-61.32872466209746
 20
-139.8783476419112
 30
0.0
 11
-61.32872466209746
 21
-139.8634075030261
 31
0.0
  0
LINE
  5
290
330
70
100
AcDbEntity
  8
Text
 62
     7
370
     9
100
AcDbLine
 10
-61.32872466209746
 20
-139.8783476419112
 30
0.0
 11
-61.32872466209746
 21
-139.8634075030261
 31
0.0
  0
LINE
  5
291
330
70
100
AcDbEntity
  8
Text
 62
     7
370
     9
100
AcDbLine
 10
-61.3007846621044
 20
-139.8783476419112
 30
0.0
 11
-61.3007846621044
 21
-139.6511411141906
 31
0.0
  0
LINE
  5
292
330
70
100
AcDbEntity
  8
Text
 62
     7
370
     9
100
AcDbLine
 10
-61.27284466211134
 20
-139.8783476419112
 30
0.0
 11
-61.27284466211134
 21
-139.438874725355
 31
0.0
  0
LINE
  5
293
330
70
100
AcDbEntity
  8
Text
 62
     7
370
     9
100
AcDbLine
 10
-61.24490466211828
 20
-139.8783476419112
 30
0.0
 11
-61.24490466211828
 21
-139.2266083365188
 31
0.0
  0
LINE
  5
294
330
70
100
AcDbEntity
  8
Text
 62
     7
370
     9
100
AcDbLine
 10
-61.21696466212521
 20
-139.8783476419112
 30
0.0
 11
-61.21696466212521
 21
-139.0145359754606
 31
0.0
  0
LINE
  5
295
330
70
100
AcDbEntity
  8
Text
 62
     7
370
     9
100
AcDbLine
 10
-61.18902466213215
 20
-139.8783476419112
 30
0.0
 11
-61.18902466213215
 21
-138.802269586625
 31
0.0
  0
LINE
  5
296
330
70
100
AcDbEntity
  8
Text
 62
     7
370
     9
100
AcDbLine
 10
-61.16108466213909
 20
-139.8783476419112
 30
0.0
 11
-61.16108466213909
 21
-138.5900031977894
 31
0.0
  0
LINE
  5
297
330
70
100
AcDbEntity
  8
Text
 62
     7
370
     9
100
AcDbLine
 10
-61.13333868992399
 20
-139.8783476419112
 30
0.0
 11
-61.13333868992399
 21
-138.3777368089532
 31
0.0
  0
LINE
  5
298
330
70
100
AcDbEntity
  8
Text
 62
     7
370
     9
100
AcDbLine
 10
-61.10539868993029
 20
-139.8783476419112
 30
0.0
 11
-61.10539868993029
 21
-138.1652763923397
 31
0.0
  0
LINE
  5
299
330
70
100
AcDbEntity
  8
Text
 62
     7
370
     9
100
AcDbLine
 10
-61.07745868993724
 20
-139.8783476419112
 30
0.0
 11
-61.07745868993724
 21
-137.9533980590594
 31
0.0
  0
LINE
  5
29A
330
70
100
AcDbEntity
  8
Text
 62
     7
370
     9
100
AcDbLine
 10
-60.82580466222301
 20
-139.8783476419112
 30
0.0
 11
-60.82580466222301
 21
-139.8634075030261
 31
0.0
  0
LINE
  5
29B
330
70
100
AcDbEntity
  8
Text
 62
     7
370
     9
100
AcDbLine
 10
-60.82580466222301
 20
-139.8783476419112
 30
0.0
 11
-60.82580466222301
 21
-139.8634075030261
 31
0.0
  0
LINE
  5
29C
330
70
100
AcDbEntity
  8
Text
 62
     7
370
     9
100
AcDbLine
 10
-60.85393868999403
 20
-139.8783476419112
 30
0.0
 11
-60.85393868999403
 21
-139.6511411141906
 31
0.0
  0
LINE
  5
29D
330
70
100
AcDbEntity
  8
Text
 62
     7
370
     9
100
AcDbLine
 10
-60.88187868998709
 20
-139.8783476419112
 30
0.0
 11
-60.88187868998709
 21
-139.438874725355
 31
0.0
  0
LINE
  5
29E
330
70
100
AcDbEntity
  8
Text
 62
     7
370
     9
100
AcDbLine
 10
-60.90981868997952
 20
-139.8783476419112
 30
0.0
 11
-60.90981868997952
 21
-139.2266083365188
 31
0.0
  0
LINE
  5
29F
330
70
100
AcDbEntity
  8
Text
 62
     7
370
     9
100
AcDbLine
 10
-60.93775868997258
 20
-139.8783476419112
 30
0.0
 11
-60.93775868997258
 21
-139.0145359754606
 31
0.0
  0
LINE
  5
2A0
330
70
100
AcDbEntity
  8
Text
 62
     7
370
     9
100
AcDbLine
 10
-60.96569868996564
 20
-139.8783476419112
 30
0.0
 11
-60.96569868996564
 21
-138.802269586625
 31
0.0
  0
LINE
  5
2A1
330
70
100
AcDbEntity
  8
Text
 62
     7
370
     9
100
AcDbLine
 10
-60.9936386899587
 20
-139.8783476419112
 30
0.0
 11
-60.9936386899587
 21
-138.5900031977894
 31
0.0
  0
LINE
  5
2A2
330
70
100
AcDbEntity
  8
Text
 62
     7
370
     9
100
AcDbLine
 10
-61.02157868995176
 20
-139.8783476419112
 30
0.0
 11
-61.02157868995176
 21
-138.3777368089532
 31
0.0
  0
LINE
  5
2A3
330
70
100
AcDbEntity
  8
Text
 62
     7
370
     9
100
AcDbLine
 10
-61.04951868994418
 20
-139.8783476419112
 30
0.0
 11
-61.04951868994418
 21
-138.1652763923397
 31
0.0
  0
LINE
  5
2A4
330
70
100
AcDbEntity
  8
Text
 62
     7
370
     9
100
AcDbLine
 10
-61.07745868993724
 20
-139.8783476419112
 30
0.0
 11
-61.07745868993724
 21
-137.9533980590594
 31
0.0
  0
LWPOLYLINE
  5
2A5
330
70
100
AcDbEntity
  8
Text
 62
     7
370
     9
100
AcDbPolyline
 90
        4
 70
     0
 43
0.0
 10
-61.07745868993724
 20
-144.5530588907425
 10
-60.82405841222328
 20
-142.6283033356687
 10
-61.3306649398745
 20
-142.6283033356687
 10
-61.07745868993724
 20
-144.5530588907425
  0
LINE
  5
2A6
330
70
100
AcDbEntity
  8
Text
 62
     7
370
     9
100
AcDbLine
 10
-60.82580466222301
 20
-142.6283033356687
 30
0.0
 11
-60.82580466222301
 21
-142.6432434745538
 31
0.0
  0
LINE
  5
2A7
330
70
100
AcDbEntity
  8
Text
 62
     7
370
     9
100
AcDbLine
 10
-60.82580466222301
 20
-142.6283033356687
 30
0.0
 11
-60.82580466222301
 21
-142.6432434745538
 31
0.0
  0
LINE
  5
2A8
330
70
100
AcDbEntity
  8
Text
 62
     7
370
     9
100
AcDbLine
 10
-60.85393868999403
 20
-142.6283033356687
 30
0.0
 11
-60.85393868999403
 21
-142.8553158356114
 31
0.0
  0
LINE
  5
2A9
330
70
100
AcDbEntity
  8
Text
 62
     7
370
     9
100
AcDbLine
 10
-60.88187868998709
 20
-142.6283033356687
 30
0.0
 11
-60.88187868998709
 21
-143.0675822244476
 31
0.0
  0
LINE
  5
2AA
330
70
100
AcDbEntity
  8
Text
 62
     7
370
     9
100
AcDbLine
 10
-60.90981868997952
 20
-142.6283033356687
 30
0.0
 11
-60.90981868997952
 21
-143.2798486132838
 31
0.0
  0
LINE
  5
2AB
330
70
100
AcDbEntity
  8
Text
 62
     7
370
     9
100
AcDbLine
 10
-60.93775868997258
 20
-142.6283033356687
 30
0.0
 11
-60.93775868997258
 21
-143.4921150021193
 31
0.0
  0
LINE
  5
2AC
330
70
100
AcDbEntity
  8
Text
 62
     7
370
     9
100
AcDbLine
 10
-60.96569868996564
 20
-142.6283033356687
 30
0.0
 11
-60.96569868996564
 21
-143.704187363177
 31
0.0
  0
LINE
  5
2AD
330
70
100
AcDbEntity
  8
Text
 62
     7
370
     9
100
AcDbLine
 10
-60.9936386899587
 20
-142.6283033356687
 30
0.0
 11
-60.9936386899587
 21
-143.9164537520132
 31
0.0
  0
LINE
  5
2AE
330
70
100
AcDbEntity
  8
Text
 62
     7
370
     9
100
AcDbLine
 10
-61.02157868995176
 20
-142.6283033356687
 30
0.0
 11
-61.02157868995176
 21
-144.1287201408493
 31
0.0
  0
LINE
  5
2AF
330
70
100
AcDbEntity
  8
Text
 62
     7
370
     9
100
AcDbLine
 10
-61.04951868994418
 20
-142.6283033356687
 30
0.0
 11
-61.04951868994418
 21
-144.3409865296849
 31
0.0
  0
LINE
  5
2B0
330
70
100
AcDbEntity
  8
Text
 62
     7
370
     9
100
AcDbLine
 10
-61.07745868993724
 20
-142.6283033356687
 30
0.0
 11
-61.07745868993724
 21
-144.5530588907425
 31
0.0
  0
LINE
  5
2B1
330
70
100
AcDbEntity
  8
Text
 62
     7
370
     9
100
AcDbLine
 10
-61.32872466209746
 20
-142.6283033356687
 30
0.0
 11
-61.32872466209746
 21
-142.6432434745538
 31
0.0
  0
LINE
  5
2B2
330
70
100
AcDbEntity
  8
Text
 62
     7
370
     9
100
AcDbLine
 10
-61.32872466209746
 20
-142.6283033356687
 30
0.0
 11
-61.32872466209746
 21
-142.6432434745538
 31
0.0
  0
LINE
  5
2B3
330
70
100
AcDbEntity
  8
Text
 62
     7
370
     9
100
AcDbLine
 10
-61.3007846621044
 20
-142.6283033356687
 30
0.0
 11
-61.3007846621044
 21
-142.8553158356114
 31
0.0
  0
LINE
  5
2B4
330
70
100
AcDbEntity
  8
Text
 62
     7
370
     9
100
AcDbLine
 10
-61.27284466211134
 20
-142.6283033356687
 30
0.0
 11
-61.27284466211134
 21
-143.0675822244476
 31
0.0
  0
LINE
  5
2B5
330
70
100
AcDbEntity
  8
Text
 62
     7
370
     9
100
AcDbLine
 10
-61.24490466211828
 20
-142.6283033356687
 30
0.0
 11
-61.24490466211828
 21
-143.2798486132838
 31
0.0
  0
LINE
  5
2B6
330
70
100
AcDbEntity
  8
Text
 62
     7
370
     9
100
AcDbLine
 10
-61.21696466212521
 20
-142.6283033356687
 30
0.0
 11
-61.21696466212521
 21
-143.4921150021193
 31
0.0
  0
LINE
  5
2B7
330
70
100
AcDbEntity
  8
Text
 62
     7
370
     9
100
AcDbLine
 10
-61.18902466213215
 20
-142.6283033356687
 30
0.0
 11
-61.18902466213215
 21
-143.704187363177
 31
0.0
  0
LINE
  5
2B8
330
70
100
AcDbEntity
  8
Text
 62
     7
370
     9
100
AcDbLine
 10
-61.16108466213909
 20
-142.6283033356687
 30
0.0
 11
-61.16108466213909
 21
-143.9164537520132
 31
0.0
  0
LINE
  5
2B9
330
70
100
AcDbEntity
  8
Text
 62
     7
370
     9
100
AcDbLine
 10
-61.13333868992399
 20
-142.6283033356687
 30
0.0
 11
-61.13333868992399
 21
-144.1287201408493
 31
0.0
  0
LINE
  5
2BA
330
70
100
AcDbEntity
  8
Text
 62
     7
370
     9
100
AcDbLine
 10
-61.10539868993029
 20
-142.6283033356687
 30
0.0
 11
-61.10539868993029
 21
-144.3409865296849
 31
0.0
  0
LINE
  5
2BB
330
70
100
AcDbEntity
  8
Text
 62
     7
370
     9
100
AcDbLine
 10
-61.07745868993724
 20
-142.6283033356687
 30
0.0
 11
-61.07745868993724
 21
-144.5530588907425
 31
0.0
  0
ENDSEC
  0
SECTION
  2
OBJECTS
  0
DICTIONARY
  5
C
330
0
100
AcDbDictionary
281
     1
  3
ACAD_COLOR
350
63
  3
ACAD_DETAILVIEWSTYLE
350
6A
  3
ACAD_GROUP
350
D
  3
ACAD_LAYOUT
350
62
  3
ACAD_MATERIAL
350
10
  3
ACAD_MLEADERSTYLE
350
66
  3
ACAD_MLINESTYLE
350
5F
  3
ACAD_PLOTSETTINGS
350
61
  3
ACAD_PLOTSTYLENAME
350
E
  3
ACAD_SCALELIST
350
42
  3
ACAD_SECTIONVIEWSTYLE
350
68
  3
ACAD_TABLESTYLE
350
64
  3
ACAD_VISUALSTYLE
350
29
  3
ACDB_RECOMPOSE_DATA
350
2C4
  3
AcDbVariableDictionary
350
2BC
  0
DICTIONARY
  5
63
102
{ACAD_REACTORS
330
C
102
}
330
C
100
AcDbDictionary
281
     1
  0
DICTIONARY
  5
6A
102
{ACAD_REACTORS
330
C
102
}
330
C
100
AcDbDictionary
281
     1
  3
Imperial24
350
6B
  0
DICTIONARY
  5
D
102
{ACAD_REACTORS
330
C
102
}
330
C
100
AcDbDictionary
281
     1
  0
DICTIONARY
  5
62
102
{ACAD_REACTORS
330
C
102
}
330
C
100
AcDbDictionary
281
     1
  3
Layout1
350
6F
  3
Layout2
350
77
  3
Model
350
73
  0
DICTIONARY
  5
10
102
{ACAD_REACTORS
330
C
102
}
330
C
100
AcDbDictionary
281
     1
  3
ByBlock
350
19
  3
ByLayer
350
11
  3
Global
350
21
  0
DICTIONARY
  5
66
102
{ACAD_REACTORS
330
C
102
}
330
C
100
AcDbDictionary
281
     1
  3
Standard
350
67
  0
DICTIONARY
  5
5F
102
{ACAD_REACTORS
330
C
102
}
330
C
100
AcDbDictionary
281
     1
  3
Standard
350
60
  0
DICTIONARY
  5
61
102
{ACAD_REACTORS
330
C
102
}
330
C
100
AcDbDictionary
281
     1
  0
ACDBDICTIONARYWDFLT
  5
E
102
{ACAD_REACTORS
330
C
102
}
330
C
100
AcDbDictionary
281
     1
  3
Normal
350
F
100
AcDbDictionaryWithDefault
340
F
  0
DICTIONARY
  5
42
102
{ACAD_REACTORS
330
C
102
}
330
C
100
AcDbDictionary
281
     1
  3
A0
350
43
  3
A1
350
44
  3
A2
350
45
  3
A3
350
46
  3
A4
350
47
  3
A5
350
48
  3
A6
350
49
  3
A7
350
4A
  3
A8
350
4B
  3
A9
350
4C
  3
B0
350
4D
  3
B1
350
4E
  3
B2
350
4F
  3
B3
350
50
  3
B4
350
51
  3
B5
350
52
  3
B6
350
53
  0
DICTIONARY
  5
68
102
{ACAD_REACTORS
330
C
102
}
330
C
100
AcDbDictionary
281
     1
  3
Imperial24
350
69
  0
DICTIONARY
  5
64
102
{ACAD_REACTORS
330
C
102
}
330
C
100
AcDbDictionary
281
     1
  3
Standard
350
65
  0
DICTIONARY
  5
29
102
{ACAD_REACTORS
330
C
102
}
330
C
100
AcDbDictionary
281
     1
  3
2dWireframe
350
2F
  3
Basic
350
2E
  3
Brighten
350
35
  3
ColorChange
350
39
  3
Conceptual
350
32
  3
Dim
350
34
  3
EdgeColorOff
350
41
  3
Facepattern
350
38
  3
Flat
350
2A
  3
FlatWithEdges
350
2B
  3
Gouraud
350
2C
  3
GouraudWithEdges
350
2D
  3
Hidden
350
31
  3
JitterOff
350
3F
  3
Linepattern
350
37
  3
OverhangOff
350
40
  3
Realistic
350
33
  3
Shaded
350
3E
  3
Shaded with edges
350
3D
  3
Shades of Gray
350
3A
  3
Sketchy
350
3B
  3
Thicken
350
36
  3
Wireframe
350
30
  3
X-Ray
350
3C
  0
XRECORD
  5
2C4
102
{ACAD_REACTORS
330
C
102
}
330
C
100
AcDbXrecord
280
     1
 90
        1
330
65
  0
DICTIONARY
  5
2BC
102
{ACAD_REACTORS
330
C
102
}
330
C
100
AcDbDictionary
281
     1
  3
CANNOSCALE
350
2C1
  3
CMLEADERSTYLE
350
2BE
  3
CTABLESTYLE
350
2BD
  3
CVIEWDETAILSTYLE
350
2BF
  3
CVIEWSECTIONSTYLE
350
2C0
  0
ACDBDETAILVIEWSTYLE
  5
6B
102
{ACAD_REACTORS
330
6A
102
}
330
6A
100
AcDbModelDocViewStyle
 70
     0
  3
Imperial24
290
     1
300
Imperial24
 90
        0
100
AcDbDetailViewStyle
 70
     0
 71
     0
 90
        3
 71
     1
340
55
 62
   256
 40
0.24
340
0
 62
   256
 40
0.24
300

 40
0.36
280
     3
 71
     2
340
5D
 90
       25
 62
   256
 71
     3
340
55
 62
   256
 40
0.24
 90
        1
 40
0.75
 90
        1
300
%<\AcVar ViewType \f "%tc1">% %<\AcVar ViewDetailId>%\PSCALE %<\AcVar ViewScale \f "%sn">%
 71
     4
340
5D
 90
       25
 62
   256
340
5D
 90
       25
 62
   256
280
     0
  0
LAYOUT
  5
6F
102
{ACAD_REACTORS
330
62
102
}
330
62
100
AcDbPlotSettings
  1

  2

  4

  6

 40
0.0
 41
0.0
 42
0.0
 43
0.0
 44
0.0
 45
0.0
 46
0.0
 47
0.0
 48
0.0
 49
0.0
140
0.0
141
0.0
142
1.0
143
1.0
 70
   688
 72
     0
 73
     0
 74
     5
  7

 75
    16
147
1.0
 76
     0
 77
     2
 78
   300
148
0.0
149
0.0
100
AcDbLayout
  1
Layout1
 70
     1
 71
     1
 10
0.0
 20
0.0
 11
12.0
 21
9.0
 12
0.0
 22
0.0
 32
0.0
 14
0.0
 24
0.0
 34
0.0
 15
0.0
 25
0.0
 35
0.0
146
0.0
 13
0.0
 23
0.0
 33
0.0
 16
1.0
 26
0.0
 36
0.0
 17
0.0
 27
1.0
 37
0.0
 76
     0
330
6C
  0
LAYOUT
  5
77
102
{ACAD_REACTORS
330
62
102
}
330
62
100
AcDbPlotSettings
  1

  2

  4

  6

 40
0.0
 41
0.0
 42
0.0
 43
0.0
 44
0.0
 45
0.0
 46
0.0
 47
0.0
 48
0.0
 49
0.0
140
0.0
141
0.0
142
1.0
143
1.0
 70
   688
 72
     0
 73
     0
 74
     5
  7

 75
    16
147
1.0
 76
     0
 77
     2
 78
   300
148
0.0
149
0.0
100
AcDbLayout
  1
Layout2
 70
     1
 71
     2
 10
0.0
 20
0.0
 11
12.0
 21
9.0
 12
0.0
 22
0.0
 32
0.0
 14
0.0
 24
0.0
 34
0.0
 15
0.0
 25
0.0
 35
0.0
146
0.0
 13
0.0
 23
0.0
 33
0.0
 16
1.0
 26
0.0
 36
0.0
 17
0.0
 27
1.0
 37
0.0
 76
     0
330
74
  0
LAYOUT
  5
73
102
{ACAD_REACTORS
330
62
102
}
330
62
100
AcDbPlotSettings
  1

  2

  4

  6

 40
0.0
 41
0.0
 42
0.0
 43
0.0
 44
0.0
 45
0.0
 46
0.0
 47
0.0
 48
0.0
 49
0.0
140
0.0
141
0.0
142
1.0
143
1.0
 70
  1712
 72
     0
 73
     0
 74
     0
  7

 75
     0
147
1.0
 76
     0
 77
     2
 78
   300
148
0.0
149
0.0
100
AcDbLayout
  1
Model
 70
     1
 71
     0
 10
0.0
 20
0.0
 11
12.0
 21
9.0
 12
0.0
 22
0.0
 32
0.0
 14
0.0
 24
0.0
 34
0.0
 15
0.0
 25
0.0
 35
0.0
146
0.0
 13
0.0
 23
0.0
 33
0.0
 16
1.0
 26
0.0
 36
0.0
 17
0.0
 27
1.0
 37
0.0
 76
     0
330
70
  0
MATERIAL
  5
19
102
{ACAD_XDICTIONARY
360
1A
102
}
102
{ACAD_REACTORS
330
10
102
}
330
10
100
AcDbMaterial
  1
ByBlock
 72
     0
 43
0.0208333333333333
 43
0.0
 43
0.0
 43
0.0
 43
0.0
 43
0.0208333333333333
 43
0.0
 43
0.0
 43
0.0
 43
0.0
 43
1.0
 43
0.0
 43
0.0
 43
0.0
 43
0.0
 43
1.0
 77
     0
 47
0.0208333333333333
 47
0.0
 47
0.0
 47
0.0
 47
0.0
 47
0.0208333333333333
 47
0.0
 47
0.0
 47
0.0
 47
0.0
 47
1.0
 47
0.0
 47
0.0
 47
0.0
 47
0.0
 47
1.0
171
     0
 49
0.0208333333333333
 49
0.0
 49
0.0
 49
0.0
 49
0.0
 49
0.0208333333333333
 49
0.0
 49
0.0
 49
0.0
 49
0.0
 49
1.0
 49
0.0
 49
0.0
 49
0.0
 49
0.0
 49
1.0
175
     0
142
0.0208333333333333
142
0.0
142
0.0
142
0.0
142
0.0
142
0.0208333333333333
142
0.0
142
0.0
142
0.0
142
0.0
142
1.0
142
0.0
142
0.0
142
0.0
142
0.0
142
1.0
179
     0
144
0.0208333333333333
144
0.0
144
0.0
144
0.0
144
0.0
144
0.0208333333333333
144
0.0
144
0.0
144
0.0
144
0.0
144
1.0
144
0.0
144
0.0
144
0.0
144
0.0
144
1.0
147
0.0208333333333333
147
0.0
147
0.0
147
0.0
147
0.0
147
0.0208333333333333
147
0.0
147
0.0
147
0.0
147
0.0
147
1.0
147
0.0
147
0.0
147
0.0
147
0.0
147
1.0
  0
MATERIAL
  5
11
102
{ACAD_XDICTIONARY
360
12
102
}
102
{ACAD_REACTORS
330
10
102
}
330
10
100
AcDbMaterial
  1
ByLayer
 72
     0
 43
0.0208333333333333
 43
0.0
 43
0.0
 43
0.0
 43
0.0
 43
0.0208333333333333
 43
0.0
 43
0.0
 43
0.0
 43
0.0
 43
1.0
 43
0.0
 43
0.0
 43
0.0
 43
0.0
 43
1.0
 77
     0
 47
0.0208333333333333
 47
0.0
 47
0.0
 47
0.0
 47
0.0
 47
0.0208333333333333
 47
0.0
 47
0.0
 47
0.0
 47
0.0
 47
1.0
 47
0.0
 47
0.0
 47
0.0
 47
0.0
 47
1.0
171
     0
 49
0.0208333333333333
 49
0.0
 49
0.0
 49
0.0
 49
0.0
 49
0.0208333333333333
 49
0.0
 49
0.0
 49
0.0
 49
0.0
 49
1.0
 49
0.0
 49
0.0
 49
0.0
 49
0.0
 49
1.0
175
     0
142
0.0208333333333333
142
0.0
142
0.0
142
0.0
142
0.0
142
0.0208333333333333
142
0.0
142
0.0
142
0.0
142
0.0
142
1.0
142
0.0
142
0.0
142
0.0
142
0.0
142
1.0
179
     0
144
0.0208333333333333
144
0.0
144
0.0
144
0.0
144
0.0
144
0.0208333333333333
144
0.0
144
0.0
144
0.0
144
0.0
144
1.0
144
0.0
144
0.0
144
0.0
144
0.0
144
1.0
147
0.0208333333333333
147
0.0
147
0.0
147
0.0
147
0.0
147
0.0208333333333333
147
0.0
147
0.0
147
0.0
147
0.0
147
1.0
147
0.0
147
0.0
147
0.0
147
0.0
147
1.0
  0
MATERIAL
  5
21
102
{ACAD_XDICTIONARY
360
22
102
}
102
{ACAD_REACTORS
330
10
102
}
330
10
100
AcDbMaterial
  1
Global
 72
     0
 43
0.0208333333333333
 43
0.0
 43
0.0
 43
0.0
 43
0.0
 43
0.0208333333333333
 43
0.0
 43
0.0
 43
0.0
 43
0.0
 43
1.0
 43
0.0
 43
0.0
 43
0.0
 43
0.0
 43
1.0
 77
     0
 47
0.0208333333333333
 47
0.0
 47
0.0
 47
0.0
 47
0.0
 47
0.0208333333333333
 47
0.0
 47
0.0
 47
0.0
 47
0.0
 47
1.0
 47
0.0
 47
0.0
 47
0.0
 47
0.0
 47
1.0
171
     0
 49
0.0208333333333333
 49
0.0
 49
0.0
 49
0.0
 49
0.0
 49
0.0208333333333333
 49
0.0
 49
0.0
 49
0.0
 49
0.0
 49
1.0
 49
0.0
 49
0.0
 49
0.0
 49
0.0
 49
1.0
175
     0
142
0.0208333333333333
142
0.0
142
0.0
142
0.0
142
0.0
142
0.0208333333333333
142
0.0
142
0.0
142
0.0
142
0.0
142
1.0
142
0.0
142
0.0
142
0.0
142
0.0
142
1.0
179
     0
144
0.0208333333333333
144
0.0
144
0.0
144
0.0
144
0.0
144
0.0208333333333333
144
0.0
144
0.0
144
0.0
144
0.0
144
1.0
144
0.0
144
0.0
144
0.0
144
0.0
144
1.0
147
0.0208333333333333
147
0.0
147
0.0
147
0.0
147
0.0
147
0.0208333333333333
147
0.0
147
0.0
147
0.0
147
0.0
147
1.0
147
0.0
147
0.0
147
0.0
147
0.0
147
1.0
  0
MLEADERSTYLE
  5
67
102
{ACAD_REACTORS
330
66
102
}
330
66
100
AcDbMLeaderStyle
179
     2
170
     2
171
     1
172
     0
 90
        2
 40
0.0
 41
0.0
173
     1
 91
-1056964608
340
5B
 92
       -2
290
     1
 42
0.09
291
     1
 43
0.36
  3
Standard
 44
0.18
300

342
55
174
     1
178
     6
175
     1
176
     0
 93
-1056964608
 45
0.18
292
     0
297
     0
 46
0.18
 94
-1056964608
 47
1.0
 49
1.0
140
1.0
293
     1
141
0.0
294
     1
177
     0
142
1.0
295
     1
296
     0
143
0.125
271
     0
272
     9
273
     9
298
     1
  0
MLINESTYLE
  5
60
102
{ACAD_REACTORS
330
5F
102
}
330
5F
100
AcDbMlineStyle
  2
STANDARD
 70
     0
  3

 62
   256
 51
90.0
 52
90.0
 71
     2
 49
0.5
 62
   256
  6
BYLAYER
 49
-0.5
 62
   256
  6
BYLAYER
  0
ACDBPLACEHOLDER
  5
F
102
{ACAD_REACTORS
330
E
102
}
330
E
  0
SCALE
  5
43
102
{ACAD_REACTORS
330
42
102
}
330
42
100
AcDbScale
 70
     0
300
1:1
140
1.0
141
1.0
290
     1
  0
SCALE
  5
44
102
{ACAD_REACTORS
330
42
102
}
330
42
100
AcDbScale
 70
     0
300
1/128" = 1'-0"
140
0.0078125
141
12.0
290
     0
  0
SCALE
  5
45
102
{ACAD_REACTORS
330
42
102
}
330
42
100
AcDbScale
 70
     0
300
1/64" = 1'-0"
140
0.015625
141
12.0
290
     0
  0
SCALE
  5
46
102
{ACAD_REACTORS
330
42
102
}
330
42
100
AcDbScale
 70
     0
300
1/32" = 1'-0"
140
0.03125
141
12.0
290
     0
  0
SCALE
  5
47
102
{ACAD_REACTORS
330
42
102
}
330
42
100
AcDbScale
 70
     0
300
1/16" = 1'-0"
140
0.0625
141
12.0
290
     0
  0
SCALE
  5
48
102
{ACAD_REACTORS
330
42
102
}
330
42
100
AcDbScale
 70
     0
300
3/32" = 1'-0"
140
0.09375
141
12.0
290
     0
  0
SCALE
  5
49
102
{ACAD_REACTORS
330
42
102
}
330
42
100
AcDbScale
 70
     0
300
1/8" = 1'-0"
140
0.125
141
12.0
290
     0
  0
SCALE
  5
4A
102
{ACAD_REACTORS
330
42
102
}
330
42
100
AcDbScale
 70
     0
300
3/16" = 1'-0"
140
0.1875
141
12.0
290
     0
  0
SCALE
  5
4B
102
{ACAD_REACTORS
330
42
102
}
330
42
100
AcDbScale
 70
     0
300
1/4" = 1'-0"
140
0.25
141
12.0
290
     0
  0
SCALE
  5
4C
102
{ACAD_REACTORS
330
42
102
}
330
42
100
AcDbScale
 70
     0
300
3/8" = 1'-0"
140
0.375
141
12.0
290
     0
  0
SCALE
  5
4D
102
{ACAD_REACTORS
330
42
102
}
330
42
100
AcDbScale
 70
     0
300
1/2" = 1'-0"
140
0.5
141
12.0
290
     0
  0
SCALE
  5
4E
102
{ACAD_REACTORS
330
42
102
}
330
42
100
AcDbScale
 70
     0
300
3/4" = 1'-0"
140
0.75
141
12.0
290
     0
  0
SCALE
  5
4F
102
{ACAD_REACTORS
330
42
102
}
330
42
100
AcDbScale
 70
     0
300
1" = 1'-0"
140
1.0
141
12.0
290
     0
  0
SCALE
  5
50
102
{ACAD_REACTORS
330
42
102
}
330
42
100
AcDbScale
 70
     0
300
1-1/2" = 1'-0"
140
1.5
141
12.0
290
     0
  0
SCALE
  5
51
102
{ACAD_REACTORS
330
42
102
}
330
42
100
AcDbScale
 70
     0
300
3" = 1'-0"
140
3.0
141
12.0
290
     0
  0
SCALE
  5
52
102
{ACAD_REACTORS
330
42
102
}
330
42
100
AcDbScale
 70
     0
300
6" = 1'-0"
140
6.0
141
12.0
290
     0
  0
SCALE
  5
53
102
{ACAD_REACTORS
330
42
102
}
330
42
100
AcDbScale
 70
     0
300
1'-0" = 1'-0"
140
12.0
141
12.0
290
     0
  0
ACDBSECTIONVIEWSTYLE
  5
69
102
{ACAD_REACTORS
330
68
102
}
330
68
100
AcDbModelDocViewStyle
 70
     0
  3
Imperial24
290
     1
300
Imperial24
 90
        0
100
AcDbSectionViewStyle
 70
     0
 71
     0
 90
       78
 71
     1
340
55
 62
   256
 40
0.24
340
0
340
0
 62
   256
 40
0.24
300
I, O, Q, S, X, Z
 40
0.48
 90
        3
 40
0.18
 90
        1
 71
     2
340
5D
 90
       25
 62
   256
340
5D
 90
       50
 62
   256
 40
0.24
 40
0.0
 40
0.24
 71
     3
340
55
 62
   256
 40
0.24
 90
        1
 40
0.75
 90
        1
300
%<\AcVar ViewType \f "%tc1">% %<\AcVar ViewSectionStartId>%-%<\AcVar ViewSectionEndId>%\PSCALE %<\AcVar ViewScale \f "%sn">%
 71
     4
 62
   256
 62
   257
300
ANSI31
 40
1.0
 90
        0
290
     0
290
     0
 90
        6
 40
0.0
 40
1.570796326794896
 40
0.2617993877991494
 40
1.308996938995747
 40
-0.2617993877991494
 40
1.832595714594046
  0
TABLESTYLE
  5
65
102
{ACAD_XDICTIONARY
360
2C2
102
}
102
{ACAD_REACTORS
330
64
102
}
330
64
100
AcDbTableStyle
280
     0
  3
Standard
 70
     0
 71
     0
 40
0.06
 41
0.06
280
     0
281
     0
  7
Standard
140
0.18
170
     2
 62
     0
 63
     7
283
     0
 90
      512
 91
        0
  1

274
    -2
284
     1
 64
     0
275
    -2
285
     1
 65
     0
276
    -2
286
     1
 66
     0
277
    -2
287
     1
 67
     0
278
    -2
288
     1
 68
     0
279
    -2
289
     1
 69
     0
  7
Standard
140
0.25
170
     5
 62
     0
 63
     7
283
     0
 90
      512
 91
        0
  1

274
    -2
284
     1
 64
     0
275
    -2
285
     1
 65
     0
276
    -2
286
     1
 66
     0
277
    -2
287
     1
 67
     0
278
    -2
288
     1
 68
     0
279
    -2
289
     1
 69
     0
  7
Standard
140
0.18
170
     5
 62
     0
 63
     7
283
     0
 90
      512
 91
        0
  1

274
    -2
284
     1
 64
     0
275
    -2
285
     1
 65
     0
276
    -2
286
     1
 66
     0
277
    -2
287
     1
 67
     0
278
    -2
288
     1
 68
     0
279
    -2
289
     1
 69
     0
  0
VISUALSTYLE
  5
2F
102
{ACAD_REACTORS
330
29
102
}
330
29
100
AcDbVisualStyle
  2
2dWireframe
 70
     4
177
     3
291
     0
 70
    58
 90
        0
176
     1
 90
        2
176
     1
 90
        0
176
     1
 90
        0
176
     1
 40
0.6
176
     1
 40
30.0
176
     1
 62
     7
420
 16777215
176
     1
 90
        1
176
     1
 90
        4
176
     1
 62
     7
176
     1
 62
   257
176
     1
 90
        1
176
     1
 90
        1
176
     1
 40
1.0
176
     1
 90
        0
176
     1
 62
   257
176
     1
 40
1.0
176
     1
 90
        1
176
     1
 90
        6
176
     1
 90
        2
176
     1
 62
     7
176
     1
 90
        5
176
     1
 90
        0
176
     1
 90
        0
176
     1
290
     0
176
     1
 90
        1
176
     1
 40
0.0
176
     1
 90
        0
176
     1
290
     1
176
     1
290
     1
176
     1
290
     0
176
     1
290
     0
176
     1
290
     0
176
     1
290
     0
176
     1
290
     0
176
     1
290
     0
176
     1
290
     0
176
     1
 90
       50
176
     1
 40
0.0
176
     1
 40
1.0
176
     1
 90
        0
176
     1
 62
    18
420
        0
176
     1
 90
       50
176
     1
 90
        3
176
     1
 62
     5
420
      255
176
     1
290
     0
176
     1
 90
       50
176
     1
 90
       50
176
     1
 90
       50
176
     1
290
     0
176
     1
 90
       50
176
     1
 62
   256
176
     0
 40
1.0
176
     0
 90
        2
176
     1
  1
strokes_ogs.tif
176
     1
290
     0
176
     1
 40
1.0
176
     1
 40
1.0
176
     1
  0
VISUALSTYLE
  5
2E
102
{ACAD_REACTORS
330
29
102
}
330
29
100
AcDbVisualStyle
  2
Basic
 70
     7
177
     3
291
     1
 70
    58
 90
        1
176
     1
 90
        0
176
     1
 90
        1
176
     1
 90
        0
176
     1
 40
0.6
176
     1
 40
30.0
176
     1
 62
     7
420
 16777215
176
     1
 90
        0
176
     1
 90
        4
176
     1
 62
     7
176
     1
 62
   257
176
     1
 90
        1
176
     1
 90
        1
176
     1
 40
1.0
176
     1
 90
        8
176
     1
 62
     7
176
     1
 40
1.0
176
     1
 90
        1
176
     1
 90
        6
176
     1
 90
        2
176
     1
 62
     7
176
     1
 90
        5
176
     1
 90
        0
176
     1
 90
        0
176
     1
290
     0
176
     1
 90
        1
176
     1
 40
0.0
176
     1
 90
        0
176
     1
290
     0
176
     1
290
     1
176
     1
290
     1
176
     1
290
     0
176
     1
290
     0
176
     1
290
     0
176
     1
290
     0
176
     1
290
     0
176
     1
290
     0
176
     1
 90
       50
176
     1
 40
0.0
176
     1
 40
1.0
176
     1
 90
        0
176
     1
 62
    18
420
        0
176
     1
 90
       50
176
     1
 90
        3
176
     1
 62
     5
420
      255
176
     1
290
     0
176
     1
 90
       50
176
     1
 90
       50
176
     1
 90
       50
176
     1
290
     0
176
     1
 90
       50
176
     1
 62
   256
176
     0
 40
1.0
176
     0
 90
        2
176
     1
  1
strokes_ogs.tif
176
     1
290
     0
176
     1
 40
1.0
176
     1
 40
1.0
176
     1
  0
VISUALSTYLE
  5
35
102
{ACAD_REACTORS
330
29
102
}
330
29
100
AcDbVisualStyle
  2
Brighten
 70
    12
177
     3
291
     1
 70
    58
 90
        2
176
     1
 90
        2
176
     1
 90
        0
176
     1
 90
        0
176
     1
 40
0.6
176
     1
 40
30.0
176
     1
 62
     7
420
 16777215
176
     1
 90
        1
176
     1
 90
        4
176
     1
 62
     7
176
     1
 62
   257
176
     1
 90
        1
176
     1
 90
        1
176
     1
 40
1.0
176
     1
 90
        8
176
     1
 62
     7
176
     1
 40
1.0
176
     1
 90
        1
176
     1
 90
        6
176
     1
 90
        2
176
     1
 62
     7
176
     1
 90
        5
176
     1
 90
        0
176
     1
 90
        0
176
     1
290
     0
176
     1
 90
        1
176
     1
 40
50.0
176
     1
 90
        0
176
     1
290
     0
176
     1
290
     1
176
     1
290
     1
176
     1
290
     0
176
     1
290
     0
176
     1
290
     0
176
     1
290
     0
176
     1
290
     0
176
     1
290
     0
176
     1
 90
       50
176
     1
 40
0.0
176
     1
 40
1.0
176
     1
 90
        0
176
     1
 62
    18
420
        0
176
     1
 90
       50
176
     1
 90
        3
176
     1
 62
     5
420
      255
176
     1
290
     0
176
     1
 90
       50
176
     1
 90
       50
176
     1
 90
       50
176
     1
290
     0
176
     1
 90
       50
176
     1
 62
   256
176
     0
 40
1.0
176
     0
 90
        2
176
     1
  1
strokes_ogs.tif
176
     1
290
     0
176
     1
 40
1.0
176
     1
 40
1.0
176
     1
  0
VISUALSTYLE
  5
39
102
{ACAD_REACTORS
330
29
102
}
330
29
100
AcDbVisualStyle
  2
ColorChange
 70
    16
177
     3
291
     1
 70
    58
 90
        2
176
     1
 90
        2
176
     1
 90
        3
176
     1
 90
        0
176
     1
 40
0.6
176
     1
 40
30.0
176
     1
 62
     8
420
  8421504
176
     1
 90
        1
176
     1
 90
        4
176
     1
 62
     7
176
     1
 62
   257
176
     1
 90
        1
176
     1
 90
        1
176
     1
 40
1.0
176
     1
 90
        8
176
     1
 62
     8
420
  8421504
176
     1
 40
1.0
176
     1
 90
        1
176
     1
 90
        6
176
     1
 90
        2
176
     1
 62
     7
176
     1
 90
        5
176
     1
 90
        0
176
     1
 90
        0
176
     1
290
     0
176
     1
 90
        1
176
     1
 40
0.0
176
     1
 90
        0
176
     1
290
     0
176
     1
290
     1
176
     1
290
     1
176
     1
290
     0
176
     1
290
     0
176
     1
290
     0
176
     1
290
     0
176
     1
290
     0
176
     1
290
     0
176
     1
 90
       50
176
     1
 40
0.0
176
     1
 40
1.0
176
     1
 90
        0
176
     1
 62
    18
420
        0
176
     1
 90
       50
176
     1
 90
        3
176
     1
 62
     5
420
      255
176
     1
290
     0
176
     1
 90
       50
176
     1
 90
       50
176
     1
 90
       50
176
     1
290
     0
176
     1
 90
       50
176
     1
 62
   256
176
     0
 40
1.0
176
     0
 90
        2
176
     1
  1
strokes_ogs.tif
176
     1
290
     0
176
     1
 40
1.0
176
     1
 40
1.0
176
     1
  0
VISUALSTYLE
  5
32
102
{ACAD_REACTORS
330
29
102
}
330
29
100
AcDbVisualStyle
  2
Conceptual
 70
     9
177
     3
291
     0
 70
    58
 90
        3
176
     1
 90
        2
176
     1
 90
        0
176
     1
 90
        0
176
     1
 40
0.6
176
     1
 40
30.0
176
     1
 62
     7
420
 16777215
176
     1
 90
        2
176
     1
 90
        2
176
     1
 62
     7
176
     1
 62
   257
176
     1
 90
        1
176
     1
 90
        1
176
     1
 40
179.0
176
     1
 90
        8
176
     1
 62
     7
176
     1
 40
1.0
176
     1
 90
        1
176
     1
 90
        6
176
     1
 90
        2
176
     1
 62
     7
176
     1
 90
        3
176
     1
 90
        0
176
     1
 90
        0
176
     1
290
     0
176
     1
 90
        1
176
     1
 40
0.0
176
     1
 90
        0
176
     1
290
     0
176
     1
290
     1
176
     1
290
     1
176
     1
290
     0
176
     1
290
     0
176
     1
290
     0
176
     1
290
     0
176
     1
290
     0
176
     1
290
     0
176
     1
 90
       50
176
     1
 40
0.0
176
     1
 40
1.0
176
     1
 90
        0
176
     1
 62
    18
420
        0
176
     1
 90
       50
176
     1
 90
        3
176
     1
 62
     5
420
      255
176
     1
290
     0
176
     1
 90
       50
176
     1
 90
       50
176
     1
 90
       50
176
     1
290
     0
176
     1
 90
       50
176
     1
 62
   256
176
     0
 40
1.0
176
     0
 90
        2
176
     1
  1
strokes_ogs.tif
176
     1
290
     0
176
     1
 40
1.0
176
     1
 40
1.0
176
     1
  0
VISUALSTYLE
  5
34
102
{ACAD_REACTORS
330
29
102
}
330
29
100
AcDbVisualStyle
  2
Dim
 70
    11
177
     3
291
     1
 70
    58
 90
        2
176
     1
 90
        2
176
     1
 90
        0
176
     1
 90
        0
176
     1
 40
0.6
176
     1
 40
30.0
176
     1
 62
     7
420
 16777215
176
     1
 90
        1
176
     1
 90
        4
176
     1
 62
     7
176
     1
 62
   257
176
     1
 90
        1
176
     1
 90
        1
176
     1
 40
1.0
176
     1
 90
        8
176
     1
 62
     7
176
     1
 40
1.0
176
     1
 90
        1
176
     1
 90
        6
176
     1
 90
        2
176
     1
 62
     7
176
     1
 90
        5
176
     1
 90
        0
176
     1
 90
        0
176
     1
290
     0
176
     1
 90
        1
176
     1
 40
-50.0
176
     1
 90
        0
176
     1
290
     0
176
     1
290
     1
176
     1
290
     1
176
     1
290
     0
176
     1
290
     0
176
     1
290
     0
176
     1
290
     0
176
     1
290
     0
176
     1
290
     0
176
     1
 90
       50
176
     1
 40
0.0
176
     1
 40
1.0
176
     1
 90
        0
176
     1
 62
    18
420
        0
176
     1
 90
       50
176
     1
 90
        3
176
     1
 62
     5
420
      255
176
     1
290
     0
176
     1
 90
       50
176
     1
 90
       50
176
     1
 90
       50
176
     1
290
     0
176
     1
 90
       50
176
     1
 62
   256
176
     0
 40
1.0
176
     0
 90
        2
176
     1
  1
strokes_ogs.tif
176
     1
290
     0
176
     1
 40
1.0
176
     1
 40
1.0
176
     1
  0
VISUALSTYLE
  5
41
102
{ACAD_REACTORS
330
29
102
}
330
29
100
AcDbVisualStyle
  2
EdgeColorOff
 70
    22
177
     3
291
     1
 70
    58
 90
        2
176
     0
 90
        2
176
     0
 90
        0
176
     0
 90
        0
176
     0
 40
0.6
176
     0
 40
30.0
176
     0
 62
     7
420
 16777215
176
     0
 90
        1
176
     0
 90
        4
176
     0
 62
     7
176
     0
 62
   257
176
     0
 90
        1
176
     0
 90
        1
176
     0
 40
1.0
176
     0
 90
        8
176
     2
 62
     7
176
     0
 40
1.0
176
     0
 90
        1
176
     0
 90
        6
176
     0
 90
        2
176
     0
 62
     7
176
     0
 90
        5
176
     0
 90
        0
176
     0
 90
        0
176
     0
290
     0
176
     0
 90
        1
176
     0
 40
0.0
176
     0
 90
        0
176
     0
290
     0
176
     0
290
     1
176
     0
290
     1
176
     0
290
     0
176
     0
290
     0
176
     0
290
     0
176
     0
290
     0
176
     0
290
     0
176
     0
290
     0
176
     0
 90
       50
176
     0
 40
0.0
176
     0
 40
1.0
176
     0
 90
        0
176
     0
 62
    18
420
        0
176
     0
 90
       50
176
     0
 90
        3
176
     0
 62
     5
420
      255
176
     0
290
     0
176
     0
 90
       50
176
     0
 90
       50
176
     0
 90
       50
176
     0
290
     0
176
     0
 90
       50
176
     0
 62
   256
176
     0
 40
1.0
176
     0
 90
        2
176
     0
  1
strokes_ogs.tif
176
     0
290
     0
176
     0
 40
1.0
176
     0
 40
1.0
176
     0
  0
VISUALSTYLE
  5
38
102
{ACAD_REACTORS
330
29
102
}
330
29
100
AcDbVisualStyle
  2
Facepattern
 70
    15
177
     3
291
     1
 70
    58
 90
        2
176
     1
 90
        2
176
     1
 90
        0
176
     1
 90
        0
176
     1
 40
0.6
176
     1
 40
30.0
176
     1
 62
     7
420
 16777215
176
     1
 90
        1
176
     1
 90
        4
176
     1
 62
     7
176
     1
 62
   257
176
     1
 90
        1
176
     1
 90
        1
176
     1
 40
1.0
176
     1
 90
        8
176
     1
 62
     7
176
     1
 40
1.0
176
     1
 90
        1
176
     1
 90
        6
176
     1
 90
        2
176
     1
 62
     7
176
     1
 90
        5
176
     1
 90
        0
176
     1
 90
        0
176
     1
290
     0
176
     1
 90
        1
176
     1
 40
0.0
176
     1
 90
        0
176
     1
290
     0
176
     1
290
     1
176
     1
290
     1
176
     1
290
     0
176
     1
290
     0
176
     1
290
     0
176
     1
290
     0
176
     1
290
     0
176
     1
290
     0
176
     1
 90
       50
176
     1
 40
0.0
176
     1
 40
1.0
176
     1
 90
        0
176
     1
 62
    18
420
        0
176
     1
 90
       50
176
     1
 90
        3
176
     1
 62
     5
420
      255
176
     1
290
     0
176
     1
 90
       50
176
     1
 90
       50
176
     1
 90
       50
176
     1
290
     0
176
     1
 90
       50
176
     1
 62
   256
176
     0
 40
1.0
176
     0
 90
        2
176
     1
  1
strokes_ogs.tif
176
     1
290
     0
176
     1
 40
1.0
176
     1
 40
1.0
176
     1
  0
VISUALSTYLE
  5
2A
102
{ACAD_REACTORS
330
29
102
}
330
29
100
AcDbVisualStyle
  2
Flat
 70
     0
177
     3
291
     1
 70
    58
 90
        2
176
     1
 90
        1
176
     1
 90
        1
176
     1
 90
        2
176
     1
 40
0.6
176
     1
 40
30.0
176
     1
 62
     7
420
 16777215
176
     1
 90
        0
176
     1
 90
        0
176
     1
 62
     7
176
     1
 62
   257
176
     1
 90
        1
176
     1
 90
        1
176
     1
 40
1.0
176
     1
 90
        8
176
     1
 62
     7
176
     1
 40
1.0
176
     1
 90
        1
176
     1
 90
        6
176
     1
 90
        2
176
     1
 62
     7
176
     1
 90
        5
176
     1
 90
        0
176
     1
 90
        0
176
     1
290
     0
176
     1
 90
       13
176
     1
 40
0.0
176
     1
 90
        0
176
     1
290
     0
176
     1
290
     1
176
     1
290
     1
176
     1
290
     0
176
     1
290
     0
176
     1
290
     0
176
     1
290
     0
176
     1
290
     0
176
     1
290
     0
176
     1
 90
       50
176
     1
 40
0.0
176
     1
 40
1.0
176
     1
 90
        0
176
     1
 62
    18
420
        0
176
     1
 90
       50
176
     1
 90
        3
176
     1
 62
     5
420
      255
176
     1
290
     0
176
     1
 90
       50
176
     1
 90
       50
176
     1
 90
       50
176
     1
290
     0
176
     1
 90
       50
176
     1
 62
   256
176
     0
 40
1.0
176
     0
 90
        2
176
     1
  1
strokes_ogs.tif
176
     1
290
     0
176
     1
 40
1.0
176
     1
 40
1.0
176
     1
  0
VISUALSTYLE
  5
2B
102
{ACAD_REACTORS
330
29
102
}
330
29
100
AcDbVisualStyle
  2
FlatWithEdges
 70
     1
177
     3
291
     1
 70
    58
 90
        2
176
     1
 90
        1
176
     1
 90
        1
176
     1
 90
        2
176
     1
 40
0.6
176
     1
 40
30.0
176
     1
 62
     7
420
 16777215
176
     1
 90
        1
176
     1
 90
        0
176
     1
 62
     7
176
     1
 62
   257
176
     1
 90
        1
176
     1
 90
        1
176
     1
 40
1.0
176
     1
 90
        0
176
     1
 62
   257
176
     1
 40
1.0
176
     1
 90
        1
176
     1
 90
        6
176
     1
 90
        2
176
     1
 62
     7
176
     1
 90
        5
176
     1
 90
        0
176
     1
 90
        0
176
     1
290
     0
176
     1
 90
       13
176
     1
 40
0.0
176
     1
 90
        0
176
     1
290
     0
176
     1
290
     1
176
     1
290
     1
176
     1
290
     0
176
     1
290
     0
176
     1
290
     0
176
     1
290
     0
176
     1
290
     0
176
     1
290
     0
176
     1
 90
       50
176
     1
 40
0.0
176
     1
 40
1.0
176
     1
 90
        0
176
     1
 62
    18
420
        0
176
     1
 90
       50
176
     1
 90
        3
176
     1
 62
     5
420
      255
176
     1
290
     0
176
     1
 90
       50
176
     1
 90
       50
176
     1
 90
       50
176
     1
290
     0
176
     1
 90
       50
176
     1
 62
   256
176
     0
 40
1.0
176
     0
 90
        2
176
     1
  1
strokes_ogs.tif
176
     1
290
     0
176
     1
 40
1.0
176
     1
 40
1.0
176
     1
  0
VISUALSTYLE
  5
2C
102
{ACAD_REACTORS
330
29
102
}
330
29
100
AcDbVisualStyle
  2
Gouraud
 70
     2
177
     3
291
     1
 70
    58
 90
        2
176
     1
 90
        2
176
     1
 90
        1
176
     1
 90
        2
176
     1
 40
0.6
176
     1
 40
30.0
176
     1
 62
     7
420
 16777215
176
     1
 90
        0
176
     1
 90
        0
176
     1
 62
     7
176
     1
 62
   257
176
     1
 90
        1
176
     1
 90
        1
176
     1
 40
1.0
176
     1
 90
        0
176
     1
 62
     7
176
     1
 40
1.0
176
     1
 90
        1
176
     1
 90
        6
176
     1
 90
        2
176
     1
 62
     7
176
     1
 90
        5
176
     1
 90
        0
176
     1
 90
        0
176
     1
290
     0
176
     1
 90
       13
176
     1
 40
0.0
176
     1
 90
        0
176
     1
290
     0
176
     1
290
     1
176
     1
290
     1
176
     1
290
     0
176
     1
290
     0
176
     1
290
     0
176
     1
290
     0
176
     1
290
     0
176
     1
290
     0
176
     1
 90
       50
176
     1
 40
0.0
176
     1
 40
1.0
176
     1
 90
        0
176
     1
 62
    18
420
        0
176
     1
 90
       50
176
     1
 90
        3
176
     1
 62
     5
420
      255
176
     1
290
     0
176
     1
 90
       50
176
     1
 90
       50
176
     1
 90
       50
176
     1
290
     0
176
     1
 90
       50
176
     1
 62
   256
176
     0
 40
1.0
176
     0
 90
        2
176
     1
  1
strokes_ogs.tif
176
     1
290
     0
176
     1
 40
1.0
176
     1
 40
1.0
176
     1
  0
VISUALSTYLE
  5
2D
102
{ACAD_REACTORS
330
29
102
}
330
29
100
AcDbVisualStyle
  2
GouraudWithEdges
 70
     3
177
     3
291
     1
 70
    58
 90
        2
176
     1
 90
        2
176
     1
 90
        1
176
     1
 90
        2
176
     1
 40
0.6
176
     1
 40
30.0
176
     1
 62
     7
420
 16777215
176
     1
 90
        1
176
     1
 90
        0
176
     1
 62
     7
176
     1
 62
   257
176
     1
 90
        1
176
     1
 90
        1
176
     1
 40
1.0
176
     1
 90
        0
176
     1
 62
   257
176
     1
 40
1.0
176
     1
 90
        1
176
     1
 90
        6
176
     1
 90
        2
176
     1
 62
     7
176
     1
 90
        5
176
     1
 90
        0
176
     1
 90
        0
176
     1
290
     0
176
     1
 90
       13
176
     1
 40
0.0
176
     1
 90
        0
176
     1
290
     0
176
     1
290
     1
176
     1
290
     1
176
     1
290
     0
176
     1
290
     0
176
     1
290
     0
176
     1
290
     0
176
     1
290
     0
176
     1
290
     0
176
     1
 90
       50
176
     1
 40
0.0
176
     1
 40
1.0
176
     1
 90
        0
176
     1
 62
    18
420
        0
176
     1
 90
       50
176
     1
 90
        3
176
     1
 62
     5
420
      255
176
     1
290
     0
176
     1
 90
       50
176
     1
 90
       50
176
     1
 90
       50
176
     1
290
     0
176
     1
 90
       50
176
     1
 62
   256
176
     0
 40
1.0
176
     0
 90
        2
176
     1
  1
strokes_ogs.tif
176
     1
290
     0
176
     1
 40
1.0
176
     1
 40
1.0
176
     1
  0
VISUALSTYLE
  5
31
102
{ACAD_REACTORS
330
29
102
}
330
29
100
AcDbVisualStyle
  2
Hidden
 70
     6
177
     3
291
     0
 70
    58
 90
        1
176
     1
 90
        2
176
     1
 90
        2
176
     1
 90
        0
176
     1
 40
0.6
176
     1
 40
30.0
176
     1
 62
     7
420
 16777215
176
     1
 90
        2
176
     1
 90
        2
176
     1
 62
     7
176
     1
 62
   257
176
     1
 90
        2
176
     1
 90
        1
176
     1
 40
40.0
176
     1
 90
        0
176
     1
 62
   257
176
     1
 40
1.0
176
     1
 90
        1
176
     1
 90
        6
176
     1
 90
        2
176
     1
 62
     7
176
     1
 90
        3
176
     1
 90
        0
176
     1
 90
        0
176
     1
290
     0
176
     1
 90
        1
176
     1
 40
0.0
176
     1
 90
        0
176
     1
290
     0
176
     1
290
     1
176
     1
290
     1
176
     1
290
     0
176
     1
290
     0
176
     1
290
     0
176
     1
290
     0
176
     1
290
     0
176
     1
290
     0
176
     1
 90
       50
176
     1
 40
0.0
176
     1
 40
1.0
176
     1
 90
        0
176
     1
 62
    18
420
        0
176
     1
 90
       50
176
     1
 90
        3
176
     1
 62
     5
420
      255
176
     1
290
     0
176
     1
 90
       50
176
     1
 90
       50
176
     1
 90
       50
176
     1
290
     0
176
     1
 90
       50
176
     1
 62
   256
176
     0
 40
1.0
176
     0
 90
        2
176
     1
  1
strokes_ogs.tif
176
     1
290
     0
176
     1
 40
1.0
176
     1
 40
1.0
176
     1
  0
VISUALSTYLE
  5
3F
102
{ACAD_REACTORS
330
29
102
}
330
29
100
AcDbVisualStyle
  2
JitterOff
 70
    20
177
     3
291
     1
 70
    58
 90
        2
176
     0
 90
        2
176
     0
 90
        0
176
     0
 90
        0
176
     0
 40
0.6
176
     0
 40
30.0
176
     0
 62
     7
420
 16777215
176
     0
 90
        1
176
     0
 90
        4
176
     0
 62
     7
176
     0
 62
   257
176
     0
 90
        1
176
     0
 90
        1
176
     0
 40
1.0
176
     0
 90
       10
176
     2
 62
     7
176
     0
 40
1.0
176
     0
 90
        1
176
     0
 90
        6
176
     0
 90
        2
176
     0
 62
     7
176
     0
 90
        5
176
     0
 90
        0
176
     0
 90
        0
176
     0
290
     0
176
     0
 90
        1
176
     0
 40
0.0
176
     0
 90
        0
176
     0
290
     0
176
     0
290
     1
176
     0
290
     1
176
     0
290
     0
176
     0
290
     0
176
     0
290
     0
176
     0
290
     0
176
     0
290
     0
176
     0
290
     0
176
     0
 90
       50
176
     0
 40
0.0
176
     0
 40
1.0
176
     0
 90
        0
176
     0
 62
    18
420
        0
176
     0
 90
       50
176
     0
 90
        3
176
     0
 62
     5
420
      255
176
     0
290
     0
176
     0
 90
       50
176
     0
 90
       50
176
     0
 90
       50
176
     0
290
     0
176
     0
 90
       50
176
     0
 62
   256
176
     0
 40
1.0
176
     0
 90
        2
176
     0
  1
strokes_ogs.tif
176
     0
290
     0
176
     0
 40
1.0
176
     0
 40
1.0
176
     0
  0
VISUALSTYLE
  5
37
102
{ACAD_REACTORS
330
29
102
}
330
29
100
AcDbVisualStyle
  2
Linepattern
 70
    14
177
     3
291
     1
 70
    58
 90
        2
176
     1
 90
        2
176
     1
 90
        0
176
     1
 90
        0
176
     1
 40
0.6
176
     1
 40
30.0
176
     1
 62
     7
420
 16777215
176
     1
 90
        1
176
     1
 90
        4
176
     1
 62
     7
176
     1
 62
   257
176
     1
 90
        7
176
     1
 90
        7
176
     1
 40
1.0
176
     1
 90
        8
176
     1
 62
     7
176
     1
 40
1.0
176
     1
 90
        1
176
     1
 90
        6
176
     1
 90
        2
176
     1
 62
     7
176
     1
 90
        5
176
     1
 90
        0
176
     1
 90
        0
176
     1
290
     0
176
     1
 90
        1
176
     1
 40
0.0
176
     1
 90
        0
176
     1
290
     0
176
     1
290
     1
176
     1
290
     1
176
     1
290
     0
176
     1
290
     0
176
     1
290
     0
176
     1
290
     0
176
     1
290
     0
176
     1
290
     0
176
     1
 90
       50
176
     1
 40
0.0
176
     1
 40
1.0
176
     1
 90
        0
176
     1
 62
    18
420
        0
176
     1
 90
       50
176
     1
 90
        3
176
     1
 62
     5
420
      255
176
     1
290
     0
176
     1
 90
       50
176
     1
 90
       50
176
     1
 90
       50
176
     1
290
     0
176
     1
 90
       50
176
     1
 62
   256
176
     0
 40
1.0
176
     0
 90
        2
176
     1
  1
strokes_ogs.tif
176
     1
290
     0
176
     1
 40
1.0
176
     1
 40
1.0
176
     1
  0
VISUALSTYLE
  5
40
102
{ACAD_REACTORS
330
29
102
}
330
29
100
AcDbVisualStyle
  2
OverhangOff
 70
    21
177
     3
291
     1
 70
    58
 90
        2
176
     0
 90
        2
176
     0
 90
        0
176
     0
 90
        0
176
     0
 40
0.6
176
     0
 40
30.0
176
     0
 62
     7
420
 16777215
176
     0
 90
        1
176
     0
 90
        4
176
     0
 62
     7
176
     0
 62
   257
176
     0
 90
        1
176
     0
 90
        1
176
     0
 40
1.0
176
     0
 90
        9
176
     2
 62
     7
176
     0
 40
1.0
176
     0
 90
        1
176
     0
 90
        6
176
     0
 90
        2
176
     0
 62
     7
176
     0
 90
        5
176
     0
 90
        0
176
     0
 90
        0
176
     0
290
     0
176
     0
 90
        1
176
     0
 40
0.0
176
     0
 90
        0
176
     0
290
     0
176
     0
290
     1
176
     0
290
     1
176
     0
290
     0
176
     0
290
     0
176
     0
290
     0
176
     0
290
     0
176
     0
290
     0
176
     0
290
     0
176
     0
 90
       50
176
     0
 40
0.0
176
     0
 40
1.0
176
     0
 90
        0
176
     0
 62
    18
420
        0
176
     0
 90
       50
176
     0
 90
        3
176
     0
 62
     5
420
      255
176
     0
290
     0
176
     0
 90
       50
176
     0
 90
       50
176
     0
 90
       50
176
     0
290
     0
176
     0
 90
       50
176
     0
 62
   256
176
     0
 40
1.0
176
     0
 90
        2
176
     0
  1
strokes_ogs.tif
176
     0
290
     0
176
     0
 40
1.0
176
     0
 40
1.0
176
     0
  0
VISUALSTYLE
  5
33
102
{ACAD_REACTORS
330
29
102
}
330
29
100
AcDbVisualStyle
  2
Realistic
 70
     8
177
     3
291
     0
 70
    58
 90
        2
176
     1
 90
        3
176
     1
 90
        0
176
     1
 90
        2
176
     1
 40
0.6
176
     1
 40
30.0
176
     1
 62
     7
420
 16777215
176
     1
 90
        0
176
     1
 90
        0
176
     1
 62
     7
176
     1
 62
   257
176
     1
 90
        1
176
     1
 90
        1
176
     1
 40
1.0
176
     1
 90
        8
176
     1
 62
   257
176
     1
 40
1.0
176
     1
 90
        1
176
     1
 90
        6
176
     1
 90
        2
176
     1
 62
     7
176
     1
 90
        3
176
     1
 90
        0
176
     1
 90
        0
176
     1
290
     0
176
     1
 90
       13
176
     1
 40
0.0
176
     1
 90
        0
176
     1
290
     0
176
     1
290
     1
176
     1
290
     1
176
     1
290
     0
176
     1
290
     0
176
     1
290
     0
176
     1
290
     0
176
     1
290
     0
176
     1
290
     0
176
     1
 90
       50
176
     1
 40
0.0
176
     1
 40
1.0
176
     1
 90
        0
176
     1
 62
    18
420
        0
176
     1
 90
       50
176
     1
 90
        3
176
     1
 62
     5
420
      255
176
     1
290
     0
176
     1
 90
       50
176
     1
 90
       50
176
     1
 90
       50
176
     1
290
     0
176
     1
 90
       50
176
     1
 62
   256
176
     0
 40
1.0
176
     0
 90
        2
176
     1
  1
strokes_ogs.tif
176
     1
290
     0
176
     1
 40
1.0
176
     1
 40
1.0
176
     1
  0
VISUALSTYLE
  5
3E
102
{ACAD_REACTORS
330
29
102
}
330
29
100
AcDbVisualStyle
  2
Shaded
 70
    27
177
     3
291
     0
 70
    58
 90
        2
176
     1
 90
        2
176
     1
 90
        1
176
     1
 90
        2
176
     1
 40
0.6
176
     1
 40
30.0
176
     1
 62
     7
420
 16777215
176
     1
 90
        0
176
     1
 90
        4
176
     1
 62
     7
176
     1
 62
   257
176
     1
 90
        1
176
     1
 90
        1
176
     1
 40
1.0
176
     1
 90
        8
176
     1
 62
   257
176
     1
 40
1.0
176
     1
 90
        1
176
     1
 90
        6
176
     1
 90
        2
176
     1
 62
     8
420
  7895160
176
     1
 90
        3
176
     1
 90
        0
176
     1
 90
        0
176
     1
290
     0
176
     1
 90
        5
176
     1
 40
0.0
176
     1
 90
        0
176
     1
290
     0
176
     1
290
     1
176
     1
290
     1
176
     1
290
     0
176
     1
290
     0
176
     1
290
     0
176
     1
290
     0
176
     1
290
     0
176
     1
290
     0
176
     1
 90
       50
176
     1
 40
0.0
176
     1
 40
1.0
176
     1
 90
        0
176
     1
 62
    18
420
        0
176
     1
 90
       50
176
     1
 90
        3
176
     1
 62
     5
420
      255
176
     1
290
     0
176
     1
 90
       50
176
     1
 90
       50
176
     1
 90
       50
176
     1
290
     0
176
     1
 90
       50
176
     1
 62
   256
176
     0
 40
1.0
176
     0
 90
        2
176
     1
  1
strokes_ogs.tif
176
     1
290
     0
176
     1
 40
1.0
176
     1
 40
1.0
176
     1
  0
VISUALSTYLE
  5
3D
102
{ACAD_REACTORS
330
29
102
}
330
29
100
AcDbVisualStyle
  2
Shaded with edges
 70
    26
177
     3
291
     0
 70
    58
 90
        2
176
     1
 90
        2
176
     1
 90
        1
176
     1
 90
        2
176
     1
 40
0.6
176
     1
 40
30.0
176
     1
 62
     7
420
 16777215
176
     1
 90
        1
176
     1
 90
        2
176
     1
 62
     7
176
     1
 62
   257
176
     1
 90
        2
176
     1
 90
        1
176
     1
 40
1.0
176
     1
 90
        8
176
     1
 62
   257
176
     1
 40
1.0
176
     1
 90
        1
176
     1
 90
        6
176
     1
 90
        2
176
     1
 62
     7
176
     1
 90
        3
176
     1
 90
        0
176
     1
 90
        0
176
     1
290
     0
176
     1
 90
        5
176
     1
 40
0.0
176
     1
 90
        0
176
     1
290
     0
176
     1
290
     1
176
     1
290
     1
176
     1
290
     0
176
     1
290
     0
176
     1
290
     0
176
     1
290
     0
176
     1
290
     0
176
     1
290
     0
176
     1
 90
       50
176
     1
 40
0.0
176
     1
 40
1.0
176
     1
 90
        0
176
     1
 62
    18
420
        0
176
     1
 90
       50
176
     1
 90
        3
176
     1
 62
     5
420
      255
176
     1
290
     0
176
     1
 90
       50
176
     1
 90
       50
176
     1
 90
       50
176
     1
290
     0
176
     1
 90
       50
176
     1
 62
   256
176
     0
 40
1.0
176
     0
 90
        2
176
     1
  1
strokes_ogs.tif
176
     1
290
     0
176
     1
 40
1.0
176
     1
 40
1.0
176
     1
  0
VISUALSTYLE
  5
3A
102
{ACAD_REACTORS
330
29
102
}
330
29
100
AcDbVisualStyle
  2
Shades of Gray
 70
    23
177
     3
291
     0
 70
    58
 90
        2
176
     1
 90
        2
176
     1
 90
        3
176
     1
 90
        0
176
     1
 40
0.6
176
     1
 40
30.0
176
     1
 62
     7
420
 16777215
176
     1
 90
        2
176
     1
 90
        2
176
     1
 62
     7
176
     1
 62
     7
176
     1
 90
        1
176
     1
 90
        1
176
     1
 40
40.0
176
     1
 90
        8
176
     1
 62
     7
176
     1
 40
1.0
176
     1
 90
        1
176
     1
 90
        6
176
     1
 90
        2
176
     1
 62
     7
176
     1
 90
        3
176
     1
 90
        0
176
     1
 90
        0
176
     1
290
     0
176
     1
 90
        1
176
     1
 40
0.0
176
     1
 90
        0
176
     1
290
     0
176
     1
290
     1
176
     1
290
     1
176
     1
290
     0
176
     1
290
     0
176
     1
290
     0
176
     1
290
     0
176
     1
290
     0
176
     1
290
     0
176
     1
 90
       50
176
     1
 40
0.0
176
     1
 40
1.0
176
     1
 90
        0
176
     1
 62
    18
420
        0
176
     1
 90
       50
176
     1
 90
        3
176
     1
 62
     5
420
      255
176
     1
290
     0
176
     1
 90
       50
176
     1
 90
       50
176
     1
 90
       50
176
     1
290
     0
176
     1
 90
       50
176
     1
 62
   256
176
     0
 40
1.0
176
     0
 90
        2
176
     1
  1
strokes_ogs.tif
176
     1
290
     0
176
     1
 40
1.0
176
     1
 40
1.0
176
     1
  0
VISUALSTYLE
  5
3B
102
{ACAD_REACTORS
330
29
102
}
330
29
100
AcDbVisualStyle
  2
Sketchy
 70
    24
177
     3
291
     0
 70
    58
 90
        1
176
     1
 90
        2
176
     1
 90
        2
176
     1
 90
        0
176
     1
 40
0.6
176
     1
 40
30.0
176
     1
 62
     7
420
 16777215
176
     1
 90
        2
176
     1
 90
        2
176
     1
 62
     7
176
     1
 62
     7
176
     1
 90
        1
176
     1
 90
        1
176
     1
 40
40.0
176
     1
 90
       11
176
     1
 62
     7
176
     1
 40
1.0
176
     1
 90
        1
176
     1
 90
        6
176
     1
 90
        2
176
     1
 62
     7
176
     1
 90
        6
176
     1
 90
        0
176
     1
 90
        0
176
     1
290
     0
176
     1
 90
        1
176
     1
 40
0.0
176
     1
 90
        0
176
     1
290
     0
176
     1
290
     1
176
     1
290
     1
176
     1
290
     0
176
     1
290
     0
176
     1
290
     0
176
     1
290
     0
176
     1
290
     0
176
     1
290
     0
176
     1
 90
       50
176
     1
 40
0.0
176
     1
 40
1.0
176
     1
 90
        0
176
     1
 62
    18
420
        0
176
     1
 90
       50
176
     1
 90
        3
176
     1
 62
     5
420
      255
176
     1
290
     0
176
     1
 90
       50
176
     1
 90
       50
176
     1
 90
       50
176
     1
290
     0
176
     1
 90
       50
176
     1
 62
   256
176
     0
 40
1.0
176
     0
 90
        2
176
     1
  1
strokes_ogs.tif
176
     1
290
     0
176
     1
 40
1.0
176
     1
 40
1.0
176
     1
  0
VISUALSTYLE
  5
36
102
{ACAD_REACTORS
330
29
102
}
330
29
100
AcDbVisualStyle
  2
Thicken
 70
    13
177
     3
291
     1
 70
    58
 90
        2
176
     1
 90
        2
176
     1
 90
        0
176
     1
 90
        0
176
     1
 40
0.6
176
     1
 40
30.0
176
     1
 62
     7
420
 16777215
176
     1
 90
        1
176
     1
 90
        4
176
     1
 62
     7
176
     1
 62
   257
176
     1
 90
        1
176
     1
 90
        1
176
     1
 40
1.0
176
     1
 90
       12
176
     1
 62
     7
176
     1
 40
1.0
176
     1
 90
        1
176
     1
 90
        6
176
     1
 90
        2
176
     1
 62
     7
176
     1
 90
        5
176
     1
 90
        0
176
     1
 90
        0
176
     1
290
     0
176
     1
 90
        1
176
     1
 40
0.0
176
     1
 90
        0
176
     1
290
     0
176
     1
290
     1
176
     1
290
     1
176
     1
290
     0
176
     1
290
     0
176
     1
290
     0
176
     1
290
     0
176
     1
290
     0
176
     1
290
     0
176
     1
 90
       50
176
     1
 40
0.0
176
     1
 40
1.0
176
     1
 90
        0
176
     1
 62
    18
420
        0
176
     1
 90
       50
176
     1
 90
        3
176
     1
 62
     5
420
      255
176
     1
290
     0
176
     1
 90
       50
176
     1
 90
       50
176
     1
 90
       50
176
     1
290
     0
176
     1
 90
       50
176
     1
 62
   256
176
     0
 40
1.0
176
     0
 90
        2
176
     1
  1
strokes_ogs.tif
176
     1
290
     0
176
     1
 40
1.0
176
     1
 40
1.0
176
     1
  0
VISUALSTYLE
  5
30
102
{ACAD_REACTORS
330
29
102
}
330
29
100
AcDbVisualStyle
  2
Wireframe
 70
     5
177
     3
291
     0
 70
    58
 90
        0
176
     1
 90
        2
176
     1
 90
        0
176
     1
 90
        0
176
     1
 40
0.6
176
     1
 40
30.0
176
     1
 62
     7
420
 16777215
176
     1
 90
        1
176
     1
 90
        4
176
     1
 62
     7
176
     1
 62
   257
176
     1
 90
        1
176
     1
 90
        1
176
     1
 40
1.0
176
     1
 90
        0
176
     1
 62
   257
176
     1
 40
1.0
176
     1
 90
        1
176
     1
 90
        6
176
     1
 90
        2
176
     1
 62
     7
176
     1
 90
        3
176
     1
 90
        0
176
     1
 90
        0
176
     1
290
     0
176
     1
 90
        1
176
     1
 40
0.0
176
     1
 90
        0
176
     1
290
     0
176
     1
290
     1
176
     1
290
     1
176
     1
290
     0
176
     1
290
     0
176
     1
290
     0
176
     1
290
     0
176
     1
290
     0
176
     1
290
     0
176
     1
 90
       50
176
     1
 40
0.0
176
     1
 40
1.0
176
     1
 90
        0
176
     1
 62
    18
420
        0
176
     1
 90
       50
176
     1
 90
        3
176
     1
 62
     5
420
      255
176
     1
290
     0
176
     1
 90
       50
176
     1
 90
       50
176
     1
 90
       50
176
     1
290
     0
176
     1
 90
       50
176
     1
 62
   256
176
     0
 40
1.0
176
     0
 90
        2
176
     1
  1
strokes_ogs.tif
176
     1
290
     0
176
     1
 40
1.0
176
     1
 40
1.0
176
     1
  0
VISUALSTYLE
  5
3C
102
{ACAD_REACTORS
330
29
102
}
330
29
100
AcDbVisualStyle
  2
X-Ray
 70
    25
177
     3
291
     0
 70
    58
 90
        2
176
     1
 90
        2
176
     1
 90
        1
176
     1
 90
        1
176
     1
 40
0.5
176
     1
 40
30.0
176
     1
 62
     7
420
 16777215
176
     1
 90
        1
176
     1
 90
        0
176
     1
 62
     7
176
     1
 62
   257
176
     1
 90
        1
176
     1
 90
        1
176
     1
 40
1.0
176
     1
 90
        8
176
     1
 62
     7
176
     1
 40
1.0
176
     1
 90
        1
176
     1
 90
        6
176
     1
 90
        2
176
     1
 62
     7
176
     1
 90
        3
176
     1
 90
        0
176
     1
 90
        0
176
     1
290
     0
176
     1
 90
       13
176
     1
 40
0.0
176
     1
 90
        0
176
     1
290
     0
176
     1
290
     1
176
     1
290
     1
176
     1
290
     0
176
     1
290
     0
176
     1
290
     0
176
     1
290
     0
176
     1
290
     0
176
     1
290
     0
176
     1
 90
       50
176
     1
 40
0.0
176
     1
 40
1.0
176
     1
 90
        0
176
     1
 62
    18
420
        0
176
     1
 90
       50
176
     1
 90
        3
176
     1
 62
     5
420
      255
176
     1
290
     0
176
     1
 90
       50
176
     1
 90
       50
176
     1
 90
       50
176
     1
290
     0
176
     1
 90
       50
176
     1
 62
   256
176
     0
 40
1.0
176
     0
 90
        2
176
     1
  1
strokes_ogs.tif
176
     1
290
     0
176
     1
 40
1.0
176
     1
 40
1.0
176
     1
  0
DICTIONARYVAR
  5
2C1
102
{ACAD_REACTORS
330
2BC
102
}
330
2BC
100
DictionaryVariables
280
     0
  1
1:1
  0
DICTIONARYVAR
  5
2BE
102
{ACAD_REACTORS
330
2BC
102
}
330
2BC
100
DictionaryVariables
280
     0
  1
STANDARD
  0
DICTIONARYVAR
  5
2BD
102
{ACAD_REACTORS
330
2BC
102
}
330
2BC
100
DictionaryVariables
280
     0
  1
STANDARD
  0
DICTIONARYVAR
  5
2BF
102
{ACAD_REACTORS
330
2BC
102
}
330
2BC
100
DictionaryVariables
280
     0
  1
Imperial24
  0
DICTIONARYVAR
  5
2C0
102
{ACAD_REACTORS
330
2BC
102
}
330
2BC
100
DictionaryVariables
280
     0
  1
Imperial24
  0
DICTIONARY
  5
1A
330
19
100
AcDbDictionary
280
     1
281
     1
  3
BUMPTILE
360
1C
  3
DIFFUSETILE
360
1B
  3
OPACITYTILE
360
1F
  3
REFLECTIONTILE
360
1E
  3
REFRACTIONTILE
360
20
  3
SPECULARTILE
360
1D
  0
DICTIONARY
  5
12
330
11
100
AcDbDictionary
280
     1
281
     1
  3
BUMPTILE
360
14
  3
DIFFUSETILE
360
13
  3
OPACITYTILE
360
17
  3
REFLECTIONTILE
360
16
  3
REFRACTIONTILE
360
18
  3
SPECULARTILE
360
15
  0
DICTIONARY
  5
22
330
21
100
AcDbDictionary
280
     1
281
     1
  3
BUMPTILE
360
24
  3
DIFFUSETILE
360
23
  3
OPACITYTILE
360
27
  3
REFLECTIONTILE
360
26
  3
REFRACTIONTILE
360
28
  3
SPECULARTILE
360
25
  0
DICTIONARY
  5
2C2
330
65
100
AcDbDictionary
280
     1
281
     1
  3
ACAD_ROUNDTRIP_2008_TABLESTYLE_CELLSTYLEMAP
360
2C3
  0
XRECORD
  5
1C
102
{ACAD_REACTORS
330
1A
102
}
330
1A
100
AcDbXrecord
280
     1
270
     1
271
     1
  0
XRECORD
  5
1B
102
{ACAD_REACTORS
330
1A
102
}
330
1A
100
AcDbXrecord
280
     1
270
     1
271
     1
  0
XRECORD
  5
1F
102
{ACAD_REACTORS
330
1A
102
}
330
1A
100
AcDbXrecord
280
     1
270
     1
271
     1
  0
XRECORD
  5
1E
102
{ACAD_REACTORS
330
1A
102
}
330
1A
100
AcDbXrecord
280
     1
270
     1
271
     1
  0
XRECORD
  5
20
102
{ACAD_REACTORS
330
1A
102
}
330
1A
100
AcDbXrecord
280
     1
270
     1
271
     1
  0
XRECORD
  5
1D
102
{ACAD_REACTORS
330
1A
102
}
330
1A
100
AcDbXrecord
280
     1
270
     1
271
     1
  0
XRECORD
  5
14
102
{ACAD_REACTORS
330
12
102
}
330
12
100
AcDbXrecord
280
     1
270
     1
271
     1
  0
XRECORD
  5
13
102
{ACAD_REACTORS
330
12
102
}
330
12
100
AcDbXrecord
280
     1
270
     1
271
     1
  0
XRECORD
  5
17
102
{ACAD_REACTORS
330
12
102
}
330
12
100
AcDbXrecord
280
     1
270
     1
271
     1
  0
XRECORD
  5
16
102
{ACAD_REACTORS
330
12
102
}
330
12
100
AcDbXrecord
280
     1
270
     1
271
     1
  0
XRECORD
  5
18
102
{ACAD_REACTORS
330
12
102
}
330
12
100
AcDbXrecord
280
     1
270
     1
271
     1
  0
XRECORD
  5
15
102
{ACAD_REACTORS
330
12
102
}
330
12
100
AcDbXrecord
280
     1
270
     1
271
     1
  0
XRECORD
  5
24
102
{ACAD_REACTORS
330
22
102
}
330
22
100
AcDbXrecord
280
     1
270
     1
271
     1
  0
XRECORD
  5
23
102
{ACAD_REACTORS
330
22
102
}
330
22
100
AcDbXrecord
280
     1
270
     1
271
     1
  0
XRECORD
  5
27
102
{ACAD_REACTORS
330
22
102
}
330
22
100
AcDbXrecord
280
     1
270
     1
271
     1
  0
XRECORD
  5
26
102
{ACAD_REACTORS
330
22
102
}
330
22
100
AcDbXrecord
280
     1
270
     1
271
     1
  0
XRECORD
  5
28
102
{ACAD_REACTORS
330
22
102
}
330
22
100
AcDbXrecord
280
     1
270
     1
271
     1
  0
XRECORD
  5
25
102
{ACAD_REACTORS
330
22
102
}
330
22
100
AcDbXrecord
280
     1
270
     1
271
     1
  0
CELLSTYLEMAP
  5
2C3
102
{ACAD_REACTORS
330
2C2
102
}
330
2C2
100
AcDbCellStyleMap
 90
        3
300
CELLSTYLE
  1
TABLEFORMAT_BEGIN
 90
        5
170
     1
 91
        0
 92
    32768
 62
   257
 93
        1
300
CONTENTFORMAT
  1
CONTENTFORMAT_BEGIN
 90
        0
 91
        0
 92
      512
 93
        0
300

 40
0.0
140
1.0
 94
        5
 62
     0
340
55
144
0.25
309
CONTENTFORMAT_END
171
     0
 94
        0
309
TABLEFORMAT_END
  1
CELLSTYLE_BEGIN
 90
        1
 91
        1
300
_TITLE
309
CELLSTYLE_END
300
CELLSTYLE
  1
TABLEFORMAT_BEGIN
 90
        5
170
     1
 91
        0
 92
        0
 62
   257
 93
        1
300
CONTENTFORMAT
  1
CONTENTFORMAT_BEGIN
 90
        0
 91
        0
 92
      512
 93
        0
300

 40
0.0
140
1.0
 94
        5
 62
     0
340
55
144
0.18
309
CONTENTFORMAT_END
171
     0
 94
        0
309
TABLEFORMAT_END
  1
CELLSTYLE_BEGIN
 90
        2
 91
        1
300
_HEADER
309
CELLSTYLE_END
300
CELLSTYLE
  1
TABLEFORMAT_BEGIN
 90
        5
170
     1
 91
        0
 92
        0
 62
   257
 93
        1
300
CONTENTFORMAT
  1
CONTENTFORMAT_BEGIN
 90
        0
 91
        0
 92
      512
 93
        0
300

 40
0.0
140
1.0
 94
        2
 62
     0
340
55
144
0.18
309
CONTENTFORMAT_END
171
     0
 94
        0
309
TABLEFORMAT_END
  1
CELLSTYLE_BEGIN
 90
        3
 91
        2
300
_DATA
309
CELLSTYLE_END
  0
ENDSEC
  0
EOF
