  0
SECTION
  2
HEADER
  9
$ACADVER
  1
AC1014
  9
$ACADMAINTVER
 70
     9
  9
$DWGCODEPAGE
  3
ANSI_1252
  9
$INSBASE
 10
0.0
 20
0.0
 30
0.0
  9
$EXTMIN
 10
1.000000000000000E+20
 20
1.000000000000000E+20
 30
1.000000000000000E+20
  9
$EXTMAX
 10
-1.000000000000000E+20
 20
-1.000000000000000E+20
 30
-1.000000000000000E+20
  9
$LIMMIN
 10
0.0
 20
0.0
  9
$LIMMAX
 10
12.0
 20
9.0
  9
$ORTHOMODE
 70
     0
  9
$REGENMODE
 70
     1
  9
$FILLMODE
 70
     1
  9
$QTEXTMODE
 70
     0
  9
$MIRRTEXT
 70
     1
  9
$DRAGMODE
 70
     2
  9
$LTSCALE
 40
1.0
  9
$OSMODE
 70
    37
  9
$ATTMODE
 70
     1
  9
$TEXTSIZE
 40
0.2
  9
$TRACEWID
 40
0.05
  9
$TEXTSTYLE
  7
STANDARD
  9
$CLAYER
  8
0
  9
$CELTYPE
  6
BYLAYER
  9
$CECOLOR
 62
   256
  9
$CELTSCALE
 40
1.0
  9
$DELOBJ
 70
     1
  9
$DISPSILH
 70
     0
  9
$DIMSCALE
 40
1.0
  9
$DIMASZ
 40
0.18
  9
$DIMEXO
 40
0.0625
  9
$DIMDLI
 40
0.38
  9
$DIMRND
 40
0.0
  9
$DIMDLE
 40
0.0
  9
$DIMEXE
 40
0.18
  9
$DIMTP
 40
0.0
  9
$DIMTM
 40
0.0
  9
$DIMTXT
 40
0.18
  9
$DIMCEN
 40
0.09
  9
$DIMTSZ
 40
0.0
  9
$DIMTOL
 70
     0
  9
$DIMLIM
 70
     0
  9
$DIMTIH
 70
     1
  9
$DIMTOH
 70
     1
  9
$DIMSE1
 70
     0
  9
$DIMSE2
 70
     0
  9
$DIMTAD
 70
     0
  9
$DIMZIN
 70
     0
  9
$DIMBLK
  1

  9
$DIMASO
 70
     1
  9
$DIMSHO
 70
     1
  9
$DIMPOST
  1

  9
$DIMAPOST
  1

  9
$DIMALT
 70
     0
  9
$DIMALTD
 70
     2
  9
$DIMALTF
 40
25.4
  9
$DIMLFAC
 40
1.0
  9
$DIMTOFL
 70
     0
  9
$DIMTVP
 40
0.0
  9
$DIMTIX
 70
     0
  9
$DIMSOXD
 70
     0
  9
$DIMSAH
 70
     0
  9
$DIMBLK1
  1

  9
$DIMBLK2
  1

  9
$DIMSTYLE
  2
STANDARD
  9
$DIMCLRD
 70
     0
  9
$DIMCLRE
 70
     0
  9
$DIMCLRT
 70
     0
  9
$DIMTFAC
 40
1.0
  9
$DIMGAP
 40
0.09
  9
$DIMJUST
 70
     0
  9
$DIMSD1
 70
     0
  9
$DIMSD2
 70
     0
  9
$DIMTOLJ
 70
     1
  9
$DIMTZIN
 70
     0
  9
$DIMALTZ
 70
     0
  9
$DIMALTTZ
 70
     0
  9
$DIMFIT
 70
     3
  9
$DIMUPT
 70
     0
  9
$DIMUNIT
 70
     2
  9
$DIMDEC
 70
     4
  9
$DIMTDEC
 70
     4
  9
$DIMALTU
 70
     2
  9
$DIMALTTD
 70
     2
  9
$DIMTXSTY
  7
STANDARD
  9
$DIMAUNIT
 70
     0
  9
$LUNITS
 70
     2
  9
$LUPREC
 70
     4
  9
$SKETCHINC
 40
0.1
  9
$FILLETRAD
 40
0.5
  9
$AUNITS
 70
     0
  9
$AUPREC
 70
     0
  9
$MENU
  1
.
  9
$ELEVATION
 40
0.0
  9
$PELEVATION
 40
0.0
  9
$THICKNESS
 40
0.0
  9
$LIMCHECK
 70
     0
  9
$CHAMFERA
 40
0.5
  9
$CHAMFERB
 40
0.5
  9
$CHAMFERC
 40
1.0
  9
$CHAMFERD
 40
0.0
  9
$SKPOLY
 70
     0
  9
$TDCREATE
 40
2458442.396817813
  9
$TDUPDATE
 40
2458442.396817824
  9
$TDINDWG
 40
0.0000000116
  9
$TDUSRTIMER
 40
0.0000000116
  9
$USRTIMER
 70
     1
  9
$ANGBASE
 50
0.0
  9
$ANGDIR
 70
     0
  9
$PDMODE
 70
     0
  9
$PDSIZE
 40
0.0
  9
$PLINEWID
 40
0.0
  9
$COORDS
 70
     1
  9
$SPLFRAME
 70
     0
  9
$SPLINETYPE
 70
     6
  9
$SPLINESEGS
 70
     8
  9
$ATTDIA
 70
     0
  9
$ATTREQ
 70
     1
  9
$HANDLING
 70
     1
  9
$HANDSEED
  5
1D0
  9
$SURFTAB1
 70
     6
  9
$SURFTAB2
 70
     6
  9
$SURFTYPE
 70
     6
  9
$SURFU
 70
     6
  9
$SURFV
 70
     6
  9
$UCSNAME
  2

  9
$UCSORG
 10
0.0
 20
0.0
 30
0.0
  9
$UCSXDIR
 10
1.0
 20
0.0
 30
0.0
  9
$UCSYDIR
 10
0.0
 20
1.0
 30
0.0
  9
$PUCSNAME
  2

  9
$PUCSORG
 10
0.0
 20
0.0
 30
0.0
  9
$PUCSXDIR
 10
1.0
 20
0.0
 30
0.0
  9
$PUCSYDIR
 10
0.0
 20
1.0
 30
0.0
  9
$USERI1
 70
     0
  9
$USERI2
 70
     0
  9
$USERI3
 70
     0
  9
$USERI4
 70
     0
  9
$USERI5
 70
     0
  9
$USERR1
 40
0.0
  9
$USERR2
 40
0.0
  9
$USERR3
 40
0.0
  9
$USERR4
 40
0.0
  9
$USERR5
 40
0.0
  9
$WORLDVIEW
 70
     1
  9
$SHADEDGE
 70
     3
  9
$SHADEDIF
 70
    70
  9
$TILEMODE
 70
     1
  9
$MAXACTVP
 70
    64
  9
$PINSBASE
 10
0.0
 20
0.0
 30
0.0
  9
$PLIMCHECK
 70
     0
  9
$PEXTMIN
 10
1.000000000000000E+20
 20
1.000000000000000E+20
 30
1.000000000000000E+20
  9
$PEXTMAX
 10
-1.000000000000000E+20
 20
-1.000000000000000E+20
 30
-1.000000000000000E+20
  9
$PLIMMIN
 10
0.0
 20
0.0
  9
$PLIMMAX
 10
12.0
 20
9.0
  9
$UNITMODE
 70
     0
  9
$VISRETAIN
 70
     1
  9
$PLINEGEN
 70
     0
  9
$PSLTSCALE
 70
     1
  9
$TREEDEPTH
 70
  3020
  9
$PICKSTYLE
 70
     1
  9
$CMLSTYLE
  2
STANDARD
  9
$CMLJUST
 70
     0
  9
$CMLSCALE
 40
1.0
  9
$PROXYGRAPHICS
 70
     1
  9
$MEASUREMENT
 70
     0
  0
ENDSEC
  0
SECTION
  2
CLASSES
  0
CLASS
  1
ACDBDICTIONARYWDFLT
  2
AcDbDictionaryWithDefault
  3
ObjectDBX Classes
 90
        0
280
     0
281
     0
  0
CLASS
  1
VISUALSTYLE
  2
AcDbVisualStyle
  3
ObjectDBX Classes
 90
     4095
280
     0
281
     0
  0
CLASS
  1
XRECORD
  2
AcDbXrecord
  3
AutoCAD 2000
 90
        0
280
     0
281
     0
  0
CLASS
  1
LWPOLYLINE
  2
AcDbPolyline
  3
AutoCAD 2000
 90
        0
280
     0
281
     1
  0
CLASS
  1
HATCH
  2
AcDbHatch
  3
AutoCAD 2000
 90
        0
280
     0
281
     1
  0
CLASS
  1
ACDBPLACEHOLDER
  2
AcDbPlaceHolder
  3
ObjectDBX Classes
 90
        0
280
     0
281
     0
  0
CLASS
  1
LAYOUT
  2
AcDbLayout
  3
ObjectDBX Classes
 90
        0
280
     0
281
     0
  0
ENDSEC
  0
SECTION
  2
TABLES
  0
TABLE
  2
VPORT
  5
8
330
0
100
AcDbSymbolTable
 70
     1
  0
VPORT
  5
29
330
8
100
AcDbSymbolTableRecord
100
AcDbViewportTableRecord
  2
*ACTIVE
 70
     0
 10
0.0
 20
0.0
 11
1.0
 21
1.0
 12
0.0
 22
0.0
 13
0.0
 23
0.0
 14
0.5
 24
0.5
 15
0.5
 25
0.5
 16
0.0
 26
0.0
 36
1.0
 17
97.94148082403893
 27
-40.59976127457229
 37
0.0
 40
44.76970484991869
 41
2.793608409258803
 42
50.0
 43
0.0
 44
0.0
 50
0.0
 51
0.0
 71
     0
 72
   100
 73
     1
 74
     3
 75
     0
 76
     0
 77
     0
 78
     0
  0
ENDTAB
  0
TABLE
  2
LTYPE
  5
5
330
0
100
AcDbSymbolTable
 70
     1
  0
LTYPE
  5
14
330
5
100
AcDbSymbolTableRecord
100
AcDbLinetypeTableRecord
  2
BYBLOCK
 70
     0
  3

 72
    65
 73
     0
 40
0.0
  0
LTYPE
  5
15
330
5
100
AcDbSymbolTableRecord
100
AcDbLinetypeTableRecord
  2
BYLAYER
 70
     0
  3

 72
    65
 73
     0
 40
0.0
  0
LTYPE
  5
16
330
5
100
AcDbSymbolTableRecord
100
AcDbLinetypeTableRecord
  2
CONTINUOUS
 70
     0
  3
Solid line
 72
    65
 73
     0
 40
0.0
  0
ENDTAB
  0
TABLE
  2
LAYER
  5
2
330
0
100
AcDbSymbolTable
 70
     5
  0
LAYER
  5
10
330
2
100
AcDbSymbolTableRecord
100
AcDbLayerTableRecord
  2
0
 70
     0
 62
     7
  6
CONTINUOUS
  0
LAYER
  5
3B
330
2
100
AcDbSymbolTableRecord
100
AcDbLayerTableRecord
  2
GRAU_10_
 70
     1
 62
     7
  6
CONTINUOUS
  0
LAYER
  5
3E
330
2
100
AcDbSymbolTableRecord
100
AcDbLayerTableRecord
  2
STANDARDEBENE
 70
     0
 62
     7
  6
CONTINUOUS
  0
LAYER
  5
7B
330
2
100
AcDbSymbolTableRecord
100
AcDbLayerTableRecord
  2
BEMAßUNG
 70
     1
 62
     7
  6
CONTINUOUS
  0
LAYER
  5
1AC
330
2
100
AcDbSymbolTableRecord
100
AcDbLayerTableRecord
  2
TEXT
 70
     1
 62
     7
  6
CONTINUOUS
  0
ENDTAB
  0
TABLE
  2
STYLE
  5
3
330
0
100
AcDbSymbolTable
 70
     1
  0
STYLE
  5
11
330
3
100
AcDbSymbolTableRecord
100
AcDbTextStyleTableRecord
  2
STANDARD
 70
     0
 40
0.0
 41
1.0
 50
0.0
 71
     0
 42
0.2
  3
txt
  4

  0
ENDTAB
  0
TABLE
  2
VIEW
  5
6
330
0
100
AcDbSymbolTable
 70
     0
  0
ENDTAB
  0
TABLE
  2
UCS
  5
7
330
0
100
AcDbSymbolTable
 70
     0
  0
ENDTAB
  0
TABLE
  2
APPID
  5
9
330
0
100
AcDbSymbolTable
 70
     1
  0
APPID
  5
12
330
9
100
AcDbSymbolTableRecord
100
AcDbRegAppTableRecord
  2
ACAD
 70
     0
  0
ENDTAB
  0
TABLE
  2
DIMSTYLE
  5
A
330
0
100
AcDbSymbolTable
 70
     1
  0
DIMSTYLE
105
27
330
A
100
AcDbSymbolTableRecord
100
AcDbDimStyleTableRecord
  2
STANDARD
 70
     0
  3

  4

  5

  6

  7

 40
1.0
 41
0.18
 42
0.0625
 43
0.38
 44
0.18
 45
0.0
 46
0.0
 47
0.0
 48
0.0
140
0.18
141
0.09
142
0.0
143
25.4
144
1.0
145
0.0
146
1.0
147
0.09
 71
     0
 72
     0
 73
     1
 74
     1
 75
     0
 76
     0
 77
     0
 78
     0
170
     0
171
     2
172
     0
173
     0
174
     0
175
     0
176
     0
177
     0
178
     0
270
     2
271
     4
272
     4
273
     2
274
     2
340
11
275
     0
280
     0
281
     0
282
     0
283
     1
284
     0
285
     0
286
     0
287
     3
288
     0
  0
ENDTAB
  0
TABLE
  2
BLOCK_RECORD
  5
1
330
0
100
AcDbSymbolTable
 70
     1
  0
BLOCK_RECORD
  5
1F
330
1
100
AcDbSymbolTableRecord
100
AcDbBlockTableRecord
  2
*MODEL_SPACE
  0
BLOCK_RECORD
  5
1B
330
1
100
AcDbSymbolTableRecord
100
AcDbBlockTableRecord
  2
*PAPER_SPACE
  0
ENDTAB
  0
ENDSEC
  0
SECTION
  2
BLOCKS
  0
BLOCK
  5
20
330
1F
100
AcDbEntity
  8
0
100
AcDbBlockBegin
  2
*MODEL_SPACE
 70
     0
 71
     0
 10
0.0
 20
0.0
 30
0.0
  3
*MODEL_SPACE
  1

  0
ENDBLK
  5
21
330
1F
100
AcDbEntity
  8
0
100
AcDbBlockEnd
  0
BLOCK
  5
1C
330
1B
100
AcDbEntity
 67
     1
  8
0
100
AcDbBlockBegin
  2
*PAPER_SPACE
 70
     0
 71
     0
 10
0.0
 20
0.0
 30
0.0
  3
*PAPER_SPACE
  1

  0
ENDBLK
  5
1D
330
1B
100
AcDbEntity
 67
     1
  8
0
100
AcDbBlockEnd
  0
ENDSEC
  0
SECTION
  2
ENTITIES
  0
SPLINE
  5
3C
330
1F
100
AcDbEntity
  8
GRAU_10_
100
AcDbSpline
210
0.0
220
0.0
230
1.0
 70
    11
 71
     3
 72
   110
 73
   106
 74
     0
 42
0.0000000001
 43
0.0000000001
 40
0.0
 40
0.0
 40
0.0
 40
0.0
 40
1.0
 40
1.0
 40
1.0
 40
2.0
 40
2.0
 40
2.0
 40
3.0
 40
3.0
 40
3.0
 40
4.0
 40
4.0
 40
4.0
 40
5.0
 40
5.0
 40
5.0
 40
6.0
 40
6.0
 40
6.0
 40
7.0
 40
7.0
 40
7.0
 40
8.0
 40
8.0
 40
8.0
 40
9.0
 40
9.0
 40
9.0
 40
10.0
 40
10.0
 40
10.0
 40
11.0
 40
11.0
 40
11.0
 40
12.0
 40
12.0
 40
12.0
 40
13.0
 40
13.0
 40
13.0
 40
14.0
 40
14.0
 40
14.0
 40
15.0
 40
15.0
 40
15.0
 40
16.0
 40
16.0
 40
16.0
 40
17.0
 40
17.0
 40
17.0
 40
18.0
 40
18.0
 40
18.0
 40
19.0
 40
19.0
 40
19.0
 40
20.0
 40
20.0
 40
20.0
 40
21.0
 40
21.0
 40
21.0
 40
22.0
 40
22.0
 40
22.0
 40
23.0
 40
23.0
 40
23.0
 40
24.0
 40
24.0
 40
24.0
 40
25.0
 40
25.0
 40
25.0
 40
26.0
 40
26.0
 40
26.0
 40
27.0
 40
27.0
 40
27.0
 40
28.0
 40
28.0
 40
28.0
 40
29.0
 40
29.0
 40
29.0
 40
30.0
 40
30.0
 40
30.0
 40
31.0
 40
31.0
 40
31.0
 40
32.0
 40
32.0
 40
32.0
 40
33.0
 40
33.0
 40
33.0
 40
34.0
 40
34.0
 40
34.0
 40
35.0
 40
35.0
 40
35.0
 40
35.0
 10
44.78658581779641
 20
-55.08259818501408
 30
0.0
 10
44.78658581779641
 20
-55.08259818501408
 30
0.0
 10
44.78658581779641
 20
-59.87713757183627
 30
0.0
 10
44.78658581779641
 20
-59.87713757183627
 30
0.0
 10
44.73697644280881
 20
-59.76965059269648
 30
0.0
 10
45.03566622137998
 20
-63.53479544852603
 30
0.0
 10
48.27732881822581
 20
-62.72037487581296
 30
0.0
 10
48.27732881822581
 20
-62.72037487581296
 30
0.0
 10
52.64622665784539
 20
-61.91801213729828
 30
0.0
 10
54.81129691555065
 20
-60.00598414298462
 30
0.0
 10
57.50622285888733
 20
-57.62611218177403
 30
0.0
 10
61.43673229800888
 20
-54.9478949515408
 30
0.0
 10
66.31171466441165
 20
-54.54344074157247
 30
0.0
 10
66.31171466441165
 20
-54.54344074157247
 30
0.0
 10
103.7466389714592
 20
-53.29287108042679
 30
0.0
 10
109.5674723033373
 20
-53.0021050214717
 30
0.0
 10
115.3883056352154
 20
-52.71099445296809
 30
0.0
 10
157.0760280640296
 20
-51.37188583785147
 30
0.0
 10
157.0760280640296
 20
-51.37188583785147
 30
0.0
 10
157.0760280640296
 20
-51.37188583785147
 30
0.0
 10
160.2606743305946
 20
-51.61407605046454
 30
0.0
 10
160.2854790180884
 20
-48.2268581693669
 30
0.0
 10
160.3106282151307
 20
-44.83895126917221
 30
0.0
 10
160.2858235276369
 20
-41.7624810008441
 30
0.0
 10
160.2858235276369
 20
-41.7624810008441
 30
0.0
 10
160.2858235276369
 20
-41.7624810008441
 30
0.0
 10
160.211064955607
 20
-39.23429767899351
 30
0.0
 10
157.7450656072651
 20
-39.07237819118677
 30
0.0
 10
155.2790662589233
 20
-38.91045870338002
 30
0.0
 10
119.5864989935409
 20
-37.72276203484014
 30
0.0
 10
119.5864989935409
 20
-37.72276203484014
 30
0.0
 10
119.5864989935409
 20
-37.72276203484014
 30
0.0
 10
67.06257322542186
 20
-35.91150308347004
 30
0.0
 10
67.06257322542186
 20
-35.91150308347004
 30
0.0
 10
67.06257322542186
 20
-35.91150308347004
 30
0.0
 10
60.87776555552709
 20
-35.56475422287965
 30
0.0
 10
56.50404458222816
 20
-31.71124266785344
 30
0.0
 10
52.13032360892922
 20
-27.85773111282723
 30
0.0
 10
48.62356091449342
 20
-27.7421481592971
 30
0.0
 10
48.56568331034122
 20
-27.7421481592971
 30
0.0
 10
48.50797796096329
 20
-27.7421481592971
 30
0.0
 10
47.21675617309165
 20
-27.14494085692904
 30
0.0
 10
45.94517142948593
 20
-28.06977673994436
 30
0.0
 10
44.67358668588022
 20
-28.99444036818542
 30
0.0
 10
44.80863442890201
 20
-30.05415173944827
 30
0.0
 10
44.80863442890201
 20
-30.34319525066073
 30
0.0
 10
44.80863442890201
 20
-30.63223876187319
 30
0.0
 10
44.75075682474981
 20
-35.29483099161032
 30
0.0
 10
44.75075682474981
 20
-35.29483099161032
 30
0.0
 10
44.75075682474981
 20
-35.29483099161032
 30
0.0
 10
46.58113605606305
 20
-35.33358831581938
 30
0.0
 10
47.39021673077398
 20
-35.62263182703185
 30
0.0
 10
47.45567354499372
 20
-35.64588622155728
 30
0.0
 10
47.94918347325576
 20
-33.48391654978874
 30
0.0
 10
47.94918347325576
 20
-33.48391654978874
 30
0.0
 10
47.94918347325576
 20
-33.48391654978874
 30
0.0
 10
49.53564994421331
 20
-33.97174207050012
 30
0.0
 10
51.01273463351418
 20
-34.81320664277239
 30
0.0
 10
52.39973007587577
 20
-35.60333929231444
 30
0.0
 10
54.07611353899834
 20
-37.35654838475809
 30
0.0
 10
54.07611353899834
 20
-37.35654838475809
 30
0.0
 10
54.07611353899834
 20
-37.35654838475809
 30
0.0
 10
52.41919486536742
 20
-38.84017875548093
 30
0.0
 10
52.41919486536742
 20
-38.84017875548093
 30
0.0
 10
52.41919486536742
 20
-38.84017875548093
 30
0.0
 10
53.13181286649135
 20
-39.78447942798791
 30
0.0
 10
53.32456595889109
 20
-40.13122828857831
 30
0.0
 10
53.51749130606508
 20
-40.47814940394296
 30
0.0
 10
54.13381888837627
 20
-41.78831921698347
 30
0.0
 10
54.13381888837627
 20
-41.78831921698347
 30
0.0
 10
54.13381888837627
 20
-41.78831921698347
 30
0.0
 10
56.1957085362983
 20
-41.11376952097156
 30
0.0
 10
56.1957085362983
 20
-41.11376952097156
 30
0.0
 10
56.1957085362983
 20
-41.11376952097156
 30
0.0
 10
56.96637639634869
 20
-43.0599039605892
 30
0.0
 10
56.90867104697075
 20
-45.16003416839749
 30
0.0
 10
56.85062118804429
 20
-47.26016437620579
 30
0.0
 10
56.19536402674977
 20
-49.2059543062749
 30
0.0
 10
56.1764160015809
 20
-49.2445393757097
 30
0.0
 10
56.1571234668635
 20
-49.28346895469302
 30
0.0
 10
54.11469860843313
 20
-48.53174911981151
 30
0.0
 10
54.11469860843313
 20
-48.53174911981151
 30
0.0
 10
54.11469860843313
 20
-48.53174911981151
 30
0.0
 10
53.47907849140454
 20
-50.01555174530861
 30
0.0
 10
53.36332328310014
 20
-50.13096244406449
 30
0.0
 10
53.24739582002149
 20
-50.24671765236888
 30
0.0
 10
52.39973007587577
 20
-51.55688746540939
 30
0.0
 10
52.39973007587577
 20
-51.55688746540939
 30
0.0
 10
52.39973007587577
 20
-51.55688746540939
 30
0.0
 10
53.99894340012874
 20
-52.9828124867543
 30
0.0
 10
53.99894340012874
 20
-52.9828124867543
 30
0.0
 10
53.99894340012874
 20
-52.9828124867543
 30
0.0
 10
52.86223414477055
 20
-54.38910046383328
 30
0.0
 10
51.55223658650431
 20
-55.25623099747067
 30
0.0
 10
50.42000595527694
 20
-56.0055392655125
 30
0.0
 10
47.92989093853836
 20
-56.89402939115844
 30
0.0
 10
47.92989093853836
 20
-56.89402939115844
 30
0.0
 10
47.92989093853836
 20
-56.89402939115844
 30
0.0
 10
47.33251138139604
 20
-54.77460664863274
 30
0.0
 10
47.33251138139604
 20
-54.77460664863274
 30
0.0
 10
47.33251138139604
 20
-54.77460664863274
 30
0.0
 10
46.27280001013319
 20
-54.98648002097561
 30
0.0
 10
46.1763373365462
 20
-54.98648002097561
 30
0.0
 10
46.08004691773346
 20
-54.98648002097561
 30
0.0
 10
44.78658581779641
 20
-55.08259818501408
 30
0.0
 10
44.78658581779641
 20
-55.08259818501408
 30
0.0
  0
HATCH
  5
3D
330
1F
100
AcDbEntity
  8
GRAU_10_
 62
   255
100
AcDbHatch
 10
0.0
 20
0.0
 30
0.0
210
0.0
220
0.0
230
1.0
  2
SOLID
 70
     1
 71
     0
 91
        1
 92
        1
 93
        1
 72
     4
 94
        3
 73
     0
 74
     1
 95
      110
 96
      106
 40
0.0
 40
0.0
 40
0.0
 40
0.0
 40
1.0
 40
1.0
 40
1.0
 40
2.0
 40
2.0
 40
2.0
 40
3.0
 40
3.0
 40
3.0
 40
4.0
 40
4.0
 40
4.0
 40
5.0
 40
5.0
 40
5.0
 40
6.0
 40
6.0
 40
6.0
 40
7.0
 40
7.0
 40
7.0
 40
8.0
 40
8.0
 40
8.0
 40
9.0
 40
9.0
 40
9.0
 40
10.0
 40
10.0
 40
10.0
 40
11.0
 40
11.0
 40
11.0
 40
12.0
 40
12.0
 40
12.0
 40
13.0
 40
13.0
 40
13.0
 40
14.0
 40
14.0
 40
14.0
 40
15.0
 40
15.0
 40
15.0
 40
16.0
 40
16.0
 40
16.0
 40
17.0
 40
17.0
 40
17.0
 40
18.0
 40
18.0
 40
18.0
 40
19.0
 40
19.0
 40
19.0
 40
20.0
 40
20.0
 40
20.0
 40
21.0
 40
21.0
 40
21.0
 40
22.0
 40
22.0
 40
22.0
 40
23.0
 40
23.0
 40
23.0
 40
24.0
 40
24.0
 40
24.0
 40
25.0
 40
25.0
 40
25.0
 40
26.0
 40
26.0
 40
26.0
 40
27.0
 40
27.0
 40
27.0
 40
28.0
 40
28.0
 40
28.0
 40
29.0
 40
29.0
 40
29.0
 40
30.0
 40
30.0
 40
30.0
 40
31.0
 40
31.0
 40
31.0
 40
32.0
 40
32.0
 40
32.0
 40
33.0
 40
33.0
 40
33.0
 40
34.0
 40
34.0
 40
34.0
 40
35.0
 40
35.0
 40
35.0
 40
35.0
 10
44.78658581779641
 20
-55.08259818501408
 10
44.78658581779641
 20
-55.08259818501408
 10
44.78658581779641
 20
-59.87713757183627
 10
44.78658581779641
 20
-59.87713757183627
 10
44.73697644280881
 20
-59.76965059269648
 10
45.03566622137998
 20
-63.53479544852603
 10
48.27732881822581
 20
-62.72037487581296
 10
48.27732881822581
 20
-62.72037487581296
 10
52.64622665784539
 20
-61.91801213729828
 10
54.81129691555065
 20
-60.00598414298462
 10
57.50622285888733
 20
-57.62611218177403
 10
61.43673229800888
 20
-54.9478949515408
 10
66.31171466441165
 20
-54.54344074157247
 10
66.31171466441165
 20
-54.54344074157247
 10
103.7466389714592
 20
-53.29287108042679
 10
109.5674723033373
 20
-53.0021050214717
 10
115.3883056352154
 20
-52.71099445296809
 10
157.0760280640296
 20
-51.37188583785147
 10
157.0760280640296
 20
-51.37188583785147
 10
157.0760280640296
 20
-51.37188583785147
 10
160.2606743305946
 20
-51.61407605046454
 10
160.2854790180884
 20
-48.2268581693669
 10
160.3106282151307
 20
-44.83895126917221
 10
160.2858235276369
 20
-41.7624810008441
 10
160.2858235276369
 20
-41.7624810008441
 10
160.2858235276369
 20
-41.7624810008441
 10
160.211064955607
 20
-39.23429767899351
 10
157.7450656072651
 20
-39.07237819118677
 10
155.2790662589233
 20
-38.91045870338002
 10
119.5864989935409
 20
-37.72276203484014
 10
119.5864989935409
 20
-37.72276203484014
 10
119.5864989935409
 20
-37.72276203484014
 10
67.06257322542186
 20
-35.91150308347004
 10
67.06257322542186
 20
-35.91150308347004
 10
67.06257322542186
 20
-35.91150308347004
 10
60.87776555552709
 20
-35.56475422287965
 10
56.50404458222816
 20
-31.71124266785344
 10
52.13032360892922
 20
-27.85773111282723
 10
48.62356091449342
 20
-27.7421481592971
 10
48.56568331034122
 20
-27.7421481592971
 10
48.50797796096329
 20
-27.7421481592971
 10
47.21675617309165
 20
-27.14494085692904
 10
45.94517142948593
 20
-28.06977673994436
 10
44.67358668588022
 20
-28.99444036818542
 10
44.80863442890201
 20
-30.05415173944827
 10
44.80863442890201
 20
-30.34319525066073
 10
44.80863442890201
 20
-30.63223876187319
 10
44.75075682474981
 20
-35.29483099161032
 10
44.75075682474981
 20
-35.29483099161032
 10
44.75075682474981
 20
-35.29483099161032
 10
46.58113605606305
 20
-35.33358831581938
 10
47.39021673077398
 20
-35.62263182703185
 10
47.45567354499372
 20
-35.64588622155728
 10
47.94918347325576
 20
-33.48391654978874
 10
47.94918347325576
 20
-33.48391654978874
 10
47.94918347325576
 20
-33.48391654978874
 10
49.53564994421331
 20
-33.97174207050012
 10
51.01273463351418
 20
-34.81320664277239
 10
52.39973007587577
 20
-35.60333929231444
 10
54.07611353899834
 20
-37.35654838475809
 10
54.07611353899834
 20
-37.35654838475809
 10
54.07611353899834
 20
-37.35654838475809
 10
52.41919486536742
 20
-38.84017875548093
 10
52.41919486536742
 20
-38.84017875548093
 10
52.41919486536742
 20
-38.84017875548093
 10
53.13181286649135
 20
-39.78447942798791
 10
53.32456595889109
 20
-40.13122828857831
 10
53.51749130606508
 20
-40.47814940394296
 10
54.13381888837627
 20
-41.78831921698347
 10
54.13381888837627
 20
-41.78831921698347
 10
54.13381888837627
 20
-41.78831921698347
 10
56.1957085362983
 20
-41.11376952097156
 10
56.1957085362983
 20
-41.11376952097156
 10
56.1957085362983
 20
-41.11376952097156
 10
56.96637639634869
 20
-43.0599039605892
 10
56.90867104697075
 20
-45.16003416839749
 10
56.85062118804429
 20
-47.26016437620579
 10
56.19536402674977
 20
-49.2059543062749
 10
56.1764160015809
 20
-49.2445393757097
 10
56.1571234668635
 20
-49.28346895469302
 10
54.11469860843313
 20
-48.53174911981151
 10
54.11469860843313
 20
-48.53174911981151
 10
54.11469860843313
 20
-48.53174911981151
 10
53.47907849140454
 20
-50.01555174530861
 10
53.36332328310014
 20
-50.13096244406449
 10
53.24739582002149
 20
-50.24671765236888
 10
52.39973007587577
 20
-51.55688746540939
 10
52.39973007587577
 20
-51.55688746540939
 10
52.39973007587577
 20
-51.55688746540939
 10
53.99894340012874
 20
-52.9828124867543
 10
53.99894340012874
 20
-52.9828124867543
 10
53.99894340012874
 20
-52.9828124867543
 10
52.86223414477055
 20
-54.38910046383328
 10
51.55223658650431
 20
-55.25623099747067
 10
50.42000595527694
 20
-56.0055392655125
 10
47.92989093853836
 20
-56.89402939115844
 10
47.92989093853836
 20
-56.89402939115844
 10
47.92989093853836
 20
-56.89402939115844
 10
47.33251138139604
 20
-54.77460664863274
 10
47.33251138139604
 20
-54.77460664863274
 10
47.33251138139604
 20
-54.77460664863274
 10
46.27280001013319
 20
-54.98648002097561
 10
46.1763373365462
 20
-54.98648002097561
 10
46.08004691773346
 20
-54.98648002097561
 10
44.78658581779641
 20
-55.08259818501408
 10
44.78658581779641
 20
-55.08259818501408
 97
        0
 75
     0
 76
     1
 98
        0
  0
POLYLINE
  5
3F
330
1F
100
AcDbEntity
  8
STANDARDEBENE
 62
   250
100
AcDb2dPolyline
 66
     1
 10
0.0
 20
0.0
 30
0.0
  0
VERTEX
  5
40
330
3F
100
AcDbEntity
  8
STANDARDEBENE
 62
   250
100
AcDbVertex
100
AcDb2dVertex
 10
67.42499727047014
 20
-35.89169378442985
 30
0.0
  0
VERTEX
  5
41
330
3F
100
AcDbEntity
  8
STANDARDEBENE
 62
   250
100
AcDbVertex
100
AcDb2dVertex
 10
157.6455023477414
 20
-39.04206135091657
 30
0.0
  0
SEQEND
  5
42
330
3F
100
AcDbEntity
  8
STANDARDEBENE
  0
POLYLINE
  5
43
330
1F
100
AcDbEntity
  8
STANDARDEBENE
 62
   250
100
AcDb2dPolyline
 66
     1
 10
0.0
 20
0.0
 30
0.0
  0
VERTEX
  5
44
330
43
100
AcDbEntity
  8
STANDARDEBENE
 62
   250
100
AcDbVertex
100
AcDb2dVertex
 10
160.2996039095779
 20
-41.79038627427462
 30
0.0
  0
VERTEX
  5
45
330
43
100
AcDbEntity
  8
STANDARDEBENE
 62
   250
100
AcDbVertex
100
AcDb2dVertex
 10
160.2996039095779
 20
-48.57929143750795
 30
0.0
  0
SEQEND
  5
46
330
43
100
AcDbEntity
  8
STANDARDEBENE
  0
POLYLINE
  5
47
330
1F
100
AcDbEntity
  8
STANDARDEBENE
 62
   250
100
AcDb2dPolyline
 66
     1
 10
0.0
 20
0.0
 30
0.0
  0
VERTEX
  5
48
330
47
100
AcDbEntity
  8
STANDARDEBENE
 62
   250
100
AcDbVertex
100
AcDb2dVertex
 10
157.6455023477414
 20
-51.32744410609175
 30
0.0
  0
VERTEX
  5
49
330
47
100
AcDbEntity
  8
STANDARDEBENE
 62
   250
100
AcDbVertex
100
AcDb2dVertex
 10
67.42499727047014
 20
-54.47832843690125
 30
0.0
  0
SEQEND
  5
4A
330
47
100
AcDbEntity
  8
STANDARDEBENE
  0
SPLINE
  5
4B
330
1F
100
AcDbEntity
  8
STANDARDEBENE
 62
   250
100
AcDbSpline
210
0.0
220
0.0
230
1.0
 70
     8
 71
     3
 72
     8
 73
     4
 74
     0
 42
0.0000000001
 43
0.0000000001
 40
0.0
 40
0.0
 40
0.0
 40
0.0
 40
1.0
 40
1.0
 40
1.0
 40
1.0
 10
67.42499727047014
 20
-54.47832843690125
 30
0.0
 10
63.19717609097155
 20
-54.62543401412142
 30
0.0
 10
59.36399059930831
 20
-56.23015949115079
 30
0.0
 10
56.42411836697036
 20
-58.76368271100353
 30
0.0
  0
SPLINE
  5
4C
330
1F
100
AcDbEntity
  8
STANDARDEBENE
 62
   250
100
AcDbSpline
210
0.0
220
0.0
230
1.0
 70
     8
 71
     3
 72
     8
 73
     4
 74
     0
 42
0.0000000001
 43
0.0000000001
 40
0.0
 40
0.0
 40
0.0
 40
0.0
 40
1.0
 40
1.0
 40
1.0
 40
1.0
 10
48.04960800665079
 20
-62.76171602163596
 30
0.0
 10
51.29523246330466
 20
-62.16192489765397
 30
0.0
 10
54.17274846735959
 20
-60.71980792752839
 30
0.0
 10
56.42411836697036
 20
-58.76368271100353
 30
0.0
  0
POLYLINE
  5
4D
330
1F
100
AcDbEntity
  8
STANDARDEBENE
 62
   250
100
AcDb2dPolyline
 66
     1
 10
0.0
 20
0.0
 30
0.0
  0
VERTEX
  5
4E
330
4D
100
AcDbEntity
  8
STANDARDEBENE
 62
   250
100
AcDbVertex
100
AcDb2dVertex
 10
44.79967718064036
 20
-60.05800508481189
 30
0.0
  0
VERTEX
  5
4F
330
4D
100
AcDbEntity
  8
STANDARDEBENE
 62
   250
100
AcDbVertex
100
AcDb2dVertex
 10
44.79967718064036
 20
-55.08500975185375
 30
0.0
  0
SEQEND
  5
50
330
4D
100
AcDbEntity
  8
STANDARDEBENE
  0
SPLINE
  5
51
330
1F
100
AcDbEntity
  8
STANDARDEBENE
 62
   250
100
AcDbSpline
210
0.0
220
0.0
230
1.0
 70
     8
 71
     3
 72
     8
 73
     4
 74
     0
 42
0.0000000001
 43
0.0000000001
 40
0.0
 40
0.0
 40
0.0
 40
0.0
 40
1.0
 40
1.0
 40
1.0
 40
1.0
 10
44.79967718064036
 20
-55.08500975185375
 30
0.0
 10
45.71073268171468
 20
-55.08500975185375
 30
0.0
 10
46.59319389026142
 20
-54.96201984303033
 30
0.0
 10
47.36179469302066
 20
-54.74773490384779
 30
0.0
  0
POLYLINE
  5
52
330
1F
100
AcDbEntity
  8
STANDARDEBENE
 62
   250
100
AcDb2dPolyline
 66
     1
 10
0.0
 20
0.0
 30
0.0
  0
VERTEX
  5
53
330
52
100
AcDbEntity
  8
STANDARDEBENE
 62
   250
100
AcDbVertex
100
AcDb2dVertex
 10
47.36179469302066
 20
-54.74773490384779
 30
0.0
  0
VERTEX
  5
54
330
52
100
AcDbEntity
  8
STANDARDEBENE
 62
   250
100
AcDbVertex
100
AcDb2dVertex
 10
47.9310967219582
 20
-56.87266979914989
 30
0.0
  0
SEQEND
  5
55
330
52
100
AcDbEntity
  8
STANDARDEBENE
  0
SPLINE
  5
56
330
1F
100
AcDbEntity
  8
STANDARDEBENE
 62
   250
100
AcDbSpline
210
0.0
220
0.0
230
1.0
 70
     8
 71
     3
 72
     8
 73
     4
 74
     0
 42
0.0000000001
 43
0.0000000001
 40
0.0
 40
0.0
 40
0.0
 40
0.0
 40
1.0
 40
1.0
 40
1.0
 40
1.0
 10
47.9310967219582
 20
-56.87266979914989
 30
0.0
 10
50.44153780205976
 20
-56.20018716042912
 30
0.0
 10
52.55475937271201
 20
-54.78563095418554
 30
0.0
 10
54.06870658370505
 20
-52.96283093293985
 30
0.0
  0
POLYLINE
  5
57
330
1F
100
AcDbEntity
  8
STANDARDEBENE
 62
   250
100
AcDb2dPolyline
 66
     1
 10
0.0
 20
0.0
 30
0.0
  0
VERTEX
  5
58
330
57
100
AcDbEntity
  8
STANDARDEBENE
 62
   250
100
AcDbVertex
100
AcDb2dVertex
 10
54.06870658370505
 20
-52.96283093293985
 30
0.0
  0
VERTEX
  5
59
330
57
100
AcDbEntity
  8
STANDARDEBENE
 62
   250
100
AcDbVertex
100
AcDb2dVertex
 10
52.3830213627723
 20
-51.54861923624479
 30
0.0
  0
SEQEND
  5
5A
330
57
100
AcDbEntity
  8
STANDARDEBENE
  0
SPLINE
  5
5B
330
1F
100
AcDbEntity
  8
STANDARDEBENE
 62
   250
100
AcDbSpline
210
0.0
220
0.0
230
1.0
 70
     8
 71
     3
 72
     8
 73
     4
 74
     0
 42
0.0000000001
 43
0.0000000001
 40
0.0
 40
0.0
 40
0.0
 40
0.0
 40
1.0
 40
1.0
 40
1.0
 40
1.0
 10
52.3830213627723
 20
-51.54861923624479
 30
0.0
 10
53.1641967640527
 20
-50.61775443613028
 30
0.0
 10
53.74452309854304
 20
-49.58560382874943
 30
0.0
 10
54.10246851946049
 20
-48.57102320834336
 30
0.0
  0
POLYLINE
  5
5C
330
1F
100
AcDbEntity
  8
STANDARDEBENE
 62
   250
100
AcDb2dPolyline
 66
     1
 10
0.0
 20
0.0
 30
0.0
  0
VERTEX
  5
5D
330
5C
100
AcDbEntity
  8
STANDARDEBENE
 62
   250
100
AcDbVertex
100
AcDb2dVertex
 10
54.10246851946049
 20
-48.57102320834336
 30
0.0
  0
VERTEX
  5
5E
330
5C
100
AcDbEntity
  8
STANDARDEBENE
 62
   250
100
AcDbVertex
100
AcDb2dVertex
 10
56.1695258106104
 20
-49.32343206232192
 30
0.0
  0
SEQEND
  5
5F
330
5C
100
AcDbEntity
  8
STANDARDEBENE
  0
SPLINE
  5
60
330
1F
100
AcDbEntity
  8
STANDARDEBENE
 62
   250
100
AcDbSpline
210
0.0
220
0.0
230
1.0
 70
     8
 71
     3
 72
     8
 73
     4
 74
     0
 42
0.0000000001
 43
0.0000000001
 40
0.0
 40
0.0
 40
0.0
 40
0.0
 40
1.0
 40
1.0
 40
1.0
 40
1.0
 10
56.89954154393484
 20
-45.18518336543982
 30
0.0
 10
56.89954154393484
 20
-43.70000270174861
 30
0.0
 10
56.63185762473093
 20
-42.27752277588895
 30
0.0
 10
56.1695258106104
 20
-41.04659015900918
 30
0.0
  0
SPLINE
  5
61
330
1F
100
AcDbEntity
  8
STANDARDEBENE
 62
   250
100
AcDbSpline
210
0.0
220
0.0
230
1.0
 70
     8
 71
     3
 72
     8
 73
     4
 74
     0
 42
0.0000000001
 43
0.0000000001
 40
0.0
 40
0.0
 40
0.0
 40
0.0
 40
1.0
 40
1.0
 40
1.0
 40
1.0
 10
56.1695258106104
 20
-49.32343206232192
 30
0.0
 10
56.67784964945901
 20
-47.92782388124721
 30
0.0
 10
56.91297741632732
 20
-46.49983180261115
 30
0.0
 10
56.89954154393484
 20
-45.18518336543982
 30
0.0
  0
POLYLINE
  5
62
330
1F
100
AcDbEntity
  8
STANDARDEBENE
 62
   250
100
AcDb2dPolyline
 66
     1
 10
0.0
 20
0.0
 30
0.0
  0
VERTEX
  5
63
330
62
100
AcDbEntity
  8
STANDARDEBENE
 62
   250
100
AcDbVertex
100
AcDb2dVertex
 10
56.1695258106104
 20
-41.04659015900918
 30
0.0
  0
VERTEX
  5
64
330
62
100
AcDbEntity
  8
STANDARDEBENE
 62
   250
100
AcDbVertex
100
AcDb2dVertex
 10
54.10246851946049
 20
-41.79899901298775
 30
0.0
  0
SEQEND
  5
65
330
62
100
AcDbEntity
  8
STANDARDEBENE
  0
SPLINE
  5
66
330
1F
100
AcDbEntity
  8
STANDARDEBENE
 62
   250
100
AcDbSpline
210
0.0
220
0.0
230
1.0
 70
     8
 71
     3
 72
     8
 73
     4
 74
     0
 42
0.0000000001
 43
0.0000000001
 40
0.0
 40
0.0
 40
0.0
 40
0.0
 40
1.0
 40
1.0
 40
1.0
 40
1.0
 10
54.10246851946049
 20
-41.79899901298775
 30
0.0
 10
53.6868177491651
 20
-40.65729436917596
 30
0.0
 10
53.08306476537507
 20
-39.63857963418758
 30
0.0
 10
52.3830213627723
 20
-38.82140298508632
 30
0.0
  0
POLYLINE
  5
67
330
1F
100
AcDbEntity
  8
STANDARDEBENE
 62
   250
100
AcDb2dPolyline
 66
     1
 10
0.0
 20
0.0
 30
0.0
  0
VERTEX
  5
68
330
67
100
AcDbEntity
  8
STANDARDEBENE
 62
   250
100
AcDbVertex
100
AcDb2dVertex
 10
52.3830213627723
 20
-38.82140298508632
 30
0.0
  0
VERTEX
  5
69
330
67
100
AcDbEntity
  8
STANDARDEBENE
 62
   250
100
AcDbVertex
100
AcDb2dVertex
 10
54.06870658370505
 20
-37.40719128839126
 30
0.0
  0
SEQEND
  5
6A
330
67
100
AcDbEntity
  8
STANDARDEBENE
  0
SPLINE
  5
6B
330
1F
100
AcDbEntity
  8
STANDARDEBENE
 62
   250
100
AcDbSpline
210
0.0
220
0.0
230
1.0
 70
     8
 71
     3
 72
     8
 73
     4
 74
     0
 42
0.0000000001
 43
0.0000000001
 40
0.0
 40
0.0
 40
0.0
 40
0.0
 40
1.0
 40
1.0
 40
1.0
 40
1.0
 10
54.06870658370505
 20
-37.40719128839126
 30
0.0
 10
52.39800752813314
 20
-35.41644286223964
 30
0.0
 10
50.22329100306918
 20
-34.09869383913158
 30
0.0
 10
47.9310967219582
 20
-33.49718016740696
 30
0.0
  0
POLYLINE
  5
6C
330
1F
100
AcDbEntity
  8
STANDARDEBENE
 62
   250
100
AcDb2dPolyline
 66
     1
 10
0.0
 20
0.0
 30
0.0
  0
VERTEX
  5
6D
330
6C
100
AcDbEntity
  8
STANDARDEBENE
 62
   250
100
AcDbVertex
100
AcDb2dVertex
 10
47.9310967219582
 20
-33.49718016740696
 30
0.0
  0
VERTEX
  5
6E
330
6C
100
AcDbEntity
  8
STANDARDEBENE
 62
   250
100
AcDbVertex
100
AcDb2dVertex
 10
47.36179469302066
 20
-35.62211506270906
 30
0.0
  0
SEQEND
  5
6F
330
6C
100
AcDbEntity
  8
STANDARDEBENE
  0
SPLINE
  5
70
330
1F
100
AcDbEntity
  8
STANDARDEBENE
 62
   250
100
AcDbSpline
210
0.0
220
0.0
230
1.0
 70
     8
 71
     3
 72
     8
 73
     4
 74
     0
 42
0.0000000001
 43
0.0000000001
 40
0.0
 40
0.0
 40
0.0
 40
0.0
 40
1.0
 40
1.0
 40
1.0
 40
1.0
 10
47.36179469302066
 20
-35.62211506270906
 30
0.0
 10
46.48157279653933
 20
-35.38612602196945
 30
0.0
 10
45.59704453070144
 20
-35.27691649508702
 30
0.0
 10
44.79967718064036
 20
-35.28466795992883
 30
0.0
  0
POLYLINE
  5
71
330
1F
100
AcDbEntity
  8
STANDARDEBENE
 62
   250
100
AcDb2dPolyline
 66
     1
 10
0.0
 20
0.0
 30
0.0
  0
VERTEX
  5
72
330
71
100
AcDbEntity
  8
STANDARDEBENE
 62
   250
100
AcDbVertex
100
AcDb2dVertex
 10
44.79967718064036
 20
-35.28466795992883
 30
0.0
  0
VERTEX
  5
73
330
71
100
AcDbEntity
  8
STANDARDEBENE
 62
   250
100
AcDbVertex
100
AcDb2dVertex
 10
44.79967718064036
 20
-30.31218939129348
 30
0.0
  0
SEQEND
  5
74
330
71
100
AcDbEntity
  8
STANDARDEBENE
  0
SPLINE
  5
75
330
1F
100
AcDbEntity
  8
STANDARDEBENE
 62
   250
100
AcDbSpline
210
0.0
220
0.0
230
1.0
 70
     8
 71
     3
 72
     8
 73
     4
 74
     0
 42
0.0000000001
 43
0.0000000001
 40
0.0
 40
0.0
 40
0.0
 40
0.0
 40
1.0
 40
1.0
 40
1.0
 40
1.0
 10
56.42411836697036
 20
-31.60616725555332
 30
0.0
 10
53.91677787280553
 20
-29.45987276824267
 30
0.0
 10
50.98672416260055
 20
-28.12851561796787
 30
0.0
 10
48.04960800665079
 20
-27.60796169014662
 30
0.0
  0
SPLINE
  5
76
330
1F
100
AcDbEntity
  8
STANDARDEBENE
 62
   250
100
AcDbSpline
210
0.0
220
0.0
230
1.0
 70
     8
 71
     3
 72
     8
 73
     4
 74
     0
 42
0.0000000001
 43
0.0000000001
 40
0.0
 40
0.0
 40
0.0
 40
0.0
 40
1.0
 40
1.0
 40
1.0
 40
1.0
 10
56.42411836697036
 20
-31.60616725555332
 30
0.0
 10
59.63753118083715
 20
-34.35724825529958
 30
0.0
 10
63.54650877317587
 20
-35.76870387560643
 30
0.0
 10
67.42499727047014
 20
-35.89169378442985
 30
0.0
  0
SPLINE
  5
77
330
1F
100
AcDbEntity
  8
STANDARDEBENE
 62
   250
100
AcDbSpline
210
0.0
220
0.0
230
1.0
 70
     8
 71
     3
 72
    11
 73
     7
 74
     0
 42
0.0000000001
 43
0.0000000001
 40
0.0
 40
0.0
 40
0.0
 40
0.0
 40
1.0
 40
1.0
 40
1.0
 40
2.0
 40
2.0
 40
2.0
 40
2.0
 10
44.79967718064036
 20
-60.05800508481189
 30
0.0
 10
44.79967718064036
 20
-61.57660317471002
 30
0.0
 10
46.03060979752013
 20
-62.80822481068684
 30
0.0
 10
47.54920788741826
 20
-62.80822481068684
 30
0.0
 10
47.72611354058584
 20
-62.80822481068684
 30
0.0
 10
47.89888507917112
 20
-62.79099933326059
 30
0.0
 10
48.04960800665079
 20
-62.76171602163596
 30
0.0
  0
SPLINE
  5
78
330
1F
100
AcDbEntity
  8
STANDARDEBENE
 62
   250
100
AcDbSpline
210
0.0
220
0.0
230
1.0
 70
     8
 71
     3
 72
     8
 73
     4
 74
     0
 42
0.0000000001
 43
0.0000000001
 40
0.0
 40
0.0
 40
0.0
 40
0.0
 40
1.0
 40
1.0
 40
1.0
 40
1.0
 10
157.6455023477414
 20
-51.32744410609175
 30
0.0
 10
159.129649482787
 20
-51.27576767381301
 30
0.0
 10
160.2978813618353
 20
-50.05689289113161
 30
0.0
 10
160.2996039095779
 20
-48.57929143750795
 30
0.0
  0
SPLINE
  5
79
330
1F
100
AcDbEntity
  8
STANDARDEBENE
 62
   250
100
AcDbSpline
210
0.0
220
0.0
230
1.0
 70
     8
 71
     3
 72
     8
 73
     4
 74
     0
 42
0.0000000001
 43
0.0000000001
 40
0.0
 40
0.0
 40
0.0
 40
0.0
 40
1.0
 40
1.0
 40
1.0
 40
1.0
 10
160.2996039095779
 20
-41.79038627427462
 30
0.0
 10
160.2996039095779
 20
-40.30555012013195
 30
0.0
 10
159.122414782268
 20
-39.09511582138942
 30
0.0
 10
157.6455023477414
 20
-39.04206135091657
 30
0.0
  0
SPLINE
  5
7A
330
1F
100
AcDbEntity
  8
STANDARDEBENE
 62
   250
100
AcDbSpline
210
0.0
220
0.0
230
1.0
 70
     8
 71
     3
 72
    11
 73
     7
 74
     0
 42
0.0000000001
 43
0.0000000001
 40
0.0
 40
0.0
 40
0.0
 40
0.0
 40
1.0
 40
1.0
 40
1.0
 40
2.0
 40
2.0
 40
2.0
 40
2.0
 10
48.04960800665079
 20
-27.60796169014662
 30
0.0
 10
47.87580293941994
 20
-27.57557779258527
 30
0.0
 10
47.70268689128613
 20
-27.56041937245017
 30
0.0
 10
47.54920788741826
 20
-27.56179741064427
 30
0.0
 10
46.03060979752013
 20
-27.56179741064427
 30
0.0
 10
44.79967718064036
 20
-28.79307453707257
 30
0.0
 10
44.79967718064036
 20
-30.31218939129348
 30
0.0
  0
POLYLINE
  5
7C
330
1F
100
AcDbEntity
  8
BEMAßUNG
 62
     7
100
AcDb2dPolyline
 66
     1
 10
0.0
 20
0.0
 30
0.0
  0
VERTEX
  5
7D
330
7C
100
AcDbEntity
  8
BEMAßUNG
 62
     7
100
AcDbVertex
100
AcDb2dVertex
 10
160.2996039095779
 20
-41.79038627427462
 30
0.0
  0
VERTEX
  5
7E
330
7C
100
AcDbEntity
  8
BEMAßUNG
 62
     7
100
AcDbVertex
100
AcDb2dVertex
 10
160.2996039095779
 20
-20.89381509894321
 30
0.0
  0
SEQEND
  5
7F
330
7C
100
AcDbEntity
  8
BEMAßUNG
  0
POLYLINE
  5
80
330
1F
100
AcDbEntity
  8
BEMAßUNG
 62
     7
100
AcDb2dPolyline
 66
     1
 10
0.0
 20
0.0
 30
0.0
  0
VERTEX
  5
81
330
80
100
AcDbEntity
  8
BEMAßUNG
 62
     7
100
AcDbVertex
100
AcDb2dVertex
 10
44.79967718064036
 20
-30.31218939129348
 30
0.0
  0
VERTEX
  5
82
330
80
100
AcDbEntity
  8
BEMAßUNG
 62
     7
100
AcDbVertex
100
AcDb2dVertex
 10
44.79967718064036
 20
-20.89381509894321
 30
0.0
  0
SEQEND
  5
83
330
80
100
AcDbEntity
  8
BEMAßUNG
  0
POLYLINE
  5
84
330
1F
100
AcDbEntity
  8
BEMAßUNG
 62
     7
100
AcDb2dPolyline
 66
     1
 10
0.0
 20
0.0
 30
0.0
  0
VERTEX
  5
85
330
84
100
AcDbEntity
  8
BEMAßUNG
 62
     7
100
AcDbVertex
100
AcDb2dVertex
 10
160.2996039095779
 20
-21.99366183260922
 30
0.0
  0
VERTEX
  5
86
330
84
100
AcDbEntity
  8
BEMAßUNG
 62
     7
100
AcDbVertex
100
AcDb2dVertex
 10
44.79967718064036
 20
-21.99366183260922
 30
0.0
  0
SEQEND
  5
87
330
84
100
AcDbEntity
  8
BEMAßUNG
  0
POLYLINE
  5
88
330
1F
100
AcDbEntity
  8
BEMAßUNG
 62
     7
100
AcDb2dPolyline
 66
     1
 10
0.0
 20
0.0
 30
0.0
  0
VERTEX
  5
89
330
88
100
AcDbEntity
  8
BEMAßUNG
 62
     7
100
AcDbVertex
100
AcDb2dVertex
 10
160.2996039095779
 20
-21.99366183260922
 30
0.0
  0
VERTEX
  5
8A
330
88
100
AcDbEntity
  8
BEMAßUNG
 62
     7
100
AcDbVertex
100
AcDb2dVertex
 10
158.9246663014147
 20
-21.81262206485934
 30
0.0
  0
VERTEX
  5
8B
330
88
100
AcDbEntity
  8
BEMAßUNG
 62
     7
100
AcDbVertex
100
AcDb2dVertex
 10
158.9246663014147
 20
-22.1747016003591
 30
0.0
  0
VERTEX
  5
8C
330
88
100
AcDbEntity
  8
BEMAßUNG
 62
     7
100
AcDbVertex
100
AcDb2dVertex
 10
160.2996039095779
 20
-21.99366183260922
 30
0.0
  0
SEQEND
  5
8D
330
88
100
AcDbEntity
  8
BEMAßUNG
  0
POLYLINE
  5
8E
330
1F
100
AcDbEntity
  8
BEMAßUNG
 62
     7
100
AcDb2dPolyline
 66
     1
 10
0.0
 20
0.0
 30
0.0
  0
VERTEX
  5
8F
330
8E
100
AcDbEntity
  8
BEMAßUNG
 62
     7
100
AcDbVertex
100
AcDb2dVertex
 10
158.9246663014147
 20
-21.82605793725182
 30
0.0
  0
VERTEX
  5
90
330
8E
100
AcDbEntity
  8
BEMAßUNG
 62
     7
100
AcDbVertex
100
AcDb2dVertex
 10
159.0262966182295
 20
-21.82605793725182
 30
0.0
  0
SEQEND
  5
91
330
8E
100
AcDbEntity
  8
BEMAßUNG
  0
POLYLINE
  5
92
330
1F
100
AcDbEntity
  8
BEMAßUNG
 62
     7
100
AcDb2dPolyline
 66
     1
 10
0.0
 20
0.0
 30
0.0
  0
VERTEX
  5
93
330
92
100
AcDbEntity
  8
BEMAßUNG
 62
     7
100
AcDbVertex
100
AcDb2dVertex
 10
158.9246663014147
 20
-21.82605793725182
 30
0.0
  0
VERTEX
  5
94
330
92
100
AcDbEntity
  8
BEMAßUNG
 62
     7
100
AcDbVertex
100
AcDb2dVertex
 10
159.0262966182295
 20
-21.82605793725182
 30
0.0
  0
SEQEND
  5
95
330
92
100
AcDbEntity
  8
BEMAßUNG
  0
POLYLINE
  5
96
330
1F
100
AcDbEntity
  8
BEMAßUNG
 62
     7
100
AcDb2dPolyline
 66
     1
 10
0.0
 20
0.0
 30
0.0
  0
VERTEX
  5
97
330
96
100
AcDbEntity
  8
BEMAßUNG
 62
     7
100
AcDbVertex
100
AcDb2dVertex
 10
158.9246663014147
 20
-21.85396321068234
 30
0.0
  0
VERTEX
  5
98
330
96
100
AcDbEntity
  8
BEMAßUNG
 62
     7
100
AcDbVertex
100
AcDb2dVertex
 10
159.2385145001209
 20
-21.85396321068234
 30
0.0
  0
SEQEND
  5
99
330
96
100
AcDbEntity
  8
BEMAßUNG
  0
POLYLINE
  5
9A
330
1F
100
AcDbEntity
  8
BEMAßUNG
 62
     7
100
AcDb2dPolyline
 66
     1
 10
0.0
 20
0.0
 30
0.0
  0
VERTEX
  5
9B
330
9A
100
AcDbEntity
  8
BEMAßUNG
 62
     7
100
AcDbVertex
100
AcDb2dVertex
 10
158.9246663014147
 20
-21.88186848411287
 30
0.0
  0
VERTEX
  5
9C
330
9A
100
AcDbEntity
  8
BEMAßUNG
 62
     7
100
AcDbVertex
100
AcDb2dVertex
 10
159.4507323820123
 20
-21.88186848411287
 30
0.0
  0
SEQEND
  5
9D
330
9A
100
AcDbEntity
  8
BEMAßUNG
  0
POLYLINE
  5
9E
330
1F
100
AcDbEntity
  8
BEMAßUNG
 62
     7
100
AcDb2dPolyline
 66
     1
 10
0.0
 20
0.0
 30
0.0
  0
VERTEX
  5
9F
330
9E
100
AcDbEntity
  8
BEMAßUNG
 62
     7
100
AcDbVertex
100
AcDb2dVertex
 10
158.9246663014147
 20
-21.90977375754339
 30
0.0
  0
VERTEX
  5
A0
330
9E
100
AcDbEntity
  8
BEMAßUNG
 62
     7
100
AcDbVertex
100
AcDb2dVertex
 10
159.6629502639037
 20
-21.90977375754339
 30
0.0
  0
SEQEND
  5
A1
330
9E
100
AcDbEntity
  8
BEMAßUNG
  0
POLYLINE
  5
A2
330
1F
100
AcDbEntity
  8
BEMAßUNG
 62
     7
100
AcDb2dPolyline
 66
     1
 10
0.0
 20
0.0
 30
0.0
  0
VERTEX
  5
A3
330
A2
100
AcDbEntity
  8
BEMAßUNG
 62
     7
100
AcDbVertex
100
AcDb2dVertex
 10
158.9246663014147
 20
-21.93767903097391
 30
0.0
  0
VERTEX
  5
A4
330
A2
100
AcDbEntity
  8
BEMAßUNG
 62
     7
100
AcDbVertex
100
AcDb2dVertex
 10
159.8751681457951
 20
-21.93767903097391
 30
0.0
  0
SEQEND
  5
A5
330
A2
100
AcDbEntity
  8
BEMAßUNG
  0
POLYLINE
  5
A6
330
1F
100
AcDbEntity
  8
BEMAßUNG
 62
     7
100
AcDb2dPolyline
 66
     1
 10
0.0
 20
0.0
 30
0.0
  0
VERTEX
  5
A7
330
A6
100
AcDbEntity
  8
BEMAßUNG
 62
     7
100
AcDbVertex
100
AcDb2dVertex
 10
158.9246663014147
 20
-21.9657565591787
 30
0.0
  0
VERTEX
  5
A8
330
A6
100
AcDbEntity
  8
BEMAßUNG
 62
     7
100
AcDbVertex
100
AcDb2dVertex
 10
160.0873860276865
 20
-21.9657565591787
 30
0.0
  0
SEQEND
  5
A9
330
A6
100
AcDbEntity
  8
BEMAßUNG
  0
POLYLINE
  5
AA
330
1F
100
AcDbEntity
  8
BEMAßUNG
 62
     7
100
AcDb2dPolyline
 66
     1
 10
0.0
 20
0.0
 30
0.0
  0
VERTEX
  5
AB
330
AA
100
AcDbEntity
  8
BEMAßUNG
 62
     7
100
AcDbVertex
100
AcDb2dVertex
 10
158.9246663014147
 20
-21.99366183260922
 30
0.0
  0
VERTEX
  5
AC
330
AA
100
AcDbEntity
  8
BEMAßUNG
 62
     7
100
AcDbVertex
100
AcDb2dVertex
 10
160.2996039095779
 20
-21.99366183260922
 30
0.0
  0
SEQEND
  5
AD
330
AA
100
AcDbEntity
  8
BEMAßUNG
  0
POLYLINE
  5
AE
330
1F
100
AcDbEntity
  8
BEMAßUNG
 62
     7
100
AcDb2dPolyline
 66
     1
 10
0.0
 20
0.0
 30
0.0
  0
VERTEX
  5
AF
330
AE
100
AcDbEntity
  8
BEMAßUNG
 62
     7
100
AcDbVertex
100
AcDb2dVertex
 10
158.9246663014147
 20
-22.16143798274089
 30
0.0
  0
VERTEX
  5
B0
330
AE
100
AcDbEntity
  8
BEMAßUNG
 62
     7
100
AcDbVertex
100
AcDb2dVertex
 10
159.0262966182295
 20
-22.16143798274089
 30
0.0
  0
SEQEND
  5
B1
330
AE
100
AcDbEntity
  8
BEMAßUNG
  0
POLYLINE
  5
B2
330
1F
100
AcDbEntity
  8
BEMAßUNG
 62
     7
100
AcDb2dPolyline
 66
     1
 10
0.0
 20
0.0
 30
0.0
  0
VERTEX
  5
B3
330
B2
100
AcDbEntity
  8
BEMAßUNG
 62
     7
100
AcDbVertex
100
AcDb2dVertex
 10
158.9246663014147
 20
-22.16143798274089
 30
0.0
  0
VERTEX
  5
B4
330
B2
100
AcDbEntity
  8
BEMAßUNG
 62
     7
100
AcDbVertex
100
AcDb2dVertex
 10
159.0262966182295
 20
-22.16143798274089
 30
0.0
  0
SEQEND
  5
B5
330
B2
100
AcDbEntity
  8
BEMAßUNG
  0
POLYLINE
  5
B6
330
1F
100
AcDbEntity
  8
BEMAßUNG
 62
     7
100
AcDb2dPolyline
 66
     1
 10
0.0
 20
0.0
 30
0.0
  0
VERTEX
  5
B7
330
B6
100
AcDbEntity
  8
BEMAßUNG
 62
     7
100
AcDbVertex
100
AcDb2dVertex
 10
158.9246663014147
 20
-22.13353270931037
 30
0.0
  0
VERTEX
  5
B8
330
B6
100
AcDbEntity
  8
BEMAßUNG
 62
     7
100
AcDbVertex
100
AcDb2dVertex
 10
159.2385145001209
 20
-22.13353270931037
 30
0.0
  0
SEQEND
  5
B9
330
B6
100
AcDbEntity
  8
BEMAßUNG
  0
POLYLINE
  5
BA
330
1F
100
AcDbEntity
  8
BEMAßUNG
 62
     7
100
AcDb2dPolyline
 66
     1
 10
0.0
 20
0.0
 30
0.0
  0
VERTEX
  5
BB
330
BA
100
AcDbEntity
  8
BEMAßUNG
 62
     7
100
AcDbVertex
100
AcDb2dVertex
 10
158.9246663014147
 20
-22.10562743587984
 30
0.0
  0
VERTEX
  5
BC
330
BA
100
AcDbEntity
  8
BEMAßUNG
 62
     7
100
AcDbVertex
100
AcDb2dVertex
 10
159.4507323820123
 20
-22.10562743587984
 30
0.0
  0
SEQEND
  5
BD
330
BA
100
AcDbEntity
  8
BEMAßUNG
  0
POLYLINE
  5
BE
330
1F
100
AcDbEntity
  8
BEMAßUNG
 62
     7
100
AcDb2dPolyline
 66
     1
 10
0.0
 20
0.0
 30
0.0
  0
VERTEX
  5
BF
330
BE
100
AcDbEntity
  8
BEMAßUNG
 62
     7
100
AcDbVertex
100
AcDb2dVertex
 10
158.9246663014147
 20
-22.07772216244932
 30
0.0
  0
VERTEX
  5
C0
330
BE
100
AcDbEntity
  8
BEMAßUNG
 62
     7
100
AcDbVertex
100
AcDb2dVertex
 10
159.6629502639037
 20
-22.07772216244932
 30
0.0
  0
SEQEND
  5
C1
330
BE
100
AcDbEntity
  8
BEMAßUNG
  0
POLYLINE
  5
C2
330
1F
100
AcDbEntity
  8
BEMAßUNG
 62
     7
100
AcDb2dPolyline
 66
     1
 10
0.0
 20
0.0
 30
0.0
  0
VERTEX
  5
C3
330
C2
100
AcDbEntity
  8
BEMAßUNG
 62
     7
100
AcDbVertex
100
AcDb2dVertex
 10
158.9246663014147
 20
-22.04947237947027
 30
0.0
  0
VERTEX
  5
C4
330
C2
100
AcDbEntity
  8
BEMAßUNG
 62
     7
100
AcDbVertex
100
AcDb2dVertex
 10
159.8751681457951
 20
-22.04947237947027
 30
0.0
  0
SEQEND
  5
C5
330
C2
100
AcDbEntity
  8
BEMAßUNG
  0
POLYLINE
  5
C6
330
1F
100
AcDbEntity
  8
BEMAßUNG
 62
     7
100
AcDb2dPolyline
 66
     1
 10
0.0
 20
0.0
 30
0.0
  0
VERTEX
  5
C7
330
C6
100
AcDbEntity
  8
BEMAßUNG
 62
     7
100
AcDbVertex
100
AcDb2dVertex
 10
158.9246663014147
 20
-22.02156710603975
 30
0.0
  0
VERTEX
  5
C8
330
C6
100
AcDbEntity
  8
BEMAßUNG
 62
     7
100
AcDbVertex
100
AcDb2dVertex
 10
160.0873860276865
 20
-22.02156710603975
 30
0.0
  0
SEQEND
  5
C9
330
C6
100
AcDbEntity
  8
BEMAßUNG
  0
POLYLINE
  5
CA
330
1F
100
AcDbEntity
  8
BEMAßUNG
 62
     7
100
AcDb2dPolyline
 66
     1
 10
0.0
 20
0.0
 30
0.0
  0
VERTEX
  5
CB
330
CA
100
AcDbEntity
  8
BEMAßUNG
 62
     7
100
AcDbVertex
100
AcDb2dVertex
 10
158.9246663014147
 20
-21.99366183260922
 30
0.0
  0
VERTEX
  5
CC
330
CA
100
AcDbEntity
  8
BEMAßUNG
 62
     7
100
AcDbVertex
100
AcDb2dVertex
 10
160.2996039095779
 20
-21.99366183260922
 30
0.0
  0
SEQEND
  5
CD
330
CA
100
AcDbEntity
  8
BEMAßUNG
  0
POLYLINE
  5
CE
330
1F
100
AcDbEntity
  8
BEMAßUNG
 62
     7
100
AcDb2dPolyline
 66
     1
 10
0.0
 20
0.0
 30
0.0
  0
VERTEX
  5
CF
330
CE
100
AcDbEntity
  8
BEMAßUNG
 62
     7
100
AcDbVertex
100
AcDb2dVertex
 10
44.79967718064036
 20
-21.99366183260922
 30
0.0
  0
VERTEX
  5
D0
330
CE
100
AcDbEntity
  8
BEMAßUNG
 62
     7
100
AcDbVertex
100
AcDb2dVertex
 10
46.17461478880357
 20
-22.1747016003591
 30
0.0
  0
VERTEX
  5
D1
330
CE
100
AcDbEntity
  8
BEMAßUNG
 62
     7
100
AcDbVertex
100
AcDb2dVertex
 10
46.17461478880357
 20
-21.81262206485934
 30
0.0
  0
VERTEX
  5
D2
330
CE
100
AcDbEntity
  8
BEMAßUNG
 62
     7
100
AcDbVertex
100
AcDb2dVertex
 10
44.79967718064036
 20
-21.99366183260922
 30
0.0
  0
SEQEND
  5
D3
330
CE
100
AcDbEntity
  8
BEMAßUNG
  0
POLYLINE
  5
D4
330
1F
100
AcDbEntity
  8
BEMAßUNG
 62
     7
100
AcDb2dPolyline
 66
     1
 10
0.0
 20
0.0
 30
0.0
  0
VERTEX
  5
D5
330
D4
100
AcDbEntity
  8
BEMAßUNG
 62
     7
100
AcDbVertex
100
AcDb2dVertex
 10
46.17461478880357
 20
-22.16143798274089
 30
0.0
  0
VERTEX
  5
D6
330
D4
100
AcDbEntity
  8
BEMAßUNG
 62
     7
100
AcDbVertex
100
AcDb2dVertex
 10
46.07281221721444
 20
-22.16143798274089
 30
0.0
  0
SEQEND
  5
D7
330
D4
100
AcDbEntity
  8
BEMAßUNG
  0
POLYLINE
  5
D8
330
1F
100
AcDbEntity
  8
BEMAßUNG
 62
     7
100
AcDb2dPolyline
 66
     1
 10
0.0
 20
0.0
 30
0.0
  0
VERTEX
  5
D9
330
D8
100
AcDbEntity
  8
BEMAßUNG
 62
     7
100
AcDbVertex
100
AcDb2dVertex
 10
46.17461478880357
 20
-22.16143798274089
 30
0.0
  0
VERTEX
  5
DA
330
D8
100
AcDbEntity
  8
BEMAßUNG
 62
     7
100
AcDbVertex
100
AcDb2dVertex
 10
46.07281221721444
 20
-22.16143798274089
 30
0.0
  0
SEQEND
  5
DB
330
D8
100
AcDbEntity
  8
BEMAßUNG
  0
POLYLINE
  5
DC
330
1F
100
AcDbEntity
  8
BEMAßUNG
 62
     7
100
AcDb2dPolyline
 66
     1
 10
0.0
 20
0.0
 30
0.0
  0
VERTEX
  5
DD
330
DC
100
AcDbEntity
  8
BEMAßUNG
 62
     7
100
AcDbVertex
100
AcDb2dVertex
 10
46.17461478880357
 20
-22.13353270931037
 30
0.0
  0
VERTEX
  5
DE
330
DC
100
AcDbEntity
  8
BEMAßUNG
 62
     7
100
AcDbVertex
100
AcDb2dVertex
 10
45.86076659009731
 20
-22.13353270931037
 30
0.0
  0
SEQEND
  5
DF
330
DC
100
AcDbEntity
  8
BEMAßUNG
  0
POLYLINE
  5
E0
330
1F
100
AcDbEntity
  8
BEMAßUNG
 62
     7
100
AcDb2dPolyline
 66
     1
 10
0.0
 20
0.0
 30
0.0
  0
VERTEX
  5
E1
330
E0
100
AcDbEntity
  8
BEMAßUNG
 62
     7
100
AcDbVertex
100
AcDb2dVertex
 10
46.17461478880357
 20
-22.10562743587984
 30
0.0
  0
VERTEX
  5
E2
330
E0
100
AcDbEntity
  8
BEMAßUNG
 62
     7
100
AcDbVertex
100
AcDb2dVertex
 10
45.64837645343166
 20
-22.10562743587984
 30
0.0
  0
SEQEND
  5
E3
330
E0
100
AcDbEntity
  8
BEMAßUNG
  0
POLYLINE
  5
E4
330
1F
100
AcDbEntity
  8
BEMAßUNG
 62
     7
100
AcDb2dPolyline
 66
     1
 10
0.0
 20
0.0
 30
0.0
  0
VERTEX
  5
E5
330
E4
100
AcDbEntity
  8
BEMAßUNG
 62
     7
100
AcDbVertex
100
AcDb2dVertex
 10
46.17461478880357
 20
-22.07772216244932
 30
0.0
  0
VERTEX
  5
E6
330
E4
100
AcDbEntity
  8
BEMAßUNG
 62
     7
100
AcDbVertex
100
AcDb2dVertex
 10
45.43615857154027
 20
-22.07772216244932
 30
0.0
  0
SEQEND
  5
E7
330
E4
100
AcDbEntity
  8
BEMAßUNG
  0
POLYLINE
  5
E8
330
1F
100
AcDbEntity
  8
BEMAßUNG
 62
     7
100
AcDb2dPolyline
 66
     1
 10
0.0
 20
0.0
 30
0.0
  0
VERTEX
  5
E9
330
E8
100
AcDbEntity
  8
BEMAßUNG
 62
     7
100
AcDbVertex
100
AcDb2dVertex
 10
46.17461478880357
 20
-22.04947237947027
 30
0.0
  0
VERTEX
  5
EA
330
E8
100
AcDbEntity
  8
BEMAßUNG
 62
     7
100
AcDbVertex
100
AcDb2dVertex
 10
45.22359618010035
 20
-22.04947237947027
 30
0.0
  0
SEQEND
  5
EB
330
E8
100
AcDbEntity
  8
BEMAßUNG
  0
POLYLINE
  5
EC
330
1F
100
AcDbEntity
  8
BEMAßUNG
 62
     7
100
AcDb2dPolyline
 66
     1
 10
0.0
 20
0.0
 30
0.0
  0
VERTEX
  5
ED
330
EC
100
AcDbEntity
  8
BEMAßUNG
 62
     7
100
AcDbVertex
100
AcDb2dVertex
 10
46.17461478880357
 20
-22.02156710603975
 30
0.0
  0
VERTEX
  5
EE
330
EC
100
AcDbEntity
  8
BEMAßUNG
 62
     7
100
AcDbVertex
100
AcDb2dVertex
 10
45.01172280775749
 20
-22.02156710603975
 30
0.0
  0
SEQEND
  5
EF
330
EC
100
AcDbEntity
  8
BEMAßUNG
  0
POLYLINE
  5
F0
330
1F
100
AcDbEntity
  8
BEMAßUNG
 62
     7
100
AcDb2dPolyline
 66
     1
 10
0.0
 20
0.0
 30
0.0
  0
VERTEX
  5
F1
330
F0
100
AcDbEntity
  8
BEMAßUNG
 62
     7
100
AcDbVertex
100
AcDb2dVertex
 10
46.17461478880357
 20
-21.99366183260922
 30
0.0
  0
VERTEX
  5
F2
330
F0
100
AcDbEntity
  8
BEMAßUNG
 62
     7
100
AcDbVertex
100
AcDb2dVertex
 10
44.79967718064036
 20
-21.99366183260922
 30
0.0
  0
SEQEND
  5
F3
330
F0
100
AcDbEntity
  8
BEMAßUNG
  0
POLYLINE
  5
F4
330
1F
100
AcDbEntity
  8
BEMAßUNG
 62
     7
100
AcDb2dPolyline
 66
     1
 10
0.0
 20
0.0
 30
0.0
  0
VERTEX
  5
F5
330
F4
100
AcDbEntity
  8
BEMAßUNG
 62
     7
100
AcDbVertex
100
AcDb2dVertex
 10
46.17461478880357
 20
-21.82605793725182
 30
0.0
  0
VERTEX
  5
F6
330
F4
100
AcDbEntity
  8
BEMAßUNG
 62
     7
100
AcDbVertex
100
AcDb2dVertex
 10
46.07281221721444
 20
-21.82605793725182
 30
0.0
  0
SEQEND
  5
F7
330
F4
100
AcDbEntity
  8
BEMAßUNG
  0
POLYLINE
  5
F8
330
1F
100
AcDbEntity
  8
BEMAßUNG
 62
     7
100
AcDb2dPolyline
 66
     1
 10
0.0
 20
0.0
 30
0.0
  0
VERTEX
  5
F9
330
F8
100
AcDbEntity
  8
BEMAßUNG
 62
     7
100
AcDbVertex
100
AcDb2dVertex
 10
46.17461478880357
 20
-21.82605793725182
 30
0.0
  0
VERTEX
  5
FA
330
F8
100
AcDbEntity
  8
BEMAßUNG
 62
     7
100
AcDbVertex
100
AcDb2dVertex
 10
46.07281221721444
 20
-21.82605793725182
 30
0.0
  0
SEQEND
  5
FB
330
F8
100
AcDbEntity
  8
BEMAßUNG
  0
POLYLINE
  5
FC
330
1F
100
AcDbEntity
  8
BEMAßUNG
 62
     7
100
AcDb2dPolyline
 66
     1
 10
0.0
 20
0.0
 30
0.0
  0
VERTEX
  5
FD
330
FC
100
AcDbEntity
  8
BEMAßUNG
 62
     7
100
AcDbVertex
100
AcDb2dVertex
 10
46.17461478880357
 20
-21.85396321068234
 30
0.0
  0
VERTEX
  5
FE
330
FC
100
AcDbEntity
  8
BEMAßUNG
 62
     7
100
AcDbVertex
100
AcDb2dVertex
 10
45.86076659009731
 20
-21.85396321068234
 30
0.0
  0
SEQEND
  5
FF
330
FC
100
AcDbEntity
  8
BEMAßUNG
  0
POLYLINE
  5
100
330
1F
100
AcDbEntity
  8
BEMAßUNG
 62
     7
100
AcDb2dPolyline
 66
     1
 10
0.0
 20
0.0
 30
0.0
  0
VERTEX
  5
101
330
100
100
AcDbEntity
  8
BEMAßUNG
 62
     7
100
AcDbVertex
100
AcDb2dVertex
 10
46.17461478880357
 20
-21.88186848411287
 30
0.0
  0
VERTEX
  5
102
330
100
100
AcDbEntity
  8
BEMAßUNG
 62
     7
100
AcDbVertex
100
AcDb2dVertex
 10
45.64837645343166
 20
-21.88186848411287
 30
0.0
  0
SEQEND
  5
103
330
100
100
AcDbEntity
  8
BEMAßUNG
  0
POLYLINE
  5
104
330
1F
100
AcDbEntity
  8
BEMAßUNG
 62
     7
100
AcDb2dPolyline
 66
     1
 10
0.0
 20
0.0
 30
0.0
  0
VERTEX
  5
105
330
104
100
AcDbEntity
  8
BEMAßUNG
 62
     7
100
AcDbVertex
100
AcDb2dVertex
 10
46.17461478880357
 20
-21.90977375754339
 30
0.0
  0
VERTEX
  5
106
330
104
100
AcDbEntity
  8
BEMAßUNG
 62
     7
100
AcDbVertex
100
AcDb2dVertex
 10
45.43615857154027
 20
-21.90977375754339
 30
0.0
  0
SEQEND
  5
107
330
104
100
AcDbEntity
  8
BEMAßUNG
  0
POLYLINE
  5
108
330
1F
100
AcDbEntity
  8
BEMAßUNG
 62
     7
100
AcDb2dPolyline
 66
     1
 10
0.0
 20
0.0
 30
0.0
  0
VERTEX
  5
109
330
108
100
AcDbEntity
  8
BEMAßUNG
 62
     7
100
AcDbVertex
100
AcDb2dVertex
 10
46.17461478880357
 20
-21.93767903097391
 30
0.0
  0
VERTEX
  5
10A
330
108
100
AcDbEntity
  8
BEMAßUNG
 62
     7
100
AcDbVertex
100
AcDb2dVertex
 10
45.22359618010035
 20
-21.93767903097391
 30
0.0
  0
SEQEND
  5
10B
330
108
100
AcDbEntity
  8
BEMAßUNG
  0
POLYLINE
  5
10C
330
1F
100
AcDbEntity
  8
BEMAßUNG
 62
     7
100
AcDb2dPolyline
 66
     1
 10
0.0
 20
0.0
 30
0.0
  0
VERTEX
  5
10D
330
10C
100
AcDbEntity
  8
BEMAßUNG
 62
     7
100
AcDbVertex
100
AcDb2dVertex
 10
46.17461478880357
 20
-21.9657565591787
 30
0.0
  0
VERTEX
  5
10E
330
10C
100
AcDbEntity
  8
BEMAßUNG
 62
     7
100
AcDbVertex
100
AcDb2dVertex
 10
45.01172280775749
 20
-21.9657565591787
 30
0.0
  0
SEQEND
  5
10F
330
10C
100
AcDbEntity
  8
BEMAßUNG
  0
POLYLINE
  5
110
330
1F
100
AcDbEntity
  8
BEMAßUNG
 62
     7
100
AcDb2dPolyline
 66
     1
 10
0.0
 20
0.0
 30
0.0
  0
VERTEX
  5
111
330
110
100
AcDbEntity
  8
BEMAßUNG
 62
     7
100
AcDbVertex
100
AcDb2dVertex
 10
46.17461478880357
 20
-21.99366183260922
 30
0.0
  0
VERTEX
  5
112
330
110
100
AcDbEntity
  8
BEMAßUNG
 62
     7
100
AcDbVertex
100
AcDb2dVertex
 10
44.79967718064036
 20
-21.99366183260922
 30
0.0
  0
SEQEND
  5
113
330
110
100
AcDbEntity
  8
BEMAßUNG
  0
POLYLINE
  5
114
330
1F
100
AcDbEntity
  8
BEMAßUNG
 62
     7
100
AcDb2dPolyline
 66
     1
 10
0.0
 20
0.0
 30
0.0
  0
VERTEX
  5
115
330
114
100
AcDbEntity
  8
BEMAßUNG
 62
     7
100
AcDbVertex
100
AcDb2dVertex
 10
48.04960800665079
 20
-27.60796169014662
 30
0.0
  0
VERTEX
  5
116
330
114
100
AcDbEntity
  8
BEMAßUNG
 62
     7
100
AcDbVertex
100
AcDb2dVertex
 10
38.16166719966098
 20
-27.60796169014662
 30
0.0
  0
SEQEND
  5
117
330
114
100
AcDbEntity
  8
BEMAßUNG
  0
POLYLINE
  5
118
330
1F
100
AcDbEntity
  8
BEMAßUNG
 62
     7
100
AcDb2dPolyline
 66
     1
 10
0.0
 20
0.0
 30
0.0
  0
VERTEX
  5
119
330
118
100
AcDbEntity
  8
BEMAßUNG
 62
     7
100
AcDbVertex
100
AcDb2dVertex
 10
48.04960800665079
 20
-62.76171602163596
 30
0.0
  0
VERTEX
  5
11A
330
118
100
AcDbEntity
  8
BEMAßUNG
 62
     7
100
AcDbVertex
100
AcDb2dVertex
 10
38.16166719966098
 20
-62.76171602163596
 30
0.0
  0
SEQEND
  5
11B
330
118
100
AcDbEntity
  8
BEMAßUNG
  0
POLYLINE
  5
11C
330
1F
100
AcDbEntity
  8
BEMAßUNG
 62
     7
100
AcDb2dPolyline
 66
     1
 10
0.0
 20
0.0
 30
0.0
  0
VERTEX
  5
11D
330
11C
100
AcDbEntity
  8
BEMAßUNG
 62
     7
100
AcDbVertex
100
AcDb2dVertex
 10
39.26116942377846
 20
-27.60796169014662
 30
0.0
  0
VERTEX
  5
11E
330
11C
100
AcDbEntity
  8
BEMAßUNG
 62
     7
100
AcDbVertex
100
AcDb2dVertex
 10
39.26116942377846
 20
-62.76171602163596
 30
0.0
  0
SEQEND
  5
11F
330
11C
100
AcDbEntity
  8
BEMAßUNG
  0
POLYLINE
  5
120
330
1F
100
AcDbEntity
  8
BEMAßUNG
 62
     7
100
AcDb2dPolyline
 66
     1
 10
0.0
 20
0.0
 30
0.0
  0
VERTEX
  5
121
330
120
100
AcDbEntity
  8
BEMAßUNG
 62
     7
100
AcDbVertex
100
AcDb2dVertex
 10
39.26116942377846
 20
-27.60796169014662
 30
0.0
  0
VERTEX
  5
122
330
120
100
AcDbEntity
  8
BEMAßUNG
 62
     7
100
AcDbVertex
100
AcDb2dVertex
 10
39.08047416557711
 20
-28.98289929830983
 30
0.0
  0
VERTEX
  5
123
330
120
100
AcDbEntity
  8
BEMAßUNG
 62
     7
100
AcDbVertex
100
AcDb2dVertex
 10
39.44220919152834
 20
-28.98289929830983
 30
0.0
  0
VERTEX
  5
124
330
120
100
AcDbEntity
  8
BEMAßUNG
 62
     7
100
AcDbVertex
100
AcDb2dVertex
 10
39.26116942377846
 20
-27.60796169014662
 30
0.0
  0
SEQEND
  5
125
330
120
100
AcDbEntity
  8
BEMAßUNG
  0
POLYLINE
  5
126
330
1F
100
AcDbEntity
  8
BEMAßUNG
 62
     7
100
AcDb2dPolyline
 66
     1
 10
0.0
 20
0.0
 30
0.0
  0
VERTEX
  5
127
330
126
100
AcDbEntity
  8
BEMAßUNG
 62
     7
100
AcDbVertex
100
AcDb2dVertex
 10
39.09373778319532
 20
-28.98289929830983
 30
0.0
  0
VERTEX
  5
128
330
126
100
AcDbEntity
  8
BEMAßUNG
 62
     7
100
AcDbVertex
100
AcDb2dVertex
 10
39.09373778319532
 20
-28.8810967267207
 30
0.0
  0
SEQEND
  5
129
330
126
100
AcDbEntity
  8
BEMAßUNG
  0
POLYLINE
  5
12A
330
1F
100
AcDbEntity
  8
BEMAßUNG
 62
     7
100
AcDb2dPolyline
 66
     1
 10
0.0
 20
0.0
 30
0.0
  0
VERTEX
  5
12B
330
12A
100
AcDbEntity
  8
BEMAßUNG
 62
     7
100
AcDbVertex
100
AcDb2dVertex
 10
39.09373778319532
 20
-28.98289929830983
 30
0.0
  0
VERTEX
  5
12C
330
12A
100
AcDbEntity
  8
BEMAßUNG
 62
     7
100
AcDbVertex
100
AcDb2dVertex
 10
39.09373778319532
 20
-28.8810967267207
 30
0.0
  0
SEQEND
  5
12D
330
12A
100
AcDbEntity
  8
BEMAßUNG
  0
POLYLINE
  5
12E
330
1F
100
AcDbEntity
  8
BEMAßUNG
 62
     7
100
AcDb2dPolyline
 66
     1
 10
0.0
 20
0.0
 30
0.0
  0
VERTEX
  5
12F
330
12E
100
AcDbEntity
  8
BEMAßUNG
 62
     7
100
AcDbVertex
100
AcDb2dVertex
 10
39.12181531140011
 20
-28.98289929830983
 30
0.0
  0
VERTEX
  5
130
330
12E
100
AcDbEntity
  8
BEMAßUNG
 62
     7
100
AcDbVertex
100
AcDb2dVertex
 10
39.12181531140011
 20
-28.66870659005505
 30
0.0
  0
SEQEND
  5
131
330
12E
100
AcDbEntity
  8
BEMAßUNG
  0
POLYLINE
  5
132
330
1F
100
AcDbEntity
  8
BEMAßUNG
 62
     7
100
AcDb2dPolyline
 66
     1
 10
0.0
 20
0.0
 30
0.0
  0
VERTEX
  5
133
330
132
100
AcDbEntity
  8
BEMAßUNG
 62
     7
100
AcDbVertex
100
AcDb2dVertex
 10
39.14972058483063
 20
-28.98289929830983
 30
0.0
  0
VERTEX
  5
134
330
132
100
AcDbEntity
  8
BEMAßUNG
 62
     7
100
AcDbVertex
100
AcDb2dVertex
 10
39.14972058483063
 20
-28.45683321771218
 30
0.0
  0
SEQEND
  5
135
330
132
100
AcDbEntity
  8
BEMAßUNG
  0
POLYLINE
  5
136
330
1F
100
AcDbEntity
  8
BEMAßUNG
 62
     7
100
AcDb2dPolyline
 66
     1
 10
0.0
 20
0.0
 30
0.0
  0
VERTEX
  5
137
330
136
100
AcDbEntity
  8
BEMAßUNG
 62
     7
100
AcDbVertex
100
AcDb2dVertex
 10
39.17745360348689
 20
-28.98289929830983
 30
0.0
  0
VERTEX
  5
138
330
136
100
AcDbEntity
  8
BEMAßUNG
 62
     7
100
AcDbVertex
100
AcDb2dVertex
 10
39.17745360348689
 20
-28.24444308104653
 30
0.0
  0
SEQEND
  5
139
330
136
100
AcDbEntity
  8
BEMAßUNG
  0
POLYLINE
  5
13A
330
1F
100
AcDbEntity
  8
BEMAßUNG
 62
     7
100
AcDb2dPolyline
 66
     1
 10
0.0
 20
0.0
 30
0.0
  0
VERTEX
  5
13B
330
13A
100
AcDbEntity
  8
BEMAßUNG
 62
     7
100
AcDbVertex
100
AcDb2dVertex
 10
39.20535887691742
 20
-28.98289929830983
 30
0.0
  0
VERTEX
  5
13C
330
13A
100
AcDbEntity
  8
BEMAßUNG
 62
     7
100
AcDbVertex
100
AcDb2dVertex
 10
39.20535887691742
 20
-28.03222519915514
 30
0.0
  0
SEQEND
  5
13D
330
13A
100
AcDbEntity
  8
BEMAßUNG
  0
POLYLINE
  5
13E
330
1F
100
AcDbEntity
  8
BEMAßUNG
 62
     7
100
AcDb2dPolyline
 66
     1
 10
0.0
 20
0.0
 30
0.0
  0
VERTEX
  5
13F
330
13E
100
AcDbEntity
  8
BEMAßUNG
 62
     7
100
AcDbVertex
100
AcDb2dVertex
 10
39.2334364051222
 20
-28.98289929830983
 30
0.0
  0
VERTEX
  5
140
330
13E
100
AcDbEntity
  8
BEMAßUNG
 62
     7
100
AcDbVertex
100
AcDb2dVertex
 10
39.2334364051222
 20
-27.81983506248949
 30
0.0
  0
SEQEND
  5
141
330
13E
100
AcDbEntity
  8
BEMAßUNG
  0
POLYLINE
  5
142
330
1F
100
AcDbEntity
  8
BEMAßUNG
 62
     7
100
AcDb2dPolyline
 66
     1
 10
0.0
 20
0.0
 30
0.0
  0
VERTEX
  5
143
330
142
100
AcDbEntity
  8
BEMAßUNG
 62
     7
100
AcDbVertex
100
AcDb2dVertex
 10
39.26116942377846
 20
-28.98289929830983
 30
0.0
  0
VERTEX
  5
144
330
142
100
AcDbEntity
  8
BEMAßUNG
 62
     7
100
AcDbVertex
100
AcDb2dVertex
 10
39.26116942377846
 20
-27.60796169014662
 30
0.0
  0
SEQEND
  5
145
330
142
100
AcDbEntity
  8
BEMAßUNG
  0
POLYLINE
  5
146
330
1F
100
AcDbEntity
  8
BEMAßUNG
 62
     7
100
AcDb2dPolyline
 66
     1
 10
0.0
 20
0.0
 30
0.0
  0
VERTEX
  5
147
330
146
100
AcDbEntity
  8
BEMAßUNG
 62
     7
100
AcDbVertex
100
AcDb2dVertex
 10
39.42911782868439
 20
-28.98289929830983
 30
0.0
  0
VERTEX
  5
148
330
146
100
AcDbEntity
  8
BEMAßUNG
 62
     7
100
AcDbVertex
100
AcDb2dVertex
 10
39.42911782868439
 20
-28.8810967267207
 30
0.0
  0
SEQEND
  5
149
330
146
100
AcDbEntity
  8
BEMAßUNG
  0
POLYLINE
  5
14A
330
1F
100
AcDbEntity
  8
BEMAßUNG
 62
     7
100
AcDb2dPolyline
 66
     1
 10
0.0
 20
0.0
 30
0.0
  0
VERTEX
  5
14B
330
14A
100
AcDbEntity
  8
BEMAßUNG
 62
     7
100
AcDbVertex
100
AcDb2dVertex
 10
39.42911782868439
 20
-28.98289929830983
 30
0.0
  0
VERTEX
  5
14C
330
14A
100
AcDbEntity
  8
BEMAßUNG
 62
     7
100
AcDbVertex
100
AcDb2dVertex
 10
39.42911782868439
 20
-28.8810967267207
 30
0.0
  0
SEQEND
  5
14D
330
14A
100
AcDbEntity
  8
BEMAßUNG
  0
POLYLINE
  5
14E
330
1F
100
AcDbEntity
  8
BEMAßUNG
 62
     7
100
AcDb2dPolyline
 66
     1
 10
0.0
 20
0.0
 30
0.0
  0
VERTEX
  5
14F
330
14E
100
AcDbEntity
  8
BEMAßUNG
 62
     7
100
AcDbVertex
100
AcDb2dVertex
 10
39.40121255525386
 20
-28.98289929830983
 30
0.0
  0
VERTEX
  5
150
330
14E
100
AcDbEntity
  8
BEMAßUNG
 62
     7
100
AcDbVertex
100
AcDb2dVertex
 10
39.40121255525386
 20
-28.66870659005505
 30
0.0
  0
SEQEND
  5
151
330
14E
100
AcDbEntity
  8
BEMAßUNG
  0
POLYLINE
  5
152
330
1F
100
AcDbEntity
  8
BEMAßUNG
 62
     7
100
AcDb2dPolyline
 66
     1
 10
0.0
 20
0.0
 30
0.0
  0
VERTEX
  5
153
330
152
100
AcDbEntity
  8
BEMAßUNG
 62
     7
100
AcDbVertex
100
AcDb2dVertex
 10
39.37313502704908
 20
-28.98289929830983
 30
0.0
  0
VERTEX
  5
154
330
152
100
AcDbEntity
  8
BEMAßUNG
 62
     7
100
AcDbVertex
100
AcDb2dVertex
 10
39.37313502704908
 20
-28.45683321771218
 30
0.0
  0
SEQEND
  5
155
330
152
100
AcDbEntity
  8
BEMAßUNG
  0
POLYLINE
  5
156
330
1F
100
AcDbEntity
  8
BEMAßUNG
 62
     7
100
AcDb2dPolyline
 66
     1
 10
0.0
 20
0.0
 30
0.0
  0
VERTEX
  5
157
330
156
100
AcDbEntity
  8
BEMAßUNG
 62
     7
100
AcDbVertex
100
AcDb2dVertex
 10
39.34522975361855
 20
-28.98289929830983
 30
0.0
  0
VERTEX
  5
158
330
156
100
AcDbEntity
  8
BEMAßUNG
 62
     7
100
AcDbVertex
100
AcDb2dVertex
 10
39.34522975361855
 20
-28.24444308104653
 30
0.0
  0
SEQEND
  5
159
330
156
100
AcDbEntity
  8
BEMAßUNG
  0
POLYLINE
  5
15A
330
1F
100
AcDbEntity
  8
BEMAßUNG
 62
     7
100
AcDb2dPolyline
 66
     1
 10
0.0
 20
0.0
 30
0.0
  0
VERTEX
  5
15B
330
15A
100
AcDbEntity
  8
BEMAßUNG
 62
     7
100
AcDbVertex
100
AcDb2dVertex
 10
39.31732448018803
 20
-28.98289929830983
 30
0.0
  0
VERTEX
  5
15C
330
15A
100
AcDbEntity
  8
BEMAßUNG
 62
     7
100
AcDbVertex
100
AcDb2dVertex
 10
39.31732448018803
 20
-28.03222519915514
 30
0.0
  0
SEQEND
  5
15D
330
15A
100
AcDbEntity
  8
BEMAßUNG
  0
POLYLINE
  5
15E
330
1F
100
AcDbEntity
  8
BEMAßUNG
 62
     7
100
AcDb2dPolyline
 66
     1
 10
0.0
 20
0.0
 30
0.0
  0
VERTEX
  5
15F
330
15E
100
AcDbEntity
  8
BEMAßUNG
 62
     7
100
AcDbVertex
100
AcDb2dVertex
 10
39.28924695198324
 20
-28.98289929830983
 30
0.0
  0
VERTEX
  5
160
330
15E
100
AcDbEntity
  8
BEMAßUNG
 62
     7
100
AcDbVertex
100
AcDb2dVertex
 10
39.28924695198324
 20
-27.81983506248949
 30
0.0
  0
SEQEND
  5
161
330
15E
100
AcDbEntity
  8
BEMAßUNG
  0
POLYLINE
  5
162
330
1F
100
AcDbEntity
  8
BEMAßUNG
 62
     7
100
AcDb2dPolyline
 66
     1
 10
0.0
 20
0.0
 30
0.0
  0
VERTEX
  5
163
330
162
100
AcDbEntity
  8
BEMAßUNG
 62
     7
100
AcDbVertex
100
AcDb2dVertex
 10
39.26116942377846
 20
-28.98289929830983
 30
0.0
  0
VERTEX
  5
164
330
162
100
AcDbEntity
  8
BEMAßUNG
 62
     7
100
AcDbVertex
100
AcDb2dVertex
 10
39.26116942377846
 20
-27.60796169014662
 30
0.0
  0
SEQEND
  5
165
330
162
100
AcDbEntity
  8
BEMAßUNG
  0
POLYLINE
  5
166
330
1F
100
AcDbEntity
  8
BEMAßUNG
 62
     7
100
AcDb2dPolyline
 66
     1
 10
0.0
 20
0.0
 30
0.0
  0
VERTEX
  5
167
330
166
100
AcDbEntity
  8
BEMAßUNG
 62
     7
100
AcDbVertex
100
AcDb2dVertex
 10
39.26116942377846
 20
-62.76171602163596
 30
0.0
  0
VERTEX
  5
168
330
166
100
AcDbEntity
  8
BEMAßUNG
 62
     7
100
AcDbVertex
100
AcDb2dVertex
 10
39.44220919152834
 20
-61.38712292302128
 30
0.0
  0
VERTEX
  5
169
330
166
100
AcDbEntity
  8
BEMAßUNG
 62
     7
100
AcDbVertex
100
AcDb2dVertex
 10
39.08047416557711
 20
-61.38712292302128
 30
0.0
  0
VERTEX
  5
16A
330
166
100
AcDbEntity
  8
BEMAßUNG
 62
     7
100
AcDbVertex
100
AcDb2dVertex
 10
39.26116942377846
 20
-62.76171602163596
 30
0.0
  0
SEQEND
  5
16B
330
166
100
AcDbEntity
  8
BEMAßUNG
  0
POLYLINE
  5
16C
330
1F
100
AcDbEntity
  8
BEMAßUNG
 62
     7
100
AcDb2dPolyline
 66
     1
 10
0.0
 20
0.0
 30
0.0
  0
VERTEX
  5
16D
330
16C
100
AcDbEntity
  8
BEMAßUNG
 62
     7
100
AcDbVertex
100
AcDb2dVertex
 10
39.42911782868439
 20
-61.38712292302128
 30
0.0
  0
VERTEX
  5
16E
330
16C
100
AcDbEntity
  8
BEMAßUNG
 62
     7
100
AcDbVertex
100
AcDb2dVertex
 10
39.42911782868439
 20
-61.48875323983615
 30
0.0
  0
SEQEND
  5
16F
330
16C
100
AcDbEntity
  8
BEMAßUNG
  0
POLYLINE
  5
170
330
1F
100
AcDbEntity
  8
BEMAßUNG
 62
     7
100
AcDb2dPolyline
 66
     1
 10
0.0
 20
0.0
 30
0.0
  0
VERTEX
  5
171
330
170
100
AcDbEntity
  8
BEMAßUNG
 62
     7
100
AcDbVertex
100
AcDb2dVertex
 10
39.42911782868439
 20
-61.38712292302128
 30
0.0
  0
VERTEX
  5
172
330
170
100
AcDbEntity
  8
BEMAßUNG
 62
     7
100
AcDbVertex
100
AcDb2dVertex
 10
39.42911782868439
 20
-61.48875323983615
 30
0.0
  0
SEQEND
  5
173
330
170
100
AcDbEntity
  8
BEMAßUNG
  0
POLYLINE
  5
174
330
1F
100
AcDbEntity
  8
BEMAßUNG
 62
     7
100
AcDb2dPolyline
 66
     1
 10
0.0
 20
0.0
 30
0.0
  0
VERTEX
  5
175
330
174
100
AcDbEntity
  8
BEMAßUNG
 62
     7
100
AcDbVertex
100
AcDb2dVertex
 10
39.40121255525386
 20
-61.38712292302128
 30
0.0
  0
VERTEX
  5
176
330
174
100
AcDbEntity
  8
BEMAßUNG
 62
     7
100
AcDbVertex
100
AcDb2dVertex
 10
39.40121255525386
 20
-61.70097112172754
 30
0.0
  0
SEQEND
  5
177
330
174
100
AcDbEntity
  8
BEMAßUNG
  0
POLYLINE
  5
178
330
1F
100
AcDbEntity
  8
BEMAßUNG
 62
     7
100
AcDb2dPolyline
 66
     1
 10
0.0
 20
0.0
 30
0.0
  0
VERTEX
  5
179
330
178
100
AcDbEntity
  8
BEMAßUNG
 62
     7
100
AcDbVertex
100
AcDb2dVertex
 10
39.37313502704908
 20
-61.38712292302128
 30
0.0
  0
VERTEX
  5
17A
330
178
100
AcDbEntity
  8
BEMAßUNG
 62
     7
100
AcDbVertex
100
AcDb2dVertex
 10
39.37313502704908
 20
-61.91284449407041
 30
0.0
  0
SEQEND
  5
17B
330
178
100
AcDbEntity
  8
BEMAßUNG
  0
POLYLINE
  5
17C
330
1F
100
AcDbEntity
  8
BEMAßUNG
 62
     7
100
AcDb2dPolyline
 66
     1
 10
0.0
 20
0.0
 30
0.0
  0
VERTEX
  5
17D
330
17C
100
AcDbEntity
  8
BEMAßUNG
 62
     7
100
AcDbVertex
100
AcDb2dVertex
 10
39.34522975361855
 20
-61.38712292302128
 30
0.0
  0
VERTEX
  5
17E
330
17C
100
AcDbEntity
  8
BEMAßUNG
 62
     7
100
AcDbVertex
100
AcDb2dVertex
 10
39.34522975361855
 20
-62.12540688551032
 30
0.0
  0
SEQEND
  5
17F
330
17C
100
AcDbEntity
  8
BEMAßUNG
  0
POLYLINE
  5
180
330
1F
100
AcDbEntity
  8
BEMAßUNG
 62
     7
100
AcDb2dPolyline
 66
     1
 10
0.0
 20
0.0
 30
0.0
  0
VERTEX
  5
181
330
180
100
AcDbEntity
  8
BEMAßUNG
 62
     7
100
AcDbVertex
100
AcDb2dVertex
 10
39.31732448018803
 20
-61.38712292302128
 30
0.0
  0
VERTEX
  5
182
330
180
100
AcDbEntity
  8
BEMAßUNG
 62
     7
100
AcDbVertex
100
AcDb2dVertex
 10
39.31732448018803
 20
-62.33762476740171
 30
0.0
  0
SEQEND
  5
183
330
180
100
AcDbEntity
  8
BEMAßUNG
  0
POLYLINE
  5
184
330
1F
100
AcDbEntity
  8
BEMAßUNG
 62
     7
100
AcDb2dPolyline
 66
     1
 10
0.0
 20
0.0
 30
0.0
  0
VERTEX
  5
185
330
184
100
AcDbEntity
  8
BEMAßUNG
 62
     7
100
AcDbVertex
100
AcDb2dVertex
 10
39.28924695198324
 20
-61.38712292302128
 30
0.0
  0
VERTEX
  5
186
330
184
100
AcDbEntity
  8
BEMAßUNG
 62
     7
100
AcDbVertex
100
AcDb2dVertex
 10
39.28924695198324
 20
-62.5498426492931
 30
0.0
  0
SEQEND
  5
187
330
184
100
AcDbEntity
  8
BEMAßUNG
  0
POLYLINE
  5
188
330
1F
100
AcDbEntity
  8
BEMAßUNG
 62
     7
100
AcDb2dPolyline
 66
     1
 10
0.0
 20
0.0
 30
0.0
  0
VERTEX
  5
189
330
188
100
AcDbEntity
  8
BEMAßUNG
 62
     7
100
AcDbVertex
100
AcDb2dVertex
 10
39.26116942377846
 20
-61.38712292302128
 30
0.0
  0
VERTEX
  5
18A
330
188
100
AcDbEntity
  8
BEMAßUNG
 62
     7
100
AcDbVertex
100
AcDb2dVertex
 10
39.26116942377846
 20
-62.76171602163596
 30
0.0
  0
SEQEND
  5
18B
330
188
100
AcDbEntity
  8
BEMAßUNG
  0
POLYLINE
  5
18C
330
1F
100
AcDbEntity
  8
BEMAßUNG
 62
     7
100
AcDb2dPolyline
 66
     1
 10
0.0
 20
0.0
 30
0.0
  0
VERTEX
  5
18D
330
18C
100
AcDbEntity
  8
BEMAßUNG
 62
     7
100
AcDbVertex
100
AcDb2dVertex
 10
39.09373778319532
 20
-61.38712292302128
 30
0.0
  0
VERTEX
  5
18E
330
18C
100
AcDbEntity
  8
BEMAßUNG
 62
     7
100
AcDbVertex
100
AcDb2dVertex
 10
39.09373778319532
 20
-61.48875323983615
 30
0.0
  0
SEQEND
  5
18F
330
18C
100
AcDbEntity
  8
BEMAßUNG
  0
POLYLINE
  5
190
330
1F
100
AcDbEntity
  8
BEMAßUNG
 62
     7
100
AcDb2dPolyline
 66
     1
 10
0.0
 20
0.0
 30
0.0
  0
VERTEX
  5
191
330
190
100
AcDbEntity
  8
BEMAßUNG
 62
     7
100
AcDbVertex
100
AcDb2dVertex
 10
39.09373778319532
 20
-61.38712292302128
 30
0.0
  0
VERTEX
  5
192
330
190
100
AcDbEntity
  8
BEMAßUNG
 62
     7
100
AcDbVertex
100
AcDb2dVertex
 10
39.09373778319532
 20
-61.48875323983615
 30
0.0
  0
SEQEND
  5
193
330
190
100
AcDbEntity
  8
BEMAßUNG
  0
POLYLINE
  5
194
330
1F
100
AcDbEntity
  8
BEMAßUNG
 62
     7
100
AcDb2dPolyline
 66
     1
 10
0.0
 20
0.0
 30
0.0
  0
VERTEX
  5
195
330
194
100
AcDbEntity
  8
BEMAßUNG
 62
     7
100
AcDbVertex
100
AcDb2dVertex
 10
39.12181531140011
 20
-61.38712292302128
 30
0.0
  0
VERTEX
  5
196
330
194
100
AcDbEntity
  8
BEMAßUNG
 62
     7
100
AcDbVertex
100
AcDb2dVertex
 10
39.12181531140011
 20
-61.70097112172754
 30
0.0
  0
SEQEND
  5
197
330
194
100
AcDbEntity
  8
BEMAßUNG
  0
POLYLINE
  5
198
330
1F
100
AcDbEntity
  8
BEMAßUNG
 62
     7
100
AcDb2dPolyline
 66
     1
 10
0.0
 20
0.0
 30
0.0
  0
VERTEX
  5
199
330
198
100
AcDbEntity
  8
BEMAßUNG
 62
     7
100
AcDbVertex
100
AcDb2dVertex
 10
39.14972058483063
 20
-61.38712292302128
 30
0.0
  0
VERTEX
  5
19A
330
198
100
AcDbEntity
  8
BEMAßUNG
 62
     7
100
AcDbVertex
100
AcDb2dVertex
 10
39.14972058483063
 20
-61.91284449407041
 30
0.0
  0
SEQEND
  5
19B
330
198
100
AcDbEntity
  8
BEMAßUNG
  0
POLYLINE
  5
19C
330
1F
100
AcDbEntity
  8
BEMAßUNG
 62
     7
100
AcDb2dPolyline
 66
     1
 10
0.0
 20
0.0
 30
0.0
  0
VERTEX
  5
19D
330
19C
100
AcDbEntity
  8
BEMAßUNG
 62
     7
100
AcDbVertex
100
AcDb2dVertex
 10
39.17745360348689
 20
-61.38712292302128
 30
0.0
  0
VERTEX
  5
19E
330
19C
100
AcDbEntity
  8
BEMAßUNG
 62
     7
100
AcDbVertex
100
AcDb2dVertex
 10
39.17745360348689
 20
-62.12540688551032
 30
0.0
  0
SEQEND
  5
19F
330
19C
100
AcDbEntity
  8
BEMAßUNG
  0
POLYLINE
  5
1A0
330
1F
100
AcDbEntity
  8
BEMAßUNG
 62
     7
100
AcDb2dPolyline
 66
     1
 10
0.0
 20
0.0
 30
0.0
  0
VERTEX
  5
1A1
330
1A0
100
AcDbEntity
  8
BEMAßUNG
 62
     7
100
AcDbVertex
100
AcDb2dVertex
 10
39.20535887691742
 20
-61.38712292302128
 30
0.0
  0
VERTEX
  5
1A2
330
1A0
100
AcDbEntity
  8
BEMAßUNG
 62
     7
100
AcDbVertex
100
AcDb2dVertex
 10
39.20535887691742
 20
-62.33762476740171
 30
0.0
  0
SEQEND
  5
1A3
330
1A0
100
AcDbEntity
  8
BEMAßUNG
  0
POLYLINE
  5
1A4
330
1F
100
AcDbEntity
  8
BEMAßUNG
 62
     7
100
AcDb2dPolyline
 66
     1
 10
0.0
 20
0.0
 30
0.0
  0
VERTEX
  5
1A5
330
1A4
100
AcDbEntity
  8
BEMAßUNG
 62
     7
100
AcDbVertex
100
AcDb2dVertex
 10
39.2334364051222
 20
-61.38712292302128
 30
0.0
  0
VERTEX
  5
1A6
330
1A4
100
AcDbEntity
  8
BEMAßUNG
 62
     7
100
AcDbVertex
100
AcDb2dVertex
 10
39.2334364051222
 20
-62.5498426492931
 30
0.0
  0
SEQEND
  5
1A7
330
1A4
100
AcDbEntity
  8
BEMAßUNG
  0
POLYLINE
  5
1A8
330
1F
100
AcDbEntity
  8
BEMAßUNG
 62
     7
100
AcDb2dPolyline
 66
     1
 10
0.0
 20
0.0
 30
0.0
  0
VERTEX
  5
1A9
330
1A8
100
AcDbEntity
  8
BEMAßUNG
 62
     7
100
AcDbVertex
100
AcDb2dVertex
 10
39.26116942377846
 20
-61.38712292302128
 30
0.0
  0
VERTEX
  5
1AA
330
1A8
100
AcDbEntity
  8
BEMAßUNG
 62
     7
100
AcDbVertex
100
AcDb2dVertex
 10
39.26116942377846
 20
-62.76171602163596
 30
0.0
  0
SEQEND
  5
1AB
330
1A8
100
AcDbEntity
  8
BEMAßUNG
  0
MTEXT
  5
1AD
330
1F
100
AcDbEntity
  8
TEXT
 62
     7
100
AcDbMText
 10
103.9064914019748
 20
-21.2576171821856
 30
0.0
 40
2.398888888289167
 41
0.0
 71
     7
 72
     1
  1
\fINDEX Univers 45 Light|b0|i0|c0|p34;\W1;B
  0
MTEXT
  5
1AE
330
1F
100
AcDbEntity
  8
TEXT
 62
     7
100
AcDbMText
 10
38.44967718222786
 20
-46.14946559176125
 30
0.0
 40
2.398888888289167
 41
0.0
 71
     7
 72
     1
  1
\fINDEX Univers 45 Light|b0|i0|c0|p34;\W1;A
 11
-4.371139000186241E-8
 21
0.999999999999999
 31
0.0
  0
ENDSEC
  0
SECTION
  2
OBJECTS
  0
DICTIONARY
  5
C
330
0
100
AcDbDictionary
  3
ACAD_GROUP
350
D
  3
ACAD_LAYOUT
350
1A
  3
ACAD_MLINESTYLE
350
17
  3
ACAD_PLOTSETTINGS
350
19
  3
ACAD_TABLESTYLE
350
1CF
  3
ACAD_VISUALSTYLE
350
2A
  3
ACDBHEADERROUNDTRIPXREC
350
1AF
  0
DICTIONARY
  5
D
102
{ACAD_REACTORS
330
C
102
}
330
C
100
AcDbDictionary
  0
DICTIONARY
  5
1A
102
{ACAD_REACTORS
330
C
102
}
330
C
100
AcDbDictionary
  0
DICTIONARY
  5
17
102
{ACAD_REACTORS
330
C
102
}
330
C
100
AcDbDictionary
  3
STANDARD
350
18
  0
DICTIONARY
  5
19
102
{ACAD_REACTORS
330
C
102
}
330
C
100
AcDbDictionary
  0
DICTIONARY
  5
1CF
102
{ACAD_REACTORS
330
C
102
}
330
C
100
AcDbDictionary
  0
DICTIONARY
  5
2A
102
{ACAD_REACTORS
330
C
102
}
330
C
100
AcDbDictionary
  3
2DWIREFRAME
350
2F
  3
3D_HIDDEN
350
31
  3
3DWIREFRAME
350
30
  3
BASIC
350
32
  3
BRIGHTEN
350
36
  3
COLORCHANGE
350
3A
  3
CONCEPTUAL
350
34
  3
DIM
350
35
  3
FACEPATTERN
350
39
  3
FLAT
350
2B
  3
FLATWITHEDGES
350
2C
  3
GOURAUD
350
2D
  3
GOURAUDWITHEDGES
350
2E
  3
LINEPATTERN
350
38
  3
REALISTIC
350
33
  3
THICKEN
350
37
  0
DICTIONARY
  5
1AF
102
{ACAD_REACTORS
330
C
102
}
330
C
100
AcDbDictionary
  3
CEPSNTYPE
350
1B8
  3
DIMSTYLEDATA
350
1CE
  3
FINGERPRINTGUID
350
1B9
  3
HYPERLINKBASE
350
1B2
  3
INSUNITS
350
1B7
  3
LAYOUTDICT
350
1B4
  3
LWETCUNION
350
1B6
  3
PLOTSETDICT
350
1B5
  3
PSVPSCALE
350
1BB
  3
PUCSBASE
350
1BE
  3
PUCSORGBACK
350
1C4
  3
PUCSORGBOTTOM
350
1C0
  3
PUCSORGFRONT
350
1C3
  3
PUCSORGLEFT
350
1C1
  3
PUCSORGRIGHT
350
1C2
  3
PUCSORGTOP
350
1BF
  3
PUCSORTHOREF
350
1BC
  3
PUCSORTHOVIEW
350
1BD
  3
STYLESHEET
350
1B3
  3
TSTACKALIGN
350
1B0
  3
TSTACKSIZE
350
1B1
  3
UCSBASE
350
1C7
  3
UCSORGBACK
350
1CD
  3
UCSORGBOTTOM
350
1C9
  3
UCSORGFRONT
350
1CC
  3
UCSORGLEFT
350
1CA
  3
UCSORGRIGHT
350
1CB
  3
UCSORGTOP
350
1C8
  3
UCSORTHOREF
350
1C5
  3
UCSORTHOVIEW
350
1C6
  3
VERSIONGUID
350
1BA
  0
MLINESTYLE
  5
18
102
{ACAD_REACTORS
330
17
102
}
330
17
100
AcDbMlineStyle
  2
Standard
 70
     0
  3

 62
   256
 51
90.0
 52
90.0
 71
     2
 49
0.5
 62
   256
  6
BYLAYER
 49
-0.5
 62
   256
  6
BYLAYER
  0
VISUALSTYLE
  5
2F
102
{ACAD_REACTORS
330
2A
102
}
330
2A
100
AcDbVisualStyle
  2
2dWireframe
 70
     4
 71
     0
 72
     2
 73
     0
 90
        0
 40
-0.6
 41
-30.0
 62
     5
 63
     7
 74
     1
 91
        4
 64
     7
 65
   257
 75
     1
175
     1
 42
1.0
 92
        0
 66
   257
 43
1.0
 76
     1
 77
     6
 78
     2
 67
     7
 79
     5
170
     0
171
     0
290
     0
174
     0
 93
        1
 44
0.0
173
     0
291
     0
 45
0.0
1001
ACAD
1000
AcDbSavedByObjectVersion
1070
     0
  0
VISUALSTYLE
  5
31
102
{ACAD_REACTORS
330
2A
102
}
330
2A
100
AcDbVisualStyle
  2
3D Hidden
 70
     6
 71
     1
 72
     2
 73
     2
 90
        0
 40
-0.6
 41
-30.0
 62
     5
 63
     7
 74
     2
 91
        2
 64
     7
 65
   257
 75
     2
175
     1
 42
40.0
 92
        0
 66
   257
 43
1.0
 76
     1
 77
     6
 78
     2
 67
     7
 79
     3
170
     0
171
     0
290
     0
174
     0
 93
        1
 44
0.0
173
     0
291
     0
 45
0.0
1001
ACAD
1000
AcDbSavedByObjectVersion
1070
     0
  0
VISUALSTYLE
  5
30
102
{ACAD_REACTORS
330
2A
102
}
330
2A
100
AcDbVisualStyle
  2
3dWireframe
 70
     5
 71
     0
 72
     2
 73
     0
 90
        0
 40
-0.6
 41
-30.0
 62
     5
 63
     7
 74
     1
 91
        4
 64
     7
 65
   257
 75
     1
175
     1
 42
1.0
 92
        0
 66
   257
 43
1.0
 76
     1
 77
     6
 78
     2
 67
     7
 79
     5
170
     0
171
     0
290
     0
174
     0
 93
        1
 44
0.0
173
     0
291
     0
 45
0.0
1001
ACAD
1000
AcDbSavedByObjectVersion
1070
     0
  0
VISUALSTYLE
  5
32
102
{ACAD_REACTORS
330
2A
102
}
330
2A
100
AcDbVisualStyle
  2
Basic
 70
     7
 71
     1
 72
     0
 73
     1
 90
        0
 40
-0.6
 41
-30.0
 62
     5
 63
     7
 74
     0
 91
        4
 64
     7
 65
   257
 75
     1
175
     1
 42
1.0
 92
        8
 66
     7
 43
1.0
 76
     1
 77
     6
 78
     2
 67
     7
 79
     5
170
     0
171
     0
290
     0
174
     0
 93
        1
 44
0.0
173
     0
291
     1
 45
0.0
1001
ACAD
1000
AcDbSavedByObjectVersion
1070
     0
  0
VISUALSTYLE
  5
36
102
{ACAD_REACTORS
330
2A
102
}
330
2A
100
AcDbVisualStyle
  2
Brighten
 70
    12
 71
     2
 72
     2
 73
     0
 90
        0
 40
-0.6
 41
-30.0
 62
     5
 63
     7
 74
     1
 91
        4
 64
     7
 65
   257
 75
     1
175
     1
 42
1.0
 92
        8
 66
     7
 43
1.0
 76
     1
 77
     6
 78
     2
 67
     7
 79
     5
170
     0
171
     0
290
     0
174
     0
 93
        1
 44
50.0
173
     0
291
     1
 45
0.0
1001
ACAD
1000
AcDbSavedByObjectVersion
1070
     0
  0
VISUALSTYLE
  5
3A
102
{ACAD_REACTORS
330
2A
102
}
330
2A
100
AcDbVisualStyle
  2
ColorChange
 70
    16
 71
     2
 72
     2
 73
     3
 90
        0
 40
-0.6
 41
-30.0
 62
     5
 63
     8
 74
     1
 91
        4
 64
     7
 65
   257
 75
     1
175
     1
 42
1.0
 92
        8
 66
     8
 43
1.0
 76
     1
 77
     6
 78
     2
 67
     7
 79
     5
170
     0
171
     0
290
     0
174
     0
 93
        1
 44
0.0
173
     0
291
     1
 45
0.0
1001
ACAD
1000
AcDbSavedByObjectVersion
1070
     0
  0
VISUALSTYLE
  5
34
102
{ACAD_REACTORS
330
2A
102
}
330
2A
100
AcDbVisualStyle
  2
Conceptual
 70
     9
 71
     3
 72
     2
 73
     0
 90
        0
 40
-0.6
 41
-30.0
 62
     5
 63
     7
 74
     2
 91
        2
 64
     7
 65
   257
 75
     1
175
     1
 42
40.0
 92
        8
 66
     7
 43
1.0
 76
     1
 77
     6
 78
     2
 67
     7
 79
     3
170
     0
171
     0
290
     0
174
     0
 93
        1
 44
0.0
173
     0
291
     0
 45
0.0
1001
ACAD
1000
AcDbSavedByObjectVersion
1070
     0
  0
VISUALSTYLE
  5
35
102
{ACAD_REACTORS
330
2A
102
}
330
2A
100
AcDbVisualStyle
  2
Dim
 70
    11
 71
     2
 72
     2
 73
     0
 90
        0
 40
-0.6
 41
-30.0
 62
     5
 63
     7
 74
     1
 91
        4
 64
     7
 65
   257
 75
     1
175
     1
 42
1.0
 92
        8
 66
     7
 43
1.0
 76
     1
 77
     6
 78
     2
 67
     7
 79
     5
170
     0
171
     0
290
     0
174
     0
 93
        1
 44
-50.0
173
     0
291
     1
 45
0.0
1001
ACAD
1000
AcDbSavedByObjectVersion
1070
     0
  0
VISUALSTYLE
  5
39
102
{ACAD_REACTORS
330
2A
102
}
330
2A
100
AcDbVisualStyle
  2
Facepattern
 70
    15
 71
     2
 72
     2
 73
     0
 90
        0
 40
-0.6
 41
-30.0
 62
     5
 63
     7
 74
     1
 91
        4
 64
     7
 65
   257
 75
     1
175
     1
 42
1.0
 92
        8
 66
     7
 43
1.0
 76
     1
 77
     6
 78
     2
 67
     7
 79
     5
170
     0
171
     0
290
     0
174
     0
 93
        1
 44
0.0
173
     0
291
     1
 45
0.0
1001
ACAD
1000
AcDbSavedByObjectVersion
1070
     0
  0
VISUALSTYLE
  5
2B
102
{ACAD_REACTORS
330
2A
102
}
330
2A
100
AcDbVisualStyle
  2
Flat
 70
     0
 71
     2
 72
     1
 73
     1
 90
        2
 40
-0.6
 41
30.0
 62
     5
 63
     7
 74
     0
 91
        4
 64
     7
 65
   257
 75
     1
175
     1
 42
1.0
 92
        8
 66
     7
 43
1.0
 76
     1
 77
     6
 78
     2
 67
     7
 79
     5
170
     0
171
     0
290
     0
174
     0
 93
       13
 44
0.0
173
     0
291
     1
 45
0.0
1001
ACAD
1000
AcDbSavedByObjectVersion
1070
     0
  0
VISUALSTYLE
  5
2C
102
{ACAD_REACTORS
330
2A
102
}
330
2A
100
AcDbVisualStyle
  2
FlatWithEdges
 70
     1
 71
     2
 72
     1
 73
     1
 90
        2
 40
-0.6
 41
30.0
 62
     5
 63
     7
 74
     1
 91
        4
 64
     7
 65
   257
 75
     1
175
     1
 42
1.0
 92
        0
 66
   257
 43
1.0
 76
     1
 77
     6
 78
     2
 67
     7
 79
     5
170
     0
171
     0
290
     0
174
     0
 93
       13
 44
0.0
173
     0
291
     1
 45
0.0
1001
ACAD
1000
AcDbSavedByObjectVersion
1070
     0
  0
VISUALSTYLE
  5
2D
102
{ACAD_REACTORS
330
2A
102
}
330
2A
100
AcDbVisualStyle
  2
Gouraud
 70
     2
 71
     2
 72
     2
 73
     1
 90
        2
 40
-0.6
 41
30.0
 62
     5
 63
     7
 74
     0
 91
        4
 64
     7
 65
   257
 75
     1
175
     1
 42
1.0
 92
        0
 66
     7
 43
1.0
 76
     1
 77
     6
 78
     2
 67
     7
 79
     5
170
     0
171
     0
290
     0
174
     0
 93
       13
 44
0.0
173
     0
291
     1
 45
0.0
1001
ACAD
1000
AcDbSavedByObjectVersion
1070
     0
  0
VISUALSTYLE
  5
2E
102
{ACAD_REACTORS
330
2A
102
}
330
2A
100
AcDbVisualStyle
  2
GouraudWithEdges
 70
     3
 71
     2
 72
     2
 73
     1
 90
        2
 40
-0.6
 41
30.0
 62
     5
 63
     7
 74
     1
 91
        4
 64
     7
 65
   257
 75
     1
175
     1
 42
1.0
 92
        0
 66
   257
 43
1.0
 76
     1
 77
     6
 78
     2
 67
     7
 79
     5
170
     0
171
     0
290
     0
174
     0
 93
       13
 44
0.0
173
     0
291
     1
 45
0.0
1001
ACAD
1000
AcDbSavedByObjectVersion
1070
     0
  0
VISUALSTYLE
  5
38
102
{ACAD_REACTORS
330
2A
102
}
330
2A
100
AcDbVisualStyle
  2
Linepattern
 70
    14
 71
     2
 72
     2
 73
     0
 90
        0
 40
-0.6
 41
-30.0
 62
     5
 63
     7
 74
     1
 91
        4
 64
     7
 65
   257
 75
     7
175
     7
 42
1.0
 92
        8
 66
     7
 43
1.0
 76
     1
 77
     6
 78
     2
 67
     7
 79
     5
170
     0
171
     0
290
     0
174
     0
 93
        1
 44
0.0
173
     0
291
     1
 45
0.0
1001
ACAD
1000
AcDbSavedByObjectVersion
1070
     0
  0
VISUALSTYLE
  5
33
102
{ACAD_REACTORS
330
2A
102
}
330
2A
100
AcDbVisualStyle
  2
Realistic
 70
     8
 71
     2
 72
     2
 73
     0
 90
        0
 40
-0.6
 41
-30.0
 62
     5
 63
     7
 74
     1
 91
        0
 64
     7
 65
   257
 75
     1
175
     1
 42
1.0
 92
        8
 66
     8
 43
1.0
 76
     1
 77
     6
 78
     2
 67
     7
 79
     5
170
     0
171
     0
290
     0
174
     0
 93
       13
 44
0.0
173
     0
291
     0
 45
0.0
1001
ACAD
1000
AcDbSavedByObjectVersion
1070
     0
  0
VISUALSTYLE
  5
37
102
{ACAD_REACTORS
330
2A
102
}
330
2A
100
AcDbVisualStyle
  2
Thicken
 70
    13
 71
     2
 72
     2
 73
     0
 90
        0
 40
-0.6
 41
-30.0
 62
     5
 63
     7
 74
     1
 91
        4
 64
     7
 65
   257
 75
     1
175
     1
 42
1.0
 92
       12
 66
     7
 43
1.0
 76
     1
 77
     6
 78
     2
 67
     7
 79
     5
170
     0
171
     0
290
     0
174
     0
 93
        1
 44
0.0
173
     0
291
     1
 45
0.0
1001
ACAD
1000
AcDbSavedByObjectVersion
1070
     0
  0
XRECORD
  5
1B8
102
{ACAD_REACTORS
330
1AF
102
}
330
1AF
100
AcDbXrecord
 90
        0
  0
XRECORD
  5
1CE
102
{ACAD_REACTORS
330
1AF
102
}
330
1AF
100
AcDbXrecord
1000
DSTYLE
1002
{
1070
   340
340
11
1002
}
  0
XRECORD
  5
1B9
102
{ACAD_REACTORS
330
1AF
102
}
330
1AF
100
AcDbXrecord
  1
{749F5C52-2578-442B-81B9-85FE68285D35}
  0
XRECORD
  5
1B2
102
{ACAD_REACTORS
330
1AF
102
}
330
1AF
100
AcDbXrecord
  1

  0
XRECORD
  5
1B7
102
{ACAD_REACTORS
330
1AF
102
}
330
1AF
100
AcDbXrecord
 90
        1
  0
XRECORD
  5
1B4
102
{ACAD_REACTORS
330
1AF
102
}
330
1AF
100
AcDbXrecord
340
1A
  0
XRECORD
  5
1B6
102
{ACAD_REACTORS
330
1AF
102
}
330
1AF
100
AcDbXrecord
 90
    10269
  0
XRECORD
  5
1B5
102
{ACAD_REACTORS
330
1AF
102
}
330
1AF
100
AcDbXrecord
340
19
  0
XRECORD
  5
1BB
102
{ACAD_REACTORS
330
1AF
102
}
330
1AF
100
AcDbXrecord
 40
0.0
  0
XRECORD
  5
1BE
102
{ACAD_REACTORS
330
1AF
102
}
330
1AF
100
AcDbXrecord
340
0
  0
XRECORD
  5
1C4
102
{ACAD_REACTORS
330
1AF
102
}
330
1AF
100
AcDbXrecord
 10
0.0
 20
0.0
 30
0.0
  0
XRECORD
  5
1C0
102
{ACAD_REACTORS
330
1AF
102
}
330
1AF
100
AcDbXrecord
 10
0.0
 20
0.0
 30
0.0
  0
XRECORD
  5
1C3
102
{ACAD_REACTORS
330
1AF
102
}
330
1AF
100
AcDbXrecord
 10
0.0
 20
0.0
 30
0.0
  0
XRECORD
  5
1C1
102
{ACAD_REACTORS
330
1AF
102
}
330
1AF
100
AcDbXrecord
 10
0.0
 20
0.0
 30
0.0
  0
XRECORD
  5
1C2
102
{ACAD_REACTORS
330
1AF
102
}
330
1AF
100
AcDbXrecord
 10
0.0
 20
0.0
 30
0.0
  0
XRECORD
  5
1BF
102
{ACAD_REACTORS
330
1AF
102
}
330
1AF
100
AcDbXrecord
 10
0.0
 20
0.0
 30
0.0
  0
XRECORD
  5
1BC
102
{ACAD_REACTORS
330
1AF
102
}
330
1AF
100
AcDbXrecord
340
0
  0
XRECORD
  5
1BD
102
{ACAD_REACTORS
330
1AF
102
}
330
1AF
100
AcDbXrecord
 70
     0
  0
XRECORD
  5
1B3
102
{ACAD_REACTORS
330
1AF
102
}
330
1AF
100
AcDbXrecord
  1

  0
XRECORD
  5
1B0
102
{ACAD_REACTORS
330
1AF
102
}
330
1AF
100
AcDbXrecord
 90
        1
  0
XRECORD
  5
1B1
102
{ACAD_REACTORS
330
1AF
102
}
330
1AF
100
AcDbXrecord
 90
       70
  0
XRECORD
  5
1C7
102
{ACAD_REACTORS
330
1AF
102
}
330
1AF
100
AcDbXrecord
340
0
  0
XRECORD
  5
1CD
102
{ACAD_REACTORS
330
1AF
102
}
330
1AF
100
AcDbXrecord
 10
0.0
 20
0.0
 30
0.0
  0
XRECORD
  5
1C9
102
{ACAD_REACTORS
330
1AF
102
}
330
1AF
100
AcDbXrecord
 10
0.0
 20
0.0
 30
0.0
  0
XRECORD
  5
1CC
102
{ACAD_REACTORS
330
1AF
102
}
330
1AF
100
AcDbXrecord
 10
0.0
 20
0.0
 30
0.0
  0
XRECORD
  5
1CA
102
{ACAD_REACTORS
330
1AF
102
}
330
1AF
100
AcDbXrecord
 10
0.0
 20
0.0
 30
0.0
  0
XRECORD
  5
1CB
102
{ACAD_REACTORS
330
1AF
102
}
330
1AF
100
AcDbXrecord
 10
0.0
 20
0.0
 30
0.0
  0
XRECORD
  5
1C8
102
{ACAD_REACTORS
330
1AF
102
}
330
1AF
100
AcDbXrecord
 10
0.0
 20
0.0
 30
0.0
  0
XRECORD
  5
1C5
102
{ACAD_REACTORS
330
1AF
102
}
330
1AF
100
AcDbXrecord
340
0
  0
XRECORD
  5
1C6
102
{ACAD_REACTORS
330
1AF
102
}
330
1AF
100
AcDbXrecord
 70
     0
  0
XRECORD
  5
1BA
102
{ACAD_REACTORS
330
1AF
102
}
330
1AF
100
AcDbXrecord
  1
{FAEB1C32-E019-11D5-929B-00C0DF256EC4}
  0
ENDSEC
  0
EOF
