  0
SECTION
  2
HEADER
  9
$ACADVER
  1
AC1014
  9
$ACADMAINTVER
 70
     9
  9
$DWGCODEPAGE
  3
ASCII
  9
$INSBASE
 10
0.0
 20
0.0
 30
0.0
  9
$EXTMIN
 10
1.000000000000000E+20
 20
1.000000000000000E+20
 30
1.000000000000000E+20
  9
$EXTMAX
 10
-1.000000000000000E+20
 20
-1.000000000000000E+20
 30
-1.000000000000000E+20
  9
$LIMMIN
 10
0.0
 20
0.0
  9
$LIMMAX
 10
12.0
 20
9.0
  9
$ORTHOMODE
 70
     0
  9
$REGENMODE
 70
     1
  9
$FILLMODE
 70
     1
  9
$QTEXTMODE
 70
     0
  9
$MIRRTEXT
 70
     1
  9
$DRAGMODE
 70
     2
  9
$LTSCALE
 40
1.0
  9
$OSMODE
 70
    37
  9
$ATTMODE
 70
     1
  9
$TEXTSIZE
 40
0.2
  9
$TRACEWID
 40
0.05
  9
$TEXTSTYLE
  7
STANDARD
  9
$CLAYER
  8
0
  9
$CELTYPE
  6
BYLAYER
  9
$CECOLOR
 62
   256
  9
$CELTSCALE
 40
1.0
  9
$DELOBJ
 70
     1
  9
$DISPSILH
 70
     0
  9
$DIMSCALE
 40
1.0
  9
$DIMASZ
 40
0.18
  9
$DIMEXO
 40
0.0625
  9
$DIMDLI
 40
0.38
  9
$DIMRND
 40
0.0
  9
$DIMDLE
 40
0.0
  9
$DIMEXE
 40
0.18
  9
$DIMTP
 40
0.0
  9
$DIMTM
 40
0.0
  9
$DIMTXT
 40
0.18
  9
$DIMCEN
 40
0.09
  9
$DIMTSZ
 40
0.0
  9
$DIMTOL
 70
     0
  9
$DIMLIM
 70
     0
  9
$DIMTIH
 70
     1
  9
$DIMTOH
 70
     1
  9
$DIMSE1
 70
     0
  9
$DIMSE2
 70
     0
  9
$DIMTAD
 70
     0
  9
$DIMZIN
 70
     0
  9
$DIMBLK
  1

  9
$DIMASO
 70
     1
  9
$DIMSHO
 70
     1
  9
$DIMPOST
  1

  9
$DIMAPOST
  1

  9
$DIMALT
 70
     0
  9
$DIMALTD
 70
     2
  9
$DIMALTF
 40
25.4
  9
$DIMLFAC
 40
1.0
  9
$DIMTOFL
 70
     0
  9
$DIMTVP
 40
0.0
  9
$DIMTIX
 70
     0
  9
$DIMSOXD
 70
     0
  9
$DIMSAH
 70
     0
  9
$DIMBLK1
  1

  9
$DIMBLK2
  1

  9
$DIMSTYLE
  2
STANDARD
  9
$DIMCLRD
 70
     0
  9
$DIMCLRE
 70
     0
  9
$DIMCLRT
 70
     0
  9
$DIMTFAC
 40
1.0
  9
$DIMGAP
 40
0.09
  9
$DIMJUST
 70
     0
  9
$DIMSD1
 70
     0
  9
$DIMSD2
 70
     0
  9
$DIMTOLJ
 70
     1
  9
$DIMTZIN
 70
     0
  9
$DIMALTZ
 70
     0
  9
$DIMALTTZ
 70
     0
  9
$DIMFIT
 70
     3
  9
$DIMUPT
 70
     0
  9
$DIMUNIT
 70
     2
  9
$DIMDEC
 70
     4
  9
$DIMTDEC
 70
     4
  9
$DIMALTU
 70
     2
  9
$DIMALTTD
 70
     2
  9
$DIMTXSTY
  7
STANDARD
  9
$DIMAUNIT
 70
     0
  9
$LUNITS
 70
     2
  9
$LUPREC
 70
     4
  9
$SKETCHINC
 40
0.1
  9
$FILLETRAD
 40
0.5
  9
$AUNITS
 70
     0
  9
$AUPREC
 70
     0
  9
$MENU
  1
.
  9
$ELEVATION
 40
0.0
  9
$PELEVATION
 40
0.0
  9
$THICKNESS
 40
0.0
  9
$LIMCHECK
 70
     0
  9
$CHAMFERA
 40
0.5
  9
$CHAMFERB
 40
0.5
  9
$CHAMFERC
 40
1.0
  9
$CHAMFERD
 40
0.0
  9
$SKPOLY
 70
     0
  9
$TDCREATE
 40
2456037.455429977
  9
$TDUPDATE
 40
2456037.455429988
  9
$TDINDWG
 40
0.0000000116
  9
$TDUSRTIMER
 40
0.0000000116
  9
$USRTIMER
 70
     1
  9
$ANGBASE
 50
0.0
  9
$ANGDIR
 70
     0
  9
$PDMODE
 70
     0
  9
$PDSIZE
 40
0.0
  9
$PLINEWID
 40
0.0
  9
$COORDS
 70
     1
  9
$SPLFRAME
 70
     0
  9
$SPLINETYPE
 70
     6
  9
$SPLINESEGS
 70
     8
  9
$ATTDIA
 70
     0
  9
$ATTREQ
 70
     1
  9
$HANDLING
 70
     1
  9
$HANDSEED
  5
4D8
  9
$SURFTAB1
 70
     6
  9
$SURFTAB2
 70
     6
  9
$SURFTYPE
 70
     6
  9
$SURFU
 70
     6
  9
$SURFV
 70
     6
  9
$UCSNAME
  2

  9
$UCSORG
 10
0.0
 20
0.0
 30
0.0
  9
$UCSXDIR
 10
1.0
 20
0.0
 30
0.0
  9
$UCSYDIR
 10
0.0
 20
1.0
 30
0.0
  9
$PUCSNAME
  2

  9
$PUCSORG
 10
0.0
 20
0.0
 30
0.0
  9
$PUCSXDIR
 10
1.0
 20
0.0
 30
0.0
  9
$PUCSYDIR
 10
0.0
 20
1.0
 30
0.0
  9
$USERI1
 70
     0
  9
$USERI2
 70
     0
  9
$USERI3
 70
     0
  9
$USERI4
 70
     0
  9
$USERI5
 70
     0
  9
$USERR1
 40
0.0
  9
$USERR2
 40
0.0
  9
$USERR3
 40
0.0
  9
$USERR4
 40
0.0
  9
$USERR5
 40
0.0
  9
$WORLDVIEW
 70
     1
  9
$SHADEDGE
 70
     3
  9
$SHADEDIF
 70
    70
  9
$TILEMODE
 70
     1
  9
$MAXACTVP
 70
    64
  9
$PINSBASE
 10
0.0
 20
0.0
 30
0.0
  9
$PLIMCHECK
 70
     0
  9
$PEXTMIN
 10
1.000000000000000E+20
 20
1.000000000000000E+20
 30
1.000000000000000E+20
  9
$PEXTMAX
 10
-1.000000000000000E+20
 20
-1.000000000000000E+20
 30
-1.000000000000000E+20
  9
$PLIMMIN
 10
0.0
 20
0.0
  9
$PLIMMAX
 10
12.0
 20
9.0
  9
$UNITMODE
 70
     0
  9
$VISRETAIN
 70
     1
  9
$PLINEGEN
 70
     0
  9
$PSLTSCALE
 70
     1
  9
$TREEDEPTH
 70
  3020
  9
$PICKSTYLE
 70
     1
  9
$CMLSTYLE
  2
STANDARD
  9
$CMLJUST
 70
     0
  9
$CMLSCALE
 40
1.0
  9
$PROXYGRAPHICS
 70
     1
  9
$MEASUREMENT
 70
     0
  0
ENDSEC
  0
SECTION
  2
CLASSES
  0
CLASS
  1
ACDBDICTIONARYWDFLT
  2
AcDbDictionaryWithDefault
  3
ObjectDBX Classes
 90
        0
280
     0
281
     0
  0
CLASS
  1
VISUALSTYLE
  2
AcDbVisualStyle
  3
ObjectDBX Classes
 90
     4095
280
     0
281
     0
  0
CLASS
  1
XRECORD
  2
AcDbXrecord
  3
AutoCAD 2000
 90
        0
280
     0
281
     0
  0
CLASS
  1
LWPOLYLINE
  2
AcDbPolyline
  3
AutoCAD 2000
 90
        0
280
     0
281
     1
  0
CLASS
  1
HATCH
  2
AcDbHatch
  3
AutoCAD 2000
 90
        0
280
     0
281
     1
  0
CLASS
  1
ACDBPLACEHOLDER
  2
AcDbPlaceHolder
  3
ObjectDBX Classes
 90
        0
280
     0
281
     0
  0
CLASS
  1
LAYOUT
  2
AcDbLayout
  3
ObjectDBX Classes
 90
        0
280
     0
281
     0
  0
ENDSEC
  0
SECTION
  2
TABLES
  0
TABLE
  2
VPORT
  5
8
330
0
100
AcDbSymbolTable
 70
     1
  0
VPORT
  5
29
330
8
100
AcDbSymbolTableRecord
100
AcDbViewportTableRecord
  2
*ACTIVE
 70
     0
 10
0.0
 20
0.0
 11
1.0
 21
1.0
 12
0.0
 22
0.0
 13
0.0
 23
0.0
 14
0.5
 24
0.5
 15
0.5
 25
0.5
 16
0.0
 26
0.0
 36
1.0
 17
43.89907205338287
 27
-5.085739437746993
 37
0.0
 40
38.28801377420861
 41
3.087519560199525
 42
50.0
 43
0.0
 44
0.0
 50
0.0
 51
0.0
 71
     0
 72
   100
 73
     1
 74
     3
 75
     0
 76
     0
 77
     0
 78
     0
  0
ENDTAB
  0
TABLE
  2
LTYPE
  5
5
330
0
100
AcDbSymbolTable
 70
     4
  0
LTYPE
  5
14
330
5
100
AcDbSymbolTableRecord
100
AcDbLinetypeTableRecord
  2
BYBLOCK
 70
     0
  3

 72
    65
 73
     0
 40
0.0
  0
LTYPE
  5
15
330
5
100
AcDbSymbolTableRecord
100
AcDbLinetypeTableRecord
  2
BYLAYER
 70
     0
  3

 72
    65
 73
     0
 40
0.0
  0
LTYPE
  5
16
330
5
100
AcDbSymbolTableRecord
100
AcDbLinetypeTableRecord
  2
CONTINUOUS
 70
     0
  3
Solid line
 72
    65
 73
     0
 40
0.0
  0
LTYPE
  5
183
330
5
100
AcDbSymbolTableRecord
100
AcDbLinetypeTableRecord
  2
AI-LINETYPE-1
 70
     0
  3
Adobe Illustrator Linetype No. 1
 72
    65
 73
     4
 40
8.819450260381924
 49
7.055560208305538
 74
     0
 49
-0.7055560208305538
 74
     0
 49
0.3527780104152769
 74
     0
 49
-0.7055560208305538
 74
     0
  0
LTYPE
  5
188
330
5
100
AcDbSymbolTableRecord
100
AcDbLinetypeTableRecord
  2
AI-LINETYPE-2
 70
     0
  3
Adobe Illustrator Linetype No. 2
 72
    65
 73
     4
 40
8.819450260381924
 49
7.055560208305538
 74
     0
 49
-0.7055560208305538
 74
     0
 49
0.3527780104152769
 74
     0
 49
-0.7055560208305538
 74
     0
  0
LTYPE
  5
18F
330
5
100
AcDbSymbolTableRecord
100
AcDbLinetypeTableRecord
  2
AI-LINETYPE-3
 70
     0
  3
Adobe Illustrator Linetype No. 3
 72
    65
 73
     4
 40
8.819450260381924
 49
7.055560208305538
 74
     0
 49
-0.7055560208305538
 74
     0
 49
0.3527780104152769
 74
     0
 49
-0.7055560208305538
 74
     0
  0
ENDTAB
  0
TABLE
  2
LAYER
  5
2
330
0
100
AcDbSymbolTable
 70
     5
  0
LAYER
  5
10
330
2
100
AcDbSymbolTableRecord
100
AcDbLayerTableRecord
  2
0
 70
     0
 62
     7
  6
CONTINUOUS
  0
LAYER
  5
3B
330
2
100
AcDbSymbolTableRecord
100
AcDbLayerTableRecord
  2
GRAU_10_
 70
     1
 62
     7
  6
CONTINUOUS
  0
LAYER
  5
41
330
2
100
AcDbSymbolTableRecord
100
AcDbLayerTableRecord
  2
STANDARDEBENE
 70
     0
 62
     7
  6
CONTINUOUS
  0
LAYER
  5
25A
330
2
100
AcDbSymbolTableRecord
100
AcDbLayerTableRecord
  2
BEMA_UNG
 70
     1
 62
     7
  6
CONTINUOUS
  0
LAYER
  5
4B3
330
2
100
AcDbSymbolTableRecord
100
AcDbLayerTableRecord
  2
TEXT
 70
     1
 62
     7
  6
CONTINUOUS
  0
ENDTAB
  0
TABLE
  2
STYLE
  5
3
330
0
100
AcDbSymbolTable
 70
     1
  0
STYLE
  5
11
330
3
100
AcDbSymbolTableRecord
100
AcDbTextStyleTableRecord
  2
STANDARD
 70
     0
 40
0.0
 41
1.0
 50
0.0
 71
     0
 42
0.2
  3
txt
  4

  0
ENDTAB
  0
TABLE
  2
VIEW
  5
6
330
0
100
AcDbSymbolTable
 70
     0
  0
ENDTAB
  0
TABLE
  2
UCS
  5
7
330
0
100
AcDbSymbolTable
 70
     0
  0
ENDTAB
  0
TABLE
  2
APPID
  5
9
330
0
100
AcDbSymbolTable
 70
     1
  0
APPID
  5
12
330
9
100
AcDbSymbolTableRecord
100
AcDbRegAppTableRecord
  2
ACAD
 70
     0
  0
ENDTAB
  0
TABLE
  2
DIMSTYLE
  5
A
330
0
100
AcDbSymbolTable
 70
     1
  0
DIMSTYLE
105
27
330
A
100
AcDbSymbolTableRecord
100
AcDbDimStyleTableRecord
  2
STANDARD
 70
     0
  3

  4

  5

  6

  7

 40
1.0
 41
0.18
 42
0.0625
 43
0.38
 44
0.18
 45
0.0
 46
0.0
 47
0.0
 48
0.0
140
0.18
141
0.09
142
0.0
143
25.4
144
1.0
145
0.0
146
1.0
147
0.09
 71
     0
 72
     0
 73
     1
 74
     1
 75
     0
 76
     0
 77
     0
 78
     0
170
     0
171
     2
172
     0
173
     0
174
     0
175
     0
176
     0
177
     0
178
     0
270
     2
271
     4
272
     4
273
     2
274
     2
340
11
275
     0
280
     0
281
     0
282
     0
283
     1
284
     0
285
     0
286
     0
287
     3
288
     0
  0
ENDTAB
  0
TABLE
  2
BLOCK_RECORD
  5
1
330
0
100
AcDbSymbolTable
 70
     1
  0
BLOCK_RECORD
  5
1F
330
1
100
AcDbSymbolTableRecord
100
AcDbBlockTableRecord
  2
*MODEL_SPACE
  0
BLOCK_RECORD
  5
1B
330
1
100
AcDbSymbolTableRecord
100
AcDbBlockTableRecord
  2
*PAPER_SPACE
  0
ENDTAB
  0
ENDSEC
  0
SECTION
  2
BLOCKS
  0
BLOCK
  5
20
330
1F
100
AcDbEntity
  8
0
100
AcDbBlockBegin
  2
*MODEL_SPACE
 70
     0
 71
     0
 10
0.0
 20
0.0
 30
0.0
  3
*MODEL_SPACE
  1

  0
ENDBLK
  5
21
330
1F
100
AcDbEntity
  8
0
100
AcDbBlockEnd
  0
BLOCK
  5
1C
330
1B
100
AcDbEntity
 67
     1
  8
0
100
AcDbBlockBegin
  2
*PAPER_SPACE
 70
     0
 71
     0
 10
0.0
 20
0.0
 30
0.0
  3
*PAPER_SPACE
  1

  0
ENDBLK
  5
1D
330
1B
100
AcDbEntity
 67
     1
  8
0
100
AcDbBlockEnd
  0
ENDSEC
  0
SECTION
  2
ENTITIES
  0
SPLINE
  5
3C
330
1F
100
AcDbEntity
  8
GRAU_10_
100
AcDbSpline
210
0.0
220
0.0
230
1.0
 70
    11
 71
     3
 72
    17
 73
    13
 74
     0
 42
0.0000000001
 43
0.0000000001
 40
0.0
 40
0.0
 40
0.0
 40
0.0
 40
1.0
 40
1.0
 40
1.0
 40
2.0
 40
2.0
 40
2.0
 40
3.0
 40
3.0
 40
3.0
 40
4.0
 40
4.0
 40
4.0
 40
4.0
 10
88.48406307037591
 20
-19.94918307725295
 30
0.0
 10
83.0342629270563
 20
-19.94918307725295
 30
0.0
 10
78.61695858179783
 20
-15.53153422221868
 30
0.0
 10
78.61695858179783
 20
-10.08190633378698
 30
0.0
 10
78.61695858179783
 20
-4.632278445355286
 30
0.0
 10
83.0342629270563
 20
-0.2146295903210132
 30
0.0
 10
88.48406307037591
 20
-0.2146295903210132
 30
0.0
 10
93.9335187039197
 20
-0.2146295903210132
 30
0.0
 10
98.35151206872978
 20
-4.632278445355286
 30
0.0
 10
98.35151206872978
 20
-10.08190633378698
 30
0.0
 10
98.35151206872978
 20
-15.53153422221868
 30
0.0
 10
93.9335187039197
 20
-19.94918307725295
 30
0.0
 10
88.48406307037591
 20
-19.94918307725295
 30
0.0
  0
SPLINE
  5
3D
330
1F
100
AcDbEntity
  8
GRAU_10_
100
AcDbSpline
210
0.0
220
0.0
230
1.0
 70
    11
 71
     3
 72
    17
 73
    13
 74
     0
 42
0.0000000001
 43
0.0000000001
 40
0.0
 40
0.0
 40
0.0
 40
0.0
 40
1.0
 40
1.0
 40
1.0
 40
2.0
 40
2.0
 40
2.0
 40
3.0
 40
3.0
 40
3.0
 40
4.0
 40
4.0
 40
4.0
 40
4.0
 10
92.45316019732357
 20
-10.17423495370036
 30
0.0
 10
92.45316019732357
 20
-7.961104153985768
 30
0.0
 10
90.65895328497712
 20
-6.167069496527218
 30
0.0
 10
88.44616699503833
 20
-6.167069496527218
 30
0.0
 10
86.23303619532373
 20
-6.167069496527218
 30
0.0
 10
84.4388292829773
 20
-7.961104153985768
 30
0.0
 10
84.4388292829773
 20
-10.17423495370036
 30
0.0
 10
84.4388292829773
 20
-12.38736575341495
 30
0.0
 10
86.23303619532373
 20
-14.1814004108735
 30
0.0
 10
88.44616699503833
 20
-14.1814004108735
 30
0.0
 10
90.65895328497712
 20
-14.1814004108735
 30
0.0
 10
92.45316019732357
 20
-12.38736575341495
 30
0.0
 10
92.45316019732357
 20
-10.17423495370036
 30
0.0
  0
HATCH
  5
3E
330
1F
100
AcDbEntity
  8
GRAU_10_
 62
   255
100
AcDbHatch
 10
0.0
 20
0.0
 30
0.0
210
0.0
220
0.0
230
1.0
  2
SOLID
 70
     1
 71
     0
 91
        2
 92
        1
 93
        1
 72
     4
 94
        3
 73
     0
 74
     1
 95
       17
 96
       13
 40
0.0
 40
0.0
 40
0.0
 40
0.0
 40
1.0
 40
1.0
 40
1.0
 40
2.0
 40
2.0
 40
2.0
 40
3.0
 40
3.0
 40
3.0
 40
4.0
 40
4.0
 40
4.0
 40
4.0
 10
88.48406307037591
 20
-19.94918307725295
 10
83.0342629270563
 20
-19.94918307725295
 10
78.61695858179783
 20
-15.53153422221868
 10
78.61695858179783
 20
-10.08190633378698
 10
78.61695858179783
 20
-4.632278445355286
 10
83.0342629270563
 20
-0.2146295903210132
 10
88.48406307037591
 20
-0.2146295903210132
 10
93.9335187039197
 20
-0.2146295903210132
 10
98.35151206872978
 20
-4.632278445355286
 10
98.35151206872978
 20
-10.08190633378698
 10
98.35151206872978
 20
-15.53153422221868
 10
93.9335187039197
 20
-19.94918307725295
 10
88.48406307037591
 20
-19.94918307725295
 97
        0
 92
        1
 93
        1
 72
     4
 94
        3
 73
     0
 74
     1
 95
       17
 96
       13
 40
0.0
 40
0.0
 40
0.0
 40
0.0
 40
1.0
 40
1.0
 40
1.0
 40
2.0
 40
2.0
 40
2.0
 40
3.0
 40
3.0
 40
3.0
 40
4.0
 40
4.0
 40
4.0
 40
4.0
 10
92.45316019732357
 20
-10.17423495370036
 10
92.45316019732357
 20
-7.961104153985768
 10
90.65895328497712
 20
-6.167069496527218
 10
88.44616699503833
 20
-6.167069496527218
 10
86.23303619532373
 20
-6.167069496527218
 10
84.4388292829773
 20
-7.961104153985768
 10
84.4388292829773
 20
-10.17423495370036
 10
84.4388292829773
 20
-12.38736575341495
 10
86.23303619532373
 20
-14.1814004108735
 10
88.44616699503833
 20
-14.1814004108735
 10
90.65895328497712
 20
-14.1814004108735
 10
92.45316019732357
 20
-12.38736575341495
 10
92.45316019732357
 20
-10.17423495370036
 97
        0
 75
     0
 76
     1
 98
        0
  0
SPLINE
  5
3F
330
1F
100
AcDbEntity
  8
GRAU_10_
100
AcDbSpline
210
0.0
220
0.0
230
1.0
 70
    11
 71
     3
 72
    74
 73
    70
 74
     0
 42
0.0000000001
 43
0.0000000001
 40
0.0
 40
0.0
 40
0.0
 40
0.0
 40
1.0
 40
1.0
 40
1.0
 40
2.0
 40
2.0
 40
2.0
 40
3.0
 40
3.0
 40
3.0
 40
4.0
 40
4.0
 40
4.0
 40
5.0
 40
5.0
 40
5.0
 40
6.0
 40
6.0
 40
6.0
 40
7.0
 40
7.0
 40
7.0
 40
8.0
 40
8.0
 40
8.0
 40
9.0
 40
9.0
 40
9.0
 40
10.0
 40
10.0
 40
10.0
 40
11.0
 40
11.0
 40
11.0
 40
12.0
 40
12.0
 40
12.0
 40
13.0
 40
13.0
 40
13.0
 40
14.0
 40
14.0
 40
14.0
 40
15.0
 40
15.0
 40
15.0
 40
16.0
 40
16.0
 40
16.0
 40
17.0
 40
17.0
 40
17.0
 40
18.0
 40
18.0
 40
18.0
 40
19.0
 40
19.0
 40
19.0
 40
20.0
 40
20.0
 40
20.0
 40
21.0
 40
21.0
 40
21.0
 40
22.0
 40
22.0
 40
22.0
 40
23.0
 40
23.0
 40
23.0
 40
23.0
 10
10.96247332072199
 20
-20.14176404192301
 30
0.0
 10
10.96247332072199
 20
-20.14176404192301
 30
0.0
 10
33.62467088236977
 20
-16.94281851876769
 30
0.0
 10
33.62467088236977
 20
-16.94281851876769
 30
0.0
 10
33.62467088236977
 20
-16.94281851876769
 30
0.0
 10
33.52372951806149
 20
-3.43958560154895
 30
0.0
 10
33.52372951806149
 20
-3.43958560154895
 30
0.0
 10
33.52372951806149
 20
-3.43958560154895
 30
0.0
 10
11.40017299087102
 20
-0.2742297815337504
 30
0.0
 10
10.96247332072199
 20
-0.2742297815337504
 30
0.0
 10
10.52477365057296
 20
-0.2742297815337504
 30
0.0
 10
10.65930471802136
 20
-0.510046723066228
 30
0.0
 10
10.65930471802136
 20
-0.510046723066228
 30
0.0
 10
10.65930471802136
 20
-0.510046723066228
 30
0.0
 10
10.59195305685321
 20
-1.486559682560469
 30
0.0
 10
10.59195305685321
 20
-1.486559682560469
 30
0.0
 10
10.59195305685321
 20
-1.486559682560469
 30
0.0
 10
6.921545905520828
 20
-1.419208021392317
 30
0.0
 10
6.921545905520828
 20
-1.419208021392317
 30
0.0
 10
6.921545905520828
 20
-1.419208021392317
 30
0.0
 10
6.921545905520828
 20
-1.015098054383412
 30
0.0
 10
6.887956202380701
 20
-0.6783397485426564
 30
0.0
 10
6.854366499240576
 20
-0.3415814427019014
 30
0.0
 10
6.786842583184526
 20
-0.3753434007299259
 30
0.0
 10
6.786842583184526
 20
-0.3753434007299259
 30
0.0
 10
6.786842583184526
 20
-0.3753434007299259
 30
0.0
 10
6.551197896539946
 20
-0.3753434007299259
 30
0.0
 10
6.551197896539946
 20
-0.3753434007299259
 30
0.0
 10
6.551197896539946
 20
-0.3753434007299259
 30
0.0
 10
3.116435431852143
 20
-2.261017658550256
 30
0.0
 10
3.116435431852143
 20
-2.261017658550256
 30
0.0
 10
3.116435431852143
 20
-2.261017658550256
 30
0.0
 10
2.981732109515841
 20
-2.665127625559162
 30
0.0
 10
2.981732109515841
 20
-2.665127625559162
 30
0.0
 10
2.981732109515841
 20
-2.665127625559162
 30
0.0
 10
0.4898929011821521
 20
-2.698889583587187
 30
0.0
 10
0.4898929011821521
 20
-2.698889583587187
 30
0.0
 10
0.4898929011821521
 20
-2.698889583587187
 30
0.0
 10
0.018431273005095
 20
-3.136589253736219
 30
0.0
 10
0.018431273005095
 20
-3.136589253736219
 30
0.0
 10
0.018431273005095
 20
-3.136589253736219
 30
0.0
 10
0.018431273005095
 20
-17.27940456972054
 30
0.0
 10
0.018431273005095
 20
-17.27940456972054
 30
0.0
 10
0.018431273005095
 20
-17.27940456972054
 30
0.0
 10
0.5572445623503031
 20
-17.71727649475747
 30
0.0
 10
0.5572445623503031
 20
-17.71727649475747
 30
0.0
 10
0.5572445623503031
 20
-17.71727649475747
 30
0.0
 10
3.049083770683992
 20
-17.68351453672945
 30
0.0
 10
3.049083770683992
 20
-17.68351453672945
 30
0.0
 10
3.049083770683992
 20
-17.68351453672945
 30
0.0
 10
3.082845728712017
 20
-18.08762450373835
 30
0.0
 10
3.082845728712017
 20
-18.08762450373835
 30
0.0
 10
3.082845728712017
 20
-18.08762450373835
 30
0.0
 10
6.248029293839318
 20
-19.97329876155868
 30
0.0
 10
6.517435938511922
 20
-20.10800208389499
 30
0.0
 10
6.786842583184526
 20
-20.24270540623129
 30
0.0
 10
6.854194244352677
 20
-19.87235739725041
 30
0.0
 10
6.854194244352677
 20
-19.87235739725041
 30
0.0
 10
6.854194244352677
 20
-19.87235739725041
 30
0.0
 10
6.854194244352677
 20
-18.79473081855999
 30
0.0
 10
6.854194244352677
 20
-18.79473081855999
 30
0.0
 10
6.854194244352677
 20
-18.79473081855999
 30
0.0
 10
10.59195305685321
 20
-18.92943414089629
 30
0.0
 10
10.59195305685321
 20
-18.92943414089629
 30
0.0
 10
10.59195305685321
 20
-18.92943414089629
 30
0.0
 10
10.62571501488124
 20
-20.00706071958671
 30
0.0
 10
10.62571501488124
 20
-20.00706071958671
 30
0.0
 10
10.62571501488124
 20
-20.00706071958671
 30
0.0
 10
10.96247332072199
 20
-20.14176404192301
 30
0.0
 10
10.96247332072199
 20
-20.14176404192301
 30
0.0
  0
HATCH
  5
40
330
1F
100
AcDbEntity
  8
GRAU_10_
 62
   255
100
AcDbHatch
 10
0.0
 20
0.0
 30
0.0
210
0.0
220
0.0
230
1.0
  2
SOLID
 70
     1
 71
     0
 91
        1
 92
        1
 93
        1
 72
     4
 94
        3
 73
     0
 74
     1
 95
       74
 96
       70
 40
0.0
 40
0.0
 40
0.0
 40
0.0
 40
1.0
 40
1.0
 40
1.0
 40
2.0
 40
2.0
 40
2.0
 40
3.0
 40
3.0
 40
3.0
 40
4.0
 40
4.0
 40
4.0
 40
5.0
 40
5.0
 40
5.0
 40
6.0
 40
6.0
 40
6.0
 40
7.0
 40
7.0
 40
7.0
 40
8.0
 40
8.0
 40
8.0
 40
9.0
 40
9.0
 40
9.0
 40
10.0
 40
10.0
 40
10.0
 40
11.0
 40
11.0
 40
11.0
 40
12.0
 40
12.0
 40
12.0
 40
13.0
 40
13.0
 40
13.0
 40
14.0
 40
14.0
 40
14.0
 40
15.0
 40
15.0
 40
15.0
 40
16.0
 40
16.0
 40
16.0
 40
17.0
 40
17.0
 40
17.0
 40
18.0
 40
18.0
 40
18.0
 40
19.0
 40
19.0
 40
19.0
 40
20.0
 40
20.0
 40
20.0
 40
21.0
 40
21.0
 40
21.0
 40
22.0
 40
22.0
 40
22.0
 40
23.0
 40
23.0
 40
23.0
 40
23.0
 10
10.96247332072199
 20
-20.14176404192301
 10
10.96247332072199
 20
-20.14176404192301
 10
33.62467088236977
 20
-16.94281851876769
 10
33.62467088236977
 20
-16.94281851876769
 10
33.62467088236977
 20
-16.94281851876769
 10
33.52372951806149
 20
-3.43958560154895
 10
33.52372951806149
 20
-3.43958560154895
 10
33.52372951806149
 20
-3.43958560154895
 10
11.40017299087102
 20
-0.2742297815337504
 10
10.96247332072199
 20
-0.2742297815337504
 10
10.52477365057296
 20
-0.2742297815337504
 10
10.65930471802136
 20
-0.510046723066228
 10
10.65930471802136
 20
-0.510046723066228
 10
10.65930471802136
 20
-0.510046723066228
 10
10.59195305685321
 20
-1.486559682560469
 10
10.59195305685321
 20
-1.486559682560469
 10
10.59195305685321
 20
-1.486559682560469
 10
6.921545905520828
 20
-1.419208021392317
 10
6.921545905520828
 20
-1.419208021392317
 10
6.921545905520828
 20
-1.419208021392317
 10
6.921545905520828
 20
-1.015098054383412
 10
6.887956202380701
 20
-0.6783397485426564
 10
6.854366499240576
 20
-0.3415814427019014
 10
6.786842583184526
 20
-0.3753434007299259
 10
6.786842583184526
 20
-0.3753434007299259
 10
6.786842583184526
 20
-0.3753434007299259
 10
6.551197896539946
 20
-0.3753434007299259
 10
6.551197896539946
 20
-0.3753434007299259
 10
6.551197896539946
 20
-0.3753434007299259
 10
3.116435431852143
 20
-2.261017658550256
 10
3.116435431852143
 20
-2.261017658550256
 10
3.116435431852143
 20
-2.261017658550256
 10
2.981732109515841
 20
-2.665127625559162
 10
2.981732109515841
 20
-2.665127625559162
 10
2.981732109515841
 20
-2.665127625559162
 10
0.4898929011821521
 20
-2.698889583587187
 10
0.4898929011821521
 20
-2.698889583587187
 10
0.4898929011821521
 20
-2.698889583587187
 10
0.018431273005095
 20
-3.136589253736219
 10
0.018431273005095
 20
-3.136589253736219
 10
0.018431273005095
 20
-3.136589253736219
 10
0.018431273005095
 20
-17.27940456972054
 10
0.018431273005095
 20
-17.27940456972054
 10
0.018431273005095
 20
-17.27940456972054
 10
0.5572445623503031
 20
-17.71727649475747
 10
0.5572445623503031
 20
-17.71727649475747
 10
0.5572445623503031
 20
-17.71727649475747
 10
3.049083770683992
 20
-17.68351453672945
 10
3.049083770683992
 20
-17.68351453672945
 10
3.049083770683992
 20
-17.68351453672945
 10
3.082845728712017
 20
-18.08762450373835
 10
3.082845728712017
 20
-18.08762450373835
 10
3.082845728712017
 20
-18.08762450373835
 10
6.248029293839318
 20
-19.97329876155868
 10
6.517435938511922
 20
-20.10800208389499
 10
6.786842583184526
 20
-20.24270540623129
 10
6.854194244352677
 20
-19.87235739725041
 10
6.854194244352677
 20
-19.87235739725041
 10
6.854194244352677
 20
-19.87235739725041
 10
6.854194244352677
 20
-18.79473081855999
 10
6.854194244352677
 20
-18.79473081855999
 10
6.854194244352677
 20
-18.79473081855999
 10
10.59195305685321
 20
-18.92943414089629
 10
10.59195305685321
 20
-18.92943414089629
 10
10.59195305685321
 20
-18.92943414089629
 10
10.62571501488124
 20
-20.00706071958671
 10
10.62571501488124
 20
-20.00706071958671
 10
10.62571501488124
 20
-20.00706071958671
 10
10.96247332072199
 20
-20.14176404192301
 10
10.96247332072199
 20
-20.14176404192301
 97
        0
 75
     0
 76
     1
 98
        0
  0
POLYLINE
  5
42
330
1F
100
AcDbEntity
  8
STANDARDEBENE
 62
     7
100
AcDb2dPolyline
 66
     1
 10
0.0
 20
0.0
 30
0.0
  0
VERTEX
  5
43
330
42
100
AcDbEntity
  8
STANDARDEBENE
 62
     7
100
AcDbVertex
100
AcDb2dVertex
 10
33.57816206263729
 20
-3.954455461476324
 30
0.0
  0
VERTEX
  5
44
330
42
100
AcDbEntity
  8
STANDARDEBENE
 62
     7
100
AcDbVertex
100
AcDb2dVertex
 10
33.49169010891245
 20
-4.004753888742565
 30
0.0
  0
SEQEND
  5
45
330
42
100
AcDbEntity
  8
STANDARDEBENE
  0
POLYLINE
  5
46
330
1F
100
AcDbEntity
  8
STANDARDEBENE
 62
     7
100
AcDb2dPolyline
 66
     1
 10
0.0
 20
0.0
 30
0.0
  0
VERTEX
  5
47
330
46
100
AcDbEntity
  8
STANDARDEBENE
 62
     7
100
AcDbVertex
100
AcDb2dVertex
 10
33.31891845635067
 20
-4.104317213947658
 30
0.0
  0
VERTEX
  5
48
330
46
100
AcDbEntity
  8
STANDARDEBENE
 62
     7
100
AcDbVertex
100
AcDb2dVertex
 10
33.23210199285004
 20
-4.154615641213899
 30
0.0
  0
SEQEND
  5
49
330
46
100
AcDbEntity
  8
STANDARDEBENE
  0
POLYLINE
  5
4A
330
1F
100
AcDbEntity
  8
STANDARDEBENE
 62
     7
100
AcDb2dPolyline
 66
     1
 10
0.0
 20
0.0
 30
0.0
  0
VERTEX
  5
4B
330
4A
100
AcDbEntity
  8
STANDARDEBENE
 62
     7
100
AcDbVertex
100
AcDb2dVertex
 10
33.23210199285004
 20
-16.25431573183904
 30
0.0
  0
VERTEX
  5
4C
330
4A
100
AcDbEntity
  8
STANDARDEBENE
 62
     7
100
AcDbVertex
100
AcDb2dVertex
 10
33.31891845635067
 20
-16.30478641399318
 30
0.0
  0
SEQEND
  5
4D
330
4A
100
AcDbEntity
  8
STANDARDEBENE
  0
POLYLINE
  5
4E
330
1F
100
AcDbEntity
  8
STANDARDEBENE
 62
     7
100
AcDb2dPolyline
 66
     1
 10
0.0
 20
0.0
 30
0.0
  0
VERTEX
  5
4F
330
4E
100
AcDbEntity
  8
STANDARDEBENE
 62
     7
100
AcDbVertex
100
AcDb2dVertex
 10
33.49169010891245
 20
-16.40452199408617
 30
0.0
  0
VERTEX
  5
50
330
4E
100
AcDbEntity
  8
STANDARDEBENE
 62
     7
100
AcDbVertex
100
AcDb2dVertex
 10
33.57816206263729
 20
-16.45430365668872
 30
0.0
  0
SEQEND
  5
51
330
4E
100
AcDbEntity
  8
STANDARDEBENE
  0
POLYLINE
  5
52
330
1F
100
AcDbEntity
  8
STANDARDEBENE
 62
     7
100
AcDb2dPolyline
 66
     1
 10
0.0
 20
0.0
 30
0.0
  0
VERTEX
  5
53
330
52
100
AcDbEntity
  8
STANDARDEBENE
 62
     7
100
AcDbVertex
100
AcDb2dVertex
 10
33.23210199285004
 20
-4.154615641213899
 30
0.0
  0
VERTEX
  5
54
330
52
100
AcDbEntity
  8
STANDARDEBENE
 62
     7
100
AcDbVertex
100
AcDb2dVertex
 10
32.63799488448954
 20
-4.154615641213899
 30
0.0
  0
SEQEND
  5
55
330
52
100
AcDbEntity
  8
STANDARDEBENE
  0
POLYLINE
  5
56
330
1F
100
AcDbEntity
  8
STANDARDEBENE
 62
     7
100
AcDb2dPolyline
 66
     1
 10
0.0
 20
0.0
 30
0.0
  0
VERTEX
  5
57
330
56
100
AcDbEntity
  8
STANDARDEBENE
 62
     7
100
AcDbVertex
100
AcDb2dVertex
 10
31.44943615799276
 20
-4.154615641213899
 30
0.0
  0
VERTEX
  5
58
330
56
100
AcDbEntity
  8
STANDARDEBENE
 62
     7
100
AcDbVertex
100
AcDb2dVertex
 10
30.26104968638388
 20
-4.154615641213899
 30
0.0
  0
SEQEND
  5
59
330
56
100
AcDbEntity
  8
STANDARDEBENE
  0
POLYLINE
  5
5A
330
1F
100
AcDbEntity
  8
STANDARDEBENE
 62
     7
100
AcDb2dPolyline
 66
     1
 10
0.0
 20
0.0
 30
0.0
  0
VERTEX
  5
5B
330
5A
100
AcDbEntity
  8
STANDARDEBENE
 62
     7
100
AcDbVertex
100
AcDb2dVertex
 10
29.0724909598871
 20
-4.154615641213899
 30
0.0
  0
VERTEX
  5
5C
330
5A
100
AcDbEntity
  8
STANDARDEBENE
 62
     7
100
AcDbVertex
100
AcDb2dVertex
 10
28.4783838515266
 20
-4.154615641213899
 30
0.0
  0
SEQEND
  5
5D
330
5A
100
AcDbEntity
  8
STANDARDEBENE
  0
POLYLINE
  5
5E
330
1F
100
AcDbEntity
  8
STANDARDEBENE
 62
     7
100
AcDb2dPolyline
 66
     1
 10
0.0
 20
0.0
 30
0.0
  0
VERTEX
  5
5F
330
5E
100
AcDbEntity
  8
STANDARDEBENE
 62
     7
100
AcDbVertex
100
AcDb2dVertex
 10
28.4783838515266
 20
-16.25431573183904
 30
0.0
  0
VERTEX
  5
60
330
5E
100
AcDbEntity
  8
STANDARDEBENE
 62
     7
100
AcDbVertex
100
AcDb2dVertex
 10
29.0724909598871
 20
-16.25431573183904
 30
0.0
  0
SEQEND
  5
61
330
5E
100
AcDbEntity
  8
STANDARDEBENE
  0
POLYLINE
  5
62
330
1F
100
AcDbEntity
  8
STANDARDEBENE
 62
     7
100
AcDb2dPolyline
 66
     1
 10
0.0
 20
0.0
 30
0.0
  0
VERTEX
  5
63
330
62
100
AcDbEntity
  8
STANDARDEBENE
 62
     7
100
AcDbVertex
100
AcDb2dVertex
 10
30.26104968638388
 20
-16.25431573183904
 30
0.0
  0
VERTEX
  5
64
330
62
100
AcDbEntity
  8
STANDARDEBENE
 62
     7
100
AcDbVertex
100
AcDb2dVertex
 10
31.44943615799276
 20
-16.25431573183904
 30
0.0
  0
SEQEND
  5
65
330
62
100
AcDbEntity
  8
STANDARDEBENE
  0
POLYLINE
  5
66
330
1F
100
AcDbEntity
  8
STANDARDEBENE
 62
     7
100
AcDb2dPolyline
 66
     1
 10
0.0
 20
0.0
 30
0.0
  0
VERTEX
  5
67
330
66
100
AcDbEntity
  8
STANDARDEBENE
 62
     7
100
AcDbVertex
100
AcDb2dVertex
 10
32.63799488448954
 20
-16.25431573183904
 30
0.0
  0
VERTEX
  5
68
330
66
100
AcDbEntity
  8
STANDARDEBENE
 62
     7
100
AcDbVertex
100
AcDb2dVertex
 10
33.23210199285004
 20
-16.25431573183904
 30
0.0
  0
SEQEND
  5
69
330
66
100
AcDbEntity
  8
STANDARDEBENE
  0
POLYLINE
  5
6A
330
1F
100
AcDbEntity
  8
STANDARDEBENE
 62
     7
100
AcDb2dPolyline
 66
     1
 10
0.0
 20
0.0
 30
0.0
  0
VERTEX
  5
6B
330
6A
100
AcDbEntity
  8
STANDARDEBENE
 62
     7
100
AcDbVertex
100
AcDb2dVertex
 10
28.07840800182725
 20
-5.954334709973084
 30
0.0
  0
VERTEX
  5
6C
330
6A
100
AcDbEntity
  8
STANDARDEBENE
 62
     7
100
AcDbVertex
100
AcDb2dVertex
 10
28.0286263392247
 20
-6.004633137239325
 30
0.0
  0
SEQEND
  5
6D
330
6A
100
AcDbEntity
  8
STANDARDEBENE
  0
POLYLINE
  5
6E
330
1F
100
AcDbEntity
  8
STANDARDEBENE
 62
     7
100
AcDb2dPolyline
 66
     1
 10
0.0
 20
0.0
 30
0.0
  0
VERTEX
  5
6F
330
6E
100
AcDbEntity
  8
STANDARDEBENE
 62
     7
100
AcDbVertex
100
AcDb2dVertex
 10
27.92871850424381
 20
-6.10488548199601
 30
0.0
  0
VERTEX
  5
70
330
6E
100
AcDbEntity
  8
STANDARDEBENE
 62
     7
100
AcDbVertex
100
AcDb2dVertex
 10
27.87824782208968
 20
-6.154150379934862
 30
0.0
  0
SEQEND
  5
71
330
6E
100
AcDbEntity
  8
STANDARDEBENE
  0
POLYLINE
  5
72
330
1F
100
AcDbEntity
  8
STANDARDEBENE
 62
     7
100
AcDb2dPolyline
 66
     1
 10
0.0
 20
0.0
 30
0.0
  0
VERTEX
  5
73
330
72
100
AcDbEntity
  8
STANDARDEBENE
 62
     7
100
AcDbVertex
100
AcDb2dVertex
 10
27.87824782208968
 20
-14.25443648334228
 30
0.0
  0
VERTEX
  5
74
330
72
100
AcDbEntity
  8
STANDARDEBENE
 62
     7
100
AcDbVertex
100
AcDb2dVertex
 10
27.92871850424381
 20
-14.30490716549642
 30
0.0
  0
SEQEND
  5
75
330
72
100
AcDbEntity
  8
STANDARDEBENE
  0
POLYLINE
  5
76
330
1F
100
AcDbEntity
  8
STANDARDEBENE
 62
     7
100
AcDb2dPolyline
 66
     1
 10
0.0
 20
0.0
 30
0.0
  0
VERTEX
  5
77
330
76
100
AcDbEntity
  8
STANDARDEBENE
 62
     7
100
AcDbVertex
100
AcDb2dVertex
 10
28.0286263392247
 20
-14.40429823581362
 30
0.0
  0
VERTEX
  5
78
330
76
100
AcDbEntity
  8
STANDARDEBENE
 62
     7
100
AcDbVertex
100
AcDb2dVertex
 10
28.07840800182725
 20
-14.45476891796775
 30
0.0
  0
SEQEND
  5
79
330
76
100
AcDbEntity
  8
STANDARDEBENE
  0
POLYLINE
  5
7A
330
1F
100
AcDbEntity
  8
STANDARDEBENE
 62
     7
100
AcDb2dPolyline
 66
     1
 10
0.0
 20
0.0
 30
0.0
  0
VERTEX
  5
7B
330
7A
100
AcDbEntity
  8
STANDARDEBENE
 62
     7
100
AcDbVertex
100
AcDb2dVertex
 10
27.87824782208968
 20
-6.154150379934862
 30
0.0
  0
VERTEX
  5
7C
330
7A
100
AcDbEntity
  8
STANDARDEBENE
 62
     7
100
AcDbVertex
100
AcDb2dVertex
 10
27.3632057072744
 20
-6.154150379934862
 30
0.0
  0
SEQEND
  5
7D
330
7A
100
AcDbEntity
  8
STANDARDEBENE
  0
POLYLINE
  5
7E
330
1F
100
AcDbEntity
  8
STANDARDEBENE
 62
     7
100
AcDb2dPolyline
 66
     1
 10
0.0
 20
0.0
 30
0.0
  0
VERTEX
  5
7F
330
7E
100
AcDbEntity
  8
STANDARDEBENE
 62
     7
100
AcDbVertex
100
AcDb2dVertex
 10
26.33243245809227
 20
-6.154150379934862
 30
0.0
  0
VERTEX
  5
80
330
7E
100
AcDbEntity
  8
STANDARDEBENE
 62
     7
100
AcDbVertex
100
AcDb2dVertex
 10
25.30165920891013
 20
-6.154150379934862
 30
0.0
  0
SEQEND
  5
81
330
7E
100
AcDbEntity
  8
STANDARDEBENE
  0
POLYLINE
  5
82
330
1F
100
AcDbEntity
  8
STANDARDEBENE
 62
     7
100
AcDb2dPolyline
 66
     1
 10
0.0
 20
0.0
 30
0.0
  0
VERTEX
  5
83
330
82
100
AcDbEntity
  8
STANDARDEBENE
 62
     7
100
AcDbVertex
100
AcDb2dVertex
 10
24.2705414499522
 20
-6.154150379934862
 30
0.0
  0
VERTEX
  5
84
330
82
100
AcDbEntity
  8
STANDARDEBENE
 62
     7
100
AcDbVertex
100
AcDb2dVertex
 10
23.23959594588216
 20
-6.154150379934862
 30
0.0
  0
SEQEND
  5
85
330
82
100
AcDbEntity
  8
STANDARDEBENE
  0
POLYLINE
  5
86
330
1F
100
AcDbEntity
  8
STANDARDEBENE
 62
     7
100
AcDb2dPolyline
 66
     1
 10
0.0
 20
0.0
 30
0.0
  0
VERTEX
  5
87
330
86
100
AcDbEntity
  8
STANDARDEBENE
 62
     7
100
AcDbVertex
100
AcDb2dVertex
 10
22.20951171625162
 20
-6.154150379934862
 30
0.0
  0
VERTEX
  5
88
330
86
100
AcDbEntity
  8
STANDARDEBENE
 62
     7
100
AcDbVertex
100
AcDb2dVertex
 10
21.17839395729368
 20
-6.154150379934862
 30
0.0
  0
SEQEND
  5
89
330
86
100
AcDbEntity
  8
STANDARDEBENE
  0
POLYLINE
  5
8A
330
1F
100
AcDbEntity
  8
STANDARDEBENE
 62
     7
100
AcDb2dPolyline
 66
     1
 10
0.0
 20
0.0
 30
0.0
  0
VERTEX
  5
8B
330
8A
100
AcDbEntity
  8
STANDARDEBENE
 62
     7
100
AcDbVertex
100
AcDb2dVertex
 10
20.14744845322365
 20
-6.154150379934862
 30
0.0
  0
VERTEX
  5
8C
330
8A
100
AcDbEntity
  8
STANDARDEBENE
 62
     7
100
AcDbVertex
100
AcDb2dVertex
 10
19.11701971381731
 20
-6.154150379934862
 30
0.0
  0
SEQEND
  5
8D
330
8A
100
AcDbEntity
  8
STANDARDEBENE
  0
POLYLINE
  5
8E
330
1F
100
AcDbEntity
  8
STANDARDEBENE
 62
     7
100
AcDb2dPolyline
 66
     1
 10
0.0
 20
0.0
 30
0.0
  0
VERTEX
  5
8F
330
8E
100
AcDbEntity
  8
STANDARDEBENE
 62
     7
100
AcDbVertex
100
AcDb2dVertex
 10
18.08624646463517
 20
-6.154150379934862
 30
0.0
  0
VERTEX
  5
90
330
8E
100
AcDbEntity
  8
STANDARDEBENE
 62
     7
100
AcDbVertex
100
AcDb2dVertex
 10
17.05547321545303
 20
-6.154150379934862
 30
0.0
  0
SEQEND
  5
91
330
8E
100
AcDbEntity
  8
STANDARDEBENE
  0
POLYLINE
  5
92
330
1F
100
AcDbEntity
  8
STANDARDEBENE
 62
     7
100
AcDb2dPolyline
 66
     1
 10
0.0
 20
0.0
 30
0.0
  0
VERTEX
  5
93
330
92
100
AcDbEntity
  8
STANDARDEBENE
 62
     7
100
AcDbVertex
100
AcDb2dVertex
 10
16.0243554564951
 20
-6.154150379934862
 30
0.0
  0
VERTEX
  5
94
330
92
100
AcDbEntity
  8
STANDARDEBENE
 62
     7
100
AcDbVertex
100
AcDb2dVertex
 10
14.99409897197666
 20
-6.154150379934862
 30
0.0
  0
SEQEND
  5
95
330
92
100
AcDbEntity
  8
STANDARDEBENE
  0
POLYLINE
  5
96
330
1F
100
AcDbEntity
  8
STANDARDEBENE
 62
     7
100
AcDb2dPolyline
 66
     1
 10
0.0
 20
0.0
 30
0.0
  0
VERTEX
  5
97
330
96
100
AcDbEntity
  8
STANDARDEBENE
 62
     7
100
AcDbVertex
100
AcDb2dVertex
 10
13.96332572279452
 20
-6.154150379934862
 30
0.0
  0
VERTEX
  5
98
330
96
100
AcDbEntity
  8
STANDARDEBENE
 62
     7
100
AcDbVertex
100
AcDb2dVertex
 10
12.93220796383659
 20
-6.154150379934862
 30
0.0
  0
SEQEND
  5
99
330
96
100
AcDbEntity
  8
STANDARDEBENE
  0
POLYLINE
  5
9A
330
1F
100
AcDbEntity
  8
STANDARDEBENE
 62
     7
100
AcDb2dPolyline
 66
     1
 10
0.0
 20
0.0
 30
0.0
  0
VERTEX
  5
9B
330
9A
100
AcDbEntity
  8
STANDARDEBENE
 62
     7
100
AcDbVertex
100
AcDb2dVertex
 10
11.90126245976655
 20
-6.154150379934862
 30
0.0
  0
VERTEX
  5
9C
330
9A
100
AcDbEntity
  8
STANDARDEBENE
 62
     7
100
AcDbVertex
100
AcDb2dVertex
 10
10.87083372036021
 20
-6.154150379934862
 30
0.0
  0
SEQEND
  5
9D
330
9A
100
AcDbEntity
  8
STANDARDEBENE
  0
POLYLINE
  5
9E
330
1F
100
AcDbEntity
  8
STANDARDEBENE
 62
     7
100
AcDb2dPolyline
 66
     1
 10
0.0
 20
0.0
 30
0.0
  0
VERTEX
  5
9F
330
9E
100
AcDbEntity
  8
STANDARDEBENE
 62
     7
100
AcDbVertex
100
AcDb2dVertex
 10
9.840060471178072
 20
-6.154150379934862
 30
0.0
  0
VERTEX
  5
A0
330
9E
100
AcDbEntity
  8
STANDARDEBENE
 62
     7
100
AcDbVertex
100
AcDb2dVertex
 10
8.809287221995936
 20
-6.154150379934862
 30
0.0
  0
SEQEND
  5
A1
330
9E
100
AcDbEntity
  8
STANDARDEBENE
  0
POLYLINE
  5
A2
330
1F
100
AcDbEntity
  8
STANDARDEBENE
 62
     7
100
AcDb2dPolyline
 66
     1
 10
0.0
 20
0.0
 30
0.0
  0
VERTEX
  5
A3
330
A2
100
AcDbEntity
  8
STANDARDEBENE
 62
     7
100
AcDbVertex
100
AcDb2dVertex
 10
7.778513972813799
 20
-6.154150379934862
 30
0.0
  0
VERTEX
  5
A4
330
A2
100
AcDbEntity
  8
STANDARDEBENE
 62
     7
100
AcDbVertex
100
AcDb2dVertex
 10
6.747912978519559
 20
-6.154150379934862
 30
0.0
  0
SEQEND
  5
A5
330
A2
100
AcDbEntity
  8
STANDARDEBENE
  0
POLYLINE
  5
A6
330
1F
100
AcDbEntity
  8
STANDARDEBENE
 62
     7
100
AcDb2dPolyline
 66
     1
 10
0.0
 20
0.0
 30
0.0
  0
VERTEX
  5
A7
330
A6
100
AcDbEntity
  8
STANDARDEBENE
 62
     7
100
AcDbVertex
100
AcDb2dVertex
 10
5.717139729337422
 20
-6.154150379934862
 30
0.0
  0
VERTEX
  5
A8
330
A6
100
AcDbEntity
  8
STANDARDEBENE
 62
     7
100
AcDbVertex
100
AcDb2dVertex
 10
4.686021970379489
 20
-6.154150379934862
 30
0.0
  0
SEQEND
  5
A9
330
A6
100
AcDbEntity
  8
STANDARDEBENE
  0
POLYLINE
  5
AA
330
1F
100
AcDbEntity
  8
STANDARDEBENE
 62
     7
100
AcDb2dPolyline
 66
     1
 10
0.0
 20
0.0
 30
0.0
  0
VERTEX
  5
AB
330
AA
100
AcDbEntity
  8
STANDARDEBENE
 62
     7
100
AcDbVertex
100
AcDb2dVertex
 10
3.655076466309453
 20
-6.154150379934862
 30
0.0
  0
VERTEX
  5
AC
330
AA
100
AcDbEntity
  8
STANDARDEBENE
 62
     7
100
AcDbVertex
100
AcDb2dVertex
 10
2.624647726903112
 20
-6.154150379934862
 30
0.0
  0
SEQEND
  5
AD
330
AA
100
AcDbEntity
  8
STANDARDEBENE
  0
POLYLINE
  5
AE
330
1F
100
AcDbEntity
  8
STANDARDEBENE
 62
     7
100
AcDb2dPolyline
 66
     1
 10
0.0
 20
0.0
 30
0.0
  0
VERTEX
  5
AF
330
AE
100
AcDbEntity
  8
STANDARDEBENE
 62
     7
100
AcDbVertex
100
AcDb2dVertex
 10
1.593874477720975
 20
-6.154150379934862
 30
0.0
  0
VERTEX
  5
B0
330
AE
100
AcDbEntity
  8
STANDARDEBENE
 62
     7
100
AcDbVertex
100
AcDb2dVertex
 10
1.078487853129906
 20
-6.154150379934862
 30
0.0
  0
SEQEND
  5
B1
330
AE
100
AcDbEntity
  8
STANDARDEBENE
  0
POLYLINE
  5
B2
330
1F
100
AcDbEntity
  8
STANDARDEBENE
 62
     7
100
AcDb2dPolyline
 66
     1
 10
0.0
 20
0.0
 30
0.0
  0
VERTEX
  5
B3
330
B2
100
AcDbEntity
  8
STANDARDEBENE
 62
     7
100
AcDbVertex
100
AcDb2dVertex
 10
1.078487853129906
 20
-14.25443648334228
 30
0.0
  0
VERTEX
  5
B4
330
B2
100
AcDbEntity
  8
STANDARDEBENE
 62
     7
100
AcDbVertex
100
AcDb2dVertex
 10
1.593874477720975
 20
-14.25443648334228
 30
0.0
  0
SEQEND
  5
B5
330
B2
100
AcDbEntity
  8
STANDARDEBENE
  0
POLYLINE
  5
B6
330
1F
100
AcDbEntity
  8
STANDARDEBENE
 62
     7
100
AcDb2dPolyline
 66
     1
 10
0.0
 20
0.0
 30
0.0
  0
VERTEX
  5
B7
330
B6
100
AcDbEntity
  8
STANDARDEBENE
 62
     7
100
AcDbVertex
100
AcDb2dVertex
 10
2.624647726903112
 20
-14.25443648334228
 30
0.0
  0
VERTEX
  5
B8
330
B6
100
AcDbEntity
  8
STANDARDEBENE
 62
     7
100
AcDbVertex
100
AcDb2dVertex
 10
3.655076466309453
 20
-14.25443648334228
 30
0.0
  0
SEQEND
  5
B9
330
B6
100
AcDbEntity
  8
STANDARDEBENE
  0
POLYLINE
  5
BA
330
1F
100
AcDbEntity
  8
STANDARDEBENE
 62
     7
100
AcDb2dPolyline
 66
     1
 10
0.0
 20
0.0
 30
0.0
  0
VERTEX
  5
BB
330
BA
100
AcDbEntity
  8
STANDARDEBENE
 62
     7
100
AcDbVertex
100
AcDb2dVertex
 10
4.686021970379489
 20
-14.25443648334228
 30
0.0
  0
VERTEX
  5
BC
330
BA
100
AcDbEntity
  8
STANDARDEBENE
 62
     7
100
AcDbVertex
100
AcDb2dVertex
 10
5.717139729337422
 20
-14.25443648334228
 30
0.0
  0
SEQEND
  5
BD
330
BA
100
AcDbEntity
  8
STANDARDEBENE
  0
POLYLINE
  5
BE
330
1F
100
AcDbEntity
  8
STANDARDEBENE
 62
     7
100
AcDb2dPolyline
 66
     1
 10
0.0
 20
0.0
 30
0.0
  0
VERTEX
  5
BF
330
BE
100
AcDbEntity
  8
STANDARDEBENE
 62
     7
100
AcDbVertex
100
AcDb2dVertex
 10
6.747912978519559
 20
-14.25443648334228
 30
0.0
  0
VERTEX
  5
C0
330
BE
100
AcDbEntity
  8
STANDARDEBENE
 62
     7
100
AcDbVertex
100
AcDb2dVertex
 10
7.778513972813799
 20
-14.25443648334228
 30
0.0
  0
SEQEND
  5
C1
330
BE
100
AcDbEntity
  8
STANDARDEBENE
  0
POLYLINE
  5
C2
330
1F
100
AcDbEntity
  8
STANDARDEBENE
 62
     7
100
AcDb2dPolyline
 66
     1
 10
0.0
 20
0.0
 30
0.0
  0
VERTEX
  5
C3
330
C2
100
AcDbEntity
  8
STANDARDEBENE
 62
     7
100
AcDbVertex
100
AcDb2dVertex
 10
8.809287221995936
 20
-14.25443648334228
 30
0.0
  0
VERTEX
  5
C4
330
C2
100
AcDbEntity
  8
STANDARDEBENE
 62
     7
100
AcDbVertex
100
AcDb2dVertex
 10
9.840060471178072
 20
-14.25443648334228
 30
0.0
  0
SEQEND
  5
C5
330
C2
100
AcDbEntity
  8
STANDARDEBENE
  0
POLYLINE
  5
C6
330
1F
100
AcDbEntity
  8
STANDARDEBENE
 62
     7
100
AcDb2dPolyline
 66
     1
 10
0.0
 20
0.0
 30
0.0
  0
VERTEX
  5
C7
330
C6
100
AcDbEntity
  8
STANDARDEBENE
 62
     7
100
AcDbVertex
100
AcDb2dVertex
 10
10.87083372036021
 20
-14.25443648334228
 30
0.0
  0
VERTEX
  5
C8
330
C6
100
AcDbEntity
  8
STANDARDEBENE
 62
     7
100
AcDbVertex
100
AcDb2dVertex
 10
11.90126245976655
 20
-14.25443648334228
 30
0.0
  0
SEQEND
  5
C9
330
C6
100
AcDbEntity
  8
STANDARDEBENE
  0
POLYLINE
  5
CA
330
1F
100
AcDbEntity
  8
STANDARDEBENE
 62
     7
100
AcDb2dPolyline
 66
     1
 10
0.0
 20
0.0
 30
0.0
  0
VERTEX
  5
CB
330
CA
100
AcDbEntity
  8
STANDARDEBENE
 62
     7
100
AcDbVertex
100
AcDb2dVertex
 10
12.93220796383659
 20
-14.25443648334228
 30
0.0
  0
VERTEX
  5
CC
330
CA
100
AcDbEntity
  8
STANDARDEBENE
 62
     7
100
AcDbVertex
100
AcDb2dVertex
 10
13.96332572279452
 20
-14.25443648334228
 30
0.0
  0
SEQEND
  5
CD
330
CA
100
AcDbEntity
  8
STANDARDEBENE
  0
POLYLINE
  5
CE
330
1F
100
AcDbEntity
  8
STANDARDEBENE
 62
     7
100
AcDb2dPolyline
 66
     1
 10
0.0
 20
0.0
 30
0.0
  0
VERTEX
  5
CF
330
CE
100
AcDbEntity
  8
STANDARDEBENE
 62
     7
100
AcDbVertex
100
AcDb2dVertex
 10
14.99409897197666
 20
-14.25443648334228
 30
0.0
  0
VERTEX
  5
D0
330
CE
100
AcDbEntity
  8
STANDARDEBENE
 62
     7
100
AcDbVertex
100
AcDb2dVertex
 10
16.0243554564951
 20
-14.25443648334228
 30
0.0
  0
SEQEND
  5
D1
330
CE
100
AcDbEntity
  8
STANDARDEBENE
  0
POLYLINE
  5
D2
330
1F
100
AcDbEntity
  8
STANDARDEBENE
 62
     7
100
AcDb2dPolyline
 66
     1
 10
0.0
 20
0.0
 30
0.0
  0
VERTEX
  5
D3
330
D2
100
AcDbEntity
  8
STANDARDEBENE
 62
     7
100
AcDbVertex
100
AcDb2dVertex
 10
17.05547321545303
 20
-14.25443648334228
 30
0.0
  0
VERTEX
  5
D4
330
D2
100
AcDbEntity
  8
STANDARDEBENE
 62
     7
100
AcDbVertex
100
AcDb2dVertex
 10
18.08624646463517
 20
-14.25443648334228
 30
0.0
  0
SEQEND
  5
D5
330
D2
100
AcDbEntity
  8
STANDARDEBENE
  0
POLYLINE
  5
D6
330
1F
100
AcDbEntity
  8
STANDARDEBENE
 62
     7
100
AcDb2dPolyline
 66
     1
 10
0.0
 20
0.0
 30
0.0
  0
VERTEX
  5
D7
330
D6
100
AcDbEntity
  8
STANDARDEBENE
 62
     7
100
AcDbVertex
100
AcDb2dVertex
 10
19.11701971381731
 20
-14.25443648334228
 30
0.0
  0
VERTEX
  5
D8
330
D6
100
AcDbEntity
  8
STANDARDEBENE
 62
     7
100
AcDbVertex
100
AcDb2dVertex
 10
20.14744845322365
 20
-14.25443648334228
 30
0.0
  0
SEQEND
  5
D9
330
D6
100
AcDbEntity
  8
STANDARDEBENE
  0
POLYLINE
  5
DA
330
1F
100
AcDbEntity
  8
STANDARDEBENE
 62
     7
100
AcDb2dPolyline
 66
     1
 10
0.0
 20
0.0
 30
0.0
  0
VERTEX
  5
DB
330
DA
100
AcDbEntity
  8
STANDARDEBENE
 62
     7
100
AcDbVertex
100
AcDb2dVertex
 10
21.17839395729368
 20
-14.25443648334228
 30
0.0
  0
VERTEX
  5
DC
330
DA
100
AcDbEntity
  8
STANDARDEBENE
 62
     7
100
AcDbVertex
100
AcDb2dVertex
 10
22.20951171625162
 20
-14.25443648334228
 30
0.0
  0
SEQEND
  5
DD
330
DA
100
AcDbEntity
  8
STANDARDEBENE
  0
POLYLINE
  5
DE
330
1F
100
AcDbEntity
  8
STANDARDEBENE
 62
     7
100
AcDb2dPolyline
 66
     1
 10
0.0
 20
0.0
 30
0.0
  0
VERTEX
  5
DF
330
DE
100
AcDbEntity
  8
STANDARDEBENE
 62
     7
100
AcDbVertex
100
AcDb2dVertex
 10
23.23959594588216
 20
-14.25443648334228
 30
0.0
  0
VERTEX
  5
E0
330
DE
100
AcDbEntity
  8
STANDARDEBENE
 62
     7
100
AcDbVertex
100
AcDb2dVertex
 10
24.2705414499522
 20
-14.25443648334228
 30
0.0
  0
SEQEND
  5
E1
330
DE
100
AcDbEntity
  8
STANDARDEBENE
  0
POLYLINE
  5
E2
330
1F
100
AcDbEntity
  8
STANDARDEBENE
 62
     7
100
AcDb2dPolyline
 66
     1
 10
0.0
 20
0.0
 30
0.0
  0
VERTEX
  5
E3
330
E2
100
AcDbEntity
  8
STANDARDEBENE
 62
     7
100
AcDbVertex
100
AcDb2dVertex
 10
25.30165920891013
 20
-14.25443648334228
 30
0.0
  0
VERTEX
  5
E4
330
E2
100
AcDbEntity
  8
STANDARDEBENE
 62
     7
100
AcDbVertex
100
AcDb2dVertex
 10
26.33243245809227
 20
-14.25443648334228
 30
0.0
  0
SEQEND
  5
E5
330
E2
100
AcDbEntity
  8
STANDARDEBENE
  0
POLYLINE
  5
E6
330
1F
100
AcDbEntity
  8
STANDARDEBENE
 62
     7
100
AcDb2dPolyline
 66
     1
 10
0.0
 20
0.0
 30
0.0
  0
VERTEX
  5
E7
330
E6
100
AcDbEntity
  8
STANDARDEBENE
 62
     7
100
AcDbVertex
100
AcDb2dVertex
 10
27.3632057072744
 20
-14.25443648334228
 30
0.0
  0
VERTEX
  5
E8
330
E6
100
AcDbEntity
  8
STANDARDEBENE
 62
     7
100
AcDbVertex
100
AcDb2dVertex
 10
27.87824782208968
 20
-14.25443648334228
 30
0.0
  0
SEQEND
  5
E9
330
E6
100
AcDbEntity
  8
STANDARDEBENE
  0
POLYLINE
  5
EA
330
1F
100
AcDbEntity
  8
STANDARDEBENE
 62
     7
100
AcDb2dPolyline
 66
     1
 10
0.0
 20
0.0
 30
0.0
  0
VERTEX
  5
EB
330
EA
100
AcDbEntity
  8
STANDARDEBENE
 62
     7
100
AcDbVertex
100
AcDb2dVertex
 10
6.412532711781989
 20
-19.99724219097652
 30
0.0
  0
VERTEX
  5
EC
330
EA
100
AcDbEntity
  8
STANDARDEBENE
 62
     7
100
AcDbVertex
100
AcDb2dVertex
 10
6.412532711781989
 20
-0.4118614369643199
 30
0.0
  0
SEQEND
  5
ED
330
EA
100
AcDbEntity
  8
STANDARDEBENE
  0
POLYLINE
  5
EE
330
1F
100
AcDbEntity
  8
STANDARDEBENE
 62
     7
100
AcDb2dPolyline
 66
     1
 10
0.0
 20
0.0
 30
0.0
  0
VERTEX
  5
EF
330
EE
100
AcDbEntity
  8
STANDARDEBENE
 62
     7
100
AcDbVertex
100
AcDb2dVertex
 10
28.4783838515266
 20
-4.154615641213899
 30
0.0
  0
VERTEX
  5
F0
330
EE
100
AcDbEntity
  8
STANDARDEBENE
 62
     7
100
AcDbVertex
100
AcDb2dVertex
 10
28.33730709833807
 20
-4.212837793323451
 30
0.0
  0
SEQEND
  5
F1
330
EE
100
AcDbEntity
  8
STANDARDEBENE
  0
POLYLINE
  5
F2
330
1F
100
AcDbEntity
  8
STANDARDEBENE
 62
     7
100
AcDb2dPolyline
 66
     1
 10
0.0
 20
0.0
 30
0.0
  0
VERTEX
  5
F3
330
F2
100
AcDbEntity
  8
STANDARDEBENE
 62
     7
100
AcDbVertex
100
AcDb2dVertex
 10
28.1373191734884
 20
-4.412997973061024
 30
0.0
  0
VERTEX
  5
F4
330
F2
100
AcDbEntity
  8
STANDARDEBENE
 62
     7
100
AcDbVertex
100
AcDb2dVertex
 10
28.07840800182725
 20
-4.554763745801148
 30
0.0
  0
SEQEND
  5
F5
330
F2
100
AcDbEntity
  8
STANDARDEBENE
  0
POLYLINE
  5
F6
330
1F
100
AcDbEntity
  8
STANDARDEBENE
 62
     7
100
AcDb2dPolyline
 66
     1
 10
0.0
 20
0.0
 30
0.0
  0
VERTEX
  5
F7
330
F6
100
AcDbEntity
  8
STANDARDEBENE
 62
     7
100
AcDbVertex
100
AcDb2dVertex
 10
28.07840800182725
 20
-15.85416762725179
 30
0.0
  0
VERTEX
  5
F8
330
F6
100
AcDbEntity
  8
STANDARDEBENE
 62
     7
100
AcDbVertex
100
AcDb2dVertex
 10
28.1373191734884
 20
-15.99610565487981
 30
0.0
  0
SEQEND
  5
F9
330
F6
100
AcDbEntity
  8
STANDARDEBENE
  0
POLYLINE
  5
FA
330
1F
100
AcDbEntity
  8
STANDARDEBENE
 62
     7
100
AcDb2dPolyline
 66
     1
 10
0.0
 20
0.0
 30
0.0
  0
VERTEX
  5
FB
330
FA
100
AcDbEntity
  8
STANDARDEBENE
 62
     7
100
AcDbVertex
100
AcDb2dVertex
 10
28.33730709833807
 20
-16.19609357972949
 30
0.0
  0
VERTEX
  5
FC
330
FA
100
AcDbEntity
  8
STANDARDEBENE
 62
     7
100
AcDbVertex
100
AcDb2dVertex
 10
28.4783838515266
 20
-16.25431573183904
 30
0.0
  0
SEQEND
  5
FD
330
FA
100
AcDbEntity
  8
STANDARDEBENE
  0
POLYLINE
  5
FE
330
1F
100
AcDbEntity
  8
STANDARDEBENE
 62
     7
100
AcDb2dPolyline
 66
     1
 10
0.0
 20
0.0
 30
0.0
  0
VERTEX
  5
FF
330
FE
100
AcDbEntity
  8
STANDARDEBENE
 62
     7
100
AcDbVertex
100
AcDb2dVertex
 10
1.078487853129906
 20
-6.154150379934862
 30
0.0
  0
VERTEX
  5
100
330
FE
100
AcDbEntity
  8
STANDARDEBENE
 62
     7
100
AcDbVertex
100
AcDb2dVertex
 10
0.7034889621757768
 20
-6.054070290066075
 30
0.0
  0
SEQEND
  5
101
330
FE
100
AcDbEntity
  8
STANDARDEBENE
  0
POLYLINE
  5
102
330
1F
100
AcDbEntity
  8
STANDARDEBENE
 62
     7
100
AcDb2dPolyline
 66
     1
 10
0.0
 20
0.0
 30
0.0
  0
VERTEX
  5
103
330
102
100
AcDbEntity
  8
STANDARDEBENE
 62
     7
100
AcDbVertex
100
AcDb2dVertex
 10
0.1786283187503135
 20
-5.529898666192204
 30
0.0
  0
VERTEX
  5
104
330
102
100
AcDbEntity
  8
STANDARDEBENE
 62
     7
100
AcDbVertex
100
AcDb2dVertex
 10
0.0783759739936284
 20
-5.154727520350177
 30
0.0
  0
SEQEND
  5
105
330
102
100
AcDbEntity
  8
STANDARDEBENE
  0
POLYLINE
  5
106
330
1F
100
AcDbEntity
  8
STANDARDEBENE
 62
     7
100
AcDb2dPolyline
 66
     1
 10
0.0
 20
0.0
 30
0.0
  0
VERTEX
  5
107
330
106
100
AcDbEntity
  8
STANDARDEBENE
 62
     7
100
AcDbVertex
100
AcDb2dVertex
 10
0.0783759739936284
 20
-15.25489287225436
 30
0.0
  0
VERTEX
  5
108
330
106
100
AcDbEntity
  8
STANDARDEBENE
 62
     7
100
AcDbVertex
100
AcDb2dVertex
 10
0.1786283187503135
 20
-14.87989398130023
 30
0.0
  0
SEQEND
  5
109
330
106
100
AcDbEntity
  8
STANDARDEBENE
  0
POLYLINE
  5
10A
330
1F
100
AcDbEntity
  8
STANDARDEBENE
 62
     7
100
AcDb2dPolyline
 66
     1
 10
0.0
 20
0.0
 30
0.0
  0
VERTEX
  5
10B
330
10A
100
AcDbEntity
  8
STANDARDEBENE
 62
     7
100
AcDbVertex
100
AcDb2dVertex
 10
0.7034889621757768
 20
-14.35486108298687
 30
0.0
  0
VERTEX
  5
10C
330
10A
100
AcDbEntity
  8
STANDARDEBENE
 62
     7
100
AcDbVertex
100
AcDb2dVertex
 10
1.078487853129906
 20
-14.25443648334228
 30
0.0
  0
SEQEND
  5
10D
330
10A
100
AcDbEntity
  8
STANDARDEBENE
  0
POLYLINE
  5
10E
330
1F
100
AcDbEntity
  8
STANDARDEBENE
 62
     7
100
AcDb2dPolyline
 66
     1
 10
0.0
 20
0.0
 30
0.0
  0
VERTEX
  5
10F
330
10E
100
AcDbEntity
  8
STANDARDEBENE
 62
     7
100
AcDbVertex
100
AcDb2dVertex
 10
27.87824782208968
 20
-10.20455181397042
 30
0.0
  0
VERTEX
  5
110
330
10E
100
AcDbEntity
  8
STANDARDEBENE
 62
     7
100
AcDbVertex
100
AcDb2dVertex
 10
27.87824782208968
 20
-9.698639208213745
 30
0.0
  0
SEQEND
  5
111
330
10E
100
AcDbEntity
  8
STANDARDEBENE
  0
POLYLINE
  5
112
330
1F
100
AcDbEntity
  8
STANDARDEBENE
 62
     7
100
AcDb2dPolyline
 66
     1
 10
0.0
 20
0.0
 30
0.0
  0
VERTEX
  5
113
330
112
100
AcDbEntity
  8
STANDARDEBENE
 62
     7
100
AcDbVertex
100
AcDb2dVertex
 10
27.87824782208968
 20
-8.686124977148806
 30
0.0
  0
VERTEX
  5
114
330
112
100
AcDbEntity
  8
STANDARDEBENE
 62
     7
100
AcDbVertex
100
AcDb2dVertex
 10
27.87824782208968
 20
-8.44737970252206
 30
0.0
  0
VERTEX
  5
115
330
112
100
AcDbEntity
  8
STANDARDEBENE
 62
     7
100
AcDbVertex
100
AcDb2dVertex
 10
27.87824782208968
 20
-7.679295157384502
 30
0.0
  0
VERTEX
  5
116
330
112
100
AcDbEntity
  8
STANDARDEBENE
 62
     7
100
AcDbVertex
100
AcDb2dVertex
 10
27.87824782208968
 20
-7.673266236308069
 30
0.0
  0
SEQEND
  5
117
330
112
100
AcDbEntity
  8
STANDARDEBENE
  0
POLYLINE
  5
118
330
1F
100
AcDbEntity
  8
STANDARDEBENE
 62
     7
100
AcDb2dPolyline
 66
     1
 10
0.0
 20
0.0
 30
0.0
  0
VERTEX
  5
119
330
118
100
AcDbEntity
  8
STANDARDEBENE
 62
     7
100
AcDbVertex
100
AcDb2dVertex
 10
27.87824782208968
 20
-6.660924260131027
 30
0.0
  0
VERTEX
  5
11A
330
118
100
AcDbEntity
  8
STANDARDEBENE
 62
     7
100
AcDbVertex
100
AcDb2dVertex
 10
27.87824782208968
 20
-6.555676523625297
 30
0.0
  0
VERTEX
  5
11B
330
118
100
AcDbEntity
  8
STANDARDEBENE
 62
     7
100
AcDbVertex
100
AcDb2dVertex
 10
27.87824782208968
 20
-6.255780763794732
 30
0.0
  0
VERTEX
  5
11C
330
118
100
AcDbEntity
  8
STANDARDEBENE
 62
     7
100
AcDbVertex
100
AcDb2dVertex
 10
27.87824782208968
 20
-6.154150379934862
 30
0.0
  0
SEQEND
  5
11D
330
118
100
AcDbEntity
  8
STANDARDEBENE
  0
POLYLINE
  5
11E
330
1F
100
AcDbEntity
  8
STANDARDEBENE
 62
     7
100
AcDb2dPolyline
 66
     1
 10
0.0
 20
0.0
 30
0.0
  0
VERTEX
  5
11F
330
11E
100
AcDbEntity
  8
STANDARDEBENE
 62
     7
100
AcDbVertex
100
AcDb2dVertex
 10
27.87824782208968
 20
-14.25443648334228
 30
0.0
  0
VERTEX
  5
120
330
11E
100
AcDbEntity
  8
STANDARDEBENE
 62
     7
100
AcDbVertex
100
AcDb2dVertex
 10
27.87824782208968
 20
-14.15280609948241
 30
0.0
  0
VERTEX
  5
121
330
11E
100
AcDbEntity
  8
STANDARDEBENE
 62
     7
100
AcDbVertex
100
AcDb2dVertex
 10
27.87824782208968
 20
-13.85359935920344
 30
0.0
  0
VERTEX
  5
122
330
11E
100
AcDbEntity
  8
STANDARDEBENE
 62
     7
100
AcDbVertex
100
AcDb2dVertex
 10
27.87824782208968
 20
-13.74852387758561
 30
0.0
  0
SEQEND
  5
123
330
11E
100
AcDbEntity
  8
STANDARDEBENE
  0
POLYLINE
  5
124
330
1F
100
AcDbEntity
  8
STANDARDEBENE
 62
     7
100
AcDb2dPolyline
 66
     1
 10
0.0
 20
0.0
 30
0.0
  0
VERTEX
  5
125
330
124
100
AcDbEntity
  8
STANDARDEBENE
 62
     7
100
AcDbVertex
100
AcDb2dVertex
 10
27.87824782208968
 20
-12.73600964652067
 30
0.0
  0
VERTEX
  5
126
330
124
100
AcDbEntity
  8
STANDARDEBENE
 62
     7
100
AcDbVertex
100
AcDb2dVertex
 10
27.87824782208968
 20
-12.72963621566844
 30
0.0
  0
VERTEX
  5
127
330
124
100
AcDbEntity
  8
STANDARDEBENE
 62
     7
100
AcDbVertex
100
AcDb2dVertex
 10
27.87824782208968
 20
-11.96172392541878
 30
0.0
  0
VERTEX
  5
128
330
124
100
AcDbEntity
  8
STANDARDEBENE
 62
     7
100
AcDbVertex
100
AcDb2dVertex
 10
27.87824782208968
 20
-11.72349541545573
 30
0.0
  0
SEQEND
  5
129
330
124
100
AcDbEntity
  8
STANDARDEBENE
  0
POLYLINE
  5
12A
330
1F
100
AcDbEntity
  8
STANDARDEBENE
 62
     7
100
AcDb2dPolyline
 66
     1
 10
0.0
 20
0.0
 30
0.0
  0
VERTEX
  5
12B
330
12A
100
AcDbEntity
  8
STANDARDEBENE
 62
     7
100
AcDbVertex
100
AcDb2dVertex
 10
27.87824782208968
 20
-10.71115343927869
 30
0.0
  0
VERTEX
  5
12C
330
12A
100
AcDbEntity
  8
STANDARDEBENE
 62
     7
100
AcDbVertex
100
AcDb2dVertex
 10
27.87824782208968
 20
-10.20455181397042
 30
0.0
  0
SEQEND
  5
12D
330
12A
100
AcDbEntity
  8
STANDARDEBENE
  0
POLYLINE
  5
12E
330
1F
100
AcDbEntity
  8
STANDARDEBENE
 62
     7
100
AcDb2dPolyline
 66
     1
 10
0.0
 20
0.0
 30
0.0
  0
VERTEX
  5
12F
330
12E
100
AcDbEntity
  8
STANDARDEBENE
 62
     7
100
AcDbVertex
100
AcDb2dVertex
 10
33.23210199285004
 20
-10.20455181397042
 30
0.0
  0
VERTEX
  5
130
330
12E
100
AcDbEntity
  8
STANDARDEBENE
 62
     7
100
AcDbVertex
100
AcDb2dVertex
 10
33.23210199285004
 20
-9.700706266868522
 30
0.0
  0
SEQEND
  5
131
330
12E
100
AcDbEntity
  8
STANDARDEBENE
  0
POLYLINE
  5
132
330
1F
100
AcDbEntity
  8
STANDARDEBENE
 62
     7
100
AcDb2dPolyline
 66
     1
 10
0.0
 20
0.0
 30
0.0
  0
VERTEX
  5
133
330
132
100
AcDbEntity
  8
STANDARDEBENE
 62
     7
100
AcDbVertex
100
AcDb2dVertex
 10
33.23210199285004
 20
-8.691809388449443
 30
0.0
  0
VERTEX
  5
134
330
132
100
AcDbEntity
  8
STANDARDEBENE
 62
     7
100
AcDbVertex
100
AcDb2dVertex
 10
33.23210199285004
 20
-7.889273865732267
 30
0.0
  0
VERTEX
  5
135
330
132
100
AcDbEntity
  8
STANDARDEBENE
 62
     7
100
AcDbVertex
100
AcDb2dVertex
 10
33.23210199285004
 20
-7.68394603935775
 30
0.0
  0
SEQEND
  5
136
330
132
100
AcDbEntity
  8
STANDARDEBENE
  0
POLYLINE
  5
137
330
1F
100
AcDbEntity
  8
STANDARDEBENE
 62
     7
100
AcDb2dPolyline
 66
     1
 10
0.0
 20
0.0
 30
0.0
  0
VERTEX
  5
138
330
137
100
AcDbEntity
  8
STANDARDEBENE
 62
     7
100
AcDbVertex
100
AcDb2dVertex
 10
33.23210199285004
 20
-6.675393670714466
 30
0.0
  0
VERTEX
  5
139
330
137
100
AcDbEntity
  8
STANDARDEBENE
 62
     7
100
AcDbVertex
100
AcDb2dVertex
 10
33.23210199285004
 20
-5.926773927909391
 30
0.0
  0
VERTEX
  5
13A
330
137
100
AcDbEntity
  8
STANDARDEBENE
 62
     7
100
AcDbVertex
100
AcDb2dVertex
 10
33.23210199285004
 20
-5.66701355695908
 30
0.0
  0
SEQEND
  5
13B
330
137
100
AcDbEntity
  8
STANDARDEBENE
  0
POLYLINE
  5
13C
330
1F
100
AcDbEntity
  8
STANDARDEBENE
 62
     7
100
AcDb2dPolyline
 66
     1
 10
0.0
 20
0.0
 30
0.0
  0
VERTEX
  5
13D
330
13C
100
AcDbEntity
  8
STANDARDEBENE
 62
     7
100
AcDbVertex
100
AcDb2dVertex
 10
33.23210199285004
 20
-4.658461188315795
 30
0.0
  0
VERTEX
  5
13E
330
13C
100
AcDbEntity
  8
STANDARDEBENE
 62
     7
100
AcDbVertex
100
AcDb2dVertex
 10
33.23210199285004
 20
-4.614708446789682
 30
0.0
  0
VERTEX
  5
13F
330
13C
100
AcDbEntity
  8
STANDARDEBENE
 62
     7
100
AcDbVertex
100
AcDb2dVertex
 10
33.23210199285004
 20
-4.271059945433003
 30
0.0
  0
VERTEX
  5
140
330
13C
100
AcDbEntity
  8
STANDARDEBENE
 62
     7
100
AcDbVertex
100
AcDb2dVertex
 10
33.23210199285004
 20
-4.154615641213899
 30
0.0
  0
SEQEND
  5
141
330
13C
100
AcDbEntity
  8
STANDARDEBENE
  0
POLYLINE
  5
142
330
1F
100
AcDbEntity
  8
STANDARDEBENE
 62
     7
100
AcDb2dPolyline
 66
     1
 10
0.0
 20
0.0
 30
0.0
  0
VERTEX
  5
143
330
142
100
AcDbEntity
  8
STANDARDEBENE
 62
     7
100
AcDbVertex
100
AcDb2dVertex
 10
33.23210199285004
 20
-16.25431573183904
 30
0.0
  0
VERTEX
  5
144
330
142
100
AcDbEntity
  8
STANDARDEBENE
 62
     7
100
AcDbVertex
100
AcDb2dVertex
 10
33.23210199285004
 20
-16.13856044717153
 30
0.0
  0
VERTEX
  5
145
330
142
100
AcDbEntity
  8
STANDARDEBENE
 62
     7
100
AcDbVertex
100
AcDb2dVertex
 10
33.23210199285004
 20
-15.79422292626326
 30
0.0
  0
VERTEX
  5
146
330
142
100
AcDbEntity
  8
STANDARDEBENE
 62
     7
100
AcDbVertex
100
AcDb2dVertex
 10
33.23210199285004
 20
-15.75047018473714
 30
0.0
  0
SEQEND
  5
147
330
142
100
AcDbEntity
  8
STANDARDEBENE
  0
POLYLINE
  5
148
330
1F
100
AcDbEntity
  8
STANDARDEBENE
 62
     7
100
AcDb2dPolyline
 66
     1
 10
0.0
 20
0.0
 30
0.0
  0
VERTEX
  5
149
330
148
100
AcDbEntity
  8
STANDARDEBENE
 62
     7
100
AcDbVertex
100
AcDb2dVertex
 10
33.23210199285004
 20
-14.74191781609386
 30
0.0
  0
VERTEX
  5
14A
330
148
100
AcDbEntity
  8
STANDARDEBENE
 62
     7
100
AcDbVertex
100
AcDb2dVertex
 10
33.23210199285004
 20
-14.48232970003145
 30
0.0
  0
VERTEX
  5
14B
330
148
100
AcDbEntity
  8
STANDARDEBENE
 62
     7
100
AcDbVertex
100
AcDb2dVertex
 10
33.23210199285004
 20
-13.73370995722637
 30
0.0
  0
SEQEND
  5
14C
330
148
100
AcDbEntity
  8
STANDARDEBENE
  0
POLYLINE
  5
14D
330
1F
100
AcDbEntity
  8
STANDARDEBENE
 62
     7
100
AcDb2dPolyline
 66
     1
 10
0.0
 20
0.0
 30
0.0
  0
VERTEX
  5
14E
330
14D
100
AcDbEntity
  8
STANDARDEBENE
 62
     7
100
AcDbVertex
100
AcDb2dVertex
 10
33.23210199285004
 20
-12.72515758858309
 30
0.0
  0
VERTEX
  5
14F
330
14D
100
AcDbEntity
  8
STANDARDEBENE
 62
     7
100
AcDbVertex
100
AcDb2dVertex
 10
33.23210199285004
 20
-12.51982976220857
 30
0.0
  0
VERTEX
  5
150
330
14D
100
AcDbEntity
  8
STANDARDEBENE
 62
     7
100
AcDbVertex
100
AcDb2dVertex
 10
33.23210199285004
 20
-11.7172942394914
 30
0.0
  0
SEQEND
  5
151
330
14D
100
AcDbEntity
  8
STANDARDEBENE
  0
POLYLINE
  5
152
330
1F
100
AcDbEntity
  8
STANDARDEBENE
 62
     7
100
AcDb2dPolyline
 66
     1
 10
0.0
 20
0.0
 30
0.0
  0
VERTEX
  5
153
330
152
100
AcDbEntity
  8
STANDARDEBENE
 62
     7
100
AcDbVertex
100
AcDb2dVertex
 10
33.23210199285004
 20
-10.70856961596022
 30
0.0
  0
VERTEX
  5
154
330
152
100
AcDbEntity
  8
STANDARDEBENE
 62
     7
100
AcDbVertex
100
AcDb2dVertex
 10
33.23210199285004
 20
-10.20455181397042
 30
0.0
  0
SEQEND
  5
155
330
152
100
AcDbEntity
  8
STANDARDEBENE
  0
POLYLINE
  5
156
330
1F
100
AcDbEntity
  8
STANDARDEBENE
 62
     7
100
AcDb2dPolyline
 66
     1
 10
0.0
 20
0.0
 30
0.0
  0
VERTEX
  5
157
330
156
100
AcDbEntity
  8
STANDARDEBENE
 62
     7
100
AcDbVertex
100
AcDb2dVertex
 10
28.07840800182725
 20
-10.20455181397042
 30
0.0
  0
VERTEX
  5
158
330
156
100
AcDbEntity
  8
STANDARDEBENE
 62
     7
100
AcDbVertex
100
AcDb2dVertex
 10
28.07840800182725
 20
-9.733606950457057
 30
0.0
  0
SEQEND
  5
159
330
156
100
AcDbEntity
  8
STANDARDEBENE
  0
POLYLINE
  5
15A
330
1F
100
AcDbEntity
  8
STANDARDEBENE
 62
     7
100
AcDb2dPolyline
 66
     1
 10
0.0
 20
0.0
 30
0.0
  0
VERTEX
  5
15B
330
15A
100
AcDbEntity
  8
STANDARDEBENE
 62
     7
100
AcDbVertex
100
AcDb2dVertex
 10
28.07840800182725
 20
-8.792061733206127
 30
0.0
  0
VERTEX
  5
15C
330
15A
100
AcDbEntity
  8
STANDARDEBENE
 62
     7
100
AcDbVertex
100
AcDb2dVertex
 10
28.07840800182725
 20
-8.042408461073663
 30
0.0
  0
VERTEX
  5
15D
330
15A
100
AcDbEntity
  8
STANDARDEBENE
 62
     7
100
AcDbVertex
100
AcDb2dVertex
 10
28.07840800182725
 20
-7.850516515955198
 30
0.0
  0
SEQEND
  5
15E
330
15A
100
AcDbEntity
  8
STANDARDEBENE
  0
POLYLINE
  5
15F
330
1F
100
AcDbEntity
  8
STANDARDEBENE
 62
     7
100
AcDb2dPolyline
 66
     1
 10
0.0
 20
0.0
 30
0.0
  0
VERTEX
  5
160
330
15F
100
AcDbEntity
  8
STANDARDEBENE
 62
     7
100
AcDbVertex
100
AcDb2dVertex
 10
28.07840800182725
 20
-6.90879904381637
 30
0.0
  0
VERTEX
  5
161
330
15F
100
AcDbEntity
  8
STANDARDEBENE
 62
     7
100
AcDbVertex
100
AcDb2dVertex
 10
28.07840800182725
 20
-6.209616453838045
 30
0.0
  0
VERTEX
  5
162
330
15F
100
AcDbEntity
  8
STANDARDEBENE
 62
     7
100
AcDbVertex
100
AcDb2dVertex
 10
28.07840800182725
 20
-5.96725382656544
 30
0.0
  0
SEQEND
  5
163
330
15F
100
AcDbEntity
  8
STANDARDEBENE
  0
POLYLINE
  5
164
330
1F
100
AcDbEntity
  8
STANDARDEBENE
 62
     7
100
AcDb2dPolyline
 66
     1
 10
0.0
 20
0.0
 30
0.0
  0
VERTEX
  5
165
330
164
100
AcDbEntity
  8
STANDARDEBENE
 62
     7
100
AcDbVertex
100
AcDb2dVertex
 10
28.07840800182725
 20
-5.025708609314512
 30
0.0
  0
VERTEX
  5
166
330
164
100
AcDbEntity
  8
STANDARDEBENE
 62
     7
100
AcDbVertex
100
AcDb2dVertex
 10
28.07840800182725
 20
-4.984539691106869
 30
0.0
  0
VERTEX
  5
167
330
164
100
AcDbEntity
  8
STANDARDEBENE
 62
     7
100
AcDbVertex
100
AcDb2dVertex
 10
28.07840800182725
 20
-4.66345658006484
 30
0.0
  0
VERTEX
  5
168
330
164
100
AcDbEntity
  8
STANDARDEBENE
 62
     7
100
AcDbVertex
100
AcDb2dVertex
 10
28.07840800182725
 20
-4.554763745801148
 30
0.0
  0
SEQEND
  5
169
330
164
100
AcDbEntity
  8
STANDARDEBENE
  0
POLYLINE
  5
16A
330
1F
100
AcDbEntity
  8
STANDARDEBENE
 62
     7
100
AcDb2dPolyline
 66
     1
 10
0.0
 20
0.0
 30
0.0
  0
VERTEX
  5
16B
330
16A
100
AcDbEntity
  8
STANDARDEBENE
 62
     7
100
AcDbVertex
100
AcDb2dVertex
 10
28.07840800182725
 20
-15.85416762725179
 30
0.0
  0
VERTEX
  5
16C
330
16A
100
AcDbEntity
  8
STANDARDEBENE
 62
     7
100
AcDbVertex
100
AcDb2dVertex
 10
28.07840800182725
 20
-15.7459915576518
 30
0.0
  0
VERTEX
  5
16D
330
16A
100
AcDbEntity
  8
STANDARDEBENE
 62
     7
100
AcDbVertex
100
AcDb2dVertex
 10
28.07840800182725
 20
-15.42456393683397
 30
0.0
  0
VERTEX
  5
16E
330
16A
100
AcDbEntity
  8
STANDARDEBENE
 62
     7
100
AcDbVertex
100
AcDb2dVertex
 10
28.07840800182725
 20
-15.38391178329002
 30
0.0
  0
SEQEND
  5
16F
330
16A
100
AcDbEntity
  8
STANDARDEBENE
  0
POLYLINE
  5
170
330
1F
100
AcDbEntity
  8
STANDARDEBENE
 62
     7
100
AcDb2dPolyline
 66
     1
 10
0.0
 20
0.0
 30
0.0
  0
VERTEX
  5
171
330
170
100
AcDbEntity
  8
STANDARDEBENE
 62
     7
100
AcDbVertex
100
AcDb2dVertex
 10
28.07840800182725
 20
-14.44236656603909
 30
0.0
  0
VERTEX
  5
172
330
170
100
AcDbEntity
  8
STANDARDEBENE
 62
     7
100
AcDbVertex
100
AcDb2dVertex
 10
28.07840800182725
 20
-14.20000393876649
 30
0.0
  0
VERTEX
  5
173
330
170
100
AcDbEntity
  8
STANDARDEBENE
 62
     7
100
AcDbVertex
100
AcDb2dVertex
 10
28.07840800182725
 20
-13.50013232923657
 30
0.0
  0
SEQEND
  5
174
330
170
100
AcDbEntity
  8
STANDARDEBENE
  0
POLYLINE
  5
175
330
1F
100
AcDbEntity
  8
STANDARDEBENE
 62
     7
100
AcDb2dPolyline
 66
     1
 10
0.0
 20
0.0
 30
0.0
  0
VERTEX
  5
176
330
175
100
AcDbEntity
  8
STANDARDEBENE
 62
     7
100
AcDbVertex
100
AcDb2dVertex
 10
28.07840800182725
 20
-12.55858711198564
 30
0.0
  0
VERTEX
  5
177
330
175
100
AcDbEntity
  8
STANDARDEBENE
 62
     7
100
AcDbVertex
100
AcDb2dVertex
 10
28.07840800182725
 20
-12.36669516686717
 30
0.0
  0
VERTEX
  5
178
330
175
100
AcDbEntity
  8
STANDARDEBENE
 62
     7
100
AcDbVertex
100
AcDb2dVertex
 10
28.07840800182725
 20
-11.61704189473471
 30
0.0
  0
SEQEND
  5
179
330
175
100
AcDbEntity
  8
STANDARDEBENE
  0
POLYLINE
  5
17A
330
1F
100
AcDbEntity
  8
STANDARDEBENE
 62
     7
100
AcDb2dPolyline
 66
     1
 10
0.0
 20
0.0
 30
0.0
  0
VERTEX
  5
17B
330
17A
100
AcDbEntity
  8
STANDARDEBENE
 62
     7
100
AcDbVertex
100
AcDb2dVertex
 10
28.07840800182725
 20
-10.67549667748378
 30
0.0
  0
VERTEX
  5
17C
330
17A
100
AcDbEntity
  8
STANDARDEBENE
 62
     7
100
AcDbVertex
100
AcDb2dVertex
 10
28.07840800182725
 20
-10.20455181397042
 30
0.0
  0
SEQEND
  5
17D
330
17A
100
AcDbEntity
  8
STANDARDEBENE
  0
SPLINE
  5
17E
330
1F
100
AcDbEntity
  8
STANDARDEBENE
 62
     7
100
AcDbSpline
210
0.0
220
0.0
230
1.0
 70
    11
 71
     3
 72
    17
 73
    13
 74
     0
 42
0.0000000001
 43
0.0000000001
 40
0.0
 40
0.0
 40
0.0
 40
0.0
 40
1.0
 40
1.0
 40
1.0
 40
2.0
 40
2.0
 40
2.0
 40
3.0
 40
3.0
 40
3.0
 40
4.0
 40
4.0
 40
4.0
 40
4.0
 10
96.29168811924448
 20
-10.20455181397042
 30
0.0
 10
96.29168811924448
 20
-5.855460404319584
 30
0.0
 10
92.76631958352229
 20
-2.329747358821592
 30
0.0
 10
88.41653915431985
 20
-2.329747358821592
 30
0.0
 10
84.06779225444481
 20
-2.329747358821592
 30
0.0
 10
80.54173469917103
 20
-5.855460404319584
 30
0.0
 10
80.54173469917103
 20
-10.20455181397042
 30
0.0
 10
80.54173469917103
 20
-14.55364322362125
 30
0.0
 10
84.06779225444481
 20
-18.07952852400715
 30
0.0
 10
88.41653915431985
 20
-18.07952852400715
 30
0.0
 10
92.76631958352229
 20
-18.07952852400715
 30
0.0
 10
96.29168811924448
 20
-14.55364322362125
 30
0.0
 10
96.29168811924448
 20
-10.20455181397042
 30
0.0
  0
POLYLINE
  5
17F
330
1F
100
AcDbEntity
  8
STANDARDEBENE
  6
AI-LINETYPE-1
 62
   250
100
AcDb2dPolyline
 66
     1
 10
0.0
 20
0.0
 30
0.0
  0
VERTEX
  5
180
330
17F
100
AcDbEntity
  8
STANDARDEBENE
  6
AI-LINETYPE-1
 62
   250
100
AcDbVertex
100
AcDb2dVertex
 10
88.41653915431985
 20
-23.81027638948851
 30
0.0
  0
VERTEX
  5
181
330
17F
100
AcDbEntity
  8
STANDARDEBENE
  6
AI-LINETYPE-1
 62
   250
100
AcDbVertex
100
AcDb2dVertex
 10
88.41653915431985
 20
3.217721305936217
 30
0.0
  0
SEQEND
  5
182
330
17F
100
AcDbEntity
  8
STANDARDEBENE
  6
AI-LINETYPE-1
  0
POLYLINE
  5
184
330
1F
100
AcDbEntity
  8
STANDARDEBENE
  6
AI-LINETYPE-2
 62
   250
100
AcDb2dPolyline
 66
     1
 10
0.0
 20
0.0
 30
0.0
  0
VERTEX
  5
185
330
184
100
AcDbEntity
  8
STANDARDEBENE
  6
AI-LINETYPE-2
 62
   250
100
AcDbVertex
100
AcDb2dVertex
 10
75.09744671226417
 20
-10.20455181397042
 30
0.0
  0
VERTEX
  5
186
330
184
100
AcDbEntity
  8
STANDARDEBENE
  6
AI-LINETYPE-2
 62
   250
100
AcDbVertex
100
AcDb2dVertex
 10
101.8035000222074
 20
-10.18904887405959
 30
0.0
  0
SEQEND
  5
187
330
184
100
AcDbEntity
  8
STANDARDEBENE
  6
AI-LINETYPE-2
  0
POLYLINE
  5
189
330
1F
100
AcDbEntity
  8
STANDARDEBENE
  6
AI-LINETYPE-3
 62
   250
100
AcDb2dPolyline
 66
     1
 10
0.0
 20
0.0
 30
0.0
  0
VERTEX
  5
18A
330
189
100
AcDbEntity
  8
STANDARDEBENE
  6
AI-LINETYPE-3
 62
   250
100
AcDbVertex
100
AcDb2dVertex
 10
38.4066388253085
 20
-10.20455181397042
 30
0.0
  0
VERTEX
  5
18B
330
189
100
AcDbEntity
  8
STANDARDEBENE
  6
AI-LINETYPE-3
 62
   250
100
AcDbVertex
100
AcDb2dVertex
 10
35.90653138235569
 20
-10.20455181397042
 30
0.0
  0
VERTEX
  5
18C
330
189
100
AcDbEntity
  8
STANDARDEBENE
  6
AI-LINETYPE-3
 62
   250
100
AcDbVertex
100
AcDb2dVertex
 10
33.4064239394029
 20
-10.20455181397042
 30
0.0
  0
VERTEX
  5
18D
330
189
100
AcDbEntity
  8
STANDARDEBENE
  6
AI-LINETYPE-3
 62
   250
100
AcDbVertex
100
AcDb2dVertex
 10
-2.037775323834339
 20
-10.20455181397042
 30
0.0
  0
SEQEND
  5
18E
330
189
100
AcDbEntity
  8
STANDARDEBENE
  6
AI-LINETYPE-3
  0
POLYLINE
  5
190
330
1F
100
AcDbEntity
  8
STANDARDEBENE
 62
     7
100
AcDb2dPolyline
 66
     1
 10
0.0
 20
0.0
 30
0.0
  0
VERTEX
  5
191
330
190
100
AcDbEntity
  8
STANDARDEBENE
 62
     7
100
AcDbVertex
100
AcDb2dVertex
 10
10.90649048215511
 20
-20.17225315708097
 30
0.0
  0
VERTEX
  5
192
330
190
100
AcDbEntity
  8
STANDARDEBENE
 62
     7
100
AcDbVertex
100
AcDb2dVertex
 10
33.4064239394029
 20
-17.01068694459953
 30
0.0
  0
SEQEND
  5
193
330
190
100
AcDbEntity
  8
STANDARDEBENE
  0
POLYLINE
  5
194
330
1F
100
AcDbEntity
  8
STANDARDEBENE
 62
     7
100
AcDb2dPolyline
 66
     1
 10
0.0
 20
0.0
 30
0.0
  0
VERTEX
  5
195
330
194
100
AcDbEntity
  8
STANDARDEBENE
 62
     7
100
AcDbVertex
100
AcDb2dVertex
 10
33.4064239394029
 20
-3.398761193117104
 30
0.0
  0
VERTEX
  5
196
330
194
100
AcDbEntity
  8
STANDARDEBENE
 62
     7
100
AcDbVertex
100
AcDb2dVertex
 10
10.90649048215511
 20
-0.2368504708598661
 30
0.0
  0
SEQEND
  5
197
330
194
100
AcDbEntity
  8
STANDARDEBENE
  0
POLYLINE
  5
198
330
1F
100
AcDbEntity
  8
STANDARDEBENE
 62
     7
100
AcDb2dPolyline
 66
     1
 10
0.0
 20
0.0
 30
0.0
  0
VERTEX
  5
199
330
198
100
AcDbEntity
  8
STANDARDEBENE
 62
     7
100
AcDbVertex
100
AcDb2dVertex
 10
6.678494258696631
 20
-0.4046267316726003
 30
0.0
  0
VERTEX
  5
19A
330
198
100
AcDbEntity
  8
STANDARDEBENE
 62
     7
100
AcDbVertex
100
AcDb2dVertex
 10
6.46644849169409
 20
-0.4046267316726003
 30
0.0
  0
SEQEND
  5
19B
330
198
100
AcDbEntity
  8
STANDARDEBENE
  0
POLYLINE
  5
19C
330
1F
100
AcDbEntity
  8
STANDARDEBENE
 62
     7
100
AcDb2dPolyline
 66
     1
 10
0.0
 20
0.0
 30
0.0
  0
VERTEX
  5
19D
330
19C
100
AcDbEntity
  8
STANDARDEBENE
 62
     7
100
AcDbVertex
100
AcDb2dVertex
 10
6.46644849169409
 20
-20.00430464138034
 30
0.0
  0
VERTEX
  5
19E
330
19C
100
AcDbEntity
  8
STANDARDEBENE
 62
     7
100
AcDbVertex
100
AcDb2dVertex
 10
6.678494258696631
 20
-20.00430464138034
 30
0.0
  0
SEQEND
  5
19F
330
19C
100
AcDbEntity
  8
STANDARDEBENE
  0
POLYLINE
  5
1A0
330
1F
100
AcDbEntity
  8
STANDARDEBENE
 62
     7
100
AcDb2dPolyline
 66
     1
 10
0.0
 20
0.0
 30
0.0
  0
VERTEX
  5
1A1
330
1A0
100
AcDbEntity
  8
STANDARDEBENE
 62
     7
100
AcDbVertex
100
AcDb2dVertex
 10
6.366196146937404
 20
-0.4314984941847015
 30
0.0
  0
VERTEX
  5
1A2
330
1A0
100
AcDbEntity
  8
STANDARDEBENE
 62
     7
100
AcDbVertex
100
AcDb2dVertex
 10
3.178274936607556
 20
-2.271869716487835
 30
0.0
  0
SEQEND
  5
1A3
330
1A0
100
AcDbEntity
  8
STANDARDEBENE
  0
POLYLINE
  5
1A4
330
1F
100
AcDbEntity
  8
STANDARDEBENE
 62
     7
100
AcDb2dPolyline
 66
     1
 10
0.0
 20
0.0
 30
0.0
  0
VERTEX
  5
1A5
330
1A4
100
AcDbEntity
  8
STANDARDEBENE
 62
     7
100
AcDbVertex
100
AcDb2dVertex
 10
3.178274936607556
 20
-18.13706165656511
 30
0.0
  0
VERTEX
  5
1A6
330
1A4
100
AcDbEntity
  8
STANDARDEBENE
 62
     7
100
AcDbVertex
100
AcDb2dVertex
 10
6.366196146937404
 20
-19.97760513375614
 30
0.0
  0
SEQEND
  5
1A7
330
1A4
100
AcDbEntity
  8
STANDARDEBENE
  0
POLYLINE
  5
1A8
330
1F
100
AcDbEntity
  8
STANDARDEBENE
 62
     7
100
AcDb2dPolyline
 66
     1
 10
0.0
 20
0.0
 30
0.0
  0
VERTEX
  5
1A9
330
1A8
100
AcDbEntity
  8
STANDARDEBENE
 62
     7
100
AcDbVertex
100
AcDb2dVertex
 10
10.67825275569015
 20
-1.504301936013971
 30
0.0
  0
VERTEX
  5
1AA
330
1A8
100
AcDbEntity
  8
STANDARDEBENE
 62
     7
100
AcDbVertex
100
AcDb2dVertex
 10
6.878482183546307
 20
-1.504301936013971
 30
0.0
  0
SEQEND
  5
1AB
330
1A8
100
AcDbEntity
  8
STANDARDEBENE
  0
POLYLINE
  5
1AC
330
1F
100
AcDbEntity
  8
STANDARDEBENE
 62
     7
100
AcDb2dPolyline
 66
     1
 10
0.0
 20
0.0
 30
0.0
  0
VERTEX
  5
1AD
330
1AC
100
AcDbEntity
  8
STANDARDEBENE
 62
     7
100
AcDbVertex
100
AcDb2dVertex
 10
6.878482183546307
 20
-18.90480169192687
 30
0.0
  0
VERTEX
  5
1AE
330
1AC
100
AcDbEntity
  8
STANDARDEBENE
 62
     7
100
AcDbVertex
100
AcDb2dVertex
 10
10.67825275569015
 20
-18.90480169192687
 30
0.0
  0
SEQEND
  5
1AF
330
1AC
100
AcDbEntity
  8
STANDARDEBENE
  0
POLYLINE
  5
1B0
330
1F
100
AcDbEntity
  8
STANDARDEBENE
 62
     7
100
AcDb2dPolyline
 66
     1
 10
0.0
 20
0.0
 30
0.0
  0
VERTEX
  5
1B1
330
1B0
100
AcDbEntity
  8
STANDARDEBENE
 62
     7
100
AcDbVertex
100
AcDb2dVertex
 10
3.078367101626667
 20
-2.704401739999926
 30
0.0
  0
VERTEX
  5
1B2
330
1B0
100
AcDbEntity
  8
STANDARDEBENE
 62
     7
100
AcDbVertex
100
AcDb2dVertex
 10
0.4783518236929805
 20
-2.704401739999926
 30
0.0
  0
SEQEND
  5
1B3
330
1B0
100
AcDbEntity
  8
STANDARDEBENE
  0
POLYLINE
  5
1B4
330
1F
100
AcDbEntity
  8
STANDARDEBENE
 62
     7
100
AcDb2dPolyline
 66
     1
 10
0.0
 20
0.0
 30
0.0
  0
VERTEX
  5
1B5
330
1B4
100
AcDbEntity
  8
STANDARDEBENE
 62
     7
100
AcDbVertex
100
AcDb2dVertex
 10
0.4783518236929805
 20
-17.70452963305301
 30
0.0
  0
VERTEX
  5
1B6
330
1B4
100
AcDbEntity
  8
STANDARDEBENE
 62
     7
100
AcDbVertex
100
AcDb2dVertex
 10
3.078367101626667
 20
-17.70452963305301
 30
0.0
  0
SEQEND
  5
1B7
330
1B4
100
AcDbEntity
  8
STANDARDEBENE
  0
POLYLINE
  5
1B8
330
1F
100
AcDbEntity
  8
STANDARDEBENE
 62
     7
100
AcDb2dPolyline
 66
     1
 10
0.0
 20
0.0
 30
0.0
  0
VERTEX
  5
1B9
330
1B8
100
AcDbEntity
  8
STANDARDEBENE
 62
     7
100
AcDbVertex
100
AcDb2dVertex
 10
0.4783518236929805
 20
-2.704401739999926
 30
0.0
  0
VERTEX
  5
1BA
330
1B8
100
AcDbEntity
  8
STANDARDEBENE
 62
     7
100
AcDbVertex
100
AcDb2dVertex
 10
0.0783759739936284
 20
-3.104894354362972
 30
0.0
  0
SEQEND
  5
1BB
330
1B8
100
AcDbEntity
  8
STANDARDEBENE
  0
POLYLINE
  5
1BC
330
1F
100
AcDbEntity
  8
STANDARDEBENE
 62
     7
100
AcDb2dPolyline
 66
     1
 10
0.0
 20
0.0
 30
0.0
  0
VERTEX
  5
1BD
330
1BC
100
AcDbEntity
  8
STANDARDEBENE
 62
     7
100
AcDbVertex
100
AcDb2dVertex
 10
0.0783759739936284
 20
-17.30455378335366
 30
0.0
  0
VERTEX
  5
1BE
330
1BC
100
AcDbEntity
  8
STANDARDEBENE
 62
     7
100
AcDbVertex
100
AcDb2dVertex
 10
0.4783518236929805
 20
-17.70452963305301
 30
0.0
  0
SEQEND
  5
1BF
330
1BC
100
AcDbEntity
  8
STANDARDEBENE
  0
SPLINE
  5
1C0
330
1F
100
AcDbEntity
  8
STANDARDEBENE
 62
     7
100
AcDbSpline
210
0.0
220
0.0
230
1.0
 70
     8
 71
     3
 72
    11
 73
     7
 74
     0
 42
0.0000000001
 43
0.0000000001
 40
0.0
 40
0.0
 40
0.0
 40
0.0
 40
1.0
 40
1.0
 40
1.0
 40
2.0
 40
2.0
 40
2.0
 40
2.0
 10
10.90649048215511
 20
-0.2368504708598661
 30
0.0
 10
10.89667195354492
 20
-0.2349556670929872
 30
0.0
 10
10.88668117004683
 20
-0.234611157317191
 30
0.0
 10
10.87824068053983
 20
-0.234611157317191
 30
0.0
 10
10.76816980717295
 20
-0.234611157317191
 30
0.0
 10
10.67825275569015
 20
-0.324355953912093
 30
0.0
 10
10.67825275569015
 20
-0.434599082166867
 30
0.0
  0
SPLINE
  5
1C1
330
1F
100
AcDbEntity
  8
STANDARDEBENE
 62
     7
100
AcDbSpline
210
0.0
220
0.0
230
1.0
 70
     8
 71
     3
 72
    11
 73
     7
 74
     0
 42
0.0000000001
 43
0.0000000001
 40
0.0
 40
0.0
 40
0.0
 40
0.0
 40
1.0
 40
1.0
 40
1.0
 40
2.0
 40
2.0
 40
2.0
 40
2.0
 10
10.67825275569015
 20
-19.97467680066187
 30
0.0
 10
10.67825275569015
 20
-20.08509218380454
 30
0.0
 10
10.76816980717295
 20
-20.17432021573575
 30
0.0
 10
10.87824068053983
 20
-20.17432021573575
 30
0.0
 10
10.88857597381371
 20
-20.17432021573575
 30
0.0
 10
10.89804999264811
 20
-20.17363119618416
 30
0.0
 10
10.90649048215511
 20
-20.17225315708097
 30
0.0
  0
SPLINE
  5
1C2
330
1F
100
AcDbEntity
  8
STANDARDEBENE
 62
     7
100
AcDbSpline
210
0.0
220
0.0
230
1.0
 70
     8
 71
     3
 72
     8
 73
     4
 74
     0
 42
0.0000000001
 43
0.0000000001
 40
0.0
 40
0.0
 40
0.0
 40
0.0
 40
1.0
 40
1.0
 40
1.0
 40
1.0
 10
6.878482183546307
 20
-0.6047869114101744
 30
0.0
 10
6.878482183546307
 20
-0.4941992733796042
 30
0.0
 10
6.788909641839303
 20
-0.4046267316726003
 30
0.0
 10
6.678494258696631
 20
-0.4046267316726003
 30
0.0
  0
SPLINE
  5
1C3
330
1F
100
AcDbEntity
  8
STANDARDEBENE
 62
     7
100
AcDbSpline
210
0.0
220
0.0
230
1.0
 70
     8
 71
     3
 72
     8
 73
     4
 74
     0
 42
0.0000000001
 43
0.0000000001
 40
0.0
 40
0.0
 40
0.0
 40
0.0
 40
1.0
 40
1.0
 40
1.0
 40
1.0
 10
6.678494258696631
 20
-20.00430464138034
 30
0.0
 10
6.788909641839303
 20
-20.00430464138034
 30
0.0
 10
6.878482183546307
 20
-19.91473209967334
 30
0.0
 10
6.878482183546307
 20
-19.80431671653066
 30
0.0
  0
SPLINE
  5
1C4
330
1F
100
AcDbEntity
  8
STANDARDEBENE
 62
     7
100
AcDbSpline
210
0.0
220
0.0
230
1.0
 70
     8
 71
     3
 72
     8
 73
     4
 74
     0
 42
0.0000000001
 43
0.0000000001
 40
0.0
 40
0.0
 40
0.0
 40
0.0
 40
1.0
 40
1.0
 40
1.0
 40
1.0
 10
6.46644849169409
 20
-0.4046267316726003
 30
0.0
 10
6.429413690796001
 20
-0.4046267316726003
 30
0.0
 10
6.395134968104283
 20
-0.4146175151706892
 30
0.0
 10
6.366196146937404
 20
-0.4314984941847015
 30
0.0
  0
SPLINE
  5
1C5
330
1F
100
AcDbEntity
  8
STANDARDEBENE
 62
     7
100
AcDbSpline
210
0.0
220
0.0
230
1.0
 70
     8
 71
     3
 72
     8
 73
     4
 74
     0
 42
0.0000000001
 43
0.0000000001
 40
0.0
 40
0.0
 40
0.0
 40
0.0
 40
1.0
 40
1.0
 40
1.0
 40
1.0
 10
6.366196146937404
 20
-19.97760513375614
 30
0.0
 10
6.39806330119855
 20
-19.99586415187333
 30
0.0
 10
6.432858788553963
 20
-20.00464915115614
 30
0.0
 10
6.46644849169409
 20
-20.00430464138034
 30
0.0
  0
SPLINE
  5
1C6
330
1F
100
AcDbEntity
  8
STANDARDEBENE
 62
     7
100
AcDbSpline
210
0.0
220
0.0
230
1.0
 70
     8
 71
     3
 72
     8
 73
     4
 74
     0
 42
0.0000000001
 43
0.0000000001
 40
0.0
 40
0.0
 40
0.0
 40
0.0
 40
1.0
 40
1.0
 40
1.0
 40
1.0
 10
3.178274936607556
 20
-2.271869716487835
 30
0.0
 10
3.114368373197367
 20
-2.309076772273822
 30
0.0
 10
3.078711611402463
 20
-2.375222649226686
 30
0.0
 10
3.078367101626667
 20
-2.444813623937512
 30
0.0
  0
SPLINE
  5
1C7
330
1F
100
AcDbEntity
  8
STANDARDEBENE
 62
     7
100
AcDbSpline
210
0.0
220
0.0
230
1.0
 70
     8
 71
     3
 72
     8
 73
     4
 74
     0
 42
0.0000000001
 43
0.0000000001
 40
0.0
 40
0.0
 40
0.0
 40
0.0
 40
1.0
 40
1.0
 40
1.0
 40
1.0
 10
3.078367101626667
 20
-17.96394549422753
 30
0.0
 10
3.078367101626667
 20
-18.03801509602371
 30
0.0
 10
3.118330235619022
 20
-18.101749404546
 30
0.0
 10
3.178274936607556
 20
-18.13706165656511
 30
0.0
  0
SPLINE
  5
1C8
330
1F
100
AcDbEntity
  8
STANDARDEBENE
 62
     7
100
AcDbSpline
210
0.0
220
0.0
230
1.0
 70
     8
 71
     3
 72
     8
 73
     4
 74
     0
 42
0.0000000001
 43
0.0000000001
 40
0.0
 40
0.0
 40
0.0
 40
0.0
 40
1.0
 40
1.0
 40
1.0
 40
1.0
 10
33.57816206263729
 20
-3.596509804424105
 30
0.0
 10
33.57816206263729
 20
-3.496429714555318
 30
0.0
 10
33.50409246084111
 20
-3.413230603700543
 30
0.0
 10
33.4064239394029
 20
-3.398761193117104
 30
0.0
  0
SPLINE
  5
1C9
330
1F
100
AcDbEntity
  8
STANDARDEBENE
 62
     7
100
AcDbSpline
210
0.0
220
0.0
230
1.0
 70
     8
 71
     3
 72
     8
 73
     4
 74
     0
 42
0.0000000001
 43
0.0000000001
 40
0.0
 40
0.0
 40
0.0
 40
0.0
 40
1.0
 40
1.0
 40
1.0
 40
1.0
 10
33.4064239394029
 20
-17.01068694459953
 30
0.0
 10
33.5058150097201
 20
-16.99656204379189
 30
0.0
 10
33.57816206263729
 20
-16.91112361939444
 30
0.0
 10
33.57816206263729
 20
-16.81207705885304
 30
0.0
  0
POLYLINE
  5
1CA
330
1F
100
AcDbEntity
  8
STANDARDEBENE
 62
     7
100
AcDb2dPolyline
 66
     1
 10
0.0
 20
0.0
 30
0.0
  0
VERTEX
  5
1CB
330
1CA
100
AcDbEntity
  8
STANDARDEBENE
 62
     7
100
AcDbVertex
100
AcDb2dVertex
 10
0.0783759739936284
 20
-3.104894354362972
 30
0.0
  0
VERTEX
  5
1CC
330
1CA
100
AcDbEntity
  8
STANDARDEBENE
 62
     7
100
AcDbVertex
100
AcDb2dVertex
 10
0.0783759739936284
 20
-3.21203689463558
 30
0.0
  0
VERTEX
  5
1CD
330
1CA
100
AcDbEntity
  8
STANDARDEBENE
 62
     7
100
AcDbVertex
100
AcDb2dVertex
 10
0.0783759739936284
 20
-3.532430986126017
 30
0.0
  0
VERTEX
  5
1CE
330
1CA
100
AcDbEntity
  8
STANDARDEBENE
 62
     7
100
AcDbVertex
100
AcDb2dVertex
 10
0.0783759739936284
 20
-4.055913590448296
 30
0.0
  0
VERTEX
  5
1CF
330
1CA
100
AcDbEntity
  8
STANDARDEBENE
 62
     7
100
AcDbVertex
100
AcDb2dVertex
 10
0.0783759739936284
 20
-4.765431473700506
 30
0.0
  0
VERTEX
  5
1D0
330
1CA
100
AcDbEntity
  8
STANDARDEBENE
 62
     7
100
AcDbVertex
100
AcDb2dVertex
 10
0.0783759739936284
 20
-5.640658559110673
 30
0.0
  0
VERTEX
  5
1D1
330
1CA
100
AcDbEntity
  8
STANDARDEBENE
 62
     7
100
AcDbVertex
100
AcDb2dVertex
 10
0.0783759739936284
 20
-6.654550829278797
 30
0.0
  0
VERTEX
  5
1D2
330
1CA
100
AcDbEntity
  8
STANDARDEBENE
 62
     7
100
AcDbVertex
100
AcDb2dVertex
 10
0.0783759739936284
 20
-7.775930149495327
 30
0.0
  0
VERTEX
  5
1D3
330
1CA
100
AcDbEntity
  8
STANDARDEBENE
 62
     7
100
AcDbVertex
100
AcDb2dVertex
 10
0.0783759739936284
 20
-8.97155132639593
 30
0.0
  0
VERTEX
  5
1D4
330
1CA
100
AcDbEntity
  8
STANDARDEBENE
 62
     7
100
AcDbVertex
100
AcDb2dVertex
 10
0.0783759739936284
 20
-10.20455181397042
 30
0.0
  0
VERTEX
  5
1D5
330
1CA
100
AcDbEntity
  8
STANDARDEBENE
 62
     7
100
AcDbVertex
100
AcDb2dVertex
 10
0.0783759739936284
 20
-11.43755230154491
 30
0.0
  0
VERTEX
  5
1D6
330
1CA
100
AcDbEntity
  8
STANDARDEBENE
 62
     7
100
AcDbVertex
100
AcDb2dVertex
 10
0.0783759739936284
 20
-12.63300122355761
 30
0.0
  0
VERTEX
  5
1D7
330
1CA
100
AcDbEntity
  8
STANDARDEBENE
 62
     7
100
AcDbVertex
100
AcDb2dVertex
 10
0.0783759739936284
 20
-13.75455279866204
 30
0.0
  0
VERTEX
  5
1D8
330
1CA
100
AcDbEntity
  8
STANDARDEBENE
 62
     7
100
AcDbVertex
100
AcDb2dVertex
 10
0.0783759739936284
 20
-14.76844506883017
 30
0.0
  0
VERTEX
  5
1D9
330
1CA
100
AcDbEntity
  8
STANDARDEBENE
 62
     7
100
AcDbVertex
100
AcDb2dVertex
 10
0.0783759739936284
 20
-15.64367215424033
 30
0.0
  0
VERTEX
  5
1DA
330
1CA
100
AcDbEntity
  8
STANDARDEBENE
 62
     7
100
AcDbVertex
100
AcDb2dVertex
 10
0.0783759739936284
 20
-16.35301778260465
 30
0.0
  0
VERTEX
  5
1DB
330
1CA
100
AcDbEntity
  8
STANDARDEBENE
 62
     7
100
AcDbVertex
100
AcDb2dVertex
 10
0.0783759739936284
 20
-16.87667264181482
 30
0.0
  0
VERTEX
  5
1DC
330
1CA
100
AcDbEntity
  8
STANDARDEBENE
 62
     7
100
AcDbVertex
100
AcDb2dVertex
 10
0.0783759739936284
 20
-17.19689447841736
 30
0.0
  0
VERTEX
  5
1DD
330
1CA
100
AcDbEntity
  8
STANDARDEBENE
 62
     7
100
AcDbVertex
100
AcDb2dVertex
 10
0.0783759739936284
 20
-17.30455378335366
 30
0.0
  0
SEQEND
  5
1DE
330
1CA
100
AcDbEntity
  8
STANDARDEBENE
  0
POLYLINE
  5
1DF
330
1F
100
AcDbEntity
  8
STANDARDEBENE
 62
     7
100
AcDb2dPolyline
 66
     1
 10
0.0
 20
0.0
 30
0.0
  0
VERTEX
  5
1E0
330
1DF
100
AcDbEntity
  8
STANDARDEBENE
 62
     7
100
AcDbVertex
100
AcDb2dVertex
 10
0.4783518236929805
 20
-10.20455181397042
 30
0.0
  0
VERTEX
  5
1E1
330
1DF
100
AcDbEntity
  8
STANDARDEBENE
 62
     7
100
AcDbVertex
100
AcDb2dVertex
 10
0.4783518236929805
 20
-8.901960351685105
 30
0.0
  0
VERTEX
  5
1E2
330
1DF
100
AcDbEntity
  8
STANDARDEBENE
 62
     7
100
AcDbVertex
100
AcDb2dVertex
 10
0.4783518236929805
 20
-7.639504278280044
 30
0.0
  0
VERTEX
  5
1E3
330
1DF
100
AcDbEntity
  8
STANDARDEBENE
 62
     7
100
AcDbVertex
100
AcDb2dVertex
 10
0.4783518236929805
 20
-6.454562904429121
 30
0.0
  0
VERTEX
  5
1E4
330
1DF
100
AcDbEntity
  8
STANDARDEBENE
 62
     7
100
AcDbVertex
100
AcDb2dVertex
 10
0.4783518236929805
 20
-5.383826521254629
 30
0.0
  0
VERTEX
  5
1E5
330
1DF
100
AcDbEntity
  8
STANDARDEBENE
 62
     7
100
AcDbVertex
100
AcDb2dVertex
 10
0.4783518236929805
 20
-4.459506792793507
 30
0.0
  0
VERTEX
  5
1E6
330
1DF
100
AcDbEntity
  8
STANDARDEBENE
 62
     7
100
AcDbVertex
100
AcDb2dVertex
 10
0.4783518236929805
 20
-3.709164501109452
 30
0.0
  0
VERTEX
  5
1E7
330
1DF
100
AcDbEntity
  8
STANDARDEBENE
 62
     7
100
AcDbVertex
100
AcDb2dVertex
 10
0.4783518236929805
 20
-3.157087585396091
 30
0.0
  0
VERTEX
  5
1E8
330
1DF
100
AcDbEntity
  8
STANDARDEBENE
 62
     7
100
AcDbVertex
100
AcDb2dVertex
 10
0.4783518236929805
 20
-2.818434475788457
 30
0.0
  0
VERTEX
  5
1E9
330
1DF
100
AcDbEntity
  8
STANDARDEBENE
 62
     7
100
AcDbVertex
100
AcDb2dVertex
 10
0.4783518236929805
 20
-2.704401739999926
 30
0.0
  0
SEQEND
  5
1EA
330
1DF
100
AcDbEntity
  8
STANDARDEBENE
  0
POLYLINE
  5
1EB
330
1F
100
AcDbEntity
  8
STANDARDEBENE
 62
     7
100
AcDb2dPolyline
 66
     1
 10
0.0
 20
0.0
 30
0.0
  0
VERTEX
  5
1EC
330
1EB
100
AcDbEntity
  8
STANDARDEBENE
 62
     7
100
AcDbVertex
100
AcDb2dVertex
 10
0.4783518236929805
 20
-17.70452963305301
 30
0.0
  0
VERTEX
  5
1ED
330
1EB
100
AcDbEntity
  8
STANDARDEBENE
 62
     7
100
AcDbVertex
100
AcDb2dVertex
 10
0.4783518236929805
 20
-17.59066915215238
 30
0.0
  0
VERTEX
  5
1EE
330
1EB
100
AcDbEntity
  8
STANDARDEBENE
 62
     7
100
AcDbVertex
100
AcDb2dVertex
 10
0.4783518236929805
 20
-17.25201604254475
 30
0.0
  0
VERTEX
  5
1EF
330
1EB
100
AcDbEntity
  8
STANDARDEBENE
 62
     7
100
AcDbVertex
100
AcDb2dVertex
 10
0.4783518236929805
 20
-16.69993912683139
 30
0.0
  0
VERTEX
  5
1F0
330
1EB
100
AcDbEntity
  8
STANDARDEBENE
 62
     7
100
AcDbVertex
100
AcDb2dVertex
 10
0.4783518236929805
 20
-15.95028585469892
 30
0.0
  0
VERTEX
  5
1F1
330
1EB
100
AcDbEntity
  8
STANDARDEBENE
 62
     7
100
AcDbVertex
100
AcDb2dVertex
 10
0.4783518236929805
 20
-15.02527710668621
 30
0.0
  0
VERTEX
  5
1F2
330
1EB
100
AcDbEntity
  8
STANDARDEBENE
 62
     7
100
AcDbVertex
100
AcDb2dVertex
 10
0.4783518236929805
 20
-13.95454072351172
 30
0.0
  0
VERTEX
  5
1F3
330
1EB
100
AcDbEntity
  8
STANDARDEBENE
 62
     7
100
AcDbVertex
100
AcDb2dVertex
 10
0.4783518236929805
 20
-12.76994385943659
 30
0.0
  0
VERTEX
  5
1F4
330
1EB
100
AcDbEntity
  8
STANDARDEBENE
 62
     7
100
AcDbVertex
100
AcDb2dVertex
 10
0.4783518236929805
 20
-11.50697102136784
 30
0.0
  0
VERTEX
  5
1F5
330
1EB
100
AcDbEntity
  8
STANDARDEBENE
 62
     7
100
AcDbVertex
100
AcDb2dVertex
 10
0.4783518236929805
 20
-10.20455181397042
 30
0.0
  0
SEQEND
  5
1F6
330
1EB
100
AcDbEntity
  8
STANDARDEBENE
  0
POLYLINE
  5
1F7
330
1F
100
AcDbEntity
  8
STANDARDEBENE
 62
     7
100
AcDb2dPolyline
 66
     1
 10
0.0
 20
0.0
 30
0.0
  0
VERTEX
  5
1F8
330
1F7
100
AcDbEntity
  8
STANDARDEBENE
 62
     7
100
AcDbVertex
100
AcDb2dVertex
 10
33.57816206263729
 20
-10.20455181397042
 30
0.0
  0
VERTEX
  5
1F9
330
1F7
100
AcDbEntity
  8
STANDARDEBENE
 62
     7
100
AcDbVertex
100
AcDb2dVertex
 10
33.57816206263729
 20
-8.915396232941156
 30
0.0
  0
VERTEX
  5
1FA
330
1F7
100
AcDbEntity
  8
STANDARDEBENE
 62
     7
100
AcDbVertex
100
AcDb2dVertex
 10
33.57816206263729
 20
-7.67585005962654
 30
0.0
  0
VERTEX
  5
1FB
330
1F7
100
AcDbEntity
  8
STANDARDEBENE
 62
     7
100
AcDbVertex
100
AcDb2dVertex
 10
33.57816206263729
 20
-6.533455643086444
 30
0.0
  0
VERTEX
  5
1FC
330
1F7
100
AcDbEntity
  8
STANDARDEBENE
 62
     7
100
AcDbVertex
100
AcDb2dVertex
 10
33.57816206263729
 20
-5.531965724846981
 30
0.0
  0
VERTEX
  5
1FD
330
1F7
100
AcDbEntity
  8
STANDARDEBENE
 62
     7
100
AcDbVertex
100
AcDb2dVertex
 10
33.57816206263729
 20
-4.710654419348915
 30
0.0
  0
VERTEX
  5
1FE
330
1F7
100
AcDbEntity
  8
STANDARDEBENE
 62
     7
100
AcDbVertex
100
AcDb2dVertex
 10
33.57816206263729
 20
-4.100010841750206
 30
0.0
  0
VERTEX
  5
1FF
330
1F7
100
AcDbEntity
  8
STANDARDEBENE
 62
     7
100
AcDbVertex
100
AcDb2dVertex
 10
33.57816206263729
 20
-3.723633911692891
 30
0.0
  0
VERTEX
  5
200
330
1F7
100
AcDbEntity
  8
STANDARDEBENE
 62
     7
100
AcDbVertex
100
AcDb2dVertex
 10
33.57816206263729
 20
-3.596509804424105
 30
0.0
  0
SEQEND
  5
201
330
1F7
100
AcDbEntity
  8
STANDARDEBENE
  0
POLYLINE
  5
202
330
1F
100
AcDbEntity
  8
STANDARDEBENE
 62
     7
100
AcDb2dPolyline
 66
     1
 10
0.0
 20
0.0
 30
0.0
  0
VERTEX
  5
203
330
202
100
AcDbEntity
  8
STANDARDEBENE
 62
     7
100
AcDbVertex
100
AcDb2dVertex
 10
33.57816206263729
 20
-16.81207705885304
 30
0.0
  0
VERTEX
  5
204
330
202
100
AcDbEntity
  8
STANDARDEBENE
 62
     7
100
AcDbVertex
100
AcDb2dVertex
 10
33.57816206263729
 20
-16.68546971624795
 30
0.0
  0
VERTEX
  5
205
330
202
100
AcDbEntity
  8
STANDARDEBENE
 62
     7
100
AcDbVertex
100
AcDb2dVertex
 10
33.57816206263729
 20
-16.30960955085433
 30
0.0
  0
VERTEX
  5
206
330
202
100
AcDbEntity
  8
STANDARDEBENE
 62
     7
100
AcDbVertex
100
AcDb2dVertex
 10
33.57816206263729
 20
-15.69896597325562
 30
0.0
  0
VERTEX
  5
207
330
202
100
AcDbEntity
  8
STANDARDEBENE
 62
     7
100
AcDbVertex
100
AcDb2dVertex
 10
33.57816206263729
 20
-14.87713790309386
 30
0.0
  0
VERTEX
  5
208
330
202
100
AcDbEntity
  8
STANDARDEBENE
 62
     7
100
AcDbVertex
100
AcDb2dVertex
 10
33.57816206263729
 20
-13.87582023974229
 30
0.0
  0
VERTEX
  5
209
330
202
100
AcDbEntity
  8
STANDARDEBENE
 62
     7
100
AcDbVertex
100
AcDb2dVertex
 10
33.57816206263729
 20
-12.7332535683143
 30
0.0
  0
VERTEX
  5
20A
330
202
100
AcDbEntity
  8
STANDARDEBENE
 62
     7
100
AcDbVertex
100
AcDb2dVertex
 10
33.57816206263729
 20
-11.49353514011178
 30
0.0
  0
VERTEX
  5
20B
330
202
100
AcDbEntity
  8
STANDARDEBENE
 62
     7
100
AcDbVertex
100
AcDb2dVertex
 10
33.57816206263729
 20
-10.20455181397042
 30
0.0
  0
SEQEND
  5
20C
330
202
100
AcDbEntity
  8
STANDARDEBENE
  0
POLYLINE
  5
20D
330
1F
100
AcDbEntity
  8
STANDARDEBENE
 62
     7
100
AcDb2dPolyline
 66
     1
 10
0.0
 20
0.0
 30
0.0
  0
VERTEX
  5
20E
330
20D
100
AcDbEntity
  8
STANDARDEBENE
 62
     7
100
AcDbVertex
100
AcDb2dVertex
 10
6.878482183546307
 20
-10.20455181397042
 30
0.0
  0
VERTEX
  5
20F
330
20D
100
AcDbEntity
  8
STANDARDEBENE
 62
     7
100
AcDbVertex
100
AcDb2dVertex
 10
6.878482183546307
 20
-8.703178211050716
 30
0.0
  0
VERTEX
  5
210
330
20D
100
AcDbEntity
  8
STANDARDEBENE
 62
     7
100
AcDbVertex
100
AcDb2dVertex
 10
6.878482183546307
 20
-7.23797813458961
 30
0.0
  0
VERTEX
  5
211
330
20D
100
AcDbEntity
  8
STANDARDEBENE
 62
     7
100
AcDbVertex
100
AcDb2dVertex
 10
6.878482183546307
 20
-5.845986385485189
 30
0.0
  0
VERTEX
  5
212
330
20D
100
AcDbEntity
  8
STANDARDEBENE
 62
     7
100
AcDbVertex
100
AcDb2dVertex
 10
6.878482183546307
 20
-4.561481686429174
 30
0.0
  0
VERTEX
  5
213
330
20D
100
AcDbEntity
  8
STANDARDEBENE
 62
     7
100
AcDbVertex
100
AcDb2dVertex
 10
6.878482183546307
 20
-3.416331191682708
 30
0.0
  0
VERTEX
  5
214
330
20D
100
AcDbEntity
  8
STANDARDEBENE
 62
     7
100
AcDbVertex
100
AcDb2dVertex
 10
6.878482183546307
 20
-2.438095683309487
 30
0.0
  0
VERTEX
  5
215
330
20D
100
AcDbEntity
  8
STANDARDEBENE
 62
     7
100
AcDbVertex
100
AcDb2dVertex
 10
6.878482183546307
 20
-1.651063100503139
 30
0.0
  0
VERTEX
  5
216
330
20D
100
AcDbEntity
  8
STANDARDEBENE
 62
     7
100
AcDbVertex
100
AcDb2dVertex
 10
6.878482183546307
 20
-1.074698245596149
 30
0.0
  0
VERTEX
  5
217
330
20D
100
AcDbEntity
  8
STANDARDEBENE
 62
     7
100
AcDbVertex
100
AcDb2dVertex
 10
6.878482183546307
 20
-0.7229537645082603
 30
0.0
  0
VERTEX
  5
218
330
20D
100
AcDbEntity
  8
STANDARDEBENE
 62
     7
100
AcDbVertex
100
AcDb2dVertex
 10
6.878482183546307
 20
-0.6047869114101744
 30
0.0
  0
SEQEND
  5
219
330
20D
100
AcDbEntity
  8
STANDARDEBENE
  0
POLYLINE
  5
21A
330
1F
100
AcDbEntity
  8
STANDARDEBENE
 62
     7
100
AcDb2dPolyline
 66
     1
 10
0.0
 20
0.0
 30
0.0
  0
VERTEX
  5
21B
330
21A
100
AcDbEntity
  8
STANDARDEBENE
 62
     7
100
AcDbVertex
100
AcDb2dVertex
 10
6.878482183546307
 20
-19.80431671653066
 30
0.0
  0
VERTEX
  5
21C
330
21A
100
AcDbEntity
  8
STANDARDEBENE
 62
     7
100
AcDbVertex
100
AcDb2dVertex
 10
6.878482183546307
 20
-19.68649437320838
 30
0.0
  0
VERTEX
  5
21D
330
21A
100
AcDbEntity
  8
STANDARDEBENE
 62
     7
100
AcDbVertex
100
AcDb2dVertex
 10
6.878482183546307
 20
-19.33440538234469
 30
0.0
  0
VERTEX
  5
21E
330
21A
100
AcDbEntity
  8
STANDARDEBENE
 62
     7
100
AcDbVertex
100
AcDb2dVertex
 10
6.878482183546307
 20
-18.7580405274377
 30
0.0
  0
VERTEX
  5
21F
330
21A
100
AcDbEntity
  8
STANDARDEBENE
 62
     7
100
AcDbVertex
100
AcDb2dVertex
 10
6.878482183546307
 20
-17.97083568974345
 30
0.0
  0
VERTEX
  5
220
330
21A
100
AcDbEntity
  8
STANDARDEBENE
 62
     7
100
AcDbVertex
100
AcDb2dVertex
 10
6.878482183546307
 20
-16.99294469114603
 30
0.0
  0
VERTEX
  5
221
330
21A
100
AcDbEntity
  8
STANDARDEBENE
 62
     7
100
AcDbVertex
100
AcDb2dVertex
 10
6.878482183546307
 20
-15.84727743173587
 30
0.0
  0
VERTEX
  5
222
330
21A
100
AcDbEntity
  8
STANDARDEBENE
 62
     7
100
AcDbVertex
100
AcDb2dVertex
 10
6.878482183546307
 20
-14.56311724245565
 30
0.0
  0
VERTEX
  5
223
330
21A
100
AcDbEntity
  8
STANDARDEBENE
 62
     7
100
AcDbVertex
100
AcDb2dVertex
 10
6.878482183546307
 20
-13.17095323846333
 30
0.0
  0
VERTEX
  5
224
330
21A
100
AcDbEntity
  8
STANDARDEBENE
 62
     7
100
AcDbVertex
100
AcDb2dVertex
 10
6.878482183546307
 20
-11.70661443644171
 30
0.0
  0
VERTEX
  5
225
330
21A
100
AcDbEntity
  8
STANDARDEBENE
 62
     7
100
AcDbVertex
100
AcDb2dVertex
 10
6.878482183546307
 20
-10.20455181397042
 30
0.0
  0
SEQEND
  5
226
330
21A
100
AcDbEntity
  8
STANDARDEBENE
  0
POLYLINE
  5
227
330
1F
100
AcDbEntity
  8
STANDARDEBENE
 62
     7
100
AcDb2dPolyline
 66
     1
 10
0.0
 20
0.0
 30
0.0
  0
VERTEX
  5
228
330
227
100
AcDbEntity
  8
STANDARDEBENE
 62
     7
100
AcDbVertex
100
AcDb2dVertex
 10
3.078367101626667
 20
-2.444813623937512
 30
0.0
  0
VERTEX
  5
229
330
227
100
AcDbEntity
  8
STANDARDEBENE
 62
     7
100
AcDbVertex
100
AcDb2dVertex
 10
3.078367101626667
 20
-2.550578125106936
 30
0.0
  0
VERTEX
  5
22A
330
227
100
AcDbEntity
  8
STANDARDEBENE
 62
     7
100
AcDbVertex
100
AcDb2dVertex
 10
3.078367101626667
 20
-2.865632315072533
 30
0.0
  0
VERTEX
  5
22B
330
227
100
AcDbEntity
  8
STANDARDEBENE
 62
     7
100
AcDbVertex
100
AcDb2dVertex
 10
3.078367101626667
 20
-3.379985410336213
 30
0.0
  0
VERTEX
  5
22C
330
227
100
AcDbEntity
  8
STANDARDEBENE
 62
     7
100
AcDbVertex
100
AcDb2dVertex
 10
3.078367101626667
 20
-4.081235058969314
 30
0.0
  0
VERTEX
  5
22D
330
227
100
AcDbEntity
  8
STANDARDEBENE
 62
     7
100
AcDbVertex
100
AcDb2dVertex
 10
3.078367101626667
 20
-4.949571948863558
 30
0.0
  0
VERTEX
  5
22E
330
227
100
AcDbEntity
  8
STANDARDEBENE
 62
     7
100
AcDbVertex
100
AcDb2dVertex
 10
3.078367101626667
 20
-5.960535885937415
 30
0.0
  0
VERTEX
  5
22F
330
227
100
AcDbEntity
  8
STANDARDEBENE
 62
     7
100
AcDbVertex
100
AcDb2dVertex
 10
3.078367101626667
 20
-7.087427362566683
 30
0.0
  0
VERTEX
  5
230
330
227
100
AcDbEntity
  8
STANDARDEBENE
 62
     7
100
AcDbVertex
100
AcDb2dVertex
 10
3.078367101626667
 20
-8.2999295184813
 30
0.0
  0
VERTEX
  5
231
330
227
100
AcDbEntity
  8
STANDARDEBENE
 62
     7
100
AcDbVertex
100
AcDb2dVertex
 10
3.078367101626667
 20
-9.56341912121375
 30
0.0
  0
VERTEX
  5
232
330
227
100
AcDbEntity
  8
STANDARDEBENE
 62
     7
100
AcDbVertex
100
AcDb2dVertex
 10
3.078367101626667
 20
-10.84551225183919
 30
0.0
  0
VERTEX
  5
233
330
227
100
AcDbEntity
  8
STANDARDEBENE
 62
     7
100
AcDbVertex
100
AcDb2dVertex
 10
3.078367101626667
 20
-12.10917410945954
 30
0.0
  0
VERTEX
  5
234
330
227
100
AcDbEntity
  8
STANDARDEBENE
 62
     7
100
AcDbVertex
100
AcDb2dVertex
 10
3.078367101626667
 20
-13.32167626537415
 30
0.0
  0
VERTEX
  5
235
330
227
100
AcDbEntity
  8
STANDARDEBENE
 62
     7
100
AcDbVertex
100
AcDb2dVertex
 10
3.078367101626667
 20
-14.44839548711552
 30
0.0
  0
VERTEX
  5
236
330
227
100
AcDbEntity
  8
STANDARDEBENE
 62
     7
100
AcDbVertex
100
AcDb2dVertex
 10
3.078367101626667
 20
-15.46022069862887
 30
0.0
  0
VERTEX
  5
237
330
227
100
AcDbEntity
  8
STANDARDEBENE
 62
     7
100
AcDbVertex
100
AcDb2dVertex
 10
3.078367101626667
 20
-16.32769631408363
 30
0.0
  0
VERTEX
  5
238
330
227
100
AcDbEntity
  8
STANDARDEBENE
 62
     7
100
AcDbVertex
100
AcDb2dVertex
 10
3.078367101626667
 20
-17.02894596271673
 30
0.0
  0
VERTEX
  5
239
330
227
100
AcDbEntity
  8
STANDARDEBENE
 62
     7
100
AcDbVertex
100
AcDb2dVertex
 10
3.078367101626667
 20
-17.54329905798041
 30
0.0
  0
VERTEX
  5
23A
330
227
100
AcDbEntity
  8
STANDARDEBENE
 62
     7
100
AcDbVertex
100
AcDb2dVertex
 10
3.078367101626667
 20
-17.85835324794601
 30
0.0
  0
VERTEX
  5
23B
330
227
100
AcDbEntity
  8
STANDARDEBENE
 62
     7
100
AcDbVertex
100
AcDb2dVertex
 10
3.078367101626667
 20
-17.96394549422753
 30
0.0
  0
SEQEND
  5
23C
330
227
100
AcDbEntity
  8
STANDARDEBENE
  0
POLYLINE
  5
23D
330
1F
100
AcDbEntity
  8
STANDARDEBENE
 62
     7
100
AcDb2dPolyline
 66
     1
 10
0.0
 20
0.0
 30
0.0
  0
VERTEX
  5
23E
330
23D
100
AcDbEntity
  8
STANDARDEBENE
 62
     7
100
AcDbVertex
100
AcDb2dVertex
 10
10.67825275569015
 20
-0.434599082166867
 30
0.0
  0
VERTEX
  5
23F
330
23D
100
AcDbEntity
  8
STANDARDEBENE
 62
     7
100
AcDbVertex
100
AcDb2dVertex
 10
10.67825275569015
 20
-0.5436364262063544
 30
0.0
  0
VERTEX
  5
240
330
23D
100
AcDbEntity
  8
STANDARDEBENE
 62
     7
100
AcDbVertex
100
AcDb2dVertex
 10
10.67825275569015
 20
-0.8690259094458359
 30
0.0
  0
VERTEX
  5
241
330
23D
100
AcDbEntity
  8
STANDARDEBENE
 62
     7
100
AcDbVertex
100
AcDb2dVertex
 10
10.67825275569015
 20
-1.401982532602509
 30
0.0
  0
VERTEX
  5
242
330
23D
100
AcDbEntity
  8
STANDARDEBENE
 62
     7
100
AcDbVertex
100
AcDb2dVertex
 10
10.67825275569015
 20
-2.132687767066183
 30
0.0
  0
VERTEX
  5
243
330
23D
100
AcDbEntity
  8
STANDARDEBENE
 62
     7
100
AcDbVertex
100
AcDb2dVertex
 10
10.67825275569015
 20
-3.042365830055967
 30
0.0
  0
VERTEX
  5
244
330
23D
100
AcDbEntity
  8
STANDARDEBENE
 62
     7
100
AcDbVertex
100
AcDb2dVertex
 10
10.67825275569015
 20
-4.113446723006256
 30
0.0
  0
VERTEX
  5
245
330
23D
100
AcDbEntity
  8
STANDARDEBENE
 62
     7
100
AcDbVertex
100
AcDb2dVertex
 10
10.67825275569015
 20
-5.319919957844439
 30
0.0
  0
VERTEX
  5
246
330
23D
100
AcDbEntity
  8
STANDARDEBENE
 62
     7
100
AcDbVertex
100
AcDb2dVertex
 10
10.67825275569015
 20
-6.63543053672211
 30
0.0
  0
VERTEX
  5
247
330
23D
100
AcDbEntity
  8
STANDARDEBENE
 62
     7
100
AcDbVertex
100
AcDb2dVertex
 10
10.67825275569015
 20
-8.030350618920798
 30
0.0
  0
VERTEX
  5
248
330
23D
100
AcDbEntity
  8
STANDARDEBENE
 62
     7
100
AcDbVertex
100
AcDb2dVertex
 10
10.67825275569015
 20
-9.474535599058338
 30
0.0
  0
VERTEX
  5
249
330
23D
100
AcDbEntity
  8
STANDARDEBENE
 62
     7
100
AcDbVertex
100
AcDb2dVertex
 10
10.67825275569015
 20
-10.9347402837704
 30
0.0
  0
VERTEX
  5
24A
330
23D
100
AcDbEntity
  8
STANDARDEBENE
 62
     7
100
AcDbVertex
100
AcDb2dVertex
 10
10.67825275569015
 20
-12.37875300902004
 30
0.0
  0
VERTEX
  5
24B
330
23D
100
AcDbEntity
  8
STANDARDEBENE
 62
     7
100
AcDbVertex
100
AcDb2dVertex
 10
10.67825275569015
 20
-13.77436211077032
 30
0.0
  0
VERTEX
  5
24C
330
23D
100
AcDbEntity
  8
STANDARDEBENE
 62
     7
100
AcDbVertex
100
AcDb2dVertex
 10
10.67825275569015
 20
-15.0893559249843
 30
0.0
  0
VERTEX
  5
24D
330
23D
100
AcDbEntity
  8
STANDARDEBENE
 62
     7
100
AcDbVertex
100
AcDb2dVertex
 10
10.67825275569015
 20
-16.29634592448618
 30
0.0
  0
VERTEX
  5
24E
330
23D
100
AcDbEntity
  8
STANDARDEBENE
 62
     7
100
AcDbVertex
100
AcDb2dVertex
 10
10.67825275569015
 20
-17.36656554299697
 30
0.0
  0
VERTEX
  5
24F
330
23D
100
AcDbEntity
  8
STANDARDEBENE
 62
     7
100
AcDbVertex
100
AcDb2dVertex
 10
10.67825275569015
 20
-18.27710488042625
 30
0.0
  0
VERTEX
  5
250
330
23D
100
AcDbEntity
  8
STANDARDEBENE
 62
     7
100
AcDbVertex
100
AcDb2dVertex
 10
10.67825275569015
 20
-19.00712109533833
 30
0.0
  0
VERTEX
  5
251
330
23D
100
AcDbEntity
  8
STANDARDEBENE
 62
     7
100
AcDbVertex
100
AcDb2dVertex
 10
10.67825275569015
 20
-19.5407667380466
 30
0.0
  0
VERTEX
  5
252
330
23D
100
AcDbEntity
  8
STANDARDEBENE
 62
     7
100
AcDbVertex
100
AcDb2dVertex
 10
10.67825275569015
 20
-19.86529494684659
 30
0.0
  0
VERTEX
  5
253
330
23D
100
AcDbEntity
  8
STANDARDEBENE
 62
     7
100
AcDbVertex
100
AcDb2dVertex
 10
10.67825275569015
 20
-19.97467680066187
 30
0.0
  0
SEQEND
  5
254
330
23D
100
AcDbEntity
  8
STANDARDEBENE
  0
SPLINE
  5
255
330
1F
100
AcDbEntity
  8
STANDARDEBENE
 62
     7
100
AcDbSpline
210
0.0
220
0.0
230
1.0
 70
    11
 71
     3
 72
    17
 73
    13
 74
     0
 42
0.0000000001
 43
0.0000000001
 40
0.0
 40
0.0
 40
0.0
 40
0.0
 40
1.0
 40
1.0
 40
1.0
 40
2.0
 40
2.0
 40
2.0
 40
3.0
 40
3.0
 40
3.0
 40
4.0
 40
4.0
 40
4.0
 40
4.0
 10
98.38734108541257
 20
-10.20455181397042
 30
0.0
 10
98.38734108541257
 20
-4.698596577196049
 30
0.0
 10
93.92352792042162
 20
-0.234611157317191
 30
0.0
 10
88.41653915431985
 20
-0.234611157317191
 30
0.0
 10
82.91092842732128
 20
-0.234611157317191
 30
0.0
 10
78.44677075255453
 20
-4.698596577196049
 30
0.0
 10
78.44677075255453
 20
-10.20455181397042
 30
0.0
 10
78.44677075255453
 20
-15.71102381540848
 30
0.0
 10
82.91092842732128
 20
-20.17432021573575
 30
0.0
 10
88.41653915431985
 20
-20.17432021573575
 30
0.0
 10
93.92352792042162
 20
-20.17432021573575
 30
0.0
 10
98.38734108541257
 20
-15.71102381540848
 30
0.0
 10
98.38734108541257
 20
-10.20455181397042
 30
0.0
  0
SPLINE
  5
256
330
1F
100
AcDbEntity
  8
STANDARDEBENE
 62
     7
100
AcDbSpline
210
0.0
220
0.0
230
1.0
 70
    11
 71
     3
 72
    17
 73
    13
 74
     0
 42
0.0000000001
 43
0.0000000001
 40
0.0
 40
0.0
 40
0.0
 40
0.0
 40
1.0
 40
1.0
 40
1.0
 40
2.0
 40
2.0
 40
2.0
 40
3.0
 40
3.0
 40
3.0
 40
4.0
 40
4.0
 40
4.0
 40
4.0
 10
92.46694058835541
 20
-10.20455181397042
 30
0.0
 10
92.46694058835541
 20
-7.967477584837997
 30
0.0
 10
90.65378563834018
 20
-6.154150379934862
 30
0.0
 10
88.41653915431985
 20
-6.154150379934862
 30
0.0
 10
86.18032619962692
 20
-6.154150379934862
 30
0.0
 10
84.3664822300601
 20
-7.967477584837997
 30
0.0
 10
84.3664822300601
 20
-10.20455181397042
 30
0.0
 10
84.3664822300601
 20
-12.44145378821494
 30
0.0
 10
86.18032619962692
 20
-14.25443648334228
 30
0.0
 10
88.41653915431985
 20
-14.25443648334228
 30
0.0
 10
90.65378563834018
 20
-14.25443648334228
 30
0.0
 10
92.46694058835541
 20
-12.44145378821494
 30
0.0
 10
92.46694058835541
 20
-10.20455181397042
 30
0.0
  0
SPLINE
  5
257
330
1F
100
AcDbEntity
  8
STANDARDEBENE
 62
     7
100
AcDbSpline
210
0.0
220
0.0
230
1.0
 70
    11
 71
     3
 72
    17
 73
    13
 74
     0
 42
0.0000000001
 43
0.0000000001
 40
0.0
 40
0.0
 40
0.0
 40
0.0
 40
1.0
 40
1.0
 40
1.0
 40
2.0
 40
2.0
 40
2.0
 40
3.0
 40
3.0
 40
3.0
 40
4.0
 40
4.0
 40
4.0
 40
4.0
 10
95.5172301432547
 20
-10.20455181397042
 30
0.0
 10
95.5172301432547
 20
-6.283341545858425
 30
0.0
 10
92.33809393220764
 20
-3.104894354362972
 30
0.0
 10
88.41653915431985
 20
-3.104894354362972
 30
0.0
 10
84.49532888620786
 20
-3.104894354362972
 30
0.0
 10
81.31688169471241
 20
-6.283341545858425
 30
0.0
 10
81.31688169471241
 20
-10.20455181397042
 30
0.0
 10
81.31688169471241
 20
-14.12558982719452
 30
0.0
 10
84.49532888620786
 20
-17.30455378335366
 30
0.0
 10
88.41653915431985
 20
-17.30455378335366
 30
0.0
 10
92.33809393220764
 20
-17.30455378335366
 30
0.0
 10
95.5172301432547
 20
-14.12558982719452
 30
0.0
 10
95.5172301432547
 20
-10.20455181397042
 30
0.0
  0
SPLINE
  5
258
330
1F
100
AcDbEntity
  8
STANDARDEBENE
 62
     7
100
AcDbSpline
210
0.0
220
0.0
230
1.0
 70
    11
 71
     3
 72
    17
 73
    13
 74
     0
 42
0.0000000001
 43
0.0000000001
 40
0.0
 40
0.0
 40
0.0
 40
0.0
 40
1.0
 40
1.0
 40
1.0
 40
2.0
 40
2.0
 40
2.0
 40
3.0
 40
3.0
 40
3.0
 40
4.0
 40
4.0
 40
4.0
 40
4.0
 10
95.91651697340245
 20
-10.20455181397042
 30
0.0
 10
95.91651697340245
 20
-6.062510779573081
 30
0.0
 10
92.55926920826879
 20
-2.704401739999926
 30
0.0
 10
88.41653915431985
 20
-2.704401739999926
 30
0.0
 10
84.27484262969831
 20
-2.704401739999926
 30
0.0
 10
80.91690584501306
 20
-6.062510779573081
 30
0.0
 10
80.91690584501306
 20
-10.20455181397042
 30
0.0
 10
80.91690584501306
 20
-14.34642059347986
 30
0.0
 10
84.27484262969831
 20
-17.70452963305301
 30
0.0
 10
88.41653915431985
 20
-17.70452963305301
 30
0.0
 10
92.55926920826879
 20
-17.70452963305301
 30
0.0
 10
95.91651697340245
 20
-14.34642059347986
 30
0.0
 10
95.91651697340245
 20
-10.20455181397042
 30
0.0
  0
SPLINE
  5
259
330
1F
100
AcDbEntity
  8
STANDARDEBENE
 62
     7
100
AcDbSpline
210
0.0
220
0.0
230
1.0
 70
    11
 71
     3
 72
    17
 73
    13
 74
     0
 42
0.0000000001
 43
0.0000000001
 40
0.0
 40
0.0
 40
0.0
 40
0.0
 40
1.0
 40
1.0
 40
1.0
 40
2.0
 40
2.0
 40
2.0
 40
3.0
 40
3.0
 40
3.0
 40
4.0
 40
4.0
 40
4.0
 40
4.0
 10
98.21715325616927
 20
-10.20455181397042
 30
0.0
 10
98.21715325616927
 20
-4.792303236212606
 30
0.0
 10
93.82878773207767
 20
-0.4046267316726003
 30
0.0
 10
88.41653915431985
 20
-0.4046267316726003
 30
0.0
 10
83.00463508633784
 20
-0.4046267316726003
 30
0.0
 10
78.61695858179783
 20
-4.792303236212606
 30
0.0
 10
78.61695858179783
 20
-10.20455181397042
 30
0.0
 10
78.61695858179783
 20
-15.61680039172823
 30
0.0
 10
83.00463508633784
 20
-20.00430464138034
 30
0.0
 10
88.41653915431985
 20
-20.00430464138034
 30
0.0
 10
93.82878773207767
 20
-20.00430464138034
 30
0.0
 10
98.21715325616927
 20
-15.61680039172823
 30
0.0
 10
98.21715325616927
 20
-10.20455181397042
 30
0.0
  0
POLYLINE
  5
25B
330
1F
100
AcDbEntity
  8
BEMA_UNG
 62
     7
100
AcDb2dPolyline
 66
     1
 10
0.0
 20
0.0
 30
0.0
  0
VERTEX
  5
25C
330
25B
100
AcDbEntity
  8
BEMA_UNG
 62
     7
100
AcDbVertex
100
AcDb2dVertex
 10
0.0783759739936284
 20
-3.104894354362972
 30
0.0
  0
VERTEX
  5
25D
330
25B
100
AcDbEntity
  8
BEMA_UNG
 62
     7
100
AcDbVertex
100
AcDb2dVertex
 10
0.0783759739936284
 20
12.0140894113398
 30
0.0
  0
SEQEND
  5
25E
330
25B
100
AcDbEntity
  8
BEMA_UNG
  0
POLYLINE
  5
25F
330
1F
100
AcDbEntity
  8
BEMA_UNG
 62
     7
100
AcDb2dPolyline
 66
     1
 10
0.0
 20
0.0
 30
0.0
  0
VERTEX
  5
260
330
25F
100
AcDbEntity
  8
BEMA_UNG
 62
     7
100
AcDbVertex
100
AcDb2dVertex
 10
33.57816206263729
 20
-3.596509804424105
 30
0.0
  0
VERTEX
  5
261
330
25F
100
AcDbEntity
  8
BEMA_UNG
 62
     7
100
AcDbVertex
100
AcDb2dVertex
 10
33.57816206263729
 20
12.0140894113398
 30
0.0
  0
SEQEND
  5
262
330
25F
100
AcDbEntity
  8
BEMA_UNG
  0
POLYLINE
  5
263
330
1F
100
AcDbEntity
  8
BEMA_UNG
 62
     7
100
AcDb2dPolyline
 66
     1
 10
0.0
 20
0.0
 30
0.0
  0
VERTEX
  5
264
330
263
100
AcDbEntity
  8
BEMA_UNG
 62
     7
100
AcDbVertex
100
AcDb2dVertex
 10
0.0783759739936284
 20
10.01421016284304
 30
0.0
  0
VERTEX
  5
265
330
263
100
AcDbEntity
  8
BEMA_UNG
 62
     7
100
AcDbVertex
100
AcDb2dVertex
 10
33.57816206263729
 20
10.01421016284304
 30
0.0
  0
SEQEND
  5
266
330
263
100
AcDbEntity
  8
BEMA_UNG
  0
POLYLINE
  5
267
330
1F
100
AcDbEntity
  8
BEMA_UNG
 62
     7
100
AcDb2dPolyline
 66
     1
 10
0.0
 20
0.0
 30
0.0
  0
VERTEX
  5
268
330
267
100
AcDbEntity
  8
BEMA_UNG
 62
     7
100
AcDbVertex
100
AcDb2dVertex
 10
0.0783759739936284
 20
10.01421016284304
 30
0.0
  0
VERTEX
  5
269
330
267
100
AcDbEntity
  8
BEMA_UNG
 62
     7
100
AcDbVertex
100
AcDb2dVertex
 10
3.578595296082704
 20
9.553256082827762
 30
0.0
  0
VERTEX
  5
26A
330
267
100
AcDbEntity
  8
BEMA_UNG
 62
     7
100
AcDbVertex
100
AcDb2dVertex
 10
3.578595296082704
 20
10.47464747819462
 30
0.0
  0
VERTEX
  5
26B
330
267
100
AcDbEntity
  8
BEMA_UNG
 62
     7
100
AcDbVertex
100
AcDb2dVertex
 10
0.0783759739936284
 20
10.01421016284304
 30
0.0
  0
SEQEND
  5
26C
330
267
100
AcDbEntity
  8
BEMA_UNG
  0
POLYLINE
  5
26D
330
1F
100
AcDbEntity
  8
BEMA_UNG
 62
     7
100
AcDb2dPolyline
 66
     1
 10
0.0
 20
0.0
 30
0.0
  0
VERTEX
  5
26E
330
26D
100
AcDbEntity
  8
BEMA_UNG
 62
     7
100
AcDbVertex
100
AcDb2dVertex
 10
3.578595296082704
 20
9.556356670809928
 30
0.0
  0
VERTEX
  5
26F
330
26D
100
AcDbEntity
  8
BEMA_UNG
 62
     7
100
AcDbVertex
100
AcDb2dVertex
 10
3.551379023794806
 20
9.556356670809928
 30
0.0
  0
SEQEND
  5
270
330
26D
100
AcDbEntity
  8
BEMA_UNG
  0
POLYLINE
  5
271
330
1F
100
AcDbEntity
  8
BEMA_UNG
 62
     7
100
AcDb2dPolyline
 66
     1
 10
0.0
 20
0.0
 30
0.0
  0
VERTEX
  5
272
330
271
100
AcDbEntity
  8
BEMA_UNG
 62
     7
100
AcDbVertex
100
AcDb2dVertex
 10
3.578595296082704
 20
9.556356670809928
 30
0.0
  0
VERTEX
  5
273
330
271
100
AcDbEntity
  8
BEMA_UNG
 62
     7
100
AcDbVertex
100
AcDb2dVertex
 10
3.551379023794806
 20
9.556356670809928
 30
0.0
  0
SEQEND
  5
274
330
271
100
AcDbEntity
  8
BEMA_UNG
  0
POLYLINE
  5
275
330
1F
100
AcDbEntity
  8
BEMA_UNG
 62
     7
100
AcDb2dPolyline
 66
     1
 10
0.0
 20
0.0
 30
0.0
  0
VERTEX
  5
276
330
275
100
AcDbEntity
  8
BEMA_UNG
 62
     7
100
AcDbVertex
100
AcDb2dVertex
 10
3.578595296082704
 20
9.607171862739863
 30
0.0
  0
VERTEX
  5
277
330
275
100
AcDbEntity
  8
BEMA_UNG
 62
     7
100
AcDbVertex
100
AcDb2dVertex
 10
3.165183565127301
 20
9.607171862739863
 30
0.0
  0
SEQEND
  5
278
330
275
100
AcDbEntity
  8
BEMA_UNG
  0
POLYLINE
  5
279
330
1F
100
AcDbEntity
  8
BEMA_UNG
 62
     7
100
AcDb2dPolyline
 66
     1
 10
0.0
 20
0.0
 30
0.0
  0
VERTEX
  5
27A
330
279
100
AcDbEntity
  8
BEMA_UNG
 62
     7
100
AcDbVertex
100
AcDb2dVertex
 10
3.578595296082704
 20
9.658331564445593
 30
0.0
  0
VERTEX
  5
27B
330
279
100
AcDbEntity
  8
BEMA_UNG
 62
     7
100
AcDbVertex
100
AcDb2dVertex
 10
2.77950487112349
 20
9.658331564445593
 30
0.0
  0
SEQEND
  5
27C
330
279
100
AcDbEntity
  8
BEMA_UNG
  0
POLYLINE
  5
27D
330
1F
100
AcDbEntity
  8
BEMA_UNG
 62
     7
100
AcDb2dPolyline
 66
     1
 10
0.0
 20
0.0
 30
0.0
  0
VERTEX
  5
27E
330
27D
100
AcDbEntity
  8
BEMA_UNG
 62
     7
100
AcDbVertex
100
AcDb2dVertex
 10
3.578595296082704
 20
9.709146756375528
 30
0.0
  0
VERTEX
  5
27F
330
27D
100
AcDbEntity
  8
BEMA_UNG
 62
     7
100
AcDbVertex
100
AcDb2dVertex
 10
2.393309412455985
 20
9.709146756375528
 30
0.0
  0
SEQEND
  5
280
330
27D
100
AcDbEntity
  8
BEMA_UNG
  0
POLYLINE
  5
281
330
1F
100
AcDbEntity
  8
BEMA_UNG
 62
     7
100
AcDb2dPolyline
 66
     1
 10
0.0
 20
0.0
 30
0.0
  0
VERTEX
  5
282
330
281
100
AcDbEntity
  8
BEMA_UNG
 62
     7
100
AcDbVertex
100
AcDb2dVertex
 10
3.578595296082704
 20
9.759961948305463
 30
0.0
  0
VERTEX
  5
283
330
281
100
AcDbEntity
  8
BEMA_UNG
 62
     7
100
AcDbVertex
100
AcDb2dVertex
 10
2.00797522822797
 20
9.759961948305463
 30
0.0
  0
SEQEND
  5
284
330
281
100
AcDbEntity
  8
BEMA_UNG
  0
POLYLINE
  5
285
330
1F
100
AcDbEntity
  8
BEMA_UNG
 62
     7
100
AcDb2dPolyline
 66
     1
 10
0.0
 20
0.0
 30
0.0
  0
VERTEX
  5
286
330
285
100
AcDbEntity
  8
BEMA_UNG
 62
     7
100
AcDbVertex
100
AcDb2dVertex
 10
3.578595296082704
 20
9.8106048853475
 30
0.0
  0
VERTEX
  5
287
330
285
100
AcDbEntity
  8
BEMA_UNG
 62
     7
100
AcDbVertex
100
AcDb2dVertex
 10
1.621779769560465
 20
9.8106048853475
 30
0.0
  0
SEQEND
  5
288
330
285
100
AcDbEntity
  8
BEMA_UNG
  0
POLYLINE
  5
289
330
1F
100
AcDbEntity
  8
BEMA_UNG
 62
     7
100
AcDb2dPolyline
 66
     1
 10
0.0
 20
0.0
 30
0.0
  0
VERTEX
  5
28A
330
289
100
AcDbEntity
  8
BEMA_UNG
 62
     7
100
AcDbVertex
100
AcDb2dVertex
 10
3.578595296082704
 20
9.861592332165333
 30
0.0
  0
VERTEX
  5
28B
330
289
100
AcDbEntity
  8
BEMA_UNG
 62
     7
100
AcDbVertex
100
AcDb2dVertex
 10
1.236101075556654
 20
9.861592332165333
 30
0.0
  0
SEQEND
  5
28C
330
289
100
AcDbEntity
  8
BEMA_UNG
  0
POLYLINE
  5
28D
330
1F
100
AcDbEntity
  8
BEMA_UNG
 62
     7
100
AcDb2dPolyline
 66
     1
 10
0.0
 20
0.0
 30
0.0
  0
VERTEX
  5
28E
330
28D
100
AcDbEntity
  8
BEMA_UNG
 62
     7
100
AcDbVertex
100
AcDb2dVertex
 10
3.578595296082704
 20
9.912579778983167
 30
0.0
  0
VERTEX
  5
28F
330
28D
100
AcDbEntity
  8
BEMA_UNG
 62
     7
100
AcDbVertex
100
AcDb2dVertex
 10
0.8499056168891486
 20
9.912579778983167
 30
0.0
  0
SEQEND
  5
290
330
28D
100
AcDbEntity
  8
BEMA_UNG
  0
POLYLINE
  5
291
330
1F
100
AcDbEntity
  8
BEMA_UNG
 62
     7
100
AcDb2dPolyline
 66
     1
 10
0.0
 20
0.0
 30
0.0
  0
VERTEX
  5
292
330
291
100
AcDbEntity
  8
BEMA_UNG
 62
     7
100
AcDbVertex
100
AcDb2dVertex
 10
3.578595296082704
 20
9.963050461137305
 30
0.0
  0
VERTEX
  5
293
330
291
100
AcDbEntity
  8
BEMA_UNG
 62
     7
100
AcDbVertex
100
AcDb2dVertex
 10
0.4645714326611337
 20
9.963050461137305
 30
0.0
  0
SEQEND
  5
294
330
291
100
AcDbEntity
  8
BEMA_UNG
  0
POLYLINE
  5
295
330
1F
100
AcDbEntity
  8
BEMA_UNG
 62
     7
100
AcDb2dPolyline
 66
     1
 10
0.0
 20
0.0
 30
0.0
  0
VERTEX
  5
296
330
295
100
AcDbEntity
  8
BEMA_UNG
 62
     7
100
AcDbVertex
100
AcDb2dVertex
 10
3.578595296082704
 20
10.01421016284304
 30
0.0
  0
VERTEX
  5
297
330
295
100
AcDbEntity
  8
BEMA_UNG
 62
     7
100
AcDbVertex
100
AcDb2dVertex
 10
0.0783759739936284
 20
10.01421016284304
 30
0.0
  0
SEQEND
  5
298
330
295
100
AcDbEntity
  8
BEMA_UNG
  0
POLYLINE
  5
299
330
1F
100
AcDbEntity
  8
BEMA_UNG
 62
     7
100
AcDb2dPolyline
 66
     1
 10
0.0
 20
0.0
 30
0.0
  0
VERTEX
  5
29A
330
299
100
AcDbEntity
  8
BEMA_UNG
 62
     7
100
AcDbVertex
100
AcDb2dVertex
 10
3.578595296082704
 20
10.47068561577296
 30
0.0
  0
VERTEX
  5
29B
330
299
100
AcDbEntity
  8
BEMA_UNG
 62
     7
100
AcDbVertex
100
AcDb2dVertex
 10
3.551379023794806
 20
10.47068561577296
 30
0.0
  0
SEQEND
  5
29C
330
299
100
AcDbEntity
  8
BEMA_UNG
  0
POLYLINE
  5
29D
330
1F
100
AcDbEntity
  8
BEMA_UNG
 62
     7
100
AcDb2dPolyline
 66
     1
 10
0.0
 20
0.0
 30
0.0
  0
VERTEX
  5
29E
330
29D
100
AcDbEntity
  8
BEMA_UNG
 62
     7
100
AcDbVertex
100
AcDb2dVertex
 10
3.578595296082704
 20
10.47068561577296
 30
0.0
  0
VERTEX
  5
29F
330
29D
100
AcDbEntity
  8
BEMA_UNG
 62
     7
100
AcDbVertex
100
AcDb2dVertex
 10
3.551379023794806
 20
10.47068561577296
 30
0.0
  0
SEQEND
  5
2A0
330
29D
100
AcDbEntity
  8
BEMA_UNG
  0
POLYLINE
  5
2A1
330
1F
100
AcDbEntity
  8
BEMA_UNG
 62
     7
100
AcDb2dPolyline
 66
     1
 10
0.0
 20
0.0
 30
0.0
  0
VERTEX
  5
2A2
330
2A1
100
AcDbEntity
  8
BEMA_UNG
 62
     7
100
AcDbVertex
100
AcDb2dVertex
 10
3.578595296082704
 20
10.42038718850672
 30
0.0
  0
VERTEX
  5
2A3
330
2A1
100
AcDbEntity
  8
BEMA_UNG
 62
     7
100
AcDbVertex
100
AcDb2dVertex
 10
3.165183565127301
 20
10.42038718850672
 30
0.0
  0
SEQEND
  5
2A4
330
2A1
100
AcDbEntity
  8
BEMA_UNG
  0
POLYLINE
  5
2A5
330
1F
100
AcDbEntity
  8
BEMA_UNG
 62
     7
100
AcDb2dPolyline
 66
     1
 10
0.0
 20
0.0
 30
0.0
  0
VERTEX
  5
2A6
330
2A5
100
AcDbEntity
  8
BEMA_UNG
 62
     7
100
AcDbVertex
100
AcDb2dVertex
 10
3.578595296082704
 20
10.36939974168889
 30
0.0
  0
VERTEX
  5
2A7
330
2A5
100
AcDbEntity
  8
BEMA_UNG
 62
     7
100
AcDbVertex
100
AcDb2dVertex
 10
2.77950487112349
 20
10.36939974168889
 30
0.0
  0
SEQEND
  5
2A8
330
2A5
100
AcDbEntity
  8
BEMA_UNG
  0
POLYLINE
  5
2A9
330
1F
100
AcDbEntity
  8
BEMA_UNG
 62
     7
100
AcDb2dPolyline
 66
     1
 10
0.0
 20
0.0
 30
0.0
  0
VERTEX
  5
2AA
330
2A9
100
AcDbEntity
  8
BEMA_UNG
 62
     7
100
AcDbVertex
100
AcDb2dVertex
 10
3.578595296082704
 20
10.31841229487105
 30
0.0
  0
VERTEX
  5
2AB
330
2A9
100
AcDbEntity
  8
BEMA_UNG
 62
     7
100
AcDbVertex
100
AcDb2dVertex
 10
2.393309412455985
 20
10.31841229487105
 30
0.0
  0
SEQEND
  5
2AC
330
2A9
100
AcDbEntity
  8
BEMA_UNG
  0
POLYLINE
  5
2AD
330
1F
100
AcDbEntity
  8
BEMA_UNG
 62
     7
100
AcDb2dPolyline
 66
     1
 10
0.0
 20
0.0
 30
0.0
  0
VERTEX
  5
2AE
330
2AD
100
AcDbEntity
  8
BEMA_UNG
 62
     7
100
AcDbVertex
100
AcDb2dVertex
 10
3.578595296082704
 20
10.26759710294112
 30
0.0
  0
VERTEX
  5
2AF
330
2AD
100
AcDbEntity
  8
BEMA_UNG
 62
     7
100
AcDbVertex
100
AcDb2dVertex
 10
2.00797522822797
 20
10.26759710294112
 30
0.0
  0
SEQEND
  5
2B0
330
2AD
100
AcDbEntity
  8
BEMA_UNG
  0
POLYLINE
  5
2B1
330
1F
100
AcDbEntity
  8
BEMA_UNG
 62
     7
100
AcDb2dPolyline
 66
     1
 10
0.0
 20
0.0
 30
0.0
  0
VERTEX
  5
2B2
330
2B1
100
AcDbEntity
  8
BEMA_UNG
 62
     7
100
AcDbVertex
100
AcDb2dVertex
 10
3.578595296082704
 20
10.21678191101118
 30
0.0
  0
VERTEX
  5
2B3
330
2B1
100
AcDbEntity
  8
BEMA_UNG
 62
     7
100
AcDbVertex
100
AcDb2dVertex
 10
1.621779769560465
 20
10.21678191101118
 30
0.0
  0
SEQEND
  5
2B4
330
2B1
100
AcDbEntity
  8
BEMA_UNG
  0
POLYLINE
  5
2B5
330
1F
100
AcDbEntity
  8
BEMA_UNG
 62
     7
100
AcDb2dPolyline
 66
     1
 10
0.0
 20
0.0
 30
0.0
  0
VERTEX
  5
2B6
330
2B5
100
AcDbEntity
  8
BEMA_UNG
 62
     7
100
AcDbVertex
100
AcDb2dVertex
 10
3.578595296082704
 20
10.16596671908125
 30
0.0
  0
VERTEX
  5
2B7
330
2B5
100
AcDbEntity
  8
BEMA_UNG
 62
     7
100
AcDbVertex
100
AcDb2dVertex
 10
1.236101075556654
 20
10.16596671908125
 30
0.0
  0
SEQEND
  5
2B8
330
2B5
100
AcDbEntity
  8
BEMA_UNG
  0
POLYLINE
  5
2B9
330
1F
100
AcDbEntity
  8
BEMA_UNG
 62
     7
100
AcDb2dPolyline
 66
     1
 10
0.0
 20
0.0
 30
0.0
  0
VERTEX
  5
2BA
330
2B9
100
AcDbEntity
  8
BEMA_UNG
 62
     7
100
AcDbVertex
100
AcDb2dVertex
 10
3.578595296082704
 20
10.11584054670291
 30
0.0
  0
VERTEX
  5
2BB
330
2B9
100
AcDbEntity
  8
BEMA_UNG
 62
     7
100
AcDbVertex
100
AcDb2dVertex
 10
0.8499056168891486
 20
10.11584054670291
 30
0.0
  0
SEQEND
  5
2BC
330
2B9
100
AcDbEntity
  8
BEMA_UNG
  0
POLYLINE
  5
2BD
330
1F
100
AcDbEntity
  8
BEMA_UNG
 62
     7
100
AcDb2dPolyline
 66
     1
 10
0.0
 20
0.0
 30
0.0
  0
VERTEX
  5
2BE
330
2BD
100
AcDbEntity
  8
BEMA_UNG
 62
     7
100
AcDbVertex
100
AcDb2dVertex
 10
3.578595296082704
 20
10.06502535477297
 30
0.0
  0
VERTEX
  5
2BF
330
2BD
100
AcDbEntity
  8
BEMA_UNG
 62
     7
100
AcDbVertex
100
AcDb2dVertex
 10
0.4645714326611337
 20
10.06502535477297
 30
0.0
  0
SEQEND
  5
2C0
330
2BD
100
AcDbEntity
  8
BEMA_UNG
  0
POLYLINE
  5
2C1
330
1F
100
AcDbEntity
  8
BEMA_UNG
 62
     7
100
AcDb2dPolyline
 66
     1
 10
0.0
 20
0.0
 30
0.0
  0
VERTEX
  5
2C2
330
2C1
100
AcDbEntity
  8
BEMA_UNG
 62
     7
100
AcDbVertex
100
AcDb2dVertex
 10
3.578595296082704
 20
10.01421016284304
 30
0.0
  0
VERTEX
  5
2C3
330
2C1
100
AcDbEntity
  8
BEMA_UNG
 62
     7
100
AcDbVertex
100
AcDb2dVertex
 10
0.0783759739936284
 20
10.01421016284304
 30
0.0
  0
SEQEND
  5
2C4
330
2C1
100
AcDbEntity
  8
BEMA_UNG
  0
POLYLINE
  5
2C5
330
1F
100
AcDbEntity
  8
BEMA_UNG
 62
     7
100
AcDb2dPolyline
 66
     1
 10
0.0
 20
0.0
 30
0.0
  0
VERTEX
  5
2C6
330
2C5
100
AcDbEntity
  8
BEMA_UNG
 62
     7
100
AcDbVertex
100
AcDb2dVertex
 10
33.57816206263729
 20
10.01421016284304
 30
0.0
  0
VERTEX
  5
2C7
330
2C5
100
AcDbEntity
  8
BEMA_UNG
 62
     7
100
AcDbVertex
100
AcDb2dVertex
 10
30.07828725032401
 20
10.47464747819462
 30
0.0
  0
VERTEX
  5
2C8
330
2C5
100
AcDbEntity
  8
BEMA_UNG
 62
     7
100
AcDbVertex
100
AcDb2dVertex
 10
30.07828725032401
 20
9.553256082827762
 30
0.0
  0
VERTEX
  5
2C9
330
2C5
100
AcDbEntity
  8
BEMA_UNG
 62
     7
100
AcDbVertex
100
AcDb2dVertex
 10
33.57816206263729
 20
10.01421016284304
 30
0.0
  0
SEQEND
  5
2CA
330
2C5
100
AcDbEntity
  8
BEMA_UNG
  0
POLYLINE
  5
2CB
330
1F
100
AcDbEntity
  8
BEMA_UNG
 62
     7
100
AcDb2dPolyline
 66
     1
 10
0.0
 20
0.0
 30
0.0
  0
VERTEX
  5
2CC
330
2CB
100
AcDbEntity
  8
BEMA_UNG
 62
     7
100
AcDbVertex
100
AcDb2dVertex
 10
30.07828725032401
 20
10.47068561577296
 30
0.0
  0
VERTEX
  5
2CD
330
2CB
100
AcDbEntity
  8
BEMA_UNG
 62
     7
100
AcDbVertex
100
AcDb2dVertex
 10
30.1058480323877
 20
10.47068561577296
 30
0.0
  0
SEQEND
  5
2CE
330
2CB
100
AcDbEntity
  8
BEMA_UNG
  0
POLYLINE
  5
2CF
330
1F
100
AcDbEntity
  8
BEMA_UNG
 62
     7
100
AcDb2dPolyline
 66
     1
 10
0.0
 20
0.0
 30
0.0
  0
VERTEX
  5
2D0
330
2CF
100
AcDbEntity
  8
BEMA_UNG
 62
     7
100
AcDbVertex
100
AcDb2dVertex
 10
30.07828725032401
 20
10.47068561577296
 30
0.0
  0
VERTEX
  5
2D1
330
2CF
100
AcDbEntity
  8
BEMA_UNG
 62
     7
100
AcDbVertex
100
AcDb2dVertex
 10
30.1058480323877
 20
10.47068561577296
 30
0.0
  0
SEQEND
  5
2D2
330
2CF
100
AcDbEntity
  8
BEMA_UNG
  0
POLYLINE
  5
2D3
330
1F
100
AcDbEntity
  8
BEMA_UNG
 62
     7
100
AcDb2dPolyline
 66
     1
 10
0.0
 20
0.0
 30
0.0
  0
VERTEX
  5
2D4
330
2D3
100
AcDbEntity
  8
BEMA_UNG
 62
     7
100
AcDbVertex
100
AcDb2dVertex
 10
30.07828725032401
 20
10.42038718850672
 30
0.0
  0
VERTEX
  5
2D5
330
2D3
100
AcDbEntity
  8
BEMA_UNG
 62
     7
100
AcDbVertex
100
AcDb2dVertex
 10
30.49135447150362
 20
10.42038718850672
 30
0.0
  0
SEQEND
  5
2D6
330
2D3
100
AcDbEntity
  8
BEMA_UNG
  0
POLYLINE
  5
2D7
330
1F
100
AcDbEntity
  8
BEMA_UNG
 62
     7
100
AcDb2dPolyline
 66
     1
 10
0.0
 20
0.0
 30
0.0
  0
VERTEX
  5
2D8
330
2D7
100
AcDbEntity
  8
BEMA_UNG
 62
     7
100
AcDbVertex
100
AcDb2dVertex
 10
30.07828725032401
 20
10.36939974168889
 30
0.0
  0
VERTEX
  5
2D9
330
2D7
100
AcDbEntity
  8
BEMA_UNG
 62
     7
100
AcDbVertex
100
AcDb2dVertex
 10
30.87754993017112
 20
10.36939974168889
 30
0.0
  0
SEQEND
  5
2DA
330
2D7
100
AcDbEntity
  8
BEMA_UNG
  0
POLYLINE
  5
2DB
330
1F
100
AcDbEntity
  8
BEMA_UNG
 62
     7
100
AcDb2dPolyline
 66
     1
 10
0.0
 20
0.0
 30
0.0
  0
VERTEX
  5
2DC
330
2DB
100
AcDbEntity
  8
BEMA_UNG
 62
     7
100
AcDbVertex
100
AcDb2dVertex
 10
30.07828725032401
 20
10.31841229487105
 30
0.0
  0
VERTEX
  5
2DD
330
2DB
100
AcDbEntity
  8
BEMA_UNG
 62
     7
100
AcDbVertex
100
AcDb2dVertex
 10
31.26322862417494
 20
10.31841229487105
 30
0.0
  0
SEQEND
  5
2DE
330
2DB
100
AcDbEntity
  8
BEMA_UNG
  0
POLYLINE
  5
2DF
330
1F
100
AcDbEntity
  8
BEMA_UNG
 62
     7
100
AcDb2dPolyline
 66
     1
 10
0.0
 20
0.0
 30
0.0
  0
VERTEX
  5
2E0
330
2DF
100
AcDbEntity
  8
BEMA_UNG
 62
     7
100
AcDbVertex
100
AcDb2dVertex
 10
30.07828725032401
 20
10.26759710294112
 30
0.0
  0
VERTEX
  5
2E1
330
2DF
100
AcDbEntity
  8
BEMA_UNG
 62
     7
100
AcDbVertex
100
AcDb2dVertex
 10
31.64925182795454
 20
10.26759710294112
 30
0.0
  0
SEQEND
  5
2E2
330
2DF
100
AcDbEntity
  8
BEMA_UNG
  0
POLYLINE
  5
2E3
330
1F
100
AcDbEntity
  8
BEMA_UNG
 62
     7
100
AcDb2dPolyline
 66
     1
 10
0.0
 20
0.0
 30
0.0
  0
VERTEX
  5
2E4
330
2E3
100
AcDbEntity
  8
BEMA_UNG
 62
     7
100
AcDbVertex
100
AcDb2dVertex
 10
30.07828725032401
 20
10.21678191101118
 30
0.0
  0
VERTEX
  5
2E5
330
2E3
100
AcDbEntity
  8
BEMA_UNG
 62
     7
100
AcDbVertex
100
AcDb2dVertex
 10
32.03475826707045
 20
10.21678191101118
 30
0.0
  0
SEQEND
  5
2E6
330
2E3
100
AcDbEntity
  8
BEMA_UNG
  0
POLYLINE
  5
2E7
330
1F
100
AcDbEntity
  8
BEMA_UNG
 62
     7
100
AcDb2dPolyline
 66
     1
 10
0.0
 20
0.0
 30
0.0
  0
VERTEX
  5
2E8
330
2E7
100
AcDbEntity
  8
BEMA_UNG
 62
     7
100
AcDbVertex
100
AcDb2dVertex
 10
30.07828725032401
 20
10.16596671908125
 30
0.0
  0
VERTEX
  5
2E9
330
2E7
100
AcDbEntity
  8
BEMA_UNG
 62
     7
100
AcDbVertex
100
AcDb2dVertex
 10
32.42095372573796
 20
10.16596671908125
 30
0.0
  0
SEQEND
  5
2EA
330
2E7
100
AcDbEntity
  8
BEMA_UNG
  0
POLYLINE
  5
2EB
330
1F
100
AcDbEntity
  8
BEMA_UNG
 62
     7
100
AcDb2dPolyline
 66
     1
 10
0.0
 20
0.0
 30
0.0
  0
VERTEX
  5
2EC
330
2EB
100
AcDbEntity
  8
BEMA_UNG
 62
     7
100
AcDbVertex
100
AcDb2dVertex
 10
30.07828725032401
 20
10.11584054670291
 30
0.0
  0
VERTEX
  5
2ED
330
2EB
100
AcDbEntity
  8
BEMA_UNG
 62
     7
100
AcDbVertex
100
AcDb2dVertex
 10
32.80663241974177
 20
10.11584054670291
 30
0.0
  0
SEQEND
  5
2EE
330
2EB
100
AcDbEntity
  8
BEMA_UNG
  0
POLYLINE
  5
2EF
330
1F
100
AcDbEntity
  8
BEMA_UNG
 62
     7
100
AcDb2dPolyline
 66
     1
 10
0.0
 20
0.0
 30
0.0
  0
VERTEX
  5
2F0
330
2EF
100
AcDbEntity
  8
BEMA_UNG
 62
     7
100
AcDbVertex
100
AcDb2dVertex
 10
30.07828725032401
 20
10.06502535477297
 30
0.0
  0
VERTEX
  5
2F1
330
2EF
100
AcDbEntity
  8
BEMA_UNG
 62
     7
100
AcDbVertex
100
AcDb2dVertex
 10
33.19300013329718
 20
10.06502535477297
 30
0.0
  0
SEQEND
  5
2F2
330
2EF
100
AcDbEntity
  8
BEMA_UNG
  0
POLYLINE
  5
2F3
330
1F
100
AcDbEntity
  8
BEMA_UNG
 62
     7
100
AcDb2dPolyline
 66
     1
 10
0.0
 20
0.0
 30
0.0
  0
VERTEX
  5
2F4
330
2F3
100
AcDbEntity
  8
BEMA_UNG
 62
     7
100
AcDbVertex
100
AcDb2dVertex
 10
30.07828725032401
 20
10.01421016284304
 30
0.0
  0
VERTEX
  5
2F5
330
2F3
100
AcDbEntity
  8
BEMA_UNG
 62
     7
100
AcDbVertex
100
AcDb2dVertex
 10
33.57816206263729
 20
10.01421016284304
 30
0.0
  0
SEQEND
  5
2F6
330
2F3
100
AcDbEntity
  8
BEMA_UNG
  0
POLYLINE
  5
2F7
330
1F
100
AcDbEntity
  8
BEMA_UNG
 62
     7
100
AcDb2dPolyline
 66
     1
 10
0.0
 20
0.0
 30
0.0
  0
VERTEX
  5
2F8
330
2F7
100
AcDbEntity
  8
BEMA_UNG
 62
     7
100
AcDbVertex
100
AcDb2dVertex
 10
30.07828725032401
 20
9.556356670809928
 30
0.0
  0
VERTEX
  5
2F9
330
2F7
100
AcDbEntity
  8
BEMA_UNG
 62
     7
100
AcDbVertex
100
AcDb2dVertex
 10
30.1058480323877
 20
9.556356670809928
 30
0.0
  0
SEQEND
  5
2FA
330
2F7
100
AcDbEntity
  8
BEMA_UNG
  0
POLYLINE
  5
2FB
330
1F
100
AcDbEntity
  8
BEMA_UNG
 62
     7
100
AcDb2dPolyline
 66
     1
 10
0.0
 20
0.0
 30
0.0
  0
VERTEX
  5
2FC
330
2FB
100
AcDbEntity
  8
BEMA_UNG
 62
     7
100
AcDbVertex
100
AcDb2dVertex
 10
30.07828725032401
 20
9.556356670809928
 30
0.0
  0
VERTEX
  5
2FD
330
2FB
100
AcDbEntity
  8
BEMA_UNG
 62
     7
100
AcDbVertex
100
AcDb2dVertex
 10
30.1058480323877
 20
9.556356670809928
 30
0.0
  0
SEQEND
  5
2FE
330
2FB
100
AcDbEntity
  8
BEMA_UNG
  0
POLYLINE
  5
2FF
330
1F
100
AcDbEntity
  8
BEMA_UNG
 62
     7
100
AcDb2dPolyline
 66
     1
 10
0.0
 20
0.0
 30
0.0
  0
VERTEX
  5
300
330
2FF
100
AcDbEntity
  8
BEMA_UNG
 62
     7
100
AcDbVertex
100
AcDb2dVertex
 10
30.07828725032401
 20
9.607171862739863
 30
0.0
  0
VERTEX
  5
301
330
2FF
100
AcDbEntity
  8
BEMA_UNG
 62
     7
100
AcDbVertex
100
AcDb2dVertex
 10
30.49135447150362
 20
9.607171862739863
 30
0.0
  0
SEQEND
  5
302
330
2FF
100
AcDbEntity
  8
BEMA_UNG
  0
POLYLINE
  5
303
330
1F
100
AcDbEntity
  8
BEMA_UNG
 62
     7
100
AcDb2dPolyline
 66
     1
 10
0.0
 20
0.0
 30
0.0
  0
VERTEX
  5
304
330
303
100
AcDbEntity
  8
BEMA_UNG
 62
     7
100
AcDbVertex
100
AcDb2dVertex
 10
30.07828725032401
 20
9.658331564445593
 30
0.0
  0
VERTEX
  5
305
330
303
100
AcDbEntity
  8
BEMA_UNG
 62
     7
100
AcDbVertex
100
AcDb2dVertex
 10
30.87754993017112
 20
9.658331564445593
 30
0.0
  0
SEQEND
  5
306
330
303
100
AcDbEntity
  8
BEMA_UNG
  0
POLYLINE
  5
307
330
1F
100
AcDbEntity
  8
BEMA_UNG
 62
     7
100
AcDb2dPolyline
 66
     1
 10
0.0
 20
0.0
 30
0.0
  0
VERTEX
  5
308
330
307
100
AcDbEntity
  8
BEMA_UNG
 62
     7
100
AcDbVertex
100
AcDb2dVertex
 10
30.07828725032401
 20
9.709146756375528
 30
0.0
  0
VERTEX
  5
309
330
307
100
AcDbEntity
  8
BEMA_UNG
 62
     7
100
AcDbVertex
100
AcDb2dVertex
 10
31.26322862417494
 20
9.709146756375528
 30
0.0
  0
SEQEND
  5
30A
330
307
100
AcDbEntity
  8
BEMA_UNG
  0
POLYLINE
  5
30B
330
1F
100
AcDbEntity
  8
BEMA_UNG
 62
     7
100
AcDb2dPolyline
 66
     1
 10
0.0
 20
0.0
 30
0.0
  0
VERTEX
  5
30C
330
30B
100
AcDbEntity
  8
BEMA_UNG
 62
     7
100
AcDbVertex
100
AcDb2dVertex
 10
30.07828725032401
 20
9.759961948305463
 30
0.0
  0
VERTEX
  5
30D
330
30B
100
AcDbEntity
  8
BEMA_UNG
 62
     7
100
AcDbVertex
100
AcDb2dVertex
 10
31.64925182795454
 20
9.759961948305463
 30
0.0
  0
SEQEND
  5
30E
330
30B
100
AcDbEntity
  8
BEMA_UNG
  0
POLYLINE
  5
30F
330
1F
100
AcDbEntity
  8
BEMA_UNG
 62
     7
100
AcDb2dPolyline
 66
     1
 10
0.0
 20
0.0
 30
0.0
  0
VERTEX
  5
310
330
30F
100
AcDbEntity
  8
BEMA_UNG
 62
     7
100
AcDbVertex
100
AcDb2dVertex
 10
30.07828725032401
 20
9.8106048853475
 30
0.0
  0
VERTEX
  5
311
330
30F
100
AcDbEntity
  8
BEMA_UNG
 62
     7
100
AcDbVertex
100
AcDb2dVertex
 10
32.03475826707045
 20
9.8106048853475
 30
0.0
  0
SEQEND
  5
312
330
30F
100
AcDbEntity
  8
BEMA_UNG
  0
POLYLINE
  5
313
330
1F
100
AcDbEntity
  8
BEMA_UNG
 62
     7
100
AcDb2dPolyline
 66
     1
 10
0.0
 20
0.0
 30
0.0
  0
VERTEX
  5
314
330
313
100
AcDbEntity
  8
BEMA_UNG
 62
     7
100
AcDbVertex
100
AcDb2dVertex
 10
30.07828725032401
 20
9.861592332165333
 30
0.0
  0
VERTEX
  5
315
330
313
100
AcDbEntity
  8
BEMA_UNG
 62
     7
100
AcDbVertex
100
AcDb2dVertex
 10
32.42095372573796
 20
9.861592332165333
 30
0.0
  0
SEQEND
  5
316
330
313
100
AcDbEntity
  8
BEMA_UNG
  0
POLYLINE
  5
317
330
1F
100
AcDbEntity
  8
BEMA_UNG
 62
     7
100
AcDb2dPolyline
 66
     1
 10
0.0
 20
0.0
 30
0.0
  0
VERTEX
  5
318
330
317
100
AcDbEntity
  8
BEMA_UNG
 62
     7
100
AcDbVertex
100
AcDb2dVertex
 10
30.07828725032401
 20
9.912579778983167
 30
0.0
  0
VERTEX
  5
319
330
317
100
AcDbEntity
  8
BEMA_UNG
 62
     7
100
AcDbVertex
100
AcDb2dVertex
 10
32.80663241974177
 20
9.912579778983167
 30
0.0
  0
SEQEND
  5
31A
330
317
100
AcDbEntity
  8
BEMA_UNG
  0
POLYLINE
  5
31B
330
1F
100
AcDbEntity
  8
BEMA_UNG
 62
     7
100
AcDb2dPolyline
 66
     1
 10
0.0
 20
0.0
 30
0.0
  0
VERTEX
  5
31C
330
31B
100
AcDbEntity
  8
BEMA_UNG
 62
     7
100
AcDbVertex
100
AcDb2dVertex
 10
30.07828725032401
 20
9.963050461137305
 30
0.0
  0
VERTEX
  5
31D
330
31B
100
AcDbEntity
  8
BEMA_UNG
 62
     7
100
AcDbVertex
100
AcDb2dVertex
 10
33.19300013329718
 20
9.963050461137305
 30
0.0
  0
SEQEND
  5
31E
330
31B
100
AcDbEntity
  8
BEMA_UNG
  0
POLYLINE
  5
31F
330
1F
100
AcDbEntity
  8
BEMA_UNG
 62
     7
100
AcDb2dPolyline
 66
     1
 10
0.0
 20
0.0
 30
0.0
  0
VERTEX
  5
320
330
31F
100
AcDbEntity
  8
BEMA_UNG
 62
     7
100
AcDbVertex
100
AcDb2dVertex
 10
30.07828725032401
 20
10.01421016284304
 30
0.0
  0
VERTEX
  5
321
330
31F
100
AcDbEntity
  8
BEMA_UNG
 62
     7
100
AcDbVertex
100
AcDb2dVertex
 10
33.57816206263729
 20
10.01421016284304
 30
0.0
  0
SEQEND
  5
322
330
31F
100
AcDbEntity
  8
BEMA_UNG
  0
POLYLINE
  5
323
330
1F
100
AcDbEntity
  8
BEMA_UNG
 62
     7
100
AcDb2dPolyline
 66
     1
 10
0.0
 20
0.0
 30
0.0
  0
VERTEX
  5
324
330
323
100
AcDbEntity
  8
BEMA_UNG
 62
     7
100
AcDbVertex
100
AcDb2dVertex
 10
1.078487853129906
 20
-14.25443648334228
 30
0.0
  0
VERTEX
  5
325
330
323
100
AcDbEntity
  8
BEMA_UNG
 62
     7
100
AcDbVertex
100
AcDb2dVertex
 10
-12.2566242935003
 20
-14.25443648334228
 30
0.0
  0
SEQEND
  5
326
330
323
100
AcDbEntity
  8
BEMA_UNG
  0
POLYLINE
  5
327
330
1F
100
AcDbEntity
  8
BEMA_UNG
 62
     7
100
AcDb2dPolyline
 66
     1
 10
0.0
 20
0.0
 30
0.0
  0
VERTEX
  5
328
330
327
100
AcDbEntity
  8
BEMA_UNG
 62
     7
100
AcDbVertex
100
AcDb2dVertex
 10
1.078487853129906
 20
-6.154150379934862
 30
0.0
  0
VERTEX
  5
329
330
327
100
AcDbEntity
  8
BEMA_UNG
 62
     7
100
AcDbVertex
100
AcDb2dVertex
 10
-12.2566242935003
 20
-6.154150379934862
 30
0.0
  0
SEQEND
  5
32A
330
327
100
AcDbEntity
  8
BEMA_UNG
  0
POLYLINE
  5
32B
330
1F
100
AcDbEntity
  8
BEMA_UNG
 62
     7
100
AcDb2dPolyline
 66
     1
 10
0.0
 20
0.0
 30
0.0
  0
VERTEX
  5
32C
330
32B
100
AcDbEntity
  8
BEMA_UNG
 62
     7
100
AcDbVertex
100
AcDb2dVertex
 10
-10.25674504500354
 20
1.913751804547718
 30
0.0
  0
VERTEX
  5
32D
330
32B
100
AcDbEntity
  8
BEMA_UNG
 62
     7
100
AcDbVertex
100
AcDb2dVertex
 10
-10.25674504500354
 20
-20.97323838580706
 30
0.0
  0
SEQEND
  5
32E
330
32B
100
AcDbEntity
  8
BEMA_UNG
  0
POLYLINE
  5
32F
330
1F
100
AcDbEntity
  8
BEMA_UNG
 62
     7
100
AcDb2dPolyline
 66
     1
 10
0.0
 20
0.0
 30
0.0
  0
VERTEX
  5
330
330
32F
100
AcDbEntity
  8
BEMA_UNG
 62
     7
100
AcDbVertex
100
AcDb2dVertex
 10
-10.25674504500354
 20
-14.25443648334228
 30
0.0
  0
VERTEX
  5
331
330
32F
100
AcDbEntity
  8
BEMA_UNG
 62
     7
100
AcDbVertex
100
AcDb2dVertex
 10
-10.71787137990671
 20
-17.75465580543136
 30
0.0
  0
VERTEX
  5
332
330
32F
100
AcDbEntity
  8
BEMA_UNG
 62
     7
100
AcDbVertex
100
AcDb2dVertex
 10
-9.796479984539857
 20
-17.75465580543136
 30
0.0
  0
VERTEX
  5
333
330
32F
100
AcDbEntity
  8
BEMA_UNG
 62
     7
100
AcDbVertex
100
AcDb2dVertex
 10
-10.25674504500354
 20
-14.25443648334228
 30
0.0
  0
SEQEND
  5
334
330
32F
100
AcDbEntity
  8
BEMA_UNG
  0
POLYLINE
  5
335
330
1F
100
AcDbEntity
  8
BEMA_UNG
 62
     7
100
AcDb2dPolyline
 66
     1
 10
0.0
 20
0.0
 30
0.0
  0
VERTEX
  5
336
330
335
100
AcDbEntity
  8
BEMA_UNG
 62
     7
100
AcDbVertex
100
AcDb2dVertex
 10
-10.71442628214875
 20
-17.75465580543136
 30
0.0
  0
VERTEX
  5
337
330
335
100
AcDbEntity
  8
BEMA_UNG
 62
     7
100
AcDbVertex
100
AcDb2dVertex
 10
-10.71442628214875
 20
-17.72743953314346
 30
0.0
  0
SEQEND
  5
338
330
335
100
AcDbEntity
  8
BEMA_UNG
  0
POLYLINE
  5
339
330
1F
100
AcDbEntity
  8
BEMA_UNG
 62
     7
100
AcDb2dPolyline
 66
     1
 10
0.0
 20
0.0
 30
0.0
  0
VERTEX
  5
33A
330
339
100
AcDbEntity
  8
BEMA_UNG
 62
     7
100
AcDbVertex
100
AcDb2dVertex
 10
-10.71442628214875
 20
-17.75465580543136
 30
0.0
  0
VERTEX
  5
33B
330
339
100
AcDbEntity
  8
BEMA_UNG
 62
     7
100
AcDbVertex
100
AcDb2dVertex
 10
-10.71442628214875
 20
-17.72743953314346
 30
0.0
  0
SEQEND
  5
33C
330
339
100
AcDbEntity
  8
BEMA_UNG
  0
POLYLINE
  5
33D
330
1F
100
AcDbEntity
  8
BEMA_UNG
 62
     7
100
AcDb2dPolyline
 66
     1
 10
0.0
 20
0.0
 30
0.0
  0
VERTEX
  5
33E
330
33D
100
AcDbEntity
  8
BEMA_UNG
 62
     7
100
AcDbVertex
100
AcDb2dVertex
 10
-10.66361109021882
 20
-17.75465580543136
 30
0.0
  0
VERTEX
  5
33F
330
33D
100
AcDbEntity
  8
BEMA_UNG
 62
     7
100
AcDbVertex
100
AcDb2dVertex
 10
-10.66361109021882
 20
-17.34124407447596
 30
0.0
  0
SEQEND
  5
340
330
33D
100
AcDbEntity
  8
BEMA_UNG
  0
POLYLINE
  5
341
330
1F
100
AcDbEntity
  8
BEMA_UNG
 62
     7
100
AcDb2dPolyline
 66
     1
 10
0.0
 20
0.0
 30
0.0
  0
VERTEX
  5
342
330
341
100
AcDbEntity
  8
BEMA_UNG
 62
     7
100
AcDbVertex
100
AcDb2dVertex
 10
-10.61279589828888
 20
-17.75465580543136
 30
0.0
  0
VERTEX
  5
343
330
341
100
AcDbEntity
  8
BEMA_UNG
 62
     7
100
AcDbVertex
100
AcDb2dVertex
 10
-10.61279589828888
 20
-16.95590989024794
 30
0.0
  0
SEQEND
  5
344
330
341
100
AcDbEntity
  8
BEMA_UNG
  0
POLYLINE
  5
345
330
1F
100
AcDbEntity
  8
BEMA_UNG
 62
     7
100
AcDb2dPolyline
 66
     1
 10
0.0
 20
0.0
 30
0.0
  0
VERTEX
  5
346
330
345
100
AcDbEntity
  8
BEMA_UNG
 62
     7
100
AcDbVertex
100
AcDb2dVertex
 10
-10.56163619658315
 20
-17.75465580543136
 30
0.0
  0
VERTEX
  5
347
330
345
100
AcDbEntity
  8
BEMA_UNG
 62
     7
100
AcDbVertex
100
AcDb2dVertex
 10
-10.56163619658315
 20
-16.56971443158044
 30
0.0
  0
SEQEND
  5
348
330
345
100
AcDbEntity
  8
BEMA_UNG
  0
POLYLINE
  5
349
330
1F
100
AcDbEntity
  8
BEMA_UNG
 62
     7
100
AcDb2dPolyline
 66
     1
 10
0.0
 20
0.0
 30
0.0
  0
VERTEX
  5
34A
330
349
100
AcDbEntity
  8
BEMA_UNG
 62
     7
100
AcDbVertex
100
AcDb2dVertex
 10
-10.51082100465321
 20
-17.75465580543136
 30
0.0
  0
VERTEX
  5
34B
330
349
100
AcDbEntity
  8
BEMA_UNG
 62
     7
100
AcDbVertex
100
AcDb2dVertex
 10
-10.51082100465321
 20
-16.18403573757663
 30
0.0
  0
SEQEND
  5
34C
330
349
100
AcDbEntity
  8
BEMA_UNG
  0
POLYLINE
  5
34D
330
1F
100
AcDbEntity
  8
BEMA_UNG
 62
     7
100
AcDb2dPolyline
 66
     1
 10
0.0
 20
0.0
 30
0.0
  0
VERTEX
  5
34E
330
34D
100
AcDbEntity
  8
BEMA_UNG
 62
     7
100
AcDbVertex
100
AcDb2dVertex
 10
-10.46000581272328
 20
-17.75465580543136
 30
0.0
  0
VERTEX
  5
34F
330
34D
100
AcDbEntity
  8
BEMA_UNG
 62
     7
100
AcDbVertex
100
AcDb2dVertex
 10
-10.46000581272328
 20
-15.79784027890912
 30
0.0
  0
SEQEND
  5
350
330
34D
100
AcDbEntity
  8
BEMA_UNG
  0
POLYLINE
  5
351
330
1F
100
AcDbEntity
  8
BEMA_UNG
 62
     7
100
AcDb2dPolyline
 66
     1
 10
0.0
 20
0.0
 30
0.0
  0
VERTEX
  5
352
330
351
100
AcDbEntity
  8
BEMA_UNG
 62
     7
100
AcDbVertex
100
AcDb2dVertex
 10
-10.40919062079334
 20
-17.75465580543136
 30
0.0
  0
VERTEX
  5
353
330
351
100
AcDbEntity
  8
BEMA_UNG
 62
     7
100
AcDbVertex
100
AcDb2dVertex
 10
-10.40919062079334
 20
-15.41181707512951
 30
0.0
  0
SEQEND
  5
354
330
351
100
AcDbEntity
  8
BEMA_UNG
  0
POLYLINE
  5
355
330
1F
100
AcDbEntity
  8
BEMA_UNG
 62
     7
100
AcDb2dPolyline
 66
     1
 10
0.0
 20
0.0
 30
0.0
  0
VERTEX
  5
356
330
355
100
AcDbEntity
  8
BEMA_UNG
 62
     7
100
AcDbVertex
100
AcDb2dVertex
 10
-10.35837542886341
 20
-17.75465580543136
 30
0.0
  0
VERTEX
  5
357
330
355
100
AcDbEntity
  8
BEMA_UNG
 62
     7
100
AcDbVertex
100
AcDb2dVertex
 10
-10.35837542886341
 20
-15.0263106360136
 30
0.0
  0
SEQEND
  5
358
330
355
100
AcDbEntity
  8
BEMA_UNG
  0
POLYLINE
  5
359
330
1F
100
AcDbEntity
  8
BEMA_UNG
 62
     7
100
AcDb2dPolyline
 66
     1
 10
0.0
 20
0.0
 30
0.0
  0
VERTEX
  5
35A
330
359
100
AcDbEntity
  8
BEMA_UNG
 62
     7
100
AcDbVertex
100
AcDb2dVertex
 10
-10.30756023693347
 20
-17.75465580543136
 30
0.0
  0
VERTEX
  5
35B
330
359
100
AcDbEntity
  8
BEMA_UNG
 62
     7
100
AcDbVertex
100
AcDb2dVertex
 10
-10.30756023693347
 20
-14.64063194200979
 30
0.0
  0
SEQEND
  5
35C
330
359
100
AcDbEntity
  8
BEMA_UNG
  0
POLYLINE
  5
35D
330
1F
100
AcDbEntity
  8
BEMA_UNG
 62
     7
100
AcDb2dPolyline
 66
     1
 10
0.0
 20
0.0
 30
0.0
  0
VERTEX
  5
35E
330
35D
100
AcDbEntity
  8
BEMA_UNG
 62
     7
100
AcDbVertex
100
AcDb2dVertex
 10
-10.25674504500354
 20
-17.75465580543136
 30
0.0
  0
VERTEX
  5
35F
330
35D
100
AcDbEntity
  8
BEMA_UNG
 62
     7
100
AcDbVertex
100
AcDb2dVertex
 10
-10.25674504500354
 20
-14.25443648334228
 30
0.0
  0
SEQEND
  5
360
330
35D
100
AcDbEntity
  8
BEMA_UNG
  0
POLYLINE
  5
361
330
1F
100
AcDbEntity
  8
BEMA_UNG
 62
     7
100
AcDb2dPolyline
 66
     1
 10
0.0
 20
0.0
 30
0.0
  0
VERTEX
  5
362
330
361
100
AcDbEntity
  8
BEMA_UNG
 62
     7
100
AcDbVertex
100
AcDb2dVertex
 10
-9.799925082297818
 20
-17.75465580543136
 30
0.0
  0
VERTEX
  5
363
330
361
100
AcDbEntity
  8
BEMA_UNG
 62
     7
100
AcDbVertex
100
AcDb2dVertex
 10
-9.799925082297818
 20
-17.72743953314346
 30
0.0
  0
SEQEND
  5
364
330
361
100
AcDbEntity
  8
BEMA_UNG
  0
POLYLINE
  5
365
330
1F
100
AcDbEntity
  8
BEMA_UNG
 62
     7
100
AcDb2dPolyline
 66
     1
 10
0.0
 20
0.0
 30
0.0
  0
VERTEX
  5
366
330
365
100
AcDbEntity
  8
BEMA_UNG
 62
     7
100
AcDbVertex
100
AcDb2dVertex
 10
-9.799925082297818
 20
-17.75465580543136
 30
0.0
  0
VERTEX
  5
367
330
365
100
AcDbEntity
  8
BEMA_UNG
 62
     7
100
AcDbVertex
100
AcDb2dVertex
 10
-9.799925082297818
 20
-17.72743953314346
 30
0.0
  0
SEQEND
  5
368
330
365
100
AcDbEntity
  8
BEMA_UNG
  0
POLYLINE
  5
369
330
1F
100
AcDbEntity
  8
BEMA_UNG
 62
     7
100
AcDb2dPolyline
 66
     1
 10
0.0
 20
0.0
 30
0.0
  0
VERTEX
  5
36A
330
369
100
AcDbEntity
  8
BEMA_UNG
 62
     7
100
AcDbVertex
100
AcDb2dVertex
 10
-9.850740274227753
 20
-17.75465580543136
 30
0.0
  0
VERTEX
  5
36B
330
369
100
AcDbEntity
  8
BEMA_UNG
 62
     7
100
AcDbVertex
100
AcDb2dVertex
 10
-9.850740274227753
 20
-17.34124407447596
 30
0.0
  0
SEQEND
  5
36C
330
369
100
AcDbEntity
  8
BEMA_UNG
  0
POLYLINE
  5
36D
330
1F
100
AcDbEntity
  8
BEMA_UNG
 62
     7
100
AcDb2dPolyline
 66
     1
 10
0.0
 20
0.0
 30
0.0
  0
VERTEX
  5
36E
330
36D
100
AcDbEntity
  8
BEMA_UNG
 62
     7
100
AcDbVertex
100
AcDb2dVertex
 10
-9.901555466157689
 20
-17.75465580543136
 30
0.0
  0
VERTEX
  5
36F
330
36D
100
AcDbEntity
  8
BEMA_UNG
 62
     7
100
AcDbVertex
100
AcDb2dVertex
 10
-9.901555466157689
 20
-16.95590989024794
 30
0.0
  0
SEQEND
  5
370
330
36D
100
AcDbEntity
  8
BEMA_UNG
  0
POLYLINE
  5
371
330
1F
100
AcDbEntity
  8
BEMA_UNG
 62
     7
100
AcDb2dPolyline
 66
     1
 10
0.0
 20
0.0
 30
0.0
  0
VERTEX
  5
372
330
371
100
AcDbEntity
  8
BEMA_UNG
 62
     7
100
AcDbVertex
100
AcDb2dVertex
 10
-9.952370658087624
 20
-17.75465580543136
 30
0.0
  0
VERTEX
  5
373
330
371
100
AcDbEntity
  8
BEMA_UNG
 62
     7
100
AcDbVertex
100
AcDb2dVertex
 10
-9.952370658087624
 20
-16.56971443158044
 30
0.0
  0
SEQEND
  5
374
330
371
100
AcDbEntity
  8
BEMA_UNG
  0
POLYLINE
  5
375
330
1F
100
AcDbEntity
  8
BEMA_UNG
 62
     7
100
AcDb2dPolyline
 66
     1
 10
0.0
 20
0.0
 30
0.0
  0
VERTEX
  5
376
330
375
100
AcDbEntity
  8
BEMA_UNG
 62
     7
100
AcDbVertex
100
AcDb2dVertex
 10
-10.00318585001756
 20
-17.75465580543136
 30
0.0
  0
VERTEX
  5
377
330
375
100
AcDbEntity
  8
BEMA_UNG
 62
     7
100
AcDbVertex
100
AcDb2dVertex
 10
-10.00318585001756
 20
-16.18403573757663
 30
0.0
  0
SEQEND
  5
378
330
375
100
AcDbEntity
  8
BEMA_UNG
  0
POLYLINE
  5
379
330
1F
100
AcDbEntity
  8
BEMA_UNG
 62
     7
100
AcDb2dPolyline
 66
     1
 10
0.0
 20
0.0
 30
0.0
  0
VERTEX
  5
37A
330
379
100
AcDbEntity
  8
BEMA_UNG
 62
     7
100
AcDbVertex
100
AcDb2dVertex
 10
-10.0536565321717
 20
-17.75465580543136
 30
0.0
  0
VERTEX
  5
37B
330
379
100
AcDbEntity
  8
BEMA_UNG
 62
     7
100
AcDbVertex
100
AcDb2dVertex
 10
-10.0536565321717
 20
-15.79784027890912
 30
0.0
  0
SEQEND
  5
37C
330
379
100
AcDbEntity
  8
BEMA_UNG
  0
POLYLINE
  5
37D
330
1F
100
AcDbEntity
  8
BEMA_UNG
 62
     7
100
AcDb2dPolyline
 66
     1
 10
0.0
 20
0.0
 30
0.0
  0
VERTEX
  5
37E
330
37D
100
AcDbEntity
  8
BEMA_UNG
 62
     7
100
AcDbVertex
100
AcDb2dVertex
 10
-10.10447172410163
 20
-17.75465580543136
 30
0.0
  0
VERTEX
  5
37F
330
37D
100
AcDbEntity
  8
BEMA_UNG
 62
     7
100
AcDbVertex
100
AcDb2dVertex
 10
-10.10447172410163
 20
-15.41181707512951
 30
0.0
  0
SEQEND
  5
380
330
37D
100
AcDbEntity
  8
BEMA_UNG
  0
POLYLINE
  5
381
330
1F
100
AcDbEntity
  8
BEMA_UNG
 62
     7
100
AcDb2dPolyline
 66
     1
 10
0.0
 20
0.0
 30
0.0
  0
VERTEX
  5
382
330
381
100
AcDbEntity
  8
BEMA_UNG
 62
     7
100
AcDbVertex
100
AcDb2dVertex
 10
-10.15528691603157
 20
-17.75465580543136
 30
0.0
  0
VERTEX
  5
383
330
381
100
AcDbEntity
  8
BEMA_UNG
 62
     7
100
AcDbVertex
100
AcDb2dVertex
 10
-10.15528691603157
 20
-15.0263106360136
 30
0.0
  0
SEQEND
  5
384
330
381
100
AcDbEntity
  8
BEMA_UNG
  0
POLYLINE
  5
385
330
1F
100
AcDbEntity
  8
BEMA_UNG
 62
     7
100
AcDb2dPolyline
 66
     1
 10
0.0
 20
0.0
 30
0.0
  0
VERTEX
  5
386
330
385
100
AcDbEntity
  8
BEMA_UNG
 62
     7
100
AcDbVertex
100
AcDb2dVertex
 10
-10.2059298530736
 20
-17.75465580543136
 30
0.0
  0
VERTEX
  5
387
330
385
100
AcDbEntity
  8
BEMA_UNG
 62
     7
100
AcDbVertex
100
AcDb2dVertex
 10
-10.2059298530736
 20
-14.64063194200979
 30
0.0
  0
SEQEND
  5
388
330
385
100
AcDbEntity
  8
BEMA_UNG
  0
POLYLINE
  5
389
330
1F
100
AcDbEntity
  8
BEMA_UNG
 62
     7
100
AcDb2dPolyline
 66
     1
 10
0.0
 20
0.0
 30
0.0
  0
VERTEX
  5
38A
330
389
100
AcDbEntity
  8
BEMA_UNG
 62
     7
100
AcDbVertex
100
AcDb2dVertex
 10
-10.25674504500354
 20
-17.75465580543136
 30
0.0
  0
VERTEX
  5
38B
330
389
100
AcDbEntity
  8
BEMA_UNG
 62
     7
100
AcDbVertex
100
AcDb2dVertex
 10
-10.25674504500354
 20
-14.25443648334228
 30
0.0
  0
SEQEND
  5
38C
330
389
100
AcDbEntity
  8
BEMA_UNG
  0
POLYLINE
  5
38D
330
1F
100
AcDbEntity
  8
BEMA_UNG
 62
     7
100
AcDb2dPolyline
 66
     1
 10
0.0
 20
0.0
 30
0.0
  0
VERTEX
  5
38E
330
38D
100
AcDbEntity
  8
BEMA_UNG
 62
     7
100
AcDbVertex
100
AcDb2dVertex
 10
-10.25674504500354
 20
-6.154150379934862
 30
0.0
  0
VERTEX
  5
38F
330
38D
100
AcDbEntity
  8
BEMA_UNG
 62
     7
100
AcDbVertex
100
AcDb2dVertex
 10
-9.796479984539857
 20
-2.654620077397379
 30
0.0
  0
VERTEX
  5
390
330
38D
100
AcDbEntity
  8
BEMA_UNG
 62
     7
100
AcDbVertex
100
AcDb2dVertex
 10
-10.71787137990671
 20
-2.654620077397379
 30
0.0
  0
VERTEX
  5
391
330
38D
100
AcDbEntity
  8
BEMA_UNG
 62
     7
100
AcDbVertex
100
AcDb2dVertex
 10
-10.25674504500354
 20
-6.154150379934862
 30
0.0
  0
SEQEND
  5
392
330
38D
100
AcDbEntity
  8
BEMA_UNG
  0
POLYLINE
  5
393
330
1F
100
AcDbEntity
  8
BEMA_UNG
 62
     7
100
AcDb2dPolyline
 66
     1
 10
0.0
 20
0.0
 30
0.0
  0
VERTEX
  5
394
330
393
100
AcDbEntity
  8
BEMA_UNG
 62
     7
100
AcDbVertex
100
AcDb2dVertex
 10
-9.799925082297818
 20
-2.654620077397379
 30
0.0
  0
VERTEX
  5
395
330
393
100
AcDbEntity
  8
BEMA_UNG
 62
     7
100
AcDbVertex
100
AcDb2dVertex
 10
-9.799925082297818
 20
-2.681836349685276
 30
0.0
  0
SEQEND
  5
396
330
393
100
AcDbEntity
  8
BEMA_UNG
  0
POLYLINE
  5
397
330
1F
100
AcDbEntity
  8
BEMA_UNG
 62
     7
100
AcDb2dPolyline
 66
     1
 10
0.0
 20
0.0
 30
0.0
  0
VERTEX
  5
398
330
397
100
AcDbEntity
  8
BEMA_UNG
 62
     7
100
AcDbVertex
100
AcDb2dVertex
 10
-9.799925082297818
 20
-2.654620077397379
 30
0.0
  0
VERTEX
  5
399
330
397
100
AcDbEntity
  8
BEMA_UNG
 62
     7
100
AcDbVertex
100
AcDb2dVertex
 10
-9.799925082297818
 20
-2.681836349685276
 30
0.0
  0
SEQEND
  5
39A
330
397
100
AcDbEntity
  8
BEMA_UNG
  0
POLYLINE
  5
39B
330
1F
100
AcDbEntity
  8
BEMA_UNG
 62
     7
100
AcDb2dPolyline
 66
     1
 10
0.0
 20
0.0
 30
0.0
  0
VERTEX
  5
39C
330
39B
100
AcDbEntity
  8
BEMA_UNG
 62
     7
100
AcDbVertex
100
AcDb2dVertex
 10
-9.850740274227753
 20
-2.654620077397379
 30
0.0
  0
VERTEX
  5
39D
330
39B
100
AcDbEntity
  8
BEMA_UNG
 62
     7
100
AcDbVertex
100
AcDb2dVertex
 10
-9.850740274227753
 20
-3.067342788801189
 30
0.0
  0
SEQEND
  5
39E
330
39B
100
AcDbEntity
  8
BEMA_UNG
  0
POLYLINE
  5
39F
330
1F
100
AcDbEntity
  8
BEMA_UNG
 62
     7
100
AcDb2dPolyline
 66
     1
 10
0.0
 20
0.0
 30
0.0
  0
VERTEX
  5
3A0
330
39F
100
AcDbEntity
  8
BEMA_UNG
 62
     7
100
AcDbVertex
100
AcDb2dVertex
 10
-9.901555466157689
 20
-2.654620077397379
 30
0.0
  0
VERTEX
  5
3A1
330
39F
100
AcDbEntity
  8
BEMA_UNG
 62
     7
100
AcDbVertex
100
AcDb2dVertex
 10
-9.901555466157689
 20
-3.453710502356593
 30
0.0
  0
SEQEND
  5
3A2
330
39F
100
AcDbEntity
  8
BEMA_UNG
  0
POLYLINE
  5
3A3
330
1F
100
AcDbEntity
  8
BEMA_UNG
 62
     7
100
AcDb2dPolyline
 66
     1
 10
0.0
 20
0.0
 30
0.0
  0
VERTEX
  5
3A4
330
3A3
100
AcDbEntity
  8
BEMA_UNG
 62
     7
100
AcDbVertex
100
AcDb2dVertex
 10
-9.952370658087624
 20
-2.654620077397379
 30
0.0
  0
VERTEX
  5
3A5
330
3A3
100
AcDbEntity
  8
BEMA_UNG
 62
     7
100
AcDbVertex
100
AcDb2dVertex
 10
-9.952370658087624
 20
-3.839389196360404
 30
0.0
  0
SEQEND
  5
3A6
330
3A3
100
AcDbEntity
  8
BEMA_UNG
  0
POLYLINE
  5
3A7
330
1F
100
AcDbEntity
  8
BEMA_UNG
 62
     7
100
AcDb2dPolyline
 66
     1
 10
0.0
 20
0.0
 30
0.0
  0
VERTEX
  5
3A8
330
3A7
100
AcDbEntity
  8
BEMA_UNG
 62
     7
100
AcDbVertex
100
AcDb2dVertex
 10
-10.00318585001756
 20
-2.654620077397379
 30
0.0
  0
VERTEX
  5
3A9
330
3A7
100
AcDbEntity
  8
BEMA_UNG
 62
     7
100
AcDbVertex
100
AcDb2dVertex
 10
-10.00318585001756
 20
-4.225240145252113
 30
0.0
  0
SEQEND
  5
3AA
330
3A7
100
AcDbEntity
  8
BEMA_UNG
  0
POLYLINE
  5
3AB
330
1F
100
AcDbEntity
  8
BEMA_UNG
 62
     7
100
AcDb2dPolyline
 66
     1
 10
0.0
 20
0.0
 30
0.0
  0
VERTEX
  5
3AC
330
3AB
100
AcDbEntity
  8
BEMA_UNG
 62
     7
100
AcDbVertex
100
AcDb2dVertex
 10
-10.0536565321717
 20
-2.654620077397379
 30
0.0
  0
VERTEX
  5
3AD
330
3AB
100
AcDbEntity
  8
BEMA_UNG
 62
     7
100
AcDbVertex
100
AcDb2dVertex
 10
-10.0536565321717
 20
-4.610918839255924
 30
0.0
  0
SEQEND
  5
3AE
330
3AB
100
AcDbEntity
  8
BEMA_UNG
  0
POLYLINE
  5
3AF
330
1F
100
AcDbEntity
  8
BEMA_UNG
 62
     7
100
AcDb2dPolyline
 66
     1
 10
0.0
 20
0.0
 30
0.0
  0
VERTEX
  5
3B0
330
3AF
100
AcDbEntity
  8
BEMA_UNG
 62
     7
100
AcDbVertex
100
AcDb2dVertex
 10
-10.10447172410163
 20
-2.654620077397379
 30
0.0
  0
VERTEX
  5
3B1
330
3AF
100
AcDbEntity
  8
BEMA_UNG
 62
     7
100
AcDbVertex
100
AcDb2dVertex
 10
-10.10447172410163
 20
-4.997114297923429
 30
0.0
  0
SEQEND
  5
3B2
330
3AF
100
AcDbEntity
  8
BEMA_UNG
  0
POLYLINE
  5
3B3
330
1F
100
AcDbEntity
  8
BEMA_UNG
 62
     7
100
AcDb2dPolyline
 66
     1
 10
0.0
 20
0.0
 30
0.0
  0
VERTEX
  5
3B4
330
3B3
100
AcDbEntity
  8
BEMA_UNG
 62
     7
100
AcDbVertex
100
AcDb2dVertex
 10
-10.15528691603157
 20
-2.654620077397379
 30
0.0
  0
VERTEX
  5
3B5
330
3B3
100
AcDbEntity
  8
BEMA_UNG
 62
     7
100
AcDbVertex
100
AcDb2dVertex
 10
-10.15528691603157
 20
-5.38279299192724
 30
0.0
  0
SEQEND
  5
3B6
330
3B3
100
AcDbEntity
  8
BEMA_UNG
  0
POLYLINE
  5
3B7
330
1F
100
AcDbEntity
  8
BEMA_UNG
 62
     7
100
AcDb2dPolyline
 66
     1
 10
0.0
 20
0.0
 30
0.0
  0
VERTEX
  5
3B8
330
3B7
100
AcDbEntity
  8
BEMA_UNG
 62
     7
100
AcDbVertex
100
AcDb2dVertex
 10
-10.2059298530736
 20
-2.654620077397379
 30
0.0
  0
VERTEX
  5
3B9
330
3B7
100
AcDbEntity
  8
BEMA_UNG
 62
     7
100
AcDbVertex
100
AcDb2dVertex
 10
-10.2059298530736
 20
-5.768988450594746
 30
0.0
  0
SEQEND
  5
3BA
330
3B7
100
AcDbEntity
  8
BEMA_UNG
  0
POLYLINE
  5
3BB
330
1F
100
AcDbEntity
  8
BEMA_UNG
 62
     7
100
AcDb2dPolyline
 66
     1
 10
0.0
 20
0.0
 30
0.0
  0
VERTEX
  5
3BC
330
3BB
100
AcDbEntity
  8
BEMA_UNG
 62
     7
100
AcDbVertex
100
AcDb2dVertex
 10
-10.25674504500354
 20
-2.654620077397379
 30
0.0
  0
VERTEX
  5
3BD
330
3BB
100
AcDbEntity
  8
BEMA_UNG
 62
     7
100
AcDbVertex
100
AcDb2dVertex
 10
-10.25674504500354
 20
-6.154150379934862
 30
0.0
  0
SEQEND
  5
3BE
330
3BB
100
AcDbEntity
  8
BEMA_UNG
  0
POLYLINE
  5
3BF
330
1F
100
AcDbEntity
  8
BEMA_UNG
 62
     7
100
AcDb2dPolyline
 66
     1
 10
0.0
 20
0.0
 30
0.0
  0
VERTEX
  5
3C0
330
3BF
100
AcDbEntity
  8
BEMA_UNG
 62
     7
100
AcDbVertex
100
AcDb2dVertex
 10
-10.71442628214875
 20
-2.654620077397379
 30
0.0
  0
VERTEX
  5
3C1
330
3BF
100
AcDbEntity
  8
BEMA_UNG
 62
     7
100
AcDbVertex
100
AcDb2dVertex
 10
-10.71442628214875
 20
-2.681836349685276
 30
0.0
  0
SEQEND
  5
3C2
330
3BF
100
AcDbEntity
  8
BEMA_UNG
  0
POLYLINE
  5
3C3
330
1F
100
AcDbEntity
  8
BEMA_UNG
 62
     7
100
AcDb2dPolyline
 66
     1
 10
0.0
 20
0.0
 30
0.0
  0
VERTEX
  5
3C4
330
3C3
100
AcDbEntity
  8
BEMA_UNG
 62
     7
100
AcDbVertex
100
AcDb2dVertex
 10
-10.71442628214875
 20
-2.654620077397379
 30
0.0
  0
VERTEX
  5
3C5
330
3C3
100
AcDbEntity
  8
BEMA_UNG
 62
     7
100
AcDbVertex
100
AcDb2dVertex
 10
-10.71442628214875
 20
-2.681836349685276
 30
0.0
  0
SEQEND
  5
3C6
330
3C3
100
AcDbEntity
  8
BEMA_UNG
  0
POLYLINE
  5
3C7
330
1F
100
AcDbEntity
  8
BEMA_UNG
 62
     7
100
AcDb2dPolyline
 66
     1
 10
0.0
 20
0.0
 30
0.0
  0
VERTEX
  5
3C8
330
3C7
100
AcDbEntity
  8
BEMA_UNG
 62
     7
100
AcDbVertex
100
AcDb2dVertex
 10
-10.66361109021882
 20
-2.654620077397379
 30
0.0
  0
VERTEX
  5
3C9
330
3C7
100
AcDbEntity
  8
BEMA_UNG
 62
     7
100
AcDbVertex
100
AcDb2dVertex
 10
-10.66361109021882
 20
-3.067342788801189
 30
0.0
  0
SEQEND
  5
3CA
330
3C7
100
AcDbEntity
  8
BEMA_UNG
  0
POLYLINE
  5
3CB
330
1F
100
AcDbEntity
  8
BEMA_UNG
 62
     7
100
AcDb2dPolyline
 66
     1
 10
0.0
 20
0.0
 30
0.0
  0
VERTEX
  5
3CC
330
3CB
100
AcDbEntity
  8
BEMA_UNG
 62
     7
100
AcDbVertex
100
AcDb2dVertex
 10
-10.61279589828888
 20
-2.654620077397379
 30
0.0
  0
VERTEX
  5
3CD
330
3CB
100
AcDbEntity
  8
BEMA_UNG
 62
     7
100
AcDbVertex
100
AcDb2dVertex
 10
-10.61279589828888
 20
-3.453710502356593
 30
0.0
  0
SEQEND
  5
3CE
330
3CB
100
AcDbEntity
  8
BEMA_UNG
  0
POLYLINE
  5
3CF
330
1F
100
AcDbEntity
  8
BEMA_UNG
 62
     7
100
AcDb2dPolyline
 66
     1
 10
0.0
 20
0.0
 30
0.0
  0
VERTEX
  5
3D0
330
3CF
100
AcDbEntity
  8
BEMA_UNG
 62
     7
100
AcDbVertex
100
AcDb2dVertex
 10
-10.56163619658315
 20
-2.654620077397379
 30
0.0
  0
VERTEX
  5
3D1
330
3CF
100
AcDbEntity
  8
BEMA_UNG
 62
     7
100
AcDbVertex
100
AcDb2dVertex
 10
-10.56163619658315
 20
-3.839389196360404
 30
0.0
  0
SEQEND
  5
3D2
330
3CF
100
AcDbEntity
  8
BEMA_UNG
  0
POLYLINE
  5
3D3
330
1F
100
AcDbEntity
  8
BEMA_UNG
 62
     7
100
AcDb2dPolyline
 66
     1
 10
0.0
 20
0.0
 30
0.0
  0
VERTEX
  5
3D4
330
3D3
100
AcDbEntity
  8
BEMA_UNG
 62
     7
100
AcDbVertex
100
AcDb2dVertex
 10
-10.51082100465321
 20
-2.654620077397379
 30
0.0
  0
VERTEX
  5
3D5
330
3D3
100
AcDbEntity
  8
BEMA_UNG
 62
     7
100
AcDbVertex
100
AcDb2dVertex
 10
-10.51082100465321
 20
-4.225240145252113
 30
0.0
  0
SEQEND
  5
3D6
330
3D3
100
AcDbEntity
  8
BEMA_UNG
  0
POLYLINE
  5
3D7
330
1F
100
AcDbEntity
  8
BEMA_UNG
 62
     7
100
AcDb2dPolyline
 66
     1
 10
0.0
 20
0.0
 30
0.0
  0
VERTEX
  5
3D8
330
3D7
100
AcDbEntity
  8
BEMA_UNG
 62
     7
100
AcDbVertex
100
AcDb2dVertex
 10
-10.46000581272328
 20
-2.654620077397379
 30
0.0
  0
VERTEX
  5
3D9
330
3D7
100
AcDbEntity
  8
BEMA_UNG
 62
     7
100
AcDbVertex
100
AcDb2dVertex
 10
-10.46000581272328
 20
-4.610918839255924
 30
0.0
  0
SEQEND
  5
3DA
330
3D7
100
AcDbEntity
  8
BEMA_UNG
  0
POLYLINE
  5
3DB
330
1F
100
AcDbEntity
  8
BEMA_UNG
 62
     7
100
AcDb2dPolyline
 66
     1
 10
0.0
 20
0.0
 30
0.0
  0
VERTEX
  5
3DC
330
3DB
100
AcDbEntity
  8
BEMA_UNG
 62
     7
100
AcDbVertex
100
AcDb2dVertex
 10
-10.40919062079334
 20
-2.654620077397379
 30
0.0
  0
VERTEX
  5
3DD
330
3DB
100
AcDbEntity
  8
BEMA_UNG
 62
     7
100
AcDbVertex
100
AcDb2dVertex
 10
-10.40919062079334
 20
-4.997114297923429
 30
0.0
  0
SEQEND
  5
3DE
330
3DB
100
AcDbEntity
  8
BEMA_UNG
  0
POLYLINE
  5
3DF
330
1F
100
AcDbEntity
  8
BEMA_UNG
 62
     7
100
AcDb2dPolyline
 66
     1
 10
0.0
 20
0.0
 30
0.0
  0
VERTEX
  5
3E0
330
3DF
100
AcDbEntity
  8
BEMA_UNG
 62
     7
100
AcDbVertex
100
AcDb2dVertex
 10
-10.35837542886341
 20
-2.654620077397379
 30
0.0
  0
VERTEX
  5
3E1
330
3DF
100
AcDbEntity
  8
BEMA_UNG
 62
     7
100
AcDbVertex
100
AcDb2dVertex
 10
-10.35837542886341
 20
-5.38279299192724
 30
0.0
  0
SEQEND
  5
3E2
330
3DF
100
AcDbEntity
  8
BEMA_UNG
  0
POLYLINE
  5
3E3
330
1F
100
AcDbEntity
  8
BEMA_UNG
 62
     7
100
AcDb2dPolyline
 66
     1
 10
0.0
 20
0.0
 30
0.0
  0
VERTEX
  5
3E4
330
3E3
100
AcDbEntity
  8
BEMA_UNG
 62
     7
100
AcDbVertex
100
AcDb2dVertex
 10
-10.30756023693347
 20
-2.654620077397379
 30
0.0
  0
VERTEX
  5
3E5
330
3E3
100
AcDbEntity
  8
BEMA_UNG
 62
     7
100
AcDbVertex
100
AcDb2dVertex
 10
-10.30756023693347
 20
-5.768988450594746
 30
0.0
  0
SEQEND
  5
3E6
330
3E3
100
AcDbEntity
  8
BEMA_UNG
  0
POLYLINE
  5
3E7
330
1F
100
AcDbEntity
  8
BEMA_UNG
 62
     7
100
AcDb2dPolyline
 66
     1
 10
0.0
 20
0.0
 30
0.0
  0
VERTEX
  5
3E8
330
3E7
100
AcDbEntity
  8
BEMA_UNG
 62
     7
100
AcDbVertex
100
AcDb2dVertex
 10
-10.25674504500354
 20
-2.654620077397379
 30
0.0
  0
VERTEX
  5
3E9
330
3E7
100
AcDbEntity
  8
BEMA_UNG
 62
     7
100
AcDbVertex
100
AcDb2dVertex
 10
-10.25674504500354
 20
-6.154150379934862
 30
0.0
  0
SEQEND
  5
3EA
330
3E7
100
AcDbEntity
  8
BEMA_UNG
  0
POLYLINE
  5
3EB
330
1F
100
AcDbEntity
  8
BEMA_UNG
 62
     7
100
AcDb2dPolyline
 66
     1
 10
0.0
 20
0.0
 30
0.0
  0
VERTEX
  5
3EC
330
3EB
100
AcDbEntity
  8
BEMA_UNG
 62
     7
100
AcDbVertex
100
AcDb2dVertex
 10
10.90649048215511
 20
-0.2368504708598661
 30
0.0
  0
VERTEX
  5
3ED
330
3EB
100
AcDbEntity
  8
BEMA_UNG
 62
     7
100
AcDbVertex
100
AcDb2dVertex
 10
50.59246635988268
 20
-0.2368504708598661
 30
0.0
  0
SEQEND
  5
3EE
330
3EB
100
AcDbEntity
  8
BEMA_UNG
  0
POLYLINE
  5
3EF
330
1F
100
AcDbEntity
  8
BEMA_UNG
 62
     7
100
AcDb2dPolyline
 66
     1
 10
0.0
 20
0.0
 30
0.0
  0
VERTEX
  5
3F0
330
3EF
100
AcDbEntity
  8
BEMA_UNG
 62
     7
100
AcDbVertex
100
AcDb2dVertex
 10
10.90649048215511
 20
-20.17225315708097
 30
0.0
  0
VERTEX
  5
3F1
330
3EF
100
AcDbEntity
  8
BEMA_UNG
 62
     7
100
AcDbVertex
100
AcDb2dVertex
 10
50.59246635988268
 20
-20.17225315708097
 30
0.0
  0
SEQEND
  5
3F2
330
3EF
100
AcDbEntity
  8
BEMA_UNG
  0
POLYLINE
  5
3F3
330
1F
100
AcDbEntity
  8
BEMA_UNG
 62
     7
100
AcDb2dPolyline
 66
     1
 10
0.0
 20
0.0
 30
0.0
  0
VERTEX
  5
3F4
330
3F3
100
AcDbEntity
  8
BEMA_UNG
 62
     7
100
AcDbVertex
100
AcDb2dVertex
 10
48.59258711138592
 20
-0.2368504708598661
 30
0.0
  0
VERTEX
  5
3F5
330
3F3
100
AcDbEntity
  8
BEMA_UNG
 62
     7
100
AcDbVertex
100
AcDb2dVertex
 10
48.59258711138592
 20
-20.17225315708097
 30
0.0
  0
SEQEND
  5
3F6
330
3F3
100
AcDbEntity
  8
BEMA_UNG
  0
POLYLINE
  5
3F7
330
1F
100
AcDbEntity
  8
BEMA_UNG
 62
     7
100
AcDb2dPolyline
 66
     1
 10
0.0
 20
0.0
 30
0.0
  0
VERTEX
  5
3F8
330
3F7
100
AcDbEntity
  8
BEMA_UNG
 62
     7
100
AcDbVertex
100
AcDb2dVertex
 10
48.59258711138592
 20
-0.2368504708598661
 30
0.0
  0
VERTEX
  5
3F9
330
3F7
100
AcDbEntity
  8
BEMA_UNG
 62
     7
100
AcDbVertex
100
AcDb2dVertex
 10
48.13128852159485
 20
-3.736380773397349
 30
0.0
  0
VERTEX
  5
3FA
330
3F7
100
AcDbEntity
  8
BEMA_UNG
 62
     7
100
AcDbVertex
100
AcDb2dVertex
 10
49.0528521718496
 20
-3.736380773397349
 30
0.0
  0
VERTEX
  5
3FB
330
3F7
100
AcDbEntity
  8
BEMA_UNG
 62
     7
100
AcDbVertex
100
AcDb2dVertex
 10
48.59258711138592
 20
-0.2368504708598661
 30
0.0
  0
SEQEND
  5
3FC
330
3F7
100
AcDbEntity
  8
BEMA_UNG
  0
POLYLINE
  5
3FD
330
1F
100
AcDbEntity
  8
BEMA_UNG
 62
     7
100
AcDb2dPolyline
 66
     1
 10
0.0
 20
0.0
 30
0.0
  0
VERTEX
  5
3FE
330
3FD
100
AcDbEntity
  8
BEMA_UNG
 62
     7
100
AcDbVertex
100
AcDb2dVertex
 10
48.13507812912861
 20
-3.736380773397349
 30
0.0
  0
VERTEX
  5
3FF
330
3FD
100
AcDbEntity
  8
BEMA_UNG
 62
     7
100
AcDbVertex
100
AcDb2dVertex
 10
48.13507812912861
 20
-3.709164501109452
 30
0.0
  0
SEQEND
  5
400
330
3FD
100
AcDbEntity
  8
BEMA_UNG
  0
POLYLINE
  5
401
330
1F
100
AcDbEntity
  8
BEMA_UNG
 62
     7
100
AcDb2dPolyline
 66
     1
 10
0.0
 20
0.0
 30
0.0
  0
VERTEX
  5
402
330
401
100
AcDbEntity
  8
BEMA_UNG
 62
     7
100
AcDbVertex
100
AcDb2dVertex
 10
48.13507812912861
 20
-3.736380773397349
 30
0.0
  0
VERTEX
  5
403
330
401
100
AcDbEntity
  8
BEMA_UNG
 62
     7
100
AcDbVertex
100
AcDb2dVertex
 10
48.13507812912861
 20
-3.709164501109452
 30
0.0
  0
SEQEND
  5
404
330
401
100
AcDbEntity
  8
BEMA_UNG
  0
POLYLINE
  5
405
330
1F
100
AcDbEntity
  8
BEMA_UNG
 62
     7
100
AcDb2dPolyline
 66
     1
 10
0.0
 20
0.0
 30
0.0
  0
VERTEX
  5
406
330
405
100
AcDbEntity
  8
BEMA_UNG
 62
     7
100
AcDbVertex
100
AcDb2dVertex
 10
48.18572106617064
 20
-3.736380773397349
 30
0.0
  0
VERTEX
  5
407
330
405
100
AcDbEntity
  8
BEMA_UNG
 62
     7
100
AcDbVertex
100
AcDb2dVertex
 10
48.18572106617064
 20
-3.323658061993539
 30
0.0
  0
SEQEND
  5
408
330
405
100
AcDbEntity
  8
BEMA_UNG
  0
POLYLINE
  5
409
330
1F
100
AcDbEntity
  8
BEMA_UNG
 62
     7
100
AcDb2dPolyline
 66
     1
 10
0.0
 20
0.0
 30
0.0
  0
VERTEX
  5
40A
330
409
100
AcDbEntity
  8
BEMA_UNG
 62
     7
100
AcDbVertex
100
AcDb2dVertex
 10
48.23636400321269
 20
-3.736380773397349
 30
0.0
  0
VERTEX
  5
40B
330
409
100
AcDbEntity
  8
BEMA_UNG
 62
     7
100
AcDbVertex
100
AcDb2dVertex
 10
48.23636400321269
 20
-2.937290348438136
 30
0.0
  0
SEQEND
  5
40C
330
409
100
AcDbEntity
  8
BEMA_UNG
  0
POLYLINE
  5
40D
330
1F
100
AcDbEntity
  8
BEMA_UNG
 62
     7
100
AcDb2dPolyline
 66
     1
 10
0.0
 20
0.0
 30
0.0
  0
VERTEX
  5
40E
330
40D
100
AcDbEntity
  8
BEMA_UNG
 62
     7
100
AcDbVertex
100
AcDb2dVertex
 10
48.28735145003051
 20
-3.736380773397349
 30
0.0
  0
VERTEX
  5
40F
330
40D
100
AcDbEntity
  8
BEMA_UNG
 62
     7
100
AcDbVertex
100
AcDb2dVertex
 10
48.28735145003051
 20
-2.551611654434324
 30
0.0
  0
SEQEND
  5
410
330
40D
100
AcDbEntity
  8
BEMA_UNG
  0
POLYLINE
  5
411
330
1F
100
AcDbEntity
  8
BEMA_UNG
 62
     7
100
AcDb2dPolyline
 66
     1
 10
0.0
 20
0.0
 30
0.0
  0
VERTEX
  5
412
330
411
100
AcDbEntity
  8
BEMA_UNG
 62
     7
100
AcDbVertex
100
AcDb2dVertex
 10
48.33833889684835
 20
-3.736380773397349
 30
0.0
  0
VERTEX
  5
413
330
411
100
AcDbEntity
  8
BEMA_UNG
 62
     7
100
AcDbVertex
100
AcDb2dVertex
 10
48.33833889684835
 20
-2.165760705542616
 30
0.0
  0
SEQEND
  5
414
330
411
100
AcDbEntity
  8
BEMA_UNG
  0
POLYLINE
  5
415
330
1F
100
AcDbEntity
  8
BEMA_UNG
 62
     7
100
AcDb2dPolyline
 66
     1
 10
0.0
 20
0.0
 30
0.0
  0
VERTEX
  5
416
330
415
100
AcDbEntity
  8
BEMA_UNG
 62
     7
100
AcDbVertex
100
AcDb2dVertex
 10
48.38932634366618
 20
-3.736380773397349
 30
0.0
  0
VERTEX
  5
417
330
415
100
AcDbEntity
  8
BEMA_UNG
 62
     7
100
AcDbVertex
100
AcDb2dVertex
 10
48.38932634366618
 20
-1.780254266426702
 30
0.0
  0
SEQEND
  5
418
330
415
100
AcDbEntity
  8
BEMA_UNG
  0
POLYLINE
  5
419
330
1F
100
AcDbEntity
  8
BEMA_UNG
 62
     7
100
AcDb2dPolyline
 66
     1
 10
0.0
 20
0.0
 30
0.0
  0
VERTEX
  5
41A
330
419
100
AcDbEntity
  8
BEMA_UNG
 62
     7
100
AcDbVertex
100
AcDb2dVertex
 10
48.43996928070822
 20
-3.736380773397349
 30
0.0
  0
VERTEX
  5
41B
330
419
100
AcDbEntity
  8
BEMA_UNG
 62
     7
100
AcDbVertex
100
AcDb2dVertex
 10
48.43996928070822
 20
-1.393886552871299
 30
0.0
  0
SEQEND
  5
41C
330
419
100
AcDbEntity
  8
BEMA_UNG
  0
POLYLINE
  5
41D
330
1F
100
AcDbEntity
  8
BEMA_UNG
 62
     7
100
AcDb2dPolyline
 66
     1
 10
0.0
 20
0.0
 30
0.0
  0
VERTEX
  5
41E
330
41D
100
AcDbEntity
  8
BEMA_UNG
 62
     7
100
AcDbVertex
100
AcDb2dVertex
 10
48.49095672752605
 20
-3.736380773397349
 30
0.0
  0
VERTEX
  5
41F
330
41D
100
AcDbEntity
  8
BEMA_UNG
 62
     7
100
AcDbVertex
100
AcDb2dVertex
 10
48.49095672752605
 20
-1.008207858867488
 30
0.0
  0
SEQEND
  5
420
330
41D
100
AcDbEntity
  8
BEMA_UNG
  0
POLYLINE
  5
421
330
1F
100
AcDbEntity
  8
BEMA_UNG
 62
     7
100
AcDb2dPolyline
 66
     1
 10
0.0
 20
0.0
 30
0.0
  0
VERTEX
  5
422
330
421
100
AcDbEntity
  8
BEMA_UNG
 62
     7
100
AcDbVertex
100
AcDb2dVertex
 10
48.54159966456809
 20
-3.736380773397349
 30
0.0
  0
VERTEX
  5
423
330
421
100
AcDbEntity
  8
BEMA_UNG
 62
     7
100
AcDbVertex
100
AcDb2dVertex
 10
48.54159966456809
 20
-0.622356909975779
 30
0.0
  0
SEQEND
  5
424
330
421
100
AcDbEntity
  8
BEMA_UNG
  0
POLYLINE
  5
425
330
1F
100
AcDbEntity
  8
BEMA_UNG
 62
     7
100
AcDb2dPolyline
 66
     1
 10
0.0
 20
0.0
 30
0.0
  0
VERTEX
  5
426
330
425
100
AcDbEntity
  8
BEMA_UNG
 62
     7
100
AcDbVertex
100
AcDb2dVertex
 10
48.59258711138592
 20
-3.736380773397349
 30
0.0
  0
VERTEX
  5
427
330
425
100
AcDbEntity
  8
BEMA_UNG
 62
     7
100
AcDbVertex
100
AcDb2dVertex
 10
48.59258711138592
 20
-0.2368504708598661
 30
0.0
  0
SEQEND
  5
428
330
425
100
AcDbEntity
  8
BEMA_UNG
  0
POLYLINE
  5
429
330
1F
100
AcDbEntity
  8
BEMA_UNG
 62
     7
100
AcDb2dPolyline
 66
     1
 10
0.0
 20
0.0
 30
0.0
  0
VERTEX
  5
42A
330
429
100
AcDbEntity
  8
BEMA_UNG
 62
     7
100
AcDbVertex
100
AcDb2dVertex
 10
49.04940707409164
 20
-3.736380773397349
 30
0.0
  0
VERTEX
  5
42B
330
429
100
AcDbEntity
  8
BEMA_UNG
 62
     7
100
AcDbVertex
100
AcDb2dVertex
 10
49.04940707409164
 20
-3.709164501109452
 30
0.0
  0
SEQEND
  5
42C
330
429
100
AcDbEntity
  8
BEMA_UNG
  0
POLYLINE
  5
42D
330
1F
100
AcDbEntity
  8
BEMA_UNG
 62
     7
100
AcDb2dPolyline
 66
     1
 10
0.0
 20
0.0
 30
0.0
  0
VERTEX
  5
42E
330
42D
100
AcDbEntity
  8
BEMA_UNG
 62
     7
100
AcDbVertex
100
AcDb2dVertex
 10
49.04940707409164
 20
-3.736380773397349
 30
0.0
  0
VERTEX
  5
42F
330
42D
100
AcDbEntity
  8
BEMA_UNG
 62
     7
100
AcDbVertex
100
AcDb2dVertex
 10
49.04940707409164
 20
-3.709164501109452
 30
0.0
  0
SEQEND
  5
430
330
42D
100
AcDbEntity
  8
BEMA_UNG
  0
POLYLINE
  5
431
330
1F
100
AcDbEntity
  8
BEMA_UNG
 62
     7
100
AcDb2dPolyline
 66
     1
 10
0.0
 20
0.0
 30
0.0
  0
VERTEX
  5
432
330
431
100
AcDbEntity
  8
BEMA_UNG
 62
     7
100
AcDbVertex
100
AcDb2dVertex
 10
48.9987641370496
 20
-3.736380773397349
 30
0.0
  0
VERTEX
  5
433
330
431
100
AcDbEntity
  8
BEMA_UNG
 62
     7
100
AcDbVertex
100
AcDb2dVertex
 10
48.9987641370496
 20
-3.323658061993539
 30
0.0
  0
SEQEND
  5
434
330
431
100
AcDbEntity
  8
BEMA_UNG
  0
POLYLINE
  5
435
330
1F
100
AcDbEntity
  8
BEMA_UNG
 62
     7
100
AcDb2dPolyline
 66
     1
 10
0.0
 20
0.0
 30
0.0
  0
VERTEX
  5
436
330
435
100
AcDbEntity
  8
BEMA_UNG
 62
     7
100
AcDbVertex
100
AcDb2dVertex
 10
48.94777669023177
 20
-3.736380773397349
 30
0.0
  0
VERTEX
  5
437
330
435
100
AcDbEntity
  8
BEMA_UNG
 62
     7
100
AcDbVertex
100
AcDb2dVertex
 10
48.94777669023177
 20
-2.937290348438136
 30
0.0
  0
SEQEND
  5
438
330
435
100
AcDbEntity
  8
BEMA_UNG
  0
POLYLINE
  5
439
330
1F
100
AcDbEntity
  8
BEMA_UNG
 62
     7
100
AcDb2dPolyline
 66
     1
 10
0.0
 20
0.0
 30
0.0
  0
VERTEX
  5
43A
330
439
100
AcDbEntity
  8
BEMA_UNG
 62
     7
100
AcDbVertex
100
AcDb2dVertex
 10
48.89713375318973
 20
-3.736380773397349
 30
0.0
  0
VERTEX
  5
43B
330
439
100
AcDbEntity
  8
BEMA_UNG
 62
     7
100
AcDbVertex
100
AcDb2dVertex
 10
48.89713375318973
 20
-2.551611654434324
 30
0.0
  0
SEQEND
  5
43C
330
439
100
AcDbEntity
  8
BEMA_UNG
  0
POLYLINE
  5
43D
330
1F
100
AcDbEntity
  8
BEMA_UNG
 62
     7
100
AcDb2dPolyline
 66
     1
 10
0.0
 20
0.0
 30
0.0
  0
VERTEX
  5
43E
330
43D
100
AcDbEntity
  8
BEMA_UNG
 62
     7
100
AcDbVertex
100
AcDb2dVertex
 10
48.8464908161477
 20
-3.736380773397349
 30
0.0
  0
VERTEX
  5
43F
330
43D
100
AcDbEntity
  8
BEMA_UNG
 62
     7
100
AcDbVertex
100
AcDb2dVertex
 10
48.8464908161477
 20
-2.165760705542616
 30
0.0
  0
SEQEND
  5
440
330
43D
100
AcDbEntity
  8
BEMA_UNG
  0
POLYLINE
  5
441
330
1F
100
AcDbEntity
  8
BEMA_UNG
 62
     7
100
AcDb2dPolyline
 66
     1
 10
0.0
 20
0.0
 30
0.0
  0
VERTEX
  5
442
330
441
100
AcDbEntity
  8
BEMA_UNG
 62
     7
100
AcDbVertex
100
AcDb2dVertex
 10
48.79584787910566
 20
-3.736380773397349
 30
0.0
  0
VERTEX
  5
443
330
441
100
AcDbEntity
  8
BEMA_UNG
 62
     7
100
AcDbVertex
100
AcDb2dVertex
 10
48.79584787910566
 20
-1.780254266426702
 30
0.0
  0
SEQEND
  5
444
330
441
100
AcDbEntity
  8
BEMA_UNG
  0
POLYLINE
  5
445
330
1F
100
AcDbEntity
  8
BEMA_UNG
 62
     7
100
AcDb2dPolyline
 66
     1
 10
0.0
 20
0.0
 30
0.0
  0
VERTEX
  5
446
330
445
100
AcDbEntity
  8
BEMA_UNG
 62
     7
100
AcDbVertex
100
AcDb2dVertex
 10
48.74486043228783
 20
-3.736380773397349
 30
0.0
  0
VERTEX
  5
447
330
445
100
AcDbEntity
  8
BEMA_UNG
 62
     7
100
AcDbVertex
100
AcDb2dVertex
 10
48.74486043228783
 20
-1.393886552871299
 30
0.0
  0
SEQEND
  5
448
330
445
100
AcDbEntity
  8
BEMA_UNG
  0
POLYLINE
  5
449
330
1F
100
AcDbEntity
  8
BEMA_UNG
 62
     7
100
AcDb2dPolyline
 66
     1
 10
0.0
 20
0.0
 30
0.0
  0
VERTEX
  5
44A
330
449
100
AcDbEntity
  8
BEMA_UNG
 62
     7
100
AcDbVertex
100
AcDb2dVertex
 10
48.69421749524579
 20
-3.736380773397349
 30
0.0
  0
VERTEX
  5
44B
330
449
100
AcDbEntity
  8
BEMA_UNG
 62
     7
100
AcDbVertex
100
AcDb2dVertex
 10
48.69421749524579
 20
-1.008207858867488
 30
0.0
  0
SEQEND
  5
44C
330
449
100
AcDbEntity
  8
BEMA_UNG
  0
POLYLINE
  5
44D
330
1F
100
AcDbEntity
  8
BEMA_UNG
 62
     7
100
AcDb2dPolyline
 66
     1
 10
0.0
 20
0.0
 30
0.0
  0
VERTEX
  5
44E
330
44D
100
AcDbEntity
  8
BEMA_UNG
 62
     7
100
AcDbVertex
100
AcDb2dVertex
 10
48.64323004842796
 20
-3.736380773397349
 30
0.0
  0
VERTEX
  5
44F
330
44D
100
AcDbEntity
  8
BEMA_UNG
 62
     7
100
AcDbVertex
100
AcDb2dVertex
 10
48.64323004842796
 20
-0.622356909975779
 30
0.0
  0
SEQEND
  5
450
330
44D
100
AcDbEntity
  8
BEMA_UNG
  0
POLYLINE
  5
451
330
1F
100
AcDbEntity
  8
BEMA_UNG
 62
     7
100
AcDb2dPolyline
 66
     1
 10
0.0
 20
0.0
 30
0.0
  0
VERTEX
  5
452
330
451
100
AcDbEntity
  8
BEMA_UNG
 62
     7
100
AcDbVertex
100
AcDb2dVertex
 10
48.59258711138592
 20
-3.736380773397349
 30
0.0
  0
VERTEX
  5
453
330
451
100
AcDbEntity
  8
BEMA_UNG
 62
     7
100
AcDbVertex
100
AcDb2dVertex
 10
48.59258711138592
 20
-0.2368504708598661
 30
0.0
  0
SEQEND
  5
454
330
451
100
AcDbEntity
  8
BEMA_UNG
  0
POLYLINE
  5
455
330
1F
100
AcDbEntity
  8
BEMA_UNG
 62
     7
100
AcDb2dPolyline
 66
     1
 10
0.0
 20
0.0
 30
0.0
  0
VERTEX
  5
456
330
455
100
AcDbEntity
  8
BEMA_UNG
 62
     7
100
AcDbVertex
100
AcDb2dVertex
 10
48.59258711138592
 20
-20.17225315708097
 30
0.0
  0
VERTEX
  5
457
330
455
100
AcDbEntity
  8
BEMA_UNG
 62
     7
100
AcDbVertex
100
AcDb2dVertex
 10
49.0528521718496
 20
-16.67272285454349
 30
0.0
  0
VERTEX
  5
458
330
455
100
AcDbEntity
  8
BEMA_UNG
 62
     7
100
AcDbVertex
100
AcDb2dVertex
 10
48.13128852159485
 20
-16.67272285454349
 30
0.0
  0
VERTEX
  5
459
330
455
100
AcDbEntity
  8
BEMA_UNG
 62
     7
100
AcDbVertex
100
AcDb2dVertex
 10
48.59258711138592
 20
-20.17225315708097
 30
0.0
  0
SEQEND
  5
45A
330
455
100
AcDbEntity
  8
BEMA_UNG
  0
POLYLINE
  5
45B
330
1F
100
AcDbEntity
  8
BEMA_UNG
 62
     7
100
AcDb2dPolyline
 66
     1
 10
0.0
 20
0.0
 30
0.0
  0
VERTEX
  5
45C
330
45B
100
AcDbEntity
  8
BEMA_UNG
 62
     7
100
AcDbVertex
100
AcDb2dVertex
 10
49.04940707409164
 20
-16.67272285454349
 30
0.0
  0
VERTEX
  5
45D
330
45B
100
AcDbEntity
  8
BEMA_UNG
 62
     7
100
AcDbVertex
100
AcDb2dVertex
 10
49.04940707409164
 20
-16.69993912683139
 30
0.0
  0
SEQEND
  5
45E
330
45B
100
AcDbEntity
  8
BEMA_UNG
  0
POLYLINE
  5
45F
330
1F
100
AcDbEntity
  8
BEMA_UNG
 62
     7
100
AcDb2dPolyline
 66
     1
 10
0.0
 20
0.0
 30
0.0
  0
VERTEX
  5
460
330
45F
100
AcDbEntity
  8
BEMA_UNG
 62
     7
100
AcDbVertex
100
AcDb2dVertex
 10
49.04940707409164
 20
-16.67272285454349
 30
0.0
  0
VERTEX
  5
461
330
45F
100
AcDbEntity
  8
BEMA_UNG
 62
     7
100
AcDbVertex
100
AcDb2dVertex
 10
49.04940707409164
 20
-16.69993912683139
 30
0.0
  0
SEQEND
  5
462
330
45F
100
AcDbEntity
  8
BEMA_UNG
  0
POLYLINE
  5
463
330
1F
100
AcDbEntity
  8
BEMA_UNG
 62
     7
100
AcDb2dPolyline
 66
     1
 10
0.0
 20
0.0
 30
0.0
  0
VERTEX
  5
464
330
463
100
AcDbEntity
  8
BEMA_UNG
 62
     7
100
AcDbVertex
100
AcDb2dVertex
 10
48.9987641370496
 20
-16.67272285454349
 30
0.0
  0
VERTEX
  5
465
330
463
100
AcDbEntity
  8
BEMA_UNG
 62
     7
100
AcDbVertex
100
AcDb2dVertex
 10
48.9987641370496
 20
-17.0854455659473
 30
0.0
  0
SEQEND
  5
466
330
463
100
AcDbEntity
  8
BEMA_UNG
  0
POLYLINE
  5
467
330
1F
100
AcDbEntity
  8
BEMA_UNG
 62
     7
100
AcDb2dPolyline
 66
     1
 10
0.0
 20
0.0
 30
0.0
  0
VERTEX
  5
468
330
467
100
AcDbEntity
  8
BEMA_UNG
 62
     7
100
AcDbVertex
100
AcDb2dVertex
 10
48.94777669023177
 20
-16.67272285454349
 30
0.0
  0
VERTEX
  5
469
330
467
100
AcDbEntity
  8
BEMA_UNG
 62
     7
100
AcDbVertex
100
AcDb2dVertex
 10
48.94777669023177
 20
-17.4716410246148
 30
0.0
  0
SEQEND
  5
46A
330
467
100
AcDbEntity
  8
BEMA_UNG
  0
POLYLINE
  5
46B
330
1F
100
AcDbEntity
  8
BEMA_UNG
 62
     7
100
AcDb2dPolyline
 66
     1
 10
0.0
 20
0.0
 30
0.0
  0
VERTEX
  5
46C
330
46B
100
AcDbEntity
  8
BEMA_UNG
 62
     7
100
AcDbVertex
100
AcDb2dVertex
 10
48.89713375318973
 20
-16.67272285454349
 30
0.0
  0
VERTEX
  5
46D
330
46B
100
AcDbEntity
  8
BEMA_UNG
 62
     7
100
AcDbVertex
100
AcDb2dVertex
 10
48.89713375318973
 20
-17.85731971861862
 30
0.0
  0
SEQEND
  5
46E
330
46B
100
AcDbEntity
  8
BEMA_UNG
  0
POLYLINE
  5
46F
330
1F
100
AcDbEntity
  8
BEMA_UNG
 62
     7
100
AcDb2dPolyline
 66
     1
 10
0.0
 20
0.0
 30
0.0
  0
VERTEX
  5
470
330
46F
100
AcDbEntity
  8
BEMA_UNG
 62
     7
100
AcDbVertex
100
AcDb2dVertex
 10
48.8464908161477
 20
-16.67272285454349
 30
0.0
  0
VERTEX
  5
471
330
46F
100
AcDbEntity
  8
BEMA_UNG
 62
     7
100
AcDbVertex
100
AcDb2dVertex
 10
48.8464908161477
 20
-18.24334292239822
 30
0.0
  0
SEQEND
  5
472
330
46F
100
AcDbEntity
  8
BEMA_UNG
  0
POLYLINE
  5
473
330
1F
100
AcDbEntity
  8
BEMA_UNG
 62
     7
100
AcDb2dPolyline
 66
     1
 10
0.0
 20
0.0
 30
0.0
  0
VERTEX
  5
474
330
473
100
AcDbEntity
  8
BEMA_UNG
 62
     7
100
AcDbVertex
100
AcDb2dVertex
 10
48.79584787910566
 20
-16.67272285454349
 30
0.0
  0
VERTEX
  5
475
330
473
100
AcDbEntity
  8
BEMA_UNG
 62
     7
100
AcDbVertex
100
AcDb2dVertex
 10
48.79584787910566
 20
-18.62884936151413
 30
0.0
  0
SEQEND
  5
476
330
473
100
AcDbEntity
  8
BEMA_UNG
  0
POLYLINE
  5
477
330
1F
100
AcDbEntity
  8
BEMA_UNG
 62
     7
100
AcDb2dPolyline
 66
     1
 10
0.0
 20
0.0
 30
0.0
  0
VERTEX
  5
478
330
477
100
AcDbEntity
  8
BEMA_UNG
 62
     7
100
AcDbVertex
100
AcDb2dVertex
 10
48.74486043228783
 20
-16.67272285454349
 30
0.0
  0
VERTEX
  5
479
330
477
100
AcDbEntity
  8
BEMA_UNG
 62
     7
100
AcDbVertex
100
AcDb2dVertex
 10
48.74486043228783
 20
-19.01504482018164
 30
0.0
  0
SEQEND
  5
47A
330
477
100
AcDbEntity
  8
BEMA_UNG
  0
POLYLINE
  5
47B
330
1F
100
AcDbEntity
  8
BEMA_UNG
 62
     7
100
AcDb2dPolyline
 66
     1
 10
0.0
 20
0.0
 30
0.0
  0
VERTEX
  5
47C
330
47B
100
AcDbEntity
  8
BEMA_UNG
 62
     7
100
AcDbVertex
100
AcDb2dVertex
 10
48.69421749524579
 20
-16.67272285454349
 30
0.0
  0
VERTEX
  5
47D
330
47B
100
AcDbEntity
  8
BEMA_UNG
 62
     7
100
AcDbVertex
100
AcDb2dVertex
 10
48.69421749524579
 20
-19.40072351418545
 30
0.0
  0
SEQEND
  5
47E
330
47B
100
AcDbEntity
  8
BEMA_UNG
  0
POLYLINE
  5
47F
330
1F
100
AcDbEntity
  8
BEMA_UNG
 62
     7
100
AcDb2dPolyline
 66
     1
 10
0.0
 20
0.0
 30
0.0
  0
VERTEX
  5
480
330
47F
100
AcDbEntity
  8
BEMA_UNG
 62
     7
100
AcDbVertex
100
AcDb2dVertex
 10
48.64323004842796
 20
-16.67272285454349
 30
0.0
  0
VERTEX
  5
481
330
47F
100
AcDbEntity
  8
BEMA_UNG
 62
     7
100
AcDbVertex
100
AcDb2dVertex
 10
48.64323004842796
 20
-19.78709122774086
 30
0.0
  0
SEQEND
  5
482
330
47F
100
AcDbEntity
  8
BEMA_UNG
  0
POLYLINE
  5
483
330
1F
100
AcDbEntity
  8
BEMA_UNG
 62
     7
100
AcDb2dPolyline
 66
     1
 10
0.0
 20
0.0
 30
0.0
  0
VERTEX
  5
484
330
483
100
AcDbEntity
  8
BEMA_UNG
 62
     7
100
AcDbVertex
100
AcDb2dVertex
 10
48.59258711138592
 20
-16.67272285454349
 30
0.0
  0
VERTEX
  5
485
330
483
100
AcDbEntity
  8
BEMA_UNG
 62
     7
100
AcDbVertex
100
AcDb2dVertex
 10
48.59258711138592
 20
-20.17225315708097
 30
0.0
  0
SEQEND
  5
486
330
483
100
AcDbEntity
  8
BEMA_UNG
  0
POLYLINE
  5
487
330
1F
100
AcDbEntity
  8
BEMA_UNG
 62
     7
100
AcDb2dPolyline
 66
     1
 10
0.0
 20
0.0
 30
0.0
  0
VERTEX
  5
488
330
487
100
AcDbEntity
  8
BEMA_UNG
 62
     7
100
AcDbVertex
100
AcDb2dVertex
 10
48.13507812912861
 20
-16.67272285454349
 30
0.0
  0
VERTEX
  5
489
330
487
100
AcDbEntity
  8
BEMA_UNG
 62
     7
100
AcDbVertex
100
AcDb2dVertex
 10
48.13507812912861
 20
-16.69993912683139
 30
0.0
  0
SEQEND
  5
48A
330
487
100
AcDbEntity
  8
BEMA_UNG
  0
POLYLINE
  5
48B
330
1F
100
AcDbEntity
  8
BEMA_UNG
 62
     7
100
AcDb2dPolyline
 66
     1
 10
0.0
 20
0.0
 30
0.0
  0
VERTEX
  5
48C
330
48B
100
AcDbEntity
  8
BEMA_UNG
 62
     7
100
AcDbVertex
100
AcDb2dVertex
 10
48.13507812912861
 20
-16.67272285454349
 30
0.0
  0
VERTEX
  5
48D
330
48B
100
AcDbEntity
  8
BEMA_UNG
 62
     7
100
AcDbVertex
100
AcDb2dVertex
 10
48.13507812912861
 20
-16.69993912683139
 30
0.0
  0
SEQEND
  5
48E
330
48B
100
AcDbEntity
  8
BEMA_UNG
  0
POLYLINE
  5
48F
330
1F
100
AcDbEntity
  8
BEMA_UNG
 62
     7
100
AcDb2dPolyline
 66
     1
 10
0.0
 20
0.0
 30
0.0
  0
VERTEX
  5
490
330
48F
100
AcDbEntity
  8
BEMA_UNG
 62
     7
100
AcDbVertex
100
AcDb2dVertex
 10
48.18572106617064
 20
-16.67272285454349
 30
0.0
  0
VERTEX
  5
491
330
48F
100
AcDbEntity
  8
BEMA_UNG
 62
     7
100
AcDbVertex
100
AcDb2dVertex
 10
48.18572106617064
 20
-17.0854455659473
 30
0.0
  0
SEQEND
  5
492
330
48F
100
AcDbEntity
  8
BEMA_UNG
  0
POLYLINE
  5
493
330
1F
100
AcDbEntity
  8
BEMA_UNG
 62
     7
100
AcDb2dPolyline
 66
     1
 10
0.0
 20
0.0
 30
0.0
  0
VERTEX
  5
494
330
493
100
AcDbEntity
  8
BEMA_UNG
 62
     7
100
AcDbVertex
100
AcDb2dVertex
 10
48.23636400321269
 20
-16.67272285454349
 30
0.0
  0
VERTEX
  5
495
330
493
100
AcDbEntity
  8
BEMA_UNG
 62
     7
100
AcDbVertex
100
AcDb2dVertex
 10
48.23636400321269
 20
-17.4716410246148
 30
0.0
  0
SEQEND
  5
496
330
493
100
AcDbEntity
  8
BEMA_UNG
  0
POLYLINE
  5
497
330
1F
100
AcDbEntity
  8
BEMA_UNG
 62
     7
100
AcDb2dPolyline
 66
     1
 10
0.0
 20
0.0
 30
0.0
  0
VERTEX
  5
498
330
497
100
AcDbEntity
  8
BEMA_UNG
 62
     7
100
AcDbVertex
100
AcDb2dVertex
 10
48.28735145003051
 20
-16.67272285454349
 30
0.0
  0
VERTEX
  5
499
330
497
100
AcDbEntity
  8
BEMA_UNG
 62
     7
100
AcDbVertex
100
AcDb2dVertex
 10
48.28735145003051
 20
-17.85731971861862
 30
0.0
  0
SEQEND
  5
49A
330
497
100
AcDbEntity
  8
BEMA_UNG
  0
POLYLINE
  5
49B
330
1F
100
AcDbEntity
  8
BEMA_UNG
 62
     7
100
AcDb2dPolyline
 66
     1
 10
0.0
 20
0.0
 30
0.0
  0
VERTEX
  5
49C
330
49B
100
AcDbEntity
  8
BEMA_UNG
 62
     7
100
AcDbVertex
100
AcDb2dVertex
 10
48.33833889684835
 20
-16.67272285454349
 30
0.0
  0
VERTEX
  5
49D
330
49B
100
AcDbEntity
  8
BEMA_UNG
 62
     7
100
AcDbVertex
100
AcDb2dVertex
 10
48.33833889684835
 20
-18.24334292239822
 30
0.0
  0
SEQEND
  5
49E
330
49B
100
AcDbEntity
  8
BEMA_UNG
  0
POLYLINE
  5
49F
330
1F
100
AcDbEntity
  8
BEMA_UNG
 62
     7
100
AcDb2dPolyline
 66
     1
 10
0.0
 20
0.0
 30
0.0
  0
VERTEX
  5
4A0
330
49F
100
AcDbEntity
  8
BEMA_UNG
 62
     7
100
AcDbVertex
100
AcDb2dVertex
 10
48.38932634366618
 20
-16.67272285454349
 30
0.0
  0
VERTEX
  5
4A1
330
49F
100
AcDbEntity
  8
BEMA_UNG
 62
     7
100
AcDbVertex
100
AcDb2dVertex
 10
48.38932634366618
 20
-18.62884936151413
 30
0.0
  0
SEQEND
  5
4A2
330
49F
100
AcDbEntity
  8
BEMA_UNG
  0
POLYLINE
  5
4A3
330
1F
100
AcDbEntity
  8
BEMA_UNG
 62
     7
100
AcDb2dPolyline
 66
     1
 10
0.0
 20
0.0
 30
0.0
  0
VERTEX
  5
4A4
330
4A3
100
AcDbEntity
  8
BEMA_UNG
 62
     7
100
AcDbVertex
100
AcDb2dVertex
 10
48.43996928070822
 20
-16.67272285454349
 30
0.0
  0
VERTEX
  5
4A5
330
4A3
100
AcDbEntity
  8
BEMA_UNG
 62
     7
100
AcDbVertex
100
AcDb2dVertex
 10
48.43996928070822
 20
-19.01504482018164
 30
0.0
  0
SEQEND
  5
4A6
330
4A3
100
AcDbEntity
  8
BEMA_UNG
  0
POLYLINE
  5
4A7
330
1F
100
AcDbEntity
  8
BEMA_UNG
 62
     7
100
AcDb2dPolyline
 66
     1
 10
0.0
 20
0.0
 30
0.0
  0
VERTEX
  5
4A8
330
4A7
100
AcDbEntity
  8
BEMA_UNG
 62
     7
100
AcDbVertex
100
AcDb2dVertex
 10
48.49095672752605
 20
-16.67272285454349
 30
0.0
  0
VERTEX
  5
4A9
330
4A7
100
AcDbEntity
  8
BEMA_UNG
 62
     7
100
AcDbVertex
100
AcDb2dVertex
 10
48.49095672752605
 20
-19.40072351418545
 30
0.0
  0
SEQEND
  5
4AA
330
4A7
100
AcDbEntity
  8
BEMA_UNG
  0
POLYLINE
  5
4AB
330
1F
100
AcDbEntity
  8
BEMA_UNG
 62
     7
100
AcDb2dPolyline
 66
     1
 10
0.0
 20
0.0
 30
0.0
  0
VERTEX
  5
4AC
330
4AB
100
AcDbEntity
  8
BEMA_UNG
 62
     7
100
AcDbVertex
100
AcDb2dVertex
 10
48.54159966456809
 20
-16.67272285454349
 30
0.0
  0
VERTEX
  5
4AD
330
4AB
100
AcDbEntity
  8
BEMA_UNG
 62
     7
100
AcDbVertex
100
AcDb2dVertex
 10
48.54159966456809
 20
-19.78709122774086
 30
0.0
  0
SEQEND
  5
4AE
330
4AB
100
AcDbEntity
  8
BEMA_UNG
  0
POLYLINE
  5
4AF
330
1F
100
AcDbEntity
  8
BEMA_UNG
 62
     7
100
AcDb2dPolyline
 66
     1
 10
0.0
 20
0.0
 30
0.0
  0
VERTEX
  5
4B0
330
4AF
100
AcDbEntity
  8
BEMA_UNG
 62
     7
100
AcDbVertex
100
AcDb2dVertex
 10
48.59258711138592
 20
-16.67272285454349
 30
0.0
  0
VERTEX
  5
4B1
330
4AF
100
AcDbEntity
  8
BEMA_UNG
 62
     7
100
AcDbVertex
100
AcDb2dVertex
 10
48.59258711138592
 20
-20.17225315708097
 30
0.0
  0
SEQEND
  5
4B2
330
4AF
100
AcDbEntity
  8
BEMA_UNG
  0
MTEXT
  5
4B4
330
1F
100
AcDbEntity
  8
TEXT
 62
     7
100
AcDbMText
 10
13.26552117191938
 20
10.64018442546467
 30
0.0
 40
2.398890470823883
 41
0.0
 71
     7
 72
     1
  1
\fINDEX Univers 45 Light|b0|i0|c0|p34;\W1;33,5
  0
MTEXT
  5
4B5
330
1F
100
AcDbEntity
  8
TEXT
 62
     7
100
AcDbMText
 10
-11.0067428269118
 20
-11.65614375428758
 30
0.0
 40
2.398890470823883
 41
0.0
 71
     7
 72
     1
  1
\fINDEX Univers 45 Light|b0|i0|c0|p34;\W1;d
 11
-4.371139000186241E-8
 21
0.999999999999999
 31
0.0
  0
MTEXT
  5
4B6
330
1F
100
AcDbEntity
  8
TEXT
 62
     7
100
AcDbMText
 10
47.81675109629295
 20
-13.22417999882384
 30
0.0
 40
2.398890470823883
 41
0.0
 71
     7
 72
     1
  1
\fINDEX Univers 45 Light|b0|i0|c0|p34;\W1;\U+00F820
 11
-4.371139000186241E-8
 21
0.999999999999999
 31
0.0
  0
ENDSEC
  0
SECTION
  2
OBJECTS
  0
DICTIONARY
  5
C
330
0
100
AcDbDictionary
  3
ACAD_GROUP
350
D
  3
ACAD_LAYOUT
350
1A
  3
ACAD_MLINESTYLE
350
17
  3
ACAD_PLOTSETTINGS
350
19
  3
ACAD_TABLESTYLE
350
4D7
  3
ACAD_VISUALSTYLE
350
2A
  3
ACDBHEADERROUNDTRIPXREC
350
4B7
  0
DICTIONARY
  5
D
102
{ACAD_REACTORS
330
C
102
}
330
C
100
AcDbDictionary
  0
DICTIONARY
  5
1A
102
{ACAD_REACTORS
330
C
102
}
330
C
100
AcDbDictionary
  0
DICTIONARY
  5
17
102
{ACAD_REACTORS
330
C
102
}
330
C
100
AcDbDictionary
  3
STANDARD
350
18
  0
DICTIONARY
  5
19
102
{ACAD_REACTORS
330
C
102
}
330
C
100
AcDbDictionary
  0
DICTIONARY
  5
4D7
102
{ACAD_REACTORS
330
C
102
}
330
C
100
AcDbDictionary
  0
DICTIONARY
  5
2A
102
{ACAD_REACTORS
330
C
102
}
330
C
100
AcDbDictionary
  3
2DWIREFRAME
350
2F
  3
3D_HIDDEN
350
31
  3
3DWIREFRAME
350
30
  3
BASIC
350
32
  3
BRIGHTEN
350
36
  3
COLORCHANGE
350
3A
  3
CONCEPTUAL
350
34
  3
DIM
350
35
  3
FACEPATTERN
350
39
  3
FLAT
350
2B
  3
FLATWITHEDGES
350
2C
  3
GOURAUD
350
2D
  3
GOURAUDWITHEDGES
350
2E
  3
LINEPATTERN
350
38
  3
REALISTIC
350
33
  3
THICKEN
350
37
  0
DICTIONARY
  5
4B7
102
{ACAD_REACTORS
330
C
102
}
330
C
100
AcDbDictionary
  3
CEPSNTYPE
350
4C0
  3
DIMSTYLEDATA
350
4D6
  3
FINGERPRINTGUID
350
4C1
  3
HYPERLINKBASE
350
4BA
  3
INSUNITS
350
4BF
  3
LAYOUTDICT
350
4BC
  3
LWETCUNION
350
4BE
  3
PLOTSETDICT
350
4BD
  3
PSVPSCALE
350
4C3
  3
PUCSBASE
350
4C6
  3
PUCSORGBACK
350
4CC
  3
PUCSORGBOTTOM
350
4C8
  3
PUCSORGFRONT
350
4CB
  3
PUCSORGLEFT
350
4C9
  3
PUCSORGRIGHT
350
4CA
  3
PUCSORGTOP
350
4C7
  3
PUCSORTHOREF
350
4C4
  3
PUCSORTHOVIEW
350
4C5
  3
STYLESHEET
350
4BB
  3
TSTACKALIGN
350
4B8
  3
TSTACKSIZE
350
4B9
  3
UCSBASE
350
4CF
  3
UCSORGBACK
350
4D5
  3
UCSORGBOTTOM
350
4D1
  3
UCSORGFRONT
350
4D4
  3
UCSORGLEFT
350
4D2
  3
UCSORGRIGHT
350
4D3
  3
UCSORGTOP
350
4D0
  3
UCSORTHOREF
350
4CD
  3
UCSORTHOVIEW
350
4CE
  3
VERSIONGUID
350
4C2
  0
MLINESTYLE
  5
18
102
{ACAD_REACTORS
330
17
102
}
330
17
100
AcDbMlineStyle
  2
Standard
 70
     0
  3

 62
   256
 51
90.0
 52
90.0
 71
     2
 49
0.5
 62
   256
  6
BYLAYER
 49
-0.5
 62
   256
  6
BYLAYER
  0
VISUALSTYLE
  5
2F
102
{ACAD_REACTORS
330
2A
102
}
330
2A
100
AcDbVisualStyle
  2
2dWireframe
 70
     4
 71
     0
 72
     2
 73
     0
 90
        0
 40
-0.6
 41
-30.0
 62
     5
 63
     7
 74
     1
 91
        4
 64
     7
 65
   257
 75
     1
175
     1
 42
1.0
 92
        0
 66
   257
 43
1.0
 76
     1
 77
     6
 78
     2
 67
     7
 79
     5
170
     0
171
     0
290
     0
174
     0
 93
        1
 44
0.0
173
     0
291
     0
 45
0.0
1001
ACAD
1000
AcDbSavedByObjectVersion
1070
     0
  0
VISUALSTYLE
  5
31
102
{ACAD_REACTORS
330
2A
102
}
330
2A
100
AcDbVisualStyle
  2
3D Hidden
 70
     6
 71
     1
 72
     2
 73
     2
 90
        0
 40
-0.6
 41
-30.0
 62
     5
 63
     7
 74
     2
 91
        2
 64
     7
 65
   257
 75
     2
175
     1
 42
40.0
 92
        0
 66
   257
 43
1.0
 76
     1
 77
     6
 78
     2
 67
     7
 79
     3
170
     0
171
     0
290
     0
174
     0
 93
        1
 44
0.0
173
     0
291
     0
 45
0.0
1001
ACAD
1000
AcDbSavedByObjectVersion
1070
     0
  0
VISUALSTYLE
  5
30
102
{ACAD_REACTORS
330
2A
102
}
330
2A
100
AcDbVisualStyle
  2
3dWireframe
 70
     5
 71
     0
 72
     2
 73
     0
 90
        0
 40
-0.6
 41
-30.0
 62
     5
 63
     7
 74
     1
 91
        4
 64
     7
 65
   257
 75
     1
175
     1
 42
1.0
 92
        0
 66
   257
 43
1.0
 76
     1
 77
     6
 78
     2
 67
     7
 79
     5
170
     0
171
     0
290
     0
174
     0
 93
        1
 44
0.0
173
     0
291
     0
 45
0.0
1001
ACAD
1000
AcDbSavedByObjectVersion
1070
     0
  0
VISUALSTYLE
  5
32
102
{ACAD_REACTORS
330
2A
102
}
330
2A
100
AcDbVisualStyle
  2
Basic
 70
     7
 71
     1
 72
     0
 73
     1
 90
        0
 40
-0.6
 41
-30.0
 62
     5
 63
     7
 74
     0
 91
        4
 64
     7
 65
   257
 75
     1
175
     1
 42
1.0
 92
        8
 66
     7
 43
1.0
 76
     1
 77
     6
 78
     2
 67
     7
 79
     5
170
     0
171
     0
290
     0
174
     0
 93
        1
 44
0.0
173
     0
291
     1
 45
0.0
1001
ACAD
1000
AcDbSavedByObjectVersion
1070
     0
  0
VISUALSTYLE
  5
36
102
{ACAD_REACTORS
330
2A
102
}
330
2A
100
AcDbVisualStyle
  2
Brighten
 70
    12
 71
     2
 72
     2
 73
     0
 90
        0
 40
-0.6
 41
-30.0
 62
     5
 63
     7
 74
     1
 91
        4
 64
     7
 65
   257
 75
     1
175
     1
 42
1.0
 92
        8
 66
     7
 43
1.0
 76
     1
 77
     6
 78
     2
 67
     7
 79
     5
170
     0
171
     0
290
     0
174
     0
 93
        1
 44
50.0
173
     0
291
     1
 45
0.0
1001
ACAD
1000
AcDbSavedByObjectVersion
1070
     0
  0
VISUALSTYLE
  5
3A
102
{ACAD_REACTORS
330
2A
102
}
330
2A
100
AcDbVisualStyle
  2
ColorChange
 70
    16
 71
     2
 72
     2
 73
     3
 90
        0
 40
-0.6
 41
-30.0
 62
     5
 63
     8
 74
     1
 91
        4
 64
     7
 65
   257
 75
     1
175
     1
 42
1.0
 92
        8
 66
     8
 43
1.0
 76
     1
 77
     6
 78
     2
 67
     7
 79
     5
170
     0
171
     0
290
     0
174
     0
 93
        1
 44
0.0
173
     0
291
     1
 45
0.0
1001
ACAD
1000
AcDbSavedByObjectVersion
1070
     0
  0
VISUALSTYLE
  5
34
102
{ACAD_REACTORS
330
2A
102
}
330
2A
100
AcDbVisualStyle
  2
Conceptual
 70
     9
 71
     3
 72
     2
 73
     0
 90
        0
 40
-0.6
 41
-30.0
 62
     5
 63
     7
 74
     2
 91
        2
 64
     7
 65
   257
 75
     1
175
     1
 42
40.0
 92
        8
 66
     7
 43
1.0
 76
     1
 77
     6
 78
     2
 67
     7
 79
     3
170
     0
171
     0
290
     0
174
     0
 93
        1
 44
0.0
173
     0
291
     0
 45
0.0
1001
ACAD
1000
AcDbSavedByObjectVersion
1070
     0
  0
VISUALSTYLE
  5
35
102
{ACAD_REACTORS
330
2A
102
}
330
2A
100
AcDbVisualStyle
  2
Dim
 70
    11
 71
     2
 72
     2
 73
     0
 90
        0
 40
-0.6
 41
-30.0
 62
     5
 63
     7
 74
     1
 91
        4
 64
     7
 65
   257
 75
     1
175
     1
 42
1.0
 92
        8
 66
     7
 43
1.0
 76
     1
 77
     6
 78
     2
 67
     7
 79
     5
170
     0
171
     0
290
     0
174
     0
 93
        1
 44
-50.0
173
     0
291
     1
 45
0.0
1001
ACAD
1000
AcDbSavedByObjectVersion
1070
     0
  0
VISUALSTYLE
  5
39
102
{ACAD_REACTORS
330
2A
102
}
330
2A
100
AcDbVisualStyle
  2
Facepattern
 70
    15
 71
     2
 72
     2
 73
     0
 90
        0
 40
-0.6
 41
-30.0
 62
     5
 63
     7
 74
     1
 91
        4
 64
     7
 65
   257
 75
     1
175
     1
 42
1.0
 92
        8
 66
     7
 43
1.0
 76
     1
 77
     6
 78
     2
 67
     7
 79
     5
170
     0
171
     0
290
     0
174
     0
 93
        1
 44
0.0
173
     0
291
     1
 45
0.0
1001
ACAD
1000
AcDbSavedByObjectVersion
1070
     0
  0
VISUALSTYLE
  5
2B
102
{ACAD_REACTORS
330
2A
102
}
330
2A
100
AcDbVisualStyle
  2
Flat
 70
     0
 71
     2
 72
     1
 73
     1
 90
        2
 40
-0.6
 41
30.0
 62
     5
 63
     7
 74
     0
 91
        4
 64
     7
 65
   257
 75
     1
175
     1
 42
1.0
 92
        8
 66
     7
 43
1.0
 76
     1
 77
     6
 78
     2
 67
     7
 79
     5
170
     0
171
     0
290
     0
174
     0
 93
       13
 44
0.0
173
     0
291
     1
 45
0.0
1001
ACAD
1000
AcDbSavedByObjectVersion
1070
     0
  0
VISUALSTYLE
  5
2C
102
{ACAD_REACTORS
330
2A
102
}
330
2A
100
AcDbVisualStyle
  2
FlatWithEdges
 70
     1
 71
     2
 72
     1
 73
     1
 90
        2
 40
-0.6
 41
30.0
 62
     5
 63
     7
 74
     1
 91
        4
 64
     7
 65
   257
 75
     1
175
     1
 42
1.0
 92
        0
 66
   257
 43
1.0
 76
     1
 77
     6
 78
     2
 67
     7
 79
     5
170
     0
171
     0
290
     0
174
     0
 93
       13
 44
0.0
173
     0
291
     1
 45
0.0
1001
ACAD
1000
AcDbSavedByObjectVersion
1070
     0
  0
VISUALSTYLE
  5
2D
102
{ACAD_REACTORS
330
2A
102
}
330
2A
100
AcDbVisualStyle
  2
Gouraud
 70
     2
 71
     2
 72
     2
 73
     1
 90
        2
 40
-0.6
 41
30.0
 62
     5
 63
     7
 74
     0
 91
        4
 64
     7
 65
   257
 75
     1
175
     1
 42
1.0
 92
        0
 66
     7
 43
1.0
 76
     1
 77
     6
 78
     2
 67
     7
 79
     5
170
     0
171
     0
290
     0
174
     0
 93
       13
 44
0.0
173
     0
291
     1
 45
0.0
1001
ACAD
1000
AcDbSavedByObjectVersion
1070
     0
  0
VISUALSTYLE
  5
2E
102
{ACAD_REACTORS
330
2A
102
}
330
2A
100
AcDbVisualStyle
  2
GouraudWithEdges
 70
     3
 71
     2
 72
     2
 73
     1
 90
        2
 40
-0.6
 41
30.0
 62
     5
 63
     7
 74
     1
 91
        4
 64
     7
 65
   257
 75
     1
175
     1
 42
1.0
 92
        0
 66
   257
 43
1.0
 76
     1
 77
     6
 78
     2
 67
     7
 79
     5
170
     0
171
     0
290
     0
174
     0
 93
       13
 44
0.0
173
     0
291
     1
 45
0.0
1001
ACAD
1000
AcDbSavedByObjectVersion
1070
     0
  0
VISUALSTYLE
  5
38
102
{ACAD_REACTORS
330
2A
102
}
330
2A
100
AcDbVisualStyle
  2
Linepattern
 70
    14
 71
     2
 72
     2
 73
     0
 90
        0
 40
-0.6
 41
-30.0
 62
     5
 63
     7
 74
     1
 91
        4
 64
     7
 65
   257
 75
     7
175
     7
 42
1.0
 92
        8
 66
     7
 43
1.0
 76
     1
 77
     6
 78
     2
 67
     7
 79
     5
170
     0
171
     0
290
     0
174
     0
 93
        1
 44
0.0
173
     0
291
     1
 45
0.0
1001
ACAD
1000
AcDbSavedByObjectVersion
1070
     0
  0
VISUALSTYLE
  5
33
102
{ACAD_REACTORS
330
2A
102
}
330
2A
100
AcDbVisualStyle
  2
Realistic
 70
     8
 71
     2
 72
     2
 73
     0
 90
        0
 40
-0.6
 41
-30.0
 62
     5
 63
     7
 74
     1
 91
        0
 64
     7
 65
   257
 75
     1
175
     1
 42
1.0
 92
        8
 66
     8
 43
1.0
 76
     1
 77
     6
 78
     2
 67
     7
 79
     5
170
     0
171
     0
290
     0
174
     0
 93
       13
 44
0.0
173
     0
291
     0
 45
0.0
1001
ACAD
1000
AcDbSavedByObjectVersion
1070
     0
  0
VISUALSTYLE
  5
37
102
{ACAD_REACTORS
330
2A
102
}
330
2A
100
AcDbVisualStyle
  2
Thicken
 70
    13
 71
     2
 72
     2
 73
     0
 90
        0
 40
-0.6
 41
-30.0
 62
     5
 63
     7
 74
     1
 91
        4
 64
     7
 65
   257
 75
     1
175
     1
 42
1.0
 92
       12
 66
     7
 43
1.0
 76
     1
 77
     6
 78
     2
 67
     7
 79
     5
170
     0
171
     0
290
     0
174
     0
 93
        1
 44
0.0
173
     0
291
     1
 45
0.0
1001
ACAD
1000
AcDbSavedByObjectVersion
1070
     0
  0
XRECORD
  5
4C0
102
{ACAD_REACTORS
330
4B7
102
}
330
4B7
100
AcDbXrecord
 90
        0
  0
XRECORD
  5
4D6
102
{ACAD_REACTORS
330
4B7
102
}
330
4B7
100
AcDbXrecord
1000
DSTYLE
1002
{
1070
   340
340
11
1002
}
  0
XRECORD
  5
4C1
102
{ACAD_REACTORS
330
4B7
102
}
330
4B7
100
AcDbXrecord
  1
{36F7AE61-DDF1-4E4A-BE18-896C5E8EAB60}
  0
XRECORD
  5
4BA
102
{ACAD_REACTORS
330
4B7
102
}
330
4B7
100
AcDbXrecord
  1

  0
XRECORD
  5
4BF
102
{ACAD_REACTORS
330
4B7
102
}
330
4B7
100
AcDbXrecord
 90
        1
  0
XRECORD
  5
4BC
102
{ACAD_REACTORS
330
4B7
102
}
330
4B7
100
AcDbXrecord
340
1A
  0
XRECORD
  5
4BE
102
{ACAD_REACTORS
330
4B7
102
}
330
4B7
100
AcDbXrecord
 90
    10269
  0
XRECORD
  5
4BD
102
{ACAD_REACTORS
330
4B7
102
}
330
4B7
100
AcDbXrecord
340
19
  0
XRECORD
  5
4C3
102
{ACAD_REACTORS
330
4B7
102
}
330
4B7
100
AcDbXrecord
 40
0.0
  0
XRECORD
  5
4C6
102
{ACAD_REACTORS
330
4B7
102
}
330
4B7
100
AcDbXrecord
340
0
  0
XRECORD
  5
4CC
102
{ACAD_REACTORS
330
4B7
102
}
330
4B7
100
AcDbXrecord
 10
0.0
 20
0.0
 30
0.0
  0
XRECORD
  5
4C8
102
{ACAD_REACTORS
330
4B7
102
}
330
4B7
100
AcDbXrecord
 10
0.0
 20
0.0
 30
0.0
  0
XRECORD
  5
4CB
102
{ACAD_REACTORS
330
4B7
102
}
330
4B7
100
AcDbXrecord
 10
0.0
 20
0.0
 30
0.0
  0
XRECORD
  5
4C9
102
{ACAD_REACTORS
330
4B7
102
}
330
4B7
100
AcDbXrecord
 10
0.0
 20
0.0
 30
0.0
  0
XRECORD
  5
4CA
102
{ACAD_REACTORS
330
4B7
102
}
330
4B7
100
AcDbXrecord
 10
0.0
 20
0.0
 30
0.0
  0
XRECORD
  5
4C7
102
{ACAD_REACTORS
330
4B7
102
}
330
4B7
100
AcDbXrecord
 10
0.0
 20
0.0
 30
0.0
  0
XRECORD
  5
4C4
102
{ACAD_REACTORS
330
4B7
102
}
330
4B7
100
AcDbXrecord
340
0
  0
XRECORD
  5
4C5
102
{ACAD_REACTORS
330
4B7
102
}
330
4B7
100
AcDbXrecord
 70
     0
  0
XRECORD
  5
4BB
102
{ACAD_REACTORS
330
4B7
102
}
330
4B7
100
AcDbXrecord
  1

  0
XRECORD
  5
4B8
102
{ACAD_REACTORS
330
4B7
102
}
330
4B7
100
AcDbXrecord
 90
        1
  0
XRECORD
  5
4B9
102
{ACAD_REACTORS
330
4B7
102
}
330
4B7
100
AcDbXrecord
 90
       70
  0
XRECORD
  5
4CF
102
{ACAD_REACTORS
330
4B7
102
}
330
4B7
100
AcDbXrecord
340
0
  0
XRECORD
  5
4D5
102
{ACAD_REACTORS
330
4B7
102
}
330
4B7
100
AcDbXrecord
 10
0.0
 20
0.0
 30
0.0
  0
XRECORD
  5
4D1
102
{ACAD_REACTORS
330
4B7
102
}
330
4B7
100
AcDbXrecord
 10
0.0
 20
0.0
 30
0.0
  0
XRECORD
  5
4D4
102
{ACAD_REACTORS
330
4B7
102
}
330
4B7
100
AcDbXrecord
 10
0.0
 20
0.0
 30
0.0
  0
XRECORD
  5
4D2
102
{ACAD_REACTORS
330
4B7
102
}
330
4B7
100
AcDbXrecord
 10
0.0
 20
0.0
 30
0.0
  0
XRECORD
  5
4D3
102
{ACAD_REACTORS
330
4B7
102
}
330
4B7
100
AcDbXrecord
 10
0.0
 20
0.0
 30
0.0
  0
XRECORD
  5
4D0
102
{ACAD_REACTORS
330
4B7
102
}
330
4B7
100
AcDbXrecord
 10
0.0
 20
0.0
 30
0.0
  0
XRECORD
  5
4CD
102
{ACAD_REACTORS
330
4B7
102
}
330
4B7
100
AcDbXrecord
340
0
  0
XRECORD
  5
4CE
102
{ACAD_REACTORS
330
4B7
102
}
330
4B7
100
AcDbXrecord
 70
     0
  0
XRECORD
  5
4C2
102
{ACAD_REACTORS
330
4B7
102
}
330
4B7
100
AcDbXrecord
  1
{FAEB1C32-E019-11D5-929B-00C0DF256EC4}
  0
ENDSEC
  0
EOF
