  0
SECTION
  2
HEADER
  9
$ACADVER
  1
AC1014
  9
$ACADMAINTVER
 70
     9
  9
$DWGCODEPAGE
  3
ANSI_1252
  9
$INSBASE
 10
0.0
 20
0.0
 30
0.0
  9
$EXTMIN
 10
1.000000000000000E+20
 20
1.000000000000000E+20
 30
1.000000000000000E+20
  9
$EXTMAX
 10
-1.000000000000000E+20
 20
-1.000000000000000E+20
 30
-1.000000000000000E+20
  9
$LIMMIN
 10
0.0
 20
0.0
  9
$LIMMAX
 10
12.0
 20
9.0
  9
$ORTHOMODE
 70
     0
  9
$REGENMODE
 70
     1
  9
$FILLMODE
 70
     1
  9
$QTEXTMODE
 70
     0
  9
$MIRRTEXT
 70
     1
  9
$DRAGMODE
 70
     2
  9
$LTSCALE
 40
1.0
  9
$OSMODE
 70
    37
  9
$ATTMODE
 70
     1
  9
$TEXTSIZE
 40
0.2
  9
$TRACEWID
 40
0.05
  9
$TEXTSTYLE
  7
STANDARD
  9
$CLAYER
  8
0
  9
$CELTYPE
  6
BYLAYER
  9
$CECOLOR
 62
   256
  9
$CELTSCALE
 40
1.0
  9
$DELOBJ
 70
     1
  9
$DISPSILH
 70
     0
  9
$DIMSCALE
 40
1.0
  9
$DIMASZ
 40
0.18
  9
$DIMEXO
 40
0.0625
  9
$DIMDLI
 40
0.38
  9
$DIMRND
 40
0.0
  9
$DIMDLE
 40
0.0
  9
$DIMEXE
 40
0.18
  9
$DIMTP
 40
0.0
  9
$DIMTM
 40
0.0
  9
$DIMTXT
 40
0.18
  9
$DIMCEN
 40
0.09
  9
$DIMTSZ
 40
0.0
  9
$DIMTOL
 70
     0
  9
$DIMLIM
 70
     0
  9
$DIMTIH
 70
     1
  9
$DIMTOH
 70
     1
  9
$DIMSE1
 70
     0
  9
$DIMSE2
 70
     0
  9
$DIMTAD
 70
     0
  9
$DIMZIN
 70
     0
  9
$DIMBLK
  1

  9
$DIMASO
 70
     1
  9
$DIMSHO
 70
     1
  9
$DIMPOST
  1

  9
$DIMAPOST
  1

  9
$DIMALT
 70
     0
  9
$DIMALTD
 70
     2
  9
$DIMALTF
 40
25.4
  9
$DIMLFAC
 40
1.0
  9
$DIMTOFL
 70
     0
  9
$DIMTVP
 40
0.0
  9
$DIMTIX
 70
     0
  9
$DIMSOXD
 70
     0
  9
$DIMSAH
 70
     0
  9
$DIMBLK1
  1

  9
$DIMBLK2
  1

  9
$DIMSTYLE
  2
STANDARD
  9
$DIMCLRD
 70
     0
  9
$DIMCLRE
 70
     0
  9
$DIMCLRT
 70
     0
  9
$DIMTFAC
 40
1.0
  9
$DIMGAP
 40
0.09
  9
$DIMJUST
 70
     0
  9
$DIMSD1
 70
     0
  9
$DIMSD2
 70
     0
  9
$DIMTOLJ
 70
     1
  9
$DIMTZIN
 70
     0
  9
$DIMALTZ
 70
     0
  9
$DIMALTTZ
 70
     0
  9
$DIMFIT
 70
     3
  9
$DIMUPT
 70
     0
  9
$DIMUNIT
 70
     2
  9
$DIMDEC
 70
     4
  9
$DIMTDEC
 70
     4
  9
$DIMALTU
 70
     2
  9
$DIMALTTD
 70
     2
  9
$DIMTXSTY
  7
STANDARD
  9
$DIMAUNIT
 70
     0
  9
$LUNITS
 70
     2
  9
$LUPREC
 70
     4
  9
$SKETCHINC
 40
0.1
  9
$FILLETRAD
 40
0.5
  9
$AUNITS
 70
     0
  9
$AUPREC
 70
     0
  9
$MENU
  1
.
  9
$ELEVATION
 40
0.0
  9
$PELEVATION
 40
0.0
  9
$THICKNESS
 40
0.0
  9
$LIMCHECK
 70
     0
  9
$CHAMFERA
 40
0.5
  9
$CHAMFERB
 40
0.5
  9
$CHAMFERC
 40
1.0
  9
$CHAMFERD
 40
0.0
  9
$SKPOLY
 70
     0
  9
$TDCREATE
 40
2457224.403665787
  9
$TDUPDATE
 40
2457224.403665799
  9
$TDINDWG
 40
0.0000000116
  9
$TDUSRTIMER
 40
0.0000000116
  9
$USRTIMER
 70
     1
  9
$ANGBASE
 50
0.0
  9
$ANGDIR
 70
     0
  9
$PDMODE
 70
     0
  9
$PDSIZE
 40
0.0
  9
$PLINEWID
 40
0.0
  9
$COORDS
 70
     1
  9
$SPLFRAME
 70
     0
  9
$SPLINETYPE
 70
     6
  9
$SPLINESEGS
 70
     8
  9
$ATTDIA
 70
     0
  9
$ATTREQ
 70
     1
  9
$HANDLING
 70
     1
  9
$HANDSEED
  5
79C
  9
$SURFTAB1
 70
     6
  9
$SURFTAB2
 70
     6
  9
$SURFTYPE
 70
     6
  9
$SURFU
 70
     6
  9
$SURFV
 70
     6
  9
$UCSNAME
  2

  9
$UCSORG
 10
0.0
 20
0.0
 30
0.0
  9
$UCSXDIR
 10
1.0
 20
0.0
 30
0.0
  9
$UCSYDIR
 10
0.0
 20
1.0
 30
0.0
  9
$PUCSNAME
  2

  9
$PUCSORG
 10
0.0
 20
0.0
 30
0.0
  9
$PUCSXDIR
 10
1.0
 20
0.0
 30
0.0
  9
$PUCSYDIR
 10
0.0
 20
1.0
 30
0.0
  9
$USERI1
 70
     0
  9
$USERI2
 70
     0
  9
$USERI3
 70
     0
  9
$USERI4
 70
     0
  9
$USERI5
 70
     0
  9
$USERR1
 40
0.0
  9
$USERR2
 40
0.0
  9
$USERR3
 40
0.0
  9
$USERR4
 40
0.0
  9
$USERR5
 40
0.0
  9
$WORLDVIEW
 70
     1
  9
$SHADEDGE
 70
     3
  9
$SHADEDIF
 70
    70
  9
$TILEMODE
 70
     1
  9
$MAXACTVP
 70
    64
  9
$PINSBASE
 10
0.0
 20
0.0
 30
0.0
  9
$PLIMCHECK
 70
     0
  9
$PEXTMIN
 10
1.000000000000000E+20
 20
1.000000000000000E+20
 30
1.000000000000000E+20
  9
$PEXTMAX
 10
-1.000000000000000E+20
 20
-1.000000000000000E+20
 30
-1.000000000000000E+20
  9
$PLIMMIN
 10
0.0
 20
0.0
  9
$PLIMMAX
 10
12.0
 20
9.0
  9
$UNITMODE
 70
     0
  9
$VISRETAIN
 70
     1
  9
$PLINEGEN
 70
     0
  9
$PSLTSCALE
 70
     1
  9
$TREEDEPTH
 70
  3020
  9
$PICKSTYLE
 70
     1
  9
$CMLSTYLE
  2
STANDARD
  9
$CMLJUST
 70
     0
  9
$CMLSCALE
 40
1.0
  9
$PROXYGRAPHICS
 70
     1
  9
$MEASUREMENT
 70
     0
  0
ENDSEC
  0
SECTION
  2
CLASSES
  0
CLASS
  1
ACDBDICTIONARYWDFLT
  2
AcDbDictionaryWithDefault
  3
ObjectDBX Classes
 90
        0
280
     0
281
     0
  0
CLASS
  1
VISUALSTYLE
  2
AcDbVisualStyle
  3
ObjectDBX Classes
 90
     4095
280
     0
281
     0
  0
CLASS
  1
XRECORD
  2
AcDbXrecord
  3
AutoCAD 2000
 90
        0
280
     0
281
     0
  0
CLASS
  1
LWPOLYLINE
  2
AcDbPolyline
  3
AutoCAD 2000
 90
        0
280
     0
281
     1
  0
CLASS
  1
HATCH
  2
AcDbHatch
  3
AutoCAD 2000
 90
        0
280
     0
281
     1
  0
CLASS
  1
ACDBPLACEHOLDER
  2
AcDbPlaceHolder
  3
ObjectDBX Classes
 90
        0
280
     0
281
     0
  0
CLASS
  1
LAYOUT
  2
AcDbLayout
  3
ObjectDBX Classes
 90
        0
280
     0
281
     0
  0
ENDSEC
  0
SECTION
  2
TABLES
  0
TABLE
  2
VPORT
  5
8
330
0
100
AcDbSymbolTable
 70
     1
  0
VPORT
  5
29
330
8
100
AcDbSymbolTableRecord
100
AcDbViewportTableRecord
  2
*ACTIVE
 70
     0
 10
0.0
 20
0.0
 11
1.0
 21
1.0
 12
0.0
 22
0.0
 13
0.0
 23
0.0
 14
0.5
 24
0.5
 15
0.5
 25
0.5
 16
0.0
 26
0.0
 36
1.0
 17
20.5051222008199
 27
149.7045572542405
 37
0.0
 40
77.77854273229147
 41
1.178665078001116
 42
50.0
 43
0.0
 44
0.0
 50
0.0
 51
0.0
 71
     0
 72
   100
 73
     1
 74
     3
 75
     0
 76
     0
 77
     0
 78
     0
  0
ENDTAB
  0
TABLE
  2
LTYPE
  5
5
330
0
100
AcDbSymbolTable
 70
     5
  0
LTYPE
  5
14
330
5
100
AcDbSymbolTableRecord
100
AcDbLinetypeTableRecord
  2
BYBLOCK
 70
     0
  3

 72
    65
 73
     0
 40
0.0
  0
LTYPE
  5
15
330
5
100
AcDbSymbolTableRecord
100
AcDbLinetypeTableRecord
  2
BYLAYER
 70
     0
  3

 72
    65
 73
     0
 40
0.0
  0
LTYPE
  5
16
330
5
100
AcDbSymbolTableRecord
100
AcDbLinetypeTableRecord
  2
CONTINUOUS
 70
     0
  3
Solid line
 72
    65
 73
     0
 40
0.0
  0
LTYPE
  5
136
330
5
100
AcDbSymbolTableRecord
100
AcDbLinetypeTableRecord
  2
AI-LINETYPE-1
 70
     0
  3
Adobe Illustrator Linetype No. 1
 72
    65
 73
     4
 40
8.819444442239584
 49
7.055555553791667
 74
     0
 49
-0.7055555553791667
 74
     0
 49
0.3527777776895833
 74
     0
 49
-0.7055555553791667
 74
     0
  0
LTYPE
  5
13B
330
5
100
AcDbSymbolTableRecord
100
AcDbLinetypeTableRecord
  2
AI-LINETYPE-2
 70
     0
  3
Adobe Illustrator Linetype No. 2
 72
    65
 73
     4
 40
8.819444442239584
 49
7.055555553791667
 74
     0
 49
-0.7055555553791667
 74
     0
 49
0.3527777776895833
 74
     0
 49
-0.7055555553791667
 74
     0
  0
LTYPE
  5
140
330
5
100
AcDbSymbolTableRecord
100
AcDbLinetypeTableRecord
  2
AI-LINETYPE-3
 70
     0
  3
Adobe Illustrator Linetype No. 3
 72
    65
 73
     4
 40
8.819444442239584
 49
7.055555553791667
 74
     0
 49
-0.7055555553791667
 74
     0
 49
0.3527777776895833
 74
     0
 49
-0.7055555553791667
 74
     0
  0
LTYPE
  5
145
330
5
100
AcDbSymbolTableRecord
100
AcDbLinetypeTableRecord
  2
AI-LINETYPE-4
 70
     0
  3
Adobe Illustrator Linetype No. 4
 72
    65
 73
     4
 40
8.819444442239584
 49
7.055555553791667
 74
     0
 49
-0.7055555553791667
 74
     0
 49
0.3527777776895833
 74
     0
 49
-0.7055555553791667
 74
     0
  0
ENDTAB
  0
TABLE
  2
LAYER
  5
2
330
0
100
AcDbSymbolTable
 70
     5
  0
LAYER
  5
10
330
2
100
AcDbSymbolTableRecord
100
AcDbLayerTableRecord
  2
0
 70
     0
 62
     7
  6
CONTINUOUS
  0
LAYER
  5
3B
330
2
100
AcDbSymbolTableRecord
100
AcDbLayerTableRecord
  2
GRAU_10_
 70
     1
 62
     7
  6
CONTINUOUS
  0
LAYER
  5
42
330
2
100
AcDbSymbolTableRecord
100
AcDbLayerTableRecord
  2
STANDARDEBENE
 70
     0
 62
     7
  6
CONTINUOUS
  0
LAYER
  5
327
330
2
100
AcDbSymbolTableRecord
100
AcDbLayerTableRecord
  2
BEMAßUNG
 70
     1
 62
     7
  6
CONTINUOUS
  0
LAYER
  5
774
330
2
100
AcDbSymbolTableRecord
100
AcDbLayerTableRecord
  2
TEXT
 70
     1
 62
     7
  6
CONTINUOUS
  0
ENDTAB
  0
TABLE
  2
STYLE
  5
3
330
0
100
AcDbSymbolTable
 70
     1
  0
STYLE
  5
11
330
3
100
AcDbSymbolTableRecord
100
AcDbTextStyleTableRecord
  2
STANDARD
 70
     0
 40
0.0
 41
1.0
 50
0.0
 71
     0
 42
0.2
  3
txt
  4

  0
ENDTAB
  0
TABLE
  2
VIEW
  5
6
330
0
100
AcDbSymbolTable
 70
     0
  0
ENDTAB
  0
TABLE
  2
UCS
  5
7
330
0
100
AcDbSymbolTable
 70
     0
  0
ENDTAB
  0
TABLE
  2
APPID
  5
9
330
0
100
AcDbSymbolTable
 70
     1
  0
APPID
  5
12
330
9
100
AcDbSymbolTableRecord
100
AcDbRegAppTableRecord
  2
ACAD
 70
     0
  0
ENDTAB
  0
TABLE
  2
DIMSTYLE
  5
A
330
0
100
AcDbSymbolTable
 70
     1
  0
DIMSTYLE
105
27
330
A
100
AcDbSymbolTableRecord
100
AcDbDimStyleTableRecord
  2
STANDARD
 70
     0
  3

  4

  5

  6

  7

 40
1.0
 41
0.18
 42
0.0625
 43
0.38
 44
0.18
 45
0.0
 46
0.0
 47
0.0
 48
0.0
140
0.18
141
0.09
142
0.0
143
25.4
144
1.0
145
0.0
146
1.0
147
0.09
 71
     0
 72
     0
 73
     1
 74
     1
 75
     0
 76
     0
 77
     0
 78
     0
170
     0
171
     2
172
     0
173
     0
174
     0
175
     0
176
     0
177
     0
178
     0
270
     2
271
     4
272
     4
273
     2
274
     2
340
11
275
     0
280
     0
281
     0
282
     0
283
     1
284
     0
285
     0
286
     0
287
     3
288
     0
  0
ENDTAB
  0
TABLE
  2
BLOCK_RECORD
  5
1
330
0
100
AcDbSymbolTable
 70
     1
  0
BLOCK_RECORD
  5
1F
330
1
100
AcDbSymbolTableRecord
100
AcDbBlockTableRecord
  2
*MODEL_SPACE
  0
BLOCK_RECORD
  5
1B
330
1
100
AcDbSymbolTableRecord
100
AcDbBlockTableRecord
  2
*PAPER_SPACE
  0
ENDTAB
  0
ENDSEC
  0
SECTION
  2
BLOCKS
  0
BLOCK
  5
20
330
1F
100
AcDbEntity
  8
0
100
AcDbBlockBegin
  2
*MODEL_SPACE
 70
     0
 71
     0
 10
0.0
 20
0.0
 30
0.0
  3
*MODEL_SPACE
  1

  0
ENDBLK
  5
21
330
1F
100
AcDbEntity
  8
0
100
AcDbBlockEnd
  0
BLOCK
  5
1C
330
1B
100
AcDbEntity
 67
     1
  8
0
100
AcDbBlockBegin
  2
*PAPER_SPACE
 70
     0
 71
     0
 10
0.0
 20
0.0
 30
0.0
  3
*PAPER_SPACE
  1

  0
ENDBLK
  5
1D
330
1B
100
AcDbEntity
 67
     1
  8
0
100
AcDbBlockEnd
  0
ENDSEC
  0
SECTION
  2
ENTITIES
  0
SPLINE
  5
3C
330
1F
100
AcDbEntity
  8
GRAU_10_
100
AcDbSpline
210
0.0
220
0.0
230
1.0
 70
    11
 71
     3
 72
    17
 73
    13
 74
     0
 42
0.0000000001
 43
0.0000000001
 40
0.0
 40
0.0
 40
0.0
 40
0.0
 40
1.0
 40
1.0
 40
1.0
 40
2.0
 40
2.0
 40
2.0
 40
3.0
 40
3.0
 40
3.0
 40
4.0
 40
4.0
 40
4.0
 40
4.0
 10
101.8239311811412
 20
176.0802082893133
 30
0.0
 10
101.8239311811412
 20
188.1208170102615
 30
0.0
 10
92.06311439755714
 20
197.8818060486198
 30
0.0
 10
80.02250567660896
 20
197.8818060486198
 30
0.0
 10
67.98189695566077
 20
197.8818060486198
 30
0.0
 10
58.22125242685094
 20
188.1208170102615
 30
0.0
 10
58.22125242685094
 20
176.0802082893133
 30
0.0
 10
58.22125242685094
 20
164.0395995683651
 30
0.0
 10
67.98189695566077
 20
154.2789550395553
 30
0.0
 10
80.02250567660896
 20
154.2789550395553
 30
0.0
 10
92.06311439755714
 20
154.2789550395553
 30
0.0
 10
101.8239311811412
 20
164.0395995683651
 30
0.0
 10
101.8239311811412
 20
176.0802082893133
 30
0.0
  0
HATCH
  5
3D
330
1F
100
AcDbEntity
  8
GRAU_10_
 62
   255
100
AcDbHatch
 10
0.0
 20
0.0
 30
0.0
210
0.0
220
0.0
230
1.0
  2
SOLID
 70
     1
 71
     0
 91
        1
 92
        1
 93
        1
 72
     4
 94
        3
 73
     0
 74
     1
 95
       17
 96
       13
 40
0.0
 40
0.0
 40
0.0
 40
0.0
 40
1.0
 40
1.0
 40
1.0
 40
2.0
 40
2.0
 40
2.0
 40
3.0
 40
3.0
 40
3.0
 40
4.0
 40
4.0
 40
4.0
 40
4.0
 10
101.8239311811412
 20
176.0802082893133
 10
101.8239311811412
 20
188.1208170102615
 10
92.06311439755714
 20
197.8818060486198
 10
80.02250567660896
 20
197.8818060486198
 10
67.98189695566077
 20
197.8818060486198
 10
58.22125242685094
 20
188.1208170102615
 10
58.22125242685094
 20
176.0802082893133
 10
58.22125242685094
 20
164.0395995683651
 10
67.98189695566077
 20
154.2789550395553
 10
80.02250567660896
 20
154.2789550395553
 10
92.06311439755714
 20
154.2789550395553
 10
101.8239311811412
 20
164.0395995683651
 10
101.8239311811412
 20
176.0802082893133
 97
        0
 75
     0
 76
     1
 98
        0
  0
SPLINE
  5
3E
330
1F
100
AcDbEntity
  8
GRAU_10_
100
AcDbSpline
210
0.0
220
0.0
230
1.0
 70
    11
 71
     3
 72
    47
 73
    43
 74
     0
 42
0.0000000001
 43
0.0000000001
 40
0.0
 40
0.0
 40
0.0
 40
0.0
 40
1.0
 40
1.0
 40
1.0
 40
2.0
 40
2.0
 40
2.0
 40
3.0
 40
3.0
 40
3.0
 40
4.0
 40
4.0
 40
4.0
 40
5.0
 40
5.0
 40
5.0
 40
6.0
 40
6.0
 40
6.0
 40
7.0
 40
7.0
 40
7.0
 40
8.0
 40
8.0
 40
8.0
 40
9.0
 40
9.0
 40
9.0
 40
10.0
 40
10.0
 40
10.0
 40
11.0
 40
11.0
 40
11.0
 40
12.0
 40
12.0
 40
12.0
 40
13.0
 40
13.0
 40
13.0
 40
14.0
 40
14.0
 40
14.0
 40
14.0
 10
-47.28169622298861
 20
185.5287271671595
 30
0.0
 10
-47.28169622298861
 20
185.5287271671595
 30
0.0
 10
-38.81744112527828
 20
197.5776041172723
 30
0.0
 10
-38.81744112527828
 20
197.5776041172723
 30
0.0
 10
-38.81744112527828
 20
197.5776041172723
 30
0.0
 10
-11.33384738214918
 20
197.7767306363197
 30
0.0
 10
-11.33384738214918
 20
197.7767306363197
 30
0.0
 10
-11.33384738214918
 20
197.7767306363197
 30
0.0
 10
-11.43375515122142
 20
192.0013725648469
 30
0.0
 10
-11.43375515122142
 20
192.0013725648469
 30
0.0
 10
-11.43375515122142
 20
192.0013725648469
 30
0.0
 10
-5.259799532105189
 20
191.9014647957746
 30
0.0
 10
-5.259799532105189
 20
191.9014647957746
 30
0.0
 10
-5.259799532105189
 20
191.9014647957746
 30
0.0
 10
-5.160236272581469
 20
186.9222682909431
 30
0.0
 10
-5.160236272581469
 20
186.9222682909431
 30
0.0
 10
-5.160236272581469
 20
186.9222682909431
 30
0.0
 10
13.41123995975483
 20
186.6731878873595
 30
0.0
 10
13.41123995975483
 20
186.6731878873595
 30
0.0
 10
13.41123995975483
 20
186.6731878873595
 30
0.0
 10
13.65997585378987
 20
165.4135036478827
 30
0.0
 10
13.65997585378987
 20
165.4135036478827
 30
0.0
 10
13.65997585378987
 20
165.4135036478827
 30
0.0
 10
-5.45892605115263
 20
164.8161240907404
 30
0.0
 10
-5.45892605115263
 20
164.8161240907404
 30
0.0
 10
-5.45892605115263
 20
164.8161240907404
 30
0.0
 10
-5.508535426140227
 20
160.13561736448
 30
0.0
 10
-5.508535426140227
 20
160.13561736448
 30
0.0
 10
-5.508535426140227
 20
160.13561736448
 30
0.0
 10
-11.58292778573274
 20
159.9364908454326
 30
0.0
 10
-11.58292778573274
 20
159.9364908454326
 30
0.0
 10
-11.58292778573274
 20
159.9364908454326
 30
0.0
 10
-11.33384738214918
 20
154.1111788894236
 30
0.0
 10
-11.33384738214918
 20
154.1111788894236
 30
0.0
 10
-11.33384738214918
 20
154.1111788894236
 30
0.0
 10
-38.71787786575456
 20
154.0116156298999
 30
0.0
 10
-38.76783175029068
 20
154.1611327739597
 30
0.0
 10
-38.81744112527828
 20
154.310305408471
 30
0.0
 10
-47.28169622298861
 20
166.1604003490849
 30
0.0
 10
-47.28169622298861
 20
166.4590901276561
 30
0.0
 10
-47.28169622298861
 20
166.7577799062272
 30
0.0
 10
-47.28169622298861
 20
185.5287271671595
 30
0.0
 10
-47.28169622298861
 20
185.5287271671595
 30
0.0
  0
HATCH
  5
3F
330
1F
100
AcDbEntity
  8
GRAU_10_
 62
   255
100
AcDbHatch
 10
0.0
 20
0.0
 30
0.0
210
0.0
220
0.0
230
1.0
  2
SOLID
 70
     1
 71
     0
 91
        1
 92
        1
 93
        1
 72
     4
 94
        3
 73
     0
 74
     1
 95
       47
 96
       43
 40
0.0
 40
0.0
 40
0.0
 40
0.0
 40
1.0
 40
1.0
 40
1.0
 40
2.0
 40
2.0
 40
2.0
 40
3.0
 40
3.0
 40
3.0
 40
4.0
 40
4.0
 40
4.0
 40
5.0
 40
5.0
 40
5.0
 40
6.0
 40
6.0
 40
6.0
 40
7.0
 40
7.0
 40
7.0
 40
8.0
 40
8.0
 40
8.0
 40
9.0
 40
9.0
 40
9.0
 40
10.0
 40
10.0
 40
10.0
 40
11.0
 40
11.0
 40
11.0
 40
12.0
 40
12.0
 40
12.0
 40
13.0
 40
13.0
 40
13.0
 40
14.0
 40
14.0
 40
14.0
 40
14.0
 10
-47.28169622298861
 20
185.5287271671595
 10
-47.28169622298861
 20
185.5287271671595
 10
-38.81744112527828
 20
197.5776041172723
 10
-38.81744112527828
 20
197.5776041172723
 10
-38.81744112527828
 20
197.5776041172723
 10
-11.33384738214918
 20
197.7767306363197
 10
-11.33384738214918
 20
197.7767306363197
 10
-11.33384738214918
 20
197.7767306363197
 10
-11.43375515122142
 20
192.0013725648469
 10
-11.43375515122142
 20
192.0013725648469
 10
-11.43375515122142
 20
192.0013725648469
 10
-5.259799532105189
 20
191.9014647957746
 10
-5.259799532105189
 20
191.9014647957746
 10
-5.259799532105189
 20
191.9014647957746
 10
-5.160236272581469
 20
186.9222682909431
 10
-5.160236272581469
 20
186.9222682909431
 10
-5.160236272581469
 20
186.9222682909431
 10
13.41123995975483
 20
186.6731878873595
 10
13.41123995975483
 20
186.6731878873595
 10
13.41123995975483
 20
186.6731878873595
 10
13.65997585378987
 20
165.4135036478827
 10
13.65997585378987
 20
165.4135036478827
 10
13.65997585378987
 20
165.4135036478827
 10
-5.45892605115263
 20
164.8161240907404
 10
-5.45892605115263
 20
164.8161240907404
 10
-5.45892605115263
 20
164.8161240907404
 10
-5.508535426140227
 20
160.13561736448
 10
-5.508535426140227
 20
160.13561736448
 10
-5.508535426140227
 20
160.13561736448
 10
-11.58292778573274
 20
159.9364908454326
 10
-11.58292778573274
 20
159.9364908454326
 10
-11.58292778573274
 20
159.9364908454326
 10
-11.33384738214918
 20
154.1111788894236
 10
-11.33384738214918
 20
154.1111788894236
 10
-11.33384738214918
 20
154.1111788894236
 10
-38.71787786575456
 20
154.0116156298999
 10
-38.76783175029068
 20
154.1611327739597
 10
-38.81744112527828
 20
154.310305408471
 10
-47.28169622298861
 20
166.1604003490849
 10
-47.28169622298861
 20
166.4590901276561
 10
-47.28169622298861
 20
166.7577799062272
 10
-47.28169622298861
 20
185.5287271671595
 10
-47.28169622298861
 20
185.5287271671595
 97
        0
 75
     0
 76
     1
 98
        0
  0
SPLINE
  5
40
330
1F
100
AcDbEntity
  8
GRAU_10_
100
AcDbSpline
210
0.0
220
0.0
230
1.0
 70
    11
 71
     3
 72
    53
 73
    49
 74
     0
 42
0.0000000001
 43
0.0000000001
 40
0.0
 40
0.0
 40
0.0
 40
0.0
 40
1.0
 40
1.0
 40
1.0
 40
2.0
 40
2.0
 40
2.0
 40
3.0
 40
3.0
 40
3.0
 40
4.0
 40
4.0
 40
4.0
 40
5.0
 40
5.0
 40
5.0
 40
6.0
 40
6.0
 40
6.0
 40
7.0
 40
7.0
 40
7.0
 40
8.0
 40
8.0
 40
8.0
 40
9.0
 40
9.0
 40
9.0
 40
10.0
 40
10.0
 40
10.0
 40
11.0
 40
11.0
 40
11.0
 40
12.0
 40
12.0
 40
12.0
 40
13.0
 40
13.0
 40
13.0
 40
14.0
 40
14.0
 40
14.0
 40
15.0
 40
15.0
 40
15.0
 40
16.0
 40
16.0
 40
16.0
 40
16.0
 10
-47.46049667867307
 20
112.1047851282238
 30
0.0
 10
-47.46049667867307
 20
112.1047851282238
 30
0.0
 10
-38.85154757058226
 20
124.3214382284683
 30
0.0
 10
-38.85154757058226
 20
124.3214382284683
 30
0.0
 10
-38.85154757058226
 20
124.3214382284683
 30
0.0
 10
-11.35830756009445
 20
124.3676025079706
 30
0.0
 10
-11.35830756009445
 20
124.3676025079706
 30
0.0
 10
-11.35830756009445
 20
124.3676025079706
 30
0.0
 10
-11.31283229968915
 20
118.6129150094093
 30
0.0
 10
-11.31283229968915
 20
118.6129150094093
 30
0.0
 10
-11.31283229968915
 20
118.6129150094093
 30
0.0
 10
-5.375554740409584
 20
118.567439749004
 30
0.0
 10
-5.375554740409584
 20
118.567439749004
 30
0.0
 10
-5.375554740409584
 20
118.567439749004
 30
0.0
 10
-5.284259710050463
 20
112.9722601714097
 30
0.0
 10
-5.284259710050463
 20
112.9722601714097
 30
0.0
 10
-5.284259710050463
 20
112.9722601714097
 30
0.0
 10
9.26093342867435
 20
112.6525553103785
 30
0.0
 10
9.26093342867435
 20
112.6525553103785
 30
0.0
 10
9.26093342867435
 20
112.6525553103785
 30
0.0
 10
10.01506483039554
 20
112.3783257097526
 30
0.0
 10
10.22039252131643
 20
112.3783257097526
 30
0.0
 10
10.42572021223732
 20
112.3783257097526
 30
0.0
 10
13.69098171315712
 20
112.4010633399553
 30
0.0
 10
13.69098171315712
 20
112.4010633399553
 30
0.0
 10
13.69098171315712
 20
112.4010633399553
 30
0.0
 10
13.82844102301858
 20
91.18650985133532
 30
0.0
 10
13.73680148311094
 20
91.18650985133532
 30
0.0
 10
13.64585096230034
 20
91.18650985133532
 30
0.0
 10
-5.261866589396339
 20
90.7985920996962
 30
0.0
 10
-5.261866589396339
 20
90.7985920996962
 30
0.0
 10
-5.261866589396339
 20
90.7985920996962
 30
0.0
 10
-5.353161619755459
 20
86.59695364588549
 30
0.0
 10
-5.353161619755459
 20
86.59695364588549
 30
0.0
 10
-5.353161619755459
 20
86.59695364588549
 30
0.0
 10
-11.26735703928385
 20
86.59695364588549
 30
0.0
 10
-11.26735703928385
 20
86.59695364588549
 30
0.0
 10
-11.26735703928385
 20
86.59695364588549
 30
0.0
 10
-11.35830756009445
 20
80.53048500590904
 30
0.0
 10
-11.35830756009445
 20
80.53048500590904
 30
0.0
 10
-11.35830756009445
 20
80.53048500590904
 30
0.0
 10
-38.62348224945872
 20
80.53048500590904
 30
0.0
 10
-38.62348224945872
 20
80.53048500590904
 30
0.0
 10
-38.62348224945872
 20
80.53048500590904
 30
0.0
 10
-47.39228378806513
 20
92.96727970766096
 30
0.0
 10
-47.39228378806513
 20
92.96727970766096
 30
0.0
 10
-47.39228378806513
 20
92.96727970766096
 30
0.0
 10
-47.46049667867307
 20
112.1047851282238
 30
0.0
 10
-47.46049667867307
 20
112.1047851282238
 30
0.0
  0
HATCH
  5
41
330
1F
100
AcDbEntity
  8
GRAU_10_
 62
   255
100
AcDbHatch
 10
0.0
 20
0.0
 30
0.0
210
0.0
220
0.0
230
1.0
  2
SOLID
 70
     1
 71
     0
 91
        1
 92
        1
 93
        1
 72
     4
 94
        3
 73
     0
 74
     1
 95
       53
 96
       49
 40
0.0
 40
0.0
 40
0.0
 40
0.0
 40
1.0
 40
1.0
 40
1.0
 40
2.0
 40
2.0
 40
2.0
 40
3.0
 40
3.0
 40
3.0
 40
4.0
 40
4.0
 40
4.0
 40
5.0
 40
5.0
 40
5.0
 40
6.0
 40
6.0
 40
6.0
 40
7.0
 40
7.0
 40
7.0
 40
8.0
 40
8.0
 40
8.0
 40
9.0
 40
9.0
 40
9.0
 40
10.0
 40
10.0
 40
10.0
 40
11.0
 40
11.0
 40
11.0
 40
12.0
 40
12.0
 40
12.0
 40
13.0
 40
13.0
 40
13.0
 40
14.0
 40
14.0
 40
14.0
 40
15.0
 40
15.0
 40
15.0
 40
16.0
 40
16.0
 40
16.0
 40
16.0
 10
-47.46049667867307
 20
112.1047851282238
 10
-47.46049667867307
 20
112.1047851282238
 10
-38.85154757058226
 20
124.3214382284683
 10
-38.85154757058226
 20
124.3214382284683
 10
-38.85154757058226
 20
124.3214382284683
 10
-11.35830756009445
 20
124.3676025079706
 10
-11.35830756009445
 20
124.3676025079706
 10
-11.35830756009445
 20
124.3676025079706
 10
-11.31283229968915
 20
118.6129150094093
 10
-11.31283229968915
 20
118.6129150094093
 10
-11.31283229968915
 20
118.6129150094093
 10
-5.375554740409584
 20
118.567439749004
 10
-5.375554740409584
 20
118.567439749004
 10
-5.375554740409584
 20
118.567439749004
 10
-5.284259710050463
 20
112.9722601714097
 10
-5.284259710050463
 20
112.9722601714097
 10
-5.284259710050463
 20
112.9722601714097
 10
9.26093342867435
 20
112.6525553103785
 10
9.26093342867435
 20
112.6525553103785
 10
9.26093342867435
 20
112.6525553103785
 10
10.01506483039554
 20
112.3783257097526
 10
10.22039252131643
 20
112.3783257097526
 10
10.42572021223732
 20
112.3783257097526
 10
13.69098171315712
 20
112.4010633399553
 10
13.69098171315712
 20
112.4010633399553
 10
13.69098171315712
 20
112.4010633399553
 10
13.82844102301858
 20
91.18650985133532
 10
13.73680148311094
 20
91.18650985133532
 10
13.64585096230034
 20
91.18650985133532
 10
-5.261866589396339
 20
90.7985920996962
 10
-5.261866589396339
 20
90.7985920996962
 10
-5.261866589396339
 20
90.7985920996962
 10
-5.353161619755459
 20
86.59695364588549
 10
-5.353161619755459
 20
86.59695364588549
 10
-5.353161619755459
 20
86.59695364588549
 10
-11.26735703928385
 20
86.59695364588549
 10
-11.26735703928385
 20
86.59695364588549
 10
-11.26735703928385
 20
86.59695364588549
 10
-11.35830756009445
 20
80.53048500590904
 10
-11.35830756009445
 20
80.53048500590904
 10
-11.35830756009445
 20
80.53048500590904
 10
-38.62348224945872
 20
80.53048500590904
 10
-38.62348224945872
 20
80.53048500590904
 10
-38.62348224945872
 20
80.53048500590904
 10
-47.39228378806513
 20
92.96727970766096
 10
-47.39228378806513
 20
92.96727970766096
 10
-47.39228378806513
 20
92.96727970766096
 10
-47.46049667867307
 20
112.1047851282238
 10
-47.46049667867307
 20
112.1047851282238
 97
        0
 75
     0
 76
     1
 98
        0
  0
POLYLINE
  5
43
330
1F
100
AcDbEntity
  8
STANDARDEBENE
 62
     7
100
AcDb2dPolyline
 66
     1
 10
0.0
 20
0.0
 30
0.0
  0
VERTEX
  5
44
330
43
100
AcDbEntity
  8
STANDARDEBENE
 62
     7
100
AcDbVertex
100
AcDb2dVertex
 10
-47.34990911359655
 20
181.9926811610991
 30
0.0
  0
VERTEX
  5
45
330
43
100
AcDbEntity
  8
STANDARDEBENE
 62
     7
100
AcDbVertex
100
AcDb2dVertex
 10
-46.8500257586868
 20
181.9926811610991
 30
0.0
  0
SEQEND
  5
46
330
43
100
AcDbEntity
  8
STANDARDEBENE
  0
POLYLINE
  5
47
330
1F
100
AcDbEntity
  8
STANDARDEBENE
 62
     7
100
AcDb2dPolyline
 66
     1
 10
0.0
 20
0.0
 30
0.0
  0
VERTEX
  5
48
330
47
100
AcDbEntity
  8
STANDARDEBENE
 62
     7
100
AcDbVertex
100
AcDb2dVertex
 10
-45.8502590488673
 20
181.9926811610991
 30
0.0
  0
VERTEX
  5
49
330
47
100
AcDbEntity
  8
STANDARDEBENE
 62
     7
100
AcDbVertex
100
AcDb2dVertex
 10
-44.8504923390478
 20
181.9926811610991
 30
0.0
  0
SEQEND
  5
4A
330
47
100
AcDbEntity
  8
STANDARDEBENE
  0
POLYLINE
  5
4B
330
1F
100
AcDbEntity
  8
STANDARDEBENE
 62
     7
100
AcDb2dPolyline
 66
     1
 10
0.0
 20
0.0
 30
0.0
  0
VERTEX
  5
4C
330
4B
100
AcDbEntity
  8
STANDARDEBENE
 62
     7
100
AcDbVertex
100
AcDb2dVertex
 10
-43.85072562922829
 20
181.9926811610991
 30
0.0
  0
VERTEX
  5
4D
330
4B
100
AcDbEntity
  8
STANDARDEBENE
 62
     7
100
AcDbVertex
100
AcDb2dVertex
 10
-42.84992539076322
 20
181.9926811610991
 30
0.0
  0
SEQEND
  5
4E
330
4B
100
AcDbEntity
  8
STANDARDEBENE
  0
POLYLINE
  5
4F
330
1F
100
AcDbEntity
  8
STANDARDEBENE
 62
     7
100
AcDb2dPolyline
 66
     1
 10
0.0
 20
0.0
 30
0.0
  0
VERTEX
  5
50
330
4F
100
AcDbEntity
  8
STANDARDEBENE
 62
     7
100
AcDbVertex
100
AcDb2dVertex
 10
-41.85015868094371
 20
181.9926811610991
 30
0.0
  0
VERTEX
  5
51
330
4F
100
AcDbEntity
  8
STANDARDEBENE
 62
     7
100
AcDbVertex
100
AcDb2dVertex
 10
-40.85073648067274
 20
181.9926811610991
 30
0.0
  0
SEQEND
  5
52
330
4F
100
AcDbEntity
  8
STANDARDEBENE
  0
POLYLINE
  5
53
330
1F
100
AcDbEntity
  8
STANDARDEBENE
 62
     7
100
AcDb2dPolyline
 66
     1
 10
0.0
 20
0.0
 30
0.0
  0
VERTEX
  5
54
330
53
100
AcDbEntity
  8
STANDARDEBENE
 62
     7
100
AcDbVertex
100
AcDb2dVertex
 10
-39.85028075175618
 20
181.9926811610991
 30
0.0
  0
VERTEX
  5
55
330
53
100
AcDbEntity
  8
STANDARDEBENE
 62
     7
100
AcDbVertex
100
AcDb2dVertex
 10
-38.84982502283963
 20
181.9926811610991
 30
0.0
  0
SEQEND
  5
56
330
53
100
AcDbEntity
  8
STANDARDEBENE
  0
POLYLINE
  5
57
330
1F
100
AcDbEntity
  8
STANDARDEBENE
 62
     7
100
AcDb2dPolyline
 66
     1
 10
0.0
 20
0.0
 30
0.0
  0
VERTEX
  5
58
330
57
100
AcDbEntity
  8
STANDARDEBENE
 62
     7
100
AcDbVertex
100
AcDb2dVertex
 10
-37.85040282256865
 20
181.9926811610991
 30
0.0
  0
VERTEX
  5
59
330
57
100
AcDbEntity
  8
STANDARDEBENE
 62
     7
100
AcDbVertex
100
AcDb2dVertex
 10
-36.85063611274915
 20
181.9926811610991
 30
0.0
  0
SEQEND
  5
5A
330
57
100
AcDbEntity
  8
STANDARDEBENE
  0
POLYLINE
  5
5B
330
1F
100
AcDbEntity
  8
STANDARDEBENE
 62
     7
100
AcDb2dPolyline
 66
     1
 10
0.0
 20
0.0
 30
0.0
  0
VERTEX
  5
5C
330
5B
100
AcDbEntity
  8
STANDARDEBENE
 62
     7
100
AcDbVertex
100
AcDb2dVertex
 10
-35.84983587428407
 20
181.9926811610991
 30
0.0
  0
VERTEX
  5
5D
330
5B
100
AcDbEntity
  8
STANDARDEBENE
 62
     7
100
AcDbVertex
100
AcDb2dVertex
 10
-34.85006916446456
 20
181.9926811610991
 30
0.0
  0
SEQEND
  5
5E
330
5B
100
AcDbEntity
  8
STANDARDEBENE
  0
POLYLINE
  5
5F
330
1F
100
AcDbEntity
  8
STANDARDEBENE
 62
     7
100
AcDb2dPolyline
 66
     1
 10
0.0
 20
0.0
 30
0.0
  0
VERTEX
  5
60
330
5F
100
AcDbEntity
  8
STANDARDEBENE
 62
     7
100
AcDbVertex
100
AcDb2dVertex
 10
-33.85030245464507
 20
181.9926811610991
 30
0.0
  0
VERTEX
  5
61
330
5F
100
AcDbEntity
  8
STANDARDEBENE
 62
     7
100
AcDbVertex
100
AcDb2dVertex
 10
-32.85019123527704
 20
181.9926811610991
 30
0.0
  0
SEQEND
  5
62
330
5F
100
AcDbEntity
  8
STANDARDEBENE
  0
POLYLINE
  5
63
330
1F
100
AcDbEntity
  8
STANDARDEBENE
 62
     7
100
AcDb2dPolyline
 66
     1
 10
0.0
 20
0.0
 30
0.0
  0
VERTEX
  5
64
330
63
100
AcDbEntity
  8
STANDARDEBENE
 62
     7
100
AcDbVertex
100
AcDb2dVertex
 10
-31.85042452545753
 20
181.9926811610991
 30
0.0
  0
VERTEX
  5
65
330
63
100
AcDbEntity
  8
STANDARDEBENE
 62
     7
100
AcDbVertex
100
AcDb2dVertex
 10
-30.84996879654098
 20
181.9926811610991
 30
0.0
  0
SEQEND
  5
66
330
63
100
AcDbEntity
  8
STANDARDEBENE
  0
POLYLINE
  5
67
330
1F
100
AcDbEntity
  8
STANDARDEBENE
 62
     7
100
AcDb2dPolyline
 66
     1
 10
0.0
 20
0.0
 30
0.0
  0
VERTEX
  5
68
330
67
100
AcDbEntity
  8
STANDARDEBENE
 62
     7
100
AcDbVertex
100
AcDb2dVertex
 10
-29.85089110581853
 20
181.9926811610991
 30
0.0
  0
VERTEX
  5
69
330
67
100
AcDbEntity
  8
STANDARDEBENE
 62
     7
100
AcDbVertex
100
AcDb2dVertex
 10
-28.85009086735345
 20
181.9926811610991
 30
0.0
  0
SEQEND
  5
6A
330
67
100
AcDbEntity
  8
STANDARDEBENE
  0
POLYLINE
  5
6B
330
1F
100
AcDbEntity
  8
STANDARDEBENE
 62
     7
100
AcDb2dPolyline
 66
     1
 10
0.0
 20
0.0
 30
0.0
  0
VERTEX
  5
6C
330
6B
100
AcDbEntity
  8
STANDARDEBENE
 62
     7
100
AcDbVertex
100
AcDb2dVertex
 10
-27.85032415753395
 20
181.9926811610991
 30
0.0
  0
VERTEX
  5
6D
330
6B
100
AcDbEntity
  8
STANDARDEBENE
 62
     7
100
AcDbVertex
100
AcDb2dVertex
 10
-26.85055744771444
 20
181.9926811610991
 30
0.0
  0
SEQEND
  5
6E
330
6B
100
AcDbEntity
  8
STANDARDEBENE
  0
POLYLINE
  5
6F
330
1F
100
AcDbEntity
  8
STANDARDEBENE
 62
     7
100
AcDb2dPolyline
 66
     1
 10
0.0
 20
0.0
 30
0.0
  0
VERTEX
  5
70
330
6F
100
AcDbEntity
  8
STANDARDEBENE
 62
     7
100
AcDbVertex
100
AcDb2dVertex
 10
-25.85079073789494
 20
181.9926811610991
 30
0.0
  0
VERTEX
  5
71
330
6F
100
AcDbEntity
  8
STANDARDEBENE
 62
     7
100
AcDbVertex
100
AcDb2dVertex
 10
-24.84999049942986
 20
181.9926811610991
 30
0.0
  0
SEQEND
  5
72
330
6F
100
AcDbEntity
  8
STANDARDEBENE
  0
POLYLINE
  5
73
330
1F
100
AcDbEntity
  8
STANDARDEBENE
 62
     7
100
AcDb2dPolyline
 66
     1
 10
0.0
 20
0.0
 30
0.0
  0
VERTEX
  5
74
330
73
100
AcDbEntity
  8
STANDARDEBENE
 62
     7
100
AcDbVertex
100
AcDb2dVertex
 10
-23.85022378961036
 20
181.9926811610991
 30
0.0
  0
VERTEX
  5
75
330
73
100
AcDbEntity
  8
STANDARDEBENE
 62
     7
100
AcDbVertex
100
AcDb2dVertex
 10
-22.85045707979086
 20
181.9926811610991
 30
0.0
  0
SEQEND
  5
76
330
73
100
AcDbEntity
  8
STANDARDEBENE
  0
POLYLINE
  5
77
330
1F
100
AcDbEntity
  8
STANDARDEBENE
 62
     7
100
AcDb2dPolyline
 66
     1
 10
0.0
 20
0.0
 30
0.0
  0
VERTEX
  5
78
330
77
100
AcDbEntity
  8
STANDARDEBENE
 62
     7
100
AcDbVertex
100
AcDb2dVertex
 10
-21.8500013508743
 20
181.9926811610991
 30
0.0
  0
VERTEX
  5
79
330
77
100
AcDbEntity
  8
STANDARDEBENE
 62
     7
100
AcDbVertex
100
AcDb2dVertex
 10
-20.8502346410548
 20
181.9926811610991
 30
0.0
  0
SEQEND
  5
7A
330
77
100
AcDbEntity
  8
STANDARDEBENE
  0
POLYLINE
  5
7B
330
1F
100
AcDbEntity
  8
STANDARDEBENE
 62
     7
100
AcDb2dPolyline
 66
     1
 10
0.0
 20
0.0
 30
0.0
  0
VERTEX
  5
7C
330
7B
100
AcDbEntity
  8
STANDARDEBENE
 62
     7
100
AcDbVertex
100
AcDb2dVertex
 10
-19.85012342168677
 20
181.9926811610991
 30
0.0
  0
VERTEX
  5
7D
330
7B
100
AcDbEntity
  8
STANDARDEBENE
 62
     7
100
AcDbVertex
100
AcDb2dVertex
 10
-18.85035671186727
 20
181.9926811610991
 30
0.0
  0
SEQEND
  5
7E
330
7B
100
AcDbEntity
  8
STANDARDEBENE
  0
POLYLINE
  5
7F
330
1F
100
AcDbEntity
  8
STANDARDEBENE
 62
     7
100
AcDb2dPolyline
 66
     1
 10
0.0
 20
0.0
 30
0.0
  0
VERTEX
  5
80
330
7F
100
AcDbEntity
  8
STANDARDEBENE
 62
     7
100
AcDbVertex
100
AcDb2dVertex
 10
-17.85059000204777
 20
181.9926811610991
 30
0.0
  0
VERTEX
  5
81
330
7F
100
AcDbEntity
  8
STANDARDEBENE
 62
     7
100
AcDbVertex
100
AcDb2dVertex
 10
-16.85013427313122
 20
181.9926811610991
 30
0.0
  0
SEQEND
  5
82
330
7F
100
AcDbEntity
  8
STANDARDEBENE
  0
POLYLINE
  5
83
330
1F
100
AcDbEntity
  8
STANDARDEBENE
 62
     7
100
AcDb2dPolyline
 66
     1
 10
0.0
 20
0.0
 30
0.0
  0
VERTEX
  5
84
330
83
100
AcDbEntity
  8
STANDARDEBENE
 62
     7
100
AcDbVertex
100
AcDb2dVertex
 10
-15.85036756331171
 20
181.9926811610991
 30
0.0
  0
VERTEX
  5
85
330
83
100
AcDbEntity
  8
STANDARDEBENE
 62
     7
100
AcDbVertex
100
AcDb2dVertex
 10
-14.85025634394369
 20
181.9926811610991
 30
0.0
  0
SEQEND
  5
86
330
83
100
AcDbEntity
  8
STANDARDEBENE
  0
POLYLINE
  5
87
330
1F
100
AcDbEntity
  8
STANDARDEBENE
 62
     7
100
AcDb2dPolyline
 66
     1
 10
0.0
 20
0.0
 30
0.0
  0
VERTEX
  5
88
330
87
100
AcDbEntity
  8
STANDARDEBENE
 62
     7
100
AcDbVertex
100
AcDb2dVertex
 10
-13.85048963412418
 20
181.9926811610991
 30
0.0
  0
VERTEX
  5
89
330
87
100
AcDbEntity
  8
STANDARDEBENE
 62
     7
100
AcDbVertex
100
AcDb2dVertex
 10
-12.85072292430468
 20
181.9926811610991
 30
0.0
  0
SEQEND
  5
8A
330
87
100
AcDbEntity
  8
STANDARDEBENE
  0
POLYLINE
  5
8B
330
1F
100
AcDbEntity
  8
STANDARDEBENE
 62
     7
100
AcDb2dPolyline
 66
     1
 10
0.0
 20
0.0
 30
0.0
  0
VERTEX
  5
8C
330
8B
100
AcDbEntity
  8
STANDARDEBENE
 62
     7
100
AcDbVertex
100
AcDb2dVertex
 10
-11.85061170493665
 20
181.9926811610991
 30
0.0
  0
VERTEX
  5
8D
330
8B
100
AcDbEntity
  8
STANDARDEBENE
 62
     7
100
AcDbVertex
100
AcDb2dVertex
 10
-10.8501559760201
 20
181.9926811610991
 30
0.0
  0
SEQEND
  5
8E
330
8B
100
AcDbEntity
  8
STANDARDEBENE
  0
POLYLINE
  5
8F
330
1F
100
AcDbEntity
  8
STANDARDEBENE
 62
     7
100
AcDb2dPolyline
 66
     1
 10
0.0
 20
0.0
 30
0.0
  0
VERTEX
  5
90
330
8F
100
AcDbEntity
  8
STANDARDEBENE
 62
     7
100
AcDbVertex
100
AcDb2dVertex
 10
-9.850389266200597
 20
181.9926811610991
 30
0.0
  0
VERTEX
  5
91
330
8F
100
AcDbEntity
  8
STANDARDEBENE
 62
     7
100
AcDbVertex
100
AcDb2dVertex
 10
-9.349816892193797
 20
181.9926811610991
 30
0.0
  0
SEQEND
  5
92
330
8F
100
AcDbEntity
  8
STANDARDEBENE
  0
POLYLINE
  5
93
330
1F
100
AcDbEntity
  8
STANDARDEBENE
 62
     7
100
AcDb2dPolyline
 66
     1
 10
0.0
 20
0.0
 30
0.0
  0
VERTEX
  5
94
330
93
100
AcDbEntity
  8
STANDARDEBENE
 62
     7
100
AcDbVertex
100
AcDb2dVertex
 10
-9.349816892193797
 20
182.4935980446544
 30
0.0
  0
VERTEX
  5
95
330
93
100
AcDbEntity
  8
STANDARDEBENE
 62
     7
100
AcDbVertex
100
AcDb2dVertex
 10
-9.349816892193797
 20
181.9513400152761
 30
0.0
  0
SEQEND
  5
96
330
93
100
AcDbEntity
  8
STANDARDEBENE
  0
POLYLINE
  5
97
330
1F
100
AcDbEntity
  8
STANDARDEBENE
 62
     7
100
AcDb2dPolyline
 66
     1
 10
0.0
 20
0.0
 30
0.0
  0
VERTEX
  5
98
330
97
100
AcDbEntity
  8
STANDARDEBENE
 62
     7
100
AcDbVertex
100
AcDb2dVertex
 10
-9.349816892193797
 20
180.8682019947135
 30
0.0
  0
VERTEX
  5
99
330
97
100
AcDbEntity
  8
STANDARDEBENE
 62
     7
100
AcDbVertex
100
AcDb2dVertex
 10
-9.349816892193797
 20
179.7847194646024
 30
0.0
  0
SEQEND
  5
9A
330
97
100
AcDbEntity
  8
STANDARDEBENE
  0
POLYLINE
  5
9B
330
1F
100
AcDbEntity
  8
STANDARDEBENE
 62
     7
100
AcDb2dPolyline
 66
     1
 10
0.0
 20
0.0
 30
0.0
  0
VERTEX
  5
9C
330
9B
100
AcDbEntity
  8
STANDARDEBENE
 62
     7
100
AcDbVertex
100
AcDb2dVertex
 10
-9.349816892193797
 20
178.7012369344914
 30
0.0
  0
VERTEX
  5
9D
330
9B
100
AcDbEntity
  8
STANDARDEBENE
 62
     7
100
AcDbVertex
100
AcDb2dVertex
 10
-9.349816892193797
 20
177.6187879330259
 30
0.0
  0
SEQEND
  5
9E
330
9B
100
AcDbEntity
  8
STANDARDEBENE
  0
POLYLINE
  5
9F
330
1F
100
AcDbEntity
  8
STANDARDEBENE
 62
     7
100
AcDb2dPolyline
 66
     1
 10
0.0
 20
0.0
 30
0.0
  0
VERTEX
  5
A0
330
9F
100
AcDbEntity
  8
STANDARDEBENE
 62
     7
100
AcDbVertex
100
AcDb2dVertex
 10
-9.349816892193797
 20
176.5349608933663
 30
0.0
  0
VERTEX
  5
A1
330
9F
100
AcDbEntity
  8
STANDARDEBENE
 62
     7
100
AcDbVertex
100
AcDb2dVertex
 10
-9.349816892193797
 20
175.4514783632552
 30
0.0
  0
SEQEND
  5
A2
330
9F
100
AcDbEntity
  8
STANDARDEBENE
  0
POLYLINE
  5
A3
330
1F
100
AcDbEntity
  8
STANDARDEBENE
 62
     7
100
AcDb2dPolyline
 66
     1
 10
0.0
 20
0.0
 30
0.0
  0
VERTEX
  5
A4
330
A3
100
AcDbEntity
  8
STANDARDEBENE
 62
     7
100
AcDbVertex
100
AcDb2dVertex
 10
-9.349816892193797
 20
174.3679958331441
 30
0.0
  0
VERTEX
  5
A5
330
A3
100
AcDbEntity
  8
STANDARDEBENE
 62
     7
100
AcDbVertex
100
AcDb2dVertex
 10
-9.349816892193797
 20
173.2848578125816
 30
0.0
  0
SEQEND
  5
A6
330
A3
100
AcDbEntity
  8
STANDARDEBENE
  0
POLYLINE
  5
A7
330
1F
100
AcDbEntity
  8
STANDARDEBENE
 62
     7
100
AcDb2dPolyline
 66
     1
 10
0.0
 20
0.0
 30
0.0
  0
VERTEX
  5
A8
330
A7
100
AcDbEntity
  8
STANDARDEBENE
 62
     7
100
AcDbVertex
100
AcDb2dVertex
 10
-9.349816892193797
 20
172.201719792019
 30
0.0
  0
VERTEX
  5
A9
330
A7
100
AcDbEntity
  8
STANDARDEBENE
 62
     7
100
AcDbVertex
100
AcDb2dVertex
 10
-9.349816892193797
 20
171.118237261908
 30
0.0
  0
SEQEND
  5
AA
330
A7
100
AcDbEntity
  8
STANDARDEBENE
  0
POLYLINE
  5
AB
330
1F
100
AcDbEntity
  8
STANDARDEBENE
 62
     7
100
AcDb2dPolyline
 66
     1
 10
0.0
 20
0.0
 30
0.0
  0
VERTEX
  5
AC
330
AB
100
AcDbEntity
  8
STANDARDEBENE
 62
     7
100
AcDbVertex
100
AcDb2dVertex
 10
-9.349816892193797
 20
170.0347547317969
 30
0.0
  0
VERTEX
  5
AD
330
AB
100
AcDbEntity
  8
STANDARDEBENE
 62
     7
100
AcDbVertex
100
AcDb2dVertex
 10
-9.349816892193797
 20
169.4931857215156
 30
0.0
  0
VERTEX
  5
AE
330
AB
100
AcDbEntity
  8
STANDARDEBENE
 62
     7
100
AcDbVertex
100
AcDb2dVertex
 10
-8.767251245638048
 20
169.4931857215156
 30
0.0
  0
SEQEND
  5
AF
330
AB
100
AcDbEntity
  8
STANDARDEBENE
  0
POLYLINE
  5
B0
330
1F
100
AcDbEntity
  8
STANDARDEBENE
 62
     7
100
AcDb2dPolyline
 66
     1
 10
0.0
 20
0.0
 30
0.0
  0
VERTEX
  5
B1
330
B0
100
AcDbEntity
  8
STANDARDEBENE
 62
     7
100
AcDbVertex
100
AcDb2dVertex
 10
-7.600397404783929
 20
169.4931857215156
 30
0.0
  0
VERTEX
  5
B2
330
B0
100
AcDbEntity
  8
STANDARDEBENE
 62
     7
100
AcDbVertex
100
AcDb2dVertex
 10
-6.433543563929809
 20
169.4931857215156
 30
0.0
  0
SEQEND
  5
B3
330
B0
100
AcDbEntity
  8
STANDARDEBENE
  0
POLYLINE
  5
B4
330
1F
100
AcDbEntity
  8
STANDARDEBENE
 62
     7
100
AcDb2dPolyline
 66
     1
 10
0.0
 20
0.0
 30
0.0
  0
VERTEX
  5
B5
330
B4
100
AcDbEntity
  8
STANDARDEBENE
 62
     7
100
AcDbVertex
100
AcDb2dVertex
 10
-5.267034232624214
 20
169.4931857215156
 30
0.0
  0
VERTEX
  5
B6
330
B4
100
AcDbEntity
  8
STANDARDEBENE
 62
     7
100
AcDbVertex
100
AcDb2dVertex
 10
-4.099835882221569
 20
169.4931857215156
 30
0.0
  0
SEQEND
  5
B7
330
B4
100
AcDbEntity
  8
STANDARDEBENE
  0
POLYLINE
  5
B8
330
1F
100
AcDbEntity
  8
STANDARDEBENE
 62
     7
100
AcDb2dPolyline
 66
     1
 10
0.0
 20
0.0
 30
0.0
  0
VERTEX
  5
B9
330
B8
100
AcDbEntity
  8
STANDARDEBENE
 62
     7
100
AcDbVertex
100
AcDb2dVertex
 10
-2.934015570013024
 20
169.4931857215156
 30
0.0
  0
VERTEX
  5
BA
330
B8
100
AcDbEntity
  8
STANDARDEBENE
 62
     7
100
AcDbVertex
100
AcDb2dVertex
 10
-2.350071885263177
 20
169.4931857215156
 30
0.0
  0
VERTEX
  5
BB
330
B8
100
AcDbEntity
  8
STANDARDEBENE
 62
     7
100
AcDbVertex
100
AcDb2dVertex
 10
-2.350071885263177
 20
170.0347547317969
 30
0.0
  0
SEQEND
  5
BC
330
B8
100
AcDbEntity
  8
STANDARDEBENE
  0
POLYLINE
  5
BD
330
1F
100
AcDbEntity
  8
STANDARDEBENE
 62
     7
100
AcDb2dPolyline
 66
     1
 10
0.0
 20
0.0
 30
0.0
  0
VERTEX
  5
BE
330
BD
100
AcDbEntity
  8
STANDARDEBENE
 62
     7
100
AcDbVertex
100
AcDb2dVertex
 10
-2.350071885263177
 20
171.118237261908
 30
0.0
  0
VERTEX
  5
BF
330
BD
100
AcDbEntity
  8
STANDARDEBENE
 62
     7
100
AcDbVertex
100
AcDb2dVertex
 10
-2.350071885263177
 20
172.201719792019
 30
0.0
  0
SEQEND
  5
C0
330
BD
100
AcDbEntity
  8
STANDARDEBENE
  0
POLYLINE
  5
C1
330
1F
100
AcDbEntity
  8
STANDARDEBENE
 62
     7
100
AcDb2dPolyline
 66
     1
 10
0.0
 20
0.0
 30
0.0
  0
VERTEX
  5
C2
330
C1
100
AcDbEntity
  8
STANDARDEBENE
 62
     7
100
AcDbVertex
100
AcDb2dVertex
 10
-2.350071885263177
 20
173.2848578125816
 30
0.0
  0
VERTEX
  5
C3
330
C1
100
AcDbEntity
  8
STANDARDEBENE
 62
     7
100
AcDbVertex
100
AcDb2dVertex
 10
-2.350071885263177
 20
174.3679958331441
 30
0.0
  0
SEQEND
  5
C4
330
C1
100
AcDbEntity
  8
STANDARDEBENE
  0
POLYLINE
  5
C5
330
1F
100
AcDbEntity
  8
STANDARDEBENE
 62
     7
100
AcDb2dPolyline
 66
     1
 10
0.0
 20
0.0
 30
0.0
  0
VERTEX
  5
C6
330
C5
100
AcDbEntity
  8
STANDARDEBENE
 62
     7
100
AcDbVertex
100
AcDb2dVertex
 10
-2.350071885263177
 20
175.4514783632552
 30
0.0
  0
VERTEX
  5
C7
330
C5
100
AcDbEntity
  8
STANDARDEBENE
 62
     7
100
AcDbVertex
100
AcDb2dVertex
 10
-2.350071885263177
 20
176.5349608933663
 30
0.0
  0
SEQEND
  5
C8
330
C5
100
AcDbEntity
  8
STANDARDEBENE
  0
POLYLINE
  5
C9
330
1F
100
AcDbEntity
  8
STANDARDEBENE
 62
     7
100
AcDb2dPolyline
 66
     1
 10
0.0
 20
0.0
 30
0.0
  0
VERTEX
  5
CA
330
C9
100
AcDbEntity
  8
STANDARDEBENE
 62
     7
100
AcDbVertex
100
AcDb2dVertex
 10
-2.350071885263177
 20
177.6187879330259
 30
0.0
  0
VERTEX
  5
CB
330
C9
100
AcDbEntity
  8
STANDARDEBENE
 62
     7
100
AcDbVertex
100
AcDb2dVertex
 10
-2.350071885263177
 20
178.7012369344914
 30
0.0
  0
SEQEND
  5
CC
330
C9
100
AcDbEntity
  8
STANDARDEBENE
  0
POLYLINE
  5
CD
330
1F
100
AcDbEntity
  8
STANDARDEBENE
 62
     7
100
AcDb2dPolyline
 66
     1
 10
0.0
 20
0.0
 30
0.0
  0
VERTEX
  5
CE
330
CD
100
AcDbEntity
  8
STANDARDEBENE
 62
     7
100
AcDbVertex
100
AcDb2dVertex
 10
-2.350071885263177
 20
179.7847194646024
 30
0.0
  0
VERTEX
  5
CF
330
CD
100
AcDbEntity
  8
STANDARDEBENE
 62
     7
100
AcDbVertex
100
AcDb2dVertex
 10
-2.350071885263177
 20
180.8682019947135
 30
0.0
  0
SEQEND
  5
D0
330
CD
100
AcDbEntity
  8
STANDARDEBENE
  0
POLYLINE
  5
D1
330
1F
100
AcDbEntity
  8
STANDARDEBENE
 62
     7
100
AcDb2dPolyline
 66
     1
 10
0.0
 20
0.0
 30
0.0
  0
VERTEX
  5
D2
330
D1
100
AcDbEntity
  8
STANDARDEBENE
 62
     7
100
AcDbVertex
100
AcDb2dVertex
 10
-2.350071885263177
 20
181.9513400152761
 30
0.0
  0
VERTEX
  5
D3
330
D1
100
AcDbEntity
  8
STANDARDEBENE
 62
     7
100
AcDbVertex
100
AcDb2dVertex
 10
-2.350071885263177
 20
182.4935980446544
 30
0.0
  0
VERTEX
  5
D4
330
D1
100
AcDbEntity
  8
STANDARDEBENE
 62
     7
100
AcDbVertex
100
AcDb2dVertex
 10
-2.934015570013024
 20
182.4935980446544
 30
0.0
  0
SEQEND
  5
D5
330
D1
100
AcDbEntity
  8
STANDARDEBENE
  0
POLYLINE
  5
D6
330
1F
100
AcDbEntity
  8
STANDARDEBENE
 62
     7
100
AcDb2dPolyline
 66
     1
 10
0.0
 20
0.0
 30
0.0
  0
VERTEX
  5
D7
330
D6
100
AcDbEntity
  8
STANDARDEBENE
 62
     7
100
AcDbVertex
100
AcDb2dVertex
 10
-4.099835882221569
 20
182.4935980446544
 30
0.0
  0
VERTEX
  5
D8
330
D6
100
AcDbEntity
  8
STANDARDEBENE
 62
     7
100
AcDbVertex
100
AcDb2dVertex
 10
-5.267034232624214
 20
182.4935980446544
 30
0.0
  0
SEQEND
  5
D9
330
D6
100
AcDbEntity
  8
STANDARDEBENE
  0
POLYLINE
  5
DA
330
1F
100
AcDbEntity
  8
STANDARDEBENE
 62
     7
100
AcDb2dPolyline
 66
     1
 10
0.0
 20
0.0
 30
0.0
  0
VERTEX
  5
DB
330
DA
100
AcDbEntity
  8
STANDARDEBENE
 62
     7
100
AcDbVertex
100
AcDb2dVertex
 10
-6.433543563929809
 20
182.4935980446544
 30
0.0
  0
VERTEX
  5
DC
330
DA
100
AcDbEntity
  8
STANDARDEBENE
 62
     7
100
AcDbVertex
100
AcDb2dVertex
 10
-7.600397404783929
 20
182.4935980446544
 30
0.0
  0
SEQEND
  5
DD
330
DA
100
AcDbEntity
  8
STANDARDEBENE
  0
POLYLINE
  5
DE
330
1F
100
AcDbEntity
  8
STANDARDEBENE
 62
     7
100
AcDb2dPolyline
 66
     1
 10
0.0
 20
0.0
 30
0.0
  0
VERTEX
  5
DF
330
DE
100
AcDbEntity
  8
STANDARDEBENE
 62
     7
100
AcDbVertex
100
AcDb2dVertex
 10
-8.767251245638048
 20
182.4935980446544
 30
0.0
  0
VERTEX
  5
E0
330
DE
100
AcDbEntity
  8
STANDARDEBENE
 62
     7
100
AcDbVertex
100
AcDb2dVertex
 10
-9.349816892193797
 20
182.4935980446544
 30
0.0
  0
SEQEND
  5
E1
330
DE
100
AcDbEntity
  8
STANDARDEBENE
  0
POLYLINE
  5
E2
330
1F
100
AcDbEntity
  8
STANDARDEBENE
 62
     7
100
AcDb2dPolyline
 66
     1
 10
0.0
 20
0.0
 30
0.0
  0
VERTEX
  5
E3
330
E2
100
AcDbEntity
  8
STANDARDEBENE
 62
     7
100
AcDbVertex
100
AcDb2dVertex
 10
-9.349816892193797
 20
169.9937580955224
 30
0.0
  0
VERTEX
  5
E4
330
E2
100
AcDbEntity
  8
STANDARDEBENE
 62
     7
100
AcDbVertex
100
AcDb2dVertex
 10
-9.850389266200597
 20
169.9937580955224
 30
0.0
  0
SEQEND
  5
E5
330
E2
100
AcDbEntity
  8
STANDARDEBENE
  0
POLYLINE
  5
E6
330
1F
100
AcDbEntity
  8
STANDARDEBENE
 62
     7
100
AcDb2dPolyline
 66
     1
 10
0.0
 20
0.0
 30
0.0
  0
VERTEX
  5
E7
330
E6
100
AcDbEntity
  8
STANDARDEBENE
 62
     7
100
AcDbVertex
100
AcDb2dVertex
 10
-10.8501559760201
 20
169.9937580955224
 30
0.0
  0
VERTEX
  5
E8
330
E6
100
AcDbEntity
  8
STANDARDEBENE
 62
     7
100
AcDbVertex
100
AcDb2dVertex
 10
-11.85061170493665
 20
169.9937580955224
 30
0.0
  0
SEQEND
  5
E9
330
E6
100
AcDbEntity
  8
STANDARDEBENE
  0
POLYLINE
  5
EA
330
1F
100
AcDbEntity
  8
STANDARDEBENE
 62
     7
100
AcDb2dPolyline
 66
     1
 10
0.0
 20
0.0
 30
0.0
  0
VERTEX
  5
EB
330
EA
100
AcDbEntity
  8
STANDARDEBENE
 62
     7
100
AcDbVertex
100
AcDb2dVertex
 10
-12.85072292430468
 20
169.9937580955224
 30
0.0
  0
VERTEX
  5
EC
330
EA
100
AcDbEntity
  8
STANDARDEBENE
 62
     7
100
AcDbVertex
100
AcDb2dVertex
 10
-13.85048963412418
 20
169.9937580955224
 30
0.0
  0
SEQEND
  5
ED
330
EA
100
AcDbEntity
  8
STANDARDEBENE
  0
POLYLINE
  5
EE
330
1F
100
AcDbEntity
  8
STANDARDEBENE
 62
     7
100
AcDb2dPolyline
 66
     1
 10
0.0
 20
0.0
 30
0.0
  0
VERTEX
  5
EF
330
EE
100
AcDbEntity
  8
STANDARDEBENE
 62
     7
100
AcDbVertex
100
AcDb2dVertex
 10
-14.85025634394369
 20
169.9937580955224
 30
0.0
  0
VERTEX
  5
F0
330
EE
100
AcDbEntity
  8
STANDARDEBENE
 62
     7
100
AcDbVertex
100
AcDb2dVertex
 10
-15.85036756331171
 20
169.9937580955224
 30
0.0
  0
SEQEND
  5
F1
330
EE
100
AcDbEntity
  8
STANDARDEBENE
  0
POLYLINE
  5
F2
330
1F
100
AcDbEntity
  8
STANDARDEBENE
 62
     7
100
AcDb2dPolyline
 66
     1
 10
0.0
 20
0.0
 30
0.0
  0
VERTEX
  5
F3
330
F2
100
AcDbEntity
  8
STANDARDEBENE
 62
     7
100
AcDbVertex
100
AcDb2dVertex
 10
-16.85013427313122
 20
169.9937580955224
 30
0.0
  0
VERTEX
  5
F4
330
F2
100
AcDbEntity
  8
STANDARDEBENE
 62
     7
100
AcDbVertex
100
AcDb2dVertex
 10
-17.85059000204777
 20
169.9937580955224
 30
0.0
  0
SEQEND
  5
F5
330
F2
100
AcDbEntity
  8
STANDARDEBENE
  0
POLYLINE
  5
F6
330
1F
100
AcDbEntity
  8
STANDARDEBENE
 62
     7
100
AcDb2dPolyline
 66
     1
 10
0.0
 20
0.0
 30
0.0
  0
VERTEX
  5
F7
330
F6
100
AcDbEntity
  8
STANDARDEBENE
 62
     7
100
AcDbVertex
100
AcDb2dVertex
 10
-18.85035671186727
 20
169.9937580955224
 30
0.0
  0
VERTEX
  5
F8
330
F6
100
AcDbEntity
  8
STANDARDEBENE
 62
     7
100
AcDbVertex
100
AcDb2dVertex
 10
-19.85012342168677
 20
169.9937580955224
 30
0.0
  0
SEQEND
  5
F9
330
F6
100
AcDbEntity
  8
STANDARDEBENE
  0
POLYLINE
  5
FA
330
1F
100
AcDbEntity
  8
STANDARDEBENE
 62
     7
100
AcDb2dPolyline
 66
     1
 10
0.0
 20
0.0
 30
0.0
  0
VERTEX
  5
FB
330
FA
100
AcDbEntity
  8
STANDARDEBENE
 62
     7
100
AcDbVertex
100
AcDb2dVertex
 10
-20.8502346410548
 20
169.9937580955224
 30
0.0
  0
VERTEX
  5
FC
330
FA
100
AcDbEntity
  8
STANDARDEBENE
 62
     7
100
AcDbVertex
100
AcDb2dVertex
 10
-21.8500013508743
 20
169.9937580955224
 30
0.0
  0
SEQEND
  5
FD
330
FA
100
AcDbEntity
  8
STANDARDEBENE
  0
POLYLINE
  5
FE
330
1F
100
AcDbEntity
  8
STANDARDEBENE
 62
     7
100
AcDb2dPolyline
 66
     1
 10
0.0
 20
0.0
 30
0.0
  0
VERTEX
  5
FF
330
FE
100
AcDbEntity
  8
STANDARDEBENE
 62
     7
100
AcDbVertex
100
AcDb2dVertex
 10
-22.85045707979086
 20
169.9937580955224
 30
0.0
  0
VERTEX
  5
100
330
FE
100
AcDbEntity
  8
STANDARDEBENE
 62
     7
100
AcDbVertex
100
AcDb2dVertex
 10
-23.85022378961036
 20
169.9937580955224
 30
0.0
  0
SEQEND
  5
101
330
FE
100
AcDbEntity
  8
STANDARDEBENE
  0
POLYLINE
  5
102
330
1F
100
AcDbEntity
  8
STANDARDEBENE
 62
     7
100
AcDb2dPolyline
 66
     1
 10
0.0
 20
0.0
 30
0.0
  0
VERTEX
  5
103
330
102
100
AcDbEntity
  8
STANDARDEBENE
 62
     7
100
AcDbVertex
100
AcDb2dVertex
 10
-24.84999049942986
 20
169.9937580955224
 30
0.0
  0
VERTEX
  5
104
330
102
100
AcDbEntity
  8
STANDARDEBENE
 62
     7
100
AcDbVertex
100
AcDb2dVertex
 10
-25.85079073789494
 20
169.9937580955224
 30
0.0
  0
SEQEND
  5
105
330
102
100
AcDbEntity
  8
STANDARDEBENE
  0
POLYLINE
  5
106
330
1F
100
AcDbEntity
  8
STANDARDEBENE
 62
     7
100
AcDb2dPolyline
 66
     1
 10
0.0
 20
0.0
 30
0.0
  0
VERTEX
  5
107
330
106
100
AcDbEntity
  8
STANDARDEBENE
 62
     7
100
AcDbVertex
100
AcDb2dVertex
 10
-26.85055744771444
 20
169.9937580955224
 30
0.0
  0
VERTEX
  5
108
330
106
100
AcDbEntity
  8
STANDARDEBENE
 62
     7
100
AcDbVertex
100
AcDb2dVertex
 10
-27.85032415753395
 20
169.9937580955224
 30
0.0
  0
SEQEND
  5
109
330
106
100
AcDbEntity
  8
STANDARDEBENE
  0
POLYLINE
  5
10A
330
1F
100
AcDbEntity
  8
STANDARDEBENE
 62
     7
100
AcDb2dPolyline
 66
     1
 10
0.0
 20
0.0
 30
0.0
  0
VERTEX
  5
10B
330
10A
100
AcDbEntity
  8
STANDARDEBENE
 62
     7
100
AcDbVertex
100
AcDb2dVertex
 10
-28.85009086735345
 20
169.9937580955224
 30
0.0
  0
VERTEX
  5
10C
330
10A
100
AcDbEntity
  8
STANDARDEBENE
 62
     7
100
AcDbVertex
100
AcDb2dVertex
 10
-29.85089110581853
 20
169.9937580955224
 30
0.0
  0
SEQEND
  5
10D
330
10A
100
AcDbEntity
  8
STANDARDEBENE
  0
POLYLINE
  5
10E
330
1F
100
AcDbEntity
  8
STANDARDEBENE
 62
     7
100
AcDb2dPolyline
 66
     1
 10
0.0
 20
0.0
 30
0.0
  0
VERTEX
  5
10F
330
10E
100
AcDbEntity
  8
STANDARDEBENE
 62
     7
100
AcDbVertex
100
AcDb2dVertex
 10
-30.84996879654098
 20
169.9937580955224
 30
0.0
  0
VERTEX
  5
110
330
10E
100
AcDbEntity
  8
STANDARDEBENE
 62
     7
100
AcDbVertex
100
AcDb2dVertex
 10
-31.85042452545753
 20
169.9937580955224
 30
0.0
  0
SEQEND
  5
111
330
10E
100
AcDbEntity
  8
STANDARDEBENE
  0
POLYLINE
  5
112
330
1F
100
AcDbEntity
  8
STANDARDEBENE
 62
     7
100
AcDb2dPolyline
 66
     1
 10
0.0
 20
0.0
 30
0.0
  0
VERTEX
  5
113
330
112
100
AcDbEntity
  8
STANDARDEBENE
 62
     7
100
AcDbVertex
100
AcDb2dVertex
 10
-32.85019123527704
 20
169.9937580955224
 30
0.0
  0
VERTEX
  5
114
330
112
100
AcDbEntity
  8
STANDARDEBENE
 62
     7
100
AcDbVertex
100
AcDb2dVertex
 10
-33.85030245464507
 20
169.9937580955224
 30
0.0
  0
SEQEND
  5
115
330
112
100
AcDbEntity
  8
STANDARDEBENE
  0
POLYLINE
  5
116
330
1F
100
AcDbEntity
  8
STANDARDEBENE
 62
     7
100
AcDb2dPolyline
 66
     1
 10
0.0
 20
0.0
 30
0.0
  0
VERTEX
  5
117
330
116
100
AcDbEntity
  8
STANDARDEBENE
 62
     7
100
AcDbVertex
100
AcDb2dVertex
 10
-34.85006916446456
 20
169.9937580955224
 30
0.0
  0
VERTEX
  5
118
330
116
100
AcDbEntity
  8
STANDARDEBENE
 62
     7
100
AcDbVertex
100
AcDb2dVertex
 10
-35.84983587428407
 20
169.9937580955224
 30
0.0
  0
SEQEND
  5
119
330
116
100
AcDbEntity
  8
STANDARDEBENE
  0
POLYLINE
  5
11A
330
1F
100
AcDbEntity
  8
STANDARDEBENE
 62
     7
100
AcDb2dPolyline
 66
     1
 10
0.0
 20
0.0
 30
0.0
  0
VERTEX
  5
11B
330
11A
100
AcDbEntity
  8
STANDARDEBENE
 62
     7
100
AcDbVertex
100
AcDb2dVertex
 10
-36.85063611274915
 20
169.9937580955224
 30
0.0
  0
VERTEX
  5
11C
330
11A
100
AcDbEntity
  8
STANDARDEBENE
 62
     7
100
AcDbVertex
100
AcDb2dVertex
 10
-37.85040282256865
 20
169.9937580955224
 30
0.0
  0
SEQEND
  5
11D
330
11A
100
AcDbEntity
  8
STANDARDEBENE
  0
POLYLINE
  5
11E
330
1F
100
AcDbEntity
  8
STANDARDEBENE
 62
     7
100
AcDb2dPolyline
 66
     1
 10
0.0
 20
0.0
 30
0.0
  0
VERTEX
  5
11F
330
11E
100
AcDbEntity
  8
STANDARDEBENE
 62
     7
100
AcDbVertex
100
AcDb2dVertex
 10
-38.84982502283963
 20
169.9937580955224
 30
0.0
  0
VERTEX
  5
120
330
11E
100
AcDbEntity
  8
STANDARDEBENE
 62
     7
100
AcDbVertex
100
AcDb2dVertex
 10
-39.85028075175618
 20
169.9937580955224
 30
0.0
  0
SEQEND
  5
121
330
11E
100
AcDbEntity
  8
STANDARDEBENE
  0
POLYLINE
  5
122
330
1F
100
AcDbEntity
  8
STANDARDEBENE
 62
     7
100
AcDb2dPolyline
 66
     1
 10
0.0
 20
0.0
 30
0.0
  0
VERTEX
  5
123
330
122
100
AcDbEntity
  8
STANDARDEBENE
 62
     7
100
AcDbVertex
100
AcDb2dVertex
 10
-40.85073648067274
 20
169.9937580955224
 30
0.0
  0
VERTEX
  5
124
330
122
100
AcDbEntity
  8
STANDARDEBENE
 62
     7
100
AcDbVertex
100
AcDb2dVertex
 10
-41.85015868094371
 20
169.9937580955224
 30
0.0
  0
SEQEND
  5
125
330
122
100
AcDbEntity
  8
STANDARDEBENE
  0
POLYLINE
  5
126
330
1F
100
AcDbEntity
  8
STANDARDEBENE
 62
     7
100
AcDb2dPolyline
 66
     1
 10
0.0
 20
0.0
 30
0.0
  0
VERTEX
  5
127
330
126
100
AcDbEntity
  8
STANDARDEBENE
 62
     7
100
AcDbVertex
100
AcDb2dVertex
 10
-42.84992539076322
 20
169.9937580955224
 30
0.0
  0
VERTEX
  5
128
330
126
100
AcDbEntity
  8
STANDARDEBENE
 62
     7
100
AcDbVertex
100
AcDb2dVertex
 10
-43.85072562922829
 20
169.9937580955224
 30
0.0
  0
SEQEND
  5
129
330
126
100
AcDbEntity
  8
STANDARDEBENE
  0
POLYLINE
  5
12A
330
1F
100
AcDbEntity
  8
STANDARDEBENE
 62
     7
100
AcDb2dPolyline
 66
     1
 10
0.0
 20
0.0
 30
0.0
  0
VERTEX
  5
12B
330
12A
100
AcDbEntity
  8
STANDARDEBENE
 62
     7
100
AcDbVertex
100
AcDb2dVertex
 10
-44.8504923390478
 20
169.9937580955224
 30
0.0
  0
VERTEX
  5
12C
330
12A
100
AcDbEntity
  8
STANDARDEBENE
 62
     7
100
AcDbVertex
100
AcDb2dVertex
 10
-45.8502590488673
 20
169.9937580955224
 30
0.0
  0
SEQEND
  5
12D
330
12A
100
AcDbEntity
  8
STANDARDEBENE
  0
POLYLINE
  5
12E
330
1F
100
AcDbEntity
  8
STANDARDEBENE
 62
     7
100
AcDb2dPolyline
 66
     1
 10
0.0
 20
0.0
 30
0.0
  0
VERTEX
  5
12F
330
12E
100
AcDbEntity
  8
STANDARDEBENE
 62
     7
100
AcDbVertex
100
AcDb2dVertex
 10
-46.8500257586868
 20
169.9937580955224
 30
0.0
  0
VERTEX
  5
130
330
12E
100
AcDbEntity
  8
STANDARDEBENE
 62
     7
100
AcDbVertex
100
AcDb2dVertex
 10
-47.34990911359655
 20
169.9937580955224
 30
0.0
  0
SEQEND
  5
131
330
12E
100
AcDbEntity
  8
STANDARDEBENE
  0
POLYLINE
  5
132
330
1F
100
AcDbEntity
  8
STANDARDEBENE
  6
AI-LINETYPE-1
 62
   250
100
AcDb2dPolyline
 66
     1
 10
0.0
 20
0.0
 30
0.0
  0
VERTEX
  5
133
330
132
100
AcDbEntity
  8
STANDARDEBENE
  6
AI-LINETYPE-1
 62
   250
100
AcDbVertex
100
AcDb2dVertex
 10
-49.33118352716373
 20
175.993391883085
 30
0.0
  0
VERTEX
  5
134
330
132
100
AcDbEntity
  8
STANDARDEBENE
  6
AI-LINETYPE-1
 62
   250
100
AcDbVertex
100
AcDb2dVertex
 10
14.64975178670215
 20
175.993391883085
 30
0.0
  0
SEQEND
  5
135
330
132
100
AcDbEntity
  8
STANDARDEBENE
  6
AI-LINETYPE-1
  0
POLYLINE
  5
137
330
1F
100
AcDbEntity
  8
STANDARDEBENE
  6
AI-LINETYPE-2
 62
   250
100
AcDb2dPolyline
 66
     1
 10
0.0
 20
0.0
 30
0.0
  0
VERTEX
  5
138
330
137
100
AcDbEntity
  8
STANDARDEBENE
  6
AI-LINETYPE-2
 62
   250
100
AcDbVertex
100
AcDb2dVertex
 10
-48.81614175211888
 20
102.6014892321621
 30
0.0
  0
VERTEX
  5
139
330
137
100
AcDbEntity
  8
STANDARDEBENE
  6
AI-LINETYPE-2
 62
   250
100
AcDbVertex
100
AcDb2dVertex
 10
14.59910888306897
 20
102.6014892321621
 30
0.0
  0
SEQEND
  5
13A
330
137
100
AcDbEntity
  8
STANDARDEBENE
  6
AI-LINETYPE-2
  0
POLYLINE
  5
13C
330
1F
100
AcDbEntity
  8
STANDARDEBENE
  6
AI-LINETYPE-3
 62
   250
100
AcDb2dPolyline
 66
     1
 10
0.0
 20
0.0
 30
0.0
  0
VERTEX
  5
13D
330
13C
100
AcDbEntity
  8
STANDARDEBENE
  6
AI-LINETYPE-3
 62
   250
100
AcDbVertex
100
AcDb2dVertex
 10
79.98977726949909
 20
199.5299397287634
 30
0.0
  0
VERTEX
  5
13E
330
13C
100
AcDbEntity
  8
STANDARDEBENE
  6
AI-LINETYPE-3
 62
   250
100
AcDbVertex
100
AcDb2dVertex
 10
79.98977726949909
 20
151.6989230306517
 30
0.0
  0
SEQEND
  5
13F
330
13C
100
AcDbEntity
  8
STANDARDEBENE
  6
AI-LINETYPE-3
  0
POLYLINE
  5
141
330
1F
100
AcDbEntity
  8
STANDARDEBENE
  6
AI-LINETYPE-4
 62
   250
100
AcDb2dPolyline
 66
     1
 10
0.0
 20
0.0
 30
0.0
  0
VERTEX
  5
142
330
141
100
AcDbEntity
  8
STANDARDEBENE
  6
AI-LINETYPE-4
 62
   250
100
AcDbVertex
100
AcDb2dVertex
 10
55.96264782672115
 20
175.993391883085
 30
0.0
  0
VERTEX
  5
143
330
141
100
AcDbEntity
  8
STANDARDEBENE
  6
AI-LINETYPE-4
 62
   250
100
AcDbVertex
100
AcDb2dVertex
 10
102.6948513198124
 20
175.993391883085
 30
0.0
  0
SEQEND
  5
144
330
141
100
AcDbEntity
  8
STANDARDEBENE
  6
AI-LINETYPE-4
  0
POLYLINE
  5
146
330
1F
100
AcDbEntity
  8
STANDARDEBENE
 62
     7
100
AcDb2dPolyline
 66
     1
 10
0.0
 20
0.0
 30
0.0
  0
VERTEX
  5
147
330
146
100
AcDbEntity
  8
STANDARDEBENE
 62
     7
100
AcDbVertex
100
AcDb2dVertex
 10
-38.84982502283963
 20
197.7429687005643
 30
0.0
  0
VERTEX
  5
148
330
146
100
AcDbEntity
  8
STANDARDEBENE
 62
     7
100
AcDbVertex
100
AcDb2dVertex
 10
-47.34990911359655
 20
185.5931504527337
 30
0.0
  0
SEQEND
  5
149
330
146
100
AcDbEntity
  8
STANDARDEBENE
  0
POLYLINE
  5
14A
330
1F
100
AcDbEntity
  8
STANDARDEBENE
 62
     7
100
AcDb2dPolyline
 66
     1
 10
0.0
 20
0.0
 30
0.0
  0
VERTEX
  5
14B
330
14A
100
AcDbEntity
  8
STANDARDEBENE
 62
     7
100
AcDbVertex
100
AcDb2dVertex
 10
-47.34990911359655
 20
166.3932888038878
 30
0.0
  0
VERTEX
  5
14C
330
14A
100
AcDbEntity
  8
STANDARDEBENE
 62
     7
100
AcDbVertex
100
AcDb2dVertex
 10
-38.84982502283963
 20
154.2434705560572
 30
0.0
  0
SEQEND
  5
14D
330
14A
100
AcDbEntity
  8
STANDARDEBENE
  0
POLYLINE
  5
14E
330
1F
100
AcDbEntity
  8
STANDARDEBENE
 62
     7
100
AcDb2dPolyline
 66
     1
 10
0.0
 20
0.0
 30
0.0
  0
VERTEX
  5
14F
330
14E
100
AcDbEntity
  8
STANDARDEBENE
 62
     7
100
AcDbVertex
100
AcDb2dVertex
 10
-11.35038384047838
 20
197.7429687005643
 30
0.0
  0
VERTEX
  5
150
330
14E
100
AcDbEntity
  8
STANDARDEBENE
 62
     7
100
AcDbVertex
100
AcDb2dVertex
 10
-38.84982502283963
 20
197.7429687005643
 30
0.0
  0
SEQEND
  5
151
330
14E
100
AcDbEntity
  8
STANDARDEBENE
  0
POLYLINE
  5
152
330
1F
100
AcDbEntity
  8
STANDARDEBENE
 62
     7
100
AcDb2dPolyline
 66
     1
 10
0.0
 20
0.0
 30
0.0
  0
VERTEX
  5
153
330
152
100
AcDbEntity
  8
STANDARDEBENE
 62
     7
100
AcDbVertex
100
AcDb2dVertex
 10
-38.84982502283963
 20
154.2434705560572
 30
0.0
  0
VERTEX
  5
154
330
152
100
AcDbEntity
  8
STANDARDEBENE
 62
     7
100
AcDbVertex
100
AcDb2dVertex
 10
-11.35038384047838
 20
154.2434705560572
 30
0.0
  0
SEQEND
  5
155
330
152
100
AcDbEntity
  8
STANDARDEBENE
  0
POLYLINE
  5
156
330
1F
100
AcDbEntity
  8
STANDARDEBENE
 62
     7
100
AcDb2dPolyline
 66
     1
 10
0.0
 20
0.0
 30
0.0
  0
VERTEX
  5
157
330
156
100
AcDbEntity
  8
STANDARDEBENE
 62
     7
100
AcDbVertex
100
AcDb2dVertex
 10
-5.35040554336726
 20
191.9931043356823
 30
0.0
  0
VERTEX
  5
158
330
156
100
AcDbEntity
  8
STANDARDEBENE
 62
     7
100
AcDbVertex
100
AcDb2dVertex
 10
-11.35038384047838
 20
191.9931043356823
 30
0.0
  0
SEQEND
  5
159
330
156
100
AcDbEntity
  8
STANDARDEBENE
  0
POLYLINE
  5
15A
330
1F
100
AcDbEntity
  8
STANDARDEBENE
 62
     7
100
AcDb2dPolyline
 66
     1
 10
0.0
 20
0.0
 30
0.0
  0
VERTEX
  5
15B
330
15A
100
AcDbEntity
  8
STANDARDEBENE
 62
     7
100
AcDbVertex
100
AcDb2dVertex
 10
-11.35038384047838
 20
159.9936794304877
 30
0.0
  0
VERTEX
  5
15C
330
15A
100
AcDbEntity
  8
STANDARDEBENE
 62
     7
100
AcDbVertex
100
AcDb2dVertex
 10
-5.35040554336726
 20
159.9936794304877
 30
0.0
  0
SEQEND
  5
15D
330
15A
100
AcDbEntity
  8
STANDARDEBENE
  0
POLYLINE
  5
15E
330
1F
100
AcDbEntity
  8
STANDARDEBENE
 62
     7
100
AcDb2dPolyline
 66
     1
 10
0.0
 20
0.0
 30
0.0
  0
VERTEX
  5
15F
330
15E
100
AcDbEntity
  8
STANDARDEBENE
 62
     7
100
AcDbVertex
100
AcDb2dVertex
 10
-47.34990911359655
 20
166.3932888038878
 30
0.0
  0
VERTEX
  5
160
330
15E
100
AcDbEntity
  8
STANDARDEBENE
 62
     7
100
AcDbVertex
100
AcDb2dVertex
 10
-47.34990911359655
 20
166.5004312734791
 30
0.0
  0
VERTEX
  5
161
330
15E
100
AcDbEntity
  8
STANDARDEBENE
 62
     7
100
AcDbVertex
100
AcDb2dVertex
 10
-47.34990911359655
 20
166.8197916249617
 30
0.0
  0
VERTEX
  5
162
330
15E
100
AcDbEntity
  8
STANDARDEBENE
 62
     7
100
AcDbVertex
100
AcDb2dVertex
 10
-47.34990911359655
 20
167.3441351578168
 30
0.0
  0
VERTEX
  5
163
330
15E
100
AcDbEntity
  8
STANDARDEBENE
 62
     7
100
AcDbVertex
100
AcDb2dVertex
 10
-47.34990911359655
 20
168.0620930569428
 30
0.0
  0
VERTEX
  5
164
330
15E
100
AcDbEntity
  8
STANDARDEBENE
 62
     7
100
AcDbVertex
100
AcDb2dVertex
 10
-47.34990911359655
 20
168.9557508258166
 30
0.0
  0
VERTEX
  5
165
330
15E
100
AcDbEntity
  8
STANDARDEBENE
 62
     7
100
AcDbVertex
100
AcDb2dVertex
 10
-47.34990911359655
 20
170.0075384774634
 30
0.0
  0
VERTEX
  5
166
330
15E
100
AcDbEntity
  8
STANDARDEBENE
 62
     7
100
AcDbVertex
100
AcDb2dVertex
 10
-47.34990911359655
 20
171.1929958339379
 30
0.0
  0
VERTEX
  5
167
330
15E
100
AcDbEntity
  8
STANDARDEBENE
 62
     7
100
AcDbVertex
100
AcDb2dVertex
 10
-47.34990911359655
 20
172.4862846791007
 30
0.0
  0
VERTEX
  5
168
330
15E
100
AcDbEntity
  8
STANDARDEBENE
 62
     7
100
AcDbVertex
100
AcDb2dVertex
 10
-47.34990911359655
 20
173.8574326822301
 30
0.0
  0
VERTEX
  5
169
330
15E
100
AcDbEntity
  8
STANDARDEBENE
 62
     7
100
AcDbVertex
100
AcDb2dVertex
 10
-47.34990911359655
 20
175.276123003056
 30
0.0
  0
VERTEX
  5
16A
330
15E
100
AcDbEntity
  8
STANDARDEBENE
 62
     7
100
AcDbVertex
100
AcDb2dVertex
 10
-47.34990911359655
 20
176.7103162535655
 30
0.0
  0
VERTEX
  5
16B
330
15E
100
AcDbEntity
  8
STANDARDEBENE
 62
     7
100
AcDbVertex
100
AcDb2dVertex
 10
-47.34990911359655
 20
178.1293510839399
 30
0.0
  0
VERTEX
  5
16C
330
15E
100
AcDbEntity
  8
STANDARDEBENE
 62
     7
100
AcDbVertex
100
AcDb2dVertex
 10
-47.34990911359655
 20
179.5008435966178
 30
0.0
  0
VERTEX
  5
16D
330
15E
100
AcDbEntity
  8
STANDARDEBENE
 62
     7
100
AcDbVertex
100
AcDb2dVertex
 10
-47.34990911359655
 20
180.7934434226836
 30
0.0
  0
VERTEX
  5
16E
330
15E
100
AcDbEntity
  8
STANDARDEBENE
 62
     7
100
AcDbVertex
100
AcDb2dVertex
 10
-47.34990911359655
 20
181.9789007791581
 30
0.0
  0
VERTEX
  5
16F
330
15E
100
AcDbEntity
  8
STANDARDEBENE
 62
     7
100
AcDbVertex
100
AcDb2dVertex
 10
-47.34990911359655
 20
183.0310329403534
 30
0.0
  0
VERTEX
  5
170
330
15E
100
AcDbEntity
  8
STANDARDEBENE
 62
     7
100
AcDbVertex
100
AcDb2dVertex
 10
-47.34990911359655
 20
183.9250352187757
 30
0.0
  0
VERTEX
  5
171
330
15E
100
AcDbEntity
  8
STANDARDEBENE
 62
     7
100
AcDbVertex
100
AcDb2dVertex
 10
-47.34990911359655
 20
184.6423040988047
 30
0.0
  0
VERTEX
  5
172
330
15E
100
AcDbEntity
  8
STANDARDEBENE
 62
     7
100
AcDbVertex
100
AcDb2dVertex
 10
-47.34990911359655
 20
185.1666476316597
 30
0.0
  0
VERTEX
  5
173
330
15E
100
AcDbEntity
  8
STANDARDEBENE
 62
     7
100
AcDbVertex
100
AcDb2dVertex
 10
-47.34990911359655
 20
185.4860079831424
 30
0.0
  0
VERTEX
  5
174
330
15E
100
AcDbEntity
  8
STANDARDEBENE
 62
     7
100
AcDbVertex
100
AcDb2dVertex
 10
-47.34990911359655
 20
185.5931504527337
 30
0.0
  0
SEQEND
  5
175
330
15E
100
AcDbEntity
  8
STANDARDEBENE
  0
POLYLINE
  5
176
330
1F
100
AcDbEntity
  8
STANDARDEBENE
 62
     7
100
AcDb2dPolyline
 66
     1
 10
0.0
 20
0.0
 30
0.0
  0
VERTEX
  5
177
330
176
100
AcDbEntity
  8
STANDARDEBENE
 62
     7
100
AcDbVertex
100
AcDb2dVertex
 10
-38.84982502283963
 20
154.2434705560572
 30
0.0
  0
VERTEX
  5
178
330
176
100
AcDbEntity
  8
STANDARDEBENE
 62
     7
100
AcDbVertex
100
AcDb2dVertex
 10
-38.84982502283963
 20
154.3482014588088
 30
0.0
  0
VERTEX
  5
179
330
176
100
AcDbEntity
  8
STANDARDEBENE
 62
     7
100
AcDbVertex
100
AcDb2dVertex
 10
-38.84982502283963
 20
154.661360638418
 30
0.0
  0
VERTEX
  5
17A
330
176
100
AcDbEntity
  8
STANDARDEBENE
 62
     7
100
AcDbVertex
100
AcDb2dVertex
 10
-38.84982502283963
 20
155.1798475089481
 30
0.0
  0
VERTEX
  5
17B
330
176
100
AcDbEntity
  8
STANDARDEBENE
 62
     7
100
AcDbVertex
100
AcDb2dVertex
 10
-38.84982502283963
 20
155.8988389367198
 30
0.0
  0
VERTEX
  5
17C
330
176
100
AcDbEntity
  8
STANDARDEBENE
 62
     7
100
AcDbVertex
100
AcDb2dVertex
 10
-38.84982502283963
 20
156.8114447307624
 30
0.0
  0
VERTEX
  5
17D
330
176
100
AcDbEntity
  8
STANDARDEBENE
 62
     7
100
AcDbVertex
100
AcDb2dVertex
 10
-38.84982502283963
 20
157.909052152363
 30
0.0
  0
VERTEX
  5
17E
330
176
100
AcDbEntity
  8
STANDARDEBENE
 62
     7
100
AcDbVertex
100
AcDb2dVertex
 10
-38.84982502283963
 20
159.1806368959687
 30
0.0
  0
VERTEX
  5
17F
330
176
100
AcDbEntity
  8
STANDARDEBENE
 62
     7
100
AcDbVertex
100
AcDb2dVertex
 10
-38.84982502283963
 20
160.6137966178327
 30
0.0
  0
VERTEX
  5
180
330
176
100
AcDbEntity
  8
STANDARDEBENE
 62
     7
100
AcDbVertex
100
AcDb2dVertex
 10
-38.84982502283963
 20
162.1950954455623
 30
0.0
  0
VERTEX
  5
181
330
176
100
AcDbEntity
  8
STANDARDEBENE
 62
     7
100
AcDbVertex
100
AcDb2dVertex
 10
-38.84982502283963
 20
163.9097194685712
 30
0.0
  0
VERTEX
  5
182
330
176
100
AcDbEntity
  8
STANDARDEBENE
 62
     7
100
AcDbVertex
100
AcDb2dVertex
 10
-38.84982502283963
 20
165.7400986998844
 30
0.0
  0
VERTEX
  5
183
330
176
100
AcDbEntity
  8
STANDARDEBENE
 62
     7
100
AcDbVertex
100
AcDb2dVertex
 10
-38.84982502283963
 20
167.6700411907214
 30
0.0
  0
VERTEX
  5
184
330
176
100
AcDbEntity
  8
STANDARDEBENE
 62
     7
100
AcDbVertex
100
AcDb2dVertex
 10
-38.84982502283963
 20
169.6795653872676
 30
0.0
  0
VERTEX
  5
185
330
176
100
AcDbEntity
  8
STANDARDEBENE
 62
     7
100
AcDbVertex
100
AcDb2dVertex
 10
-38.84982502283963
 20
171.7500677739028
 30
0.0
  0
VERTEX
  5
186
330
176
100
AcDbEntity
  8
STANDARDEBENE
 62
     7
100
AcDbVertex
100
AcDb2dVertex
 10
-38.84982502283963
 20
173.8615667968124
 30
0.0
  0
VERTEX
  5
187
330
176
100
AcDbEntity
  8
STANDARDEBENE
 62
     7
100
AcDbVertex
100
AcDb2dVertex
 10
-38.84982502283963
 20
175.993391883085
 30
0.0
  0
VERTEX
  5
188
330
176
100
AcDbEntity
  8
STANDARDEBENE
 62
     7
100
AcDbVertex
100
AcDb2dVertex
 10
-38.84982502283963
 20
178.1255614789061
 30
0.0
  0
VERTEX
  5
189
330
176
100
AcDbEntity
  8
STANDARDEBENE
 62
     7
100
AcDbVertex
100
AcDb2dVertex
 10
-38.84982502283963
 20
180.2363714827187
 30
0.0
  0
VERTEX
  5
18A
330
176
100
AcDbEntity
  8
STANDARDEBENE
 62
     7
100
AcDbVertex
100
AcDb2dVertex
 10
-38.84982502283963
 20
182.3068738693538
 30
0.0
  0
VERTEX
  5
18B
330
176
100
AcDbEntity
  8
STANDARDEBENE
 62
     7
100
AcDbVertex
100
AcDb2dVertex
 10
-38.84982502283963
 20
184.3167425754486
 30
0.0
  0
VERTEX
  5
18C
330
176
100
AcDbEntity
  8
STANDARDEBENE
 62
     7
100
AcDbVertex
100
AcDb2dVertex
 10
-38.84982502283963
 20
186.246340556737
 30
0.0
  0
VERTEX
  5
18D
330
176
100
AcDbEntity
  8
STANDARDEBENE
 62
     7
100
AcDbVertex
100
AcDb2dVertex
 10
-38.84982502283963
 20
188.0767197880503
 30
0.0
  0
VERTEX
  5
18E
330
176
100
AcDbEntity
  8
STANDARDEBENE
 62
     7
100
AcDbVertex
100
AcDb2dVertex
 10
-38.84982502283963
 20
189.7909993015106
 30
0.0
  0
VERTEX
  5
18F
330
176
100
AcDbEntity
  8
STANDARDEBENE
 62
     7
100
AcDbVertex
100
AcDb2dVertex
 10
-38.84982502283963
 20
191.3722981292403
 30
0.0
  0
VERTEX
  5
190
330
176
100
AcDbEntity
  8
STANDARDEBENE
 62
     7
100
AcDbVertex
100
AcDb2dVertex
 10
-38.84982502283963
 20
192.8058023606527
 30
0.0
  0
VERTEX
  5
191
330
176
100
AcDbEntity
  8
STANDARDEBENE
 62
     7
100
AcDbVertex
100
AcDb2dVertex
 10
-38.84982502283963
 20
194.0773871042584
 30
0.0
  0
VERTEX
  5
192
330
176
100
AcDbEntity
  8
STANDARDEBENE
 62
     7
100
AcDbVertex
100
AcDb2dVertex
 10
-38.84982502283963
 20
195.174994525859
 30
0.0
  0
VERTEX
  5
193
330
176
100
AcDbEntity
  8
STANDARDEBENE
 62
     7
100
AcDbVertex
100
AcDb2dVertex
 10
-38.84982502283963
 20
196.0876003199017
 30
0.0
  0
VERTEX
  5
194
330
176
100
AcDbEntity
  8
STANDARDEBENE
 62
     7
100
AcDbVertex
100
AcDb2dVertex
 10
-38.84982502283963
 20
196.8065917476734
 30
0.0
  0
VERTEX
  5
195
330
176
100
AcDbEntity
  8
STANDARDEBENE
 62
     7
100
AcDbVertex
100
AcDb2dVertex
 10
-38.84982502283963
 20
197.3250786182035
 30
0.0
  0
VERTEX
  5
196
330
176
100
AcDbEntity
  8
STANDARDEBENE
 62
     7
100
AcDbVertex
100
AcDb2dVertex
 10
-38.84982502283963
 20
197.6385823073612
 30
0.0
  0
VERTEX
  5
197
330
176
100
AcDbEntity
  8
STANDARDEBENE
 62
     7
100
AcDbVertex
100
AcDb2dVertex
 10
-38.84982502283963
 20
197.7429687005643
 30
0.0
  0
SEQEND
  5
198
330
176
100
AcDbEntity
  8
STANDARDEBENE
  0
POLYLINE
  5
199
330
1F
100
AcDbEntity
  8
STANDARDEBENE
 62
     7
100
AcDb2dPolyline
 66
     1
 10
0.0
 20
0.0
 30
0.0
  0
VERTEX
  5
19A
330
199
100
AcDbEntity
  8
STANDARDEBENE
 62
     7
100
AcDbVertex
100
AcDb2dVertex
 10
-11.35038384047838
 20
154.2434705560572
 30
0.0
  0
VERTEX
  5
19B
330
199
100
AcDbEntity
  8
STANDARDEBENE
 62
     7
100
AcDbVertex
100
AcDb2dVertex
 10
-11.35038384047838
 20
154.3482014588088
 30
0.0
  0
VERTEX
  5
19C
330
199
100
AcDbEntity
  8
STANDARDEBENE
 62
     7
100
AcDbVertex
100
AcDb2dVertex
 10
-11.35038384047838
 20
154.661360638418
 30
0.0
  0
VERTEX
  5
19D
330
199
100
AcDbEntity
  8
STANDARDEBENE
 62
     7
100
AcDbVertex
100
AcDb2dVertex
 10
-11.35038384047838
 20
155.1798475089481
 30
0.0
  0
VERTEX
  5
19E
330
199
100
AcDbEntity
  8
STANDARDEBENE
 62
     7
100
AcDbVertex
100
AcDb2dVertex
 10
-11.35038384047838
 20
155.8988389367198
 30
0.0
  0
VERTEX
  5
19F
330
199
100
AcDbEntity
  8
STANDARDEBENE
 62
     7
100
AcDbVertex
100
AcDb2dVertex
 10
-11.35038384047838
 20
156.8114447307624
 30
0.0
  0
VERTEX
  5
1A0
330
199
100
AcDbEntity
  8
STANDARDEBENE
 62
     7
100
AcDbVertex
100
AcDb2dVertex
 10
-11.35038384047838
 20
157.909052152363
 30
0.0
  0
VERTEX
  5
1A1
330
199
100
AcDbEntity
  8
STANDARDEBENE
 62
     7
100
AcDbVertex
100
AcDb2dVertex
 10
-11.35038384047838
 20
159.1806368959687
 30
0.0
  0
VERTEX
  5
1A2
330
199
100
AcDbEntity
  8
STANDARDEBENE
 62
     7
100
AcDbVertex
100
AcDb2dVertex
 10
-11.35038384047838
 20
160.6137966178327
 30
0.0
  0
VERTEX
  5
1A3
330
199
100
AcDbEntity
  8
STANDARDEBENE
 62
     7
100
AcDbVertex
100
AcDb2dVertex
 10
-11.35038384047838
 20
162.1950954455623
 30
0.0
  0
VERTEX
  5
1A4
330
199
100
AcDbEntity
  8
STANDARDEBENE
 62
     7
100
AcDbVertex
100
AcDb2dVertex
 10
-11.35038384047838
 20
163.9097194685712
 30
0.0
  0
VERTEX
  5
1A5
330
199
100
AcDbEntity
  8
STANDARDEBENE
 62
     7
100
AcDbVertex
100
AcDb2dVertex
 10
-11.35038384047838
 20
165.7400986998844
 30
0.0
  0
VERTEX
  5
1A6
330
199
100
AcDbEntity
  8
STANDARDEBENE
 62
     7
100
AcDbVertex
100
AcDb2dVertex
 10
-11.35038384047838
 20
167.6700411907214
 30
0.0
  0
VERTEX
  5
1A7
330
199
100
AcDbEntity
  8
STANDARDEBENE
 62
     7
100
AcDbVertex
100
AcDb2dVertex
 10
-11.35038384047838
 20
169.6795653872676
 30
0.0
  0
VERTEX
  5
1A8
330
199
100
AcDbEntity
  8
STANDARDEBENE
 62
     7
100
AcDbVertex
100
AcDb2dVertex
 10
-11.35038384047838
 20
171.7500677739028
 30
0.0
  0
VERTEX
  5
1A9
330
199
100
AcDbEntity
  8
STANDARDEBENE
 62
     7
100
AcDbVertex
100
AcDb2dVertex
 10
-11.35038384047838
 20
173.8615667968124
 30
0.0
  0
VERTEX
  5
1AA
330
199
100
AcDbEntity
  8
STANDARDEBENE
 62
     7
100
AcDbVertex
100
AcDb2dVertex
 10
-11.35038384047838
 20
175.993391883085
 30
0.0
  0
VERTEX
  5
1AB
330
199
100
AcDbEntity
  8
STANDARDEBENE
 62
     7
100
AcDbVertex
100
AcDb2dVertex
 10
-11.35038384047838
 20
178.1255614789061
 30
0.0
  0
VERTEX
  5
1AC
330
199
100
AcDbEntity
  8
STANDARDEBENE
 62
     7
100
AcDbVertex
100
AcDb2dVertex
 10
-11.35038384047838
 20
180.2363714827187
 30
0.0
  0
VERTEX
  5
1AD
330
199
100
AcDbEntity
  8
STANDARDEBENE
 62
     7
100
AcDbVertex
100
AcDb2dVertex
 10
-11.35038384047838
 20
182.3068738693538
 30
0.0
  0
VERTEX
  5
1AE
330
199
100
AcDbEntity
  8
STANDARDEBENE
 62
     7
100
AcDbVertex
100
AcDb2dVertex
 10
-11.35038384047838
 20
184.3167425754486
 30
0.0
  0
VERTEX
  5
1AF
330
199
100
AcDbEntity
  8
STANDARDEBENE
 62
     7
100
AcDbVertex
100
AcDb2dVertex
 10
-11.35038384047838
 20
186.246340556737
 30
0.0
  0
VERTEX
  5
1B0
330
199
100
AcDbEntity
  8
STANDARDEBENE
 62
     7
100
AcDbVertex
100
AcDb2dVertex
 10
-11.35038384047838
 20
188.0767197880503
 30
0.0
  0
VERTEX
  5
1B1
330
199
100
AcDbEntity
  8
STANDARDEBENE
 62
     7
100
AcDbVertex
100
AcDb2dVertex
 10
-11.35038384047838
 20
189.7909993015106
 30
0.0
  0
VERTEX
  5
1B2
330
199
100
AcDbEntity
  8
STANDARDEBENE
 62
     7
100
AcDbVertex
100
AcDb2dVertex
 10
-11.35038384047838
 20
191.3722981292403
 30
0.0
  0
VERTEX
  5
1B3
330
199
100
AcDbEntity
  8
STANDARDEBENE
 62
     7
100
AcDbVertex
100
AcDb2dVertex
 10
-11.35038384047838
 20
192.8058023606527
 30
0.0
  0
VERTEX
  5
1B4
330
199
100
AcDbEntity
  8
STANDARDEBENE
 62
     7
100
AcDbVertex
100
AcDb2dVertex
 10
-11.35038384047838
 20
194.0773871042584
 30
0.0
  0
VERTEX
  5
1B5
330
199
100
AcDbEntity
  8
STANDARDEBENE
 62
     7
100
AcDbVertex
100
AcDb2dVertex
 10
-11.35038384047838
 20
195.174994525859
 30
0.0
  0
VERTEX
  5
1B6
330
199
100
AcDbEntity
  8
STANDARDEBENE
 62
     7
100
AcDbVertex
100
AcDb2dVertex
 10
-11.35038384047838
 20
196.0876003199017
 30
0.0
  0
VERTEX
  5
1B7
330
199
100
AcDbEntity
  8
STANDARDEBENE
 62
     7
100
AcDbVertex
100
AcDb2dVertex
 10
-11.35038384047838
 20
196.8065917476734
 30
0.0
  0
VERTEX
  5
1B8
330
199
100
AcDbEntity
  8
STANDARDEBENE
 62
     7
100
AcDbVertex
100
AcDb2dVertex
 10
-11.35038384047838
 20
197.3250786182035
 30
0.0
  0
VERTEX
  5
1B9
330
199
100
AcDbEntity
  8
STANDARDEBENE
 62
     7
100
AcDbVertex
100
AcDb2dVertex
 10
-11.35038384047838
 20
197.6385823073612
 30
0.0
  0
VERTEX
  5
1BA
330
199
100
AcDbEntity
  8
STANDARDEBENE
 62
     7
100
AcDbVertex
100
AcDb2dVertex
 10
-11.35038384047838
 20
197.7429687005643
 30
0.0
  0
SEQEND
  5
1BB
330
199
100
AcDbEntity
  8
STANDARDEBENE
  0
POLYLINE
  5
1BC
330
1F
100
AcDbEntity
  8
STANDARDEBENE
 62
     7
100
AcDb2dPolyline
 66
     1
 10
0.0
 20
0.0
 30
0.0
  0
VERTEX
  5
1BD
330
1BC
100
AcDbEntity
  8
STANDARDEBENE
 62
     7
100
AcDbVertex
100
AcDb2dVertex
 10
-5.35040554336726
 20
159.9936794304877
 30
0.0
  0
VERTEX
  5
1BE
330
1BC
100
AcDbEntity
  8
STANDARDEBENE
 62
     7
100
AcDbVertex
100
AcDb2dVertex
 10
-5.35040554336726
 20
160.1018554287245
 30
0.0
  0
VERTEX
  5
1BF
330
1BC
100
AcDbEntity
  8
STANDARDEBENE
 62
     7
100
AcDbVertex
100
AcDb2dVertex
 10
-5.35040554336726
 20
160.4246608756925
 30
0.0
  0
VERTEX
  5
1C0
330
1BC
100
AcDbEntity
  8
STANDARDEBENE
 62
     7
100
AcDbVertex
100
AcDb2dVertex
 10
-5.35040554336726
 20
160.9583061663577
 30
0.0
  0
VERTEX
  5
1C1
330
1BC
100
AcDbEntity
  8
STANDARDEBENE
 62
     7
100
AcDbVertex
100
AcDb2dVertex
 10
-5.35040554336726
 20
161.6952120906526
 30
0.0
  0
VERTEX
  5
1C2
330
1BC
100
AcDbEntity
  8
STANDARDEBENE
 62
     7
100
AcDbVertex
100
AcDb2dVertex
 10
-5.35040554336726
 20
162.6257323812186
 30
0.0
  0
VERTEX
  5
1C3
330
1BC
100
AcDbEntity
  8
STANDARDEBENE
 62
     7
100
AcDbVertex
100
AcDb2dVertex
 10
-5.35040554336726
 20
163.7367756752116
 30
0.0
  0
VERTEX
  5
1C4
330
1BC
100
AcDbEntity
  8
STANDARDEBENE
 62
     7
100
AcDbVertex
100
AcDb2dVertex
 10
-5.35040554336726
 20
165.0138725715938
 30
0.0
  0
VERTEX
  5
1C5
330
1BC
100
AcDbEntity
  8
STANDARDEBENE
 62
     7
100
AcDbVertex
100
AcDb2dVertex
 10
-5.35040554336726
 20
166.4384195547446
 30
0.0
  0
VERTEX
  5
1C6
330
1BC
100
AcDbEntity
  8
STANDARDEBENE
 62
     7
100
AcDbVertex
100
AcDb2dVertex
 10
-5.35040554336726
 20
167.9931911472378
 30
0.0
  0
VERTEX
  5
1C7
330
1BC
100
AcDbEntity
  8
STANDARDEBENE
 62
     7
100
AcDbVertex
100
AcDb2dVertex
 10
-5.35040554336726
 20
169.6561387379679
 30
0.0
  0
VERTEX
  5
1C8
330
1BC
100
AcDbEntity
  8
STANDARDEBENE
 62
     7
100
AcDbVertex
100
AcDb2dVertex
 10
-5.35040554336726
 20
171.4045246967322
 30
0.0
  0
VERTEX
  5
1C9
330
1BC
100
AcDbEntity
  8
STANDARDEBENE
 62
     7
100
AcDbVertex
100
AcDb2dVertex
 10
-5.35040554336726
 20
173.2145778646825
 30
0.0
  0
VERTEX
  5
1CA
330
1BC
100
AcDbEntity
  8
STANDARDEBENE
 62
     7
100
AcDbVertex
100
AcDb2dVertex
 10
-5.35040554336726
 20
175.0632161020675
 30
0.0
  0
VERTEX
  5
1CB
330
1BC
100
AcDbEntity
  8
STANDARDEBENE
 62
     7
100
AcDbVertex
100
AcDb2dVertex
 10
-5.35040554336726
 20
176.9235676641024
 30
0.0
  0
VERTEX
  5
1CC
330
1BC
100
AcDbEntity
  8
STANDARDEBENE
 62
     7
100
AcDbVertex
100
AcDb2dVertex
 10
-5.35040554336726
 20
178.771861391939
 30
0.0
  0
VERTEX
  5
1CD
330
1BC
100
AcDbEntity
  8
STANDARDEBENE
 62
     7
100
AcDbVertex
100
AcDb2dVertex
 10
-5.35040554336726
 20
180.5819145598892
 30
0.0
  0
VERTEX
  5
1CE
330
1BC
100
AcDbEntity
  8
STANDARDEBENE
 62
     7
100
AcDbVertex
100
AcDb2dVertex
 10
-5.35040554336726
 20
182.3303005186535
 30
0.0
  0
VERTEX
  5
1CF
330
1BC
100
AcDbEntity
  8
STANDARDEBENE
 62
     7
100
AcDbVertex
100
AcDb2dVertex
 10
-5.35040554336726
 20
183.9929035998351
 30
0.0
  0
VERTEX
  5
1D0
330
1BC
100
AcDbEntity
  8
STANDARDEBENE
 62
     7
100
AcDbVertex
100
AcDb2dVertex
 10
-5.35040554336726
 20
185.5480197018769
 30
0.0
  0
VERTEX
  5
1D1
330
1BC
100
AcDbEntity
  8
STANDARDEBENE
 62
     7
100
AcDbVertex
100
AcDb2dVertex
 10
-5.35040554336726
 20
186.9729111945762
 30
0.0
  0
VERTEX
  5
1D2
330
1BC
100
AcDbEntity
  8
STANDARDEBENE
 62
     7
100
AcDbVertex
100
AcDb2dVertex
 10
-5.35040554336726
 20
188.2500080909583
 30
0.0
  0
VERTEX
  5
1D3
330
1BC
100
AcDbEntity
  8
STANDARDEBENE
 62
     7
100
AcDbVertex
100
AcDb2dVertex
 10
-5.35040554336726
 20
189.3610513849514
 30
0.0
  0
VERTEX
  5
1D4
330
1BC
100
AcDbEntity
  8
STANDARDEBENE
 62
     7
100
AcDbVertex
100
AcDb2dVertex
 10
-5.35040554336726
 20
190.2915716755174
 30
0.0
  0
VERTEX
  5
1D5
330
1BC
100
AcDbEntity
  8
STANDARDEBENE
 62
     7
100
AcDbVertex
100
AcDb2dVertex
 10
-5.35040554336726
 20
191.0281330902638
 30
0.0
  0
VERTEX
  5
1D6
330
1BC
100
AcDbEntity
  8
STANDARDEBENE
 62
     7
100
AcDbVertex
100
AcDb2dVertex
 10
-5.35040554336726
 20
191.561778380929
 30
0.0
  0
VERTEX
  5
1D7
330
1BC
100
AcDbEntity
  8
STANDARDEBENE
 62
     7
100
AcDbVertex
100
AcDb2dVertex
 10
-5.35040554336726
 20
191.8849283374454
 30
0.0
  0
VERTEX
  5
1D8
330
1BC
100
AcDbEntity
  8
STANDARDEBENE
 62
     7
100
AcDbVertex
100
AcDb2dVertex
 10
-5.35040554336726
 20
191.9931043356823
 30
0.0
  0
SEQEND
  5
1D9
330
1BC
100
AcDbEntity
  8
STANDARDEBENE
  0
POLYLINE
  5
1DA
330
1F
100
AcDbEntity
  8
STANDARDEBENE
 62
     7
100
AcDb2dPolyline
 66
     1
 10
0.0
 20
0.0
 30
0.0
  0
VERTEX
  5
1DB
330
1DA
100
AcDbEntity
  8
STANDARDEBENE
 62
     7
100
AcDbVertex
100
AcDb2dVertex
 10
-5.35040554336726
 20
164.934635375433
 30
0.0
  0
VERTEX
  5
1DC
330
1DA
100
AcDbEntity
  8
STANDARDEBENE
 62
     7
100
AcDbVertex
100
AcDb2dVertex
 10
4.149789766757691
 20
165.1720024543667
 30
0.0
  0
VERTEX
  5
1DD
330
1DA
100
AcDbEntity
  8
STANDARDEBENE
 62
     7
100
AcDbVertex
100
AcDb2dVertex
 10
13.64964056733412
 20
165.4093695333004
 30
0.0
  0
SEQEND
  5
1DE
330
1DA
100
AcDbEntity
  8
STANDARDEBENE
  0
POLYLINE
  5
1DF
330
1F
100
AcDbEntity
  8
STANDARDEBENE
 62
     7
100
AcDb2dPolyline
 66
     1
 10
0.0
 20
0.0
 30
0.0
  0
VERTEX
  5
1E0
330
1DF
100
AcDbEntity
  8
STANDARDEBENE
 62
     7
100
AcDbVertex
100
AcDb2dVertex
 10
13.64964056733412
 20
186.5777587424181
 30
0.0
  0
VERTEX
  5
1E1
330
1DF
100
AcDbEntity
  8
STANDARDEBENE
 62
     7
100
AcDbVertex
100
AcDb2dVertex
 10
4.149789766757691
 20
186.8151258213518
 30
0.0
  0
VERTEX
  5
1E2
330
1DF
100
AcDbEntity
  8
STANDARDEBENE
 62
     7
100
AcDbVertex
100
AcDb2dVertex
 10
-5.35040554336726
 20
187.052148390737
 30
0.0
  0
SEQEND
  5
1E3
330
1DF
100
AcDbEntity
  8
STANDARDEBENE
  0
POLYLINE
  5
1E4
330
1F
100
AcDbEntity
  8
STANDARDEBENE
 62
     7
100
AcDb2dPolyline
 66
     1
 10
0.0
 20
0.0
 30
0.0
  0
VERTEX
  5
1E5
330
1E4
100
AcDbEntity
  8
STANDARDEBENE
 62
     7
100
AcDbVertex
100
AcDb2dVertex
 10
13.64964056733412
 20
186.5777587424181
 30
0.0
  0
VERTEX
  5
1E6
330
1E4
100
AcDbEntity
  8
STANDARDEBENE
 62
     7
100
AcDbVertex
100
AcDb2dVertex
 10
13.64964056733412
 20
186.5588107172492
 30
0.0
  0
VERTEX
  5
1E7
330
1E4
100
AcDbEntity
  8
STANDARDEBENE
 62
     7
100
AcDbVertex
100
AcDb2dVertex
 10
13.64964056733412
 20
186.514713495038
 30
0.0
  0
VERTEX
  5
1E8
330
1E4
100
AcDbEntity
  8
STANDARDEBENE
 62
     7
100
AcDbVertex
100
AcDb2dVertex
 10
13.64964056733412
 20
186.4489121712697
 30
0.0
  0
VERTEX
  5
1E9
330
1E4
100
AcDbEntity
  8
STANDARDEBENE
 62
     7
100
AcDbVertex
100
AcDb2dVertex
 10
13.64964056733412
 20
186.2563313336443
 30
0.0
  0
VERTEX
  5
1EA
330
1E4
100
AcDbEntity
  8
STANDARDEBENE
 62
     7
100
AcDbVertex
100
AcDb2dVertex
 10
13.64964056733412
 20
185.9872693762462
 30
0.0
  0
VERTEX
  5
1EB
330
1E4
100
AcDbEntity
  8
STANDARDEBENE
 62
     7
100
AcDbVertex
100
AcDb2dVertex
 10
13.64964056733412
 20
185.6482719804977
 30
0.0
  0
VERTEX
  5
1EC
330
1E4
100
AcDbEntity
  8
STANDARDEBENE
 62
     7
100
AcDbVertex
100
AcDb2dVertex
 10
13.64964056733412
 20
185.2417507132382
 30
0.0
  0
VERTEX
  5
1ED
330
1E4
100
AcDbEntity
  8
STANDARDEBENE
 62
     7
100
AcDbVertex
100
AcDb2dVertex
 10
13.64964056733412
 20
184.7725287081471
 30
0.0
  0
VERTEX
  5
1EE
330
1E4
100
AcDbEntity
  8
STANDARDEBENE
 62
     7
100
AcDbVertex
100
AcDb2dVertex
 10
13.64964056733412
 20
184.2437065511613
 30
0.0
  0
VERTEX
  5
1EF
330
1E4
100
AcDbEntity
  8
STANDARDEBENE
 62
     7
100
AcDbVertex
100
AcDb2dVertex
 10
13.64964056733412
 20
183.6573512995718
 30
0.0
  0
VERTEX
  5
1F0
330
1E4
100
AcDbEntity
  8
STANDARDEBENE
 62
     7
100
AcDbVertex
100
AcDb2dVertex
 10
13.64964056733412
 20
183.0155300106697
 30
0.0
  0
VERTEX
  5
1F1
330
1E4
100
AcDbEntity
  8
STANDARDEBENE
 62
     7
100
AcDbVertex
100
AcDb2dVertex
 10
13.64964056733412
 20
182.3199652321978
 30
0.0
  0
VERTEX
  5
1F2
330
1E4
100
AcDbEntity
  8
STANDARDEBENE
 62
     7
100
AcDbVertex
100
AcDb2dVertex
 10
13.64964056733412
 20
181.5710014737045
 30
0.0
  0
VERTEX
  5
1F3
330
1E4
100
AcDbEntity
  8
STANDARDEBENE
 62
     7
100
AcDbVertex
100
AcDb2dVertex
 10
13.64964056733412
 20
180.7717393211265
 30
0.0
  0
VERTEX
  5
1F4
330
1E4
100
AcDbEntity
  8
STANDARDEBENE
 62
     7
100
AcDbVertex
100
AcDb2dVertex
 10
13.64964056733412
 20
179.923556812658
 30
0.0
  0
VERTEX
  5
1F5
330
1E4
100
AcDbEntity
  8
STANDARDEBENE
 62
     7
100
AcDbVertex
100
AcDb2dVertex
 10
13.64964056733412
 20
179.0281764960416
 30
0.0
  0
VERTEX
  5
1F6
330
1E4
100
AcDbEntity
  8
STANDARDEBENE
 62
     7
100
AcDbVertex
100
AcDb2dVertex
 10
13.64964056733412
 20
178.0897324858595
 30
0.0
  0
VERTEX
  5
1F7
330
1E4
100
AcDbEntity
  8
STANDARDEBENE
 62
     7
100
AcDbVertex
100
AcDb2dVertex
 10
13.64964056733412
 20
177.6067300988275
 30
0.0
  0
VERTEX
  5
1F8
330
1E4
100
AcDbEntity
  8
STANDARDEBENE
 62
     7
100
AcDbVertex
100
AcDb2dVertex
 10
13.64964056733412
 20
177.116837520825
 30
0.0
  0
VERTEX
  5
1F9
330
1E4
100
AcDbEntity
  8
STANDARDEBENE
 62
     7
100
AcDbVertex
100
AcDb2dVertex
 10
13.64964056733412
 20
176.6238443568857
 30
0.0
  0
VERTEX
  5
1FA
330
1E4
100
AcDbEntity
  8
STANDARDEBENE
 62
     7
100
AcDbVertex
100
AcDb2dVertex
 10
13.64964056733412
 20
176.1277506070097
 30
0.0
  0
VERTEX
  5
1FB
330
1E4
100
AcDbEntity
  8
STANDARDEBENE
 62
     7
100
AcDbVertex
100
AcDb2dVertex
 10
13.64964056733412
 20
175.8779811843291
 30
0.0
  0
VERTEX
  5
1FC
330
1E4
100
AcDbEntity
  8
STANDARDEBENE
 62
     7
100
AcDbVertex
100
AcDb2dVertex
 10
13.64964056733412
 20
175.6292452902941
 30
0.0
  0
VERTEX
  5
1FD
330
1E4
100
AcDbEntity
  8
STANDARDEBENE
 62
     7
100
AcDbVertex
100
AcDb2dVertex
 10
13.64964056733412
 20
175.3818874344531
 30
0.0
  0
VERTEX
  5
1FE
330
1E4
100
AcDbEntity
  8
STANDARDEBENE
 62
     7
100
AcDbVertex
100
AcDb2dVertex
 10
13.64964056733412
 20
175.1352185977093
 30
0.0
  0
VERTEX
  5
1FF
330
1E4
100
AcDbEntity
  8
STANDARDEBENE
 62
     7
100
AcDbVertex
100
AcDb2dVertex
 10
13.64964056733412
 20
174.6432589624156
 30
0.0
  0
VERTEX
  5
200
330
1E4
100
AcDbEntity
  8
STANDARDEBENE
 62
     7
100
AcDbVertex
100
AcDb2dVertex
 10
13.64964056733412
 20
174.1561224608012
 30
0.0
  0
VERTEX
  5
201
330
1E4
100
AcDbEntity
  8
STANDARDEBENE
 62
     7
100
AcDbVertex
100
AcDb2dVertex
 10
13.64964056733412
 20
173.2073431641635
 30
0.0
  0
VERTEX
  5
202
330
1E4
100
AcDbEntity
  8
STANDARDEBENE
 62
     7
100
AcDbVertex
100
AcDb2dVertex
 10
13.64964056733412
 20
172.3002495228972
 30
0.0
  0
VERTEX
  5
203
330
1E4
100
AcDbEntity
  8
STANDARDEBENE
 62
     7
100
AcDbVertex
100
AcDb2dVertex
 10
13.64964056733412
 20
171.4386311420362
 30
0.0
  0
VERTEX
  5
204
330
1E4
100
AcDbEntity
  8
STANDARDEBENE
 62
     7
100
AcDbVertex
100
AcDb2dVertex
 10
13.64964056733412
 20
170.6259331170658
 30
0.0
  0
VERTEX
  5
205
330
1E4
100
AcDbEntity
  8
STANDARDEBENE
 62
     7
100
AcDbVertex
100
AcDb2dVertex
 10
13.64964056733412
 20
169.8628444670829
 30
0.0
  0
VERTEX
  5
206
330
1E4
100
AcDbEntity
  8
STANDARDEBENE
 62
     7
100
AcDbVertex
100
AcDb2dVertex
 10
13.64964056733412
 20
169.1528102875729
 30
0.0
  0
VERTEX
  5
207
330
1E4
100
AcDbEntity
  8
STANDARDEBENE
 62
     7
100
AcDbVertex
100
AcDb2dVertex
 10
13.64964056733412
 20
168.4965195976328
 30
0.0
  0
VERTEX
  5
208
330
1E4
100
AcDbEntity
  8
STANDARDEBENE
 62
     7
100
AcDbVertex
100
AcDb2dVertex
 10
13.64964056733412
 20
167.8953504354567
 30
0.0
  0
VERTEX
  5
209
330
1E4
100
AcDbEntity
  8
STANDARDEBENE
 62
     7
100
AcDbVertex
100
AcDb2dVertex
 10
13.64964056733412
 20
167.3510253487873
 30
0.0
  0
VERTEX
  5
20A
330
1E4
100
AcDbEntity
  8
STANDARDEBENE
 62
     7
100
AcDbVertex
100
AcDb2dVertex
 10
13.64964056733412
 20
166.8649223758185
 30
0.0
  0
VERTEX
  5
20B
330
1E4
100
AcDbEntity
  8
STANDARDEBENE
 62
     7
100
AcDbVertex
100
AcDb2dVertex
 10
13.64964056733412
 20
166.4422091597783
 30
0.0
  0
VERTEX
  5
20C
330
1E4
100
AcDbEntity
  8
STANDARDEBENE
 62
     7
100
AcDbVertex
100
AcDb2dVertex
 10
13.64964056733412
 20
166.0842637388609
 30
0.0
  0
VERTEX
  5
20D
330
1E4
100
AcDbEntity
  8
STANDARDEBENE
 62
     7
100
AcDbVertex
100
AcDb2dVertex
 10
13.64964056733412
 20
165.7955647371969
 30
0.0
  0
VERTEX
  5
20E
330
1E4
100
AcDbEntity
  8
STANDARDEBENE
 62
     7
100
AcDbVertex
100
AcDb2dVertex
 10
13.64964056733412
 20
165.5816243075629
 30
0.0
  0
VERTEX
  5
20F
330
1E4
100
AcDbEntity
  8
STANDARDEBENE
 62
     7
100
AcDbVertex
100
AcDb2dVertex
 10
13.64964056733412
 20
165.5044541686933
 30
0.0
  0
VERTEX
  5
210
330
1E4
100
AcDbEntity
  8
STANDARDEBENE
 62
     7
100
AcDbVertex
100
AcDb2dVertex
 10
13.64964056733412
 20
165.4493326409293
 30
0.0
  0
VERTEX
  5
211
330
1E4
100
AcDbEntity
  8
STANDARDEBENE
 62
     7
100
AcDbVertex
100
AcDb2dVertex
 10
13.64964056733412
 20
165.4093695333004
 30
0.0
  0
SEQEND
  5
212
330
1E4
100
AcDbEntity
  8
STANDARDEBENE
  0
SPLINE
  5
213
330
1F
100
AcDbEntity
  8
STANDARDEBENE
 62
     7
100
AcDbSpline
210
0.0
220
0.0
230
1.0
 70
    11
 71
     3
 72
    17
 73
    13
 74
     0
 42
0.0000000001
 43
0.0000000001
 40
0.0
 40
0.0
 40
0.0
 40
0.0
 40
1.0
 40
1.0
 40
1.0
 40
2.0
 40
2.0
 40
2.0
 40
3.0
 40
3.0
 40
3.0
 40
4.0
 40
4.0
 40
4.0
 40
4.0
 10
89.58988034869628
 20
175.993391883085
 30
0.0
 10
89.58988034869628
 20
181.295049325336
 30
0.0
 10
85.29143471175006
 20
185.5931504527337
 30
0.0
 10
79.98977726949909
 20
185.5931504527337
 30
0.0
 10
74.68777531769959
 20
185.5931504527337
 30
0.0
 10
70.38967419030189
 20
181.295049325336
 30
0.0
 10
70.38967419030189
 20
175.993391883085
 30
0.0
 10
70.38967419030189
 20
170.6913899312855
 30
0.0
 10
74.68777531769959
 20
166.3932888038878
 30
0.0
 10
79.98977726949909
 20
166.3932888038878
 30
0.0
 10
85.29143471175006
 20
166.3932888038878
 30
0.0
 10
89.58988034869628
 20
170.6913899312855
 30
0.0
 10
89.58988034869628
 20
175.993391883085
 30
0.0
  0
SPLINE
  5
214
330
1F
100
AcDbEntity
  8
STANDARDEBENE
 62
     7
100
AcDbSpline
210
0.0
220
0.0
230
1.0
 70
    11
 71
     3
 72
    17
 73
    13
 74
     0
 42
0.0000000001
 43
0.0000000001
 40
0.0
 40
0.0
 40
0.0
 40
0.0
 40
1.0
 40
1.0
 40
1.0
 40
2.0
 40
2.0
 40
2.0
 40
3.0
 40
3.0
 40
3.0
 40
4.0
 40
4.0
 40
4.0
 40
4.0
 10
101.7398708513011
 20
175.993391883085
 30
0.0
 10
101.7398708513011
 20
188.0054063115056
 30
0.0
 10
92.00213620746823
 20
197.7429687005643
 30
0.0
 10
79.98977726949909
 20
197.7429687005643
 30
0.0
 10
67.978107350627
 20
197.7429687005643
 30
0.0
 10
58.23951143292276
 20
188.0054063115056
 30
0.0
 10
58.23951143292276
 20
175.993391883085
 30
0.0
 10
58.23951143292276
 20
163.9810329451159
 30
0.0
 10
67.978107350627
 20
154.2434705560572
 30
0.0
 10
79.98977726949909
 20
154.2434705560572
 30
0.0
 10
92.00213620746823
 20
154.2434705560572
 30
0.0
 10
101.7398708513011
 20
163.9810329451159
 30
0.0
 10
101.7398708513011
 20
175.993391883085
 30
0.0
  0
SPLINE
  5
215
330
1F
100
AcDbEntity
  8
STANDARDEBENE
 62
     7
100
AcDbSpline
210
0.0
220
0.0
230
1.0
 70
    11
 71
     3
 72
    17
 73
    13
 74
     0
 42
0.0000000001
 43
0.0000000001
 40
0.0
 40
0.0
 40
0.0
 40
0.0
 40
1.0
 40
1.0
 40
1.0
 40
2.0
 40
2.0
 40
2.0
 40
3.0
 40
3.0
 40
3.0
 40
4.0
 40
4.0
 40
4.0
 40
4.0
 10
85.99010007615873
 20
175.993391883085
 30
0.0
 10
85.99010007615873
 20
179.3068847207983
 30
0.0
 10
83.30361461676091
 20
181.9926811610991
 30
0.0
 10
79.98977726949909
 20
181.9926811610991
 30
0.0
 10
76.67593992223726
 20
181.9926811610991
 30
0.0
 10
73.98979897238797
 20
179.3068847207983
 30
0.0
 10
73.98979897238797
 20
175.993391883085
 30
0.0
 10
73.98979897238797
 20
172.6798990453717
 30
0.0
 10
76.67593992223726
 20
169.9937580955224
 30
0.0
 10
79.98977726949909
 20
169.9937580955224
 30
0.0
 10
83.30361461676091
 20
169.9937580955224
 30
0.0
 10
85.99010007615873
 20
172.6798990453717
 30
0.0
 10
85.99010007615873
 20
175.993391883085
 30
0.0
  0
POLYLINE
  5
216
330
1F
100
AcDbEntity
  8
STANDARDEBENE
 62
     7
100
AcDb2dPolyline
 66
     1
 10
0.0
 20
0.0
 30
0.0
  0
VERTEX
  5
217
330
216
100
AcDbEntity
  8
STANDARDEBENE
 62
     7
100
AcDbVertex
100
AcDb2dVertex
 10
-38.84982502283963
 20
124.3507215400929
 30
0.0
  0
VERTEX
  5
218
330
216
100
AcDbEntity
  8
STANDARDEBENE
 62
     7
100
AcDbVertex
100
AcDb2dVertex
 10
-47.34990911359655
 20
112.2012478018108
 30
0.0
  0
SEQEND
  5
219
330
216
100
AcDbEntity
  8
STANDARDEBENE
  0
POLYLINE
  5
21A
330
1F
100
AcDbEntity
  8
STANDARDEBENE
 62
     7
100
AcDb2dPolyline
 66
     1
 10
0.0
 20
0.0
 30
0.0
  0
VERTEX
  5
21B
330
21A
100
AcDbEntity
  8
STANDARDEBENE
 62
     7
100
AcDbVertex
100
AcDb2dVertex
 10
-47.34990911359655
 20
93.00104164341641
 30
0.0
  0
VERTEX
  5
21C
330
21A
100
AcDbEntity
  8
STANDARDEBENE
 62
     7
100
AcDbVertex
100
AcDb2dVertex
 10
-38.84982502283963
 20
80.8512233955858
 30
0.0
  0
SEQEND
  5
21D
330
21A
100
AcDbEntity
  8
STANDARDEBENE
  0
POLYLINE
  5
21E
330
1F
100
AcDbEntity
  8
STANDARDEBENE
 62
     7
100
AcDb2dPolyline
 66
     1
 10
0.0
 20
0.0
 30
0.0
  0
VERTEX
  5
21F
330
21E
100
AcDbEntity
  8
STANDARDEBENE
 62
     7
100
AcDbVertex
100
AcDb2dVertex
 10
-11.35038384047838
 20
124.3507215400929
 30
0.0
  0
VERTEX
  5
220
330
21E
100
AcDbEntity
  8
STANDARDEBENE
 62
     7
100
AcDbVertex
100
AcDb2dVertex
 10
-38.84982502283963
 20
124.3507215400929
 30
0.0
  0
SEQEND
  5
221
330
21E
100
AcDbEntity
  8
STANDARDEBENE
  0
POLYLINE
  5
222
330
1F
100
AcDbEntity
  8
STANDARDEBENE
 62
     7
100
AcDb2dPolyline
 66
     1
 10
0.0
 20
0.0
 30
0.0
  0
VERTEX
  5
223
330
222
100
AcDbEntity
  8
STANDARDEBENE
 62
     7
100
AcDbVertex
100
AcDb2dVertex
 10
-38.84982502283963
 20
80.8512233955858
 30
0.0
  0
VERTEX
  5
224
330
222
100
AcDbEntity
  8
STANDARDEBENE
 62
     7
100
AcDbVertex
100
AcDb2dVertex
 10
-11.35038384047838
 20
80.8512233955858
 30
0.0
  0
SEQEND
  5
225
330
222
100
AcDbEntity
  8
STANDARDEBENE
  0
POLYLINE
  5
226
330
1F
100
AcDbEntity
  8
STANDARDEBENE
 62
     7
100
AcDb2dPolyline
 66
     1
 10
0.0
 20
0.0
 30
0.0
  0
VERTEX
  5
227
330
226
100
AcDbEntity
  8
STANDARDEBENE
 62
     7
100
AcDbVertex
100
AcDb2dVertex
 10
-5.35040554336726
 20
118.6012016847594
 30
0.0
  0
VERTEX
  5
228
330
226
100
AcDbEntity
  8
STANDARDEBENE
 62
     7
100
AcDbVertex
100
AcDb2dVertex
 10
-11.35038384047838
 20
118.6012016847594
 30
0.0
  0
SEQEND
  5
229
330
226
100
AcDbEntity
  8
STANDARDEBENE
  0
POLYLINE
  5
22A
330
1F
100
AcDbEntity
  8
STANDARDEBENE
 62
     7
100
AcDb2dPolyline
 66
     1
 10
0.0
 20
0.0
 30
0.0
  0
VERTEX
  5
22B
330
22A
100
AcDbEntity
  8
STANDARDEBENE
 62
     7
100
AcDbVertex
100
AcDb2dVertex
 10
-11.35038384047838
 20
86.60108776046779
 30
0.0
  0
VERTEX
  5
22C
330
22A
100
AcDbEntity
  8
STANDARDEBENE
 62
     7
100
AcDbVertex
100
AcDb2dVertex
 10
-5.35040554336726
 20
86.60108776046779
 30
0.0
  0
SEQEND
  5
22D
330
22A
100
AcDbEntity
  8
STANDARDEBENE
  0
POLYLINE
  5
22E
330
1F
100
AcDbEntity
  8
STANDARDEBENE
 62
     7
100
AcDb2dPolyline
 66
     1
 10
0.0
 20
0.0
 30
0.0
  0
VERTEX
  5
22F
330
22E
100
AcDbEntity
  8
STANDARDEBENE
 62
     7
100
AcDbVertex
100
AcDb2dVertex
 10
-47.34990911359655
 20
102.6014892321621
 30
0.0
  0
VERTEX
  5
230
330
22E
100
AcDbEntity
  8
STANDARDEBENE
 62
     7
100
AcDbVertex
100
AcDb2dVertex
 10
-47.34990911359655
 20
104.102861844634
 30
0.0
  0
VERTEX
  5
231
330
22E
100
AcDbEntity
  8
STANDARDEBENE
 62
     7
100
AcDbVertex
100
AcDb2dVertex
 10
-47.34990911359655
 20
105.5680609545108
 30
0.0
  0
VERTEX
  5
232
330
22E
100
AcDbEntity
  8
STANDARDEBENE
 62
     7
100
AcDbVertex
100
AcDb2dVertex
 10
-47.34990911359655
 20
106.9598795305517
 30
0.0
  0
VERTEX
  5
233
330
22E
100
AcDbEntity
  8
STANDARDEBENE
 62
     7
100
AcDbVertex
100
AcDb2dVertex
 10
-47.34990911359655
 20
108.2438666179043
 30
0.0
  0
VERTEX
  5
234
330
22E
100
AcDbEntity
  8
STANDARDEBENE
 62
     7
100
AcDbVertex
100
AcDb2dVertex
 10
-47.34990911359655
 20
109.3890163572014
 30
0.0
  0
VERTEX
  5
235
330
22E
100
AcDbEntity
  8
STANDARDEBENE
 62
     7
100
AcDbVertex
100
AcDb2dVertex
 10
-47.34990911359655
 20
110.3681124941094
 30
0.0
  0
VERTEX
  5
236
330
22E
100
AcDbEntity
  8
STANDARDEBENE
 62
     7
100
AcDbVertex
100
AcDb2dVertex
 10
-47.34990911359655
 20
111.1546277933919
 30
0.0
  0
VERTEX
  5
237
330
22E
100
AcDbEntity
  8
STANDARDEBENE
 62
     7
100
AcDbVertex
100
AcDb2dVertex
 10
-47.34990911359655
 20
111.7313367776227
 30
0.0
  0
VERTEX
  5
238
330
22E
100
AcDbEntity
  8
STANDARDEBENE
 62
     7
100
AcDbVertex
100
AcDb2dVertex
 10
-47.34990911359655
 20
112.0827365171182
 30
0.0
  0
VERTEX
  5
239
330
22E
100
AcDbEntity
  8
STANDARDEBENE
 62
     7
100
AcDbVertex
100
AcDb2dVertex
 10
-47.34990911359655
 20
112.2012478018108
 30
0.0
  0
SEQEND
  5
23A
330
22E
100
AcDbEntity
  8
STANDARDEBENE
  0
POLYLINE
  5
23B
330
1F
100
AcDbEntity
  8
STANDARDEBENE
 62
     7
100
AcDb2dPolyline
 66
     1
 10
0.0
 20
0.0
 30
0.0
  0
VERTEX
  5
23C
330
23B
100
AcDbEntity
  8
STANDARDEBENE
 62
     7
100
AcDbVertex
100
AcDb2dVertex
 10
-47.34990911359655
 20
93.00104164341641
 30
0.0
  0
VERTEX
  5
23D
330
23B
100
AcDbEntity
  8
STANDARDEBENE
 62
     7
100
AcDbVertex
100
AcDb2dVertex
 10
-47.34990911359655
 20
93.11920841856048
 30
0.0
  0
VERTEX
  5
23E
330
23B
100
AcDbEntity
  8
STANDARDEBENE
 62
     7
100
AcDbVertex
100
AcDb2dVertex
 10
-47.34990911359655
 20
93.47060815805597
 30
0.0
  0
VERTEX
  5
23F
330
23B
100
AcDbEntity
  8
STANDARDEBENE
 62
     7
100
AcDbVertex
100
AcDb2dVertex
 10
-47.34990911359655
 20
94.04766165183531
 30
0.0
  0
VERTEX
  5
240
330
23B
100
AcDbEntity
  8
STANDARDEBENE
 62
     7
100
AcDbVertex
100
AcDb2dVertex
 10
-47.34990911359655
 20
94.83452146066638
 30
0.0
  0
VERTEX
  5
241
330
23B
100
AcDbEntity
  8
STANDARDEBENE
 62
     7
100
AcDbVertex
100
AcDb2dVertex
 10
-47.34990911359655
 20
95.81292857847733
 30
0.0
  0
VERTEX
  5
242
330
23B
100
AcDbEntity
  8
STANDARDEBENE
 62
     7
100
AcDbVertex
100
AcDb2dVertex
 10
-47.34990911359655
 20
96.95911184641994
 30
0.0
  0
VERTEX
  5
243
330
23B
100
AcDbEntity
  8
STANDARDEBENE
 62
     7
100
AcDbVertex
100
AcDb2dVertex
 10
-47.34990911359655
 20
98.24240991467552
 30
0.0
  0
VERTEX
  5
244
330
23B
100
AcDbEntity
  8
STANDARDEBENE
 62
     7
100
AcDbVertex
100
AcDb2dVertex
 10
-47.34990911359655
 20
99.63422849071645
 30
0.0
  0
VERTEX
  5
245
330
23B
100
AcDbEntity
  8
STANDARDEBENE
 62
     7
100
AcDbVertex
100
AcDb2dVertex
 10
-47.34990911359655
 20
101.0994276005932
 30
0.0
  0
VERTEX
  5
246
330
23B
100
AcDbEntity
  8
STANDARDEBENE
 62
     7
100
AcDbVertex
100
AcDb2dVertex
 10
-47.34990911359655
 20
102.6014892321621
 30
0.0
  0
SEQEND
  5
247
330
23B
100
AcDbEntity
  8
STANDARDEBENE
  0
POLYLINE
  5
248
330
1F
100
AcDbEntity
  8
STANDARDEBENE
 62
     7
100
AcDb2dPolyline
 66
     1
 10
0.0
 20
0.0
 30
0.0
  0
VERTEX
  5
249
330
248
100
AcDbEntity
  8
STANDARDEBENE
 62
     7
100
AcDbVertex
100
AcDb2dVertex
 10
-38.84982502283963
 20
102.6014892321621
 30
0.0
  0
VERTEX
  5
24A
330
248
100
AcDbEntity
  8
STANDARDEBENE
 62
     7
100
AcDbVertex
100
AcDb2dVertex
 10
-38.84982502283963
 20
104.7329698088862
 30
0.0
  0
VERTEX
  5
24B
330
248
100
AcDbEntity
  8
STANDARDEBENE
 62
     7
100
AcDbVertex
100
AcDb2dVertex
 10
-38.84982502283963
 20
106.8444688317958
 30
0.0
  0
VERTEX
  5
24C
330
248
100
AcDbEntity
  8
STANDARDEBENE
 62
     7
100
AcDbVertex
100
AcDb2dVertex
 10
-38.84982502283963
 20
108.9146267088825
 30
0.0
  0
VERTEX
  5
24D
330
248
100
AcDbEntity
  8
STANDARDEBENE
 62
     7
100
AcDbVertex
100
AcDb2dVertex
 10
-38.84982502283963
 20
110.9241509054287
 30
0.0
  0
VERTEX
  5
24E
330
248
100
AcDbEntity
  8
STANDARDEBENE
 62
     7
100
AcDbVertex
100
AcDb2dVertex
 10
-38.84982502283963
 20
112.8540933962657
 30
0.0
  0
VERTEX
  5
24F
330
248
100
AcDbEntity
  8
STANDARDEBENE
 62
     7
100
AcDbVertex
100
AcDb2dVertex
 10
-38.84982502283963
 20
114.6851616466759
 30
0.0
  0
VERTEX
  5
250
330
248
100
AcDbEntity
  8
STANDARDEBENE
 62
     7
100
AcDbVertex
100
AcDb2dVertex
 10
-38.84982502283963
 20
116.3987521410392
 30
0.0
  0
VERTEX
  5
251
330
248
100
AcDbEntity
  8
STANDARDEBENE
 62
     7
100
AcDbVertex
100
AcDb2dVertex
 10
-38.84982502283963
 20
117.9803954783174
 30
0.0
  0
VERTEX
  5
252
330
248
100
AcDbEntity
  8
STANDARDEBENE
 62
     7
100
AcDbVertex
100
AcDb2dVertex
 10
-38.84982502283963
 20
119.4145887288269
 30
0.0
  0
VERTEX
  5
253
330
248
100
AcDbEntity
  8
STANDARDEBENE
 62
     7
100
AcDbVertex
100
AcDb2dVertex
 10
-38.84982502283963
 20
120.6858289628841
 30
0.0
  0
VERTEX
  5
254
330
248
100
AcDbEntity
  8
STANDARDEBENE
 62
     7
100
AcDbVertex
100
AcDb2dVertex
 10
-38.84982502283963
 20
121.7830918749362
 30
0.0
  0
VERTEX
  5
255
330
248
100
AcDbEntity
  8
STANDARDEBENE
 62
     7
100
AcDbVertex
100
AcDb2dVertex
 10
-38.84982502283963
 20
122.6956976689789
 30
0.0
  0
VERTEX
  5
256
330
248
100
AcDbEntity
  8
STANDARDEBENE
 62
     7
100
AcDbVertex
100
AcDb2dVertex
 10
-38.84982502283963
 20
123.4146890967505
 30
0.0
  0
VERTEX
  5
257
330
248
100
AcDbEntity
  8
STANDARDEBENE
 62
     7
100
AcDbVertex
100
AcDb2dVertex
 10
-38.84982502283963
 20
123.9335204768291
 30
0.0
  0
VERTEX
  5
258
330
248
100
AcDbEntity
  8
STANDARDEBENE
 62
     7
100
AcDbVertex
100
AcDb2dVertex
 10
-38.84982502283963
 20
124.2463351468898
 30
0.0
  0
VERTEX
  5
259
330
248
100
AcDbEntity
  8
STANDARDEBENE
 62
     7
100
AcDbVertex
100
AcDb2dVertex
 10
-38.84982502283963
 20
124.3507215400929
 30
0.0
  0
SEQEND
  5
25A
330
248
100
AcDbEntity
  8
STANDARDEBENE
  0
POLYLINE
  5
25B
330
1F
100
AcDbEntity
  8
STANDARDEBENE
 62
     7
100
AcDb2dPolyline
 66
     1
 10
0.0
 20
0.0
 30
0.0
  0
VERTEX
  5
25C
330
25B
100
AcDbEntity
  8
STANDARDEBENE
 62
     7
100
AcDbVertex
100
AcDb2dVertex
 10
-38.84982502283963
 20
80.8512233955858
 30
0.0
  0
VERTEX
  5
25D
330
25B
100
AcDbEntity
  8
STANDARDEBENE
 62
     7
100
AcDbVertex
100
AcDb2dVertex
 10
-38.84982502283963
 20
80.95560978878888
 30
0.0
  0
VERTEX
  5
25E
330
25B
100
AcDbEntity
  8
STANDARDEBENE
 62
     7
100
AcDbVertex
100
AcDb2dVertex
 10
-38.84982502283963
 20
81.26876896839809
 30
0.0
  0
VERTEX
  5
25F
330
25B
100
AcDbEntity
  8
STANDARDEBENE
 62
     7
100
AcDbVertex
100
AcDb2dVertex
 10
-38.84982502283963
 20
81.78760034847672
 30
0.0
  0
VERTEX
  5
260
330
25B
100
AcDbEntity
  8
STANDARDEBENE
 62
     7
100
AcDbVertex
100
AcDb2dVertex
 10
-38.84982502283963
 20
82.50659177624836
 30
0.0
  0
VERTEX
  5
261
330
25B
100
AcDbEntity
  8
STANDARDEBENE
 62
     7
100
AcDbVertex
100
AcDb2dVertex
 10
-38.84982502283963
 20
83.41919757029103
 30
0.0
  0
VERTEX
  5
262
330
25B
100
AcDbEntity
  8
STANDARDEBENE
 62
     7
100
AcDbVertex
100
AcDb2dVertex
 10
-38.84982502283963
 20
84.51680499189163
 30
0.0
  0
VERTEX
  5
263
330
25B
100
AcDbEntity
  8
STANDARDEBENE
 62
     7
100
AcDbVertex
100
AcDb2dVertex
 10
-38.84982502283963
 20
85.78804522594882
 30
0.0
  0
VERTEX
  5
264
330
25B
100
AcDbEntity
  8
STANDARDEBENE
 62
     7
100
AcDbVertex
100
AcDb2dVertex
 10
-38.84982502283963
 20
87.2218939669098
 30
0.0
  0
VERTEX
  5
265
330
25B
100
AcDbEntity
  8
STANDARDEBENE
 62
     7
100
AcDbVertex
100
AcDb2dVertex
 10
-38.84982502283963
 20
88.80284828509096
 30
0.0
  0
VERTEX
  5
266
330
25B
100
AcDbEntity
  8
STANDARDEBENE
 62
     7
100
AcDbVertex
100
AcDb2dVertex
 10
-38.84982502283963
 20
90.5174723080998
 30
0.0
  0
VERTEX
  5
267
330
25B
100
AcDbEntity
  8
STANDARDEBENE
 62
     7
100
AcDbVertex
100
AcDb2dVertex
 10
-38.84982502283963
 20
92.34819604896157
 30
0.0
  0
VERTEX
  5
268
330
25B
100
AcDbEntity
  8
STANDARDEBENE
 62
     7
100
AcDbVertex
100
AcDb2dVertex
 10
-38.84982502283963
 20
94.27813853979852
 30
0.0
  0
VERTEX
  5
269
330
25B
100
AcDbEntity
  8
STANDARDEBENE
 62
     7
100
AcDbVertex
100
AcDb2dVertex
 10
-38.84982502283963
 20
96.28766273634476
 30
0.0
  0
VERTEX
  5
26A
330
25B
100
AcDbEntity
  8
STANDARDEBENE
 62
     7
100
AcDbVertex
100
AcDb2dVertex
 10
-38.84982502283963
 20
98.35850963252844
 30
0.0
  0
VERTEX
  5
26B
330
25B
100
AcDbEntity
  8
STANDARDEBENE
 62
     7
100
AcDbVertex
100
AcDb2dVertex
 10
-38.84982502283963
 20
100.4700086554381
 30
0.0
  0
VERTEX
  5
26C
330
25B
100
AcDbEntity
  8
STANDARDEBENE
 62
     7
100
AcDbVertex
100
AcDb2dVertex
 10
-38.84982502283963
 20
102.6014892321621
 30
0.0
  0
SEQEND
  5
26D
330
25B
100
AcDbEntity
  8
STANDARDEBENE
  0
POLYLINE
  5
26E
330
1F
100
AcDbEntity
  8
STANDARDEBENE
 62
     7
100
AcDb2dPolyline
 66
     1
 10
0.0
 20
0.0
 30
0.0
  0
VERTEX
  5
26F
330
26E
100
AcDbEntity
  8
STANDARDEBENE
 62
     7
100
AcDbVertex
100
AcDb2dVertex
 10
-11.35038384047838
 20
102.6014892321621
 30
0.0
  0
VERTEX
  5
270
330
26E
100
AcDbEntity
  8
STANDARDEBENE
 62
     7
100
AcDbVertex
100
AcDb2dVertex
 10
-11.35038384047838
 20
104.7329698088862
 30
0.0
  0
VERTEX
  5
271
330
26E
100
AcDbEntity
  8
STANDARDEBENE
 62
     7
100
AcDbVertex
100
AcDb2dVertex
 10
-11.35038384047838
 20
106.8444688317958
 30
0.0
  0
VERTEX
  5
272
330
26E
100
AcDbEntity
  8
STANDARDEBENE
 62
     7
100
AcDbVertex
100
AcDb2dVertex
 10
-11.35038384047838
 20
108.9146267088825
 30
0.0
  0
VERTEX
  5
273
330
26E
100
AcDbEntity
  8
STANDARDEBENE
 62
     7
100
AcDbVertex
100
AcDb2dVertex
 10
-11.35038384047838
 20
110.9241509054287
 30
0.0
  0
VERTEX
  5
274
330
26E
100
AcDbEntity
  8
STANDARDEBENE
 62
     7
100
AcDbVertex
100
AcDb2dVertex
 10
-11.35038384047838
 20
112.8540933962657
 30
0.0
  0
VERTEX
  5
275
330
26E
100
AcDbEntity
  8
STANDARDEBENE
 62
     7
100
AcDbVertex
100
AcDb2dVertex
 10
-11.35038384047838
 20
114.6851616466759
 30
0.0
  0
VERTEX
  5
276
330
26E
100
AcDbEntity
  8
STANDARDEBENE
 62
     7
100
AcDbVertex
100
AcDb2dVertex
 10
-11.35038384047838
 20
116.3987521410392
 30
0.0
  0
VERTEX
  5
277
330
26E
100
AcDbEntity
  8
STANDARDEBENE
 62
     7
100
AcDbVertex
100
AcDb2dVertex
 10
-11.35038384047838
 20
117.9803954783174
 30
0.0
  0
VERTEX
  5
278
330
26E
100
AcDbEntity
  8
STANDARDEBENE
 62
     7
100
AcDbVertex
100
AcDb2dVertex
 10
-11.35038384047838
 20
119.4145887288269
 30
0.0
  0
VERTEX
  5
279
330
26E
100
AcDbEntity
  8
STANDARDEBENE
 62
     7
100
AcDbVertex
100
AcDb2dVertex
 10
-11.35038384047838
 20
120.6858289628841
 30
0.0
  0
VERTEX
  5
27A
330
26E
100
AcDbEntity
  8
STANDARDEBENE
 62
     7
100
AcDbVertex
100
AcDb2dVertex
 10
-11.35038384047838
 20
121.7830918749362
 30
0.0
  0
VERTEX
  5
27B
330
26E
100
AcDbEntity
  8
STANDARDEBENE
 62
     7
100
AcDbVertex
100
AcDb2dVertex
 10
-11.35038384047838
 20
122.6956976689789
 30
0.0
  0
VERTEX
  5
27C
330
26E
100
AcDbEntity
  8
STANDARDEBENE
 62
     7
100
AcDbVertex
100
AcDb2dVertex
 10
-11.35038384047838
 20
123.4146890967505
 30
0.0
  0
VERTEX
  5
27D
330
26E
100
AcDbEntity
  8
STANDARDEBENE
 62
     7
100
AcDbVertex
100
AcDb2dVertex
 10
-11.35038384047838
 20
123.9335204768291
 30
0.0
  0
VERTEX
  5
27E
330
26E
100
AcDbEntity
  8
STANDARDEBENE
 62
     7
100
AcDbVertex
100
AcDb2dVertex
 10
-11.35038384047838
 20
124.2463351468898
 30
0.0
  0
VERTEX
  5
27F
330
26E
100
AcDbEntity
  8
STANDARDEBENE
 62
     7
100
AcDbVertex
100
AcDb2dVertex
 10
-11.35038384047838
 20
124.3507215400929
 30
0.0
  0
SEQEND
  5
280
330
26E
100
AcDbEntity
  8
STANDARDEBENE
  0
POLYLINE
  5
281
330
1F
100
AcDbEntity
  8
STANDARDEBENE
 62
     7
100
AcDb2dPolyline
 66
     1
 10
0.0
 20
0.0
 30
0.0
  0
VERTEX
  5
282
330
281
100
AcDbEntity
  8
STANDARDEBENE
 62
     7
100
AcDbVertex
100
AcDb2dVertex
 10
-11.35038384047838
 20
80.8512233955858
 30
0.0
  0
VERTEX
  5
283
330
281
100
AcDbEntity
  8
STANDARDEBENE
 62
     7
100
AcDbVertex
100
AcDb2dVertex
 10
-11.35038384047838
 20
80.95560978878888
 30
0.0
  0
VERTEX
  5
284
330
281
100
AcDbEntity
  8
STANDARDEBENE
 62
     7
100
AcDbVertex
100
AcDb2dVertex
 10
-11.35038384047838
 20
81.26876896839809
 30
0.0
  0
VERTEX
  5
285
330
281
100
AcDbEntity
  8
STANDARDEBENE
 62
     7
100
AcDbVertex
100
AcDb2dVertex
 10
-11.35038384047838
 20
81.78760034847672
 30
0.0
  0
VERTEX
  5
286
330
281
100
AcDbEntity
  8
STANDARDEBENE
 62
     7
100
AcDbVertex
100
AcDb2dVertex
 10
-11.35038384047838
 20
82.50659177624836
 30
0.0
  0
VERTEX
  5
287
330
281
100
AcDbEntity
  8
STANDARDEBENE
 62
     7
100
AcDbVertex
100
AcDb2dVertex
 10
-11.35038384047838
 20
83.41919757029103
 30
0.0
  0
VERTEX
  5
288
330
281
100
AcDbEntity
  8
STANDARDEBENE
 62
     7
100
AcDbVertex
100
AcDb2dVertex
 10
-11.35038384047838
 20
84.51680499189163
 30
0.0
  0
VERTEX
  5
289
330
281
100
AcDbEntity
  8
STANDARDEBENE
 62
     7
100
AcDbVertex
100
AcDb2dVertex
 10
-11.35038384047838
 20
85.78804522594882
 30
0.0
  0
VERTEX
  5
28A
330
281
100
AcDbEntity
  8
STANDARDEBENE
 62
     7
100
AcDbVertex
100
AcDb2dVertex
 10
-11.35038384047838
 20
87.2218939669098
 30
0.0
  0
VERTEX
  5
28B
330
281
100
AcDbEntity
  8
STANDARDEBENE
 62
     7
100
AcDbVertex
100
AcDb2dVertex
 10
-11.35038384047838
 20
88.80284828509096
 30
0.0
  0
VERTEX
  5
28C
330
281
100
AcDbEntity
  8
STANDARDEBENE
 62
     7
100
AcDbVertex
100
AcDb2dVertex
 10
-11.35038384047838
 20
90.5174723080998
 30
0.0
  0
VERTEX
  5
28D
330
281
100
AcDbEntity
  8
STANDARDEBENE
 62
     7
100
AcDbVertex
100
AcDb2dVertex
 10
-11.35038384047838
 20
92.34819604896157
 30
0.0
  0
VERTEX
  5
28E
330
281
100
AcDbEntity
  8
STANDARDEBENE
 62
     7
100
AcDbVertex
100
AcDb2dVertex
 10
-11.35038384047838
 20
94.27813853979852
 30
0.0
  0
VERTEX
  5
28F
330
281
100
AcDbEntity
  8
STANDARDEBENE
 62
     7
100
AcDbVertex
100
AcDb2dVertex
 10
-11.35038384047838
 20
96.28766273634476
 30
0.0
  0
VERTEX
  5
290
330
281
100
AcDbEntity
  8
STANDARDEBENE
 62
     7
100
AcDbVertex
100
AcDb2dVertex
 10
-11.35038384047838
 20
98.35850963252844
 30
0.0
  0
VERTEX
  5
291
330
281
100
AcDbEntity
  8
STANDARDEBENE
 62
     7
100
AcDbVertex
100
AcDb2dVertex
 10
-11.35038384047838
 20
100.4700086554381
 30
0.0
  0
VERTEX
  5
292
330
281
100
AcDbEntity
  8
STANDARDEBENE
 62
     7
100
AcDbVertex
100
AcDb2dVertex
 10
-11.35038384047838
 20
102.6014892321621
 30
0.0
  0
SEQEND
  5
293
330
281
100
AcDbEntity
  8
STANDARDEBENE
  0
POLYLINE
  5
294
330
1F
100
AcDbEntity
  8
STANDARDEBENE
 62
     7
100
AcDb2dPolyline
 66
     1
 10
0.0
 20
0.0
 30
0.0
  0
VERTEX
  5
295
330
294
100
AcDbEntity
  8
STANDARDEBENE
 62
     7
100
AcDbVertex
100
AcDb2dVertex
 10
-5.35040554336726
 20
102.6014892321621
 30
0.0
  0
VERTEX
  5
296
330
294
100
AcDbEntity
  8
STANDARDEBENE
 62
     7
100
AcDbVertex
100
AcDb2dVertex
 10
-5.35040554336726
 20
104.530053684805
 30
0.0
  0
VERTEX
  5
297
330
294
100
AcDbEntity
  8
STANDARDEBENE
 62
     7
100
AcDbVertex
100
AcDb2dVertex
 10
-5.35040554336726
 20
106.4307128640173
 30
0.0
  0
VERTEX
  5
298
330
294
100
AcDbEntity
  8
STANDARDEBENE
 62
     7
100
AcDbVertex
100
AcDb2dVertex
 10
-5.35040554336726
 20
108.274527967723
 30
0.0
  0
VERTEX
  5
299
330
294
100
AcDbEntity
  8
STANDARDEBENE
 62
     7
100
AcDbVertex
100
AcDb2dVertex
 10
-5.35040554336726
 20
110.0370388179768
 30
0.0
  0
VERTEX
  5
29A
330
294
100
AcDbEntity
  8
STANDARDEBENE
 62
     7
100
AcDbVertex
100
AcDb2dVertex
 10
-5.35040554336726
 20
111.6903401413483
 30
0.0
  0
VERTEX
  5
29B
330
294
100
AcDbEntity
  8
STANDARDEBENE
 62
     7
100
AcDbVertex
100
AcDb2dVertex
 10
-5.35040554336726
 20
113.2110052885375
 30
0.0
  0
VERTEX
  5
29C
330
294
100
AcDbEntity
  8
STANDARDEBENE
 62
     7
100
AcDbVertex
100
AcDb2dVertex
 10
-5.35040554336726
 20
114.5773301579876
 30
0.0
  0
VERTEX
  5
29D
330
294
100
AcDbEntity
  8
STANDARDEBENE
 62
     7
100
AcDbVertex
100
AcDb2dVertex
 10
-5.35040554336726
 20
115.7689886863355
 30
0.0
  0
VERTEX
  5
29E
330
294
100
AcDbEntity
  8
STANDARDEBENE
 62
     7
100
AcDbVertex
100
AcDb2dVertex
 10
-5.35040554336726
 20
116.768755396155
 30
0.0
  0
VERTEX
  5
29F
330
294
100
AcDbEntity
  8
STANDARDEBENE
 62
     7
100
AcDbVertex
100
AcDb2dVertex
 10
-5.35040554336726
 20
117.5618163768596
 30
0.0
  0
VERTEX
  5
2A0
330
294
100
AcDbEntity
  8
STANDARDEBENE
 62
     7
100
AcDbVertex
100
AcDb2dVertex
 10
-5.35040554336726
 20
118.1364583037992
 30
0.0
  0
VERTEX
  5
2A1
330
294
100
AcDbEntity
  8
STANDARDEBENE
 62
     7
100
AcDbVertex
100
AcDb2dVertex
 10
-5.35040554336726
 20
118.4840684382609
 30
0.0
  0
VERTEX
  5
2A2
330
294
100
AcDbEntity
  8
STANDARDEBENE
 62
     7
100
AcDbVertex
100
AcDb2dVertex
 10
-5.35040554336726
 20
118.6012016847594
 30
0.0
  0
SEQEND
  5
2A3
330
294
100
AcDbEntity
  8
STANDARDEBENE
  0
POLYLINE
  5
2A4
330
1F
100
AcDbEntity
  8
STANDARDEBENE
 62
     7
100
AcDb2dPolyline
 66
     1
 10
0.0
 20
0.0
 30
0.0
  0
VERTEX
  5
2A5
330
2A4
100
AcDbEntity
  8
STANDARDEBENE
 62
     7
100
AcDbVertex
100
AcDb2dVertex
 10
-5.35040554336726
 20
86.60108776046779
 30
0.0
  0
VERTEX
  5
2A6
330
2A4
100
AcDbEntity
  8
STANDARDEBENE
 62
     7
100
AcDbVertex
100
AcDb2dVertex
 10
-5.35040554336726
 20
86.71787649741776
 30
0.0
  0
VERTEX
  5
2A7
330
2A4
100
AcDbEntity
  8
STANDARDEBENE
 62
     7
100
AcDbVertex
100
AcDb2dVertex
 10
-5.35040554336726
 20
87.06617565097652
 30
0.0
  0
VERTEX
  5
2A8
330
2A4
100
AcDbEntity
  8
STANDARDEBENE
 62
     7
100
AcDbVertex
100
AcDb2dVertex
 10
-5.35040554336726
 20
87.64047306836767
 30
0.0
  0
VERTEX
  5
2A9
330
2A4
100
AcDbEntity
  8
STANDARDEBENE
 62
     7
100
AcDbVertex
100
AcDb2dVertex
 10
-5.35040554336726
 20
88.43353404907218
 30
0.0
  0
VERTEX
  5
2AA
330
2A4
100
AcDbEntity
  8
STANDARDEBENE
 62
     7
100
AcDbVertex
100
AcDb2dVertex
 10
-5.35040554336726
 20
89.43295624934315
 30
0.0
  0
VERTEX
  5
2AB
330
2A4
100
AcDbEntity
  8
STANDARDEBENE
 62
     7
100
AcDbVertex
100
AcDb2dVertex
 10
-5.35040554336726
 20
90.62495928723959
 30
0.0
  0
VERTEX
  5
2AC
330
2A4
100
AcDbEntity
  8
STANDARDEBENE
 62
     7
100
AcDbVertex
100
AcDb2dVertex
 10
-5.35040554336726
 20
91.99059513759263
 30
0.0
  0
VERTEX
  5
2AD
330
2A4
100
AcDbEntity
  8
STANDARDEBENE
 62
     7
100
AcDbVertex
100
AcDb2dVertex
 10
-5.35040554336726
 20
93.51194930387896
 30
0.0
  0
VERTEX
  5
2AE
330
2A4
100
AcDbEntity
  8
STANDARDEBENE
 62
     7
100
AcDbVertex
100
AcDb2dVertex
 10
-5.35040554336726
 20
95.16525062725036
 30
0.0
  0
VERTEX
  5
2AF
330
2A4
100
AcDbEntity
  8
STANDARDEBENE
 62
     7
100
AcDbVertex
100
AcDb2dVertex
 10
-5.35040554336726
 20
96.92707245840712
 30
0.0
  0
VERTEX
  5
2B0
330
2A4
100
AcDbEntity
  8
STANDARDEBENE
 62
     7
100
AcDbVertex
100
AcDb2dVertex
 10
-5.35040554336726
 20
98.77192109075841
 30
0.0
  0
VERTEX
  5
2B1
330
2A4
100
AcDbEntity
  8
STANDARDEBENE
 62
     7
100
AcDbVertex
100
AcDb2dVertex
 10
-5.35040554336726
 20
100.6729247795193
 30
0.0
  0
VERTEX
  5
2B2
330
2A4
100
AcDbEntity
  8
STANDARDEBENE
 62
     7
100
AcDbVertex
100
AcDb2dVertex
 10
-5.35040554336726
 20
102.6014892321621
 30
0.0
  0
SEQEND
  5
2B3
330
2A4
100
AcDbEntity
  8
STANDARDEBENE
  0
POLYLINE
  5
2B4
330
1F
100
AcDbEntity
  8
STANDARDEBENE
 62
     7
100
AcDb2dPolyline
 66
     1
 10
0.0
 20
0.0
 30
0.0
  0
VERTEX
  5
2B5
330
2B4
100
AcDbEntity
  8
STANDARDEBENE
 62
     7
100
AcDbVertex
100
AcDb2dVertex
 10
-5.35040554336726
 20
90.83924422642214
 30
0.0
  0
VERTEX
  5
2B6
330
2B4
100
AcDbEntity
  8
STANDARDEBENE
 62
     7
100
AcDbVertex
100
AcDb2dVertex
 10
4.149789766757691
 20
91.07661130535585
 30
0.0
  0
VERTEX
  5
2B7
330
2B4
100
AcDbEntity
  8
STANDARDEBENE
 62
     7
100
AcDbVertex
100
AcDb2dVertex
 10
13.64964056733412
 20
91.31397838428957
 30
0.0
  0
SEQEND
  5
2B8
330
2B4
100
AcDbEntity
  8
STANDARDEBENE
  0
POLYLINE
  5
2B9
330
1F
100
AcDbEntity
  8
STANDARDEBENE
 62
     7
100
AcDb2dPolyline
 66
     1
 10
0.0
 20
0.0
 30
0.0
  0
VERTEX
  5
2BA
330
2B9
100
AcDbEntity
  8
STANDARDEBENE
 62
     7
100
AcDbVertex
100
AcDb2dVertex
 10
9.354984535421671
 20
112.596400253969
 30
0.0
  0
VERTEX
  5
2BB
330
2B9
100
AcDbEntity
  8
STANDARDEBENE
 62
     7
100
AcDbVertex
100
AcDb2dVertex
 10
2.002461750801468
 20
112.7796793337843
 30
0.0
  0
VERTEX
  5
2BC
330
2B9
100
AcDbEntity
  8
STANDARDEBENE
 62
     7
100
AcDbVertex
100
AcDb2dVertex
 10
-5.35040554336726
 20
112.9636474326966
 30
0.0
  0
SEQEND
  5
2BD
330
2B9
100
AcDbEntity
  8
STANDARDEBENE
  0
POLYLINE
  5
2BE
330
1F
100
AcDbEntity
  8
STANDARDEBENE
 62
     7
100
AcDb2dPolyline
 66
     1
 10
0.0
 20
0.0
 30
0.0
  0
VERTEX
  5
2BF
330
2BE
100
AcDbEntity
  8
STANDARDEBENE
 62
     7
100
AcDbVertex
100
AcDb2dVertex
 10
10.3495836020133
 20
112.3962402062759
 30
0.0
  0
VERTEX
  5
2C0
330
2BE
100
AcDbEntity
  8
STANDARDEBENE
 62
     7
100
AcDbVertex
100
AcDb2dVertex
 10
10.2531209284263
 20
112.4182888173815
 30
0.0
  0
VERTEX
  5
2C1
330
2BE
100
AcDbEntity
  8
STANDARDEBENE
 62
     7
100
AcDbVertex
100
AcDb2dVertex
 10
10.15975884077603
 20
112.4393038998416
 30
0.0
  0
VERTEX
  5
2C2
330
2BE
100
AcDbEntity
  8
STANDARDEBENE
 62
     7
100
AcDbVertex
100
AcDb2dVertex
 10
10.06846381041691
 20
112.4589409441075
 30
0.0
  0
VERTEX
  5
2C3
330
2BE
100
AcDbEntity
  8
STANDARDEBENE
 62
     7
100
AcDbVertex
100
AcDb2dVertex
 10
9.980269365994516
 20
112.4775444597278
 30
0.0
  0
VERTEX
  5
2C4
330
2BE
100
AcDbEntity
  8
STANDARDEBENE
 62
     7
100
AcDbVertex
100
AcDb2dVertex
 10
9.89552001705737
 20
112.4944254276056
 30
0.0
  0
VERTEX
  5
2C5
330
2BE
100
AcDbEntity
  8
STANDARDEBENE
 62
     7
100
AcDbVertex
100
AcDb2dVertex
 10
9.814904782702524
 20
112.5113063954833
 30
0.0
  0
VERTEX
  5
2C6
330
2BE
100
AcDbEntity
  8
STANDARDEBENE
 62
     7
100
AcDbVertex
100
AcDb2dVertex
 10
9.737045624735877
 20
112.5257757965213
 30
0.0
  0
VERTEX
  5
2C7
330
2BE
100
AcDbEntity
  8
STANDARDEBENE
 62
     7
100
AcDbVertex
100
AcDb2dVertex
 10
9.665732148191207
 20
112.5402451975594
 30
0.0
  0
VERTEX
  5
2C8
330
2BE
100
AcDbEntity
  8
STANDARDEBENE
 62
     7
100
AcDbVertex
100
AcDb2dVertex
 10
9.631625702887233
 20
112.5461018598843
 30
0.0
  0
VERTEX
  5
2C9
330
2BE
100
AcDbEntity
  8
STANDARDEBENE
 62
     7
100
AcDbVertex
100
AcDb2dVertex
 10
9.598552786228835
 20
112.5523030317578
 30
0.0
  0
VERTEX
  5
2CA
330
2BE
100
AcDbEntity
  8
STANDARDEBENE
 62
     7
100
AcDbVertex
100
AcDb2dVertex
 10
9.58304985654521
 20
112.555059108146
 30
0.0
  0
VERTEX
  5
2CB
330
2BE
100
AcDbEntity
  8
STANDARDEBENE
 62
     7
100
AcDbVertex
100
AcDb2dVertex
 10
9.567546926861587
 20
112.5585042036312
 30
0.0
  0
VERTEX
  5
2CC
330
2BE
100
AcDbEntity
  8
STANDARDEBENE
 62
     7
100
AcDbVertex
100
AcDb2dVertex
 10
9.552388506726487
 20
112.5605712609224
 30
0.0
  0
VERTEX
  5
2CD
330
2BE
100
AcDbEntity
  8
STANDARDEBENE
 62
     7
100
AcDbVertex
100
AcDb2dVertex
 10
9.537919105688438
 20
112.562982827762
 30
0.0
  0
VERTEX
  5
2CE
330
2BE
100
AcDbEntity
  8
STANDARDEBENE
 62
     7
100
AcDbVertex
100
AcDb2dVertex
 10
9.484520125667064
 20
112.5729736046693
 30
0.0
  0
VERTEX
  5
2CF
330
2BE
100
AcDbEntity
  8
STANDARDEBENE
 62
     7
100
AcDbVertex
100
AcDb2dVertex
 10
9.440078393907342
 20
112.5802083051883
 30
0.0
  0
VERTEX
  5
2D0
330
2BE
100
AcDbEntity
  8
STANDARDEBENE
 62
     7
100
AcDbVertex
100
AcDb2dVertex
 10
9.40390489131222
 20
112.5867539866103
 30
0.0
  0
VERTEX
  5
2D1
330
2BE
100
AcDbEntity
  8
STANDARDEBENE
 62
     7
100
AcDbVertex
100
AcDb2dVertex
 10
9.378066675172844
 20
112.5912326107411
 30
0.0
  0
VERTEX
  5
2D2
330
2BE
100
AcDbEntity
  8
STANDARDEBENE
 62
     7
100
AcDbVertex
100
AcDb2dVertex
 10
9.360841197746595
 20
112.5946777062263
 30
0.0
  0
VERTEX
  5
2D3
330
2BE
100
AcDbEntity
  8
STANDARDEBENE
 62
     7
100
AcDbVertex
100
AcDb2dVertex
 10
9.354984535421671
 20
112.596400253969
 30
0.0
  0
SEQEND
  5
2D4
330
2BE
100
AcDbEntity
  8
STANDARDEBENE
  0
POLYLINE
  5
2D5
330
1F
100
AcDbEntity
  8
STANDARDEBENE
 62
     7
100
AcDb2dPolyline
 66
     1
 10
0.0
 20
0.0
 30
0.0
  0
VERTEX
  5
2D6
330
2D5
100
AcDbEntity
  8
STANDARDEBENE
 62
     7
100
AcDbVertex
100
AcDb2dVertex
 10
13.64964056733412
 20
112.3266492774739
 30
0.0
  0
VERTEX
  5
2D7
330
2D5
100
AcDbEntity
  8
STANDARDEBENE
 62
     7
100
AcDbVertex
100
AcDb2dVertex
 10
13.32614610126916
 20
112.3335394684444
 30
0.0
  0
VERTEX
  5
2D8
330
2D5
100
AcDbEntity
  8
STANDARDEBENE
 62
     7
100
AcDbVertex
100
AcDb2dVertex
 10
13.00299614475272
 20
112.3400851498664
 30
0.0
  0
VERTEX
  5
2D9
330
2D5
100
AcDbEntity
  8
STANDARDEBENE
 62
     7
100
AcDbVertex
100
AcDb2dVertex
 10
12.67605658320251
 20
112.3466308312884
 30
0.0
  0
VERTEX
  5
2DA
330
2D5
100
AcDbEntity
  8
STANDARDEBENE
 62
     7
100
AcDbVertex
100
AcDb2dVertex
 10
12.34946153120083
 20
112.3538655318074
 30
0.0
  0
VERTEX
  5
2DB
330
2D5
100
AcDbEntity
  8
STANDARDEBENE
 62
     7
100
AcDbVertex
100
AcDb2dVertex
 10
12.01976589326242
 20
112.3604112132293
 30
0.0
  0
VERTEX
  5
2DC
330
2D5
100
AcDbEntity
  8
STANDARDEBENE
 62
     7
100
AcDbVertex
100
AcDb2dVertex
 10
11.68938123622696
 20
112.3679904232969
 30
0.0
  0
VERTEX
  5
2DD
330
2D5
100
AcDbEntity
  8
STANDARDEBENE
 62
     7
100
AcDbVertex
100
AcDb2dVertex
 10
11.3562405028033
 20
112.3752251238159
 30
0.0
  0
VERTEX
  5
2DE
330
2D5
100
AcDbEntity
  8
STANDARDEBENE
 62
     7
100
AcDbVertex
100
AcDb2dVertex
 10
11.02309976937964
 20
112.3817708052379
 30
0.0
  0
VERTEX
  5
2DF
330
2D5
100
AcDbEntity
  8
STANDARDEBENE
 62
     7
100
AcDbVertex
100
AcDb2dVertex
 10
10.68651394047073
 20
112.3886609962084
 30
0.0
  0
VERTEX
  5
2E0
330
2D5
100
AcDbEntity
  8
STANDARDEBENE
 62
     7
100
AcDbVertex
100
AcDb2dVertex
 10
10.3495836020133
 20
112.3962402062759
 30
0.0
  0
SEQEND
  5
2E1
330
2D5
100
AcDbEntity
  8
STANDARDEBENE
  0
POLYLINE
  5
2E2
330
1F
100
AcDbEntity
  8
STANDARDEBENE
 62
     7
100
AcDb2dPolyline
 66
     1
 10
0.0
 20
0.0
 30
0.0
  0
VERTEX
  5
2E3
330
2E2
100
AcDbEntity
  8
STANDARDEBENE
 62
     7
100
AcDbVertex
100
AcDb2dVertex
 10
13.64964056733412
 20
112.3266492774739
 30
0.0
  0
VERTEX
  5
2E4
330
2E2
100
AcDbEntity
  8
STANDARDEBENE
 62
     7
100
AcDbVertex
100
AcDb2dVertex
 10
13.64964056733412
 20
112.2601589346086
 30
0.0
  0
VERTEX
  5
2E5
330
2E2
100
AcDbEntity
  8
STANDARDEBENE
 62
     7
100
AcDbVertex
100
AcDb2dVertex
 10
13.64964056733412
 20
112.1819552670934
 30
0.0
  0
VERTEX
  5
2E6
330
2E2
100
AcDbEntity
  8
STANDARDEBENE
 62
     7
100
AcDbVertex
100
AcDb2dVertex
 10
13.64964056733412
 20
112.0699896638228
 30
0.0
  0
VERTEX
  5
2E7
330
2E2
100
AcDbEntity
  8
STANDARDEBENE
 62
     7
100
AcDbVertex
100
AcDb2dVertex
 10
13.64964056733412
 20
111.9401095640289
 30
0.0
  0
VERTEX
  5
2E8
330
2E2
100
AcDbEntity
  8
STANDARDEBENE
 62
     7
100
AcDbVertex
100
AcDb2dVertex
 10
13.64964056733412
 20
111.6255723462256
 30
0.0
  0
VERTEX
  5
2E9
330
2E2
100
AcDbEntity
  8
STANDARDEBENE
 62
     7
100
AcDbVertex
100
AcDb2dVertex
 10
13.64964056733412
 20
111.2345540086497
 30
0.0
  0
VERTEX
  5
2EA
330
2E2
100
AcDbEntity
  8
STANDARDEBENE
 62
     7
100
AcDbVertex
100
AcDb2dVertex
 10
13.64964056733412
 20
111.0106228021085
 30
0.0
  0
VERTEX
  5
2EB
330
2E2
100
AcDbEntity
  8
STANDARDEBENE
 62
     7
100
AcDbVertex
100
AcDb2dVertex
 10
13.64964056733412
 20
110.7670545513013
 30
0.0
  0
VERTEX
  5
2EC
330
2E2
100
AcDbEntity
  8
STANDARDEBENE
 62
     7
100
AcDbVertex
100
AcDb2dVertex
 10
13.64964056733412
 20
110.5028157275826
 30
0.0
  0
VERTEX
  5
2ED
330
2E2
100
AcDbEntity
  8
STANDARDEBENE
 62
     7
100
AcDbVertex
100
AcDb2dVertex
 10
13.64964056733412
 20
110.2161837832098
 30
0.0
  0
VERTEX
  5
2EE
330
2E2
100
AcDbEntity
  8
STANDARDEBENE
 62
     7
100
AcDbVertex
100
AcDb2dVertex
 10
13.64964056733412
 20
110.0642550723103
 30
0.0
  0
VERTEX
  5
2EF
330
2E2
100
AcDbEntity
  8
STANDARDEBENE
 62
     7
100
AcDbVertex
100
AcDb2dVertex
 10
13.64964056733412
 20
109.9054361704403
 30
0.0
  0
VERTEX
  5
2F0
330
2E2
100
AcDbEntity
  8
STANDARDEBENE
 62
     7
100
AcDbVertex
100
AcDb2dVertex
 10
13.64964056733412
 20
109.7404160966968
 30
0.0
  0
VERTEX
  5
2F1
330
2E2
100
AcDbEntity
  8
STANDARDEBENE
 62
     7
100
AcDbVertex
100
AcDb2dVertex
 10
13.64964056733412
 20
109.569883870177
 30
0.0
  0
VERTEX
  5
2F2
330
2E2
100
AcDbEntity
  8
STANDARDEBENE
 62
     7
100
AcDbVertex
100
AcDb2dVertex
 10
13.64964056733412
 20
109.211593939711
 30
0.0
  0
VERTEX
  5
2F3
330
2E2
100
AcDbEntity
  8
STANDARDEBENE
 62
     7
100
AcDbVertex
100
AcDb2dVertex
 10
13.64964056733412
 20
108.8309108885909
 30
0.0
  0
VERTEX
  5
2F4
330
2E2
100
AcDbEntity
  8
STANDARDEBENE
 62
     7
100
AcDbVertex
100
AcDb2dVertex
 10
13.64964056733412
 20
108.6317843695435
 30
0.0
  0
VERTEX
  5
2F5
330
2E2
100
AcDbEntity
  8
STANDARDEBENE
 62
     7
100
AcDbVertex
100
AcDb2dVertex
 10
13.64964056733412
 20
108.425423149977
 30
0.0
  0
VERTEX
  5
2F6
330
2E2
100
AcDbEntity
  8
STANDARDEBENE
 62
     7
100
AcDbVertex
100
AcDb2dVertex
 10
13.64964056733412
 20
108.2125162489885
 30
0.0
  0
VERTEX
  5
2F7
330
2E2
100
AcDbEntity
  8
STANDARDEBENE
 62
     7
100
AcDbVertex
100
AcDb2dVertex
 10
13.64964056733412
 20
107.9934081761266
 30
0.0
  0
VERTEX
  5
2F8
330
2E2
100
AcDbEntity
  8
STANDARDEBENE
 62
     7
100
AcDbVertex
100
AcDb2dVertex
 10
13.64964056733412
 20
107.5379665529766
 30
0.0
  0
VERTEX
  5
2F9
330
2E2
100
AcDbEntity
  8
STANDARDEBENE
 62
     7
100
AcDbVertex
100
AcDb2dVertex
 10
13.64964056733412
 20
107.0618543569151
 30
0.0
  0
VERTEX
  5
2FA
330
2E2
100
AcDbEntity
  8
STANDARDEBENE
 62
     7
100
AcDbVertex
100
AcDb2dVertex
 10
13.64964056733412
 20
106.5702392311699
 30
0.0
  0
VERTEX
  5
2FB
330
2E2
100
AcDbEntity
  8
STANDARDEBENE
 62
     7
100
AcDbVertex
100
AcDb2dVertex
 10
13.64964056733412
 20
106.0672552903235
 30
0.0
  0
VERTEX
  5
2FC
330
2E2
100
AcDbEntity
  8
STANDARDEBENE
 62
     7
100
AcDbVertex
100
AcDb2dVertex
 10
13.64964056733412
 20
105.5587591967006
 30
0.0
  0
VERTEX
  5
2FD
330
2E2
100
AcDbEntity
  8
STANDARDEBENE
 62
     7
100
AcDbVertex
100
AcDb2dVertex
 10
13.64964056733412
 20
105.0437174216557
 30
0.0
  0
VERTEX
  5
2FE
330
2E2
100
AcDbEntity
  8
STANDARDEBENE
 62
     7
100
AcDbVertex
100
AcDb2dVertex
 10
13.64964056733412
 20
104.5276421179653
 30
0.0
  0
VERTEX
  5
2FF
330
2E2
100
AcDbEntity
  8
STANDARDEBENE
 62
     7
100
AcDbVertex
100
AcDb2dVertex
 10
13.64964056733412
 20
104.0084662283382
 30
0.0
  0
VERTEX
  5
300
330
2E2
100
AcDbEntity
  8
STANDARDEBENE
 62
     7
100
AcDbVertex
100
AcDb2dVertex
 10
13.64964056733412
 20
103.4903238673566
 30
0.0
  0
VERTEX
  5
301
330
2E2
100
AcDbEntity
  8
STANDARDEBENE
 62
     7
100
AcDbVertex
100
AcDb2dVertex
 10
13.64964056733412
 20
102.9742485636662
 30
0.0
  0
VERTEX
  5
302
330
2E2
100
AcDbEntity
  8
STANDARDEBENE
 62
     7
100
AcDbVertex
100
AcDb2dVertex
 10
13.64964056733412
 20
101.9482991281588
 30
0.0
  0
VERTEX
  5
303
330
2E2
100
AcDbEntity
  8
STANDARDEBENE
 62
     7
100
AcDbVertex
100
AcDb2dVertex
 10
13.64964056733412
 20
100.938541641432
 30
0.0
  0
VERTEX
  5
304
330
2E2
100
AcDbEntity
  8
STANDARDEBENE
 62
     7
100
AcDbVertex
100
AcDb2dVertex
 10
13.64964056733412
 20
99.9480766894227
 30
0.0
  0
VERTEX
  5
305
330
2E2
100
AcDbEntity
  8
STANDARDEBENE
 62
     7
100
AcDbVertex
100
AcDb2dVertex
 10
13.64964056733412
 20
98.98241642490717
 30
0.0
  0
VERTEX
  5
306
330
2E2
100
AcDbEntity
  8
STANDARDEBENE
 62
     7
100
AcDbVertex
100
AcDb2dVertex
 10
13.64964056733412
 20
98.04466143382217
 30
0.0
  0
VERTEX
  5
307
330
2E2
100
AcDbEntity
  8
STANDARDEBENE
 62
     7
100
AcDbVertex
100
AcDb2dVertex
 10
13.64964056733412
 20
97.13929034029852
 30
0.0
  0
VERTEX
  5
308
330
2E2
100
AcDbEntity
  8
STANDARDEBENE
 62
     7
100
AcDbVertex
100
AcDb2dVertex
 10
13.64964056733412
 20
96.27009274936998
 30
0.0
  0
VERTEX
  5
309
330
2E2
100
AcDbEntity
  8
STANDARDEBENE
 62
     7
100
AcDbVertex
100
AcDb2dVertex
 10
13.64964056733412
 20
95.44258081381297
 30
0.0
  0
VERTEX
  5
30A
330
2E2
100
AcDbEntity
  8
STANDARDEBENE
 62
     7
100
AcDbVertex
100
AcDb2dVertex
 10
13.64964056733412
 20
94.65951061001569
 30
0.0
  0
VERTEX
  5
30B
330
2E2
100
AcDbEntity
  8
STANDARDEBENE
 62
     7
100
AcDbVertex
100
AcDb2dVertex
 10
13.64964056733412
 20
93.93052840533682
 30
0.0
  0
VERTEX
  5
30C
330
2E2
100
AcDbEntity
  8
STANDARDEBENE
 62
     7
100
AcDbVertex
100
AcDb2dVertex
 10
13.64964056733412
 20
93.26045733345572
 30
0.0
  0
VERTEX
  5
30D
330
2E2
100
AcDbEntity
  8
STANDARDEBENE
 62
     7
100
AcDbVertex
100
AcDb2dVertex
 10
13.64964056733412
 20
92.6603216999252
 30
0.0
  0
VERTEX
  5
30E
330
2E2
100
AcDbEntity
  8
STANDARDEBENE
 62
     7
100
AcDbVertex
100
AcDb2dVertex
 10
13.64964056733412
 20
92.14149031984658
 30
0.0
  0
VERTEX
  5
30F
330
2E2
100
AcDbEntity
  8
STANDARDEBENE
 62
     7
100
AcDbVertex
100
AcDb2dVertex
 10
13.64964056733412
 20
91.72566729477693
 30
0.0
  0
VERTEX
  5
310
330
2E2
100
AcDbEntity
  8
STANDARDEBENE
 62
     7
100
AcDbVertex
100
AcDb2dVertex
 10
13.64964056733412
 20
91.5627142783246
 30
0.0
  0
VERTEX
  5
311
330
2E2
100
AcDbEntity
  8
STANDARDEBENE
 62
     7
100
AcDbVertex
100
AcDb2dVertex
 10
13.64964056733412
 20
91.43627927401593
 30
0.0
  0
VERTEX
  5
312
330
2E2
100
AcDbEntity
  8
STANDARDEBENE
 62
     7
100
AcDbVertex
100
AcDb2dVertex
 10
13.64964056733412
 20
91.35359698236994
 30
0.0
  0
VERTEX
  5
313
330
2E2
100
AcDbEntity
  8
STANDARDEBENE
 62
     7
100
AcDbVertex
100
AcDb2dVertex
 10
13.64964056733412
 20
91.31604544158071
 30
0.0
  0
VERTEX
  5
314
330
2E2
100
AcDbEntity
  8
STANDARDEBENE
 62
     7
100
AcDbVertex
100
AcDb2dVertex
 10
13.64964056733412
 20
91.31397838428957
 30
0.0
  0
SEQEND
  5
315
330
2E2
100
AcDbEntity
  8
STANDARDEBENE
  0
POLYLINE
  5
316
330
1F
100
AcDbEntity
  8
STANDARDEBENE
 62
     7
100
AcDb2dPolyline
 66
     1
 10
0.0
 20
0.0
 30
0.0
  0
VERTEX
  5
317
330
316
100
AcDbEntity
  8
STANDARDEBENE
 62
     7
100
AcDbVertex
100
AcDb2dVertex
 10
10.3495836020133
 20
112.3962402062759
 30
0.0
  0
VERTEX
  5
318
330
316
100
AcDbEntity
  8
STANDARDEBENE
 62
     7
100
AcDbVertex
100
AcDb2dVertex
 10
10.68651394047073
 20
112.3893500153054
 30
0.0
  0
VERTEX
  5
319
330
316
100
AcDbEntity
  8
STANDARDEBENE
 62
     7
100
AcDbVertex
100
AcDb2dVertex
 10
11.02309976937964
 20
112.3817708052379
 30
0.0
  0
VERTEX
  5
31A
330
316
100
AcDbEntity
  8
STANDARDEBENE
 62
     7
100
AcDbVertex
100
AcDb2dVertex
 10
11.3562405028033
 20
112.3752251238159
 30
0.0
  0
VERTEX
  5
31B
330
316
100
AcDbEntity
  8
STANDARDEBENE
 62
     7
100
AcDbVertex
100
AcDb2dVertex
 10
11.68938123622696
 20
112.3679904232969
 30
0.0
  0
VERTEX
  5
31C
330
316
100
AcDbEntity
  8
STANDARDEBENE
 62
     7
100
AcDbVertex
100
AcDb2dVertex
 10
12.01976589326242
 20
112.3614447418749
 30
0.0
  0
VERTEX
  5
31D
330
316
100
AcDbEntity
  8
STANDARDEBENE
 62
     7
100
AcDbVertex
100
AcDb2dVertex
 10
12.34946153120083
 20
112.3538655318074
 30
0.0
  0
VERTEX
  5
31E
330
316
100
AcDbEntity
  8
STANDARDEBENE
 62
     7
100
AcDbVertex
100
AcDb2dVertex
 10
12.67605658320251
 20
112.3473198503854
 30
0.0
  0
VERTEX
  5
31F
330
316
100
AcDbEntity
  8
STANDARDEBENE
 62
     7
100
AcDbVertex
100
AcDb2dVertex
 10
13.00299614475272
 20
112.3411186785119
 30
0.0
  0
VERTEX
  5
320
330
316
100
AcDbEntity
  8
STANDARDEBENE
 62
     7
100
AcDbVertex
100
AcDb2dVertex
 10
13.32614610126916
 20
112.3335394684444
 30
0.0
  0
VERTEX
  5
321
330
316
100
AcDbEntity
  8
STANDARDEBENE
 62
     7
100
AcDbVertex
100
AcDb2dVertex
 10
13.64964056733412
 20
112.3266492774739
 30
0.0
  0
SEQEND
  5
322
330
316
100
AcDbEntity
  8
STANDARDEBENE
  0
POLYLINE
  5
323
330
1F
100
AcDbEntity
  8
STANDARDEBENE
 62
     7
100
AcDb2dPolyline
 66
     1
 10
0.0
 20
0.0
 30
0.0
  0
VERTEX
  5
324
330
323
100
AcDbEntity
  8
STANDARDEBENE
 62
     7
100
AcDbVertex
100
AcDb2dVertex
 10
9.368075898265621
 20
112.5929551584837
 30
0.0
  0
VERTEX
  5
325
330
323
100
AcDbEntity
  8
STANDARDEBENE
 62
     7
100
AcDbVertex
100
AcDb2dVertex
 10
9.371176484202346
 20
112.5929551584837
 30
0.0
  0
SEQEND
  5
326
330
323
100
AcDbEntity
  8
STANDARDEBENE
  0
POLYLINE
  5
328
330
1F
100
AcDbEntity
  8
BEMAßUNG
 62
     7
100
AcDb2dPolyline
 66
     1
 10
0.0
 20
0.0
 30
0.0
  0
VERTEX
  5
329
330
328
100
AcDbEntity
  8
BEMAßUNG
 62
     7
100
AcDbVertex
100
AcDb2dVertex
 10
23.80509303875359
 20
215.0883354497001
 30
0.0
  0
VERTEX
  5
32A
330
328
100
AcDbEntity
  8
BEMAßUNG
 62
     7
100
AcDbVertex
100
AcDb2dVertex
 10
18.8052259610105
 20
215.0883354497001
 30
0.0
  0
VERTEX
  5
32B
330
328
100
AcDbEntity
  8
BEMAßUNG
 62
     7
100
AcDbVertex
100
AcDb2dVertex
 10
4.020254176512298
 20
186.8182264072885
 30
0.0
  0
VERTEX
  5
32C
330
328
100
AcDbEntity
  8
BEMAßUNG
 62
     7
100
AcDbVertex
100
AcDb2dVertex
 10
6.050793455518552
 20
189.706594462122
 30
0.0
  0
VERTEX
  5
32D
330
328
100
AcDbEntity
  8
BEMAßUNG
 62
     7
100
AcDbVertex
100
AcDb2dVertex
 10
5.233961315965815
 20
190.1337863022929
 30
0.0
  0
VERTEX
  5
32E
330
328
100
AcDbEntity
  8
BEMAßUNG
 62
     7
100
AcDbVertex
100
AcDb2dVertex
 10
4.020254176512298
 20
186.8182264072885
 30
0.0
  0
SEQEND
  5
32F
330
328
100
AcDbEntity
  8
BEMAßUNG
  0
POLYLINE
  5
330
330
1F
100
AcDbEntity
  8
BEMAßUNG
 62
     7
100
AcDb2dPolyline
 66
     1
 10
0.0
 20
0.0
 30
0.0
  0
VERTEX
  5
331
330
330
100
AcDbEntity
  8
BEMAßUNG
 62
     7
100
AcDbVertex
100
AcDb2dVertex
 10
6.047692869581828
 20
189.7079725003161
 30
0.0
  0
VERTEX
  5
332
330
330
100
AcDbEntity
  8
BEMAßUNG
 62
     7
100
AcDbVertex
100
AcDb2dVertex
 10
6.035290525834927
 20
189.6838568319193
 30
0.0
  0
SEQEND
  5
333
330
330
100
AcDbEntity
  8
BEMAßUNG
  0
POLYLINE
  5
334
330
1F
100
AcDbEntity
  8
BEMAßUNG
 62
     7
100
AcDb2dPolyline
 66
     1
 10
0.0
 20
0.0
 30
0.0
  0
VERTEX
  5
335
330
334
100
AcDbEntity
  8
BEMAßUNG
 62
     7
100
AcDbVertex
100
AcDb2dVertex
 10
6.047692869581828
 20
189.7079725003161
 30
0.0
  0
VERTEX
  5
336
330
334
100
AcDbEntity
  8
BEMAßUNG
 62
     7
100
AcDbVertex
100
AcDb2dVertex
 10
6.035290525834927
 20
189.6838568319193
 30
0.0
  0
SEQEND
  5
337
330
334
100
AcDbEntity
  8
BEMAßUNG
  0
POLYLINE
  5
338
330
1F
100
AcDbEntity
  8
BEMAßUNG
 62
     7
100
AcDb2dPolyline
 66
     1
 10
0.0
 20
0.0
 30
0.0
  0
VERTEX
  5
339
330
338
100
AcDbEntity
  8
BEMAßUNG
 62
     7
100
AcDbVertex
100
AcDb2dVertex
 10
6.002562118725054
 20
189.7317436591643
 30
0.0
  0
VERTEX
  5
33A
330
338
100
AcDbEntity
  8
BEMAßUNG
 62
     7
100
AcDbVertex
100
AcDb2dVertex
 10
5.811014809745163
 20
189.3658745186308
 30
0.0
  0
SEQEND
  5
33B
330
338
100
AcDbEntity
  8
BEMAßUNG
  0
POLYLINE
  5
33C
330
1F
100
AcDbEntity
  8
BEMAßUNG
 62
     7
100
AcDb2dPolyline
 66
     1
 10
0.0
 20
0.0
 30
0.0
  0
VERTEX
  5
33D
330
33C
100
AcDbEntity
  8
BEMAßUNG
 62
     7
100
AcDbVertex
100
AcDb2dVertex
 10
5.957431367868281
 20
189.7548257989155
 30
0.0
  0
VERTEX
  5
33E
330
33C
100
AcDbEntity
  8
BEMAßUNG
 62
     7
100
AcDbVertex
100
AcDb2dVertex
 10
5.587428112752449
 20
189.0468586766966
 30
0.0
  0
SEQEND
  5
33F
330
33C
100
AcDbEntity
  8
BEMAßUNG
  0
POLYLINE
  5
340
330
1F
100
AcDbEntity
  8
BEMAßUNG
 62
     7
100
AcDb2dPolyline
 66
     1
 10
0.0
 20
0.0
 30
0.0
  0
VERTEX
  5
341
330
340
100
AcDbEntity
  8
BEMAßUNG
 62
     7
100
AcDbVertex
100
AcDb2dVertex
 10
5.912989636108558
 20
189.7785969577637
 30
0.0
  0
VERTEX
  5
342
330
340
100
AcDbEntity
  8
BEMAßUNG
 62
     7
100
AcDbVertex
100
AcDb2dVertex
 10
5.363152396662684
 20
188.7285318538596
 30
0.0
  0
SEQEND
  5
343
330
340
100
AcDbEntity
  8
BEMAßUNG
  0
POLYLINE
  5
344
330
1F
100
AcDbEntity
  8
BEMAßUNG
 62
     7
100
AcDb2dPolyline
 66
     1
 10
0.0
 20
0.0
 30
0.0
  0
VERTEX
  5
345
330
344
100
AcDbEntity
  8
BEMAßUNG
 62
     7
100
AcDbVertex
100
AcDb2dVertex
 10
5.867858885251786
 20
189.8020236070634
 30
0.0
  0
VERTEX
  5
346
330
344
100
AcDbEntity
  8
BEMAßUNG
 62
     7
100
AcDbVertex
100
AcDb2dVertex
 10
5.13956569966997
 20
188.410549540571
 30
0.0
  0
SEQEND
  5
347
330
344
100
AcDbEntity
  8
BEMAßUNG
  0
POLYLINE
  5
348
330
1F
100
AcDbEntity
  8
BEMAßUNG
 62
     7
100
AcDb2dPolyline
 66
     1
 10
0.0
 20
0.0
 30
0.0
  0
VERTEX
  5
349
330
348
100
AcDbEntity
  8
BEMAßUNG
 62
     7
100
AcDbVertex
100
AcDb2dVertex
 10
5.822383624846488
 20
189.8254502563631
 30
0.0
  0
VERTEX
  5
34A
330
348
100
AcDbEntity
  8
BEMAßUNG
 62
     7
100
AcDbVertex
100
AcDb2dVertex
 10
4.915634493128731
 20
188.0922227177339
 30
0.0
  0
SEQEND
  5
34B
330
348
100
AcDbEntity
  8
BEMAßUNG
  0
POLYLINE
  5
34C
330
1F
100
AcDbEntity
  8
BEMAßUNG
 62
     7
100
AcDb2dPolyline
 66
     1
 10
0.0
 20
0.0
 30
0.0
  0
VERTEX
  5
34D
330
34C
100
AcDbEntity
  8
BEMAßUNG
 62
     7
100
AcDbVertex
100
AcDb2dVertex
 10
5.777597383538239
 20
189.8492214152113
 30
0.0
  0
VERTEX
  5
34E
330
34C
100
AcDbEntity
  8
BEMAßUNG
 62
     7
100
AcDbVertex
100
AcDb2dVertex
 10
4.692392305684541
 20
187.7732068757998
 30
0.0
  0
SEQEND
  5
34F
330
34C
100
AcDbEntity
  8
BEMAßUNG
  0
POLYLINE
  5
350
330
1F
100
AcDbEntity
  8
BEMAßUNG
 62
     7
100
AcDb2dPolyline
 66
     1
 10
0.0
 20
0.0
 30
0.0
  0
VERTEX
  5
351
330
350
100
AcDbEntity
  8
BEMAßUNG
 62
     7
100
AcDbVertex
100
AcDb2dVertex
 10
5.732466632681467
 20
189.8729925740595
 30
0.0
  0
VERTEX
  5
352
330
350
100
AcDbEntity
  8
BEMAßUNG
 62
     7
100
AcDbVertex
100
AcDb2dVertex
 10
4.468116589594777
 20
187.4552245625112
 30
0.0
  0
SEQEND
  5
353
330
350
100
AcDbEntity
  8
BEMAßUNG
  0
POLYLINE
  5
354
330
1F
100
AcDbEntity
  8
BEMAßUNG
 62
     7
100
AcDb2dPolyline
 66
     1
 10
0.0
 20
0.0
 30
0.0
  0
VERTEX
  5
355
330
354
100
AcDbEntity
  8
BEMAßUNG
 62
     7
100
AcDbVertex
100
AcDb2dVertex
 10
5.686991372276169
 20
189.8967637329078
 30
0.0
  0
VERTEX
  5
356
330
354
100
AcDbEntity
  8
BEMAßUNG
 62
     7
100
AcDbVertex
100
AcDb2dVertex
 10
4.244529892602062
 20
187.1365532301256
 30
0.0
  0
SEQEND
  5
357
330
354
100
AcDbEntity
  8
BEMAßUNG
  0
POLYLINE
  5
358
330
1F
100
AcDbEntity
  8
BEMAßUNG
 62
     7
100
AcDb2dPolyline
 66
     1
 10
0.0
 20
0.0
 30
0.0
  0
VERTEX
  5
359
330
358
100
AcDbEntity
  8
BEMAßUNG
 62
     7
100
AcDbVertex
100
AcDb2dVertex
 10
5.642549640516446
 20
189.9201903822075
 30
0.0
  0
VERTEX
  5
35A
330
358
100
AcDbEntity
  8
BEMAßUNG
 62
     7
100
AcDbVertex
100
AcDb2dVertex
 10
4.020254176512298
 20
186.8182264072885
 30
0.0
  0
SEQEND
  5
35B
330
358
100
AcDbEntity
  8
BEMAßUNG
  0
POLYLINE
  5
35C
330
1F
100
AcDbEntity
  8
BEMAßUNG
 62
     7
100
AcDb2dPolyline
 66
     1
 10
0.0
 20
0.0
 30
0.0
  0
VERTEX
  5
35D
330
35C
100
AcDbEntity
  8
BEMAßUNG
 62
     7
100
AcDbVertex
100
AcDb2dVertex
 10
5.23706190190254
 20
190.1317192450018
 30
0.0
  0
VERTEX
  5
35E
330
35C
100
AcDbEntity
  8
BEMAßUNG
 62
     7
100
AcDbVertex
100
AcDb2dVertex
 10
5.225004067704166
 20
190.107603576605
 30
0.0
  0
SEQEND
  5
35F
330
35C
100
AcDbEntity
  8
BEMAßUNG
  0
POLYLINE
  5
360
330
1F
100
AcDbEntity
  8
BEMAßUNG
 62
     7
100
AcDb2dPolyline
 66
     1
 10
0.0
 20
0.0
 30
0.0
  0
VERTEX
  5
361
330
360
100
AcDbEntity
  8
BEMAßUNG
 62
     7
100
AcDbVertex
100
AcDb2dVertex
 10
5.23706190190254
 20
190.1317192450018
 30
0.0
  0
VERTEX
  5
362
330
360
100
AcDbEntity
  8
BEMAßUNG
 62
     7
100
AcDbVertex
100
AcDb2dVertex
 10
5.225004067704166
 20
190.107603576605
 30
0.0
  0
SEQEND
  5
363
330
360
100
AcDbEntity
  8
BEMAßUNG
  0
POLYLINE
  5
364
330
1F
100
AcDbEntity
  8
BEMAßUNG
 62
     7
100
AcDb2dPolyline
 66
     1
 10
0.0
 20
0.0
 30
0.0
  0
VERTEX
  5
365
330
364
100
AcDbEntity
  8
BEMAßUNG
 62
     7
100
AcDbVertex
100
AcDb2dVertex
 10
5.282192652759313
 20
190.1079480861536
 30
0.0
  0
VERTEX
  5
366
330
364
100
AcDbEntity
  8
BEMAßUNG
 62
     7
100
AcDbVertex
100
AcDb2dVertex
 10
5.090989853327947
 20
189.7424234551686
 30
0.0
  0
SEQEND
  5
367
330
364
100
AcDbEntity
  8
BEMAßUNG
  0
POLYLINE
  5
368
330
1F
100
AcDbEntity
  8
BEMAßUNG
 62
     7
100
AcDb2dPolyline
 66
     1
 10
0.0
 20
0.0
 30
0.0
  0
VERTEX
  5
369
330
368
100
AcDbEntity
  8
BEMAßUNG
 62
     7
100
AcDbVertex
100
AcDb2dVertex
 10
5.327323403616086
 20
190.0848659464024
 30
0.0
  0
VERTEX
  5
36A
330
368
100
AcDbEntity
  8
BEMAßUNG
 62
     7
100
AcDbVertex
100
AcDb2dVertex
 10
4.957320148500253
 20
189.376554314635
 30
0.0
  0
SEQEND
  5
36B
330
368
100
AcDbEntity
  8
BEMAßUNG
  0
POLYLINE
  5
36C
330
1F
100
AcDbEntity
  8
BEMAßUNG
 62
     7
100
AcDb2dPolyline
 66
     1
 10
0.0
 20
0.0
 30
0.0
  0
VERTEX
  5
36D
330
36C
100
AcDbEntity
  8
BEMAßUNG
 62
     7
100
AcDbVertex
100
AcDb2dVertex
 10
5.372454154472859
 20
190.0610947875542
 30
0.0
  0
VERTEX
  5
36E
330
36C
100
AcDbEntity
  8
BEMAßUNG
 62
     7
100
AcDbVertex
100
AcDb2dVertex
 10
4.823305934124035
 20
189.0113741931985
 30
0.0
  0
SEQEND
  5
36F
330
36C
100
AcDbEntity
  8
BEMAßUNG
  0
POLYLINE
  5
370
330
1F
100
AcDbEntity
  8
BEMAßUNG
 62
     7
100
AcDb2dPolyline
 66
     1
 10
0.0
 20
0.0
 30
0.0
  0
VERTEX
  5
371
330
370
100
AcDbEntity
  8
BEMAßUNG
 62
     7
100
AcDbVertex
100
AcDb2dVertex
 10
5.417584905329631
 20
190.037323628706
 30
0.0
  0
VERTEX
  5
372
330
370
100
AcDbEntity
  8
BEMAßUNG
 62
     7
100
AcDbVertex
100
AcDb2dVertex
 10
4.689636229296341
 20
188.6461940717621
 30
0.0
  0
SEQEND
  5
373
330
370
100
AcDbEntity
  8
BEMAßUNG
  0
POLYLINE
  5
374
330
1F
100
AcDbEntity
  8
BEMAßUNG
 62
     7
100
AcDb2dPolyline
 66
     1
 10
0.0
 20
0.0
 30
0.0
  0
VERTEX
  5
375
330
374
100
AcDbEntity
  8
BEMAßUNG
 62
     7
100
AcDbVertex
100
AcDb2dVertex
 10
5.462715656186405
 20
190.0138969794063
 30
0.0
  0
VERTEX
  5
376
330
374
100
AcDbEntity
  8
BEMAßUNG
 62
     7
100
AcDbVertex
100
AcDb2dVertex
 10
4.555622014920123
 20
188.2803249312285
 30
0.0
  0
SEQEND
  5
377
330
374
100
AcDbEntity
  8
BEMAßUNG
  0
POLYLINE
  5
378
330
1F
100
AcDbEntity
  8
BEMAßUNG
 62
     7
100
AcDb2dPolyline
 66
     1
 10
0.0
 20
0.0
 30
0.0
  0
VERTEX
  5
379
330
378
100
AcDbEntity
  8
BEMAßUNG
 62
     7
100
AcDbVertex
100
AcDb2dVertex
 10
5.507846407043178
 20
189.9904703301065
 30
0.0
  0
VERTEX
  5
37A
330
378
100
AcDbEntity
  8
BEMAßUNG
 62
     7
100
AcDbVertex
100
AcDb2dVertex
 10
4.422296819640954
 20
187.9151448097921
 30
0.0
  0
SEQEND
  5
37B
330
378
100
AcDbEntity
  8
BEMAßUNG
  0
POLYLINE
  5
37C
330
1F
100
AcDbEntity
  8
BEMAßUNG
 62
     7
100
AcDb2dPolyline
 66
     1
 10
0.0
 20
0.0
 30
0.0
  0
VERTEX
  5
37D
330
37C
100
AcDbEntity
  8
BEMAßUNG
 62
     7
100
AcDbVertex
100
AcDb2dVertex
 10
5.552288138802901
 20
189.9663546617098
 30
0.0
  0
VERTEX
  5
37E
330
37C
100
AcDbEntity
  8
BEMAßUNG
 62
     7
100
AcDbVertex
100
AcDb2dVertex
 10
4.288282605264735
 20
187.5492756692585
 30
0.0
  0
SEQEND
  5
37F
330
37C
100
AcDbEntity
  8
BEMAßUNG
  0
POLYLINE
  5
380
330
1F
100
AcDbEntity
  8
BEMAßUNG
 62
     7
100
AcDb2dPolyline
 66
     1
 10
0.0
 20
0.0
 30
0.0
  0
VERTEX
  5
381
330
380
100
AcDbEntity
  8
BEMAßUNG
 62
     7
100
AcDbVertex
100
AcDb2dVertex
 10
5.597418889659673
 20
189.9432725219586
 30
0.0
  0
VERTEX
  5
382
330
380
100
AcDbEntity
  8
BEMAßUNG
 62
     7
100
AcDbVertex
100
AcDb2dVertex
 10
4.154268390888516
 20
187.184095547822
 30
0.0
  0
SEQEND
  5
383
330
380
100
AcDbEntity
  8
BEMAßUNG
  0
POLYLINE
  5
384
330
1F
100
AcDbEntity
  8
BEMAßUNG
 62
     7
100
AcDb2dPolyline
 66
     1
 10
0.0
 20
0.0
 30
0.0
  0
VERTEX
  5
385
330
384
100
AcDbEntity
  8
BEMAßUNG
 62
     7
100
AcDbVertex
100
AcDb2dVertex
 10
5.642549640516446
 20
189.9201903822075
 30
0.0
  0
VERTEX
  5
386
330
384
100
AcDbEntity
  8
BEMAßUNG
 62
     7
100
AcDbVertex
100
AcDb2dVertex
 10
4.020254176512298
 20
186.8182264072885
 30
0.0
  0
SEQEND
  5
387
330
384
100
AcDbEntity
  8
BEMAßUNG
  0
POLYLINE
  5
388
330
1F
100
AcDbEntity
  8
BEMAßUNG
 62
     7
100
AcDb2dPolyline
 66
     1
 10
0.0
 20
0.0
 30
0.0
  0
VERTEX
  5
389
330
388
100
AcDbEntity
  8
BEMAßUNG
 62
     7
100
AcDbVertex
100
AcDb2dVertex
 10
23.80509303875359
 20
215.0883354497001
 30
0.0
  0
VERTEX
  5
38A
330
388
100
AcDbEntity
  8
BEMAßUNG
 62
     7
100
AcDbVertex
100
AcDb2dVertex
 10
42.20913763050675
 20
215.0883354497001
 30
0.0
  0
SEQEND
  5
38B
330
388
100
AcDbEntity
  8
BEMAßUNG
  0
POLYLINE
  5
38C
330
1F
100
AcDbEntity
  8
BEMAßUNG
 62
     7
100
AcDb2dPolyline
 66
     1
 10
0.0
 20
0.0
 30
0.0
  0
VERTEX
  5
38D
330
38C
100
AcDbEntity
  8
BEMAßUNG
 62
     7
100
AcDbVertex
100
AcDb2dVertex
 10
-47.34990911359655
 20
181.9926811610991
 30
0.0
  0
VERTEX
  5
38E
330
38C
100
AcDbEntity
  8
BEMAßUNG
 62
     7
100
AcDbVertex
100
AcDb2dVertex
 10
-59.0673678780283
 20
181.9926811610991
 30
0.0
  0
SEQEND
  5
38F
330
38C
100
AcDbEntity
  8
BEMAßUNG
  0
POLYLINE
  5
390
330
1F
100
AcDbEntity
  8
BEMAßUNG
 62
     7
100
AcDb2dPolyline
 66
     1
 10
0.0
 20
0.0
 30
0.0
  0
VERTEX
  5
391
330
390
100
AcDbEntity
  8
BEMAßUNG
 62
     7
100
AcDbVertex
100
AcDb2dVertex
 10
-47.34990911359655
 20
169.9937580955224
 30
0.0
  0
VERTEX
  5
392
330
390
100
AcDbEntity
  8
BEMAßUNG
 62
     7
100
AcDbVertex
100
AcDb2dVertex
 10
-59.0673678780283
 20
169.9937580955224
 30
0.0
  0
SEQEND
  5
393
330
390
100
AcDbEntity
  8
BEMAßUNG
  0
POLYLINE
  5
394
330
1F
100
AcDbEntity
  8
BEMAßUNG
 62
     7
100
AcDb2dPolyline
 66
     1
 10
0.0
 20
0.0
 30
0.0
  0
VERTEX
  5
395
330
394
100
AcDbEntity
  8
BEMAßUNG
 62
     7
100
AcDbVertex
100
AcDb2dVertex
 10
-57.06748994884077
 20
169.9937580955224
 30
0.0
  0
VERTEX
  5
396
330
394
100
AcDbEntity
  8
BEMAßUNG
 62
     7
100
AcDbVertex
100
AcDb2dVertex
 10
-57.06748994884077
 20
194.6723550945611
 30
0.0
  0
SEQEND
  5
397
330
394
100
AcDbEntity
  8
BEMAßUNG
  0
POLYLINE
  5
398
330
1F
100
AcDbEntity
  8
BEMAßUNG
 62
     7
100
AcDb2dPolyline
 66
     1
 10
0.0
 20
0.0
 30
0.0
  0
VERTEX
  5
399
330
398
100
AcDbEntity
  8
BEMAßUNG
 62
     7
100
AcDbVertex
100
AcDb2dVertex
 10
-57.06748994884077
 20
181.9926811610991
 30
0.0
  0
VERTEX
  5
39A
330
398
100
AcDbEntity
  8
BEMAßUNG
 62
     7
100
AcDbVertex
100
AcDb2dVertex
 10
-57.52809921521867
 20
178.4931531671823
 30
0.0
  0
VERTEX
  5
39B
330
398
100
AcDbEntity
  8
BEMAßUNG
 62
     7
100
AcDbVertex
100
AcDb2dVertex
 10
-56.60653617291434
 20
178.4931531671823
 30
0.0
  0
VERTEX
  5
39C
330
398
100
AcDbEntity
  8
BEMAßUNG
 62
     7
100
AcDbVertex
100
AcDb2dVertex
 10
-57.06748994884077
 20
181.9926811610991
 30
0.0
  0
SEQEND
  5
39D
330
398
100
AcDbEntity
  8
BEMAßUNG
  0
POLYLINE
  5
39E
330
1F
100
AcDbEntity
  8
BEMAßUNG
 62
     7
100
AcDb2dPolyline
 66
     1
 10
0.0
 20
0.0
 30
0.0
  0
VERTEX
  5
39F
330
39E
100
AcDbEntity
  8
BEMAßUNG
 62
     7
100
AcDbVertex
100
AcDb2dVertex
 10
-57.52499862928195
 20
178.4931531671823
 30
0.0
  0
VERTEX
  5
3A0
330
39E
100
AcDbEntity
  8
BEMAßUNG
 62
     7
100
AcDbVertex
100
AcDb2dVertex
 10
-57.52499862928195
 20
178.5200249119672
 30
0.0
  0
SEQEND
  5
3A1
330
39E
100
AcDbEntity
  8
BEMAßUNG
  0
POLYLINE
  5
3A2
330
1F
100
AcDbEntity
  8
BEMAßUNG
 62
     7
100
AcDb2dPolyline
 66
     1
 10
0.0
 20
0.0
 30
0.0
  0
VERTEX
  5
3A3
330
3A2
100
AcDbEntity
  8
BEMAßUNG
 62
     7
100
AcDbVertex
100
AcDb2dVertex
 10
-57.52499862928195
 20
178.4931531671823
 30
0.0
  0
VERTEX
  5
3A4
330
3A2
100
AcDbEntity
  8
BEMAßUNG
 62
     7
100
AcDbVertex
100
AcDb2dVertex
 10
-57.52499862928195
 20
178.5200249119672
 30
0.0
  0
SEQEND
  5
3A5
330
3A2
100
AcDbEntity
  8
BEMAßUNG
  0
POLYLINE
  5
3A6
330
1F
100
AcDbEntity
  8
BEMAßUNG
 62
     7
100
AcDb2dPolyline
 66
     1
 10
0.0
 20
0.0
 30
0.0
  0
VERTEX
  5
3A7
330
3A6
100
AcDbEntity
  8
BEMAßUNG
 62
     7
100
AcDbVertex
100
AcDb2dVertex
 10
-57.47401121610025
 20
178.4931531671823
 30
0.0
  0
VERTEX
  5
3A8
330
3A6
100
AcDbEntity
  8
BEMAßUNG
 62
     7
100
AcDbVertex
100
AcDb2dVertex
 10
-57.47401121610025
 20
178.9058756063152
 30
0.0
  0
SEQEND
  5
3A9
330
3A6
100
AcDbEntity
  8
BEMAßUNG
  0
POLYLINE
  5
3AA
330
1F
100
AcDbEntity
  8
BEMAßUNG
 62
     7
100
AcDb2dPolyline
 66
     1
 10
0.0
 20
0.0
 30
0.0
  0
VERTEX
  5
3AB
330
3AA
100
AcDbEntity
  8
BEMAßUNG
 62
     7
100
AcDbVertex
100
AcDb2dVertex
 10
-57.42302380291855
 20
178.4931531671823
 30
0.0
  0
VERTEX
  5
3AC
330
3AA
100
AcDbEntity
  8
BEMAßUNG
 62
     7
100
AcDbVertex
100
AcDb2dVertex
 10
-57.42302380291855
 20
179.2924153197602
 30
0.0
  0
SEQEND
  5
3AD
330
3AA
100
AcDbEntity
  8
BEMAßUNG
  0
POLYLINE
  5
3AE
330
1F
100
AcDbEntity
  8
BEMAßUNG
 62
     7
100
AcDb2dPolyline
 66
     1
 10
0.0
 20
0.0
 30
0.0
  0
VERTEX
  5
3AF
330
3AE
100
AcDbEntity
  8
BEMAßUNG
 62
     7
100
AcDbVertex
100
AcDb2dVertex
 10
-57.37272540883391
 20
178.4931531671823
 30
0.0
  0
VERTEX
  5
3B0
330
3AE
100
AcDbEntity
  8
BEMAßUNG
 62
     7
100
AcDbVertex
100
AcDb2dVertex
 10
-57.37272540883391
 20
179.6779215045597
 30
0.0
  0
SEQEND
  5
3B1
330
3AE
100
AcDbEntity
  8
BEMAßUNG
  0
POLYLINE
  5
3B2
330
1F
100
AcDbEntity
  8
BEMAßUNG
 62
     7
100
AcDb2dPolyline
 66
     1
 10
0.0
 20
0.0
 30
0.0
  0
VERTEX
  5
3B3
330
3B2
100
AcDbEntity
  8
BEMAßUNG
 62
     7
100
AcDbVertex
100
AcDb2dVertex
 10
-57.32208250520073
 20
178.4931531671823
 30
0.0
  0
VERTEX
  5
3B4
330
3B2
100
AcDbEntity
  8
BEMAßUNG
 62
     7
100
AcDbVertex
100
AcDb2dVertex
 10
-57.32208250520073
 20
180.0644612180047
 30
0.0
  0
SEQEND
  5
3B5
330
3B2
100
AcDbEntity
  8
BEMAßUNG
  0
POLYLINE
  5
3B6
330
1F
100
AcDbEntity
  8
BEMAßUNG
 62
     7
100
AcDb2dPolyline
 66
     1
 10
0.0
 20
0.0
 30
0.0
  0
VERTEX
  5
3B7
330
3B6
100
AcDbEntity
  8
BEMAßUNG
 62
     7
100
AcDbVertex
100
AcDb2dVertex
 10
-57.27040607292199
 20
178.4931531671823
 30
0.0
  0
VERTEX
  5
3B8
330
3B6
100
AcDbEntity
  8
BEMAßUNG
 62
     7
100
AcDbVertex
100
AcDb2dVertex
 10
-57.27040607292199
 20
180.4492783837071
 30
0.0
  0
SEQEND
  5
3B9
330
3B6
100
AcDbEntity
  8
BEMAßUNG
  0
POLYLINE
  5
3BA
330
1F
100
AcDbEntity
  8
BEMAßUNG
 62
     7
100
AcDb2dPolyline
 66
     1
 10
0.0
 20
0.0
 30
0.0
  0
VERTEX
  5
3BB
330
3BA
100
AcDbEntity
  8
BEMAßUNG
 62
     7
100
AcDbVertex
100
AcDb2dVertex
 10
-57.21976316928881
 20
178.4931531671823
 30
0.0
  0
VERTEX
  5
3BC
330
3BA
100
AcDbEntity
  8
BEMAßUNG
 62
     7
100
AcDbVertex
100
AcDb2dVertex
 10
-57.21976316928881
 20
180.8358180971522
 30
0.0
  0
SEQEND
  5
3BD
330
3BA
100
AcDbEntity
  8
BEMAßUNG
  0
POLYLINE
  5
3BE
330
1F
100
AcDbEntity
  8
BEMAßUNG
 62
     7
100
AcDb2dPolyline
 66
     1
 10
0.0
 20
0.0
 30
0.0
  0
VERTEX
  5
3BF
330
3BE
100
AcDbEntity
  8
BEMAßUNG
 62
     7
100
AcDbVertex
100
AcDb2dVertex
 10
-57.16912026565564
 20
178.4931531671823
 30
0.0
  0
VERTEX
  5
3C0
330
3BE
100
AcDbEntity
  8
BEMAßUNG
 62
     7
100
AcDbVertex
100
AcDb2dVertex
 10
-57.16912026565564
 20
181.2213242819516
 30
0.0
  0
SEQEND
  5
3C1
330
3BE
100
AcDbEntity
  8
BEMAßUNG
  0
POLYLINE
  5
3C2
330
1F
100
AcDbEntity
  8
BEMAßUNG
 62
     7
100
AcDb2dPolyline
 66
     1
 10
0.0
 20
0.0
 30
0.0
  0
VERTEX
  5
3C3
330
3C2
100
AcDbEntity
  8
BEMAßUNG
 62
     7
100
AcDbVertex
100
AcDb2dVertex
 10
-57.11882187157099
 20
178.4931531671823
 30
0.0
  0
VERTEX
  5
3C4
330
3C2
100
AcDbEntity
  8
BEMAßUNG
 62
     7
100
AcDbVertex
100
AcDb2dVertex
 10
-57.11882187157099
 20
181.6078639953967
 30
0.0
  0
SEQEND
  5
3C5
330
3C2
100
AcDbEntity
  8
BEMAßUNG
  0
POLYLINE
  5
3C6
330
1F
100
AcDbEntity
  8
BEMAßUNG
 62
     7
100
AcDb2dPolyline
 66
     1
 10
0.0
 20
0.0
 30
0.0
  0
VERTEX
  5
3C7
330
3C6
100
AcDbEntity
  8
BEMAßUNG
 62
     7
100
AcDbVertex
100
AcDb2dVertex
 10
-57.06748994884077
 20
178.4931531671823
 30
0.0
  0
VERTEX
  5
3C8
330
3C6
100
AcDbEntity
  8
BEMAßUNG
 62
     7
100
AcDbVertex
100
AcDb2dVertex
 10
-57.06748994884077
 20
181.9926811610991
 30
0.0
  0
SEQEND
  5
3C9
330
3C6
100
AcDbEntity
  8
BEMAßUNG
  0
POLYLINE
  5
3CA
330
1F
100
AcDbEntity
  8
BEMAßUNG
 62
     7
100
AcDb2dPolyline
 66
     1
 10
0.0
 20
0.0
 30
0.0
  0
VERTEX
  5
3CB
330
3CA
100
AcDbEntity
  8
BEMAßUNG
 62
     7
100
AcDbVertex
100
AcDb2dVertex
 10
-56.61067028749664
 20
178.4931531671823
 30
0.0
  0
VERTEX
  5
3CC
330
3CA
100
AcDbEntity
  8
BEMAßUNG
 62
     7
100
AcDbVertex
100
AcDb2dVertex
 10
-56.61067028749664
 20
178.5200249119672
 30
0.0
  0
SEQEND
  5
3CD
330
3CA
100
AcDbEntity
  8
BEMAßUNG
  0
POLYLINE
  5
3CE
330
1F
100
AcDbEntity
  8
BEMAßUNG
 62
     7
100
AcDb2dPolyline
 66
     1
 10
0.0
 20
0.0
 30
0.0
  0
VERTEX
  5
3CF
330
3CE
100
AcDbEntity
  8
BEMAßUNG
 62
     7
100
AcDbVertex
100
AcDb2dVertex
 10
-56.61067028749664
 20
178.4931531671823
 30
0.0
  0
VERTEX
  5
3D0
330
3CE
100
AcDbEntity
  8
BEMAßUNG
 62
     7
100
AcDbVertex
100
AcDb2dVertex
 10
-56.61067028749664
 20
178.5200249119672
 30
0.0
  0
SEQEND
  5
3D1
330
3CE
100
AcDbEntity
  8
BEMAßUNG
  0
POLYLINE
  5
3D2
330
1F
100
AcDbEntity
  8
BEMAßUNG
 62
     7
100
AcDb2dPolyline
 66
     1
 10
0.0
 20
0.0
 30
0.0
  0
VERTEX
  5
3D3
330
3D2
100
AcDbEntity
  8
BEMAßUNG
 62
     7
100
AcDbVertex
100
AcDb2dVertex
 10
-56.66096868158129
 20
178.4931531671823
 30
0.0
  0
VERTEX
  5
3D4
330
3D2
100
AcDbEntity
  8
BEMAßUNG
 62
     7
100
AcDbVertex
100
AcDb2dVertex
 10
-56.66096868158129
 20
178.9058756063152
 30
0.0
  0
SEQEND
  5
3D5
330
3D2
100
AcDbEntity
  8
BEMAßUNG
  0
POLYLINE
  5
3D6
330
1F
100
AcDbEntity
  8
BEMAßUNG
 62
     7
100
AcDb2dPolyline
 66
     1
 10
0.0
 20
0.0
 30
0.0
  0
VERTEX
  5
3D7
330
3D6
100
AcDbEntity
  8
BEMAßUNG
 62
     7
100
AcDbVertex
100
AcDb2dVertex
 10
-56.71195609476299
 20
178.4931531671823
 30
0.0
  0
VERTEX
  5
3D8
330
3D6
100
AcDbEntity
  8
BEMAßUNG
 62
     7
100
AcDbVertex
100
AcDb2dVertex
 10
-56.71195609476299
 20
179.2924153197602
 30
0.0
  0
SEQEND
  5
3D9
330
3D6
100
AcDbEntity
  8
BEMAßUNG
  0
POLYLINE
  5
3DA
330
1F
100
AcDbEntity
  8
BEMAßUNG
 62
     7
100
AcDb2dPolyline
 66
     1
 10
0.0
 20
0.0
 30
0.0
  0
VERTEX
  5
3DB
330
3DA
100
AcDbEntity
  8
BEMAßUNG
 62
     7
100
AcDbVertex
100
AcDb2dVertex
 10
-56.76328801749321
 20
178.4931531671823
 30
0.0
  0
VERTEX
  5
3DC
330
3DA
100
AcDbEntity
  8
BEMAßUNG
 62
     7
100
AcDbVertex
100
AcDb2dVertex
 10
-56.76328801749321
 20
179.6779215045597
 30
0.0
  0
SEQEND
  5
3DD
330
3DA
100
AcDbEntity
  8
BEMAßUNG
  0
POLYLINE
  5
3DE
330
1F
100
AcDbEntity
  8
BEMAßUNG
 62
     7
100
AcDb2dPolyline
 66
     1
 10
0.0
 20
0.0
 30
0.0
  0
VERTEX
  5
3DF
330
3DE
100
AcDbEntity
  8
BEMAßUNG
 62
     7
100
AcDbVertex
100
AcDb2dVertex
 10
-56.81393092112638
 20
178.4931531671823
 30
0.0
  0
VERTEX
  5
3E0
330
3DE
100
AcDbEntity
  8
BEMAßUNG
 62
     7
100
AcDbVertex
100
AcDb2dVertex
 10
-56.81393092112638
 20
180.0644612180047
 30
0.0
  0
SEQEND
  5
3E1
330
3DE
100
AcDbEntity
  8
BEMAßUNG
  0
POLYLINE
  5
3E2
330
1F
100
AcDbEntity
  8
BEMAßUNG
 62
     7
100
AcDb2dPolyline
 66
     1
 10
0.0
 20
0.0
 30
0.0
  0
VERTEX
  5
3E3
330
3E2
100
AcDbEntity
  8
BEMAßUNG
 62
     7
100
AcDbVertex
100
AcDb2dVertex
 10
-56.86457382475955
 20
178.4931531671823
 30
0.0
  0
VERTEX
  5
3E4
330
3E2
100
AcDbEntity
  8
BEMAßUNG
 62
     7
100
AcDbVertex
100
AcDb2dVertex
 10
-56.86457382475955
 20
180.4492783837071
 30
0.0
  0
SEQEND
  5
3E5
330
3E2
100
AcDbEntity
  8
BEMAßUNG
  0
POLYLINE
  5
3E6
330
1F
100
AcDbEntity
  8
BEMAßUNG
 62
     7
100
AcDb2dPolyline
 66
     1
 10
0.0
 20
0.0
 30
0.0
  0
VERTEX
  5
3E7
330
3E6
100
AcDbEntity
  8
BEMAßUNG
 62
     7
100
AcDbVertex
100
AcDb2dVertex
 10
-56.91521672839273
 20
178.4931531671823
 30
0.0
  0
VERTEX
  5
3E8
330
3E6
100
AcDbEntity
  8
BEMAßUNG
 62
     7
100
AcDbVertex
100
AcDb2dVertex
 10
-56.91521672839273
 20
180.8358180971522
 30
0.0
  0
SEQEND
  5
3E9
330
3E6
100
AcDbEntity
  8
BEMAßUNG
  0
POLYLINE
  5
3EA
330
1F
100
AcDbEntity
  8
BEMAßUNG
 62
     7
100
AcDb2dPolyline
 66
     1
 10
0.0
 20
0.0
 30
0.0
  0
VERTEX
  5
3EB
330
3EA
100
AcDbEntity
  8
BEMAßUNG
 62
     7
100
AcDbVertex
100
AcDb2dVertex
 10
-56.9658596320259
 20
178.4931531671823
 30
0.0
  0
VERTEX
  5
3EC
330
3EA
100
AcDbEntity
  8
BEMAßUNG
 62
     7
100
AcDbVertex
100
AcDb2dVertex
 10
-56.9658596320259
 20
181.2213242819516
 30
0.0
  0
SEQEND
  5
3ED
330
3EA
100
AcDbEntity
  8
BEMAßUNG
  0
POLYLINE
  5
3EE
330
1F
100
AcDbEntity
  8
BEMAßUNG
 62
     7
100
AcDb2dPolyline
 66
     1
 10
0.0
 20
0.0
 30
0.0
  0
VERTEX
  5
3EF
330
3EE
100
AcDbEntity
  8
BEMAßUNG
 62
     7
100
AcDbVertex
100
AcDb2dVertex
 10
-57.01650253565907
 20
178.4931531671823
 30
0.0
  0
VERTEX
  5
3F0
330
3EE
100
AcDbEntity
  8
BEMAßUNG
 62
     7
100
AcDbVertex
100
AcDb2dVertex
 10
-57.01650253565907
 20
181.6078639953967
 30
0.0
  0
SEQEND
  5
3F1
330
3EE
100
AcDbEntity
  8
BEMAßUNG
  0
POLYLINE
  5
3F2
330
1F
100
AcDbEntity
  8
BEMAßUNG
 62
     7
100
AcDb2dPolyline
 66
     1
 10
0.0
 20
0.0
 30
0.0
  0
VERTEX
  5
3F3
330
3F2
100
AcDbEntity
  8
BEMAßUNG
 62
     7
100
AcDbVertex
100
AcDb2dVertex
 10
-57.06748994884077
 20
178.4931531671823
 30
0.0
  0
VERTEX
  5
3F4
330
3F2
100
AcDbEntity
  8
BEMAßUNG
 62
     7
100
AcDbVertex
100
AcDb2dVertex
 10
-57.06748994884077
 20
181.9926811610991
 30
0.0
  0
SEQEND
  5
3F5
330
3F2
100
AcDbEntity
  8
BEMAßUNG
  0
POLYLINE
  5
3F6
330
1F
100
AcDbEntity
  8
BEMAßUNG
 62
     7
100
AcDb2dPolyline
 66
     1
 10
0.0
 20
0.0
 30
0.0
  0
VERTEX
  5
3F7
330
3F6
100
AcDbEntity
  8
BEMAßUNG
 62
     7
100
AcDbVertex
100
AcDb2dVertex
 10
-57.06748994884077
 20
169.9937580955224
 30
0.0
  0
VERTEX
  5
3F8
330
3F6
100
AcDbEntity
  8
BEMAßUNG
 62
     7
100
AcDbVertex
100
AcDb2dVertex
 10
-56.60653617291434
 20
173.4932860894392
 30
0.0
  0
VERTEX
  5
3F9
330
3F6
100
AcDbEntity
  8
BEMAßUNG
 62
     7
100
AcDbVertex
100
AcDb2dVertex
 10
-57.52809921521867
 20
173.4932860894392
 30
0.0
  0
VERTEX
  5
3FA
330
3F6
100
AcDbEntity
  8
BEMAßUNG
 62
     7
100
AcDbVertex
100
AcDb2dVertex
 10
-57.06748994884077
 20
169.9937580955224
 30
0.0
  0
SEQEND
  5
3FB
330
3F6
100
AcDbEntity
  8
BEMAßUNG
  0
POLYLINE
  5
3FC
330
1F
100
AcDbEntity
  8
BEMAßUNG
 62
     7
100
AcDb2dPolyline
 66
     1
 10
0.0
 20
0.0
 30
0.0
  0
VERTEX
  5
3FD
330
3FC
100
AcDbEntity
  8
BEMAßUNG
 62
     7
100
AcDbVertex
100
AcDb2dVertex
 10
-56.61067028749664
 20
173.4932860894392
 30
0.0
  0
VERTEX
  5
3FE
330
3FC
100
AcDbEntity
  8
BEMAßUNG
 62
     7
100
AcDbVertex
100
AcDb2dVertex
 10
-56.61067028749664
 20
173.4657253255572
 30
0.0
  0
SEQEND
  5
3FF
330
3FC
100
AcDbEntity
  8
BEMAßUNG
  0
POLYLINE
  5
400
330
1F
100
AcDbEntity
  8
BEMAßUNG
 62
     7
100
AcDb2dPolyline
 66
     1
 10
0.0
 20
0.0
 30
0.0
  0
VERTEX
  5
401
330
400
100
AcDbEntity
  8
BEMAßUNG
 62
     7
100
AcDbVertex
100
AcDb2dVertex
 10
-56.61067028749664
 20
173.4932860894392
 30
0.0
  0
VERTEX
  5
402
330
400
100
AcDbEntity
  8
BEMAßUNG
 62
     7
100
AcDbVertex
100
AcDb2dVertex
 10
-56.61067028749664
 20
173.4657253255572
 30
0.0
  0
SEQEND
  5
403
330
400
100
AcDbEntity
  8
BEMAßUNG
  0
POLYLINE
  5
404
330
1F
100
AcDbEntity
  8
BEMAßUNG
 62
     7
100
AcDb2dPolyline
 66
     1
 10
0.0
 20
0.0
 30
0.0
  0
VERTEX
  5
405
330
404
100
AcDbEntity
  8
BEMAßUNG
 62
     7
100
AcDbVertex
100
AcDb2dVertex
 10
-56.66096868158129
 20
173.4932860894392
 30
0.0
  0
VERTEX
  5
406
330
404
100
AcDbEntity
  8
BEMAßUNG
 62
     7
100
AcDbVertex
100
AcDb2dVertex
 10
-56.66096868158129
 20
173.0805636503063
 30
0.0
  0
SEQEND
  5
407
330
404
100
AcDbEntity
  8
BEMAßUNG
  0
POLYLINE
  5
408
330
1F
100
AcDbEntity
  8
BEMAßUNG
 62
     7
100
AcDb2dPolyline
 66
     1
 10
0.0
 20
0.0
 30
0.0
  0
VERTEX
  5
409
330
408
100
AcDbEntity
  8
BEMAßUNG
 62
     7
100
AcDbVertex
100
AcDb2dVertex
 10
-56.71195609476299
 20
173.4932860894392
 30
0.0
  0
VERTEX
  5
40A
330
408
100
AcDbEntity
  8
BEMAßUNG
 62
     7
100
AcDbVertex
100
AcDb2dVertex
 10
-56.71195609476299
 20
172.6940239368612
 30
0.0
  0
SEQEND
  5
40B
330
408
100
AcDbEntity
  8
BEMAßUNG
  0
POLYLINE
  5
40C
330
1F
100
AcDbEntity
  8
BEMAßUNG
 62
     7
100
AcDb2dPolyline
 66
     1
 10
0.0
 20
0.0
 30
0.0
  0
VERTEX
  5
40D
330
40C
100
AcDbEntity
  8
BEMAßUNG
 62
     7
100
AcDbVertex
100
AcDb2dVertex
 10
-56.76328801749321
 20
173.4932860894392
 30
0.0
  0
VERTEX
  5
40E
330
40C
100
AcDbEntity
  8
BEMAßUNG
 62
     7
100
AcDbVertex
100
AcDb2dVertex
 10
-56.76328801749321
 20
172.3081732425132
 30
0.0
  0
SEQEND
  5
40F
330
40C
100
AcDbEntity
  8
BEMAßUNG
  0
POLYLINE
  5
410
330
1F
100
AcDbEntity
  8
BEMAßUNG
 62
     7
100
AcDb2dPolyline
 66
     1
 10
0.0
 20
0.0
 30
0.0
  0
VERTEX
  5
411
330
410
100
AcDbEntity
  8
BEMAßUNG
 62
     7
100
AcDbVertex
100
AcDb2dVertex
 10
-56.81393092112638
 20
173.4932860894392
 30
0.0
  0
VERTEX
  5
412
330
410
100
AcDbEntity
  8
BEMAßUNG
 62
     7
100
AcDbVertex
100
AcDb2dVertex
 10
-56.81393092112638
 20
171.9223225481653
 30
0.0
  0
SEQEND
  5
413
330
410
100
AcDbEntity
  8
BEMAßUNG
  0
POLYLINE
  5
414
330
1F
100
AcDbEntity
  8
BEMAßUNG
 62
     7
100
AcDb2dPolyline
 66
     1
 10
0.0
 20
0.0
 30
0.0
  0
VERTEX
  5
415
330
414
100
AcDbEntity
  8
BEMAßUNG
 62
     7
100
AcDbVertex
100
AcDb2dVertex
 10
-56.86457382475955
 20
173.4932860894392
 30
0.0
  0
VERTEX
  5
416
330
414
100
AcDbEntity
  8
BEMAßUNG
 62
     7
100
AcDbVertex
100
AcDb2dVertex
 10
-56.86457382475955
 20
171.5371608729143
 30
0.0
  0
SEQEND
  5
417
330
414
100
AcDbEntity
  8
BEMAßUNG
  0
POLYLINE
  5
418
330
1F
100
AcDbEntity
  8
BEMAßUNG
 62
     7
100
AcDb2dPolyline
 66
     1
 10
0.0
 20
0.0
 30
0.0
  0
VERTEX
  5
419
330
418
100
AcDbEntity
  8
BEMAßUNG
 62
     7
100
AcDbVertex
100
AcDb2dVertex
 10
-56.91521672839273
 20
173.4932860894392
 30
0.0
  0
VERTEX
  5
41A
330
418
100
AcDbEntity
  8
BEMAßUNG
 62
     7
100
AcDbVertex
100
AcDb2dVertex
 10
-56.91521672839273
 20
171.1506211594693
 30
0.0
  0
SEQEND
  5
41B
330
418
100
AcDbEntity
  8
BEMAßUNG
  0
POLYLINE
  5
41C
330
1F
100
AcDbEntity
  8
BEMAßUNG
 62
     7
100
AcDb2dPolyline
 66
     1
 10
0.0
 20
0.0
 30
0.0
  0
VERTEX
  5
41D
330
41C
100
AcDbEntity
  8
BEMAßUNG
 62
     7
100
AcDbVertex
100
AcDb2dVertex
 10
-56.9658596320259
 20
173.4932860894392
 30
0.0
  0
VERTEX
  5
41E
330
41C
100
AcDbEntity
  8
BEMAßUNG
 62
     7
100
AcDbVertex
100
AcDb2dVertex
 10
-56.9658596320259
 20
170.7647704651213
 30
0.0
  0
SEQEND
  5
41F
330
41C
100
AcDbEntity
  8
BEMAßUNG
  0
POLYLINE
  5
420
330
1F
100
AcDbEntity
  8
BEMAßUNG
 62
     7
100
AcDb2dPolyline
 66
     1
 10
0.0
 20
0.0
 30
0.0
  0
VERTEX
  5
421
330
420
100
AcDbEntity
  8
BEMAßUNG
 62
     7
100
AcDbVertex
100
AcDb2dVertex
 10
-57.01650253565907
 20
173.4932860894392
 30
0.0
  0
VERTEX
  5
422
330
420
100
AcDbEntity
  8
BEMAßUNG
 62
     7
100
AcDbVertex
100
AcDb2dVertex
 10
-57.01650253565907
 20
170.3789197707733
 30
0.0
  0
SEQEND
  5
423
330
420
100
AcDbEntity
  8
BEMAßUNG
  0
POLYLINE
  5
424
330
1F
100
AcDbEntity
  8
BEMAßUNG
 62
     7
100
AcDb2dPolyline
 66
     1
 10
0.0
 20
0.0
 30
0.0
  0
VERTEX
  5
425
330
424
100
AcDbEntity
  8
BEMAßUNG
 62
     7
100
AcDbVertex
100
AcDb2dVertex
 10
-57.06748994884077
 20
173.4932860894392
 30
0.0
  0
VERTEX
  5
426
330
424
100
AcDbEntity
  8
BEMAßUNG
 62
     7
100
AcDbVertex
100
AcDb2dVertex
 10
-57.06748994884077
 20
169.9937580955224
 30
0.0
  0
SEQEND
  5
427
330
424
100
AcDbEntity
  8
BEMAßUNG
  0
POLYLINE
  5
428
330
1F
100
AcDbEntity
  8
BEMAßUNG
 62
     7
100
AcDb2dPolyline
 66
     1
 10
0.0
 20
0.0
 30
0.0
  0
VERTEX
  5
429
330
428
100
AcDbEntity
  8
BEMAßUNG
 62
     7
100
AcDbVertex
100
AcDb2dVertex
 10
-57.52499862928195
 20
173.4932860894392
 30
0.0
  0
VERTEX
  5
42A
330
428
100
AcDbEntity
  8
BEMAßUNG
 62
     7
100
AcDbVertex
100
AcDb2dVertex
 10
-57.52499862928195
 20
173.4657253255572
 30
0.0
  0
SEQEND
  5
42B
330
428
100
AcDbEntity
  8
BEMAßUNG
  0
POLYLINE
  5
42C
330
1F
100
AcDbEntity
  8
BEMAßUNG
 62
     7
100
AcDb2dPolyline
 66
     1
 10
0.0
 20
0.0
 30
0.0
  0
VERTEX
  5
42D
330
42C
100
AcDbEntity
  8
BEMAßUNG
 62
     7
100
AcDbVertex
100
AcDb2dVertex
 10
-57.52499862928195
 20
173.4932860894392
 30
0.0
  0
VERTEX
  5
42E
330
42C
100
AcDbEntity
  8
BEMAßUNG
 62
     7
100
AcDbVertex
100
AcDb2dVertex
 10
-57.52499862928195
 20
173.4657253255572
 30
0.0
  0
SEQEND
  5
42F
330
42C
100
AcDbEntity
  8
BEMAßUNG
  0
POLYLINE
  5
430
330
1F
100
AcDbEntity
  8
BEMAßUNG
 62
     7
100
AcDb2dPolyline
 66
     1
 10
0.0
 20
0.0
 30
0.0
  0
VERTEX
  5
431
330
430
100
AcDbEntity
  8
BEMAßUNG
 62
     7
100
AcDbVertex
100
AcDb2dVertex
 10
-57.47401121610025
 20
173.4932860894392
 30
0.0
  0
VERTEX
  5
432
330
430
100
AcDbEntity
  8
BEMAßUNG
 62
     7
100
AcDbVertex
100
AcDb2dVertex
 10
-57.47401121610025
 20
173.0805636503063
 30
0.0
  0
SEQEND
  5
433
330
430
100
AcDbEntity
  8
BEMAßUNG
  0
POLYLINE
  5
434
330
1F
100
AcDbEntity
  8
BEMAßUNG
 62
     7
100
AcDb2dPolyline
 66
     1
 10
0.0
 20
0.0
 30
0.0
  0
VERTEX
  5
435
330
434
100
AcDbEntity
  8
BEMAßUNG
 62
     7
100
AcDbVertex
100
AcDb2dVertex
 10
-57.42302380291855
 20
173.4932860894392
 30
0.0
  0
VERTEX
  5
436
330
434
100
AcDbEntity
  8
BEMAßUNG
 62
     7
100
AcDbVertex
100
AcDb2dVertex
 10
-57.42302380291855
 20
172.6940239368612
 30
0.0
  0
SEQEND
  5
437
330
434
100
AcDbEntity
  8
BEMAßUNG
  0
POLYLINE
  5
438
330
1F
100
AcDbEntity
  8
BEMAßUNG
 62
     7
100
AcDb2dPolyline
 66
     1
 10
0.0
 20
0.0
 30
0.0
  0
VERTEX
  5
439
330
438
100
AcDbEntity
  8
BEMAßUNG
 62
     7
100
AcDbVertex
100
AcDb2dVertex
 10
-57.37272540883391
 20
173.4932860894392
 30
0.0
  0
VERTEX
  5
43A
330
438
100
AcDbEntity
  8
BEMAßUNG
 62
     7
100
AcDbVertex
100
AcDb2dVertex
 10
-57.37272540883391
 20
172.3081732425132
 30
0.0
  0
SEQEND
  5
43B
330
438
100
AcDbEntity
  8
BEMAßUNG
  0
POLYLINE
  5
43C
330
1F
100
AcDbEntity
  8
BEMAßUNG
 62
     7
100
AcDb2dPolyline
 66
     1
 10
0.0
 20
0.0
 30
0.0
  0
VERTEX
  5
43D
330
43C
100
AcDbEntity
  8
BEMAßUNG
 62
     7
100
AcDbVertex
100
AcDb2dVertex
 10
-57.32208250520073
 20
173.4932860894392
 30
0.0
  0
VERTEX
  5
43E
330
43C
100
AcDbEntity
  8
BEMAßUNG
 62
     7
100
AcDbVertex
100
AcDb2dVertex
 10
-57.32208250520073
 20
171.9223225481653
 30
0.0
  0
SEQEND
  5
43F
330
43C
100
AcDbEntity
  8
BEMAßUNG
  0
POLYLINE
  5
440
330
1F
100
AcDbEntity
  8
BEMAßUNG
 62
     7
100
AcDb2dPolyline
 66
     1
 10
0.0
 20
0.0
 30
0.0
  0
VERTEX
  5
441
330
440
100
AcDbEntity
  8
BEMAßUNG
 62
     7
100
AcDbVertex
100
AcDb2dVertex
 10
-57.27040607292199
 20
173.4932860894392
 30
0.0
  0
VERTEX
  5
442
330
440
100
AcDbEntity
  8
BEMAßUNG
 62
     7
100
AcDbVertex
100
AcDb2dVertex
 10
-57.27040607292199
 20
171.5371608729143
 30
0.0
  0
SEQEND
  5
443
330
440
100
AcDbEntity
  8
BEMAßUNG
  0
POLYLINE
  5
444
330
1F
100
AcDbEntity
  8
BEMAßUNG
 62
     7
100
AcDb2dPolyline
 66
     1
 10
0.0
 20
0.0
 30
0.0
  0
VERTEX
  5
445
330
444
100
AcDbEntity
  8
BEMAßUNG
 62
     7
100
AcDbVertex
100
AcDb2dVertex
 10
-57.21976316928881
 20
173.4932860894392
 30
0.0
  0
VERTEX
  5
446
330
444
100
AcDbEntity
  8
BEMAßUNG
 62
     7
100
AcDbVertex
100
AcDb2dVertex
 10
-57.21976316928881
 20
171.1506211594693
 30
0.0
  0
SEQEND
  5
447
330
444
100
AcDbEntity
  8
BEMAßUNG
  0
POLYLINE
  5
448
330
1F
100
AcDbEntity
  8
BEMAßUNG
 62
     7
100
AcDb2dPolyline
 66
     1
 10
0.0
 20
0.0
 30
0.0
  0
VERTEX
  5
449
330
448
100
AcDbEntity
  8
BEMAßUNG
 62
     7
100
AcDbVertex
100
AcDb2dVertex
 10
-57.16912026565564
 20
173.4932860894392
 30
0.0
  0
VERTEX
  5
44A
330
448
100
AcDbEntity
  8
BEMAßUNG
 62
     7
100
AcDbVertex
100
AcDb2dVertex
 10
-57.16912026565564
 20
170.7647704651213
 30
0.0
  0
SEQEND
  5
44B
330
448
100
AcDbEntity
  8
BEMAßUNG
  0
POLYLINE
  5
44C
330
1F
100
AcDbEntity
  8
BEMAßUNG
 62
     7
100
AcDb2dPolyline
 66
     1
 10
0.0
 20
0.0
 30
0.0
  0
VERTEX
  5
44D
330
44C
100
AcDbEntity
  8
BEMAßUNG
 62
     7
100
AcDbVertex
100
AcDb2dVertex
 10
-57.11882187157099
 20
173.4932860894392
 30
0.0
  0
VERTEX
  5
44E
330
44C
100
AcDbEntity
  8
BEMAßUNG
 62
     7
100
AcDbVertex
100
AcDb2dVertex
 10
-57.11882187157099
 20
170.3789197707733
 30
0.0
  0
SEQEND
  5
44F
330
44C
100
AcDbEntity
  8
BEMAßUNG
  0
POLYLINE
  5
450
330
1F
100
AcDbEntity
  8
BEMAßUNG
 62
     7
100
AcDb2dPolyline
 66
     1
 10
0.0
 20
0.0
 30
0.0
  0
VERTEX
  5
451
330
450
100
AcDbEntity
  8
BEMAßUNG
 62
     7
100
AcDbVertex
100
AcDb2dVertex
 10
-57.06748994884077
 20
173.4932860894392
 30
0.0
  0
VERTEX
  5
452
330
450
100
AcDbEntity
  8
BEMAßUNG
 62
     7
100
AcDbVertex
100
AcDb2dVertex
 10
-57.06748994884077
 20
169.9937580955224
 30
0.0
  0
SEQEND
  5
453
330
450
100
AcDbEntity
  8
BEMAßUNG
  0
POLYLINE
  5
454
330
1F
100
AcDbEntity
  8
BEMAßUNG
 62
     7
100
AcDb2dPolyline
 66
     1
 10
0.0
 20
0.0
 30
0.0
  0
VERTEX
  5
455
330
454
100
AcDbEntity
  8
BEMAßUNG
 62
     7
100
AcDbVertex
100
AcDb2dVertex
 10
-2.350071885263177
 20
169.4931857215156
 30
0.0
  0
VERTEX
  5
456
330
454
100
AcDbEntity
  8
BEMAßUNG
 62
     7
100
AcDbVertex
100
AcDb2dVertex
 10
-2.350071885263177
 20
142.2431694522864
 30
0.0
  0
SEQEND
  5
457
330
454
100
AcDbEntity
  8
BEMAßUNG
  0
POLYLINE
  5
458
330
1F
100
AcDbEntity
  8
BEMAßUNG
 62
     7
100
AcDb2dPolyline
 66
     1
 10
0.0
 20
0.0
 30
0.0
  0
VERTEX
  5
459
330
458
100
AcDbEntity
  8
BEMAßUNG
 62
     7
100
AcDbVertex
100
AcDb2dVertex
 10
-47.34990911359655
 20
175.993391883085
 30
0.0
  0
VERTEX
  5
45A
330
458
100
AcDbEntity
  8
BEMAßUNG
 62
     7
100
AcDbVertex
100
AcDb2dVertex
 10
-47.34990911359655
 20
142.2431694522864
 30
0.0
  0
SEQEND
  5
45B
330
458
100
AcDbEntity
  8
BEMAßUNG
  0
POLYLINE
  5
45C
330
1F
100
AcDbEntity
  8
BEMAßUNG
 62
     7
100
AcDb2dPolyline
 66
     1
 10
0.0
 20
0.0
 30
0.0
  0
VERTEX
  5
45D
330
45C
100
AcDbEntity
  8
BEMAßUNG
 62
     7
100
AcDbVertex
100
AcDb2dVertex
 10
-2.350071885263177
 20
144.2433918910225
 30
0.0
  0
VERTEX
  5
45E
330
45C
100
AcDbEntity
  8
BEMAßUNG
 62
     7
100
AcDbVertex
100
AcDb2dVertex
 10
-47.34990911359655
 20
144.2433918910225
 30
0.0
  0
SEQEND
  5
45F
330
45C
100
AcDbEntity
  8
BEMAßUNG
  0
POLYLINE
  5
460
330
1F
100
AcDbEntity
  8
BEMAßUNG
 62
     7
100
AcDb2dPolyline
 66
     1
 10
0.0
 20
0.0
 30
0.0
  0
VERTEX
  5
461
330
460
100
AcDbEntity
  8
BEMAßUNG
 62
     7
100
AcDbVertex
100
AcDb2dVertex
 10
-2.350071885263177
 20
144.2433918910225
 30
0.0
  0
VERTEX
  5
462
330
460
100
AcDbEntity
  8
BEMAßUNG
 62
     7
100
AcDbVertex
100
AcDb2dVertex
 10
-5.849944388728487
 20
144.7043456669489
 30
0.0
  0
VERTEX
  5
463
330
460
100
AcDbEntity
  8
BEMAßUNG
 62
     7
100
AcDbVertex
100
AcDb2dVertex
 10
-5.849944388728487
 20
143.7820936055475
 30
0.0
  0
VERTEX
  5
464
330
460
100
AcDbEntity
  8
BEMAßUNG
 62
     7
100
AcDbVertex
100
AcDb2dVertex
 10
-2.350071885263177
 20
144.2433918910225
 30
0.0
  0
SEQEND
  5
465
330
460
100
AcDbEntity
  8
BEMAßUNG
  0
POLYLINE
  5
466
330
1F
100
AcDbEntity
  8
BEMAßUNG
 62
     7
100
AcDb2dPolyline
 66
     1
 10
0.0
 20
0.0
 30
0.0
  0
VERTEX
  5
467
330
466
100
AcDbEntity
  8
BEMAßUNG
 62
     7
100
AcDbVertex
100
AcDb2dVertex
 10
-5.849944388728487
 20
144.7005560619151
 30
0.0
  0
VERTEX
  5
468
330
466
100
AcDbEntity
  8
BEMAßUNG
 62
     7
100
AcDbVertex
100
AcDb2dVertex
 10
-5.822728134395013
 20
144.7005560619151
 30
0.0
  0
SEQEND
  5
469
330
466
100
AcDbEntity
  8
BEMAßUNG
  0
POLYLINE
  5
46A
330
1F
100
AcDbEntity
  8
BEMAßUNG
 62
     7
100
AcDb2dPolyline
 66
     1
 10
0.0
 20
0.0
 30
0.0
  0
VERTEX
  5
46B
330
46A
100
AcDbEntity
  8
BEMAßUNG
 62
     7
100
AcDbVertex
100
AcDb2dVertex
 10
-5.849944388728487
 20
144.7005560619151
 30
0.0
  0
VERTEX
  5
46C
330
46A
100
AcDbEntity
  8
BEMAßUNG
 62
     7
100
AcDbVertex
100
AcDb2dVertex
 10
-5.822728134395013
 20
144.7005560619151
 30
0.0
  0
SEQEND
  5
46D
330
46A
100
AcDbEntity
  8
BEMAßUNG
  0
POLYLINE
  5
46E
330
1F
100
AcDbEntity
  8
BEMAßUNG
 62
     7
100
AcDb2dPolyline
 66
     1
 10
0.0
 20
0.0
 30
0.0
  0
VERTEX
  5
46F
330
46E
100
AcDbEntity
  8
BEMAßUNG
 62
     7
100
AcDbVertex
100
AcDb2dVertex
 10
-5.849944388728487
 20
144.649913158282
 30
0.0
  0
VERTEX
  5
470
330
46E
100
AcDbEntity
  8
BEMAßUNG
 62
     7
100
AcDbVertex
100
AcDb2dVertex
 10
-5.436877440047031
 20
144.649913158282
 30
0.0
  0
SEQEND
  5
471
330
46E
100
AcDbEntity
  8
BEMAßUNG
  0
POLYLINE
  5
472
330
1F
100
AcDbEntity
  8
BEMAßUNG
 62
     7
100
AcDb2dPolyline
 66
     1
 10
0.0
 20
0.0
 30
0.0
  0
VERTEX
  5
473
330
472
100
AcDbEntity
  8
BEMAßUNG
 62
     7
100
AcDbVertex
100
AcDb2dVertex
 10
-5.849944388728487
 20
144.5989257451003
 30
0.0
  0
VERTEX
  5
474
330
472
100
AcDbEntity
  8
BEMAßUNG
 62
     7
100
AcDbVertex
100
AcDb2dVertex
 10
-5.051371255247574
 20
144.5989257451003
 30
0.0
  0
SEQEND
  5
475
330
472
100
AcDbEntity
  8
BEMAßUNG
  0
POLYLINE
  5
476
330
1F
100
AcDbEntity
  8
BEMAßUNG
 62
     7
100
AcDb2dPolyline
 66
     1
 10
0.0
 20
0.0
 30
0.0
  0
VERTEX
  5
477
330
476
100
AcDbEntity
  8
BEMAßUNG
 62
     7
100
AcDbVertex
100
AcDb2dVertex
 10
-5.849944388728487
 20
144.5482828414671
 30
0.0
  0
VERTEX
  5
478
330
476
100
AcDbEntity
  8
BEMAßUNG
 62
     7
100
AcDbVertex
100
AcDb2dVertex
 10
-4.665176051351067
 20
144.5482828414671
 30
0.0
  0
SEQEND
  5
479
330
476
100
AcDbEntity
  8
BEMAßUNG
  0
POLYLINE
  5
47A
330
1F
100
AcDbEntity
  8
BEMAßUNG
 62
     7
100
AcDb2dPolyline
 66
     1
 10
0.0
 20
0.0
 30
0.0
  0
VERTEX
  5
47B
330
47A
100
AcDbEntity
  8
BEMAßUNG
 62
     7
100
AcDbVertex
100
AcDb2dVertex
 10
-5.849944388728487
 20
144.4976399378339
 30
0.0
  0
VERTEX
  5
47C
330
47A
100
AcDbEntity
  8
BEMAßUNG
 62
     7
100
AcDbVertex
100
AcDb2dVertex
 10
-4.279325357003086
 20
144.4976399378339
 30
0.0
  0
SEQEND
  5
47D
330
47A
100
AcDbEntity
  8
BEMAßUNG
  0
POLYLINE
  5
47E
330
1F
100
AcDbEntity
  8
BEMAßUNG
 62
     7
100
AcDb2dPolyline
 66
     1
 10
0.0
 20
0.0
 30
0.0
  0
VERTEX
  5
47F
330
47E
100
AcDbEntity
  8
BEMAßUNG
 62
     7
100
AcDbVertex
100
AcDb2dVertex
 10
-5.849944388728487
 20
144.4469970342008
 30
0.0
  0
VERTEX
  5
480
330
47E
100
AcDbEntity
  8
BEMAßUNG
 62
     7
100
AcDbVertex
100
AcDb2dVertex
 10
-3.893474662655104
 20
144.4469970342008
 30
0.0
  0
SEQEND
  5
481
330
47E
100
AcDbEntity
  8
BEMAßUNG
  0
POLYLINE
  5
482
330
1F
100
AcDbEntity
  8
BEMAßUNG
 62
     7
100
AcDb2dPolyline
 66
     1
 10
0.0
 20
0.0
 30
0.0
  0
VERTEX
  5
483
330
482
100
AcDbEntity
  8
BEMAßUNG
 62
     7
100
AcDbVertex
100
AcDb2dVertex
 10
-5.849944388728487
 20
144.3960096210191
 30
0.0
  0
VERTEX
  5
484
330
482
100
AcDbEntity
  8
BEMAßUNG
 62
     7
100
AcDbVertex
100
AcDb2dVertex
 10
-3.507968477855647
 20
144.3960096210191
 30
0.0
  0
SEQEND
  5
485
330
482
100
AcDbEntity
  8
BEMAßUNG
  0
POLYLINE
  5
486
330
1F
100
AcDbEntity
  8
BEMAßUNG
 62
     7
100
AcDb2dPolyline
 66
     1
 10
0.0
 20
0.0
 30
0.0
  0
VERTEX
  5
487
330
486
100
AcDbEntity
  8
BEMAßUNG
 62
     7
100
AcDbVertex
100
AcDb2dVertex
 10
-5.849944388728487
 20
144.3453667173859
 30
0.0
  0
VERTEX
  5
488
330
486
100
AcDbEntity
  8
BEMAßUNG
 62
     7
100
AcDbVertex
100
AcDb2dVertex
 10
-3.12177327395914
 20
144.3453667173859
 30
0.0
  0
SEQEND
  5
489
330
486
100
AcDbEntity
  8
BEMAßUNG
  0
POLYLINE
  5
48A
330
1F
100
AcDbEntity
  8
BEMAßUNG
 62
     7
100
AcDb2dPolyline
 66
     1
 10
0.0
 20
0.0
 30
0.0
  0
VERTEX
  5
48B
330
48A
100
AcDbEntity
  8
BEMAßUNG
 62
     7
100
AcDbVertex
100
AcDb2dVertex
 10
-5.849944388728487
 20
144.2940347946557
 30
0.0
  0
VERTEX
  5
48C
330
48A
100
AcDbEntity
  8
BEMAßUNG
 62
     7
100
AcDbVertex
100
AcDb2dVertex
 10
-2.735922579611159
 20
144.2940347946557
 30
0.0
  0
SEQEND
  5
48D
330
48A
100
AcDbEntity
  8
BEMAßUNG
  0
POLYLINE
  5
48E
330
1F
100
AcDbEntity
  8
BEMAßUNG
 62
     7
100
AcDb2dPolyline
 66
     1
 10
0.0
 20
0.0
 30
0.0
  0
VERTEX
  5
48F
330
48E
100
AcDbEntity
  8
BEMAßUNG
 62
     7
100
AcDbVertex
100
AcDb2dVertex
 10
-5.849944388728487
 20
144.2433918910225
 30
0.0
  0
VERTEX
  5
490
330
48E
100
AcDbEntity
  8
BEMAßUNG
 62
     7
100
AcDbVertex
100
AcDb2dVertex
 10
-2.350071885263177
 20
144.2433918910225
 30
0.0
  0
SEQEND
  5
491
330
48E
100
AcDbEntity
  8
BEMAßUNG
  0
POLYLINE
  5
492
330
1F
100
AcDbEntity
  8
BEMAßUNG
 62
     7
100
AcDb2dPolyline
 66
     1
 10
0.0
 20
0.0
 30
0.0
  0
VERTEX
  5
493
330
492
100
AcDbEntity
  8
BEMAßUNG
 62
     7
100
AcDbVertex
100
AcDb2dVertex
 10
-5.849944388728487
 20
143.7858832105813
 30
0.0
  0
VERTEX
  5
494
330
492
100
AcDbEntity
  8
BEMAßUNG
 62
     7
100
AcDbVertex
100
AcDb2dVertex
 10
-5.822728134395013
 20
143.7858832105813
 30
0.0
  0
SEQEND
  5
495
330
492
100
AcDbEntity
  8
BEMAßUNG
  0
POLYLINE
  5
496
330
1F
100
AcDbEntity
  8
BEMAßUNG
 62
     7
100
AcDb2dPolyline
 66
     1
 10
0.0
 20
0.0
 30
0.0
  0
VERTEX
  5
497
330
496
100
AcDbEntity
  8
BEMAßUNG
 62
     7
100
AcDbVertex
100
AcDb2dVertex
 10
-5.849944388728487
 20
143.7858832105813
 30
0.0
  0
VERTEX
  5
498
330
496
100
AcDbEntity
  8
BEMAßUNG
 62
     7
100
AcDbVertex
100
AcDb2dVertex
 10
-5.822728134395013
 20
143.7858832105813
 30
0.0
  0
SEQEND
  5
499
330
496
100
AcDbEntity
  8
BEMAßUNG
  0
POLYLINE
  5
49A
330
1F
100
AcDbEntity
  8
BEMAßUNG
 62
     7
100
AcDb2dPolyline
 66
     1
 10
0.0
 20
0.0
 30
0.0
  0
VERTEX
  5
49B
330
49A
100
AcDbEntity
  8
BEMAßUNG
 62
     7
100
AcDbVertex
100
AcDb2dVertex
 10
-5.849944388728487
 20
143.8372151333115
 30
0.0
  0
VERTEX
  5
49C
330
49A
100
AcDbEntity
  8
BEMAßUNG
 62
     7
100
AcDbVertex
100
AcDb2dVertex
 10
-5.436877440047031
 20
143.8372151333115
 30
0.0
  0
SEQEND
  5
49D
330
49A
100
AcDbEntity
  8
BEMAßUNG
  0
POLYLINE
  5
49E
330
1F
100
AcDbEntity
  8
BEMAßUNG
 62
     7
100
AcDb2dPolyline
 66
     1
 10
0.0
 20
0.0
 30
0.0
  0
VERTEX
  5
49F
330
49E
100
AcDbEntity
  8
BEMAßUNG
 62
     7
100
AcDbVertex
100
AcDb2dVertex
 10
-5.849944388728487
 20
143.8882025464932
 30
0.0
  0
VERTEX
  5
4A0
330
49E
100
AcDbEntity
  8
BEMAßUNG
 62
     7
100
AcDbVertex
100
AcDb2dVertex
 10
-5.051371255247574
 20
143.8882025464932
 30
0.0
  0
SEQEND
  5
4A1
330
49E
100
AcDbEntity
  8
BEMAßUNG
  0
POLYLINE
  5
4A2
330
1F
100
AcDbEntity
  8
BEMAßUNG
 62
     7
100
AcDb2dPolyline
 66
     1
 10
0.0
 20
0.0
 30
0.0
  0
VERTEX
  5
4A3
330
4A2
100
AcDbEntity
  8
BEMAßUNG
 62
     7
100
AcDbVertex
100
AcDb2dVertex
 10
-5.849944388728487
 20
143.9388454501264
 30
0.0
  0
VERTEX
  5
4A4
330
4A2
100
AcDbEntity
  8
BEMAßUNG
 62
     7
100
AcDbVertex
100
AcDb2dVertex
 10
-4.665176051351067
 20
143.9388454501264
 30
0.0
  0
SEQEND
  5
4A5
330
4A2
100
AcDbEntity
  8
BEMAßUNG
  0
POLYLINE
  5
4A6
330
1F
100
AcDbEntity
  8
BEMAßUNG
 62
     7
100
AcDb2dPolyline
 66
     1
 10
0.0
 20
0.0
 30
0.0
  0
VERTEX
  5
4A7
330
4A6
100
AcDbEntity
  8
BEMAßUNG
 62
     7
100
AcDbVertex
100
AcDb2dVertex
 10
-5.849944388728487
 20
143.9894883537596
 30
0.0
  0
VERTEX
  5
4A8
330
4A6
100
AcDbEntity
  8
BEMAßUNG
 62
     7
100
AcDbVertex
100
AcDb2dVertex
 10
-4.279325357003086
 20
143.9894883537596
 30
0.0
  0
SEQEND
  5
4A9
330
4A6
100
AcDbEntity
  8
BEMAßUNG
  0
POLYLINE
  5
4AA
330
1F
100
AcDbEntity
  8
BEMAßUNG
 62
     7
100
AcDb2dPolyline
 66
     1
 10
0.0
 20
0.0
 30
0.0
  0
VERTEX
  5
4AB
330
4AA
100
AcDbEntity
  8
BEMAßUNG
 62
     7
100
AcDbVertex
100
AcDb2dVertex
 10
-5.849944388728487
 20
144.0404757669413
 30
0.0
  0
VERTEX
  5
4AC
330
4AA
100
AcDbEntity
  8
BEMAßUNG
 62
     7
100
AcDbVertex
100
AcDb2dVertex
 10
-3.893474662655104
 20
144.0404757669413
 30
0.0
  0
SEQEND
  5
4AD
330
4AA
100
AcDbEntity
  8
BEMAßUNG
  0
POLYLINE
  5
4AE
330
1F
100
AcDbEntity
  8
BEMAßUNG
 62
     7
100
AcDb2dPolyline
 66
     1
 10
0.0
 20
0.0
 30
0.0
  0
VERTEX
  5
4AF
330
4AE
100
AcDbEntity
  8
BEMAßUNG
 62
     7
100
AcDbVertex
100
AcDb2dVertex
 10
-5.849944388728487
 20
144.0911186705744
 30
0.0
  0
VERTEX
  5
4B0
330
4AE
100
AcDbEntity
  8
BEMAßUNG
 62
     7
100
AcDbVertex
100
AcDb2dVertex
 10
-3.507968477855647
 20
144.0911186705744
 30
0.0
  0
SEQEND
  5
4B1
330
4AE
100
AcDbEntity
  8
BEMAßUNG
  0
POLYLINE
  5
4B2
330
1F
100
AcDbEntity
  8
BEMAßUNG
 62
     7
100
AcDb2dPolyline
 66
     1
 10
0.0
 20
0.0
 30
0.0
  0
VERTEX
  5
4B3
330
4B2
100
AcDbEntity
  8
BEMAßUNG
 62
     7
100
AcDbVertex
100
AcDb2dVertex
 10
-5.849944388728487
 20
144.1417615742076
 30
0.0
  0
VERTEX
  5
4B4
330
4B2
100
AcDbEntity
  8
BEMAßUNG
 62
     7
100
AcDbVertex
100
AcDb2dVertex
 10
-3.12177327395914
 20
144.1417615742076
 30
0.0
  0
SEQEND
  5
4B5
330
4B2
100
AcDbEntity
  8
BEMAßUNG
  0
POLYLINE
  5
4B6
330
1F
100
AcDbEntity
  8
BEMAßUNG
 62
     7
100
AcDb2dPolyline
 66
     1
 10
0.0
 20
0.0
 30
0.0
  0
VERTEX
  5
4B7
330
4B6
100
AcDbEntity
  8
BEMAßUNG
 62
     7
100
AcDbVertex
100
AcDb2dVertex
 10
-5.849944388728487
 20
144.1924044778408
 30
0.0
  0
VERTEX
  5
4B8
330
4B6
100
AcDbEntity
  8
BEMAßUNG
 62
     7
100
AcDbVertex
100
AcDb2dVertex
 10
-2.735922579611159
 20
144.1924044778408
 30
0.0
  0
SEQEND
  5
4B9
330
4B6
100
AcDbEntity
  8
BEMAßUNG
  0
POLYLINE
  5
4BA
330
1F
100
AcDbEntity
  8
BEMAßUNG
 62
     7
100
AcDb2dPolyline
 66
     1
 10
0.0
 20
0.0
 30
0.0
  0
VERTEX
  5
4BB
330
4BA
100
AcDbEntity
  8
BEMAßUNG
 62
     7
100
AcDbVertex
100
AcDb2dVertex
 10
-5.849944388728487
 20
144.2433918910225
 30
0.0
  0
VERTEX
  5
4BC
330
4BA
100
AcDbEntity
  8
BEMAßUNG
 62
     7
100
AcDbVertex
100
AcDb2dVertex
 10
-2.350071885263177
 20
144.2433918910225
 30
0.0
  0
SEQEND
  5
4BD
330
4BA
100
AcDbEntity
  8
BEMAßUNG
  0
POLYLINE
  5
4BE
330
1F
100
AcDbEntity
  8
BEMAßUNG
 62
     7
100
AcDb2dPolyline
 66
     1
 10
0.0
 20
0.0
 30
0.0
  0
VERTEX
  5
4BF
330
4BE
100
AcDbEntity
  8
BEMAßUNG
 62
     7
100
AcDbVertex
100
AcDb2dVertex
 10
-47.34990911359655
 20
144.2433918910225
 30
0.0
  0
VERTEX
  5
4C0
330
4BE
100
AcDbEntity
  8
BEMAßUNG
 62
     7
100
AcDbVertex
100
AcDb2dVertex
 10
-43.85072562922829
 20
143.7820936055475
 30
0.0
  0
VERTEX
  5
4C1
330
4BE
100
AcDbEntity
  8
BEMAßUNG
 62
     7
100
AcDbVertex
100
AcDb2dVertex
 10
-43.85072562922829
 20
144.7043456669489
 30
0.0
  0
VERTEX
  5
4C2
330
4BE
100
AcDbEntity
  8
BEMAßUNG
 62
     7
100
AcDbVertex
100
AcDb2dVertex
 10
-47.34990911359655
 20
144.2433918910225
 30
0.0
  0
SEQEND
  5
4C3
330
4BE
100
AcDbEntity
  8
BEMAßUNG
  0
POLYLINE
  5
4C4
330
1F
100
AcDbEntity
  8
BEMAßUNG
 62
     7
100
AcDb2dPolyline
 66
     1
 10
0.0
 20
0.0
 30
0.0
  0
VERTEX
  5
4C5
330
4C4
100
AcDbEntity
  8
BEMAßUNG
 62
     7
100
AcDbVertex
100
AcDb2dVertex
 10
-43.85072562922829
 20
143.7858832105813
 30
0.0
  0
VERTEX
  5
4C6
330
4C4
100
AcDbEntity
  8
BEMAßUNG
 62
     7
100
AcDbVertex
100
AcDb2dVertex
 10
-43.87725286446472
 20
143.7858832105813
 30
0.0
  0
SEQEND
  5
4C7
330
4C4
100
AcDbEntity
  8
BEMAßUNG
  0
POLYLINE
  5
4C8
330
1F
100
AcDbEntity
  8
BEMAßUNG
 62
     7
100
AcDb2dPolyline
 66
     1
 10
0.0
 20
0.0
 30
0.0
  0
VERTEX
  5
4C9
330
4C8
100
AcDbEntity
  8
BEMAßUNG
 62
     7
100
AcDbVertex
100
AcDb2dVertex
 10
-43.85072562922829
 20
143.7858832105813
 30
0.0
  0
VERTEX
  5
4CA
330
4C8
100
AcDbEntity
  8
BEMAßUNG
 62
     7
100
AcDbVertex
100
AcDb2dVertex
 10
-43.87725286446472
 20
143.7858832105813
 30
0.0
  0
SEQEND
  5
4CB
330
4C8
100
AcDbEntity
  8
BEMAßUNG
  0
POLYLINE
  5
4CC
330
1F
100
AcDbEntity
  8
BEMAßUNG
 62
     7
100
AcDb2dPolyline
 66
     1
 10
0.0
 20
0.0
 30
0.0
  0
VERTEX
  5
4CD
330
4CC
100
AcDbEntity
  8
BEMAßUNG
 62
     7
100
AcDbVertex
100
AcDb2dVertex
 10
-43.85072562922829
 20
143.8372151333115
 30
0.0
  0
VERTEX
  5
4CE
330
4CC
100
AcDbEntity
  8
BEMAßUNG
 62
     7
100
AcDbVertex
100
AcDb2dVertex
 10
-44.26310355881269
 20
143.8372151333115
 30
0.0
  0
SEQEND
  5
4CF
330
4CC
100
AcDbEntity
  8
BEMAßUNG
  0
POLYLINE
  5
4D0
330
1F
100
AcDbEntity
  8
BEMAßUNG
 62
     7
100
AcDb2dPolyline
 66
     1
 10
0.0
 20
0.0
 30
0.0
  0
VERTEX
  5
4D1
330
4D0
100
AcDbEntity
  8
BEMAßUNG
 62
     7
100
AcDbVertex
100
AcDb2dVertex
 10
-43.85072562922829
 20
143.8882025464932
 30
0.0
  0
VERTEX
  5
4D2
330
4D0
100
AcDbEntity
  8
BEMAßUNG
 62
     7
100
AcDbVertex
100
AcDb2dVertex
 10
-44.64929876270921
 20
143.8882025464932
 30
0.0
  0
SEQEND
  5
4D3
330
4D0
100
AcDbEntity
  8
BEMAßUNG
  0
POLYLINE
  5
4D4
330
1F
100
AcDbEntity
  8
BEMAßUNG
 62
     7
100
AcDb2dPolyline
 66
     1
 10
0.0
 20
0.0
 30
0.0
  0
VERTEX
  5
4D5
330
4D4
100
AcDbEntity
  8
BEMAßUNG
 62
     7
100
AcDbVertex
100
AcDb2dVertex
 10
-43.85072562922829
 20
143.9388454501264
 30
0.0
  0
VERTEX
  5
4D6
330
4D4
100
AcDbEntity
  8
BEMAßUNG
 62
     7
100
AcDbVertex
100
AcDb2dVertex
 10
-45.03514945705719
 20
143.9388454501264
 30
0.0
  0
SEQEND
  5
4D7
330
4D4
100
AcDbEntity
  8
BEMAßUNG
  0
POLYLINE
  5
4D8
330
1F
100
AcDbEntity
  8
BEMAßUNG
 62
     7
100
AcDb2dPolyline
 66
     1
 10
0.0
 20
0.0
 30
0.0
  0
VERTEX
  5
4D9
330
4D8
100
AcDbEntity
  8
BEMAßUNG
 62
     7
100
AcDbVertex
100
AcDb2dVertex
 10
-43.85072562922829
 20
143.9894883537596
 30
0.0
  0
VERTEX
  5
4DA
330
4D8
100
AcDbEntity
  8
BEMAßUNG
 62
     7
100
AcDbVertex
100
AcDb2dVertex
 10
-45.42065564185664
 20
143.9894883537596
 30
0.0
  0
SEQEND
  5
4DB
330
4D8
100
AcDbEntity
  8
BEMAßUNG
  0
POLYLINE
  5
4DC
330
1F
100
AcDbEntity
  8
BEMAßUNG
 62
     7
100
AcDb2dPolyline
 66
     1
 10
0.0
 20
0.0
 30
0.0
  0
VERTEX
  5
4DD
330
4DC
100
AcDbEntity
  8
BEMAßUNG
 62
     7
100
AcDbVertex
100
AcDb2dVertex
 10
-43.85072562922829
 20
144.0404757669413
 30
0.0
  0
VERTEX
  5
4DE
330
4DC
100
AcDbEntity
  8
BEMAßUNG
 62
     7
100
AcDbVertex
100
AcDb2dVertex
 10
-45.80650633620463
 20
144.0404757669413
 30
0.0
  0
SEQEND
  5
4DF
330
4DC
100
AcDbEntity
  8
BEMAßUNG
  0
POLYLINE
  5
4E0
330
1F
100
AcDbEntity
  8
BEMAßUNG
 62
     7
100
AcDb2dPolyline
 66
     1
 10
0.0
 20
0.0
 30
0.0
  0
VERTEX
  5
4E1
330
4E0
100
AcDbEntity
  8
BEMAßUNG
 62
     7
100
AcDbVertex
100
AcDb2dVertex
 10
-43.85072562922829
 20
144.0911186705744
 30
0.0
  0
VERTEX
  5
4E2
330
4E0
100
AcDbEntity
  8
BEMAßUNG
 62
     7
100
AcDbVertex
100
AcDb2dVertex
 10
-46.19270154010113
 20
144.0911186705744
 30
0.0
  0
SEQEND
  5
4E3
330
4E0
100
AcDbEntity
  8
BEMAßUNG
  0
POLYLINE
  5
4E4
330
1F
100
AcDbEntity
  8
BEMAßUNG
 62
     7
100
AcDb2dPolyline
 66
     1
 10
0.0
 20
0.0
 30
0.0
  0
VERTEX
  5
4E5
330
4E4
100
AcDbEntity
  8
BEMAßUNG
 62
     7
100
AcDbVertex
100
AcDb2dVertex
 10
-43.85072562922829
 20
144.1417615742076
 30
0.0
  0
VERTEX
  5
4E6
330
4E4
100
AcDbEntity
  8
BEMAßUNG
 62
     7
100
AcDbVertex
100
AcDb2dVertex
 10
-46.57855223444911
 20
144.1417615742076
 30
0.0
  0
SEQEND
  5
4E7
330
4E4
100
AcDbEntity
  8
BEMAßUNG
  0
POLYLINE
  5
4E8
330
1F
100
AcDbEntity
  8
BEMAßUNG
 62
     7
100
AcDb2dPolyline
 66
     1
 10
0.0
 20
0.0
 30
0.0
  0
VERTEX
  5
4E9
330
4E8
100
AcDbEntity
  8
BEMAßUNG
 62
     7
100
AcDbVertex
100
AcDb2dVertex
 10
-43.85072562922829
 20
144.1924044778408
 30
0.0
  0
VERTEX
  5
4EA
330
4E8
100
AcDbEntity
  8
BEMAßUNG
 62
     7
100
AcDbVertex
100
AcDb2dVertex
 10
-46.96405841924857
 20
144.1924044778408
 30
0.0
  0
SEQEND
  5
4EB
330
4E8
100
AcDbEntity
  8
BEMAßUNG
  0
POLYLINE
  5
4EC
330
1F
100
AcDbEntity
  8
BEMAßUNG
 62
     7
100
AcDb2dPolyline
 66
     1
 10
0.0
 20
0.0
 30
0.0
  0
VERTEX
  5
4ED
330
4EC
100
AcDbEntity
  8
BEMAßUNG
 62
     7
100
AcDbVertex
100
AcDb2dVertex
 10
-43.85072562922829
 20
144.2433918910225
 30
0.0
  0
VERTEX
  5
4EE
330
4EC
100
AcDbEntity
  8
BEMAßUNG
 62
     7
100
AcDbVertex
100
AcDb2dVertex
 10
-47.34990911359655
 20
144.2433918910225
 30
0.0
  0
SEQEND
  5
4EF
330
4EC
100
AcDbEntity
  8
BEMAßUNG
  0
POLYLINE
  5
4F0
330
1F
100
AcDbEntity
  8
BEMAßUNG
 62
     7
100
AcDb2dPolyline
 66
     1
 10
0.0
 20
0.0
 30
0.0
  0
VERTEX
  5
4F1
330
4F0
100
AcDbEntity
  8
BEMAßUNG
 62
     7
100
AcDbVertex
100
AcDb2dVertex
 10
-43.85072562922829
 20
144.7005560619151
 30
0.0
  0
VERTEX
  5
4F2
330
4F0
100
AcDbEntity
  8
BEMAßUNG
 62
     7
100
AcDbVertex
100
AcDb2dVertex
 10
-43.87725286446472
 20
144.7005560619151
 30
0.0
  0
SEQEND
  5
4F3
330
4F0
100
AcDbEntity
  8
BEMAßUNG
  0
POLYLINE
  5
4F4
330
1F
100
AcDbEntity
  8
BEMAßUNG
 62
     7
100
AcDb2dPolyline
 66
     1
 10
0.0
 20
0.0
 30
0.0
  0
VERTEX
  5
4F5
330
4F4
100
AcDbEntity
  8
BEMAßUNG
 62
     7
100
AcDbVertex
100
AcDb2dVertex
 10
-43.85072562922829
 20
144.7005560619151
 30
0.0
  0
VERTEX
  5
4F6
330
4F4
100
AcDbEntity
  8
BEMAßUNG
 62
     7
100
AcDbVertex
100
AcDb2dVertex
 10
-43.87725286446472
 20
144.7005560619151
 30
0.0
  0
SEQEND
  5
4F7
330
4F4
100
AcDbEntity
  8
BEMAßUNG
  0
POLYLINE
  5
4F8
330
1F
100
AcDbEntity
  8
BEMAßUNG
 62
     7
100
AcDb2dPolyline
 66
     1
 10
0.0
 20
0.0
 30
0.0
  0
VERTEX
  5
4F9
330
4F8
100
AcDbEntity
  8
BEMAßUNG
 62
     7
100
AcDbVertex
100
AcDb2dVertex
 10
-43.85072562922829
 20
144.649913158282
 30
0.0
  0
VERTEX
  5
4FA
330
4F8
100
AcDbEntity
  8
BEMAßUNG
 62
     7
100
AcDbVertex
100
AcDb2dVertex
 10
-44.26310355881269
 20
144.649913158282
 30
0.0
  0
SEQEND
  5
4FB
330
4F8
100
AcDbEntity
  8
BEMAßUNG
  0
POLYLINE
  5
4FC
330
1F
100
AcDbEntity
  8
BEMAßUNG
 62
     7
100
AcDb2dPolyline
 66
     1
 10
0.0
 20
0.0
 30
0.0
  0
VERTEX
  5
4FD
330
4FC
100
AcDbEntity
  8
BEMAßUNG
 62
     7
100
AcDbVertex
100
AcDb2dVertex
 10
-43.85072562922829
 20
144.5989257451003
 30
0.0
  0
VERTEX
  5
4FE
330
4FC
100
AcDbEntity
  8
BEMAßUNG
 62
     7
100
AcDbVertex
100
AcDb2dVertex
 10
-44.64929876270921
 20
144.5989257451003
 30
0.0
  0
SEQEND
  5
4FF
330
4FC
100
AcDbEntity
  8
BEMAßUNG
  0
POLYLINE
  5
500
330
1F
100
AcDbEntity
  8
BEMAßUNG
 62
     7
100
AcDb2dPolyline
 66
     1
 10
0.0
 20
0.0
 30
0.0
  0
VERTEX
  5
501
330
500
100
AcDbEntity
  8
BEMAßUNG
 62
     7
100
AcDbVertex
100
AcDb2dVertex
 10
-43.85072562922829
 20
144.5482828414671
 30
0.0
  0
VERTEX
  5
502
330
500
100
AcDbEntity
  8
BEMAßUNG
 62
     7
100
AcDbVertex
100
AcDb2dVertex
 10
-45.03514945705719
 20
144.5482828414671
 30
0.0
  0
SEQEND
  5
503
330
500
100
AcDbEntity
  8
BEMAßUNG
  0
POLYLINE
  5
504
330
1F
100
AcDbEntity
  8
BEMAßUNG
 62
     7
100
AcDb2dPolyline
 66
     1
 10
0.0
 20
0.0
 30
0.0
  0
VERTEX
  5
505
330
504
100
AcDbEntity
  8
BEMAßUNG
 62
     7
100
AcDbVertex
100
AcDb2dVertex
 10
-43.85072562922829
 20
144.4976399378339
 30
0.0
  0
VERTEX
  5
506
330
504
100
AcDbEntity
  8
BEMAßUNG
 62
     7
100
AcDbVertex
100
AcDb2dVertex
 10
-45.42065564185664
 20
144.4976399378339
 30
0.0
  0
SEQEND
  5
507
330
504
100
AcDbEntity
  8
BEMAßUNG
  0
POLYLINE
  5
508
330
1F
100
AcDbEntity
  8
BEMAßUNG
 62
     7
100
AcDb2dPolyline
 66
     1
 10
0.0
 20
0.0
 30
0.0
  0
VERTEX
  5
509
330
508
100
AcDbEntity
  8
BEMAßUNG
 62
     7
100
AcDbVertex
100
AcDb2dVertex
 10
-43.85072562922829
 20
144.4469970342008
 30
0.0
  0
VERTEX
  5
50A
330
508
100
AcDbEntity
  8
BEMAßUNG
 62
     7
100
AcDbVertex
100
AcDb2dVertex
 10
-45.80650633620463
 20
144.4469970342008
 30
0.0
  0
SEQEND
  5
50B
330
508
100
AcDbEntity
  8
BEMAßUNG
  0
POLYLINE
  5
50C
330
1F
100
AcDbEntity
  8
BEMAßUNG
 62
     7
100
AcDb2dPolyline
 66
     1
 10
0.0
 20
0.0
 30
0.0
  0
VERTEX
  5
50D
330
50C
100
AcDbEntity
  8
BEMAßUNG
 62
     7
100
AcDbVertex
100
AcDb2dVertex
 10
-43.85072562922829
 20
144.3960096210191
 30
0.0
  0
VERTEX
  5
50E
330
50C
100
AcDbEntity
  8
BEMAßUNG
 62
     7
100
AcDbVertex
100
AcDb2dVertex
 10
-46.19270154010113
 20
144.3960096210191
 30
0.0
  0
SEQEND
  5
50F
330
50C
100
AcDbEntity
  8
BEMAßUNG
  0
POLYLINE
  5
510
330
1F
100
AcDbEntity
  8
BEMAßUNG
 62
     7
100
AcDb2dPolyline
 66
     1
 10
0.0
 20
0.0
 30
0.0
  0
VERTEX
  5
511
330
510
100
AcDbEntity
  8
BEMAßUNG
 62
     7
100
AcDbVertex
100
AcDb2dVertex
 10
-43.85072562922829
 20
144.3453667173859
 30
0.0
  0
VERTEX
  5
512
330
510
100
AcDbEntity
  8
BEMAßUNG
 62
     7
100
AcDbVertex
100
AcDb2dVertex
 10
-46.57855223444911
 20
144.3453667173859
 30
0.0
  0
SEQEND
  5
513
330
510
100
AcDbEntity
  8
BEMAßUNG
  0
POLYLINE
  5
514
330
1F
100
AcDbEntity
  8
BEMAßUNG
 62
     7
100
AcDb2dPolyline
 66
     1
 10
0.0
 20
0.0
 30
0.0
  0
VERTEX
  5
515
330
514
100
AcDbEntity
  8
BEMAßUNG
 62
     7
100
AcDbVertex
100
AcDb2dVertex
 10
-43.85072562922829
 20
144.2940347946557
 30
0.0
  0
VERTEX
  5
516
330
514
100
AcDbEntity
  8
BEMAßUNG
 62
     7
100
AcDbVertex
100
AcDb2dVertex
 10
-46.96405841924857
 20
144.2940347946557
 30
0.0
  0
SEQEND
  5
517
330
514
100
AcDbEntity
  8
BEMAßUNG
  0
POLYLINE
  5
518
330
1F
100
AcDbEntity
  8
BEMAßUNG
 62
     7
100
AcDb2dPolyline
 66
     1
 10
0.0
 20
0.0
 30
0.0
  0
VERTEX
  5
519
330
518
100
AcDbEntity
  8
BEMAßUNG
 62
     7
100
AcDbVertex
100
AcDb2dVertex
 10
-43.85072562922829
 20
144.2433918910225
 30
0.0
  0
VERTEX
  5
51A
330
518
100
AcDbEntity
  8
BEMAßUNG
 62
     7
100
AcDbVertex
100
AcDb2dVertex
 10
-47.34990911359655
 20
144.2433918910225
 30
0.0
  0
SEQEND
  5
51B
330
518
100
AcDbEntity
  8
BEMAßUNG
  0
POLYLINE
  5
51C
330
1F
100
AcDbEntity
  8
BEMAßUNG
 62
     7
100
AcDb2dPolyline
 66
     1
 10
0.0
 20
0.0
 30
0.0
  0
VERTEX
  5
51D
330
51C
100
AcDbEntity
  8
BEMAßUNG
 62
     7
100
AcDbVertex
100
AcDb2dVertex
 10
-47.34990911359655
 20
185.5931504527337
 30
0.0
  0
VERTEX
  5
51E
330
51C
100
AcDbEntity
  8
BEMAßUNG
 62
     7
100
AcDbVertex
100
AcDb2dVertex
 10
-47.34990911359655
 20
209.743269804335
 30
0.0
  0
SEQEND
  5
51F
330
51C
100
AcDbEntity
  8
BEMAßUNG
  0
POLYLINE
  5
520
330
1F
100
AcDbEntity
  8
BEMAßUNG
 62
     7
100
AcDb2dPolyline
 66
     1
 10
0.0
 20
0.0
 30
0.0
  0
VERTEX
  5
521
330
520
100
AcDbEntity
  8
BEMAßUNG
 62
     7
100
AcDbVertex
100
AcDb2dVertex
 10
-5.35040554336726
 20
191.9931043356823
 30
0.0
  0
VERTEX
  5
522
330
520
100
AcDbEntity
  8
BEMAßUNG
 62
     7
100
AcDbVertex
100
AcDb2dVertex
 10
-5.35040554336726
 20
209.743269804335
 30
0.0
  0
SEQEND
  5
523
330
520
100
AcDbEntity
  8
BEMAßUNG
  0
POLYLINE
  5
524
330
1F
100
AcDbEntity
  8
BEMAßUNG
 62
     7
100
AcDb2dPolyline
 66
     1
 10
0.0
 20
0.0
 30
0.0
  0
VERTEX
  5
525
330
524
100
AcDbEntity
  8
BEMAßUNG
 62
     7
100
AcDbVertex
100
AcDb2dVertex
 10
-47.34990911359655
 20
207.7433918751475
 30
0.0
  0
VERTEX
  5
526
330
524
100
AcDbEntity
  8
BEMAßUNG
 62
     7
100
AcDbVertex
100
AcDb2dVertex
 10
-5.35040554336726
 20
207.7433918751475
 30
0.0
  0
SEQEND
  5
527
330
524
100
AcDbEntity
  8
BEMAßUNG
  0
POLYLINE
  5
528
330
1F
100
AcDbEntity
  8
BEMAßUNG
 62
     7
100
AcDb2dPolyline
 66
     1
 10
0.0
 20
0.0
 30
0.0
  0
VERTEX
  5
529
330
528
100
AcDbEntity
  8
BEMAßUNG
 62
     7
100
AcDbVertex
100
AcDb2dVertex
 10
-47.34990911359655
 20
207.7433918751475
 30
0.0
  0
VERTEX
  5
52A
330
528
100
AcDbEntity
  8
BEMAßUNG
 62
     7
100
AcDbVertex
100
AcDb2dVertex
 10
-43.85072562922829
 20
207.2827826087696
 30
0.0
  0
VERTEX
  5
52B
330
528
100
AcDbEntity
  8
BEMAßUNG
 62
     7
100
AcDbVertex
100
AcDb2dVertex
 10
-43.85072562922829
 20
208.2040011415254
 30
0.0
  0
VERTEX
  5
52C
330
528
100
AcDbEntity
  8
BEMAßUNG
 62
     7
100
AcDbVertex
100
AcDb2dVertex
 10
-47.34990911359655
 20
207.7433918751475
 30
0.0
  0
SEQEND
  5
52D
330
528
100
AcDbEntity
  8
BEMAßUNG
  0
POLYLINE
  5
52E
330
1F
100
AcDbEntity
  8
BEMAßUNG
 62
     7
100
AcDb2dPolyline
 66
     1
 10
0.0
 20
0.0
 30
0.0
  0
VERTEX
  5
52F
330
52E
100
AcDbEntity
  8
BEMAßUNG
 62
     7
100
AcDbVertex
100
AcDb2dVertex
 10
-43.85072562922829
 20
207.2858831947063
 30
0.0
  0
VERTEX
  5
530
330
52E
100
AcDbEntity
  8
BEMAßUNG
 62
     7
100
AcDbVertex
100
AcDb2dVertex
 10
-43.87725286446472
 20
207.2858831947063
 30
0.0
  0
SEQEND
  5
531
330
52E
100
AcDbEntity
  8
BEMAßUNG
  0
POLYLINE
  5
532
330
1F
100
AcDbEntity
  8
BEMAßUNG
 62
     7
100
AcDb2dPolyline
 66
     1
 10
0.0
 20
0.0
 30
0.0
  0
VERTEX
  5
533
330
532
100
AcDbEntity
  8
BEMAßUNG
 62
     7
100
AcDbVertex
100
AcDb2dVertex
 10
-43.85072562922829
 20
207.2858831947063
 30
0.0
  0
VERTEX
  5
534
330
532
100
AcDbEntity
  8
BEMAßUNG
 62
     7
100
AcDbVertex
100
AcDb2dVertex
 10
-43.87725286446472
 20
207.2858831947063
 30
0.0
  0
SEQEND
  5
535
330
532
100
AcDbEntity
  8
BEMAßUNG
  0
POLYLINE
  5
536
330
1F
100
AcDbEntity
  8
BEMAßUNG
 62
     7
100
AcDb2dPolyline
 66
     1
 10
0.0
 20
0.0
 30
0.0
  0
VERTEX
  5
537
330
536
100
AcDbEntity
  8
BEMAßUNG
 62
     7
100
AcDbVertex
100
AcDb2dVertex
 10
-43.85072562922829
 20
207.336870607888
 30
0.0
  0
VERTEX
  5
538
330
536
100
AcDbEntity
  8
BEMAßUNG
 62
     7
100
AcDbVertex
100
AcDb2dVertex
 10
-44.26310355881269
 20
207.336870607888
 30
0.0
  0
SEQEND
  5
539
330
536
100
AcDbEntity
  8
BEMAßUNG
  0
POLYLINE
  5
53A
330
1F
100
AcDbEntity
  8
BEMAßUNG
 62
     7
100
AcDb2dPolyline
 66
     1
 10
0.0
 20
0.0
 30
0.0
  0
VERTEX
  5
53B
330
53A
100
AcDbEntity
  8
BEMAßUNG
 62
     7
100
AcDbVertex
100
AcDb2dVertex
 10
-43.85072562922829
 20
207.3882025306182
 30
0.0
  0
VERTEX
  5
53C
330
53A
100
AcDbEntity
  8
BEMAßUNG
 62
     7
100
AcDbVertex
100
AcDb2dVertex
 10
-44.64929876270921
 20
207.3882025306182
 30
0.0
  0
SEQEND
  5
53D
330
53A
100
AcDbEntity
  8
BEMAßUNG
  0
POLYLINE
  5
53E
330
1F
100
AcDbEntity
  8
BEMAßUNG
 62
     7
100
AcDb2dPolyline
 66
     1
 10
0.0
 20
0.0
 30
0.0
  0
VERTEX
  5
53F
330
53E
100
AcDbEntity
  8
BEMAßUNG
 62
     7
100
AcDbVertex
100
AcDb2dVertex
 10
-43.85072562922829
 20
207.4388454342514
 30
0.0
  0
VERTEX
  5
540
330
53E
100
AcDbEntity
  8
BEMAßUNG
 62
     7
100
AcDbVertex
100
AcDb2dVertex
 10
-45.03514945705719
 20
207.4388454342514
 30
0.0
  0
SEQEND
  5
541
330
53E
100
AcDbEntity
  8
BEMAßUNG
  0
POLYLINE
  5
542
330
1F
100
AcDbEntity
  8
BEMAßUNG
 62
     7
100
AcDb2dPolyline
 66
     1
 10
0.0
 20
0.0
 30
0.0
  0
VERTEX
  5
543
330
542
100
AcDbEntity
  8
BEMAßUNG
 62
     7
100
AcDbVertex
100
AcDb2dVertex
 10
-43.85072562922829
 20
207.4894883378846
 30
0.0
  0
VERTEX
  5
544
330
542
100
AcDbEntity
  8
BEMAßUNG
 62
     7
100
AcDbVertex
100
AcDb2dVertex
 10
-45.42065564185664
 20
207.4894883378846
 30
0.0
  0
SEQEND
  5
545
330
542
100
AcDbEntity
  8
BEMAßUNG
  0
POLYLINE
  5
546
330
1F
100
AcDbEntity
  8
BEMAßUNG
 62
     7
100
AcDb2dPolyline
 66
     1
 10
0.0
 20
0.0
 30
0.0
  0
VERTEX
  5
547
330
546
100
AcDbEntity
  8
BEMAßUNG
 62
     7
100
AcDbVertex
100
AcDb2dVertex
 10
-43.85072562922829
 20
207.5401312415177
 30
0.0
  0
VERTEX
  5
548
330
546
100
AcDbEntity
  8
BEMAßUNG
 62
     7
100
AcDbVertex
100
AcDb2dVertex
 10
-45.80650633620463
 20
207.5401312415177
 30
0.0
  0
SEQEND
  5
549
330
546
100
AcDbEntity
  8
BEMAßUNG
  0
POLYLINE
  5
54A
330
1F
100
AcDbEntity
  8
BEMAßUNG
 62
     7
100
AcDb2dPolyline
 66
     1
 10
0.0
 20
0.0
 30
0.0
  0
VERTEX
  5
54B
330
54A
100
AcDbEntity
  8
BEMAßUNG
 62
     7
100
AcDbVertex
100
AcDb2dVertex
 10
-43.85072562922829
 20
207.5911186546994
 30
0.0
  0
VERTEX
  5
54C
330
54A
100
AcDbEntity
  8
BEMAßUNG
 62
     7
100
AcDbVertex
100
AcDb2dVertex
 10
-46.19270154010113
 20
207.5911186546994
 30
0.0
  0
SEQEND
  5
54D
330
54A
100
AcDbEntity
  8
BEMAßUNG
  0
POLYLINE
  5
54E
330
1F
100
AcDbEntity
  8
BEMAßUNG
 62
     7
100
AcDb2dPolyline
 66
     1
 10
0.0
 20
0.0
 30
0.0
  0
VERTEX
  5
54F
330
54E
100
AcDbEntity
  8
BEMAßUNG
 62
     7
100
AcDbVertex
100
AcDb2dVertex
 10
-43.85072562922829
 20
207.6417615583326
 30
0.0
  0
VERTEX
  5
550
330
54E
100
AcDbEntity
  8
BEMAßUNG
 62
     7
100
AcDbVertex
100
AcDb2dVertex
 10
-46.57855223444911
 20
207.6417615583326
 30
0.0
  0
SEQEND
  5
551
330
54E
100
AcDbEntity
  8
BEMAßUNG
  0
POLYLINE
  5
552
330
1F
100
AcDbEntity
  8
BEMAßUNG
 62
     7
100
AcDb2dPolyline
 66
     1
 10
0.0
 20
0.0
 30
0.0
  0
VERTEX
  5
553
330
552
100
AcDbEntity
  8
BEMAßUNG
 62
     7
100
AcDbVertex
100
AcDb2dVertex
 10
-43.85072562922829
 20
207.6927489715143
 30
0.0
  0
VERTEX
  5
554
330
552
100
AcDbEntity
  8
BEMAßUNG
 62
     7
100
AcDbVertex
100
AcDb2dVertex
 10
-46.96405841924857
 20
207.6927489715143
 30
0.0
  0
SEQEND
  5
555
330
552
100
AcDbEntity
  8
BEMAßUNG
  0
POLYLINE
  5
556
330
1F
100
AcDbEntity
  8
BEMAßUNG
 62
     7
100
AcDb2dPolyline
 66
     1
 10
0.0
 20
0.0
 30
0.0
  0
VERTEX
  5
557
330
556
100
AcDbEntity
  8
BEMAßUNG
 62
     7
100
AcDbVertex
100
AcDb2dVertex
 10
-43.85072562922829
 20
207.7433918751475
 30
0.0
  0
VERTEX
  5
558
330
556
100
AcDbEntity
  8
BEMAßUNG
 62
     7
100
AcDbVertex
100
AcDb2dVertex
 10
-47.34990911359655
 20
207.7433918751475
 30
0.0
  0
SEQEND
  5
559
330
556
100
AcDbEntity
  8
BEMAßUNG
  0
POLYLINE
  5
55A
330
1F
100
AcDbEntity
  8
BEMAßUNG
 62
     7
100
AcDb2dPolyline
 66
     1
 10
0.0
 20
0.0
 30
0.0
  0
VERTEX
  5
55B
330
55A
100
AcDbEntity
  8
BEMAßUNG
 62
     7
100
AcDbVertex
100
AcDb2dVertex
 10
-43.85072562922829
 20
208.2005560460401
 30
0.0
  0
VERTEX
  5
55C
330
55A
100
AcDbEntity
  8
BEMAßUNG
 62
     7
100
AcDbVertex
100
AcDb2dVertex
 10
-43.87725286446472
 20
208.2005560460401
 30
0.0
  0
SEQEND
  5
55D
330
55A
100
AcDbEntity
  8
BEMAßUNG
  0
POLYLINE
  5
55E
330
1F
100
AcDbEntity
  8
BEMAßUNG
 62
     7
100
AcDb2dPolyline
 66
     1
 10
0.0
 20
0.0
 30
0.0
  0
VERTEX
  5
55F
330
55E
100
AcDbEntity
  8
BEMAßUNG
 62
     7
100
AcDbVertex
100
AcDb2dVertex
 10
-43.85072562922829
 20
208.2005560460401
 30
0.0
  0
VERTEX
  5
560
330
55E
100
AcDbEntity
  8
BEMAßUNG
 62
     7
100
AcDbVertex
100
AcDb2dVertex
 10
-43.87725286446472
 20
208.2005560460401
 30
0.0
  0
SEQEND
  5
561
330
55E
100
AcDbEntity
  8
BEMAßUNG
  0
POLYLINE
  5
562
330
1F
100
AcDbEntity
  8
BEMAßUNG
 62
     7
100
AcDb2dPolyline
 66
     1
 10
0.0
 20
0.0
 30
0.0
  0
VERTEX
  5
563
330
562
100
AcDbEntity
  8
BEMAßUNG
 62
     7
100
AcDbVertex
100
AcDb2dVertex
 10
-43.85072562922829
 20
208.1495686328585
 30
0.0
  0
VERTEX
  5
564
330
562
100
AcDbEntity
  8
BEMAßUNG
 62
     7
100
AcDbVertex
100
AcDb2dVertex
 10
-44.26310355881269
 20
208.1495686328585
 30
0.0
  0
SEQEND
  5
565
330
562
100
AcDbEntity
  8
BEMAßUNG
  0
POLYLINE
  5
566
330
1F
100
AcDbEntity
  8
BEMAßUNG
 62
     7
100
AcDb2dPolyline
 66
     1
 10
0.0
 20
0.0
 30
0.0
  0
VERTEX
  5
567
330
566
100
AcDbEntity
  8
BEMAßUNG
 62
     7
100
AcDbVertex
100
AcDb2dVertex
 10
-43.85072562922829
 20
208.0989257292253
 30
0.0
  0
VERTEX
  5
568
330
566
100
AcDbEntity
  8
BEMAßUNG
 62
     7
100
AcDbVertex
100
AcDb2dVertex
 10
-44.64929876270921
 20
208.0989257292253
 30
0.0
  0
SEQEND
  5
569
330
566
100
AcDbEntity
  8
BEMAßUNG
  0
POLYLINE
  5
56A
330
1F
100
AcDbEntity
  8
BEMAßUNG
 62
     7
100
AcDb2dPolyline
 66
     1
 10
0.0
 20
0.0
 30
0.0
  0
VERTEX
  5
56B
330
56A
100
AcDbEntity
  8
BEMAßUNG
 62
     7
100
AcDbVertex
100
AcDb2dVertex
 10
-43.85072562922829
 20
208.0482828255921
 30
0.0
  0
VERTEX
  5
56C
330
56A
100
AcDbEntity
  8
BEMAßUNG
 62
     7
100
AcDbVertex
100
AcDb2dVertex
 10
-45.03514945705719
 20
208.0482828255921
 30
0.0
  0
SEQEND
  5
56D
330
56A
100
AcDbEntity
  8
BEMAßUNG
  0
POLYLINE
  5
56E
330
1F
100
AcDbEntity
  8
BEMAßUNG
 62
     7
100
AcDb2dPolyline
 66
     1
 10
0.0
 20
0.0
 30
0.0
  0
VERTEX
  5
56F
330
56E
100
AcDbEntity
  8
BEMAßUNG
 62
     7
100
AcDbVertex
100
AcDb2dVertex
 10
-43.85072562922829
 20
207.9972954124104
 30
0.0
  0
VERTEX
  5
570
330
56E
100
AcDbEntity
  8
BEMAßUNG
 62
     7
100
AcDbVertex
100
AcDb2dVertex
 10
-45.42065564185664
 20
207.9972954124104
 30
0.0
  0
SEQEND
  5
571
330
56E
100
AcDbEntity
  8
BEMAßUNG
  0
POLYLINE
  5
572
330
1F
100
AcDbEntity
  8
BEMAßUNG
 62
     7
100
AcDb2dPolyline
 66
     1
 10
0.0
 20
0.0
 30
0.0
  0
VERTEX
  5
573
330
572
100
AcDbEntity
  8
BEMAßUNG
 62
     7
100
AcDbVertex
100
AcDb2dVertex
 10
-43.85072562922829
 20
207.9463079992287
 30
0.0
  0
VERTEX
  5
574
330
572
100
AcDbEntity
  8
BEMAßUNG
 62
     7
100
AcDbVertex
100
AcDb2dVertex
 10
-45.80650633620463
 20
207.9463079992287
 30
0.0
  0
SEQEND
  5
575
330
572
100
AcDbEntity
  8
BEMAßUNG
  0
POLYLINE
  5
576
330
1F
100
AcDbEntity
  8
BEMAßUNG
 62
     7
100
AcDb2dPolyline
 66
     1
 10
0.0
 20
0.0
 30
0.0
  0
VERTEX
  5
577
330
576
100
AcDbEntity
  8
BEMAßUNG
 62
     7
100
AcDbVertex
100
AcDb2dVertex
 10
-43.85072562922829
 20
207.895320586047
 30
0.0
  0
VERTEX
  5
578
330
576
100
AcDbEntity
  8
BEMAßUNG
 62
     7
100
AcDbVertex
100
AcDb2dVertex
 10
-46.19270154010113
 20
207.895320586047
 30
0.0
  0
SEQEND
  5
579
330
576
100
AcDbEntity
  8
BEMAßUNG
  0
POLYLINE
  5
57A
330
1F
100
AcDbEntity
  8
BEMAßUNG
 62
     7
100
AcDb2dPolyline
 66
     1
 10
0.0
 20
0.0
 30
0.0
  0
VERTEX
  5
57B
330
57A
100
AcDbEntity
  8
BEMAßUNG
 62
     7
100
AcDbVertex
100
AcDb2dVertex
 10
-43.85072562922829
 20
207.8446776824138
 30
0.0
  0
VERTEX
  5
57C
330
57A
100
AcDbEntity
  8
BEMAßUNG
 62
     7
100
AcDbVertex
100
AcDb2dVertex
 10
-46.57855223444911
 20
207.8446776824138
 30
0.0
  0
SEQEND
  5
57D
330
57A
100
AcDbEntity
  8
BEMAßUNG
  0
POLYLINE
  5
57E
330
1F
100
AcDbEntity
  8
BEMAßUNG
 62
     7
100
AcDb2dPolyline
 66
     1
 10
0.0
 20
0.0
 30
0.0
  0
VERTEX
  5
57F
330
57E
100
AcDbEntity
  8
BEMAßUNG
 62
     7
100
AcDbVertex
100
AcDb2dVertex
 10
-43.85072562922829
 20
207.7947237978777
 30
0.0
  0
VERTEX
  5
580
330
57E
100
AcDbEntity
  8
BEMAßUNG
 62
     7
100
AcDbVertex
100
AcDb2dVertex
 10
-46.96405841924857
 20
207.7947237978777
 30
0.0
  0
SEQEND
  5
581
330
57E
100
AcDbEntity
  8
BEMAßUNG
  0
POLYLINE
  5
582
330
1F
100
AcDbEntity
  8
BEMAßUNG
 62
     7
100
AcDb2dPolyline
 66
     1
 10
0.0
 20
0.0
 30
0.0
  0
VERTEX
  5
583
330
582
100
AcDbEntity
  8
BEMAßUNG
 62
     7
100
AcDbVertex
100
AcDb2dVertex
 10
-43.85072562922829
 20
207.7433918751475
 30
0.0
  0
VERTEX
  5
584
330
582
100
AcDbEntity
  8
BEMAßUNG
 62
     7
100
AcDbVertex
100
AcDb2dVertex
 10
-47.34990911359655
 20
207.7433918751475
 30
0.0
  0
SEQEND
  5
585
330
582
100
AcDbEntity
  8
BEMAßUNG
  0
POLYLINE
  5
586
330
1F
100
AcDbEntity
  8
BEMAßUNG
 62
     7
100
AcDb2dPolyline
 66
     1
 10
0.0
 20
0.0
 30
0.0
  0
VERTEX
  5
587
330
586
100
AcDbEntity
  8
BEMAßUNG
 62
     7
100
AcDbVertex
100
AcDb2dVertex
 10
-5.35040554336726
 20
207.7433918751475
 30
0.0
  0
VERTEX
  5
588
330
586
100
AcDbEntity
  8
BEMAßUNG
 62
     7
100
AcDbVertex
100
AcDb2dVertex
 10
-8.850622556381095
 20
208.2040011415254
 30
0.0
  0
VERTEX
  5
589
330
586
100
AcDbEntity
  8
BEMAßUNG
 62
     7
100
AcDbVertex
100
AcDb2dVertex
 10
-8.850622556381095
 20
207.2827826087696
 30
0.0
  0
VERTEX
  5
58A
330
586
100
AcDbEntity
  8
BEMAßUNG
 62
     7
100
AcDbVertex
100
AcDb2dVertex
 10
-5.35040554336726
 20
207.7433918751475
 30
0.0
  0
SEQEND
  5
58B
330
586
100
AcDbEntity
  8
BEMAßUNG
  0
POLYLINE
  5
58C
330
1F
100
AcDbEntity
  8
BEMAßUNG
 62
     7
100
AcDb2dPolyline
 66
     1
 10
0.0
 20
0.0
 30
0.0
  0
VERTEX
  5
58D
330
58C
100
AcDbEntity
  8
BEMAßUNG
 62
     7
100
AcDbVertex
100
AcDb2dVertex
 10
-8.850622556381095
 20
208.2005560460401
 30
0.0
  0
VERTEX
  5
58E
330
58C
100
AcDbEntity
  8
BEMAßUNG
 62
     7
100
AcDbVertex
100
AcDb2dVertex
 10
-8.823061792499097
 20
208.2005560460401
 30
0.0
  0
SEQEND
  5
58F
330
58C
100
AcDbEntity
  8
BEMAßUNG
  0
POLYLINE
  5
590
330
1F
100
AcDbEntity
  8
BEMAßUNG
 62
     7
100
AcDb2dPolyline
 66
     1
 10
0.0
 20
0.0
 30
0.0
  0
VERTEX
  5
591
330
590
100
AcDbEntity
  8
BEMAßUNG
 62
     7
100
AcDbVertex
100
AcDb2dVertex
 10
-8.850622556381095
 20
208.2005560460401
 30
0.0
  0
VERTEX
  5
592
330
590
100
AcDbEntity
  8
BEMAßUNG
 62
     7
100
AcDbVertex
100
AcDb2dVertex
 10
-8.823061792499097
 20
208.2005560460401
 30
0.0
  0
SEQEND
  5
593
330
590
100
AcDbEntity
  8
BEMAßUNG
  0
POLYLINE
  5
594
330
1F
100
AcDbEntity
  8
BEMAßUNG
 62
     7
100
AcDb2dPolyline
 66
     1
 10
0.0
 20
0.0
 30
0.0
  0
VERTEX
  5
595
330
594
100
AcDbEntity
  8
BEMAßUNG
 62
     7
100
AcDbVertex
100
AcDb2dVertex
 10
-8.850622556381095
 20
208.1495686328585
 30
0.0
  0
VERTEX
  5
596
330
594
100
AcDbEntity
  8
BEMAßUNG
 62
     7
100
AcDbVertex
100
AcDb2dVertex
 10
-8.437211098151113
 20
208.1495686328585
 30
0.0
  0
SEQEND
  5
597
330
594
100
AcDbEntity
  8
BEMAßUNG
  0
POLYLINE
  5
598
330
1F
100
AcDbEntity
  8
BEMAßUNG
 62
     7
100
AcDb2dPolyline
 66
     1
 10
0.0
 20
0.0
 30
0.0
  0
VERTEX
  5
599
330
598
100
AcDbEntity
  8
BEMAßUNG
 62
     7
100
AcDbVertex
100
AcDb2dVertex
 10
-8.850622556381095
 20
208.0989257292253
 30
0.0
  0
VERTEX
  5
59A
330
598
100
AcDbEntity
  8
BEMAßUNG
 62
     7
100
AcDbVertex
100
AcDb2dVertex
 10
-8.051360403803132
 20
208.0989257292253
 30
0.0
  0
SEQEND
  5
59B
330
598
100
AcDbEntity
  8
BEMAßUNG
  0
POLYLINE
  5
59C
330
1F
100
AcDbEntity
  8
BEMAßUNG
 62
     7
100
AcDb2dPolyline
 66
     1
 10
0.0
 20
0.0
 30
0.0
  0
VERTEX
  5
59D
330
59C
100
AcDbEntity
  8
BEMAßUNG
 62
     7
100
AcDbVertex
100
AcDb2dVertex
 10
-8.850622556381095
 20
208.0482828255921
 30
0.0
  0
VERTEX
  5
59E
330
59C
100
AcDbEntity
  8
BEMAßUNG
 62
     7
100
AcDbVertex
100
AcDb2dVertex
 10
-7.665854219003676
 20
208.0482828255921
 30
0.0
  0
SEQEND
  5
59F
330
59C
100
AcDbEntity
  8
BEMAßUNG
  0
POLYLINE
  5
5A0
330
1F
100
AcDbEntity
  8
BEMAßUNG
 62
     7
100
AcDb2dPolyline
 66
     1
 10
0.0
 20
0.0
 30
0.0
  0
VERTEX
  5
5A1
330
5A0
100
AcDbEntity
  8
BEMAßUNG
 62
     7
100
AcDbVertex
100
AcDb2dVertex
 10
-8.850622556381095
 20
207.9972954124104
 30
0.0
  0
VERTEX
  5
5A2
330
5A0
100
AcDbEntity
  8
BEMAßUNG
 62
     7
100
AcDbVertex
100
AcDb2dVertex
 10
-7.279659015107169
 20
207.9972954124104
 30
0.0
  0
SEQEND
  5
5A3
330
5A0
100
AcDbEntity
  8
BEMAßUNG
  0
POLYLINE
  5
5A4
330
1F
100
AcDbEntity
  8
BEMAßUNG
 62
     7
100
AcDb2dPolyline
 66
     1
 10
0.0
 20
0.0
 30
0.0
  0
VERTEX
  5
5A5
330
5A4
100
AcDbEntity
  8
BEMAßUNG
 62
     7
100
AcDbVertex
100
AcDb2dVertex
 10
-8.850622556381095
 20
207.9463079992287
 30
0.0
  0
VERTEX
  5
5A6
330
5A4
100
AcDbEntity
  8
BEMAßUNG
 62
     7
100
AcDbVertex
100
AcDb2dVertex
 10
-6.893808320759187
 20
207.9463079992287
 30
0.0
  0
SEQEND
  5
5A7
330
5A4
100
AcDbEntity
  8
BEMAßUNG
  0
POLYLINE
  5
5A8
330
1F
100
AcDbEntity
  8
BEMAßUNG
 62
     7
100
AcDb2dPolyline
 66
     1
 10
0.0
 20
0.0
 30
0.0
  0
VERTEX
  5
5A9
330
5A8
100
AcDbEntity
  8
BEMAßUNG
 62
     7
100
AcDbVertex
100
AcDb2dVertex
 10
-8.850622556381095
 20
207.895320586047
 30
0.0
  0
VERTEX
  5
5AA
330
5A8
100
AcDbEntity
  8
BEMAßUNG
 62
     7
100
AcDbVertex
100
AcDb2dVertex
 10
-6.507957626411205
 20
207.895320586047
 30
0.0
  0
SEQEND
  5
5AB
330
5A8
100
AcDbEntity
  8
BEMAßUNG
  0
POLYLINE
  5
5AC
330
1F
100
AcDbEntity
  8
BEMAßUNG
 62
     7
100
AcDb2dPolyline
 66
     1
 10
0.0
 20
0.0
 30
0.0
  0
VERTEX
  5
5AD
330
5AC
100
AcDbEntity
  8
BEMAßUNG
 62
     7
100
AcDbVertex
100
AcDb2dVertex
 10
-8.850622556381095
 20
207.8446776824138
 30
0.0
  0
VERTEX
  5
5AE
330
5AC
100
AcDbEntity
  8
BEMAßUNG
 62
     7
100
AcDbVertex
100
AcDb2dVertex
 10
-6.122106932063224
 20
207.8446776824138
 30
0.0
  0
SEQEND
  5
5AF
330
5AC
100
AcDbEntity
  8
BEMAßUNG
  0
POLYLINE
  5
5B0
330
1F
100
AcDbEntity
  8
BEMAßUNG
 62
     7
100
AcDb2dPolyline
 66
     1
 10
0.0
 20
0.0
 30
0.0
  0
VERTEX
  5
5B1
330
5B0
100
AcDbEntity
  8
BEMAßUNG
 62
     7
100
AcDbVertex
100
AcDb2dVertex
 10
-8.850622556381095
 20
207.7947237978777
 30
0.0
  0
VERTEX
  5
5B2
330
5B0
100
AcDbEntity
  8
BEMAßUNG
 62
     7
100
AcDbVertex
100
AcDb2dVertex
 10
-5.736256237715242
 20
207.7947237978777
 30
0.0
  0
SEQEND
  5
5B3
330
5B0
100
AcDbEntity
  8
BEMAßUNG
  0
POLYLINE
  5
5B4
330
1F
100
AcDbEntity
  8
BEMAßUNG
 62
     7
100
AcDb2dPolyline
 66
     1
 10
0.0
 20
0.0
 30
0.0
  0
VERTEX
  5
5B5
330
5B4
100
AcDbEntity
  8
BEMAßUNG
 62
     7
100
AcDbVertex
100
AcDb2dVertex
 10
-8.850622556381095
 20
207.7433918751475
 30
0.0
  0
VERTEX
  5
5B6
330
5B4
100
AcDbEntity
  8
BEMAßUNG
 62
     7
100
AcDbVertex
100
AcDb2dVertex
 10
-5.35040554336726
 20
207.7433918751475
 30
0.0
  0
SEQEND
  5
5B7
330
5B4
100
AcDbEntity
  8
BEMAßUNG
  0
POLYLINE
  5
5B8
330
1F
100
AcDbEntity
  8
BEMAßUNG
 62
     7
100
AcDb2dPolyline
 66
     1
 10
0.0
 20
0.0
 30
0.0
  0
VERTEX
  5
5B9
330
5B8
100
AcDbEntity
  8
BEMAßUNG
 62
     7
100
AcDbVertex
100
AcDb2dVertex
 10
-8.850622556381095
 20
207.2858831947063
 30
0.0
  0
VERTEX
  5
5BA
330
5B8
100
AcDbEntity
  8
BEMAßUNG
 62
     7
100
AcDbVertex
100
AcDb2dVertex
 10
-8.823061792499097
 20
207.2858831947063
 30
0.0
  0
SEQEND
  5
5BB
330
5B8
100
AcDbEntity
  8
BEMAßUNG
  0
POLYLINE
  5
5BC
330
1F
100
AcDbEntity
  8
BEMAßUNG
 62
     7
100
AcDb2dPolyline
 66
     1
 10
0.0
 20
0.0
 30
0.0
  0
VERTEX
  5
5BD
330
5BC
100
AcDbEntity
  8
BEMAßUNG
 62
     7
100
AcDbVertex
100
AcDb2dVertex
 10
-8.850622556381095
 20
207.2858831947063
 30
0.0
  0
VERTEX
  5
5BE
330
5BC
100
AcDbEntity
  8
BEMAßUNG
 62
     7
100
AcDbVertex
100
AcDb2dVertex
 10
-8.823061792499097
 20
207.2858831947063
 30
0.0
  0
SEQEND
  5
5BF
330
5BC
100
AcDbEntity
  8
BEMAßUNG
  0
POLYLINE
  5
5C0
330
1F
100
AcDbEntity
  8
BEMAßUNG
 62
     7
100
AcDb2dPolyline
 66
     1
 10
0.0
 20
0.0
 30
0.0
  0
VERTEX
  5
5C1
330
5C0
100
AcDbEntity
  8
BEMAßUNG
 62
     7
100
AcDbVertex
100
AcDb2dVertex
 10
-8.850622556381095
 20
207.336870607888
 30
0.0
  0
VERTEX
  5
5C2
330
5C0
100
AcDbEntity
  8
BEMAßUNG
 62
     7
100
AcDbVertex
100
AcDb2dVertex
 10
-8.437211098151113
 20
207.336870607888
 30
0.0
  0
SEQEND
  5
5C3
330
5C0
100
AcDbEntity
  8
BEMAßUNG
  0
POLYLINE
  5
5C4
330
1F
100
AcDbEntity
  8
BEMAßUNG
 62
     7
100
AcDb2dPolyline
 66
     1
 10
0.0
 20
0.0
 30
0.0
  0
VERTEX
  5
5C5
330
5C4
100
AcDbEntity
  8
BEMAßUNG
 62
     7
100
AcDbVertex
100
AcDb2dVertex
 10
-8.850622556381095
 20
207.3882025306182
 30
0.0
  0
VERTEX
  5
5C6
330
5C4
100
AcDbEntity
  8
BEMAßUNG
 62
     7
100
AcDbVertex
100
AcDb2dVertex
 10
-8.051360403803132
 20
207.3882025306182
 30
0.0
  0
SEQEND
  5
5C7
330
5C4
100
AcDbEntity
  8
BEMAßUNG
  0
POLYLINE
  5
5C8
330
1F
100
AcDbEntity
  8
BEMAßUNG
 62
     7
100
AcDb2dPolyline
 66
     1
 10
0.0
 20
0.0
 30
0.0
  0
VERTEX
  5
5C9
330
5C8
100
AcDbEntity
  8
BEMAßUNG
 62
     7
100
AcDbVertex
100
AcDb2dVertex
 10
-8.850622556381095
 20
207.4388454342514
 30
0.0
  0
VERTEX
  5
5CA
330
5C8
100
AcDbEntity
  8
BEMAßUNG
 62
     7
100
AcDbVertex
100
AcDb2dVertex
 10
-7.665854219003676
 20
207.4388454342514
 30
0.0
  0
SEQEND
  5
5CB
330
5C8
100
AcDbEntity
  8
BEMAßUNG
  0
POLYLINE
  5
5CC
330
1F
100
AcDbEntity
  8
BEMAßUNG
 62
     7
100
AcDb2dPolyline
 66
     1
 10
0.0
 20
0.0
 30
0.0
  0
VERTEX
  5
5CD
330
5CC
100
AcDbEntity
  8
BEMAßUNG
 62
     7
100
AcDbVertex
100
AcDb2dVertex
 10
-8.850622556381095
 20
207.4894883378846
 30
0.0
  0
VERTEX
  5
5CE
330
5CC
100
AcDbEntity
  8
BEMAßUNG
 62
     7
100
AcDbVertex
100
AcDb2dVertex
 10
-7.279659015107169
 20
207.4894883378846
 30
0.0
  0
SEQEND
  5
5CF
330
5CC
100
AcDbEntity
  8
BEMAßUNG
  0
POLYLINE
  5
5D0
330
1F
100
AcDbEntity
  8
BEMAßUNG
 62
     7
100
AcDb2dPolyline
 66
     1
 10
0.0
 20
0.0
 30
0.0
  0
VERTEX
  5
5D1
330
5D0
100
AcDbEntity
  8
BEMAßUNG
 62
     7
100
AcDbVertex
100
AcDb2dVertex
 10
-8.850622556381095
 20
207.5401312415177
 30
0.0
  0
VERTEX
  5
5D2
330
5D0
100
AcDbEntity
  8
BEMAßUNG
 62
     7
100
AcDbVertex
100
AcDb2dVertex
 10
-6.893808320759187
 20
207.5401312415177
 30
0.0
  0
SEQEND
  5
5D3
330
5D0
100
AcDbEntity
  8
BEMAßUNG
  0
POLYLINE
  5
5D4
330
1F
100
AcDbEntity
  8
BEMAßUNG
 62
     7
100
AcDb2dPolyline
 66
     1
 10
0.0
 20
0.0
 30
0.0
  0
VERTEX
  5
5D5
330
5D4
100
AcDbEntity
  8
BEMAßUNG
 62
     7
100
AcDbVertex
100
AcDb2dVertex
 10
-8.850622556381095
 20
207.5911186546994
 30
0.0
  0
VERTEX
  5
5D6
330
5D4
100
AcDbEntity
  8
BEMAßUNG
 62
     7
100
AcDbVertex
100
AcDb2dVertex
 10
-6.507957626411205
 20
207.5911186546994
 30
0.0
  0
SEQEND
  5
5D7
330
5D4
100
AcDbEntity
  8
BEMAßUNG
  0
POLYLINE
  5
5D8
330
1F
100
AcDbEntity
  8
BEMAßUNG
 62
     7
100
AcDb2dPolyline
 66
     1
 10
0.0
 20
0.0
 30
0.0
  0
VERTEX
  5
5D9
330
5D8
100
AcDbEntity
  8
BEMAßUNG
 62
     7
100
AcDbVertex
100
AcDb2dVertex
 10
-8.850622556381095
 20
207.6417615583326
 30
0.0
  0
VERTEX
  5
5DA
330
5D8
100
AcDbEntity
  8
BEMAßUNG
 62
     7
100
AcDbVertex
100
AcDb2dVertex
 10
-6.122106932063224
 20
207.6417615583326
 30
0.0
  0
SEQEND
  5
5DB
330
5D8
100
AcDbEntity
  8
BEMAßUNG
  0
POLYLINE
  5
5DC
330
1F
100
AcDbEntity
  8
BEMAßUNG
 62
     7
100
AcDb2dPolyline
 66
     1
 10
0.0
 20
0.0
 30
0.0
  0
VERTEX
  5
5DD
330
5DC
100
AcDbEntity
  8
BEMAßUNG
 62
     7
100
AcDbVertex
100
AcDb2dVertex
 10
-8.850622556381095
 20
207.6927489715143
 30
0.0
  0
VERTEX
  5
5DE
330
5DC
100
AcDbEntity
  8
BEMAßUNG
 62
     7
100
AcDbVertex
100
AcDb2dVertex
 10
-5.736256237715242
 20
207.6927489715143
 30
0.0
  0
SEQEND
  5
5DF
330
5DC
100
AcDbEntity
  8
BEMAßUNG
  0
POLYLINE
  5
5E0
330
1F
100
AcDbEntity
  8
BEMAßUNG
 62
     7
100
AcDb2dPolyline
 66
     1
 10
0.0
 20
0.0
 30
0.0
  0
VERTEX
  5
5E1
330
5E0
100
AcDbEntity
  8
BEMAßUNG
 62
     7
100
AcDbVertex
100
AcDb2dVertex
 10
-8.850622556381095
 20
207.7433918751475
 30
0.0
  0
VERTEX
  5
5E2
330
5E0
100
AcDbEntity
  8
BEMAßUNG
 62
     7
100
AcDbVertex
100
AcDb2dVertex
 10
-5.35040554336726
 20
207.7433918751475
 30
0.0
  0
SEQEND
  5
5E3
330
5E0
100
AcDbEntity
  8
BEMAßUNG
  0
POLYLINE
  5
5E4
330
1F
100
AcDbEntity
  8
BEMAßUNG
 62
     7
100
AcDb2dPolyline
 66
     1
 10
0.0
 20
0.0
 30
0.0
  0
VERTEX
  5
5E5
330
5E4
100
AcDbEntity
  8
BEMAßUNG
 62
     7
100
AcDbVertex
100
AcDb2dVertex
 10
13.64964056733412
 20
165.5816243075629
 30
0.0
  0
VERTEX
  5
5E6
330
5E4
100
AcDbEntity
  8
BEMAßUNG
 62
     7
100
AcDbVertex
100
AcDb2dVertex
 10
13.64964056733412
 20
132.2437798063488
 30
0.0
  0
SEQEND
  5
5E7
330
5E4
100
AcDbEntity
  8
BEMAßUNG
  0
POLYLINE
  5
5E8
330
1F
100
AcDbEntity
  8
BEMAßUNG
 62
     7
100
AcDb2dPolyline
 66
     1
 10
0.0
 20
0.0
 30
0.0
  0
VERTEX
  5
5E9
330
5E8
100
AcDbEntity
  8
BEMAßUNG
 62
     7
100
AcDbVertex
100
AcDb2dVertex
 10
-47.34990911359655
 20
166.3932888038878
 30
0.0
  0
VERTEX
  5
5EA
330
5E8
100
AcDbEntity
  8
BEMAßUNG
 62
     7
100
AcDbVertex
100
AcDb2dVertex
 10
-47.34990911359655
 20
132.2437798063488
 30
0.0
  0
SEQEND
  5
5EB
330
5E8
100
AcDbEntity
  8
BEMAßUNG
  0
POLYLINE
  5
5EC
330
1F
100
AcDbEntity
  8
BEMAßUNG
 62
     7
100
AcDb2dPolyline
 66
     1
 10
0.0
 20
0.0
 30
0.0
  0
VERTEX
  5
5ED
330
5EC
100
AcDbEntity
  8
BEMAßUNG
 62
     7
100
AcDbVertex
100
AcDb2dVertex
 10
13.64964056733412
 20
134.2433132259878
 30
0.0
  0
VERTEX
  5
5EE
330
5EC
100
AcDbEntity
  8
BEMAßUNG
 62
     7
100
AcDbVertex
100
AcDb2dVertex
 10
-47.34990911359655
 20
134.2433132259878
 30
0.0
  0
SEQEND
  5
5EF
330
5EC
100
AcDbEntity
  8
BEMAßUNG
  0
POLYLINE
  5
5F0
330
1F
100
AcDbEntity
  8
BEMAßUNG
 62
     7
100
AcDb2dPolyline
 66
     1
 10
0.0
 20
0.0
 30
0.0
  0
VERTEX
  5
5F1
330
5F0
100
AcDbEntity
  8
BEMAßUNG
 62
     7
100
AcDbVertex
100
AcDb2dVertex
 10
13.64964056733412
 20
134.2433132259878
 30
0.0
  0
VERTEX
  5
5F2
330
5F0
100
AcDbEntity
  8
BEMAßUNG
 62
     7
100
AcDbVertex
100
AcDb2dVertex
 10
10.14942355432028
 20
134.7039224923657
 30
0.0
  0
VERTEX
  5
5F3
330
5F0
100
AcDbEntity
  8
BEMAßUNG
 62
     7
100
AcDbVertex
100
AcDb2dVertex
 10
10.14942355432028
 20
133.7827039596099
 30
0.0
  0
VERTEX
  5
5F4
330
5F0
100
AcDbEntity
  8
BEMAßUNG
 62
     7
100
AcDbVertex
100
AcDb2dVertex
 10
13.64964056733412
 20
134.2433132259878
 30
0.0
  0
SEQEND
  5
5F5
330
5F0
100
AcDbEntity
  8
BEMAßUNG
  0
POLYLINE
  5
5F6
330
1F
100
AcDbEntity
  8
BEMAßUNG
 62
     7
100
AcDb2dPolyline
 66
     1
 10
0.0
 20
0.0
 30
0.0
  0
VERTEX
  5
5F7
330
5F6
100
AcDbEntity
  8
BEMAßUNG
 62
     7
100
AcDbVertex
100
AcDb2dVertex
 10
10.14942355432028
 20
134.700821906429
 30
0.0
  0
VERTEX
  5
5F8
330
5F6
100
AcDbEntity
  8
BEMAßUNG
 62
     7
100
AcDbVertex
100
AcDb2dVertex
 10
10.17663980865376
 20
134.700821906429
 30
0.0
  0
SEQEND
  5
5F9
330
5F6
100
AcDbEntity
  8
BEMAßUNG
  0
POLYLINE
  5
5FA
330
1F
100
AcDbEntity
  8
BEMAßUNG
 62
     7
100
AcDb2dPolyline
 66
     1
 10
0.0
 20
0.0
 30
0.0
  0
VERTEX
  5
5FB
330
5FA
100
AcDbEntity
  8
BEMAßUNG
 62
     7
100
AcDbVertex
100
AcDb2dVertex
 10
10.14942355432028
 20
134.700821906429
 30
0.0
  0
VERTEX
  5
5FC
330
5FA
100
AcDbEntity
  8
BEMAßUNG
 62
     7
100
AcDbVertex
100
AcDb2dVertex
 10
10.17663980865376
 20
134.700821906429
 30
0.0
  0
SEQEND
  5
5FD
330
5FA
100
AcDbEntity
  8
BEMAßUNG
  0
POLYLINE
  5
5FE
330
1F
100
AcDbEntity
  8
BEMAßUNG
 62
     7
100
AcDb2dPolyline
 66
     1
 10
0.0
 20
0.0
 30
0.0
  0
VERTEX
  5
5FF
330
5FE
100
AcDbEntity
  8
BEMAßUNG
 62
     7
100
AcDbVertex
100
AcDb2dVertex
 10
10.14942355432028
 20
134.6494899836987
 30
0.0
  0
VERTEX
  5
600
330
5FE
100
AcDbEntity
  8
BEMAßUNG
 62
     7
100
AcDbVertex
100
AcDb2dVertex
 10
10.56283501255026
 20
134.6494899836987
 30
0.0
  0
SEQEND
  5
601
330
5FE
100
AcDbEntity
  8
BEMAßUNG
  0
POLYLINE
  5
602
330
1F
100
AcDbEntity
  8
BEMAßUNG
 62
     7
100
AcDb2dPolyline
 66
     1
 10
0.0
 20
0.0
 30
0.0
  0
VERTEX
  5
603
330
602
100
AcDbEntity
  8
BEMAßUNG
 62
     7
100
AcDbVertex
100
AcDb2dVertex
 10
10.14942355432028
 20
134.5988470800656
 30
0.0
  0
VERTEX
  5
604
330
602
100
AcDbEntity
  8
BEMAßUNG
 62
     7
100
AcDbVertex
100
AcDb2dVertex
 10
10.94868570689825
 20
134.5988470800656
 30
0.0
  0
SEQEND
  5
605
330
602
100
AcDbEntity
  8
BEMAßUNG
  0
POLYLINE
  5
606
330
1F
100
AcDbEntity
  8
BEMAßUNG
 62
     7
100
AcDb2dPolyline
 66
     1
 10
0.0
 20
0.0
 30
0.0
  0
VERTEX
  5
607
330
606
100
AcDbEntity
  8
BEMAßUNG
 62
     7
100
AcDbVertex
100
AcDb2dVertex
 10
10.14942355432028
 20
134.5482041764324
 30
0.0
  0
VERTEX
  5
608
330
606
100
AcDbEntity
  8
BEMAßUNG
 62
     7
100
AcDbVertex
100
AcDb2dVertex
 10
11.33453640124623
 20
134.5482041764324
 30
0.0
  0
SEQEND
  5
609
330
606
100
AcDbEntity
  8
BEMAßUNG
  0
POLYLINE
  5
60A
330
1F
100
AcDbEntity
  8
BEMAßUNG
 62
     7
100
AcDb2dPolyline
 66
     1
 10
0.0
 20
0.0
 30
0.0
  0
VERTEX
  5
60B
330
60A
100
AcDbEntity
  8
BEMAßUNG
 62
     7
100
AcDbVertex
100
AcDb2dVertex
 10
10.14942355432028
 20
134.4972167632507
 30
0.0
  0
VERTEX
  5
60C
330
60A
100
AcDbEntity
  8
BEMAßUNG
 62
     7
100
AcDbVertex
100
AcDb2dVertex
 10
11.72038709559421
 20
134.4972167632507
 30
0.0
  0
SEQEND
  5
60D
330
60A
100
AcDbEntity
  8
BEMAßUNG
  0
POLYLINE
  5
60E
330
1F
100
AcDbEntity
  8
BEMAßUNG
 62
     7
100
AcDb2dPolyline
 66
     1
 10
0.0
 20
0.0
 30
0.0
  0
VERTEX
  5
60F
330
60E
100
AcDbEntity
  8
BEMAßUNG
 62
     7
100
AcDbVertex
100
AcDb2dVertex
 10
10.14942355432028
 20
134.446229350069
 30
0.0
  0
VERTEX
  5
610
330
60E
100
AcDbEntity
  8
BEMAßUNG
 62
     7
100
AcDbVertex
100
AcDb2dVertex
 10
12.10623778994219
 20
134.446229350069
 30
0.0
  0
SEQEND
  5
611
330
60E
100
AcDbEntity
  8
BEMAßUNG
  0
POLYLINE
  5
612
330
1F
100
AcDbEntity
  8
BEMAßUNG
 62
     7
100
AcDb2dPolyline
 66
     1
 10
0.0
 20
0.0
 30
0.0
  0
VERTEX
  5
613
330
612
100
AcDbEntity
  8
BEMAßUNG
 62
     7
100
AcDbVertex
100
AcDb2dVertex
 10
10.14942355432028
 20
134.3959309559844
 30
0.0
  0
VERTEX
  5
614
330
612
100
AcDbEntity
  8
BEMAßUNG
 62
     7
100
AcDbVertex
100
AcDb2dVertex
 10
12.49208848429017
 20
134.3959309559844
 30
0.0
  0
SEQEND
  5
615
330
612
100
AcDbEntity
  8
BEMAßUNG
  0
POLYLINE
  5
616
330
1F
100
AcDbEntity
  8
BEMAßUNG
 62
     7
100
AcDb2dPolyline
 66
     1
 10
0.0
 20
0.0
 30
0.0
  0
VERTEX
  5
617
330
616
100
AcDbEntity
  8
BEMAßUNG
 62
     7
100
AcDbVertex
100
AcDb2dVertex
 10
10.14942355432028
 20
134.3452880523512
 30
0.0
  0
VERTEX
  5
618
330
616
100
AcDbEntity
  8
BEMAßUNG
 62
     7
100
AcDbVertex
100
AcDb2dVertex
 10
12.87793917863815
 20
134.3452880523512
 30
0.0
  0
SEQEND
  5
619
330
616
100
AcDbEntity
  8
BEMAßUNG
  0
POLYLINE
  5
61A
330
1F
100
AcDbEntity
  8
BEMAßUNG
 62
     7
100
AcDb2dPolyline
 66
     1
 10
0.0
 20
0.0
 30
0.0
  0
VERTEX
  5
61B
330
61A
100
AcDbEntity
  8
BEMAßUNG
 62
     7
100
AcDbVertex
100
AcDb2dVertex
 10
10.14942355432028
 20
134.2943006391695
 30
0.0
  0
VERTEX
  5
61C
330
61A
100
AcDbEntity
  8
BEMAßUNG
 62
     7
100
AcDbVertex
100
AcDb2dVertex
 10
13.26378987298614
 20
134.2943006391695
 30
0.0
  0
SEQEND
  5
61D
330
61A
100
AcDbEntity
  8
BEMAßUNG
  0
POLYLINE
  5
61E
330
1F
100
AcDbEntity
  8
BEMAßUNG
 62
     7
100
AcDb2dPolyline
 66
     1
 10
0.0
 20
0.0
 30
0.0
  0
VERTEX
  5
61F
330
61E
100
AcDbEntity
  8
BEMAßUNG
 62
     7
100
AcDbVertex
100
AcDb2dVertex
 10
10.14942355432028
 20
134.2433132259878
 30
0.0
  0
VERTEX
  5
620
330
61E
100
AcDbEntity
  8
BEMAßUNG
 62
     7
100
AcDbVertex
100
AcDb2dVertex
 10
13.64964056733412
 20
134.2433132259878
 30
0.0
  0
SEQEND
  5
621
330
61E
100
AcDbEntity
  8
BEMAßUNG
  0
POLYLINE
  5
622
330
1F
100
AcDbEntity
  8
BEMAßUNG
 62
     7
100
AcDb2dPolyline
 66
     1
 10
0.0
 20
0.0
 30
0.0
  0
VERTEX
  5
623
330
622
100
AcDbEntity
  8
BEMAßUNG
 62
     7
100
AcDbVertex
100
AcDb2dVertex
 10
10.14942355432028
 20
133.7861490550951
 30
0.0
  0
VERTEX
  5
624
330
622
100
AcDbEntity
  8
BEMAßUNG
 62
     7
100
AcDbVertex
100
AcDb2dVertex
 10
10.17663980865376
 20
133.7861490550951
 30
0.0
  0
SEQEND
  5
625
330
622
100
AcDbEntity
  8
BEMAßUNG
  0
POLYLINE
  5
626
330
1F
100
AcDbEntity
  8
BEMAßUNG
 62
     7
100
AcDb2dPolyline
 66
     1
 10
0.0
 20
0.0
 30
0.0
  0
VERTEX
  5
627
330
626
100
AcDbEntity
  8
BEMAßUNG
 62
     7
100
AcDbVertex
100
AcDb2dVertex
 10
10.14942355432028
 20
133.7861490550951
 30
0.0
  0
VERTEX
  5
628
330
626
100
AcDbEntity
  8
BEMAßUNG
 62
     7
100
AcDbVertex
100
AcDb2dVertex
 10
10.17663980865376
 20
133.7861490550951
 30
0.0
  0
SEQEND
  5
629
330
626
100
AcDbEntity
  8
BEMAßUNG
  0
POLYLINE
  5
62A
330
1F
100
AcDbEntity
  8
BEMAßUNG
 62
     7
100
AcDb2dPolyline
 66
     1
 10
0.0
 20
0.0
 30
0.0
  0
VERTEX
  5
62B
330
62A
100
AcDbEntity
  8
BEMAßUNG
 62
     7
100
AcDbVertex
100
AcDb2dVertex
 10
10.14942355432028
 20
133.8371364682768
 30
0.0
  0
VERTEX
  5
62C
330
62A
100
AcDbEntity
  8
BEMAßUNG
 62
     7
100
AcDbVertex
100
AcDb2dVertex
 10
10.56283501255026
 20
133.8371364682768
 30
0.0
  0
SEQEND
  5
62D
330
62A
100
AcDbEntity
  8
BEMAßUNG
  0
POLYLINE
  5
62E
330
1F
100
AcDbEntity
  8
BEMAßUNG
 62
     7
100
AcDb2dPolyline
 66
     1
 10
0.0
 20
0.0
 30
0.0
  0
VERTEX
  5
62F
330
62E
100
AcDbEntity
  8
BEMAßUNG
 62
     7
100
AcDbVertex
100
AcDb2dVertex
 10
10.14942355432028
 20
133.8874348623615
 30
0.0
  0
VERTEX
  5
630
330
62E
100
AcDbEntity
  8
BEMAßUNG
 62
     7
100
AcDbVertex
100
AcDb2dVertex
 10
10.94868570689825
 20
133.8874348623615
 30
0.0
  0
SEQEND
  5
631
330
62E
100
AcDbEntity
  8
BEMAßUNG
  0
POLYLINE
  5
632
330
1F
100
AcDbEntity
  8
BEMAßUNG
 62
     7
100
AcDb2dPolyline
 66
     1
 10
0.0
 20
0.0
 30
0.0
  0
VERTEX
  5
633
330
632
100
AcDbEntity
  8
BEMAßUNG
 62
     7
100
AcDbVertex
100
AcDb2dVertex
 10
10.14942355432028
 20
133.9384222755432
 30
0.0
  0
VERTEX
  5
634
330
632
100
AcDbEntity
  8
BEMAßUNG
 62
     7
100
AcDbVertex
100
AcDb2dVertex
 10
11.33453640124623
 20
133.9384222755432
 30
0.0
  0
SEQEND
  5
635
330
632
100
AcDbEntity
  8
BEMAßUNG
  0
POLYLINE
  5
636
330
1F
100
AcDbEntity
  8
BEMAßUNG
 62
     7
100
AcDb2dPolyline
 66
     1
 10
0.0
 20
0.0
 30
0.0
  0
VERTEX
  5
637
330
636
100
AcDbEntity
  8
BEMAßUNG
 62
     7
100
AcDbVertex
100
AcDb2dVertex
 10
10.14942355432028
 20
133.9890651791764
 30
0.0
  0
VERTEX
  5
638
330
636
100
AcDbEntity
  8
BEMAßUNG
 62
     7
100
AcDbVertex
100
AcDb2dVertex
 10
11.72038709559421
 20
133.9890651791764
 30
0.0
  0
SEQEND
  5
639
330
636
100
AcDbEntity
  8
BEMAßUNG
  0
POLYLINE
  5
63A
330
1F
100
AcDbEntity
  8
BEMAßUNG
 62
     7
100
AcDb2dPolyline
 66
     1
 10
0.0
 20
0.0
 30
0.0
  0
VERTEX
  5
63B
330
63A
100
AcDbEntity
  8
BEMAßUNG
 62
     7
100
AcDbVertex
100
AcDb2dVertex
 10
10.14942355432028
 20
134.0400525923581
 30
0.0
  0
VERTEX
  5
63C
330
63A
100
AcDbEntity
  8
BEMAßUNG
 62
     7
100
AcDbVertex
100
AcDb2dVertex
 10
12.10623778994219
 20
134.0400525923581
 30
0.0
  0
SEQEND
  5
63D
330
63A
100
AcDbEntity
  8
BEMAßUNG
  0
POLYLINE
  5
63E
330
1F
100
AcDbEntity
  8
BEMAßUNG
 62
     7
100
AcDb2dPolyline
 66
     1
 10
0.0
 20
0.0
 30
0.0
  0
VERTEX
  5
63F
330
63E
100
AcDbEntity
  8
BEMAßUNG
 62
     7
100
AcDbVertex
100
AcDb2dVertex
 10
10.14942355432028
 20
134.0906954959912
 30
0.0
  0
VERTEX
  5
640
330
63E
100
AcDbEntity
  8
BEMAßUNG
 62
     7
100
AcDbVertex
100
AcDb2dVertex
 10
12.49208848429017
 20
134.0906954959912
 30
0.0
  0
SEQEND
  5
641
330
63E
100
AcDbEntity
  8
BEMAßUNG
  0
POLYLINE
  5
642
330
1F
100
AcDbEntity
  8
BEMAßUNG
 62
     7
100
AcDb2dPolyline
 66
     1
 10
0.0
 20
0.0
 30
0.0
  0
VERTEX
  5
643
330
642
100
AcDbEntity
  8
BEMAßUNG
 62
     7
100
AcDbVertex
100
AcDb2dVertex
 10
10.14942355432028
 20
134.1416829091729
 30
0.0
  0
VERTEX
  5
644
330
642
100
AcDbEntity
  8
BEMAßUNG
 62
     7
100
AcDbVertex
100
AcDb2dVertex
 10
12.87793917863815
 20
134.1416829091729
 30
0.0
  0
SEQEND
  5
645
330
642
100
AcDbEntity
  8
BEMAßUNG
  0
POLYLINE
  5
646
330
1F
100
AcDbEntity
  8
BEMAßUNG
 62
     7
100
AcDb2dPolyline
 66
     1
 10
0.0
 20
0.0
 30
0.0
  0
VERTEX
  5
647
330
646
100
AcDbEntity
  8
BEMAßUNG
 62
     7
100
AcDbVertex
100
AcDb2dVertex
 10
10.14942355432028
 20
134.1923258128061
 30
0.0
  0
VERTEX
  5
648
330
646
100
AcDbEntity
  8
BEMAßUNG
 62
     7
100
AcDbVertex
100
AcDb2dVertex
 10
13.26378987298614
 20
134.1923258128061
 30
0.0
  0
SEQEND
  5
649
330
646
100
AcDbEntity
  8
BEMAßUNG
  0
POLYLINE
  5
64A
330
1F
100
AcDbEntity
  8
BEMAßUNG
 62
     7
100
AcDb2dPolyline
 66
     1
 10
0.0
 20
0.0
 30
0.0
  0
VERTEX
  5
64B
330
64A
100
AcDbEntity
  8
BEMAßUNG
 62
     7
100
AcDbVertex
100
AcDb2dVertex
 10
10.14942355432028
 20
134.2433132259878
 30
0.0
  0
VERTEX
  5
64C
330
64A
100
AcDbEntity
  8
BEMAßUNG
 62
     7
100
AcDbVertex
100
AcDb2dVertex
 10
13.64964056733412
 20
134.2433132259878
 30
0.0
  0
SEQEND
  5
64D
330
64A
100
AcDbEntity
  8
BEMAßUNG
  0
POLYLINE
  5
64E
330
1F
100
AcDbEntity
  8
BEMAßUNG
 62
     7
100
AcDb2dPolyline
 66
     1
 10
0.0
 20
0.0
 30
0.0
  0
VERTEX
  5
64F
330
64E
100
AcDbEntity
  8
BEMAßUNG
 62
     7
100
AcDbVertex
100
AcDb2dVertex
 10
-47.34990911359655
 20
134.2433132259878
 30
0.0
  0
VERTEX
  5
650
330
64E
100
AcDbEntity
  8
BEMAßUNG
 62
     7
100
AcDbVertex
100
AcDb2dVertex
 10
-43.85072562922829
 20
133.7827039596099
 30
0.0
  0
VERTEX
  5
651
330
64E
100
AcDbEntity
  8
BEMAßUNG
 62
     7
100
AcDbVertex
100
AcDb2dVertex
 10
-43.85072562922829
 20
134.7039224923657
 30
0.0
  0
VERTEX
  5
652
330
64E
100
AcDbEntity
  8
BEMAßUNG
 62
     7
100
AcDbVertex
100
AcDb2dVertex
 10
-47.34990911359655
 20
134.2433132259878
 30
0.0
  0
SEQEND
  5
653
330
64E
100
AcDbEntity
  8
BEMAßUNG
  0
POLYLINE
  5
654
330
1F
100
AcDbEntity
  8
BEMAßUNG
 62
     7
100
AcDb2dPolyline
 66
     1
 10
0.0
 20
0.0
 30
0.0
  0
VERTEX
  5
655
330
654
100
AcDbEntity
  8
BEMAßUNG
 62
     7
100
AcDbVertex
100
AcDb2dVertex
 10
-43.85072562922829
 20
133.7861490550951
 30
0.0
  0
VERTEX
  5
656
330
654
100
AcDbEntity
  8
BEMAßUNG
 62
     7
100
AcDbVertex
100
AcDb2dVertex
 10
-43.87725286446472
 20
133.7861490550951
 30
0.0
  0
SEQEND
  5
657
330
654
100
AcDbEntity
  8
BEMAßUNG
  0
POLYLINE
  5
658
330
1F
100
AcDbEntity
  8
BEMAßUNG
 62
     7
100
AcDb2dPolyline
 66
     1
 10
0.0
 20
0.0
 30
0.0
  0
VERTEX
  5
659
330
658
100
AcDbEntity
  8
BEMAßUNG
 62
     7
100
AcDbVertex
100
AcDb2dVertex
 10
-43.85072562922829
 20
133.7861490550951
 30
0.0
  0
VERTEX
  5
65A
330
658
100
AcDbEntity
  8
BEMAßUNG
 62
     7
100
AcDbVertex
100
AcDb2dVertex
 10
-43.87725286446472
 20
133.7861490550951
 30
0.0
  0
SEQEND
  5
65B
330
658
100
AcDbEntity
  8
BEMAßUNG
  0
POLYLINE
  5
65C
330
1F
100
AcDbEntity
  8
BEMAßUNG
 62
     7
100
AcDb2dPolyline
 66
     1
 10
0.0
 20
0.0
 30
0.0
  0
VERTEX
  5
65D
330
65C
100
AcDbEntity
  8
BEMAßUNG
 62
     7
100
AcDbVertex
100
AcDb2dVertex
 10
-43.85072562922829
 20
133.8371364682768
 30
0.0
  0
VERTEX
  5
65E
330
65C
100
AcDbEntity
  8
BEMAßUNG
 62
     7
100
AcDbVertex
100
AcDb2dVertex
 10
-44.26310355881269
 20
133.8371364682768
 30
0.0
  0
SEQEND
  5
65F
330
65C
100
AcDbEntity
  8
BEMAßUNG
  0
POLYLINE
  5
660
330
1F
100
AcDbEntity
  8
BEMAßUNG
 62
     7
100
AcDb2dPolyline
 66
     1
 10
0.0
 20
0.0
 30
0.0
  0
VERTEX
  5
661
330
660
100
AcDbEntity
  8
BEMAßUNG
 62
     7
100
AcDbVertex
100
AcDb2dVertex
 10
-43.85072562922829
 20
133.8874348623615
 30
0.0
  0
VERTEX
  5
662
330
660
100
AcDbEntity
  8
BEMAßUNG
 62
     7
100
AcDbVertex
100
AcDb2dVertex
 10
-44.64929876270921
 20
133.8874348623615
 30
0.0
  0
SEQEND
  5
663
330
660
100
AcDbEntity
  8
BEMAßUNG
  0
POLYLINE
  5
664
330
1F
100
AcDbEntity
  8
BEMAßUNG
 62
     7
100
AcDb2dPolyline
 66
     1
 10
0.0
 20
0.0
 30
0.0
  0
VERTEX
  5
665
330
664
100
AcDbEntity
  8
BEMAßUNG
 62
     7
100
AcDbVertex
100
AcDb2dVertex
 10
-43.85072562922829
 20
133.9384222755432
 30
0.0
  0
VERTEX
  5
666
330
664
100
AcDbEntity
  8
BEMAßUNG
 62
     7
100
AcDbVertex
100
AcDb2dVertex
 10
-45.03514945705719
 20
133.9384222755432
 30
0.0
  0
SEQEND
  5
667
330
664
100
AcDbEntity
  8
BEMAßUNG
  0
POLYLINE
  5
668
330
1F
100
AcDbEntity
  8
BEMAßUNG
 62
     7
100
AcDb2dPolyline
 66
     1
 10
0.0
 20
0.0
 30
0.0
  0
VERTEX
  5
669
330
668
100
AcDbEntity
  8
BEMAßUNG
 62
     7
100
AcDbVertex
100
AcDb2dVertex
 10
-43.85072562922829
 20
133.9890651791764
 30
0.0
  0
VERTEX
  5
66A
330
668
100
AcDbEntity
  8
BEMAßUNG
 62
     7
100
AcDbVertex
100
AcDb2dVertex
 10
-45.42065564185664
 20
133.9890651791764
 30
0.0
  0
SEQEND
  5
66B
330
668
100
AcDbEntity
  8
BEMAßUNG
  0
POLYLINE
  5
66C
330
1F
100
AcDbEntity
  8
BEMAßUNG
 62
     7
100
AcDb2dPolyline
 66
     1
 10
0.0
 20
0.0
 30
0.0
  0
VERTEX
  5
66D
330
66C
100
AcDbEntity
  8
BEMAßUNG
 62
     7
100
AcDbVertex
100
AcDb2dVertex
 10
-43.85072562922829
 20
134.0400525923581
 30
0.0
  0
VERTEX
  5
66E
330
66C
100
AcDbEntity
  8
BEMAßUNG
 62
     7
100
AcDbVertex
100
AcDb2dVertex
 10
-45.80650633620463
 20
134.0400525923581
 30
0.0
  0
SEQEND
  5
66F
330
66C
100
AcDbEntity
  8
BEMAßUNG
  0
POLYLINE
  5
670
330
1F
100
AcDbEntity
  8
BEMAßUNG
 62
     7
100
AcDb2dPolyline
 66
     1
 10
0.0
 20
0.0
 30
0.0
  0
VERTEX
  5
671
330
670
100
AcDbEntity
  8
BEMAßUNG
 62
     7
100
AcDbVertex
100
AcDb2dVertex
 10
-43.85072562922829
 20
134.0906954959912
 30
0.0
  0
VERTEX
  5
672
330
670
100
AcDbEntity
  8
BEMAßUNG
 62
     7
100
AcDbVertex
100
AcDb2dVertex
 10
-46.19270154010113
 20
134.0906954959912
 30
0.0
  0
SEQEND
  5
673
330
670
100
AcDbEntity
  8
BEMAßUNG
  0
POLYLINE
  5
674
330
1F
100
AcDbEntity
  8
BEMAßUNG
 62
     7
100
AcDb2dPolyline
 66
     1
 10
0.0
 20
0.0
 30
0.0
  0
VERTEX
  5
675
330
674
100
AcDbEntity
  8
BEMAßUNG
 62
     7
100
AcDbVertex
100
AcDb2dVertex
 10
-43.85072562922829
 20
134.1416829091729
 30
0.0
  0
VERTEX
  5
676
330
674
100
AcDbEntity
  8
BEMAßUNG
 62
     7
100
AcDbVertex
100
AcDb2dVertex
 10
-46.57855223444911
 20
134.1416829091729
 30
0.0
  0
SEQEND
  5
677
330
674
100
AcDbEntity
  8
BEMAßUNG
  0
POLYLINE
  5
678
330
1F
100
AcDbEntity
  8
BEMAßUNG
 62
     7
100
AcDb2dPolyline
 66
     1
 10
0.0
 20
0.0
 30
0.0
  0
VERTEX
  5
679
330
678
100
AcDbEntity
  8
BEMAßUNG
 62
     7
100
AcDbVertex
100
AcDb2dVertex
 10
-43.85072562922829
 20
134.1923258128061
 30
0.0
  0
VERTEX
  5
67A
330
678
100
AcDbEntity
  8
BEMAßUNG
 62
     7
100
AcDbVertex
100
AcDb2dVertex
 10
-46.96405841924857
 20
134.1923258128061
 30
0.0
  0
SEQEND
  5
67B
330
678
100
AcDbEntity
  8
BEMAßUNG
  0
POLYLINE
  5
67C
330
1F
100
AcDbEntity
  8
BEMAßUNG
 62
     7
100
AcDb2dPolyline
 66
     1
 10
0.0
 20
0.0
 30
0.0
  0
VERTEX
  5
67D
330
67C
100
AcDbEntity
  8
BEMAßUNG
 62
     7
100
AcDbVertex
100
AcDb2dVertex
 10
-43.85072562922829
 20
134.2433132259878
 30
0.0
  0
VERTEX
  5
67E
330
67C
100
AcDbEntity
  8
BEMAßUNG
 62
     7
100
AcDbVertex
100
AcDb2dVertex
 10
-47.34990911359655
 20
134.2433132259878
 30
0.0
  0
SEQEND
  5
67F
330
67C
100
AcDbEntity
  8
BEMAßUNG
  0
POLYLINE
  5
680
330
1F
100
AcDbEntity
  8
BEMAßUNG
 62
     7
100
AcDb2dPolyline
 66
     1
 10
0.0
 20
0.0
 30
0.0
  0
VERTEX
  5
681
330
680
100
AcDbEntity
  8
BEMAßUNG
 62
     7
100
AcDbVertex
100
AcDb2dVertex
 10
-43.85072562922829
 20
134.700821906429
 30
0.0
  0
VERTEX
  5
682
330
680
100
AcDbEntity
  8
BEMAßUNG
 62
     7
100
AcDbVertex
100
AcDb2dVertex
 10
-43.87725286446472
 20
134.700821906429
 30
0.0
  0
SEQEND
  5
683
330
680
100
AcDbEntity
  8
BEMAßUNG
  0
POLYLINE
  5
684
330
1F
100
AcDbEntity
  8
BEMAßUNG
 62
     7
100
AcDb2dPolyline
 66
     1
 10
0.0
 20
0.0
 30
0.0
  0
VERTEX
  5
685
330
684
100
AcDbEntity
  8
BEMAßUNG
 62
     7
100
AcDbVertex
100
AcDb2dVertex
 10
-43.85072562922829
 20
134.700821906429
 30
0.0
  0
VERTEX
  5
686
330
684
100
AcDbEntity
  8
BEMAßUNG
 62
     7
100
AcDbVertex
100
AcDb2dVertex
 10
-43.87725286446472
 20
134.700821906429
 30
0.0
  0
SEQEND
  5
687
330
684
100
AcDbEntity
  8
BEMAßUNG
  0
POLYLINE
  5
688
330
1F
100
AcDbEntity
  8
BEMAßUNG
 62
     7
100
AcDb2dPolyline
 66
     1
 10
0.0
 20
0.0
 30
0.0
  0
VERTEX
  5
689
330
688
100
AcDbEntity
  8
BEMAßUNG
 62
     7
100
AcDbVertex
100
AcDb2dVertex
 10
-43.85072562922829
 20
134.6494899836987
 30
0.0
  0
VERTEX
  5
68A
330
688
100
AcDbEntity
  8
BEMAßUNG
 62
     7
100
AcDbVertex
100
AcDb2dVertex
 10
-44.26310355881269
 20
134.6494899836987
 30
0.0
  0
SEQEND
  5
68B
330
688
100
AcDbEntity
  8
BEMAßUNG
  0
POLYLINE
  5
68C
330
1F
100
AcDbEntity
  8
BEMAßUNG
 62
     7
100
AcDb2dPolyline
 66
     1
 10
0.0
 20
0.0
 30
0.0
  0
VERTEX
  5
68D
330
68C
100
AcDbEntity
  8
BEMAßUNG
 62
     7
100
AcDbVertex
100
AcDb2dVertex
 10
-43.85072562922829
 20
134.5988470800656
 30
0.0
  0
VERTEX
  5
68E
330
68C
100
AcDbEntity
  8
BEMAßUNG
 62
     7
100
AcDbVertex
100
AcDb2dVertex
 10
-44.64929876270921
 20
134.5988470800656
 30
0.0
  0
SEQEND
  5
68F
330
68C
100
AcDbEntity
  8
BEMAßUNG
  0
POLYLINE
  5
690
330
1F
100
AcDbEntity
  8
BEMAßUNG
 62
     7
100
AcDb2dPolyline
 66
     1
 10
0.0
 20
0.0
 30
0.0
  0
VERTEX
  5
691
330
690
100
AcDbEntity
  8
BEMAßUNG
 62
     7
100
AcDbVertex
100
AcDb2dVertex
 10
-43.85072562922829
 20
134.5482041764324
 30
0.0
  0
VERTEX
  5
692
330
690
100
AcDbEntity
  8
BEMAßUNG
 62
     7
100
AcDbVertex
100
AcDb2dVertex
 10
-45.03514945705719
 20
134.5482041764324
 30
0.0
  0
SEQEND
  5
693
330
690
100
AcDbEntity
  8
BEMAßUNG
  0
POLYLINE
  5
694
330
1F
100
AcDbEntity
  8
BEMAßUNG
 62
     7
100
AcDb2dPolyline
 66
     1
 10
0.0
 20
0.0
 30
0.0
  0
VERTEX
  5
695
330
694
100
AcDbEntity
  8
BEMAßUNG
 62
     7
100
AcDbVertex
100
AcDb2dVertex
 10
-43.85072562922829
 20
134.4972167632507
 30
0.0
  0
VERTEX
  5
696
330
694
100
AcDbEntity
  8
BEMAßUNG
 62
     7
100
AcDbVertex
100
AcDb2dVertex
 10
-45.42065564185664
 20
134.4972167632507
 30
0.0
  0
SEQEND
  5
697
330
694
100
AcDbEntity
  8
BEMAßUNG
  0
POLYLINE
  5
698
330
1F
100
AcDbEntity
  8
BEMAßUNG
 62
     7
100
AcDb2dPolyline
 66
     1
 10
0.0
 20
0.0
 30
0.0
  0
VERTEX
  5
699
330
698
100
AcDbEntity
  8
BEMAßUNG
 62
     7
100
AcDbVertex
100
AcDb2dVertex
 10
-43.85072562922829
 20
134.446229350069
 30
0.0
  0
VERTEX
  5
69A
330
698
100
AcDbEntity
  8
BEMAßUNG
 62
     7
100
AcDbVertex
100
AcDb2dVertex
 10
-45.80650633620463
 20
134.446229350069
 30
0.0
  0
SEQEND
  5
69B
330
698
100
AcDbEntity
  8
BEMAßUNG
  0
POLYLINE
  5
69C
330
1F
100
AcDbEntity
  8
BEMAßUNG
 62
     7
100
AcDb2dPolyline
 66
     1
 10
0.0
 20
0.0
 30
0.0
  0
VERTEX
  5
69D
330
69C
100
AcDbEntity
  8
BEMAßUNG
 62
     7
100
AcDbVertex
100
AcDb2dVertex
 10
-43.85072562922829
 20
134.3959309559844
 30
0.0
  0
VERTEX
  5
69E
330
69C
100
AcDbEntity
  8
BEMAßUNG
 62
     7
100
AcDbVertex
100
AcDb2dVertex
 10
-46.19270154010113
 20
134.3959309559844
 30
0.0
  0
SEQEND
  5
69F
330
69C
100
AcDbEntity
  8
BEMAßUNG
  0
POLYLINE
  5
6A0
330
1F
100
AcDbEntity
  8
BEMAßUNG
 62
     7
100
AcDb2dPolyline
 66
     1
 10
0.0
 20
0.0
 30
0.0
  0
VERTEX
  5
6A1
330
6A0
100
AcDbEntity
  8
BEMAßUNG
 62
     7
100
AcDbVertex
100
AcDb2dVertex
 10
-43.85072562922829
 20
134.3452880523512
 30
0.0
  0
VERTEX
  5
6A2
330
6A0
100
AcDbEntity
  8
BEMAßUNG
 62
     7
100
AcDbVertex
100
AcDb2dVertex
 10
-46.57855223444911
 20
134.3452880523512
 30
0.0
  0
SEQEND
  5
6A3
330
6A0
100
AcDbEntity
  8
BEMAßUNG
  0
POLYLINE
  5
6A4
330
1F
100
AcDbEntity
  8
BEMAßUNG
 62
     7
100
AcDb2dPolyline
 66
     1
 10
0.0
 20
0.0
 30
0.0
  0
VERTEX
  5
6A5
330
6A4
100
AcDbEntity
  8
BEMAßUNG
 62
     7
100
AcDbVertex
100
AcDb2dVertex
 10
-43.85072562922829
 20
134.2943006391695
 30
0.0
  0
VERTEX
  5
6A6
330
6A4
100
AcDbEntity
  8
BEMAßUNG
 62
     7
100
AcDbVertex
100
AcDb2dVertex
 10
-46.96405841924857
 20
134.2943006391695
 30
0.0
  0
SEQEND
  5
6A7
330
6A4
100
AcDbEntity
  8
BEMAßUNG
  0
POLYLINE
  5
6A8
330
1F
100
AcDbEntity
  8
BEMAßUNG
 62
     7
100
AcDb2dPolyline
 66
     1
 10
0.0
 20
0.0
 30
0.0
  0
VERTEX
  5
6A9
330
6A8
100
AcDbEntity
  8
BEMAßUNG
 62
     7
100
AcDbVertex
100
AcDb2dVertex
 10
-43.85072562922829
 20
134.2433132259878
 30
0.0
  0
VERTEX
  5
6AA
330
6A8
100
AcDbEntity
  8
BEMAßUNG
 62
     7
100
AcDbVertex
100
AcDb2dVertex
 10
-47.34990911359655
 20
134.2433132259878
 30
0.0
  0
SEQEND
  5
6AB
330
6A8
100
AcDbEntity
  8
BEMAßUNG
  0
POLYLINE
  5
6AC
330
1F
100
AcDbEntity
  8
BEMAßUNG
 62
     7
100
AcDb2dPolyline
 66
     1
 10
0.0
 20
0.0
 30
0.0
  0
VERTEX
  5
6AD
330
6AC
100
AcDbEntity
  8
BEMAßUNG
 62
     7
100
AcDbVertex
100
AcDb2dVertex
 10
58.23951143292276
 20
175.993391883085
 30
0.0
  0
VERTEX
  5
6AE
330
6AC
100
AcDbEntity
  8
BEMAßUNG
 62
     7
100
AcDbVertex
100
AcDb2dVertex
 10
58.23951143292276
 20
142.2431694522864
 30
0.0
  0
SEQEND
  5
6AF
330
6AC
100
AcDbEntity
  8
BEMAßUNG
  0
POLYLINE
  5
6B0
330
1F
100
AcDbEntity
  8
BEMAßUNG
 62
     7
100
AcDb2dPolyline
 66
     1
 10
0.0
 20
0.0
 30
0.0
  0
VERTEX
  5
6B1
330
6B0
100
AcDbEntity
  8
BEMAßUNG
 62
     7
100
AcDbVertex
100
AcDb2dVertex
 10
101.7398708513011
 20
175.993391883085
 30
0.0
  0
VERTEX
  5
6B2
330
6B0
100
AcDbEntity
  8
BEMAßUNG
 62
     7
100
AcDbVertex
100
AcDb2dVertex
 10
101.7398708513011
 20
142.2431694522864
 30
0.0
  0
SEQEND
  5
6B3
330
6B0
100
AcDbEntity
  8
BEMAßUNG
  0
POLYLINE
  5
6B4
330
1F
100
AcDbEntity
  8
BEMAßUNG
 62
     7
100
AcDb2dPolyline
 66
     1
 10
0.0
 20
0.0
 30
0.0
  0
VERTEX
  5
6B5
330
6B4
100
AcDbEntity
  8
BEMAßUNG
 62
     7
100
AcDbVertex
100
AcDb2dVertex
 10
58.23951143292276
 20
144.2433918910225
 30
0.0
  0
VERTEX
  5
6B6
330
6B4
100
AcDbEntity
  8
BEMAßUNG
 62
     7
100
AcDbVertex
100
AcDb2dVertex
 10
101.7398708513011
 20
144.2433918910225
 30
0.0
  0
SEQEND
  5
6B7
330
6B4
100
AcDbEntity
  8
BEMAßUNG
  0
POLYLINE
  5
6B8
330
1F
100
AcDbEntity
  8
BEMAßUNG
 62
     7
100
AcDb2dPolyline
 66
     1
 10
0.0
 20
0.0
 30
0.0
  0
VERTEX
  5
6B9
330
6B8
100
AcDbEntity
  8
BEMAßUNG
 62
     7
100
AcDbVertex
100
AcDb2dVertex
 10
58.23951143292276
 20
144.2433918910225
 30
0.0
  0
VERTEX
  5
6BA
330
6B8
100
AcDbEntity
  8
BEMAßUNG
 62
     7
100
AcDbVertex
100
AcDb2dVertex
 10
61.7397284459366
 20
143.7820936055475
 30
0.0
  0
VERTEX
  5
6BB
330
6B8
100
AcDbEntity
  8
BEMAßUNG
 62
     7
100
AcDbVertex
100
AcDb2dVertex
 10
61.7397284459366
 20
144.7043456669489
 30
0.0
  0
VERTEX
  5
6BC
330
6B8
100
AcDbEntity
  8
BEMAßUNG
 62
     7
100
AcDbVertex
100
AcDb2dVertex
 10
58.23951143292276
 20
144.2433918910225
 30
0.0
  0
SEQEND
  5
6BD
330
6B8
100
AcDbEntity
  8
BEMAßUNG
  0
POLYLINE
  5
6BE
330
1F
100
AcDbEntity
  8
BEMAßUNG
 62
     7
100
AcDb2dPolyline
 66
     1
 10
0.0
 20
0.0
 30
0.0
  0
VERTEX
  5
6BF
330
6BE
100
AcDbEntity
  8
BEMAßUNG
 62
     7
100
AcDbVertex
100
AcDb2dVertex
 10
61.7397284459366
 20
143.7858832105813
 30
0.0
  0
VERTEX
  5
6C0
330
6BE
100
AcDbEntity
  8
BEMAßUNG
 62
     7
100
AcDbVertex
100
AcDb2dVertex
 10
61.71285670115165
 20
143.7858832105813
 30
0.0
  0
SEQEND
  5
6C1
330
6BE
100
AcDbEntity
  8
BEMAßUNG
  0
POLYLINE
  5
6C2
330
1F
100
AcDbEntity
  8
BEMAßUNG
 62
     7
100
AcDb2dPolyline
 66
     1
 10
0.0
 20
0.0
 30
0.0
  0
VERTEX
  5
6C3
330
6C2
100
AcDbEntity
  8
BEMAßUNG
 62
     7
100
AcDbVertex
100
AcDb2dVertex
 10
61.7397284459366
 20
143.7858832105813
 30
0.0
  0
VERTEX
  5
6C4
330
6C2
100
AcDbEntity
  8
BEMAßUNG
 62
     7
100
AcDbVertex
100
AcDb2dVertex
 10
61.71285670115165
 20
143.7858832105813
 30
0.0
  0
SEQEND
  5
6C5
330
6C2
100
AcDbEntity
  8
BEMAßUNG
  0
POLYLINE
  5
6C6
330
1F
100
AcDbEntity
  8
BEMAßUNG
 62
     7
100
AcDb2dPolyline
 66
     1
 10
0.0
 20
0.0
 30
0.0
  0
VERTEX
  5
6C7
330
6C6
100
AcDbEntity
  8
BEMAßUNG
 62
     7
100
AcDbVertex
100
AcDb2dVertex
 10
61.7397284459366
 20
143.8372151333115
 30
0.0
  0
VERTEX
  5
6C8
330
6C6
100
AcDbEntity
  8
BEMAßUNG
 62
     7
100
AcDbVertex
100
AcDb2dVertex
 10
61.32631698770662
 20
143.8372151333115
 30
0.0
  0
SEQEND
  5
6C9
330
6C6
100
AcDbEntity
  8
BEMAßUNG
  0
POLYLINE
  5
6CA
330
1F
100
AcDbEntity
  8
BEMAßUNG
 62
     7
100
AcDb2dPolyline
 66
     1
 10
0.0
 20
0.0
 30
0.0
  0
VERTEX
  5
6CB
330
6CA
100
AcDbEntity
  8
BEMAßUNG
 62
     7
100
AcDbVertex
100
AcDb2dVertex
 10
61.7397284459366
 20
143.8882025464932
 30
0.0
  0
VERTEX
  5
6CC
330
6CA
100
AcDbEntity
  8
BEMAßUNG
 62
     7
100
AcDbVertex
100
AcDb2dVertex
 10
60.94081080290716
 20
143.8882025464932
 30
0.0
  0
SEQEND
  5
6CD
330
6CA
100
AcDbEntity
  8
BEMAßUNG
  0
POLYLINE
  5
6CE
330
1F
100
AcDbEntity
  8
BEMAßUNG
 62
     7
100
AcDb2dPolyline
 66
     1
 10
0.0
 20
0.0
 30
0.0
  0
VERTEX
  5
6CF
330
6CE
100
AcDbEntity
  8
BEMAßUNG
 62
     7
100
AcDbVertex
100
AcDb2dVertex
 10
61.7397284459366
 20
143.9388454501264
 30
0.0
  0
VERTEX
  5
6D0
330
6CE
100
AcDbEntity
  8
BEMAßUNG
 62
     7
100
AcDbVertex
100
AcDb2dVertex
 10
60.55496010855918
 20
143.9388454501264
 30
0.0
  0
SEQEND
  5
6D1
330
6CE
100
AcDbEntity
  8
BEMAßUNG
  0
POLYLINE
  5
6D2
330
1F
100
AcDbEntity
  8
BEMAßUNG
 62
     7
100
AcDb2dPolyline
 66
     1
 10
0.0
 20
0.0
 30
0.0
  0
VERTEX
  5
6D3
330
6D2
100
AcDbEntity
  8
BEMAßUNG
 62
     7
100
AcDbVertex
100
AcDb2dVertex
 10
61.7397284459366
 20
143.9894883537596
 30
0.0
  0
VERTEX
  5
6D4
330
6D2
100
AcDbEntity
  8
BEMAßUNG
 62
     7
100
AcDbVertex
100
AcDb2dVertex
 10
60.16945392375973
 20
143.9894883537596
 30
0.0
  0
SEQEND
  5
6D5
330
6D2
100
AcDbEntity
  8
BEMAßUNG
  0
POLYLINE
  5
6D6
330
1F
100
AcDbEntity
  8
BEMAßUNG
 62
     7
100
AcDb2dPolyline
 66
     1
 10
0.0
 20
0.0
 30
0.0
  0
VERTEX
  5
6D7
330
6D6
100
AcDbEntity
  8
BEMAßUNG
 62
     7
100
AcDbVertex
100
AcDb2dVertex
 10
61.7397284459366
 20
144.0404757669413
 30
0.0
  0
VERTEX
  5
6D8
330
6D6
100
AcDbEntity
  8
BEMAßUNG
 62
     7
100
AcDbVertex
100
AcDb2dVertex
 10
59.78291421031469
 20
144.0404757669413
 30
0.0
  0
SEQEND
  5
6D9
330
6D6
100
AcDbEntity
  8
BEMAßUNG
  0
POLYLINE
  5
6DA
330
1F
100
AcDbEntity
  8
BEMAßUNG
 62
     7
100
AcDb2dPolyline
 66
     1
 10
0.0
 20
0.0
 30
0.0
  0
VERTEX
  5
6DB
330
6DA
100
AcDbEntity
  8
BEMAßUNG
 62
     7
100
AcDbVertex
100
AcDb2dVertex
 10
61.7397284459366
 20
144.0911186705744
 30
0.0
  0
VERTEX
  5
6DC
330
6DA
100
AcDbEntity
  8
BEMAßUNG
 62
     7
100
AcDbVertex
100
AcDb2dVertex
 10
59.39740802551523
 20
144.0911186705744
 30
0.0
  0
SEQEND
  5
6DD
330
6DA
100
AcDbEntity
  8
BEMAßUNG
  0
POLYLINE
  5
6DE
330
1F
100
AcDbEntity
  8
BEMAßUNG
 62
     7
100
AcDb2dPolyline
 66
     1
 10
0.0
 20
0.0
 30
0.0
  0
VERTEX
  5
6DF
330
6DE
100
AcDbEntity
  8
BEMAßUNG
 62
     7
100
AcDbVertex
100
AcDb2dVertex
 10
61.7397284459366
 20
144.1417615742076
 30
0.0
  0
VERTEX
  5
6E0
330
6DE
100
AcDbEntity
  8
BEMAßUNG
 62
     7
100
AcDbVertex
100
AcDb2dVertex
 10
59.01155733116725
 20
144.1417615742076
 30
0.0
  0
SEQEND
  5
6E1
330
6DE
100
AcDbEntity
  8
BEMAßUNG
  0
POLYLINE
  5
6E2
330
1F
100
AcDbEntity
  8
BEMAßUNG
 62
     7
100
AcDb2dPolyline
 66
     1
 10
0.0
 20
0.0
 30
0.0
  0
VERTEX
  5
6E3
330
6E2
100
AcDbEntity
  8
BEMAßUNG
 62
     7
100
AcDbVertex
100
AcDb2dVertex
 10
61.7397284459366
 20
144.1924044778408
 30
0.0
  0
VERTEX
  5
6E4
330
6E2
100
AcDbEntity
  8
BEMAßUNG
 62
     7
100
AcDbVertex
100
AcDb2dVertex
 10
58.62605114636779
 20
144.1924044778408
 30
0.0
  0
SEQEND
  5
6E5
330
6E2
100
AcDbEntity
  8
BEMAßUNG
  0
POLYLINE
  5
6E6
330
1F
100
AcDbEntity
  8
BEMAßUNG
 62
     7
100
AcDb2dPolyline
 66
     1
 10
0.0
 20
0.0
 30
0.0
  0
VERTEX
  5
6E7
330
6E6
100
AcDbEntity
  8
BEMAßUNG
 62
     7
100
AcDbVertex
100
AcDb2dVertex
 10
61.7397284459366
 20
144.2433918910225
 30
0.0
  0
VERTEX
  5
6E8
330
6E6
100
AcDbEntity
  8
BEMAßUNG
 62
     7
100
AcDbVertex
100
AcDb2dVertex
 10
58.23951143292276
 20
144.2433918910225
 30
0.0
  0
SEQEND
  5
6E9
330
6E6
100
AcDbEntity
  8
BEMAßUNG
  0
POLYLINE
  5
6EA
330
1F
100
AcDbEntity
  8
BEMAßUNG
 62
     7
100
AcDb2dPolyline
 66
     1
 10
0.0
 20
0.0
 30
0.0
  0
VERTEX
  5
6EB
330
6EA
100
AcDbEntity
  8
BEMAßUNG
 62
     7
100
AcDbVertex
100
AcDb2dVertex
 10
61.7397284459366
 20
144.7005560619151
 30
0.0
  0
VERTEX
  5
6EC
330
6EA
100
AcDbEntity
  8
BEMAßUNG
 62
     7
100
AcDbVertex
100
AcDb2dVertex
 10
61.71285670115165
 20
144.7005560619151
 30
0.0
  0
SEQEND
  5
6ED
330
6EA
100
AcDbEntity
  8
BEMAßUNG
  0
POLYLINE
  5
6EE
330
1F
100
AcDbEntity
  8
BEMAßUNG
 62
     7
100
AcDb2dPolyline
 66
     1
 10
0.0
 20
0.0
 30
0.0
  0
VERTEX
  5
6EF
330
6EE
100
AcDbEntity
  8
BEMAßUNG
 62
     7
100
AcDbVertex
100
AcDb2dVertex
 10
61.7397284459366
 20
144.7005560619151
 30
0.0
  0
VERTEX
  5
6F0
330
6EE
100
AcDbEntity
  8
BEMAßUNG
 62
     7
100
AcDbVertex
100
AcDb2dVertex
 10
61.71285670115165
 20
144.7005560619151
 30
0.0
  0
SEQEND
  5
6F1
330
6EE
100
AcDbEntity
  8
BEMAßUNG
  0
POLYLINE
  5
6F2
330
1F
100
AcDbEntity
  8
BEMAßUNG
 62
     7
100
AcDb2dPolyline
 66
     1
 10
0.0
 20
0.0
 30
0.0
  0
VERTEX
  5
6F3
330
6F2
100
AcDbEntity
  8
BEMAßUNG
 62
     7
100
AcDbVertex
100
AcDb2dVertex
 10
61.7397284459366
 20
144.649913158282
 30
0.0
  0
VERTEX
  5
6F4
330
6F2
100
AcDbEntity
  8
BEMAßUNG
 62
     7
100
AcDbVertex
100
AcDb2dVertex
 10
61.32631698770662
 20
144.649913158282
 30
0.0
  0
SEQEND
  5
6F5
330
6F2
100
AcDbEntity
  8
BEMAßUNG
  0
POLYLINE
  5
6F6
330
1F
100
AcDbEntity
  8
BEMAßUNG
 62
     7
100
AcDb2dPolyline
 66
     1
 10
0.0
 20
0.0
 30
0.0
  0
VERTEX
  5
6F7
330
6F6
100
AcDbEntity
  8
BEMAßUNG
 62
     7
100
AcDbVertex
100
AcDb2dVertex
 10
61.7397284459366
 20
144.5989257451003
 30
0.0
  0
VERTEX
  5
6F8
330
6F6
100
AcDbEntity
  8
BEMAßUNG
 62
     7
100
AcDbVertex
100
AcDb2dVertex
 10
60.94081080290716
 20
144.5989257451003
 30
0.0
  0
SEQEND
  5
6F9
330
6F6
100
AcDbEntity
  8
BEMAßUNG
  0
POLYLINE
  5
6FA
330
1F
100
AcDbEntity
  8
BEMAßUNG
 62
     7
100
AcDb2dPolyline
 66
     1
 10
0.0
 20
0.0
 30
0.0
  0
VERTEX
  5
6FB
330
6FA
100
AcDbEntity
  8
BEMAßUNG
 62
     7
100
AcDbVertex
100
AcDb2dVertex
 10
61.7397284459366
 20
144.5482828414671
 30
0.0
  0
VERTEX
  5
6FC
330
6FA
100
AcDbEntity
  8
BEMAßUNG
 62
     7
100
AcDbVertex
100
AcDb2dVertex
 10
60.55496010855918
 20
144.5482828414671
 30
0.0
  0
SEQEND
  5
6FD
330
6FA
100
AcDbEntity
  8
BEMAßUNG
  0
POLYLINE
  5
6FE
330
1F
100
AcDbEntity
  8
BEMAßUNG
 62
     7
100
AcDb2dPolyline
 66
     1
 10
0.0
 20
0.0
 30
0.0
  0
VERTEX
  5
6FF
330
6FE
100
AcDbEntity
  8
BEMAßUNG
 62
     7
100
AcDbVertex
100
AcDb2dVertex
 10
61.7397284459366
 20
144.4976399378339
 30
0.0
  0
VERTEX
  5
700
330
6FE
100
AcDbEntity
  8
BEMAßUNG
 62
     7
100
AcDbVertex
100
AcDb2dVertex
 10
60.16945392375973
 20
144.4976399378339
 30
0.0
  0
SEQEND
  5
701
330
6FE
100
AcDbEntity
  8
BEMAßUNG
  0
POLYLINE
  5
702
330
1F
100
AcDbEntity
  8
BEMAßUNG
 62
     7
100
AcDb2dPolyline
 66
     1
 10
0.0
 20
0.0
 30
0.0
  0
VERTEX
  5
703
330
702
100
AcDbEntity
  8
BEMAßUNG
 62
     7
100
AcDbVertex
100
AcDb2dVertex
 10
61.7397284459366
 20
144.4469970342008
 30
0.0
  0
VERTEX
  5
704
330
702
100
AcDbEntity
  8
BEMAßUNG
 62
     7
100
AcDbVertex
100
AcDb2dVertex
 10
59.78291421031469
 20
144.4469970342008
 30
0.0
  0
SEQEND
  5
705
330
702
100
AcDbEntity
  8
BEMAßUNG
  0
POLYLINE
  5
706
330
1F
100
AcDbEntity
  8
BEMAßUNG
 62
     7
100
AcDb2dPolyline
 66
     1
 10
0.0
 20
0.0
 30
0.0
  0
VERTEX
  5
707
330
706
100
AcDbEntity
  8
BEMAßUNG
 62
     7
100
AcDbVertex
100
AcDb2dVertex
 10
61.7397284459366
 20
144.3960096210191
 30
0.0
  0
VERTEX
  5
708
330
706
100
AcDbEntity
  8
BEMAßUNG
 62
     7
100
AcDbVertex
100
AcDb2dVertex
 10
59.39740802551523
 20
144.3960096210191
 30
0.0
  0
SEQEND
  5
709
330
706
100
AcDbEntity
  8
BEMAßUNG
  0
POLYLINE
  5
70A
330
1F
100
AcDbEntity
  8
BEMAßUNG
 62
     7
100
AcDb2dPolyline
 66
     1
 10
0.0
 20
0.0
 30
0.0
  0
VERTEX
  5
70B
330
70A
100
AcDbEntity
  8
BEMAßUNG
 62
     7
100
AcDbVertex
100
AcDb2dVertex
 10
61.7397284459366
 20
144.3453667173859
 30
0.0
  0
VERTEX
  5
70C
330
70A
100
AcDbEntity
  8
BEMAßUNG
 62
     7
100
AcDbVertex
100
AcDb2dVertex
 10
59.01155733116725
 20
144.3453667173859
 30
0.0
  0
SEQEND
  5
70D
330
70A
100
AcDbEntity
  8
BEMAßUNG
  0
POLYLINE
  5
70E
330
1F
100
AcDbEntity
  8
BEMAßUNG
 62
     7
100
AcDb2dPolyline
 66
     1
 10
0.0
 20
0.0
 30
0.0
  0
VERTEX
  5
70F
330
70E
100
AcDbEntity
  8
BEMAßUNG
 62
     7
100
AcDbVertex
100
AcDb2dVertex
 10
61.7397284459366
 20
144.2940347946557
 30
0.0
  0
VERTEX
  5
710
330
70E
100
AcDbEntity
  8
BEMAßUNG
 62
     7
100
AcDbVertex
100
AcDb2dVertex
 10
58.62605114636779
 20
144.2940347946557
 30
0.0
  0
SEQEND
  5
711
330
70E
100
AcDbEntity
  8
BEMAßUNG
  0
POLYLINE
  5
712
330
1F
100
AcDbEntity
  8
BEMAßUNG
 62
     7
100
AcDb2dPolyline
 66
     1
 10
0.0
 20
0.0
 30
0.0
  0
VERTEX
  5
713
330
712
100
AcDbEntity
  8
BEMAßUNG
 62
     7
100
AcDbVertex
100
AcDb2dVertex
 10
61.7397284459366
 20
144.2433918910225
 30
0.0
  0
VERTEX
  5
714
330
712
100
AcDbEntity
  8
BEMAßUNG
 62
     7
100
AcDbVertex
100
AcDb2dVertex
 10
58.23951143292276
 20
144.2433918910225
 30
0.0
  0
SEQEND
  5
715
330
712
100
AcDbEntity
  8
BEMAßUNG
  0
POLYLINE
  5
716
330
1F
100
AcDbEntity
  8
BEMAßUNG
 62
     7
100
AcDb2dPolyline
 66
     1
 10
0.0
 20
0.0
 30
0.0
  0
VERTEX
  5
717
330
716
100
AcDbEntity
  8
BEMAßUNG
 62
     7
100
AcDbVertex
100
AcDb2dVertex
 10
101.7398708513011
 20
144.2433918910225
 30
0.0
  0
VERTEX
  5
718
330
716
100
AcDbEntity
  8
BEMAßUNG
 62
     7
100
AcDbVertex
100
AcDb2dVertex
 10
98.23982609306158
 20
144.7043456669489
 30
0.0
  0
VERTEX
  5
719
330
716
100
AcDbEntity
  8
BEMAßUNG
 62
     7
100
AcDbVertex
100
AcDb2dVertex
 10
98.23982609306158
 20
143.7820936055475
 30
0.0
  0
VERTEX
  5
71A
330
716
100
AcDbEntity
  8
BEMAßUNG
 62
     7
100
AcDbVertex
100
AcDb2dVertex
 10
101.7398708513011
 20
144.2433918910225
 30
0.0
  0
SEQEND
  5
71B
330
716
100
AcDbEntity
  8
BEMAßUNG
  0
POLYLINE
  5
71C
330
1F
100
AcDbEntity
  8
BEMAßUNG
 62
     7
100
AcDb2dPolyline
 66
     1
 10
0.0
 20
0.0
 30
0.0
  0
VERTEX
  5
71D
330
71C
100
AcDbEntity
  8
BEMAßUNG
 62
     7
100
AcDbVertex
100
AcDb2dVertex
 10
98.23982609306158
 20
144.7005560619151
 30
0.0
  0
VERTEX
  5
71E
330
71C
100
AcDbEntity
  8
BEMAßUNG
 62
     7
100
AcDbVertex
100
AcDb2dVertex
 10
98.26704234739505
 20
144.7005560619151
 30
0.0
  0
SEQEND
  5
71F
330
71C
100
AcDbEntity
  8
BEMAßUNG
  0
POLYLINE
  5
720
330
1F
100
AcDbEntity
  8
BEMAßUNG
 62
     7
100
AcDb2dPolyline
 66
     1
 10
0.0
 20
0.0
 30
0.0
  0
VERTEX
  5
721
330
720
100
AcDbEntity
  8
BEMAßUNG
 62
     7
100
AcDbVertex
100
AcDb2dVertex
 10
98.23982609306158
 20
144.7005560619151
 30
0.0
  0
VERTEX
  5
722
330
720
100
AcDbEntity
  8
BEMAßUNG
 62
     7
100
AcDbVertex
100
AcDb2dVertex
 10
98.26704234739505
 20
144.7005560619151
 30
0.0
  0
SEQEND
  5
723
330
720
100
AcDbEntity
  8
BEMAßUNG
  0
POLYLINE
  5
724
330
1F
100
AcDbEntity
  8
BEMAßUNG
 62
     7
100
AcDb2dPolyline
 66
     1
 10
0.0
 20
0.0
 30
0.0
  0
VERTEX
  5
725
330
724
100
AcDbEntity
  8
BEMAßUNG
 62
     7
100
AcDbVertex
100
AcDb2dVertex
 10
98.23982609306158
 20
144.649913158282
 30
0.0
  0
VERTEX
  5
726
330
724
100
AcDbEntity
  8
BEMAßUNG
 62
     7
100
AcDbVertex
100
AcDb2dVertex
 10
98.65289304174303
 20
144.649913158282
 30
0.0
  0
SEQEND
  5
727
330
724
100
AcDbEntity
  8
BEMAßUNG
  0
POLYLINE
  5
728
330
1F
100
AcDbEntity
  8
BEMAßUNG
 62
     7
100
AcDb2dPolyline
 66
     1
 10
0.0
 20
0.0
 30
0.0
  0
VERTEX
  5
729
330
728
100
AcDbEntity
  8
BEMAßUNG
 62
     7
100
AcDbVertex
100
AcDb2dVertex
 10
98.23982609306158
 20
144.5989257451003
 30
0.0
  0
VERTEX
  5
72A
330
728
100
AcDbEntity
  8
BEMAßUNG
 62
     7
100
AcDbVertex
100
AcDb2dVertex
 10
99.038743736091
 20
144.5989257451003
 30
0.0
  0
SEQEND
  5
72B
330
728
100
AcDbEntity
  8
BEMAßUNG
  0
POLYLINE
  5
72C
330
1F
100
AcDbEntity
  8
BEMAßUNG
 62
     7
100
AcDb2dPolyline
 66
     1
 10
0.0
 20
0.0
 30
0.0
  0
VERTEX
  5
72D
330
72C
100
AcDbEntity
  8
BEMAßUNG
 62
     7
100
AcDbVertex
100
AcDb2dVertex
 10
98.23982609306158
 20
144.5482828414671
 30
0.0
  0
VERTEX
  5
72E
330
72C
100
AcDbEntity
  8
BEMAßUNG
 62
     7
100
AcDbVertex
100
AcDb2dVertex
 10
99.424594430439
 20
144.5482828414671
 30
0.0
  0
SEQEND
  5
72F
330
72C
100
AcDbEntity
  8
BEMAßUNG
  0
POLYLINE
  5
730
330
1F
100
AcDbEntity
  8
BEMAßUNG
 62
     7
100
AcDb2dPolyline
 66
     1
 10
0.0
 20
0.0
 30
0.0
  0
VERTEX
  5
731
330
730
100
AcDbEntity
  8
BEMAßUNG
 62
     7
100
AcDbVertex
100
AcDb2dVertex
 10
98.23982609306158
 20
144.4976399378339
 30
0.0
  0
VERTEX
  5
732
330
730
100
AcDbEntity
  8
BEMAßUNG
 62
     7
100
AcDbVertex
100
AcDb2dVertex
 10
99.81044512478698
 20
144.4976399378339
 30
0.0
  0
SEQEND
  5
733
330
730
100
AcDbEntity
  8
BEMAßUNG
  0
POLYLINE
  5
734
330
1F
100
AcDbEntity
  8
BEMAßUNG
 62
     7
100
AcDb2dPolyline
 66
     1
 10
0.0
 20
0.0
 30
0.0
  0
VERTEX
  5
735
330
734
100
AcDbEntity
  8
BEMAßUNG
 62
     7
100
AcDbVertex
100
AcDb2dVertex
 10
98.23982609306158
 20
144.4469970342008
 30
0.0
  0
VERTEX
  5
736
330
734
100
AcDbEntity
  8
BEMAßUNG
 62
     7
100
AcDbVertex
100
AcDb2dVertex
 10
100.196295819135
 20
144.4469970342008
 30
0.0
  0
SEQEND
  5
737
330
734
100
AcDbEntity
  8
BEMAßUNG
  0
POLYLINE
  5
738
330
1F
100
AcDbEntity
  8
BEMAßUNG
 62
     7
100
AcDb2dPolyline
 66
     1
 10
0.0
 20
0.0
 30
0.0
  0
VERTEX
  5
739
330
738
100
AcDbEntity
  8
BEMAßUNG
 62
     7
100
AcDbVertex
100
AcDb2dVertex
 10
98.23982609306158
 20
144.3960096210191
 30
0.0
  0
VERTEX
  5
73A
330
738
100
AcDbEntity
  8
BEMAßUNG
 62
     7
100
AcDbVertex
100
AcDb2dVertex
 10
100.5823187682572
 20
144.3960096210191
 30
0.0
  0
SEQEND
  5
73B
330
738
100
AcDbEntity
  8
BEMAßUNG
  0
POLYLINE
  5
73C
330
1F
100
AcDbEntity
  8
BEMAßUNG
 62
     7
100
AcDb2dPolyline
 66
     1
 10
0.0
 20
0.0
 30
0.0
  0
VERTEX
  5
73D
330
73C
100
AcDbEntity
  8
BEMAßUNG
 62
     7
100
AcDbVertex
100
AcDb2dVertex
 10
98.23982609306158
 20
144.3453667173859
 30
0.0
  0
VERTEX
  5
73E
330
73C
100
AcDbEntity
  8
BEMAßUNG
 62
     7
100
AcDbVertex
100
AcDb2dVertex
 10
100.9681694626052
 20
144.3453667173859
 30
0.0
  0
SEQEND
  5
73F
330
73C
100
AcDbEntity
  8
BEMAßUNG
  0
POLYLINE
  5
740
330
1F
100
AcDbEntity
  8
BEMAßUNG
 62
     7
100
AcDb2dPolyline
 66
     1
 10
0.0
 20
0.0
 30
0.0
  0
VERTEX
  5
741
330
740
100
AcDbEntity
  8
BEMAßUNG
 62
     7
100
AcDbVertex
100
AcDb2dVertex
 10
98.23982609306158
 20
144.2940347946557
 30
0.0
  0
VERTEX
  5
742
330
740
100
AcDbEntity
  8
BEMAßUNG
 62
     7
100
AcDbVertex
100
AcDb2dVertex
 10
101.3540201569532
 20
144.2940347946557
 30
0.0
  0
SEQEND
  5
743
330
740
100
AcDbEntity
  8
BEMAßUNG
  0
POLYLINE
  5
744
330
1F
100
AcDbEntity
  8
BEMAßUNG
 62
     7
100
AcDb2dPolyline
 66
     1
 10
0.0
 20
0.0
 30
0.0
  0
VERTEX
  5
745
330
744
100
AcDbEntity
  8
BEMAßUNG
 62
     7
100
AcDbVertex
100
AcDb2dVertex
 10
98.23982609306158
 20
144.2433918910225
 30
0.0
  0
VERTEX
  5
746
330
744
100
AcDbEntity
  8
BEMAßUNG
 62
     7
100
AcDbVertex
100
AcDb2dVertex
 10
101.7398708513011
 20
144.2433918910225
 30
0.0
  0
SEQEND
  5
747
330
744
100
AcDbEntity
  8
BEMAßUNG
  0
POLYLINE
  5
748
330
1F
100
AcDbEntity
  8
BEMAßUNG
 62
     7
100
AcDb2dPolyline
 66
     1
 10
0.0
 20
0.0
 30
0.0
  0
VERTEX
  5
749
330
748
100
AcDbEntity
  8
BEMAßUNG
 62
     7
100
AcDbVertex
100
AcDb2dVertex
 10
98.23982609306158
 20
143.7858832105813
 30
0.0
  0
VERTEX
  5
74A
330
748
100
AcDbEntity
  8
BEMAßUNG
 62
     7
100
AcDbVertex
100
AcDb2dVertex
 10
98.26704234739505
 20
143.7858832105813
 30
0.0
  0
SEQEND
  5
74B
330
748
100
AcDbEntity
  8
BEMAßUNG
  0
POLYLINE
  5
74C
330
1F
100
AcDbEntity
  8
BEMAßUNG
 62
     7
100
AcDb2dPolyline
 66
     1
 10
0.0
 20
0.0
 30
0.0
  0
VERTEX
  5
74D
330
74C
100
AcDbEntity
  8
BEMAßUNG
 62
     7
100
AcDbVertex
100
AcDb2dVertex
 10
98.23982609306158
 20
143.7858832105813
 30
0.0
  0
VERTEX
  5
74E
330
74C
100
AcDbEntity
  8
BEMAßUNG
 62
     7
100
AcDbVertex
100
AcDb2dVertex
 10
98.26704234739505
 20
143.7858832105813
 30
0.0
  0
SEQEND
  5
74F
330
74C
100
AcDbEntity
  8
BEMAßUNG
  0
POLYLINE
  5
750
330
1F
100
AcDbEntity
  8
BEMAßUNG
 62
     7
100
AcDb2dPolyline
 66
     1
 10
0.0
 20
0.0
 30
0.0
  0
VERTEX
  5
751
330
750
100
AcDbEntity
  8
BEMAßUNG
 62
     7
100
AcDbVertex
100
AcDb2dVertex
 10
98.23982609306158
 20
143.8372151333115
 30
0.0
  0
VERTEX
  5
752
330
750
100
AcDbEntity
  8
BEMAßUNG
 62
     7
100
AcDbVertex
100
AcDb2dVertex
 10
98.65289304174303
 20
143.8372151333115
 30
0.0
  0
SEQEND
  5
753
330
750
100
AcDbEntity
  8
BEMAßUNG
  0
POLYLINE
  5
754
330
1F
100
AcDbEntity
  8
BEMAßUNG
 62
     7
100
AcDb2dPolyline
 66
     1
 10
0.0
 20
0.0
 30
0.0
  0
VERTEX
  5
755
330
754
100
AcDbEntity
  8
BEMAßUNG
 62
     7
100
AcDbVertex
100
AcDb2dVertex
 10
98.23982609306158
 20
143.8882025464932
 30
0.0
  0
VERTEX
  5
756
330
754
100
AcDbEntity
  8
BEMAßUNG
 62
     7
100
AcDbVertex
100
AcDb2dVertex
 10
99.038743736091
 20
143.8882025464932
 30
0.0
  0
SEQEND
  5
757
330
754
100
AcDbEntity
  8
BEMAßUNG
  0
POLYLINE
  5
758
330
1F
100
AcDbEntity
  8
BEMAßUNG
 62
     7
100
AcDb2dPolyline
 66
     1
 10
0.0
 20
0.0
 30
0.0
  0
VERTEX
  5
759
330
758
100
AcDbEntity
  8
BEMAßUNG
 62
     7
100
AcDbVertex
100
AcDb2dVertex
 10
98.23982609306158
 20
143.9388454501264
 30
0.0
  0
VERTEX
  5
75A
330
758
100
AcDbEntity
  8
BEMAßUNG
 62
     7
100
AcDbVertex
100
AcDb2dVertex
 10
99.424594430439
 20
143.9388454501264
 30
0.0
  0
SEQEND
  5
75B
330
758
100
AcDbEntity
  8
BEMAßUNG
  0
POLYLINE
  5
75C
330
1F
100
AcDbEntity
  8
BEMAßUNG
 62
     7
100
AcDb2dPolyline
 66
     1
 10
0.0
 20
0.0
 30
0.0
  0
VERTEX
  5
75D
330
75C
100
AcDbEntity
  8
BEMAßUNG
 62
     7
100
AcDbVertex
100
AcDb2dVertex
 10
98.23982609306158
 20
143.9894883537596
 30
0.0
  0
VERTEX
  5
75E
330
75C
100
AcDbEntity
  8
BEMAßUNG
 62
     7
100
AcDbVertex
100
AcDb2dVertex
 10
99.81044512478698
 20
143.9894883537596
 30
0.0
  0
SEQEND
  5
75F
330
75C
100
AcDbEntity
  8
BEMAßUNG
  0
POLYLINE
  5
760
330
1F
100
AcDbEntity
  8
BEMAßUNG
 62
     7
100
AcDb2dPolyline
 66
     1
 10
0.0
 20
0.0
 30
0.0
  0
VERTEX
  5
761
330
760
100
AcDbEntity
  8
BEMAßUNG
 62
     7
100
AcDbVertex
100
AcDb2dVertex
 10
98.23982609306158
 20
144.0404757669413
 30
0.0
  0
VERTEX
  5
762
330
760
100
AcDbEntity
  8
BEMAßUNG
 62
     7
100
AcDbVertex
100
AcDb2dVertex
 10
100.196295819135
 20
144.0404757669413
 30
0.0
  0
SEQEND
  5
763
330
760
100
AcDbEntity
  8
BEMAßUNG
  0
POLYLINE
  5
764
330
1F
100
AcDbEntity
  8
BEMAßUNG
 62
     7
100
AcDb2dPolyline
 66
     1
 10
0.0
 20
0.0
 30
0.0
  0
VERTEX
  5
765
330
764
100
AcDbEntity
  8
BEMAßUNG
 62
     7
100
AcDbVertex
100
AcDb2dVertex
 10
98.23982609306158
 20
144.0911186705744
 30
0.0
  0
VERTEX
  5
766
330
764
100
AcDbEntity
  8
BEMAßUNG
 62
     7
100
AcDbVertex
100
AcDb2dVertex
 10
100.5823187682572
 20
144.0911186705744
 30
0.0
  0
SEQEND
  5
767
330
764
100
AcDbEntity
  8
BEMAßUNG
  0
POLYLINE
  5
768
330
1F
100
AcDbEntity
  8
BEMAßUNG
 62
     7
100
AcDb2dPolyline
 66
     1
 10
0.0
 20
0.0
 30
0.0
  0
VERTEX
  5
769
330
768
100
AcDbEntity
  8
BEMAßUNG
 62
     7
100
AcDbVertex
100
AcDb2dVertex
 10
98.23982609306158
 20
144.1417615742076
 30
0.0
  0
VERTEX
  5
76A
330
768
100
AcDbEntity
  8
BEMAßUNG
 62
     7
100
AcDbVertex
100
AcDb2dVertex
 10
100.9681694626052
 20
144.1417615742076
 30
0.0
  0
SEQEND
  5
76B
330
768
100
AcDbEntity
  8
BEMAßUNG
  0
POLYLINE
  5
76C
330
1F
100
AcDbEntity
  8
BEMAßUNG
 62
     7
100
AcDb2dPolyline
 66
     1
 10
0.0
 20
0.0
 30
0.0
  0
VERTEX
  5
76D
330
76C
100
AcDbEntity
  8
BEMAßUNG
 62
     7
100
AcDbVertex
100
AcDb2dVertex
 10
98.23982609306158
 20
144.1924044778408
 30
0.0
  0
VERTEX
  5
76E
330
76C
100
AcDbEntity
  8
BEMAßUNG
 62
     7
100
AcDbVertex
100
AcDb2dVertex
 10
101.3540201569532
 20
144.1924044778408
 30
0.0
  0
SEQEND
  5
76F
330
76C
100
AcDbEntity
  8
BEMAßUNG
  0
POLYLINE
  5
770
330
1F
100
AcDbEntity
  8
BEMAßUNG
 62
     7
100
AcDb2dPolyline
 66
     1
 10
0.0
 20
0.0
 30
0.0
  0
VERTEX
  5
771
330
770
100
AcDbEntity
  8
BEMAßUNG
 62
     7
100
AcDbVertex
100
AcDb2dVertex
 10
98.23982609306158
 20
144.2433918910225
 30
0.0
  0
VERTEX
  5
772
330
770
100
AcDbEntity
  8
BEMAßUNG
 62
     7
100
AcDbVertex
100
AcDb2dVertex
 10
101.7398708513011
 20
144.2433918910225
 30
0.0
  0
SEQEND
  5
773
330
770
100
AcDbEntity
  8
BEMAßUNG
  0
MTEXT
  5
775
330
1F
100
AcDbEntity
  8
TEXT
 62
     7
100
AcDbMText
 10
-58.37421466639604
 20
184.2654106527184
 30
0.0
 40
4.361611543412703
 41
0.0
 71
     7
 72
     1
  1
\fINDEX Univers 45 Light|b0|i0|c0|p34;\W1;ø12
 11
-4.371139000186241E-8
 21
0.999999999999999
 31
0.0
  0
MTEXT
  5
776
330
1F
100
AcDbEntity
  8
TEXT
 62
     7
100
AcDbMText
 10
-29.52722438497931
 20
145.519455258759
 30
0.0
 40
4.361611543412703
 41
0.0
 71
     7
 72
     1
  1
\fINDEX Univers 45 Light|b0|i0|c0|p34;\W1;45
  0
MTEXT
  5
777
330
1F
100
AcDbEntity
  8
TEXT
 62
     7
100
AcDbMText
 10
-29.92013752507205
 20
209.1219468335702
 30
0.0
 40
4.361611543412703
 41
0.0
 71
     7
 72
     1
  1
\fINDEX Univers 45 Light|b0|i0|c0|p34;\W1;42
  0
MTEXT
  5
778
330
1F
100
AcDbEntity
  8
TEXT
 62
     7
100
AcDbMText
 10
19.09650878428837
 20
216.4134914281015
 30
0.0
 40
4.361611543412703
 41
0.0
 71
     7
 72
     1
  1
\fINDEX Univers 45 Light|b0|i0|c0|p34;\W1;CAPTO C3
  0
MTEXT
  5
779
330
1F
100
AcDbEntity
  8
TEXT
 62
     7
100
AcDbMText
 10
-22.11958007259511
 20
135.7896443345422
 30
0.0
 40
4.361611543412703
 41
0.0
 71
     7
 72
     1
  1
\fINDEX Univers 45 Light|b0|i0|c0|p34;\W1;61
  0
MTEXT
  5
77A
330
1F
100
AcDbEntity
  8
TEXT
 62
     7
100
AcDbMText
 10
73.43858369474799
 20
145.5497720990292
 30
0.0
 40
4.361611543412703
 41
0.0
 71
     7
 72
     1
  1
\fINDEX Univers 45 Light|b0|i0|c0|p34;\W1;ø43,5
  0
ENDSEC
  0
SECTION
  2
OBJECTS
  0
DICTIONARY
  5
C
330
0
100
AcDbDictionary
  3
ACAD_GROUP
350
D
  3
ACAD_LAYOUT
350
1A
  3
ACAD_MLINESTYLE
350
17
  3
ACAD_PLOTSETTINGS
350
19
  3
ACAD_TABLESTYLE
350
79B
  3
ACAD_VISUALSTYLE
350
2A
  3
ACDBHEADERROUNDTRIPXREC
350
77B
  0
DICTIONARY
  5
D
102
{ACAD_REACTORS
330
C
102
}
330
C
100
AcDbDictionary
  0
DICTIONARY
  5
1A
102
{ACAD_REACTORS
330
C
102
}
330
C
100
AcDbDictionary
  0
DICTIONARY
  5
17
102
{ACAD_REACTORS
330
C
102
}
330
C
100
AcDbDictionary
  3
STANDARD
350
18
  0
DICTIONARY
  5
19
102
{ACAD_REACTORS
330
C
102
}
330
C
100
AcDbDictionary
  0
DICTIONARY
  5
79B
102
{ACAD_REACTORS
330
C
102
}
330
C
100
AcDbDictionary
  0
DICTIONARY
  5
2A
102
{ACAD_REACTORS
330
C
102
}
330
C
100
AcDbDictionary
  3
2DWIREFRAME
350
2F
  3
3D_HIDDEN
350
31
  3
3DWIREFRAME
350
30
  3
BASIC
350
32
  3
BRIGHTEN
350
36
  3
COLORCHANGE
350
3A
  3
CONCEPTUAL
350
34
  3
DIM
350
35
  3
FACEPATTERN
350
39
  3
FLAT
350
2B
  3
FLATWITHEDGES
350
2C
  3
GOURAUD
350
2D
  3
GOURAUDWITHEDGES
350
2E
  3
LINEPATTERN
350
38
  3
REALISTIC
350
33
  3
THICKEN
350
37
  0
DICTIONARY
  5
77B
102
{ACAD_REACTORS
330
C
102
}
330
C
100
AcDbDictionary
  3
CEPSNTYPE
350
784
  3
DIMSTYLEDATA
350
79A
  3
FINGERPRINTGUID
350
785
  3
HYPERLINKBASE
350
77E
  3
INSUNITS
350
783
  3
LAYOUTDICT
350
780
  3
LWETCUNION
350
782
  3
PLOTSETDICT
350
781
  3
PSVPSCALE
350
787
  3
PUCSBASE
350
78A
  3
PUCSORGBACK
350
790
  3
PUCSORGBOTTOM
350
78C
  3
PUCSORGFRONT
350
78F
  3
PUCSORGLEFT
350
78D
  3
PUCSORGRIGHT
350
78E
  3
PUCSORGTOP
350
78B
  3
PUCSORTHOREF
350
788
  3
PUCSORTHOVIEW
350
789
  3
STYLESHEET
350
77F
  3
TSTACKALIGN
350
77C
  3
TSTACKSIZE
350
77D
  3
UCSBASE
350
793
  3
UCSORGBACK
350
799
  3
UCSORGBOTTOM
350
795
  3
UCSORGFRONT
350
798
  3
UCSORGLEFT
350
796
  3
UCSORGRIGHT
350
797
  3
UCSORGTOP
350
794
  3
UCSORTHOREF
350
791
  3
UCSORTHOVIEW
350
792
  3
VERSIONGUID
350
786
  0
MLINESTYLE
  5
18
102
{ACAD_REACTORS
330
17
102
}
330
17
100
AcDbMlineStyle
  2
Standard
 70
     0
  3

 62
   256
 51
90.0
 52
90.0
 71
     2
 49
0.5
 62
   256
  6
BYLAYER
 49
-0.5
 62
   256
  6
BYLAYER
  0
VISUALSTYLE
  5
2F
102
{ACAD_REACTORS
330
2A
102
}
330
2A
100
AcDbVisualStyle
  2
2dWireframe
 70
     4
 71
     0
 72
     2
 73
     0
 90
        0
 40
-0.6
 41
-30.0
 62
     5
 63
     7
 74
     1
 91
        4
 64
     7
 65
   257
 75
     1
175
     1
 42
1.0
 92
        0
 66
   257
 43
1.0
 76
     1
 77
     6
 78
     2
 67
     7
 79
     5
170
     0
171
     0
290
     0
174
     0
 93
        1
 44
0.0
173
     0
291
     0
 45
0.0
1001
ACAD
1000
AcDbSavedByObjectVersion
1070
     0
  0
VISUALSTYLE
  5
31
102
{ACAD_REACTORS
330
2A
102
}
330
2A
100
AcDbVisualStyle
  2
3D Hidden
 70
     6
 71
     1
 72
     2
 73
     2
 90
        0
 40
-0.6
 41
-30.0
 62
     5
 63
     7
 74
     2
 91
        2
 64
     7
 65
   257
 75
     2
175
     1
 42
40.0
 92
        0
 66
   257
 43
1.0
 76
     1
 77
     6
 78
     2
 67
     7
 79
     3
170
     0
171
     0
290
     0
174
     0
 93
        1
 44
0.0
173
     0
291
     0
 45
0.0
1001
ACAD
1000
AcDbSavedByObjectVersion
1070
     0
  0
VISUALSTYLE
  5
30
102
{ACAD_REACTORS
330
2A
102
}
330
2A
100
AcDbVisualStyle
  2
3dWireframe
 70
     5
 71
     0
 72
     2
 73
     0
 90
        0
 40
-0.6
 41
-30.0
 62
     5
 63
     7
 74
     1
 91
        4
 64
     7
 65
   257
 75
     1
175
     1
 42
1.0
 92
        0
 66
   257
 43
1.0
 76
     1
 77
     6
 78
     2
 67
     7
 79
     5
170
     0
171
     0
290
     0
174
     0
 93
        1
 44
0.0
173
     0
291
     0
 45
0.0
1001
ACAD
1000
AcDbSavedByObjectVersion
1070
     0
  0
VISUALSTYLE
  5
32
102
{ACAD_REACTORS
330
2A
102
}
330
2A
100
AcDbVisualStyle
  2
Basic
 70
     7
 71
     1
 72
     0
 73
     1
 90
        0
 40
-0.6
 41
-30.0
 62
     5
 63
     7
 74
     0
 91
        4
 64
     7
 65
   257
 75
     1
175
     1
 42
1.0
 92
        8
 66
     7
 43
1.0
 76
     1
 77
     6
 78
     2
 67
     7
 79
     5
170
     0
171
     0
290
     0
174
     0
 93
        1
 44
0.0
173
     0
291
     1
 45
0.0
1001
ACAD
1000
AcDbSavedByObjectVersion
1070
     0
  0
VISUALSTYLE
  5
36
102
{ACAD_REACTORS
330
2A
102
}
330
2A
100
AcDbVisualStyle
  2
Brighten
 70
    12
 71
     2
 72
     2
 73
     0
 90
        0
 40
-0.6
 41
-30.0
 62
     5
 63
     7
 74
     1
 91
        4
 64
     7
 65
   257
 75
     1
175
     1
 42
1.0
 92
        8
 66
     7
 43
1.0
 76
     1
 77
     6
 78
     2
 67
     7
 79
     5
170
     0
171
     0
290
     0
174
     0
 93
        1
 44
50.0
173
     0
291
     1
 45
0.0
1001
ACAD
1000
AcDbSavedByObjectVersion
1070
     0
  0
VISUALSTYLE
  5
3A
102
{ACAD_REACTORS
330
2A
102
}
330
2A
100
AcDbVisualStyle
  2
ColorChange
 70
    16
 71
     2
 72
     2
 73
     3
 90
        0
 40
-0.6
 41
-30.0
 62
     5
 63
     8
 74
     1
 91
        4
 64
     7
 65
   257
 75
     1
175
     1
 42
1.0
 92
        8
 66
     8
 43
1.0
 76
     1
 77
     6
 78
     2
 67
     7
 79
     5
170
     0
171
     0
290
     0
174
     0
 93
        1
 44
0.0
173
     0
291
     1
 45
0.0
1001
ACAD
1000
AcDbSavedByObjectVersion
1070
     0
  0
VISUALSTYLE
  5
34
102
{ACAD_REACTORS
330
2A
102
}
330
2A
100
AcDbVisualStyle
  2
Conceptual
 70
     9
 71
     3
 72
     2
 73
     0
 90
        0
 40
-0.6
 41
-30.0
 62
     5
 63
     7
 74
     2
 91
        2
 64
     7
 65
   257
 75
     1
175
     1
 42
40.0
 92
        8
 66
     7
 43
1.0
 76
     1
 77
     6
 78
     2
 67
     7
 79
     3
170
     0
171
     0
290
     0
174
     0
 93
        1
 44
0.0
173
     0
291
     0
 45
0.0
1001
ACAD
1000
AcDbSavedByObjectVersion
1070
     0
  0
VISUALSTYLE
  5
35
102
{ACAD_REACTORS
330
2A
102
}
330
2A
100
AcDbVisualStyle
  2
Dim
 70
    11
 71
     2
 72
     2
 73
     0
 90
        0
 40
-0.6
 41
-30.0
 62
     5
 63
     7
 74
     1
 91
        4
 64
     7
 65
   257
 75
     1
175
     1
 42
1.0
 92
        8
 66
     7
 43
1.0
 76
     1
 77
     6
 78
     2
 67
     7
 79
     5
170
     0
171
     0
290
     0
174
     0
 93
        1
 44
-50.0
173
     0
291
     1
 45
0.0
1001
ACAD
1000
AcDbSavedByObjectVersion
1070
     0
  0
VISUALSTYLE
  5
39
102
{ACAD_REACTORS
330
2A
102
}
330
2A
100
AcDbVisualStyle
  2
Facepattern
 70
    15
 71
     2
 72
     2
 73
     0
 90
        0
 40
-0.6
 41
-30.0
 62
     5
 63
     7
 74
     1
 91
        4
 64
     7
 65
   257
 75
     1
175
     1
 42
1.0
 92
        8
 66
     7
 43
1.0
 76
     1
 77
     6
 78
     2
 67
     7
 79
     5
170
     0
171
     0
290
     0
174
     0
 93
        1
 44
0.0
173
     0
291
     1
 45
0.0
1001
ACAD
1000
AcDbSavedByObjectVersion
1070
     0
  0
VISUALSTYLE
  5
2B
102
{ACAD_REACTORS
330
2A
102
}
330
2A
100
AcDbVisualStyle
  2
Flat
 70
     0
 71
     2
 72
     1
 73
     1
 90
        2
 40
-0.6
 41
30.0
 62
     5
 63
     7
 74
     0
 91
        4
 64
     7
 65
   257
 75
     1
175
     1
 42
1.0
 92
        8
 66
     7
 43
1.0
 76
     1
 77
     6
 78
     2
 67
     7
 79
     5
170
     0
171
     0
290
     0
174
     0
 93
       13
 44
0.0
173
     0
291
     1
 45
0.0
1001
ACAD
1000
AcDbSavedByObjectVersion
1070
     0
  0
VISUALSTYLE
  5
2C
102
{ACAD_REACTORS
330
2A
102
}
330
2A
100
AcDbVisualStyle
  2
FlatWithEdges
 70
     1
 71
     2
 72
     1
 73
     1
 90
        2
 40
-0.6
 41
30.0
 62
     5
 63
     7
 74
     1
 91
        4
 64
     7
 65
   257
 75
     1
175
     1
 42
1.0
 92
        0
 66
   257
 43
1.0
 76
     1
 77
     6
 78
     2
 67
     7
 79
     5
170
     0
171
     0
290
     0
174
     0
 93
       13
 44
0.0
173
     0
291
     1
 45
0.0
1001
ACAD
1000
AcDbSavedByObjectVersion
1070
     0
  0
VISUALSTYLE
  5
2D
102
{ACAD_REACTORS
330
2A
102
}
330
2A
100
AcDbVisualStyle
  2
Gouraud
 70
     2
 71
     2
 72
     2
 73
     1
 90
        2
 40
-0.6
 41
30.0
 62
     5
 63
     7
 74
     0
 91
        4
 64
     7
 65
   257
 75
     1
175
     1
 42
1.0
 92
        0
 66
     7
 43
1.0
 76
     1
 77
     6
 78
     2
 67
     7
 79
     5
170
     0
171
     0
290
     0
174
     0
 93
       13
 44
0.0
173
     0
291
     1
 45
0.0
1001
ACAD
1000
AcDbSavedByObjectVersion
1070
     0
  0
VISUALSTYLE
  5
2E
102
{ACAD_REACTORS
330
2A
102
}
330
2A
100
AcDbVisualStyle
  2
GouraudWithEdges
 70
     3
 71
     2
 72
     2
 73
     1
 90
        2
 40
-0.6
 41
30.0
 62
     5
 63
     7
 74
     1
 91
        4
 64
     7
 65
   257
 75
     1
175
     1
 42
1.0
 92
        0
 66
   257
 43
1.0
 76
     1
 77
     6
 78
     2
 67
     7
 79
     5
170
     0
171
     0
290
     0
174
     0
 93
       13
 44
0.0
173
     0
291
     1
 45
0.0
1001
ACAD
1000
AcDbSavedByObjectVersion
1070
     0
  0
VISUALSTYLE
  5
38
102
{ACAD_REACTORS
330
2A
102
}
330
2A
100
AcDbVisualStyle
  2
Linepattern
 70
    14
 71
     2
 72
     2
 73
     0
 90
        0
 40
-0.6
 41
-30.0
 62
     5
 63
     7
 74
     1
 91
        4
 64
     7
 65
   257
 75
     7
175
     7
 42
1.0
 92
        8
 66
     7
 43
1.0
 76
     1
 77
     6
 78
     2
 67
     7
 79
     5
170
     0
171
     0
290
     0
174
     0
 93
        1
 44
0.0
173
     0
291
     1
 45
0.0
1001
ACAD
1000
AcDbSavedByObjectVersion
1070
     0
  0
VISUALSTYLE
  5
33
102
{ACAD_REACTORS
330
2A
102
}
330
2A
100
AcDbVisualStyle
  2
Realistic
 70
     8
 71
     2
 72
     2
 73
     0
 90
        0
 40
-0.6
 41
-30.0
 62
     5
 63
     7
 74
     1
 91
        0
 64
     7
 65
   257
 75
     1
175
     1
 42
1.0
 92
        8
 66
     8
 43
1.0
 76
     1
 77
     6
 78
     2
 67
     7
 79
     5
170
     0
171
     0
290
     0
174
     0
 93
       13
 44
0.0
173
     0
291
     0
 45
0.0
1001
ACAD
1000
AcDbSavedByObjectVersion
1070
     0
  0
VISUALSTYLE
  5
37
102
{ACAD_REACTORS
330
2A
102
}
330
2A
100
AcDbVisualStyle
  2
Thicken
 70
    13
 71
     2
 72
     2
 73
     0
 90
        0
 40
-0.6
 41
-30.0
 62
     5
 63
     7
 74
     1
 91
        4
 64
     7
 65
   257
 75
     1
175
     1
 42
1.0
 92
       12
 66
     7
 43
1.0
 76
     1
 77
     6
 78
     2
 67
     7
 79
     5
170
     0
171
     0
290
     0
174
     0
 93
        1
 44
0.0
173
     0
291
     1
 45
0.0
1001
ACAD
1000
AcDbSavedByObjectVersion
1070
     0
  0
XRECORD
  5
784
102
{ACAD_REACTORS
330
77B
102
}
330
77B
100
AcDbXrecord
 90
        0
  0
XRECORD
  5
79A
102
{ACAD_REACTORS
330
77B
102
}
330
77B
100
AcDbXrecord
1000
DSTYLE
1002
{
1070
   340
340
11
1002
}
  0
XRECORD
  5
785
102
{ACAD_REACTORS
330
77B
102
}
330
77B
100
AcDbXrecord
  1
{B0B81507-9DAB-4001-8B1A-0E9F672A1355}
  0
XRECORD
  5
77E
102
{ACAD_REACTORS
330
77B
102
}
330
77B
100
AcDbXrecord
  1

  0
XRECORD
  5
783
102
{ACAD_REACTORS
330
77B
102
}
330
77B
100
AcDbXrecord
 90
        1
  0
XRECORD
  5
780
102
{ACAD_REACTORS
330
77B
102
}
330
77B
100
AcDbXrecord
340
1A
  0
XRECORD
  5
782
102
{ACAD_REACTORS
330
77B
102
}
330
77B
100
AcDbXrecord
 90
    10269
  0
XRECORD
  5
781
102
{ACAD_REACTORS
330
77B
102
}
330
77B
100
AcDbXrecord
340
19
  0
XRECORD
  5
787
102
{ACAD_REACTORS
330
77B
102
}
330
77B
100
AcDbXrecord
 40
0.0
  0
XRECORD
  5
78A
102
{ACAD_REACTORS
330
77B
102
}
330
77B
100
AcDbXrecord
340
0
  0
XRECORD
  5
790
102
{ACAD_REACTORS
330
77B
102
}
330
77B
100
AcDbXrecord
 10
0.0
 20
0.0
 30
0.0
  0
XRECORD
  5
78C
102
{ACAD_REACTORS
330
77B
102
}
330
77B
100
AcDbXrecord
 10
0.0
 20
0.0
 30
0.0
  0
XRECORD
  5
78F
102
{ACAD_REACTORS
330
77B
102
}
330
77B
100
AcDbXrecord
 10
0.0
 20
0.0
 30
0.0
  0
XRECORD
  5
78D
102
{ACAD_REACTORS
330
77B
102
}
330
77B
100
AcDbXrecord
 10
0.0
 20
0.0
 30
0.0
  0
XRECORD
  5
78E
102
{ACAD_REACTORS
330
77B
102
}
330
77B
100
AcDbXrecord
 10
0.0
 20
0.0
 30
0.0
  0
XRECORD
  5
78B
102
{ACAD_REACTORS
330
77B
102
}
330
77B
100
AcDbXrecord
 10
0.0
 20
0.0
 30
0.0
  0
XRECORD
  5
788
102
{ACAD_REACTORS
330
77B
102
}
330
77B
100
AcDbXrecord
340
0
  0
XRECORD
  5
789
102
{ACAD_REACTORS
330
77B
102
}
330
77B
100
AcDbXrecord
 70
     0
  0
XRECORD
  5
77F
102
{ACAD_REACTORS
330
77B
102
}
330
77B
100
AcDbXrecord
  1

  0
XRECORD
  5
77C
102
{ACAD_REACTORS
330
77B
102
}
330
77B
100
AcDbXrecord
 90
        1
  0
XRECORD
  5
77D
102
{ACAD_REACTORS
330
77B
102
}
330
77B
100
AcDbXrecord
 90
       70
  0
XRECORD
  5
793
102
{ACAD_REACTORS
330
77B
102
}
330
77B
100
AcDbXrecord
340
0
  0
XRECORD
  5
799
102
{ACAD_REACTORS
330
77B
102
}
330
77B
100
AcDbXrecord
 10
0.0
 20
0.0
 30
0.0
  0
XRECORD
  5
795
102
{ACAD_REACTORS
330
77B
102
}
330
77B
100
AcDbXrecord
 10
0.0
 20
0.0
 30
0.0
  0
XRECORD
  5
798
102
{ACAD_REACTORS
330
77B
102
}
330
77B
100
AcDbXrecord
 10
0.0
 20
0.0
 30
0.0
  0
XRECORD
  5
796
102
{ACAD_REACTORS
330
77B
102
}
330
77B
100
AcDbXrecord
 10
0.0
 20
0.0
 30
0.0
  0
XRECORD
  5
797
102
{ACAD_REACTORS
330
77B
102
}
330
77B
100
AcDbXrecord
 10
0.0
 20
0.0
 30
0.0
  0
XRECORD
  5
794
102
{ACAD_REACTORS
330
77B
102
}
330
77B
100
AcDbXrecord
 10
0.0
 20
0.0
 30
0.0
  0
XRECORD
  5
791
102
{ACAD_REACTORS
330
77B
102
}
330
77B
100
AcDbXrecord
340
0
  0
XRECORD
  5
792
102
{ACAD_REACTORS
330
77B
102
}
330
77B
100
AcDbXrecord
 70
     0
  0
XRECORD
  5
786
102
{ACAD_REACTORS
330
77B
102
}
330
77B
100
AcDbXrecord
  1
{FAEB1C32-E019-11D5-929B-00C0DF256EC4}
  0
ENDSEC
  0
EOF
