  0
SECTION
  2
HEADER
  9
$ACADVER
  1
AC1014
  9
$ACADMAINTVER
 70
     9
  9
$DWGCODEPAGE
  3
ASCII
  9
$INSBASE
 10
0.0
 20
0.0
 30
0.0
  9
$EXTMIN
 10
1.000000000000000E+20
 20
1.000000000000000E+20
 30
1.000000000000000E+20
  9
$EXTMAX
 10
-1.000000000000000E+20
 20
-1.000000000000000E+20
 30
-1.000000000000000E+20
  9
$LIMMIN
 10
0.0
 20
0.0
  9
$LIMMAX
 10
12.0
 20
9.0
  9
$ORTHOMODE
 70
     0
  9
$REGENMODE
 70
     1
  9
$FILLMODE
 70
     1
  9
$QTEXTMODE
 70
     0
  9
$MIRRTEXT
 70
     1
  9
$DRAGMODE
 70
     2
  9
$LTSCALE
 40
1.0
  9
$OSMODE
 70
    37
  9
$ATTMODE
 70
     1
  9
$TEXTSIZE
 40
0.2
  9
$TRACEWID
 40
0.05
  9
$TEXTSTYLE
  7
STANDARD
  9
$CLAYER
  8
0
  9
$CELTYPE
  6
BYLAYER
  9
$CECOLOR
 62
   256
  9
$CELTSCALE
 40
1.0
  9
$DELOBJ
 70
     1
  9
$DISPSILH
 70
     0
  9
$DIMSCALE
 40
1.0
  9
$DIMASZ
 40
0.18
  9
$DIMEXO
 40
0.0625
  9
$DIMDLI
 40
0.38
  9
$DIMRND
 40
0.0
  9
$DIMDLE
 40
0.0
  9
$DIMEXE
 40
0.18
  9
$DIMTP
 40
0.0
  9
$DIMTM
 40
0.0
  9
$DIMTXT
 40
0.18
  9
$DIMCEN
 40
0.09
  9
$DIMTSZ
 40
0.0
  9
$DIMTOL
 70
     0
  9
$DIMLIM
 70
     0
  9
$DIMTIH
 70
     1
  9
$DIMTOH
 70
     1
  9
$DIMSE1
 70
     0
  9
$DIMSE2
 70
     0
  9
$DIMTAD
 70
     0
  9
$DIMZIN
 70
     0
  9
$DIMBLK
  1

  9
$DIMASO
 70
     1
  9
$DIMSHO
 70
     1
  9
$DIMPOST
  1

  9
$DIMAPOST
  1

  9
$DIMALT
 70
     0
  9
$DIMALTD
 70
     2
  9
$DIMALTF
 40
25.4
  9
$DIMLFAC
 40
1.0
  9
$DIMTOFL
 70
     0
  9
$DIMTVP
 40
0.0
  9
$DIMTIX
 70
     0
  9
$DIMSOXD
 70
     0
  9
$DIMSAH
 70
     0
  9
$DIMBLK1
  1

  9
$DIMBLK2
  1

  9
$DIMSTYLE
  2
STANDARD
  9
$DIMCLRD
 70
     0
  9
$DIMCLRE
 70
     0
  9
$DIMCLRT
 70
     0
  9
$DIMTFAC
 40
1.0
  9
$DIMGAP
 40
0.09
  9
$DIMJUST
 70
     0
  9
$DIMSD1
 70
     0
  9
$DIMSD2
 70
     0
  9
$DIMTOLJ
 70
     1
  9
$DIMTZIN
 70
     0
  9
$DIMALTZ
 70
     0
  9
$DIMALTTZ
 70
     0
  9
$DIMFIT
 70
     3
  9
$DIMUPT
 70
     0
  9
$DIMUNIT
 70
     2
  9
$DIMDEC
 70
     4
  9
$DIMTDEC
 70
     4
  9
$DIMALTU
 70
     2
  9
$DIMALTTD
 70
     2
  9
$DIMTXSTY
  7
STANDARD
  9
$DIMAUNIT
 70
     0
  9
$LUNITS
 70
     2
  9
$LUPREC
 70
     4
  9
$SKETCHINC
 40
0.1
  9
$FILLETRAD
 40
0.5
  9
$AUNITS
 70
     0
  9
$AUPREC
 70
     0
  9
$MENU
  1
.
  9
$ELEVATION
 40
0.0
  9
$PELEVATION
 40
0.0
  9
$THICKNESS
 40
0.0
  9
$LIMCHECK
 70
     0
  9
$CHAMFERA
 40
0.5
  9
$CHAMFERB
 40
0.5
  9
$CHAMFERC
 40
1.0
  9
$CHAMFERD
 40
0.0
  9
$SKPOLY
 70
     0
  9
$TDCREATE
 40
2454882.533438449
  9
$TDUPDATE
 40
2454882.53343846
  9
$TDINDWG
 40
0.0000000116
  9
$TDUSRTIMER
 40
0.0000000116
  9
$USRTIMER
 70
     1
  9
$ANGBASE
 50
0.0
  9
$ANGDIR
 70
     0
  9
$PDMODE
 70
     0
  9
$PDSIZE
 40
0.0
  9
$PLINEWID
 40
0.0
  9
$COORDS
 70
     1
  9
$SPLFRAME
 70
     0
  9
$SPLINETYPE
 70
     6
  9
$SPLINESEGS
 70
     8
  9
$ATTDIA
 70
     0
  9
$ATTREQ
 70
     1
  9
$HANDLING
 70
     1
  9
$HANDSEED
  5
821
  9
$SURFTAB1
 70
     6
  9
$SURFTAB2
 70
     6
  9
$SURFTYPE
 70
     6
  9
$SURFU
 70
     6
  9
$SURFV
 70
     6
  9
$UCSNAME
  2

  9
$UCSORG
 10
0.0
 20
0.0
 30
0.0
  9
$UCSXDIR
 10
1.0
 20
0.0
 30
0.0
  9
$UCSYDIR
 10
0.0
 20
1.0
 30
0.0
  9
$PUCSNAME
  2

  9
$PUCSORG
 10
0.0
 20
0.0
 30
0.0
  9
$PUCSXDIR
 10
1.0
 20
0.0
 30
0.0
  9
$PUCSYDIR
 10
0.0
 20
1.0
 30
0.0
  9
$USERI1
 70
     0
  9
$USERI2
 70
     0
  9
$USERI3
 70
     0
  9
$USERI4
 70
     0
  9
$USERI5
 70
     0
  9
$USERR1
 40
0.0
  9
$USERR2
 40
0.0
  9
$USERR3
 40
0.0
  9
$USERR4
 40
0.0
  9
$USERR5
 40
0.0
  9
$WORLDVIEW
 70
     1
  9
$SHADEDGE
 70
     3
  9
$SHADEDIF
 70
    70
  9
$TILEMODE
 70
     1
  9
$MAXACTVP
 70
    64
  9
$PINSBASE
 10
0.0
 20
0.0
 30
0.0
  9
$PLIMCHECK
 70
     0
  9
$PEXTMIN
 10
1.000000000000000E+20
 20
1.000000000000000E+20
 30
1.000000000000000E+20
  9
$PEXTMAX
 10
-1.000000000000000E+20
 20
-1.000000000000000E+20
 30
-1.000000000000000E+20
  9
$PLIMMIN
 10
0.0
 20
0.0
  9
$PLIMMAX
 10
12.0
 20
9.0
  9
$UNITMODE
 70
     0
  9
$VISRETAIN
 70
     1
  9
$PLINEGEN
 70
     0
  9
$PSLTSCALE
 70
     1
  9
$TREEDEPTH
 70
  3020
  9
$PICKSTYLE
 70
     1
  9
$CMLSTYLE
  2
STANDARD
  9
$CMLJUST
 70
     0
  9
$CMLSCALE
 40
1.0
  9
$PROXYGRAPHICS
 70
     1
  9
$MEASUREMENT
 70
     0
  0
ENDSEC
  0
SECTION
  2
CLASSES
  0
CLASS
  1
ACDBDICTIONARYWDFLT
  2
AcDbDictionaryWithDefault
  3
ObjectDBX Classes
 90
        0
280
     0
281
     0
  0
CLASS
  1
VISUALSTYLE
  2
AcDbVisualStyle
  3
ObjectDBX Classes
 90
     4095
280
     0
281
     0
  0
CLASS
  1
XRECORD
  2
AcDbXrecord
  3
AutoCAD 2000
 90
        0
280
     0
281
     0
  0
CLASS
  1
LWPOLYLINE
  2
AcDbPolyline
  3
AutoCAD 2000
 90
        0
280
     0
281
     1
  0
CLASS
  1
HATCH
  2
AcDbHatch
  3
AutoCAD 2000
 90
        0
280
     0
281
     1
  0
CLASS
  1
ACDBPLACEHOLDER
  2
AcDbPlaceHolder
  3
ObjectDBX Classes
 90
        0
280
     0
281
     0
  0
CLASS
  1
LAYOUT
  2
AcDbLayout
  3
ObjectDBX Classes
 90
        0
280
     0
281
     0
  0
ENDSEC
  0
SECTION
  2
TABLES
  0
TABLE
  2
VPORT
  5
8
330
0
100
AcDbSymbolTable
 70
     1
  0
VPORT
  5
29
330
8
100
AcDbSymbolTableRecord
100
AcDbViewportTableRecord
  2
*ACTIVE
 70
     0
 10
0.0
 20
0.0
 11
1.0
 21
1.0
 12
0.0
 22
0.0
 13
0.0
 23
0.0
 14
0.5
 24
0.5
 15
0.5
 25
0.5
 16
0.0
 26
0.0
 36
1.0
 17
15.68019019047473
 27
-95.71635679366487
 37
0.0
 40
205.1427350523724
 41
0.4838768249378627
 42
50.0
 43
0.0
 44
0.0
 50
0.0
 51
0.0
 71
     0
 72
   100
 73
     1
 74
     3
 75
     0
 76
     0
 77
     0
 78
     0
  0
ENDTAB
  0
TABLE
  2
LTYPE
  5
5
330
0
100
AcDbSymbolTable
 70
     5
  0
LTYPE
  5
14
330
5
100
AcDbSymbolTableRecord
100
AcDbLinetypeTableRecord
  2
BYBLOCK
 70
     0
  3

 72
    65
 73
     0
 40
0.0
  0
LTYPE
  5
15
330
5
100
AcDbSymbolTableRecord
100
AcDbLinetypeTableRecord
  2
BYLAYER
 70
     0
  3

 72
    65
 73
     0
 40
0.0
  0
LTYPE
  5
16
330
5
100
AcDbSymbolTableRecord
100
AcDbLinetypeTableRecord
  2
CONTINUOUS
 70
     0
  3
Solid line
 72
    65
 73
     0
 40
0.0
  0
LTYPE
  5
AD
330
5
100
AcDbSymbolTableRecord
100
AcDbLinetypeTableRecord
  2
AI-LINETYPE-1
 70
     0
  3
Adobe Illustrator Linetype No. 1
 72
    65
 73
     4
 40
8.819450260381924
 49
7.055560208305538
 74
     0
 49
-0.7055560208305538
 74
     0
 49
0.3527780104152769
 74
     0
 49
-0.7055560208305538
 74
     0
  0
LTYPE
  5
B2
330
5
100
AcDbSymbolTableRecord
100
AcDbLinetypeTableRecord
  2
AI-LINETYPE-2
 70
     0
  3
Adobe Illustrator Linetype No. 2
 72
    65
 73
     4
 40
8.819450260381924
 49
7.055560208305538
 74
     0
 49
-0.7055560208305538
 74
     0
 49
0.3527780104152769
 74
     0
 49
-0.7055560208305538
 74
     0
  0
LTYPE
  5
B7
330
5
100
AcDbSymbolTableRecord
100
AcDbLinetypeTableRecord
  2
AI-LINETYPE-3
 70
     0
  3
Adobe Illustrator Linetype No. 3
 72
    65
 73
     4
 40
8.819450260381924
 49
7.055560208305538
 74
     0
 49
-0.7055560208305538
 74
     0
 49
0.3527780104152769
 74
     0
 49
-0.7055560208305538
 74
     0
  0
LTYPE
  5
BC
330
5
100
AcDbSymbolTableRecord
100
AcDbLinetypeTableRecord
  2
AI-LINETYPE-4
 70
     0
  3
Adobe Illustrator Linetype No. 4
 72
    65
 73
     4
 40
8.819450260381924
 49
7.055560208305538
 74
     0
 49
-0.7055560208305538
 74
     0
 49
0.3527780104152769
 74
     0
 49
-0.7055560208305538
 74
     0
  0
ENDTAB
  0
TABLE
  2
LAYER
  5
2
330
0
100
AcDbSymbolTable
 70
     5
  0
LAYER
  5
10
330
2
100
AcDbSymbolTableRecord
100
AcDbLayerTableRecord
  2
0
 70
     0
 62
     7
  6
CONTINUOUS
  0
LAYER
  5
3B
330
2
100
AcDbSymbolTableRecord
100
AcDbLayerTableRecord
  2
GRAU_10_
 70
     1
 62
     7
  6
CONTINUOUS
  0
LAYER
  5
88
330
2
100
AcDbSymbolTableRecord
100
AcDbLayerTableRecord
  2
STANDARDEBENE
 70
     0
 62
     7
  6
CONTINUOUS
  0
LAYER
  5
3C6
330
2
100
AcDbSymbolTableRecord
100
AcDbLayerTableRecord
  2
BEMA_UNG
 70
     1
 62
     7
  6
CONTINUOUS
  0
LAYER
  5
7F6
330
2
100
AcDbSymbolTableRecord
100
AcDbLayerTableRecord
  2
TEXT
 70
     1
 62
     7
  6
CONTINUOUS
  0
ENDTAB
  0
TABLE
  2
STYLE
  5
3
330
0
100
AcDbSymbolTable
 70
     1
  0
STYLE
  5
11
330
3
100
AcDbSymbolTableRecord
100
AcDbTextStyleTableRecord
  2
STANDARD
 70
     0
 40
0.0
 41
1.0
 50
0.0
 71
     0
 42
0.2
  3
txt
  4

  0
ENDTAB
  0
TABLE
  2
VIEW
  5
6
330
0
100
AcDbSymbolTable
 70
     0
  0
ENDTAB
  0
TABLE
  2
UCS
  5
7
330
0
100
AcDbSymbolTable
 70
     0
  0
ENDTAB
  0
TABLE
  2
APPID
  5
9
330
0
100
AcDbSymbolTable
 70
     1
  0
APPID
  5
12
330
9
100
AcDbSymbolTableRecord
100
AcDbRegAppTableRecord
  2
ACAD
 70
     0
  0
ENDTAB
  0
TABLE
  2
DIMSTYLE
  5
A
330
0
100
AcDbSymbolTable
 70
     1
  0
DIMSTYLE
105
27
330
A
100
AcDbSymbolTableRecord
100
AcDbDimStyleTableRecord
  2
STANDARD
 70
     0
  3

  4

  5

  6

  7

 40
1.0
 41
0.18
 42
0.0625
 43
0.38
 44
0.18
 45
0.0
 46
0.0
 47
0.0
 48
0.0
140
0.18
141
0.09
142
0.0
143
25.4
144
1.0
145
0.0
146
1.0
147
0.09
 71
     0
 72
     0
 73
     1
 74
     1
 75
     0
 76
     0
 77
     0
 78
     0
170
     0
171
     2
172
     0
173
     0
174
     0
175
     0
176
     0
177
     0
178
     0
270
     2
271
     4
272
     4
273
     2
274
     2
340
11
275
     0
280
     0
281
     0
282
     0
283
     1
284
     0
285
     0
286
     0
287
     3
288
     0
  0
ENDTAB
  0
TABLE
  2
BLOCK_RECORD
  5
1
330
0
100
AcDbSymbolTable
 70
     1
  0
BLOCK_RECORD
  5
1F
330
1
100
AcDbSymbolTableRecord
100
AcDbBlockTableRecord
  2
*MODEL_SPACE
  0
BLOCK_RECORD
  5
1B
330
1
100
AcDbSymbolTableRecord
100
AcDbBlockTableRecord
  2
*PAPER_SPACE
  0
ENDTAB
  0
ENDSEC
  0
SECTION
  2
BLOCKS
  0
BLOCK
  5
20
330
1F
100
AcDbEntity
  8
0
100
AcDbBlockBegin
  2
*MODEL_SPACE
 70
     0
 71
     0
 10
0.0
 20
0.0
 30
0.0
  3
*MODEL_SPACE
  1

  0
ENDBLK
  5
21
330
1F
100
AcDbEntity
  8
0
100
AcDbBlockEnd
  0
BLOCK
  5
1C
330
1B
100
AcDbEntity
 67
     1
  8
0
100
AcDbBlockBegin
  2
*PAPER_SPACE
 70
     0
 71
     0
 10
0.0
 20
0.0
 30
0.0
  3
*PAPER_SPACE
  1

  0
ENDBLK
  5
1D
330
1B
100
AcDbEntity
 67
     1
  8
0
100
AcDbBlockEnd
  0
ENDSEC
  0
SECTION
  2
ENTITIES
  0
SPLINE
  5
3C
330
1F
100
AcDbEntity
  8
GRAU_10_
100
AcDbSpline
210
0.0
220
0.0
230
1.0
 70
    11
 71
     3
 72
    17
 73
    13
 74
     0
 42
0.0000000001
 43
0.0000000001
 40
0.0
 40
0.0
 40
0.0
 40
0.0
 40
1.0
 40
1.0
 40
1.0
 40
2.0
 40
2.0
 40
2.0
 40
3.0
 40
3.0
 40
3.0
 40
4.0
 40
4.0
 40
4.0
 40
4.0
 10
3.440274621100542
 20
-143.588573963861
 30
0.0
 10
3.440274621100542
 20
-147.3774924780673
 30
0.0
 10
0.3687977149897987
 20
-150.4491416390659
 30
0.0
 10
-3.420293054104364
 20
-150.4491416390659
 30
0.0
 10
-7.209383823198527
 20
-150.4491416390659
 30
0.0
 10
-10.28086072930927
 20
-147.3774924780673
 30
0.0
 10
-10.28086072930927
 20
-143.588573963861
 30
0.0
 10
-10.28086072930927
 20
-139.7993109398789
 30
0.0
 10
-7.209383823198527
 20
-136.7276617788803
 30
0.0
 10
-3.420293054104364
 20
-136.7276617788803
 30
0.0
 10
0.3687977149897987
 20
-136.7276617788803
 30
0.0
 10
3.440274621100542
 20
-139.7993109398789
 30
0.0
 10
3.440274621100542
 20
-143.588573963861
 30
0.0
  0
HATCH
  5
3D
330
1F
100
AcDbEntity
  8
GRAU_10_
 62
   255
100
AcDbHatch
 10
0.0
 20
0.0
 30
0.0
210
0.0
220
0.0
230
1.0
  2
SOLID
 70
     1
 71
     0
 91
        1
 92
        1
 93
        1
 72
     4
 94
        3
 73
     0
 74
     1
 95
       17
 96
       13
 40
0.0
 40
0.0
 40
0.0
 40
0.0
 40
1.0
 40
1.0
 40
1.0
 40
2.0
 40
2.0
 40
2.0
 40
3.0
 40
3.0
 40
3.0
 40
4.0
 40
4.0
 40
4.0
 40
4.0
 10
3.440274621100542
 20
-143.588573963861
 10
3.440274621100542
 20
-147.3774924780673
 10
0.3687977149897987
 20
-150.4491416390659
 10
-3.420293054104364
 20
-150.4491416390659
 10
-7.209383823198527
 20
-150.4491416390659
 10
-10.28086072930927
 20
-147.3774924780673
 10
-10.28086072930927
 20
-143.588573963861
 10
-10.28086072930927
 20
-139.7993109398789
 10
-7.209383823198527
 20
-136.7276617788803
 10
-3.420293054104364
 20
-136.7276617788803
 10
0.3687977149897987
 20
-136.7276617788803
 10
3.440274621100542
 20
-139.7993109398789
 10
3.440274621100542
 20
-143.588573963861
 97
        0
 75
     0
 76
     1
 98
        0
  0
POLYLINE
  5
3E
330
1F
100
AcDbEntity
  8
GRAU_10_
100
AcDb2dPolyline
 66
     1
 10
0.0
 20
0.0
 30
0.0
  0
VERTEX
  5
3F
330
3E
100
AcDbEntity
  8
GRAU_10_
100
AcDbVertex
100
AcDb2dVertex
 10
2.128036885092935
 20
-112.5010453253421
 30
0.0
  0
VERTEX
  5
40
330
3E
100
AcDbEntity
  8
GRAU_10_
100
AcDbVertex
100
AcDb2dVertex
 10
1.821250929746447
 20
-113.3654203528147
 30
0.0
  0
VERTEX
  5
41
330
3E
100
AcDbEntity
  8
GRAU_10_
100
AcDbVertex
100
AcDb2dVertex
 10
3.550000984691622
 20
-113.4487917185574
 30
0.0
  0
VERTEX
  5
42
330
3E
100
AcDbEntity
  8
GRAU_10_
100
AcDbVertex
100
AcDb2dVertex
 10
3.577734021643213
 20
-118.857939708333
 30
0.0
  0
VERTEX
  5
43
330
3E
100
AcDbEntity
  8
GRAU_10_
100
AcDbVertex
100
AcDb2dVertex
 10
1.821250929746447
 20
-118.913750292012
 30
0.0
  0
VERTEX
  5
44
330
3E
100
AcDbEntity
  8
GRAU_10_
100
AcDbVertex
100
AcDb2dVertex
 10
1.793345637906957
 20
-120.1126443117827
 30
0.0
  0
VERTEX
  5
45
330
3E
100
AcDbEntity
  8
GRAU_10_
100
AcDbVertex
100
AcDb2dVertex
 10
1.626086141757917
 20
-121.0603907049979
 30
0.0
  0
VERTEX
  5
46
330
3E
100
AcDbEntity
  8
GRAU_10_
100
AcDbVertex
100
AcDb2dVertex
 10
1.737707309115876
 20
-122.120102775347
 30
0.0
  0
VERTEX
  5
47
330
3E
100
AcDbEntity
  8
GRAU_10_
100
AcDbVertex
100
AcDb2dVertex
 10
1.598180849918427
 20
-123.9043189041953
 30
0.0
  0
VERTEX
  5
48
330
3E
100
AcDbEntity
  8
GRAU_10_
100
AcDbVertex
100
AcDb2dVertex
 10
1.096402361471307
 20
-123.9601294878743
 30
0.0
  0
VERTEX
  5
49
330
3E
100
AcDbEntity
  8
GRAU_10_
100
AcDbVertex
100
AcDb2dVertex
 10
0.789616406124819
 20
-126.0233985351176
 30
0.0
  0
VERTEX
  5
4A
330
3E
100
AcDbEntity
  8
GRAU_10_
100
AcDbVertex
100
AcDb2dVertex
 10
-1.301385678070028
 20
-126.1350197024755
 30
0.0
  0
VERTEX
  5
4B
330
3E
100
AcDbEntity
  8
GRAU_10_
100
AcDbVertex
100
AcDb2dVertex
 10
-1.803336421405046
 20
-125.716784834659
 30
0.0
  0
VERTEX
  5
4C
330
3E
100
AcDbEntity
  8
GRAU_10_
100
AcDbVertex
100
AcDb2dVertex
 10
-1.803336421405046
 20
-123.8764136123558
 30
0.0
  0
VERTEX
  5
4D
330
3E
100
AcDbEntity
  8
GRAU_10_
100
AcDbVertex
100
AcDb2dVertex
 10
-5.009688904739989
 20
-123.9601294878743
 30
0.0
  0
VERTEX
  5
4E
330
3E
100
AcDbEntity
  8
GRAU_10_
100
AcDbVertex
100
AcDb2dVertex
 10
-5.009688904739989
 20
-125.7446901264984
 30
0.0
  0
VERTEX
  5
4F
330
3E
100
AcDbEntity
  8
GRAU_10_
100
AcDbVertex
100
AcDb2dVertex
 10
-5.400018480717049
 20
-126.107114410636
 30
0.0
  0
VERTEX
  5
50
330
3E
100
AcDbEntity
  8
GRAU_10_
100
AcDbVertex
100
AcDb2dVertex
 10
-7.351666360602345
 20
-126.051303826957
 30
0.0
  0
VERTEX
  5
51
330
3E
100
AcDbEntity
  8
GRAU_10_
100
AcDbVertex
100
AcDb2dVertex
 10
-7.602641732269854
 20
-125.8563112938564
 30
0.0
  0
VERTEX
  5
52
330
3E
100
AcDbEntity
  8
GRAU_10_
100
AcDbVertex
100
AcDb2dVertex
 10
-7.769901228418894
 20
-124.0159400715533
 30
0.0
  0
VERTEX
  5
53
330
3E
100
AcDbEntity
  8
GRAU_10_
100
AcDbVertex
100
AcDb2dVertex
 10
-8.411206176063462
 20
-123.8764136123558
 30
0.0
  0
VERTEX
  5
54
330
3E
100
AcDbEntity
  8
GRAU_10_
100
AcDbVertex
100
AcDb2dVertex
 10
-8.439111467902952
 20
-121.1441065805164
 30
0.0
  0
VERTEX
  5
55
330
3E
100
AcDbEntity
  8
GRAU_10_
100
AcDbVertex
100
AcDb2dVertex
 10
-8.717819876522052
 20
-120.0847390199432
 30
0.0
  0
VERTEX
  5
56
330
3E
100
AcDbEntity
  8
GRAU_10_
100
AcDbVertex
100
AcDb2dVertex
 10
-8.717819876522052
 20
-119.415701035347
 30
0.0
  0
VERTEX
  5
57
330
3E
100
AcDbEntity
  8
GRAU_10_
100
AcDbVertex
100
AcDb2dVertex
 10
-8.634276255891482
 20
-118.9416555838515
 30
0.0
  0
VERTEX
  5
58
330
3E
100
AcDbEntity
  8
GRAU_10_
100
AcDbVertex
100
AcDb2dVertex
 10
-10.22349985163921
 20
-118.9416555838515
 30
0.0
  0
VERTEX
  5
59
330
3E
100
AcDbEntity
  8
GRAU_10_
100
AcDbVertex
100
AcDb2dVertex
 10
-10.27931043531819
 20
-113.4487917185574
 30
0.0
  0
VERTEX
  5
5A
330
3E
100
AcDbEntity
  8
GRAU_10_
100
AcDbVertex
100
AcDb2dVertex
 10
-8.634276255891482
 20
-113.4487917185574
 30
0.0
  0
VERTEX
  5
5B
330
3E
100
AcDbEntity
  8
GRAU_10_
100
AcDbVertex
100
AcDb2dVertex
 10
-8.91315691939848
 20
-112.6681325666033
 30
0.0
  0
VERTEX
  5
5C
330
3E
100
AcDbEntity
  8
GRAU_10_
100
AcDbVertex
100
AcDb2dVertex
 10
-8.91315691939848
 20
-42.49080221737208
 30
0.0
  0
VERTEX
  5
5D
330
3E
100
AcDbEntity
  8
GRAU_10_
100
AcDbVertex
100
AcDb2dVertex
 10
-8.355395592384482
 20
-41.93321314524598
 30
0.0
  0
VERTEX
  5
5E
330
3E
100
AcDbEntity
  8
GRAU_10_
100
AcDbVertex
100
AcDb2dVertex
 10
1.514637229287856
 20
-41.93321314524598
 30
0.0
  0
VERTEX
  5
5F
330
3E
100
AcDbEntity
  8
GRAU_10_
100
AcDbVertex
100
AcDb2dVertex
 10
2.114256494061088
 20
-42.53248790024341
 30
0.0
  0
VERTEX
  5
60
330
3E
100
AcDbEntity
  8
GRAU_10_
100
AcDbVertex
100
AcDb2dVertex
 10
2.128036885092935
 20
-112.5010453253421
 30
0.0
  0
SEQEND
  5
61
330
3E
100
AcDbEntity
  8
GRAU_10_
  0
HATCH
  5
62
330
1F
100
AcDbEntity
  8
GRAU_10_
 62
   255
100
AcDbHatch
 10
0.0
 20
0.0
 30
0.0
210
0.0
220
0.0
230
1.0
  2
SOLID
 70
     1
 71
     0
 91
        1
 92
        1
 93
       33
 72
     1
 10
2.128036885092935
 20
-112.5010453253421
 11
1.821250929746447
 21
-113.3654203528147
 72
     1
 10
1.821250929746447
 20
-113.3654203528147
 11
3.550000984691622
 21
-113.4487917185574
 72
     1
 10
3.550000984691622
 20
-113.4487917185574
 11
3.577734021643213
 21
-118.857939708333
 72
     1
 10
3.577734021643213
 20
-118.857939708333
 11
1.821250929746447
 21
-118.913750292012
 72
     1
 10
1.821250929746447
 20
-118.913750292012
 11
1.793345637906957
 21
-120.1126443117827
 72
     1
 10
1.793345637906957
 20
-120.1126443117827
 11
1.626086141757917
 21
-121.0603907049979
 72
     1
 10
1.626086141757917
 20
-121.0603907049979
 11
1.737707309115876
 21
-122.120102775347
 72
     1
 10
1.737707309115876
 20
-122.120102775347
 11
1.598180849918427
 21
-123.9043189041953
 72
     1
 10
1.598180849918427
 20
-123.9043189041953
 11
1.096402361471307
 21
-123.9601294878743
 72
     1
 10
1.096402361471307
 20
-123.9601294878743
 11
0.789616406124819
 21
-126.0233985351176
 72
     1
 10
0.789616406124819
 20
-126.0233985351176
 11
-1.301385678070028
 21
-126.1350197024755
 72
     1
 10
-1.301385678070028
 20
-126.1350197024755
 11
-1.803336421405046
 21
-125.716784834659
 72
     1
 10
-1.803336421405046
 20
-125.716784834659
 11
-1.803336421405046
 21
-123.8764136123558
 72
     1
 10
-1.803336421405046
 20
-123.8764136123558
 11
-5.009688904739989
 21
-123.9601294878743
 72
     1
 10
-5.009688904739989
 20
-123.9601294878743
 11
-5.009688904739989
 21
-125.7446901264984
 72
     1
 10
-5.009688904739989
 20
-125.7446901264984
 11
-5.400018480717049
 21
-126.107114410636
 72
     1
 10
-5.400018480717049
 20
-126.107114410636
 11
-7.351666360602345
 21
-126.051303826957
 72
     1
 10
-7.351666360602345
 20
-126.051303826957
 11
-7.602641732269854
 21
-125.8563112938564
 72
     1
 10
-7.602641732269854
 20
-125.8563112938564
 11
-7.769901228418894
 21
-124.0159400715533
 72
     1
 10
-7.769901228418894
 20
-124.0159400715533
 11
-8.411206176063462
 21
-123.8764136123558
 72
     1
 10
-8.411206176063462
 20
-123.8764136123558
 11
-8.439111467902952
 21
-121.1441065805164
 72
     1
 10
-8.439111467902952
 20
-121.1441065805164
 11
-8.717819876522052
 21
-120.0847390199432
 72
     1
 10
-8.717819876522052
 20
-120.0847390199432
 11
-8.717819876522052
 21
-119.415701035347
 72
     1
 10
-8.717819876522052
 20
-119.415701035347
 11
-8.634276255891482
 21
-118.9416555838515
 72
     1
 10
-8.634276255891482
 20
-118.9416555838515
 11
-10.22349985163921
 21
-118.9416555838515
 72
     1
 10
-10.22349985163921
 20
-118.9416555838515
 11
-10.27931043531819
 21
-113.4487917185574
 72
     1
 10
-10.27931043531819
 20
-113.4487917185574
 11
-8.634276255891482
 21
-113.4487917185574
 72
     1
 10
-8.634276255891482
 20
-113.4487917185574
 11
-8.91315691939848
 21
-112.6681325666033
 72
     1
 10
-8.91315691939848
 20
-112.6681325666033
 11
-8.91315691939848
 21
-42.49080221737208
 72
     1
 10
-8.91315691939848
 20
-42.49080221737208
 11
-8.355395592384482
 21
-41.93321314524598
 72
     1
 10
-8.355395592384482
 20
-41.93321314524598
 11
1.514637229287857
 21
-41.93321314524598
 72
     1
 10
1.514637229287856
 20
-41.93321314524598
 11
2.114256494061088
 21
-42.53248790024341
 72
     1
 10
2.114256494061088
 20
-42.53248790024341
 11
2.128036885092935
 21
-112.5010453253421
 97
        0
 75
     0
 76
     1
 98
        0
  0
POLYLINE
  5
63
330
1F
100
AcDbEntity
  8
GRAU_10_
100
AcDb2dPolyline
 66
     1
 10
0.0
 20
0.0
 30
0.0
  0
VERTEX
  5
64
330
63
100
AcDbEntity
  8
GRAU_10_
100
AcDbVertex
100
AcDb2dVertex
 10
40.93913018718613
 20
-112.5010453253421
 30
0.0
  0
VERTEX
  5
65
330
63
100
AcDbEntity
  8
GRAU_10_
100
AcDbVertex
100
AcDb2dVertex
 10
40.63217197695175
 20
-113.3654203528147
 30
0.0
  0
VERTEX
  5
66
330
63
100
AcDbEntity
  8
GRAU_10_
100
AcDbVertex
100
AcDb2dVertex
 10
42.36092203189692
 20
-113.4487917185574
 30
0.0
  0
VERTEX
  5
67
330
63
100
AcDbEntity
  8
GRAU_10_
100
AcDbVertex
100
AcDb2dVertex
 10
42.38848281396061
 20
-118.857939708333
 30
0.0
  0
VERTEX
  5
68
330
63
100
AcDbEntity
  8
GRAU_10_
100
AcDbVertex
100
AcDb2dVertex
 10
40.63217197695175
 20
-118.913750292012
 30
0.0
  0
VERTEX
  5
69
330
63
100
AcDbEntity
  8
GRAU_10_
100
AcDbVertex
100
AcDb2dVertex
 10
40.60426668511226
 20
-120.1126443117827
 30
0.0
  0
VERTEX
  5
6A
330
63
100
AcDbEntity
  8
GRAU_10_
100
AcDbVertex
100
AcDb2dVertex
 10
40.68867158018232
 20
-121.0607352147737
 30
0.0
  0
VERTEX
  5
6B
330
63
100
AcDbEntity
  8
GRAU_10_
100
AcDbVertex
100
AcDb2dVertex
 10
40.54845610143327
 20
-122.120102775347
 30
0.0
  0
VERTEX
  5
6C
330
63
100
AcDbEntity
  8
GRAU_10_
100
AcDbVertex
100
AcDb2dVertex
 10
40.40892964223583
 20
-123.9043189041953
 30
0.0
  0
VERTEX
  5
6D
330
63
100
AcDbEntity
  8
GRAU_10_
100
AcDbVertex
100
AcDb2dVertex
 10
39.9073234086766
 20
-123.9601294878743
 30
0.0
  0
VERTEX
  5
6E
330
63
100
AcDbEntity
  8
GRAU_10_
100
AcDbVertex
100
AcDb2dVertex
 10
39.60036519844222
 20
-126.0233985351176
 30
0.0
  0
VERTEX
  5
6F
330
63
100
AcDbEntity
  8
GRAU_10_
100
AcDbVertex
100
AcDb2dVertex
 10
37.50953536913527
 20
-126.1350197024755
 30
0.0
  0
VERTEX
  5
70
330
63
100
AcDbEntity
  8
GRAU_10_
100
AcDbVertex
100
AcDb2dVertex
 10
37.00758462580026
 20
-125.716784834659
 30
0.0
  0
VERTEX
  5
71
330
63
100
AcDbEntity
  8
GRAU_10_
100
AcDbVertex
100
AcDb2dVertex
 10
37.00758462580026
 20
-123.8764136123558
 30
0.0
  0
VERTEX
  5
72
330
63
100
AcDbEntity
  8
GRAU_10_
100
AcDbVertex
100
AcDb2dVertex
 10
33.80123214246531
 20
-123.9601294878743
 30
0.0
  0
VERTEX
  5
73
330
63
100
AcDbEntity
  8
GRAU_10_
100
AcDbVertex
100
AcDb2dVertex
 10
33.80123214246531
 20
-125.7446901264984
 30
0.0
  0
VERTEX
  5
74
330
63
100
AcDbEntity
  8
GRAU_10_
100
AcDbVertex
100
AcDb2dVertex
 10
33.41090256648825
 20
-126.107114410636
 30
0.0
  0
VERTEX
  5
75
330
63
100
AcDbEntity
  8
GRAU_10_
100
AcDbVertex
100
AcDb2dVertex
 10
31.45925468660295
 20
-126.051303826957
 30
0.0
  0
VERTEX
  5
76
330
63
100
AcDbEntity
  8
GRAU_10_
100
AcDbVertex
100
AcDb2dVertex
 10
31.20845156982334
 20
-125.8563112938564
 30
0.0
  0
VERTEX
  5
77
330
63
100
AcDbEntity
  8
GRAU_10_
100
AcDbVertex
100
AcDb2dVertex
 10
31.04101981878641
 20
-124.0159400715533
 30
0.0
  0
VERTEX
  5
78
330
63
100
AcDbEntity
  8
GRAU_10_
100
AcDbVertex
100
AcDb2dVertex
 10
30.39988712602974
 20
-123.8764136123558
 30
0.0
  0
VERTEX
  5
79
330
63
100
AcDbEntity
  8
GRAU_10_
100
AcDbVertex
100
AcDb2dVertex
 10
30.23314439454439
 20
-121.2839775494896
 30
0.0
  0
VERTEX
  5
7A
330
63
100
AcDbEntity
  8
GRAU_10_
100
AcDbVertex
100
AcDb2dVertex
 10
30.09292891579535
 20
-120.0847390199432
 30
0.0
  0
VERTEX
  5
7B
330
63
100
AcDbEntity
  8
GRAU_10_
100
AcDbVertex
100
AcDb2dVertex
 10
30.09292891579535
 20
-119.415701035347
 30
0.0
  0
VERTEX
  5
7C
330
63
100
AcDbEntity
  8
GRAU_10_
100
AcDbVertex
100
AcDb2dVertex
 10
30.17664479131382
 20
-118.9416555838515
 30
0.0
  0
VERTEX
  5
7D
330
63
100
AcDbEntity
  8
GRAU_10_
100
AcDbVertex
100
AcDb2dVertex
 10
28.58742119556609
 20
-118.9416555838515
 30
0.0
  0
VERTEX
  5
7E
330
63
100
AcDbEntity
  8
GRAU_10_
100
AcDbVertex
100
AcDb2dVertex
 10
28.53161061188711
 20
-113.4487917185574
 30
0.0
  0
VERTEX
  5
7F
330
63
100
AcDbEntity
  8
GRAU_10_
100
AcDbVertex
100
AcDb2dVertex
 10
30.17664479131382
 20
-113.4487917185574
 30
0.0
  0
VERTEX
  5
80
330
63
100
AcDbEntity
  8
GRAU_10_
100
AcDbVertex
100
AcDb2dVertex
 10
29.89759187291892
 20
-112.6681325666033
 30
0.0
  0
VERTEX
  5
81
330
63
100
AcDbEntity
  8
GRAU_10_
100
AcDbVertex
100
AcDb2dVertex
 10
29.89759187291892
 20
-42.49080221737208
 30
0.0
  0
VERTEX
  5
82
330
63
100
AcDbEntity
  8
GRAU_10_
100
AcDbVertex
100
AcDb2dVertex
 10
30.45569770970872
 20
-41.93321314524598
 30
0.0
  0
VERTEX
  5
83
330
63
100
AcDbEntity
  8
GRAU_10_
100
AcDbVertex
100
AcDb2dVertex
 10
40.32555827649315
 20
-41.93321314524598
 30
0.0
  0
VERTEX
  5
84
330
63
100
AcDbEntity
  8
GRAU_10_
100
AcDbVertex
100
AcDb2dVertex
 10
40.92534979615429
 20
-42.53248790024341
 30
0.0
  0
VERTEX
  5
85
330
63
100
AcDbEntity
  8
GRAU_10_
100
AcDbVertex
100
AcDb2dVertex
 10
40.93913018718613
 20
-112.5010453253421
 30
0.0
  0
SEQEND
  5
86
330
63
100
AcDbEntity
  8
GRAU_10_
  0
HATCH
  5
87
330
1F
100
AcDbEntity
  8
GRAU_10_
 62
   255
100
AcDbHatch
 10
0.0
 20
0.0
 30
0.0
210
0.0
220
0.0
230
1.0
  2
SOLID
 70
     1
 71
     0
 91
        1
 92
        1
 93
       33
 72
     1
 10
40.93913018718613
 20
-112.5010453253421
 11
40.63217197695175
 21
-113.3654203528147
 72
     1
 10
40.63217197695175
 20
-113.3654203528147
 11
42.36092203189692
 21
-113.4487917185574
 72
     1
 10
42.36092203189692
 20
-113.4487917185574
 11
42.38848281396061
 21
-118.857939708333
 72
     1
 10
42.38848281396061
 20
-118.857939708333
 11
40.63217197695175
 21
-118.913750292012
 72
     1
 10
40.63217197695175
 20
-118.913750292012
 11
40.60426668511226
 21
-120.1126443117827
 72
     1
 10
40.60426668511226
 20
-120.1126443117827
 11
40.68867158018232
 21
-121.0607352147737
 72
     1
 10
40.68867158018232
 20
-121.0607352147737
 11
40.54845610143327
 21
-122.120102775347
 72
     1
 10
40.54845610143327
 20
-122.120102775347
 11
40.40892964223583
 21
-123.9043189041953
 72
     1
 10
40.40892964223583
 20
-123.9043189041953
 11
39.9073234086766
 21
-123.9601294878743
 72
     1
 10
39.9073234086766
 20
-123.9601294878743
 11
39.60036519844222
 21
-126.0233985351176
 72
     1
 10
39.60036519844222
 20
-126.0233985351176
 11
37.50953536913527
 21
-126.1350197024755
 72
     1
 10
37.50953536913527
 20
-126.1350197024755
 11
37.00758462580026
 21
-125.716784834659
 72
     1
 10
37.00758462580026
 20
-125.716784834659
 11
37.00758462580026
 21
-123.8764136123558
 72
     1
 10
37.00758462580026
 20
-123.8764136123558
 11
33.80123214246531
 21
-123.9601294878743
 72
     1
 10
33.80123214246531
 20
-123.9601294878743
 11
33.80123214246531
 21
-125.7446901264984
 72
     1
 10
33.80123214246531
 20
-125.7446901264984
 11
33.41090256648825
 21
-126.107114410636
 72
     1
 10
33.41090256648825
 20
-126.107114410636
 11
31.45925468660295
 21
-126.051303826957
 72
     1
 10
31.45925468660295
 20
-126.051303826957
 11
31.20845156982334
 21
-125.8563112938564
 72
     1
 10
31.20845156982334
 20
-125.8563112938564
 11
31.04101981878641
 21
-124.0159400715533
 72
     1
 10
31.04101981878641
 20
-124.0159400715533
 11
30.39988712602974
 21
-123.8764136123558
 72
     1
 10
30.39988712602974
 20
-123.8764136123558
 11
30.23314439454439
 21
-121.2839775494896
 72
     1
 10
30.23314439454439
 20
-121.2839775494896
 11
30.09292891579535
 21
-120.0847390199432
 72
     1
 10
30.09292891579535
 20
-120.0847390199432
 11
30.09292891579535
 21
-119.415701035347
 72
     1
 10
30.09292891579535
 20
-119.415701035347
 11
30.17664479131382
 21
-118.9416555838515
 72
     1
 10
30.17664479131382
 20
-118.9416555838515
 11
28.58742119556609
 21
-118.9416555838515
 72
     1
 10
28.58742119556609
 20
-118.9416555838515
 11
28.53161061188711
 21
-113.4487917185574
 72
     1
 10
28.53161061188711
 20
-113.4487917185574
 11
30.17664479131382
 21
-113.4487917185574
 72
     1
 10
30.17664479131382
 20
-113.4487917185574
 11
29.89759187291892
 21
-112.6681325666033
 72
     1
 10
29.89759187291892
 20
-112.6681325666033
 11
29.89759187291892
 21
-42.49080221737208
 72
     1
 10
29.89759187291892
 20
-42.49080221737208
 11
30.45569770970872
 21
-41.93321314524598
 72
     1
 10
30.45569770970872
 20
-41.93321314524598
 11
40.32555827649315
 21
-41.93321314524598
 72
     1
 10
40.32555827649315
 20
-41.93321314524598
 11
40.92534979615429
 21
-42.53248790024341
 72
     1
 10
40.92534979615429
 20
-42.53248790024341
 11
40.93913018718613
 21
-112.5010453253421
 97
        0
 75
     0
 76
     1
 98
        0
  0
POLYLINE
  5
89
330
1F
100
AcDbEntity
  8
STANDARDEBENE
 62
     7
100
AcDb2dPolyline
 66
     1
 10
0.0
 20
0.0
 30
0.0
  0
VERTEX
  5
8A
330
89
100
AcDbEntity
  8
STANDARDEBENE
 62
     7
100
AcDbVertex
100
AcDb2dVertex
 10
-25.4845938998579
 20
-138.426783993107
 30
0.0
  0
VERTEX
  5
8B
330
89
100
AcDbEntity
  8
STANDARDEBENE
 62
     7
100
AcDbVertex
100
AcDb2dVertex
 10
-12.38409291054488
 20
-138.426783993107
 30
0.0
  0
SEQEND
  5
8C
330
89
100
AcDbEntity
  8
STANDARDEBENE
  0
POLYLINE
  5
8D
330
1F
100
AcDbEntity
  8
STANDARDEBENE
 62
     7
100
AcDb2dPolyline
 66
     1
 10
0.0
 20
0.0
 30
0.0
  0
VERTEX
  5
8E
330
8D
100
AcDbEntity
  8
STANDARDEBENE
 62
     7
100
AcDbVertex
100
AcDb2dVertex
 10
-25.6373839854235
 20
-127.5461317441366
 30
0.0
  0
VERTEX
  5
8F
330
8D
100
AcDbEntity
  8
STANDARDEBENE
 62
     7
100
AcDbVertex
100
AcDb2dVertex
 10
-12.23095831520348
 20
-127.5461317441366
 30
0.0
  0
SEQEND
  5
90
330
8D
100
AcDbEntity
  8
STANDARDEBENE
  0
POLYLINE
  5
91
330
1F
100
AcDbEntity
  8
STANDARDEBENE
 62
     7
100
AcDb2dPolyline
 66
     1
 10
0.0
 20
0.0
 30
0.0
  0
VERTEX
  5
92
330
91
100
AcDbEntity
  8
STANDARDEBENE
 62
     7
100
AcDbVertex
100
AcDb2dVertex
 10
-8.934344270609945
 20
-120.9263764022132
 30
0.0
  0
VERTEX
  5
93
330
91
100
AcDbEntity
  8
STANDARDEBENE
 62
     7
100
AcDbVertex
100
AcDb2dVertex
 10
-28.93365352024124
 20
-120.9263764022132
 30
0.0
  0
SEQEND
  5
94
330
91
100
AcDbEntity
  8
STANDARDEBENE
  0
POLYLINE
  5
95
330
1F
100
AcDbEntity
  8
STANDARDEBENE
 62
     7
100
AcDb2dPolyline
 66
     1
 10
0.0
 20
0.0
 30
0.0
  0
VERTEX
  5
96
330
95
100
AcDbEntity
  8
STANDARDEBENE
 62
     7
100
AcDbVertex
100
AcDb2dVertex
 10
-28.93365352024124
 20
-0.9263867871158981
 30
0.0
  0
VERTEX
  5
97
330
95
100
AcDbEntity
  8
STANDARDEBENE
 62
     7
100
AcDbVertex
100
AcDb2dVertex
 10
-8.934344270609945
 20
-0.9263867871158981
 30
0.0
  0
SEQEND
  5
98
330
95
100
AcDbEntity
  8
STANDARDEBENE
  0
POLYLINE
  5
99
330
1F
100
AcDbEntity
  8
STANDARDEBENE
 62
     7
100
AcDb2dPolyline
 66
     1
 10
0.0
 20
0.0
 30
0.0
  0
VERTEX
  5
9A
330
99
100
AcDbEntity
  8
STANDARDEBENE
 62
     7
100
AcDbVertex
100
AcDb2dVertex
 10
58.21319485538184
 20
-138.426783993107
 30
0.0
  0
VERTEX
  5
9B
330
99
100
AcDbEntity
  8
STANDARDEBENE
 62
     7
100
AcDbVertex
100
AcDb2dVertex
 10
45.11183259162933
 20
-138.426783993107
 30
0.0
  0
SEQEND
  5
9C
330
99
100
AcDbEntity
  8
STANDARDEBENE
  0
POLYLINE
  5
9D
330
1F
100
AcDbEntity
  8
STANDARDEBENE
 62
     7
100
AcDb2dPolyline
 66
     1
 10
0.0
 20
0.0
 30
0.0
  0
VERTEX
  5
9E
330
9D
100
AcDbEntity
  8
STANDARDEBENE
 62
     7
100
AcDbVertex
100
AcDb2dVertex
 10
44.95887025117583
 20
-127.5461317441366
 30
0.0
  0
VERTEX
  5
9F
330
9D
100
AcDbEntity
  8
STANDARDEBENE
 62
     7
100
AcDbVertex
100
AcDb2dVertex
 10
58.36581268605953
 20
-127.5461317441366
 30
0.0
  0
SEQEND
  5
A0
330
9D
100
AcDbEntity
  8
STANDARDEBENE
  0
POLYLINE
  5
A1
330
1F
100
AcDbEntity
  8
STANDARDEBENE
 62
     7
100
AcDb2dPolyline
 66
     1
 10
0.0
 20
0.0
 30
0.0
  0
VERTEX
  5
A2
330
A1
100
AcDbEntity
  8
STANDARDEBENE
 62
     7
100
AcDbVertex
100
AcDb2dVertex
 10
41.66225620658229
 20
-0.9263867871158981
 30
0.0
  0
VERTEX
  5
A3
330
A1
100
AcDbEntity
  8
STANDARDEBENE
 62
     7
100
AcDbVertex
100
AcDb2dVertex
 10
61.66208222087728
 20
-0.9263867871158981
 30
0.0
  0
SEQEND
  5
A4
330
A1
100
AcDbEntity
  8
STANDARDEBENE
  0
POLYLINE
  5
A5
330
1F
100
AcDbEntity
  8
STANDARDEBENE
 62
     7
100
AcDb2dPolyline
 66
     1
 10
0.0
 20
0.0
 30
0.0
  0
VERTEX
  5
A6
330
A5
100
AcDbEntity
  8
STANDARDEBENE
 62
     7
100
AcDbVertex
100
AcDb2dVertex
 10
41.66225620658229
 20
-120.9263764022132
 30
0.0
  0
VERTEX
  5
A7
330
A5
100
AcDbEntity
  8
STANDARDEBENE
 62
     7
100
AcDbVertex
100
AcDb2dVertex
 10
61.66208222087728
 20
-120.9263764022132
 30
0.0
  0
SEQEND
  5
A8
330
A5
100
AcDbEntity
  8
STANDARDEBENE
  0
POLYLINE
  5
A9
330
1F
100
AcDbEntity
  8
STANDARDEBENE
  6
AI-LINETYPE-1
 62
     7
100
AcDb2dPolyline
 66
     1
 10
0.0
 20
0.0
 30
0.0
  0
VERTEX
  5
AA
330
A9
100
AcDbEntity
  8
STANDARDEBENE
  6
AI-LINETYPE-1
 62
     7
100
AcDbVertex
100
AcDb2dVertex
 10
-18.93408502286954
 20
-196.232423783722
 30
0.0
  0
VERTEX
  5
AB
330
A9
100
AcDbEntity
  8
STANDARDEBENE
  6
AI-LINETYPE-1
 62
     7
100
AcDbVertex
100
AcDb2dVertex
 10
-18.93408502286954
 20
-168.7605252421839
 30
0.0
  0
SEQEND
  5
AC
330
A9
100
AcDbEntity
  8
STANDARDEBENE
  6
AI-LINETYPE-1
  0
POLYLINE
  5
AE
330
1F
100
AcDbEntity
  8
STANDARDEBENE
  6
AI-LINETYPE-2
 62
     7
100
AcDb2dPolyline
 66
     1
 10
0.0
 20
0.0
 30
0.0
  0
VERTEX
  5
AF
330
AE
100
AcDbEntity
  8
STANDARDEBENE
  6
AI-LINETYPE-2
 62
     7
100
AcDbVertex
100
AcDb2dVertex
 10
-5.376075051299215
 20
-182.7610580207644
 30
0.0
  0
VERTEX
  5
B0
330
AE
100
AcDbEntity
  8
STANDARDEBENE
  6
AI-LINETYPE-2
 62
     7
100
AcDbVertex
100
AcDb2dVertex
 10
-32.93444554656215
 20
-182.7610580207644
 30
0.0
  0
SEQEND
  5
B1
330
AE
100
AcDbEntity
  8
STANDARDEBENE
  6
AI-LINETYPE-2
  0
POLYLINE
  5
B3
330
1F
100
AcDbEntity
  8
STANDARDEBENE
  6
AI-LINETYPE-3
 62
     7
100
AcDb2dPolyline
 66
     1
 10
0.0
 20
0.0
 30
0.0
  0
VERTEX
  5
B4
330
B3
100
AcDbEntity
  8
STANDARDEBENE
  6
AI-LINETYPE-3
 62
     7
100
AcDbVertex
100
AcDb2dVertex
 10
-18.93408502286954
 20
4.799710196392224
 30
0.0
  0
VERTEX
  5
B5
330
B3
100
AcDbEntity
  8
STANDARDEBENE
  6
AI-LINETYPE-3
 62
     7
100
AcDbVertex
100
AcDb2dVertex
 10
-18.93408502286954
 20
-149.3642803550838
 30
0.0
  0
SEQEND
  5
B6
330
B3
100
AcDbEntity
  8
STANDARDEBENE
  6
AI-LINETYPE-3
  0
POLYLINE
  5
B8
330
1F
100
AcDbEntity
  8
STANDARDEBENE
  6
AI-LINETYPE-4
 62
     7
100
AcDb2dPolyline
 66
     1
 10
0.0
 20
0.0
 30
0.0
  0
VERTEX
  5
B9
330
B8
100
AcDbEntity
  8
STANDARDEBENE
  6
AI-LINETYPE-4
 62
     7
100
AcDbVertex
100
AcDb2dVertex
 10
51.66234146861768
 20
4.270370925881411
 30
0.0
  0
VERTEX
  5
BA
330
B8
100
AcDbEntity
  8
STANDARDEBENE
  6
AI-LINETYPE-4
 62
     7
100
AcDbVertex
100
AcDb2dVertex
 10
51.66234146861768
 20
-149.5403248505156
 30
0.0
  0
SEQEND
  5
BB
330
B8
100
AcDbEntity
  8
STANDARDEBENE
  6
AI-LINETYPE-4
  0
POLYLINE
  5
BD
330
1F
100
AcDbEntity
  8
STANDARDEBENE
 62
     7
100
AcDb2dPolyline
 66
     1
 10
0.0
 20
0.0
 30
0.0
  0
VERTEX
  5
BE
330
BD
100
AcDbEntity
  8
STANDARDEBENE
 62
     7
100
AcDbVertex
100
AcDb2dVertex
 10
-31.43393321808194
 20
-127.9268150463914
 30
0.0
  0
VERTEX
  5
BF
330
BD
100
AcDbEntity
  8
STANDARDEBENE
 62
     7
100
AcDbVertex
100
AcDb2dVertex
 10
-31.43393321808194
 20
-137.926555798651
 30
0.0
  0
SEQEND
  5
C0
330
BD
100
AcDbEntity
  8
STANDARDEBENE
  0
POLYLINE
  5
C1
330
1F
100
AcDbEntity
  8
STANDARDEBENE
 62
     7
100
AcDb2dPolyline
 66
     1
 10
0.0
 20
0.0
 30
0.0
  0
VERTEX
  5
C2
330
C1
100
AcDbEntity
  8
STANDARDEBENE
 62
     7
100
AcDbVertex
100
AcDb2dVertex
 10
-6.434064572769249
 20
-134.9293207492243
 30
0.0
  0
VERTEX
  5
C3
330
C1
100
AcDbEntity
  8
STANDARDEBENE
 62
     7
100
AcDbVertex
100
AcDb2dVertex
 10
-6.434064572769249
 20
-127.9268150463914
 30
0.0
  0
SEQEND
  5
C4
330
C1
100
AcDbEntity
  8
STANDARDEBENE
  0
POLYLINE
  5
C5
330
1F
100
AcDbEntity
  8
STANDARDEBENE
 62
     7
100
AcDb2dPolyline
 66
     1
 10
0.0
 20
0.0
 30
0.0
  0
VERTEX
  5
C6
330
C5
100
AcDbEntity
  8
STANDARDEBENE
 62
     7
100
AcDbVertex
100
AcDb2dVertex
 10
-6.434064572769249
 20
-137.926555798651
 30
0.0
  0
VERTEX
  5
C7
330
C5
100
AcDbEntity
  8
STANDARDEBENE
 62
     7
100
AcDbVertex
100
AcDb2dVertex
 10
-6.434064572769249
 20
-136.9260994097389
 30
0.0
  0
SEQEND
  5
C8
330
C5
100
AcDbEntity
  8
STANDARDEBENE
  0
POLYLINE
  5
C9
330
1F
100
AcDbEntity
  8
STANDARDEBENE
 62
     7
100
AcDb2dPolyline
 66
     1
 10
0.0
 20
0.0
 30
0.0
  0
VERTEX
  5
CA
330
C9
100
AcDbEntity
  8
STANDARDEBENE
 62
     7
100
AcDbVertex
100
AcDb2dVertex
 10
-28.93365352024124
 20
1.073320206492964
 30
0.0
  0
VERTEX
  5
CB
330
C9
100
AcDbEntity
  8
STANDARDEBENE
 62
     7
100
AcDbVertex
100
AcDb2dVertex
 10
-28.93365352024124
 20
-126.4268194825749
 30
0.0
  0
SEQEND
  5
CC
330
C9
100
AcDbEntity
  8
STANDARDEBENE
  0
POLYLINE
  5
CD
330
1F
100
AcDbEntity
  8
STANDARDEBENE
 62
     7
100
AcDb2dPolyline
 66
     1
 10
0.0
 20
0.0
 30
0.0
  0
VERTEX
  5
CE
330
CD
100
AcDbEntity
  8
STANDARDEBENE
 62
     7
100
AcDbVertex
100
AcDb2dVertex
 10
-8.934344270609945
 20
-126.4268194825749
 30
0.0
  0
VERTEX
  5
CF
330
CD
100
AcDbEntity
  8
STANDARDEBENE
 62
     7
100
AcDbVertex
100
AcDb2dVertex
 10
-8.934344270609945
 20
1.073320206492964
 30
0.0
  0
SEQEND
  5
D0
330
CD
100
AcDbEntity
  8
STANDARDEBENE
  0
POLYLINE
  5
D1
330
1F
100
AcDbEntity
  8
STANDARDEBENE
 62
     7
100
AcDb2dPolyline
 66
     1
 10
0.0
 20
0.0
 30
0.0
  0
VERTEX
  5
D2
330
D1
100
AcDbEntity
  8
STANDARDEBENE
 62
     7
100
AcDbVertex
100
AcDb2dVertex
 10
-28.93365352024124
 20
-126.4268194825749
 30
0.0
  0
VERTEX
  5
D3
330
D1
100
AcDbEntity
  8
STANDARDEBENE
 62
     7
100
AcDbVertex
100
AcDb2dVertex
 10
-28.64736589655462
 20
-127.4954888070946
 30
0.0
  0
SEQEND
  5
D4
330
D1
100
AcDbEntity
  8
STANDARDEBENE
  0
POLYLINE
  5
D5
330
1F
100
AcDbEntity
  8
STANDARDEBENE
 62
     7
100
AcDb2dPolyline
 66
     1
 10
0.0
 20
0.0
 30
0.0
  0
VERTEX
  5
D6
330
D5
100
AcDbEntity
  8
STANDARDEBENE
 62
     7
100
AcDbVertex
100
AcDb2dVertex
 10
-9.220631894296561
 20
-127.4954888070946
 30
0.0
  0
VERTEX
  5
D7
330
D5
100
AcDbEntity
  8
STANDARDEBENE
 62
     7
100
AcDbVertex
100
AcDb2dVertex
 10
-8.934344270609945
 20
-126.4268194825749
 30
0.0
  0
SEQEND
  5
D8
330
D5
100
AcDbEntity
  8
STANDARDEBENE
  0
POLYLINE
  5
D9
330
1F
100
AcDbEntity
  8
STANDARDEBENE
 62
     7
100
AcDb2dPolyline
 66
     1
 10
0.0
 20
0.0
 30
0.0
  0
VERTEX
  5
DA
330
D9
100
AcDbEntity
  8
STANDARDEBENE
 62
     7
100
AcDbVertex
100
AcDb2dVertex
 10
-8.934344270609945
 20
1.073320206492964
 30
0.0
  0
VERTEX
  5
DB
330
D9
100
AcDbEntity
  8
STANDARDEBENE
 62
     7
100
AcDbVertex
100
AcDb2dVertex
 10
-9.934283894858325
 20
2.073432085629242
 30
0.0
  0
SEQEND
  5
DC
330
D9
100
AcDbEntity
  8
STANDARDEBENE
  0
POLYLINE
  5
DD
330
1F
100
AcDbEntity
  8
STANDARDEBENE
 62
     7
100
AcDb2dPolyline
 66
     1
 10
0.0
 20
0.0
 30
0.0
  0
VERTEX
  5
DE
330
DD
100
AcDbEntity
  8
STANDARDEBENE
 62
     7
100
AcDbVertex
100
AcDb2dVertex
 10
-27.93423066065656
 20
2.073432085629242
 30
0.0
  0
VERTEX
  5
DF
330
DD
100
AcDbEntity
  8
STANDARDEBENE
 62
     7
100
AcDbVertex
100
AcDb2dVertex
 10
-28.93365352024124
 20
1.073320206492964
 30
0.0
  0
SEQEND
  5
E0
330
DD
100
AcDbEntity
  8
STANDARDEBENE
  0
POLYLINE
  5
E1
330
1F
100
AcDbEntity
  8
STANDARDEBENE
 62
     7
100
AcDb2dPolyline
 66
     1
 10
0.0
 20
0.0
 30
0.0
  0
VERTEX
  5
E2
330
E1
100
AcDbEntity
  8
STANDARDEBENE
 62
     7
100
AcDbVertex
100
AcDb2dVertex
 10
-9.234412285328409
 20
-127.8579130912321
 30
0.0
  0
VERTEX
  5
E3
330
E1
100
AcDbEntity
  8
STANDARDEBENE
 62
     7
100
AcDbVertex
100
AcDb2dVertex
 10
-9.234412285328409
 20
-127.5988417398334
 30
0.0
  0
SEQEND
  5
E4
330
E1
100
AcDbEntity
  8
STANDARDEBENE
  0
POLYLINE
  5
E5
330
1F
100
AcDbEntity
  8
STANDARDEBENE
 62
     7
100
AcDb2dPolyline
 66
     1
 10
0.0
 20
0.0
 30
0.0
  0
VERTEX
  5
E6
330
E5
100
AcDbEntity
  8
STANDARDEBENE
 62
     7
100
AcDbVertex
100
AcDb2dVertex
 10
-28.63393001529857
 20
-127.5988417398334
 30
0.0
  0
VERTEX
  5
E7
330
E5
100
AcDbEntity
  8
STANDARDEBENE
 62
     7
100
AcDbVertex
100
AcDb2dVertex
 10
-28.63393001529857
 20
-127.8579130912321
 30
0.0
  0
SEQEND
  5
E8
330
E5
100
AcDbEntity
  8
STANDARDEBENE
  0
POLYLINE
  5
E9
330
1F
100
AcDbEntity
  8
STANDARDEBENE
 62
     7
100
AcDb2dPolyline
 66
     1
 10
0.0
 20
0.0
 30
0.0
  0
VERTEX
  5
EA
330
E9
100
AcDbEntity
  8
STANDARDEBENE
 62
     7
100
AcDbVertex
100
AcDb2dVertex
 10
-28.27443406425527
 20
-143.6709118002763
 30
0.0
  0
VERTEX
  5
EB
330
E9
100
AcDbEntity
  8
STANDARDEBENE
 62
     7
100
AcDbVertex
100
AcDb2dVertex
 10
-28.11148094030368
 20
-146.9261846717743
 30
0.0
  0
SEQEND
  5
EC
330
E9
100
AcDbEntity
  8
STANDARDEBENE
  0
POLYLINE
  5
ED
330
1F
100
AcDbEntity
  8
STANDARDEBENE
 62
     7
100
AcDb2dPolyline
 66
     1
 10
0.0
 20
0.0
 30
0.0
  0
VERTEX
  5
EE
330
ED
100
AcDbEntity
  8
STANDARDEBENE
 62
     7
100
AcDbVertex
100
AcDb2dVertex
 10
-28.53023257278393
 20
-138.5642433936497
 30
0.0
  0
VERTEX
  5
EF
330
ED
100
AcDbEntity
  8
STANDARDEBENE
 62
     7
100
AcDbVertex
100
AcDb2dVertex
 10
-28.44944503035973
 20
-140.1765491443757
 30
0.0
  0
SEQEND
  5
F0
330
ED
100
AcDbEntity
  8
STANDARDEBENE
  0
POLYLINE
  5
F1
330
1F
100
AcDbEntity
  8
STANDARDEBENE
 62
     7
100
AcDb2dPolyline
 66
     1
 10
0.0
 20
0.0
 30
0.0
  0
VERTEX
  5
F2
330
F1
100
AcDbEntity
  8
STANDARDEBENE
 62
     7
100
AcDbVertex
100
AcDb2dVertex
 10
-9.418725015379358
 20
-140.1782716932547
 30
0.0
  0
VERTEX
  5
F3
330
F1
100
AcDbEntity
  8
STANDARDEBENE
 62
     7
100
AcDbVertex
100
AcDb2dVertex
 10
-9.337765218067258
 20
-138.5642433936497
 30
0.0
  0
SEQEND
  5
F4
330
F1
100
AcDbEntity
  8
STANDARDEBENE
  0
POLYLINE
  5
F5
330
1F
100
AcDbEntity
  8
STANDARDEBENE
 62
     7
100
AcDb2dPolyline
 66
     1
 10
0.0
 20
0.0
 30
0.0
  0
VERTEX
  5
F6
330
F5
100
AcDbEntity
  8
STANDARDEBENE
 62
     7
100
AcDbVertex
100
AcDb2dVertex
 10
-9.7566891054354
 20
-146.9261846717743
 30
0.0
  0
VERTEX
  5
F7
330
F5
100
AcDbEntity
  8
STANDARDEBENE
 62
     7
100
AcDbVertex
100
AcDb2dVertex
 10
-9.59390823637171
 20
-143.6729788589311
 30
0.0
  0
SEQEND
  5
F8
330
F5
100
AcDbEntity
  8
STANDARDEBENE
  0
POLYLINE
  5
F9
330
1F
100
AcDbEntity
  8
STANDARDEBENE
 62
     7
100
AcDb2dPolyline
 66
     1
 10
0.0
 20
0.0
 30
0.0
  0
VERTEX
  5
FA
330
F9
100
AcDbEntity
  8
STANDARDEBENE
 62
     7
100
AcDbVertex
100
AcDb2dVertex
 10
-9.50588598865579
 20
-138.2276573426968
 30
0.0
  0
VERTEX
  5
FB
330
F9
100
AcDbEntity
  8
STANDARDEBENE
 62
     7
100
AcDbVertex
100
AcDb2dVertex
 10
-9.50588598865579
 20
-137.926555798651
 30
0.0
  0
SEQEND
  5
FC
330
F9
100
AcDbEntity
  8
STANDARDEBENE
  0
POLYLINE
  5
FD
330
1F
100
AcDbEntity
  8
STANDARDEBENE
 62
     7
100
AcDb2dPolyline
 66
     1
 10
0.0
 20
0.0
 30
0.0
  0
VERTEX
  5
FE
330
FD
100
AcDbEntity
  8
STANDARDEBENE
 62
     7
100
AcDbVertex
100
AcDb2dVertex
 10
-28.36245631197119
 20
-137.926555798651
 30
0.0
  0
VERTEX
  5
FF
330
FD
100
AcDbEntity
  8
STANDARDEBENE
 62
     7
100
AcDbVertex
100
AcDb2dVertex
 10
-28.36245631197119
 20
-138.2276573426968
 30
0.0
  0
SEQEND
  5
100
330
FD
100
AcDbEntity
  8
STANDARDEBENE
  0
SPLINE
  5
101
330
1F
100
AcDbEntity
  8
STANDARDEBENE
 62
     7
100
AcDbSpline
210
0.0
220
0.0
230
1.0
 70
     8
 71
     3
 72
     8
 73
     4
 74
     0
 42
0.0000000001
 43
0.0000000001
 40
0.0
 40
0.0
 40
0.0
 40
0.0
 40
1.0
 40
1.0
 40
1.0
 40
1.0
 10
-28.63995893637501
 20
-127.9268150463914
 30
0.0
 10
-28.63582481906545
 20
-127.9030438718614
 30
0.0
 10
-28.63358550552278
 20
-127.8792726973315
 30
0.0
 10
-28.63393001529857
 20
-127.8579130912321
 30
0.0
  0
SPLINE
  5
102
330
1F
100
AcDbEntity
  8
STANDARDEBENE
 62
     7
100
AcDbSpline
210
0.0
220
0.0
230
1.0
 70
     8
 71
     3
 72
     8
 73
     4
 74
     0
 42
0.0000000001
 43
0.0000000001
 40
0.0
 40
0.0
 40
0.0
 40
0.0
 40
1.0
 40
1.0
 40
1.0
 40
1.0
 10
-9.234412285328409
 20
-127.8579130912321
 30
0.0
 10
-9.234412285328409
 20
-127.8823732853137
 30
0.0
 10
-9.232517481561528
 20
-127.9061444598436
 30
0.0
 10
-9.228038854476178
 20
-127.9268150463914
 30
0.0
  0
SPLINE
  5
103
330
1F
100
AcDbEntity
  8
STANDARDEBENE
 62
     7
100
AcDbSpline
210
0.0
220
0.0
230
1.0
 70
     8
 71
     3
 72
     8
 73
     4
 74
     0
 42
0.0000000001
 43
0.0000000001
 40
0.0
 40
0.0
 40
0.0
 40
0.0
 40
1.0
 40
1.0
 40
1.0
 40
1.0
 10
-28.63393001529857
 20
-127.5988417398334
 30
0.0
 10
-28.63393001529857
 20
-127.5616346840474
 30
0.0
 10
-28.63892540704762
 20
-127.5261501771404
 30
0.0
 10
-28.64736589655462
 20
-127.4954888070946
 30
0.0
  0
SPLINE
  5
104
330
1F
100
AcDbEntity
  8
STANDARDEBENE
 62
     7
100
AcDbSpline
210
0.0
220
0.0
230
1.0
 70
     8
 71
     3
 72
     8
 73
     4
 74
     0
 42
0.0000000001
 43
0.0000000001
 40
0.0
 40
0.0
 40
0.0
 40
0.0
 40
1.0
 40
1.0
 40
1.0
 40
1.0
 10
-9.220631894296561
 20
-127.4954888070946
 30
0.0
 10
-9.229589148467262
 20
-127.53028429445
 30
0.0
 10
-9.234412285328409
 20
-127.5661133111328
 30
0.0
 10
-9.234412285328409
 20
-127.5988417398334
 30
0.0
  0
SPLINE
  5
105
330
1F
100
AcDbEntity
  8
STANDARDEBENE
 62
     7
100
AcDbSpline
210
0.0
220
0.0
230
1.0
 70
     8
 71
     3
 72
     8
 73
     4
 74
     0
 42
0.0000000001
 43
0.0000000001
 40
0.0
 40
0.0
 40
0.0
 40
0.0
 40
1.0
 40
1.0
 40
1.0
 40
1.0
 10
-9.337765218067258
 20
-138.5542526101516
 30
0.0
 10
-9.337765218067258
 20
-138.4870732038713
 30
0.0
 10
-9.370321391879996
 20
-138.4274730126586
 30
0.0
 10
-9.421997858249421
 20
-138.3912994862
 30
0.0
  0
SPLINE
  5
106
330
1F
100
AcDbEntity
  8
STANDARDEBENE
 62
     7
100
AcDbSpline
210
0.0
220
0.0
230
1.0
 70
    24
 71
     3
 72
     8
 73
     4
 74
     0
 42
0.0000000001
 43
0.0000000001
 40
0.0
 40
0.0
 40
0.0
 40
0.0
 40
1.0
 40
1.0
 40
1.0
 40
1.0
 10
-9.337765218067258
 20
-138.5642433936497
 30
0.0
 10
-9.337765218067258
 20
-138.5611428056675
 30
0.0
 10
-9.337765218067258
 20
-138.5573531981338
 30
0.0
 10
-9.337765218067258
 20
-138.5542526101516
 30
0.0
  0
SPLINE
  5
107
330
1F
100
AcDbEntity
  8
STANDARDEBENE
 62
     7
100
AcDbSpline
210
0.0
220
0.0
230
1.0
 70
     8
 71
     3
 72
     8
 73
     4
 74
     0
 42
0.0000000001
 43
0.0000000001
 40
0.0
 40
0.0
 40
0.0
 40
0.0
 40
1.0
 40
1.0
 40
1.0
 40
1.0
 10
-28.44668895215336
 20
-138.3912994862
 30
0.0
 10
-28.50404982982342
 20
-138.4319516397439
 30
0.0
 10
-28.53350541565399
 20
-138.4970639873694
 30
0.0
 10
-28.53023257278393
 20
-138.5642433936497
 30
0.0
  0
SPLINE
  5
108
330
1F
100
AcDbEntity
  8
STANDARDEBENE
 62
     7
100
AcDbSpline
210
0.0
220
0.0
230
1.0
 70
     8
 71
     3
 72
     8
 73
     4
 74
     0
 42
0.0000000001
 43
0.0000000001
 40
0.0
 40
0.0
 40
0.0
 40
0.0
 40
1.0
 40
1.0
 40
1.0
 40
1.0
 10
-9.50588598865579
 20
-138.2276573426968
 30
0.0
 10
-9.50588598865579
 20
-138.2948367489771
 30
0.0
 10
-9.473329814843051
 20
-138.3544369401898
 30
0.0
 10
-9.42130883869783
 20
-138.3912994862
 30
0.0
  0
SPLINE
  5
109
330
1F
100
AcDbEntity
  8
STANDARDEBENE
 62
     7
100
AcDbSpline
210
0.0
220
0.0
230
1.0
 70
     8
 71
     3
 72
     8
 73
     4
 74
     0
 42
0.0000000001
 43
0.0000000001
 40
0.0
 40
0.0
 40
0.0
 40
0.0
 40
1.0
 40
1.0
 40
1.0
 40
1.0
 10
-28.44668895215336
 20
-138.3912994862
 30
0.0
 10
-28.39156738802597
 20
-138.352369881535
 30
0.0
 10
-28.36245631197119
 20
-138.2917361609949
 30
0.0
 10
-28.36245631197119
 20
-138.2276573426968
 30
0.0
  0
POLYLINE
  5
10A
330
1F
100
AcDbEntity
  8
STANDARDEBENE
 62
     7
100
AcDb2dPolyline
 66
     1
 10
0.0
 20
0.0
 30
0.0
  0
VERTEX
  5
10B
330
10A
100
AcDbEntity
  8
STANDARDEBENE
 62
     7
100
AcDbVertex
100
AcDb2dVertex
 10
-26.09799355566297
 20
-150.9269766980952
 30
0.0
  0
VERTEX
  5
10C
330
10A
100
AcDbEntity
  8
STANDARDEBENE
 62
     7
100
AcDbVertex
100
AcDb2dVertex
 10
-26.50985499262729
 20
-150.7629900448162
 30
0.0
  0
VERTEX
  5
10D
330
10A
100
AcDbEntity
  8
STANDARDEBENE
 62
     7
100
AcDbVertex
100
AcDb2dVertex
 10
-26.69726831066041
 20
-150.3619806657895
 30
0.0
  0
SEQEND
  5
10E
330
10A
100
AcDbEntity
  8
STANDARDEBENE
  0
POLYLINE
  5
10F
330
1F
100
AcDbEntity
  8
STANDARDEBENE
 62
     7
100
AcDb2dPolyline
 66
     1
 10
0.0
 20
0.0
 30
0.0
  0
VERTEX
  5
110
330
10F
100
AcDbEntity
  8
STANDARDEBENE
 62
     7
100
AcDbVertex
100
AcDb2dVertex
 10
-11.17107398996657
 20
-150.3619806657895
 30
0.0
  0
VERTEX
  5
111
330
10F
100
AcDbEntity
  8
STANDARDEBENE
 62
     7
100
AcDbVertex
100
AcDb2dVertex
 10
-11.35814279822389
 20
-150.7629900448162
 30
0.0
  0
VERTEX
  5
112
330
10F
100
AcDbEntity
  8
STANDARDEBENE
 62
     7
100
AcDbVertex
100
AcDb2dVertex
 10
-11.77000423518821
 20
-150.9269766980952
 30
0.0
  0
SEQEND
  5
113
330
10F
100
AcDbEntity
  8
STANDARDEBENE
  0
POLYLINE
  5
114
330
1F
100
AcDbEntity
  8
STANDARDEBENE
 62
     7
100
AcDb2dPolyline
 66
     1
 10
0.0
 20
0.0
 30
0.0
  0
VERTEX
  5
115
330
114
100
AcDbEntity
  8
STANDARDEBENE
 62
     7
100
AcDbVertex
100
AcDb2dVertex
 10
-10.80503235318314
 20
-147.08224760021
 30
0.0
  0
VERTEX
  5
116
330
114
100
AcDbEntity
  8
STANDARDEBENE
 62
     7
100
AcDbVertex
100
AcDb2dVertex
 10
-10.94283626350161
 20
-147.2675938595883
 30
0.0
  0
VERTEX
  5
117
330
114
100
AcDbEntity
  8
STANDARDEBENE
 62
     7
100
AcDbVertex
100
AcDb2dVertex
 10
-11.00036939605957
 20
-147.49118070408
 30
0.0
  0
SEQEND
  5
118
330
114
100
AcDbEntity
  8
STANDARDEBENE
  0
POLYLINE
  5
119
330
1F
100
AcDbEntity
  8
STANDARDEBENE
 62
     7
100
AcDb2dPolyline
 66
     1
 10
0.0
 20
0.0
 30
0.0
  0
VERTEX
  5
11A
330
119
100
AcDbEntity
  8
STANDARDEBENE
 62
     7
100
AcDbVertex
100
AcDb2dVertex
 10
-26.86797290456741
 20
-147.4918697236316
 30
0.0
  0
VERTEX
  5
11B
330
119
100
AcDbEntity
  8
STANDARDEBENE
 62
     7
100
AcDbVertex
100
AcDb2dVertex
 10
-26.92464476268588
 20
-147.2689718986915
 30
0.0
  0
VERTEX
  5
11C
330
119
100
AcDbEntity
  8
STANDARDEBENE
 62
     7
100
AcDbVertex
100
AcDb2dVertex
 10
-27.06107063390116
 20
-147.0843146588647
 30
0.0
  0
SEQEND
  5
11D
330
119
100
AcDbEntity
  8
STANDARDEBENE
  0
POLYLINE
  5
11E
330
1F
100
AcDbEntity
  8
STANDARDEBENE
 62
     7
100
AcDb2dPolyline
 66
     1
 10
0.0
 20
0.0
 30
0.0
  0
VERTEX
  5
11F
330
11E
100
AcDbEntity
  8
STANDARDEBENE
 62
     7
100
AcDbVertex
100
AcDb2dVertex
 10
-26.86797290456741
 20
-147.4918697236316
 30
0.0
  0
VERTEX
  5
120
330
11E
100
AcDbEntity
  8
STANDARDEBENE
 62
     7
100
AcDbVertex
100
AcDb2dVertex
 10
-26.92464476268588
 20
-147.2689718986915
 30
0.0
  0
VERTEX
  5
121
330
11E
100
AcDbEntity
  8
STANDARDEBENE
 62
     7
100
AcDbVertex
100
AcDb2dVertex
 10
-27.06089837901327
 20
-147.0846591686405
 30
0.0
  0
SEQEND
  5
122
330
11E
100
AcDbEntity
  8
STANDARDEBENE
  0
POLYLINE
  5
123
330
1F
100
AcDbEntity
  8
STANDARDEBENE
 62
     7
100
AcDb2dPolyline
 66
     1
 10
0.0
 20
0.0
 30
0.0
  0
VERTEX
  5
124
330
123
100
AcDbEntity
  8
STANDARDEBENE
 62
     7
100
AcDbVertex
100
AcDb2dVertex
 10
-10.80503235318314
 20
-147.0815585806584
 30
0.0
  0
VERTEX
  5
125
330
123
100
AcDbEntity
  8
STANDARDEBENE
 62
     7
100
AcDbVertex
100
AcDb2dVertex
 10
-10.94283626350161
 20
-147.2675938595883
 30
0.0
  0
VERTEX
  5
126
330
123
100
AcDbEntity
  8
STANDARDEBENE
 62
     7
100
AcDbVertex
100
AcDb2dVertex
 10
-11.00036939605957
 20
-147.4918697236316
 30
0.0
  0
SEQEND
  5
127
330
123
100
AcDbEntity
  8
STANDARDEBENE
  0
POLYLINE
  5
128
330
1F
100
AcDbEntity
  8
STANDARDEBENE
 62
     7
100
AcDb2dPolyline
 66
     1
 10
0.0
 20
0.0
 30
0.0
  0
VERTEX
  5
129
330
128
100
AcDbEntity
  8
STANDARDEBENE
 62
     7
100
AcDbVertex
100
AcDb2dVertex
 10
-11.17107398996657
 20
-150.3619806657895
 30
0.0
  0
VERTEX
  5
12A
330
128
100
AcDbEntity
  8
STANDARDEBENE
 62
     7
100
AcDbVertex
100
AcDb2dVertex
 10
-11.35814279822389
 20
-150.7629900448162
 30
0.0
  0
VERTEX
  5
12B
330
128
100
AcDbEntity
  8
STANDARDEBENE
 62
     7
100
AcDbVertex
100
AcDb2dVertex
 10
-11.77000423518821
 20
-150.9269766980952
 30
0.0
  0
SEQEND
  5
12C
330
128
100
AcDbEntity
  8
STANDARDEBENE
  0
POLYLINE
  5
12D
330
1F
100
AcDbEntity
  8
STANDARDEBENE
 62
     7
100
AcDb2dPolyline
 66
     1
 10
0.0
 20
0.0
 30
0.0
  0
VERTEX
  5
12E
330
12D
100
AcDbEntity
  8
STANDARDEBENE
 62
     7
100
AcDbVertex
100
AcDb2dVertex
 10
-26.09799355566297
 20
-150.9269766980952
 30
0.0
  0
VERTEX
  5
12F
330
12D
100
AcDbEntity
  8
STANDARDEBENE
 62
     7
100
AcDbVertex
100
AcDb2dVertex
 10
-26.50985499262729
 20
-150.7629900448162
 30
0.0
  0
VERTEX
  5
130
330
12D
100
AcDbEntity
  8
STANDARDEBENE
 62
     7
100
AcDbVertex
100
AcDb2dVertex
 10
-26.69726831066041
 20
-150.3619806657895
 30
0.0
  0
SEQEND
  5
131
330
12D
100
AcDbEntity
  8
STANDARDEBENE
  0
POLYLINE
  5
132
330
1F
100
AcDbEntity
  8
STANDARDEBENE
 62
     7
100
AcDb2dPolyline
 66
     1
 10
0.0
 20
0.0
 30
0.0
  0
VERTEX
  5
133
330
132
100
AcDbEntity
  8
STANDARDEBENE
 62
     7
100
AcDbVertex
100
AcDb2dVertex
 10
-26.86280525793047
 20
-147.4908361943042
 30
0.0
  0
VERTEX
  5
134
330
132
100
AcDbEntity
  8
STANDARDEBENE
 62
     7
100
AcDbVertex
100
AcDb2dVertex
 10
-26.77840036286041
 20
-148.9264084300468
 30
0.0
  0
VERTEX
  5
135
330
132
100
AcDbEntity
  8
STANDARDEBENE
 62
     7
100
AcDbVertex
100
AcDb2dVertex
 10
-26.69278968357506
 20
-150.3619806657895
 30
0.0
  0
SEQEND
  5
136
330
132
100
AcDbEntity
  8
STANDARDEBENE
  0
POLYLINE
  5
137
330
1F
100
AcDbEntity
  8
STANDARDEBENE
 62
     7
100
AcDb2dPolyline
 66
     1
 10
0.0
 20
0.0
 30
0.0
  0
VERTEX
  5
138
330
137
100
AcDbEntity
  8
STANDARDEBENE
 62
     7
100
AcDbVertex
100
AcDb2dVertex
 10
-11.17520810727613
 20
-150.3619806657895
 30
0.0
  0
VERTEX
  5
139
330
137
100
AcDbEntity
  8
STANDARDEBENE
 62
     7
100
AcDbVertex
100
AcDb2dVertex
 10
-11.08994193776657
 20
-148.9264084300468
 30
0.0
  0
VERTEX
  5
13A
330
137
100
AcDbEntity
  8
STANDARDEBENE
 62
     7
100
AcDbVertex
100
AcDb2dVertex
 10
-11.00519253292072
 20
-147.4908361943042
 30
0.0
  0
SEQEND
  5
13B
330
137
100
AcDbEntity
  8
STANDARDEBENE
  0
POLYLINE
  5
13C
330
1F
100
AcDbEntity
  8
STANDARDEBENE
 62
     7
100
AcDb2dPolyline
 66
     1
 10
0.0
 20
0.0
 30
0.0
  0
VERTEX
  5
13D
330
13C
100
AcDbEntity
  8
STANDARDEBENE
 62
     7
100
AcDbVertex
100
AcDb2dVertex
 10
-31.43393321808194
 20
-127.9268150463914
 30
0.0
  0
VERTEX
  5
13E
330
13C
100
AcDbEntity
  8
STANDARDEBENE
 62
     7
100
AcDbVertex
100
AcDb2dVertex
 10
-31.32713518758512
 20
-127.9268150463914
 30
0.0
  0
VERTEX
  5
13F
330
13C
100
AcDbEntity
  8
STANDARDEBENE
 62
     7
100
AcDbVertex
100
AcDb2dVertex
 10
-31.00829139008577
 20
-127.9268150463914
 30
0.0
  0
VERTEX
  5
140
330
13C
100
AcDbEntity
  8
STANDARDEBENE
 62
     7
100
AcDbVertex
100
AcDb2dVertex
 10
-30.48239721733292
 20
-127.9268150463914
 30
0.0
  0
VERTEX
  5
141
330
13C
100
AcDbEntity
  8
STANDARDEBENE
 62
     7
100
AcDbVertex
100
AcDb2dVertex
 10
-29.75961570771256
 20
-127.9268150463914
 30
0.0
  0
VERTEX
  5
142
330
13C
100
AcDbEntity
  8
STANDARDEBENE
 62
     7
100
AcDbVertex
100
AcDb2dVertex
 10
-28.85097117405016
 20
-127.9268150463914
 30
0.0
  0
VERTEX
  5
143
330
13C
100
AcDbEntity
  8
STANDARDEBENE
 62
     7
100
AcDbVertex
100
AcDb2dVertex
 10
-27.77334459535975
 20
-127.9268150463914
 30
0.0
  0
VERTEX
  5
144
330
13C
100
AcDbEntity
  8
STANDARDEBENE
 62
     7
100
AcDbVertex
100
AcDb2dVertex
 10
-26.54378920554322
 20
-127.9268150463914
 30
0.0
  0
VERTEX
  5
145
330
13C
100
AcDbEntity
  8
STANDARDEBENE
 62
     7
100
AcDbVertex
100
AcDb2dVertex
 10
-25.18383686558784
 20
-127.9268150463914
 30
0.0
  0
VERTEX
  5
146
330
13C
100
AcDbEntity
  8
STANDARDEBENE
 62
     7
100
AcDbVertex
100
AcDb2dVertex
 10
-23.71725875002355
 20
-127.9268150463914
 30
0.0
  0
VERTEX
  5
147
330
13C
100
AcDbEntity
  8
STANDARDEBENE
 62
     7
100
AcDbVertex
100
AcDb2dVertex
 10
-22.16972083714716
 20
-127.9268150463914
 30
0.0
  0
VERTEX
  5
148
330
13C
100
AcDbEntity
  8
STANDARDEBENE
 62
     7
100
AcDbVertex
100
AcDb2dVertex
 10
-20.5655110661523
 20
-127.9268150463914
 30
0.0
  0
VERTEX
  5
149
330
13C
100
AcDbEntity
  8
STANDARDEBENE
 62
     7
100
AcDbVertex
100
AcDb2dVertex
 10
-18.93408502286954
 20
-127.9268150463914
 30
0.0
  0
VERTEX
  5
14A
330
13C
100
AcDbEntity
  8
STANDARDEBENE
 62
     7
100
AcDbVertex
100
AcDb2dVertex
 10
-17.30248672469889
 20
-127.9268150463914
 30
0.0
  0
VERTEX
  5
14B
330
13C
100
AcDbEntity
  8
STANDARDEBENE
 62
     7
100
AcDbVertex
100
AcDb2dVertex
 10
-15.69896597325562
 20
-127.9268150463914
 30
0.0
  0
VERTEX
  5
14C
330
13C
100
AcDbEntity
  8
STANDARDEBENE
 62
     7
100
AcDbVertex
100
AcDb2dVertex
 10
-14.15073904082764
 20
-127.9268150463914
 30
0.0
  0
VERTEX
  5
14D
330
13C
100
AcDbEntity
  8
STANDARDEBENE
 62
     7
100
AcDbVertex
100
AcDb2dVertex
 10
-12.68416092526335
 20
-127.9268150463914
 30
0.0
  0
VERTEX
  5
14E
330
13C
100
AcDbEntity
  8
STANDARDEBENE
 62
     7
100
AcDbVertex
100
AcDb2dVertex
 10
-11.32420858530797
 20
-127.9268150463914
 30
0.0
  0
VERTEX
  5
14F
330
13C
100
AcDbEntity
  8
STANDARDEBENE
 62
     7
100
AcDbVertex
100
AcDb2dVertex
 10
-10.09568672481883
 20
-127.9268150463914
 30
0.0
  0
VERTEX
  5
150
330
13C
100
AcDbEntity
  8
STANDARDEBENE
 62
     7
100
AcDbVertex
100
AcDb2dVertex
 10
-9.01737112657682
 20
-127.9268150463914
 30
0.0
  0
VERTEX
  5
151
330
13C
100
AcDbEntity
  8
STANDARDEBENE
 62
     7
100
AcDbVertex
100
AcDb2dVertex
 10
-8.108726592914426
 20
-127.9268150463914
 30
0.0
  0
VERTEX
  5
152
330
13C
100
AcDbEntity
  8
STANDARDEBENE
 62
     7
100
AcDbVertex
100
AcDb2dVertex
 10
-7.385945083294064
 20
-127.9268150463914
 30
0.0
  0
VERTEX
  5
153
330
13C
100
AcDbEntity
  8
STANDARDEBENE
 62
     7
100
AcDbVertex
100
AcDb2dVertex
 10
-6.860050910541212
 20
-127.9268150463914
 30
0.0
  0
VERTEX
  5
154
330
13C
100
AcDbEntity
  8
STANDARDEBENE
 62
     7
100
AcDbVertex
100
AcDb2dVertex
 10
-6.540862603266062
 20
-127.9268150463914
 30
0.0
  0
VERTEX
  5
155
330
13C
100
AcDbEntity
  8
STANDARDEBENE
 62
     7
100
AcDbVertex
100
AcDb2dVertex
 10
-6.434064572769249
 20
-127.9268150463914
 30
0.0
  0
SEQEND
  5
156
330
13C
100
AcDbEntity
  8
STANDARDEBENE
  0
POLYLINE
  5
157
330
1F
100
AcDbEntity
  8
STANDARDEBENE
 62
     7
100
AcDb2dPolyline
 66
     1
 10
0.0
 20
0.0
 30
0.0
  0
VERTEX
  5
158
330
157
100
AcDbEntity
  8
STANDARDEBENE
 62
     7
100
AcDbVertex
100
AcDb2dVertex
 10
-10.50375855424939
 20
-146.9261846717743
 30
0.0
  0
VERTEX
  5
159
330
157
100
AcDbEntity
  8
STANDARDEBENE
 62
     7
100
AcDbVertex
100
AcDb2dVertex
 10
-9.945308207683802
 20
-146.9261846717743
 30
0.0
  0
VERTEX
  5
15A
330
157
100
AcDbEntity
  8
STANDARDEBENE
 62
     7
100
AcDbVertex
100
AcDb2dVertex
 10
-9.7566891054354
 20
-146.9261846717743
 30
0.0
  0
SEQEND
  5
15B
330
157
100
AcDbEntity
  8
STANDARDEBENE
  0
POLYLINE
  5
15C
330
1F
100
AcDbEntity
  8
STANDARDEBENE
 62
     7
100
AcDb2dPolyline
 66
     1
 10
0.0
 20
0.0
 30
0.0
  0
VERTEX
  5
15D
330
15C
100
AcDbEntity
  8
STANDARDEBENE
 62
     7
100
AcDbVertex
100
AcDb2dVertex
 10
-28.11148094030368
 20
-146.9261846717743
 30
0.0
  0
VERTEX
  5
15E
330
15C
100
AcDbEntity
  8
STANDARDEBENE
 62
     7
100
AcDbVertex
100
AcDb2dVertex
 10
-27.92268958316738
 20
-146.9261846717743
 30
0.0
  0
VERTEX
  5
15F
330
15C
100
AcDbEntity
  8
STANDARDEBENE
 62
     7
100
AcDbVertex
100
AcDb2dVertex
 10
-27.3640669817139
 20
-146.9261846717743
 30
0.0
  0
VERTEX
  5
160
330
15C
100
AcDbEntity
  8
STANDARDEBENE
 62
     7
100
AcDbVertex
100
AcDb2dVertex
 10
-27.15977268466677
 20
-147.0057664299832
 30
0.0
  0
VERTEX
  5
161
330
15C
100
AcDbEntity
  8
STANDARDEBENE
 62
     7
100
AcDbVertex
100
AcDb2dVertex
 10
-26.93050142887442
 20
-147.2131613150125
 30
0.0
  0
VERTEX
  5
162
330
15C
100
AcDbEntity
  8
STANDARDEBENE
 62
     7
100
AcDbVertex
100
AcDb2dVertex
 10
-26.68710527227442
 20
-147.4925587431832
 30
0.0
  0
VERTEX
  5
163
330
15C
100
AcDbEntity
  8
STANDARDEBENE
 62
     7
100
AcDbVertex
100
AcDb2dVertex
 10
-26.68366017451646
 20
-147.4970373702685
 30
0.0
  0
SEQEND
  5
164
330
15C
100
AcDbEntity
  8
STANDARDEBENE
  0
POLYLINE
  5
165
330
1F
100
AcDbEntity
  8
STANDARDEBENE
 62
     7
100
AcDb2dPolyline
 66
     1
 10
0.0
 20
0.0
 30
0.0
  0
VERTEX
  5
166
330
165
100
AcDbEntity
  8
STANDARDEBENE
 62
     7
100
AcDbVertex
100
AcDb2dVertex
 10
-23.79649599845667
 20
-147.4970373702685
 30
0.0
  0
VERTEX
  5
167
330
165
100
AcDbEntity
  8
STANDARDEBENE
 62
     7
100
AcDbVertex
100
AcDb2dVertex
 10
-23.79115609693183
 20
-147.4925587431832
 30
0.0
  0
VERTEX
  5
168
330
165
100
AcDbEntity
  8
STANDARDEBENE
 62
     7
100
AcDbVertex
100
AcDb2dVertex
 10
-23.41719073530509
 20
-147.2193624909768
 30
0.0
  0
VERTEX
  5
169
330
165
100
AcDbEntity
  8
STANDARDEBENE
 62
     7
100
AcDbVertex
100
AcDb2dVertex
 10
-22.99430498551529
 20
-147.0057664299832
 30
0.0
  0
VERTEX
  5
16A
330
165
100
AcDbEntity
  8
STANDARDEBENE
 62
     7
100
AcDbVertex
100
AcDb2dVertex
 10
-22.56125619733951
 20
-146.9261846717743
 30
0.0
  0
VERTEX
  5
16B
330
165
100
AcDbEntity
  8
STANDARDEBENE
 62
     7
100
AcDbVertex
100
AcDb2dVertex
 10
-21.14911062635101
 20
-146.9261846717743
 30
0.0
  0
VERTEX
  5
16C
330
165
100
AcDbEntity
  8
STANDARDEBENE
 62
     7
100
AcDbVertex
100
AcDb2dVertex
 10
-19.67857064836506
 20
-146.9261846717743
 30
0.0
  0
VERTEX
  5
16D
330
165
100
AcDbEntity
  8
STANDARDEBENE
 62
     7
100
AcDbVertex
100
AcDb2dVertex
 10
-18.18942714248612
 20
-146.9261846717743
 30
0.0
  0
VERTEX
  5
16E
330
165
100
AcDbEntity
  8
STANDARDEBENE
 62
     7
100
AcDbVertex
100
AcDb2dVertex
 10
-16.71888716450018
 20
-146.9261846717743
 30
0.0
  0
VERTEX
  5
16F
330
165
100
AcDbEntity
  8
STANDARDEBENE
 62
     7
100
AcDbVertex
100
AcDb2dVertex
 10
-15.30674159351168
 20
-146.9261846717743
 30
0.0
  0
VERTEX
  5
170
330
165
100
AcDbEntity
  8
STANDARDEBENE
 62
     7
100
AcDbVertex
100
AcDb2dVertex
 10
-14.87386506022379
 20
-147.0057664299832
 30
0.0
  0
VERTEX
  5
171
330
165
100
AcDbEntity
  8
STANDARDEBENE
 62
     7
100
AcDbVertex
100
AcDb2dVertex
 10
-14.4599365646047
 20
-147.2131613150125
 30
0.0
  0
VERTEX
  5
172
330
165
100
AcDbEntity
  8
STANDARDEBENE
 62
     7
100
AcDbVertex
100
AcDb2dVertex
 10
-14.07787522324675
 20
-147.4925587431832
 30
0.0
  0
VERTEX
  5
173
330
165
100
AcDbEntity
  8
STANDARDEBENE
 62
     7
100
AcDbVertex
100
AcDb2dVertex
 10
-14.07219081194611
 20
-147.4970373702685
 30
0.0
  0
SEQEND
  5
174
330
165
100
AcDbEntity
  8
STANDARDEBENE
  0
POLYLINE
  5
175
330
1F
100
AcDbEntity
  8
STANDARDEBENE
 62
     7
100
AcDb2dPolyline
 66
     1
 10
0.0
 20
0.0
 30
0.0
  0
VERTEX
  5
176
330
175
100
AcDbEntity
  8
STANDARDEBENE
 62
     7
100
AcDbVertex
100
AcDb2dVertex
 10
-11.18433761633472
 20
-147.4970373702685
 30
0.0
  0
VERTEX
  5
177
330
175
100
AcDbEntity
  8
STANDARDEBENE
 62
     7
100
AcDbVertex
100
AcDb2dVertex
 10
-11.18054800880097
 20
-147.4925587431832
 30
0.0
  0
VERTEX
  5
178
330
175
100
AcDbEntity
  8
STANDARDEBENE
 62
     7
100
AcDbVertex
100
AcDb2dVertex
 10
-10.94283626350161
 20
-147.2193624909768
 30
0.0
  0
VERTEX
  5
179
330
175
100
AcDbEntity
  8
STANDARDEBENE
 62
     7
100
AcDbVertex
100
AcDb2dVertex
 10
-10.70822510618442
 20
-147.0057664299832
 30
0.0
  0
VERTEX
  5
17A
330
175
100
AcDbEntity
  8
STANDARDEBENE
 62
     7
100
AcDbVertex
100
AcDb2dVertex
 10
-10.50375855424939
 20
-146.9261846717743
 30
0.0
  0
SEQEND
  5
17B
330
175
100
AcDbEntity
  8
STANDARDEBENE
  0
POLYLINE
  5
17C
330
1F
100
AcDbEntity
  8
STANDARDEBENE
 62
     7
100
AcDb2dPolyline
 66
     1
 10
0.0
 20
0.0
 30
0.0
  0
VERTEX
  5
17D
330
17C
100
AcDbEntity
  8
STANDARDEBENE
 62
     7
100
AcDbVertex
100
AcDb2dVertex
 10
-28.44910052058393
 20
-140.1768936541515
 30
0.0
  0
VERTEX
  5
17E
330
17C
100
AcDbEntity
  8
STANDARDEBENE
 62
     7
100
AcDbVertex
100
AcDb2dVertex
 10
-28.42877444381196
 20
-140.2692222740649
 30
0.0
  0
VERTEX
  5
17F
330
17C
100
AcDbEntity
  8
STANDARDEBENE
 62
     7
100
AcDbVertex
100
AcDb2dVertex
 10
-28.371241311254
 20
-140.5389734285133
 30
0.0
  0
VERTEX
  5
180
330
17C
100
AcDbEntity
  8
STANDARDEBENE
 62
     7
100
AcDbVertex
100
AcDb2dVertex
 10
-28.29631043501833
 20
-140.9658210407248
 30
0.0
  0
VERTEX
  5
181
330
17C
100
AcDbEntity
  8
STANDARDEBENE
 62
     7
100
AcDbVertex
100
AcDb2dVertex
 10
-28.22861426407438
 20
-141.5087684473795
 30
0.0
  0
VERTEX
  5
182
330
17C
100
AcDbEntity
  8
STANDARDEBENE
 62
     7
100
AcDbVertex
100
AcDb2dVertex
 10
-28.1910626985126
 20
-142.0989136933184
 30
0.0
  0
VERTEX
  5
183
330
17C
100
AcDbEntity
  8
STANDARDEBENE
 62
     7
100
AcDbVertex
100
AcDb2dVertex
 10
-28.18951240452152
 20
-142.6594310985387
 30
0.0
  0
VERTEX
  5
184
330
17C
100
AcDbEntity
  8
STANDARDEBENE
 62
     7
100
AcDbVertex
100
AcDb2dVertex
 10
-28.21621191214572
 20
-143.137266157568
 30
0.0
  0
VERTEX
  5
185
330
17C
100
AcDbEntity
  8
STANDARDEBENE
 62
     7
100
AcDbVertex
100
AcDb2dVertex
 10
-28.24997387017374
 20
-143.485565540898
 30
0.0
  0
VERTEX
  5
186
330
17C
100
AcDbEntity
  8
STANDARDEBENE
 62
     7
100
AcDbVertex
100
AcDb2dVertex
 10
-28.27098896649731
 20
-143.6529972919349
 30
0.0
  0
SEQEND
  5
187
330
17C
100
AcDbEntity
  8
STANDARDEBENE
  0
POLYLINE
  5
188
330
1F
100
AcDbEntity
  8
STANDARDEBENE
 62
     7
100
AcDb2dPolyline
 66
     1
 10
0.0
 20
0.0
 30
0.0
  0
VERTEX
  5
189
330
188
100
AcDbEntity
  8
STANDARDEBENE
 62
     7
100
AcDbVertex
100
AcDb2dVertex
 10
-9.597008824353875
 20
-143.6540308212623
 30
0.0
  0
VERTEX
  5
18A
330
188
100
AcDbEntity
  8
STANDARDEBENE
 62
     7
100
AcDbVertex
100
AcDb2dVertex
 10
-9.599592647672347
 20
-143.6333602347145
 30
0.0
  0
VERTEX
  5
18B
330
188
100
AcDbEntity
  8
STANDARDEBENE
 62
     7
100
AcDbVertex
100
AcDb2dVertex
 10
-9.626464410184449
 20
-143.4142520173081
 30
0.0
  0
VERTEX
  5
18C
330
188
100
AcDbEntity
  8
STANDARDEBENE
 62
     7
100
AcDbVertex
100
AcDb2dVertex
 10
-9.660570877988269
 20
-143.0263340097617
 30
0.0
  0
VERTEX
  5
18D
330
188
100
AcDbEntity
  8
STANDARDEBENE
 62
     7
100
AcDbVertex
100
AcDb2dVertex
 10
-9.681930484087632
 20
-142.5126699340496
 30
0.0
  0
VERTEX
  5
18E
330
188
100
AcDbEntity
  8
STANDARDEBENE
 62
     7
100
AcDbVertex
100
AcDb2dVertex
 10
-9.670217151710562
 20
-141.9376831182458
 30
0.0
  0
VERTEX
  5
18F
330
188
100
AcDbEntity
  8
STANDARDEBENE
 62
     7
100
AcDbVertex
100
AcDb2dVertex
 10
-9.62456960641757
 20
-141.3678639490789
 30
0.0
  0
VERTEX
  5
190
330
188
100
AcDbEntity
  8
STANDARDEBENE
 62
     7
100
AcDbVertex
100
AcDb2dVertex
 10
-9.554806376818846
 20
-140.8579894809006
 30
0.0
  0
VERTEX
  5
191
330
188
100
AcDbEntity
  8
STANDARDEBENE
 62
     7
100
AcDbVertex
100
AcDb2dVertex
 10
-9.480220010358975
 20
-140.4576691214254
 30
0.0
  0
VERTEX
  5
192
330
188
100
AcDbEntity
  8
STANDARDEBENE
 62
     7
100
AcDbVertex
100
AcDb2dVertex
 10
-9.423203642464708
 20
-140.1972197309235
 30
0.0
  0
SEQEND
  5
193
330
188
100
AcDbEntity
  8
STANDARDEBENE
  0
POLYLINE
  5
194
330
1F
100
AcDbEntity
  8
STANDARDEBENE
 62
     7
100
AcDb2dPolyline
 66
     1
 10
0.0
 20
0.0
 30
0.0
  0
VERTEX
  5
195
330
194
100
AcDbEntity
  8
STANDARDEBENE
 62
     7
100
AcDbVertex
100
AcDb2dVertex
 10
-11.86508893330795
 20
-150.9269766980952
 30
0.0
  0
VERTEX
  5
196
330
194
100
AcDbEntity
  8
STANDARDEBENE
 62
     7
100
AcDbVertex
100
AcDb2dVertex
 10
-12.98974109639455
 20
-150.9269766980952
 30
0.0
  0
VERTEX
  5
197
330
194
100
AcDbEntity
  8
STANDARDEBENE
 62
     7
100
AcDbVertex
100
AcDb2dVertex
 10
-14.38500568836903
 20
-150.9269766980952
 30
0.0
  0
VERTEX
  5
198
330
194
100
AcDbEntity
  8
STANDARDEBENE
 62
     7
100
AcDbVertex
100
AcDb2dVertex
 10
-14.49679911061489
 20
-150.9269766980952
 30
0.0
  0
VERTEX
  5
199
330
194
100
AcDbEntity
  8
STANDARDEBENE
 62
     7
100
AcDbVertex
100
AcDb2dVertex
 10
-14.69420321214609
 20
-150.9269766980952
 30
0.0
  0
VERTEX
  5
19A
330
194
100
AcDbEntity
  8
STANDARDEBENE
 62
     7
100
AcDbVertex
100
AcDb2dVertex
 10
-14.89367437233207
 20
-150.9269766980952
 30
0.0
  0
VERTEX
  5
19B
330
194
100
AcDbEntity
  8
STANDARDEBENE
 62
     7
100
AcDbVertex
100
AcDb2dVertex
 10
-15.07213043619449
 20
-150.9269766980952
 30
0.0
  0
VERTEX
  5
19C
330
194
100
AcDbEntity
  8
STANDARDEBENE
 62
     7
100
AcDbVertex
100
AcDb2dVertex
 10
-15.20976209162506
 20
-150.9269766980952
 30
0.0
  0
VERTEX
  5
19D
330
194
100
AcDbEntity
  8
STANDARDEBENE
 62
     7
100
AcDbVertex
100
AcDb2dVertex
 10
-15.29072188893716
 20
-150.9269766980952
 30
0.0
  0
VERTEX
  5
19E
330
194
100
AcDbEntity
  8
STANDARDEBENE
 62
     7
100
AcDbVertex
100
AcDb2dVertex
 10
-15.30932541683015
 20
-150.9269766980952
 30
0.0
  0
SEQEND
  5
19F
330
194
100
AcDbEntity
  8
STANDARDEBENE
  0
POLYLINE
  5
1A0
330
1F
100
AcDbEntity
  8
STANDARDEBENE
 62
     7
100
AcDb2dPolyline
 66
     1
 10
0.0
 20
0.0
 30
0.0
  0
VERTEX
  5
1A1
330
1A0
100
AcDbEntity
  8
STANDARDEBENE
 62
     7
100
AcDbVertex
100
AcDb2dVertex
 10
-11.77689443070413
 20
-150.9269766980952
 30
0.0
  0
VERTEX
  5
1A2
330
1A0
100
AcDbEntity
  8
STANDARDEBENE
 62
     7
100
AcDbVertex
100
AcDb2dVertex
 10
-11.78654070442643
 20
-150.9269766980952
 30
0.0
  0
VERTEX
  5
1A3
330
1A0
100
AcDbEntity
  8
STANDARDEBENE
 62
     7
100
AcDbVertex
100
AcDb2dVertex
 10
-11.86508893330795
 20
-150.9269766980952
 30
0.0
  0
SEQEND
  5
1A4
330
1A0
100
AcDbEntity
  8
STANDARDEBENE
  0
POLYLINE
  5
1A5
330
1F
100
AcDbEntity
  8
STANDARDEBENE
 62
     7
100
AcDb2dPolyline
 66
     1
 10
0.0
 20
0.0
 30
0.0
  0
VERTEX
  5
1A6
330
1A5
100
AcDbEntity
  8
STANDARDEBENE
 62
     7
100
AcDbVertex
100
AcDb2dVertex
 10
-23.48299210248215
 20
-150.9269766980952
 30
0.0
  0
VERTEX
  5
1A7
330
1A5
100
AcDbEntity
  8
STANDARDEBENE
 62
     7
100
AcDbVertex
100
AcDb2dVertex
 10
-24.87825669445664
 20
-150.9269766980952
 30
0.0
  0
VERTEX
  5
1A8
330
1A5
100
AcDbEntity
  8
STANDARDEBENE
 62
     7
100
AcDbVertex
100
AcDb2dVertex
 10
-26.00342562220693
 20
-150.9269766980952
 30
0.0
  0
VERTEX
  5
1A9
330
1A5
100
AcDbEntity
  8
STANDARDEBENE
 62
     7
100
AcDbVertex
100
AcDb2dVertex
 10
-26.0595807156617
 20
-150.9269766980952
 30
0.0
  0
VERTEX
  5
1AA
330
1A5
100
AcDbEntity
  8
STANDARDEBENE
 62
     7
100
AcDbVertex
100
AcDb2dVertex
 10
-26.08180159620056
 20
-150.9269766980952
 30
0.0
  0
SEQEND
  5
1AB
330
1A5
100
AcDbEntity
  8
STANDARDEBENE
  0
POLYLINE
  5
1AC
330
1F
100
AcDbEntity
  8
STANDARDEBENE
 62
     7
100
AcDb2dPolyline
 66
     1
 10
0.0
 20
0.0
 30
0.0
  0
VERTEX
  5
1AD
330
1AC
100
AcDbEntity
  8
STANDARDEBENE
 62
     7
100
AcDbVertex
100
AcDb2dVertex
 10
-22.55867237402103
 20
-150.9269766980952
 30
0.0
  0
VERTEX
  5
1AE
330
1AC
100
AcDbEntity
  8
STANDARDEBENE
 62
     7
100
AcDbVertex
100
AcDb2dVertex
 10
-22.56366776577008
 20
-150.9269766980952
 30
0.0
  0
VERTEX
  5
1AF
330
1AC
100
AcDbEntity
  8
STANDARDEBENE
 62
     7
100
AcDbVertex
100
AcDb2dVertex
 10
-22.62068413366434
 20
-150.9269766980952
 30
0.0
  0
VERTEX
  5
1B0
330
1AC
100
AcDbEntity
  8
STANDARDEBENE
 62
     7
100
AcDbVertex
100
AcDb2dVertex
 10
-22.73885098676243
 20
-150.9269766980952
 30
0.0
  0
VERTEX
  5
1B1
330
1AC
100
AcDbEntity
  8
STANDARDEBENE
 62
     7
100
AcDbVertex
100
AcDb2dVertex
 10
-22.903526659593
 20
-150.9269766980952
 30
0.0
  0
VERTEX
  5
1B2
330
1AC
100
AcDbEntity
  8
STANDARDEBENE
 62
     7
100
AcDbVertex
100
AcDb2dVertex
 10
-23.09765791825414
 20
-150.9269766980952
 30
0.0
  0
VERTEX
  5
1B3
330
1AC
100
AcDbEntity
  8
STANDARDEBENE
 62
     7
100
AcDbVertex
100
AcDb2dVertex
 10
-23.29850711754331
 20
-150.9269766980952
 30
0.0
  0
VERTEX
  5
1B4
330
1AC
100
AcDbEntity
  8
STANDARDEBENE
 62
     7
100
AcDbVertex
100
AcDb2dVertex
 10
-23.48299210248215
 20
-150.9269766980952
 30
0.0
  0
SEQEND
  5
1B5
330
1AC
100
AcDbEntity
  8
STANDARDEBENE
  0
POLYLINE
  5
1B6
330
1F
100
AcDbEntity
  8
STANDARDEBENE
 62
     7
100
AcDb2dPolyline
 66
     1
 10
0.0
 20
0.0
 30
0.0
  0
VERTEX
  5
1B7
330
1B6
100
AcDbEntity
  8
STANDARDEBENE
 62
     7
100
AcDbVertex
100
AcDb2dVertex
 10
-15.90911693649128
 20
-150.3261516491067
 30
0.0
  0
VERTEX
  5
1B8
330
1B6
100
AcDbEntity
  8
STANDARDEBENE
 62
     7
100
AcDbVertex
100
AcDb2dVertex
 10
-15.90911693649128
 20
-148.5222984630379
 30
0.0
  0
VERTEX
  5
1B9
330
1B6
100
AcDbEntity
  8
STANDARDEBENE
 62
     7
100
AcDbVertex
100
AcDb2dVertex
 10
-15.90911693649128
 20
-147.5263207012112
 30
0.0
  0
SEQEND
  5
1BA
330
1B6
100
AcDbEntity
  8
STANDARDEBENE
  0
POLYLINE
  5
1BB
330
1F
100
AcDbEntity
  8
STANDARDEBENE
 62
     7
100
AcDb2dPolyline
 66
     1
 10
0.0
 20
0.0
 30
0.0
  0
VERTEX
  5
1BC
330
1BB
100
AcDbEntity
  8
STANDARDEBENE
 62
     7
100
AcDbVertex
100
AcDb2dVertex
 10
-21.9592253641357
 20
-147.5263207012112
 30
0.0
  0
VERTEX
  5
1BD
330
1BB
100
AcDbEntity
  8
STANDARDEBENE
 62
     7
100
AcDbVertex
100
AcDb2dVertex
 10
-21.9592253641357
 20
-148.5222984630379
 30
0.0
  0
VERTEX
  5
1BE
330
1BB
100
AcDbEntity
  8
STANDARDEBENE
 62
     7
100
AcDbVertex
100
AcDb2dVertex
 10
-21.9592253641357
 20
-150.3261516491067
 30
0.0
  0
VERTEX
  5
1BF
330
1BB
100
AcDbEntity
  8
STANDARDEBENE
 62
     7
100
AcDbVertex
100
AcDb2dVertex
 10
-22.01899781023634
 20
-150.386440859871
 30
0.0
  0
VERTEX
  5
1C0
330
1BB
100
AcDbEntity
  8
STANDARDEBENE
 62
     7
100
AcDbVertex
100
AcDb2dVertex
 10
-22.10805358727965
 20
-150.4753243820264
 30
0.0
  0
VERTEX
  5
1C1
330
1BB
100
AcDbEntity
  8
STANDARDEBENE
 62
     7
100
AcDbVertex
100
AcDb2dVertex
 10
-22.20572210871786
 20
-150.5724761388009
 30
0.0
  0
VERTEX
  5
1C2
330
1BB
100
AcDbEntity
  8
STANDARDEBENE
 62
     7
100
AcDbVertex
100
AcDb2dVertex
 10
-22.29563916020066
 20
-150.6627377000596
 30
0.0
  0
VERTEX
  5
1C3
330
1BB
100
AcDbEntity
  8
STANDARDEBENE
 62
     7
100
AcDbVertex
100
AcDb2dVertex
 10
-22.37212033042741
 20
-150.7402523996137
 30
0.0
  0
VERTEX
  5
1C4
330
1BB
100
AcDbEntity
  8
STANDARDEBENE
 62
     7
100
AcDbVertex
100
AcDb2dVertex
 10
-22.44377836379301
 20
-150.8112214134277
 30
0.0
  0
VERTEX
  5
1C5
330
1BB
100
AcDbEntity
  8
STANDARDEBENE
 62
     7
100
AcDbVertex
100
AcDb2dVertex
 10
-22.49390453617135
 20
-150.8604863113665
 30
0.0
  0
VERTEX
  5
1C6
330
1BB
100
AcDbEntity
  8
STANDARDEBENE
 62
     7
100
AcDbVertex
100
AcDb2dVertex
 10
-22.53300639572422
 20
-150.9001049355831
 30
0.0
  0
VERTEX
  5
1C7
330
1BB
100
AcDbEntity
  8
STANDARDEBENE
 62
     7
100
AcDbVertex
100
AcDb2dVertex
 10
-22.55832786424524
 20
-150.9252541492162
 30
0.0
  0
VERTEX
  5
1C8
330
1BB
100
AcDbEntity
  8
STANDARDEBENE
 62
     7
100
AcDbVertex
100
AcDb2dVertex
 10
-22.55867237402103
 20
-150.9269766980952
 30
0.0
  0
SEQEND
  5
1C9
330
1BB
100
AcDbEntity
  8
STANDARDEBENE
  0
POLYLINE
  5
1CA
330
1F
100
AcDbEntity
  8
STANDARDEBENE
 62
     7
100
AcDb2dPolyline
 66
     1
 10
0.0
 20
0.0
 30
0.0
  0
VERTEX
  5
1CB
330
1CA
100
AcDbEntity
  8
STANDARDEBENE
 62
     7
100
AcDbVertex
100
AcDb2dVertex
 10
-15.30932541683015
 20
-150.9269766980952
 30
0.0
  0
VERTEX
  5
1CC
330
1CA
100
AcDbEntity
  8
STANDARDEBENE
 62
     7
100
AcDbVertex
100
AcDb2dVertex
 10
-15.31277051458811
 20
-150.9231870905614
 30
0.0
  0
VERTEX
  5
1CD
330
1CA
100
AcDbEntity
  8
STANDARDEBENE
 62
     7
100
AcDbVertex
100
AcDb2dVertex
 10
-15.33550815979066
 20
-150.8994159160315
 30
0.0
  0
VERTEX
  5
1CE
330
1CA
100
AcDbEntity
  8
STANDARDEBENE
 62
     7
100
AcDbVertex
100
AcDb2dVertex
 10
-15.37219845091295
 20
-150.8632423895729
 30
0.0
  0
VERTEX
  5
1CF
330
1CA
100
AcDbEntity
  8
STANDARDEBENE
 62
     7
100
AcDbVertex
100
AcDb2dVertex
 10
-15.43179864212569
 20
-150.8043312179118
 30
0.0
  0
VERTEX
  5
1D0
330
1CA
100
AcDbEntity
  8
STANDARDEBENE
 62
     7
100
AcDbVertex
100
AcDb2dVertex
 10
-15.49622197019957
 20
-150.7392188702863
 30
0.0
  0
VERTEX
  5
1D1
330
1CA
100
AcDbEntity
  8
STANDARDEBENE
 62
     7
100
AcDbVertex
100
AcDb2dVertex
 10
-15.56460716069511
 20
-150.6706614249028
 30
0.0
  0
VERTEX
  5
1D2
330
1CA
100
AcDbEntity
  8
STANDARDEBENE
 62
     7
100
AcDbVertex
100
AcDb2dVertex
 10
-15.64057156625817
 20
-150.5948692742277
 30
0.0
  0
VERTEX
  5
1D3
330
1CA
100
AcDbEntity
  8
STANDARDEBENE
 62
     7
100
AcDbVertex
100
AcDb2dVertex
 10
-15.73858459747218
 20
-150.4966839881258
 30
0.0
  0
VERTEX
  5
1D4
330
1CA
100
AcDbEntity
  8
STANDARDEBENE
 62
     7
100
AcDbVertex
100
AcDb2dVertex
 10
-15.83194674671294
 20
-150.403321838885
 30
0.0
  0
VERTEX
  5
1D5
330
1CA
100
AcDbEntity
  8
STANDARDEBENE
 62
     7
100
AcDbVertex
100
AcDb2dVertex
 10
-15.8896521341588
 20
-150.3464777258787
 30
0.0
  0
VERTEX
  5
1D6
330
1CA
100
AcDbEntity
  8
STANDARDEBENE
 62
     7
100
AcDbVertex
100
AcDb2dVertex
 10
-15.90687762294861
 20
-150.3289077273131
 30
0.0
  0
SEQEND
  5
1D7
330
1CA
100
AcDbEntity
  8
STANDARDEBENE
  0
SPLINE
  5
1D8
330
1F
100
AcDbEntity
  8
STANDARDEBENE
 62
     7
100
AcDbSpline
210
0.0
220
0.0
230
1.0
 70
     8
 71
     3
 72
     8
 73
     4
 74
     0
 42
0.0000000001
 43
0.0000000001
 40
0.0
 40
0.0
 40
0.0
 40
0.0
 40
1.0
 40
1.0
 40
1.0
 40
1.0
 10
-21.35943384447457
 20
-146.9261846717743
 30
0.0
 10
-21.69016322923889
 20
-146.9261846717743
 30
0.0
 10
-21.9592253641357
 20
-147.1955913164469
 30
0.0
 10
-21.9592253641357
 20
-147.5263207012112
 30
0.0
  0
SPLINE
  5
1D9
330
1F
100
AcDbEntity
  8
STANDARDEBENE
 62
     7
100
AcDbSpline
210
0.0
220
0.0
230
1.0
 70
     8
 71
     3
 72
     8
 73
     4
 74
     0
 42
0.0000000001
 43
0.0000000001
 40
0.0
 40
0.0
 40
0.0
 40
0.0
 40
1.0
 40
1.0
 40
1.0
 40
1.0
 10
-15.90911693649128
 20
-147.5263207012112
 30
0.0
 10
-15.90911693649128
 20
-147.1955913164469
 30
0.0
 10
-16.17783456161229
 20
-146.9261846717743
 30
0.0
 10
-16.50908071104031
 20
-146.9261846717743
 30
0.0
  0
POLYLINE
  5
1DA
330
1F
100
AcDbEntity
  8
STANDARDEBENE
 62
     7
100
AcDb2dPolyline
 66
     1
 10
0.0
 20
0.0
 30
0.0
  0
VERTEX
  5
1DB
330
1DA
100
AcDbEntity
  8
STANDARDEBENE
 62
     7
100
AcDbVertex
100
AcDb2dVertex
 10
-6.434064572769249
 20
-136.9236878413083
 30
0.0
  0
VERTEX
  5
1DC
330
1DA
100
AcDbEntity
  8
STANDARDEBENE
 62
     7
100
AcDbVertex
100
AcDb2dVertex
 10
-6.437165160751415
 20
-136.8816576486612
 30
0.0
  0
VERTEX
  5
1DD
330
1DA
100
AcDbEntity
  8
STANDARDEBENE
 62
     7
100
AcDbVertex
100
AcDb2dVertex
 10
-6.445950160034217
 20
-136.7438537383427
 30
0.0
  0
VERTEX
  5
1DE
330
1DA
100
AcDbEntity
  8
STANDARDEBENE
 62
     7
100
AcDbVertex
100
AcDb2dVertex
 10
-6.456629963083898
 20
-136.52198944273
 30
0.0
  0
VERTEX
  5
1DF
330
1DA
100
AcDbEntity
  8
STANDARDEBENE
 62
     7
100
AcDbVertex
100
AcDb2dVertex
 10
-6.466276236806191
 20
-136.2277780942001
 30
0.0
  0
VERTEX
  5
1E0
330
1DA
100
AcDbEntity
  8
STANDARDEBENE
 62
     7
100
AcDbVertex
100
AcDb2dVertex
 10
-6.469721334564153
 20
-135.8863689063861
 30
0.0
  0
VERTEX
  5
1E1
330
1DA
100
AcDbEntity
  8
STANDARDEBENE
 62
     7
100
AcDbVertex
100
AcDb2dVertex
 10
-6.464553687927211
 20
-135.5411701110383
 30
0.0
  0
VERTEX
  5
1E2
330
1DA
100
AcDbEntity
  8
STANDARDEBENE
 62
     7
100
AcDbVertex
100
AcDb2dVertex
 10
-6.452495845774345
 20
-135.2404130767682
 30
0.0
  0
VERTEX
  5
1E3
330
1DA
100
AcDbEntity
  8
STANDARDEBENE
 62
     7
100
AcDbVertex
100
AcDb2dVertex
 10
-6.441299278060969
 20
-135.0306066233084
 30
0.0
  0
VERTEX
  5
1E4
330
1DA
100
AcDbEntity
  8
STANDARDEBENE
 62
     7
100
AcDbVertex
100
AcDb2dVertex
 10
-6.434753592320842
 20
-134.9386225131708
 30
0.0
  0
SEQEND
  5
1E5
330
1DA
100
AcDbEntity
  8
STANDARDEBENE
  0
POLYLINE
  5
1E6
330
1F
100
AcDbEntity
  8
STANDARDEBENE
 62
     7
100
AcDb2dPolyline
 66
     1
 10
0.0
 20
0.0
 30
0.0
  0
VERTEX
  5
1E7
330
1E6
100
AcDbEntity
  8
STANDARDEBENE
 62
     7
100
AcDbVertex
100
AcDb2dVertex
 10
-31.43393321808194
 20
-137.926555798651
 30
0.0
  0
VERTEX
  5
1E8
330
1E6
100
AcDbEntity
  8
STANDARDEBENE
 62
     7
100
AcDbVertex
100
AcDb2dVertex
 10
-31.32713518758512
 20
-137.926555798651
 30
0.0
  0
VERTEX
  5
1E9
330
1E6
100
AcDbEntity
  8
STANDARDEBENE
 62
     7
100
AcDbVertex
100
AcDb2dVertex
 10
-31.00829139008577
 20
-137.926555798651
 30
0.0
  0
VERTEX
  5
1EA
330
1E6
100
AcDbEntity
  8
STANDARDEBENE
 62
     7
100
AcDbVertex
100
AcDb2dVertex
 10
-30.48239721733292
 20
-137.926555798651
 30
0.0
  0
VERTEX
  5
1EB
330
1E6
100
AcDbEntity
  8
STANDARDEBENE
 62
     7
100
AcDbVertex
100
AcDb2dVertex
 10
-29.75961570771256
 20
-137.926555798651
 30
0.0
  0
VERTEX
  5
1EC
330
1E6
100
AcDbEntity
  8
STANDARDEBENE
 62
     7
100
AcDbVertex
100
AcDb2dVertex
 10
-28.85097117405016
 20
-137.926555798651
 30
0.0
  0
VERTEX
  5
1ED
330
1E6
100
AcDbEntity
  8
STANDARDEBENE
 62
     7
100
AcDbVertex
100
AcDb2dVertex
 10
-27.77334459535975
 20
-137.926555798651
 30
0.0
  0
VERTEX
  5
1EE
330
1E6
100
AcDbEntity
  8
STANDARDEBENE
 62
     7
100
AcDbVertex
100
AcDb2dVertex
 10
-26.54378920554322
 20
-137.926555798651
 30
0.0
  0
VERTEX
  5
1EF
330
1E6
100
AcDbEntity
  8
STANDARDEBENE
 62
     7
100
AcDbVertex
100
AcDb2dVertex
 10
-25.18383686558784
 20
-137.926555798651
 30
0.0
  0
VERTEX
  5
1F0
330
1E6
100
AcDbEntity
  8
STANDARDEBENE
 62
     7
100
AcDbVertex
100
AcDb2dVertex
 10
-23.71725875002355
 20
-137.926555798651
 30
0.0
  0
VERTEX
  5
1F1
330
1E6
100
AcDbEntity
  8
STANDARDEBENE
 62
     7
100
AcDbVertex
100
AcDb2dVertex
 10
-22.16972083714716
 20
-137.926555798651
 30
0.0
  0
VERTEX
  5
1F2
330
1E6
100
AcDbEntity
  8
STANDARDEBENE
 62
     7
100
AcDbVertex
100
AcDb2dVertex
 10
-20.5655110661523
 20
-137.926555798651
 30
0.0
  0
VERTEX
  5
1F3
330
1E6
100
AcDbEntity
  8
STANDARDEBENE
 62
     7
100
AcDbVertex
100
AcDb2dVertex
 10
-18.93408502286954
 20
-137.926555798651
 30
0.0
  0
VERTEX
  5
1F4
330
1E6
100
AcDbEntity
  8
STANDARDEBENE
 62
     7
100
AcDbVertex
100
AcDb2dVertex
 10
-17.30248672469889
 20
-137.926555798651
 30
0.0
  0
VERTEX
  5
1F5
330
1E6
100
AcDbEntity
  8
STANDARDEBENE
 62
     7
100
AcDbVertex
100
AcDb2dVertex
 10
-15.69896597325562
 20
-137.926555798651
 30
0.0
  0
VERTEX
  5
1F6
330
1E6
100
AcDbEntity
  8
STANDARDEBENE
 62
     7
100
AcDbVertex
100
AcDb2dVertex
 10
-14.15073904082764
 20
-137.926555798651
 30
0.0
  0
VERTEX
  5
1F7
330
1E6
100
AcDbEntity
  8
STANDARDEBENE
 62
     7
100
AcDbVertex
100
AcDb2dVertex
 10
-12.68416092526335
 20
-137.926555798651
 30
0.0
  0
VERTEX
  5
1F8
330
1E6
100
AcDbEntity
  8
STANDARDEBENE
 62
     7
100
AcDbVertex
100
AcDb2dVertex
 10
-11.32420858530797
 20
-137.926555798651
 30
0.0
  0
VERTEX
  5
1F9
330
1E6
100
AcDbEntity
  8
STANDARDEBENE
 62
     7
100
AcDbVertex
100
AcDb2dVertex
 10
-10.09568672481883
 20
-137.926555798651
 30
0.0
  0
VERTEX
  5
1FA
330
1E6
100
AcDbEntity
  8
STANDARDEBENE
 62
     7
100
AcDbVertex
100
AcDb2dVertex
 10
-9.01737112657682
 20
-137.926555798651
 30
0.0
  0
VERTEX
  5
1FB
330
1E6
100
AcDbEntity
  8
STANDARDEBENE
 62
     7
100
AcDbVertex
100
AcDb2dVertex
 10
-8.108726592914426
 20
-137.926555798651
 30
0.0
  0
VERTEX
  5
1FC
330
1E6
100
AcDbEntity
  8
STANDARDEBENE
 62
     7
100
AcDbVertex
100
AcDb2dVertex
 10
-7.385945083294064
 20
-137.926555798651
 30
0.0
  0
VERTEX
  5
1FD
330
1E6
100
AcDbEntity
  8
STANDARDEBENE
 62
     7
100
AcDbVertex
100
AcDb2dVertex
 10
-6.860050910541212
 20
-137.926555798651
 30
0.0
  0
VERTEX
  5
1FE
330
1E6
100
AcDbEntity
  8
STANDARDEBENE
 62
     7
100
AcDbVertex
100
AcDb2dVertex
 10
-6.540862603266062
 20
-137.926555798651
 30
0.0
  0
VERTEX
  5
1FF
330
1E6
100
AcDbEntity
  8
STANDARDEBENE
 62
     7
100
AcDbVertex
100
AcDb2dVertex
 10
-6.434064572769249
 20
-137.926555798651
 30
0.0
  0
SEQEND
  5
200
330
1E6
100
AcDbEntity
  8
STANDARDEBENE
  0
POLYLINE
  5
201
330
1F
100
AcDbEntity
  8
STANDARDEBENE
 62
     7
100
AcDb2dPolyline
 66
     1
 10
0.0
 20
0.0
 30
0.0
  0
VERTEX
  5
202
330
201
100
AcDbEntity
  8
STANDARDEBENE
 62
     7
100
AcDbVertex
100
AcDb2dVertex
 10
-18.93408502286954
 20
-126.4268194825749
 30
0.0
  0
VERTEX
  5
203
330
201
100
AcDbEntity
  8
STANDARDEBENE
 62
     7
100
AcDbVertex
100
AcDb2dVertex
 10
-20.35691039690772
 20
-126.4268194825749
 30
0.0
  0
VERTEX
  5
204
330
201
100
AcDbEntity
  8
STANDARDEBENE
 62
     7
100
AcDbVertex
100
AcDb2dVertex
 10
-21.75131371444271
 20
-126.4268194825749
 30
0.0
  0
VERTEX
  5
205
330
201
100
AcDbEntity
  8
STANDARDEBENE
 62
     7
100
AcDbVertex
100
AcDb2dVertex
 10
-23.08801164453185
 20
-126.4268194825749
 30
0.0
  0
VERTEX
  5
206
330
201
100
AcDbEntity
  8
STANDARDEBENE
 62
     7
100
AcDbVertex
100
AcDb2dVertex
 10
-24.34082144421462
 20
-126.4268194825749
 30
0.0
  0
VERTEX
  5
207
330
201
100
AcDbEntity
  8
STANDARDEBENE
 62
     7
100
AcDbVertex
100
AcDb2dVertex
 10
-25.48269909609102
 20
-126.4268194825749
 30
0.0
  0
VERTEX
  5
208
330
201
100
AcDbEntity
  8
STANDARDEBENE
 62
     7
100
AcDbVertex
100
AcDb2dVertex
 10
-26.49176822939799
 20
-126.4268194825749
 30
0.0
  0
VERTEX
  5
209
330
201
100
AcDbEntity
  8
STANDARDEBENE
 62
     7
100
AcDbVertex
100
AcDb2dVertex
 10
-27.34649698314829
 20
-126.4268194825749
 30
0.0
  0
VERTEX
  5
20A
330
201
100
AcDbEntity
  8
STANDARDEBENE
 62
     7
100
AcDbVertex
100
AcDb2dVertex
 10
-28.03052114299159
 20
-126.4268194825749
 30
0.0
  0
VERTEX
  5
20B
330
201
100
AcDbEntity
  8
STANDARDEBENE
 62
     7
100
AcDbVertex
100
AcDb2dVertex
 10
-28.52868227879284
 20
-126.4268194825749
 30
0.0
  0
VERTEX
  5
20C
330
201
100
AcDbEntity
  8
STANDARDEBENE
 62
     7
100
AcDbVertex
100
AcDb2dVertex
 10
-28.83219539126927
 20
-126.4268194825749
 30
0.0
  0
VERTEX
  5
20D
330
201
100
AcDbEntity
  8
STANDARDEBENE
 62
     7
100
AcDbVertex
100
AcDb2dVertex
 10
-28.93365352024124
 20
-126.4268194825749
 30
0.0
  0
SEQEND
  5
20E
330
201
100
AcDbEntity
  8
STANDARDEBENE
  0
POLYLINE
  5
20F
330
1F
100
AcDbEntity
  8
STANDARDEBENE
 62
     7
100
AcDb2dPolyline
 66
     1
 10
0.0
 20
0.0
 30
0.0
  0
VERTEX
  5
210
330
20F
100
AcDbEntity
  8
STANDARDEBENE
 62
     7
100
AcDbVertex
100
AcDb2dVertex
 10
-8.934344270609945
 20
-126.4268194825749
 30
0.0
  0
VERTEX
  5
211
330
20F
100
AcDbEntity
  8
STANDARDEBENE
 62
     7
100
AcDbVertex
100
AcDb2dVertex
 10
-9.035802399581916
 20
-126.4268194825749
 30
0.0
  0
VERTEX
  5
212
330
20F
100
AcDbEntity
  8
STANDARDEBENE
 62
     7
100
AcDbVertex
100
AcDb2dVertex
 10
-9.33948776694624
 20
-126.4268194825749
 30
0.0
  0
VERTEX
  5
213
330
20F
100
AcDbEntity
  8
STANDARDEBENE
 62
     7
100
AcDbVertex
100
AcDb2dVertex
 10
-9.838165667411193
 20
-126.4268194825749
 30
0.0
  0
VERTEX
  5
214
330
20F
100
AcDbEntity
  8
STANDARDEBENE
 62
     7
100
AcDbVertex
100
AcDb2dVertex
 10
-10.52150080770289
 20
-126.4268194825749
 30
0.0
  0
VERTEX
  5
215
330
20F
100
AcDbEntity
  8
STANDARDEBENE
 62
     7
100
AcDbVertex
100
AcDb2dVertex
 10
-11.37657407122899
 20
-126.4268194825749
 30
0.0
  0
VERTEX
  5
216
330
20F
100
AcDbEntity
  8
STANDARDEBENE
 62
     7
100
AcDbVertex
100
AcDb2dVertex
 10
-12.38598771431176
 20
-126.4268194825749
 30
0.0
  0
VERTEX
  5
217
330
20F
100
AcDbEntity
  8
STANDARDEBENE
 62
     7
100
AcDbVertex
100
AcDb2dVertex
 10
-13.52717634663657
 20
-126.4268194825749
 30
0.0
  0
VERTEX
  5
218
330
20F
100
AcDbEntity
  8
STANDARDEBENE
 62
     7
100
AcDbVertex
100
AcDb2dVertex
 10
-14.77998614631934
 20
-126.4268194825749
 30
0.0
  0
VERTEX
  5
219
330
20F
100
AcDbEntity
  8
STANDARDEBENE
 62
     7
100
AcDbVertex
100
AcDb2dVertex
 10
-16.11702858618427
 20
-126.4268194825749
 30
0.0
  0
VERTEX
  5
21A
330
20F
100
AcDbEntity
  8
STANDARDEBENE
 62
     7
100
AcDbVertex
100
AcDb2dVertex
 10
-17.51108739394347
 20
-126.4268194825749
 30
0.0
  0
VERTEX
  5
21B
330
20F
100
AcDbEntity
  8
STANDARDEBENE
 62
     7
100
AcDbVertex
100
AcDb2dVertex
 10
-18.93408502286954
 20
-126.4268194825749
 30
0.0
  0
SEQEND
  5
21C
330
20F
100
AcDbEntity
  8
STANDARDEBENE
  0
POLYLINE
  5
21D
330
1F
100
AcDbEntity
  8
STANDARDEBENE
 62
     7
100
AcDb2dPolyline
 66
     1
 10
0.0
 20
0.0
 30
0.0
  0
VERTEX
  5
21E
330
21D
100
AcDbEntity
  8
STANDARDEBENE
 62
     7
100
AcDbVertex
100
AcDb2dVertex
 10
-27.93423066065656
 20
2.073432085629242
 30
0.0
  0
VERTEX
  5
21F
330
21D
100
AcDbEntity
  8
STANDARDEBENE
 62
     7
100
AcDbVertex
100
AcDb2dVertex
 10
-27.82347076773809
 20
2.073432085629242
 30
0.0
  0
VERTEX
  5
220
330
21D
100
AcDbEntity
  8
STANDARDEBENE
 62
     7
100
AcDbVertex
100
AcDb2dVertex
 10
-27.49360265741326
 20
2.073432085629242
 30
0.0
  0
VERTEX
  5
221
330
21D
100
AcDbEntity
  8
STANDARDEBENE
 62
     7
100
AcDbVertex
100
AcDb2dVertex
 10
-26.95306681918906
 20
2.073432085629242
 30
0.0
  0
VERTEX
  5
222
330
21D
100
AcDbEntity
  8
STANDARDEBENE
 62
     7
100
AcDbVertex
100
AcDb2dVertex
 10
-26.21512687943367
 20
2.073432085629242
 30
0.0
  0
VERTEX
  5
223
330
21D
100
AcDbEntity
  8
STANDARDEBENE
 62
     7
100
AcDbVertex
100
AcDb2dVertex
 10
-25.29786960137637
 20
2.073432085629242
 30
0.0
  0
VERTEX
  5
224
330
21D
100
AcDbEntity
  8
STANDARDEBENE
 62
     7
100
AcDbVertex
100
AcDb2dVertex
 10
-24.22386037533182
 20
2.073432085629242
 30
0.0
  0
VERTEX
  5
225
330
21D
100
AcDbEntity
  8
STANDARDEBENE
 62
     7
100
AcDbVertex
100
AcDb2dVertex
 10
-23.0199709638121
 20
2.073432085629242
 30
0.0
  0
VERTEX
  5
226
330
21D
100
AcDbEntity
  8
STANDARDEBENE
 62
     7
100
AcDbVertex
100
AcDb2dVertex
 10
-21.71531244287201
 20
2.073432085629242
 30
0.0
  0
VERTEX
  5
227
330
21D
100
AcDbEntity
  8
STANDARDEBENE
 62
     7
100
AcDbVertex
100
AcDb2dVertex
 10
-20.34192422166059
 20
2.073432085629242
 30
0.0
  0
VERTEX
  5
228
330
21D
100
AcDbEntity
  8
STANDARDEBENE
 62
     7
100
AcDbVertex
100
AcDb2dVertex
 10
-18.93408502286954
 20
2.073432085629242
 30
0.0
  0
VERTEX
  5
229
330
21D
100
AcDbEntity
  8
STANDARDEBENE
 62
     7
100
AcDbVertex
100
AcDb2dVertex
 10
-17.5264180789664
 20
2.073432085629242
 30
0.0
  0
VERTEX
  5
22A
330
21D
100
AcDbEntity
  8
STANDARDEBENE
 62
     7
100
AcDbVertex
100
AcDb2dVertex
 10
-16.15268534797917
 20
2.073432085629242
 30
0.0
  0
VERTEX
  5
22B
330
21D
100
AcDbEntity
  8
STANDARDEBENE
 62
     7
100
AcDbVertex
100
AcDb2dVertex
 10
-14.84819908192698
 20
2.073432085629242
 30
0.0
  0
VERTEX
  5
22C
330
21D
100
AcDbEntity
  8
STANDARDEBENE
 62
     7
100
AcDbVertex
100
AcDb2dVertex
 10
-13.64396516063147
 20
2.073432085629242
 30
0.0
  0
VERTEX
  5
22D
330
21D
100
AcDbEntity
  8
STANDARDEBENE
 62
     7
100
AcDbVertex
100
AcDb2dVertex
 10
-12.57047269925061
 20
2.073432085629242
 30
0.0
  0
VERTEX
  5
22E
330
21D
100
AcDbEntity
  8
STANDARDEBENE
 62
     7
100
AcDbVertex
100
AcDb2dVertex
 10
-11.65304316630541
 20
2.073432085629242
 30
0.0
  0
VERTEX
  5
22F
330
21D
100
AcDbEntity
  8
STANDARDEBENE
 62
     7
100
AcDbVertex
100
AcDb2dVertex
 10
-10.91493097166212
 20
2.073432085629242
 30
0.0
  0
VERTEX
  5
230
330
21D
100
AcDbEntity
  8
STANDARDEBENE
 62
     7
100
AcDbVertex
100
AcDb2dVertex
 10
-10.37473964321373
 20
2.073432085629242
 30
0.0
  0
VERTEX
  5
231
330
21D
100
AcDbEntity
  8
STANDARDEBENE
 62
     7
100
AcDbVertex
100
AcDb2dVertex
 10
-10.04521604266469
 20
2.073432085629242
 30
0.0
  0
VERTEX
  5
232
330
21D
100
AcDbEntity
  8
STANDARDEBENE
 62
     7
100
AcDbVertex
100
AcDb2dVertex
 10
-9.934283894858325
 20
2.073432085629242
 30
0.0
  0
SEQEND
  5
233
330
21D
100
AcDbEntity
  8
STANDARDEBENE
  0
POLYLINE
  5
234
330
1F
100
AcDbEntity
  8
STANDARDEBENE
 62
     7
100
AcDb2dPolyline
 66
     1
 10
0.0
 20
0.0
 30
0.0
  0
VERTEX
  5
235
330
234
100
AcDbEntity
  8
STANDARDEBENE
 62
     7
100
AcDbVertex
100
AcDb2dVertex
 10
-18.93408502286954
 20
1.073320206492964
 30
0.0
  0
VERTEX
  5
236
330
234
100
AcDbEntity
  8
STANDARDEBENE
 62
     7
100
AcDbVertex
100
AcDb2dVertex
 10
-20.35691039690772
 20
1.073320206492964
 30
0.0
  0
VERTEX
  5
237
330
234
100
AcDbEntity
  8
STANDARDEBENE
 62
     7
100
AcDbVertex
100
AcDb2dVertex
 10
-21.75131371444271
 20
1.073320206492964
 30
0.0
  0
VERTEX
  5
238
330
234
100
AcDbEntity
  8
STANDARDEBENE
 62
     7
100
AcDbVertex
100
AcDb2dVertex
 10
-23.08801164453185
 20
1.073320206492964
 30
0.0
  0
VERTEX
  5
239
330
234
100
AcDbEntity
  8
STANDARDEBENE
 62
     7
100
AcDbVertex
100
AcDb2dVertex
 10
-24.34082144421462
 20
1.073320206492964
 30
0.0
  0
VERTEX
  5
23A
330
234
100
AcDbEntity
  8
STANDARDEBENE
 62
     7
100
AcDbVertex
100
AcDb2dVertex
 10
-25.48269909609102
 20
1.073320206492964
 30
0.0
  0
VERTEX
  5
23B
330
234
100
AcDbEntity
  8
STANDARDEBENE
 62
     7
100
AcDbVertex
100
AcDb2dVertex
 10
-26.49176822939799
 20
1.073320206492964
 30
0.0
  0
VERTEX
  5
23C
330
234
100
AcDbEntity
  8
STANDARDEBENE
 62
     7
100
AcDbVertex
100
AcDb2dVertex
 10
-27.34649698314829
 20
1.073320206492964
 30
0.0
  0
VERTEX
  5
23D
330
234
100
AcDbEntity
  8
STANDARDEBENE
 62
     7
100
AcDbVertex
100
AcDb2dVertex
 10
-28.03052114299159
 20
1.073320206492964
 30
0.0
  0
VERTEX
  5
23E
330
234
100
AcDbEntity
  8
STANDARDEBENE
 62
     7
100
AcDbVertex
100
AcDb2dVertex
 10
-28.52868227879284
 20
1.073320206492964
 30
0.0
  0
VERTEX
  5
23F
330
234
100
AcDbEntity
  8
STANDARDEBENE
 62
     7
100
AcDbVertex
100
AcDb2dVertex
 10
-28.83219539126927
 20
1.073320206492964
 30
0.0
  0
VERTEX
  5
240
330
234
100
AcDbEntity
  8
STANDARDEBENE
 62
     7
100
AcDbVertex
100
AcDb2dVertex
 10
-28.93365352024124
 20
1.073320206492964
 30
0.0
  0
SEQEND
  5
241
330
234
100
AcDbEntity
  8
STANDARDEBENE
  0
POLYLINE
  5
242
330
1F
100
AcDbEntity
  8
STANDARDEBENE
 62
     7
100
AcDb2dPolyline
 66
     1
 10
0.0
 20
0.0
 30
0.0
  0
VERTEX
  5
243
330
242
100
AcDbEntity
  8
STANDARDEBENE
 62
     7
100
AcDbVertex
100
AcDb2dVertex
 10
-8.934344270609945
 20
1.073320206492964
 30
0.0
  0
VERTEX
  5
244
330
242
100
AcDbEntity
  8
STANDARDEBENE
 62
     7
100
AcDbVertex
100
AcDb2dVertex
 10
-9.035802399581916
 20
1.073320206492964
 30
0.0
  0
VERTEX
  5
245
330
242
100
AcDbEntity
  8
STANDARDEBENE
 62
     7
100
AcDbVertex
100
AcDb2dVertex
 10
-9.33948776694624
 20
1.073320206492964
 30
0.0
  0
VERTEX
  5
246
330
242
100
AcDbEntity
  8
STANDARDEBENE
 62
     7
100
AcDbVertex
100
AcDb2dVertex
 10
-9.838165667411193
 20
1.073320206492964
 30
0.0
  0
VERTEX
  5
247
330
242
100
AcDbEntity
  8
STANDARDEBENE
 62
     7
100
AcDbVertex
100
AcDb2dVertex
 10
-10.52150080770289
 20
1.073320206492964
 30
0.0
  0
VERTEX
  5
248
330
242
100
AcDbEntity
  8
STANDARDEBENE
 62
     7
100
AcDbVertex
100
AcDb2dVertex
 10
-11.37657407122899
 20
1.073320206492964
 30
0.0
  0
VERTEX
  5
249
330
242
100
AcDbEntity
  8
STANDARDEBENE
 62
     7
100
AcDbVertex
100
AcDb2dVertex
 10
-12.38598771431176
 20
1.073320206492964
 30
0.0
  0
VERTEX
  5
24A
330
242
100
AcDbEntity
  8
STANDARDEBENE
 62
     7
100
AcDbVertex
100
AcDb2dVertex
 10
-13.52717634663657
 20
1.073320206492964
 30
0.0
  0
VERTEX
  5
24B
330
242
100
AcDbEntity
  8
STANDARDEBENE
 62
     7
100
AcDbVertex
100
AcDb2dVertex
 10
-14.77998614631934
 20
1.073320206492964
 30
0.0
  0
VERTEX
  5
24C
330
242
100
AcDbEntity
  8
STANDARDEBENE
 62
     7
100
AcDbVertex
100
AcDb2dVertex
 10
-16.11702858618427
 20
1.073320206492964
 30
0.0
  0
VERTEX
  5
24D
330
242
100
AcDbEntity
  8
STANDARDEBENE
 62
     7
100
AcDbVertex
100
AcDb2dVertex
 10
-17.51108739394347
 20
1.073320206492964
 30
0.0
  0
VERTEX
  5
24E
330
242
100
AcDbEntity
  8
STANDARDEBENE
 62
     7
100
AcDbVertex
100
AcDb2dVertex
 10
-18.93408502286954
 20
1.073320206492964
 30
0.0
  0
SEQEND
  5
24F
330
242
100
AcDbEntity
  8
STANDARDEBENE
  0
POLYLINE
  5
250
330
1F
100
AcDbEntity
  8
STANDARDEBENE
 62
     7
100
AcDb2dPolyline
 66
     1
 10
0.0
 20
0.0
 30
0.0
  0
VERTEX
  5
251
330
250
100
AcDbEntity
  8
STANDARDEBENE
 62
     7
100
AcDbVertex
100
AcDb2dVertex
 10
39.16249327340529
 20
-127.9268150463914
 30
0.0
  0
VERTEX
  5
252
330
250
100
AcDbEntity
  8
STANDARDEBENE
 62
     7
100
AcDbVertex
100
AcDb2dVertex
 10
39.16249327340529
 20
-137.926555798651
 30
0.0
  0
SEQEND
  5
253
330
250
100
AcDbEntity
  8
STANDARDEBENE
  0
POLYLINE
  5
254
330
1F
100
AcDbEntity
  8
STANDARDEBENE
 62
     7
100
AcDb2dPolyline
 66
     1
 10
0.0
 20
0.0
 30
0.0
  0
VERTEX
  5
255
330
254
100
AcDbEntity
  8
STANDARDEBENE
 62
     7
100
AcDbVertex
100
AcDb2dVertex
 10
64.16253417360588
 20
-137.926555798651
 30
0.0
  0
VERTEX
  5
256
330
254
100
AcDbEntity
  8
STANDARDEBENE
 62
     7
100
AcDbVertex
100
AcDb2dVertex
 10
64.16253417360588
 20
-127.9268150463914
 30
0.0
  0
SEQEND
  5
257
330
254
100
AcDbEntity
  8
STANDARDEBENE
  0
POLYLINE
  5
258
330
1F
100
AcDbEntity
  8
STANDARDEBENE
 62
     7
100
AcDb2dPolyline
 66
     1
 10
0.0
 20
0.0
 30
0.0
  0
VERTEX
  5
259
330
258
100
AcDbEntity
  8
STANDARDEBENE
 62
     7
100
AcDbVertex
100
AcDb2dVertex
 10
41.66225620658229
 20
-126.4268194825749
 30
0.0
  0
VERTEX
  5
25A
330
258
100
AcDbEntity
  8
STANDARDEBENE
 62
     7
100
AcDbVertex
100
AcDb2dVertex
 10
41.94854383026891
 20
-127.4954888070946
 30
0.0
  0
SEQEND
  5
25B
330
258
100
AcDbEntity
  8
STANDARDEBENE
  0
POLYLINE
  5
25C
330
1F
100
AcDbEntity
  8
STANDARDEBENE
 62
     7
100
AcDb2dPolyline
 66
     1
 10
0.0
 20
0.0
 30
0.0
  0
VERTEX
  5
25D
330
25C
100
AcDbEntity
  8
STANDARDEBENE
 62
     7
100
AcDbVertex
100
AcDb2dVertex
 10
61.37648361674226
 20
-127.4954888070946
 30
0.0
  0
VERTEX
  5
25E
330
25C
100
AcDbEntity
  8
STANDARDEBENE
 62
     7
100
AcDbVertex
100
AcDb2dVertex
 10
61.66208222087728
 20
-126.4268194825749
 30
0.0
  0
SEQEND
  5
25F
330
25C
100
AcDbEntity
  8
STANDARDEBENE
  0
POLYLINE
  5
260
330
1F
100
AcDbEntity
  8
STANDARDEBENE
 62
     7
100
AcDb2dPolyline
 66
     1
 10
0.0
 20
0.0
 30
0.0
  0
VERTEX
  5
261
330
260
100
AcDbEntity
  8
STANDARDEBENE
 62
     7
100
AcDbVertex
100
AcDb2dVertex
 10
41.66225620658229
 20
1.073320206492964
 30
0.0
  0
VERTEX
  5
262
330
260
100
AcDbEntity
  8
STANDARDEBENE
 62
     7
100
AcDbVertex
100
AcDb2dVertex
 10
41.66225620658229
 20
-126.4268194825749
 30
0.0
  0
SEQEND
  5
263
330
260
100
AcDbEntity
  8
STANDARDEBENE
  0
POLYLINE
  5
264
330
1F
100
AcDbEntity
  8
STANDARDEBENE
 62
     7
100
AcDb2dPolyline
 66
     1
 10
0.0
 20
0.0
 30
0.0
  0
VERTEX
  5
265
330
264
100
AcDbEntity
  8
STANDARDEBENE
 62
     7
100
AcDbVertex
100
AcDb2dVertex
 10
61.66208222087728
 20
-126.4268194825749
 30
0.0
  0
VERTEX
  5
266
330
264
100
AcDbEntity
  8
STANDARDEBENE
 62
     7
100
AcDbVertex
100
AcDb2dVertex
 10
61.66208222087728
 20
1.073320206492964
 30
0.0
  0
VERTEX
  5
267
330
264
100
AcDbEntity
  8
STANDARDEBENE
 62
     7
100
AcDbVertex
100
AcDb2dVertex
 10
60.6623148515168
 20
2.073432085629242
 30
0.0
  0
SEQEND
  5
268
330
264
100
AcDbEntity
  8
STANDARDEBENE
  0
POLYLINE
  5
269
330
1F
100
AcDbEntity
  8
STANDARDEBENE
 62
     7
100
AcDb2dPolyline
 66
     1
 10
0.0
 20
0.0
 30
0.0
  0
VERTEX
  5
26A
330
269
100
AcDbEntity
  8
STANDARDEBENE
 62
     7
100
AcDbVertex
100
AcDb2dVertex
 10
42.66271259549436
 20
2.073432085629242
 30
0.0
  0
VERTEX
  5
26B
330
269
100
AcDbEntity
  8
STANDARDEBENE
 62
     7
100
AcDbVertex
100
AcDb2dVertex
 10
41.66225620658229
 20
1.073320206492964
 30
0.0
  0
SEQEND
  5
26C
330
269
100
AcDbEntity
  8
STANDARDEBENE
  0
POLYLINE
  5
26D
330
1F
100
AcDbEntity
  8
STANDARDEBENE
 62
     7
100
AcDb2dPolyline
 66
     1
 10
0.0
 20
0.0
 30
0.0
  0
VERTEX
  5
26E
330
26D
100
AcDbEntity
  8
STANDARDEBENE
 62
     7
100
AcDbVertex
100
AcDb2dVertex
 10
61.36270322571041
 20
-127.8579130912321
 30
0.0
  0
VERTEX
  5
26F
330
26D
100
AcDbEntity
  8
STANDARDEBENE
 62
     7
100
AcDbVertex
100
AcDb2dVertex
 10
61.36270322571041
 20
-127.5988417398334
 30
0.0
  0
SEQEND
  5
270
330
26D
100
AcDbEntity
  8
STANDARDEBENE
  0
POLYLINE
  5
271
330
1F
100
AcDbEntity
  8
STANDARDEBENE
 62
     7
100
AcDb2dPolyline
 66
     1
 10
0.0
 20
0.0
 30
0.0
  0
VERTEX
  5
272
330
271
100
AcDbEntity
  8
STANDARDEBENE
 62
     7
100
AcDbVertex
100
AcDb2dVertex
 10
41.96232422130075
 20
-127.5988417398334
 30
0.0
  0
VERTEX
  5
273
330
271
100
AcDbEntity
  8
STANDARDEBENE
 62
     7
100
AcDbVertex
100
AcDb2dVertex
 10
41.96232422130075
 20
-127.8579130912321
 30
0.0
  0
SEQEND
  5
274
330
271
100
AcDbEntity
  8
STANDARDEBENE
  0
POLYLINE
  5
275
330
1F
100
AcDbEntity
  8
STANDARDEBENE
 62
     7
100
AcDb2dPolyline
 66
     1
 10
0.0
 20
0.0
 30
0.0
  0
VERTEX
  5
276
330
275
100
AcDbEntity
  8
STANDARDEBENE
 62
     7
100
AcDbVertex
100
AcDb2dVertex
 10
42.06567715403961
 20
-138.5642433936497
 30
0.0
  0
VERTEX
  5
277
330
275
100
AcDbEntity
  8
STANDARDEBENE
 62
     7
100
AcDbVertex
100
AcDb2dVertex
 10
42.48460104140774
 20
-146.9261846717743
 30
0.0
  0
SEQEND
  5
278
330
275
100
AcDbEntity
  8
STANDARDEBENE
  0
POLYLINE
  5
279
330
1F
100
AcDbEntity
  8
STANDARDEBENE
 62
     7
100
AcDb2dPolyline
 66
     1
 10
0.0
 20
0.0
 30
0.0
  0
VERTEX
  5
27A
330
279
100
AcDbEntity
  8
STANDARDEBENE
 62
     7
100
AcDbVertex
100
AcDb2dVertex
 10
60.83939287627603
 20
-146.9261846717743
 30
0.0
  0
VERTEX
  5
27B
330
279
100
AcDbEntity
  8
STANDARDEBENE
 62
     7
100
AcDbVertex
100
AcDb2dVertex
 10
61.25866127341997
 20
-138.5642433936497
 30
0.0
  0
SEQEND
  5
27C
330
279
100
AcDbEntity
  8
STANDARDEBENE
  0
POLYLINE
  5
27D
330
1F
100
AcDbEntity
  8
STANDARDEBENE
 62
     7
100
AcDb2dPolyline
 66
     1
 10
0.0
 20
0.0
 30
0.0
  0
VERTEX
  5
27E
330
27D
100
AcDbEntity
  8
STANDARDEBENE
 62
     7
100
AcDbVertex
100
AcDb2dVertex
 10
61.09019599305564
 20
-138.2276573426968
 30
0.0
  0
VERTEX
  5
27F
330
27D
100
AcDbEntity
  8
STANDARDEBENE
 62
     7
100
AcDbVertex
100
AcDb2dVertex
 10
61.09019599305564
 20
-137.926555798651
 30
0.0
  0
SEQEND
  5
280
330
27D
100
AcDbEntity
  8
STANDARDEBENE
  0
POLYLINE
  5
281
330
1F
100
AcDbEntity
  8
STANDARDEBENE
 62
     7
100
AcDb2dPolyline
 66
     1
 10
0.0
 20
0.0
 30
0.0
  0
VERTEX
  5
282
330
281
100
AcDbEntity
  8
STANDARDEBENE
 62
     7
100
AcDbVertex
100
AcDb2dVertex
 10
42.23414243440393
 20
-137.926555798651
 30
0.0
  0
VERTEX
  5
283
330
281
100
AcDbEntity
  8
STANDARDEBENE
 62
     7
100
AcDbVertex
100
AcDb2dVertex
 10
42.23414243440393
 20
-138.2276573426968
 30
0.0
  0
SEQEND
  5
284
330
281
100
AcDbEntity
  8
STANDARDEBENE
  0
SPLINE
  5
285
330
1F
100
AcDbEntity
  8
STANDARDEBENE
 62
     7
100
AcDbSpline
210
0.0
220
0.0
230
1.0
 70
     8
 71
     3
 72
     8
 73
     4
 74
     0
 42
0.0000000001
 43
0.0000000001
 40
0.0
 40
0.0
 40
0.0
 40
0.0
 40
1.0
 40
1.0
 40
1.0
 40
1.0
 10
41.95646755511222
 20
-127.9268150463914
 30
0.0
 10
41.96025716264597
 20
-127.9030438718614
 30
0.0
 10
41.96232422130075
 20
-127.8792726973315
 30
0.0
 10
41.96232422130075
 20
-127.8579130912321
 30
0.0
  0
SPLINE
  5
286
330
1F
100
AcDbEntity
  8
STANDARDEBENE
 62
     7
100
AcDbSpline
210
0.0
220
0.0
230
1.0
 70
     8
 71
     3
 72
     8
 73
     4
 74
     0
 42
0.0000000001
 43
0.0000000001
 40
0.0
 40
0.0
 40
0.0
 40
0.0
 40
1.0
 40
1.0
 40
1.0
 40
1.0
 10
61.36270322571041
 20
-127.8579130912321
 30
0.0
 10
61.36270322571041
 20
-127.8823732853137
 30
0.0
 10
61.36511479414099
 20
-127.9061444598436
 30
0.0
 10
61.36821538212315
 20
-127.9268150463914
 30
0.0
  0
SPLINE
  5
287
330
1F
100
AcDbEntity
  8
STANDARDEBENE
 62
     7
100
AcDbSpline
210
0.0
220
0.0
230
1.0
 70
     8
 71
     3
 72
     8
 73
     4
 74
     0
 42
0.0000000001
 43
0.0000000001
 40
0.0
 40
0.0
 40
0.0
 40
0.0
 40
1.0
 40
1.0
 40
1.0
 40
1.0
 10
41.96232422130075
 20
-127.5988417398334
 30
0.0
 10
41.96232422130075
 20
-127.5616346840474
 30
0.0
 10
41.95715657466381
 20
-127.5261501771404
 30
0.0
 10
41.94854383026891
 20
-127.4954888070946
 30
0.0
  0
SPLINE
  5
288
330
1F
100
AcDbEntity
  8
STANDARDEBENE
 62
     7
100
AcDbSpline
210
0.0
220
0.0
230
1.0
 70
     8
 71
     3
 72
     8
 73
     4
 74
     0
 42
0.0000000001
 43
0.0000000001
 40
0.0
 40
0.0
 40
0.0
 40
0.0
 40
1.0
 40
1.0
 40
1.0
 40
1.0
 10
61.37648361674226
 20
-127.4954888070946
 30
0.0
 10
61.36614832346837
 20
-127.53028429445
 30
0.0
 10
61.36201420615882
 20
-127.5661133111328
 30
0.0
 10
61.36270322571041
 20
-127.5988417398334
 30
0.0
  0
SPLINE
  5
289
330
1F
100
AcDbEntity
  8
STANDARDEBENE
 62
     7
100
AcDbSpline
210
0.0
220
0.0
230
1.0
 70
     8
 71
     3
 72
     8
 73
     4
 74
     0
 42
0.0000000001
 43
0.0000000001
 40
0.0
 40
0.0
 40
0.0
 40
0.0
 40
1.0
 40
1.0
 40
1.0
 40
1.0
 10
61.25866127341997
 20
-138.5542526101516
 30
0.0
 10
61.25866127341997
 20
-138.4870732038713
 30
0.0
 10
61.22593284471933
 20
-138.4274730126586
 30
0.0
 10
61.1752899076773
 20
-138.3912994862
 30
0.0
  0
SPLINE
  5
28A
330
1F
100
AcDbEntity
  8
STANDARDEBENE
 62
     7
100
AcDbSpline
210
0.0
220
0.0
230
1.0
 70
    24
 71
     3
 72
     8
 73
     4
 74
     0
 42
0.0000000001
 43
0.0000000001
 40
0.0
 40
0.0
 40
0.0
 40
0.0
 40
1.0
 40
1.0
 40
1.0
 40
1.0
 10
61.25866127341997
 20
-138.5642433936497
 30
0.0
 10
61.25866127341997
 20
-138.5611428056675
 30
0.0
 10
61.25866127341997
 20
-138.5573531981338
 30
0.0
 10
61.25866127341997
 20
-138.5542526101516
 30
0.0
  0
SPLINE
  5
28B
330
1F
100
AcDbEntity
  8
STANDARDEBENE
 62
     7
100
AcDbSpline
210
0.0
220
0.0
230
1.0
 70
     8
 71
     3
 72
     8
 73
     4
 74
     0
 42
0.0000000001
 43
0.0000000001
 40
0.0
 40
0.0
 40
0.0
 40
0.0
 40
1.0
 40
1.0
 40
1.0
 40
1.0
 10
42.14939302955808
 20
-138.3912994862
 30
0.0
 10
42.09254891655171
 20
-138.4319516397439
 30
0.0
 10
42.06361009538482
 20
-138.4970639873694
 30
0.0
 10
42.06567715403961
 20
-138.5642433936497
 30
0.0
  0
SPLINE
  5
28C
330
1F
100
AcDbEntity
  8
STANDARDEBENE
 62
     7
100
AcDbSpline
210
0.0
220
0.0
230
1.0
 70
     8
 71
     3
 72
     8
 73
     4
 74
     0
 42
0.0000000001
 43
0.0000000001
 40
0.0
 40
0.0
 40
0.0
 40
0.0
 40
1.0
 40
1.0
 40
1.0
 40
1.0
 10
61.09019599305564
 20
-138.2276573426968
 30
0.0
 10
61.09019599305564
 20
-138.2948367489771
 30
0.0
 10
61.12395795108367
 20
-138.3544369401898
 30
0.0
 10
61.1752899076773
 20
-138.3912994862
 30
0.0
  0
SPLINE
  5
28D
330
1F
100
AcDbEntity
  8
STANDARDEBENE
 62
     7
100
AcDbSpline
210
0.0
220
0.0
230
1.0
 70
     8
 71
     3
 72
     8
 73
     4
 74
     0
 42
0.0000000001
 43
0.0000000001
 40
0.0
 40
0.0
 40
0.0
 40
0.0
 40
1.0
 40
1.0
 40
1.0
 40
1.0
 10
42.14939302955808
 20
-138.3912994862
 30
0.0
 10
42.20451459368546
 20
-138.352369881535
 30
0.0
 10
42.23345341485234
 20
-138.2917361609949
 30
0.0
 10
42.23414243440393
 20
-138.2276573426968
 30
0.0
  0
POLYLINE
  5
28E
330
1F
100
AcDbEntity
  8
STANDARDEBENE
 62
     7
100
AcDb2dPolyline
 66
     1
 10
0.0
 20
0.0
 30
0.0
  0
VERTEX
  5
28F
330
28E
100
AcDbEntity
  8
STANDARDEBENE
 62
     7
100
AcDbVertex
100
AcDb2dVertex
 10
44.49791617116055
 20
-150.9269766980952
 30
0.0
  0
VERTEX
  5
290
330
28E
100
AcDbEntity
  8
STANDARDEBENE
 62
     7
100
AcDbVertex
100
AcDb2dVertex
 10
44.08691600863573
 20
-150.7629900448162
 30
0.0
  0
VERTEX
  5
291
330
28E
100
AcDbEntity
  8
STANDARDEBENE
 62
     7
100
AcDbVertex
100
AcDb2dVertex
 10
43.89915818082682
 20
-150.3619806657895
 30
0.0
  0
SEQEND
  5
292
330
28E
100
AcDbEntity
  8
STANDARDEBENE
  0
POLYLINE
  5
293
330
1F
100
AcDbEntity
  8
STANDARDEBENE
 62
     7
100
AcDb2dPolyline
 66
     1
 10
0.0
 20
0.0
 30
0.0
  0
VERTEX
  5
294
330
293
100
AcDbEntity
  8
STANDARDEBENE
 62
     7
100
AcDbVertex
100
AcDb2dVertex
 10
59.42518024663276
 20
-150.3619806657895
 30
0.0
  0
VERTEX
  5
295
330
293
100
AcDbEntity
  8
STANDARDEBENE
 62
     7
100
AcDbVertex
100
AcDb2dVertex
 10
59.23776692859964
 20
-150.7629900448162
 30
0.0
  0
VERTEX
  5
296
330
293
100
AcDbEntity
  8
STANDARDEBENE
 62
     7
100
AcDbVertex
100
AcDb2dVertex
 10
58.8271112758506
 20
-150.9269766980952
 30
0.0
  0
SEQEND
  5
297
330
293
100
AcDbEntity
  8
STANDARDEBENE
  0
POLYLINE
  5
298
330
1F
100
AcDbEntity
  8
STANDARDEBENE
 62
     7
100
AcDb2dPolyline
 66
     1
 10
0.0
 20
0.0
 30
0.0
  0
VERTEX
  5
299
330
298
100
AcDbEntity
  8
STANDARDEBENE
 62
     7
100
AcDbVertex
100
AcDb2dVertex
 10
43.72931486135931
 20
-147.4918697236316
 30
0.0
  0
VERTEX
  5
29A
330
298
100
AcDbEntity
  8
STANDARDEBENE
 62
     7
100
AcDbVertex
100
AcDb2dVertex
 10
43.67178172880134
 20
-147.2689718986915
 30
0.0
  0
VERTEX
  5
29B
330
298
100
AcDbEntity
  8
STANDARDEBENE
 62
     7
100
AcDbVertex
100
AcDb2dVertex
 10
43.53570036736186
 20
-147.0843146588647
 30
0.0
  0
SEQEND
  5
29C
330
298
100
AcDbEntity
  8
STANDARDEBENE
  0
POLYLINE
  5
29D
330
1F
100
AcDbEntity
  8
STANDARDEBENE
 62
     7
100
AcDb2dPolyline
 66
     1
 10
0.0
 20
0.0
 30
0.0
  0
VERTEX
  5
29E
330
29D
100
AcDbEntity
  8
STANDARDEBENE
 62
     7
100
AcDbVertex
100
AcDb2dVertex
 10
59.79173864807988
 20
-147.08224760021
 30
0.0
  0
VERTEX
  5
29F
330
29D
100
AcDbEntity
  8
STANDARDEBENE
 62
     7
100
AcDbVertex
100
AcDb2dVertex
 10
59.65324571820982
 20
-147.2675938595883
 30
0.0
  0
VERTEX
  5
2A0
330
29D
100
AcDbEntity
  8
STANDARDEBENE
 62
     7
100
AcDbVertex
100
AcDb2dVertex
 10
59.59605709542765
 20
-147.4918697236316
 30
0.0
  0
SEQEND
  5
2A1
330
29D
100
AcDbEntity
  8
STANDARDEBENE
  0
POLYLINE
  5
2A2
330
1F
100
AcDbEntity
  8
STANDARDEBENE
 62
     7
100
AcDb2dPolyline
 66
     1
 10
0.0
 20
0.0
 30
0.0
  0
VERTEX
  5
2A3
330
2A2
100
AcDbEntity
  8
STANDARDEBENE
 62
     7
100
AcDbVertex
100
AcDb2dVertex
 10
59.79173864807988
 20
-147.0815585806584
 30
0.0
  0
VERTEX
  5
2A4
330
2A2
100
AcDbEntity
  8
STANDARDEBENE
 62
     7
100
AcDbVertex
100
AcDb2dVertex
 10
59.65324571820982
 20
-147.2675938595883
 30
0.0
  0
VERTEX
  5
2A5
330
2A2
100
AcDbEntity
  8
STANDARDEBENE
 62
     7
100
AcDbVertex
100
AcDb2dVertex
 10
59.59605709542765
 20
-147.4918697236316
 30
0.0
  0
SEQEND
  5
2A6
330
2A2
100
AcDbEntity
  8
STANDARDEBENE
  0
POLYLINE
  5
2A7
330
1F
100
AcDbEntity
  8
STANDARDEBENE
 62
     7
100
AcDb2dPolyline
 66
     1
 10
0.0
 20
0.0
 30
0.0
  0
VERTEX
  5
2A8
330
2A7
100
AcDbEntity
  8
STANDARDEBENE
 62
     7
100
AcDbVertex
100
AcDb2dVertex
 10
43.72931486135931
 20
-147.4918697236316
 30
0.0
  0
VERTEX
  5
2A9
330
2A7
100
AcDbEntity
  8
STANDARDEBENE
 62
     7
100
AcDbVertex
100
AcDb2dVertex
 10
43.67212623857714
 20
-147.2689718986915
 30
0.0
  0
VERTEX
  5
2AA
330
2A7
100
AcDbEntity
  8
STANDARDEBENE
 62
     7
100
AcDbVertex
100
AcDb2dVertex
 10
43.53638938691345
 20
-147.0846591686405
 30
0.0
  0
SEQEND
  5
2AB
330
2A7
100
AcDbEntity
  8
STANDARDEBENE
  0
POLYLINE
  5
2AC
330
1F
100
AcDbEntity
  8
STANDARDEBENE
 62
     7
100
AcDb2dPolyline
 66
     1
 10
0.0
 20
0.0
 30
0.0
  0
VERTEX
  5
2AD
330
2AC
100
AcDbEntity
  8
STANDARDEBENE
 62
     7
100
AcDbVertex
100
AcDb2dVertex
 10
59.42518024663276
 20
-150.3619806657895
 30
0.0
  0
VERTEX
  5
2AE
330
2AC
100
AcDbEntity
  8
STANDARDEBENE
 62
     7
100
AcDbVertex
100
AcDb2dVertex
 10
59.23776692859964
 20
-150.7629900448162
 30
0.0
  0
VERTEX
  5
2AF
330
2AC
100
AcDbEntity
  8
STANDARDEBENE
 62
     7
100
AcDbVertex
100
AcDb2dVertex
 10
58.8271112758506
 20
-150.9269766980952
 30
0.0
  0
SEQEND
  5
2B0
330
2AC
100
AcDbEntity
  8
STANDARDEBENE
  0
POLYLINE
  5
2B1
330
1F
100
AcDbEntity
  8
STANDARDEBENE
 62
     7
100
AcDb2dPolyline
 66
     1
 10
0.0
 20
0.0
 30
0.0
  0
VERTEX
  5
2B2
330
2B1
100
AcDbEntity
  8
STANDARDEBENE
 62
     7
100
AcDbVertex
100
AcDb2dVertex
 10
44.49791617116055
 20
-150.9269766980952
 30
0.0
  0
VERTEX
  5
2B3
330
2B1
100
AcDbEntity
  8
STANDARDEBENE
 62
     7
100
AcDbVertex
100
AcDb2dVertex
 10
44.08691600863573
 20
-150.7629900448162
 30
0.0
  0
VERTEX
  5
2B4
330
2B1
100
AcDbEntity
  8
STANDARDEBENE
 62
     7
100
AcDbVertex
100
AcDb2dVertex
 10
43.89915818082682
 20
-150.3619806657895
 30
0.0
  0
SEQEND
  5
2B5
330
2B1
100
AcDbEntity
  8
STANDARDEBENE
  0
POLYLINE
  5
2B6
330
1F
100
AcDbEntity
  8
STANDARDEBENE
 62
     7
100
AcDb2dPolyline
 66
     1
 10
0.0
 20
0.0
 30
0.0
  0
VERTEX
  5
2B7
330
2B6
100
AcDbEntity
  8
STANDARDEBENE
 62
     7
100
AcDbVertex
100
AcDb2dVertex
 10
43.73310446889306
 20
-147.4908361943042
 30
0.0
  0
VERTEX
  5
2B8
330
2B6
100
AcDbEntity
  8
STANDARDEBENE
 62
     7
100
AcDbVertex
100
AcDb2dVertex
 10
43.81819838351471
 20
-148.9264084300468
 30
0.0
  0
VERTEX
  5
2B9
330
2B6
100
AcDbEntity
  8
STANDARDEBENE
 62
     7
100
AcDbVertex
100
AcDb2dVertex
 10
43.90329229813637
 20
-150.3619806657895
 30
0.0
  0
SEQEND
  5
2BA
330
2B6
100
AcDbEntity
  8
STANDARDEBENE
  0
POLYLINE
  5
2BB
330
1F
100
AcDbEntity
  8
STANDARDEBENE
 62
     7
100
AcDb2dPolyline
 66
     1
 10
0.0
 20
0.0
 30
0.0
  0
VERTEX
  5
2BC
330
2BB
100
AcDbEntity
  8
STANDARDEBENE
 62
     7
100
AcDbVertex
100
AcDb2dVertex
 10
59.421390639099
 20
-150.3619806657895
 30
0.0
  0
VERTEX
  5
2BD
330
2BB
100
AcDbEntity
  8
STANDARDEBENE
 62
     7
100
AcDbVertex
100
AcDb2dVertex
 10
59.50579553416906
 20
-148.9264084300468
 30
0.0
  0
VERTEX
  5
2BE
330
2BB
100
AcDbEntity
  8
STANDARDEBENE
 62
     7
100
AcDbVertex
100
AcDb2dVertex
 10
59.59123395856651
 20
-147.4908361943042
 30
0.0
  0
SEQEND
  5
2BF
330
2BB
100
AcDbEntity
  8
STANDARDEBENE
  0
POLYLINE
  5
2C0
330
1F
100
AcDbEntity
  8
STANDARDEBENE
 62
     7
100
AcDb2dPolyline
 66
     1
 10
0.0
 20
0.0
 30
0.0
  0
VERTEX
  5
2C1
330
2C0
100
AcDbEntity
  8
STANDARDEBENE
 62
     7
100
AcDbVertex
100
AcDb2dVertex
 10
39.16249327340529
 20
-127.9268150463914
 30
0.0
  0
VERTEX
  5
2C2
330
2C0
100
AcDbEntity
  8
STANDARDEBENE
 62
     7
100
AcDbVertex
100
AcDb2dVertex
 10
39.26894679412631
 20
-127.9268150463914
 30
0.0
  0
VERTEX
  5
2C3
330
2C0
100
AcDbEntity
  8
STANDARDEBENE
 62
     7
100
AcDbVertex
100
AcDb2dVertex
 10
39.58830735628936
 20
-127.9268150463914
 30
0.0
  0
VERTEX
  5
2C4
330
2C0
100
AcDbEntity
  8
STANDARDEBENE
 62
     7
100
AcDbVertex
100
AcDb2dVertex
 10
40.11368476437851
 20
-127.9268150463914
 30
0.0
  0
VERTEX
  5
2C5
330
2C0
100
AcDbEntity
  8
STANDARDEBENE
 62
     7
100
AcDbVertex
100
AcDb2dVertex
 10
40.83715529355047
 20
-127.9268150463914
 30
0.0
  0
VERTEX
  5
2C6
330
2C0
100
AcDbEntity
  8
STANDARDEBENE
 62
     7
100
AcDbVertex
100
AcDb2dVertex
 10
41.74562757232496
 20
-127.9268150463914
 30
0.0
  0
VERTEX
  5
2C7
330
2C0
100
AcDbEntity
  8
STANDARDEBENE
 62
     7
100
AcDbVertex
100
AcDb2dVertex
 10
42.82359866079118
 20
-127.9268150463914
 30
0.0
  0
VERTEX
  5
2C8
330
2C0
100
AcDbEntity
  8
STANDARDEBENE
 62
     7
100
AcDbVertex
100
AcDb2dVertex
 10
44.05246503105611
 20
-127.9268150463914
 30
0.0
  0
VERTEX
  5
2C9
330
2C0
100
AcDbEntity
  8
STANDARDEBENE
 62
     7
100
AcDbVertex
100
AcDb2dVertex
 10
45.41224511612359
 20
-127.9268150463914
 30
0.0
  0
VERTEX
  5
2CA
330
2C0
100
AcDbEntity
  8
STANDARDEBENE
 62
     7
100
AcDbVertex
100
AcDb2dVertex
 10
46.87951225123948
 20
-127.9268150463914
 30
0.0
  0
VERTEX
  5
2CB
330
2C0
100
AcDbEntity
  8
STANDARDEBENE
 62
     7
100
AcDbVertex
100
AcDb2dVertex
 10
48.42773918366746
 20
-127.9268150463914
 30
0.0
  0
VERTEX
  5
2CC
330
2C0
100
AcDbEntity
  8
STANDARDEBENE
 62
     7
100
AcDbVertex
100
AcDb2dVertex
 10
50.03074317044703
 20
-127.9268150463914
 30
0.0
  0
VERTEX
  5
2CD
330
2C0
100
AcDbEntity
  8
STANDARDEBENE
 62
     7
100
AcDbVertex
100
AcDb2dVertex
 10
51.66234146861768
 20
-127.9268150463914
 30
0.0
  0
VERTEX
  5
2CE
330
2C0
100
AcDbEntity
  8
STANDARDEBENE
 62
     7
100
AcDbVertex
100
AcDb2dVertex
 10
53.29428427656413
 20
-127.9268150463914
 30
0.0
  0
VERTEX
  5
2CF
330
2C0
100
AcDbEntity
  8
STANDARDEBENE
 62
     7
100
AcDbVertex
100
AcDb2dVertex
 10
54.8976327731195
 20
-127.9268150463914
 30
0.0
  0
VERTEX
  5
2D0
330
2C0
100
AcDbEntity
  8
STANDARDEBENE
 62
     7
100
AcDbVertex
100
AcDb2dVertex
 10
56.44620421532328
 20
-127.9268150463914
 30
0.0
  0
VERTEX
  5
2D1
330
2C0
100
AcDbEntity
  8
STANDARDEBENE
 62
     7
100
AcDbVertex
100
AcDb2dVertex
 10
57.91243782111178
 20
-127.9268150463914
 30
0.0
  0
VERTEX
  5
2D2
330
2C0
100
AcDbEntity
  8
STANDARDEBENE
 62
     7
100
AcDbVertex
100
AcDb2dVertex
 10
59.27152888662766
 20
-127.9268150463914
 30
0.0
  0
VERTEX
  5
2D3
330
2C0
100
AcDbEntity
  8
STANDARDEBENE
 62
     7
100
AcDbVertex
100
AcDb2dVertex
 10
60.50177329599578
 20
-127.9268150463914
 30
0.0
  0
VERTEX
  5
2D4
330
2C0
100
AcDbEntity
  8
STANDARDEBENE
 62
     7
100
AcDbVertex
100
AcDb2dVertex
 10
61.5793998746862
 20
-127.9268150463914
 30
0.0
  0
VERTEX
  5
2D5
330
2C0
100
AcDbEntity
  8
STANDARDEBENE
 62
     7
100
AcDbVertex
100
AcDb2dVertex
 10
62.4875276436849
 20
-127.9268150463914
 30
0.0
  0
VERTEX
  5
2D6
330
2C0
100
AcDbEntity
  8
STANDARDEBENE
 62
     7
100
AcDbVertex
100
AcDb2dVertex
 10
63.21030915330526
 20
-127.9268150463914
 30
0.0
  0
VERTEX
  5
2D7
330
2C0
100
AcDbEntity
  8
STANDARDEBENE
 62
     7
100
AcDbVertex
100
AcDb2dVertex
 10
63.73603107117022
 20
-127.9268150463914
 30
0.0
  0
VERTEX
  5
2D8
330
2C0
100
AcDbEntity
  8
STANDARDEBENE
 62
     7
100
AcDbVertex
100
AcDb2dVertex
 10
64.05470261378167
 20
-127.9268150463914
 30
0.0
  0
VERTEX
  5
2D9
330
2C0
100
AcDbEntity
  8
STANDARDEBENE
 62
     7
100
AcDbVertex
100
AcDb2dVertex
 10
64.16253417360588
 20
-127.9268150463914
 30
0.0
  0
SEQEND
  5
2DA
330
2C0
100
AcDbEntity
  8
STANDARDEBENE
  0
POLYLINE
  5
2DB
330
1F
100
AcDbEntity
  8
STANDARDEBENE
 62
     7
100
AcDb2dPolyline
 66
     1
 10
0.0
 20
0.0
 30
0.0
  0
VERTEX
  5
2DC
330
2DB
100
AcDbEntity
  8
STANDARDEBENE
 62
     7
100
AcDbVertex
100
AcDb2dVertex
 10
42.48460104140774
 20
-146.9261846717743
 30
0.0
  0
VERTEX
  5
2DD
330
2DB
100
AcDbEntity
  8
STANDARDEBENE
 62
     7
100
AcDbVertex
100
AcDb2dVertex
 10
42.67373690831985
 20
-146.9261846717743
 30
0.0
  0
VERTEX
  5
2DE
330
2DB
100
AcDbEntity
  8
STANDARDEBENE
 62
     7
100
AcDbVertex
100
AcDb2dVertex
 10
43.23184274510964
 20
-146.9261846717743
 30
0.0
  0
VERTEX
  5
2DF
330
2DB
100
AcDbEntity
  8
STANDARDEBENE
 62
     7
100
AcDbVertex
100
AcDb2dVertex
 10
43.43613704215677
 20
-147.0057664299832
 30
0.0
  0
VERTEX
  5
2E0
330
2DB
100
AcDbEntity
  8
STANDARDEBENE
 62
     7
100
AcDbVertex
100
AcDb2dVertex
 10
43.66592506261281
 20
-147.2131613150125
 30
0.0
  0
VERTEX
  5
2E1
330
2DB
100
AcDbEntity
  8
STANDARDEBENE
 62
     7
100
AcDbVertex
100
AcDb2dVertex
 10
43.90914896432491
 20
-147.4925587431832
 30
0.0
  0
VERTEX
  5
2E2
330
2DB
100
AcDbEntity
  8
STANDARDEBENE
 62
     7
100
AcDbVertex
100
AcDb2dVertex
 10
43.91293857185866
 20
-147.4970373702685
 30
0.0
  0
SEQEND
  5
2E3
330
2DB
100
AcDbEntity
  8
STANDARDEBENE
  0
POLYLINE
  5
2E4
330
1F
100
AcDbEntity
  8
STANDARDEBENE
 62
     7
100
AcDb2dPolyline
 66
     1
 10
0.0
 20
0.0
 30
0.0
  0
VERTEX
  5
2E5
330
2E4
100
AcDbEntity
  8
STANDARDEBENE
 62
     7
100
AcDbVertex
100
AcDb2dVertex
 10
46.80027500280635
 20
-147.4970373702685
 30
0.0
  0
VERTEX
  5
2E6
330
2E4
100
AcDbEntity
  8
STANDARDEBENE
 62
     7
100
AcDbVertex
100
AcDb2dVertex
 10
46.80544264944329
 20
-147.4925587431832
 30
0.0
  0
VERTEX
  5
2E7
330
2E4
100
AcDbEntity
  8
STANDARDEBENE
 62
     7
100
AcDbVertex
100
AcDb2dVertex
 10
47.17923575618214
 20
-147.2193624909768
 30
0.0
  0
VERTEX
  5
2E8
330
2E4
100
AcDbEntity
  8
STANDARDEBENE
 62
     7
100
AcDbVertex
100
AcDb2dVertex
 10
47.60160474130824
 20
-147.0057664299832
 30
0.0
  0
VERTEX
  5
2E9
330
2E4
100
AcDbEntity
  8
STANDARDEBENE
 62
     7
100
AcDbVertex
100
AcDb2dVertex
 10
48.03499803925983
 20
-146.9261846717743
 30
0.0
  0
VERTEX
  5
2EA
330
2E4
100
AcDbEntity
  8
STANDARDEBENE
 62
     7
100
AcDbVertex
100
AcDb2dVertex
 10
49.44679910047252
 20
-146.9261846717743
 30
0.0
  0
VERTEX
  5
2EB
330
2E4
100
AcDbEntity
  8
STANDARDEBENE
 62
     7
100
AcDbVertex
100
AcDb2dVertex
 10
50.91751133334637
 20
-146.9261846717743
 30
0.0
  0
VERTEX
  5
2EC
330
2E4
100
AcDbEntity
  8
STANDARDEBENE
 62
     7
100
AcDbVertex
100
AcDb2dVertex
 10
52.407171603889
 20
-146.9261846717743
 30
0.0
  0
VERTEX
  5
2ED
330
2E4
100
AcDbEntity
  8
STANDARDEBENE
 62
     7
100
AcDbVertex
100
AcDb2dVertex
 10
53.87719481721125
 20
-146.9261846717743
 30
0.0
  0
VERTEX
  5
2EE
330
2E4
100
AcDbEntity
  8
STANDARDEBENE
 62
     7
100
AcDbVertex
100
AcDb2dVertex
 10
55.28899587842395
 20
-146.9261846717743
 30
0.0
  0
VERTEX
  5
2EF
330
2E4
100
AcDbEntity
  8
STANDARDEBENE
 62
     7
100
AcDbVertex
100
AcDb2dVertex
 10
55.72307819592713
 20
-147.0057664299832
 30
0.0
  0
VERTEX
  5
2F0
330
2E4
100
AcDbEntity
  8
STANDARDEBENE
 62
     7
100
AcDbVertex
100
AcDb2dVertex
 10
56.13717894643412
 20
-147.2131613150125
 30
0.0
  0
VERTEX
  5
2F1
330
2E4
100
AcDbEntity
  8
STANDARDEBENE
 62
     7
100
AcDbVertex
100
AcDb2dVertex
 10
56.51924028779207
 20
-147.4925587431832
 30
0.0
  0
VERTEX
  5
2F2
330
2E4
100
AcDbEntity
  8
STANDARDEBENE
 62
     7
100
AcDbVertex
100
AcDb2dVertex
 10
56.52440793442901
 20
-147.4970373702685
 30
0.0
  0
SEQEND
  5
2F3
330
2E4
100
AcDbEntity
  8
STANDARDEBENE
  0
POLYLINE
  5
2F4
330
1F
100
AcDbEntity
  8
STANDARDEBENE
 62
     7
100
AcDb2dPolyline
 66
     1
 10
0.0
 20
0.0
 30
0.0
  0
VERTEX
  5
2F5
330
2F4
100
AcDbEntity
  8
STANDARDEBENE
 62
     7
100
AcDbVertex
100
AcDb2dVertex
 10
59.41277789470409
 20
-147.4970373702685
 30
0.0
  0
VERTEX
  5
2F6
330
2F4
100
AcDbEntity
  8
STANDARDEBENE
 62
     7
100
AcDbVertex
100
AcDb2dVertex
 10
59.41622299246205
 20
-147.4925587431832
 30
0.0
  0
VERTEX
  5
2F7
330
2F4
100
AcDbEntity
  8
STANDARDEBENE
 62
     7
100
AcDbVertex
100
AcDb2dVertex
 10
59.65324571820982
 20
-147.2193624909768
 30
0.0
  0
VERTEX
  5
2F8
330
2F4
100
AcDbEntity
  8
STANDARDEBENE
 62
     7
100
AcDbVertex
100
AcDb2dVertex
 10
59.88820138530281
 20
-147.0057664299832
 30
0.0
  0
VERTEX
  5
2F9
330
2F4
100
AcDbEntity
  8
STANDARDEBENE
 62
     7
100
AcDbVertex
100
AcDb2dVertex
 10
60.09284019212573
 20
-146.9261846717743
 30
0.0
  0
VERTEX
  5
2FA
330
2F4
100
AcDbEntity
  8
STANDARDEBENE
 62
     7
100
AcDbVertex
100
AcDb2dVertex
 10
60.65094602891553
 20
-146.9261846717743
 30
0.0
  0
VERTEX
  5
2FB
330
2F4
100
AcDbEntity
  8
STANDARDEBENE
 62
     7
100
AcDbVertex
100
AcDb2dVertex
 10
60.83939287627603
 20
-146.9261846717743
 30
0.0
  0
SEQEND
  5
2FC
330
2F4
100
AcDbEntity
  8
STANDARDEBENE
  0
POLYLINE
  5
2FD
330
1F
100
AcDbEntity
  8
STANDARDEBENE
 62
     7
100
AcDb2dPolyline
 66
     1
 10
0.0
 20
0.0
 30
0.0
  0
VERTEX
  5
2FE
330
2FD
100
AcDbEntity
  8
STANDARDEBENE
 62
     7
100
AcDbVertex
100
AcDb2dVertex
 10
50.41831666821772
 20
-143.1579367441158
 30
0.0
  0
VERTEX
  5
2FF
330
2FD
100
AcDbEntity
  8
STANDARDEBENE
 62
     7
100
AcDbVertex
100
AcDb2dVertex
 10
50.08276414659225
 20
-142.6807907046381
 30
0.0
  0
VERTEX
  5
300
330
2FD
100
AcDbEntity
  8
STANDARDEBENE
 62
     7
100
AcDbVertex
100
AcDb2dVertex
 10
49.92360063017442
 20
-142.118206240763
 30
0.0
  0
VERTEX
  5
301
330
2FD
100
AcDbEntity
  8
STANDARDEBENE
 62
     7
100
AcDbVertex
100
AcDb2dVertex
 10
49.95564003932346
 20
-141.5411523663044
 30
0.0
  0
VERTEX
  5
302
330
2FD
100
AcDbEntity
  8
STANDARDEBENE
 62
     7
100
AcDbVertex
100
AcDb2dVertex
 10
50.17302570785085
 20
-141.0071622138203
 30
0.0
  0
VERTEX
  5
303
330
2FD
100
AcDbEntity
  8
STANDARDEBENE
 62
     7
100
AcDbVertex
100
AcDb2dVertex
 10
50.55991018606994
 20
-140.5672232301286
 30
0.0
  0
VERTEX
  5
304
330
2FD
100
AcDbEntity
  8
STANDARDEBENE
 62
     7
100
AcDbVertex
100
AcDb2dVertex
 10
51.07874190841898
 20
-140.2771459989082
 30
0.0
  0
VERTEX
  5
305
330
2FD
100
AcDbEntity
  8
STANDARDEBENE
 62
     7
100
AcDbVertex
100
AcDb2dVertex
 10
51.65786284153234
 20
-140.1765491443757
 30
0.0
  0
VERTEX
  5
306
330
2FD
100
AcDbEntity
  8
STANDARDEBENE
 62
     7
100
AcDbVertex
100
AcDb2dVertex
 10
52.22492593249283
 20
-140.2692222740649
 30
0.0
  0
VERTEX
  5
307
330
2FD
100
AcDbEntity
  8
STANDARDEBENE
 62
     7
100
AcDbVertex
100
AcDb2dVertex
 10
52.72859922470683
 20
-140.5389734285133
 30
0.0
  0
VERTEX
  5
308
330
2FD
100
AcDbEntity
  8
STANDARDEBENE
 62
     7
100
AcDbVertex
100
AcDb2dVertex
 10
53.12512997664822
 20
-140.9658210407248
 30
0.0
  0
VERTEX
  5
309
330
2FD
100
AcDbEntity
  8
STANDARDEBENE
 62
     7
100
AcDbVertex
100
AcDb2dVertex
 10
53.36180819262019
 20
-141.5087684473795
 30
0.0
  0
VERTEX
  5
30A
330
2FD
100
AcDbEntity
  8
STANDARDEBENE
 62
     7
100
AcDbVertex
100
AcDb2dVertex
 10
53.40383838526732
 20
-142.0989136933184
 30
0.0
  0
VERTEX
  5
30B
330
2FD
100
AcDbEntity
  8
STANDARDEBENE
 62
     7
100
AcDbVertex
100
AcDb2dVertex
 10
53.25156506436541
 20
-142.6594310985387
 30
0.0
  0
VERTEX
  5
30C
330
2FD
100
AcDbEntity
  8
STANDARDEBENE
 62
     7
100
AcDbVertex
100
AcDb2dVertex
 10
52.92565881646224
 20
-143.137266157568
 30
0.0
  0
VERTEX
  5
30D
330
2FD
100
AcDbEntity
  8
STANDARDEBENE
 62
     7
100
AcDbVertex
100
AcDb2dVertex
 10
52.45712552137945
 20
-143.485565540898
 30
0.0
  0
VERTEX
  5
30E
330
2FD
100
AcDbEntity
  8
STANDARDEBENE
 62
     7
100
AcDbVertex
100
AcDb2dVertex
 10
51.89419654772851
 20
-143.6609210167782
 30
0.0
  0
VERTEX
  5
30F
330
2FD
100
AcDbEntity
  8
STANDARDEBENE
 62
     7
100
AcDbVertex
100
AcDb2dVertex
 10
51.30852992887502
 20
-143.6402504302304
 30
0.0
  0
VERTEX
  5
310
330
2FD
100
AcDbEntity
  8
STANDARDEBENE
 62
     7
100
AcDbVertex
100
AcDb2dVertex
 10
50.76592703199605
 20
-143.429754957219
 30
0.0
  0
VERTEX
  5
311
330
2FD
100
AcDbEntity
  8
STANDARDEBENE
 62
     7
100
AcDbVertex
100
AcDb2dVertex
 10
50.41831666821772
 20
-143.1579367441158
 30
0.0
  0
SEQEND
  5
312
330
2FD
100
AcDbEntity
  8
STANDARDEBENE
  0
POLYLINE
  5
313
330
1F
100
AcDbEntity
  8
STANDARDEBENE
 62
     7
100
AcDb2dPolyline
 66
     1
 10
0.0
 20
0.0
 30
0.0
  0
VERTEX
  5
314
330
313
100
AcDbEntity
  8
STANDARDEBENE
 62
     7
100
AcDbVertex
100
AcDb2dVertex
 10
47.11308987922927
 20
-150.9269766980952
 30
0.0
  0
VERTEX
  5
315
330
313
100
AcDbEntity
  8
STANDARDEBENE
 62
     7
100
AcDbVertex
100
AcDb2dVertex
 10
45.71816979703058
 20
-150.9269766980952
 30
0.0
  0
VERTEX
  5
316
330
313
100
AcDbEntity
  8
STANDARDEBENE
 62
     7
100
AcDbVertex
100
AcDb2dVertex
 10
44.59368988883189
 20
-150.9269766980952
 30
0.0
  0
VERTEX
  5
317
330
313
100
AcDbEntity
  8
STANDARDEBENE
 62
     7
100
AcDbVertex
100
AcDb2dVertex
 10
44.53684577582553
 20
-150.9269766980952
 30
0.0
  0
VERTEX
  5
318
330
313
100
AcDbEntity
  8
STANDARDEBENE
 62
     7
100
AcDbVertex
100
AcDb2dVertex
 10
44.51479715017457
 20
-150.9269766980952
 30
0.0
  0
SEQEND
  5
319
330
313
100
AcDbEntity
  8
STANDARDEBENE
  0
POLYLINE
  5
31A
330
1F
100
AcDbEntity
  8
STANDARDEBENE
 62
     7
100
AcDb2dPolyline
 66
     1
 10
0.0
 20
0.0
 30
0.0
  0
VERTEX
  5
31B
330
31A
100
AcDbEntity
  8
STANDARDEBENE
 62
     7
100
AcDbVertex
100
AcDb2dVertex
 10
48.03740960769039
 20
-150.9269766980952
 30
0.0
  0
VERTEX
  5
31C
330
31A
100
AcDbEntity
  8
STANDARDEBENE
 62
     7
100
AcDbVertex
100
AcDb2dVertex
 10
48.03327549038084
 20
-150.9269766980952
 30
0.0
  0
VERTEX
  5
31D
330
31A
100
AcDbEntity
  8
STANDARDEBENE
 62
     7
100
AcDbVertex
100
AcDb2dVertex
 10
47.97608686759867
 20
-150.9269766980952
 30
0.0
  0
VERTEX
  5
31E
330
31A
100
AcDbEntity
  8
STANDARDEBENE
 62
     7
100
AcDbVertex
100
AcDb2dVertex
 10
47.85792001450059
 20
-150.9269766980952
 30
0.0
  0
VERTEX
  5
31F
330
31A
100
AcDbEntity
  8
STANDARDEBENE
 62
     7
100
AcDbVertex
100
AcDb2dVertex
 10
47.69255532211843
 20
-150.9269766980952
 30
0.0
  0
VERTEX
  5
320
330
31A
100
AcDbEntity
  8
STANDARDEBENE
 62
     7
100
AcDbVertex
100
AcDb2dVertex
 10
47.49962984767257
 20
-150.9269766980952
 30
0.0
  0
VERTEX
  5
321
330
31A
100
AcDbEntity
  8
STANDARDEBENE
 62
     7
100
AcDbVertex
100
AcDb2dVertex
 10
47.29774711905602
 20
-150.9269766980952
 30
0.0
  0
VERTEX
  5
322
330
31A
100
AcDbEntity
  8
STANDARDEBENE
 62
     7
100
AcDbVertex
100
AcDb2dVertex
 10
47.11308987922927
 20
-150.9269766980952
 30
0.0
  0
SEQEND
  5
323
330
31A
100
AcDbEntity
  8
STANDARDEBENE
  0
POLYLINE
  5
324
330
1F
100
AcDbEntity
  8
STANDARDEBENE
 62
     7
100
AcDb2dPolyline
 66
     1
 10
0.0
 20
0.0
 30
0.0
  0
VERTEX
  5
325
330
324
100
AcDbEntity
  8
STANDARDEBENE
 62
     7
100
AcDbVertex
100
AcDb2dVertex
 10
58.73064853862768
 20
-150.9269766980952
 30
0.0
  0
VERTEX
  5
326
330
324
100
AcDbEntity
  8
STANDARDEBENE
 62
     7
100
AcDbVertex
100
AcDb2dVertex
 10
57.60616863042898
 20
-150.9269766980952
 30
0.0
  0
VERTEX
  5
327
330
324
100
AcDbEntity
  8
STANDARDEBENE
 62
     7
100
AcDbVertex
100
AcDb2dVertex
 10
56.21193756778189
 20
-150.9269766980952
 30
0.0
  0
VERTEX
  5
328
330
324
100
AcDbEntity
  8
STANDARDEBENE
 62
     7
100
AcDbVertex
100
AcDb2dVertex
 10
56.10031640042393
 20
-150.9269766980952
 30
0.0
  0
VERTEX
  5
329
330
324
100
AcDbEntity
  8
STANDARDEBENE
 62
     7
100
AcDbVertex
100
AcDb2dVertex
 10
55.90222327934114
 20
-150.9269766980952
 30
0.0
  0
VERTEX
  5
32A
330
324
100
AcDbEntity
  8
STANDARDEBENE
 62
     7
100
AcDbVertex
100
AcDb2dVertex
 10
55.70309662893095
 20
-150.9269766980952
 30
0.0
  0
VERTEX
  5
32B
330
324
100
AcDbEntity
  8
STANDARDEBENE
 62
     7
100
AcDbVertex
100
AcDb2dVertex
 10
55.52395154551694
 20
-150.9269766980952
 30
0.0
  0
VERTEX
  5
32C
330
324
100
AcDbEntity
  8
STANDARDEBENE
 62
     7
100
AcDbVertex
100
AcDb2dVertex
 10
55.38614763519848
 20
-150.9269766980952
 30
0.0
  0
VERTEX
  5
32D
330
324
100
AcDbEntity
  8
STANDARDEBENE
 62
     7
100
AcDbVertex
100
AcDb2dVertex
 10
55.30484332811058
 20
-150.9269766980952
 30
0.0
  0
VERTEX
  5
32E
330
324
100
AcDbEntity
  8
STANDARDEBENE
 62
     7
100
AcDbVertex
100
AcDb2dVertex
 10
55.28796234909657
 20
-150.9269766980952
 30
0.0
  0
SEQEND
  5
32F
330
324
100
AcDbEntity
  8
STANDARDEBENE
  0
POLYLINE
  5
330
330
1F
100
AcDbEntity
  8
STANDARDEBENE
 62
     7
100
AcDb2dPolyline
 66
     1
 10
0.0
 20
0.0
 30
0.0
  0
VERTEX
  5
331
330
330
100
AcDbEntity
  8
STANDARDEBENE
 62
     7
100
AcDbVertex
100
AcDb2dVertex
 10
58.8188430412315
 20
-150.9269766980952
 30
0.0
  0
VERTEX
  5
332
330
330
100
AcDbEntity
  8
STANDARDEBENE
 62
     7
100
AcDbVertex
100
AcDb2dVertex
 10
58.81057480661239
 20
-150.9269766980952
 30
0.0
  0
VERTEX
  5
333
330
330
100
AcDbEntity
  8
STANDARDEBENE
 62
     7
100
AcDbVertex
100
AcDb2dVertex
 10
58.73064853862768
 20
-150.9269766980952
 30
0.0
  0
SEQEND
  5
334
330
330
100
AcDbEntity
  8
STANDARDEBENE
  0
POLYLINE
  5
335
330
1F
100
AcDbEntity
  8
STANDARDEBENE
 62
     7
100
AcDb2dPolyline
 66
     1
 10
0.0
 20
0.0
 30
0.0
  0
VERTEX
  5
336
330
335
100
AcDbEntity
  8
STANDARDEBENE
 62
     7
100
AcDbVertex
100
AcDb2dVertex
 10
48.63754563712732
 20
-147.5263207012112
 30
0.0
  0
VERTEX
  5
337
330
335
100
AcDbEntity
  8
STANDARDEBENE
 62
     7
100
AcDbVertex
100
AcDb2dVertex
 10
48.63754563712732
 20
-148.5222984630379
 30
0.0
  0
VERTEX
  5
338
330
335
100
AcDbEntity
  8
STANDARDEBENE
 62
     7
100
AcDbVertex
100
AcDb2dVertex
 10
48.63754563712732
 20
-150.3261516491067
 30
0.0
  0
SEQEND
  5
339
330
335
100
AcDbEntity
  8
STANDARDEBENE
  0
POLYLINE
  5
33A
330
1F
100
AcDbEntity
  8
STANDARDEBENE
 62
     7
100
AcDb2dPolyline
 66
     1
 10
0.0
 20
0.0
 30
0.0
  0
VERTEX
  5
33B
330
33A
100
AcDbEntity
  8
STANDARDEBENE
 62
     7
100
AcDbVertex
100
AcDb2dVertex
 10
54.68713730010805
 20
-150.3261516491067
 30
0.0
  0
VERTEX
  5
33C
330
33A
100
AcDbEntity
  8
STANDARDEBENE
 62
     7
100
AcDbVertex
100
AcDb2dVertex
 10
54.68713730010805
 20
-148.5222984630379
 30
0.0
  0
VERTEX
  5
33D
330
33A
100
AcDbEntity
  8
STANDARDEBENE
 62
     7
100
AcDbVertex
100
AcDb2dVertex
 10
54.68713730010805
 20
-147.5263207012112
 30
0.0
  0
SEQEND
  5
33E
330
33A
100
AcDbEntity
  8
STANDARDEBENE
  0
POLYLINE
  5
33F
330
1F
100
AcDbEntity
  8
STANDARDEBENE
 62
     7
100
AcDb2dPolyline
 66
     1
 10
0.0
 20
0.0
 30
0.0
  0
VERTEX
  5
340
330
33F
100
AcDbEntity
  8
STANDARDEBENE
 62
     7
100
AcDbVertex
100
AcDb2dVertex
 10
48.63582308824834
 20
-150.3289077273131
 30
0.0
  0
VERTEX
  5
341
330
33F
100
AcDbEntity
  8
STANDARDEBENE
 62
     7
100
AcDbVertex
100
AcDb2dVertex
 10
48.57691191658719
 20
-150.386440859871
 30
0.0
  0
VERTEX
  5
342
330
33F
100
AcDbEntity
  8
STANDARDEBENE
 62
     7
100
AcDbVertex
100
AcDb2dVertex
 10
48.48837290420758
 20
-150.4753243820264
 30
0.0
  0
VERTEX
  5
343
330
33F
100
AcDbEntity
  8
STANDARDEBENE
 62
     7
100
AcDbVertex
100
AcDb2dVertex
 10
48.39018761810567
 20
-150.5724761388009
 30
0.0
  0
VERTEX
  5
344
330
33F
100
AcDbEntity
  8
STANDARDEBENE
 62
     7
100
AcDbVertex
100
AcDb2dVertex
 10
48.30061507639867
 20
-150.6627377000596
 30
0.0
  0
VERTEX
  5
345
330
33F
100
AcDbEntity
  8
STANDARDEBENE
 62
     7
100
AcDbVertex
100
AcDb2dVertex
 10
48.22413390617192
 20
-150.7402523996137
 30
0.0
  0
VERTEX
  5
346
330
33F
100
AcDbEntity
  8
STANDARDEBENE
 62
     7
100
AcDbVertex
100
AcDb2dVertex
 10
48.15213136303052
 20
-150.8112214134277
 30
0.0
  0
VERTEX
  5
347
330
33F
100
AcDbEntity
  8
STANDARDEBENE
 62
     7
100
AcDbVertex
100
AcDb2dVertex
 10
48.10252195531587
 20
-150.8604863113665
 30
0.0
  0
VERTEX
  5
348
330
33F
100
AcDbEntity
  8
STANDARDEBENE
 62
     7
100
AcDbVertex
100
AcDb2dVertex
 10
48.06324784087511
 20
-150.9001049355831
 30
0.0
  0
VERTEX
  5
349
330
33F
100
AcDbEntity
  8
STANDARDEBENE
 62
     7
100
AcDbVertex
100
AcDb2dVertex
 10
48.03809862724199
 20
-150.9252541492162
 30
0.0
  0
VERTEX
  5
34A
330
33F
100
AcDbEntity
  8
STANDARDEBENE
 62
     7
100
AcDbVertex
100
AcDb2dVertex
 10
48.03740960769039
 20
-150.9269766980952
 30
0.0
  0
SEQEND
  5
34B
330
33F
100
AcDbEntity
  8
STANDARDEBENE
  0
POLYLINE
  5
34C
330
1F
100
AcDbEntity
  8
STANDARDEBENE
 62
     7
100
AcDb2dPolyline
 66
     1
 10
0.0
 20
0.0
 30
0.0
  0
VERTEX
  5
34D
330
34C
100
AcDbEntity
  8
STANDARDEBENE
 62
     7
100
AcDbVertex
100
AcDb2dVertex
 10
55.28796234909657
 20
-150.9269766980952
 30
0.0
  0
VERTEX
  5
34E
330
34C
100
AcDbEntity
  8
STANDARDEBENE
 62
     7
100
AcDbVertex
100
AcDb2dVertex
 10
55.28417274156281
 20
-150.9231870905614
 30
0.0
  0
VERTEX
  5
34F
330
34C
100
AcDbEntity
  8
STANDARDEBENE
 62
     7
100
AcDbVertex
100
AcDb2dVertex
 10
55.26109058658447
 20
-150.8994159160315
 30
0.0
  0
VERTEX
  5
350
330
34C
100
AcDbEntity
  8
STANDARDEBENE
 62
     7
100
AcDbVertex
100
AcDb2dVertex
 10
55.22388353079847
 20
-150.8632423895729
 30
0.0
  0
VERTEX
  5
351
330
34C
100
AcDbEntity
  8
STANDARDEBENE
 62
     7
100
AcDbVertex
100
AcDb2dVertex
 10
55.16462784936154
 20
-150.8043312179118
 30
0.0
  0
VERTEX
  5
352
330
34C
100
AcDbEntity
  8
STANDARDEBENE
 62
     7
100
AcDbVertex
100
AcDb2dVertex
 10
55.09986001151186
 20
-150.7392188702863
 30
0.0
  0
VERTEX
  5
353
330
34C
100
AcDbEntity
  8
STANDARDEBENE
 62
     7
100
AcDbVertex
100
AcDb2dVertex
 10
55.03164707590422
 20
-150.6706614249028
 30
0.0
  0
VERTEX
  5
354
330
34C
100
AcDbEntity
  8
STANDARDEBENE
 62
     7
100
AcDbVertex
100
AcDb2dVertex
 10
54.95654394478065
 20
-150.5948692742277
 30
0.0
  0
VERTEX
  5
355
330
34C
100
AcDbEntity
  8
STANDARDEBENE
 62
     7
100
AcDbVertex
100
AcDb2dVertex
 10
54.85835865867874
 20
-150.4966839881258
 30
0.0
  0
VERTEX
  5
356
330
34C
100
AcDbEntity
  8
STANDARDEBENE
 62
     7
100
AcDbVertex
100
AcDb2dVertex
 10
54.76430748988639
 20
-150.403321838885
 30
0.0
  0
VERTEX
  5
357
330
34C
100
AcDbEntity
  8
STANDARDEBENE
 62
     7
100
AcDbVertex
100
AcDb2dVertex
 10
54.70677435732843
 20
-150.3464777258787
 30
0.0
  0
VERTEX
  5
358
330
34C
100
AcDbEntity
  8
STANDARDEBENE
 62
     7
100
AcDbVertex
100
AcDb2dVertex
 10
54.68920435876282
 20
-150.3289077273131
 30
0.0
  0
SEQEND
  5
359
330
34C
100
AcDbEntity
  8
STANDARDEBENE
  0
SPLINE
  5
35A
330
1F
100
AcDbEntity
  8
STANDARDEBENE
 62
     7
100
AcDbSpline
210
0.0
220
0.0
230
1.0
 70
     8
 71
     3
 72
     8
 73
     4
 74
     0
 42
0.0000000001
 43
0.0000000001
 40
0.0
 40
0.0
 40
0.0
 40
0.0
 40
1.0
 40
1.0
 40
1.0
 40
1.0
 10
49.23699264701266
 20
-146.9261846717743
 30
0.0
 10
48.90557424269674
 20
-146.9261846717743
 30
0.0
 10
48.63754563712732
 20
-147.1955913164469
 30
0.0
 10
48.63754563712732
 20
-147.5263207012112
 30
0.0
  0
SPLINE
  5
35B
330
1F
100
AcDbEntity
  8
STANDARDEBENE
 62
     7
100
AcDbSpline
210
0.0
220
0.0
230
1.0
 70
     8
 71
     3
 72
     8
 73
     4
 74
     0
 42
0.0000000001
 43
0.0000000001
 40
0.0
 40
0.0
 40
0.0
 40
0.0
 40
1.0
 40
1.0
 40
1.0
 40
1.0
 10
54.68713730010805
 20
-147.5263207012112
 30
0.0
 10
54.68713730010805
 20
-147.1955913164469
 30
0.0
 10
54.41910869453863
 20
-146.9261846717743
 30
0.0
 10
54.08665676089532
 20
-146.9261846717743
 30
0.0
  0
POLYLINE
  5
35C
330
1F
100
AcDbEntity
  8
STANDARDEBENE
 62
     7
100
AcDb2dPolyline
 66
     1
 10
0.0
 20
0.0
 30
0.0
  0
VERTEX
  5
35D
330
35C
100
AcDbEntity
  8
STANDARDEBENE
 62
     7
100
AcDbVertex
100
AcDb2dVertex
 10
39.16249327340529
 20
-137.926555798651
 30
0.0
  0
VERTEX
  5
35E
330
35C
100
AcDbEntity
  8
STANDARDEBENE
 62
     7
100
AcDbVertex
100
AcDb2dVertex
 10
39.26894679412631
 20
-137.926555798651
 30
0.0
  0
VERTEX
  5
35F
330
35C
100
AcDbEntity
  8
STANDARDEBENE
 62
     7
100
AcDbVertex
100
AcDb2dVertex
 10
39.58830735628936
 20
-137.926555798651
 30
0.0
  0
VERTEX
  5
360
330
35C
100
AcDbEntity
  8
STANDARDEBENE
 62
     7
100
AcDbVertex
100
AcDb2dVertex
 10
40.11368476437851
 20
-137.926555798651
 30
0.0
  0
VERTEX
  5
361
330
35C
100
AcDbEntity
  8
STANDARDEBENE
 62
     7
100
AcDbVertex
100
AcDb2dVertex
 10
40.83715529355047
 20
-137.926555798651
 30
0.0
  0
VERTEX
  5
362
330
35C
100
AcDbEntity
  8
STANDARDEBENE
 62
     7
100
AcDbVertex
100
AcDb2dVertex
 10
41.74562757232496
 20
-137.926555798651
 30
0.0
  0
VERTEX
  5
363
330
35C
100
AcDbEntity
  8
STANDARDEBENE
 62
     7
100
AcDbVertex
100
AcDb2dVertex
 10
42.82359866079118
 20
-137.926555798651
 30
0.0
  0
VERTEX
  5
364
330
35C
100
AcDbEntity
  8
STANDARDEBENE
 62
     7
100
AcDbVertex
100
AcDb2dVertex
 10
44.05246503105611
 20
-137.926555798651
 30
0.0
  0
VERTEX
  5
365
330
35C
100
AcDbEntity
  8
STANDARDEBENE
 62
     7
100
AcDbVertex
100
AcDb2dVertex
 10
45.41224511612359
 20
-137.926555798651
 30
0.0
  0
VERTEX
  5
366
330
35C
100
AcDbEntity
  8
STANDARDEBENE
 62
     7
100
AcDbVertex
100
AcDb2dVertex
 10
46.87951225123948
 20
-137.926555798651
 30
0.0
  0
VERTEX
  5
367
330
35C
100
AcDbEntity
  8
STANDARDEBENE
 62
     7
100
AcDbVertex
100
AcDb2dVertex
 10
48.42773918366746
 20
-137.926555798651
 30
0.0
  0
VERTEX
  5
368
330
35C
100
AcDbEntity
  8
STANDARDEBENE
 62
     7
100
AcDbVertex
100
AcDb2dVertex
 10
50.03074317044703
 20
-137.926555798651
 30
0.0
  0
VERTEX
  5
369
330
35C
100
AcDbEntity
  8
STANDARDEBENE
 62
     7
100
AcDbVertex
100
AcDb2dVertex
 10
51.66234146861768
 20
-137.926555798651
 30
0.0
  0
VERTEX
  5
36A
330
35C
100
AcDbEntity
  8
STANDARDEBENE
 62
     7
100
AcDbVertex
100
AcDb2dVertex
 10
53.29428427656413
 20
-137.926555798651
 30
0.0
  0
VERTEX
  5
36B
330
35C
100
AcDbEntity
  8
STANDARDEBENE
 62
     7
100
AcDbVertex
100
AcDb2dVertex
 10
54.8976327731195
 20
-137.926555798651
 30
0.0
  0
VERTEX
  5
36C
330
35C
100
AcDbEntity
  8
STANDARDEBENE
 62
     7
100
AcDbVertex
100
AcDb2dVertex
 10
56.44620421532328
 20
-137.926555798651
 30
0.0
  0
VERTEX
  5
36D
330
35C
100
AcDbEntity
  8
STANDARDEBENE
 62
     7
100
AcDbVertex
100
AcDb2dVertex
 10
57.91243782111178
 20
-137.926555798651
 30
0.0
  0
VERTEX
  5
36E
330
35C
100
AcDbEntity
  8
STANDARDEBENE
 62
     7
100
AcDbVertex
100
AcDb2dVertex
 10
59.27152888662766
 20
-137.926555798651
 30
0.0
  0
VERTEX
  5
36F
330
35C
100
AcDbEntity
  8
STANDARDEBENE
 62
     7
100
AcDbVertex
100
AcDb2dVertex
 10
60.50177329599578
 20
-137.926555798651
 30
0.0
  0
VERTEX
  5
370
330
35C
100
AcDbEntity
  8
STANDARDEBENE
 62
     7
100
AcDbVertex
100
AcDb2dVertex
 10
61.5793998746862
 20
-137.926555798651
 30
0.0
  0
VERTEX
  5
371
330
35C
100
AcDbEntity
  8
STANDARDEBENE
 62
     7
100
AcDbVertex
100
AcDb2dVertex
 10
62.4875276436849
 20
-137.926555798651
 30
0.0
  0
VERTEX
  5
372
330
35C
100
AcDbEntity
  8
STANDARDEBENE
 62
     7
100
AcDbVertex
100
AcDb2dVertex
 10
63.21030915330526
 20
-137.926555798651
 30
0.0
  0
VERTEX
  5
373
330
35C
100
AcDbEntity
  8
STANDARDEBENE
 62
     7
100
AcDbVertex
100
AcDb2dVertex
 10
63.73603107117022
 20
-137.926555798651
 30
0.0
  0
VERTEX
  5
374
330
35C
100
AcDbEntity
  8
STANDARDEBENE
 62
     7
100
AcDbVertex
100
AcDb2dVertex
 10
64.05470261378167
 20
-137.926555798651
 30
0.0
  0
VERTEX
  5
375
330
35C
100
AcDbEntity
  8
STANDARDEBENE
 62
     7
100
AcDbVertex
100
AcDb2dVertex
 10
64.16253417360588
 20
-137.926555798651
 30
0.0
  0
SEQEND
  5
376
330
35C
100
AcDbEntity
  8
STANDARDEBENE
  0
POLYLINE
  5
377
330
1F
100
AcDbEntity
  8
STANDARDEBENE
 62
     7
100
AcDb2dPolyline
 66
     1
 10
0.0
 20
0.0
 30
0.0
  0
VERTEX
  5
378
330
377
100
AcDbEntity
  8
STANDARDEBENE
 62
     7
100
AcDbVertex
100
AcDb2dVertex
 10
61.66208222087728
 20
-126.4268194825749
 30
0.0
  0
VERTEX
  5
379
330
377
100
AcDbEntity
  8
STANDARDEBENE
 62
     7
100
AcDbVertex
100
AcDb2dVertex
 10
61.56045183701741
 20
-126.4268194825749
 30
0.0
  0
VERTEX
  5
37A
330
377
100
AcDbEntity
  8
STANDARDEBENE
 62
     7
100
AcDbVertex
100
AcDb2dVertex
 10
61.25797225386837
 20
-126.4268194825749
 30
0.0
  0
VERTEX
  5
37B
330
377
100
AcDbEntity
  8
STANDARDEBENE
 62
     7
100
AcDbVertex
100
AcDb2dVertex
 10
60.75877758873973
 20
-126.4268194825749
 30
0.0
  0
VERTEX
  5
37C
330
377
100
AcDbEntity
  8
STANDARDEBENE
 62
     7
100
AcDbVertex
100
AcDb2dVertex
 10
60.07458117400854
 20
-126.4268194825749
 30
0.0
  0
VERTEX
  5
37D
330
377
100
AcDbEntity
  8
STANDARDEBENE
 62
     7
100
AcDbVertex
100
AcDb2dVertex
 10
59.21985242025824
 20
-126.4268194825749
 30
0.0
  0
VERTEX
  5
37E
330
377
100
AcDbEntity
  8
STANDARDEBENE
 62
     7
100
AcDbVertex
100
AcDb2dVertex
 10
58.21181681627865
 20
-126.4268194825749
 30
0.0
  0
VERTEX
  5
37F
330
377
100
AcDbEntity
  8
STANDARDEBENE
 62
     7
100
AcDbVertex
100
AcDb2dVertex
 10
57.06873338018696
 20
-126.4268194825749
 30
0.0
  0
VERTEX
  5
380
330
377
100
AcDbEntity
  8
STANDARDEBENE
 62
     7
100
AcDbVertex
100
AcDb2dVertex
 10
55.81644034516789
 20
-126.4268194825749
 30
0.0
  0
VERTEX
  5
381
330
377
100
AcDbEntity
  8
STANDARDEBENE
 62
     7
100
AcDbVertex
100
AcDb2dVertex
 10
54.47974241507875
 20
-126.4268194825749
 30
0.0
  0
VERTEX
  5
382
330
377
100
AcDbEntity
  8
STANDARDEBENE
 62
     7
100
AcDbVertex
100
AcDb2dVertex
 10
53.08620037198325
 20
-126.4268194825749
 30
0.0
  0
VERTEX
  5
383
330
377
100
AcDbEntity
  8
STANDARDEBENE
 62
     7
100
AcDbVertex
100
AcDb2dVertex
 10
51.66234146861768
 20
-126.4268194825749
 30
0.0
  0
VERTEX
  5
384
330
377
100
AcDbEntity
  8
STANDARDEBENE
 62
     7
100
AcDbVertex
100
AcDb2dVertex
 10
50.23917158480371
 20
-126.4268194825749
 30
0.0
  0
VERTEX
  5
385
330
377
100
AcDbEntity
  8
STANDARDEBENE
 62
     7
100
AcDbVertex
100
AcDb2dVertex
 10
48.84425150260503
 20
-126.4268194825749
 30
0.0
  0
VERTEX
  5
386
330
377
100
AcDbEntity
  8
STANDARDEBENE
 62
     7
100
AcDbVertex
100
AcDb2dVertex
 10
47.50824259206748
 20
-126.4268194825749
 30
0.0
  0
VERTEX
  5
387
330
377
100
AcDbEntity
  8
STANDARDEBENE
 62
     7
100
AcDbVertex
100
AcDb2dVertex
 10
46.2559495570484
 20
-126.4268194825749
 30
0.0
  0
VERTEX
  5
388
330
377
100
AcDbEntity
  8
STANDARDEBENE
 62
     7
100
AcDbVertex
100
AcDb2dVertex
 10
45.11355514050831
 20
-126.4268194825749
 30
0.0
  0
VERTEX
  5
389
330
377
100
AcDbEntity
  8
STANDARDEBENE
 62
     7
100
AcDbVertex
100
AcDb2dVertex
 10
44.10448600720133
 20
-126.4268194825749
 30
0.0
  0
VERTEX
  5
38A
330
377
100
AcDbEntity
  8
STANDARDEBENE
 62
     7
100
AcDbVertex
100
AcDb2dVertex
 10
43.25010176322683
 20
-126.4268194825749
 30
0.0
  0
VERTEX
  5
38B
330
377
100
AcDbEntity
  8
STANDARDEBENE
 62
     7
100
AcDbVertex
100
AcDb2dVertex
 10
42.56624985827144
 20
-126.4268194825749
 30
0.0
  0
VERTEX
  5
38C
330
377
100
AcDbEntity
  8
STANDARDEBENE
 62
     7
100
AcDbVertex
100
AcDb2dVertex
 10
42.06671068336699
 20
-126.4268194825749
 30
0.0
  0
VERTEX
  5
38D
330
377
100
AcDbEntity
  8
STANDARDEBENE
 62
     7
100
AcDbVertex
100
AcDb2dVertex
 10
41.76423110021796
 20
-126.4268194825749
 30
0.0
  0
VERTEX
  5
38E
330
377
100
AcDbEntity
  8
STANDARDEBENE
 62
     7
100
AcDbVertex
100
AcDb2dVertex
 10
41.66225620658229
 20
-126.4268194825749
 30
0.0
  0
SEQEND
  5
38F
330
377
100
AcDbEntity
  8
STANDARDEBENE
  0
POLYLINE
  5
390
330
1F
100
AcDbEntity
  8
STANDARDEBENE
 62
     7
100
AcDb2dPolyline
 66
     1
 10
0.0
 20
0.0
 30
0.0
  0
VERTEX
  5
391
330
390
100
AcDbEntity
  8
STANDARDEBENE
 62
     7
100
AcDbVertex
100
AcDb2dVertex
 10
42.66271259549436
 20
2.073432085629242
 30
0.0
  0
VERTEX
  5
392
330
390
100
AcDbEntity
  8
STANDARDEBENE
 62
     7
100
AcDbVertex
100
AcDb2dVertex
 10
42.77295572374914
 20
2.073432085629242
 30
0.0
  0
VERTEX
  5
393
330
390
100
AcDbEntity
  8
STANDARDEBENE
 62
     7
100
AcDbVertex
100
AcDb2dVertex
 10
43.10299608896187
 20
2.073432085629242
 30
0.0
  0
VERTEX
  5
394
330
390
100
AcDbEntity
  8
STANDARDEBENE
 62
     7
100
AcDbVertex
100
AcDb2dVertex
 10
43.64284290763447
 20
2.073432085629242
 30
0.0
  0
VERTEX
  5
395
330
390
100
AcDbEntity
  8
STANDARDEBENE
 62
     7
100
AcDbVertex
100
AcDb2dVertex
 10
44.38147186694145
 20
2.073432085629242
 30
0.0
  0
VERTEX
  5
396
330
390
100
AcDbEntity
  8
STANDARDEBENE
 62
     7
100
AcDbVertex
100
AcDb2dVertex
 10
45.29821238033506
 20
2.073432085629242
 30
0.0
  0
VERTEX
  5
397
330
390
100
AcDbEntity
  8
STANDARDEBENE
 62
     7
100
AcDbVertex
100
AcDb2dVertex
 10
46.37204935149172
 20
2.073432085629242
 30
0.0
  0
VERTEX
  5
398
330
390
100
AcDbEntity
  8
STANDARDEBENE
 62
     7
100
AcDbVertex
100
AcDb2dVertex
 10
47.57576650812353
 20
2.073432085629242
 30
0.0
  0
VERTEX
  5
399
330
390
100
AcDbEntity
  8
STANDARDEBENE
 62
     7
100
AcDbVertex
100
AcDb2dVertex
 10
48.88111404861521
 20
2.073432085629242
 30
0.0
  0
VERTEX
  5
39A
330
390
100
AcDbEntity
  8
STANDARDEBENE
 62
     7
100
AcDbVertex
100
AcDb2dVertex
 10
50.25433001493874
 20
2.073432085629242
 30
0.0
  0
VERTEX
  5
39B
330
390
100
AcDbEntity
  8
STANDARDEBENE
 62
     7
100
AcDbVertex
100
AcDb2dVertex
 10
51.66234146861768
 20
2.073432085629242
 30
0.0
  0
VERTEX
  5
39C
330
390
100
AcDbEntity
  8
STANDARDEBENE
 62
     7
100
AcDbVertex
100
AcDb2dVertex
 10
53.07000841252083
 20
2.073432085629242
 30
0.0
  0
VERTEX
  5
39D
330
390
100
AcDbEntity
  8
STANDARDEBENE
 62
     7
100
AcDbVertex
100
AcDb2dVertex
 10
54.44356888862016
 20
2.073432085629242
 30
0.0
  0
VERTEX
  5
39E
330
390
100
AcDbEntity
  8
STANDARDEBENE
 62
     7
100
AcDbVertex
100
AcDb2dVertex
 10
55.74822740956024
 20
2.073432085629242
 30
0.0
  0
VERTEX
  5
39F
330
390
100
AcDbEntity
  8
STANDARDEBENE
 62
     7
100
AcDbVertex
100
AcDb2dVertex
 10
56.95228907596785
 20
2.073432085629242
 30
0.0
  0
VERTEX
  5
3A0
330
390
100
AcDbEntity
  8
STANDARDEBENE
 62
     7
100
AcDbVertex
100
AcDb2dVertex
 10
58.02647055690031
 20
2.073432085629242
 30
0.0
  0
VERTEX
  5
3A1
330
390
100
AcDbEntity
  8
STANDARDEBENE
 62
     7
100
AcDbVertex
100
AcDb2dVertex
 10
58.94355558006971
 20
2.073432085629242
 30
0.0
  0
VERTEX
  5
3A2
330
390
100
AcDbEntity
  8
STANDARDEBENE
 62
     7
100
AcDbVertex
100
AcDb2dVertex
 10
59.68149551982511
 20
2.073432085629242
 30
0.0
  0
VERTEX
  5
3A3
330
390
100
AcDbEntity
  8
STANDARDEBENE
 62
     7
100
AcDbVertex
100
AcDb2dVertex
 10
60.22203135804929
 20
2.073432085629242
 30
0.0
  0
VERTEX
  5
3A4
330
390
100
AcDbEntity
  8
STANDARDEBENE
 62
     7
100
AcDbVertex
100
AcDb2dVertex
 10
60.55138270371043
 20
2.073432085629242
 30
0.0
  0
VERTEX
  5
3A5
330
390
100
AcDbEntity
  8
STANDARDEBENE
 62
     7
100
AcDbVertex
100
AcDb2dVertex
 10
60.6623148515168
 20
2.073432085629242
 30
0.0
  0
SEQEND
  5
3A6
330
390
100
AcDbEntity
  8
STANDARDEBENE
  0
POLYLINE
  5
3A7
330
1F
100
AcDbEntity
  8
STANDARDEBENE
 62
     7
100
AcDb2dPolyline
 66
     1
 10
0.0
 20
0.0
 30
0.0
  0
VERTEX
  5
3A8
330
3A7
100
AcDbEntity
  8
STANDARDEBENE
 62
     7
100
AcDbVertex
100
AcDb2dVertex
 10
61.66208222087728
 20
1.073320206492964
 30
0.0
  0
VERTEX
  5
3A9
330
3A7
100
AcDbEntity
  8
STANDARDEBENE
 62
     7
100
AcDbVertex
100
AcDb2dVertex
 10
61.56045183701741
 20
1.073320206492964
 30
0.0
  0
VERTEX
  5
3AA
330
3A7
100
AcDbEntity
  8
STANDARDEBENE
 62
     7
100
AcDbVertex
100
AcDb2dVertex
 10
61.25797225386837
 20
1.073320206492964
 30
0.0
  0
VERTEX
  5
3AB
330
3A7
100
AcDbEntity
  8
STANDARDEBENE
 62
     7
100
AcDbVertex
100
AcDb2dVertex
 10
60.75877758873973
 20
1.073320206492964
 30
0.0
  0
VERTEX
  5
3AC
330
3A7
100
AcDbEntity
  8
STANDARDEBENE
 62
     7
100
AcDbVertex
100
AcDb2dVertex
 10
60.07458117400854
 20
1.073320206492964
 30
0.0
  0
VERTEX
  5
3AD
330
3A7
100
AcDbEntity
  8
STANDARDEBENE
 62
     7
100
AcDbVertex
100
AcDb2dVertex
 10
59.21985242025824
 20
1.073320206492964
 30
0.0
  0
VERTEX
  5
3AE
330
3A7
100
AcDbEntity
  8
STANDARDEBENE
 62
     7
100
AcDbVertex
100
AcDb2dVertex
 10
58.21181681627865
 20
1.073320206492964
 30
0.0
  0
VERTEX
  5
3AF
330
3A7
100
AcDbEntity
  8
STANDARDEBENE
 62
     7
100
AcDbVertex
100
AcDb2dVertex
 10
57.06873338018696
 20
1.073320206492964
 30
0.0
  0
VERTEX
  5
3B0
330
3A7
100
AcDbEntity
  8
STANDARDEBENE
 62
     7
100
AcDbVertex
100
AcDb2dVertex
 10
55.81644034516789
 20
1.073320206492964
 30
0.0
  0
VERTEX
  5
3B1
330
3A7
100
AcDbEntity
  8
STANDARDEBENE
 62
     7
100
AcDbVertex
100
AcDb2dVertex
 10
54.47974241507875
 20
1.073320206492964
 30
0.0
  0
VERTEX
  5
3B2
330
3A7
100
AcDbEntity
  8
STANDARDEBENE
 62
     7
100
AcDbVertex
100
AcDb2dVertex
 10
53.08620037198325
 20
1.073320206492964
 30
0.0
  0
VERTEX
  5
3B3
330
3A7
100
AcDbEntity
  8
STANDARDEBENE
 62
     7
100
AcDbVertex
100
AcDb2dVertex
 10
51.66234146861768
 20
1.073320206492964
 30
0.0
  0
VERTEX
  5
3B4
330
3A7
100
AcDbEntity
  8
STANDARDEBENE
 62
     7
100
AcDbVertex
100
AcDb2dVertex
 10
50.23917158480371
 20
1.073320206492964
 30
0.0
  0
VERTEX
  5
3B5
330
3A7
100
AcDbEntity
  8
STANDARDEBENE
 62
     7
100
AcDbVertex
100
AcDb2dVertex
 10
48.84425150260503
 20
1.073320206492964
 30
0.0
  0
VERTEX
  5
3B6
330
3A7
100
AcDbEntity
  8
STANDARDEBENE
 62
     7
100
AcDbVertex
100
AcDb2dVertex
 10
47.50824259206748
 20
1.073320206492964
 30
0.0
  0
VERTEX
  5
3B7
330
3A7
100
AcDbEntity
  8
STANDARDEBENE
 62
     7
100
AcDbVertex
100
AcDb2dVertex
 10
46.2559495570484
 20
1.073320206492964
 30
0.0
  0
VERTEX
  5
3B8
330
3A7
100
AcDbEntity
  8
STANDARDEBENE
 62
     7
100
AcDbVertex
100
AcDb2dVertex
 10
45.11355514050831
 20
1.073320206492964
 30
0.0
  0
VERTEX
  5
3B9
330
3A7
100
AcDbEntity
  8
STANDARDEBENE
 62
     7
100
AcDbVertex
100
AcDb2dVertex
 10
44.10448600720133
 20
1.073320206492964
 30
0.0
  0
VERTEX
  5
3BA
330
3A7
100
AcDbEntity
  8
STANDARDEBENE
 62
     7
100
AcDbVertex
100
AcDb2dVertex
 10
43.25010176322683
 20
1.073320206492964
 30
0.0
  0
VERTEX
  5
3BB
330
3A7
100
AcDbEntity
  8
STANDARDEBENE
 62
     7
100
AcDbVertex
100
AcDb2dVertex
 10
42.56624985827144
 20
1.073320206492964
 30
0.0
  0
VERTEX
  5
3BC
330
3A7
100
AcDbEntity
  8
STANDARDEBENE
 62
     7
100
AcDbVertex
100
AcDb2dVertex
 10
42.06671068336699
 20
1.073320206492964
 30
0.0
  0
VERTEX
  5
3BD
330
3A7
100
AcDbEntity
  8
STANDARDEBENE
 62
     7
100
AcDbVertex
100
AcDb2dVertex
 10
41.76423110021796
 20
1.073320206492964
 30
0.0
  0
VERTEX
  5
3BE
330
3A7
100
AcDbEntity
  8
STANDARDEBENE
 62
     7
100
AcDbVertex
100
AcDb2dVertex
 10
41.66225620658229
 20
1.073320206492964
 30
0.0
  0
SEQEND
  5
3BF
330
3A7
100
AcDbEntity
  8
STANDARDEBENE
  0
SPLINE
  5
3C0
330
1F
100
AcDbEntity
  8
STANDARDEBENE
 62
     7
100
AcDbSpline
210
0.0
220
0.0
230
1.0
 70
    11
 71
     3
 72
    17
 73
    13
 74
     0
 42
0.0000000001
 43
0.0000000001
 40
0.0
 40
0.0
 40
0.0
 40
0.0
 40
1.0
 40
1.0
 40
1.0
 40
2.0
 40
2.0
 40
2.0
 40
3.0
 40
3.0
 40
3.0
 40
4.0
 40
4.0
 40
4.0
 40
4.0
 10
-6.434064572769249
 20
-182.7610580207644
 30
0.0
 10
-6.434064572769249
 20
-175.857426623585
 30
0.0
 10
-12.03079813546591
 20
-170.2608653157762
 30
0.0
 10
-18.93408502286954
 20
-170.2608653157762
 30
0.0
 10
-25.83754416516107
 20
-170.2608653157762
 30
0.0
 10
-31.43393321808194
 20
-175.857426623585
 30
0.0
 10
-31.43393321808194
 20
-182.7610580207644
 30
0.0
 10
-31.43393321808194
 20
-189.664344908168
 30
0.0
 10
-25.83754416516107
 20
-195.2602171964252
 30
0.0
 10
-18.93408502286954
 20
-195.2602171964252
 30
0.0
 10
-12.03079813546591
 20
-195.2602171964252
 30
0.0
 10
-6.434064572769249
 20
-189.664344908168
 30
0.0
 10
-6.434064572769249
 20
-182.7610580207644
 30
0.0
  0
SPLINE
  5
3C1
330
1F
100
AcDbEntity
  8
STANDARDEBENE
 62
     7
100
AcDbSpline
210
0.0
220
0.0
230
1.0
 70
    11
 71
     3
 72
    17
 73
    13
 74
     0
 42
0.0000000001
 43
0.0000000001
 40
0.0
 40
0.0
 40
0.0
 40
0.0
 40
1.0
 40
1.0
 40
1.0
 40
2.0
 40
2.0
 40
2.0
 40
3.0
 40
3.0
 40
3.0
 40
4.0
 40
4.0
 40
4.0
 40
4.0
 10
-8.233955896416333
 20
-182.7610580207644
 30
0.0
 10
-8.233955896416333
 20
-176.8509928169811
 30
0.0
 10
-13.02522560330155
 20
-172.0609288943112
 30
0.0
 10
-18.93408502286954
 20
-172.0609288943112
 30
0.0
 10
-24.84346120710122
 20
-172.0609288943112
 30
0.0
 10
-29.63421414932275
 20
-176.8509928169811
 30
0.0
 10
-29.63421414932275
 20
-182.7610580207644
 30
0.0
 10
-29.63421414932275
 20
-188.6700896952203
 30
0.0
 10
-24.84346120710122
 20
-193.4615316569934
 30
0.0
 10
-18.93408502286954
 20
-193.4615316569934
 30
0.0
 10
-13.02522560330155
 20
-193.4615316569934
 30
0.0
 10
-8.233955896416333
 20
-188.6700896952203
 30
0.0
 10
-8.233955896416333
 20
-182.7610580207644
 30
0.0
  0
SPLINE
  5
3C2
330
1F
100
AcDbEntity
  8
STANDARDEBENE
 62
     7
100
AcDbSpline
210
0.0
220
0.0
230
1.0
 70
    11
 71
     3
 72
    17
 73
    13
 74
     0
 42
0.0000000001
 43
0.0000000001
 40
0.0
 40
0.0
 40
0.0
 40
0.0
 40
1.0
 40
1.0
 40
1.0
 40
2.0
 40
2.0
 40
2.0
 40
3.0
 40
3.0
 40
3.0
 40
4.0
 40
4.0
 40
4.0
 40
4.0
 10
-16.28428808233331
 20
-182.7610580207644
 30
0.0
 10
-16.28428808233331
 20
-181.2972359834065
 30
0.0
 10
-17.47026298551162
 20
-180.1107443155645
 30
0.0
 10
-18.93408502286954
 20
-180.1107443155645
 30
0.0
 10
-20.39773480533956
 20
-180.1107443155645
 30
0.0
 10
-21.58439872806947
 20
-181.2972359834065
 30
0.0
 10
-21.58439872806947
 20
-182.7610580207644
 30
0.0
 10
-21.58439872806947
 20
-184.2241910385707
 30
0.0
 10
-20.39773480533956
 20
-185.4106827064127
 30
0.0
 10
-18.93408502286954
 20
-185.4106827064127
 30
0.0
 10
-17.47026298551162
 20
-185.4106827064127
 30
0.0
 10
-16.28428808233331
 20
-184.2241910385707
 30
0.0
 10
-16.28428808233331
 20
-182.7610580207644
 30
0.0
  0
SPLINE
  5
3C3
330
1F
100
AcDbEntity
  8
STANDARDEBENE
 62
     7
100
AcDbSpline
210
0.0
220
0.0
230
1.0
 70
    11
 71
     3
 72
    17
 73
    13
 74
     0
 42
0.0000000001
 43
0.0000000001
 40
0.0
 40
0.0
 40
0.0
 40
0.0
 40
1.0
 40
1.0
 40
1.0
 40
2.0
 40
2.0
 40
2.0
 40
3.0
 40
3.0
 40
3.0
 40
4.0
 40
4.0
 40
4.0
 40
4.0
 10
-9.934283894858325
 20
-182.7610580207644
 30
0.0
 10
-9.934283894858325
 20
-177.7901264658015
 30
0.0
 10
-13.96315346790662
 20
-173.7603956183137
 30
0.0
 10
-18.93408502286954
 20
-173.7603956183137
 30
0.0
 10
-23.90484432294456
 20
-173.7603956183137
 30
0.0
 10
-27.93423066065656
 20
-177.7901264658015
 30
0.0
 10
-27.93423066065656
 20
-182.7610580207644
 30
0.0
 10
-27.93423066065656
 20
-187.7306115366241
 30
0.0
 10
-23.90484432294456
 20
-191.7606868938877
 30
0.0
 10
-18.93408502286954
 20
-191.7606868938877
 30
0.0
 10
-13.96315346790662
 20
-191.7606868938877
 30
0.0
 10
-9.934283894858325
 20
-187.7306115366241
 30
0.0
 10
-9.934283894858325
 20
-182.7610580207644
 30
0.0
  0
SPLINE
  5
3C4
330
1F
100
AcDbEntity
  8
STANDARDEBENE
 62
     7
100
AcDbSpline
210
0.0
220
0.0
230
1.0
 70
    11
 71
     3
 72
    17
 73
    13
 74
     0
 42
0.0000000001
 43
0.0000000001
 40
0.0
 40
0.0
 40
0.0
 40
0.0
 40
1.0
 40
1.0
 40
1.0
 40
2.0
 40
2.0
 40
2.0
 40
3.0
 40
3.0
 40
3.0
 40
4.0
 40
4.0
 40
4.0
 40
4.0
 10
-8.934344270609945
 20
-182.7610580207644
 30
0.0
 10
-8.934344270609945
 20
-177.2375327854244
 30
0.0
 10
-13.41159331685695
 20
-172.7606282489532
 30
0.0
 10
-18.93408502286954
 20
-172.7606282489532
 30
0.0
 10
-24.45657672888213
 20
-172.7606282489532
 30
0.0
 10
-28.93365352024124
 20
-177.2375327854244
 30
0.0
 10
-28.93365352024124
 20
-182.7610580207644
 30
0.0
 10
-28.93365352024124
 20
-188.2832052170012
 30
0.0
 10
-24.45657672888213
 20
-192.7604542632482
 30
0.0
 10
-18.93408502286954
 20
-192.7604542632482
 30
0.0
 10
-13.41159331685695
 20
-192.7604542632482
 30
0.0
 10
-8.934344270609945
 20
-188.2832052170012
 30
0.0
 10
-8.934344270609945
 20
-182.7610580207644
 30
0.0
  0
SPLINE
  5
3C5
330
1F
100
AcDbEntity
  8
STANDARDEBENE
 62
     7
100
AcDbSpline
210
0.0
220
0.0
230
1.0
 70
    11
 71
     3
 72
    17
 73
    13
 74
     0
 42
0.0000000001
 43
0.0000000001
 40
0.0
 40
0.0
 40
0.0
 40
0.0
 40
1.0
 40
1.0
 40
1.0
 40
2.0
 40
2.0
 40
2.0
 40
3.0
 40
3.0
 40
3.0
 40
4.0
 40
4.0
 40
4.0
 40
4.0
 10
-17.68420355628104
 20
-182.7610580207644
 30
0.0
 10
-17.68420355628104
 20
-182.0699714105173
 30
0.0
 10
-18.24351517728612
 20
-181.5108320444001
 30
0.0
 10
-18.93408502286954
 20
-181.5108320444001
 30
0.0
 10
-19.62448261356506
 20
-181.5108320444001
 30
0.0
 10
-20.18413874434594
 20
-182.0699714105173
 30
0.0
 10
-20.18413874434594
 20
-182.7610580207644
 30
0.0
 10
-20.18413874434594
 20
-183.4511111016841
 30
0.0
 10
-19.62448261356506
 20
-184.0105949775771
 30
0.0
 10
-18.93408502286954
 20
-184.0105949775771
 30
0.0
 10
-18.24351517728612
 20
-184.0105949775771
 30
0.0
 10
-17.68420355628104
 20
-183.4511111016841
 30
0.0
 10
-17.68420355628104
 20
-182.7610580207644
 30
0.0
  0
POLYLINE
  5
3C7
330
1F
100
AcDbEntity
  8
BEMA_UNG
 62
     7
100
AcDb2dPolyline
 66
     1
 10
0.0
 20
0.0
 30
0.0
  0
VERTEX
  5
3C8
330
3C7
100
AcDbEntity
  8
BEMA_UNG
 62
     7
100
AcDbVertex
100
AcDb2dVertex
 10
3.487644715272515
 20
-113.4322552493192
 30
0.0
  0
VERTEX
  5
3C9
330
3C7
100
AcDbEntity
  8
BEMA_UNG
 62
     7
100
AcDbVertex
100
AcDb2dVertex
 10
12.6615955349487
 20
-113.4322552493192
 30
0.0
  0
SEQEND
  5
3CA
330
3C7
100
AcDbEntity
  8
BEMA_UNG
  0
POLYLINE
  5
3CB
330
1F
100
AcDbEntity
  8
BEMA_UNG
 62
     7
100
AcDb2dPolyline
 66
     1
 10
0.0
 20
0.0
 30
0.0
  0
VERTEX
  5
3CC
330
3CB
100
AcDbEntity
  8
BEMA_UNG
 62
     7
100
AcDbVertex
100
AcDb2dVertex
 10
11.56157582083153
 20
-113.4322552493192
 30
0.0
  0
VERTEX
  5
3CD
330
3CB
100
AcDbEntity
  8
BEMA_UNG
 62
     7
100
AcDbVertex
100
AcDb2dVertex
 10
11.56157582083153
 20
-118.9320093101292
 30
0.0
  0
SEQEND
  5
3CE
330
3CB
100
AcDbEntity
  8
BEMA_UNG
  0
POLYLINE
  5
3CF
330
1F
100
AcDbEntity
  8
BEMA_UNG
 62
     7
100
AcDb2dPolyline
 66
     1
 10
0.0
 20
0.0
 30
0.0
  0
VERTEX
  5
3D0
330
3CF
100
AcDbEntity
  8
BEMA_UNG
 62
     7
100
AcDbVertex
100
AcDb2dVertex
 10
11.56157582083153
 20
-113.4322552493192
 30
0.0
  0
VERTEX
  5
3D1
330
3CF
100
AcDbEntity
  8
BEMA_UNG
 62
     7
100
AcDbVertex
100
AcDb2dVertex
 10
11.38019142387485
 20
-114.8068492547459
 30
0.0
  0
VERTEX
  5
3D2
330
3CF
100
AcDbEntity
  8
BEMA_UNG
 62
     7
100
AcDbVertex
100
AcDb2dVertex
 10
11.74244345312452
 20
-114.8068492547459
 30
0.0
  0
VERTEX
  5
3D3
330
3CF
100
AcDbEntity
  8
BEMA_UNG
 62
     7
100
AcDbVertex
100
AcDb2dVertex
 10
11.56157582083153
 20
-113.4322552493192
 30
0.0
  0
SEQEND
  5
3D4
330
3CF
100
AcDbEntity
  8
BEMA_UNG
  0
POLYLINE
  5
3D5
330
1F
100
AcDbEntity
  8
BEMA_UNG
 62
     7
100
AcDb2dPolyline
 66
     1
 10
0.0
 20
0.0
 30
0.0
  0
VERTEX
  5
3D6
330
3D5
100
AcDbEntity
  8
BEMA_UNG
 62
     7
100
AcDbVertex
100
AcDb2dVertex
 10
11.39379956001879
 20
-114.8068492547459
 30
0.0
  0
VERTEX
  5
3D7
330
3D5
100
AcDbEntity
  8
BEMA_UNG
 62
     7
100
AcDbVertex
100
AcDb2dVertex
 10
11.39379956001879
 20
-114.7055633806618
 30
0.0
  0
SEQEND
  5
3D8
330
3D5
100
AcDbEntity
  8
BEMA_UNG
  0
POLYLINE
  5
3D9
330
1F
100
AcDbEntity
  8
BEMA_UNG
 62
     7
100
AcDb2dPolyline
 66
     1
 10
0.0
 20
0.0
 30
0.0
  0
VERTEX
  5
3DA
330
3D9
100
AcDbEntity
  8
BEMA_UNG
 62
     7
100
AcDbVertex
100
AcDb2dVertex
 10
11.39379956001879
 20
-114.8068492547459
 30
0.0
  0
VERTEX
  5
3DB
330
3D9
100
AcDbEntity
  8
BEMA_UNG
 62
     7
100
AcDbVertex
100
AcDb2dVertex
 10
11.39379956001879
 20
-114.7055633806618
 30
0.0
  0
SEQEND
  5
3DC
330
3D9
100
AcDbEntity
  8
BEMA_UNG
  0
POLYLINE
  5
3DD
330
1F
100
AcDbEntity
  8
BEMA_UNG
 62
     7
100
AcDb2dPolyline
 66
     1
 10
0.0
 20
0.0
 30
0.0
  0
VERTEX
  5
3DE
330
3DD
100
AcDbEntity
  8
BEMA_UNG
 62
     7
100
AcDbVertex
100
AcDb2dVertex
 10
11.42170485185828
 20
-114.8068492547459
 30
0.0
  0
VERTEX
  5
3DF
330
3DD
100
AcDbEntity
  8
BEMA_UNG
 62
     7
100
AcDbVertex
100
AcDb2dVertex
 10
11.42170485185828
 20
-114.4933453587714
 30
0.0
  0
SEQEND
  5
3E0
330
3DD
100
AcDbEntity
  8
BEMA_UNG
  0
POLYLINE
  5
3E1
330
1F
100
AcDbEntity
  8
BEMA_UNG
 62
     7
100
AcDb2dPolyline
 66
     1
 10
0.0
 20
0.0
 30
0.0
  0
VERTEX
  5
3E2
330
3E1
100
AcDbEntity
  8
BEMA_UNG
 62
     7
100
AcDbVertex
100
AcDb2dVertex
 10
11.44978239858567
 20
-114.8068492547459
 30
0.0
  0
VERTEX
  5
3E3
330
3E1
100
AcDbEntity
  8
BEMA_UNG
 62
     7
100
AcDbVertex
100
AcDb2dVertex
 10
11.44978239858567
 20
-114.2811273368809
 30
0.0
  0
SEQEND
  5
3E4
330
3E1
100
AcDbEntity
  8
BEMA_UNG
  0
POLYLINE
  5
3E5
330
1F
100
AcDbEntity
  8
BEMA_UNG
 62
     7
100
AcDb2dPolyline
 66
     1
 10
0.0
 20
0.0
 30
0.0
  0
VERTEX
  5
3E6
330
3E5
100
AcDbEntity
  8
BEMA_UNG
 62
     7
100
AcDbVertex
100
AcDb2dVertex
 10
11.47768769042516
 20
-114.8068492547459
 30
0.0
  0
VERTEX
  5
3E7
330
3E5
100
AcDbEntity
  8
BEMA_UNG
 62
     7
100
AcDbVertex
100
AcDb2dVertex
 10
11.47768769042516
 20
-114.0689093149905
 30
0.0
  0
SEQEND
  5
3E8
330
3E5
100
AcDbEntity
  8
BEMA_UNG
  0
POLYLINE
  5
3E9
330
1F
100
AcDbEntity
  8
BEMA_UNG
 62
     7
100
AcDb2dPolyline
 66
     1
 10
0.0
 20
0.0
 30
0.0
  0
VERTEX
  5
3EA
330
3E9
100
AcDbEntity
  8
BEMA_UNG
 62
     7
100
AcDbVertex
100
AcDb2dVertex
 10
11.50559298226465
 20
-114.8068492547459
 30
0.0
  0
VERTEX
  5
3EB
330
3E9
100
AcDbEntity
  8
BEMA_UNG
 62
     7
100
AcDbVertex
100
AcDb2dVertex
 10
11.50559298226465
 20
-113.8563467833243
 30
0.0
  0
SEQEND
  5
3EC
330
3E9
100
AcDbEntity
  8
BEMA_UNG
  0
POLYLINE
  5
3ED
330
1F
100
AcDbEntity
  8
BEMA_UNG
 62
     7
100
AcDb2dPolyline
 66
     1
 10
0.0
 20
0.0
 30
0.0
  0
VERTEX
  5
3EE
330
3ED
100
AcDbEntity
  8
BEMA_UNG
 62
     7
100
AcDbVertex
100
AcDb2dVertex
 10
11.53349827410414
 20
-114.8068492547459
 30
0.0
  0
VERTEX
  5
3EF
330
3ED
100
AcDbEntity
  8
BEMA_UNG
 62
     7
100
AcDbVertex
100
AcDb2dVertex
 10
11.53349827410414
 20
-113.6444732712096
 30
0.0
  0
SEQEND
  5
3F0
330
3ED
100
AcDbEntity
  8
BEMA_UNG
  0
POLYLINE
  5
3F1
330
1F
100
AcDbEntity
  8
BEMA_UNG
 62
     7
100
AcDb2dPolyline
 66
     1
 10
0.0
 20
0.0
 30
0.0
  0
VERTEX
  5
3F2
330
3F1
100
AcDbEntity
  8
BEMA_UNG
 62
     7
100
AcDbVertex
100
AcDb2dVertex
 10
11.56157582083153
 20
-114.8068492547459
 30
0.0
  0
VERTEX
  5
3F3
330
3F1
100
AcDbEntity
  8
BEMA_UNG
 62
     7
100
AcDbVertex
100
AcDb2dVertex
 10
11.56157582083153
 20
-113.4322552493192
 30
0.0
  0
SEQEND
  5
3F4
330
3F1
100
AcDbEntity
  8
BEMA_UNG
  0
POLYLINE
  5
3F5
330
1F
100
AcDbEntity
  8
BEMA_UNG
 62
     7
100
AcDb2dPolyline
 66
     1
 10
0.0
 20
0.0
 30
0.0
  0
VERTEX
  5
3F6
330
3F5
100
AcDbEntity
  8
BEMA_UNG
 62
     7
100
AcDbVertex
100
AcDb2dVertex
 10
11.72883531698057
 20
-114.8068492547459
 30
0.0
  0
VERTEX
  5
3F7
330
3F5
100
AcDbEntity
  8
BEMA_UNG
 62
     7
100
AcDbVertex
100
AcDb2dVertex
 10
11.72883531698057
 20
-114.7055633806618
 30
0.0
  0
SEQEND
  5
3F8
330
3F5
100
AcDbEntity
  8
BEMA_UNG
  0
POLYLINE
  5
3F9
330
1F
100
AcDbEntity
  8
BEMA_UNG
 62
     7
100
AcDb2dPolyline
 66
     1
 10
0.0
 20
0.0
 30
0.0
  0
VERTEX
  5
3FA
330
3F9
100
AcDbEntity
  8
BEMA_UNG
 62
     7
100
AcDbVertex
100
AcDb2dVertex
 10
11.72883531698057
 20
-114.8068492547459
 30
0.0
  0
VERTEX
  5
3FB
330
3F9
100
AcDbEntity
  8
BEMA_UNG
 62
     7
100
AcDbVertex
100
AcDb2dVertex
 10
11.72883531698057
 20
-114.7055633806618
 30
0.0
  0
SEQEND
  5
3FC
330
3F9
100
AcDbEntity
  8
BEMA_UNG
  0
POLYLINE
  5
3FD
330
1F
100
AcDbEntity
  8
BEMA_UNG
 62
     7
100
AcDb2dPolyline
 66
     1
 10
0.0
 20
0.0
 30
0.0
  0
VERTEX
  5
3FE
330
3FD
100
AcDbEntity
  8
BEMA_UNG
 62
     7
100
AcDbVertex
100
AcDb2dVertex
 10
11.70093002514108
 20
-114.8068492547459
 30
0.0
  0
VERTEX
  5
3FF
330
3FD
100
AcDbEntity
  8
BEMA_UNG
 62
     7
100
AcDbVertex
100
AcDb2dVertex
 10
11.70093002514108
 20
-114.4933453587714
 30
0.0
  0
SEQEND
  5
400
330
3FD
100
AcDbEntity
  8
BEMA_UNG
  0
POLYLINE
  5
401
330
1F
100
AcDbEntity
  8
BEMA_UNG
 62
     7
100
AcDb2dPolyline
 66
     1
 10
0.0
 20
0.0
 30
0.0
  0
VERTEX
  5
402
330
401
100
AcDbEntity
  8
BEMA_UNG
 62
     7
100
AcDbVertex
100
AcDb2dVertex
 10
11.67302473330159
 20
-114.8068492547459
 30
0.0
  0
VERTEX
  5
403
330
401
100
AcDbEntity
  8
BEMA_UNG
 62
     7
100
AcDbVertex
100
AcDb2dVertex
 10
11.67302473330159
 20
-114.2811273368809
 30
0.0
  0
SEQEND
  5
404
330
401
100
AcDbEntity
  8
BEMA_UNG
  0
POLYLINE
  5
405
330
1F
100
AcDbEntity
  8
BEMA_UNG
 62
     7
100
AcDb2dPolyline
 66
     1
 10
0.0
 20
0.0
 30
0.0
  0
VERTEX
  5
406
330
405
100
AcDbEntity
  8
BEMA_UNG
 62
     7
100
AcDbVertex
100
AcDb2dVertex
 10
11.6451194414621
 20
-114.8068492547459
 30
0.0
  0
VERTEX
  5
407
330
405
100
AcDbEntity
  8
BEMA_UNG
 62
     7
100
AcDbVertex
100
AcDb2dVertex
 10
11.6451194414621
 20
-114.0689093149905
 30
0.0
  0
SEQEND
  5
408
330
405
100
AcDbEntity
  8
BEMA_UNG
  0
POLYLINE
  5
409
330
1F
100
AcDbEntity
  8
BEMA_UNG
 62
     7
100
AcDb2dPolyline
 66
     1
 10
0.0
 20
0.0
 30
0.0
  0
VERTEX
  5
40A
330
409
100
AcDbEntity
  8
BEMA_UNG
 62
     7
100
AcDbVertex
100
AcDb2dVertex
 10
11.61704189473471
 20
-114.8068492547459
 30
0.0
  0
VERTEX
  5
40B
330
409
100
AcDbEntity
  8
BEMA_UNG
 62
     7
100
AcDbVertex
100
AcDb2dVertex
 10
11.61704189473471
 20
-113.8563467833243
 30
0.0
  0
SEQEND
  5
40C
330
409
100
AcDbEntity
  8
BEMA_UNG
  0
POLYLINE
  5
40D
330
1F
100
AcDbEntity
  8
BEMA_UNG
 62
     7
100
AcDb2dPolyline
 66
     1
 10
0.0
 20
0.0
 30
0.0
  0
VERTEX
  5
40E
330
40D
100
AcDbEntity
  8
BEMA_UNG
 62
     7
100
AcDbVertex
100
AcDb2dVertex
 10
11.58930885778312
 20
-114.8068492547459
 30
0.0
  0
VERTEX
  5
40F
330
40D
100
AcDbEntity
  8
BEMA_UNG
 62
     7
100
AcDbVertex
100
AcDb2dVertex
 10
11.58930885778312
 20
-113.6444732712096
 30
0.0
  0
SEQEND
  5
410
330
40D
100
AcDbEntity
  8
BEMA_UNG
  0
POLYLINE
  5
411
330
1F
100
AcDbEntity
  8
BEMA_UNG
 62
     7
100
AcDb2dPolyline
 66
     1
 10
0.0
 20
0.0
 30
0.0
  0
VERTEX
  5
412
330
411
100
AcDbEntity
  8
BEMA_UNG
 62
     7
100
AcDbVertex
100
AcDb2dVertex
 10
11.56157582083153
 20
-114.8068492547459
 30
0.0
  0
VERTEX
  5
413
330
411
100
AcDbEntity
  8
BEMA_UNG
 62
     7
100
AcDbVertex
100
AcDb2dVertex
 10
11.56157582083153
 20
-113.4322552493192
 30
0.0
  0
SEQEND
  5
414
330
411
100
AcDbEntity
  8
BEMA_UNG
  0
POLYLINE
  5
415
330
1F
100
AcDbEntity
  8
BEMA_UNG
 62
     7
100
AcDb2dPolyline
 66
     1
 10
0.0
 20
0.0
 30
0.0
  0
VERTEX
  5
416
330
415
100
AcDbEntity
  8
BEMA_UNG
 62
     7
100
AcDbVertex
100
AcDb2dVertex
 10
11.56157582083153
 20
-118.9320093101292
 30
0.0
  0
VERTEX
  5
417
330
415
100
AcDbEntity
  8
BEMA_UNG
 62
     7
100
AcDbVertex
100
AcDb2dVertex
 10
11.74244345312452
 20
-117.5570707949267
 30
0.0
  0
VERTEX
  5
418
330
415
100
AcDbEntity
  8
BEMA_UNG
 62
     7
100
AcDbVertex
100
AcDb2dVertex
 10
11.38019142387485
 20
-117.5570707949267
 30
0.0
  0
VERTEX
  5
419
330
415
100
AcDbEntity
  8
BEMA_UNG
 62
     7
100
AcDbVertex
100
AcDb2dVertex
 10
11.56157582083153
 20
-118.9320093101292
 30
0.0
  0
SEQEND
  5
41A
330
415
100
AcDbEntity
  8
BEMA_UNG
  0
POLYLINE
  5
41B
330
1F
100
AcDbEntity
  8
BEMA_UNG
 62
     7
100
AcDb2dPolyline
 66
     1
 10
0.0
 20
0.0
 30
0.0
  0
VERTEX
  5
41C
330
41B
100
AcDbEntity
  8
BEMA_UNG
 62
     7
100
AcDbVertex
100
AcDb2dVertex
 10
11.72883531698057
 20
-117.5570707949267
 30
0.0
  0
VERTEX
  5
41D
330
41B
100
AcDbEntity
  8
BEMA_UNG
 62
     7
100
AcDbVertex
100
AcDb2dVertex
 10
11.72883531698057
 20
-117.6587011787866
 30
0.0
  0
SEQEND
  5
41E
330
41B
100
AcDbEntity
  8
BEMA_UNG
  0
POLYLINE
  5
41F
330
1F
100
AcDbEntity
  8
BEMA_UNG
 62
     7
100
AcDb2dPolyline
 66
     1
 10
0.0
 20
0.0
 30
0.0
  0
VERTEX
  5
420
330
41F
100
AcDbEntity
  8
BEMA_UNG
 62
     7
100
AcDbVertex
100
AcDb2dVertex
 10
11.72883531698057
 20
-117.5570707949267
 30
0.0
  0
VERTEX
  5
421
330
41F
100
AcDbEntity
  8
BEMA_UNG
 62
     7
100
AcDbVertex
100
AcDb2dVertex
 10
11.72883531698057
 20
-117.6587011787866
 30
0.0
  0
SEQEND
  5
422
330
41F
100
AcDbEntity
  8
BEMA_UNG
  0
POLYLINE
  5
423
330
1F
100
AcDbEntity
  8
BEMA_UNG
 62
     7
100
AcDb2dPolyline
 66
     1
 10
0.0
 20
0.0
 30
0.0
  0
VERTEX
  5
424
330
423
100
AcDbEntity
  8
BEMA_UNG
 62
     7
100
AcDbVertex
100
AcDb2dVertex
 10
11.70093002514108
 20
-117.5570707949267
 30
0.0
  0
VERTEX
  5
425
330
423
100
AcDbEntity
  8
BEMA_UNG
 62
     7
100
AcDbVertex
100
AcDb2dVertex
 10
11.70093002514108
 20
-117.870919200677
 30
0.0
  0
SEQEND
  5
426
330
423
100
AcDbEntity
  8
BEMA_UNG
  0
POLYLINE
  5
427
330
1F
100
AcDbEntity
  8
BEMA_UNG
 62
     7
100
AcDb2dPolyline
 66
     1
 10
0.0
 20
0.0
 30
0.0
  0
VERTEX
  5
428
330
427
100
AcDbEntity
  8
BEMA_UNG
 62
     7
100
AcDbVertex
100
AcDb2dVertex
 10
11.67302473330159
 20
-117.5570707949267
 30
0.0
  0
VERTEX
  5
429
330
427
100
AcDbEntity
  8
BEMA_UNG
 62
     7
100
AcDbVertex
100
AcDb2dVertex
 10
11.67302473330159
 20
-118.0831372225674
 30
0.0
  0
SEQEND
  5
42A
330
427
100
AcDbEntity
  8
BEMA_UNG
  0
POLYLINE
  5
42B
330
1F
100
AcDbEntity
  8
BEMA_UNG
 62
     7
100
AcDb2dPolyline
 66
     1
 10
0.0
 20
0.0
 30
0.0
  0
VERTEX
  5
42C
330
42B
100
AcDbEntity
  8
BEMA_UNG
 62
     7
100
AcDbVertex
100
AcDb2dVertex
 10
11.6451194414621
 20
-117.5570707949267
 30
0.0
  0
VERTEX
  5
42D
330
42B
100
AcDbEntity
  8
BEMA_UNG
 62
     7
100
AcDbVertex
100
AcDb2dVertex
 10
11.6451194414621
 20
-118.2953552444579
 30
0.0
  0
SEQEND
  5
42E
330
42B
100
AcDbEntity
  8
BEMA_UNG
  0
POLYLINE
  5
42F
330
1F
100
AcDbEntity
  8
BEMA_UNG
 62
     7
100
AcDb2dPolyline
 66
     1
 10
0.0
 20
0.0
 30
0.0
  0
VERTEX
  5
430
330
42F
100
AcDbEntity
  8
BEMA_UNG
 62
     7
100
AcDbVertex
100
AcDb2dVertex
 10
11.61704189473471
 20
-117.5570707949267
 30
0.0
  0
VERTEX
  5
431
330
42F
100
AcDbEntity
  8
BEMA_UNG
 62
     7
100
AcDbVertex
100
AcDb2dVertex
 10
11.61704189473471
 20
-118.5075732663483
 30
0.0
  0
SEQEND
  5
432
330
42F
100
AcDbEntity
  8
BEMA_UNG
  0
POLYLINE
  5
433
330
1F
100
AcDbEntity
  8
BEMA_UNG
 62
     7
100
AcDb2dPolyline
 66
     1
 10
0.0
 20
0.0
 30
0.0
  0
VERTEX
  5
434
330
433
100
AcDbEntity
  8
BEMA_UNG
 62
     7
100
AcDbVertex
100
AcDb2dVertex
 10
11.58930885778312
 20
-117.5570707949267
 30
0.0
  0
VERTEX
  5
435
330
433
100
AcDbEntity
  8
BEMA_UNG
 62
     7
100
AcDbVertex
100
AcDb2dVertex
 10
11.58930885778312
 20
-118.7197912882388
 30
0.0
  0
SEQEND
  5
436
330
433
100
AcDbEntity
  8
BEMA_UNG
  0
POLYLINE
  5
437
330
1F
100
AcDbEntity
  8
BEMA_UNG
 62
     7
100
AcDb2dPolyline
 66
     1
 10
0.0
 20
0.0
 30
0.0
  0
VERTEX
  5
438
330
437
100
AcDbEntity
  8
BEMA_UNG
 62
     7
100
AcDbVertex
100
AcDb2dVertex
 10
11.56157582083153
 20
-117.5570707949267
 30
0.0
  0
VERTEX
  5
439
330
437
100
AcDbEntity
  8
BEMA_UNG
 62
     7
100
AcDbVertex
100
AcDb2dVertex
 10
11.56157582083153
 20
-118.9320093101292
 30
0.0
  0
SEQEND
  5
43A
330
437
100
AcDbEntity
  8
BEMA_UNG
  0
POLYLINE
  5
43B
330
1F
100
AcDbEntity
  8
BEMA_UNG
 62
     7
100
AcDb2dPolyline
 66
     1
 10
0.0
 20
0.0
 30
0.0
  0
VERTEX
  5
43C
330
43B
100
AcDbEntity
  8
BEMA_UNG
 62
     7
100
AcDbVertex
100
AcDb2dVertex
 10
11.39379956001879
 20
-117.5570707949267
 30
0.0
  0
VERTEX
  5
43D
330
43B
100
AcDbEntity
  8
BEMA_UNG
 62
     7
100
AcDbVertex
100
AcDb2dVertex
 10
11.39379956001879
 20
-117.6587011787866
 30
0.0
  0
SEQEND
  5
43E
330
43B
100
AcDbEntity
  8
BEMA_UNG
  0
POLYLINE
  5
43F
330
1F
100
AcDbEntity
  8
BEMA_UNG
 62
     7
100
AcDb2dPolyline
 66
     1
 10
0.0
 20
0.0
 30
0.0
  0
VERTEX
  5
440
330
43F
100
AcDbEntity
  8
BEMA_UNG
 62
     7
100
AcDbVertex
100
AcDb2dVertex
 10
11.39379956001879
 20
-117.5570707949267
 30
0.0
  0
VERTEX
  5
441
330
43F
100
AcDbEntity
  8
BEMA_UNG
 62
     7
100
AcDbVertex
100
AcDb2dVertex
 10
11.39379956001879
 20
-117.6587011787866
 30
0.0
  0
SEQEND
  5
442
330
43F
100
AcDbEntity
  8
BEMA_UNG
  0
POLYLINE
  5
443
330
1F
100
AcDbEntity
  8
BEMA_UNG
 62
     7
100
AcDb2dPolyline
 66
     1
 10
0.0
 20
0.0
 30
0.0
  0
VERTEX
  5
444
330
443
100
AcDbEntity
  8
BEMA_UNG
 62
     7
100
AcDbVertex
100
AcDb2dVertex
 10
11.42170485185828
 20
-117.5570707949267
 30
0.0
  0
VERTEX
  5
445
330
443
100
AcDbEntity
  8
BEMA_UNG
 62
     7
100
AcDbVertex
100
AcDb2dVertex
 10
11.42170485185828
 20
-117.870919200677
 30
0.0
  0
SEQEND
  5
446
330
443
100
AcDbEntity
  8
BEMA_UNG
  0
POLYLINE
  5
447
330
1F
100
AcDbEntity
  8
BEMA_UNG
 62
     7
100
AcDb2dPolyline
 66
     1
 10
0.0
 20
0.0
 30
0.0
  0
VERTEX
  5
448
330
447
100
AcDbEntity
  8
BEMA_UNG
 62
     7
100
AcDbVertex
100
AcDb2dVertex
 10
11.44978239858567
 20
-117.5570707949267
 30
0.0
  0
VERTEX
  5
449
330
447
100
AcDbEntity
  8
BEMA_UNG
 62
     7
100
AcDbVertex
100
AcDb2dVertex
 10
11.44978239858567
 20
-118.0831372225674
 30
0.0
  0
SEQEND
  5
44A
330
447
100
AcDbEntity
  8
BEMA_UNG
  0
POLYLINE
  5
44B
330
1F
100
AcDbEntity
  8
BEMA_UNG
 62
     7
100
AcDb2dPolyline
 66
     1
 10
0.0
 20
0.0
 30
0.0
  0
VERTEX
  5
44C
330
44B
100
AcDbEntity
  8
BEMA_UNG
 62
     7
100
AcDbVertex
100
AcDb2dVertex
 10
11.47768769042516
 20
-117.5570707949267
 30
0.0
  0
VERTEX
  5
44D
330
44B
100
AcDbEntity
  8
BEMA_UNG
 62
     7
100
AcDbVertex
100
AcDb2dVertex
 10
11.47768769042516
 20
-118.2953552444579
 30
0.0
  0
SEQEND
  5
44E
330
44B
100
AcDbEntity
  8
BEMA_UNG
  0
POLYLINE
  5
44F
330
1F
100
AcDbEntity
  8
BEMA_UNG
 62
     7
100
AcDb2dPolyline
 66
     1
 10
0.0
 20
0.0
 30
0.0
  0
VERTEX
  5
450
330
44F
100
AcDbEntity
  8
BEMA_UNG
 62
     7
100
AcDbVertex
100
AcDb2dVertex
 10
11.50559298226465
 20
-117.5570707949267
 30
0.0
  0
VERTEX
  5
451
330
44F
100
AcDbEntity
  8
BEMA_UNG
 62
     7
100
AcDbVertex
100
AcDb2dVertex
 10
11.50559298226465
 20
-118.5075732663483
 30
0.0
  0
SEQEND
  5
452
330
44F
100
AcDbEntity
  8
BEMA_UNG
  0
POLYLINE
  5
453
330
1F
100
AcDbEntity
  8
BEMA_UNG
 62
     7
100
AcDb2dPolyline
 66
     1
 10
0.0
 20
0.0
 30
0.0
  0
VERTEX
  5
454
330
453
100
AcDbEntity
  8
BEMA_UNG
 62
     7
100
AcDbVertex
100
AcDb2dVertex
 10
11.53349827410414
 20
-117.5570707949267
 30
0.0
  0
VERTEX
  5
455
330
453
100
AcDbEntity
  8
BEMA_UNG
 62
     7
100
AcDbVertex
100
AcDb2dVertex
 10
11.53349827410414
 20
-118.7197912882388
 30
0.0
  0
SEQEND
  5
456
330
453
100
AcDbEntity
  8
BEMA_UNG
  0
POLYLINE
  5
457
330
1F
100
AcDbEntity
  8
BEMA_UNG
 62
     7
100
AcDb2dPolyline
 66
     1
 10
0.0
 20
0.0
 30
0.0
  0
VERTEX
  5
458
330
457
100
AcDbEntity
  8
BEMA_UNG
 62
     7
100
AcDbVertex
100
AcDb2dVertex
 10
11.56157582083153
 20
-117.5570707949267
 30
0.0
  0
VERTEX
  5
459
330
457
100
AcDbEntity
  8
BEMA_UNG
 62
     7
100
AcDbVertex
100
AcDb2dVertex
 10
11.56157582083153
 20
-118.9320093101292
 30
0.0
  0
SEQEND
  5
45A
330
457
100
AcDbEntity
  8
BEMA_UNG
  0
POLYLINE
  5
45B
330
1F
100
AcDbEntity
  8
BEMA_UNG
 62
     7
100
AcDb2dPolyline
 66
     1
 10
0.0
 20
0.0
 30
0.0
  0
VERTEX
  5
45C
330
45B
100
AcDbEntity
  8
BEMA_UNG
 62
     7
100
AcDbVertex
100
AcDb2dVertex
 10
2.112533945182107
 20
-109.5820139950212
 30
0.0
  0
VERTEX
  5
45D
330
45B
100
AcDbEntity
  8
BEMA_UNG
 62
     7
100
AcDbVertex
100
AcDb2dVertex
 10
18.43799094572306
 20
-109.5820139950212
 30
0.0
  0
SEQEND
  5
45E
330
45B
100
AcDbEntity
  8
BEMA_UNG
  0
POLYLINE
  5
45F
330
1F
100
AcDbEntity
  8
BEMA_UNG
 62
     7
100
AcDb2dPolyline
 66
     1
 10
0.0
 20
0.0
 30
0.0
  0
VERTEX
  5
460
330
45F
100
AcDbEntity
  8
BEMA_UNG
 62
     7
100
AcDbVertex
100
AcDb2dVertex
 10
17.33797123160589
 20
-109.5820139950212
 30
0.0
  0
VERTEX
  5
461
330
45F
100
AcDbEntity
  8
BEMA_UNG
 62
     7
100
AcDbVertex
100
AcDb2dVertex
 10
17.33797123160589
 20
-118.9320093101292
 30
0.0
  0
SEQEND
  5
462
330
45F
100
AcDbEntity
  8
BEMA_UNG
  0
POLYLINE
  5
463
330
1F
100
AcDbEntity
  8
BEMA_UNG
 62
     7
100
AcDb2dPolyline
 66
     1
 10
0.0
 20
0.0
 30
0.0
  0
VERTEX
  5
464
330
463
100
AcDbEntity
  8
BEMA_UNG
 62
     7
100
AcDbVertex
100
AcDb2dVertex
 10
17.33797123160589
 20
-109.5820139950212
 30
0.0
  0
VERTEX
  5
465
330
463
100
AcDbEntity
  8
BEMA_UNG
 62
     7
100
AcDbVertex
100
AcDb2dVertex
 10
17.156931344425
 20
-110.9569525102237
 30
0.0
  0
VERTEX
  5
466
330
463
100
AcDbEntity
  8
BEMA_UNG
 62
     7
100
AcDbVertex
100
AcDb2dVertex
 10
17.51901111878678
 20
-110.9569525102237
 30
0.0
  0
VERTEX
  5
467
330
463
100
AcDbEntity
  8
BEMA_UNG
 62
     7
100
AcDbVertex
100
AcDb2dVertex
 10
17.33797123160589
 20
-109.5820139950212
 30
0.0
  0
SEQEND
  5
468
330
463
100
AcDbEntity
  8
BEMA_UNG
  0
POLYLINE
  5
469
330
1F
100
AcDbEntity
  8
BEMA_UNG
 62
     7
100
AcDb2dPolyline
 66
     1
 10
0.0
 20
0.0
 30
0.0
  0
VERTEX
  5
46A
330
469
100
AcDbEntity
  8
BEMA_UNG
 62
     7
100
AcDbVertex
100
AcDb2dVertex
 10
17.17036722568105
 20
-110.9569525102237
 30
0.0
  0
VERTEX
  5
46B
330
469
100
AcDbEntity
  8
BEMA_UNG
 62
     7
100
AcDbVertex
100
AcDb2dVertex
 10
17.17036722568105
 20
-110.8553221263638
 30
0.0
  0
SEQEND
  5
46C
330
469
100
AcDbEntity
  8
BEMA_UNG
  0
POLYLINE
  5
46D
330
1F
100
AcDbEntity
  8
BEMA_UNG
 62
     7
100
AcDb2dPolyline
 66
     1
 10
0.0
 20
0.0
 30
0.0
  0
VERTEX
  5
46E
330
46D
100
AcDbEntity
  8
BEMA_UNG
 62
     7
100
AcDbVertex
100
AcDb2dVertex
 10
17.17036722568105
 20
-110.9569525102237
 30
0.0
  0
VERTEX
  5
46F
330
46D
100
AcDbEntity
  8
BEMA_UNG
 62
     7
100
AcDbVertex
100
AcDb2dVertex
 10
17.17036722568105
 20
-110.8553221263638
 30
0.0
  0
SEQEND
  5
470
330
46D
100
AcDbEntity
  8
BEMA_UNG
  0
POLYLINE
  5
471
330
1F
100
AcDbEntity
  8
BEMA_UNG
 62
     7
100
AcDb2dPolyline
 66
     1
 10
0.0
 20
0.0
 30
0.0
  0
VERTEX
  5
472
330
471
100
AcDbEntity
  8
BEMA_UNG
 62
     7
100
AcDbVertex
100
AcDb2dVertex
 10
17.19827251752055
 20
-110.9569525102237
 30
0.0
  0
VERTEX
  5
473
330
471
100
AcDbEntity
  8
BEMA_UNG
 62
     7
100
AcDbVertex
100
AcDb2dVertex
 10
17.19827251752055
 20
-110.6431041044734
 30
0.0
  0
SEQEND
  5
474
330
471
100
AcDbEntity
  8
BEMA_UNG
  0
POLYLINE
  5
475
330
1F
100
AcDbEntity
  8
BEMA_UNG
 62
     7
100
AcDb2dPolyline
 66
     1
 10
0.0
 20
0.0
 30
0.0
  0
VERTEX
  5
476
330
475
100
AcDbEntity
  8
BEMA_UNG
 62
     7
100
AcDbVertex
100
AcDb2dVertex
 10
17.22617780936003
 20
-110.9569525102237
 30
0.0
  0
VERTEX
  5
477
330
475
100
AcDbEntity
  8
BEMA_UNG
 62
     7
100
AcDbVertex
100
AcDb2dVertex
 10
17.22617780936003
 20
-110.4308860825829
 30
0.0
  0
SEQEND
  5
478
330
475
100
AcDbEntity
  8
BEMA_UNG
  0
POLYLINE
  5
479
330
1F
100
AcDbEntity
  8
BEMA_UNG
 62
     7
100
AcDb2dPolyline
 66
     1
 10
0.0
 20
0.0
 30
0.0
  0
VERTEX
  5
47A
330
479
100
AcDbEntity
  8
BEMA_UNG
 62
     7
100
AcDbVertex
100
AcDb2dVertex
 10
17.25408310119952
 20
-110.9569525102237
 30
0.0
  0
VERTEX
  5
47B
330
479
100
AcDbEntity
  8
BEMA_UNG
 62
     7
100
AcDbVertex
100
AcDb2dVertex
 10
17.25408310119952
 20
-110.2186680606925
 30
0.0
  0
SEQEND
  5
47C
330
479
100
AcDbEntity
  8
BEMA_UNG
  0
POLYLINE
  5
47D
330
1F
100
AcDbEntity
  8
BEMA_UNG
 62
     7
100
AcDb2dPolyline
 66
     1
 10
0.0
 20
0.0
 30
0.0
  0
VERTEX
  5
47E
330
47D
100
AcDbEntity
  8
BEMA_UNG
 62
     7
100
AcDbVertex
100
AcDb2dVertex
 10
17.28216064792691
 20
-110.9569525102237
 30
0.0
  0
VERTEX
  5
47F
330
47D
100
AcDbEntity
  8
BEMA_UNG
 62
     7
100
AcDbVertex
100
AcDb2dVertex
 10
17.28216064792691
 20
-110.0064500388021
 30
0.0
  0
SEQEND
  5
480
330
47D
100
AcDbEntity
  8
BEMA_UNG
  0
POLYLINE
  5
481
330
1F
100
AcDbEntity
  8
BEMA_UNG
 62
     7
100
AcDb2dPolyline
 66
     1
 10
0.0
 20
0.0
 30
0.0
  0
VERTEX
  5
482
330
481
100
AcDbEntity
  8
BEMA_UNG
 62
     7
100
AcDbVertex
100
AcDb2dVertex
 10
17.3100659397664
 20
-110.9569525102237
 30
0.0
  0
VERTEX
  5
483
330
481
100
AcDbEntity
  8
BEMA_UNG
 62
     7
100
AcDbVertex
100
AcDb2dVertex
 10
17.3100659397664
 20
-109.7942320169116
 30
0.0
  0
SEQEND
  5
484
330
481
100
AcDbEntity
  8
BEMA_UNG
  0
POLYLINE
  5
485
330
1F
100
AcDbEntity
  8
BEMA_UNG
 62
     7
100
AcDb2dPolyline
 66
     1
 10
0.0
 20
0.0
 30
0.0
  0
VERTEX
  5
486
330
485
100
AcDbEntity
  8
BEMA_UNG
 62
     7
100
AcDbVertex
100
AcDb2dVertex
 10
17.33797123160589
 20
-110.9569525102237
 30
0.0
  0
VERTEX
  5
487
330
485
100
AcDbEntity
  8
BEMA_UNG
 62
     7
100
AcDbVertex
100
AcDb2dVertex
 10
17.33797123160589
 20
-109.5820139950212
 30
0.0
  0
SEQEND
  5
488
330
485
100
AcDbEntity
  8
BEMA_UNG
  0
POLYLINE
  5
489
330
1F
100
AcDbEntity
  8
BEMA_UNG
 62
     7
100
AcDb2dPolyline
 66
     1
 10
0.0
 20
0.0
 30
0.0
  0
VERTEX
  5
48A
330
489
100
AcDbEntity
  8
BEMA_UNG
 62
     7
100
AcDbVertex
100
AcDb2dVertex
 10
17.50574749241862
 20
-110.9569525102237
 30
0.0
  0
VERTEX
  5
48B
330
489
100
AcDbEntity
  8
BEMA_UNG
 62
     7
100
AcDbVertex
100
AcDb2dVertex
 10
17.50574749241862
 20
-110.8553221263638
 30
0.0
  0
SEQEND
  5
48C
330
489
100
AcDbEntity
  8
BEMA_UNG
  0
POLYLINE
  5
48D
330
1F
100
AcDbEntity
  8
BEMA_UNG
 62
     7
100
AcDb2dPolyline
 66
     1
 10
0.0
 20
0.0
 30
0.0
  0
VERTEX
  5
48E
330
48D
100
AcDbEntity
  8
BEMA_UNG
 62
     7
100
AcDbVertex
100
AcDb2dVertex
 10
17.50574749241862
 20
-110.9569525102237
 30
0.0
  0
VERTEX
  5
48F
330
48D
100
AcDbEntity
  8
BEMA_UNG
 62
     7
100
AcDbVertex
100
AcDb2dVertex
 10
17.50574749241862
 20
-110.8553221263638
 30
0.0
  0
SEQEND
  5
490
330
48D
100
AcDbEntity
  8
BEMA_UNG
  0
POLYLINE
  5
491
330
1F
100
AcDbEntity
  8
BEMA_UNG
 62
     7
100
AcDb2dPolyline
 66
     1
 10
0.0
 20
0.0
 30
0.0
  0
VERTEX
  5
492
330
491
100
AcDbEntity
  8
BEMA_UNG
 62
     7
100
AcDbVertex
100
AcDb2dVertex
 10
17.47784220057914
 20
-110.9569525102237
 30
0.0
  0
VERTEX
  5
493
330
491
100
AcDbEntity
  8
BEMA_UNG
 62
     7
100
AcDbVertex
100
AcDb2dVertex
 10
17.47784220057914
 20
-110.6431041044734
 30
0.0
  0
SEQEND
  5
494
330
491
100
AcDbEntity
  8
BEMA_UNG
  0
POLYLINE
  5
495
330
1F
100
AcDbEntity
  8
BEMA_UNG
 62
     7
100
AcDb2dPolyline
 66
     1
 10
0.0
 20
0.0
 30
0.0
  0
VERTEX
  5
496
330
495
100
AcDbEntity
  8
BEMA_UNG
 62
     7
100
AcDbVertex
100
AcDb2dVertex
 10
17.44993690873965
 20
-110.9569525102237
 30
0.0
  0
VERTEX
  5
497
330
495
100
AcDbEntity
  8
BEMA_UNG
 62
     7
100
AcDbVertex
100
AcDb2dVertex
 10
17.44993690873965
 20
-110.4308860825829
 30
0.0
  0
SEQEND
  5
498
330
495
100
AcDbEntity
  8
BEMA_UNG
  0
POLYLINE
  5
499
330
1F
100
AcDbEntity
  8
BEMA_UNG
 62
     7
100
AcDb2dPolyline
 66
     1
 10
0.0
 20
0.0
 30
0.0
  0
VERTEX
  5
49A
330
499
100
AcDbEntity
  8
BEMA_UNG
 62
     7
100
AcDbVertex
100
AcDb2dVertex
 10
17.42185936201226
 20
-110.9569525102237
 30
0.0
  0
VERTEX
  5
49B
330
499
100
AcDbEntity
  8
BEMA_UNG
 62
     7
100
AcDbVertex
100
AcDb2dVertex
 10
17.42185936201226
 20
-110.2186680606925
 30
0.0
  0
SEQEND
  5
49C
330
499
100
AcDbEntity
  8
BEMA_UNG
  0
POLYLINE
  5
49D
330
1F
100
AcDbEntity
  8
BEMA_UNG
 62
     7
100
AcDb2dPolyline
 66
     1
 10
0.0
 20
0.0
 30
0.0
  0
VERTEX
  5
49E
330
49D
100
AcDbEntity
  8
BEMA_UNG
 62
     7
100
AcDbVertex
100
AcDb2dVertex
 10
17.39378181528487
 20
-110.9569525102237
 30
0.0
  0
VERTEX
  5
49F
330
49D
100
AcDbEntity
  8
BEMA_UNG
 62
     7
100
AcDbVertex
100
AcDb2dVertex
 10
17.39378181528487
 20
-110.0064500388021
 30
0.0
  0
SEQEND
  5
4A0
330
49D
100
AcDbEntity
  8
BEMA_UNG
  0
POLYLINE
  5
4A1
330
1F
100
AcDbEntity
  8
BEMA_UNG
 62
     7
100
AcDb2dPolyline
 66
     1
 10
0.0
 20
0.0
 30
0.0
  0
VERTEX
  5
4A2
330
4A1
100
AcDbEntity
  8
BEMA_UNG
 62
     7
100
AcDbVertex
100
AcDb2dVertex
 10
17.36587652344538
 20
-110.9569525102237
 30
0.0
  0
VERTEX
  5
4A3
330
4A1
100
AcDbEntity
  8
BEMA_UNG
 62
     7
100
AcDbVertex
100
AcDb2dVertex
 10
17.36587652344538
 20
-109.7942320169116
 30
0.0
  0
SEQEND
  5
4A4
330
4A1
100
AcDbEntity
  8
BEMA_UNG
  0
POLYLINE
  5
4A5
330
1F
100
AcDbEntity
  8
BEMA_UNG
 62
     7
100
AcDb2dPolyline
 66
     1
 10
0.0
 20
0.0
 30
0.0
  0
VERTEX
  5
4A6
330
4A5
100
AcDbEntity
  8
BEMA_UNG
 62
     7
100
AcDbVertex
100
AcDb2dVertex
 10
17.33797123160589
 20
-110.9569525102237
 30
0.0
  0
VERTEX
  5
4A7
330
4A5
100
AcDbEntity
  8
BEMA_UNG
 62
     7
100
AcDbVertex
100
AcDb2dVertex
 10
17.33797123160589
 20
-109.5820139950212
 30
0.0
  0
SEQEND
  5
4A8
330
4A5
100
AcDbEntity
  8
BEMA_UNG
  0
POLYLINE
  5
4A9
330
1F
100
AcDbEntity
  8
BEMA_UNG
 62
     7
100
AcDb2dPolyline
 66
     1
 10
0.0
 20
0.0
 30
0.0
  0
VERTEX
  5
4AA
330
4A9
100
AcDbEntity
  8
BEMA_UNG
 62
     7
100
AcDbVertex
100
AcDb2dVertex
 10
17.33797123160589
 20
-118.9320093101292
 30
0.0
  0
VERTEX
  5
4AB
330
4A9
100
AcDbEntity
  8
BEMA_UNG
 62
     7
100
AcDbVertex
100
AcDb2dVertex
 10
17.51901111878678
 20
-117.5570707949267
 30
0.0
  0
VERTEX
  5
4AC
330
4A9
100
AcDbEntity
  8
BEMA_UNG
 62
     7
100
AcDbVertex
100
AcDb2dVertex
 10
17.156931344425
 20
-117.5570707949267
 30
0.0
  0
VERTEX
  5
4AD
330
4A9
100
AcDbEntity
  8
BEMA_UNG
 62
     7
100
AcDbVertex
100
AcDb2dVertex
 10
17.33797123160589
 20
-118.9320093101292
 30
0.0
  0
SEQEND
  5
4AE
330
4A9
100
AcDbEntity
  8
BEMA_UNG
  0
POLYLINE
  5
4AF
330
1F
100
AcDbEntity
  8
BEMA_UNG
 62
     7
100
AcDb2dPolyline
 66
     1
 10
0.0
 20
0.0
 30
0.0
  0
VERTEX
  5
4B0
330
4AF
100
AcDbEntity
  8
BEMA_UNG
 62
     7
100
AcDbVertex
100
AcDb2dVertex
 10
17.50574749241862
 20
-117.5570707949267
 30
0.0
  0
VERTEX
  5
4B1
330
4AF
100
AcDbEntity
  8
BEMA_UNG
 62
     7
100
AcDbVertex
100
AcDb2dVertex
 10
17.50574749241862
 20
-117.6587011787866
 30
0.0
  0
SEQEND
  5
4B2
330
4AF
100
AcDbEntity
  8
BEMA_UNG
  0
POLYLINE
  5
4B3
330
1F
100
AcDbEntity
  8
BEMA_UNG
 62
     7
100
AcDb2dPolyline
 66
     1
 10
0.0
 20
0.0
 30
0.0
  0
VERTEX
  5
4B4
330
4B3
100
AcDbEntity
  8
BEMA_UNG
 62
     7
100
AcDbVertex
100
AcDb2dVertex
 10
17.50574749241862
 20
-117.5570707949267
 30
0.0
  0
VERTEX
  5
4B5
330
4B3
100
AcDbEntity
  8
BEMA_UNG
 62
     7
100
AcDbVertex
100
AcDb2dVertex
 10
17.50574749241862
 20
-117.6587011787866
 30
0.0
  0
SEQEND
  5
4B6
330
4B3
100
AcDbEntity
  8
BEMA_UNG
  0
POLYLINE
  5
4B7
330
1F
100
AcDbEntity
  8
BEMA_UNG
 62
     7
100
AcDb2dPolyline
 66
     1
 10
0.0
 20
0.0
 30
0.0
  0
VERTEX
  5
4B8
330
4B7
100
AcDbEntity
  8
BEMA_UNG
 62
     7
100
AcDbVertex
100
AcDb2dVertex
 10
17.47784220057914
 20
-117.5570707949267
 30
0.0
  0
VERTEX
  5
4B9
330
4B7
100
AcDbEntity
  8
BEMA_UNG
 62
     7
100
AcDbVertex
100
AcDb2dVertex
 10
17.47784220057914
 20
-117.870919200677
 30
0.0
  0
SEQEND
  5
4BA
330
4B7
100
AcDbEntity
  8
BEMA_UNG
  0
POLYLINE
  5
4BB
330
1F
100
AcDbEntity
  8
BEMA_UNG
 62
     7
100
AcDb2dPolyline
 66
     1
 10
0.0
 20
0.0
 30
0.0
  0
VERTEX
  5
4BC
330
4BB
100
AcDbEntity
  8
BEMA_UNG
 62
     7
100
AcDbVertex
100
AcDb2dVertex
 10
17.44993690873965
 20
-117.5570707949267
 30
0.0
  0
VERTEX
  5
4BD
330
4BB
100
AcDbEntity
  8
BEMA_UNG
 62
     7
100
AcDbVertex
100
AcDb2dVertex
 10
17.44993690873965
 20
-118.0831372225674
 30
0.0
  0
SEQEND
  5
4BE
330
4BB
100
AcDbEntity
  8
BEMA_UNG
  0
POLYLINE
  5
4BF
330
1F
100
AcDbEntity
  8
BEMA_UNG
 62
     7
100
AcDb2dPolyline
 66
     1
 10
0.0
 20
0.0
 30
0.0
  0
VERTEX
  5
4C0
330
4BF
100
AcDbEntity
  8
BEMA_UNG
 62
     7
100
AcDbVertex
100
AcDb2dVertex
 10
17.42185936201226
 20
-117.5570707949267
 30
0.0
  0
VERTEX
  5
4C1
330
4BF
100
AcDbEntity
  8
BEMA_UNG
 62
     7
100
AcDbVertex
100
AcDb2dVertex
 10
17.42185936201226
 20
-118.2953552444579
 30
0.0
  0
SEQEND
  5
4C2
330
4BF
100
AcDbEntity
  8
BEMA_UNG
  0
POLYLINE
  5
4C3
330
1F
100
AcDbEntity
  8
BEMA_UNG
 62
     7
100
AcDb2dPolyline
 66
     1
 10
0.0
 20
0.0
 30
0.0
  0
VERTEX
  5
4C4
330
4C3
100
AcDbEntity
  8
BEMA_UNG
 62
     7
100
AcDbVertex
100
AcDb2dVertex
 10
17.39378181528487
 20
-117.5570707949267
 30
0.0
  0
VERTEX
  5
4C5
330
4C3
100
AcDbEntity
  8
BEMA_UNG
 62
     7
100
AcDbVertex
100
AcDb2dVertex
 10
17.39378181528487
 20
-118.5075732663483
 30
0.0
  0
SEQEND
  5
4C6
330
4C3
100
AcDbEntity
  8
BEMA_UNG
  0
POLYLINE
  5
4C7
330
1F
100
AcDbEntity
  8
BEMA_UNG
 62
     7
100
AcDb2dPolyline
 66
     1
 10
0.0
 20
0.0
 30
0.0
  0
VERTEX
  5
4C8
330
4C7
100
AcDbEntity
  8
BEMA_UNG
 62
     7
100
AcDbVertex
100
AcDb2dVertex
 10
17.36587652344538
 20
-117.5570707949267
 30
0.0
  0
VERTEX
  5
4C9
330
4C7
100
AcDbEntity
  8
BEMA_UNG
 62
     7
100
AcDbVertex
100
AcDb2dVertex
 10
17.36587652344538
 20
-118.7197912882388
 30
0.0
  0
SEQEND
  5
4CA
330
4C7
100
AcDbEntity
  8
BEMA_UNG
  0
POLYLINE
  5
4CB
330
1F
100
AcDbEntity
  8
BEMA_UNG
 62
     7
100
AcDb2dPolyline
 66
     1
 10
0.0
 20
0.0
 30
0.0
  0
VERTEX
  5
4CC
330
4CB
100
AcDbEntity
  8
BEMA_UNG
 62
     7
100
AcDbVertex
100
AcDb2dVertex
 10
17.33797123160589
 20
-117.5570707949267
 30
0.0
  0
VERTEX
  5
4CD
330
4CB
100
AcDbEntity
  8
BEMA_UNG
 62
     7
100
AcDbVertex
100
AcDb2dVertex
 10
17.33797123160589
 20
-118.9320093101292
 30
0.0
  0
SEQEND
  5
4CE
330
4CB
100
AcDbEntity
  8
BEMA_UNG
  0
POLYLINE
  5
4CF
330
1F
100
AcDbEntity
  8
BEMA_UNG
 62
     7
100
AcDb2dPolyline
 66
     1
 10
0.0
 20
0.0
 30
0.0
  0
VERTEX
  5
4D0
330
4CF
100
AcDbEntity
  8
BEMA_UNG
 62
     7
100
AcDbVertex
100
AcDb2dVertex
 10
17.17036722568105
 20
-117.5570707949267
 30
0.0
  0
VERTEX
  5
4D1
330
4CF
100
AcDbEntity
  8
BEMA_UNG
 62
     7
100
AcDbVertex
100
AcDb2dVertex
 10
17.17036722568105
 20
-117.6587011787866
 30
0.0
  0
SEQEND
  5
4D2
330
4CF
100
AcDbEntity
  8
BEMA_UNG
  0
POLYLINE
  5
4D3
330
1F
100
AcDbEntity
  8
BEMA_UNG
 62
     7
100
AcDb2dPolyline
 66
     1
 10
0.0
 20
0.0
 30
0.0
  0
VERTEX
  5
4D4
330
4D3
100
AcDbEntity
  8
BEMA_UNG
 62
     7
100
AcDbVertex
100
AcDb2dVertex
 10
17.17036722568105
 20
-117.5570707949267
 30
0.0
  0
VERTEX
  5
4D5
330
4D3
100
AcDbEntity
  8
BEMA_UNG
 62
     7
100
AcDbVertex
100
AcDb2dVertex
 10
17.17036722568105
 20
-117.6587011787866
 30
0.0
  0
SEQEND
  5
4D6
330
4D3
100
AcDbEntity
  8
BEMA_UNG
  0
POLYLINE
  5
4D7
330
1F
100
AcDbEntity
  8
BEMA_UNG
 62
     7
100
AcDb2dPolyline
 66
     1
 10
0.0
 20
0.0
 30
0.0
  0
VERTEX
  5
4D8
330
4D7
100
AcDbEntity
  8
BEMA_UNG
 62
     7
100
AcDbVertex
100
AcDb2dVertex
 10
17.19827251752055
 20
-117.5570707949267
 30
0.0
  0
VERTEX
  5
4D9
330
4D7
100
AcDbEntity
  8
BEMA_UNG
 62
     7
100
AcDbVertex
100
AcDb2dVertex
 10
17.19827251752055
 20
-117.870919200677
 30
0.0
  0
SEQEND
  5
4DA
330
4D7
100
AcDbEntity
  8
BEMA_UNG
  0
POLYLINE
  5
4DB
330
1F
100
AcDbEntity
  8
BEMA_UNG
 62
     7
100
AcDb2dPolyline
 66
     1
 10
0.0
 20
0.0
 30
0.0
  0
VERTEX
  5
4DC
330
4DB
100
AcDbEntity
  8
BEMA_UNG
 62
     7
100
AcDbVertex
100
AcDb2dVertex
 10
17.22617780936003
 20
-117.5570707949267
 30
0.0
  0
VERTEX
  5
4DD
330
4DB
100
AcDbEntity
  8
BEMA_UNG
 62
     7
100
AcDbVertex
100
AcDb2dVertex
 10
17.22617780936003
 20
-118.0831372225674
 30
0.0
  0
SEQEND
  5
4DE
330
4DB
100
AcDbEntity
  8
BEMA_UNG
  0
POLYLINE
  5
4DF
330
1F
100
AcDbEntity
  8
BEMA_UNG
 62
     7
100
AcDb2dPolyline
 66
     1
 10
0.0
 20
0.0
 30
0.0
  0
VERTEX
  5
4E0
330
4DF
100
AcDbEntity
  8
BEMA_UNG
 62
     7
100
AcDbVertex
100
AcDb2dVertex
 10
17.25408310119952
 20
-117.5570707949267
 30
0.0
  0
VERTEX
  5
4E1
330
4DF
100
AcDbEntity
  8
BEMA_UNG
 62
     7
100
AcDbVertex
100
AcDb2dVertex
 10
17.25408310119952
 20
-118.2953552444579
 30
0.0
  0
SEQEND
  5
4E2
330
4DF
100
AcDbEntity
  8
BEMA_UNG
  0
POLYLINE
  5
4E3
330
1F
100
AcDbEntity
  8
BEMA_UNG
 62
     7
100
AcDb2dPolyline
 66
     1
 10
0.0
 20
0.0
 30
0.0
  0
VERTEX
  5
4E4
330
4E3
100
AcDbEntity
  8
BEMA_UNG
 62
     7
100
AcDbVertex
100
AcDb2dVertex
 10
17.28216064792691
 20
-117.5570707949267
 30
0.0
  0
VERTEX
  5
4E5
330
4E3
100
AcDbEntity
  8
BEMA_UNG
 62
     7
100
AcDbVertex
100
AcDb2dVertex
 10
17.28216064792691
 20
-118.5075732663483
 30
0.0
  0
SEQEND
  5
4E6
330
4E3
100
AcDbEntity
  8
BEMA_UNG
  0
POLYLINE
  5
4E7
330
1F
100
AcDbEntity
  8
BEMA_UNG
 62
     7
100
AcDb2dPolyline
 66
     1
 10
0.0
 20
0.0
 30
0.0
  0
VERTEX
  5
4E8
330
4E7
100
AcDbEntity
  8
BEMA_UNG
 62
     7
100
AcDbVertex
100
AcDb2dVertex
 10
17.3100659397664
 20
-117.5570707949267
 30
0.0
  0
VERTEX
  5
4E9
330
4E7
100
AcDbEntity
  8
BEMA_UNG
 62
     7
100
AcDbVertex
100
AcDb2dVertex
 10
17.3100659397664
 20
-118.7197912882388
 30
0.0
  0
SEQEND
  5
4EA
330
4E7
100
AcDbEntity
  8
BEMA_UNG
  0
POLYLINE
  5
4EB
330
1F
100
AcDbEntity
  8
BEMA_UNG
 62
     7
100
AcDb2dPolyline
 66
     1
 10
0.0
 20
0.0
 30
0.0
  0
VERTEX
  5
4EC
330
4EB
100
AcDbEntity
  8
BEMA_UNG
 62
     7
100
AcDbVertex
100
AcDb2dVertex
 10
17.33797123160589
 20
-117.5570707949267
 30
0.0
  0
VERTEX
  5
4ED
330
4EB
100
AcDbEntity
  8
BEMA_UNG
 62
     7
100
AcDbVertex
100
AcDb2dVertex
 10
17.33797123160589
 20
-118.9320093101292
 30
0.0
  0
SEQEND
  5
4EE
330
4EB
100
AcDbEntity
  8
BEMA_UNG
  0
POLYLINE
  5
4EF
330
1F
100
AcDbEntity
  8
BEMA_UNG
 62
     7
100
AcDb2dPolyline
 66
     1
 10
0.0
 20
0.0
 30
0.0
  0
VERTEX
  5
4F0
330
4EF
100
AcDbEntity
  8
BEMA_UNG
 62
     7
100
AcDbVertex
100
AcDb2dVertex
 10
2.112533945182107
 20
-43.58186467731854
 30
0.0
  0
VERTEX
  5
4F1
330
4EF
100
AcDbEntity
  8
BEMA_UNG
 62
     7
100
AcDbVertex
100
AcDb2dVertex
 10
18.43799094572306
 20
-43.58186467731854
 30
0.0
  0
SEQEND
  5
4F2
330
4EF
100
AcDbEntity
  8
BEMA_UNG
  0
POLYLINE
  5
4F3
330
1F
100
AcDbEntity
  8
BEMA_UNG
 62
     7
100
AcDb2dPolyline
 66
     1
 10
0.0
 20
0.0
 30
0.0
  0
VERTEX
  5
4F4
330
4F3
100
AcDbEntity
  8
BEMA_UNG
 62
     7
100
AcDbVertex
100
AcDb2dVertex
 10
17.33797123160589
 20
-43.58186467731854
 30
0.0
  0
VERTEX
  5
4F5
330
4F3
100
AcDbEntity
  8
BEMA_UNG
 62
     7
100
AcDbVertex
100
AcDb2dVertex
 10
17.33797123160589
 20
-109.5820139950212
 30
0.0
  0
SEQEND
  5
4F6
330
4F3
100
AcDbEntity
  8
BEMA_UNG
  0
POLYLINE
  5
4F7
330
1F
100
AcDbEntity
  8
BEMA_UNG
 62
     7
100
AcDb2dPolyline
 66
     1
 10
0.0
 20
0.0
 30
0.0
  0
VERTEX
  5
4F8
330
4F7
100
AcDbEntity
  8
BEMA_UNG
 62
     7
100
AcDbVertex
100
AcDb2dVertex
 10
17.33797123160589
 20
-43.58186467731854
 30
0.0
  0
VERTEX
  5
4F9
330
4F7
100
AcDbEntity
  8
BEMA_UNG
 62
     7
100
AcDbVertex
100
AcDb2dVertex
 10
17.156931344425
 20
-44.95697544740895
 30
0.0
  0
VERTEX
  5
4FA
330
4F7
100
AcDbEntity
  8
BEMA_UNG
 62
     7
100
AcDbVertex
100
AcDb2dVertex
 10
17.51901111878678
 20
-44.95697544740895
 30
0.0
  0
VERTEX
  5
4FB
330
4F7
100
AcDbEntity
  8
BEMA_UNG
 62
     7
100
AcDbVertex
100
AcDb2dVertex
 10
17.33797123160589
 20
-43.58186467731854
 30
0.0
  0
SEQEND
  5
4FC
330
4F7
100
AcDbEntity
  8
BEMA_UNG
  0
POLYLINE
  5
4FD
330
1F
100
AcDbEntity
  8
BEMA_UNG
 62
     7
100
AcDb2dPolyline
 66
     1
 10
0.0
 20
0.0
 30
0.0
  0
VERTEX
  5
4FE
330
4FD
100
AcDbEntity
  8
BEMA_UNG
 62
     7
100
AcDbVertex
100
AcDb2dVertex
 10
17.17036722568105
 20
-44.95697544740895
 30
0.0
  0
VERTEX
  5
4FF
330
4FD
100
AcDbEntity
  8
BEMA_UNG
 62
     7
100
AcDbVertex
100
AcDb2dVertex
 10
17.17036722568105
 20
-44.85551731843698
 30
0.0
  0
SEQEND
  5
500
330
4FD
100
AcDbEntity
  8
BEMA_UNG
  0
POLYLINE
  5
501
330
1F
100
AcDbEntity
  8
BEMA_UNG
 62
     7
100
AcDb2dPolyline
 66
     1
 10
0.0
 20
0.0
 30
0.0
  0
VERTEX
  5
502
330
501
100
AcDbEntity
  8
BEMA_UNG
 62
     7
100
AcDbVertex
100
AcDb2dVertex
 10
17.17036722568105
 20
-44.95697544740895
 30
0.0
  0
VERTEX
  5
503
330
501
100
AcDbEntity
  8
BEMA_UNG
 62
     7
100
AcDbVertex
100
AcDb2dVertex
 10
17.17036722568105
 20
-44.85551731843698
 30
0.0
  0
SEQEND
  5
504
330
501
100
AcDbEntity
  8
BEMA_UNG
  0
POLYLINE
  5
505
330
1F
100
AcDbEntity
  8
BEMA_UNG
 62
     7
100
AcDb2dPolyline
 66
     1
 10
0.0
 20
0.0
 30
0.0
  0
VERTEX
  5
506
330
505
100
AcDbEntity
  8
BEMA_UNG
 62
     7
100
AcDbVertex
100
AcDb2dVertex
 10
17.19827251752055
 20
-44.95697544740895
 30
0.0
  0
VERTEX
  5
507
330
505
100
AcDbEntity
  8
BEMA_UNG
 62
     7
100
AcDbVertex
100
AcDb2dVertex
 10
17.19827251752055
 20
-44.64295478677074
 30
0.0
  0
SEQEND
  5
508
330
505
100
AcDbEntity
  8
BEMA_UNG
  0
POLYLINE
  5
509
330
1F
100
AcDbEntity
  8
BEMA_UNG
 62
     7
100
AcDb2dPolyline
 66
     1
 10
0.0
 20
0.0
 30
0.0
  0
VERTEX
  5
50A
330
509
100
AcDbEntity
  8
BEMA_UNG
 62
     7
100
AcDbVertex
100
AcDb2dVertex
 10
17.22617780936003
 20
-44.95697544740895
 30
0.0
  0
VERTEX
  5
50B
330
509
100
AcDbEntity
  8
BEMA_UNG
 62
     7
100
AcDbVertex
100
AcDb2dVertex
 10
17.22617780936003
 20
-44.4309090197682
 30
0.0
  0
SEQEND
  5
50C
330
509
100
AcDbEntity
  8
BEMA_UNG
  0
POLYLINE
  5
50D
330
1F
100
AcDbEntity
  8
BEMA_UNG
 62
     7
100
AcDb2dPolyline
 66
     1
 10
0.0
 20
0.0
 30
0.0
  0
VERTEX
  5
50E
330
50D
100
AcDbEntity
  8
BEMA_UNG
 62
     7
100
AcDbVertex
100
AcDb2dVertex
 10
17.25408310119952
 20
-44.95697544740895
 30
0.0
  0
VERTEX
  5
50F
330
50D
100
AcDbEntity
  8
BEMA_UNG
 62
     7
100
AcDbVertex
100
AcDb2dVertex
 10
17.25408310119952
 20
-44.21834648810196
 30
0.0
  0
SEQEND
  5
510
330
50D
100
AcDbEntity
  8
BEMA_UNG
  0
POLYLINE
  5
511
330
1F
100
AcDbEntity
  8
BEMA_UNG
 62
     7
100
AcDb2dPolyline
 66
     1
 10
0.0
 20
0.0
 30
0.0
  0
VERTEX
  5
512
330
511
100
AcDbEntity
  8
BEMA_UNG
 62
     7
100
AcDbVertex
100
AcDb2dVertex
 10
17.28216064792691
 20
-44.95697544740895
 30
0.0
  0
VERTEX
  5
513
330
511
100
AcDbEntity
  8
BEMA_UNG
 62
     7
100
AcDbVertex
100
AcDb2dVertex
 10
17.28216064792691
 20
-44.00630072109942
 30
0.0
  0
SEQEND
  5
514
330
511
100
AcDbEntity
  8
BEMA_UNG
  0
POLYLINE
  5
515
330
1F
100
AcDbEntity
  8
BEMA_UNG
 62
     7
100
AcDb2dPolyline
 66
     1
 10
0.0
 20
0.0
 30
0.0
  0
VERTEX
  5
516
330
515
100
AcDbEntity
  8
BEMA_UNG
 62
     7
100
AcDbVertex
100
AcDb2dVertex
 10
17.3100659397664
 20
-44.95697544740895
 30
0.0
  0
VERTEX
  5
517
330
515
100
AcDbEntity
  8
BEMA_UNG
 62
     7
100
AcDbVertex
100
AcDb2dVertex
 10
17.3100659397664
 20
-43.79425495409688
 30
0.0
  0
SEQEND
  5
518
330
515
100
AcDbEntity
  8
BEMA_UNG
  0
POLYLINE
  5
519
330
1F
100
AcDbEntity
  8
BEMA_UNG
 62
     7
100
AcDb2dPolyline
 66
     1
 10
0.0
 20
0.0
 30
0.0
  0
VERTEX
  5
51A
330
519
100
AcDbEntity
  8
BEMA_UNG
 62
     7
100
AcDbVertex
100
AcDb2dVertex
 10
17.33797123160589
 20
-44.95697544740895
 30
0.0
  0
VERTEX
  5
51B
330
519
100
AcDbEntity
  8
BEMA_UNG
 62
     7
100
AcDbVertex
100
AcDb2dVertex
 10
17.33797123160589
 20
-43.58186467731854
 30
0.0
  0
SEQEND
  5
51C
330
519
100
AcDbEntity
  8
BEMA_UNG
  0
POLYLINE
  5
51D
330
1F
100
AcDbEntity
  8
BEMA_UNG
 62
     7
100
AcDb2dPolyline
 66
     1
 10
0.0
 20
0.0
 30
0.0
  0
VERTEX
  5
51E
330
51D
100
AcDbEntity
  8
BEMA_UNG
 62
     7
100
AcDbVertex
100
AcDb2dVertex
 10
17.50574749241862
 20
-44.95697544740895
 30
0.0
  0
VERTEX
  5
51F
330
51D
100
AcDbEntity
  8
BEMA_UNG
 62
     7
100
AcDbVertex
100
AcDb2dVertex
 10
17.50574749241862
 20
-44.85551731843698
 30
0.0
  0
SEQEND
  5
520
330
51D
100
AcDbEntity
  8
BEMA_UNG
  0
POLYLINE
  5
521
330
1F
100
AcDbEntity
  8
BEMA_UNG
 62
     7
100
AcDb2dPolyline
 66
     1
 10
0.0
 20
0.0
 30
0.0
  0
VERTEX
  5
522
330
521
100
AcDbEntity
  8
BEMA_UNG
 62
     7
100
AcDbVertex
100
AcDb2dVertex
 10
17.50574749241862
 20
-44.95697544740895
 30
0.0
  0
VERTEX
  5
523
330
521
100
AcDbEntity
  8
BEMA_UNG
 62
     7
100
AcDbVertex
100
AcDb2dVertex
 10
17.50574749241862
 20
-44.85551731843698
 30
0.0
  0
SEQEND
  5
524
330
521
100
AcDbEntity
  8
BEMA_UNG
  0
POLYLINE
  5
525
330
1F
100
AcDbEntity
  8
BEMA_UNG
 62
     7
100
AcDb2dPolyline
 66
     1
 10
0.0
 20
0.0
 30
0.0
  0
VERTEX
  5
526
330
525
100
AcDbEntity
  8
BEMA_UNG
 62
     7
100
AcDbVertex
100
AcDb2dVertex
 10
17.47784220057914
 20
-44.95697544740895
 30
0.0
  0
VERTEX
  5
527
330
525
100
AcDbEntity
  8
BEMA_UNG
 62
     7
100
AcDbVertex
100
AcDb2dVertex
 10
17.47784220057914
 20
-44.64295478677074
 30
0.0
  0
SEQEND
  5
528
330
525
100
AcDbEntity
  8
BEMA_UNG
  0
POLYLINE
  5
529
330
1F
100
AcDbEntity
  8
BEMA_UNG
 62
     7
100
AcDb2dPolyline
 66
     1
 10
0.0
 20
0.0
 30
0.0
  0
VERTEX
  5
52A
330
529
100
AcDbEntity
  8
BEMA_UNG
 62
     7
100
AcDbVertex
100
AcDb2dVertex
 10
17.44993690873965
 20
-44.95697544740895
 30
0.0
  0
VERTEX
  5
52B
330
529
100
AcDbEntity
  8
BEMA_UNG
 62
     7
100
AcDbVertex
100
AcDb2dVertex
 10
17.44993690873965
 20
-44.4309090197682
 30
0.0
  0
SEQEND
  5
52C
330
529
100
AcDbEntity
  8
BEMA_UNG
  0
POLYLINE
  5
52D
330
1F
100
AcDbEntity
  8
BEMA_UNG
 62
     7
100
AcDb2dPolyline
 66
     1
 10
0.0
 20
0.0
 30
0.0
  0
VERTEX
  5
52E
330
52D
100
AcDbEntity
  8
BEMA_UNG
 62
     7
100
AcDbVertex
100
AcDb2dVertex
 10
17.42185936201226
 20
-44.95697544740895
 30
0.0
  0
VERTEX
  5
52F
330
52D
100
AcDbEntity
  8
BEMA_UNG
 62
     7
100
AcDbVertex
100
AcDb2dVertex
 10
17.42185936201226
 20
-44.21834648810196
 30
0.0
  0
SEQEND
  5
530
330
52D
100
AcDbEntity
  8
BEMA_UNG
  0
POLYLINE
  5
531
330
1F
100
AcDbEntity
  8
BEMA_UNG
 62
     7
100
AcDb2dPolyline
 66
     1
 10
0.0
 20
0.0
 30
0.0
  0
VERTEX
  5
532
330
531
100
AcDbEntity
  8
BEMA_UNG
 62
     7
100
AcDbVertex
100
AcDb2dVertex
 10
17.39378181528487
 20
-44.95697544740895
 30
0.0
  0
VERTEX
  5
533
330
531
100
AcDbEntity
  8
BEMA_UNG
 62
     7
100
AcDbVertex
100
AcDb2dVertex
 10
17.39378181528487
 20
-44.00630072109942
 30
0.0
  0
SEQEND
  5
534
330
531
100
AcDbEntity
  8
BEMA_UNG
  0
POLYLINE
  5
535
330
1F
100
AcDbEntity
  8
BEMA_UNG
 62
     7
100
AcDb2dPolyline
 66
     1
 10
0.0
 20
0.0
 30
0.0
  0
VERTEX
  5
536
330
535
100
AcDbEntity
  8
BEMA_UNG
 62
     7
100
AcDbVertex
100
AcDb2dVertex
 10
17.36587652344538
 20
-44.95697544740895
 30
0.0
  0
VERTEX
  5
537
330
535
100
AcDbEntity
  8
BEMA_UNG
 62
     7
100
AcDbVertex
100
AcDb2dVertex
 10
17.36587652344538
 20
-43.79425495409688
 30
0.0
  0
SEQEND
  5
538
330
535
100
AcDbEntity
  8
BEMA_UNG
  0
POLYLINE
  5
539
330
1F
100
AcDbEntity
  8
BEMA_UNG
 62
     7
100
AcDb2dPolyline
 66
     1
 10
0.0
 20
0.0
 30
0.0
  0
VERTEX
  5
53A
330
539
100
AcDbEntity
  8
BEMA_UNG
 62
     7
100
AcDbVertex
100
AcDb2dVertex
 10
17.33797123160589
 20
-44.95697544740895
 30
0.0
  0
VERTEX
  5
53B
330
539
100
AcDbEntity
  8
BEMA_UNG
 62
     7
100
AcDbVertex
100
AcDb2dVertex
 10
17.33797123160589
 20
-43.58186467731854
 30
0.0
  0
SEQEND
  5
53C
330
539
100
AcDbEntity
  8
BEMA_UNG
  0
POLYLINE
  5
53D
330
1F
100
AcDbEntity
  8
BEMA_UNG
 62
     7
100
AcDb2dPolyline
 66
     1
 10
0.0
 20
0.0
 30
0.0
  0
VERTEX
  5
53E
330
53D
100
AcDbEntity
  8
BEMA_UNG
 62
     7
100
AcDbVertex
100
AcDb2dVertex
 10
17.33797123160589
 20
-109.5820139950212
 30
0.0
  0
VERTEX
  5
53F
330
53D
100
AcDbEntity
  8
BEMA_UNG
 62
     7
100
AcDbVertex
100
AcDb2dVertex
 10
17.51901111878678
 20
-108.2070754798187
 30
0.0
  0
VERTEX
  5
540
330
53D
100
AcDbEntity
  8
BEMA_UNG
 62
     7
100
AcDbVertex
100
AcDb2dVertex
 10
17.156931344425
 20
-108.2070754798187
 30
0.0
  0
VERTEX
  5
541
330
53D
100
AcDbEntity
  8
BEMA_UNG
 62
     7
100
AcDbVertex
100
AcDb2dVertex
 10
17.33797123160589
 20
-109.5820139950212
 30
0.0
  0
SEQEND
  5
542
330
53D
100
AcDbEntity
  8
BEMA_UNG
  0
POLYLINE
  5
543
330
1F
100
AcDbEntity
  8
BEMA_UNG
 62
     7
100
AcDb2dPolyline
 66
     1
 10
0.0
 20
0.0
 30
0.0
  0
VERTEX
  5
544
330
543
100
AcDbEntity
  8
BEMA_UNG
 62
     7
100
AcDbVertex
100
AcDb2dVertex
 10
17.50574749241862
 20
-108.2070754798187
 30
0.0
  0
VERTEX
  5
545
330
543
100
AcDbEntity
  8
BEMA_UNG
 62
     7
100
AcDbVertex
100
AcDb2dVertex
 10
17.50574749241862
 20
-108.3087058636785
 30
0.0
  0
SEQEND
  5
546
330
543
100
AcDbEntity
  8
BEMA_UNG
  0
POLYLINE
  5
547
330
1F
100
AcDbEntity
  8
BEMA_UNG
 62
     7
100
AcDb2dPolyline
 66
     1
 10
0.0
 20
0.0
 30
0.0
  0
VERTEX
  5
548
330
547
100
AcDbEntity
  8
BEMA_UNG
 62
     7
100
AcDbVertex
100
AcDb2dVertex
 10
17.50574749241862
 20
-108.2070754798187
 30
0.0
  0
VERTEX
  5
549
330
547
100
AcDbEntity
  8
BEMA_UNG
 62
     7
100
AcDbVertex
100
AcDb2dVertex
 10
17.50574749241862
 20
-108.3087058636785
 30
0.0
  0
SEQEND
  5
54A
330
547
100
AcDbEntity
  8
BEMA_UNG
  0
POLYLINE
  5
54B
330
1F
100
AcDbEntity
  8
BEMA_UNG
 62
     7
100
AcDb2dPolyline
 66
     1
 10
0.0
 20
0.0
 30
0.0
  0
VERTEX
  5
54C
330
54B
100
AcDbEntity
  8
BEMA_UNG
 62
     7
100
AcDbVertex
100
AcDb2dVertex
 10
17.47784220057914
 20
-108.2070754798187
 30
0.0
  0
VERTEX
  5
54D
330
54B
100
AcDbEntity
  8
BEMA_UNG
 62
     7
100
AcDbVertex
100
AcDb2dVertex
 10
17.47784220057914
 20
-108.520923885569
 30
0.0
  0
SEQEND
  5
54E
330
54B
100
AcDbEntity
  8
BEMA_UNG
  0
POLYLINE
  5
54F
330
1F
100
AcDbEntity
  8
BEMA_UNG
 62
     7
100
AcDb2dPolyline
 66
     1
 10
0.0
 20
0.0
 30
0.0
  0
VERTEX
  5
550
330
54F
100
AcDbEntity
  8
BEMA_UNG
 62
     7
100
AcDbVertex
100
AcDb2dVertex
 10
17.44993690873965
 20
-108.2070754798187
 30
0.0
  0
VERTEX
  5
551
330
54F
100
AcDbEntity
  8
BEMA_UNG
 62
     7
100
AcDbVertex
100
AcDb2dVertex
 10
17.44993690873965
 20
-108.7331419074594
 30
0.0
  0
SEQEND
  5
552
330
54F
100
AcDbEntity
  8
BEMA_UNG
  0
POLYLINE
  5
553
330
1F
100
AcDbEntity
  8
BEMA_UNG
 62
     7
100
AcDb2dPolyline
 66
     1
 10
0.0
 20
0.0
 30
0.0
  0
VERTEX
  5
554
330
553
100
AcDbEntity
  8
BEMA_UNG
 62
     7
100
AcDbVertex
100
AcDb2dVertex
 10
17.42185936201226
 20
-108.2070754798187
 30
0.0
  0
VERTEX
  5
555
330
553
100
AcDbEntity
  8
BEMA_UNG
 62
     7
100
AcDbVertex
100
AcDb2dVertex
 10
17.42185936201226
 20
-108.9453599293499
 30
0.0
  0
SEQEND
  5
556
330
553
100
AcDbEntity
  8
BEMA_UNG
  0
POLYLINE
  5
557
330
1F
100
AcDbEntity
  8
BEMA_UNG
 62
     7
100
AcDb2dPolyline
 66
     1
 10
0.0
 20
0.0
 30
0.0
  0
VERTEX
  5
558
330
557
100
AcDbEntity
  8
BEMA_UNG
 62
     7
100
AcDbVertex
100
AcDb2dVertex
 10
17.39378181528487
 20
-108.2070754798187
 30
0.0
  0
VERTEX
  5
559
330
557
100
AcDbEntity
  8
BEMA_UNG
 62
     7
100
AcDbVertex
100
AcDb2dVertex
 10
17.39378181528487
 20
-109.1575779512403
 30
0.0
  0
SEQEND
  5
55A
330
557
100
AcDbEntity
  8
BEMA_UNG
  0
POLYLINE
  5
55B
330
1F
100
AcDbEntity
  8
BEMA_UNG
 62
     7
100
AcDb2dPolyline
 66
     1
 10
0.0
 20
0.0
 30
0.0
  0
VERTEX
  5
55C
330
55B
100
AcDbEntity
  8
BEMA_UNG
 62
     7
100
AcDbVertex
100
AcDb2dVertex
 10
17.36587652344538
 20
-108.2070754798187
 30
0.0
  0
VERTEX
  5
55D
330
55B
100
AcDbEntity
  8
BEMA_UNG
 62
     7
100
AcDbVertex
100
AcDb2dVertex
 10
17.36587652344538
 20
-109.3697959731307
 30
0.0
  0
SEQEND
  5
55E
330
55B
100
AcDbEntity
  8
BEMA_UNG
  0
POLYLINE
  5
55F
330
1F
100
AcDbEntity
  8
BEMA_UNG
 62
     7
100
AcDb2dPolyline
 66
     1
 10
0.0
 20
0.0
 30
0.0
  0
VERTEX
  5
560
330
55F
100
AcDbEntity
  8
BEMA_UNG
 62
     7
100
AcDbVertex
100
AcDb2dVertex
 10
17.33797123160589
 20
-108.2070754798187
 30
0.0
  0
VERTEX
  5
561
330
55F
100
AcDbEntity
  8
BEMA_UNG
 62
     7
100
AcDbVertex
100
AcDb2dVertex
 10
17.33797123160589
 20
-109.5820139950212
 30
0.0
  0
SEQEND
  5
562
330
55F
100
AcDbEntity
  8
BEMA_UNG
  0
POLYLINE
  5
563
330
1F
100
AcDbEntity
  8
BEMA_UNG
 62
     7
100
AcDb2dPolyline
 66
     1
 10
0.0
 20
0.0
 30
0.0
  0
VERTEX
  5
564
330
563
100
AcDbEntity
  8
BEMA_UNG
 62
     7
100
AcDbVertex
100
AcDb2dVertex
 10
17.17036722568105
 20
-108.2070754798187
 30
0.0
  0
VERTEX
  5
565
330
563
100
AcDbEntity
  8
BEMA_UNG
 62
     7
100
AcDbVertex
100
AcDb2dVertex
 10
17.17036722568105
 20
-108.3087058636785
 30
0.0
  0
SEQEND
  5
566
330
563
100
AcDbEntity
  8
BEMA_UNG
  0
POLYLINE
  5
567
330
1F
100
AcDbEntity
  8
BEMA_UNG
 62
     7
100
AcDb2dPolyline
 66
     1
 10
0.0
 20
0.0
 30
0.0
  0
VERTEX
  5
568
330
567
100
AcDbEntity
  8
BEMA_UNG
 62
     7
100
AcDbVertex
100
AcDb2dVertex
 10
17.17036722568105
 20
-108.2070754798187
 30
0.0
  0
VERTEX
  5
569
330
567
100
AcDbEntity
  8
BEMA_UNG
 62
     7
100
AcDbVertex
100
AcDb2dVertex
 10
17.17036722568105
 20
-108.3087058636785
 30
0.0
  0
SEQEND
  5
56A
330
567
100
AcDbEntity
  8
BEMA_UNG
  0
POLYLINE
  5
56B
330
1F
100
AcDbEntity
  8
BEMA_UNG
 62
     7
100
AcDb2dPolyline
 66
     1
 10
0.0
 20
0.0
 30
0.0
  0
VERTEX
  5
56C
330
56B
100
AcDbEntity
  8
BEMA_UNG
 62
     7
100
AcDbVertex
100
AcDb2dVertex
 10
17.19827251752055
 20
-108.2070754798187
 30
0.0
  0
VERTEX
  5
56D
330
56B
100
AcDbEntity
  8
BEMA_UNG
 62
     7
100
AcDbVertex
100
AcDb2dVertex
 10
17.19827251752055
 20
-108.520923885569
 30
0.0
  0
SEQEND
  5
56E
330
56B
100
AcDbEntity
  8
BEMA_UNG
  0
POLYLINE
  5
56F
330
1F
100
AcDbEntity
  8
BEMA_UNG
 62
     7
100
AcDb2dPolyline
 66
     1
 10
0.0
 20
0.0
 30
0.0
  0
VERTEX
  5
570
330
56F
100
AcDbEntity
  8
BEMA_UNG
 62
     7
100
AcDbVertex
100
AcDb2dVertex
 10
17.22617780936003
 20
-108.2070754798187
 30
0.0
  0
VERTEX
  5
571
330
56F
100
AcDbEntity
  8
BEMA_UNG
 62
     7
100
AcDbVertex
100
AcDb2dVertex
 10
17.22617780936003
 20
-108.7331419074594
 30
0.0
  0
SEQEND
  5
572
330
56F
100
AcDbEntity
  8
BEMA_UNG
  0
POLYLINE
  5
573
330
1F
100
AcDbEntity
  8
BEMA_UNG
 62
     7
100
AcDb2dPolyline
 66
     1
 10
0.0
 20
0.0
 30
0.0
  0
VERTEX
  5
574
330
573
100
AcDbEntity
  8
BEMA_UNG
 62
     7
100
AcDbVertex
100
AcDb2dVertex
 10
17.25408310119952
 20
-108.2070754798187
 30
0.0
  0
VERTEX
  5
575
330
573
100
AcDbEntity
  8
BEMA_UNG
 62
     7
100
AcDbVertex
100
AcDb2dVertex
 10
17.25408310119952
 20
-108.9453599293499
 30
0.0
  0
SEQEND
  5
576
330
573
100
AcDbEntity
  8
BEMA_UNG
  0
POLYLINE
  5
577
330
1F
100
AcDbEntity
  8
BEMA_UNG
 62
     7
100
AcDb2dPolyline
 66
     1
 10
0.0
 20
0.0
 30
0.0
  0
VERTEX
  5
578
330
577
100
AcDbEntity
  8
BEMA_UNG
 62
     7
100
AcDbVertex
100
AcDb2dVertex
 10
17.28216064792691
 20
-108.2070754798187
 30
0.0
  0
VERTEX
  5
579
330
577
100
AcDbEntity
  8
BEMA_UNG
 62
     7
100
AcDbVertex
100
AcDb2dVertex
 10
17.28216064792691
 20
-109.1575779512403
 30
0.0
  0
SEQEND
  5
57A
330
577
100
AcDbEntity
  8
BEMA_UNG
  0
POLYLINE
  5
57B
330
1F
100
AcDbEntity
  8
BEMA_UNG
 62
     7
100
AcDb2dPolyline
 66
     1
 10
0.0
 20
0.0
 30
0.0
  0
VERTEX
  5
57C
330
57B
100
AcDbEntity
  8
BEMA_UNG
 62
     7
100
AcDbVertex
100
AcDb2dVertex
 10
17.3100659397664
 20
-108.2070754798187
 30
0.0
  0
VERTEX
  5
57D
330
57B
100
AcDbEntity
  8
BEMA_UNG
 62
     7
100
AcDbVertex
100
AcDb2dVertex
 10
17.3100659397664
 20
-109.3697959731307
 30
0.0
  0
SEQEND
  5
57E
330
57B
100
AcDbEntity
  8
BEMA_UNG
  0
POLYLINE
  5
57F
330
1F
100
AcDbEntity
  8
BEMA_UNG
 62
     7
100
AcDb2dPolyline
 66
     1
 10
0.0
 20
0.0
 30
0.0
  0
VERTEX
  5
580
330
57F
100
AcDbEntity
  8
BEMA_UNG
 62
     7
100
AcDbVertex
100
AcDb2dVertex
 10
17.33797123160589
 20
-108.2070754798187
 30
0.0
  0
VERTEX
  5
581
330
57F
100
AcDbEntity
  8
BEMA_UNG
 62
     7
100
AcDbVertex
100
AcDb2dVertex
 10
17.33797123160589
 20
-109.5820139950212
 30
0.0
  0
SEQEND
  5
582
330
57F
100
AcDbEntity
  8
BEMA_UNG
  0
POLYLINE
  5
583
330
1F
100
AcDbEntity
  8
BEMA_UNG
 62
     7
100
AcDb2dPolyline
 66
     1
 10
0.0
 20
0.0
 30
0.0
  0
VERTEX
  5
584
330
583
100
AcDbEntity
  8
BEMA_UNG
 62
     7
100
AcDbVertex
100
AcDb2dVertex
 10
1.562524088123524
 20
-41.93200736103069
 30
0.0
  0
VERTEX
  5
585
330
583
100
AcDbEntity
  8
BEMA_UNG
 62
     7
100
AcDbVertex
100
AcDb2dVertex
 10
23.82491805495985
 20
-41.93200736103069
 30
0.0
  0
SEQEND
  5
586
330
583
100
AcDbEntity
  8
BEMA_UNG
  0
POLYLINE
  5
587
330
1F
100
AcDbEntity
  8
BEMA_UNG
 62
     7
100
AcDb2dPolyline
 66
     1
 10
0.0
 20
0.0
 30
0.0
  0
VERTEX
  5
588
330
587
100
AcDbEntity
  8
BEMA_UNG
 62
     7
100
AcDbVertex
100
AcDb2dVertex
 10
3.487644715272515
 20
-118.9320093101292
 30
0.0
  0
VERTEX
  5
589
330
587
100
AcDbEntity
  8
BEMA_UNG
 62
     7
100
AcDbVertex
100
AcDb2dVertex
 10
23.82491805495985
 20
-118.9320093101292
 30
0.0
  0
SEQEND
  5
58A
330
587
100
AcDbEntity
  8
BEMA_UNG
  0
POLYLINE
  5
58B
330
1F
100
AcDbEntity
  8
BEMA_UNG
 62
     7
100
AcDb2dPolyline
 66
     1
 10
0.0
 20
0.0
 30
0.0
  0
VERTEX
  5
58C
330
58B
100
AcDbEntity
  8
BEMA_UNG
 62
     7
100
AcDbVertex
100
AcDb2dVertex
 10
22.72524285061848
 20
-41.93200736103069
 30
0.0
  0
VERTEX
  5
58D
330
58B
100
AcDbEntity
  8
BEMA_UNG
 62
     7
100
AcDbVertex
100
AcDb2dVertex
 10
22.72524285061848
 20
-118.9320093101292
 30
0.0
  0
SEQEND
  5
58E
330
58B
100
AcDbEntity
  8
BEMA_UNG
  0
POLYLINE
  5
58F
330
1F
100
AcDbEntity
  8
BEMA_UNG
 62
     7
100
AcDb2dPolyline
 66
     1
 10
0.0
 20
0.0
 30
0.0
  0
VERTEX
  5
590
330
58F
100
AcDbEntity
  8
BEMA_UNG
 62
     7
100
AcDbVertex
100
AcDb2dVertex
 10
22.72524285061848
 20
-41.93200736103069
 30
0.0
  0
VERTEX
  5
591
330
58F
100
AcDbEntity
  8
BEMA_UNG
 62
     7
100
AcDbVertex
100
AcDb2dVertex
 10
22.54437521832549
 20
-43.3067736213453
 30
0.0
  0
VERTEX
  5
592
330
58F
100
AcDbEntity
  8
BEMA_UNG
 62
     7
100
AcDbVertex
100
AcDb2dVertex
 10
22.90611048291147
 20
-43.3067736213453
 30
0.0
  0
VERTEX
  5
593
330
58F
100
AcDbEntity
  8
BEMA_UNG
 62
     7
100
AcDbVertex
100
AcDb2dVertex
 10
22.72524285061848
 20
-41.93200736103069
 30
0.0
  0
SEQEND
  5
594
330
58F
100
AcDbEntity
  8
BEMA_UNG
  0
POLYLINE
  5
595
330
1F
100
AcDbEntity
  8
BEMA_UNG
 62
     7
100
AcDb2dPolyline
 66
     1
 10
0.0
 20
0.0
 30
0.0
  0
VERTEX
  5
596
330
595
100
AcDbEntity
  8
BEMA_UNG
 62
     7
100
AcDbVertex
100
AcDb2dVertex
 10
22.55746658980575
 20
-43.3067736213453
 30
0.0
  0
VERTEX
  5
597
330
595
100
AcDbEntity
  8
BEMA_UNG
 62
     7
100
AcDbVertex
100
AcDb2dVertex
 10
22.55746658980575
 20
-43.20514323748543
 30
0.0
  0
SEQEND
  5
598
330
595
100
AcDbEntity
  8
BEMA_UNG
  0
POLYLINE
  5
599
330
1F
100
AcDbEntity
  8
BEMA_UNG
 62
     7
100
AcDb2dPolyline
 66
     1
 10
0.0
 20
0.0
 30
0.0
  0
VERTEX
  5
59A
330
599
100
AcDbEntity
  8
BEMA_UNG
 62
     7
100
AcDbVertex
100
AcDb2dVertex
 10
22.55746658980575
 20
-43.3067736213453
 30
0.0
  0
VERTEX
  5
59B
330
599
100
AcDbEntity
  8
BEMA_UNG
 62
     7
100
AcDbVertex
100
AcDb2dVertex
 10
22.55746658980575
 20
-43.20514323748543
 30
0.0
  0
SEQEND
  5
59C
330
599
100
AcDbEntity
  8
BEMA_UNG
  0
POLYLINE
  5
59D
330
1F
100
AcDbEntity
  8
BEMA_UNG
 62
     7
100
AcDb2dPolyline
 66
     1
 10
0.0
 20
0.0
 30
0.0
  0
VERTEX
  5
59E
330
59D
100
AcDbEntity
  8
BEMA_UNG
 62
     7
100
AcDbVertex
100
AcDb2dVertex
 10
22.58571639142103
 20
-43.3067736213453
 30
0.0
  0
VERTEX
  5
59F
330
59D
100
AcDbEntity
  8
BEMA_UNG
 62
     7
100
AcDbVertex
100
AcDb2dVertex
 10
22.58571639142103
 20
-42.99326972537079
 30
0.0
  0
SEQEND
  5
5A0
330
59D
100
AcDbEntity
  8
BEMA_UNG
  0
POLYLINE
  5
5A1
330
1F
100
AcDbEntity
  8
BEMA_UNG
 62
     7
100
AcDb2dPolyline
 66
     1
 10
0.0
 20
0.0
 30
0.0
  0
VERTEX
  5
5A2
330
5A1
100
AcDbEntity
  8
BEMA_UNG
 62
     7
100
AcDbVertex
100
AcDb2dVertex
 10
22.61362168326052
 20
-43.3067736213453
 30
0.0
  0
VERTEX
  5
5A3
330
5A1
100
AcDbEntity
  8
BEMA_UNG
 62
     7
100
AcDbVertex
100
AcDb2dVertex
 10
22.61362168326052
 20
-42.78070719370455
 30
0.0
  0
SEQEND
  5
5A4
330
5A1
100
AcDbEntity
  8
BEMA_UNG
  0
POLYLINE
  5
5A5
330
1F
100
AcDbEntity
  8
BEMA_UNG
 62
     7
100
AcDb2dPolyline
 66
     1
 10
0.0
 20
0.0
 30
0.0
  0
VERTEX
  5
5A6
330
5A5
100
AcDbEntity
  8
BEMA_UNG
 62
     7
100
AcDbVertex
100
AcDb2dVertex
 10
22.64152697510001
 20
-43.3067736213453
 30
0.0
  0
VERTEX
  5
5A7
330
5A5
100
AcDbEntity
  8
BEMA_UNG
 62
     7
100
AcDbVertex
100
AcDb2dVertex
 10
22.64152697510001
 20
-42.56848917181411
 30
0.0
  0
SEQEND
  5
5A8
330
5A5
100
AcDbEntity
  8
BEMA_UNG
  0
POLYLINE
  5
5A9
330
1F
100
AcDbEntity
  8
BEMA_UNG
 62
     7
100
AcDb2dPolyline
 66
     1
 10
0.0
 20
0.0
 30
0.0
  0
VERTEX
  5
5AA
330
5A9
100
AcDbEntity
  8
BEMA_UNG
 62
     7
100
AcDbVertex
100
AcDb2dVertex
 10
22.6694322669395
 20
-43.3067736213453
 30
0.0
  0
VERTEX
  5
5AB
330
5A9
100
AcDbEntity
  8
BEMA_UNG
 62
     7
100
AcDbVertex
100
AcDb2dVertex
 10
22.6694322669395
 20
-42.35644340481157
 30
0.0
  0
SEQEND
  5
5AC
330
5A9
100
AcDbEntity
  8
BEMA_UNG
  0
POLYLINE
  5
5AD
330
1F
100
AcDbEntity
  8
BEMA_UNG
 62
     7
100
AcDb2dPolyline
 66
     1
 10
0.0
 20
0.0
 30
0.0
  0
VERTEX
  5
5AE
330
5AD
100
AcDbEntity
  8
BEMA_UNG
 62
     7
100
AcDbVertex
100
AcDb2dVertex
 10
22.69768206855479
 20
-43.3067736213453
 30
0.0
  0
VERTEX
  5
5AF
330
5AD
100
AcDbEntity
  8
BEMA_UNG
 62
     7
100
AcDbVertex
100
AcDb2dVertex
 10
22.69768206855479
 20
-42.14422538292113
 30
0.0
  0
SEQEND
  5
5B0
330
5AD
100
AcDbEntity
  8
BEMA_UNG
  0
POLYLINE
  5
5B1
330
1F
100
AcDbEntity
  8
BEMA_UNG
 62
     7
100
AcDb2dPolyline
 66
     1
 10
0.0
 20
0.0
 30
0.0
  0
VERTEX
  5
5B2
330
5B1
100
AcDbEntity
  8
BEMA_UNG
 62
     7
100
AcDbVertex
100
AcDb2dVertex
 10
22.72524285061848
 20
-43.3067736213453
 30
0.0
  0
VERTEX
  5
5B3
330
5B1
100
AcDbEntity
  8
BEMA_UNG
 62
     7
100
AcDbVertex
100
AcDb2dVertex
 10
22.72524285061848
 20
-41.93200736103069
 30
0.0
  0
SEQEND
  5
5B4
330
5B1
100
AcDbEntity
  8
BEMA_UNG
  0
POLYLINE
  5
5B5
330
1F
100
AcDbEntity
  8
BEMA_UNG
 62
     7
100
AcDb2dPolyline
 66
     1
 10
0.0
 20
0.0
 30
0.0
  0
VERTEX
  5
5B6
330
5B5
100
AcDbEntity
  8
BEMA_UNG
 62
     7
100
AcDbVertex
100
AcDb2dVertex
 10
22.89301911143122
 20
-43.3067736213453
 30
0.0
  0
VERTEX
  5
5B7
330
5B5
100
AcDbEntity
  8
BEMA_UNG
 62
     7
100
AcDbVertex
100
AcDb2dVertex
 10
22.89301911143122
 20
-43.20514323748543
 30
0.0
  0
SEQEND
  5
5B8
330
5B5
100
AcDbEntity
  8
BEMA_UNG
  0
POLYLINE
  5
5B9
330
1F
100
AcDbEntity
  8
BEMA_UNG
 62
     7
100
AcDb2dPolyline
 66
     1
 10
0.0
 20
0.0
 30
0.0
  0
VERTEX
  5
5BA
330
5B9
100
AcDbEntity
  8
BEMA_UNG
 62
     7
100
AcDbVertex
100
AcDb2dVertex
 10
22.89301911143122
 20
-43.3067736213453
 30
0.0
  0
VERTEX
  5
5BB
330
5B9
100
AcDbEntity
  8
BEMA_UNG
 62
     7
100
AcDbVertex
100
AcDb2dVertex
 10
22.89301911143122
 20
-43.20514323748543
 30
0.0
  0
SEQEND
  5
5BC
330
5B9
100
AcDbEntity
  8
BEMA_UNG
  0
POLYLINE
  5
5BD
330
1F
100
AcDbEntity
  8
BEMA_UNG
 62
     7
100
AcDb2dPolyline
 66
     1
 10
0.0
 20
0.0
 30
0.0
  0
VERTEX
  5
5BE
330
5BD
100
AcDbEntity
  8
BEMA_UNG
 62
     7
100
AcDbVertex
100
AcDb2dVertex
 10
22.86511381959173
 20
-43.3067736213453
 30
0.0
  0
VERTEX
  5
5BF
330
5BD
100
AcDbEntity
  8
BEMA_UNG
 62
     7
100
AcDbVertex
100
AcDb2dVertex
 10
22.86511381959173
 20
-42.99326972537079
 30
0.0
  0
SEQEND
  5
5C0
330
5BD
100
AcDbEntity
  8
BEMA_UNG
  0
POLYLINE
  5
5C1
330
1F
100
AcDbEntity
  8
BEMA_UNG
 62
     7
100
AcDb2dPolyline
 66
     1
 10
0.0
 20
0.0
 30
0.0
  0
VERTEX
  5
5C2
330
5C1
100
AcDbEntity
  8
BEMA_UNG
 62
     7
100
AcDbVertex
100
AcDb2dVertex
 10
22.83720852775224
 20
-43.3067736213453
 30
0.0
  0
VERTEX
  5
5C3
330
5C1
100
AcDbEntity
  8
BEMA_UNG
 62
     7
100
AcDbVertex
100
AcDb2dVertex
 10
22.83720852775224
 20
-42.78070719370455
 30
0.0
  0
SEQEND
  5
5C4
330
5C1
100
AcDbEntity
  8
BEMA_UNG
  0
POLYLINE
  5
5C5
330
1F
100
AcDbEntity
  8
BEMA_UNG
 62
     7
100
AcDb2dPolyline
 66
     1
 10
0.0
 20
0.0
 30
0.0
  0
VERTEX
  5
5C6
330
5C5
100
AcDbEntity
  8
BEMA_UNG
 62
     7
100
AcDbVertex
100
AcDb2dVertex
 10
22.80930323591275
 20
-43.3067736213453
 30
0.0
  0
VERTEX
  5
5C7
330
5C5
100
AcDbEntity
  8
BEMA_UNG
 62
     7
100
AcDbVertex
100
AcDb2dVertex
 10
22.80930323591275
 20
-42.56848917181411
 30
0.0
  0
SEQEND
  5
5C8
330
5C5
100
AcDbEntity
  8
BEMA_UNG
  0
POLYLINE
  5
5C9
330
1F
100
AcDbEntity
  8
BEMA_UNG
 62
     7
100
AcDb2dPolyline
 66
     1
 10
0.0
 20
0.0
 30
0.0
  0
VERTEX
  5
5CA
330
5C9
100
AcDbEntity
  8
BEMA_UNG
 62
     7
100
AcDbVertex
100
AcDb2dVertex
 10
22.78139794407326
 20
-43.3067736213453
 30
0.0
  0
VERTEX
  5
5CB
330
5C9
100
AcDbEntity
  8
BEMA_UNG
 62
     7
100
AcDbVertex
100
AcDb2dVertex
 10
22.78139794407326
 20
-42.35644340481157
 30
0.0
  0
SEQEND
  5
5CC
330
5C9
100
AcDbEntity
  8
BEMA_UNG
  0
POLYLINE
  5
5CD
330
1F
100
AcDbEntity
  8
BEMA_UNG
 62
     7
100
AcDb2dPolyline
 66
     1
 10
0.0
 20
0.0
 30
0.0
  0
VERTEX
  5
5CE
330
5CD
100
AcDbEntity
  8
BEMA_UNG
 62
     7
100
AcDbVertex
100
AcDb2dVertex
 10
22.75349265223377
 20
-43.3067736213453
 30
0.0
  0
VERTEX
  5
5CF
330
5CD
100
AcDbEntity
  8
BEMA_UNG
 62
     7
100
AcDbVertex
100
AcDb2dVertex
 10
22.75349265223377
 20
-42.14422538292113
 30
0.0
  0
SEQEND
  5
5D0
330
5CD
100
AcDbEntity
  8
BEMA_UNG
  0
POLYLINE
  5
5D1
330
1F
100
AcDbEntity
  8
BEMA_UNG
 62
     7
100
AcDb2dPolyline
 66
     1
 10
0.0
 20
0.0
 30
0.0
  0
VERTEX
  5
5D2
330
5D1
100
AcDbEntity
  8
BEMA_UNG
 62
     7
100
AcDbVertex
100
AcDb2dVertex
 10
22.72524285061848
 20
-43.3067736213453
 30
0.0
  0
VERTEX
  5
5D3
330
5D1
100
AcDbEntity
  8
BEMA_UNG
 62
     7
100
AcDbVertex
100
AcDb2dVertex
 10
22.72524285061848
 20
-41.93200736103069
 30
0.0
  0
SEQEND
  5
5D4
330
5D1
100
AcDbEntity
  8
BEMA_UNG
  0
POLYLINE
  5
5D5
330
1F
100
AcDbEntity
  8
BEMA_UNG
 62
     7
100
AcDb2dPolyline
 66
     1
 10
0.0
 20
0.0
 30
0.0
  0
VERTEX
  5
5D6
330
5D5
100
AcDbEntity
  8
BEMA_UNG
 62
     7
100
AcDbVertex
100
AcDb2dVertex
 10
22.72524285061848
 20
-118.9320093101292
 30
0.0
  0
VERTEX
  5
5D7
330
5D5
100
AcDbEntity
  8
BEMA_UNG
 62
     7
100
AcDbVertex
100
AcDb2dVertex
 10
22.90611048291147
 20
-117.5570707949267
 30
0.0
  0
VERTEX
  5
5D8
330
5D5
100
AcDbEntity
  8
BEMA_UNG
 62
     7
100
AcDbVertex
100
AcDb2dVertex
 10
22.54437521832549
 20
-117.5570707949267
 30
0.0
  0
VERTEX
  5
5D9
330
5D5
100
AcDbEntity
  8
BEMA_UNG
 62
     7
100
AcDbVertex
100
AcDb2dVertex
 10
22.72524285061848
 20
-118.9320093101292
 30
0.0
  0
SEQEND
  5
5DA
330
5D5
100
AcDbEntity
  8
BEMA_UNG
  0
POLYLINE
  5
5DB
330
1F
100
AcDbEntity
  8
BEMA_UNG
 62
     7
100
AcDb2dPolyline
 66
     1
 10
0.0
 20
0.0
 30
0.0
  0
VERTEX
  5
5DC
330
5DB
100
AcDbEntity
  8
BEMA_UNG
 62
     7
100
AcDbVertex
100
AcDb2dVertex
 10
22.89301911143122
 20
-117.5570707949267
 30
0.0
  0
VERTEX
  5
5DD
330
5DB
100
AcDbEntity
  8
BEMA_UNG
 62
     7
100
AcDbVertex
100
AcDb2dVertex
 10
22.89301911143122
 20
-117.6587011787866
 30
0.0
  0
SEQEND
  5
5DE
330
5DB
100
AcDbEntity
  8
BEMA_UNG
  0
POLYLINE
  5
5DF
330
1F
100
AcDbEntity
  8
BEMA_UNG
 62
     7
100
AcDb2dPolyline
 66
     1
 10
0.0
 20
0.0
 30
0.0
  0
VERTEX
  5
5E0
330
5DF
100
AcDbEntity
  8
BEMA_UNG
 62
     7
100
AcDbVertex
100
AcDb2dVertex
 10
22.89301911143122
 20
-117.5570707949267
 30
0.0
  0
VERTEX
  5
5E1
330
5DF
100
AcDbEntity
  8
BEMA_UNG
 62
     7
100
AcDbVertex
100
AcDb2dVertex
 10
22.89301911143122
 20
-117.6587011787866
 30
0.0
  0
SEQEND
  5
5E2
330
5DF
100
AcDbEntity
  8
BEMA_UNG
  0
POLYLINE
  5
5E3
330
1F
100
AcDbEntity
  8
BEMA_UNG
 62
     7
100
AcDb2dPolyline
 66
     1
 10
0.0
 20
0.0
 30
0.0
  0
VERTEX
  5
5E4
330
5E3
100
AcDbEntity
  8
BEMA_UNG
 62
     7
100
AcDbVertex
100
AcDb2dVertex
 10
22.86511381959173
 20
-117.5570707949267
 30
0.0
  0
VERTEX
  5
5E5
330
5E3
100
AcDbEntity
  8
BEMA_UNG
 62
     7
100
AcDbVertex
100
AcDb2dVertex
 10
22.86511381959173
 20
-117.870919200677
 30
0.0
  0
SEQEND
  5
5E6
330
5E3
100
AcDbEntity
  8
BEMA_UNG
  0
POLYLINE
  5
5E7
330
1F
100
AcDbEntity
  8
BEMA_UNG
 62
     7
100
AcDb2dPolyline
 66
     1
 10
0.0
 20
0.0
 30
0.0
  0
VERTEX
  5
5E8
330
5E7
100
AcDbEntity
  8
BEMA_UNG
 62
     7
100
AcDbVertex
100
AcDb2dVertex
 10
22.83720852775224
 20
-117.5570707949267
 30
0.0
  0
VERTEX
  5
5E9
330
5E7
100
AcDbEntity
  8
BEMA_UNG
 62
     7
100
AcDbVertex
100
AcDb2dVertex
 10
22.83720852775224
 20
-118.0831372225674
 30
0.0
  0
SEQEND
  5
5EA
330
5E7
100
AcDbEntity
  8
BEMA_UNG
  0
POLYLINE
  5
5EB
330
1F
100
AcDbEntity
  8
BEMA_UNG
 62
     7
100
AcDb2dPolyline
 66
     1
 10
0.0
 20
0.0
 30
0.0
  0
VERTEX
  5
5EC
330
5EB
100
AcDbEntity
  8
BEMA_UNG
 62
     7
100
AcDbVertex
100
AcDb2dVertex
 10
22.80930323591275
 20
-117.5570707949267
 30
0.0
  0
VERTEX
  5
5ED
330
5EB
100
AcDbEntity
  8
BEMA_UNG
 62
     7
100
AcDbVertex
100
AcDb2dVertex
 10
22.80930323591275
 20
-118.2953552444579
 30
0.0
  0
SEQEND
  5
5EE
330
5EB
100
AcDbEntity
  8
BEMA_UNG
  0
POLYLINE
  5
5EF
330
1F
100
AcDbEntity
  8
BEMA_UNG
 62
     7
100
AcDb2dPolyline
 66
     1
 10
0.0
 20
0.0
 30
0.0
  0
VERTEX
  5
5F0
330
5EF
100
AcDbEntity
  8
BEMA_UNG
 62
     7
100
AcDbVertex
100
AcDb2dVertex
 10
22.78139794407326
 20
-117.5570707949267
 30
0.0
  0
VERTEX
  5
5F1
330
5EF
100
AcDbEntity
  8
BEMA_UNG
 62
     7
100
AcDbVertex
100
AcDb2dVertex
 10
22.78139794407326
 20
-118.5075732663483
 30
0.0
  0
SEQEND
  5
5F2
330
5EF
100
AcDbEntity
  8
BEMA_UNG
  0
POLYLINE
  5
5F3
330
1F
100
AcDbEntity
  8
BEMA_UNG
 62
     7
100
AcDb2dPolyline
 66
     1
 10
0.0
 20
0.0
 30
0.0
  0
VERTEX
  5
5F4
330
5F3
100
AcDbEntity
  8
BEMA_UNG
 62
     7
100
AcDbVertex
100
AcDb2dVertex
 10
22.75349265223377
 20
-117.5570707949267
 30
0.0
  0
VERTEX
  5
5F5
330
5F3
100
AcDbEntity
  8
BEMA_UNG
 62
     7
100
AcDbVertex
100
AcDb2dVertex
 10
22.75349265223377
 20
-118.7197912882388
 30
0.0
  0
SEQEND
  5
5F6
330
5F3
100
AcDbEntity
  8
BEMA_UNG
  0
POLYLINE
  5
5F7
330
1F
100
AcDbEntity
  8
BEMA_UNG
 62
     7
100
AcDb2dPolyline
 66
     1
 10
0.0
 20
0.0
 30
0.0
  0
VERTEX
  5
5F8
330
5F7
100
AcDbEntity
  8
BEMA_UNG
 62
     7
100
AcDbVertex
100
AcDb2dVertex
 10
22.72524285061848
 20
-117.5570707949267
 30
0.0
  0
VERTEX
  5
5F9
330
5F7
100
AcDbEntity
  8
BEMA_UNG
 62
     7
100
AcDbVertex
100
AcDb2dVertex
 10
22.72524285061848
 20
-118.9320093101292
 30
0.0
  0
SEQEND
  5
5FA
330
5F7
100
AcDbEntity
  8
BEMA_UNG
  0
POLYLINE
  5
5FB
330
1F
100
AcDbEntity
  8
BEMA_UNG
 62
     7
100
AcDb2dPolyline
 66
     1
 10
0.0
 20
0.0
 30
0.0
  0
VERTEX
  5
5FC
330
5FB
100
AcDbEntity
  8
BEMA_UNG
 62
     7
100
AcDbVertex
100
AcDb2dVertex
 10
22.55746658980575
 20
-117.5570707949267
 30
0.0
  0
VERTEX
  5
5FD
330
5FB
100
AcDbEntity
  8
BEMA_UNG
 62
     7
100
AcDbVertex
100
AcDb2dVertex
 10
22.55746658980575
 20
-117.6587011787866
 30
0.0
  0
SEQEND
  5
5FE
330
5FB
100
AcDbEntity
  8
BEMA_UNG
  0
POLYLINE
  5
5FF
330
1F
100
AcDbEntity
  8
BEMA_UNG
 62
     7
100
AcDb2dPolyline
 66
     1
 10
0.0
 20
0.0
 30
0.0
  0
VERTEX
  5
600
330
5FF
100
AcDbEntity
  8
BEMA_UNG
 62
     7
100
AcDbVertex
100
AcDb2dVertex
 10
22.55746658980575
 20
-117.5570707949267
 30
0.0
  0
VERTEX
  5
601
330
5FF
100
AcDbEntity
  8
BEMA_UNG
 62
     7
100
AcDbVertex
100
AcDb2dVertex
 10
22.55746658980575
 20
-117.6587011787866
 30
0.0
  0
SEQEND
  5
602
330
5FF
100
AcDbEntity
  8
BEMA_UNG
  0
POLYLINE
  5
603
330
1F
100
AcDbEntity
  8
BEMA_UNG
 62
     7
100
AcDb2dPolyline
 66
     1
 10
0.0
 20
0.0
 30
0.0
  0
VERTEX
  5
604
330
603
100
AcDbEntity
  8
BEMA_UNG
 62
     7
100
AcDbVertex
100
AcDb2dVertex
 10
22.58571639142103
 20
-117.5570707949267
 30
0.0
  0
VERTEX
  5
605
330
603
100
AcDbEntity
  8
BEMA_UNG
 62
     7
100
AcDbVertex
100
AcDb2dVertex
 10
22.58571639142103
 20
-117.870919200677
 30
0.0
  0
SEQEND
  5
606
330
603
100
AcDbEntity
  8
BEMA_UNG
  0
POLYLINE
  5
607
330
1F
100
AcDbEntity
  8
BEMA_UNG
 62
     7
100
AcDb2dPolyline
 66
     1
 10
0.0
 20
0.0
 30
0.0
  0
VERTEX
  5
608
330
607
100
AcDbEntity
  8
BEMA_UNG
 62
     7
100
AcDbVertex
100
AcDb2dVertex
 10
22.61362168326052
 20
-117.5570707949267
 30
0.0
  0
VERTEX
  5
609
330
607
100
AcDbEntity
  8
BEMA_UNG
 62
     7
100
AcDbVertex
100
AcDb2dVertex
 10
22.61362168326052
 20
-118.0831372225674
 30
0.0
  0
SEQEND
  5
60A
330
607
100
AcDbEntity
  8
BEMA_UNG
  0
POLYLINE
  5
60B
330
1F
100
AcDbEntity
  8
BEMA_UNG
 62
     7
100
AcDb2dPolyline
 66
     1
 10
0.0
 20
0.0
 30
0.0
  0
VERTEX
  5
60C
330
60B
100
AcDbEntity
  8
BEMA_UNG
 62
     7
100
AcDbVertex
100
AcDb2dVertex
 10
22.64152697510001
 20
-117.5570707949267
 30
0.0
  0
VERTEX
  5
60D
330
60B
100
AcDbEntity
  8
BEMA_UNG
 62
     7
100
AcDbVertex
100
AcDb2dVertex
 10
22.64152697510001
 20
-118.2953552444579
 30
0.0
  0
SEQEND
  5
60E
330
60B
100
AcDbEntity
  8
BEMA_UNG
  0
POLYLINE
  5
60F
330
1F
100
AcDbEntity
  8
BEMA_UNG
 62
     7
100
AcDb2dPolyline
 66
     1
 10
0.0
 20
0.0
 30
0.0
  0
VERTEX
  5
610
330
60F
100
AcDbEntity
  8
BEMA_UNG
 62
     7
100
AcDbVertex
100
AcDb2dVertex
 10
22.6694322669395
 20
-117.5570707949267
 30
0.0
  0
VERTEX
  5
611
330
60F
100
AcDbEntity
  8
BEMA_UNG
 62
     7
100
AcDbVertex
100
AcDb2dVertex
 10
22.6694322669395
 20
-118.5075732663483
 30
0.0
  0
SEQEND
  5
612
330
60F
100
AcDbEntity
  8
BEMA_UNG
  0
POLYLINE
  5
613
330
1F
100
AcDbEntity
  8
BEMA_UNG
 62
     7
100
AcDb2dPolyline
 66
     1
 10
0.0
 20
0.0
 30
0.0
  0
VERTEX
  5
614
330
613
100
AcDbEntity
  8
BEMA_UNG
 62
     7
100
AcDbVertex
100
AcDb2dVertex
 10
22.69768206855479
 20
-117.5570707949267
 30
0.0
  0
VERTEX
  5
615
330
613
100
AcDbEntity
  8
BEMA_UNG
 62
     7
100
AcDbVertex
100
AcDb2dVertex
 10
22.69768206855479
 20
-118.7197912882388
 30
0.0
  0
SEQEND
  5
616
330
613
100
AcDbEntity
  8
BEMA_UNG
  0
POLYLINE
  5
617
330
1F
100
AcDbEntity
  8
BEMA_UNG
 62
     7
100
AcDb2dPolyline
 66
     1
 10
0.0
 20
0.0
 30
0.0
  0
VERTEX
  5
618
330
617
100
AcDbEntity
  8
BEMA_UNG
 62
     7
100
AcDbVertex
100
AcDb2dVertex
 10
22.72524285061848
 20
-117.5570707949267
 30
0.0
  0
VERTEX
  5
619
330
617
100
AcDbEntity
  8
BEMA_UNG
 62
     7
100
AcDbVertex
100
AcDb2dVertex
 10
22.72524285061848
 20
-118.9320093101292
 30
0.0
  0
SEQEND
  5
61A
330
617
100
AcDbEntity
  8
BEMA_UNG
  0
POLYLINE
  5
61B
330
1F
100
AcDbEntity
  8
BEMA_UNG
 62
     7
100
AcDb2dPolyline
 66
     1
 10
0.0
 20
0.0
 30
0.0
  0
VERTEX
  5
61C
330
61B
100
AcDbEntity
  8
BEMA_UNG
 62
     7
100
AcDbVertex
100
AcDb2dVertex
 10
28.58569864668711
 20
-118.9320093101292
 30
0.0
  0
VERTEX
  5
61D
330
61B
100
AcDbEntity
  8
BEMA_UNG
 62
     7
100
AcDbVertex
100
AcDb2dVertex
 10
28.58569864668711
 20
-132.6341966228702
 30
0.0
  0
SEQEND
  5
61E
330
61B
100
AcDbEntity
  8
BEMA_UNG
  0
POLYLINE
  5
61F
330
1F
100
AcDbEntity
  8
BEMA_UNG
 62
     7
100
AcDb2dPolyline
 66
     1
 10
0.0
 20
0.0
 30
0.0
  0
VERTEX
  5
620
330
61F
100
AcDbEntity
  8
BEMA_UNG
 62
     7
100
AcDbVertex
100
AcDb2dVertex
 10
42.33542830848801
 20
-117.2835300329445
 30
0.0
  0
VERTEX
  5
621
330
61F
100
AcDbEntity
  8
BEMA_UNG
 62
     7
100
AcDbVertex
100
AcDb2dVertex
 10
42.33542830848801
 20
-132.6341966228702
 30
0.0
  0
SEQEND
  5
622
330
61F
100
AcDbEntity
  8
BEMA_UNG
  0
POLYLINE
  5
623
330
1F
100
AcDbEntity
  8
BEMA_UNG
 62
     7
100
AcDb2dPolyline
 66
     1
 10
0.0
 20
0.0
 30
0.0
  0
VERTEX
  5
624
330
623
100
AcDbEntity
  8
BEMA_UNG
 62
     7
100
AcDbVertex
100
AcDb2dVertex
 10
28.58569864668711
 20
-131.5338323989773
 30
0.0
  0
VERTEX
  5
625
330
623
100
AcDbEntity
  8
BEMA_UNG
 62
     7
100
AcDbVertex
100
AcDb2dVertex
 10
42.33542830848801
 20
-131.5338323989773
 30
0.0
  0
SEQEND
  5
626
330
623
100
AcDbEntity
  8
BEMA_UNG
  0
POLYLINE
  5
627
330
1F
100
AcDbEntity
  8
BEMA_UNG
 62
     7
100
AcDb2dPolyline
 66
     1
 10
0.0
 20
0.0
 30
0.0
  0
VERTEX
  5
628
330
627
100
AcDbEntity
  8
BEMA_UNG
 62
     7
100
AcDbVertex
100
AcDb2dVertex
 10
28.58569864668711
 20
-131.5338323989773
 30
0.0
  0
VERTEX
  5
629
330
627
100
AcDbEntity
  8
BEMA_UNG
 62
     7
100
AcDbVertex
100
AcDb2dVertex
 10
29.96063716188962
 20
-131.715044541046
 30
0.0
  0
VERTEX
  5
62A
330
627
100
AcDbEntity
  8
BEMA_UNG
 62
     7
100
AcDbVertex
100
AcDb2dVertex
 10
29.96063716188962
 20
-131.3529647666843
 30
0.0
  0
VERTEX
  5
62B
330
627
100
AcDbEntity
  8
BEMA_UNG
 62
     7
100
AcDbVertex
100
AcDb2dVertex
 10
28.58569864668711
 20
-131.5338323989773
 30
0.0
  0
SEQEND
  5
62C
330
627
100
AcDbEntity
  8
BEMA_UNG
  0
POLYLINE
  5
62D
330
1F
100
AcDbEntity
  8
BEMA_UNG
 62
     7
100
AcDb2dPolyline
 66
     1
 10
0.0
 20
0.0
 30
0.0
  0
VERTEX
  5
62E
330
62D
100
AcDbEntity
  8
BEMA_UNG
 62
     7
100
AcDbVertex
100
AcDb2dVertex
 10
29.96063716188962
 20
-131.70160865979
 30
0.0
  0
VERTEX
  5
62F
330
62D
100
AcDbEntity
  8
BEMA_UNG
 62
     7
100
AcDbVertex
100
AcDb2dVertex
 10
29.85900677802975
 20
-131.70160865979
 30
0.0
  0
SEQEND
  5
630
330
62D
100
AcDbEntity
  8
BEMA_UNG
  0
POLYLINE
  5
631
330
1F
100
AcDbEntity
  8
BEMA_UNG
 62
     7
100
AcDb2dPolyline
 66
     1
 10
0.0
 20
0.0
 30
0.0
  0
VERTEX
  5
632
330
631
100
AcDbEntity
  8
BEMA_UNG
 62
     7
100
AcDbVertex
100
AcDb2dVertex
 10
29.96063716188962
 20
-131.70160865979
 30
0.0
  0
VERTEX
  5
633
330
631
100
AcDbEntity
  8
BEMA_UNG
 62
     7
100
AcDbVertex
100
AcDb2dVertex
 10
29.85900677802975
 20
-131.70160865979
 30
0.0
  0
SEQEND
  5
634
330
631
100
AcDbEntity
  8
BEMA_UNG
  0
POLYLINE
  5
635
330
1F
100
AcDbEntity
  8
BEMA_UNG
 62
     7
100
AcDb2dPolyline
 66
     1
 10
0.0
 20
0.0
 30
0.0
  0
VERTEX
  5
636
330
635
100
AcDbEntity
  8
BEMA_UNG
 62
     7
100
AcDbVertex
100
AcDb2dVertex
 10
29.96063716188962
 20
-131.6737033679505
 30
0.0
  0
VERTEX
  5
637
330
635
100
AcDbEntity
  8
BEMA_UNG
 62
     7
100
AcDbVertex
100
AcDb2dVertex
 10
29.64678875613931
 20
-131.6737033679505
 30
0.0
  0
SEQEND
  5
638
330
635
100
AcDbEntity
  8
BEMA_UNG
  0
POLYLINE
  5
639
330
1F
100
AcDbEntity
  8
BEMA_UNG
 62
     7
100
AcDb2dPolyline
 66
     1
 10
0.0
 20
0.0
 30
0.0
  0
VERTEX
  5
63A
330
639
100
AcDbEntity
  8
BEMA_UNG
 62
     7
100
AcDbVertex
100
AcDb2dVertex
 10
29.96063716188962
 20
-131.645798076111
 30
0.0
  0
VERTEX
  5
63B
330
639
100
AcDbEntity
  8
BEMA_UNG
 62
     7
100
AcDbVertex
100
AcDb2dVertex
 10
29.43457073424887
 20
-131.645798076111
 30
0.0
  0
SEQEND
  5
63C
330
639
100
AcDbEntity
  8
BEMA_UNG
  0
POLYLINE
  5
63D
330
1F
100
AcDbEntity
  8
BEMA_UNG
 62
     7
100
AcDb2dPolyline
 66
     1
 10
0.0
 20
0.0
 30
0.0
  0
VERTEX
  5
63E
330
63D
100
AcDbEntity
  8
BEMA_UNG
 62
     7
100
AcDbVertex
100
AcDb2dVertex
 10
29.96063716188962
 20
-131.6178927842715
 30
0.0
  0
VERTEX
  5
63F
330
63D
100
AcDbEntity
  8
BEMA_UNG
 62
     7
100
AcDbVertex
100
AcDb2dVertex
 10
29.22200820258263
 20
-131.6178927842715
 30
0.0
  0
SEQEND
  5
640
330
63D
100
AcDbEntity
  8
BEMA_UNG
  0
POLYLINE
  5
641
330
1F
100
AcDbEntity
  8
BEMA_UNG
 62
     7
100
AcDb2dPolyline
 66
     1
 10
0.0
 20
0.0
 30
0.0
  0
VERTEX
  5
642
330
641
100
AcDbEntity
  8
BEMA_UNG
 62
     7
100
AcDbVertex
100
AcDb2dVertex
 10
29.96063716188962
 20
-131.589987492432
 30
0.0
  0
VERTEX
  5
643
330
641
100
AcDbEntity
  8
BEMA_UNG
 62
     7
100
AcDbVertex
100
AcDb2dVertex
 10
29.01013469046799
 20
-131.589987492432
 30
0.0
  0
SEQEND
  5
644
330
641
100
AcDbEntity
  8
BEMA_UNG
  0
POLYLINE
  5
645
330
1F
100
AcDbEntity
  8
BEMA_UNG
 62
     7
100
AcDb2dPolyline
 66
     1
 10
0.0
 20
0.0
 30
0.0
  0
VERTEX
  5
646
330
645
100
AcDbEntity
  8
BEMA_UNG
 62
     7
100
AcDbVertex
100
AcDb2dVertex
 10
29.96063716188962
 20
-131.5617376908168
 30
0.0
  0
VERTEX
  5
647
330
645
100
AcDbEntity
  8
BEMA_UNG
 62
     7
100
AcDbVertex
100
AcDb2dVertex
 10
28.79757215880175
 20
-131.5617376908168
 30
0.0
  0
SEQEND
  5
648
330
645
100
AcDbEntity
  8
BEMA_UNG
  0
POLYLINE
  5
649
330
1F
100
AcDbEntity
  8
BEMA_UNG
 62
     7
100
AcDb2dPolyline
 66
     1
 10
0.0
 20
0.0
 30
0.0
  0
VERTEX
  5
64A
330
649
100
AcDbEntity
  8
BEMA_UNG
 62
     7
100
AcDbVertex
100
AcDb2dVertex
 10
29.96063716188962
 20
-131.5338323989773
 30
0.0
  0
VERTEX
  5
64B
330
649
100
AcDbEntity
  8
BEMA_UNG
 62
     7
100
AcDbVertex
100
AcDb2dVertex
 10
28.58569864668711
 20
-131.5338323989773
 30
0.0
  0
SEQEND
  5
64C
330
649
100
AcDbEntity
  8
BEMA_UNG
  0
POLYLINE
  5
64D
330
1F
100
AcDbEntity
  8
BEMA_UNG
 62
     7
100
AcDb2dPolyline
 66
     1
 10
0.0
 20
0.0
 30
0.0
  0
VERTEX
  5
64E
330
64D
100
AcDbEntity
  8
BEMA_UNG
 62
     7
100
AcDbVertex
100
AcDb2dVertex
 10
29.96063716188962
 20
-131.3664006479403
 30
0.0
  0
VERTEX
  5
64F
330
64D
100
AcDbEntity
  8
BEMA_UNG
 62
     7
100
AcDbVertex
100
AcDb2dVertex
 10
29.85900677802975
 20
-131.3664006479403
 30
0.0
  0
SEQEND
  5
650
330
64D
100
AcDbEntity
  8
BEMA_UNG
  0
POLYLINE
  5
651
330
1F
100
AcDbEntity
  8
BEMA_UNG
 62
     7
100
AcDb2dPolyline
 66
     1
 10
0.0
 20
0.0
 30
0.0
  0
VERTEX
  5
652
330
651
100
AcDbEntity
  8
BEMA_UNG
 62
     7
100
AcDbVertex
100
AcDb2dVertex
 10
29.96063716188962
 20
-131.3664006479403
 30
0.0
  0
VERTEX
  5
653
330
651
100
AcDbEntity
  8
BEMA_UNG
 62
     7
100
AcDbVertex
100
AcDb2dVertex
 10
29.85900677802975
 20
-131.3664006479403
 30
0.0
  0
SEQEND
  5
654
330
651
100
AcDbEntity
  8
BEMA_UNG
  0
POLYLINE
  5
655
330
1F
100
AcDbEntity
  8
BEMA_UNG
 62
     7
100
AcDb2dPolyline
 66
     1
 10
0.0
 20
0.0
 30
0.0
  0
VERTEX
  5
656
330
655
100
AcDbEntity
  8
BEMA_UNG
 62
     7
100
AcDbVertex
100
AcDb2dVertex
 10
29.96063716188962
 20
-131.3943059397798
 30
0.0
  0
VERTEX
  5
657
330
655
100
AcDbEntity
  8
BEMA_UNG
 62
     7
100
AcDbVertex
100
AcDb2dVertex
 10
29.64678875613931
 20
-131.3943059397798
 30
0.0
  0
SEQEND
  5
658
330
655
100
AcDbEntity
  8
BEMA_UNG
  0
POLYLINE
  5
659
330
1F
100
AcDbEntity
  8
BEMA_UNG
 62
     7
100
AcDb2dPolyline
 66
     1
 10
0.0
 20
0.0
 30
0.0
  0
VERTEX
  5
65A
330
659
100
AcDbEntity
  8
BEMA_UNG
 62
     7
100
AcDbVertex
100
AcDb2dVertex
 10
29.96063716188962
 20
-131.4222112316193
 30
0.0
  0
VERTEX
  5
65B
330
659
100
AcDbEntity
  8
BEMA_UNG
 62
     7
100
AcDbVertex
100
AcDb2dVertex
 10
29.43457073424887
 20
-131.4222112316193
 30
0.0
  0
SEQEND
  5
65C
330
659
100
AcDbEntity
  8
BEMA_UNG
  0
POLYLINE
  5
65D
330
1F
100
AcDbEntity
  8
BEMA_UNG
 62
     7
100
AcDb2dPolyline
 66
     1
 10
0.0
 20
0.0
 30
0.0
  0
VERTEX
  5
65E
330
65D
100
AcDbEntity
  8
BEMA_UNG
 62
     7
100
AcDbVertex
100
AcDb2dVertex
 10
29.96063716188962
 20
-131.4501165234588
 30
0.0
  0
VERTEX
  5
65F
330
65D
100
AcDbEntity
  8
BEMA_UNG
 62
     7
100
AcDbVertex
100
AcDb2dVertex
 10
29.22200820258263
 20
-131.4501165234588
 30
0.0
  0
SEQEND
  5
660
330
65D
100
AcDbEntity
  8
BEMA_UNG
  0
POLYLINE
  5
661
330
1F
100
AcDbEntity
  8
BEMA_UNG
 62
     7
100
AcDb2dPolyline
 66
     1
 10
0.0
 20
0.0
 30
0.0
  0
VERTEX
  5
662
330
661
100
AcDbEntity
  8
BEMA_UNG
 62
     7
100
AcDbVertex
100
AcDb2dVertex
 10
29.96063716188962
 20
-131.4783663250741
 30
0.0
  0
VERTEX
  5
663
330
661
100
AcDbEntity
  8
BEMA_UNG
 62
     7
100
AcDbVertex
100
AcDb2dVertex
 10
29.01013469046799
 20
-131.4783663250741
 30
0.0
  0
SEQEND
  5
664
330
661
100
AcDbEntity
  8
BEMA_UNG
  0
POLYLINE
  5
665
330
1F
100
AcDbEntity
  8
BEMA_UNG
 62
     7
100
AcDb2dPolyline
 66
     1
 10
0.0
 20
0.0
 30
0.0
  0
VERTEX
  5
666
330
665
100
AcDbEntity
  8
BEMA_UNG
 62
     7
100
AcDbVertex
100
AcDb2dVertex
 10
29.96063716188962
 20
-131.5062716169136
 30
0.0
  0
VERTEX
  5
667
330
665
100
AcDbEntity
  8
BEMA_UNG
 62
     7
100
AcDbVertex
100
AcDb2dVertex
 10
28.79757215880175
 20
-131.5062716169136
 30
0.0
  0
SEQEND
  5
668
330
665
100
AcDbEntity
  8
BEMA_UNG
  0
POLYLINE
  5
669
330
1F
100
AcDbEntity
  8
BEMA_UNG
 62
     7
100
AcDb2dPolyline
 66
     1
 10
0.0
 20
0.0
 30
0.0
  0
VERTEX
  5
66A
330
669
100
AcDbEntity
  8
BEMA_UNG
 62
     7
100
AcDbVertex
100
AcDb2dVertex
 10
29.96063716188962
 20
-131.5338323989773
 30
0.0
  0
VERTEX
  5
66B
330
669
100
AcDbEntity
  8
BEMA_UNG
 62
     7
100
AcDbVertex
100
AcDb2dVertex
 10
28.58569864668711
 20
-131.5338323989773
 30
0.0
  0
SEQEND
  5
66C
330
669
100
AcDbEntity
  8
BEMA_UNG
  0
POLYLINE
  5
66D
330
1F
100
AcDbEntity
  8
BEMA_UNG
 62
     7
100
AcDb2dPolyline
 66
     1
 10
0.0
 20
0.0
 30
0.0
  0
VERTEX
  5
66E
330
66D
100
AcDbEntity
  8
BEMA_UNG
 62
     7
100
AcDbVertex
100
AcDb2dVertex
 10
42.33542830848801
 20
-131.5338323989773
 30
0.0
  0
VERTEX
  5
66F
330
66D
100
AcDbEntity
  8
BEMA_UNG
 62
     7
100
AcDbVertex
100
AcDb2dVertex
 10
40.9604897932855
 20
-131.3529647666843
 30
0.0
  0
VERTEX
  5
670
330
66D
100
AcDbEntity
  8
BEMA_UNG
 62
     7
100
AcDbVertex
100
AcDb2dVertex
 10
40.9604897932855
 20
-131.715044541046
 30
0.0
  0
VERTEX
  5
671
330
66D
100
AcDbEntity
  8
BEMA_UNG
 62
     7
100
AcDbVertex
100
AcDb2dVertex
 10
42.33542830848801
 20
-131.5338323989773
 30
0.0
  0
SEQEND
  5
672
330
66D
100
AcDbEntity
  8
BEMA_UNG
  0
POLYLINE
  5
673
330
1F
100
AcDbEntity
  8
BEMA_UNG
 62
     7
100
AcDb2dPolyline
 66
     1
 10
0.0
 20
0.0
 30
0.0
  0
VERTEX
  5
674
330
673
100
AcDbEntity
  8
BEMA_UNG
 62
     7
100
AcDbVertex
100
AcDb2dVertex
 10
40.9604897932855
 20
-131.3664006479403
 30
0.0
  0
VERTEX
  5
675
330
673
100
AcDbEntity
  8
BEMA_UNG
 62
     7
100
AcDbVertex
100
AcDb2dVertex
 10
41.06212017714537
 20
-131.3664006479403
 30
0.0
  0
SEQEND
  5
676
330
673
100
AcDbEntity
  8
BEMA_UNG
  0
POLYLINE
  5
677
330
1F
100
AcDbEntity
  8
BEMA_UNG
 62
     7
100
AcDb2dPolyline
 66
     1
 10
0.0
 20
0.0
 30
0.0
  0
VERTEX
  5
678
330
677
100
AcDbEntity
  8
BEMA_UNG
 62
     7
100
AcDbVertex
100
AcDb2dVertex
 10
40.9604897932855
 20
-131.3664006479403
 30
0.0
  0
VERTEX
  5
679
330
677
100
AcDbEntity
  8
BEMA_UNG
 62
     7
100
AcDbVertex
100
AcDb2dVertex
 10
41.06212017714537
 20
-131.3664006479403
 30
0.0
  0
SEQEND
  5
67A
330
677
100
AcDbEntity
  8
BEMA_UNG
  0
POLYLINE
  5
67B
330
1F
100
AcDbEntity
  8
BEMA_UNG
 62
     7
100
AcDb2dPolyline
 66
     1
 10
0.0
 20
0.0
 30
0.0
  0
VERTEX
  5
67C
330
67B
100
AcDbEntity
  8
BEMA_UNG
 62
     7
100
AcDbVertex
100
AcDb2dVertex
 10
40.9604897932855
 20
-131.3943059397798
 30
0.0
  0
VERTEX
  5
67D
330
67B
100
AcDbEntity
  8
BEMA_UNG
 62
     7
100
AcDbVertex
100
AcDb2dVertex
 10
41.2743381990358
 20
-131.3943059397798
 30
0.0
  0
SEQEND
  5
67E
330
67B
100
AcDbEntity
  8
BEMA_UNG
  0
POLYLINE
  5
67F
330
1F
100
AcDbEntity
  8
BEMA_UNG
 62
     7
100
AcDb2dPolyline
 66
     1
 10
0.0
 20
0.0
 30
0.0
  0
VERTEX
  5
680
330
67F
100
AcDbEntity
  8
BEMA_UNG
 62
     7
100
AcDbVertex
100
AcDb2dVertex
 10
40.9604897932855
 20
-131.4222112316193
 30
0.0
  0
VERTEX
  5
681
330
67F
100
AcDbEntity
  8
BEMA_UNG
 62
     7
100
AcDbVertex
100
AcDb2dVertex
 10
41.48690073070204
 20
-131.4222112316193
 30
0.0
  0
SEQEND
  5
682
330
67F
100
AcDbEntity
  8
BEMA_UNG
  0
POLYLINE
  5
683
330
1F
100
AcDbEntity
  8
BEMA_UNG
 62
     7
100
AcDb2dPolyline
 66
     1
 10
0.0
 20
0.0
 30
0.0
  0
VERTEX
  5
684
330
683
100
AcDbEntity
  8
BEMA_UNG
 62
     7
100
AcDbVertex
100
AcDb2dVertex
 10
40.9604897932855
 20
-131.4501165234588
 30
0.0
  0
VERTEX
  5
685
330
683
100
AcDbEntity
  8
BEMA_UNG
 62
     7
100
AcDbVertex
100
AcDb2dVertex
 10
41.69911875259248
 20
-131.4501165234588
 30
0.0
  0
SEQEND
  5
686
330
683
100
AcDbEntity
  8
BEMA_UNG
  0
POLYLINE
  5
687
330
1F
100
AcDbEntity
  8
BEMA_UNG
 62
     7
100
AcDb2dPolyline
 66
     1
 10
0.0
 20
0.0
 30
0.0
  0
VERTEX
  5
688
330
687
100
AcDbEntity
  8
BEMA_UNG
 62
     7
100
AcDbVertex
100
AcDb2dVertex
 10
40.9604897932855
 20
-131.4783663250741
 30
0.0
  0
VERTEX
  5
689
330
687
100
AcDbEntity
  8
BEMA_UNG
 62
     7
100
AcDbVertex
100
AcDb2dVertex
 10
41.91099226470713
 20
-131.4783663250741
 30
0.0
  0
SEQEND
  5
68A
330
687
100
AcDbEntity
  8
BEMA_UNG
  0
POLYLINE
  5
68B
330
1F
100
AcDbEntity
  8
BEMA_UNG
 62
     7
100
AcDb2dPolyline
 66
     1
 10
0.0
 20
0.0
 30
0.0
  0
VERTEX
  5
68C
330
68B
100
AcDbEntity
  8
BEMA_UNG
 62
     7
100
AcDbVertex
100
AcDb2dVertex
 10
40.9604897932855
 20
-131.5062716169136
 30
0.0
  0
VERTEX
  5
68D
330
68B
100
AcDbEntity
  8
BEMA_UNG
 62
     7
100
AcDbVertex
100
AcDb2dVertex
 10
42.12355479637336
 20
-131.5062716169136
 30
0.0
  0
SEQEND
  5
68E
330
68B
100
AcDbEntity
  8
BEMA_UNG
  0
POLYLINE
  5
68F
330
1F
100
AcDbEntity
  8
BEMA_UNG
 62
     7
100
AcDb2dPolyline
 66
     1
 10
0.0
 20
0.0
 30
0.0
  0
VERTEX
  5
690
330
68F
100
AcDbEntity
  8
BEMA_UNG
 62
     7
100
AcDbVertex
100
AcDb2dVertex
 10
40.9604897932855
 20
-131.5338323989773
 30
0.0
  0
VERTEX
  5
691
330
68F
100
AcDbEntity
  8
BEMA_UNG
 62
     7
100
AcDbVertex
100
AcDb2dVertex
 10
42.33542830848801
 20
-131.5338323989773
 30
0.0
  0
SEQEND
  5
692
330
68F
100
AcDbEntity
  8
BEMA_UNG
  0
POLYLINE
  5
693
330
1F
100
AcDbEntity
  8
BEMA_UNG
 62
     7
100
AcDb2dPolyline
 66
     1
 10
0.0
 20
0.0
 30
0.0
  0
VERTEX
  5
694
330
693
100
AcDbEntity
  8
BEMA_UNG
 62
     7
100
AcDbVertex
100
AcDb2dVertex
 10
40.9604897932855
 20
-131.70160865979
 30
0.0
  0
VERTEX
  5
695
330
693
100
AcDbEntity
  8
BEMA_UNG
 62
     7
100
AcDbVertex
100
AcDb2dVertex
 10
41.06212017714537
 20
-131.70160865979
 30
0.0
  0
SEQEND
  5
696
330
693
100
AcDbEntity
  8
BEMA_UNG
  0
POLYLINE
  5
697
330
1F
100
AcDbEntity
  8
BEMA_UNG
 62
     7
100
AcDb2dPolyline
 66
     1
 10
0.0
 20
0.0
 30
0.0
  0
VERTEX
  5
698
330
697
100
AcDbEntity
  8
BEMA_UNG
 62
     7
100
AcDbVertex
100
AcDb2dVertex
 10
40.9604897932855
 20
-131.70160865979
 30
0.0
  0
VERTEX
  5
699
330
697
100
AcDbEntity
  8
BEMA_UNG
 62
     7
100
AcDbVertex
100
AcDb2dVertex
 10
41.06212017714537
 20
-131.70160865979
 30
0.0
  0
SEQEND
  5
69A
330
697
100
AcDbEntity
  8
BEMA_UNG
  0
POLYLINE
  5
69B
330
1F
100
AcDbEntity
  8
BEMA_UNG
 62
     7
100
AcDb2dPolyline
 66
     1
 10
0.0
 20
0.0
 30
0.0
  0
VERTEX
  5
69C
330
69B
100
AcDbEntity
  8
BEMA_UNG
 62
     7
100
AcDbVertex
100
AcDb2dVertex
 10
40.9604897932855
 20
-131.6737033679505
 30
0.0
  0
VERTEX
  5
69D
330
69B
100
AcDbEntity
  8
BEMA_UNG
 62
     7
100
AcDbVertex
100
AcDb2dVertex
 10
41.2743381990358
 20
-131.6737033679505
 30
0.0
  0
SEQEND
  5
69E
330
69B
100
AcDbEntity
  8
BEMA_UNG
  0
POLYLINE
  5
69F
330
1F
100
AcDbEntity
  8
BEMA_UNG
 62
     7
100
AcDb2dPolyline
 66
     1
 10
0.0
 20
0.0
 30
0.0
  0
VERTEX
  5
6A0
330
69F
100
AcDbEntity
  8
BEMA_UNG
 62
     7
100
AcDbVertex
100
AcDb2dVertex
 10
40.9604897932855
 20
-131.645798076111
 30
0.0
  0
VERTEX
  5
6A1
330
69F
100
AcDbEntity
  8
BEMA_UNG
 62
     7
100
AcDbVertex
100
AcDb2dVertex
 10
41.48690073070204
 20
-131.645798076111
 30
0.0
  0
SEQEND
  5
6A2
330
69F
100
AcDbEntity
  8
BEMA_UNG
  0
POLYLINE
  5
6A3
330
1F
100
AcDbEntity
  8
BEMA_UNG
 62
     7
100
AcDb2dPolyline
 66
     1
 10
0.0
 20
0.0
 30
0.0
  0
VERTEX
  5
6A4
330
6A3
100
AcDbEntity
  8
BEMA_UNG
 62
     7
100
AcDbVertex
100
AcDb2dVertex
 10
40.9604897932855
 20
-131.6178927842715
 30
0.0
  0
VERTEX
  5
6A5
330
6A3
100
AcDbEntity
  8
BEMA_UNG
 62
     7
100
AcDbVertex
100
AcDb2dVertex
 10
41.69911875259248
 20
-131.6178927842715
 30
0.0
  0
SEQEND
  5
6A6
330
6A3
100
AcDbEntity
  8
BEMA_UNG
  0
POLYLINE
  5
6A7
330
1F
100
AcDbEntity
  8
BEMA_UNG
 62
     7
100
AcDb2dPolyline
 66
     1
 10
0.0
 20
0.0
 30
0.0
  0
VERTEX
  5
6A8
330
6A7
100
AcDbEntity
  8
BEMA_UNG
 62
     7
100
AcDbVertex
100
AcDb2dVertex
 10
40.9604897932855
 20
-131.589987492432
 30
0.0
  0
VERTEX
  5
6A9
330
6A7
100
AcDbEntity
  8
BEMA_UNG
 62
     7
100
AcDbVertex
100
AcDb2dVertex
 10
41.91099226470713
 20
-131.589987492432
 30
0.0
  0
SEQEND
  5
6AA
330
6A7
100
AcDbEntity
  8
BEMA_UNG
  0
POLYLINE
  5
6AB
330
1F
100
AcDbEntity
  8
BEMA_UNG
 62
     7
100
AcDb2dPolyline
 66
     1
 10
0.0
 20
0.0
 30
0.0
  0
VERTEX
  5
6AC
330
6AB
100
AcDbEntity
  8
BEMA_UNG
 62
     7
100
AcDbVertex
100
AcDb2dVertex
 10
40.9604897932855
 20
-131.5617376908168
 30
0.0
  0
VERTEX
  5
6AD
330
6AB
100
AcDbEntity
  8
BEMA_UNG
 62
     7
100
AcDbVertex
100
AcDb2dVertex
 10
42.12355479637336
 20
-131.5617376908168
 30
0.0
  0
SEQEND
  5
6AE
330
6AB
100
AcDbEntity
  8
BEMA_UNG
  0
POLYLINE
  5
6AF
330
1F
100
AcDbEntity
  8
BEMA_UNG
 62
     7
100
AcDb2dPolyline
 66
     1
 10
0.0
 20
0.0
 30
0.0
  0
VERTEX
  5
6B0
330
6AF
100
AcDbEntity
  8
BEMA_UNG
 62
     7
100
AcDbVertex
100
AcDb2dVertex
 10
40.9604897932855
 20
-131.5338323989773
 30
0.0
  0
VERTEX
  5
6B1
330
6AF
100
AcDbEntity
  8
BEMA_UNG
 62
     7
100
AcDbVertex
100
AcDb2dVertex
 10
42.33542830848801
 20
-131.5338323989773
 30
0.0
  0
SEQEND
  5
6B2
330
6AF
100
AcDbEntity
  8
BEMA_UNG
  0
POLYLINE
  5
6B3
330
1F
100
AcDbEntity
  8
BEMA_UNG
 62
     7
100
AcDb2dPolyline
 66
     1
 10
0.0
 20
0.0
 30
0.0
  0
VERTEX
  5
6B4
330
6B3
100
AcDbEntity
  8
BEMA_UNG
 62
     7
100
AcDbVertex
100
AcDb2dVertex
 10
-8.887146431325869
 20
-42.48201721808928
 30
0.0
  0
VERTEX
  5
6B5
330
6B3
100
AcDbEntity
  8
BEMA_UNG
 62
     7
100
AcDbVertex
100
AcDb2dVertex
 10
-8.887146431325869
 20
-35.27332241444234
 30
0.0
  0
SEQEND
  5
6B6
330
6B3
100
AcDbEntity
  8
BEMA_UNG
  0
POLYLINE
  5
6B7
330
1F
100
AcDbEntity
  8
BEMA_UNG
 62
     7
100
AcDb2dPolyline
 66
     1
 10
0.0
 20
0.0
 30
0.0
  0
VERTEX
  5
6B8
330
6B7
100
AcDbEntity
  8
BEMA_UNG
 62
     7
100
AcDbVertex
100
AcDb2dVertex
 10
2.112533945182107
 20
-42.48201721808928
 30
0.0
  0
VERTEX
  5
6B9
330
6B7
100
AcDbEntity
  8
BEMA_UNG
 62
     7
100
AcDbVertex
100
AcDb2dVertex
 10
2.112533945182107
 20
-35.27332241444234
 30
0.0
  0
SEQEND
  5
6BA
330
6B7
100
AcDbEntity
  8
BEMA_UNG
  0
POLYLINE
  5
6BB
330
1F
100
AcDbEntity
  8
BEMA_UNG
 62
     7
100
AcDb2dPolyline
 66
     1
 10
0.0
 20
0.0
 30
0.0
  0
VERTEX
  5
6BC
330
6BB
100
AcDbEntity
  8
BEMA_UNG
 62
     7
100
AcDbVertex
100
AcDb2dVertex
 10
-8.887146431325869
 20
-36.37299761878371
 30
0.0
  0
VERTEX
  5
6BD
330
6BB
100
AcDbEntity
  8
BEMA_UNG
 62
     7
100
AcDbVertex
100
AcDb2dVertex
 10
2.112533945182107
 20
-36.37299761878371
 30
0.0
  0
SEQEND
  5
6BE
330
6BB
100
AcDbEntity
  8
BEMA_UNG
  0
POLYLINE
  5
6BF
330
1F
100
AcDbEntity
  8
BEMA_UNG
 62
     7
100
AcDb2dPolyline
 66
     1
 10
0.0
 20
0.0
 30
0.0
  0
VERTEX
  5
6C0
330
6BF
100
AcDbEntity
  8
BEMA_UNG
 62
     7
100
AcDbVertex
100
AcDb2dVertex
 10
-8.887146431325869
 20
-36.37299761878371
 30
0.0
  0
VERTEX
  5
6C1
330
6BF
100
AcDbEntity
  8
BEMA_UNG
 62
     7
100
AcDbVertex
100
AcDb2dVertex
 10
-7.512380171011258
 20
-36.55403750596459
 30
0.0
  0
VERTEX
  5
6C2
330
6BF
100
AcDbEntity
  8
BEMA_UNG
 62
     7
100
AcDbVertex
100
AcDb2dVertex
 10
-7.512380171011258
 20
-36.19212998649072
 30
0.0
  0
VERTEX
  5
6C3
330
6BF
100
AcDbEntity
  8
BEMA_UNG
 62
     7
100
AcDbVertex
100
AcDb2dVertex
 10
-8.887146431325869
 20
-36.37299761878371
 30
0.0
  0
SEQEND
  5
6C4
330
6BF
100
AcDbEntity
  8
BEMA_UNG
  0
POLYLINE
  5
6C5
330
1F
100
AcDbEntity
  8
BEMA_UNG
 62
     7
100
AcDb2dPolyline
 66
     1
 10
0.0
 20
0.0
 30
0.0
  0
VERTEX
  5
6C6
330
6C5
100
AcDbEntity
  8
BEMA_UNG
 62
     7
100
AcDbVertex
100
AcDb2dVertex
 10
-7.512380171011258
 20
-36.54060162470855
 30
0.0
  0
VERTEX
  5
6C7
330
6C5
100
AcDbEntity
  8
BEMA_UNG
 62
     7
100
AcDbVertex
100
AcDb2dVertex
 10
-7.614010554871128
 20
-36.54060162470855
 30
0.0
  0
SEQEND
  5
6C8
330
6C5
100
AcDbEntity
  8
BEMA_UNG
  0
POLYLINE
  5
6C9
330
1F
100
AcDbEntity
  8
BEMA_UNG
 62
     7
100
AcDb2dPolyline
 66
     1
 10
0.0
 20
0.0
 30
0.0
  0
VERTEX
  5
6CA
330
6C9
100
AcDbEntity
  8
BEMA_UNG
 62
     7
100
AcDbVertex
100
AcDb2dVertex
 10
-7.512380171011258
 20
-36.54060162470855
 30
0.0
  0
VERTEX
  5
6CB
330
6C9
100
AcDbEntity
  8
BEMA_UNG
 62
     7
100
AcDbVertex
100
AcDb2dVertex
 10
-7.614010554871128
 20
-36.54060162470855
 30
0.0
  0
SEQEND
  5
6CC
330
6C9
100
AcDbEntity
  8
BEMA_UNG
  0
POLYLINE
  5
6CD
330
1F
100
AcDbEntity
  8
BEMA_UNG
 62
     7
100
AcDb2dPolyline
 66
     1
 10
0.0
 20
0.0
 30
0.0
  0
VERTEX
  5
6CE
330
6CD
100
AcDbEntity
  8
BEMA_UNG
 62
     7
100
AcDbVertex
100
AcDb2dVertex
 10
-7.512380171011258
 20
-36.51269633286906
 30
0.0
  0
VERTEX
  5
6CF
330
6CD
100
AcDbEntity
  8
BEMA_UNG
 62
     7
100
AcDbVertex
100
AcDb2dVertex
 10
-7.826056321873669
 20
-36.51269633286906
 30
0.0
  0
SEQEND
  5
6D0
330
6CD
100
AcDbEntity
  8
BEMA_UNG
  0
POLYLINE
  5
6D1
330
1F
100
AcDbEntity
  8
BEMA_UNG
 62
     7
100
AcDb2dPolyline
 66
     1
 10
0.0
 20
0.0
 30
0.0
  0
VERTEX
  5
6D2
330
6D1
100
AcDbEntity
  8
BEMA_UNG
 62
     7
100
AcDbVertex
100
AcDb2dVertex
 10
-7.512380171011258
 20
-36.48479104102957
 30
0.0
  0
VERTEX
  5
6D3
330
6D1
100
AcDbEntity
  8
BEMA_UNG
 62
     7
100
AcDbVertex
100
AcDb2dVertex
 10
-8.03827434376411
 20
-36.48479104102957
 30
0.0
  0
SEQEND
  5
6D4
330
6D1
100
AcDbEntity
  8
BEMA_UNG
  0
POLYLINE
  5
6D5
330
1F
100
AcDbEntity
  8
BEMA_UNG
 62
     7
100
AcDb2dPolyline
 66
     1
 10
0.0
 20
0.0
 30
0.0
  0
VERTEX
  5
6D6
330
6D5
100
AcDbEntity
  8
BEMA_UNG
 62
     7
100
AcDbVertex
100
AcDb2dVertex
 10
-7.512380171011258
 20
-36.45688574919008
 30
0.0
  0
VERTEX
  5
6D7
330
6D5
100
AcDbEntity
  8
BEMA_UNG
 62
     7
100
AcDbVertex
100
AcDb2dVertex
 10
-8.250836875430346
 20
-36.45688574919008
 30
0.0
  0
SEQEND
  5
6D8
330
6D5
100
AcDbEntity
  8
BEMA_UNG
  0
POLYLINE
  5
6D9
330
1F
100
AcDbEntity
  8
BEMA_UNG
 62
     7
100
AcDb2dPolyline
 66
     1
 10
0.0
 20
0.0
 30
0.0
  0
VERTEX
  5
6DA
330
6D9
100
AcDbEntity
  8
BEMA_UNG
 62
     7
100
AcDbVertex
100
AcDb2dVertex
 10
-7.512380171011258
 20
-36.42898045735059
 30
0.0
  0
VERTEX
  5
6DB
330
6D9
100
AcDbEntity
  8
BEMA_UNG
 62
     7
100
AcDbVertex
100
AcDb2dVertex
 10
-8.462882642432888
 20
-36.42898045735059
 30
0.0
  0
SEQEND
  5
6DC
330
6D9
100
AcDbEntity
  8
BEMA_UNG
  0
POLYLINE
  5
6DD
330
1F
100
AcDbEntity
  8
BEMA_UNG
 62
     7
100
AcDb2dPolyline
 66
     1
 10
0.0
 20
0.0
 30
0.0
  0
VERTEX
  5
6DE
330
6DD
100
AcDbEntity
  8
BEMA_UNG
 62
     7
100
AcDbVertex
100
AcDb2dVertex
 10
-7.512380171011258
 20
-36.4010751655111
 30
0.0
  0
VERTEX
  5
6DF
330
6DD
100
AcDbEntity
  8
BEMA_UNG
 62
     7
100
AcDbVertex
100
AcDb2dVertex
 10
-8.674928409435429
 20
-36.4010751655111
 30
0.0
  0
SEQEND
  5
6E0
330
6DD
100
AcDbEntity
  8
BEMA_UNG
  0
POLYLINE
  5
6E1
330
1F
100
AcDbEntity
  8
BEMA_UNG
 62
     7
100
AcDb2dPolyline
 66
     1
 10
0.0
 20
0.0
 30
0.0
  0
VERTEX
  5
6E2
330
6E1
100
AcDbEntity
  8
BEMA_UNG
 62
     7
100
AcDbVertex
100
AcDb2dVertex
 10
-7.512380171011258
 20
-36.37299761878371
 30
0.0
  0
VERTEX
  5
6E3
330
6E1
100
AcDbEntity
  8
BEMA_UNG
 62
     7
100
AcDbVertex
100
AcDb2dVertex
 10
-8.887146431325869
 20
-36.37299761878371
 30
0.0
  0
SEQEND
  5
6E4
330
6E1
100
AcDbEntity
  8
BEMA_UNG
  0
POLYLINE
  5
6E5
330
1F
100
AcDbEntity
  8
BEMA_UNG
 62
     7
100
AcDb2dPolyline
 66
     1
 10
0.0
 20
0.0
 30
0.0
  0
VERTEX
  5
6E6
330
6E5
100
AcDbEntity
  8
BEMA_UNG
 62
     7
100
AcDbVertex
100
AcDb2dVertex
 10
-7.512380171011258
 20
-36.20539361285888
 30
0.0
  0
VERTEX
  5
6E7
330
6E5
100
AcDbEntity
  8
BEMA_UNG
 62
     7
100
AcDbVertex
100
AcDb2dVertex
 10
-7.614010554871128
 20
-36.20539361285888
 30
0.0
  0
SEQEND
  5
6E8
330
6E5
100
AcDbEntity
  8
BEMA_UNG
  0
POLYLINE
  5
6E9
330
1F
100
AcDbEntity
  8
BEMA_UNG
 62
     7
100
AcDb2dPolyline
 66
     1
 10
0.0
 20
0.0
 30
0.0
  0
VERTEX
  5
6EA
330
6E9
100
AcDbEntity
  8
BEMA_UNG
 62
     7
100
AcDbVertex
100
AcDb2dVertex
 10
-7.512380171011258
 20
-36.20539361285888
 30
0.0
  0
VERTEX
  5
6EB
330
6E9
100
AcDbEntity
  8
BEMA_UNG
 62
     7
100
AcDbVertex
100
AcDb2dVertex
 10
-7.614010554871128
 20
-36.20539361285888
 30
0.0
  0
SEQEND
  5
6EC
330
6E9
100
AcDbEntity
  8
BEMA_UNG
  0
POLYLINE
  5
6ED
330
1F
100
AcDbEntity
  8
BEMA_UNG
 62
     7
100
AcDb2dPolyline
 66
     1
 10
0.0
 20
0.0
 30
0.0
  0
VERTEX
  5
6EE
330
6ED
100
AcDbEntity
  8
BEMA_UNG
 62
     7
100
AcDbVertex
100
AcDb2dVertex
 10
-7.512380171011258
 20
-36.23347115958627
 30
0.0
  0
VERTEX
  5
6EF
330
6ED
100
AcDbEntity
  8
BEMA_UNG
 62
     7
100
AcDbVertex
100
AcDb2dVertex
 10
-7.826056321873669
 20
-36.23347115958627
 30
0.0
  0
SEQEND
  5
6F0
330
6ED
100
AcDbEntity
  8
BEMA_UNG
  0
POLYLINE
  5
6F1
330
1F
100
AcDbEntity
  8
BEMA_UNG
 62
     7
100
AcDb2dPolyline
 66
     1
 10
0.0
 20
0.0
 30
0.0
  0
VERTEX
  5
6F2
330
6F1
100
AcDbEntity
  8
BEMA_UNG
 62
     7
100
AcDbVertex
100
AcDb2dVertex
 10
-7.512380171011258
 20
-36.26137645142575
 30
0.0
  0
VERTEX
  5
6F3
330
6F1
100
AcDbEntity
  8
BEMA_UNG
 62
     7
100
AcDbVertex
100
AcDb2dVertex
 10
-8.03827434376411
 20
-36.26137645142575
 30
0.0
  0
SEQEND
  5
6F4
330
6F1
100
AcDbEntity
  8
BEMA_UNG
  0
POLYLINE
  5
6F5
330
1F
100
AcDbEntity
  8
BEMA_UNG
 62
     7
100
AcDb2dPolyline
 66
     1
 10
0.0
 20
0.0
 30
0.0
  0
VERTEX
  5
6F6
330
6F5
100
AcDbEntity
  8
BEMA_UNG
 62
     7
100
AcDbVertex
100
AcDb2dVertex
 10
-7.512380171011258
 20
-36.28928174326524
 30
0.0
  0
VERTEX
  5
6F7
330
6F5
100
AcDbEntity
  8
BEMA_UNG
 62
     7
100
AcDbVertex
100
AcDb2dVertex
 10
-8.250836875430346
 20
-36.28928174326524
 30
0.0
  0
SEQEND
  5
6F8
330
6F5
100
AcDbEntity
  8
BEMA_UNG
  0
POLYLINE
  5
6F9
330
1F
100
AcDbEntity
  8
BEMA_UNG
 62
     7
100
AcDb2dPolyline
 66
     1
 10
0.0
 20
0.0
 30
0.0
  0
VERTEX
  5
6FA
330
6F9
100
AcDbEntity
  8
BEMA_UNG
 62
     7
100
AcDbVertex
100
AcDb2dVertex
 10
-7.512380171011258
 20
-36.31718703510473
 30
0.0
  0
VERTEX
  5
6FB
330
6F9
100
AcDbEntity
  8
BEMA_UNG
 62
     7
100
AcDbVertex
100
AcDb2dVertex
 10
-8.462882642432888
 20
-36.31718703510473
 30
0.0
  0
SEQEND
  5
6FC
330
6F9
100
AcDbEntity
  8
BEMA_UNG
  0
POLYLINE
  5
6FD
330
1F
100
AcDbEntity
  8
BEMA_UNG
 62
     7
100
AcDb2dPolyline
 66
     1
 10
0.0
 20
0.0
 30
0.0
  0
VERTEX
  5
6FE
330
6FD
100
AcDbEntity
  8
BEMA_UNG
 62
     7
100
AcDbVertex
100
AcDb2dVertex
 10
-7.512380171011258
 20
-36.34509232694422
 30
0.0
  0
VERTEX
  5
6FF
330
6FD
100
AcDbEntity
  8
BEMA_UNG
 62
     7
100
AcDbVertex
100
AcDb2dVertex
 10
-8.674928409435429
 20
-36.34509232694422
 30
0.0
  0
SEQEND
  5
700
330
6FD
100
AcDbEntity
  8
BEMA_UNG
  0
POLYLINE
  5
701
330
1F
100
AcDbEntity
  8
BEMA_UNG
 62
     7
100
AcDb2dPolyline
 66
     1
 10
0.0
 20
0.0
 30
0.0
  0
VERTEX
  5
702
330
701
100
AcDbEntity
  8
BEMA_UNG
 62
     7
100
AcDbVertex
100
AcDb2dVertex
 10
-7.512380171011258
 20
-36.37299761878371
 30
0.0
  0
VERTEX
  5
703
330
701
100
AcDbEntity
  8
BEMA_UNG
 62
     7
100
AcDbVertex
100
AcDb2dVertex
 10
-8.887146431325869
 20
-36.37299761878371
 30
0.0
  0
SEQEND
  5
704
330
701
100
AcDbEntity
  8
BEMA_UNG
  0
POLYLINE
  5
705
330
1F
100
AcDbEntity
  8
BEMA_UNG
 62
     7
100
AcDb2dPolyline
 66
     1
 10
0.0
 20
0.0
 30
0.0
  0
VERTEX
  5
706
330
705
100
AcDbEntity
  8
BEMA_UNG
 62
     7
100
AcDbVertex
100
AcDb2dVertex
 10
2.112533945182107
 20
-36.37299761878371
 30
0.0
  0
VERTEX
  5
707
330
705
100
AcDbEntity
  8
BEMA_UNG
 62
     7
100
AcDbVertex
100
AcDb2dVertex
 10
0.7375954299795975
 20
-36.19212998649072
 30
0.0
  0
VERTEX
  5
708
330
705
100
AcDbEntity
  8
BEMA_UNG
 62
     7
100
AcDbVertex
100
AcDb2dVertex
 10
0.7375954299795975
 20
-36.55403750596459
 30
0.0
  0
VERTEX
  5
709
330
705
100
AcDbEntity
  8
BEMA_UNG
 62
     7
100
AcDbVertex
100
AcDb2dVertex
 10
2.112533945182107
 20
-36.37299761878371
 30
0.0
  0
SEQEND
  5
70A
330
705
100
AcDbEntity
  8
BEMA_UNG
  0
POLYLINE
  5
70B
330
1F
100
AcDbEntity
  8
BEMA_UNG
 62
     7
100
AcDb2dPolyline
 66
     1
 10
0.0
 20
0.0
 30
0.0
  0
VERTEX
  5
70C
330
70B
100
AcDbEntity
  8
BEMA_UNG
 62
     7
100
AcDbVertex
100
AcDb2dVertex
 10
0.7375954299795975
 20
-36.20539361285888
 30
0.0
  0
VERTEX
  5
70D
330
70B
100
AcDbEntity
  8
BEMA_UNG
 62
     7
100
AcDbVertex
100
AcDb2dVertex
 10
0.8393980687273654
 20
-36.20539361285888
 30
0.0
  0
SEQEND
  5
70E
330
70B
100
AcDbEntity
  8
BEMA_UNG
  0
POLYLINE
  5
70F
330
1F
100
AcDbEntity
  8
BEMA_UNG
 62
     7
100
AcDb2dPolyline
 66
     1
 10
0.0
 20
0.0
 30
0.0
  0
VERTEX
  5
710
330
70F
100
AcDbEntity
  8
BEMA_UNG
 62
     7
100
AcDbVertex
100
AcDb2dVertex
 10
0.7375954299795975
 20
-36.20539361285888
 30
0.0
  0
VERTEX
  5
711
330
70F
100
AcDbEntity
  8
BEMA_UNG
 62
     7
100
AcDbVertex
100
AcDb2dVertex
 10
0.8393980687273654
 20
-36.20539361285888
 30
0.0
  0
SEQEND
  5
712
330
70F
100
AcDbEntity
  8
BEMA_UNG
  0
POLYLINE
  5
713
330
1F
100
AcDbEntity
  8
BEMA_UNG
 62
     7
100
AcDb2dPolyline
 66
     1
 10
0.0
 20
0.0
 30
0.0
  0
VERTEX
  5
714
330
713
100
AcDbEntity
  8
BEMA_UNG
 62
     7
100
AcDbVertex
100
AcDb2dVertex
 10
0.7375954299795975
 20
-36.23347115958627
 30
0.0
  0
VERTEX
  5
715
330
713
100
AcDbEntity
  8
BEMA_UNG
 62
     7
100
AcDbVertex
100
AcDb2dVertex
 10
1.051616090617805
 20
-36.23347115958627
 30
0.0
  0
SEQEND
  5
716
330
713
100
AcDbEntity
  8
BEMA_UNG
  0
POLYLINE
  5
717
330
1F
100
AcDbEntity
  8
BEMA_UNG
 62
     7
100
AcDb2dPolyline
 66
     1
 10
0.0
 20
0.0
 30
0.0
  0
VERTEX
  5
718
330
717
100
AcDbEntity
  8
BEMA_UNG
 62
     7
100
AcDbVertex
100
AcDb2dVertex
 10
0.7375954299795975
 20
-36.26137645142575
 30
0.0
  0
VERTEX
  5
719
330
717
100
AcDbEntity
  8
BEMA_UNG
 62
     7
100
AcDbVertex
100
AcDb2dVertex
 10
1.263661857620347
 20
-36.26137645142575
 30
0.0
  0
SEQEND
  5
71A
330
717
100
AcDbEntity
  8
BEMA_UNG
  0
POLYLINE
  5
71B
330
1F
100
AcDbEntity
  8
BEMA_UNG
 62
     7
100
AcDb2dPolyline
 66
     1
 10
0.0
 20
0.0
 30
0.0
  0
VERTEX
  5
71C
330
71B
100
AcDbEntity
  8
BEMA_UNG
 62
     7
100
AcDbVertex
100
AcDb2dVertex
 10
0.7375954299795975
 20
-36.28928174326524
 30
0.0
  0
VERTEX
  5
71D
330
71B
100
AcDbEntity
  8
BEMA_UNG
 62
     7
100
AcDbVertex
100
AcDb2dVertex
 10
1.475879879510787
 20
-36.28928174326524
 30
0.0
  0
SEQEND
  5
71E
330
71B
100
AcDbEntity
  8
BEMA_UNG
  0
POLYLINE
  5
71F
330
1F
100
AcDbEntity
  8
BEMA_UNG
 62
     7
100
AcDb2dPolyline
 66
     1
 10
0.0
 20
0.0
 30
0.0
  0
VERTEX
  5
720
330
71F
100
AcDbEntity
  8
BEMA_UNG
 62
     7
100
AcDbVertex
100
AcDb2dVertex
 10
0.7375954299795975
 20
-36.31718703510473
 30
0.0
  0
VERTEX
  5
721
330
71F
100
AcDbEntity
  8
BEMA_UNG
 62
     7
100
AcDbVertex
100
AcDb2dVertex
 10
1.688270156289125
 20
-36.31718703510473
 30
0.0
  0
SEQEND
  5
722
330
71F
100
AcDbEntity
  8
BEMA_UNG
  0
POLYLINE
  5
723
330
1F
100
AcDbEntity
  8
BEMA_UNG
 62
     7
100
AcDb2dPolyline
 66
     1
 10
0.0
 20
0.0
 30
0.0
  0
VERTEX
  5
724
330
723
100
AcDbEntity
  8
BEMA_UNG
 62
     7
100
AcDbVertex
100
AcDb2dVertex
 10
0.7375954299795975
 20
-36.34509232694422
 30
0.0
  0
VERTEX
  5
725
330
723
100
AcDbEntity
  8
BEMA_UNG
 62
     7
100
AcDbVertex
100
AcDb2dVertex
 10
1.900488178179566
 20
-36.34509232694422
 30
0.0
  0
SEQEND
  5
726
330
723
100
AcDbEntity
  8
BEMA_UNG
  0
POLYLINE
  5
727
330
1F
100
AcDbEntity
  8
BEMA_UNG
 62
     7
100
AcDb2dPolyline
 66
     1
 10
0.0
 20
0.0
 30
0.0
  0
VERTEX
  5
728
330
727
100
AcDbEntity
  8
BEMA_UNG
 62
     7
100
AcDbVertex
100
AcDb2dVertex
 10
0.7375954299795975
 20
-36.37299761878371
 30
0.0
  0
VERTEX
  5
729
330
727
100
AcDbEntity
  8
BEMA_UNG
 62
     7
100
AcDbVertex
100
AcDb2dVertex
 10
2.112533945182107
 20
-36.37299761878371
 30
0.0
  0
SEQEND
  5
72A
330
727
100
AcDbEntity
  8
BEMA_UNG
  0
POLYLINE
  5
72B
330
1F
100
AcDbEntity
  8
BEMA_UNG
 62
     7
100
AcDb2dPolyline
 66
     1
 10
0.0
 20
0.0
 30
0.0
  0
VERTEX
  5
72C
330
72B
100
AcDbEntity
  8
BEMA_UNG
 62
     7
100
AcDbVertex
100
AcDb2dVertex
 10
0.7375954299795975
 20
-36.54060162470855
 30
0.0
  0
VERTEX
  5
72D
330
72B
100
AcDbEntity
  8
BEMA_UNG
 62
     7
100
AcDbVertex
100
AcDb2dVertex
 10
0.8393980687273654
 20
-36.54060162470855
 30
0.0
  0
SEQEND
  5
72E
330
72B
100
AcDbEntity
  8
BEMA_UNG
  0
POLYLINE
  5
72F
330
1F
100
AcDbEntity
  8
BEMA_UNG
 62
     7
100
AcDb2dPolyline
 66
     1
 10
0.0
 20
0.0
 30
0.0
  0
VERTEX
  5
730
330
72F
100
AcDbEntity
  8
BEMA_UNG
 62
     7
100
AcDbVertex
100
AcDb2dVertex
 10
0.7375954299795975
 20
-36.54060162470855
 30
0.0
  0
VERTEX
  5
731
330
72F
100
AcDbEntity
  8
BEMA_UNG
 62
     7
100
AcDbVertex
100
AcDb2dVertex
 10
0.8393980687273654
 20
-36.54060162470855
 30
0.0
  0
SEQEND
  5
732
330
72F
100
AcDbEntity
  8
BEMA_UNG
  0
POLYLINE
  5
733
330
1F
100
AcDbEntity
  8
BEMA_UNG
 62
     7
100
AcDb2dPolyline
 66
     1
 10
0.0
 20
0.0
 30
0.0
  0
VERTEX
  5
734
330
733
100
AcDbEntity
  8
BEMA_UNG
 62
     7
100
AcDbVertex
100
AcDb2dVertex
 10
0.7375954299795975
 20
-36.51269633286906
 30
0.0
  0
VERTEX
  5
735
330
733
100
AcDbEntity
  8
BEMA_UNG
 62
     7
100
AcDbVertex
100
AcDb2dVertex
 10
1.051616090617805
 20
-36.51269633286906
 30
0.0
  0
SEQEND
  5
736
330
733
100
AcDbEntity
  8
BEMA_UNG
  0
POLYLINE
  5
737
330
1F
100
AcDbEntity
  8
BEMA_UNG
 62
     7
100
AcDb2dPolyline
 66
     1
 10
0.0
 20
0.0
 30
0.0
  0
VERTEX
  5
738
330
737
100
AcDbEntity
  8
BEMA_UNG
 62
     7
100
AcDbVertex
100
AcDb2dVertex
 10
0.7375954299795975
 20
-36.48479104102957
 30
0.0
  0
VERTEX
  5
739
330
737
100
AcDbEntity
  8
BEMA_UNG
 62
     7
100
AcDbVertex
100
AcDb2dVertex
 10
1.263661857620347
 20
-36.48479104102957
 30
0.0
  0
SEQEND
  5
73A
330
737
100
AcDbEntity
  8
BEMA_UNG
  0
POLYLINE
  5
73B
330
1F
100
AcDbEntity
  8
BEMA_UNG
 62
     7
100
AcDb2dPolyline
 66
     1
 10
0.0
 20
0.0
 30
0.0
  0
VERTEX
  5
73C
330
73B
100
AcDbEntity
  8
BEMA_UNG
 62
     7
100
AcDbVertex
100
AcDb2dVertex
 10
0.7375954299795975
 20
-36.45688574919008
 30
0.0
  0
VERTEX
  5
73D
330
73B
100
AcDbEntity
  8
BEMA_UNG
 62
     7
100
AcDbVertex
100
AcDb2dVertex
 10
1.475879879510787
 20
-36.45688574919008
 30
0.0
  0
SEQEND
  5
73E
330
73B
100
AcDbEntity
  8
BEMA_UNG
  0
POLYLINE
  5
73F
330
1F
100
AcDbEntity
  8
BEMA_UNG
 62
     7
100
AcDb2dPolyline
 66
     1
 10
0.0
 20
0.0
 30
0.0
  0
VERTEX
  5
740
330
73F
100
AcDbEntity
  8
BEMA_UNG
 62
     7
100
AcDbVertex
100
AcDb2dVertex
 10
0.7375954299795975
 20
-36.42898045735059
 30
0.0
  0
VERTEX
  5
741
330
73F
100
AcDbEntity
  8
BEMA_UNG
 62
     7
100
AcDbVertex
100
AcDb2dVertex
 10
1.688270156289125
 20
-36.42898045735059
 30
0.0
  0
SEQEND
  5
742
330
73F
100
AcDbEntity
  8
BEMA_UNG
  0
POLYLINE
  5
743
330
1F
100
AcDbEntity
  8
BEMA_UNG
 62
     7
100
AcDb2dPolyline
 66
     1
 10
0.0
 20
0.0
 30
0.0
  0
VERTEX
  5
744
330
743
100
AcDbEntity
  8
BEMA_UNG
 62
     7
100
AcDbVertex
100
AcDb2dVertex
 10
0.7375954299795975
 20
-36.4010751655111
 30
0.0
  0
VERTEX
  5
745
330
743
100
AcDbEntity
  8
BEMA_UNG
 62
     7
100
AcDbVertex
100
AcDb2dVertex
 10
1.900488178179566
 20
-36.4010751655111
 30
0.0
  0
SEQEND
  5
746
330
743
100
AcDbEntity
  8
BEMA_UNG
  0
POLYLINE
  5
747
330
1F
100
AcDbEntity
  8
BEMA_UNG
 62
     7
100
AcDb2dPolyline
 66
     1
 10
0.0
 20
0.0
 30
0.0
  0
VERTEX
  5
748
330
747
100
AcDbEntity
  8
BEMA_UNG
 62
     7
100
AcDbVertex
100
AcDb2dVertex
 10
0.7375954299795975
 20
-36.37299761878371
 30
0.0
  0
VERTEX
  5
749
330
747
100
AcDbEntity
  8
BEMA_UNG
 62
     7
100
AcDbVertex
100
AcDb2dVertex
 10
2.112533945182107
 20
-36.37299761878371
 30
0.0
  0
SEQEND
  5
74A
330
747
100
AcDbEntity
  8
BEMA_UNG
  0
POLYLINE
  5
74B
330
1F
100
AcDbEntity
  8
BEMA_UNG
 62
     7
100
AcDb2dPolyline
 66
     1
 10
0.0
 20
0.0
 30
0.0
  0
VERTEX
  5
74C
330
74B
100
AcDbEntity
  8
BEMA_UNG
 62
     7
100
AcDbVertex
100
AcDb2dVertex
 10
0.5005727042318333
 20
-126.0823097067787
 30
0.0
  0
VERTEX
  5
74D
330
74B
100
AcDbEntity
  8
BEMA_UNG
 62
     7
100
AcDbVertex
100
AcDb2dVertex
 10
12.6615955349487
 20
-126.0823097067787
 30
0.0
  0
SEQEND
  5
74E
330
74B
100
AcDbEntity
  8
BEMA_UNG
  0
POLYLINE
  5
74F
330
1F
100
AcDbEntity
  8
BEMA_UNG
 62
     7
100
AcDb2dPolyline
 66
     1
 10
0.0
 20
0.0
 30
0.0
  0
VERTEX
  5
750
330
74F
100
AcDbEntity
  8
BEMA_UNG
 62
     7
100
AcDbVertex
100
AcDb2dVertex
 10
11.56157582083153
 20
-126.0823097067787
 30
0.0
  0
VERTEX
  5
751
330
74F
100
AcDbEntity
  8
BEMA_UNG
 62
     7
100
AcDbVertex
100
AcDb2dVertex
 10
11.56157582083153
 20
-118.9320093101292
 30
0.0
  0
SEQEND
  5
752
330
74F
100
AcDbEntity
  8
BEMA_UNG
  0
POLYLINE
  5
753
330
1F
100
AcDbEntity
  8
BEMA_UNG
 62
     7
100
AcDb2dPolyline
 66
     1
 10
0.0
 20
0.0
 30
0.0
  0
VERTEX
  5
754
330
753
100
AcDbEntity
  8
BEMA_UNG
 62
     7
100
AcDbVertex
100
AcDb2dVertex
 10
11.56157582083153
 20
-126.0823097067787
 30
0.0
  0
VERTEX
  5
755
330
753
100
AcDbEntity
  8
BEMA_UNG
 62
     7
100
AcDbVertex
100
AcDb2dVertex
 10
11.74244345312452
 20
-124.7070266818004
 30
0.0
  0
VERTEX
  5
756
330
753
100
AcDbEntity
  8
BEMA_UNG
 62
     7
100
AcDbVertex
100
AcDb2dVertex
 10
11.38019142387485
 20
-124.7070266818004
 30
0.0
  0
VERTEX
  5
757
330
753
100
AcDbEntity
  8
BEMA_UNG
 62
     7
100
AcDbVertex
100
AcDb2dVertex
 10
11.56157582083153
 20
-126.0823097067787
 30
0.0
  0
SEQEND
  5
758
330
753
100
AcDbEntity
  8
BEMA_UNG
  0
POLYLINE
  5
759
330
1F
100
AcDbEntity
  8
BEMA_UNG
 62
     7
100
AcDb2dPolyline
 66
     1
 10
0.0
 20
0.0
 30
0.0
  0
VERTEX
  5
75A
330
759
100
AcDbEntity
  8
BEMA_UNG
 62
     7
100
AcDbVertex
100
AcDb2dVertex
 10
11.72883531698057
 20
-124.7070266818004
 30
0.0
  0
VERTEX
  5
75B
330
759
100
AcDbEntity
  8
BEMA_UNG
 62
     7
100
AcDbVertex
100
AcDb2dVertex
 10
11.72883531698057
 20
-124.8086570656603
 30
0.0
  0
SEQEND
  5
75C
330
759
100
AcDbEntity
  8
BEMA_UNG
  0
POLYLINE
  5
75D
330
1F
100
AcDbEntity
  8
BEMA_UNG
 62
     7
100
AcDb2dPolyline
 66
     1
 10
0.0
 20
0.0
 30
0.0
  0
VERTEX
  5
75E
330
75D
100
AcDbEntity
  8
BEMA_UNG
 62
     7
100
AcDbVertex
100
AcDb2dVertex
 10
11.72883531698057
 20
-124.7070266818004
 30
0.0
  0
VERTEX
  5
75F
330
75D
100
AcDbEntity
  8
BEMA_UNG
 62
     7
100
AcDbVertex
100
AcDb2dVertex
 10
11.72883531698057
 20
-124.8086570656603
 30
0.0
  0
SEQEND
  5
760
330
75D
100
AcDbEntity
  8
BEMA_UNG
  0
POLYLINE
  5
761
330
1F
100
AcDbEntity
  8
BEMA_UNG
 62
     7
100
AcDb2dPolyline
 66
     1
 10
0.0
 20
0.0
 30
0.0
  0
VERTEX
  5
762
330
761
100
AcDbEntity
  8
BEMA_UNG
 62
     7
100
AcDbVertex
100
AcDb2dVertex
 10
11.70093002514108
 20
-124.7070266818004
 30
0.0
  0
VERTEX
  5
763
330
761
100
AcDbEntity
  8
BEMA_UNG
 62
     7
100
AcDbVertex
100
AcDb2dVertex
 10
11.70093002514108
 20
-125.0208750875507
 30
0.0
  0
SEQEND
  5
764
330
761
100
AcDbEntity
  8
BEMA_UNG
  0
POLYLINE
  5
765
330
1F
100
AcDbEntity
  8
BEMA_UNG
 62
     7
100
AcDb2dPolyline
 66
     1
 10
0.0
 20
0.0
 30
0.0
  0
VERTEX
  5
766
330
765
100
AcDbEntity
  8
BEMA_UNG
 62
     7
100
AcDbVertex
100
AcDb2dVertex
 10
11.67302473330159
 20
-124.7070266818004
 30
0.0
  0
VERTEX
  5
767
330
765
100
AcDbEntity
  8
BEMA_UNG
 62
     7
100
AcDbVertex
100
AcDb2dVertex
 10
11.67302473330159
 20
-125.2334376192169
 30
0.0
  0
SEQEND
  5
768
330
765
100
AcDbEntity
  8
BEMA_UNG
  0
POLYLINE
  5
769
330
1F
100
AcDbEntity
  8
BEMA_UNG
 62
     7
100
AcDb2dPolyline
 66
     1
 10
0.0
 20
0.0
 30
0.0
  0
VERTEX
  5
76A
330
769
100
AcDbEntity
  8
BEMA_UNG
 62
     7
100
AcDbVertex
100
AcDb2dVertex
 10
11.6451194414621
 20
-124.7070266818004
 30
0.0
  0
VERTEX
  5
76B
330
769
100
AcDbEntity
  8
BEMA_UNG
 62
     7
100
AcDbVertex
100
AcDb2dVertex
 10
11.6451194414621
 20
-125.4453111313316
 30
0.0
  0
SEQEND
  5
76C
330
769
100
AcDbEntity
  8
BEMA_UNG
  0
POLYLINE
  5
76D
330
1F
100
AcDbEntity
  8
BEMA_UNG
 62
     7
100
AcDb2dPolyline
 66
     1
 10
0.0
 20
0.0
 30
0.0
  0
VERTEX
  5
76E
330
76D
100
AcDbEntity
  8
BEMA_UNG
 62
     7
100
AcDbVertex
100
AcDb2dVertex
 10
11.61704189473471
 20
-124.7070266818004
 30
0.0
  0
VERTEX
  5
76F
330
76D
100
AcDbEntity
  8
BEMA_UNG
 62
     7
100
AcDbVertex
100
AcDb2dVertex
 10
11.61704189473471
 20
-125.657529153222
 30
0.0
  0
SEQEND
  5
770
330
76D
100
AcDbEntity
  8
BEMA_UNG
  0
POLYLINE
  5
771
330
1F
100
AcDbEntity
  8
BEMA_UNG
 62
     7
100
AcDb2dPolyline
 66
     1
 10
0.0
 20
0.0
 30
0.0
  0
VERTEX
  5
772
330
771
100
AcDbEntity
  8
BEMA_UNG
 62
     7
100
AcDbVertex
100
AcDb2dVertex
 10
11.58930885778312
 20
-124.7070266818004
 30
0.0
  0
VERTEX
  5
773
330
771
100
AcDbEntity
  8
BEMA_UNG
 62
     7
100
AcDbVertex
100
AcDb2dVertex
 10
11.58930885778312
 20
-125.8697471751125
 30
0.0
  0
SEQEND
  5
774
330
771
100
AcDbEntity
  8
BEMA_UNG
  0
POLYLINE
  5
775
330
1F
100
AcDbEntity
  8
BEMA_UNG
 62
     7
100
AcDb2dPolyline
 66
     1
 10
0.0
 20
0.0
 30
0.0
  0
VERTEX
  5
776
330
775
100
AcDbEntity
  8
BEMA_UNG
 62
     7
100
AcDbVertex
100
AcDb2dVertex
 10
11.56157582083153
 20
-124.7070266818004
 30
0.0
  0
VERTEX
  5
777
330
775
100
AcDbEntity
  8
BEMA_UNG
 62
     7
100
AcDbVertex
100
AcDb2dVertex
 10
11.56157582083153
 20
-126.0823097067787
 30
0.0
  0
SEQEND
  5
778
330
775
100
AcDbEntity
  8
BEMA_UNG
  0
POLYLINE
  5
779
330
1F
100
AcDbEntity
  8
BEMA_UNG
 62
     7
100
AcDb2dPolyline
 66
     1
 10
0.0
 20
0.0
 30
0.0
  0
VERTEX
  5
77A
330
779
100
AcDbEntity
  8
BEMA_UNG
 62
     7
100
AcDbVertex
100
AcDb2dVertex
 10
11.39379956001879
 20
-124.7070266818004
 30
0.0
  0
VERTEX
  5
77B
330
779
100
AcDbEntity
  8
BEMA_UNG
 62
     7
100
AcDbVertex
100
AcDb2dVertex
 10
11.39379956001879
 20
-124.8086570656603
 30
0.0
  0
SEQEND
  5
77C
330
779
100
AcDbEntity
  8
BEMA_UNG
  0
POLYLINE
  5
77D
330
1F
100
AcDbEntity
  8
BEMA_UNG
 62
     7
100
AcDb2dPolyline
 66
     1
 10
0.0
 20
0.0
 30
0.0
  0
VERTEX
  5
77E
330
77D
100
AcDbEntity
  8
BEMA_UNG
 62
     7
100
AcDbVertex
100
AcDb2dVertex
 10
11.39379956001879
 20
-124.7070266818004
 30
0.0
  0
VERTEX
  5
77F
330
77D
100
AcDbEntity
  8
BEMA_UNG
 62
     7
100
AcDbVertex
100
AcDb2dVertex
 10
11.39379956001879
 20
-124.8086570656603
 30
0.0
  0
SEQEND
  5
780
330
77D
100
AcDbEntity
  8
BEMA_UNG
  0
POLYLINE
  5
781
330
1F
100
AcDbEntity
  8
BEMA_UNG
 62
     7
100
AcDb2dPolyline
 66
     1
 10
0.0
 20
0.0
 30
0.0
  0
VERTEX
  5
782
330
781
100
AcDbEntity
  8
BEMA_UNG
 62
     7
100
AcDbVertex
100
AcDb2dVertex
 10
11.42170485185828
 20
-124.7070266818004
 30
0.0
  0
VERTEX
  5
783
330
781
100
AcDbEntity
  8
BEMA_UNG
 62
     7
100
AcDbVertex
100
AcDb2dVertex
 10
11.42170485185828
 20
-125.0208750875507
 30
0.0
  0
SEQEND
  5
784
330
781
100
AcDbEntity
  8
BEMA_UNG
  0
POLYLINE
  5
785
330
1F
100
AcDbEntity
  8
BEMA_UNG
 62
     7
100
AcDb2dPolyline
 66
     1
 10
0.0
 20
0.0
 30
0.0
  0
VERTEX
  5
786
330
785
100
AcDbEntity
  8
BEMA_UNG
 62
     7
100
AcDbVertex
100
AcDb2dVertex
 10
11.44978239858567
 20
-124.7070266818004
 30
0.0
  0
VERTEX
  5
787
330
785
100
AcDbEntity
  8
BEMA_UNG
 62
     7
100
AcDbVertex
100
AcDb2dVertex
 10
11.44978239858567
 20
-125.2334376192169
 30
0.0
  0
SEQEND
  5
788
330
785
100
AcDbEntity
  8
BEMA_UNG
  0
POLYLINE
  5
789
330
1F
100
AcDbEntity
  8
BEMA_UNG
 62
     7
100
AcDb2dPolyline
 66
     1
 10
0.0
 20
0.0
 30
0.0
  0
VERTEX
  5
78A
330
789
100
AcDbEntity
  8
BEMA_UNG
 62
     7
100
AcDbVertex
100
AcDb2dVertex
 10
11.47768769042516
 20
-124.7070266818004
 30
0.0
  0
VERTEX
  5
78B
330
789
100
AcDbEntity
  8
BEMA_UNG
 62
     7
100
AcDbVertex
100
AcDb2dVertex
 10
11.47768769042516
 20
-125.4453111313316
 30
0.0
  0
SEQEND
  5
78C
330
789
100
AcDbEntity
  8
BEMA_UNG
  0
POLYLINE
  5
78D
330
1F
100
AcDbEntity
  8
BEMA_UNG
 62
     7
100
AcDb2dPolyline
 66
     1
 10
0.0
 20
0.0
 30
0.0
  0
VERTEX
  5
78E
330
78D
100
AcDbEntity
  8
BEMA_UNG
 62
     7
100
AcDbVertex
100
AcDb2dVertex
 10
11.50559298226465
 20
-124.7070266818004
 30
0.0
  0
VERTEX
  5
78F
330
78D
100
AcDbEntity
  8
BEMA_UNG
 62
     7
100
AcDbVertex
100
AcDb2dVertex
 10
11.50559298226465
 20
-125.657529153222
 30
0.0
  0
SEQEND
  5
790
330
78D
100
AcDbEntity
  8
BEMA_UNG
  0
POLYLINE
  5
791
330
1F
100
AcDbEntity
  8
BEMA_UNG
 62
     7
100
AcDb2dPolyline
 66
     1
 10
0.0
 20
0.0
 30
0.0
  0
VERTEX
  5
792
330
791
100
AcDbEntity
  8
BEMA_UNG
 62
     7
100
AcDbVertex
100
AcDb2dVertex
 10
11.53349827410414
 20
-124.7070266818004
 30
0.0
  0
VERTEX
  5
793
330
791
100
AcDbEntity
  8
BEMA_UNG
 62
     7
100
AcDbVertex
100
AcDb2dVertex
 10
11.53349827410414
 20
-125.8697471751125
 30
0.0
  0
SEQEND
  5
794
330
791
100
AcDbEntity
  8
BEMA_UNG
  0
POLYLINE
  5
795
330
1F
100
AcDbEntity
  8
BEMA_UNG
 62
     7
100
AcDb2dPolyline
 66
     1
 10
0.0
 20
0.0
 30
0.0
  0
VERTEX
  5
796
330
795
100
AcDbEntity
  8
BEMA_UNG
 62
     7
100
AcDbVertex
100
AcDb2dVertex
 10
11.56157582083153
 20
-124.7070266818004
 30
0.0
  0
VERTEX
  5
797
330
795
100
AcDbEntity
  8
BEMA_UNG
 62
     7
100
AcDbVertex
100
AcDb2dVertex
 10
11.56157582083153
 20
-126.0823097067787
 30
0.0
  0
SEQEND
  5
798
330
795
100
AcDbEntity
  8
BEMA_UNG
  0
POLYLINE
  5
799
330
1F
100
AcDbEntity
  8
BEMA_UNG
 62
     7
100
AcDb2dPolyline
 66
     1
 10
0.0
 20
0.0
 30
0.0
  0
VERTEX
  5
79A
330
799
100
AcDbEntity
  8
BEMA_UNG
 62
     7
100
AcDbVertex
100
AcDb2dVertex
 10
11.56157582083153
 20
-118.9320093101292
 30
0.0
  0
VERTEX
  5
79B
330
799
100
AcDbEntity
  8
BEMA_UNG
 62
     7
100
AcDbVertex
100
AcDb2dVertex
 10
11.38019142387485
 20
-120.3069478253317
 30
0.0
  0
VERTEX
  5
79C
330
799
100
AcDbEntity
  8
BEMA_UNG
 62
     7
100
AcDbVertex
100
AcDb2dVertex
 10
11.74244345312452
 20
-120.3069478253317
 30
0.0
  0
VERTEX
  5
79D
330
799
100
AcDbEntity
  8
BEMA_UNG
 62
     7
100
AcDbVertex
100
AcDb2dVertex
 10
11.56157582083153
 20
-118.9320093101292
 30
0.0
  0
SEQEND
  5
79E
330
799
100
AcDbEntity
  8
BEMA_UNG
  0
POLYLINE
  5
79F
330
1F
100
AcDbEntity
  8
BEMA_UNG
 62
     7
100
AcDb2dPolyline
 66
     1
 10
0.0
 20
0.0
 30
0.0
  0
VERTEX
  5
7A0
330
79F
100
AcDbEntity
  8
BEMA_UNG
 62
     7
100
AcDbVertex
100
AcDb2dVertex
 10
11.39379956001879
 20
-120.3069478253317
 30
0.0
  0
VERTEX
  5
7A1
330
79F
100
AcDbEntity
  8
BEMA_UNG
 62
     7
100
AcDbVertex
100
AcDb2dVertex
 10
11.39379956001879
 20
-120.2053174414718
 30
0.0
  0
SEQEND
  5
7A2
330
79F
100
AcDbEntity
  8
BEMA_UNG
  0
POLYLINE
  5
7A3
330
1F
100
AcDbEntity
  8
BEMA_UNG
 62
     7
100
AcDb2dPolyline
 66
     1
 10
0.0
 20
0.0
 30
0.0
  0
VERTEX
  5
7A4
330
7A3
100
AcDbEntity
  8
BEMA_UNG
 62
     7
100
AcDbVertex
100
AcDb2dVertex
 10
11.39379956001879
 20
-120.3069478253317
 30
0.0
  0
VERTEX
  5
7A5
330
7A3
100
AcDbEntity
  8
BEMA_UNG
 62
     7
100
AcDbVertex
100
AcDb2dVertex
 10
11.39379956001879
 20
-120.2053174414718
 30
0.0
  0
SEQEND
  5
7A6
330
7A3
100
AcDbEntity
  8
BEMA_UNG
  0
POLYLINE
  5
7A7
330
1F
100
AcDbEntity
  8
BEMA_UNG
 62
     7
100
AcDb2dPolyline
 66
     1
 10
0.0
 20
0.0
 30
0.0
  0
VERTEX
  5
7A8
330
7A7
100
AcDbEntity
  8
BEMA_UNG
 62
     7
100
AcDbVertex
100
AcDb2dVertex
 10
11.42170485185828
 20
-120.3069478253317
 30
0.0
  0
VERTEX
  5
7A9
330
7A7
100
AcDbEntity
  8
BEMA_UNG
 62
     7
100
AcDbVertex
100
AcDb2dVertex
 10
11.42170485185828
 20
-119.9930994195814
 30
0.0
  0
SEQEND
  5
7AA
330
7A7
100
AcDbEntity
  8
BEMA_UNG
  0
POLYLINE
  5
7AB
330
1F
100
AcDbEntity
  8
BEMA_UNG
 62
     7
100
AcDb2dPolyline
 66
     1
 10
0.0
 20
0.0
 30
0.0
  0
VERTEX
  5
7AC
330
7AB
100
AcDbEntity
  8
BEMA_UNG
 62
     7
100
AcDbVertex
100
AcDb2dVertex
 10
11.44978239858567
 20
-120.3069478253317
 30
0.0
  0
VERTEX
  5
7AD
330
7AB
100
AcDbEntity
  8
BEMA_UNG
 62
     7
100
AcDbVertex
100
AcDb2dVertex
 10
11.44978239858567
 20
-119.780881397691
 30
0.0
  0
SEQEND
  5
7AE
330
7AB
100
AcDbEntity
  8
BEMA_UNG
  0
POLYLINE
  5
7AF
330
1F
100
AcDbEntity
  8
BEMA_UNG
 62
     7
100
AcDb2dPolyline
 66
     1
 10
0.0
 20
0.0
 30
0.0
  0
VERTEX
  5
7B0
330
7AF
100
AcDbEntity
  8
BEMA_UNG
 62
     7
100
AcDbVertex
100
AcDb2dVertex
 10
11.47768769042516
 20
-120.3069478253317
 30
0.0
  0
VERTEX
  5
7B1
330
7AF
100
AcDbEntity
  8
BEMA_UNG
 62
     7
100
AcDbVertex
100
AcDb2dVertex
 10
11.47768769042516
 20
-119.5686633758005
 30
0.0
  0
SEQEND
  5
7B2
330
7AF
100
AcDbEntity
  8
BEMA_UNG
  0
POLYLINE
  5
7B3
330
1F
100
AcDbEntity
  8
BEMA_UNG
 62
     7
100
AcDb2dPolyline
 66
     1
 10
0.0
 20
0.0
 30
0.0
  0
VERTEX
  5
7B4
330
7B3
100
AcDbEntity
  8
BEMA_UNG
 62
     7
100
AcDbVertex
100
AcDb2dVertex
 10
11.50559298226465
 20
-120.3069478253317
 30
0.0
  0
VERTEX
  5
7B5
330
7B3
100
AcDbEntity
  8
BEMA_UNG
 62
     7
100
AcDbVertex
100
AcDb2dVertex
 10
11.50559298226465
 20
-119.3564453539101
 30
0.0
  0
SEQEND
  5
7B6
330
7B3
100
AcDbEntity
  8
BEMA_UNG
  0
POLYLINE
  5
7B7
330
1F
100
AcDbEntity
  8
BEMA_UNG
 62
     7
100
AcDb2dPolyline
 66
     1
 10
0.0
 20
0.0
 30
0.0
  0
VERTEX
  5
7B8
330
7B7
100
AcDbEntity
  8
BEMA_UNG
 62
     7
100
AcDbVertex
100
AcDb2dVertex
 10
11.53349827410414
 20
-120.3069478253317
 30
0.0
  0
VERTEX
  5
7B9
330
7B7
100
AcDbEntity
  8
BEMA_UNG
 62
     7
100
AcDbVertex
100
AcDb2dVertex
 10
11.53349827410414
 20
-119.1442273320196
 30
0.0
  0
SEQEND
  5
7BA
330
7B7
100
AcDbEntity
  8
BEMA_UNG
  0
POLYLINE
  5
7BB
330
1F
100
AcDbEntity
  8
BEMA_UNG
 62
     7
100
AcDb2dPolyline
 66
     1
 10
0.0
 20
0.0
 30
0.0
  0
VERTEX
  5
7BC
330
7BB
100
AcDbEntity
  8
BEMA_UNG
 62
     7
100
AcDbVertex
100
AcDb2dVertex
 10
11.56157582083153
 20
-120.3069478253317
 30
0.0
  0
VERTEX
  5
7BD
330
7BB
100
AcDbEntity
  8
BEMA_UNG
 62
     7
100
AcDbVertex
100
AcDb2dVertex
 10
11.56157582083153
 20
-118.9320093101292
 30
0.0
  0
SEQEND
  5
7BE
330
7BB
100
AcDbEntity
  8
BEMA_UNG
  0
POLYLINE
  5
7BF
330
1F
100
AcDbEntity
  8
BEMA_UNG
 62
     7
100
AcDb2dPolyline
 66
     1
 10
0.0
 20
0.0
 30
0.0
  0
VERTEX
  5
7C0
330
7BF
100
AcDbEntity
  8
BEMA_UNG
 62
     7
100
AcDbVertex
100
AcDb2dVertex
 10
11.72883531698057
 20
-120.3069478253317
 30
0.0
  0
VERTEX
  5
7C1
330
7BF
100
AcDbEntity
  8
BEMA_UNG
 62
     7
100
AcDbVertex
100
AcDb2dVertex
 10
11.72883531698057
 20
-120.2053174414718
 30
0.0
  0
SEQEND
  5
7C2
330
7BF
100
AcDbEntity
  8
BEMA_UNG
  0
POLYLINE
  5
7C3
330
1F
100
AcDbEntity
  8
BEMA_UNG
 62
     7
100
AcDb2dPolyline
 66
     1
 10
0.0
 20
0.0
 30
0.0
  0
VERTEX
  5
7C4
330
7C3
100
AcDbEntity
  8
BEMA_UNG
 62
     7
100
AcDbVertex
100
AcDb2dVertex
 10
11.72883531698057
 20
-120.3069478253317
 30
0.0
  0
VERTEX
  5
7C5
330
7C3
100
AcDbEntity
  8
BEMA_UNG
 62
     7
100
AcDbVertex
100
AcDb2dVertex
 10
11.72883531698057
 20
-120.2053174414718
 30
0.0
  0
SEQEND
  5
7C6
330
7C3
100
AcDbEntity
  8
BEMA_UNG
  0
POLYLINE
  5
7C7
330
1F
100
AcDbEntity
  8
BEMA_UNG
 62
     7
100
AcDb2dPolyline
 66
     1
 10
0.0
 20
0.0
 30
0.0
  0
VERTEX
  5
7C8
330
7C7
100
AcDbEntity
  8
BEMA_UNG
 62
     7
100
AcDbVertex
100
AcDb2dVertex
 10
11.70093002514108
 20
-120.3069478253317
 30
0.0
  0
VERTEX
  5
7C9
330
7C7
100
AcDbEntity
  8
BEMA_UNG
 62
     7
100
AcDbVertex
100
AcDb2dVertex
 10
11.70093002514108
 20
-119.9930994195814
 30
0.0
  0
SEQEND
  5
7CA
330
7C7
100
AcDbEntity
  8
BEMA_UNG
  0
POLYLINE
  5
7CB
330
1F
100
AcDbEntity
  8
BEMA_UNG
 62
     7
100
AcDb2dPolyline
 66
     1
 10
0.0
 20
0.0
 30
0.0
  0
VERTEX
  5
7CC
330
7CB
100
AcDbEntity
  8
BEMA_UNG
 62
     7
100
AcDbVertex
100
AcDb2dVertex
 10
11.67302473330159
 20
-120.3069478253317
 30
0.0
  0
VERTEX
  5
7CD
330
7CB
100
AcDbEntity
  8
BEMA_UNG
 62
     7
100
AcDbVertex
100
AcDb2dVertex
 10
11.67302473330159
 20
-119.780881397691
 30
0.0
  0
SEQEND
  5
7CE
330
7CB
100
AcDbEntity
  8
BEMA_UNG
  0
POLYLINE
  5
7CF
330
1F
100
AcDbEntity
  8
BEMA_UNG
 62
     7
100
AcDb2dPolyline
 66
     1
 10
0.0
 20
0.0
 30
0.0
  0
VERTEX
  5
7D0
330
7CF
100
AcDbEntity
  8
BEMA_UNG
 62
     7
100
AcDbVertex
100
AcDb2dVertex
 10
11.6451194414621
 20
-120.3069478253317
 30
0.0
  0
VERTEX
  5
7D1
330
7CF
100
AcDbEntity
  8
BEMA_UNG
 62
     7
100
AcDbVertex
100
AcDb2dVertex
 10
11.6451194414621
 20
-119.5686633758005
 30
0.0
  0
SEQEND
  5
7D2
330
7CF
100
AcDbEntity
  8
BEMA_UNG
  0
POLYLINE
  5
7D3
330
1F
100
AcDbEntity
  8
BEMA_UNG
 62
     7
100
AcDb2dPolyline
 66
     1
 10
0.0
 20
0.0
 30
0.0
  0
VERTEX
  5
7D4
330
7D3
100
AcDbEntity
  8
BEMA_UNG
 62
     7
100
AcDbVertex
100
AcDb2dVertex
 10
11.61704189473471
 20
-120.3069478253317
 30
0.0
  0
VERTEX
  5
7D5
330
7D3
100
AcDbEntity
  8
BEMA_UNG
 62
     7
100
AcDbVertex
100
AcDb2dVertex
 10
11.61704189473471
 20
-119.3564453539101
 30
0.0
  0
SEQEND
  5
7D6
330
7D3
100
AcDbEntity
  8
BEMA_UNG
  0
POLYLINE
  5
7D7
330
1F
100
AcDbEntity
  8
BEMA_UNG
 62
     7
100
AcDb2dPolyline
 66
     1
 10
0.0
 20
0.0
 30
0.0
  0
VERTEX
  5
7D8
330
7D7
100
AcDbEntity
  8
BEMA_UNG
 62
     7
100
AcDbVertex
100
AcDb2dVertex
 10
11.58930885778312
 20
-120.3069478253317
 30
0.0
  0
VERTEX
  5
7D9
330
7D7
100
AcDbEntity
  8
BEMA_UNG
 62
     7
100
AcDbVertex
100
AcDb2dVertex
 10
11.58930885778312
 20
-119.1442273320196
 30
0.0
  0
SEQEND
  5
7DA
330
7D7
100
AcDbEntity
  8
BEMA_UNG
  0
POLYLINE
  5
7DB
330
1F
100
AcDbEntity
  8
BEMA_UNG
 62
     7
100
AcDb2dPolyline
 66
     1
 10
0.0
 20
0.0
 30
0.0
  0
VERTEX
  5
7DC
330
7DB
100
AcDbEntity
  8
BEMA_UNG
 62
     7
100
AcDbVertex
100
AcDb2dVertex
 10
11.56157582083153
 20
-120.3069478253317
 30
0.0
  0
VERTEX
  5
7DD
330
7DB
100
AcDbEntity
  8
BEMA_UNG
 62
     7
100
AcDbVertex
100
AcDb2dVertex
 10
11.56157582083153
 20
-118.9320093101292
 30
0.0
  0
SEQEND
  5
7DE
330
7DB
100
AcDbEntity
  8
BEMA_UNG
  0
POLYLINE
  5
7DF
330
1F
100
AcDbEntity
  8
BEMA_UNG
 62
     7
100
AcDb2dPolyline
 66
     1
 10
0.0
 20
0.0
 30
0.0
  0
VERTEX
  5
7E0
330
7DF
100
AcDbEntity
  8
BEMA_UNG
 62
     7
100
AcDbVertex
100
AcDb2dVertex
 10
-29.92566941964631
 20
-131.5179849492906
 30
0.0
  0
VERTEX
  5
7E1
330
7DF
100
AcDbEntity
  8
BEMA_UNG
 62
     7
100
AcDbVertex
100
AcDb2dVertex
 10
-12.31553546516144
 20
-131.5179849492906
 30
0.0
  0
SEQEND
  5
7E2
330
7DF
100
AcDbEntity
  8
BEMA_UNG
  0
POLYLINE
  5
7E3
330
1F
100
AcDbEntity
  8
BEMA_UNG
 62
     7
100
AcDb2dPolyline
 66
     1
 10
0.0
 20
0.0
 30
0.0
  0
VERTEX
  5
7E4
330
7E3
100
AcDbEntity
  8
BEMA_UNG
 62
     7
100
AcDbVertex
100
AcDb2dVertex
 10
-7.208694803646935
 20
-122.3657382454896
 30
0.0
  0
VERTEX
  5
7E5
330
7E3
100
AcDbEntity
  8
BEMA_UNG
 62
     7
100
AcDbVertex
100
AcDb2dVertex
 10
-12.31553546516144
 20
-131.5179849492906
 30
0.0
  0
SEQEND
  5
7E6
330
7E3
100
AcDbEntity
  8
BEMA_UNG
  0
SPLINE
  5
7E7
330
1F
100
AcDbEntity
  8
BEMA_UNG
 62
     7
100
AcDbSpline
210
0.0
220
0.0
230
1.0
 70
    11
 71
     3
 72
    17
 73
    13
 74
     0
 42
0.0000000001
 43
0.0000000001
 40
0.0
 40
0.0
 40
0.0
 40
0.0
 40
1.0
 40
1.0
 40
1.0
 40
2.0
 40
2.0
 40
2.0
 40
3.0
 40
3.0
 40
3.0
 40
4.0
 40
4.0
 40
4.0
 40
4.0
 10
-6.796316602018921
 20
-122.3657382454896
 30
0.0
 10
-6.796316602018921
 20
-122.1380172836884
 30
0.0
 10
-6.980973841845667
 20
-121.9533600438616
 30
0.0
 10
-7.208694803646935
 20
-121.9533600438616
 30
0.0
 10
-7.4365880203361
 20
-121.9533600438616
 30
0.0
 10
-7.621245260162847
 20
-122.1380172836884
 30
0.0
 10
-7.621245260162847
 20
-122.3657382454896
 30
0.0
 10
-7.621245260162847
 20
-122.5938037170667
 30
0.0
 10
-7.4365880203361
 20
-122.7784609568934
 30
0.0
 10
-7.208694803646935
 20
-122.7784609568934
 30
0.0
 10
-6.980973841845667
 20
-122.7784609568934
 30
0.0
 10
-6.796316602018921
 20
-122.5938037170667
 30
0.0
 10
-6.796316602018921
 20
-122.3657382454896
 30
0.0
  0
SPLINE
  5
7E8
330
1F
100
AcDbEntity
  8
BEMA_UNG
 62
     7
100
AcDbSpline
210
0.0
220
0.0
230
1.0
 70
    11
 71
     3
 72
    17
 73
    13
 74
     0
 42
0.0000000001
 43
0.0000000001
 40
0.0
 40
0.0
 40
0.0
 40
0.0
 40
1.0
 40
1.0
 40
1.0
 40
2.0
 40
2.0
 40
2.0
 40
3.0
 40
3.0
 40
3.0
 40
4.0
 40
4.0
 40
4.0
 40
4.0
 10
-6.824394148746308
 20
-122.3657382454896
 30
0.0
 10
-6.824394148746308
 20
-122.1535202235992
 30
0.0
 10
-6.996304526868597
 20
-121.9816098454769
 30
0.0
 10
-7.208694803646935
 20
-121.9816098454769
 30
0.0
 10
-7.421257335313171
 20
-121.9816098454769
 30
0.0
 10
-7.593339968323358
 20
-122.1535202235992
 30
0.0
 10
-7.593339968323358
 20
-122.3657382454896
 30
0.0
 10
-7.593339968323358
 20
-122.5783007771559
 30
0.0
 10
-7.421257335313171
 20
-122.7502111552782
 30
0.0
 10
-7.208694803646935
 20
-122.7502111552782
 30
0.0
 10
-6.996304526868597
 20
-122.7502111552782
 30
0.0
 10
-6.824394148746308
 20
-122.5783007771559
 30
0.0
 10
-6.824394148746308
 20
-122.3657382454896
 30
0.0
  0
SPLINE
  5
7E9
330
1F
100
AcDbEntity
  8
BEMA_UNG
 62
     7
100
AcDbSpline
210
0.0
220
0.0
230
1.0
 70
    11
 71
     3
 72
    17
 73
    13
 74
     0
 42
0.0000000001
 43
0.0000000001
 40
0.0
 40
0.0
 40
0.0
 40
0.0
 40
1.0
 40
1.0
 40
1.0
 40
2.0
 40
2.0
 40
2.0
 40
3.0
 40
3.0
 40
3.0
 40
4.0
 40
4.0
 40
4.0
 40
4.0
 10
-6.852299440585798
 20
-122.3657382454896
 30
0.0
 10
-6.852299440585798
 20
-122.1686786537342
 30
0.0
 10
-7.011807466779424
 20
-122.0095151373164
 30
0.0
 10
-7.208694803646935
 20
-122.0095151373164
 30
0.0
 10
-7.405754395402344
 20
-122.0095151373164
 30
0.0
 10
-7.565434676483868
 20
-122.1686786537342
 30
0.0
 10
-7.565434676483868
 20
-122.3657382454896
 30
0.0
 10
-7.565434676483868
 20
-122.562797837245
 30
0.0
 10
-7.405754395402344
 20
-122.7223058634386
 30
0.0
 10
-7.208694803646935
 20
-122.7223058634386
 30
0.0
 10
-7.011807466779424
 20
-122.7223058634386
 30
0.0
 10
-6.852299440585798
 20
-122.562797837245
 30
0.0
 10
-6.852299440585798
 20
-122.3657382454896
 30
0.0
  0
SPLINE
  5
7EA
330
1F
100
AcDbEntity
  8
BEMA_UNG
 62
     7
100
AcDbSpline
210
0.0
220
0.0
230
1.0
 70
    11
 71
     3
 72
    17
 73
    13
 74
     0
 42
0.0000000001
 43
0.0000000001
 40
0.0
 40
0.0
 40
0.0
 40
0.0
 40
1.0
 40
1.0
 40
1.0
 40
2.0
 40
2.0
 40
2.0
 40
3.0
 40
3.0
 40
3.0
 40
4.0
 40
4.0
 40
4.0
 40
4.0
 10
-6.880204732425288
 20
-122.3657382454896
 30
0.0
 10
-6.880204732425288
 20
-122.1845261034208
 30
0.0
 10
-7.027138151802354
 20
-122.0374204291559
 30
0.0
 10
-7.208694803646935
 20
-122.0374204291559
 30
0.0
 10
-7.390251455491516
 20
-122.0374204291559
 30
0.0
 10
-7.537529384644378
 20
-122.1845261034208
 30
0.0
 10
-7.537529384644378
 20
-122.3657382454896
 30
0.0
 10
-7.537529384644378
 20
-122.54763940711
 30
0.0
 10
-7.390251455491516
 20
-122.6944005715992
 30
0.0
 10
-7.208694803646935
 20
-122.6944005715992
 30
0.0
 10
-7.027138151802354
 20
-122.6944005715992
 30
0.0
 10
-6.880204732425288
 20
-122.54763940711
 30
0.0
 10
-6.880204732425288
 20
-122.3657382454896
 30
0.0
  0
SPLINE
  5
7EB
330
1F
100
AcDbEntity
  8
BEMA_UNG
 62
     7
100
AcDbSpline
210
0.0
220
0.0
230
1.0
 70
    11
 71
     3
 72
    17
 73
    13
 74
     0
 42
0.0000000001
 43
0.0000000001
 40
0.0
 40
0.0
 40
0.0
 40
0.0
 40
1.0
 40
1.0
 40
1.0
 40
2.0
 40
2.0
 40
2.0
 40
3.0
 40
3.0
 40
3.0
 40
4.0
 40
4.0
 40
4.0
 40
4.0
 10
-6.908110024264777
 20
-122.3657382454896
 30
0.0
 10
-6.908110024264777
 20
-122.1996845335559
 30
0.0
 10
-7.042985601488978
 20
-122.0653257209954
 30
0.0
 10
-7.208694803646935
 20
-122.0653257209954
 30
0.0
 10
-7.374920770468586
 20
-122.0653257209954
 30
0.0
 10
-7.50945183791699
 20
-122.1996845335559
 30
0.0
 10
-7.50945183791699
 20
-122.3657382454896
 30
0.0
 10
-7.50945183791699
 20
-122.5321364671992
 30
0.0
 10
-7.374920770468586
 20
-122.6664952797597
 30
0.0
 10
-7.208694803646935
 20
-122.6664952797597
 30
0.0
 10
-7.042985601488978
 20
-122.6664952797597
 30
0.0
 10
-6.908110024264777
 20
-122.5321364671992
 30
0.0
 10
-6.908110024264777
 20
-122.3657382454896
 30
0.0
  0
SPLINE
  5
7EC
330
1F
100
AcDbEntity
  8
BEMA_UNG
 62
     7
100
AcDbSpline
210
0.0
220
0.0
230
1.0
 70
    11
 71
     3
 72
    17
 73
    13
 74
     0
 42
0.0000000001
 43
0.0000000001
 40
0.0
 40
0.0
 40
0.0
 40
0.0
 40
1.0
 40
1.0
 40
1.0
 40
2.0
 40
2.0
 40
2.0
 40
3.0
 40
3.0
 40
3.0
 40
4.0
 40
4.0
 40
4.0
 40
4.0
 10
-6.936187570992166
 20
-122.3657382454896
 30
0.0
 10
-6.936187570992166
 20
-122.2155319832425
 30
0.0
 10
-7.057971776736111
 20
-122.0932310128348
 30
0.0
 10
-7.208694803646935
 20
-122.0932310128348
 30
0.0
 10
-7.359417830557759
 20
-122.0932310128348
 30
0.0
 10
-7.4815465460775
 20
-122.2155319832425
 30
0.0
 10
-7.4815465460775
 20
-122.3657382454896
 30
0.0
 10
-7.4815465460775
 20
-122.5166335272883
 30
0.0
 10
-7.359417830557759
 20
-122.6385899879202
 30
0.0
 10
-7.208694803646935
 20
-122.6385899879202
 30
0.0
 10
-7.057971776736111
 20
-122.6385899879202
 30
0.0
 10
-6.936187570992166
 20
-122.5166335272883
 30
0.0
 10
-6.936187570992166
 20
-122.3657382454896
 30
0.0
  0
SPLINE
  5
7ED
330
1F
100
AcDbEntity
  8
BEMA_UNG
 62
     7
100
AcDbSpline
210
0.0
220
0.0
230
1.0
 70
    11
 71
     3
 72
    17
 73
    13
 74
     0
 42
0.0000000001
 43
0.0000000001
 40
0.0
 40
0.0
 40
0.0
 40
0.0
 40
1.0
 40
1.0
 40
1.0
 40
2.0
 40
2.0
 40
2.0
 40
3.0
 40
3.0
 40
3.0
 40
4.0
 40
4.0
 40
4.0
 40
4.0
 10
-6.964092862831655
 20
-122.3657382454896
 30
0.0
 10
-6.964092862831655
 20
-122.2306904133775
 30
0.0
 10
-7.073474716646939
 20
-122.1207917948986
 30
0.0
 10
-7.208694803646935
 20
-122.1207917948986
 30
0.0
 10
-7.343914890646931
 20
-122.1207917948986
 30
0.0
 10
-7.453813509125909
 20
-122.2306904133775
 30
0.0
 10
-7.453813509125909
 20
-122.3657382454896
 30
0.0
 10
-7.453813509125909
 20
-122.5011305873775
 30
0.0
 10
-7.343914890646931
 20
-122.6106846960807
 30
0.0
 10
-7.208694803646935
 20
-122.6106846960807
 30
0.0
 10
-7.073474716646939
 20
-122.6106846960807
 30
0.0
 10
-6.964092862831655
 20
-122.5011305873775
 30
0.0
 10
-6.964092862831655
 20
-122.3657382454896
 30
0.0
  0
SPLINE
  5
7EE
330
1F
100
AcDbEntity
  8
BEMA_UNG
 62
     7
100
AcDbSpline
210
0.0
220
0.0
230
1.0
 70
    11
 71
     3
 72
    17
 73
    13
 74
     0
 42
0.0000000001
 43
0.0000000001
 40
0.0
 40
0.0
 40
0.0
 40
0.0
 40
1.0
 40
1.0
 40
1.0
 40
2.0
 40
2.0
 40
2.0
 40
3.0
 40
3.0
 40
3.0
 40
4.0
 40
4.0
 40
4.0
 40
4.0
 10
-6.991825899783247
 20
-122.3657382454896
 30
0.0
 10
-6.991825899783247
 20
-122.2461933532883
 30
0.0
 10
-7.088805401669868
 20
-122.148697086738
 30
0.0
 10
-7.208694803646935
 20
-122.148697086738
 30
0.0
 10
-7.328411950736104
 20
-122.148697086738
 30
0.0
 10
-7.42590821728642
 20
-122.2461933532883
 30
0.0
 10
-7.42590821728642
 20
-122.3657382454896
 30
0.0
 10
-7.42590821728642
 20
-122.4859721572425
 30
0.0
 10
-7.328411950736104
 20
-122.5827794042412
 30
0.0
 10
-7.208694803646935
 20
-122.5827794042412
 30
0.0
 10
-7.088805401669868
 20
-122.5827794042412
 30
0.0
 10
-6.991825899783247
 20
-122.4859721572425
 30
0.0
 10
-6.991825899783247
 20
-122.3657382454896
 30
0.0
  0
SPLINE
  5
7EF
330
1F
100
AcDbEntity
  8
BEMA_UNG
 62
     7
100
AcDbSpline
210
0.0
220
0.0
230
1.0
 70
    11
 71
     3
 72
    17
 73
    13
 74
     0
 42
0.0000000001
 43
0.0000000001
 40
0.0
 40
0.0
 40
0.0
 40
0.0
 40
1.0
 40
1.0
 40
1.0
 40
2.0
 40
2.0
 40
2.0
 40
3.0
 40
3.0
 40
3.0
 40
4.0
 40
4.0
 40
4.0
 40
4.0
 10
-7.019731191622737
 20
-122.3657382454896
 30
0.0
 10
-7.019731191622737
 20
-122.2616962931992
 30
0.0
 10
-7.104480596468594
 20
-122.1769468883533
 30
0.0
 10
-7.208694803646935
 20
-122.1769468883533
 30
0.0
 10
-7.313253520601072
 20
-122.1769468883533
 30
0.0
 10
-7.397830670559031
 20
-122.2616962931992
 30
0.0
 10
-7.397830670559031
 20
-122.3657382454896
 30
0.0
 10
-7.397830670559031
 20
-122.4701247075559
 30
0.0
 10
-7.313253520601072
 20
-122.5548741124017
 30
0.0
 10
-7.208694803646935
 20
-122.5548741124017
 30
0.0
 10
-7.104480596468594
 20
-122.5548741124017
 30
0.0
 10
-7.019731191622737
 20
-122.4701247075559
 30
0.0
 10
-7.019731191622737
 20
-122.3657382454896
 30
0.0
  0
SPLINE
  5
7F0
330
1F
100
AcDbEntity
  8
BEMA_UNG
 62
     7
100
AcDbSpline
210
0.0
220
0.0
230
1.0
 70
    11
 71
     3
 72
    17
 73
    13
 74
     0
 42
0.0000000001
 43
0.0000000001
 40
0.0
 40
0.0
 40
0.0
 40
0.0
 40
1.0
 40
1.0
 40
1.0
 40
2.0
 40
2.0
 40
2.0
 40
3.0
 40
3.0
 40
3.0
 40
4.0
 40
4.0
 40
4.0
 40
4.0
 10
-7.047808738350124
 20
-122.3657382454896
 30
0.0
 10
-7.047808738350124
 20
-122.27719923311
 30
0.0
 10
-7.119983536379421
 20
-122.2048521801928
 30
0.0
 10
-7.208694803646935
 20
-122.2048521801928
 30
0.0
 10
-7.297578325802347
 20
-122.2048521801928
 30
0.0
 10
-7.369925378719542
 20
-122.27719923311
 30
0.0
 10
-7.369925378719542
 20
-122.3657382454896
 30
0.0
 10
-7.369925378719542
 20
-122.4549662774208
 30
0.0
 10
-7.297578325802347
 20
-122.5269688205622
 30
0.0
 10
-7.208694803646935
 20
-122.5269688205622
 30
0.0
 10
-7.119983536379421
 20
-122.5269688205622
 30
0.0
 10
-7.047808738350124
 20
-122.4549662774208
 30
0.0
 10
-7.047808738350124
 20
-122.3657382454896
 30
0.0
  0
SPLINE
  5
7F1
330
1F
100
AcDbEntity
  8
BEMA_UNG
 62
     7
100
AcDbSpline
210
0.0
220
0.0
230
1.0
 70
    11
 71
     3
 72
    17
 73
    13
 74
     0
 42
0.0000000001
 43
0.0000000001
 40
0.0
 40
0.0
 40
0.0
 40
0.0
 40
1.0
 40
1.0
 40
1.0
 40
2.0
 40
2.0
 40
2.0
 40
3.0
 40
3.0
 40
3.0
 40
4.0
 40
4.0
 40
4.0
 40
4.0
 10
-7.075714030189614
 20
-122.3657382454896
 30
0.0
 10
-7.075714030189614
 20
-122.292357663245
 30
0.0
 10
-7.135141966514453
 20
-122.2327574720323
 30
0.0
 10
-7.208694803646935
 20
-122.2327574720323
 30
0.0
 10
-7.282247640779417
 20
-122.2327574720323
 30
0.0
 10
-7.342020086880052
 20
-122.292357663245
 30
0.0
 10
-7.342020086880052
 20
-122.3657382454896
 30
0.0
 10
-7.342020086880052
 20
-122.43946333751
 30
0.0
 10
-7.282247640779417
 20
-122.4990635287227
 30
0.0
 10
-7.208694803646935
 20
-122.4990635287227
 30
0.0
 10
-7.135141966514453
 20
-122.4990635287227
 30
0.0
 10
-7.075714030189614
 20
-122.43946333751
 30
0.0
 10
-7.075714030189614
 20
-122.3657382454896
 30
0.0
  0
SPLINE
  5
7F2
330
1F
100
AcDbEntity
  8
BEMA_UNG
 62
     7
100
AcDbSpline
210
0.0
220
0.0
230
1.0
 70
    11
 71
     3
 72
    17
 73
    13
 74
     0
 42
0.0000000001
 43
0.0000000001
 40
0.0
 40
0.0
 40
0.0
 40
0.0
 40
1.0
 40
1.0
 40
1.0
 40
2.0
 40
2.0
 40
2.0
 40
3.0
 40
3.0
 40
3.0
 40
4.0
 40
4.0
 40
4.0
 40
4.0
 10
-7.103619322029104
 20
-122.3657382454896
 30
0.0
 10
-7.103619322029104
 20
-122.3078606031559
 30
0.0
 10
-7.15064490642528
 20
-122.2606627638718
 30
0.0
 10
-7.208694803646935
 20
-122.2606627638718
 30
0.0
 10
-7.26674470086859
 20
-122.2606627638718
 30
0.0
 10
-7.314114795040562
 20
-122.3078606031559
 30
0.0
 10
-7.314114795040562
 20
-122.3657382454896
 30
0.0
 10
-7.314114795040562
 20
-122.4239603975992
 30
0.0
 10
-7.26674470086859
 20
-122.4711582368832
 30
0.0
 10
-7.208694803646935
 20
-122.4711582368832
 30
0.0
 10
-7.15064490642528
 20
-122.4711582368832
 30
0.0
 10
-7.103619322029104
 20
-122.4239603975992
 30
0.0
 10
-7.103619322029104
 20
-122.3657382454896
 30
0.0
  0
SPLINE
  5
7F3
330
1F
100
AcDbEntity
  8
BEMA_UNG
 62
     7
100
AcDbSpline
210
0.0
220
0.0
230
1.0
 70
    11
 71
     3
 72
    17
 73
    13
 74
     0
 42
0.0000000001
 43
0.0000000001
 40
0.0
 40
0.0
 40
0.0
 40
0.0
 40
1.0
 40
1.0
 40
1.0
 40
2.0
 40
2.0
 40
2.0
 40
3.0
 40
3.0
 40
3.0
 40
4.0
 40
4.0
 40
4.0
 40
4.0
 10
-7.131524613868593
 20
-122.3657382454896
 30
0.0
 10
-7.131524613868593
 20
-122.3233635430667
 30
0.0
 10
-7.166147846336108
 20
-122.2889125654871
 30
0.0
 10
-7.208694803646935
 20
-122.2889125654871
 30
0.0
 10
-7.25141401584566
 20
-122.2889125654871
 30
0.0
 10
-7.286209503201073
 20
-122.3233635430667
 30
0.0
 10
-7.286209503201073
 20
-122.3657382454896
 30
0.0
 10
-7.286209503201073
 20
-122.4084574576883
 30
0.0
 10
-7.25141401584566
 20
-122.442908435268
 30
0.0
 10
-7.208694803646935
 20
-122.442908435268
 30
0.0
 10
-7.166147846336108
 20
-122.442908435268
 30
0.0
 10
-7.131524613868593
 20
-122.4084574576883
 30
0.0
 10
-7.131524613868593
 20
-122.3657382454896
 30
0.0
  0
SPLINE
  5
7F4
330
1F
100
AcDbEntity
  8
BEMA_UNG
 62
     7
100
AcDbSpline
210
0.0
220
0.0
230
1.0
 70
    11
 71
     3
 72
    17
 73
    13
 74
     0
 42
0.0000000001
 43
0.0000000001
 40
0.0
 40
0.0
 40
0.0
 40
0.0
 40
1.0
 40
1.0
 40
1.0
 40
2.0
 40
2.0
 40
2.0
 40
3.0
 40
3.0
 40
3.0
 40
4.0
 40
4.0
 40
4.0
 40
4.0
 10
-7.159429905708083
 20
-122.3657382454896
 30
0.0
 10
-7.159429905708083
 20
-122.3385219732017
 30
0.0
 10
-7.181650786246935
 20
-122.3168178573266
 30
0.0
 10
-7.208694803646935
 20
-122.3168178573266
 30
0.0
 10
-7.235911075934832
 20
-122.3168178573266
 30
0.0
 10
-7.258304211361583
 20
-122.3385219732017
 30
0.0
 10
-7.258304211361583
 20
-122.3657382454896
 30
0.0
 10
-7.258304211361583
 20
-122.3932990275533
 30
0.0
 10
-7.235911075934832
 20
-122.4150031434285
 30
0.0
 10
-7.208694803646935
 20
-122.4150031434285
 30
0.0
 10
-7.181650786246935
 20
-122.4150031434285
 30
0.0
 10
-7.159429905708083
 20
-122.3932990275533
 30
0.0
 10
-7.159429905708083
 20
-122.3657382454896
 30
0.0
  0
SPLINE
  5
7F5
330
1F
100
AcDbEntity
  8
BEMA_UNG
 62
     7
100
AcDbSpline
210
0.0
220
0.0
230
1.0
 70
    11
 71
     3
 72
    17
 73
    13
 74
     0
 42
0.0000000001
 43
0.0000000001
 40
0.0
 40
0.0
 40
0.0
 40
0.0
 40
1.0
 40
1.0
 40
1.0
 40
2.0
 40
2.0
 40
2.0
 40
3.0
 40
3.0
 40
3.0
 40
4.0
 40
4.0
 40
4.0
 40
4.0
 10
-7.187335197547573
 20
-122.3657382454896
 30
0.0
 10
-7.187335197547573
 20
-122.3540249131126
 30
0.0
 10
-7.196981471269865
 20
-122.3447231491661
 30
0.0
 10
-7.208694803646935
 20
-122.3447231491661
 30
0.0
 10
-7.220580390911903
 20
-122.3447231491661
 30
0.0
 10
-7.230226664634196
 20
-122.3540249131126
 30
0.0
 10
-7.230226664634196
 20
-122.3657382454896
 30
0.0
 10
-7.230226664634196
 20
-122.3777960876425
 30
0.0
 10
-7.220580390911903
 20
-122.387097851589
 30
0.0
 10
-7.208694803646935
 20
-122.387097851589
 30
0.0
 10
-7.196981471269865
 20
-122.387097851589
 30
0.0
 10
-7.187335197547573
 20
-122.3777960876425
 30
0.0
 10
-7.187335197547573
 20
-122.3657382454896
 30
0.0
  0
MTEXT
  5
7F7
330
1F
100
AcDbEntity
  8
TEXT
 62
     7
100
AcDbMText
 10
10.89357136556276
 20
-118.5230762062591
 30
0.0
 40
2.398890470823883
 41
0.0
 71
     7
 72
     1
  1
\fINDEX Univers 45 Light|b0|i0|c0|p34;\W1;10
 11
-4.371139000186241E-8
 21
0.999999999999999
 31
0.0
  0
MTEXT
  5
7F8
330
1F
100
AcDbEntity
  8
TEXT
 62
     7
100
AcDbMText
 10
16.57729364664795
 20
-116.0953158162235
 30
0.0
 40
2.398890470823883
 41
0.0
 71
     7
 72
     1
  1
\fINDEX Univers 45 Light|b0|i0|c0|p34;\W1;17
 11
-4.371139000186241E-8
 21
0.999999999999999
 31
0.0
  0
MTEXT
  5
7F9
330
1F
100
AcDbEntity
  8
TEXT
 62
     7
100
AcDbMText
 10
16.44121228520847
 20
-80.7506798781914
 30
0.0
 40
2.398890470823883
 41
0.0
 71
     7
 72
     1
  1
\fINDEX Univers 45 Light|b0|i0|c0|p34;\W1;120
 11
-4.371139000186241E-8
 21
0.999999999999999
 31
0.0
  0
MTEXT
  5
7FA
330
1F
100
AcDbEntity
  8
TEXT
 62
     7
100
AcDbMText
 10
21.82917292377265
 20
-80.62424479047421
 30
0.0
 40
2.398890470823883
 41
0.0
 71
     7
 72
     1
  1
\fINDEX Univers 45 Light|b0|i0|c0|p34;\W1;140
 11
-4.371139000186241E-8
 21
0.999999999999999
 31
0.0
  0
MTEXT
  5
7FB
330
1F
100
AcDbEntity
  8
TEXT
 62
     7
100
AcDbMText
 10
32.65263654996088
 20
-130.6787591354512
 30
0.0
 40
2.398890470823883
 41
0.0
 71
     7
 72
     1
  1
\fINDEX Univers 45 Light|b0|i0|c0|p34;\W1;\U+00F825
  0
MTEXT
  5
7FC
330
1F
100
AcDbEntity
  8
TEXT
 62
     7
100
AcDbMText
 10
-5.866312462257163
 20
-35.55271984261303
 30
0.0
 40
2.398890470823883
 41
0.0
 71
     7
 72
     1
  1
\fINDEX Univers 45 Light|b0|i0|c0|p34;\W1;\U+00F820
  0
MTEXT
  5
7FD
330
1F
100
AcDbEntity
  8
TEXT
 62
     7
100
AcDbMText
 10
10.82587519461881
 20
-124.6601733522921
 30
0.0
 40
2.398890470823883
 41
0.0
 71
     7
 72
     1
  1
\fINDEX Univers 45 Light|b0|i0|c0|p34;\W1;13
 11
-4.371139000186241E-8
 21
0.999999999999999
 31
0.0
  0
MTEXT
  5
7FE
330
1F
100
AcDbEntity
  8
TEXT
 62
     7
100
AcDbMText
 10
-29.99302108081446
 20
-135.3503116952472
 30
0.0
 40
2.398890470823883
 41
0.0
 71
     7
 72
     1
  1
\fINDEX Univers 45 Light|b0|i0|c0|p34;\W1;HSK 25 C
  0
MTEXT
  5
7FF
330
1F
100
AcDbEntity
  8
TEXT
 62
     7
100
AcDbMText
 10
-29.92566941964631
 20
-130.7104540348244
 30
0.0
 40
2.398890470823883
 41
0.0
 71
     7
 72
     1
  1
\fINDEX Univers 45 Light|b0|i0|c0|p34;\W1;DIN 69893
  0
ENDSEC
  0
SECTION
  2
OBJECTS
  0
DICTIONARY
  5
C
330
0
100
AcDbDictionary
  3
ACAD_GROUP
350
D
  3
ACAD_LAYOUT
350
1A
  3
ACAD_MLINESTYLE
350
17
  3
ACAD_PLOTSETTINGS
350
19
  3
ACAD_TABLESTYLE
350
820
  3
ACAD_VISUALSTYLE
350
2A
  3
ACDBHEADERROUNDTRIPXREC
350
800
  0
DICTIONARY
  5
D
102
{ACAD_REACTORS
330
C
102
}
330
C
100
AcDbDictionary
  0
DICTIONARY
  5
1A
102
{ACAD_REACTORS
330
C
102
}
330
C
100
AcDbDictionary
  0
DICTIONARY
  5
17
102
{ACAD_REACTORS
330
C
102
}
330
C
100
AcDbDictionary
  3
STANDARD
350
18
  0
DICTIONARY
  5
19
102
{ACAD_REACTORS
330
C
102
}
330
C
100
AcDbDictionary
  0
DICTIONARY
  5
820
102
{ACAD_REACTORS
330
C
102
}
330
C
100
AcDbDictionary
  0
DICTIONARY
  5
2A
102
{ACAD_REACTORS
330
C
102
}
330
C
100
AcDbDictionary
  3
2DWIREFRAME
350
2F
  3
3D_HIDDEN
350
31
  3
3DWIREFRAME
350
30
  3
BASIC
350
32
  3
BRIGHTEN
350
36
  3
COLORCHANGE
350
3A
  3
CONCEPTUAL
350
34
  3
DIM
350
35
  3
FACEPATTERN
350
39
  3
FLAT
350
2B
  3
FLATWITHEDGES
350
2C
  3
GOURAUD
350
2D
  3
GOURAUDWITHEDGES
350
2E
  3
LINEPATTERN
350
38
  3
REALISTIC
350
33
  3
THICKEN
350
37
  0
DICTIONARY
  5
800
102
{ACAD_REACTORS
330
C
102
}
330
C
100
AcDbDictionary
  3
CEPSNTYPE
350
809
  3
DIMSTYLEDATA
350
81F
  3
FINGERPRINTGUID
350
80A
  3
HYPERLINKBASE
350
803
  3
INSUNITS
350
808
  3
LAYOUTDICT
350
805
  3
LWETCUNION
350
807
  3
PLOTSETDICT
350
806
  3
PSVPSCALE
350
80C
  3
PUCSBASE
350
80F
  3
PUCSORGBACK
350
815
  3
PUCSORGBOTTOM
350
811
  3
PUCSORGFRONT
350
814
  3
PUCSORGLEFT
350
812
  3
PUCSORGRIGHT
350
813
  3
PUCSORGTOP
350
810
  3
PUCSORTHOREF
350
80D
  3
PUCSORTHOVIEW
350
80E
  3
STYLESHEET
350
804
  3
TSTACKALIGN
350
801
  3
TSTACKSIZE
350
802
  3
UCSBASE
350
818
  3
UCSORGBACK
350
81E
  3
UCSORGBOTTOM
350
81A
  3
UCSORGFRONT
350
81D
  3
UCSORGLEFT
350
81B
  3
UCSORGRIGHT
350
81C
  3
UCSORGTOP
350
819
  3
UCSORTHOREF
350
816
  3
UCSORTHOVIEW
350
817
  3
VERSIONGUID
350
80B
  0
MLINESTYLE
  5
18
102
{ACAD_REACTORS
330
17
102
}
330
17
100
AcDbMlineStyle
  2
Standard
 70
     0
  3

 62
   256
 51
90.0
 52
90.0
 71
     2
 49
0.5
 62
   256
  6
BYLAYER
 49
-0.5
 62
   256
  6
BYLAYER
  0
VISUALSTYLE
  5
2F
102
{ACAD_REACTORS
330
2A
102
}
330
2A
100
AcDbVisualStyle
  2
2dWireframe
 70
     4
 71
     0
 72
     2
 73
     0
 90
        0
 40
-0.6
 41
-30.0
 62
     5
 63
     7
 74
     1
 91
        4
 64
     7
 65
   257
 75
     1
175
     1
 42
1.0
 92
        0
 66
   257
 43
1.0
 76
     1
 77
     6
 78
     2
 67
     7
 79
     5
170
     0
171
     0
290
     0
174
     0
 93
        1
 44
0.0
173
     0
291
     0
 45
0.0
1001
ACAD
1000
AcDbSavedByObjectVersion
1070
     0
  0
VISUALSTYLE
  5
31
102
{ACAD_REACTORS
330
2A
102
}
330
2A
100
AcDbVisualStyle
  2
3D Hidden
 70
     6
 71
     1
 72
     2
 73
     2
 90
        0
 40
-0.6
 41
-30.0
 62
     5
 63
     7
 74
     2
 91
        2
 64
     7
 65
   257
 75
     2
175
     1
 42
40.0
 92
        0
 66
   257
 43
1.0
 76
     1
 77
     6
 78
     2
 67
     7
 79
     3
170
     0
171
     0
290
     0
174
     0
 93
        1
 44
0.0
173
     0
291
     0
 45
0.0
1001
ACAD
1000
AcDbSavedByObjectVersion
1070
     0
  0
VISUALSTYLE
  5
30
102
{ACAD_REACTORS
330
2A
102
}
330
2A
100
AcDbVisualStyle
  2
3dWireframe
 70
     5
 71
     0
 72
     2
 73
     0
 90
        0
 40
-0.6
 41
-30.0
 62
     5
 63
     7
 74
     1
 91
        4
 64
     7
 65
   257
 75
     1
175
     1
 42
1.0
 92
        0
 66
   257
 43
1.0
 76
     1
 77
     6
 78
     2
 67
     7
 79
     5
170
     0
171
     0
290
     0
174
     0
 93
        1
 44
0.0
173
     0
291
     0
 45
0.0
1001
ACAD
1000
AcDbSavedByObjectVersion
1070
     0
  0
VISUALSTYLE
  5
32
102
{ACAD_REACTORS
330
2A
102
}
330
2A
100
AcDbVisualStyle
  2
Basic
 70
     7
 71
     1
 72
     0
 73
     1
 90
        0
 40
-0.6
 41
-30.0
 62
     5
 63
     7
 74
     0
 91
        4
 64
     7
 65
   257
 75
     1
175
     1
 42
1.0
 92
        8
 66
     7
 43
1.0
 76
     1
 77
     6
 78
     2
 67
     7
 79
     5
170
     0
171
     0
290
     0
174
     0
 93
        1
 44
0.0
173
     0
291
     1
 45
0.0
1001
ACAD
1000
AcDbSavedByObjectVersion
1070
     0
  0
VISUALSTYLE
  5
36
102
{ACAD_REACTORS
330
2A
102
}
330
2A
100
AcDbVisualStyle
  2
Brighten
 70
    12
 71
     2
 72
     2
 73
     0
 90
        0
 40
-0.6
 41
-30.0
 62
     5
 63
     7
 74
     1
 91
        4
 64
     7
 65
   257
 75
     1
175
     1
 42
1.0
 92
        8
 66
     7
 43
1.0
 76
     1
 77
     6
 78
     2
 67
     7
 79
     5
170
     0
171
     0
290
     0
174
     0
 93
        1
 44
50.0
173
     0
291
     1
 45
0.0
1001
ACAD
1000
AcDbSavedByObjectVersion
1070
     0
  0
VISUALSTYLE
  5
3A
102
{ACAD_REACTORS
330
2A
102
}
330
2A
100
AcDbVisualStyle
  2
ColorChange
 70
    16
 71
     2
 72
     2
 73
     3
 90
        0
 40
-0.6
 41
-30.0
 62
     5
 63
     8
 74
     1
 91
        4
 64
     7
 65
   257
 75
     1
175
     1
 42
1.0
 92
        8
 66
     8
 43
1.0
 76
     1
 77
     6
 78
     2
 67
     7
 79
     5
170
     0
171
     0
290
     0
174
     0
 93
        1
 44
0.0
173
     0
291
     1
 45
0.0
1001
ACAD
1000
AcDbSavedByObjectVersion
1070
     0
  0
VISUALSTYLE
  5
34
102
{ACAD_REACTORS
330
2A
102
}
330
2A
100
AcDbVisualStyle
  2
Conceptual
 70
     9
 71
     3
 72
     2
 73
     0
 90
        0
 40
-0.6
 41
-30.0
 62
     5
 63
     7
 74
     2
 91
        2
 64
     7
 65
   257
 75
     1
175
     1
 42
40.0
 92
        8
 66
     7
 43
1.0
 76
     1
 77
     6
 78
     2
 67
     7
 79
     3
170
     0
171
     0
290
     0
174
     0
 93
        1
 44
0.0
173
     0
291
     0
 45
0.0
1001
ACAD
1000
AcDbSavedByObjectVersion
1070
     0
  0
VISUALSTYLE
  5
35
102
{ACAD_REACTORS
330
2A
102
}
330
2A
100
AcDbVisualStyle
  2
Dim
 70
    11
 71
     2
 72
     2
 73
     0
 90
        0
 40
-0.6
 41
-30.0
 62
     5
 63
     7
 74
     1
 91
        4
 64
     7
 65
   257
 75
     1
175
     1
 42
1.0
 92
        8
 66
     7
 43
1.0
 76
     1
 77
     6
 78
     2
 67
     7
 79
     5
170
     0
171
     0
290
     0
174
     0
 93
        1
 44
-50.0
173
     0
291
     1
 45
0.0
1001
ACAD
1000
AcDbSavedByObjectVersion
1070
     0
  0
VISUALSTYLE
  5
39
102
{ACAD_REACTORS
330
2A
102
}
330
2A
100
AcDbVisualStyle
  2
Facepattern
 70
    15
 71
     2
 72
     2
 73
     0
 90
        0
 40
-0.6
 41
-30.0
 62
     5
 63
     7
 74
     1
 91
        4
 64
     7
 65
   257
 75
     1
175
     1
 42
1.0
 92
        8
 66
     7
 43
1.0
 76
     1
 77
     6
 78
     2
 67
     7
 79
     5
170
     0
171
     0
290
     0
174
     0
 93
        1
 44
0.0
173
     0
291
     1
 45
0.0
1001
ACAD
1000
AcDbSavedByObjectVersion
1070
     0
  0
VISUALSTYLE
  5
2B
102
{ACAD_REACTORS
330
2A
102
}
330
2A
100
AcDbVisualStyle
  2
Flat
 70
     0
 71
     2
 72
     1
 73
     1
 90
        2
 40
-0.6
 41
30.0
 62
     5
 63
     7
 74
     0
 91
        4
 64
     7
 65
   257
 75
     1
175
     1
 42
1.0
 92
        8
 66
     7
 43
1.0
 76
     1
 77
     6
 78
     2
 67
     7
 79
     5
170
     0
171
     0
290
     0
174
     0
 93
       13
 44
0.0
173
     0
291
     1
 45
0.0
1001
ACAD
1000
AcDbSavedByObjectVersion
1070
     0
  0
VISUALSTYLE
  5
2C
102
{ACAD_REACTORS
330
2A
102
}
330
2A
100
AcDbVisualStyle
  2
FlatWithEdges
 70
     1
 71
     2
 72
     1
 73
     1
 90
        2
 40
-0.6
 41
30.0
 62
     5
 63
     7
 74
     1
 91
        4
 64
     7
 65
   257
 75
     1
175
     1
 42
1.0
 92
        0
 66
   257
 43
1.0
 76
     1
 77
     6
 78
     2
 67
     7
 79
     5
170
     0
171
     0
290
     0
174
     0
 93
       13
 44
0.0
173
     0
291
     1
 45
0.0
1001
ACAD
1000
AcDbSavedByObjectVersion
1070
     0
  0
VISUALSTYLE
  5
2D
102
{ACAD_REACTORS
330
2A
102
}
330
2A
100
AcDbVisualStyle
  2
Gouraud
 70
     2
 71
     2
 72
     2
 73
     1
 90
        2
 40
-0.6
 41
30.0
 62
     5
 63
     7
 74
     0
 91
        4
 64
     7
 65
   257
 75
     1
175
     1
 42
1.0
 92
        0
 66
     7
 43
1.0
 76
     1
 77
     6
 78
     2
 67
     7
 79
     5
170
     0
171
     0
290
     0
174
     0
 93
       13
 44
0.0
173
     0
291
     1
 45
0.0
1001
ACAD
1000
AcDbSavedByObjectVersion
1070
     0
  0
VISUALSTYLE
  5
2E
102
{ACAD_REACTORS
330
2A
102
}
330
2A
100
AcDbVisualStyle
  2
GouraudWithEdges
 70
     3
 71
     2
 72
     2
 73
     1
 90
        2
 40
-0.6
 41
30.0
 62
     5
 63
     7
 74
     1
 91
        4
 64
     7
 65
   257
 75
     1
175
     1
 42
1.0
 92
        0
 66
   257
 43
1.0
 76
     1
 77
     6
 78
     2
 67
     7
 79
     5
170
     0
171
     0
290
     0
174
     0
 93
       13
 44
0.0
173
     0
291
     1
 45
0.0
1001
ACAD
1000
AcDbSavedByObjectVersion
1070
     0
  0
VISUALSTYLE
  5
38
102
{ACAD_REACTORS
330
2A
102
}
330
2A
100
AcDbVisualStyle
  2
Linepattern
 70
    14
 71
     2
 72
     2
 73
     0
 90
        0
 40
-0.6
 41
-30.0
 62
     5
 63
     7
 74
     1
 91
        4
 64
     7
 65
   257
 75
     7
175
     7
 42
1.0
 92
        8
 66
     7
 43
1.0
 76
     1
 77
     6
 78
     2
 67
     7
 79
     5
170
     0
171
     0
290
     0
174
     0
 93
        1
 44
0.0
173
     0
291
     1
 45
0.0
1001
ACAD
1000
AcDbSavedByObjectVersion
1070
     0
  0
VISUALSTYLE
  5
33
102
{ACAD_REACTORS
330
2A
102
}
330
2A
100
AcDbVisualStyle
  2
Realistic
 70
     8
 71
     2
 72
     2
 73
     0
 90
        0
 40
-0.6
 41
-30.0
 62
     5
 63
     7
 74
     1
 91
        0
 64
     7
 65
   257
 75
     1
175
     1
 42
1.0
 92
        8
 66
     8
 43
1.0
 76
     1
 77
     6
 78
     2
 67
     7
 79
     5
170
     0
171
     0
290
     0
174
     0
 93
       13
 44
0.0
173
     0
291
     0
 45
0.0
1001
ACAD
1000
AcDbSavedByObjectVersion
1070
     0
  0
VISUALSTYLE
  5
37
102
{ACAD_REACTORS
330
2A
102
}
330
2A
100
AcDbVisualStyle
  2
Thicken
 70
    13
 71
     2
 72
     2
 73
     0
 90
        0
 40
-0.6
 41
-30.0
 62
     5
 63
     7
 74
     1
 91
        4
 64
     7
 65
   257
 75
     1
175
     1
 42
1.0
 92
       12
 66
     7
 43
1.0
 76
     1
 77
     6
 78
     2
 67
     7
 79
     5
170
     0
171
     0
290
     0
174
     0
 93
        1
 44
0.0
173
     0
291
     1
 45
0.0
1001
ACAD
1000
AcDbSavedByObjectVersion
1070
     0
  0
XRECORD
  5
809
102
{ACAD_REACTORS
330
800
102
}
330
800
100
AcDbXrecord
 90
        0
  0
XRECORD
  5
81F
102
{ACAD_REACTORS
330
800
102
}
330
800
100
AcDbXrecord
1000
DSTYLE
1002
{
1070
   340
340
11
1002
}
  0
XRECORD
  5
80A
102
{ACAD_REACTORS
330
800
102
}
330
800
100
AcDbXrecord
  1
{0FCC65BC-7853-438D-B261-0505947421FA}
  0
XRECORD
  5
803
102
{ACAD_REACTORS
330
800
102
}
330
800
100
AcDbXrecord
  1

  0
XRECORD
  5
808
102
{ACAD_REACTORS
330
800
102
}
330
800
100
AcDbXrecord
 90
        1
  0
XRECORD
  5
805
102
{ACAD_REACTORS
330
800
102
}
330
800
100
AcDbXrecord
340
1A
  0
XRECORD
  5
807
102
{ACAD_REACTORS
330
800
102
}
330
800
100
AcDbXrecord
 90
    10269
  0
XRECORD
  5
806
102
{ACAD_REACTORS
330
800
102
}
330
800
100
AcDbXrecord
340
19
  0
XRECORD
  5
80C
102
{ACAD_REACTORS
330
800
102
}
330
800
100
AcDbXrecord
 40
0.0
  0
XRECORD
  5
80F
102
{ACAD_REACTORS
330
800
102
}
330
800
100
AcDbXrecord
340
0
  0
XRECORD
  5
815
102
{ACAD_REACTORS
330
800
102
}
330
800
100
AcDbXrecord
 10
0.0
 20
0.0
 30
0.0
  0
XRECORD
  5
811
102
{ACAD_REACTORS
330
800
102
}
330
800
100
AcDbXrecord
 10
0.0
 20
0.0
 30
0.0
  0
XRECORD
  5
814
102
{ACAD_REACTORS
330
800
102
}
330
800
100
AcDbXrecord
 10
0.0
 20
0.0
 30
0.0
  0
XRECORD
  5
812
102
{ACAD_REACTORS
330
800
102
}
330
800
100
AcDbXrecord
 10
0.0
 20
0.0
 30
0.0
  0
XRECORD
  5
813
102
{ACAD_REACTORS
330
800
102
}
330
800
100
AcDbXrecord
 10
0.0
 20
0.0
 30
0.0
  0
XRECORD
  5
810
102
{ACAD_REACTORS
330
800
102
}
330
800
100
AcDbXrecord
 10
0.0
 20
0.0
 30
0.0
  0
XRECORD
  5
80D
102
{ACAD_REACTORS
330
800
102
}
330
800
100
AcDbXrecord
340
0
  0
XRECORD
  5
80E
102
{ACAD_REACTORS
330
800
102
}
330
800
100
AcDbXrecord
 70
     0
  0
XRECORD
  5
804
102
{ACAD_REACTORS
330
800
102
}
330
800
100
AcDbXrecord
  1

  0
XRECORD
  5
801
102
{ACAD_REACTORS
330
800
102
}
330
800
100
AcDbXrecord
 90
        1
  0
XRECORD
  5
802
102
{ACAD_REACTORS
330
800
102
}
330
800
100
AcDbXrecord
 90
       70
  0
XRECORD
  5
818
102
{ACAD_REACTORS
330
800
102
}
330
800
100
AcDbXrecord
340
0
  0
XRECORD
  5
81E
102
{ACAD_REACTORS
330
800
102
}
330
800
100
AcDbXrecord
 10
0.0
 20
0.0
 30
0.0
  0
XRECORD
  5
81A
102
{ACAD_REACTORS
330
800
102
}
330
800
100
AcDbXrecord
 10
0.0
 20
0.0
 30
0.0
  0
XRECORD
  5
81D
102
{ACAD_REACTORS
330
800
102
}
330
800
100
AcDbXrecord
 10
0.0
 20
0.0
 30
0.0
  0
XRECORD
  5
81B
102
{ACAD_REACTORS
330
800
102
}
330
800
100
AcDbXrecord
 10
0.0
 20
0.0
 30
0.0
  0
XRECORD
  5
81C
102
{ACAD_REACTORS
330
800
102
}
330
800
100
AcDbXrecord
 10
0.0
 20
0.0
 30
0.0
  0
XRECORD
  5
819
102
{ACAD_REACTORS
330
800
102
}
330
800
100
AcDbXrecord
 10
0.0
 20
0.0
 30
0.0
  0
XRECORD
  5
816
102
{ACAD_REACTORS
330
800
102
}
330
800
100
AcDbXrecord
340
0
  0
XRECORD
  5
817
102
{ACAD_REACTORS
330
800
102
}
330
800
100
AcDbXrecord
 70
     0
  0
XRECORD
  5
80B
102
{ACAD_REACTORS
330
800
102
}
330
800
100
AcDbXrecord
  1
{FAEB1C32-E019-11D5-929B-00C0DF256EC4}
  0
ENDSEC
  0
EOF
