ISO-10303-21;
HEADER;
/* Generated by software containing ST-Developer
 * from STEP Tools, Inc. (www.steptools.com) 
 */
/* OPTION: using custom schema-name function */

FILE_DESCRIPTION(
/* description */ (''),
/* implementation_level */ '2;1');

FILE_NAME(
/* name */ '836272_stp.stp',
/* time_stamp */ '2017-05-15T08:00:13+02:00',
/* author */ (''),
/* organization */ (''),
/* preprocessor_version */ 'ST-DEVELOPER v15',
/* originating_system */ 'SIEMENS PLM Software NX 9.0',
/* authorisation */ '');

FILE_SCHEMA (('AUTOMOTIVE_DESIGN { 1 0 10303 214 3 1 1 1 }'));
ENDSEC;

DATA;
#10=PROPERTY_DEFINITION_REPRESENTATION(#14,#12);
#11=PROPERTY_DEFINITION_REPRESENTATION(#15,#13);
#12=REPRESENTATION('',(#16),#451);
#13=REPRESENTATION('',(#17),#451);
#14=PROPERTY_DEFINITION('pmi validation property','',#21);
#15=PROPERTY_DEFINITION('pmi validation property','',#21);
#16=VALUE_REPRESENTATION_ITEM('number of annotations',COUNT_MEASURE(0.));
#17=VALUE_REPRESENTATION_ITEM('number of views',COUNT_MEASURE(0.));
#18=SHAPE_REPRESENTATION_RELATIONSHIP('None',
'relationship between reic1F4CA23Dza22-None and reic1F4CA23Dza22-None',
#30,#19);
#19=ADVANCED_BREP_SHAPE_REPRESENTATION('reic1F4CA23Dza22-None',(#40),#451);
#20=SHAPE_DEFINITION_REPRESENTATION(#21,#30);
#21=PRODUCT_DEFINITION_SHAPE('','',#22);
#22=PRODUCT_DEFINITION(' ','',#24,#23);
#23=PRODUCT_DEFINITION_CONTEXT('part definition',#29,'design');
#24=PRODUCT_DEFINITION_FORMATION_WITH_SPECIFIED_SOURCE(' ',' ',#26,
 .NOT_KNOWN.);
#25=PRODUCT_RELATED_PRODUCT_CATEGORY('part','',(#26));
#26=PRODUCT('reic1F4CA23Dza22','reic1F4CA23Dza22',' ',(#27));
#27=PRODUCT_CONTEXT(' ',#29,'mechanical');
#28=APPLICATION_PROTOCOL_DEFINITION('international standard',
'automotive_design',2010,#29);
#29=APPLICATION_CONTEXT(
'core data for automotive mechanical design processes');
#30=SHAPE_REPRESENTATION('reic1F4CA23Dza22-None',(#251),#451);
#31=PRESENTATION_LAYER_ASSIGNMENT('210','Layer 210',(#40));
#32=STYLED_ITEM('',(#33),#40);
#33=PRESENTATION_STYLE_ASSIGNMENT((#34));
#34=SURFACE_STYLE_USAGE(.BOTH.,#35);
#35=SURFACE_SIDE_STYLE('',(#36));
#36=SURFACE_STYLE_FILL_AREA(#37);
#37=FILL_AREA_STYLE('',(#38));
#38=FILL_AREA_STYLE_COLOUR('',#39);
#39=COLOUR_RGB('Orange',1.,0.499992370489052,0.);
#40=MANIFOLD_SOLID_BREP('',#41);
#41=CLOSED_SHELL('',(#62,#63,#64,#65,#66,#67,#68,#69,#70,#71,#72,#73,#74,
#75,#76,#77,#78,#79,#80));
#42=TOROIDAL_SURFACE('',#272,16.,4.);
#43=CONICAL_SURFACE('',#261,12.,75.);
#44=CONICAL_SURFACE('',#266,9.,30.);
#45=CONICAL_SURFACE('',#275,4.,45.);
#46=CONICAL_SURFACE('',#283,10.0723145172501,8.00000000000004);
#47=FACE_OUTER_BOUND('',#124,.T.);
#48=FACE_OUTER_BOUND('',#139,.T.);
#49=FACE_OUTER_BOUND('',#142,.T.);
#50=FACE_OUTER_BOUND('',#151,.T.);
#51=B_SPLINE_CURVE_WITH_KNOTS('',3,(#373,#374,#375,#376,#377,#378),
 .UNSPECIFIED.,.F.,.F.,(4,2,4),(0.,0.5,1.),.UNSPECIFIED.);
#52=B_SPLINE_CURVE_WITH_KNOTS('',3,(#383,#384,#385,#386),.UNSPECIFIED.,
 .F.,.F.,(4,4),(0.,1.),.UNSPECIFIED.);
#53=B_SPLINE_CURVE_WITH_KNOTS('',3,(#390,#391,#392,#393),.UNSPECIFIED.,
 .F.,.F.,(4,4),(0.,1.),.UNSPECIFIED.);
#54=B_SPLINE_CURVE_WITH_KNOTS('',3,(#409,#410,#411,#412,#413,#414,#415,
#416,#417,#418,#419,#420,#421,#422,#423,#424,#425,#426),.UNSPECIFIED.,.F.,
 .F.,(4,2,2,2,2,2,2,2,4),(0.,0.125,0.25,0.375,0.5,0.625,0.75,0.875,1.),
 .UNSPECIFIED.);
#55=PLANE('',#257);
#56=PLANE('',#267);
#57=PLANE('',#270);
#58=PLANE('',#276);
#59=PLANE('',#279);
#60=PLANE('',#285);
#61=PLANE('',#287);
#62=ADVANCED_FACE('',(#88,#89),#81,.F.);
#63=ADVANCED_FACE('',(#90,#91),#55,.T.);
#64=ADVANCED_FACE('',(#92,#93),#82,.T.);
#65=ADVANCED_FACE('',(#47),#43,.T.);
#66=ADVANCED_FACE('',(#94,#95),#83,.T.);
#67=ADVANCED_FACE('',(#96,#97),#44,.T.);
#68=ADVANCED_FACE('',(#98,#99),#56,.T.);
#69=ADVANCED_FACE('',(#100,#101),#57,.F.);
#70=ADVANCED_FACE('',(#102,#103),#84,.F.);
#71=ADVANCED_FACE('',(#104,#105),#42,.F.);
#72=ADVANCED_FACE('',(#106,#107),#45,.T.);
#73=ADVANCED_FACE('',(#48),#58,.T.);
#74=ADVANCED_FACE('',(#108,#109),#85,.T.);
#75=ADVANCED_FACE('',(#49),#59,.F.);
#76=ADVANCED_FACE('',(#110,#111),#86,.T.);
#77=ADVANCED_FACE('',(#112,#113),#46,.T.);
#78=ADVANCED_FACE('',(#114,#115),#60,.F.);
#79=ADVANCED_FACE('',(#116,#117),#87,.T.);
#80=ADVANCED_FACE('',(#50),#61,.F.);
#81=CYLINDRICAL_SURFACE('',#254,5.);
#82=CYLINDRICAL_SURFACE('',#259,25.);
#83=CYLINDRICAL_SURFACE('',#264,12.);
#84=CYLINDRICAL_SURFACE('',#271,4.5);
#85=CYLINDRICAL_SURFACE('',#277,4.);
#86=CYLINDRICAL_SURFACE('',#281,8.);
#87=CYLINDRICAL_SURFACE('',#286,16.);
#88=FACE_BOUND('',#118,.T.);
#89=FACE_BOUND('',#119,.T.);
#90=FACE_BOUND('',#120,.T.);
#91=FACE_BOUND('',#121,.T.);
#92=FACE_BOUND('',#122,.T.);
#93=FACE_BOUND('',#123,.T.);
#94=FACE_BOUND('',#125,.T.);
#95=FACE_BOUND('',#126,.T.);
#96=FACE_BOUND('',#127,.T.);
#97=FACE_BOUND('',#128,.T.);
#98=FACE_BOUND('',#129,.T.);
#99=FACE_BOUND('',#130,.T.);
#100=FACE_BOUND('',#131,.T.);
#101=FACE_BOUND('',#132,.T.);
#102=FACE_BOUND('',#133,.T.);
#103=FACE_BOUND('',#134,.T.);
#104=FACE_BOUND('',#135,.T.);
#105=FACE_BOUND('',#136,.T.);
#106=FACE_BOUND('',#137,.T.);
#107=FACE_BOUND('',#138,.T.);
#108=FACE_BOUND('',#140,.T.);
#109=FACE_BOUND('',#141,.T.);
#110=FACE_BOUND('',#143,.T.);
#111=FACE_BOUND('',#144,.T.);
#112=FACE_BOUND('',#145,.T.);
#113=FACE_BOUND('',#146,.T.);
#114=FACE_BOUND('',#147,.T.);
#115=FACE_BOUND('',#148,.T.);
#116=FACE_BOUND('',#149,.T.);
#117=FACE_BOUND('',#150,.T.);
#118=EDGE_LOOP('',(#152));
#119=EDGE_LOOP('',(#153));
#120=EDGE_LOOP('',(#154));
#121=EDGE_LOOP('',(#155));
#122=EDGE_LOOP('',(#156,#157));
#123=EDGE_LOOP('',(#158));
#124=EDGE_LOOP('',(#159,#160,#161,#162));
#125=EDGE_LOOP('',(#163));
#126=EDGE_LOOP('',(#164));
#127=EDGE_LOOP('',(#165));
#128=EDGE_LOOP('',(#166));
#129=EDGE_LOOP('',(#167));
#130=EDGE_LOOP('',(#168));
#131=EDGE_LOOP('',(#169));
#132=EDGE_LOOP('',(#170));
#133=EDGE_LOOP('',(#171,#172,#173,#174));
#134=EDGE_LOOP('',(#175));
#135=EDGE_LOOP('',(#176,#177));
#136=EDGE_LOOP('',(#178));
#137=EDGE_LOOP('',(#179));
#138=EDGE_LOOP('',(#180));
#139=EDGE_LOOP('',(#181));
#140=EDGE_LOOP('',(#182));
#141=EDGE_LOOP('',(#183));
#142=EDGE_LOOP('',(#184));
#143=EDGE_LOOP('',(#185));
#144=EDGE_LOOP('',(#186));
#145=EDGE_LOOP('',(#187));
#146=EDGE_LOOP('',(#188));
#147=EDGE_LOOP('',(#189));
#148=EDGE_LOOP('',(#190));
#149=EDGE_LOOP('',(#191));
#150=EDGE_LOOP('',(#192));
#151=EDGE_LOOP('',(#193));
#152=ORIENTED_EDGE('',*,*,#213,.F.);
#153=ORIENTED_EDGE('',*,*,#214,.T.);
#154=ORIENTED_EDGE('',*,*,#215,.F.);
#155=ORIENTED_EDGE('',*,*,#216,.T.);
#156=ORIENTED_EDGE('',*,*,#217,.F.);
#157=ORIENTED_EDGE('',*,*,#218,.F.);
#158=ORIENTED_EDGE('',*,*,#215,.T.);
#159=ORIENTED_EDGE('',*,*,#219,.F.);
#160=ORIENTED_EDGE('',*,*,#220,.T.);
#161=ORIENTED_EDGE('',*,*,#221,.F.);
#162=ORIENTED_EDGE('',*,*,#218,.T.);
#163=ORIENTED_EDGE('',*,*,#222,.T.);
#164=ORIENTED_EDGE('',*,*,#223,.F.);
#165=ORIENTED_EDGE('',*,*,#223,.T.);
#166=ORIENTED_EDGE('',*,*,#224,.F.);
#167=ORIENTED_EDGE('',*,*,#213,.T.);
#168=ORIENTED_EDGE('',*,*,#224,.T.);
#169=ORIENTED_EDGE('',*,*,#225,.T.);
#170=ORIENTED_EDGE('',*,*,#226,.T.);
#171=ORIENTED_EDGE('',*,*,#217,.T.);
#172=ORIENTED_EDGE('',*,*,#221,.T.);
#173=ORIENTED_EDGE('',*,*,#227,.T.);
#174=ORIENTED_EDGE('',*,*,#219,.T.);
#175=ORIENTED_EDGE('',*,*,#226,.F.);
#176=ORIENTED_EDGE('',*,*,#227,.F.);
#177=ORIENTED_EDGE('',*,*,#220,.F.);
#178=ORIENTED_EDGE('',*,*,#222,.F.);
#179=ORIENTED_EDGE('',*,*,#228,.F.);
#180=ORIENTED_EDGE('',*,*,#229,.F.);
#181=ORIENTED_EDGE('',*,*,#228,.T.);
#182=ORIENTED_EDGE('',*,*,#229,.T.);
#183=ORIENTED_EDGE('',*,*,#225,.F.);
#184=ORIENTED_EDGE('',*,*,#230,.F.);
#185=ORIENTED_EDGE('',*,*,#231,.T.);
#186=ORIENTED_EDGE('',*,*,#230,.T.);
#187=ORIENTED_EDGE('',*,*,#231,.F.);
#188=ORIENTED_EDGE('',*,*,#232,.F.);
#189=ORIENTED_EDGE('',*,*,#233,.F.);
#190=ORIENTED_EDGE('',*,*,#232,.T.);
#191=ORIENTED_EDGE('',*,*,#233,.T.);
#192=ORIENTED_EDGE('',*,*,#216,.F.);
#193=ORIENTED_EDGE('',*,*,#214,.F.);
#194=VERTEX_POINT('',#364);
#195=VERTEX_POINT('',#366);
#196=VERTEX_POINT('',#369);
#197=VERTEX_POINT('',#371);
#198=VERTEX_POINT('',#379);
#199=VERTEX_POINT('',#380);
#200=VERTEX_POINT('',#387);
#201=VERTEX_POINT('',#389);
#202=VERTEX_POINT('',#396);
#203=VERTEX_POINT('',#398);
#204=VERTEX_POINT('',#401);
#205=VERTEX_POINT('',#405);
#206=VERTEX_POINT('',#407);
#207=VERTEX_POINT('',#430);
#208=VERTEX_POINT('',#432);
#209=VERTEX_POINT('',#437);
#210=VERTEX_POINT('',#440);
#211=VERTEX_POINT('',#443);
#212=VERTEX_POINT('',#446);
#213=EDGE_CURVE('',#194,#194,#234,.T.);
#214=EDGE_CURVE('',#195,#195,#235,.T.);
#215=EDGE_CURVE('',#196,#196,#236,.T.);
#216=EDGE_CURVE('',#197,#197,#237,.T.);
#217=EDGE_CURVE('',#198,#199,#51,.T.);
#218=EDGE_CURVE('',#199,#198,#238,.T.);
#219=EDGE_CURVE('',#200,#198,#52,.T.);
#220=EDGE_CURVE('',#200,#201,#239,.T.);
#221=EDGE_CURVE('',#199,#201,#53,.T.);
#222=EDGE_CURVE('',#202,#202,#240,.T.);
#223=EDGE_CURVE('',#203,#203,#241,.T.);
#224=EDGE_CURVE('',#204,#204,#242,.T.);
#225=EDGE_CURVE('',#205,#205,#243,.T.);
#226=EDGE_CURVE('',#206,#206,#244,.T.);
#227=EDGE_CURVE('',#201,#200,#54,.T.);
#228=EDGE_CURVE('',#207,#207,#245,.T.);
#229=EDGE_CURVE('',#208,#208,#246,.T.);
#230=EDGE_CURVE('',#209,#209,#247,.T.);
#231=EDGE_CURVE('',#210,#210,#248,.T.);
#232=EDGE_CURVE('',#211,#211,#249,.T.);
#233=EDGE_CURVE('',#212,#212,#250,.T.);
#234=CIRCLE('',#252,5.);
#235=CIRCLE('',#253,5.);
#236=CIRCLE('',#255,25.);
#237=CIRCLE('',#256,16.);
#238=CIRCLE('',#258,25.);
#239=CIRCLE('',#260,14.9647238195899);
#240=CIRCLE('',#262,12.);
#241=CIRCLE('',#263,12.);
#242=CIRCLE('',#265,9.);
#243=CIRCLE('',#268,4.);
#244=CIRCLE('',#269,4.5);
#245=CIRCLE('',#273,3.2331875);
#246=CIRCLE('',#274,4.);
#247=CIRCLE('',#278,8.);
#248=CIRCLE('',#280,8.);
#249=CIRCLE('',#282,10.0723145172501);
#250=CIRCLE('',#284,16.);
#251=AXIS2_PLACEMENT_3D('',#362,#288,#289);
#252=AXIS2_PLACEMENT_3D('',#363,#290,#291);
#253=AXIS2_PLACEMENT_3D('',#365,#292,#293);
#254=AXIS2_PLACEMENT_3D('',#367,#294,#295);
#255=AXIS2_PLACEMENT_3D('',#368,#296,#297);
#256=AXIS2_PLACEMENT_3D('',#370,#298,#299);
#257=AXIS2_PLACEMENT_3D('',#372,#300,#301);
#258=AXIS2_PLACEMENT_3D('',#381,#302,#303);
#259=AXIS2_PLACEMENT_3D('',#382,#304,#305);
#260=AXIS2_PLACEMENT_3D('',#388,#306,#307);
#261=AXIS2_PLACEMENT_3D('',#394,#308,#309);
#262=AXIS2_PLACEMENT_3D('',#395,#310,#311);
#263=AXIS2_PLACEMENT_3D('',#397,#312,#313);
#264=AXIS2_PLACEMENT_3D('',#399,#314,#315);
#265=AXIS2_PLACEMENT_3D('',#400,#316,#317);
#266=AXIS2_PLACEMENT_3D('',#402,#318,#319);
#267=AXIS2_PLACEMENT_3D('',#403,#320,#321);
#268=AXIS2_PLACEMENT_3D('',#404,#322,#323);
#269=AXIS2_PLACEMENT_3D('',#406,#324,#325);
#270=AXIS2_PLACEMENT_3D('',#408,#326,#327);
#271=AXIS2_PLACEMENT_3D('',#427,#328,#329);
#272=AXIS2_PLACEMENT_3D('',#428,#330,#331);
#273=AXIS2_PLACEMENT_3D('',#429,#332,#333);
#274=AXIS2_PLACEMENT_3D('',#431,#334,#335);
#275=AXIS2_PLACEMENT_3D('',#433,#336,#337);
#276=AXIS2_PLACEMENT_3D('',#434,#338,#339);
#277=AXIS2_PLACEMENT_3D('',#435,#340,#341);
#278=AXIS2_PLACEMENT_3D('',#436,#342,#343);
#279=AXIS2_PLACEMENT_3D('',#438,#344,#345);
#280=AXIS2_PLACEMENT_3D('',#439,#346,#347);
#281=AXIS2_PLACEMENT_3D('',#441,#348,#349);
#282=AXIS2_PLACEMENT_3D('',#442,#350,#351);
#283=AXIS2_PLACEMENT_3D('',#444,#352,#353);
#284=AXIS2_PLACEMENT_3D('',#445,#354,#355);
#285=AXIS2_PLACEMENT_3D('',#447,#356,#357);
#286=AXIS2_PLACEMENT_3D('',#448,#358,#359);
#287=AXIS2_PLACEMENT_3D('',#449,#360,#361);
#288=DIRECTION('',(0.,0.,1.));
#289=DIRECTION('',(1.,0.,0.));
#290=DIRECTION('',(0.,0.,-1.));
#291=DIRECTION('',(1.,0.,0.));
#292=DIRECTION('',(0.,0.,-1.));
#293=DIRECTION('',(-1.,0.,0.));
#294=DIRECTION('',(0.,0.,-1.));
#295=DIRECTION('',(1.,0.,0.));
#296=DIRECTION('',(0.,0.,1.));
#297=DIRECTION('',(-1.,0.,0.));
#298=DIRECTION('',(0.,0.,1.));
#299=DIRECTION('',(1.,0.,0.));
#300=DIRECTION('',(0.,0.,-1.));
#301=DIRECTION('',(1.,0.,0.));
#302=DIRECTION('',(0.,0.,1.));
#303=DIRECTION('',(-1.,0.,0.));
#304=DIRECTION('',(0.,0.,1.));
#305=DIRECTION('',(-1.,0.,0.));
#306=DIRECTION('',(0.,0.,-1.));
#307=DIRECTION('',(1.,0.,0.));
#308=DIRECTION('',(0.,0.,-1.));
#309=DIRECTION('',(1.,0.,5.55993569041298E-018));
#310=DIRECTION('',(0.,0.,1.));
#311=DIRECTION('',(-1.,0.,0.));
#312=DIRECTION('',(0.,0.,1.));
#313=DIRECTION('',(-1.,0.,0.));
#314=DIRECTION('',(0.,0.,1.));
#315=DIRECTION('',(-1.,0.,0.));
#316=DIRECTION('',(0.,0.,1.));
#317=DIRECTION('',(-1.,0.,0.));
#318=DIRECTION('',(0.,0.,-1.));
#319=DIRECTION('',(1.,0.,3.55021269803315E-017));
#320=DIRECTION('',(0.,0.,1.));
#321=DIRECTION('',(-1.,0.,0.));
#322=DIRECTION('',(0.,1.,0.));
#323=DIRECTION('',(0.,0.,1.));
#324=DIRECTION('',(0.,-1.,0.));
#325=DIRECTION('',(-1.,0.,0.));
#326=DIRECTION('',(0.,1.,0.));
#327=DIRECTION('',(-1.,0.,0.));
#328=DIRECTION('',(0.,1.,0.));
#329=DIRECTION('',(-1.,0.,0.));
#330=DIRECTION('',(0.,0.,1.));
#331=DIRECTION('',(-1.,0.,0.));
#332=DIRECTION('',(0.,-1.,0.));
#333=DIRECTION('',(0.837169104331222,0.,-0.546944138603988));
#334=DIRECTION('',(0.,1.,0.));
#335=DIRECTION('',(0.837169104331222,0.,-0.546944138603988));
#336=DIRECTION('',(0.,1.,0.));
#337=DIRECTION('',(-0.837169104331223,-1.90059344977539E-017,0.546944138603989));
#338=DIRECTION('',(0.,-1.,0.));
#339=DIRECTION('',(0.837169104331222,0.,-0.546944138603989));
#340=DIRECTION('',(0.,1.,0.));
#341=DIRECTION('',(-0.837169104331222,0.,0.546944138603988));
#342=DIRECTION('',(0.,0.,1.));
#343=DIRECTION('',(1.,0.,0.));
#344=DIRECTION('',(0.,0.,1.));
#345=DIRECTION('',(-1.,0.,0.));
#346=DIRECTION('',(0.,0.,-1.));
#347=DIRECTION('',(1.,0.,0.));
#348=DIRECTION('',(0.,0.,-1.));
#349=DIRECTION('',(1.,0.,0.));
#350=DIRECTION('',(0.,0.,1.));
#351=DIRECTION('',(1.,0.,0.));
#352=DIRECTION('',(0.,0.,1.));
#353=DIRECTION('',(-1.,0.,2.53390335898458E-016));
#354=DIRECTION('',(0.,0.,1.));
#355=DIRECTION('',(1.,0.,0.));
#356=DIRECTION('',(0.,0.,1.));
#357=DIRECTION('',(-1.,0.,0.));
#358=DIRECTION('',(0.,0.,-1.));
#359=DIRECTION('',(1.,0.,0.));
#360=DIRECTION('',(0.,0.,-1.));
#361=DIRECTION('',(-1.,0.,0.));
#362=CARTESIAN_POINT('',(0.,0.,0.));
#363=CARTESIAN_POINT('',(0.,0.,25.));
#364=CARTESIAN_POINT('',(5.,0.,25.));
#365=CARTESIAN_POINT('',(0.,0.,-15.));
#366=CARTESIAN_POINT('',(-5.,0.,-15.));
#367=CARTESIAN_POINT('',(0.,0.,25.));
#368=CARTESIAN_POINT('',(0.,0.,6.93889390390723E-015));
#369=CARTESIAN_POINT('',(-25.,0.,6.93889390390723E-015));
#370=CARTESIAN_POINT('',(0.,0.,0.));
#371=CARTESIAN_POINT('',(16.,0.,0.));
#372=CARTESIAN_POINT('',(25.,0.,0.));
#373=CARTESIAN_POINT('',(-4.03112887414927,-24.6728595829507,5.));
#374=CARTESIAN_POINT('',(-3.28439142360872,-24.7948638803513,3.49490255085869));
#375=CARTESIAN_POINT('',(-1.66720818769835,-24.9998628384916,2.50076200845724));
#376=CARTESIAN_POINT('',(1.66309213853665,-25.0001369920898,2.49923893275729));
#377=CARTESIAN_POINT('',(3.28442163636136,-24.7948589440974,3.49496344660845));
#378=CARTESIAN_POINT('',(4.03112887414927,-24.6728595829507,4.99999999999999));
#379=CARTESIAN_POINT('',(-4.03112887414927,-24.6728595829507,5.));
#380=CARTESIAN_POINT('',(4.03112887414927,-24.6728595829507,5.));
#381=CARTESIAN_POINT('',(0.,0.,5.));
#382=CARTESIAN_POINT('',(0.,0.,-105.74));
#383=CARTESIAN_POINT('',(-4.44694906204633,-14.2887229323046,7.68894414836417));
#384=CARTESIAN_POINT('',(-4.58589592566837,-17.7509777830635,6.79207953847468));
#385=CARTESIAN_POINT('',(-4.47330129087759,-21.2304104144192,5.89122699821294));
#386=CARTESIAN_POINT('',(-4.03112887414927,-24.6728595829507,5.));
#387=CARTESIAN_POINT('',(-4.44694906204633,-14.2887229323046,7.68894414836417));
#388=CARTESIAN_POINT('',(0.,0.,7.68894414836417));
#389=CARTESIAN_POINT('',(4.44694906204633,-14.2887229323046,7.68894414836417));
#390=CARTESIAN_POINT('',(4.03112887414927,-24.6728595829507,5.));
#391=CARTESIAN_POINT('',(4.47331910822826,-21.2302717008277,5.89126291023131));
#392=CARTESIAN_POINT('',(4.58599979111374,-17.7535658849659,6.79140911497813));
#393=CARTESIAN_POINT('',(4.44694906204633,-14.2887229323046,7.68894414836417));
#394=CARTESIAN_POINT('',(0.,0.,8.4833395016046));
#395=CARTESIAN_POINT('',(0.,0.,11.5526474535205));
#396=CARTESIAN_POINT('',(-12.,0.,11.5526474535205));
#397=CARTESIAN_POINT('',(0.,0.,19.8038475772934));
#398=CARTESIAN_POINT('',(-12.,0.,19.8038475772934));
#399=CARTESIAN_POINT('',(0.,0.,-105.74));
#400=CARTESIAN_POINT('',(0.,0.,25.));
#401=CARTESIAN_POINT('',(-9.,0.,25.));
#402=CARTESIAN_POINT('',(0.,0.,25.));
#403=CARTESIAN_POINT('',(0.,0.,25.));
#404=CARTESIAN_POINT('',(0.,-11.,7.));
#405=CARTESIAN_POINT('',(0.,-11.,11.));
#406=CARTESIAN_POINT('',(0.,-11.,7.));
#407=CARTESIAN_POINT('',(-4.5,-11.,7.));
#408=CARTESIAN_POINT('',(0.,-11.,7.));
#409=CARTESIAN_POINT('',(4.44694906204633,-14.2887229323046,7.68894414836418));
#410=CARTESIAN_POINT('',(4.42224263732795,-13.673092348092,7.84841747067748));
#411=CARTESIAN_POINT('',(4.3733383864921,-13.0951586558046,8.14973364569088));
#412=CARTESIAN_POINT('',(4.06349121240247,-12.2120569435044,8.98393933010233));
#413=CARTESIAN_POINT('',(3.77403849677326,-11.935383475602,9.52969226241962));
#414=CARTESIAN_POINT('',(2.93928194141935,-11.7617192813986,10.4645823971322));
#415=CARTESIAN_POINT('',(2.41411062810269,-11.8236486682048,10.8495467620603));
#416=CARTESIAN_POINT('',(1.26408275295881,-11.9432121972288,11.3645200413882));
#417=CARTESIAN_POINT('',(0.632752483499133,-12.0000554575817,11.4991956699257));
#418=CARTESIAN_POINT('',(-0.621259861884825,-12.0006348560178,11.500796992274));
#419=CARTESIAN_POINT('',(-1.25292937959293,-11.944367342371,11.3675647397296));
#420=CARTESIAN_POINT('',(-2.40223723356903,-11.824887459651,10.8567745668668));
#421=CARTESIAN_POINT('',(-2.92171964843625,-11.761522113199,10.4803919991206));
#422=CARTESIAN_POINT('',(-3.76751449258636,-11.9306671423955,9.54074963736149));
#423=CARTESIAN_POINT('',(-4.05761433646566,-12.2003300547777,8.99767537786407));
#424=CARTESIAN_POINT('',(-4.3742155722713,-13.0927147605025,8.1494255722383));
#425=CARTESIAN_POINT('',(-4.42217501272409,-13.6714072894543,7.84885396929555));
#426=CARTESIAN_POINT('',(-4.44694906204633,-14.2887229323046,7.68894414836418));
#427=CARTESIAN_POINT('',(0.,-25.,7.));
#428=CARTESIAN_POINT('',(0.,0.,11.5526474535205));
#429=CARTESIAN_POINT('',(0.,-13.,7.));
#430=CARTESIAN_POINT('',(2.7067246835099,-13.,5.23162704786732));
#431=CARTESIAN_POINT('',(0.,-12.2331875,7.));
#432=CARTESIAN_POINT('',(3.34867641732489,-12.2331875,4.81222344558405));
#433=CARTESIAN_POINT('',(0.,-12.2331875,7.));
#434=CARTESIAN_POINT('',(0.,-13.,7.));
#435=CARTESIAN_POINT('',(0.,-13.,7.));
#436=CARTESIAN_POINT('',(0.,0.,-41.));
#437=CARTESIAN_POINT('',(8.,0.,-41.));
#438=CARTESIAN_POINT('',(0.,0.,-41.));
#439=CARTESIAN_POINT('',(0.,0.,-33.2452839712988));
#440=CARTESIAN_POINT('',(8.,0.,-33.2452839712988));
#441=CARTESIAN_POINT('',(0.,0.,-41.));
#442=CARTESIAN_POINT('',(0.,0.,-18.5));
#443=CARTESIAN_POINT('',(10.0723145172501,0.,-18.5));
#444=CARTESIAN_POINT('',(0.,0.,-18.5));
#445=CARTESIAN_POINT('',(0.,0.,-18.5));
#446=CARTESIAN_POINT('',(16.,0.,-18.5));
#447=CARTESIAN_POINT('',(0.,16.,-18.5));
#448=CARTESIAN_POINT('',(0.,0.,-41.));
#449=CARTESIAN_POINT('',(0.,0.,-15.));
#450=MECHANICAL_DESIGN_GEOMETRIC_PRESENTATION_REPRESENTATION('',(#32),#451);
#451=(
GEOMETRIC_REPRESENTATION_CONTEXT(3)
GLOBAL_UNCERTAINTY_ASSIGNED_CONTEXT((#452))
GLOBAL_UNIT_ASSIGNED_CONTEXT((#458,#454,#453))
REPRESENTATION_CONTEXT('836272_stp','TOP_LEVEL_ASSEMBLY_PART')
);
#452=UNCERTAINTY_MEASURE_WITH_UNIT(LENGTH_MEASURE(0.0508),#458,
'DISTANCE_ACCURACY_VALUE','Maximum Tolerance applied to model');
#453=(
NAMED_UNIT(*)
SI_UNIT($,.STERADIAN.)
SOLID_ANGLE_UNIT()
);
#454=(
CONVERSION_BASED_UNIT('DEGREE',#456)
NAMED_UNIT(#455)
PLANE_ANGLE_UNIT()
);
#455=DIMENSIONAL_EXPONENTS(0.,0.,0.,0.,0.,0.,0.);
#456=PLANE_ANGLE_MEASURE_WITH_UNIT(PLANE_ANGLE_MEASURE(0.0174532925),#457);
#457=(
NAMED_UNIT(*)
PLANE_ANGLE_UNIT()
SI_UNIT($,.RADIAN.)
);
#458=(
LENGTH_UNIT()
NAMED_UNIT(*)
SI_UNIT(.MILLI.,.METRE.)
);
ENDSEC;
END-ISO-10303-21;
