  0
SECTION
  2
HEADER
  9
$ACADVER
  1
AC1014
  9
$ACADMAINTVER
 70
     9
  9
$DWGCODEPAGE
  3
ASCII
  9
$INSBASE
 10
0.0
 20
0.0
 30
0.0
  9
$EXTMIN
 10
1.000000000000000E+20
 20
1.000000000000000E+20
 30
1.000000000000000E+20
  9
$EXTMAX
 10
-1.000000000000000E+20
 20
-1.000000000000000E+20
 30
-1.000000000000000E+20
  9
$LIMMIN
 10
0.0
 20
0.0
  9
$LIMMAX
 10
12.0
 20
9.0
  9
$ORTHOMODE
 70
     0
  9
$REGENMODE
 70
     1
  9
$FILLMODE
 70
     1
  9
$QTEXTMODE
 70
     0
  9
$MIRRTEXT
 70
     1
  9
$DRAGMODE
 70
     2
  9
$LTSCALE
 40
1.0
  9
$OSMODE
 70
    37
  9
$ATTMODE
 70
     1
  9
$TEXTSIZE
 40
0.2
  9
$TRACEWID
 40
0.05
  9
$TEXTSTYLE
  7
STANDARD
  9
$CLAYER
  8
0
  9
$CELTYPE
  6
BYLAYER
  9
$CECOLOR
 62
   256
  9
$CELTSCALE
 40
1.0
  9
$DELOBJ
 70
     1
  9
$DISPSILH
 70
     0
  9
$DIMSCALE
 40
1.0
  9
$DIMASZ
 40
0.18
  9
$DIMEXO
 40
0.0625
  9
$DIMDLI
 40
0.38
  9
$DIMRND
 40
0.0
  9
$DIMDLE
 40
0.0
  9
$DIMEXE
 40
0.18
  9
$DIMTP
 40
0.0
  9
$DIMTM
 40
0.0
  9
$DIMTXT
 40
0.18
  9
$DIMCEN
 40
0.09
  9
$DIMTSZ
 40
0.0
  9
$DIMTOL
 70
     0
  9
$DIMLIM
 70
     0
  9
$DIMTIH
 70
     1
  9
$DIMTOH
 70
     1
  9
$DIMSE1
 70
     0
  9
$DIMSE2
 70
     0
  9
$DIMTAD
 70
     0
  9
$DIMZIN
 70
     0
  9
$DIMBLK
  1

  9
$DIMASO
 70
     1
  9
$DIMSHO
 70
     1
  9
$DIMPOST
  1

  9
$DIMAPOST
  1

  9
$DIMALT
 70
     0
  9
$DIMALTD
 70
     2
  9
$DIMALTF
 40
25.4
  9
$DIMLFAC
 40
1.0
  9
$DIMTOFL
 70
     0
  9
$DIMTVP
 40
0.0
  9
$DIMTIX
 70
     0
  9
$DIMSOXD
 70
     0
  9
$DIMSAH
 70
     0
  9
$DIMBLK1
  1

  9
$DIMBLK2
  1

  9
$DIMSTYLE
  2
STANDARD
  9
$DIMCLRD
 70
     0
  9
$DIMCLRE
 70
     0
  9
$DIMCLRT
 70
     0
  9
$DIMTFAC
 40
1.0
  9
$DIMGAP
 40
0.09
  9
$DIMJUST
 70
     0
  9
$DIMSD1
 70
     0
  9
$DIMSD2
 70
     0
  9
$DIMTOLJ
 70
     1
  9
$DIMTZIN
 70
     0
  9
$DIMALTZ
 70
     0
  9
$DIMALTTZ
 70
     0
  9
$DIMFIT
 70
     3
  9
$DIMUPT
 70
     0
  9
$DIMUNIT
 70
     2
  9
$DIMDEC
 70
     4
  9
$DIMTDEC
 70
     4
  9
$DIMALTU
 70
     2
  9
$DIMALTTD
 70
     2
  9
$DIMTXSTY
  7
STANDARD
  9
$DIMAUNIT
 70
     0
  9
$LUNITS
 70
     2
  9
$LUPREC
 70
     4
  9
$SKETCHINC
 40
0.1
  9
$FILLETRAD
 40
0.5
  9
$AUNITS
 70
     0
  9
$AUPREC
 70
     0
  9
$MENU
  1
.
  9
$ELEVATION
 40
0.0
  9
$PELEVATION
 40
0.0
  9
$THICKNESS
 40
0.0
  9
$LIMCHECK
 70
     0
  9
$CHAMFERA
 40
0.5
  9
$CHAMFERB
 40
0.5
  9
$CHAMFERC
 40
1.0
  9
$CHAMFERD
 40
0.0
  9
$SKPOLY
 70
     0
  9
$TDCREATE
 40
2454876.479927662
  9
$TDUPDATE
 40
2454876.479927673
  9
$TDINDWG
 40
0.0000000116
  9
$TDUSRTIMER
 40
0.0000000116
  9
$USRTIMER
 70
     1
  9
$ANGBASE
 50
0.0
  9
$ANGDIR
 70
     0
  9
$PDMODE
 70
     0
  9
$PDSIZE
 40
0.0
  9
$PLINEWID
 40
0.0
  9
$COORDS
 70
     1
  9
$SPLFRAME
 70
     0
  9
$SPLINETYPE
 70
     6
  9
$SPLINESEGS
 70
     8
  9
$ATTDIA
 70
     0
  9
$ATTREQ
 70
     1
  9
$HANDLING
 70
     1
  9
$HANDSEED
  5
6FF
  9
$SURFTAB1
 70
     6
  9
$SURFTAB2
 70
     6
  9
$SURFTYPE
 70
     6
  9
$SURFU
 70
     6
  9
$SURFV
 70
     6
  9
$UCSNAME
  2

  9
$UCSORG
 10
0.0
 20
0.0
 30
0.0
  9
$UCSXDIR
 10
1.0
 20
0.0
 30
0.0
  9
$UCSYDIR
 10
0.0
 20
1.0
 30
0.0
  9
$PUCSNAME
  2

  9
$PUCSORG
 10
0.0
 20
0.0
 30
0.0
  9
$PUCSXDIR
 10
1.0
 20
0.0
 30
0.0
  9
$PUCSYDIR
 10
0.0
 20
1.0
 30
0.0
  9
$USERI1
 70
     0
  9
$USERI2
 70
     0
  9
$USERI3
 70
     0
  9
$USERI4
 70
     0
  9
$USERI5
 70
     0
  9
$USERR1
 40
0.0
  9
$USERR2
 40
0.0
  9
$USERR3
 40
0.0
  9
$USERR4
 40
0.0
  9
$USERR5
 40
0.0
  9
$WORLDVIEW
 70
     1
  9
$SHADEDGE
 70
     3
  9
$SHADEDIF
 70
    70
  9
$TILEMODE
 70
     1
  9
$MAXACTVP
 70
    64
  9
$PINSBASE
 10
0.0
 20
0.0
 30
0.0
  9
$PLIMCHECK
 70
     0
  9
$PEXTMIN
 10
1.000000000000000E+20
 20
1.000000000000000E+20
 30
1.000000000000000E+20
  9
$PEXTMAX
 10
-1.000000000000000E+20
 20
-1.000000000000000E+20
 30
-1.000000000000000E+20
  9
$PLIMMIN
 10
0.0
 20
0.0
  9
$PLIMMAX
 10
12.0
 20
9.0
  9
$UNITMODE
 70
     0
  9
$VISRETAIN
 70
     1
  9
$PLINEGEN
 70
     0
  9
$PSLTSCALE
 70
     1
  9
$TREEDEPTH
 70
  3020
  9
$PICKSTYLE
 70
     1
  9
$CMLSTYLE
  2
STANDARD
  9
$CMLJUST
 70
     0
  9
$CMLSCALE
 40
1.0
  9
$PROXYGRAPHICS
 70
     1
  9
$MEASUREMENT
 70
     0
  0
ENDSEC
  0
SECTION
  2
CLASSES
  0
CLASS
  1
ACDBDICTIONARYWDFLT
  2
AcDbDictionaryWithDefault
  3
ObjectDBX Classes
 90
        0
280
     0
281
     0
  0
CLASS
  1
VISUALSTYLE
  2
AcDbVisualStyle
  3
ObjectDBX Classes
 90
     4095
280
     0
281
     0
  0
CLASS
  1
XRECORD
  2
AcDbXrecord
  3
AutoCAD 2000
 90
        0
280
     0
281
     0
  0
CLASS
  1
LWPOLYLINE
  2
AcDbPolyline
  3
AutoCAD 2000
 90
        0
280
     0
281
     1
  0
CLASS
  1
HATCH
  2
AcDbHatch
  3
AutoCAD 2000
 90
        0
280
     0
281
     1
  0
CLASS
  1
ACDBPLACEHOLDER
  2
AcDbPlaceHolder
  3
ObjectDBX Classes
 90
        0
280
     0
281
     0
  0
CLASS
  1
LAYOUT
  2
AcDbLayout
  3
ObjectDBX Classes
 90
        0
280
     0
281
     0
  0
ENDSEC
  0
SECTION
  2
TABLES
  0
TABLE
  2
VPORT
  5
8
330
0
100
AcDbSymbolTable
 70
     1
  0
VPORT
  5
29
330
8
100
AcDbSymbolTableRecord
100
AcDbViewportTableRecord
  2
*ACTIVE
 70
     0
 10
0.0
 20
0.0
 11
1.0
 21
1.0
 12
0.0
 22
0.0
 13
0.0
 23
0.0
 14
0.5
 24
0.5
 15
0.5
 25
0.5
 16
0.0
 26
0.0
 36
1.0
 17
84.24013326978685
 27
-99.51776378724375
 37
0.0
 40
205.6693079093835
 41
0.9928359749216409
 42
50.0
 43
0.0
 44
0.0
 50
0.0
 51
0.0
 71
     0
 72
   100
 73
     1
 74
     3
 75
     0
 76
     0
 77
     0
 78
     0
  0
ENDTAB
  0
TABLE
  2
LTYPE
  5
5
330
0
100
AcDbSymbolTable
 70
     5
  0
LTYPE
  5
14
330
5
100
AcDbSymbolTableRecord
100
AcDbLinetypeTableRecord
  2
BYBLOCK
 70
     0
  3

 72
    65
 73
     0
 40
0.0
  0
LTYPE
  5
15
330
5
100
AcDbSymbolTableRecord
100
AcDbLinetypeTableRecord
  2
BYLAYER
 70
     0
  3

 72
    65
 73
     0
 40
0.0
  0
LTYPE
  5
16
330
5
100
AcDbSymbolTableRecord
100
AcDbLinetypeTableRecord
  2
CONTINUOUS
 70
     0
  3
Solid line
 72
    65
 73
     0
 40
0.0
  0
LTYPE
  5
4F
330
5
100
AcDbSymbolTableRecord
100
AcDbLinetypeTableRecord
  2
AI-LINETYPE-1
 70
     0
  3
Adobe Illustrator Linetype No. 1
 72
    65
 73
     4
 40
8.819450260381924
 49
7.055560208305538
 74
     0
 49
-0.7055560208305538
 74
     0
 49
0.3527780104152769
 74
     0
 49
-0.7055560208305538
 74
     0
  0
LTYPE
  5
54
330
5
100
AcDbSymbolTableRecord
100
AcDbLinetypeTableRecord
  2
AI-LINETYPE-2
 70
     0
  3
Adobe Illustrator Linetype No. 2
 72
    65
 73
     4
 40
8.819450260381924
 49
7.055560208305538
 74
     0
 49
-0.7055560208305538
 74
     0
 49
0.3527780104152769
 74
     0
 49
-0.7055560208305538
 74
     0
  0
LTYPE
  5
59
330
5
100
AcDbSymbolTableRecord
100
AcDbLinetypeTableRecord
  2
AI-LINETYPE-3
 70
     0
  3
Adobe Illustrator Linetype No. 3
 72
    65
 73
     4
 40
8.819450260381924
 49
7.055560208305538
 74
     0
 49
-0.7055560208305538
 74
     0
 49
0.3527780104152769
 74
     0
 49
-0.7055560208305538
 74
     0
  0
LTYPE
  5
5E
330
5
100
AcDbSymbolTableRecord
100
AcDbLinetypeTableRecord
  2
AI-LINETYPE-4
 70
     0
  3
Adobe Illustrator Linetype No. 4
 72
    65
 73
     4
 40
8.819450260381924
 49
7.055560208305538
 74
     0
 49
-0.7055560208305538
 74
     0
 49
0.3527780104152769
 74
     0
 49
-0.7055560208305538
 74
     0
  0
ENDTAB
  0
TABLE
  2
LAYER
  5
2
330
0
100
AcDbSymbolTable
 70
     5
  0
LAYER
  5
10
330
2
100
AcDbSymbolTableRecord
100
AcDbLayerTableRecord
  2
0
 70
     0
 62
     7
  6
CONTINUOUS
  0
LAYER
  5
3B
330
2
100
AcDbSymbolTableRecord
100
AcDbLayerTableRecord
  2
GRAU_10_
 70
     1
 62
     7
  6
CONTINUOUS
  0
LAYER
  5
42
330
2
100
AcDbSymbolTableRecord
100
AcDbLayerTableRecord
  2
STANDARDEBENE
 70
     0
 62
     7
  6
CONTINUOUS
  0
LAYER
  5
3BC
330
2
100
AcDbSymbolTableRecord
100
AcDbLayerTableRecord
  2
BEMA_UNG
 70
     1
 62
     7
  6
CONTINUOUS
  0
LAYER
  5
6D9
330
2
100
AcDbSymbolTableRecord
100
AcDbLayerTableRecord
  2
TEXT
 70
     1
 62
     7
  6
CONTINUOUS
  0
ENDTAB
  0
TABLE
  2
STYLE
  5
3
330
0
100
AcDbSymbolTable
 70
     1
  0
STYLE
  5
11
330
3
100
AcDbSymbolTableRecord
100
AcDbTextStyleTableRecord
  2
STANDARD
 70
     0
 40
0.0
 41
1.0
 50
0.0
 71
     0
 42
0.2
  3
txt
  4

  0
ENDTAB
  0
TABLE
  2
VIEW
  5
6
330
0
100
AcDbSymbolTable
 70
     0
  0
ENDTAB
  0
TABLE
  2
UCS
  5
7
330
0
100
AcDbSymbolTable
 70
     0
  0
ENDTAB
  0
TABLE
  2
APPID
  5
9
330
0
100
AcDbSymbolTable
 70
     1
  0
APPID
  5
12
330
9
100
AcDbSymbolTableRecord
100
AcDbRegAppTableRecord
  2
ACAD
 70
     0
  0
ENDTAB
  0
TABLE
  2
DIMSTYLE
  5
A
330
0
100
AcDbSymbolTable
 70
     1
  0
DIMSTYLE
105
27
330
A
100
AcDbSymbolTableRecord
100
AcDbDimStyleTableRecord
  2
STANDARD
 70
     0
  3

  4

  5

  6

  7

 40
1.0
 41
0.18
 42
0.0625
 43
0.38
 44
0.18
 45
0.0
 46
0.0
 47
0.0
 48
0.0
140
0.18
141
0.09
142
0.0
143
25.4
144
1.0
145
0.0
146
1.0
147
0.09
 71
     0
 72
     0
 73
     1
 74
     1
 75
     0
 76
     0
 77
     0
 78
     0
170
     0
171
     2
172
     0
173
     0
174
     0
175
     0
176
     0
177
     0
178
     0
270
     2
271
     4
272
     4
273
     2
274
     2
340
11
275
     0
280
     0
281
     0
282
     0
283
     1
284
     0
285
     0
286
     0
287
     3
288
     0
  0
ENDTAB
  0
TABLE
  2
BLOCK_RECORD
  5
1
330
0
100
AcDbSymbolTable
 70
     1
  0
BLOCK_RECORD
  5
1F
330
1
100
AcDbSymbolTableRecord
100
AcDbBlockTableRecord
  2
*MODEL_SPACE
  0
BLOCK_RECORD
  5
1B
330
1
100
AcDbSymbolTableRecord
100
AcDbBlockTableRecord
  2
*PAPER_SPACE
  0
ENDTAB
  0
ENDSEC
  0
SECTION
  2
BLOCKS
  0
BLOCK
  5
20
330
1F
100
AcDbEntity
  8
0
100
AcDbBlockBegin
  2
*MODEL_SPACE
 70
     0
 71
     0
 10
0.0
 20
0.0
 30
0.0
  3
*MODEL_SPACE
  1

  0
ENDBLK
  5
21
330
1F
100
AcDbEntity
  8
0
100
AcDbBlockEnd
  0
BLOCK
  5
1C
330
1B
100
AcDbEntity
 67
     1
  8
0
100
AcDbBlockBegin
  2
*PAPER_SPACE
 70
     0
 71
     0
 10
0.0
 20
0.0
 30
0.0
  3
*PAPER_SPACE
  1

  0
ENDBLK
  5
1D
330
1B
100
AcDbEntity
 67
     1
  8
0
100
AcDbBlockEnd
  0
ENDSEC
  0
SECTION
  2
ENTITIES
  0
SPLINE
  5
3C
330
1F
100
AcDbEntity
  8
GRAU_10_
100
AcDbSpline
210
0.0
220
0.0
230
1.0
 70
    11
 71
     3
 72
    83
 73
    79
 74
     0
 42
0.0000000001
 43
0.0000000001
 40
0.0
 40
0.0
 40
0.0
 40
0.0
 40
1.0
 40
1.0
 40
1.0
 40
2.0
 40
2.0
 40
2.0
 40
3.0
 40
3.0
 40
3.0
 40
4.0
 40
4.0
 40
4.0
 40
5.0
 40
5.0
 40
5.0
 40
6.0
 40
6.0
 40
6.0
 40
7.0
 40
7.0
 40
7.0
 40
8.0
 40
8.0
 40
8.0
 40
9.0
 40
9.0
 40
9.0
 40
10.0
 40
10.0
 40
10.0
 40
11.0
 40
11.0
 40
11.0
 40
12.0
 40
12.0
 40
12.0
 40
13.0
 40
13.0
 40
13.0
 40
14.0
 40
14.0
 40
14.0
 40
15.0
 40
15.0
 40
15.0
 40
16.0
 40
16.0
 40
16.0
 40
17.0
 40
17.0
 40
17.0
 40
18.0
 40
18.0
 40
18.0
 40
19.0
 40
19.0
 40
19.0
 40
20.0
 40
20.0
 40
20.0
 40
21.0
 40
21.0
 40
21.0
 40
22.0
 40
22.0
 40
22.0
 40
23.0
 40
23.0
 40
23.0
 40
24.0
 40
24.0
 40
24.0
 40
25.0
 40
25.0
 40
25.0
 40
26.0
 40
26.0
 40
26.0
 40
26.0
 10
1.092957263713346
 20
-200.1420929743448
 30
0.0
 10
1.092957263713346
 20
-200.1420929743448
 30
0.0
 10
0.0866442086127365
 20
-199.1647187404111
 30
0.0
 10
0.0866442086127365
 20
-199.1647187404111
 30
0.0
 10
0.0866442086127365
 20
-199.1647187404111
 30
0.0
 10
0.0578776423337564
 20
-116.2860019771267
 30
0.0
 10
0.0578776423337564
 20
-116.2860019771267
 30
0.0
 10
0.0578776423337564
 20
-116.2860019771267
 30
0.0
 10
1.121896084880224
 20
-115.164967166686
 30
0.0
 10
1.121896084880224
 20
-115.164967166686
 30
0.0
 10
1.121896084880224
 20
-115.164967166686
 30
0.0
 10
5.146459285731068
 20
-115.2514391204108
 30
0.0
 10
5.146459285731068
 20
-115.2514391204108
 30
0.0
 10
5.146459285731068
 20
-115.2514391204108
 30
0.0
 10
10.03350271028762
 20
-128.7338291961939
 30
0.0
 10
10.03350271028762
 20
-128.7338291961939
 30
0.0
 10
10.03350271028762
 20
-128.7338291961939
 30
0.0
 10
29.84005874036096
 20
-128.6762960636359
 30
0.0
 10
29.84005874036096
 20
-128.6762960636359
 30
0.0
 10
29.84005874036096
 20
-128.6762960636359
 30
0.0
 10
29.81146442896988
 20
-142.647201001498
 30
0.0
 10
29.81146442896988
 20
-142.647201001498
 30
0.0
 10
29.81146442896988
 20
-142.647201001498
 30
0.0
 10
30.09895783687178
 20
-142.6186066901069
 30
0.0
 10
30.09895783687178
 20
-142.6186066901069
 30
0.0
 10
30.09895783687178
 20
-142.6186066901069
 30
0.0
 10
30.12789665803866
 20
-144.8610208207642
 30
0.0
 10
30.12789665803866
 20
-144.8610208207642
 30
0.0
 10
30.12789665803866
 20
-144.8610208207642
 30
0.0
 10
30.12789665803866
 20
-145.4642574381832
 30
0.0
 10
30.67377239778769
 20
-145.4642574381832
 30
0.0
 10
31.22033715708831
 20
-145.4642574381832
 30
0.0
 10
32.57133224287299
 20
-145.4356631267922
 30
0.0
 10
32.57133224287299
 20
-145.4356631267922
 30
0.0
 10
32.57133224287299
 20
-145.4356631267922
 30
0.0
 10
33.06001935983986
 20
-145.2062196161119
 30
0.0
 10
33.06001935983986
 20
-145.2062196161119
 30
0.0
 10
33.06001935983986
 20
-145.2062196161119
 30
0.0
 10
57.14969317749906
 20
-145.1765917753935
 30
0.0
 10
57.14969317749906
 20
-145.1765917753935
 30
0.0
 10
57.14969317749906
 20
-145.1765917753935
 30
0.0
 10
58.15566172282387
 20
-146.1829048304941
 30
0.0
 10
58.15566172282387
 20
-146.1829048304941
 30
0.0
 10
58.15566172282387
 20
-146.1829048304941
 30
0.0
 10
58.15566172282387
 20
-169.0945274698183
 30
0.0
 10
58.15566172282387
 20
-169.0945274698183
 30
0.0
 10
58.15566172282387
 20
-169.0945274698183
 30
0.0
 10
57.12109886610798
 20
-170.1583736574768
 30
0.0
 10
57.12109886610798
 20
-170.1583736574768
 30
0.0
 10
57.12109886610798
 20
-170.1583736574768
 30
0.0
 10
33.11634670818253
 20
-170.1873124786437
 30
0.0
 10
33.11634670818253
 20
-170.1873124786437
 30
0.0
 10
33.11634670818253
 20
-170.1873124786437
 30
0.0
 10
32.59889302493668
 20
-169.8710525044628
 30
0.0
 10
32.59889302493668
 20
-169.8710525044628
 30
0.0
 10
32.59889302493668
 20
-169.8710525044628
 30
0.0
 10
30.64448906684501
 20
-169.8417691735202
 30
0.0
 10
30.64448906684501
 20
-169.8417691735202
 30
0.0
 10
30.64448906684501
 20
-169.8417691735202
 30
0.0
 10
30.12651861893547
 20
-169.9568354386361
 30
0.0
 10
30.12651861893547
 20
-170.5032279430488
 30
0.0
 10
30.12651861893547
 20
-171.0492759376857
 30
0.0
 10
30.09826881732019
 20
-172.630920318366
 30
0.0
 10
30.09826881732019
 20
-172.630920318366
 30
0.0
 10
30.09826881732019
 20
-172.630920318366
 30
0.0
 10
29.75341453174822
 20
-172.630920318366
 30
0.0
 10
29.75341453174822
 20
-172.630920318366
 30
0.0
 10
29.75341453174822
 20
-172.630920318366
 30
0.0
 10
29.83954197569727
 20
-186.4857254617847
 30
0.0
 10
29.83954197569727
 20
-186.4857254617847
 30
0.0
 10
29.83954197569727
 20
-186.4857254617847
 30
0.0
 10
10.03246918096023
 20
-186.6300750578433
 30
0.0
 10
10.03246918096023
 20
-186.6300750578433
 30
0.0
 10
10.03246918096023
 20
-186.6300750578433
 30
0.0
 10
5.145081246627884
 20
-200.1703427759601
 30
0.0
 10
5.145081246627884
 20
-200.1703427759601
 30
0.0
 10
5.145081246627884
 20
-200.1703427759601
 30
0.0
 10
1.092957263713346
 20
-200.1420929743448
 30
0.0
 10
1.092957263713346
 20
-200.1420929743448
 30
0.0
  0
HATCH
  5
3D
330
1F
100
AcDbEntity
  8
GRAU_10_
 62
   255
100
AcDbHatch
 10
0.0
 20
0.0
 30
0.0
210
0.0
220
0.0
230
1.0
  2
SOLID
 70
     1
 71
     0
 91
        1
 92
        1
 93
        1
 72
     4
 94
        3
 73
     0
 74
     1
 95
       83
 96
       79
 40
0.0
 40
0.0
 40
0.0
 40
0.0
 40
1.0
 40
1.0
 40
1.0
 40
2.0
 40
2.0
 40
2.0
 40
3.0
 40
3.0
 40
3.0
 40
4.0
 40
4.0
 40
4.0
 40
5.0
 40
5.0
 40
5.0
 40
6.0
 40
6.0
 40
6.0
 40
7.0
 40
7.0
 40
7.0
 40
8.0
 40
8.0
 40
8.0
 40
9.0
 40
9.0
 40
9.0
 40
10.0
 40
10.0
 40
10.0
 40
11.0
 40
11.0
 40
11.0
 40
12.0
 40
12.0
 40
12.0
 40
13.0
 40
13.0
 40
13.0
 40
14.0
 40
14.0
 40
14.0
 40
15.0
 40
15.0
 40
15.0
 40
16.0
 40
16.0
 40
16.0
 40
17.0
 40
17.0
 40
17.0
 40
18.0
 40
18.0
 40
18.0
 40
19.0
 40
19.0
 40
19.0
 40
20.0
 40
20.0
 40
20.0
 40
21.0
 40
21.0
 40
21.0
 40
22.0
 40
22.0
 40
22.0
 40
23.0
 40
23.0
 40
23.0
 40
24.0
 40
24.0
 40
24.0
 40
25.0
 40
25.0
 40
25.0
 40
26.0
 40
26.0
 40
26.0
 40
26.0
 10
1.092957263713346
 20
-200.1420929743448
 10
1.092957263713346
 20
-200.1420929743448
 10
0.0866442086127365
 20
-199.1647187404111
 10
0.0866442086127365
 20
-199.1647187404111
 10
0.0866442086127365
 20
-199.1647187404111
 10
0.0578776423337564
 20
-116.2860019771267
 10
0.0578776423337564
 20
-116.2860019771267
 10
0.0578776423337564
 20
-116.2860019771267
 10
1.121896084880224
 20
-115.164967166686
 10
1.121896084880224
 20
-115.164967166686
 10
1.121896084880224
 20
-115.164967166686
 10
5.146459285731068
 20
-115.2514391204108
 10
5.146459285731068
 20
-115.2514391204108
 10
5.146459285731068
 20
-115.2514391204108
 10
10.03350271028762
 20
-128.7338291961939
 10
10.03350271028762
 20
-128.7338291961939
 10
10.03350271028762
 20
-128.7338291961939
 10
29.84005874036096
 20
-128.6762960636359
 10
29.84005874036096
 20
-128.6762960636359
 10
29.84005874036096
 20
-128.6762960636359
 10
29.81146442896988
 20
-142.647201001498
 10
29.81146442896988
 20
-142.647201001498
 10
29.81146442896988
 20
-142.647201001498
 10
30.09895783687178
 20
-142.6186066901069
 10
30.09895783687178
 20
-142.6186066901069
 10
30.09895783687178
 20
-142.6186066901069
 10
30.12789665803866
 20
-144.8610208207642
 10
30.12789665803866
 20
-144.8610208207642
 10
30.12789665803866
 20
-144.8610208207642
 10
30.12789665803866
 20
-145.4642574381832
 10
30.67377239778769
 20
-145.4642574381832
 10
31.22033715708831
 20
-145.4642574381832
 10
32.57133224287299
 20
-145.4356631267922
 10
32.57133224287299
 20
-145.4356631267922
 10
32.57133224287299
 20
-145.4356631267922
 10
33.06001935983986
 20
-145.2062196161119
 10
33.06001935983986
 20
-145.2062196161119
 10
33.06001935983986
 20
-145.2062196161119
 10
57.14969317749906
 20
-145.1765917753935
 10
57.14969317749906
 20
-145.1765917753935
 10
57.14969317749906
 20
-145.1765917753935
 10
58.15566172282387
 20
-146.1829048304941
 10
58.15566172282387
 20
-146.1829048304941
 10
58.15566172282387
 20
-146.1829048304941
 10
58.15566172282387
 20
-169.0945274698183
 10
58.15566172282387
 20
-169.0945274698183
 10
58.15566172282387
 20
-169.0945274698183
 10
57.12109886610798
 20
-170.1583736574768
 10
57.12109886610798
 20
-170.1583736574768
 10
57.12109886610798
 20
-170.1583736574768
 10
33.11634670818253
 20
-170.1873124786437
 10
33.11634670818253
 20
-170.1873124786437
 10
33.11634670818253
 20
-170.1873124786437
 10
32.59889302493668
 20
-169.8710525044628
 10
32.59889302493668
 20
-169.8710525044628
 10
32.59889302493668
 20
-169.8710525044628
 10
30.64448906684501
 20
-169.8417691735202
 10
30.64448906684501
 20
-169.8417691735202
 10
30.64448906684501
 20
-169.8417691735202
 10
30.12651861893547
 20
-169.9568354386361
 10
30.12651861893547
 20
-170.5032279430488
 10
30.12651861893547
 20
-171.0492759376857
 10
30.09826881732019
 20
-172.630920318366
 10
30.09826881732019
 20
-172.630920318366
 10
30.09826881732019
 20
-172.630920318366
 10
29.75341453174822
 20
-172.630920318366
 10
29.75341453174822
 20
-172.630920318366
 10
29.75341453174822
 20
-172.630920318366
 10
29.83954197569727
 20
-186.4857254617847
 10
29.83954197569727
 20
-186.4857254617847
 10
29.83954197569727
 20
-186.4857254617847
 10
10.03246918096023
 20
-186.6300750578433
 10
10.03246918096023
 20
-186.6300750578433
 10
10.03246918096023
 20
-186.6300750578433
 10
5.145081246627884
 20
-200.1703427759601
 10
5.145081246627884
 20
-200.1703427759601
 10
5.145081246627884
 20
-200.1703427759601
 10
1.092957263713346
 20
-200.1420929743448
 10
1.092957263713346
 20
-200.1420929743448
 97
        0
 75
     0
 76
     1
 98
        0
  0
SPLINE
  5
3E
330
1F
100
AcDbEntity
  8
GRAU_10_
100
AcDbSpline
210
0.0
220
0.0
230
1.0
 70
    11
 71
     3
 72
    86
 73
    82
 74
     0
 42
0.0000000001
 43
0.0000000001
 40
0.0
 40
0.0
 40
0.0
 40
0.0
 40
1.0
 40
1.0
 40
1.0
 40
2.0
 40
2.0
 40
2.0
 40
3.0
 40
3.0
 40
3.0
 40
4.0
 40
4.0
 40
4.0
 40
5.0
 40
5.0
 40
5.0
 40
6.0
 40
6.0
 40
6.0
 40
7.0
 40
7.0
 40
7.0
 40
8.0
 40
8.0
 40
8.0
 40
9.0
 40
9.0
 40
9.0
 40
10.0
 40
10.0
 40
10.0
 40
11.0
 40
11.0
 40
11.0
 40
12.0
 40
12.0
 40
12.0
 40
13.0
 40
13.0
 40
13.0
 40
14.0
 40
14.0
 40
14.0
 40
15.0
 40
15.0
 40
15.0
 40
16.0
 40
16.0
 40
16.0
 40
17.0
 40
17.0
 40
17.0
 40
18.0
 40
18.0
 40
18.0
 40
19.0
 40
19.0
 40
19.0
 40
20.0
 40
20.0
 40
20.0
 40
21.0
 40
21.0
 40
21.0
 40
22.0
 40
22.0
 40
22.0
 40
23.0
 40
23.0
 40
23.0
 40
24.0
 40
24.0
 40
24.0
 40
25.0
 40
25.0
 40
25.0
 40
26.0
 40
26.0
 40
26.0
 40
27.0
 40
27.0
 40
27.0
 40
27.0
 10
5.112525072815146
 20
-85.15885471439128
 30
0.0
 10
5.112525072815146
 20
-85.15885471439128
 30
0.0
 10
1.124996672862389
 20
-85.1924444175314
 30
0.0
 10
1.124996672862389
 20
-85.1924444175314
 30
0.0
 10
1.124996672862389
 20
-85.1924444175314
 30
0.0
 10
0.0718302882535012
 20
-84.10275999668812
 30
0.0
 10
0.0718302882535012
 20
-84.10275999668812
 30
0.0
 10
0.0718302882535012
 20
-84.10275999668812
 30
0.0
 10
0.0718302882535012
 20
-1.143600200755382
 30
0.0
 10
0.0718302882535012
 20
-1.143600200755382
 30
0.0
 10
0.0718302882535012
 20
-1.143600200755382
 30
0.0
 10
1.124996672862389
 20
-0.0900893063706981
 30
0.0
 10
1.124996672862389
 20
-0.0900893063706981
 30
0.0
 10
1.124996672862389
 20
-0.0900893063706981
 30
0.0
 10
5.120448797658457
 20
-0.2353001768687833
 30
0.0
 10
5.120448797658457
 20
-0.2353001768687833
 30
0.0
 10
5.120448797658457
 20
-0.2353001768687833
 30
0.0
 10
9.98768291010673
 20
-13.67445427578943
 30
0.0
 10
9.98768291010673
 20
-13.67445427578943
 30
0.0
 10
9.98768291010673
 20
-13.67445427578943
 30
0.0
 10
29.78321462735459
 20
-13.74731809337032
 30
0.0
 10
29.78321462735459
 20
-13.74731809337032
 30
0.0
 10
29.78321462735459
 20
-13.74731809337032
 30
0.0
 10
29.80250717479918
 20
-27.63502392037758
 30
0.0
 10
29.80250717479918
 20
-27.63502392037758
 30
0.0
 10
29.80250717479918
 20
-27.63502392037758
 30
0.0
 10
30.09447920978643
 20
-27.63502392037758
 30
0.0
 10
30.09447920978643
 20
-27.63502392037758
 30
0.0
 10
30.09447920978643
 20
-27.63502392037758
 30
0.0
 10
30.10860411059408
 20
-29.85315011184122
 30
0.0
 10
30.10860411059408
 20
-29.85315011184122
 30
0.0
 10
30.10860411059408
 20
-29.85315011184122
 30
0.0
 10
30.08018205409089
 20
-30.41625134038005
 30
0.0
 10
30.6367375968896
 20
-30.42314153589598
 30
0.0
 10
31.19329313968831
 20
-30.4300317314119
 30
0.0
 10
32.46522323192777
 20
-30.41625134038005
 30
0.0
 10
32.46522323192777
 20
-30.41625134038005
 30
0.0
 10
32.46522323192777
 20
-30.41625134038005
 30
0.0
 10
33.10532239535705
 20
-30.10326420906923
 30
0.0
 10
33.10532239535705
 20
-30.10326420906923
 30
0.0
 10
33.10532239535705
 20
-30.10326420906923
 30
0.0
 10
34.11370250911244
 20
-30.10326420906923
 30
0.0
 10
34.11370250911244
 20
-30.10326420906923
 30
0.0
 10
34.11370250911244
 20
-30.10326420906923
 30
0.0
 10
34.14815348669205
 20
-31.06289618954946
 30
0.0
 10
34.14815348669205
 20
-31.06289618954946
 30
0.0
 10
34.14815348669205
 20
-31.06289618954946
 30
0.0
 10
58.10708584443662
 20
-31.23618460677493
 30
0.0
 10
58.10708584443662
 20
-31.23618460677493
 30
0.0
 10
58.10708584443662
 20
-31.23618460677493
 30
0.0
 10
58.18167221089649
 20
-54.00190735604946
 30
0.0
 10
58.18167221089649
 20
-54.00190735604946
 30
0.0
 10
58.18167221089649
 20
-54.00190735604946
 30
0.0
 10
57.18035454754492
 20
-55.07729462119721
 30
0.0
 10
57.18035454754492
 20
-55.07729462119721
 30
0.0
 10
57.18035454754492
 20
-55.07729462119721
 30
0.0
 10
33.1540705286322
 20
-55.18822676900358
 30
0.0
 10
33.1540705286322
 20
-55.18822676900358
 30
0.0
 10
33.1540705286322
 20
-55.18822676900358
 30
0.0
 10
32.51913901183987
 20
-54.84009964056155
 30
0.0
 10
32.51913901183987
 20
-54.84009964056155
 30
0.0
 10
32.51913901183987
 20
-54.84009964056155
 30
0.0
 10
30.69237592568068
 20
-54.80961052540358
 30
0.0
 10
30.69237592568068
 20
-54.80961052540358
 30
0.0
 10
30.69237592568068
 20
-54.80961052540358
 30
0.0
 10
30.11411626700681
 20
-54.85009042405964
 30
0.0
 10
30.11411626700681
 20
-55.47933752955134
 30
0.0
 10
30.11411626700681
 20
-56.10841238015514
 30
0.0
 10
30.13427008889089
 20
-57.6406196080086
 30
0.0
 10
30.13427008889089
 20
-57.6406196080086
 30
0.0
 10
30.13427008889089
 20
-57.6406196080086
 30
0.0
 10
29.8099141349788
 20
-57.6406196080086
 30
0.0
 10
29.8099141349788
 20
-57.6406196080086
 30
0.0
 10
29.8099141349788
 20
-57.6406196080086
 30
0.0
 10
29.81973266358899
 20
-71.63340091663369
 30
0.0
 10
29.81973266358899
 20
-71.63340091663369
 30
0.0
 10
29.81973266358899
 20
-71.63340091663369
 30
0.0
 10
10.08414564732966
 20
-71.65355473851777
 30
0.0
 10
10.08414564732966
 20
-71.65355473851777
 30
0.0
 10
10.08414564732966
 20
-71.65355473851777
 30
0.0
 10
5.112525072815146
 20
-85.15885471439128
 30
0.0
 10
5.112525072815146
 20
-85.15885471439128
 30
0.0
  0
HATCH
  5
3F
330
1F
100
AcDbEntity
  8
GRAU_10_
 62
   255
100
AcDbHatch
 10
0.0
 20
0.0
 30
0.0
210
0.0
220
0.0
230
1.0
  2
SOLID
 70
     1
 71
     0
 91
        1
 92
        1
 93
        1
 72
     4
 94
        3
 73
     0
 74
     1
 95
       86
 96
       82
 40
0.0
 40
0.0
 40
0.0
 40
0.0
 40
1.0
 40
1.0
 40
1.0
 40
2.0
 40
2.0
 40
2.0
 40
3.0
 40
3.0
 40
3.0
 40
4.0
 40
4.0
 40
4.0
 40
5.0
 40
5.0
 40
5.0
 40
6.0
 40
6.0
 40
6.0
 40
7.0
 40
7.0
 40
7.0
 40
8.0
 40
8.0
 40
8.0
 40
9.0
 40
9.0
 40
9.0
 40
10.0
 40
10.0
 40
10.0
 40
11.0
 40
11.0
 40
11.0
 40
12.0
 40
12.0
 40
12.0
 40
13.0
 40
13.0
 40
13.0
 40
14.0
 40
14.0
 40
14.0
 40
15.0
 40
15.0
 40
15.0
 40
16.0
 40
16.0
 40
16.0
 40
17.0
 40
17.0
 40
17.0
 40
18.0
 40
18.0
 40
18.0
 40
19.0
 40
19.0
 40
19.0
 40
20.0
 40
20.0
 40
20.0
 40
21.0
 40
21.0
 40
21.0
 40
22.0
 40
22.0
 40
22.0
 40
23.0
 40
23.0
 40
23.0
 40
24.0
 40
24.0
 40
24.0
 40
25.0
 40
25.0
 40
25.0
 40
26.0
 40
26.0
 40
26.0
 40
27.0
 40
27.0
 40
27.0
 40
27.0
 10
5.112525072815146
 20
-85.15885471439128
 10
5.112525072815146
 20
-85.15885471439128
 10
1.124996672862389
 20
-85.1924444175314
 10
1.124996672862389
 20
-85.1924444175314
 10
1.124996672862389
 20
-85.1924444175314
 10
0.0718302882535012
 20
-84.10275999668812
 10
0.0718302882535012
 20
-84.10275999668812
 10
0.0718302882535012
 20
-84.10275999668812
 10
0.0718302882535012
 20
-1.143600200755382
 10
0.0718302882535012
 20
-1.143600200755382
 10
0.0718302882535012
 20
-1.143600200755382
 10
1.124996672862389
 20
-0.0900893063706981
 10
1.124996672862389
 20
-0.0900893063706981
 10
1.124996672862389
 20
-0.0900893063706981
 10
5.120448797658457
 20
-0.2353001768687833
 10
5.120448797658457
 20
-0.2353001768687833
 10
5.120448797658457
 20
-0.2353001768687833
 10
9.98768291010673
 20
-13.67445427578943
 10
9.98768291010673
 20
-13.67445427578943
 10
9.98768291010673
 20
-13.67445427578943
 10
29.78321462735459
 20
-13.74731809337032
 10
29.78321462735459
 20
-13.74731809337032
 10
29.78321462735459
 20
-13.74731809337032
 10
29.80250717479918
 20
-27.63502392037758
 10
29.80250717479918
 20
-27.63502392037758
 10
29.80250717479918
 20
-27.63502392037758
 10
30.09447920978643
 20
-27.63502392037758
 10
30.09447920978643
 20
-27.63502392037758
 10
30.09447920978643
 20
-27.63502392037758
 10
30.10860411059408
 20
-29.85315011184122
 10
30.10860411059408
 20
-29.85315011184122
 10
30.10860411059408
 20
-29.85315011184122
 10
30.08018205409089
 20
-30.41625134038005
 10
30.6367375968896
 20
-30.42314153589598
 10
31.19329313968831
 20
-30.4300317314119
 10
32.46522323192777
 20
-30.41625134038005
 10
32.46522323192777
 20
-30.41625134038005
 10
32.46522323192777
 20
-30.41625134038005
 10
33.10532239535705
 20
-30.10326420906923
 10
33.10532239535705
 20
-30.10326420906923
 10
33.10532239535705
 20
-30.10326420906923
 10
34.11370250911244
 20
-30.10326420906923
 10
34.11370250911244
 20
-30.10326420906923
 10
34.11370250911244
 20
-30.10326420906923
 10
34.14815348669205
 20
-31.06289618954946
 10
34.14815348669205
 20
-31.06289618954946
 10
34.14815348669205
 20
-31.06289618954946
 10
58.10708584443662
 20
-31.23618460677493
 10
58.10708584443662
 20
-31.23618460677493
 10
58.10708584443662
 20
-31.23618460677493
 10
58.18167221089649
 20
-54.00190735604946
 10
58.18167221089649
 20
-54.00190735604946
 10
58.18167221089649
 20
-54.00190735604946
 10
57.18035454754492
 20
-55.07729462119721
 10
57.18035454754492
 20
-55.07729462119721
 10
57.18035454754492
 20
-55.07729462119721
 10
33.1540705286322
 20
-55.18822676900358
 10
33.1540705286322
 20
-55.18822676900358
 10
33.1540705286322
 20
-55.18822676900358
 10
32.51913901183987
 20
-54.84009964056155
 10
32.51913901183987
 20
-54.84009964056155
 10
32.51913901183987
 20
-54.84009964056155
 10
30.69237592568068
 20
-54.80961052540358
 10
30.69237592568068
 20
-54.80961052540358
 10
30.69237592568068
 20
-54.80961052540358
 10
30.11411626700681
 20
-54.85009042405964
 10
30.11411626700681
 20
-55.47933752955134
 10
30.11411626700681
 20
-56.10841238015514
 10
30.13427008889089
 20
-57.6406196080086
 10
30.13427008889089
 20
-57.6406196080086
 10
30.13427008889089
 20
-57.6406196080086
 10
29.8099141349788
 20
-57.6406196080086
 10
29.8099141349788
 20
-57.6406196080086
 10
29.8099141349788
 20
-57.6406196080086
 10
29.81973266358899
 20
-71.63340091663369
 10
29.81973266358899
 20
-71.63340091663369
 10
29.81973266358899
 20
-71.63340091663369
 10
10.08414564732966
 20
-71.65355473851777
 10
10.08414564732966
 20
-71.65355473851777
 10
10.08414564732966
 20
-71.65355473851777
 10
5.112525072815146
 20
-85.15885471439128
 10
5.112525072815146
 20
-85.15885471439128
 97
        0
 75
     0
 76
     1
 98
        0
  0
SPLINE
  5
40
330
1F
100
AcDbEntity
  8
GRAU_10_
100
AcDbSpline
210
0.0
220
0.0
230
1.0
 70
    11
 71
     3
 72
    17
 73
    13
 74
     0
 42
0.0000000001
 43
0.0000000001
 40
0.0
 40
0.0
 40
0.0
 40
0.0
 40
1.0
 40
1.0
 40
1.0
 40
2.0
 40
2.0
 40
2.0
 40
3.0
 40
3.0
 40
3.0
 40
4.0
 40
4.0
 40
4.0
 40
4.0
 10
183.2258017083134
 20
-42.59518867943832
 30
0.0
 10
183.2258017083134
 20
-19.10013873480329
 30
0.0
 10
164.1792342436464
 20
-0.0537435250242023
 30
0.0
 10
140.6840120441235
 20
-0.0537435250242023
 30
0.0
 10
117.1891343543764
 20
-0.0537435250242023
 30
0.0
 10
98.1425668897094
 20
-19.10013873480329
 30
0.0
 10
98.1425668897094
 20
-42.59518867943832
 30
0.0
 10
98.1425668897094
 20
-66.09023862407334
 30
0.0
 10
117.1891343543764
 20
-85.13680608874033
 30
0.0
 10
140.6840120441235
 20
-85.13680608874033
 30
0.0
 10
164.1792342436464
 20
-85.13680608874033
 30
0.0
 10
183.2258017083134
 20
-66.09023862407334
 30
0.0
 10
183.2258017083134
 20
-42.59518867943832
 30
0.0
  0
HATCH
  5
41
330
1F
100
AcDbEntity
  8
GRAU_10_
 62
   255
100
AcDbHatch
 10
0.0
 20
0.0
 30
0.0
210
0.0
220
0.0
230
1.0
  2
SOLID
 70
     1
 71
     0
 91
        1
 92
        1
 93
        1
 72
     4
 94
        3
 73
     0
 74
     1
 95
       17
 96
       13
 40
0.0
 40
0.0
 40
0.0
 40
0.0
 40
1.0
 40
1.0
 40
1.0
 40
2.0
 40
2.0
 40
2.0
 40
3.0
 40
3.0
 40
3.0
 40
4.0
 40
4.0
 40
4.0
 40
4.0
 10
183.2258017083134
 20
-42.59518867943832
 10
183.2258017083134
 20
-19.10013873480329
 10
164.1792342436464
 20
-0.0537435250242023
 10
140.6840120441235
 20
-0.0537435250242023
 10
117.1891343543764
 20
-0.0537435250242023
 10
98.1425668897094
 20
-19.10013873480329
 10
98.1425668897094
 20
-42.59518867943832
 10
98.1425668897094
 20
-66.09023862407334
 10
117.1891343543764
 20
-85.13680608874033
 10
140.6840120441235
 20
-85.13680608874033
 10
164.1792342436464
 20
-85.13680608874033
 10
183.2258017083134
 20
-66.09023862407334
 10
183.2258017083134
 20
-42.59518867943832
 97
        0
 75
     0
 76
     1
 98
        0
  0
POLYLINE
  5
43
330
1F
100
AcDbEntity
  8
STANDARDEBENE
 62
     7
100
AcDb2dPolyline
 66
     1
 10
0.0
 20
0.0
 30
0.0
  0
VERTEX
  5
44
330
43
100
AcDbEntity
  8
STANDARDEBENE
 62
     7
100
AcDbVertex
100
AcDb2dVertex
 10
32.58717969255961
 20
-51.8585397859336
 30
0.0
  0
VERTEX
  5
45
330
43
100
AcDbEntity
  8
STANDARDEBENE
 62
     7
100
AcDbVertex
100
AcDb2dVertex
 10
32.58717969255961
 20
-33.41486442890991
 30
0.0
  0
SEQEND
  5
46
330
43
100
AcDbEntity
  8
STANDARDEBENE
  0
POLYLINE
  5
47
330
1F
100
AcDbEntity
  8
STANDARDEBENE
 62
     7
100
AcDb2dPolyline
 66
     1
 10
0.0
 20
0.0
 30
0.0
  0
VERTEX
  5
48
330
47
100
AcDbEntity
  8
STANDARDEBENE
 62
     7
100
AcDbVertex
100
AcDb2dVertex
 10
32.58717969255961
 20
-166.8817411798795
 30
0.0
  0
VERTEX
  5
49
330
47
100
AcDbEntity
  8
STANDARDEBENE
 62
     7
100
AcDbVertex
100
AcDb2dVertex
 10
32.58717969255961
 20
-148.43772131308
 30
0.0
  0
SEQEND
  5
4A
330
47
100
AcDbEntity
  8
STANDARDEBENE
  0
POLYLINE
  5
4B
330
1F
100
AcDbEntity
  8
STANDARDEBENE
  6
AI-LINETYPE-1
 62
   250
100
AcDb2dPolyline
 66
     1
 10
0.0
 20
0.0
 30
0.0
  0
VERTEX
  5
4C
330
4B
100
AcDbEntity
  8
STANDARDEBENE
  6
AI-LINETYPE-1
 62
   250
100
AcDbVertex
100
AcDb2dVertex
 10
60.25527655141362
 20
-42.63670210742175
 30
0.0
  0
VERTEX
  5
4D
330
4B
100
AcDbEntity
  8
STANDARDEBENE
  6
AI-LINETYPE-1
 62
   250
100
AcDbVertex
100
AcDb2dVertex
 10
-1.425409197356649
 20
-42.63670210742175
 30
0.0
  0
SEQEND
  5
4E
330
4B
100
AcDbEntity
  8
STANDARDEBENE
  6
AI-LINETYPE-1
  0
POLYLINE
  5
50
330
1F
100
AcDbEntity
  8
STANDARDEBENE
  6
AI-LINETYPE-2
 62
   250
100
AcDb2dPolyline
 66
     1
 10
0.0
 20
0.0
 30
0.0
  0
VERTEX
  5
51
330
50
100
AcDbEntity
  8
STANDARDEBENE
  6
AI-LINETYPE-2
 62
   250
100
AcDbVertex
100
AcDb2dVertex
 10
59.50562327928116
 20
-157.6595589915918
 30
0.0
  0
VERTEX
  5
52
330
50
100
AcDbEntity
  8
STANDARDEBENE
  6
AI-LINETYPE-2
 62
   250
100
AcDbVertex
100
AcDb2dVertex
 10
-1.175811864792324
 20
-157.6595589915918
 30
0.0
  0
SEQEND
  5
53
330
50
100
AcDbEntity
  8
STANDARDEBENE
  6
AI-LINETYPE-2
  0
POLYLINE
  5
55
330
1F
100
AcDbEntity
  8
STANDARDEBENE
  6
AI-LINETYPE-3
 62
   250
100
AcDb2dPolyline
 66
     1
 10
0.0
 20
0.0
 30
0.0
  0
VERTEX
  5
56
330
55
100
AcDbEntity
  8
STANDARDEBENE
  6
AI-LINETYPE-3
 62
   250
100
AcDbVertex
100
AcDb2dVertex
 10
140.6864236125541
 20
-87.1439200425288
 30
0.0
  0
VERTEX
  5
57
330
55
100
AcDbEntity
  8
STANDARDEBENE
  6
AI-LINETYPE-3
 62
   250
100
AcDbVertex
100
AcDb2dVertex
 10
140.6864236125541
 20
1.256427152328628
 30
0.0
  0
SEQEND
  5
58
330
55
100
AcDbEntity
  8
STANDARDEBENE
  6
AI-LINETYPE-3
  0
POLYLINE
  5
5A
330
1F
100
AcDbEntity
  8
STANDARDEBENE
  6
AI-LINETYPE-4
 62
   250
100
AcDb2dPolyline
 66
     1
 10
0.0
 20
0.0
 30
0.0
  0
VERTEX
  5
5B
330
5A
100
AcDbEntity
  8
STANDARDEBENE
  6
AI-LINETYPE-4
 62
   250
100
AcDbVertex
100
AcDb2dVertex
 10
184.2920594644026
 20
-42.63670210742175
 30
0.0
  0
VERTEX
  5
5C
330
5A
100
AcDbEntity
  8
STANDARDEBENE
  6
AI-LINETYPE-4
 62
   250
100
AcDbVertex
100
AcDb2dVertex
 10
97.01533090330433
 20
-42.63670210742175
 30
0.0
  0
SEQEND
  5
5D
330
5A
100
AcDbEntity
  8
STANDARDEBENE
  6
AI-LINETYPE-4
  0
POLYLINE
  5
5F
330
1F
100
AcDbEntity
  8
STANDARDEBENE
 62
   250
100
AcDb2dPolyline
 66
     1
 10
0.0
 20
0.0
 30
0.0
  0
VERTEX
  5
60
330
5F
100
AcDbEntity
  8
STANDARDEBENE
 62
   250
100
AcDbVertex
100
AcDb2dVertex
 10
5.107012916402407
 20
-0.1371148907668752
 30
0.0
  0
VERTEX
  5
61
330
5F
100
AcDbEntity
  8
STANDARDEBENE
 62
   250
100
AcDbVertex
100
AcDb2dVertex
 10
1.106909909633091
 20
-0.1371148907668752
 30
0.0
  0
SEQEND
  5
62
330
5F
100
AcDbEntity
  8
STANDARDEBENE
  0
POLYLINE
  5
63
330
1F
100
AcDbEntity
  8
STANDARDEBENE
 62
   250
100
AcDb2dPolyline
 66
     1
 10
0.0
 20
0.0
 30
0.0
  0
VERTEX
  5
64
330
63
100
AcDbEntity
  8
STANDARDEBENE
 62
   250
100
AcDbVertex
100
AcDb2dVertex
 10
1.106909909633091
 20
-85.13697834362823
 30
0.0
  0
VERTEX
  5
65
330
63
100
AcDbEntity
  8
STANDARDEBENE
 62
   250
100
AcDbVertex
100
AcDb2dVertex
 10
5.107012916402407
 20
-85.13697834362823
 30
0.0
  0
VERTEX
  5
66
330
63
100
AcDbEntity
  8
STANDARDEBENE
 62
   250
100
AcDbVertex
100
AcDb2dVertex
 10
10.02110035835896
 20
-71.63701826927955
 30
0.0
  0
SEQEND
  5
67
330
63
100
AcDbEntity
  8
STANDARDEBENE
  0
POLYLINE
  5
68
330
1F
100
AcDbEntity
  8
STANDARDEBENE
 62
   250
100
AcDb2dPolyline
 66
     1
 10
0.0
 20
0.0
 30
0.0
  0
VERTEX
  5
69
330
68
100
AcDbEntity
  8
STANDARDEBENE
 62
   250
100
AcDbVertex
100
AcDb2dVertex
 10
10.02110035835896
 20
-13.63655820045185
 30
0.0
  0
VERTEX
  5
6A
330
68
100
AcDbEntity
  8
STANDARDEBENE
 62
   250
100
AcDbVertex
100
AcDb2dVertex
 10
5.107012916402407
 20
-0.1371148907668752
 30
0.0
  0
SEQEND
  5
6B
330
68
100
AcDbEntity
  8
STANDARDEBENE
  0
POLYLINE
  5
6C
330
1F
100
AcDbEntity
  8
STANDARDEBENE
 62
   250
100
AcDb2dPolyline
 66
     1
 10
0.0
 20
0.0
 30
0.0
  0
VERTEX
  5
6D
330
6C
100
AcDbEntity
  8
STANDARDEBENE
 62
   250
100
AcDbVertex
100
AcDb2dVertex
 10
1.106909909633091
 20
-0.1371148907668752
 30
0.0
  0
VERTEX
  5
6E
330
6C
100
AcDbEntity
  8
STANDARDEBENE
 62
   250
100
AcDbVertex
100
AcDb2dVertex
 10
0.1071425402726085
 20
-1.136710005239459
 30
0.0
  0
SEQEND
  5
6F
330
6C
100
AcDbEntity
  8
STANDARDEBENE
  0
POLYLINE
  5
70
330
1F
100
AcDbEntity
  8
STANDARDEBENE
 62
   250
100
AcDb2dPolyline
 66
     1
 10
0.0
 20
0.0
 30
0.0
  0
VERTEX
  5
71
330
70
100
AcDbEntity
  8
STANDARDEBENE
 62
   250
100
AcDbVertex
100
AcDb2dVertex
 10
0.1071425402726085
 20
-84.13669420960404
 30
0.0
  0
VERTEX
  5
72
330
70
100
AcDbEntity
  8
STANDARDEBENE
 62
   250
100
AcDbVertex
100
AcDb2dVertex
 10
1.106909909633091
 20
-85.13697834362823
 30
0.0
  0
SEQEND
  5
73
330
70
100
AcDbEntity
  8
STANDARDEBENE
  0
POLYLINE
  5
74
330
1F
100
AcDbEntity
  8
STANDARDEBENE
 62
   250
100
AcDb2dPolyline
 66
     1
 10
0.0
 20
0.0
 30
0.0
  0
VERTEX
  5
75
330
74
100
AcDbEntity
  8
STANDARDEBENE
 62
   250
100
AcDbVertex
100
AcDb2dVertex
 10
10.02110035835896
 20
-71.63701826927955
 30
0.0
  0
VERTEX
  5
76
330
74
100
AcDbEntity
  8
STANDARDEBENE
 62
   250
100
AcDbVertex
100
AcDb2dVertex
 10
29.80681354699663
 20
-71.63701826927955
 30
0.0
  0
SEQEND
  5
77
330
74
100
AcDbEntity
  8
STANDARDEBENE
  0
POLYLINE
  5
78
330
1F
100
AcDbEntity
  8
STANDARDEBENE
 62
   250
100
AcDb2dPolyline
 66
     1
 10
0.0
 20
0.0
 30
0.0
  0
VERTEX
  5
79
330
78
100
AcDbEntity
  8
STANDARDEBENE
 62
   250
100
AcDbVertex
100
AcDb2dVertex
 10
29.80681354699663
 20
-13.63655820045185
 30
0.0
  0
VERTEX
  5
7A
330
78
100
AcDbEntity
  8
STANDARDEBENE
 62
   250
100
AcDbVertex
100
AcDb2dVertex
 10
10.02110035835896
 20
-13.63655820045185
 30
0.0
  0
SEQEND
  5
7B
330
78
100
AcDbEntity
  8
STANDARDEBENE
  0
POLYLINE
  5
7C
330
1F
100
AcDbEntity
  8
STANDARDEBENE
 62
   250
100
AcDb2dPolyline
 66
     1
 10
0.0
 20
0.0
 30
0.0
  0
VERTEX
  5
7D
330
7C
100
AcDbEntity
  8
STANDARDEBENE
 62
   250
100
AcDbVertex
100
AcDb2dVertex
 10
29.80681354699663
 20
-57.63665774558694
 30
0.0
  0
VERTEX
  5
7E
330
7C
100
AcDbEntity
  8
STANDARDEBENE
 62
   250
100
AcDbVertex
100
AcDb2dVertex
 10
30.10705381660299
 20
-57.63665774558694
 30
0.0
  0
SEQEND
  5
7F
330
7C
100
AcDbEntity
  8
STANDARDEBENE
  0
POLYLINE
  5
80
330
1F
100
AcDbEntity
  8
STANDARDEBENE
 62
   250
100
AcDb2dPolyline
 66
     1
 10
0.0
 20
0.0
 30
0.0
  0
VERTEX
  5
81
330
80
100
AcDbEntity
  8
STANDARDEBENE
 62
   250
100
AcDbVertex
100
AcDb2dVertex
 10
30.10705381660299
 20
-27.63674646925656
 30
0.0
  0
VERTEX
  5
82
330
80
100
AcDbEntity
  8
STANDARDEBENE
 62
   250
100
AcDbVertex
100
AcDb2dVertex
 10
29.80681354699663
 20
-27.63674646925656
 30
0.0
  0
SEQEND
  5
83
330
80
100
AcDbEntity
  8
STANDARDEBENE
  0
POLYLINE
  5
84
330
1F
100
AcDbEntity
  8
STANDARDEBENE
 62
   250
100
AcDb2dPolyline
 66
     1
 10
0.0
 20
0.0
 30
0.0
  0
VERTEX
  5
85
330
84
100
AcDbEntity
  8
STANDARDEBENE
 62
   250
100
AcDbVertex
100
AcDb2dVertex
 10
33.10721719912393
 20
-30.13685391220936
 30
0.0
  0
VERTEX
  5
86
330
84
100
AcDbEntity
  8
STANDARDEBENE
 62
   250
100
AcDbVertex
100
AcDb2dVertex
 10
32.72653389686916
 20
-30.35630663939152
 30
0.0
  0
SEQEND
  5
87
330
84
100
AcDbEntity
  8
STANDARDEBENE
  0
POLYLINE
  5
88
330
1F
100
AcDbEntity
  8
STANDARDEBENE
 62
   250
100
AcDb2dPolyline
 66
     1
 10
0.0
 20
0.0
 30
0.0
  0
VERTEX
  5
89
330
88
100
AcDbEntity
  8
STANDARDEBENE
 62
   250
100
AcDbVertex
100
AcDb2dVertex
 10
32.72653389686916
 20
-54.91744208522778
 30
0.0
  0
VERTEX
  5
8A
330
88
100
AcDbEntity
  8
STANDARDEBENE
 62
   250
100
AcDbVertex
100
AcDb2dVertex
 10
33.10721719912393
 20
-55.13689481240994
 30
0.0
  0
VERTEX
  5
8B
330
88
100
AcDbEntity
  8
STANDARDEBENE
 62
   250
100
AcDbVertex
100
AcDb2dVertex
 10
57.10697396530033
 20
-55.13689481240994
 30
0.0
  0
SEQEND
  5
8C
330
88
100
AcDbEntity
  8
STANDARDEBENE
  0
POLYLINE
  5
8D
330
1F
100
AcDbEntity
  8
STANDARDEBENE
 62
   250
100
AcDb2dPolyline
 66
     1
 10
0.0
 20
0.0
 30
0.0
  0
VERTEX
  5
8E
330
8D
100
AcDbEntity
  8
STANDARDEBENE
 62
   250
100
AcDbVertex
100
AcDb2dVertex
 10
34.10681231359651
 20
-30.13685391220936
 30
0.0
  0
VERTEX
  5
8F
330
8D
100
AcDbEntity
  8
STANDARDEBENE
 62
   250
100
AcDbVertex
100
AcDb2dVertex
 10
33.10721719912393
 20
-30.13685391220936
 30
0.0
  0
SEQEND
  5
90
330
8D
100
AcDbEntity
  8
STANDARDEBENE
  0
POLYLINE
  5
91
330
1F
100
AcDbEntity
  8
STANDARDEBENE
 62
   250
100
AcDb2dPolyline
 66
     1
 10
0.0
 20
0.0
 30
0.0
  0
VERTEX
  5
92
330
91
100
AcDbEntity
  8
STANDARDEBENE
 62
   250
100
AcDbVertex
100
AcDb2dVertex
 10
57.10697396530033
 20
-55.13689481240994
 30
0.0
  0
VERTEX
  5
93
330
91
100
AcDbEntity
  8
STANDARDEBENE
 62
   250
100
AcDbVertex
100
AcDb2dVertex
 10
58.10691358954872
 20
-54.13643842349787
 30
0.0
  0
SEQEND
  5
94
330
91
100
AcDbEntity
  8
STANDARDEBENE
  0
POLYLINE
  5
95
330
1F
100
AcDbEntity
  8
STANDARDEBENE
 62
   250
100
AcDb2dPolyline
 66
     1
 10
0.0
 20
0.0
 30
0.0
  0
VERTEX
  5
96
330
95
100
AcDbEntity
  8
STANDARDEBENE
 62
   250
100
AcDbVertex
100
AcDb2dVertex
 10
32.42681039192649
 20
-30.43692192692782
 30
0.0
  0
VERTEX
  5
97
330
95
100
AcDbEntity
  8
STANDARDEBENE
 62
   250
100
AcDbVertex
100
AcDb2dVertex
 10
30.70718984603992
 20
-30.43692192692782
 30
0.0
  0
SEQEND
  5
98
330
95
100
AcDbEntity
  8
STANDARDEBENE
  0
POLYLINE
  5
99
330
1F
100
AcDbEntity
  8
STANDARDEBENE
 62
   250
100
AcDb2dPolyline
 66
     1
 10
0.0
 20
0.0
 30
0.0
  0
VERTEX
  5
9A
330
99
100
AcDbEntity
  8
STANDARDEBENE
 62
   250
100
AcDbVertex
100
AcDb2dVertex
 10
30.70718984603992
 20
-54.83665454280359
 30
0.0
  0
VERTEX
  5
9B
330
99
100
AcDbEntity
  8
STANDARDEBENE
 62
   250
100
AcDbVertex
100
AcDb2dVertex
 10
32.42681039192649
 20
-54.83665454280359
 30
0.0
  0
SEQEND
  5
9C
330
99
100
AcDbEntity
  8
STANDARDEBENE
  0
SPLINE
  5
9D
330
1F
100
AcDbEntity
  8
STANDARDEBENE
 62
   250
100
AcDbSpline
210
0.0
220
0.0
230
1.0
 70
     8
 71
     3
 72
     8
 73
     4
 74
     0
 42
0.0000000001
 43
0.0000000001
 40
0.0
 40
0.0
 40
0.0
 40
0.0
 40
1.0
 40
1.0
 40
1.0
 40
1.0
 10
30.70718984603992
 20
-54.83665454280359
 30
0.0
 10
30.37542693194821
 20
-54.83665454280359
 30
0.0
 10
30.10705381660299
 20
-55.1050276581488
 30
0.0
 10
30.10705381660299
 20
-55.4371350820163
 30
0.0
  0
SPLINE
  5
9E
330
1F
100
AcDbEntity
  8
STANDARDEBENE
 62
   250
100
AcDbSpline
210
0.0
220
0.0
230
1.0
 70
     8
 71
     3
 72
     8
 73
     4
 74
     0
 42
0.0000000001
 43
0.0000000001
 40
0.0
 40
0.0
 40
0.0
 40
0.0
 40
1.0
 40
1.0
 40
1.0
 40
1.0
 10
30.10705381660299
 20
-29.8369581523788
 30
0.0
 10
30.10705381660299
 20
-30.16820430180681
 30
0.0
 10
30.37542693194821
 20
-30.43692192692782
 30
0.0
 10
30.70718984603992
 20
-30.43692192692782
 30
0.0
  0
SPLINE
  5
9F
330
1F
100
AcDbEntity
  8
STANDARDEBENE
 62
   250
100
AcDbSpline
210
0.0
220
0.0
230
1.0
 70
     8
 71
     3
 72
     8
 73
     4
 74
     0
 42
0.0000000001
 43
0.0000000001
 40
0.0
 40
0.0
 40
0.0
 40
0.0
 40
1.0
 40
1.0
 40
1.0
 40
1.0
 10
32.72653389686916
 20
-54.91744208522778
 30
0.0
 10
32.63058792430993
 20
-54.8621482662125
 30
0.0
 10
32.52654597201948
 20
-54.83631003302779
 30
0.0
 10
32.42681039192649
 20
-54.83665454280359
 30
0.0
  0
SPLINE
  5
A0
330
1F
100
AcDbEntity
  8
STANDARDEBENE
 62
   250
100
AcDbSpline
210
0.0
220
0.0
230
1.0
 70
     8
 71
     3
 72
     8
 73
     4
 74
     0
 42
0.0000000001
 43
0.0000000001
 40
0.0
 40
0.0
 40
0.0
 40
0.0
 40
1.0
 40
1.0
 40
1.0
 40
1.0
 10
32.42681039192649
 20
-30.43692192692782
 30
0.0
 10
32.53739802995707
 20
-30.43692192692782
 30
0.0
 10
32.64075096269592
 20
-30.40660506665776
 30
0.0
 10
32.72653389686916
 20
-30.35630663939152
 30
0.0
  0
POLYLINE
  5
A1
330
1F
100
AcDbEntity
  8
STANDARDEBENE
 62
   250
100
AcDb2dPolyline
 66
     1
 10
0.0
 20
0.0
 30
0.0
  0
VERTEX
  5
A2
330
A1
100
AcDbEntity
  8
STANDARDEBENE
 62
   250
100
AcDbVertex
100
AcDb2dVertex
 10
30.10705381660299
 20
-27.63674646925656
 30
0.0
  0
VERTEX
  5
A3
330
A1
100
AcDbEntity
  8
STANDARDEBENE
 62
   250
100
AcDbVertex
100
AcDb2dVertex
 10
30.10705381660299
 20
-27.74578381329605
 30
0.0
  0
VERTEX
  5
A4
330
A1
100
AcDbEntity
  8
STANDARDEBENE
 62
   250
100
AcDbVertex
100
AcDb2dVertex
 10
30.10705381660299
 20
-28.07306810030241
 30
0.0
  0
VERTEX
  5
A5
330
A1
100
AcDbEntity
  8
STANDARDEBENE
 62
   250
100
AcDbVertex
100
AcDb2dVertex
 10
30.10705381660299
 20
-28.61170913475972
 30
0.0
  0
VERTEX
  5
A6
330
A1
100
AcDbEntity
  8
STANDARDEBENE
 62
   250
100
AcDbVertex
100
AcDb2dVertex
 10
30.10705381660299
 20
-29.35516123092785
 30
0.0
  0
VERTEX
  5
A7
330
A1
100
AcDbEntity
  8
STANDARDEBENE
 62
   250
100
AcDbVertex
100
AcDb2dVertex
 10
30.10705381660299
 20
-30.29188331131764
 30
0.0
  0
VERTEX
  5
A8
330
A1
100
AcDbEntity
  8
STANDARDEBENE
 62
   250
100
AcDbVertex
100
AcDb2dVertex
 10
30.10705381660299
 20
-31.40912851422461
 30
0.0
  0
VERTEX
  5
A9
330
A1
100
AcDbEntity
  8
STANDARDEBENE
 62
   250
100
AcDbVertex
100
AcDb2dVertex
 10
30.10705381660299
 20
-32.68967135085897
 30
0.0
  0
VERTEX
  5
AA
330
A1
100
AcDbEntity
  8
STANDARDEBENE
 62
   250
100
AcDbVertex
100
AcDb2dVertex
 10
30.10705381660299
 20
-34.11594182265511
 30
0.0
  0
VERTEX
  5
AB
330
A1
100
AcDbEntity
  8
STANDARDEBENE
 62
   250
100
AcDbVertex
100
AcDb2dVertex
 10
30.10705381660299
 20
-35.66606355884997
 30
0.0
  0
VERTEX
  5
AC
330
A1
100
AcDbEntity
  8
STANDARDEBENE
 62
   250
100
AcDbVertex
100
AcDb2dVertex
 10
30.10705381660299
 20
-37.3178156789047
 30
0.0
  0
VERTEX
  5
AD
330
A1
100
AcDbEntity
  8
STANDARDEBENE
 62
   250
100
AcDbVertex
100
AcDb2dVertex
 10
30.10705381660299
 20
-39.04673798873777
 30
0.0
  0
VERTEX
  5
AE
330
A1
100
AcDbEntity
  8
STANDARDEBENE
 62
   250
100
AcDbVertex
100
AcDb2dVertex
 10
30.10705381660299
 20
-40.82888705893136
 30
0.0
  0
VERTEX
  5
AF
330
A1
100
AcDbEntity
  8
STANDARDEBENE
 62
   250
100
AcDbVertex
100
AcDb2dVertex
 10
30.10705381660299
 20
-42.63670210742175
 30
0.0
  0
VERTEX
  5
B0
330
A1
100
AcDbEntity
  8
STANDARDEBENE
 62
   250
100
AcDbVertex
100
AcDb2dVertex
 10
30.10705381660299
 20
-44.44486166568795
 30
0.0
  0
VERTEX
  5
B1
330
A1
100
AcDbEntity
  8
STANDARDEBENE
 62
   250
100
AcDbVertex
100
AcDb2dVertex
 10
30.10705381660299
 20
-46.22649397121783
 30
0.0
  0
VERTEX
  5
B2
330
A1
100
AcDbEntity
  8
STANDARDEBENE
 62
   250
100
AcDbVertex
100
AcDb2dVertex
 10
30.10705381660299
 20
-47.9557607908267
 30
0.0
  0
VERTEX
  5
B3
330
A1
100
AcDbEntity
  8
STANDARDEBENE
 62
   250
100
AcDbVertex
100
AcDb2dVertex
 10
30.10705381660299
 20
-49.60785742065723
 30
0.0
  0
VERTEX
  5
B4
330
A1
100
AcDbEntity
  8
STANDARDEBENE
 62
   250
100
AcDbVertex
100
AcDb2dVertex
 10
30.10705381660299
 20
-51.15780690196419
 30
0.0
  0
VERTEX
  5
B5
330
A1
100
AcDbEntity
  8
STANDARDEBENE
 62
   250
100
AcDbVertex
100
AcDb2dVertex
 10
30.10705381660299
 20
-52.58373286398454
 30
0.0
  0
VERTEX
  5
B6
330
A1
100
AcDbEntity
  8
STANDARDEBENE
 62
   250
100
AcDbVertex
100
AcDb2dVertex
 10
30.10705381660299
 20
-53.86479246528259
 30
0.0
  0
VERTEX
  5
B7
330
A1
100
AcDbEntity
  8
STANDARDEBENE
 62
   250
100
AcDbVertex
100
AcDb2dVertex
 10
30.10705381660299
 20
-54.98134864863798
 30
0.0
  0
VERTEX
  5
B8
330
A1
100
AcDbEntity
  8
STANDARDEBENE
 62
   250
100
AcDbVertex
100
AcDb2dVertex
 10
30.10705381660299
 20
-55.91858749369145
 30
0.0
  0
VERTEX
  5
B9
330
A1
100
AcDbEntity
  8
STANDARDEBENE
 62
   250
100
AcDbVertex
100
AcDb2dVertex
 10
30.10705381660299
 20
-56.66203958985958
 30
0.0
  0
VERTEX
  5
BA
330
A1
100
AcDbEntity
  8
STANDARDEBENE
 62
   250
100
AcDbVertex
100
AcDb2dVertex
 10
30.10705381660299
 20
-57.20102513409269
 30
0.0
  0
VERTEX
  5
BB
330
A1
100
AcDbEntity
  8
STANDARDEBENE
 62
   250
100
AcDbVertex
100
AcDb2dVertex
 10
30.10705381660299
 20
-57.52779265643536
 30
0.0
  0
VERTEX
  5
BC
330
A1
100
AcDbEntity
  8
STANDARDEBENE
 62
   250
100
AcDbVertex
100
AcDb2dVertex
 10
30.10705381660299
 20
-57.63665774558694
 30
0.0
  0
SEQEND
  5
BD
330
A1
100
AcDbEntity
  8
STANDARDEBENE
  0
POLYLINE
  5
BE
330
1F
100
AcDbEntity
  8
STANDARDEBENE
 62
   250
100
AcDb2dPolyline
 66
     1
 10
0.0
 20
0.0
 30
0.0
  0
VERTEX
  5
BF
330
BE
100
AcDbEntity
  8
STANDARDEBENE
 62
   250
100
AcDbVertex
100
AcDb2dVertex
 10
33.10721719912393
 20
-30.13685391220936
 30
0.0
  0
VERTEX
  5
C0
330
BE
100
AcDbEntity
  8
STANDARDEBENE
 62
   250
100
AcDbVertex
100
AcDb2dVertex
 10
33.10721719912393
 20
-30.24399645248197
 30
0.0
  0
VERTEX
  5
C1
330
BE
100
AcDbEntity
  8
STANDARDEBENE
 62
   250
100
AcDbVertex
100
AcDb2dVertex
 10
33.10721719912393
 20
-30.56284024998132
 30
0.0
  0
VERTEX
  5
C2
330
BE
100
AcDbEntity
  8
STANDARDEBENE
 62
   250
100
AcDbVertex
100
AcDb2dVertex
 10
33.10721719912393
 20
-31.08821765807048
 30
0.0
  0
VERTEX
  5
C3
330
BE
100
AcDbEntity
  8
STANDARDEBENE
 62
   250
100
AcDbVertex
100
AcDb2dVertex
 10
33.10721719912393
 20
-31.81117142257874
 30
0.0
  0
VERTEX
  5
C4
330
BE
100
AcDbEntity
  8
STANDARDEBENE
 62
   250
100
AcDbVertex
100
AcDb2dVertex
 10
33.10721719912393
 20
-32.71998821112903
 30
0.0
  0
VERTEX
  5
C5
330
BE
100
AcDbEntity
  8
STANDARDEBENE
 62
   250
100
AcDbVertex
100
AcDb2dVertex
 10
33.10721719912393
 20
-33.79778704470735
 30
0.0
  0
VERTEX
  5
C6
330
BE
100
AcDbEntity
  8
STANDARDEBENE
 62
   250
100
AcDbVertex
100
AcDb2dVertex
 10
33.10721719912393
 20
-35.02717017963597
 30
0.0
  0
VERTEX
  5
C7
330
BE
100
AcDbEntity
  8
STANDARDEBENE
 62
   250
100
AcDbVertex
100
AcDb2dVertex
 10
33.10721719912393
 20
-36.38712251959135
 30
0.0
  0
VERTEX
  5
C8
330
BE
100
AcDbEntity
  8
STANDARDEBENE
 62
   250
100
AcDbVertex
100
AcDb2dVertex
 10
33.10721719912393
 20
-37.85283936071615
 30
0.0
  0
VERTEX
  5
C9
330
BE
100
AcDbEntity
  8
STANDARDEBENE
 62
   250
100
AcDbVertex
100
AcDb2dVertex
 10
33.10721719912393
 20
-39.40123854803203
 30
0.0
  0
VERTEX
  5
CA
330
BE
100
AcDbEntity
  8
STANDARDEBENE
 62
   250
100
AcDbVertex
100
AcDb2dVertex
 10
33.10721719912393
 20
-41.0054483190269
 30
0.0
  0
VERTEX
  5
CB
330
BE
100
AcDbEntity
  8
STANDARDEBENE
 62
   250
100
AcDbVertex
100
AcDb2dVertex
 10
33.10721719912393
 20
-42.63670210742175
 30
0.0
  0
VERTEX
  5
CC
330
BE
100
AcDbEntity
  8
STANDARDEBENE
 62
   250
100
AcDbVertex
100
AcDb2dVertex
 10
33.10721719912393
 20
-44.26847266048031
 30
0.0
  0
VERTEX
  5
CD
330
BE
100
AcDbEntity
  8
STANDARDEBENE
 62
   250
100
AcDbVertex
100
AcDb2dVertex
 10
33.10721719912393
 20
-45.87199341192358
 30
0.0
  0
VERTEX
  5
CE
330
BE
100
AcDbEntity
  8
STANDARDEBENE
 62
   250
100
AcDbVertex
100
AcDb2dVertex
 10
33.10721719912393
 20
-47.42022034435156
 30
0.0
  0
VERTEX
  5
CF
330
BE
100
AcDbEntity
  8
STANDARDEBENE
 62
   250
100
AcDbVertex
100
AcDb2dVertex
 10
33.10721719912393
 20
-48.88662620502795
 30
0.0
  0
VERTEX
  5
D0
330
BE
100
AcDbEntity
  8
STANDARDEBENE
 62
   250
100
AcDbVertex
100
AcDb2dVertex
 10
33.10721719912393
 20
-50.24588952543174
 30
0.0
  0
VERTEX
  5
D1
330
BE
100
AcDbEntity
  8
STANDARDEBENE
 62
   250
100
AcDbVertex
100
AcDb2dVertex
 10
33.10721719912393
 20
-51.47561717013616
 30
0.0
  0
VERTEX
  5
D2
330
BE
100
AcDbEntity
  8
STANDARDEBENE
 62
   250
100
AcDbVertex
100
AcDb2dVertex
 10
33.10721719912393
 20
-52.55393276837817
 30
0.0
  0
VERTEX
  5
D3
330
BE
100
AcDbEntity
  8
STANDARDEBENE
 62
   250
100
AcDbVertex
100
AcDb2dVertex
 10
33.10721719912393
 20
-53.46223279226477
 30
0.0
  0
VERTEX
  5
D4
330
BE
100
AcDbEntity
  8
STANDARDEBENE
 62
   250
100
AcDbVertex
100
AcDb2dVertex
 10
33.10721719912393
 20
-54.18518655677303
 30
0.0
  0
VERTEX
  5
D5
330
BE
100
AcDbEntity
  8
STANDARDEBENE
 62
   250
100
AcDbVertex
100
AcDb2dVertex
 10
33.10721719912393
 20
-54.71108072952588
 30
0.0
  0
VERTEX
  5
D6
330
BE
100
AcDbEntity
  8
STANDARDEBENE
 62
   250
100
AcDbVertex
100
AcDb2dVertex
 10
33.10721719912393
 20
-55.03009678191313
 30
0.0
  0
VERTEX
  5
D7
330
BE
100
AcDbEntity
  8
STANDARDEBENE
 62
   250
100
AcDbVertex
100
AcDb2dVertex
 10
33.10721719912393
 20
-55.13689481240994
 30
0.0
  0
SEQEND
  5
D8
330
BE
100
AcDbEntity
  8
STANDARDEBENE
  0
POLYLINE
  5
D9
330
1F
100
AcDbEntity
  8
STANDARDEBENE
 62
   250
100
AcDb2dPolyline
 66
     1
 10
0.0
 20
0.0
 30
0.0
  0
VERTEX
  5
DA
330
D9
100
AcDbEntity
  8
STANDARDEBENE
 62
   250
100
AcDbVertex
100
AcDb2dVertex
 10
58.10691358954872
 20
-31.13644902668194
 30
0.0
  0
VERTEX
  5
DB
330
D9
100
AcDbEntity
  8
STANDARDEBENE
 62
   250
100
AcDbVertex
100
AcDb2dVertex
 10
58.10691358954872
 20
-31.24376382184245
 30
0.0
  0
VERTEX
  5
DC
330
D9
100
AcDbEntity
  8
STANDARDEBENE
 62
   250
100
AcDbVertex
100
AcDb2dVertex
 10
58.10691358954872
 20
-31.5631243840055
 30
0.0
  0
VERTEX
  5
DD
330
D9
100
AcDbEntity
  8
STANDARDEBENE
 62
   250
100
AcDbVertex
100
AcDb2dVertex
 10
58.10691358954872
 20
-32.08901855675835
 30
0.0
  0
VERTEX
  5
DE
330
D9
100
AcDbEntity
  8
STANDARDEBENE
 62
   250
100
AcDbVertex
100
AcDb2dVertex
 10
58.10691358954872
 20
-32.81059428216343
 30
0.0
  0
VERTEX
  5
DF
330
D9
100
AcDbEntity
  8
STANDARDEBENE
 62
   250
100
AcDbVertex
100
AcDb2dVertex
 10
58.10691358954872
 20
-33.71613822784366
 30
0.0
  0
VERTEX
  5
E0
330
D9
100
AcDbEntity
  8
STANDARDEBENE
 62
   250
100
AcDbVertex
100
AcDb2dVertex
 10
58.10691358954872
 20
-34.78756363056974
 30
0.0
  0
VERTEX
  5
E1
330
D9
100
AcDbEntity
  8
STANDARDEBENE
 62
   250
100
AcDbVertex
100
AcDb2dVertex
 10
58.10691358954872
 20
-36.0048889233455
 30
0.0
  0
VERTEX
  5
E2
330
D9
100
AcDbEntity
  8
STANDARDEBENE
 62
   250
100
AcDbVertex
100
AcDb2dVertex
 10
58.10691358954872
 20
-37.34640999029578
 30
0.0
  0
VERTEX
  5
E3
330
D9
100
AcDbEntity
  8
STANDARDEBENE
 62
   250
100
AcDbVertex
100
AcDb2dVertex
 10
58.10691358954872
 20
-38.78559957868428
 30
0.0
  0
VERTEX
  5
E4
330
D9
100
AcDbEntity
  8
STANDARDEBENE
 62
   250
100
AcDbVertex
100
AcDb2dVertex
 10
58.10691358954872
 20
-40.29696396510207
 30
0.0
  0
VERTEX
  5
E5
330
D9
100
AcDbEntity
  8
STANDARDEBENE
 62
   250
100
AcDbVertex
100
AcDb2dVertex
 10
58.10691358954872
 20
-41.85156432838229
 30
0.0
  0
VERTEX
  5
E6
330
D9
100
AcDbEntity
  8
STANDARDEBENE
 62
   250
100
AcDbVertex
100
AcDb2dVertex
 10
58.10691358954872
 20
-43.42166763157333
 30
0.0
  0
VERTEX
  5
E7
330
D9
100
AcDbEntity
  8
STANDARDEBENE
 62
   250
100
AcDbVertex
100
AcDb2dVertex
 10
58.10691358954872
 20
-44.97626799485354
 30
0.0
  0
VERTEX
  5
E8
330
D9
100
AcDbEntity
  8
STANDARDEBENE
 62
   250
100
AcDbVertex
100
AcDb2dVertex
 10
58.10691358954872
 20
-46.48814914593503
 30
0.0
  0
VERTEX
  5
E9
330
D9
100
AcDbEntity
  8
STANDARDEBENE
 62
   250
100
AcDbVertex
100
AcDb2dVertex
 10
58.10691358954872
 20
-47.92768324409931
 30
0.0
  0
VERTEX
  5
EA
330
D9
100
AcDbEntity
  8
STANDARDEBENE
 62
   250
100
AcDbVertex
100
AcDb2dVertex
 10
58.10691358954872
 20
-49.26851529149801
 30
0.0
  0
VERTEX
  5
EB
330
D9
100
AcDbEntity
  8
STANDARDEBENE
 62
   250
100
AcDbVertex
100
AcDb2dVertex
 10
58.10691358954872
 20
-50.48635734893746
 30
0.0
  0
VERTEX
  5
EC
330
D9
100
AcDbEntity
  8
STANDARDEBENE
 62
   250
100
AcDbVertex
100
AcDb2dVertex
 10
58.10691358954872
 20
-51.55778275166355
 30
0.0
  0
VERTEX
  5
ED
330
D9
100
AcDbEntity
  8
STANDARDEBENE
 62
   250
100
AcDbVertex
100
AcDb2dVertex
 10
58.10691358954872
 20
-52.46246542290429
 30
0.0
  0
VERTEX
  5
EE
330
D9
100
AcDbEntity
  8
STANDARDEBENE
 62
   250
100
AcDbVertex
100
AcDb2dVertex
 10
58.10691358954872
 20
-53.18455791297306
 30
0.0
  0
VERTEX
  5
EF
330
D9
100
AcDbEntity
  8
STANDARDEBENE
 62
   250
100
AcDbVertex
100
AcDb2dVertex
 10
58.10691358954872
 20
-53.71027983083801
 30
0.0
  0
VERTEX
  5
F0
330
D9
100
AcDbEntity
  8
STANDARDEBENE
 62
   250
100
AcDbVertex
100
AcDb2dVertex
 10
58.10691358954872
 20
-54.02964039300106
 30
0.0
  0
VERTEX
  5
F1
330
D9
100
AcDbEntity
  8
STANDARDEBENE
 62
   250
100
AcDbVertex
100
AcDb2dVertex
 10
58.10691358954872
 20
-54.13643842349787
 30
0.0
  0
SEQEND
  5
F2
330
D9
100
AcDbEntity
  8
STANDARDEBENE
  0
POLYLINE
  5
F3
330
1F
100
AcDbEntity
  8
STANDARDEBENE
 62
   250
100
AcDb2dPolyline
 66
     1
 10
0.0
 20
0.0
 30
0.0
  0
VERTEX
  5
F4
330
F3
100
AcDbEntity
  8
STANDARDEBENE
 62
   250
100
AcDbVertex
100
AcDb2dVertex
 10
57.10697396530033
 20
-31.13644902668194
 30
0.0
  0
VERTEX
  5
F5
330
F3
100
AcDbEntity
  8
STANDARDEBENE
 62
   250
100
AcDbVertex
100
AcDb2dVertex
 10
57.29748787131562
 20
-31.13644902668194
 30
0.0
  0
VERTEX
  5
F6
330
F3
100
AcDbEntity
  8
STANDARDEBENE
 62
   250
100
AcDbVertex
100
AcDb2dVertex
 10
57.85352664945064
 20
-31.13644902668194
 30
0.0
  0
VERTEX
  5
F7
330
F3
100
AcDbEntity
  8
STANDARDEBENE
 62
   250
100
AcDbVertex
100
AcDb2dVertex
 10
58.10209045268757
 20
-31.13644902668194
 30
0.0
  0
VERTEX
  5
F8
330
F3
100
AcDbEntity
  8
STANDARDEBENE
 62
   250
100
AcDbVertex
100
AcDb2dVertex
 10
58.10691358954872
 20
-31.13644902668194
 30
0.0
  0
SEQEND
  5
F9
330
F3
100
AcDbEntity
  8
STANDARDEBENE
  0
POLYLINE
  5
FA
330
1F
100
AcDbEntity
  8
STANDARDEBENE
 62
   250
100
AcDb2dPolyline
 66
     1
 10
0.0
 20
0.0
 30
0.0
  0
VERTEX
  5
FB
330
FA
100
AcDbEntity
  8
STANDARDEBENE
 62
   250
100
AcDbVertex
100
AcDb2dVertex
 10
57.10697396530033
 20
-55.13689481240994
 30
0.0
  0
VERTEX
  5
FC
330
FA
100
AcDbEntity
  8
STANDARDEBENE
 62
   250
100
AcDbVertex
100
AcDb2dVertex
 10
57.10697396530033
 20
-55.03044129168893
 30
0.0
  0
VERTEX
  5
FD
330
FA
100
AcDbEntity
  8
STANDARDEBENE
 62
   250
100
AcDbVertex
100
AcDb2dVertex
 10
57.10697396530033
 20
-54.71418131750804
 30
0.0
  0
VERTEX
  5
FE
330
FA
100
AcDbEntity
  8
STANDARDEBENE
 62
   250
100
AcDbVertex
100
AcDb2dVertex
 10
57.10697396530033
 20
-54.19207675228895
 30
0.0
  0
VERTEX
  5
FF
330
FA
100
AcDbEntity
  8
STANDARDEBENE
 62
   250
100
AcDbVertex
100
AcDb2dVertex
 10
57.10697396530033
 20
-53.47429063441763
 30
0.0
  0
VERTEX
  5
100
330
FA
100
AcDbEntity
  8
STANDARDEBENE
 62
   250
100
AcDbVertex
100
AcDb2dVertex
 10
57.10697396530033
 20
-52.57184727671957
 30
0.0
  0
VERTEX
  5
101
330
FA
100
AcDbEntity
  8
STANDARDEBENE
 62
   250
100
AcDbVertex
100
AcDb2dVertex
 10
57.10697396530033
 20
-51.50093863865718
 30
0.0
  0
VERTEX
  5
102
330
FA
100
AcDbEntity
  8
STANDARDEBENE
 62
   250
100
AcDbVertex
100
AcDb2dVertex
 10
57.10697396530033
 20
-50.27965148345976
 30
0.0
  0
VERTEX
  5
103
330
FA
100
AcDbEntity
  8
STANDARDEBENE
 62
   250
100
AcDbVertex
100
AcDb2dVertex
 10
57.10697396530033
 20
-48.92796737812349
 30
0.0
  0
VERTEX
  5
104
330
FA
100
AcDbEntity
  8
STANDARDEBENE
 62
   250
100
AcDbVertex
100
AcDb2dVertex
 10
57.10697396530033
 20
-47.46965749717831
 30
0.0
  0
VERTEX
  5
105
330
FA
100
AcDbEntity
  8
STANDARDEBENE
 62
   250
100
AcDbVertex
100
AcDb2dVertex
 10
57.10697396530033
 20
-45.92952654448154
 30
0.0
  0
VERTEX
  5
106
330
FA
100
AcDbEntity
  8
STANDARDEBENE
 62
   250
100
AcDbVertex
100
AcDb2dVertex
 10
57.10697396530033
 20
-44.33306824344209
 30
0.0
  0
VERTEX
  5
107
330
FA
100
AcDbEntity
  8
STANDARDEBENE
 62
   250
100
AcDbVertex
100
AcDb2dVertex
 10
57.10697396530033
 20
-42.70836014078736
 30
0.0
  0
VERTEX
  5
108
330
FA
100
AcDbEntity
  8
STANDARDEBENE
 62
   250
100
AcDbVertex
100
AcDb2dVertex
 10
57.10697396530033
 20
-41.08192948925365
 30
0.0
  0
VERTEX
  5
109
330
FA
100
AcDbEntity
  8
STANDARDEBENE
 62
   250
100
AcDbVertex
100
AcDb2dVertex
 10
57.10697396530033
 20
-39.48237060023203
 30
0.0
  0
VERTEX
  5
10A
330
FA
100
AcDbEntity
  8
STANDARDEBENE
 62
   250
100
AcDbVertex
100
AcDb2dVertex
 10
57.10697396530033
 20
-37.93586621668303
 30
0.0
  0
VERTEX
  5
10B
330
FA
100
AcDbEntity
  8
STANDARDEBENE
 62
   250
100
AcDbVertex
100
AcDb2dVertex
 10
57.10697396530033
 20
-36.46946035600664
 30
0.0
  0
VERTEX
  5
10C
330
FA
100
AcDbEntity
  8
STANDARDEBENE
 62
   250
100
AcDbVertex
100
AcDb2dVertex
 10
57.10697396530033
 20
-35.10795772206018
 30
0.0
  0
VERTEX
  5
10D
330
FA
100
AcDbEntity
  8
STANDARDEBENE
 62
   250
100
AcDbVertex
100
AcDb2dVertex
 10
57.10697396530033
 20
-33.8740959600462
 30
0.0
  0
VERTEX
  5
10E
330
FA
100
AcDbEntity
  8
STANDARDEBENE
 62
   250
100
AcDbVertex
100
AcDb2dVertex
 10
57.10697396530033
 20
-32.78957918583986
 30
0.0
  0
VERTEX
  5
10F
330
FA
100
AcDbEntity
  8
STANDARDEBENE
 62
   250
100
AcDbVertex
100
AcDb2dVertex
 10
57.10697396530033
 20
-31.87197739800677
 30
0.0
  0
VERTEX
  5
110
330
FA
100
AcDbEntity
  8
STANDARDEBENE
 62
   250
100
AcDbVertex
100
AcDb2dVertex
 10
57.10697396530033
 20
-31.13644902668194
 30
0.0
  0
SEQEND
  5
111
330
FA
100
AcDbEntity
  8
STANDARDEBENE
  0
POLYLINE
  5
112
330
1F
100
AcDbEntity
  8
STANDARDEBENE
 62
   250
100
AcDb2dPolyline
 66
     1
 10
0.0
 20
0.0
 30
0.0
  0
VERTEX
  5
113
330
112
100
AcDbEntity
  8
STANDARDEBENE
 62
   250
100
AcDbVertex
100
AcDb2dVertex
 10
34.10681231359651
 20
-31.13644902668194
 30
0.0
  0
VERTEX
  5
114
330
112
100
AcDbEntity
  8
STANDARDEBENE
 62
   250
100
AcDbVertex
100
AcDb2dVertex
 10
57.10697396530033
 20
-31.13644902668194
 30
0.0
  0
SEQEND
  5
115
330
112
100
AcDbEntity
  8
STANDARDEBENE
  0
POLYLINE
  5
116
330
1F
100
AcDbEntity
  8
STANDARDEBENE
 62
   250
100
AcDb2dPolyline
 66
     1
 10
0.0
 20
0.0
 30
0.0
  0
VERTEX
  5
117
330
116
100
AcDbEntity
  8
STANDARDEBENE
 62
   250
100
AcDbVertex
100
AcDb2dVertex
 10
34.10681231359651
 20
-30.13685391220936
 30
0.0
  0
VERTEX
  5
118
330
116
100
AcDbEntity
  8
STANDARDEBENE
 62
   250
100
AcDbVertex
100
AcDb2dVertex
 10
34.10681231359651
 20
-30.24933635400681
 30
0.0
  0
VERTEX
  5
119
330
116
100
AcDbEntity
  8
STANDARDEBENE
 62
   250
100
AcDbVertex
100
AcDb2dVertex
 10
34.10681231359651
 20
-30.58471662074438
 30
0.0
  0
VERTEX
  5
11A
330
116
100
AcDbEntity
  8
STANDARDEBENE
 62
   250
100
AcDbVertex
100
AcDb2dVertex
 10
34.10681231359651
 20
-31.13644902668194
 30
0.0
  0
SEQEND
  5
11B
330
116
100
AcDbEntity
  8
STANDARDEBENE
  0
POLYLINE
  5
11C
330
1F
100
AcDbEntity
  8
STANDARDEBENE
 62
   250
100
AcDb2dPolyline
 66
     1
 10
0.0
 20
0.0
 30
0.0
  0
VERTEX
  5
11D
330
11C
100
AcDbEntity
  8
STANDARDEBENE
 62
   250
100
AcDbVertex
100
AcDb2dVertex
 10
1.106909909633091
 20
-0.1371148907668752
 30
0.0
  0
VERTEX
  5
11E
330
11C
100
AcDbEntity
  8
STANDARDEBENE
 62
   250
100
AcDbVertex
100
AcDb2dVertex
 10
1.106909909633091
 20
-0.2404678235057258
 30
0.0
  0
VERTEX
  5
11F
330
11C
100
AcDbEntity
  8
STANDARDEBENE
 62
   250
100
AcDbVertex
100
AcDb2dVertex
 10
1.106909909633091
 20
-0.5501821119464817
 30
0.0
  0
VERTEX
  5
120
330
11C
100
AcDbEntity
  8
STANDARDEBENE
 62
   250
100
AcDbVertex
100
AcDb2dVertex
 10
1.106909909633091
 20
-1.065396481649652
 30
0.0
  0
VERTEX
  5
121
330
11C
100
AcDbEntity
  8
STANDARDEBENE
 62
   250
100
AcDbVertex
100
AcDb2dVertex
 10
1.106909909633091
 20
-1.78318259952097
 30
0.0
  0
VERTEX
  5
122
330
11C
100
AcDbEntity
  8
STANDARDEBENE
 62
   250
100
AcDbVertex
100
AcDb2dVertex
 10
1.106909909633091
 20
-2.700095367802474
 30
0.0
  0
VERTEX
  5
123
330
11C
100
AcDbEntity
  8
STANDARDEBENE
 62
   250
100
AcDbVertex
100
AcDb2dVertex
 10
1.106909909633091
 20
-3.810794884969322
 30
0.0
  0
VERTEX
  5
124
330
11C
100
AcDbEntity
  8
STANDARDEBENE
 62
   250
100
AcDbVertex
100
AcDb2dVertex
 10
1.106909909633091
 20
-5.111663798375655
 30
0.0
  0
VERTEX
  5
125
330
11C
100
AcDbEntity
  8
STANDARDEBENE
 62
   250
100
AcDbVertex
100
AcDb2dVertex
 10
1.106909909633091
 20
-6.594778383178162
 30
0.0
  0
VERTEX
  5
126
330
11C
100
AcDbEntity
  8
STANDARDEBENE
 62
   250
100
AcDbVertex
100
AcDb2dVertex
 10
1.106909909633091
 20
-8.253420698748817
 30
0.0
  0
VERTEX
  5
127
330
11C
100
AcDbEntity
  8
STANDARDEBENE
 62
   250
100
AcDbVertex
100
AcDb2dVertex
 10
1.106909909633091
 20
-10.07983927513221
 30
0.0
  0
VERTEX
  5
128
330
11C
100
AcDbEntity
  8
STANDARDEBENE
 62
   250
100
AcDbVertex
100
AcDb2dVertex
 10
1.106909909633091
 20
-12.06524911304553
 30
0.0
  0
VERTEX
  5
129
330
11C
100
AcDbEntity
  8
STANDARDEBENE
 62
   250
100
AcDbVertex
100
AcDb2dVertex
 10
1.106909909633091
 20
-14.1987981545512
 30
0.0
  0
VERTEX
  5
12A
330
11C
100
AcDbEntity
  8
STANDARDEBENE
 62
   250
100
AcDbVertex
100
AcDb2dVertex
 10
1.106909909633091
 20
-16.47135689059063
 30
0.0
  0
VERTEX
  5
12B
330
11C
100
AcDbEntity
  8
STANDARDEBENE
 62
   250
100
AcDbVertex
100
AcDb2dVertex
 10
1.106909909633091
 20
-18.87138424367464
 30
0.0
  0
VERTEX
  5
12C
330
11C
100
AcDbEntity
  8
STANDARDEBENE
 62
   250
100
AcDbVertex
100
AcDb2dVertex
 10
1.106909909633091
 20
-21.38716688142616
 30
0.0
  0
VERTEX
  5
12D
330
11C
100
AcDbEntity
  8
STANDARDEBENE
 62
   250
100
AcDbVertex
100
AcDb2dVertex
 10
1.106909909633091
 20
-24.00595794214074
 30
0.0
  0
VERTEX
  5
12E
330
11C
100
AcDbEntity
  8
STANDARDEBENE
 62
   250
100
AcDbVertex
100
AcDb2dVertex
 10
1.106909909633091
 20
-26.7162163483292
 30
0.0
  0
VERTEX
  5
12F
330
11C
100
AcDbEntity
  8
STANDARDEBENE
 62
   250
100
AcDbVertex
100
AcDb2dVertex
 10
1.106909909633091
 20
-29.50330043452021
 30
0.0
  0
VERTEX
  5
130
330
11C
100
AcDbEntity
  8
STANDARDEBENE
 62
   250
100
AcDbVertex
100
AcDb2dVertex
 10
1.106909909633091
 20
-32.35532461344879
 30
0.0
  0
VERTEX
  5
131
330
11C
100
AcDbEntity
  8
STANDARDEBENE
 62
   250
100
AcDbVertex
100
AcDb2dVertex
 10
1.106909909633091
 20
-35.25678594520412
 30
0.0
  0
VERTEX
  5
132
330
11C
100
AcDbEntity
  8
STANDARDEBENE
 62
   250
100
AcDbVertex
100
AcDb2dVertex
 10
1.106909909633091
 20
-38.19442080341805
 30
0.0
  0
VERTEX
  5
133
330
11C
100
AcDbEntity
  8
STANDARDEBENE
 62
   250
100
AcDbVertex
100
AcDb2dVertex
 10
1.106909909633091
 20
-41.15358752261925
 30
0.0
  0
VERTEX
  5
134
330
11C
100
AcDbEntity
  8
STANDARDEBENE
 62
   250
100
AcDbVertex
100
AcDb2dVertex
 10
1.106909909633091
 20
-44.12033345688796
 30
0.0
  0
VERTEX
  5
135
330
11C
100
AcDbEntity
  8
STANDARDEBENE
 62
   250
100
AcDbVertex
100
AcDb2dVertex
 10
1.106909909633091
 20
-47.07915566631335
 30
0.0
  0
VERTEX
  5
136
330
11C
100
AcDbEntity
  8
STANDARDEBENE
 62
   250
100
AcDbVertex
100
AcDb2dVertex
 10
1.106909909633091
 20
-50.01661826963939
 30
0.0
  0
VERTEX
  5
137
330
11C
100
AcDbEntity
  8
STANDARDEBENE
 62
   250
100
AcDbVertex
100
AcDb2dVertex
 10
1.106909909633091
 20
-52.91825185628262
 30
0.0
  0
VERTEX
  5
138
330
11C
100
AcDbEntity
  8
STANDARDEBENE
 62
   250
100
AcDbVertex
100
AcDb2dVertex
 10
1.106909909633091
 20
-55.76975927054751
 30
0.0
  0
VERTEX
  5
139
330
11C
100
AcDbEntity
  8
STANDARDEBENE
 62
   250
100
AcDbVertex
100
AcDb2dVertex
 10
1.106909909633091
 20
-58.5578768860659
 30
0.0
  0
VERTEX
  5
13A
330
11C
100
AcDbEntity
  8
STANDARDEBENE
 62
   250
100
AcDbVertex
100
AcDb2dVertex
 10
1.106909909633091
 20
-61.26779078247856
 30
0.0
  0
VERTEX
  5
13B
330
11C
100
AcDbEntity
  8
STANDARDEBENE
 62
   250
100
AcDbVertex
100
AcDb2dVertex
 10
1.106909909633091
 20
-63.88692635296894
 30
0.0
  0
VERTEX
  5
13C
330
11C
100
AcDbEntity
  8
STANDARDEBENE
 62
   250
100
AcDbVertex
100
AcDb2dVertex
 10
1.106909909633091
 20
-66.40201997116887
 30
0.0
  0
VERTEX
  5
13D
330
11C
100
AcDbEntity
  8
STANDARDEBENE
 62
   250
100
AcDbVertex
100
AcDb2dVertex
 10
1.106909909633091
 20
-68.80221957914078
 30
0.0
  0
VERTEX
  5
13E
330
11C
100
AcDbEntity
  8
STANDARDEBENE
 62
   250
100
AcDbVertex
100
AcDb2dVertex
 10
1.106909909633091
 20
-71.07477831518021
 30
0.0
  0
VERTEX
  5
13F
330
11C
100
AcDbEntity
  8
STANDARDEBENE
 62
   250
100
AcDbVertex
100
AcDb2dVertex
 10
1.106909909633091
 20
-73.20849961157377
 30
0.0
  0
VERTEX
  5
140
330
11C
100
AcDbEntity
  8
STANDARDEBENE
 62
   250
100
AcDbVertex
100
AcDb2dVertex
 10
1.106909909633091
 20
-75.1937371945992
 30
0.0
  0
VERTEX
  5
141
330
11C
100
AcDbEntity
  8
STANDARDEBENE
 62
   250
100
AcDbVertex
100
AcDb2dVertex
 10
1.106909909633091
 20
-77.0198112612068
 30
0.0
  0
VERTEX
  5
142
330
11C
100
AcDbEntity
  8
STANDARDEBENE
 62
   250
100
AcDbVertex
100
AcDb2dVertex
 10
1.106909909633091
 20
-78.67914259632904
 30
0.0
  0
VERTEX
  5
143
330
11C
100
AcDbEntity
  8
STANDARDEBENE
 62
   250
100
AcDbVertex
100
AcDb2dVertex
 10
1.106909909633091
 20
-80.16174041646785
 30
0.0
  0
VERTEX
  5
144
330
11C
100
AcDbEntity
  8
STANDARDEBENE
 62
   250
100
AcDbVertex
100
AcDb2dVertex
 10
1.106909909633091
 20
-81.46243707498628
 30
0.0
  0
VERTEX
  5
145
330
11C
100
AcDbEntity
  8
STANDARDEBENE
 62
   250
100
AcDbVertex
100
AcDb2dVertex
 10
1.106909909633091
 20
-82.57382561170473
 30
0.0
  0
VERTEX
  5
146
330
11C
100
AcDbEntity
  8
STANDARDEBENE
 62
   250
100
AcDbVertex
100
AcDb2dVertex
 10
1.106909909633091
 20
-83.49022161532254
 30
0.0
  0
VERTEX
  5
147
330
11C
100
AcDbEntity
  8
STANDARDEBENE
 62
   250
100
AcDbVertex
100
AcDb2dVertex
 10
1.106909909633091
 20
-84.20800773319385
 30
0.0
  0
VERTEX
  5
148
330
11C
100
AcDbEntity
  8
STANDARDEBENE
 62
   250
100
AcDbVertex
100
AcDb2dVertex
 10
1.106909909633091
 20
-84.72339435778493
 30
0.0
  0
VERTEX
  5
149
330
11C
100
AcDbEntity
  8
STANDARDEBENE
 62
   250
100
AcDbVertex
100
AcDb2dVertex
 10
1.106909909633091
 20
-85.03310864622568
 30
0.0
  0
VERTEX
  5
14A
330
11C
100
AcDbEntity
  8
STANDARDEBENE
 62
   250
100
AcDbVertex
100
AcDb2dVertex
 10
1.106909909633091
 20
-85.13697834362823
 30
0.0
  0
SEQEND
  5
14B
330
11C
100
AcDbEntity
  8
STANDARDEBENE
  0
POLYLINE
  5
14C
330
1F
100
AcDbEntity
  8
STANDARDEBENE
 62
   250
100
AcDb2dPolyline
 66
     1
 10
0.0
 20
0.0
 30
0.0
  0
VERTEX
  5
14D
330
14C
100
AcDbEntity
  8
STANDARDEBENE
 62
   250
100
AcDbVertex
100
AcDb2dVertex
 10
5.107012916402407
 20
-85.13697834362823
 30
0.0
  0
VERTEX
  5
14E
330
14C
100
AcDbEntity
  8
STANDARDEBENE
 62
   250
100
AcDbVertex
100
AcDb2dVertex
 10
5.107012916402407
 20
-85.03310864622568
 30
0.0
  0
VERTEX
  5
14F
330
14C
100
AcDbEntity
  8
STANDARDEBENE
 62
   250
100
AcDbVertex
100
AcDb2dVertex
 10
5.107012916402407
 20
-84.72339435778493
 30
0.0
  0
VERTEX
  5
150
330
14C
100
AcDbEntity
  8
STANDARDEBENE
 62
   250
100
AcDbVertex
100
AcDb2dVertex
 10
5.107012916402407
 20
-84.20800773319385
 30
0.0
  0
VERTEX
  5
151
330
14C
100
AcDbEntity
  8
STANDARDEBENE
 62
   250
100
AcDbVertex
100
AcDb2dVertex
 10
5.107012916402407
 20
-83.49022161532254
 30
0.0
  0
VERTEX
  5
152
330
14C
100
AcDbEntity
  8
STANDARDEBENE
 62
   250
100
AcDbVertex
100
AcDb2dVertex
 10
5.107012916402407
 20
-82.57382561170473
 30
0.0
  0
VERTEX
  5
153
330
14C
100
AcDbEntity
  8
STANDARDEBENE
 62
   250
100
AcDbVertex
100
AcDb2dVertex
 10
5.107012916402407
 20
-81.46243707498628
 30
0.0
  0
VERTEX
  5
154
330
14C
100
AcDbEntity
  8
STANDARDEBENE
 62
   250
100
AcDbVertex
100
AcDb2dVertex
 10
5.107012916402407
 20
-80.16174041646785
 30
0.0
  0
VERTEX
  5
155
330
14C
100
AcDbEntity
  8
STANDARDEBENE
 62
   250
100
AcDbVertex
100
AcDb2dVertex
 10
5.107012916402407
 20
-78.67914259632904
 30
0.0
  0
VERTEX
  5
156
330
14C
100
AcDbEntity
  8
STANDARDEBENE
 62
   250
100
AcDbVertex
100
AcDb2dVertex
 10
5.107012916402407
 20
-77.0198112612068
 30
0.0
  0
VERTEX
  5
157
330
14C
100
AcDbEntity
  8
STANDARDEBENE
 62
   250
100
AcDbVertex
100
AcDb2dVertex
 10
5.107012916402407
 20
-75.1937371945992
 30
0.0
  0
VERTEX
  5
158
330
14C
100
AcDbEntity
  8
STANDARDEBENE
 62
   250
100
AcDbVertex
100
AcDb2dVertex
 10
5.107012916402407
 20
-73.20849961157377
 30
0.0
  0
VERTEX
  5
159
330
14C
100
AcDbEntity
  8
STANDARDEBENE
 62
   250
100
AcDbVertex
100
AcDb2dVertex
 10
5.107012916402407
 20
-71.07477831518021
 30
0.0
  0
VERTEX
  5
15A
330
14C
100
AcDbEntity
  8
STANDARDEBENE
 62
   250
100
AcDbVertex
100
AcDb2dVertex
 10
5.107012916402407
 20
-68.80221957914078
 30
0.0
  0
VERTEX
  5
15B
330
14C
100
AcDbEntity
  8
STANDARDEBENE
 62
   250
100
AcDbVertex
100
AcDb2dVertex
 10
5.107012916402407
 20
-66.40201997116887
 30
0.0
  0
VERTEX
  5
15C
330
14C
100
AcDbEntity
  8
STANDARDEBENE
 62
   250
100
AcDbVertex
100
AcDb2dVertex
 10
5.107012916402407
 20
-63.88692635296894
 30
0.0
  0
VERTEX
  5
15D
330
14C
100
AcDbEntity
  8
STANDARDEBENE
 62
   250
100
AcDbVertex
100
AcDb2dVertex
 10
5.107012916402407
 20
-61.26779078247856
 30
0.0
  0
VERTEX
  5
15E
330
14C
100
AcDbEntity
  8
STANDARDEBENE
 62
   250
100
AcDbVertex
100
AcDb2dVertex
 10
5.107012916402407
 20
-58.5578768860659
 30
0.0
  0
VERTEX
  5
15F
330
14C
100
AcDbEntity
  8
STANDARDEBENE
 62
   250
100
AcDbVertex
100
AcDb2dVertex
 10
5.107012916402407
 20
-55.76975927054751
 30
0.0
  0
VERTEX
  5
160
330
14C
100
AcDbEntity
  8
STANDARDEBENE
 62
   250
100
AcDbVertex
100
AcDb2dVertex
 10
5.107012916402407
 20
-52.91825185628262
 30
0.0
  0
VERTEX
  5
161
330
14C
100
AcDbEntity
  8
STANDARDEBENE
 62
   250
100
AcDbVertex
100
AcDb2dVertex
 10
5.107012916402407
 20
-50.01661826963939
 30
0.0
  0
VERTEX
  5
162
330
14C
100
AcDbEntity
  8
STANDARDEBENE
 62
   250
100
AcDbVertex
100
AcDb2dVertex
 10
5.107012916402407
 20
-47.07915566631335
 30
0.0
  0
VERTEX
  5
163
330
14C
100
AcDbEntity
  8
STANDARDEBENE
 62
   250
100
AcDbVertex
100
AcDb2dVertex
 10
5.107012916402407
 20
-44.12033345688796
 30
0.0
  0
VERTEX
  5
164
330
14C
100
AcDbEntity
  8
STANDARDEBENE
 62
   250
100
AcDbVertex
100
AcDb2dVertex
 10
5.107012916402407
 20
-41.15358752261925
 30
0.0
  0
VERTEX
  5
165
330
14C
100
AcDbEntity
  8
STANDARDEBENE
 62
   250
100
AcDbVertex
100
AcDb2dVertex
 10
5.107012916402407
 20
-38.19442080341805
 30
0.0
  0
VERTEX
  5
166
330
14C
100
AcDbEntity
  8
STANDARDEBENE
 62
   250
100
AcDbVertex
100
AcDb2dVertex
 10
5.107012916402407
 20
-35.25678594520412
 30
0.0
  0
VERTEX
  5
167
330
14C
100
AcDbEntity
  8
STANDARDEBENE
 62
   250
100
AcDbVertex
100
AcDb2dVertex
 10
5.107012916402407
 20
-32.35532461344879
 30
0.0
  0
VERTEX
  5
168
330
14C
100
AcDbEntity
  8
STANDARDEBENE
 62
   250
100
AcDbVertex
100
AcDb2dVertex
 10
5.107012916402407
 20
-29.50330043452021
 30
0.0
  0
VERTEX
  5
169
330
14C
100
AcDbEntity
  8
STANDARDEBENE
 62
   250
100
AcDbVertex
100
AcDb2dVertex
 10
5.107012916402407
 20
-26.7162163483292
 30
0.0
  0
VERTEX
  5
16A
330
14C
100
AcDbEntity
  8
STANDARDEBENE
 62
   250
100
AcDbVertex
100
AcDb2dVertex
 10
5.107012916402407
 20
-24.00595794214074
 30
0.0
  0
VERTEX
  5
16B
330
14C
100
AcDbEntity
  8
STANDARDEBENE
 62
   250
100
AcDbVertex
100
AcDb2dVertex
 10
5.107012916402407
 20
-21.38716688142616
 30
0.0
  0
VERTEX
  5
16C
330
14C
100
AcDbEntity
  8
STANDARDEBENE
 62
   250
100
AcDbVertex
100
AcDb2dVertex
 10
5.107012916402407
 20
-18.87138424367464
 30
0.0
  0
VERTEX
  5
16D
330
14C
100
AcDbEntity
  8
STANDARDEBENE
 62
   250
100
AcDbVertex
100
AcDb2dVertex
 10
5.107012916402407
 20
-16.47135689059063
 30
0.0
  0
VERTEX
  5
16E
330
14C
100
AcDbEntity
  8
STANDARDEBENE
 62
   250
100
AcDbVertex
100
AcDb2dVertex
 10
5.107012916402407
 20
-14.1987981545512
 30
0.0
  0
VERTEX
  5
16F
330
14C
100
AcDbEntity
  8
STANDARDEBENE
 62
   250
100
AcDbVertex
100
AcDb2dVertex
 10
5.107012916402407
 20
-12.06524911304553
 30
0.0
  0
VERTEX
  5
170
330
14C
100
AcDbEntity
  8
STANDARDEBENE
 62
   250
100
AcDbVertex
100
AcDb2dVertex
 10
5.107012916402407
 20
-10.07983927513221
 30
0.0
  0
VERTEX
  5
171
330
14C
100
AcDbEntity
  8
STANDARDEBENE
 62
   250
100
AcDbVertex
100
AcDb2dVertex
 10
5.107012916402407
 20
-8.253420698748817
 30
0.0
  0
VERTEX
  5
172
330
14C
100
AcDbEntity
  8
STANDARDEBENE
 62
   250
100
AcDbVertex
100
AcDb2dVertex
 10
5.107012916402407
 20
-6.594778383178162
 30
0.0
  0
VERTEX
  5
173
330
14C
100
AcDbEntity
  8
STANDARDEBENE
 62
   250
100
AcDbVertex
100
AcDb2dVertex
 10
5.107012916402407
 20
-5.111663798375655
 30
0.0
  0
VERTEX
  5
174
330
14C
100
AcDbEntity
  8
STANDARDEBENE
 62
   250
100
AcDbVertex
100
AcDb2dVertex
 10
5.107012916402407
 20
-3.810794884969322
 30
0.0
  0
VERTEX
  5
175
330
14C
100
AcDbEntity
  8
STANDARDEBENE
 62
   250
100
AcDbVertex
100
AcDb2dVertex
 10
5.107012916402407
 20
-2.700095367802474
 30
0.0
  0
VERTEX
  5
176
330
14C
100
AcDbEntity
  8
STANDARDEBENE
 62
   250
100
AcDbVertex
100
AcDb2dVertex
 10
5.107012916402407
 20
-1.78318259952097
 30
0.0
  0
VERTEX
  5
177
330
14C
100
AcDbEntity
  8
STANDARDEBENE
 62
   250
100
AcDbVertex
100
AcDb2dVertex
 10
5.107012916402407
 20
-1.065396481649652
 30
0.0
  0
VERTEX
  5
178
330
14C
100
AcDbEntity
  8
STANDARDEBENE
 62
   250
100
AcDbVertex
100
AcDb2dVertex
 10
5.107012916402407
 20
-0.5501821119464817
 30
0.0
  0
VERTEX
  5
179
330
14C
100
AcDbEntity
  8
STANDARDEBENE
 62
   250
100
AcDbVertex
100
AcDb2dVertex
 10
5.107012916402407
 20
-0.2404678235057258
 30
0.0
  0
VERTEX
  5
17A
330
14C
100
AcDbEntity
  8
STANDARDEBENE
 62
   250
100
AcDbVertex
100
AcDb2dVertex
 10
5.107012916402407
 20
-0.1371148907668752
 30
0.0
  0
SEQEND
  5
17B
330
14C
100
AcDbEntity
  8
STANDARDEBENE
  0
POLYLINE
  5
17C
330
1F
100
AcDbEntity
  8
STANDARDEBENE
 62
   250
100
AcDb2dPolyline
 66
     1
 10
0.0
 20
0.0
 30
0.0
  0
VERTEX
  5
17D
330
17C
100
AcDbEntity
  8
STANDARDEBENE
 62
   250
100
AcDbVertex
100
AcDb2dVertex
 10
29.80681354699663
 20
-13.63655820045185
 30
0.0
  0
VERTEX
  5
17E
330
17C
100
AcDbEntity
  8
STANDARDEBENE
 62
   250
100
AcDbVertex
100
AcDb2dVertex
 10
29.80681354699663
 20
-13.74111691740599
 30
0.0
  0
VERTEX
  5
17F
330
17C
100
AcDbEntity
  8
STANDARDEBENE
 62
   250
100
AcDbVertex
100
AcDb2dVertex
 10
29.80681354699663
 20
-14.05393179382891
 30
0.0
  0
VERTEX
  5
180
330
17C
100
AcDbEntity
  8
STANDARDEBENE
 62
   250
100
AcDbVertex
100
AcDb2dVertex
 10
29.80681354699663
 20
-14.57241900640215
 30
0.0
  0
VERTEX
  5
181
330
17C
100
AcDbEntity
  8
STANDARDEBENE
 62
   250
100
AcDbVertex
100
AcDb2dVertex
 10
29.80681354699663
 20
-15.29313345736773
 30
0.0
  0
VERTEX
  5
182
330
17C
100
AcDbEntity
  8
STANDARDEBENE
 62
   250
100
AcDbVertex
100
AcDb2dVertex
 10
29.80681354699663
 20
-16.21107975497662
 30
0.0
  0
VERTEX
  5
183
330
17C
100
AcDbEntity
  8
STANDARDEBENE
 62
   250
100
AcDbVertex
100
AcDb2dVertex
 10
29.80681354699663
 20
-17.3195399586008
 30
0.0
  0
VERTEX
  5
184
330
17C
100
AcDbEntity
  8
STANDARDEBENE
 62
   250
100
AcDbVertex
100
AcDb2dVertex
 10
29.80681354699663
 20
-18.61041808850904
 30
0.0
  0
VERTEX
  5
185
330
17C
100
AcDbEntity
  8
STANDARDEBENE
 62
   250
100
AcDbVertex
100
AcDb2dVertex
 10
29.80681354699663
 20
-20.07406787097906
 30
0.0
  0
VERTEX
  5
186
330
17C
100
AcDbEntity
  8
STANDARDEBENE
 62
   250
100
AcDbVertex
100
AcDb2dVertex
 10
29.80681354699663
 20
-21.69980950296118
 30
0.0
  0
VERTEX
  5
187
330
17C
100
AcDbEntity
  8
STANDARDEBENE
 62
   250
100
AcDbVertex
100
AcDb2dVertex
 10
29.80681354699663
 20
-23.47679092651783
 30
0.0
  0
VERTEX
  5
188
330
17C
100
AcDbEntity
  8
STANDARDEBENE
 62
   250
100
AcDbVertex
100
AcDb2dVertex
 10
29.80681354699663
 20
-25.39226527994452
 30
0.0
  0
VERTEX
  5
189
330
17C
100
AcDbEntity
  8
STANDARDEBENE
 62
   250
100
AcDbVertex
100
AcDb2dVertex
 10
29.80681354699663
 20
-27.43176315265784
 30
0.0
  0
VERTEX
  5
18A
330
17C
100
AcDbEntity
  8
STANDARDEBENE
 62
   250
100
AcDbVertex
100
AcDb2dVertex
 10
29.80681354699663
 20
-29.58064287918645
 30
0.0
  0
VERTEX
  5
18B
330
17C
100
AcDbEntity
  8
STANDARDEBENE
 62
   250
100
AcDbVertex
100
AcDb2dVertex
 10
29.80681354699663
 20
-31.824262794059
 30
0.0
  0
VERTEX
  5
18C
330
17C
100
AcDbEntity
  8
STANDARDEBENE
 62
   250
100
AcDbVertex
100
AcDb2dVertex
 10
29.80681354699663
 20
-34.14488064382199
 30
0.0
  0
VERTEX
  5
18D
330
17C
100
AcDbEntity
  8
STANDARDEBENE
 62
   250
100
AcDbVertex
100
AcDb2dVertex
 10
29.80681354699663
 20
-36.52733799834039
 30
0.0
  0
VERTEX
  5
18E
330
17C
100
AcDbEntity
  8
STANDARDEBENE
 62
   250
100
AcDbVertex
100
AcDb2dVertex
 10
29.80681354699663
 20
-38.95320358460912
 30
0.0
  0
VERTEX
  5
18F
330
17C
100
AcDbEntity
  8
STANDARDEBENE
 62
   250
100
AcDbVertex
100
AcDb2dVertex
 10
29.80681354699663
 20
-41.40576867850204
 30
0.0
  0
VERTEX
  5
190
330
17C
100
AcDbEntity
  8
STANDARDEBENE
 62
   250
100
AcDbVertex
100
AcDb2dVertex
 10
29.80681354699663
 20
-43.86780779122937
 30
0.0
  0
VERTEX
  5
191
330
17C
100
AcDbEntity
  8
STANDARDEBENE
 62
   250
100
AcDbVertex
100
AcDb2dVertex
 10
29.80681354699663
 20
-46.32071739489809
 30
0.0
  0
VERTEX
  5
192
330
17C
100
AcDbEntity
  8
STANDARDEBENE
 62
   250
100
AcDbVertex
100
AcDb2dVertex
 10
29.80681354699663
 20
-48.74623847139101
 30
0.0
  0
VERTEX
  5
193
330
17C
100
AcDbEntity
  8
STANDARDEBENE
 62
   250
100
AcDbVertex
100
AcDb2dVertex
 10
29.80681354699663
 20
-51.12886808079732
 30
0.0
  0
VERTEX
  5
194
330
17C
100
AcDbEntity
  8
STANDARDEBENE
 62
   250
100
AcDbVertex
100
AcDb2dVertex
 10
29.80681354699663
 20
-53.44965818544821
 30
0.0
  0
VERTEX
  5
195
330
17C
100
AcDbEntity
  8
STANDARDEBENE
 62
   250
100
AcDbVertex
100
AcDb2dVertex
 10
29.80681354699663
 20
-55.69293359054496
 30
0.0
  0
VERTEX
  5
196
330
17C
100
AcDbEntity
  8
STANDARDEBENE
 62
   250
100
AcDbVertex
100
AcDb2dVertex
 10
29.80681354699663
 20
-57.84215782684936
 30
0.0
  0
VERTEX
  5
197
330
17C
100
AcDbEntity
  8
STANDARDEBENE
 62
   250
100
AcDbVertex
100
AcDb2dVertex
 10
29.80681354699663
 20
-59.88113893489898
 30
0.0
  0
VERTEX
  5
198
330
17C
100
AcDbEntity
  8
STANDARDEBENE
 62
   250
100
AcDbVertex
100
AcDb2dVertex
 10
29.80681354699663
 20
-61.79661328832569
 30
0.0
  0
VERTEX
  5
199
330
17C
100
AcDbEntity
  8
STANDARDEBENE
 62
   250
100
AcDbVertex
100
AcDb2dVertex
 10
29.80681354699663
 20
-63.57307794721863
 30
0.0
  0
VERTEX
  5
19A
330
17C
100
AcDbEntity
  8
STANDARDEBENE
 62
   250
100
AcDbVertex
100
AcDb2dVertex
 10
29.80681354699663
 20
-65.19950859875235
 30
0.0
  0
VERTEX
  5
19B
330
17C
100
AcDbEntity
  8
STANDARDEBENE
 62
   250
100
AcDbVertex
100
AcDb2dVertex
 10
29.80681354699663
 20
-66.66333063611026
 30
0.0
  0
VERTEX
  5
19C
330
17C
100
AcDbEntity
  8
STANDARDEBENE
 62
   250
100
AcDbVertex
100
AcDb2dVertex
 10
29.80681354699663
 20
-67.95403651113061
 30
0.0
  0
VERTEX
  5
19D
330
17C
100
AcDbEntity
  8
STANDARDEBENE
 62
   250
100
AcDbVertex
100
AcDb2dVertex
 10
29.80681354699663
 20
-69.06249671475479
 30
0.0
  0
VERTEX
  5
19E
330
17C
100
AcDbEntity
  8
STANDARDEBENE
 62
   250
100
AcDbVertex
100
AcDb2dVertex
 10
29.80681354699663
 20
-69.98044301236368
 30
0.0
  0
VERTEX
  5
19F
330
17C
100
AcDbEntity
  8
STANDARDEBENE
 62
   250
100
AcDbVertex
100
AcDb2dVertex
 10
29.80681354699663
 20
-70.70098520844137
 30
0.0
  0
VERTEX
  5
1A0
330
17C
100
AcDbEntity
  8
STANDARDEBENE
 62
   250
100
AcDbVertex
100
AcDb2dVertex
 10
29.80681354699663
 20
-71.2194724210146
 30
0.0
  0
VERTEX
  5
1A1
330
17C
100
AcDbEntity
  8
STANDARDEBENE
 62
   250
100
AcDbVertex
100
AcDb2dVertex
 10
29.80681354699663
 20
-71.53263180721332
 30
0.0
  0
VERTEX
  5
1A2
330
17C
100
AcDbEntity
  8
STANDARDEBENE
 62
   250
100
AcDbVertex
100
AcDb2dVertex
 10
29.80681354699663
 20
-71.63701826927955
 30
0.0
  0
SEQEND
  5
1A3
330
17C
100
AcDbEntity
  8
STANDARDEBENE
  0
POLYLINE
  5
1A4
330
1F
100
AcDbEntity
  8
STANDARDEBENE
 62
   250
100
AcDb2dPolyline
 66
     1
 10
0.0
 20
0.0
 30
0.0
  0
VERTEX
  5
1A5
330
1A4
100
AcDbEntity
  8
STANDARDEBENE
 62
   250
100
AcDbVertex
100
AcDb2dVertex
 10
0.1071425402726085
 20
-84.13669420960404
 30
0.0
  0
VERTEX
  5
1A6
330
1A4
100
AcDbEntity
  8
STANDARDEBENE
 62
   250
100
AcDbVertex
100
AcDb2dVertex
 10
0.1071425402726085
 20
-84.03058519865883
 30
0.0
  0
VERTEX
  5
1A7
330
1A4
100
AcDbEntity
  8
STANDARDEBENE
 62
   250
100
AcDbVertex
100
AcDb2dVertex
 10
0.1071425402726085
 20
-83.71415296959005
 30
0.0
  0
VERTEX
  5
1A8
330
1A4
100
AcDbEntity
  8
STANDARDEBENE
 62
   250
100
AcDbVertex
100
AcDb2dVertex
 10
0.1071425402726085
 20
-83.18843105172509
 30
0.0
  0
VERTEX
  5
1A9
330
1A4
100
AcDbEntity
  8
STANDARDEBENE
 62
   250
100
AcDbVertex
100
AcDb2dVertex
 10
0.1071425402726085
 20
-82.45565875860665
 30
0.0
  0
VERTEX
  5
1AA
330
1A4
100
AcDbEntity
  8
STANDARDEBENE
 62
   250
100
AcDbVertex
100
AcDb2dVertex
 10
0.1071425402726085
 20
-81.52048697220795
 30
0.0
  0
VERTEX
  5
1AB
330
1A4
100
AcDbEntity
  8
STANDARDEBENE
 62
   250
100
AcDbVertex
100
AcDb2dVertex
 10
0.1071425402726085
 20
-80.38618853539906
 30
0.0
  0
VERTEX
  5
1AC
330
1A4
100
AcDbEntity
  8
STANDARDEBENE
 62
   250
100
AcDbVertex
100
AcDb2dVertex
 10
0.1071425402726085
 20
-79.06017040835961
 30
0.0
  0
VERTEX
  5
1AD
330
1A4
100
AcDbEntity
  8
STANDARDEBENE
 62
   250
100
AcDbVertex
100
AcDb2dVertex
 10
0.1071425402726085
 20
-77.54863376705391
 30
0.0
  0
VERTEX
  5
1AE
330
1A4
100
AcDbEntity
  8
STANDARDEBENE
 62
   250
100
AcDbVertex
100
AcDb2dVertex
 10
0.1071425402726085
 20
-75.8591578265495
 30
0.0
  0
VERTEX
  5
1AF
330
1A4
100
AcDbEntity
  8
STANDARDEBENE
 62
   250
100
AcDbVertex
100
AcDb2dVertex
 10
0.1071425402726085
 20
-74.00035533124127
 30
0.0
  0
VERTEX
  5
1B0
330
1A4
100
AcDbEntity
  8
STANDARDEBENE
 62
   250
100
AcDbVertex
100
AcDb2dVertex
 10
0.1071425402726085
 20
-71.98204480973942
 30
0.0
  0
VERTEX
  5
1B1
330
1A4
100
AcDbEntity
  8
STANDARDEBENE
 62
   250
100
AcDbVertex
100
AcDb2dVertex
 10
0.1071425402726085
 20
-69.81318351621464
 30
0.0
  0
VERTEX
  5
1B2
330
1A4
100
AcDbEntity
  8
STANDARDEBENE
 62
   250
100
AcDbVertex
100
AcDb2dVertex
 10
0.1071425402726085
 20
-67.50669056725928
 30
0.0
  0
VERTEX
  5
1B3
330
1A4
100
AcDbEntity
  8
STANDARDEBENE
 62
   250
100
AcDbVertex
100
AcDb2dVertex
 10
0.1071425402726085
 20
-65.07359027569885
 30
0.0
  0
VERTEX
  5
1B4
330
1A4
100
AcDbEntity
  8
STANDARDEBENE
 62
   250
100
AcDbVertex
100
AcDb2dVertex
 10
0.1071425402726085
 20
-62.52576822879828
 30
0.0
  0
VERTEX
  5
1B5
330
1A4
100
AcDbEntity
  8
STANDARDEBENE
 62
   250
100
AcDbVertex
100
AcDb2dVertex
 10
0.1071425402726085
 20
-59.87683256270154
 30
0.0
  0
VERTEX
  5
1B6
330
1A4
100
AcDbEntity
  8
STANDARDEBENE
 62
   250
100
AcDbVertex
100
AcDb2dVertex
 10
0.1071425402726085
 20
-57.13953013911308
 30
0.0
  0
VERTEX
  5
1B7
330
1A4
100
AcDbEntity
  8
STANDARDEBENE
 62
   250
100
AcDbVertex
100
AcDb2dVertex
 10
0.1071425402726085
 20
-54.32884713328003
 30
0.0
  0
VERTEX
  5
1B8
330
1A4
100
AcDbEntity
  8
STANDARDEBENE
 62
   250
100
AcDbVertex
100
AcDb2dVertex
 10
0.1071425402726085
 20
-51.45839168134635
 30
0.0
  0
VERTEX
  5
1B9
330
1A4
100
AcDbEntity
  8
STANDARDEBENE
 62
   250
100
AcDbVertex
100
AcDb2dVertex
 10
0.1071425402726085
 20
-48.54280544878338
 30
0.0
  0
VERTEX
  5
1BA
330
1A4
100
AcDbEntity
  8
STANDARDEBENE
 62
   250
100
AcDbVertex
100
AcDb2dVertex
 10
0.1071425402726085
 20
-45.59724686572613
 30
0.0
  0
VERTEX
  5
1BB
330
1A4
100
AcDbEntity
  8
STANDARDEBENE
 62
   250
100
AcDbVertex
100
AcDb2dVertex
 10
0.1071425402726085
 20
-42.63670210742175
 30
0.0
  0
VERTEX
  5
1BC
330
1A4
100
AcDbEntity
  8
STANDARDEBENE
 62
   250
100
AcDbVertex
100
AcDb2dVertex
 10
0.1071425402726085
 20
-39.67615734911737
 30
0.0
  0
VERTEX
  5
1BD
330
1A4
100
AcDbEntity
  8
STANDARDEBENE
 62
   250
100
AcDbVertex
100
AcDb2dVertex
 10
0.1071425402726085
 20
-36.73077102094803
 30
0.0
  0
VERTEX
  5
1BE
330
1A4
100
AcDbEntity
  8
STANDARDEBENE
 62
   250
100
AcDbVertex
100
AcDb2dVertex
 10
0.1071425402726085
 20
-33.81552929816085
 30
0.0
  0
VERTEX
  5
1BF
330
1A4
100
AcDbEntity
  8
STANDARDEBENE
 62
   250
100
AcDbVertex
100
AcDb2dVertex
 10
0.1071425402726085
 20
-30.94472933645138
 30
0.0
  0
VERTEX
  5
1C0
330
1A4
100
AcDbEntity
  8
STANDARDEBENE
 62
   250
100
AcDbVertex
100
AcDb2dVertex
 10
0.1071425402726085
 20
-28.13404633061833
 30
0.0
  0
VERTEX
  5
1C1
330
1A4
100
AcDbEntity
  8
STANDARDEBENE
 62
   250
100
AcDbVertex
100
AcDb2dVertex
 10
0.1071425402726085
 20
-25.39691616191777
 30
0.0
  0
VERTEX
  5
1C2
330
1A4
100
AcDbEntity
  8
STANDARDEBENE
 62
   250
100
AcDbVertex
100
AcDb2dVertex
 10
0.1071425402726085
 20
-22.74763598604523
 30
0.0
  0
VERTEX
  5
1C3
330
1A4
100
AcDbEntity
  8
STANDARDEBENE
 62
   250
100
AcDbVertex
100
AcDb2dVertex
 10
0.1071425402726085
 20
-20.19998619403257
 30
0.0
  0
VERTEX
  5
1C4
330
1A4
100
AcDbEntity
  8
STANDARDEBENE
 62
   250
100
AcDbVertex
100
AcDb2dVertex
 10
0.1071425402726085
 20
-17.76636913780843
 30
0.0
  0
VERTEX
  5
1C5
330
1A4
100
AcDbEntity
  8
STANDARDEBENE
 62
   250
100
AcDbVertex
100
AcDb2dVertex
 10
0.1071425402726085
 20
-15.46004844374098
 30
0.0
  0
VERTEX
  5
1C6
330
1A4
100
AcDbEntity
  8
STANDARDEBENE
 62
   250
100
AcDbVertex
100
AcDb2dVertex
 10
0.1071425402726085
 20
-13.29170391487989
 30
0.0
  0
VERTEX
  5
1C7
330
1A4
100
AcDbEntity
  8
STANDARDEBENE
 62
   250
100
AcDbVertex
100
AcDb2dVertex
 10
0.1071425402726085
 20
-11.27322113849013
 30
0.0
  0
VERTEX
  5
1C8
330
1A4
100
AcDbEntity
  8
STANDARDEBENE
 62
   250
100
AcDbVertex
100
AcDb2dVertex
 10
0.1071425402726085
 20
-9.414418643181905
 30
0.0
  0
VERTEX
  5
1C9
330
1A4
100
AcDbEntity
  8
STANDARDEBENE
 62
   250
100
AcDbVertex
100
AcDb2dVertex
 10
0.1071425402726085
 20
-7.724942702677494
 30
0.0
  0
VERTEX
  5
1CA
330
1A4
100
AcDbEntity
  8
STANDARDEBENE
 62
   250
100
AcDbVertex
100
AcDb2dVertex
 10
0.1071425402726085
 20
-6.212889296708109
 30
0.0
  0
VERTEX
  5
1CB
330
1A4
100
AcDbEntity
  8
STANDARDEBENE
 62
   250
100
AcDbVertex
100
AcDb2dVertex
 10
0.1071425402726085
 20
-4.887043424556553
 30
0.0
  0
VERTEX
  5
1CC
330
1A4
100
AcDbEntity
  8
STANDARDEBENE
 62
   250
100
AcDbVertex
100
AcDb2dVertex
 10
0.1071425402726085
 20
-3.753606262187158
 30
0.0
  0
VERTEX
  5
1CD
330
1A4
100
AcDbEntity
  8
STANDARDEBENE
 62
   250
100
AcDbVertex
100
AcDb2dVertex
 10
0.1071425402726085
 20
-2.817573201348967
 30
0.0
  0
VERTEX
  5
1CE
330
1A4
100
AcDbEntity
  8
STANDARDEBENE
 62
   250
100
AcDbVertex
100
AcDb2dVertex
 10
0.1071425402726085
 20
-2.085145418006312
 30
0.0
  0
VERTEX
  5
1CF
330
1A4
100
AcDbEntity
  8
STANDARDEBENE
 62
   250
100
AcDbVertex
100
AcDb2dVertex
 10
0.1071425402726085
 20
-1.559078990365562
 30
0.0
  0
VERTEX
  5
1D0
330
1A4
100
AcDbEntity
  8
STANDARDEBENE
 62
   250
100
AcDbVertex
100
AcDb2dVertex
 10
0.1071425402726085
 20
-1.242646761296781
 30
0.0
  0
VERTEX
  5
1D1
330
1A4
100
AcDbEntity
  8
STANDARDEBENE
 62
   250
100
AcDbVertex
100
AcDb2dVertex
 10
0.1071425402726085
 20
-1.136710005239459
 30
0.0
  0
SEQEND
  5
1D2
330
1A4
100
AcDbEntity
  8
STANDARDEBENE
  0
POLYLINE
  5
1D3
330
1F
100
AcDbEntity
  8
STANDARDEBENE
 62
   250
100
AcDb2dPolyline
 66
     1
 10
0.0
 20
0.0
 30
0.0
  0
VERTEX
  5
1D4
330
1D3
100
AcDbEntity
  8
STANDARDEBENE
 62
   250
100
AcDbVertex
100
AcDb2dVertex
 10
10.02110035835896
 20
-71.63701826927955
 30
0.0
  0
VERTEX
  5
1D5
330
1D3
100
AcDbEntity
  8
STANDARDEBENE
 62
   250
100
AcDbVertex
100
AcDb2dVertex
 10
10.02110035835896
 20
-71.53263180721332
 30
0.0
  0
VERTEX
  5
1D6
330
1D3
100
AcDbEntity
  8
STANDARDEBENE
 62
   250
100
AcDbVertex
100
AcDb2dVertex
 10
10.02110035835896
 20
-71.2194724210146
 30
0.0
  0
VERTEX
  5
1D7
330
1D3
100
AcDbEntity
  8
STANDARDEBENE
 62
   250
100
AcDbVertex
100
AcDb2dVertex
 10
10.02110035835896
 20
-70.70098520844137
 30
0.0
  0
VERTEX
  5
1D8
330
1D3
100
AcDbEntity
  8
STANDARDEBENE
 62
   250
100
AcDbVertex
100
AcDb2dVertex
 10
10.02110035835896
 20
-69.98044301236368
 30
0.0
  0
VERTEX
  5
1D9
330
1D3
100
AcDbEntity
  8
STANDARDEBENE
 62
   250
100
AcDbVertex
100
AcDb2dVertex
 10
10.02110035835896
 20
-69.06249671475479
 30
0.0
  0
VERTEX
  5
1DA
330
1D3
100
AcDbEntity
  8
STANDARDEBENE
 62
   250
100
AcDbVertex
100
AcDb2dVertex
 10
10.02110035835896
 20
-67.95403651113061
 30
0.0
  0
VERTEX
  5
1DB
330
1D3
100
AcDbEntity
  8
STANDARDEBENE
 62
   250
100
AcDbVertex
100
AcDb2dVertex
 10
10.02110035835896
 20
-66.66333063611026
 30
0.0
  0
VERTEX
  5
1DC
330
1D3
100
AcDbEntity
  8
STANDARDEBENE
 62
   250
100
AcDbVertex
100
AcDb2dVertex
 10
10.02110035835896
 20
-65.19950859875235
 30
0.0
  0
VERTEX
  5
1DD
330
1D3
100
AcDbEntity
  8
STANDARDEBENE
 62
   250
100
AcDbVertex
100
AcDb2dVertex
 10
10.02110035835896
 20
-63.57307794721863
 30
0.0
  0
VERTEX
  5
1DE
330
1D3
100
AcDbEntity
  8
STANDARDEBENE
 62
   250
100
AcDbVertex
100
AcDb2dVertex
 10
10.02110035835896
 20
-61.79661328832569
 30
0.0
  0
VERTEX
  5
1DF
330
1D3
100
AcDbEntity
  8
STANDARDEBENE
 62
   250
100
AcDbVertex
100
AcDb2dVertex
 10
10.02110035835896
 20
-59.88113893489898
 30
0.0
  0
VERTEX
  5
1E0
330
1D3
100
AcDbEntity
  8
STANDARDEBENE
 62
   250
100
AcDbVertex
100
AcDb2dVertex
 10
10.02110035835896
 20
-57.84215782684936
 30
0.0
  0
VERTEX
  5
1E1
330
1D3
100
AcDbEntity
  8
STANDARDEBENE
 62
   250
100
AcDbVertex
100
AcDb2dVertex
 10
10.02110035835896
 20
-55.69293359054496
 30
0.0
  0
VERTEX
  5
1E2
330
1D3
100
AcDbEntity
  8
STANDARDEBENE
 62
   250
100
AcDbVertex
100
AcDb2dVertex
 10
10.02110035835896
 20
-53.44965818544821
 30
0.0
  0
VERTEX
  5
1E3
330
1D3
100
AcDbEntity
  8
STANDARDEBENE
 62
   250
100
AcDbVertex
100
AcDb2dVertex
 10
10.02110035835896
 20
-51.12886808079732
 30
0.0
  0
VERTEX
  5
1E4
330
1D3
100
AcDbEntity
  8
STANDARDEBENE
 62
   250
100
AcDbVertex
100
AcDb2dVertex
 10
10.02110035835896
 20
-48.74623847139101
 30
0.0
  0
VERTEX
  5
1E5
330
1D3
100
AcDbEntity
  8
STANDARDEBENE
 62
   250
100
AcDbVertex
100
AcDb2dVertex
 10
10.02110035835896
 20
-46.32071739489809
 30
0.0
  0
VERTEX
  5
1E6
330
1D3
100
AcDbEntity
  8
STANDARDEBENE
 62
   250
100
AcDbVertex
100
AcDb2dVertex
 10
10.02110035835896
 20
-43.86780779122937
 30
0.0
  0
VERTEX
  5
1E7
330
1D3
100
AcDbEntity
  8
STANDARDEBENE
 62
   250
100
AcDbVertex
100
AcDb2dVertex
 10
10.02110035835896
 20
-41.40576867850204
 30
0.0
  0
VERTEX
  5
1E8
330
1D3
100
AcDbEntity
  8
STANDARDEBENE
 62
   250
100
AcDbVertex
100
AcDb2dVertex
 10
10.02110035835896
 20
-38.95320358460912
 30
0.0
  0
VERTEX
  5
1E9
330
1D3
100
AcDbEntity
  8
STANDARDEBENE
 62
   250
100
AcDbVertex
100
AcDb2dVertex
 10
10.02110035835896
 20
-36.52733799834039
 30
0.0
  0
VERTEX
  5
1EA
330
1D3
100
AcDbEntity
  8
STANDARDEBENE
 62
   250
100
AcDbVertex
100
AcDb2dVertex
 10
10.02110035835896
 20
-34.14488064382199
 30
0.0
  0
VERTEX
  5
1EB
330
1D3
100
AcDbEntity
  8
STANDARDEBENE
 62
   250
100
AcDbVertex
100
AcDb2dVertex
 10
10.02110035835896
 20
-31.824262794059
 30
0.0
  0
VERTEX
  5
1EC
330
1D3
100
AcDbEntity
  8
STANDARDEBENE
 62
   250
100
AcDbVertex
100
AcDb2dVertex
 10
10.02110035835896
 20
-29.58064287918645
 30
0.0
  0
VERTEX
  5
1ED
330
1D3
100
AcDbEntity
  8
STANDARDEBENE
 62
   250
100
AcDbVertex
100
AcDb2dVertex
 10
10.02110035835896
 20
-27.43176315265784
 30
0.0
  0
VERTEX
  5
1EE
330
1D3
100
AcDbEntity
  8
STANDARDEBENE
 62
   250
100
AcDbVertex
100
AcDb2dVertex
 10
10.02110035835896
 20
-25.39226527994452
 30
0.0
  0
VERTEX
  5
1EF
330
1D3
100
AcDbEntity
  8
STANDARDEBENE
 62
   250
100
AcDbVertex
100
AcDb2dVertex
 10
10.02110035835896
 20
-23.47679092651783
 30
0.0
  0
VERTEX
  5
1F0
330
1D3
100
AcDbEntity
  8
STANDARDEBENE
 62
   250
100
AcDbVertex
100
AcDb2dVertex
 10
10.02110035835896
 20
-21.69980950296118
 30
0.0
  0
VERTEX
  5
1F1
330
1D3
100
AcDbEntity
  8
STANDARDEBENE
 62
   250
100
AcDbVertex
100
AcDb2dVertex
 10
10.02110035835896
 20
-20.07406787097906
 30
0.0
  0
VERTEX
  5
1F2
330
1D3
100
AcDbEntity
  8
STANDARDEBENE
 62
   250
100
AcDbVertex
100
AcDb2dVertex
 10
10.02110035835896
 20
-18.61041808850904
 30
0.0
  0
VERTEX
  5
1F3
330
1D3
100
AcDbEntity
  8
STANDARDEBENE
 62
   250
100
AcDbVertex
100
AcDb2dVertex
 10
10.02110035835896
 20
-17.3195399586008
 30
0.0
  0
VERTEX
  5
1F4
330
1D3
100
AcDbEntity
  8
STANDARDEBENE
 62
   250
100
AcDbVertex
100
AcDb2dVertex
 10
10.02110035835896
 20
-16.21107975497662
 30
0.0
  0
VERTEX
  5
1F5
330
1D3
100
AcDbEntity
  8
STANDARDEBENE
 62
   250
100
AcDbVertex
100
AcDb2dVertex
 10
10.02110035835896
 20
-15.29313345736773
 30
0.0
  0
VERTEX
  5
1F6
330
1D3
100
AcDbEntity
  8
STANDARDEBENE
 62
   250
100
AcDbVertex
100
AcDb2dVertex
 10
10.02110035835896
 20
-14.57241900640215
 30
0.0
  0
VERTEX
  5
1F7
330
1D3
100
AcDbEntity
  8
STANDARDEBENE
 62
   250
100
AcDbVertex
100
AcDb2dVertex
 10
10.02110035835896
 20
-14.05393179382891
 30
0.0
  0
VERTEX
  5
1F8
330
1D3
100
AcDbEntity
  8
STANDARDEBENE
 62
   250
100
AcDbVertex
100
AcDb2dVertex
 10
10.02110035835896
 20
-13.74111691740599
 30
0.0
  0
VERTEX
  5
1F9
330
1D3
100
AcDbEntity
  8
STANDARDEBENE
 62
   250
100
AcDbVertex
100
AcDb2dVertex
 10
10.02110035835896
 20
-13.63655820045185
 30
0.0
  0
SEQEND
  5
1FA
330
1D3
100
AcDbEntity
  8
STANDARDEBENE
  0
SPLINE
  5
1FB
330
1F
100
AcDbEntity
  8
STANDARDEBENE
 62
   250
100
AcDbSpline
210
0.0
220
0.0
230
1.0
 70
    11
 71
     3
 72
    17
 73
    13
 74
     0
 42
0.0000000001
 43
0.0000000001
 40
0.0
 40
0.0
 40
0.0
 40
0.0
 40
1.0
 40
1.0
 40
1.0
 40
2.0
 40
2.0
 40
2.0
 40
3.0
 40
3.0
 40
3.0
 40
4.0
 40
4.0
 40
4.0
 40
4.0
 10
183.1865275938727
 20
-42.63670210742175
 30
0.0
 10
183.1865275938727
 20
-19.16507882754087
 30
0.0
 10
164.1578746375471
 20
-0.1371148907668752
 30
0.0
 10
140.6864236125541
 20
-0.1371148907668752
 30
0.0
 10
117.2146280777853
 20
-0.1371148907668752
 30
0.0
 10
98.1866641410113
 20
-19.16507882754087
 30
0.0
 10
98.1866641410113
 20
-42.63670210742175
 30
0.0
 10
98.1866641410113
 20
-66.10866989707843
 30
0.0
 10
117.2146280777853
 20
-85.13697834362823
 30
0.0
 10
140.6864236125541
 20
-85.13697834362823
 30
0.0
 10
164.1578746375471
 20
-85.13697834362823
 30
0.0
 10
183.1865275938727
 20
-66.10866989707843
 30
0.0
 10
183.1865275938727
 20
-42.63670210742175
 30
0.0
  0
SPLINE
  5
1FC
330
1F
100
AcDbEntity
  8
STANDARDEBENE
 62
   250
100
AcDbSpline
210
0.0
220
0.0
230
1.0
 70
    11
 71
     3
 72
    17
 73
    13
 74
     0
 42
0.0000000001
 43
0.0000000001
 40
0.0
 40
0.0
 40
0.0
 40
0.0
 40
1.0
 40
1.0
 40
1.0
 40
2.0
 40
2.0
 40
2.0
 40
3.0
 40
3.0
 40
3.0
 40
4.0
 40
4.0
 40
4.0
 40
4.0
 10
182.1864157147364
 20
-42.63670210742175
 30
0.0
 10
182.1864157147364
 20
-19.71767250791793
 30
0.0
 10
163.6063144864974
 20
-1.136710005239459
 30
0.0
 10
140.6864236125541
 20
-1.136710005239459
 30
0.0
 10
117.7668772483866
 20
-1.136710005239459
 30
0.0
 10
99.18677602014759
 20
-19.71767250791793
 30
0.0
 10
99.18677602014759
 20
-42.63670210742175
 30
0.0
 10
99.18677602014759
 20
-65.55624847158927
 30
0.0
 10
117.7668772483866
 20
-84.13669420960404
 30
0.0
 10
140.6864236125541
 20
-84.13669420960404
 30
0.0
 10
163.6063144864974
 20
-84.13669420960404
 30
0.0
 10
182.1864157147364
 20
-65.55624847158927
 30
0.0
 10
182.1864157147364
 20
-42.63670210742175
 30
0.0
  0
SPLINE
  5
1FD
330
1F
100
AcDbEntity
  8
STANDARDEBENE
 62
   250
100
AcDbSpline
210
0.0
220
0.0
230
1.0
 70
    11
 71
     3
 72
    17
 73
    13
 74
     0
 42
0.0000000001
 43
0.0000000001
 40
0.0
 40
0.0
 40
0.0
 40
0.0
 40
1.0
 40
1.0
 40
1.0
 40
2.0
 40
2.0
 40
2.0
 40
3.0
 40
3.0
 40
3.0
 40
4.0
 40
4.0
 40
4.0
 40
4.0
 10
122.9603621185138
 20
-31.53659713126919
 30
0.0
 10
122.9603621185138
 20
-30.7085678851431
 30
0.0
 10
122.2889125654871
 20
-30.03729058700427
 30
0.0
 10
121.4607110644731
 20
-30.03729058700427
 30
0.0
 10
120.6325095634591
 20
-30.03729058700427
 30
0.0
 10
119.9607155006566
 20
-30.7085678851431
 30
0.0
 10
119.9607155006566
 20
-31.53659713126919
 30
0.0
 10
119.9607155006566
 20
-32.36565990672268
 30
0.0
 10
120.6325095634591
 20
-33.03693720486151
 30
0.0
 10
121.4607110644731
 20
-33.03693720486151
 30
0.0
 10
122.2889125654871
 20
-33.03693720486151
 30
0.0
 10
122.9603621185138
 20
-32.36565990672268
 30
0.0
 10
122.9603621185138
 20
-31.53659713126919
 30
0.0
  0
SPLINE
  5
1FE
330
1F
100
AcDbEntity
  8
STANDARDEBENE
 62
   250
100
AcDbSpline
210
0.0
220
0.0
230
1.0
 70
    11
 71
     3
 72
    17
 73
    13
 74
     0
 42
0.0000000001
 43
0.0000000001
 40
0.0
 40
0.0
 40
0.0
 40
0.0
 40
1.0
 40
1.0
 40
1.0
 40
2.0
 40
2.0
 40
2.0
 40
3.0
 40
3.0
 40
3.0
 40
4.0
 40
4.0
 40
4.0
 40
4.0
 10
142.1860746665948
 20
-64.83639529506318
 30
0.0
 10
142.1860746665948
 20
-64.00853830382499
 30
0.0
 10
141.5146251135681
 20
-63.33708875079825
 30
0.0
 10
140.6864236125541
 20
-63.33708875079825
 30
0.0
 10
139.8578776017643
 20
-63.33708875079825
 30
0.0
 10
139.1864280487376
 20
-64.00853830382499
 30
0.0
 10
139.1864280487376
 20
-64.83639529506318
 30
0.0
 10
139.1864280487376
 20
-65.66563032540456
 30
0.0
 10
139.8578776017643
 20
-66.3369076235434
 30
0.0
 10
140.6864236125541
 20
-66.3369076235434
 30
0.0
 10
141.5146251135681
 20
-66.3369076235434
 30
0.0
 10
142.1860746665948
 20
-65.66563032540456
 30
0.0
 10
142.1860746665948
 20
-64.83639529506318
 30
0.0
  0
SPLINE
  5
1FF
330
1F
100
AcDbEntity
  8
STANDARDEBENE
 62
   250
100
AcDbSpline
210
0.0
220
0.0
230
1.0
 70
    11
 71
     3
 72
    17
 73
    13
 74
     0
 42
0.0000000001
 43
0.0000000001
 40
0.0
 40
0.0
 40
0.0
 40
0.0
 40
1.0
 40
1.0
 40
1.0
 40
2.0
 40
2.0
 40
2.0
 40
3.0
 40
3.0
 40
3.0
 40
4.0
 40
4.0
 40
4.0
 40
4.0
 10
161.4124762342274
 20
-31.53659713126919
 30
0.0
 10
161.4124762342274
 20
-30.7085678851431
 30
0.0
 10
160.7410266812007
 20
-30.03729058700427
 30
0.0
 10
159.9121361606351
 20
-30.03729058700427
 30
0.0
 10
159.0835901498453
 20
-30.03729058700427
 30
0.0
 10
158.411451577267
 20
-30.7085678851431
 30
0.0
 10
158.411451577267
 20
-31.53659713126919
 30
0.0
 10
158.411451577267
 20
-32.36565990672268
 30
0.0
 10
159.0835901498453
 20
-33.03693720486151
 30
0.0
 10
159.9121361606351
 20
-33.03693720486151
 30
0.0
 10
160.7410266812007
 20
-33.03693720486151
 30
0.0
 10
161.4124762342274
 20
-32.36565990672268
 30
0.0
 10
161.4124762342274
 20
-31.53659713126919
 30
0.0
  0
SPLINE
  5
200
330
1F
100
AcDbEntity
  8
STANDARDEBENE
 62
   250
100
AcDbSpline
210
0.0
220
0.0
230
1.0
 70
    11
 71
     3
 72
    17
 73
    13
 74
     0
 42
0.0000000001
 43
0.0000000001
 40
0.0
 40
0.0
 40
0.0
 40
0.0
 40
1.0
 40
1.0
 40
1.0
 40
2.0
 40
2.0
 40
2.0
 40
3.0
 40
3.0
 40
3.0
 40
4.0
 40
4.0
 40
4.0
 40
4.0
 10
160.9115590202198
 20
-31.53659713126919
 30
0.0
 10
160.9115590202198
 20
-30.98469247044373
 30
0.0
 10
160.4643853312363
 20
-30.53700201679661
 30
0.0
 10
159.9121361606351
 20
-30.53700201679661
 30
0.0
 10
159.3602314998096
 20
-30.53700201679661
 30
0.0
 10
158.9123687912746
 20
-30.98469247044373
 30
0.0
 10
158.9123687912746
 20
-31.53659713126919
 30
0.0
 10
158.9123687912746
 20
-32.08919081164625
 30
0.0
 10
159.3602314998096
 20
-32.53688126529337
 30
0.0
 10
159.9121361606351
 20
-32.53688126529337
 30
0.0
 10
160.4643853312363
 20
-32.53688126529337
 30
0.0
 10
160.9115590202198
 20
-32.08919081164625
 30
0.0
 10
160.9115590202198
 20
-31.53659713126919
 30
0.0
  0
SPLINE
  5
201
330
1F
100
AcDbEntity
  8
STANDARDEBENE
 62
   250
100
AcDbSpline
210
0.0
220
0.0
230
1.0
 70
    11
 71
     3
 72
    17
 73
    13
 74
     0
 42
0.0000000001
 43
0.0000000001
 40
0.0
 40
0.0
 40
0.0
 40
0.0
 40
1.0
 40
1.0
 40
1.0
 40
2.0
 40
2.0
 40
2.0
 40
3.0
 40
3.0
 40
3.0
 40
4.0
 40
4.0
 40
4.0
 40
4.0
 10
141.6865354916904
 20
-64.83639529506318
 30
0.0
 10
141.6865354916904
 20
-64.28500739890141
 30
0.0
 10
141.2386727831554
 20
-63.83714469036639
 30
0.0
 10
140.6864236125541
 20
-63.83714469036639
 30
0.0
 10
140.1341744419528
 20
-63.83714469036639
 30
0.0
 10
139.6863117334178
 20
-64.28500739890141
 30
0.0
 10
139.6863117334178
 20
-64.83639529506318
 30
0.0
 10
139.6863117334178
 20
-65.38916123032813
 30
0.0
 10
140.1341744419528
 20
-65.83702393886315
 30
0.0
 10
140.6864236125541
 20
-65.83702393886315
 30
0.0
 10
141.2386727831554
 20
-65.83702393886315
 30
0.0
 10
141.6865354916904
 20
-65.38916123032813
 30
0.0
 10
141.6865354916904
 20
-64.83639529506318
 30
0.0
  0
SPLINE
  5
202
330
1F
100
AcDbEntity
  8
STANDARDEBENE
 62
   250
100
AcDbSpline
210
0.0
220
0.0
230
1.0
 70
    11
 71
     3
 72
    17
 73
    13
 74
     0
 42
0.0000000001
 43
0.0000000001
 40
0.0
 40
0.0
 40
0.0
 40
0.0
 40
1.0
 40
1.0
 40
1.0
 40
2.0
 40
2.0
 40
2.0
 40
3.0
 40
3.0
 40
3.0
 40
4.0
 40
4.0
 40
4.0
 40
4.0
 10
122.4611674533852
 20
-31.53659713126919
 30
0.0
 10
122.4611674533852
 20
-30.98469247044373
 30
0.0
 10
122.0129602350743
 20
-30.53700201679661
 30
0.0
 10
121.4607110644731
 20
-30.53700201679661
 30
0.0
 10
120.9088064036476
 20
-30.53700201679661
 30
0.0
 10
120.460254675561
 20
-30.98469247044373
 30
0.0
 10
120.460254675561
 20
-31.53659713126919
 30
0.0
 10
120.460254675561
 20
-32.08919081164625
 30
0.0
 10
120.9088064036476
 20
-32.53688126529337
 30
0.0
 10
121.4607110644731
 20
-32.53688126529337
 30
0.0
 10
122.0129602350743
 20
-32.53688126529337
 30
0.0
 10
122.4611674533852
 20
-32.08919081164625
 30
0.0
 10
122.4611674533852
 20
-31.53659713126919
 30
0.0
  0
POLYLINE
  5
203
330
1F
100
AcDbEntity
  8
STANDARDEBENE
 62
   250
100
AcDb2dPolyline
 66
     1
 10
0.0
 20
0.0
 30
0.0
  0
VERTEX
  5
204
330
203
100
AcDbEntity
  8
STANDARDEBENE
 62
   250
100
AcDbVertex
100
AcDb2dVertex
 10
5.107012916402407
 20
-115.1601440298248
 30
0.0
  0
VERTEX
  5
205
330
203
100
AcDbEntity
  8
STANDARDEBENE
 62
   250
100
AcDbVertex
100
AcDb2dVertex
 10
1.106909909633091
 20
-115.1601440298248
 30
0.0
  0
SEQEND
  5
206
330
203
100
AcDbEntity
  8
STANDARDEBENE
  0
POLYLINE
  5
207
330
1F
100
AcDbEntity
  8
STANDARDEBENE
 62
   250
100
AcDb2dPolyline
 66
     1
 10
0.0
 20
0.0
 30
0.0
  0
VERTEX
  5
208
330
207
100
AcDbEntity
  8
STANDARDEBENE
 62
   250
100
AcDbVertex
100
AcDb2dVertex
 10
1.106909909633091
 20
-200.1596629729104
 30
0.0
  0
VERTEX
  5
209
330
207
100
AcDbEntity
  8
STANDARDEBENE
 62
   250
100
AcDbVertex
100
AcDb2dVertex
 10
5.107012916402407
 20
-200.1596629729104
 30
0.0
  0
VERTEX
  5
20A
330
207
100
AcDbEntity
  8
STANDARDEBENE
 62
   250
100
AcDbVertex
100
AcDb2dVertex
 10
10.02110035835896
 20
-186.6597028985617
 30
0.0
  0
SEQEND
  5
20B
330
207
100
AcDbEntity
  8
STANDARDEBENE
  0
POLYLINE
  5
20C
330
1F
100
AcDbEntity
  8
STANDARDEBENE
 62
   250
100
AcDb2dPolyline
 66
     1
 10
0.0
 20
0.0
 30
0.0
  0
VERTEX
  5
20D
330
20C
100
AcDbEntity
  8
STANDARDEBENE
 62
   250
100
AcDbVertex
100
AcDb2dVertex
 10
10.02110035835896
 20
-128.6590705748461
 30
0.0
  0
VERTEX
  5
20E
330
20C
100
AcDbEntity
  8
STANDARDEBENE
 62
   250
100
AcDbVertex
100
AcDb2dVertex
 10
5.107012916402407
 20
-115.1601440298248
 30
0.0
  0
SEQEND
  5
20F
330
20C
100
AcDbEntity
  8
STANDARDEBENE
  0
POLYLINE
  5
210
330
1F
100
AcDbEntity
  8
STANDARDEBENE
 62
   250
100
AcDb2dPolyline
 66
     1
 10
0.0
 20
0.0
 30
0.0
  0
VERTEX
  5
211
330
210
100
AcDbEntity
  8
STANDARDEBENE
 62
   250
100
AcDbVertex
100
AcDb2dVertex
 10
1.106909909633091
 20
-115.1601440298248
 30
0.0
  0
VERTEX
  5
212
330
210
100
AcDbEntity
  8
STANDARDEBENE
 62
   250
100
AcDbVertex
100
AcDb2dVertex
 10
0.1071425402726085
 20
-116.1599113991853
 30
0.0
  0
SEQEND
  5
213
330
210
100
AcDbEntity
  8
STANDARDEBENE
  0
POLYLINE
  5
214
330
1F
100
AcDbEntity
  8
STANDARDEBENE
 62
   250
100
AcDb2dPolyline
 66
     1
 10
0.0
 20
0.0
 30
0.0
  0
VERTEX
  5
215
330
214
100
AcDbEntity
  8
STANDARDEBENE
 62
   250
100
AcDbVertex
100
AcDb2dVertex
 10
0.1071425402726085
 20
-199.1592065839983
 30
0.0
  0
VERTEX
  5
216
330
214
100
AcDbEntity
  8
STANDARDEBENE
 62
   250
100
AcDbVertex
100
AcDb2dVertex
 10
1.106909909633091
 20
-200.1596629729104
 30
0.0
  0
SEQEND
  5
217
330
214
100
AcDbEntity
  8
STANDARDEBENE
  0
POLYLINE
  5
218
330
1F
100
AcDbEntity
  8
STANDARDEBENE
 62
   250
100
AcDb2dPolyline
 66
     1
 10
0.0
 20
0.0
 30
0.0
  0
VERTEX
  5
219
330
218
100
AcDbEntity
  8
STANDARDEBENE
 62
   250
100
AcDbVertex
100
AcDb2dVertex
 10
10.02110035835896
 20
-186.6597028985617
 30
0.0
  0
VERTEX
  5
21A
330
218
100
AcDbEntity
  8
STANDARDEBENE
 62
   250
100
AcDbVertex
100
AcDb2dVertex
 10
29.80681354699663
 20
-186.6597028985617
 30
0.0
  0
SEQEND
  5
21B
330
218
100
AcDbEntity
  8
STANDARDEBENE
  0
POLYLINE
  5
21C
330
1F
100
AcDbEntity
  8
STANDARDEBENE
 62
   250
100
AcDb2dPolyline
 66
     1
 10
0.0
 20
0.0
 30
0.0
  0
VERTEX
  5
21D
330
21C
100
AcDbEntity
  8
STANDARDEBENE
 62
   250
100
AcDbVertex
100
AcDb2dVertex
 10
29.80681354699663
 20
-128.6590705748461
 30
0.0
  0
VERTEX
  5
21E
330
21C
100
AcDbEntity
  8
STANDARDEBENE
 62
   250
100
AcDbVertex
100
AcDb2dVertex
 10
10.02110035835896
 20
-128.6590705748461
 30
0.0
  0
SEQEND
  5
21F
330
21C
100
AcDbEntity
  8
STANDARDEBENE
  0
POLYLINE
  5
220
330
1F
100
AcDbEntity
  8
STANDARDEBENE
 62
   250
100
AcDb2dPolyline
 66
     1
 10
0.0
 20
0.0
 30
0.0
  0
VERTEX
  5
221
330
220
100
AcDbEntity
  8
STANDARDEBENE
 62
   250
100
AcDbVertex
100
AcDb2dVertex
 10
29.80681354699663
 20
-172.659514629757
 30
0.0
  0
VERTEX
  5
222
330
220
100
AcDbEntity
  8
STANDARDEBENE
 62
   250
100
AcDbVertex
100
AcDb2dVertex
 10
30.10705381660299
 20
-172.659514629757
 30
0.0
  0
SEQEND
  5
223
330
220
100
AcDbEntity
  8
STANDARDEBENE
  0
POLYLINE
  5
224
330
1F
100
AcDbEntity
  8
STANDARDEBENE
 62
   250
100
AcDb2dPolyline
 66
     1
 10
0.0
 20
0.0
 30
0.0
  0
VERTEX
  5
225
330
224
100
AcDbEntity
  8
STANDARDEBENE
 62
   250
100
AcDbVertex
100
AcDb2dVertex
 10
30.10705381660299
 20
-142.6596033534266
 30
0.0
  0
VERTEX
  5
226
330
224
100
AcDbEntity
  8
STANDARDEBENE
 62
   250
100
AcDbVertex
100
AcDb2dVertex
 10
29.80681354699663
 20
-142.6596033534266
 30
0.0
  0
SEQEND
  5
227
330
224
100
AcDbEntity
  8
STANDARDEBENE
  0
POLYLINE
  5
228
330
1F
100
AcDbEntity
  8
STANDARDEBENE
 62
   250
100
AcDb2dPolyline
 66
     1
 10
0.0
 20
0.0
 30
0.0
  0
VERTEX
  5
229
330
228
100
AcDbEntity
  8
STANDARDEBENE
 62
   250
100
AcDbVertex
100
AcDb2dVertex
 10
33.10721719912393
 20
-170.1594071868042
 30
0.0
  0
VERTEX
  5
22A
330
228
100
AcDbEntity
  8
STANDARDEBENE
 62
   250
100
AcDbVertex
100
AcDb2dVertex
 10
57.10697396530033
 20
-170.1594071868042
 30
0.0
  0
SEQEND
  5
22B
330
228
100
AcDbEntity
  8
STANDARDEBENE
  0
POLYLINE
  5
22C
330
1F
100
AcDbEntity
  8
STANDARDEBENE
 62
   250
100
AcDb2dPolyline
 66
     1
 10
0.0
 20
0.0
 30
0.0
  0
VERTEX
  5
22D
330
22C
100
AcDbEntity
  8
STANDARDEBENE
 62
   250
100
AcDbVertex
100
AcDb2dVertex
 10
57.10697396530033
 20
-145.1590217768278
 30
0.0
  0
VERTEX
  5
22E
330
22C
100
AcDbEntity
  8
STANDARDEBENE
 62
   250
100
AcDbVertex
100
AcDb2dVertex
 10
33.10721719912393
 20
-145.1590217768278
 30
0.0
  0
VERTEX
  5
22F
330
22C
100
AcDbEntity
  8
STANDARDEBENE
 62
   250
100
AcDbVertex
100
AcDb2dVertex
 10
32.72653389686916
 20
-145.3791635235616
 30
0.0
  0
SEQEND
  5
230
330
22C
100
AcDbEntity
  8
STANDARDEBENE
  0
POLYLINE
  5
231
330
1F
100
AcDbEntity
  8
STANDARDEBENE
 62
   250
100
AcDb2dPolyline
 66
     1
 10
0.0
 20
0.0
 30
0.0
  0
VERTEX
  5
232
330
231
100
AcDbEntity
  8
STANDARDEBENE
 62
   250
100
AcDbVertex
100
AcDb2dVertex
 10
32.72653389686916
 20
-169.9402989693979
 30
0.0
  0
VERTEX
  5
233
330
231
100
AcDbEntity
  8
STANDARDEBENE
 62
   250
100
AcDbVertex
100
AcDb2dVertex
 10
33.10721719912393
 20
-170.1594071868042
 30
0.0
  0
SEQEND
  5
234
330
231
100
AcDbEntity
  8
STANDARDEBENE
  0
POLYLINE
  5
235
330
1F
100
AcDbEntity
  8
STANDARDEBENE
 62
   250
100
AcDb2dPolyline
 66
     1
 10
0.0
 20
0.0
 30
0.0
  0
VERTEX
  5
236
330
235
100
AcDbEntity
  8
STANDARDEBENE
 62
   250
100
AcDbVertex
100
AcDb2dVertex
 10
32.42681039192649
 20
-145.4594343013221
 30
0.0
  0
VERTEX
  5
237
330
235
100
AcDbEntity
  8
STANDARDEBENE
 62
   250
100
AcDbVertex
100
AcDb2dVertex
 10
30.70718984603992
 20
-145.4594343013221
 30
0.0
  0
SEQEND
  5
238
330
235
100
AcDbEntity
  8
STANDARDEBENE
  0
POLYLINE
  5
239
330
1F
100
AcDbEntity
  8
STANDARDEBENE
 62
   250
100
AcDb2dPolyline
 66
     1
 10
0.0
 20
0.0
 30
0.0
  0
VERTEX
  5
23A
330
239
100
AcDbEntity
  8
STANDARDEBENE
 62
   250
100
AcDbVertex
100
AcDb2dVertex
 10
30.70718984603992
 20
-169.8596836818616
 30
0.0
  0
VERTEX
  5
23B
330
239
100
AcDbEntity
  8
STANDARDEBENE
 62
   250
100
AcDbVertex
100
AcDb2dVertex
 10
32.42681039192649
 20
-169.8596836818616
 30
0.0
  0
SEQEND
  5
23C
330
239
100
AcDbEntity
  8
STANDARDEBENE
  0
POLYLINE
  5
23D
330
1F
100
AcDbEntity
  8
STANDARDEBENE
 62
   250
100
AcDb2dPolyline
 66
     1
 10
0.0
 20
0.0
 30
0.0
  0
VERTEX
  5
23E
330
23D
100
AcDbEntity
  8
STANDARDEBENE
 62
   250
100
AcDbVertex
100
AcDb2dVertex
 10
57.10697396530033
 20
-170.1594071868042
 30
0.0
  0
VERTEX
  5
23F
330
23D
100
AcDbEntity
  8
STANDARDEBENE
 62
   250
100
AcDbVertex
100
AcDb2dVertex
 10
58.10691358954872
 20
-169.1592953076679
 30
0.0
  0
SEQEND
  5
240
330
23D
100
AcDbEntity
  8
STANDARDEBENE
  0
POLYLINE
  5
241
330
1F
100
AcDbEntity
  8
STANDARDEBENE
 62
   250
100
AcDb2dPolyline
 66
     1
 10
0.0
 20
0.0
 30
0.0
  0
VERTEX
  5
242
330
241
100
AcDbEntity
  8
STANDARDEBENE
 62
   250
100
AcDbVertex
100
AcDb2dVertex
 10
58.10691358954872
 20
-146.1598226755157
 30
0.0
  0
VERTEX
  5
243
330
241
100
AcDbEntity
  8
STANDARDEBENE
 62
   250
100
AcDbVertex
100
AcDb2dVertex
 10
57.10697396530033
 20
-145.1590217768278
 30
0.0
  0
SEQEND
  5
244
330
241
100
AcDbEntity
  8
STANDARDEBENE
  0
SPLINE
  5
245
330
1F
100
AcDbEntity
  8
STANDARDEBENE
 62
   250
100
AcDbSpline
210
0.0
220
0.0
230
1.0
 70
     8
 71
     3
 72
     8
 73
     4
 74
     0
 42
0.0000000001
 43
0.0000000001
 40
0.0
 40
0.0
 40
0.0
 40
0.0
 40
1.0
 40
1.0
 40
1.0
 40
1.0
 10
30.70718984603992
 20
-169.8596836818616
 30
0.0
 10
30.37542693194821
 20
-169.8596836818616
 30
0.0
 10
30.10705381660299
 20
-170.1280567972068
 30
0.0
 10
30.10705381660299
 20
-170.4598197112985
 30
0.0
  0
SPLINE
  5
246
330
1F
100
AcDbEntity
  8
STANDARDEBENE
 62
   250
100
AcDbSpline
210
0.0
220
0.0
230
1.0
 70
     8
 71
     3
 72
     8
 73
     4
 74
     0
 42
0.0000000001
 43
0.0000000001
 40
0.0
 40
0.0
 40
0.0
 40
0.0
 40
1.0
 40
1.0
 40
1.0
 40
1.0
 10
30.10705381660299
 20
-144.859642781661
 30
0.0
 10
30.10705381660299
 20
-145.1907166762011
 30
0.0
 10
30.37542693194821
 20
-145.4594343013221
 30
0.0
 10
30.70718984603992
 20
-145.4594343013221
 30
0.0
  0
SPLINE
  5
247
330
1F
100
AcDbEntity
  8
STANDARDEBENE
 62
   250
100
AcDbSpline
210
0.0
220
0.0
230
1.0
 70
     8
 71
     3
 72
     8
 73
     4
 74
     0
 42
0.0000000001
 43
0.0000000001
 40
0.0
 40
0.0
 40
0.0
 40
0.0
 40
1.0
 40
1.0
 40
1.0
 40
1.0
 10
32.72653389686916
 20
-169.9402989693979
 30
0.0
 10
32.63058792430993
 20
-169.8848328954947
 30
0.0
 10
32.52654597201948
 20
-169.8586501525342
 30
0.0
 10
32.42681039192649
 20
-169.8596836818616
 30
0.0
  0
SPLINE
  5
248
330
1F
100
AcDbEntity
  8
STANDARDEBENE
 62
   250
100
AcDbSpline
210
0.0
220
0.0
230
1.0
 70
     8
 71
     3
 72
     8
 73
     4
 74
     0
 42
0.0000000001
 43
0.0000000001
 40
0.0
 40
0.0
 40
0.0
 40
0.0
 40
1.0
 40
1.0
 40
1.0
 40
1.0
 10
32.42681039192649
 20
-145.4594343013221
 30
0.0
 10
32.53739802995707
 20
-145.4594343013221
 30
0.0
 10
32.64075096269592
 20
-145.4298064606036
 30
0.0
 10
32.72653389686916
 20
-145.3791635235616
 30
0.0
  0
POLYLINE
  5
249
330
1F
100
AcDbEntity
  8
STANDARDEBENE
 62
   250
100
AcDb2dPolyline
 66
     1
 10
0.0
 20
0.0
 30
0.0
  0
VERTEX
  5
24A
330
249
100
AcDbEntity
  8
STANDARDEBENE
 62
   250
100
AcDbVertex
100
AcDb2dVertex
 10
30.10705381660299
 20
-157.6595589915918
 30
0.0
  0
VERTEX
  5
24B
330
249
100
AcDbEntity
  8
STANDARDEBENE
 62
   250
100
AcDbVertex
100
AcDb2dVertex
 10
30.10705381660299
 20
-159.4672017851943
 30
0.0
  0
VERTEX
  5
24C
330
249
100
AcDbEntity
  8
STANDARDEBENE
 62
   250
100
AcDbVertex
100
AcDb2dVertex
 10
30.10705381660299
 20
-161.2493508553879
 30
0.0
  0
VERTEX
  5
24D
330
249
100
AcDbEntity
  8
STANDARDEBENE
 62
   250
100
AcDbVertex
100
AcDb2dVertex
 10
30.10705381660299
 20
-162.9787899298847
 30
0.0
  0
VERTEX
  5
24E
330
249
100
AcDbEntity
  8
STANDARDEBENE
 62
   250
100
AcDbVertex
100
AcDb2dVertex
 10
30.10705381660299
 20
-164.6303697950515
 30
0.0
  0
VERTEX
  5
24F
330
249
100
AcDbEntity
  8
STANDARDEBENE
 62
   250
100
AcDbVertex
100
AcDb2dVertex
 10
30.10705381660299
 20
-166.1806637861343
 30
0.0
  0
VERTEX
  5
250
330
249
100
AcDbEntity
  8
STANDARDEBENE
 62
   250
100
AcDbVertex
100
AcDb2dVertex
 10
30.10705381660299
 20
-167.6069342579304
 30
0.0
  0
VERTEX
  5
251
330
249
100
AcDbEntity
  8
STANDARDEBENE
 62
   250
100
AcDbVertex
100
AcDb2dVertex
 10
30.10705381660299
 20
-168.887132584789
 30
0.0
  0
VERTEX
  5
252
330
249
100
AcDbEntity
  8
STANDARDEBENE
 62
   250
100
AcDbVertex
100
AcDb2dVertex
 10
30.10705381660299
 20
-170.0040332779201
 30
0.0
  0
VERTEX
  5
253
330
249
100
AcDbEntity
  8
STANDARDEBENE
 62
   250
100
AcDbVertex
100
AcDb2dVertex
 10
30.10705381660299
 20
-170.9410998680857
 30
0.0
  0
VERTEX
  5
254
330
249
100
AcDbEntity
  8
STANDARDEBENE
 62
   250
100
AcDbVertex
100
AcDb2dVertex
 10
30.10705381660299
 20
-171.6845519642539
 30
0.0
  0
VERTEX
  5
255
330
249
100
AcDbEntity
  8
STANDARDEBENE
 62
   250
100
AcDbVertex
100
AcDb2dVertex
 10
30.10705381660299
 20
-172.2237097633749
 30
0.0
  0
VERTEX
  5
256
330
249
100
AcDbEntity
  8
STANDARDEBENE
 62
   250
100
AcDbVertex
100
AcDb2dVertex
 10
30.10705381660299
 20
-172.5506495406054
 30
0.0
  0
VERTEX
  5
257
330
249
100
AcDbEntity
  8
STANDARDEBENE
 62
   250
100
AcDbVertex
100
AcDb2dVertex
 10
30.10705381660299
 20
-172.659514629757
 30
0.0
  0
SEQEND
  5
258
330
249
100
AcDbEntity
  8
STANDARDEBENE
  0
POLYLINE
  5
259
330
1F
100
AcDbEntity
  8
STANDARDEBENE
 62
   250
100
AcDb2dPolyline
 66
     1
 10
0.0
 20
0.0
 30
0.0
  0
VERTEX
  5
25A
330
259
100
AcDbEntity
  8
STANDARDEBENE
 62
   250
100
AcDbVertex
100
AcDb2dVertex
 10
30.10705381660299
 20
-142.6596033534266
 30
0.0
  0
VERTEX
  5
25B
330
259
100
AcDbEntity
  8
STANDARDEBENE
 62
   250
100
AcDbVertex
100
AcDb2dVertex
 10
30.10705381660299
 20
-142.768812952354
 30
0.0
  0
VERTEX
  5
25C
330
259
100
AcDbEntity
  8
STANDARDEBENE
 62
   250
100
AcDbVertex
100
AcDb2dVertex
 10
30.10705381660299
 20
-143.095063710033
 30
0.0
  0
VERTEX
  5
25D
330
259
100
AcDbEntity
  8
STANDARDEBENE
 62
   250
100
AcDbVertex
100
AcDb2dVertex
 10
30.10705381660299
 20
-143.6345660189298
 30
0.0
  0
VERTEX
  5
25E
330
259
100
AcDbEntity
  8
STANDARDEBENE
 62
   250
100
AcDbVertex
100
AcDb2dVertex
 10
30.10705381660299
 20
-144.3776736053221
 30
0.0
  0
VERTEX
  5
25F
330
259
100
AcDbEntity
  8
STANDARDEBENE
 62
   250
100
AcDbVertex
100
AcDb2dVertex
 10
30.10705381660299
 20
-145.3143956857119
 30
0.0
  0
VERTEX
  5
260
330
259
100
AcDbEntity
  8
STANDARDEBENE
 62
   250
100
AcDbVertex
100
AcDb2dVertex
 10
30.10705381660299
 20
-146.4319853983947
 30
0.0
  0
VERTEX
  5
261
330
259
100
AcDbEntity
  8
STANDARDEBENE
 62
   250
100
AcDbVertex
100
AcDb2dVertex
 10
30.10705381660299
 20
-147.7125282350291
 30
0.0
  0
VERTEX
  5
262
330
259
100
AcDbEntity
  8
STANDARDEBENE
 62
   250
100
AcDbVertex
100
AcDb2dVertex
 10
30.10705381660299
 20
-149.1384541970494
 30
0.0
  0
VERTEX
  5
263
330
259
100
AcDbEntity
  8
STANDARDEBENE
 62
   250
100
AcDbVertex
100
AcDb2dVertex
 10
30.10705381660299
 20
-150.6880591685806
 30
0.0
  0
VERTEX
  5
264
330
259
100
AcDbEntity
  8
STANDARDEBENE
 62
   250
100
AcDbVertex
100
AcDb2dVertex
 10
30.10705381660299
 20
-152.3406725630748
 30
0.0
  0
VERTEX
  5
265
330
259
100
AcDbEntity
  8
STANDARDEBENE
 62
   250
100
AcDbVertex
100
AcDb2dVertex
 10
30.10705381660299
 20
-154.0697671277958
 30
0.0
  0
VERTEX
  5
266
330
259
100
AcDbEntity
  8
STANDARDEBENE
 62
   250
100
AcDbVertex
100
AcDb2dVertex
 10
30.10705381660299
 20
-155.8515716882135
 30
0.0
  0
VERTEX
  5
267
330
259
100
AcDbEntity
  8
STANDARDEBENE
 62
   250
100
AcDbVertex
100
AcDb2dVertex
 10
30.10705381660299
 20
-157.6595589915918
 30
0.0
  0
SEQEND
  5
268
330
259
100
AcDbEntity
  8
STANDARDEBENE
  0
POLYLINE
  5
269
330
1F
100
AcDbEntity
  8
STANDARDEBENE
 62
   250
100
AcDb2dPolyline
 66
     1
 10
0.0
 20
0.0
 30
0.0
  0
VERTEX
  5
26A
330
269
100
AcDbEntity
  8
STANDARDEBENE
 62
   250
100
AcDbVertex
100
AcDb2dVertex
 10
33.10721719912393
 20
-157.6595589915918
 30
0.0
  0
VERTEX
  5
26B
330
269
100
AcDbEntity
  8
STANDARDEBENE
 62
   250
100
AcDbVertex
100
AcDb2dVertex
 10
33.10721719912393
 20
-159.2908127799867
 30
0.0
  0
VERTEX
  5
26C
330
269
100
AcDbEntity
  8
STANDARDEBENE
 62
   250
100
AcDbVertex
100
AcDb2dVertex
 10
33.10721719912393
 20
-160.8945057863179
 30
0.0
  0
VERTEX
  5
26D
330
269
100
AcDbEntity
  8
STANDARDEBENE
 62
   250
100
AcDbVertex
100
AcDb2dVertex
 10
33.10721719912393
 20
-162.4427327187458
 30
0.0
  0
VERTEX
  5
26E
330
269
100
AcDbEntity
  8
STANDARDEBENE
 62
   250
100
AcDbVertex
100
AcDb2dVertex
 10
33.10721719912393
 20
-163.9099998538617
 30
0.0
  0
VERTEX
  5
26F
330
269
100
AcDbEntity
  8
STANDARDEBENE
 62
   250
100
AcDbVertex
100
AcDb2dVertex
 10
33.10721719912393
 20
-165.2687464096018
 30
0.0
  0
VERTEX
  5
270
330
269
100
AcDbEntity
  8
STANDARDEBENE
 62
   250
100
AcDbVertex
100
AcDb2dVertex
 10
33.10721719912393
 20
-166.4986463091941
 30
0.0
  0
VERTEX
  5
271
330
269
100
AcDbEntity
  8
STANDARDEBENE
 62
   250
100
AcDbVertex
100
AcDb2dVertex
 10
33.10721719912393
 20
-167.5759283781088
 30
0.0
  0
VERTEX
  5
272
330
269
100
AcDbEntity
  8
STANDARDEBENE
 62
   250
100
AcDbVertex
100
AcDb2dVertex
 10
33.10721719912393
 20
-168.4850896764349
 30
0.0
  0
VERTEX
  5
273
330
269
100
AcDbEntity
  8
STANDARDEBENE
 62
   250
100
AcDbVertex
100
AcDb2dVertex
 10
33.10721719912393
 20
-169.2078711860552
 30
0.0
  0
VERTEX
  5
274
330
269
100
AcDbEntity
  8
STANDARDEBENE
 62
   250
100
AcDbVertex
100
AcDb2dVertex
 10
33.10721719912393
 20
-169.7332485941444
 30
0.0
  0
VERTEX
  5
275
330
269
100
AcDbEntity
  8
STANDARDEBENE
 62
   250
100
AcDbVertex
100
AcDb2dVertex
 10
33.10721719912393
 20
-170.0522646465316
 30
0.0
  0
VERTEX
  5
276
330
269
100
AcDbEntity
  8
STANDARDEBENE
 62
   250
100
AcDbVertex
100
AcDb2dVertex
 10
33.10721719912393
 20
-170.1594071868042
 30
0.0
  0
SEQEND
  5
277
330
269
100
AcDbEntity
  8
STANDARDEBENE
  0
POLYLINE
  5
278
330
1F
100
AcDbEntity
  8
STANDARDEBENE
 62
   250
100
AcDb2dPolyline
 66
     1
 10
0.0
 20
0.0
 30
0.0
  0
VERTEX
  5
279
330
278
100
AcDbEntity
  8
STANDARDEBENE
 62
   250
100
AcDbVertex
100
AcDb2dVertex
 10
33.10721719912393
 20
-145.1590217768278
 30
0.0
  0
VERTEX
  5
27A
330
278
100
AcDbEntity
  8
STANDARDEBENE
 62
   250
100
AcDbVertex
100
AcDb2dVertex
 10
33.10721719912393
 20
-145.2661643171004
 30
0.0
  0
VERTEX
  5
27B
330
278
100
AcDbEntity
  8
STANDARDEBENE
 62
   250
100
AcDbVertex
100
AcDb2dVertex
 10
33.10721719912393
 20
-145.5851803694877
 30
0.0
  0
VERTEX
  5
27C
330
278
100
AcDbEntity
  8
STANDARDEBENE
 62
   250
100
AcDbVertex
100
AcDb2dVertex
 10
33.10721719912393
 20
-146.1105577775769
 30
0.0
  0
VERTEX
  5
27D
330
278
100
AcDbEntity
  8
STANDARDEBENE
 62
   250
100
AcDbVertex
100
AcDb2dVertex
 10
33.10721719912393
 20
-146.8343728165246
 30
0.0
  0
VERTEX
  5
27E
330
278
100
AcDbEntity
  8
STANDARDEBENE
 62
   250
100
AcDbVertex
100
AcDb2dVertex
 10
33.10721719912393
 20
-147.7425005855233
 30
0.0
  0
VERTEX
  5
27F
330
278
100
AcDbEntity
  8
STANDARDEBENE
 62
   250
100
AcDbVertex
100
AcDb2dVertex
 10
33.10721719912393
 20
-148.8204716739895
 30
0.0
  0
VERTEX
  5
280
330
278
100
AcDbEntity
  8
STANDARDEBENE
 62
   250
100
AcDbVertex
100
AcDb2dVertex
 10
33.10721719912393
 20
-150.0500270638061
 30
0.0
  0
VERTEX
  5
281
330
278
100
AcDbEntity
  8
STANDARDEBENE
 62
   250
100
AcDbVertex
100
AcDb2dVertex
 10
33.10721719912393
 20
-151.4094626390977
 30
0.0
  0
VERTEX
  5
282
330
278
100
AcDbEntity
  8
STANDARDEBENE
 62
   250
100
AcDbVertex
100
AcDb2dVertex
 10
33.10721719912393
 20
-152.8767297742136
 30
0.0
  0
VERTEX
  5
283
330
278
100
AcDbEntity
  8
STANDARDEBENE
 62
   250
100
AcDbVertex
100
AcDb2dVertex
 10
33.10721719912393
 20
-154.4235786675384
 30
0.0
  0
VERTEX
  5
284
330
278
100
AcDbEntity
  8
STANDARDEBENE
 62
   250
100
AcDbVertex
100
AcDb2dVertex
 10
33.10721719912393
 20
-156.0276161836454
 30
0.0
  0
VERTEX
  5
285
330
278
100
AcDbEntity
  8
STANDARDEBENE
 62
   250
100
AcDbVertex
100
AcDb2dVertex
 10
33.10721719912393
 20
-157.6595589915918
 30
0.0
  0
SEQEND
  5
286
330
278
100
AcDbEntity
  8
STANDARDEBENE
  0
POLYLINE
  5
287
330
1F
100
AcDbEntity
  8
STANDARDEBENE
 62
   250
100
AcDb2dPolyline
 66
     1
 10
0.0
 20
0.0
 30
0.0
  0
VERTEX
  5
288
330
287
100
AcDbEntity
  8
STANDARDEBENE
 62
   250
100
AcDbVertex
100
AcDb2dVertex
 10
58.10691358954872
 20
-157.6595589915918
 30
0.0
  0
VERTEX
  5
289
330
287
100
AcDbEntity
  8
STANDARDEBENE
 62
   250
100
AcDbVertex
100
AcDb2dVertex
 10
58.10691358954872
 20
-159.2956359168478
 30
0.0
  0
VERTEX
  5
28A
330
287
100
AcDbEntity
  8
STANDARDEBENE
 62
   250
100
AcDbVertex
100
AcDb2dVertex
 10
58.10691358954872
 20
-160.899328923179
 30
0.0
  0
VERTEX
  5
28B
330
287
100
AcDbEntity
  8
STANDARDEBENE
 62
   250
100
AcDbVertex
100
AcDb2dVertex
 10
58.10691358954872
 20
-162.4368760525573
 30
0.0
  0
VERTEX
  5
28C
330
287
100
AcDbEntity
  8
STANDARDEBENE
 62
   250
100
AcDbVertex
100
AcDb2dVertex
 10
58.10691358954872
 20
-163.8769269153853
 30
0.0
  0
VERTEX
  5
28D
330
287
100
AcDbEntity
  8
STANDARDEBENE
 62
   250
100
AcDbVertex
100
AcDb2dVertex
 10
58.10691358954872
 20
-165.1905426904961
 30
0.0
  0
VERTEX
  5
28E
330
287
100
AcDbEntity
  8
STANDARDEBENE
 62
   250
100
AcDbVertex
100
AcDb2dVertex
 10
58.10691358954872
 20
-166.3505071056018
 30
0.0
  0
VERTEX
  5
28F
330
287
100
AcDbEntity
  8
STANDARDEBENE
 62
   250
100
AcDbVertex
100
AcDb2dVertex
 10
58.10691358954872
 20
-167.3344270252756
 30
0.0
  0
VERTEX
  5
290
330
287
100
AcDbEntity
  8
STANDARDEBENE
 62
   250
100
AcDbVertex
100
AcDb2dVertex
 10
58.10691358954872
 20
-168.1209428434183
 30
0.0
  0
VERTEX
  5
291
330
287
100
AcDbEntity
  8
STANDARDEBENE
 62
   250
100
AcDbVertex
100
AcDb2dVertex
 10
58.10691358954872
 20
-168.6938626005673
 30
0.0
  0
VERTEX
  5
292
330
287
100
AcDbEntity
  8
STANDARDEBENE
 62
   250
100
AcDbVertex
100
AcDb2dVertex
 10
58.10691358954872
 20
-169.042506493673
 30
0.0
  0
VERTEX
  5
293
330
287
100
AcDbEntity
  8
STANDARDEBENE
 62
   250
100
AcDbVertex
100
AcDb2dVertex
 10
58.10691358954872
 20
-169.1592953076679
 30
0.0
  0
SEQEND
  5
294
330
287
100
AcDbEntity
  8
STANDARDEBENE
  0
POLYLINE
  5
295
330
1F
100
AcDbEntity
  8
STANDARDEBENE
 62
   250
100
AcDb2dPolyline
 66
     1
 10
0.0
 20
0.0
 30
0.0
  0
VERTEX
  5
296
330
295
100
AcDbEntity
  8
STANDARDEBENE
 62
   250
100
AcDbVertex
100
AcDb2dVertex
 10
58.10691358954872
 20
-146.1598226755157
 30
0.0
  0
VERTEX
  5
297
330
295
100
AcDbEntity
  8
STANDARDEBENE
 62
   250
100
AcDbVertex
100
AcDb2dVertex
 10
58.10691358954872
 20
-146.2769559992864
 30
0.0
  0
VERTEX
  5
298
330
295
100
AcDbEntity
  8
STANDARDEBENE
 62
   250
100
AcDbVertex
100
AcDb2dVertex
 10
58.10691358954872
 20
-146.6255998923921
 30
0.0
  0
VERTEX
  5
299
330
295
100
AcDbEntity
  8
STANDARDEBENE
 62
   250
100
AcDbVertex
100
AcDb2dVertex
 10
58.10691358954872
 20
-147.1992086690928
 30
0.0
  0
VERTEX
  5
29A
330
295
100
AcDbEntity
  8
STANDARDEBENE
 62
   250
100
AcDbVertex
100
AcDb2dVertex
 10
58.10691358954872
 20
-147.9850354676838
 30
0.0
  0
VERTEX
  5
29B
330
295
100
AcDbEntity
  8
STANDARDEBENE
 62
   250
100
AcDbVertex
100
AcDb2dVertex
 10
58.10691358954872
 20
-148.9689553873577
 30
0.0
  0
VERTEX
  5
29C
330
295
100
AcDbEntity
  8
STANDARDEBENE
 62
   250
100
AcDbVertex
100
AcDb2dVertex
 10
58.10691358954872
 20
-150.1289198024634
 30
0.0
  0
VERTEX
  5
29D
330
295
100
AcDbEntity
  8
STANDARDEBENE
 62
   250
100
AcDbVertex
100
AcDb2dVertex
 10
58.10691358954872
 20
-151.4425355775742
 30
0.0
  0
VERTEX
  5
29E
330
295
100
AcDbEntity
  8
STANDARDEBENE
 62
   250
100
AcDbVertex
100
AcDb2dVertex
 10
58.10691358954872
 20
-152.8825864404022
 30
0.0
  0
VERTEX
  5
29F
330
295
100
AcDbEntity
  8
STANDARDEBENE
 62
   250
100
AcDbVertex
100
AcDb2dVertex
 10
58.10691358954872
 20
-154.4194445502289
 30
0.0
  0
VERTEX
  5
2A0
330
295
100
AcDbEntity
  8
STANDARDEBENE
 62
   250
100
AcDbVertex
100
AcDb2dVertex
 10
58.10691358954872
 20
-156.0227930467842
 30
0.0
  0
VERTEX
  5
2A1
330
295
100
AcDbEntity
  8
STANDARDEBENE
 62
   250
100
AcDbVertex
100
AcDb2dVertex
 10
58.10691358954872
 20
-157.6595589915918
 30
0.0
  0
SEQEND
  5
2A2
330
295
100
AcDbEntity
  8
STANDARDEBENE
  0
POLYLINE
  5
2A3
330
1F
100
AcDbEntity
  8
STANDARDEBENE
 62
   250
100
AcDb2dPolyline
 66
     1
 10
0.0
 20
0.0
 30
0.0
  0
VERTEX
  5
2A4
330
2A3
100
AcDbEntity
  8
STANDARDEBENE
 62
   250
100
AcDbVertex
100
AcDb2dVertex
 10
57.10697396530033
 20
-162.5584880034133
 30
0.0
  0
VERTEX
  5
2A5
330
2A3
100
AcDbEntity
  8
STANDARDEBENE
 62
   250
100
AcDbVertex
100
AcDb2dVertex
 10
57.29748787131562
 20
-162.0506805938898
 30
0.0
  0
VERTEX
  5
2A6
330
2A3
100
AcDbEntity
  8
STANDARDEBENE
 62
   250
100
AcDbVertex
100
AcDb2dVertex
 10
57.85352664945064
 20
-160.088008401179
 30
0.0
  0
VERTEX
  5
2A7
330
2A3
100
AcDbEntity
  8
STANDARDEBENE
 62
   250
100
AcDbVertex
100
AcDb2dVertex
 10
58.10209045268757
 20
-158.0157820997651
 30
0.0
  0
VERTEX
  5
2A8
330
2A3
100
AcDbEntity
  8
STANDARDEBENE
 62
   250
100
AcDbVertex
100
AcDb2dVertex
 10
58.10691358954872
 20
-157.6595589915918
 30
0.0
  0
SEQEND
  5
2A9
330
2A3
100
AcDbEntity
  8
STANDARDEBENE
  0
POLYLINE
  5
2AA
330
1F
100
AcDbEntity
  8
STANDARDEBENE
 62
   250
100
AcDb2dPolyline
 66
     1
 10
0.0
 20
0.0
 30
0.0
  0
VERTEX
  5
2AB
330
2AA
100
AcDbEntity
  8
STANDARDEBENE
 62
   250
100
AcDbVertex
100
AcDb2dVertex
 10
57.10697396530033
 20
-152.7606299797703
 30
0.0
  0
VERTEX
  5
2AC
330
2AA
100
AcDbEntity
  8
STANDARDEBENE
 62
   250
100
AcDbVertex
100
AcDb2dVertex
 10
57.10697396530033
 20
-151.3136889214264
 30
0.0
  0
VERTEX
  5
2AD
330
2AA
100
AcDbEntity
  8
STANDARDEBENE
 62
   250
100
AcDbVertex
100
AcDb2dVertex
 10
57.10697396530033
 20
-149.9732013838035
 30
0.0
  0
VERTEX
  5
2AE
330
2AA
100
AcDbEntity
  8
STANDARDEBENE
 62
   250
100
AcDbVertex
100
AcDb2dVertex
 10
57.10697396530033
 20
-148.76224952188
 30
0.0
  0
VERTEX
  5
2AF
330
2AA
100
AcDbEntity
  8
STANDARDEBENE
 62
   250
100
AcDbVertex
100
AcDb2dVertex
 10
57.10697396530033
 20
-147.6997813733246
 30
0.0
  0
VERTEX
  5
2B0
330
2AA
100
AcDbEntity
  8
STANDARDEBENE
 62
   250
100
AcDbVertex
100
AcDb2dVertex
 10
57.10697396530033
 20
-146.8064675246851
 30
0.0
  0
VERTEX
  5
2B1
330
2AA
100
AcDbEntity
  8
STANDARDEBENE
 62
   250
100
AcDbVertex
100
AcDb2dVertex
 10
57.10697396530033
 20
-146.095054837666
 30
0.0
  0
VERTEX
  5
2B2
330
2AA
100
AcDbEntity
  8
STANDARDEBENE
 62
   250
100
AcDbVertex
100
AcDb2dVertex
 10
57.10697396530033
 20
-145.5782901739718
 30
0.0
  0
VERTEX
  5
2B3
330
2AA
100
AcDbEntity
  8
STANDARDEBENE
 62
   250
100
AcDbVertex
100
AcDb2dVertex
 10
57.10697396530033
 20
-145.2644417682215
 30
0.0
  0
VERTEX
  5
2B4
330
2AA
100
AcDbEntity
  8
STANDARDEBENE
 62
   250
100
AcDbVertex
100
AcDb2dVertex
 10
57.10697396530033
 20
-145.1590217768278
 30
0.0
  0
SEQEND
  5
2B5
330
2AA
100
AcDbEntity
  8
STANDARDEBENE
  0
POLYLINE
  5
2B6
330
1F
100
AcDbEntity
  8
STANDARDEBENE
 62
   250
100
AcDb2dPolyline
 66
     1
 10
0.0
 20
0.0
 30
0.0
  0
VERTEX
  5
2B7
330
2B6
100
AcDbEntity
  8
STANDARDEBENE
 62
   250
100
AcDbVertex
100
AcDb2dVertex
 10
57.10697396530033
 20
-170.1594071868042
 30
0.0
  0
VERTEX
  5
2B8
330
2B6
100
AcDbEntity
  8
STANDARDEBENE
 62
   250
100
AcDbVertex
100
AcDb2dVertex
 10
57.10697396530033
 20
-170.0543317051864
 30
0.0
  0
VERTEX
  5
2B9
330
2B6
100
AcDbEntity
  8
STANDARDEBENE
 62
   250
100
AcDbVertex
100
AcDb2dVertex
 10
57.10697396530033
 20
-169.7411723189877
 30
0.0
  0
VERTEX
  5
2BA
330
2B6
100
AcDbEntity
  8
STANDARDEBENE
 62
   250
100
AcDbVertex
100
AcDb2dVertex
 10
57.10697396530033
 20
-169.2244076552934
 30
0.0
  0
VERTEX
  5
2BB
330
2B6
100
AcDbEntity
  8
STANDARDEBENE
 62
   250
100
AcDbVertex
100
AcDb2dVertex
 10
57.10697396530033
 20
-168.5126504584985
 30
0.0
  0
VERTEX
  5
2BC
330
2B6
100
AcDbEntity
  8
STANDARDEBENE
 62
   250
100
AcDbVertex
100
AcDb2dVertex
 10
57.10697396530033
 20
-167.6183030805317
 30
0.0
  0
VERTEX
  5
2BD
330
2B6
100
AcDbEntity
  8
STANDARDEBENE
 62
   250
100
AcDbVertex
100
AcDb2dVertex
 10
57.10697396530033
 20
-166.5572129710795
 30
0.0
  0
VERTEX
  5
2BE
330
2B6
100
AcDbEntity
  8
STANDARDEBENE
 62
   250
100
AcDbVertex
100
AcDb2dVertex
 10
57.10697396530033
 20
-165.3455720896044
 30
0.0
  0
VERTEX
  5
2BF
330
2B6
100
AcDbEntity
  8
STANDARDEBENE
 62
   250
100
AcDbVertex
100
AcDb2dVertex
 10
57.10697396530033
 20
-164.0057735715331
 30
0.0
  0
VERTEX
  5
2C0
330
2B6
100
AcDbEntity
  8
STANDARDEBENE
 62
   250
100
AcDbVertex
100
AcDb2dVertex
 10
57.10697396530033
 20
-162.5584880034133
 30
0.0
  0
SEQEND
  5
2C1
330
2B6
100
AcDbEntity
  8
STANDARDEBENE
  0
POLYLINE
  5
2C2
330
1F
100
AcDbEntity
  8
STANDARDEBENE
 62
   250
100
AcDb2dPolyline
 66
     1
 10
0.0
 20
0.0
 30
0.0
  0
VERTEX
  5
2C3
330
2C2
100
AcDbEntity
  8
STANDARDEBENE
 62
   250
100
AcDbVertex
100
AcDb2dVertex
 10
34.10681231359651
 20
-162.5584880034133
 30
0.0
  0
VERTEX
  5
2C4
330
2C2
100
AcDbEntity
  8
STANDARDEBENE
 62
   250
100
AcDbVertex
100
AcDb2dVertex
 10
57.10697396530033
 20
-162.5584880034133
 30
0.0
  0
SEQEND
  5
2C5
330
2C2
100
AcDbEntity
  8
STANDARDEBENE
  0
POLYLINE
  5
2C6
330
1F
100
AcDbEntity
  8
STANDARDEBENE
 62
   250
100
AcDb2dPolyline
 66
     1
 10
0.0
 20
0.0
 30
0.0
  0
VERTEX
  5
2C7
330
2C6
100
AcDbEntity
  8
STANDARDEBENE
 62
   250
100
AcDbVertex
100
AcDb2dVertex
 10
58.10691358954872
 20
-157.6595589915918
 30
0.0
  0
VERTEX
  5
2C8
330
2C6
100
AcDbEntity
  8
STANDARDEBENE
 62
   250
100
AcDbVertex
100
AcDb2dVertex
 10
58.0002878139398
 20
-156.0868718650823
 30
0.0
  0
VERTEX
  5
2C9
330
2C6
100
AcDbEntity
  8
STANDARDEBENE
 62
   250
100
AcDbVertex
100
AcDb2dVertex
 10
57.68471685931051
 20
-154.513840228797
 30
0.0
  0
VERTEX
  5
2CA
330
2C6
100
AcDbEntity
  8
STANDARDEBENE
 62
   250
100
AcDbVertex
100
AcDb2dVertex
 10
57.10697396530033
 20
-152.7606299797703
 30
0.0
  0
SEQEND
  5
2CB
330
2C6
100
AcDbEntity
  8
STANDARDEBENE
  0
POLYLINE
  5
2CC
330
1F
100
AcDbEntity
  8
STANDARDEBENE
 62
   250
100
AcDb2dPolyline
 66
     1
 10
0.0
 20
0.0
 30
0.0
  0
VERTEX
  5
2CD
330
2CC
100
AcDbEntity
  8
STANDARDEBENE
 62
   250
100
AcDbVertex
100
AcDb2dVertex
 10
34.10681231359651
 20
-152.7606299797703
 30
0.0
  0
VERTEX
  5
2CE
330
2CC
100
AcDbEntity
  8
STANDARDEBENE
 62
   250
100
AcDbVertex
100
AcDb2dVertex
 10
34.10681231359651
 20
-154.3433078897779
 30
0.0
  0
VERTEX
  5
2CF
330
2CC
100
AcDbEntity
  8
STANDARDEBENE
 62
   250
100
AcDbVertex
100
AcDb2dVertex
 10
34.10681231359651
 20
-155.9866195203256
 30
0.0
  0
VERTEX
  5
2D0
330
2CC
100
AcDbEntity
  8
STANDARDEBENE
 62
   250
100
AcDbVertex
100
AcDb2dVertex
 10
34.10681231359651
 20
-157.6595589915918
 30
0.0
  0
VERTEX
  5
2D1
330
2CC
100
AcDbEntity
  8
STANDARDEBENE
 62
   250
100
AcDbVertex
100
AcDb2dVertex
 10
34.10681231359651
 20
-159.3328429726338
 30
0.0
  0
VERTEX
  5
2D2
330
2CC
100
AcDbEntity
  8
STANDARDEBENE
 62
   250
100
AcDbVertex
100
AcDb2dVertex
 10
34.10681231359651
 20
-160.9747765640784
 30
0.0
  0
VERTEX
  5
2D3
330
2CC
100
AcDbEntity
  8
STANDARDEBENE
 62
   250
100
AcDbVertex
100
AcDb2dVertex
 10
34.10681231359651
 20
-162.5584880034133
 30
0.0
  0
SEQEND
  5
2D4
330
2CC
100
AcDbEntity
  8
STANDARDEBENE
  0
POLYLINE
  5
2D5
330
1F
100
AcDbEntity
  8
STANDARDEBENE
 62
   250
100
AcDb2dPolyline
 66
     1
 10
0.0
 20
0.0
 30
0.0
  0
VERTEX
  5
2D6
330
2D5
100
AcDbEntity
  8
STANDARDEBENE
 62
   250
100
AcDbVertex
100
AcDb2dVertex
 10
57.10697396530033
 20
-152.7606299797703
 30
0.0
  0
VERTEX
  5
2D7
330
2D5
100
AcDbEntity
  8
STANDARDEBENE
 62
   250
100
AcDbVertex
100
AcDb2dVertex
 10
34.10681231359651
 20
-152.7606299797703
 30
0.0
  0
SEQEND
  5
2D8
330
2D5
100
AcDbEntity
  8
STANDARDEBENE
  0
POLYLINE
  5
2D9
330
1F
100
AcDbEntity
  8
STANDARDEBENE
 62
   250
100
AcDb2dPolyline
 66
     1
 10
0.0
 20
0.0
 30
0.0
  0
VERTEX
  5
2DA
330
2D9
100
AcDbEntity
  8
STANDARDEBENE
 62
   250
100
AcDbVertex
100
AcDb2dVertex
 10
1.106909909633091
 20
-157.6595589915918
 30
0.0
  0
VERTEX
  5
2DB
330
2D9
100
AcDbEntity
  8
STANDARDEBENE
 62
   250
100
AcDbVertex
100
AcDb2dVertex
 10
1.106909909633091
 20
-160.6922785479255
 30
0.0
  0
VERTEX
  5
2DC
330
2D9
100
AcDbEntity
  8
STANDARDEBENE
 62
   250
100
AcDbVertex
100
AcDb2dVertex
 10
1.106909909633091
 20
-163.7081171252452
 30
0.0
  0
VERTEX
  5
2DD
330
2D9
100
AcDbEntity
  8
STANDARDEBENE
 62
   250
100
AcDbVertex
100
AcDb2dVertex
 10
1.106909909633091
 20
-166.6936388422948
 30
0.0
  0
VERTEX
  5
2DE
330
2D9
100
AcDbEntity
  8
STANDARDEBENE
 62
   250
100
AcDbVertex
100
AcDb2dVertex
 10
1.106909909633091
 20
-169.6336852689393
 30
0.0
  0
VERTEX
  5
2DF
330
2D9
100
AcDbEntity
  8
STANDARDEBENE
 62
   250
100
AcDbVertex
100
AcDb2dVertex
 10
1.106909909633091
 20
-172.5113754261647
 30
0.0
  0
VERTEX
  5
2E0
330
2D9
100
AcDbEntity
  8
STANDARDEBENE
 62
   250
100
AcDbVertex
100
AcDb2dVertex
 10
1.106909909633091
 20
-175.3143069620423
 30
0.0
  0
VERTEX
  5
2E1
330
2D9
100
AcDbEntity
  8
STANDARDEBENE
 62
   250
100
AcDbVertex
100
AcDb2dVertex
 10
1.106909909633091
 20
-178.0273214464371
 30
0.0
  0
VERTEX
  5
2E2
330
2D9
100
AcDbEntity
  8
STANDARDEBENE
 62
   250
100
AcDbVertex
100
AcDb2dVertex
 10
1.106909909633091
 20
-180.6359494687657
 30
0.0
  0
VERTEX
  5
2E3
330
2D9
100
AcDbEntity
  8
STANDARDEBENE
 62
   250
100
AcDbVertex
100
AcDb2dVertex
 10
1.106909909633091
 20
-183.1288222064268
 30
0.0
  0
VERTEX
  5
2E4
330
2D9
100
AcDbEntity
  8
STANDARDEBENE
 62
   250
100
AcDbVertex
100
AcDb2dVertex
 10
1.106909909633091
 20
-185.4911257390611
 30
0.0
  0
VERTEX
  5
2E5
330
2D9
100
AcDbEntity
  8
STANDARDEBENE
 62
   250
100
AcDbVertex
100
AcDb2dVertex
 10
1.106909909633091
 20
-187.7118357538432
 30
0.0
  0
VERTEX
  5
2E6
330
2D9
100
AcDbEntity
  8
STANDARDEBENE
 62
   250
100
AcDbVertex
100
AcDb2dVertex
 10
1.106909909633091
 20
-189.7782053890687
 30
0.0
  0
VERTEX
  5
2E7
330
2D9
100
AcDbEntity
  8
STANDARDEBENE
 62
   250
100
AcDbVertex
100
AcDb2dVertex
 10
1.106909909633091
 20
-191.6823109198941
 30
0.0
  0
VERTEX
  5
2E8
330
2D9
100
AcDbEntity
  8
STANDARDEBENE
 62
   250
100
AcDbVertex
100
AcDb2dVertex
 10
1.106909909633091
 20
-193.4127835237182
 30
0.0
  0
VERTEX
  5
2E9
330
2D9
100
AcDbEntity
  8
STANDARDEBENE
 62
   250
100
AcDbVertex
100
AcDb2dVertex
 10
1.106909909633091
 20
-194.961354965922
 30
0.0
  0
VERTEX
  5
2EA
330
2D9
100
AcDbEntity
  8
STANDARDEBENE
 62
   250
100
AcDbVertex
100
AcDb2dVertex
 10
1.106909909633091
 20
-196.3187234825589
 30
0.0
  0
VERTEX
  5
2EB
330
2D9
100
AcDbEntity
  8
STANDARDEBENE
 62
   250
100
AcDbVertex
100
AcDb2dVertex
 10
1.106909909633091
 20
-197.4800659367678
 30
0.0
  0
VERTEX
  5
2EC
330
2D9
100
AcDbEntity
  8
STANDARDEBENE
 62
   250
100
AcDbVertex
100
AcDb2dVertex
 10
1.106909909633091
 20
-198.438147623257
 30
0.0
  0
VERTEX
  5
2ED
330
2D9
100
AcDbEntity
  8
STANDARDEBENE
 62
   250
100
AcDbVertex
100
AcDb2dVertex
 10
1.106909909633091
 20
-199.1881454051652
 30
0.0
  0
VERTEX
  5
2EE
330
2D9
100
AcDbEntity
  8
STANDARDEBENE
 62
   250
100
AcDbVertex
100
AcDb2dVertex
 10
1.106909909633091
 20
-199.7266141847346
 30
0.0
  0
VERTEX
  5
2EF
330
2D9
100
AcDbEntity
  8
STANDARDEBENE
 62
   250
100
AcDbVertex
100
AcDb2dVertex
 10
1.106909909633091
 20
-200.0511423935346
 30
0.0
  0
VERTEX
  5
2F0
330
2D9
100
AcDbEntity
  8
STANDARDEBENE
 62
   250
100
AcDbVertex
100
AcDb2dVertex
 10
1.106909909633091
 20
-200.1596629729104
 30
0.0
  0
SEQEND
  5
2F1
330
2D9
100
AcDbEntity
  8
STANDARDEBENE
  0
POLYLINE
  5
2F2
330
1F
100
AcDbEntity
  8
STANDARDEBENE
 62
   250
100
AcDb2dPolyline
 66
     1
 10
0.0
 20
0.0
 30
0.0
  0
VERTEX
  5
2F3
330
2F2
100
AcDbEntity
  8
STANDARDEBENE
 62
   250
100
AcDbVertex
100
AcDb2dVertex
 10
1.106909909633091
 20
-115.1601440298248
 30
0.0
  0
VERTEX
  5
2F4
330
2F2
100
AcDbEntity
  8
STANDARDEBENE
 62
   250
100
AcDbVertex
100
AcDb2dVertex
 10
1.106909909633091
 20
-115.2679755896491
 30
0.0
  0
VERTEX
  5
2F5
330
2F2
100
AcDbEntity
  8
STANDARDEBENE
 62
   250
100
AcDbVertex
100
AcDb2dVertex
 10
1.106909909633091
 20
-115.5921592886732
 30
0.0
  0
VERTEX
  5
2F6
330
2F2
100
AcDbEntity
  8
STANDARDEBENE
 62
   250
100
AcDbVertex
100
AcDb2dVertex
 10
1.106909909633091
 20
-116.1306280682427
 30
0.0
  0
VERTEX
  5
2F7
330
2F2
100
AcDbEntity
  8
STANDARDEBENE
 62
   250
100
AcDbVertex
100
AcDb2dVertex
 10
1.106909909633091
 20
-116.8816593794783
 30
0.0
  0
VERTEX
  5
2F8
330
2F2
100
AcDbEntity
  8
STANDARDEBENE
 62
   250
100
AcDbVertex
100
AcDb2dVertex
 10
1.106909909633091
 20
-117.8393965561917
 30
0.0
  0
VERTEX
  5
2F9
330
2F2
100
AcDbEntity
  8
STANDARDEBENE
 62
   250
100
AcDbVertex
100
AcDb2dVertex
 10
1.106909909633091
 20
-119.0007390104005
 30
0.0
  0
VERTEX
  5
2FA
330
2F2
100
AcDbEntity
  8
STANDARDEBENE
 62
   250
100
AcDbVertex
100
AcDb2dVertex
 10
1.106909909633091
 20
-120.3581075270374
 30
0.0
  0
VERTEX
  5
2FB
330
2F2
100
AcDbEntity
  8
STANDARDEBENE
 62
   250
100
AcDbVertex
100
AcDb2dVertex
 10
1.106909909633091
 20
-121.9063344594654
 30
0.0
  0
VERTEX
  5
2FC
330
2F2
100
AcDbEntity
  8
STANDARDEBENE
 62
   250
100
AcDbVertex
100
AcDb2dVertex
 10
1.106909909633091
 20
-123.6368070632896
 30
0.0
  0
VERTEX
  5
2FD
330
2F2
100
AcDbEntity
  8
STANDARDEBENE
 62
   250
100
AcDbVertex
100
AcDb2dVertex
 10
1.106909909633091
 20
-125.5405680843392
 30
0.0
  0
VERTEX
  5
2FE
330
2F2
100
AcDbEntity
  8
STANDARDEBENE
 62
   250
100
AcDbVertex
100
AcDb2dVertex
 10
1.106909909633091
 20
-127.6069377195646
 30
0.0
  0
VERTEX
  5
2FF
330
2F2
100
AcDbEntity
  8
STANDARDEBENE
 62
   250
100
AcDbVertex
100
AcDb2dVertex
 10
1.106909909633091
 20
-129.8279922441225
 30
0.0
  0
VERTEX
  5
300
330
2F2
100
AcDbEntity
  8
STANDARDEBENE
 62
   250
100
AcDbVertex
100
AcDb2dVertex
 10
1.106909909633091
 20
-132.1906402865327
 30
0.0
  0
VERTEX
  5
301
330
2F2
100
AcDbEntity
  8
STANDARDEBENE
 62
   250
100
AcDbVertex
100
AcDb2dVertex
 10
1.106909909633091
 20
-134.6821349850906
 30
0.0
  0
VERTEX
  5
302
330
2F2
100
AcDbEntity
  8
STANDARDEBENE
 62
   250
100
AcDbVertex
100
AcDb2dVertex
 10
1.106909909633091
 20
-137.2911075171949
 30
0.0
  0
VERTEX
  5
303
330
2F2
100
AcDbEntity
  8
STANDARDEBENE
 62
   250
100
AcDbVertex
100
AcDb2dVertex
 10
1.106909909633091
 20
-140.0041220015898
 30
0.0
  0
VERTEX
  5
304
330
2F2
100
AcDbEntity
  8
STANDARDEBENE
 62
   250
100
AcDbVertex
100
AcDb2dVertex
 10
1.106909909633091
 20
-142.8067090276916
 30
0.0
  0
VERTEX
  5
305
330
2F2
100
AcDbEntity
  8
STANDARDEBENE
 62
   250
100
AcDbVertex
100
AcDb2dVertex
 10
1.106909909633091
 20
-145.6857772240202
 30
0.0
  0
VERTEX
  5
306
330
2F2
100
AcDbEntity
  8
STANDARDEBENE
 62
   250
100
AcDbVertex
100
AcDb2dVertex
 10
1.106909909633091
 20
-148.6254791408889
 30
0.0
  0
VERTEX
  5
307
330
2F2
100
AcDbEntity
  8
STANDARDEBENE
 62
   250
100
AcDbVertex
100
AcDb2dVertex
 10
1.106909909633091
 20
-151.6110008579385
 30
0.0
  0
VERTEX
  5
308
330
2F2
100
AcDbEntity
  8
STANDARDEBENE
 62
   250
100
AcDbVertex
100
AcDb2dVertex
 10
1.106909909633091
 20
-154.6271839450339
 30
0.0
  0
VERTEX
  5
309
330
2F2
100
AcDbEntity
  8
STANDARDEBENE
 62
   250
100
AcDbVertex
100
AcDb2dVertex
 10
1.106909909633091
 20
-157.6595589915918
 30
0.0
  0
SEQEND
  5
30A
330
2F2
100
AcDbEntity
  8
STANDARDEBENE
  0
POLYLINE
  5
30B
330
1F
100
AcDbEntity
  8
STANDARDEBENE
 62
   250
100
AcDb2dPolyline
 66
     1
 10
0.0
 20
0.0
 30
0.0
  0
VERTEX
  5
30C
330
30B
100
AcDbEntity
  8
STANDARDEBENE
 62
   250
100
AcDbVertex
100
AcDb2dVertex
 10
5.107012916402407
 20
-200.1596629729104
 30
0.0
  0
VERTEX
  5
30D
330
30B
100
AcDbEntity
  8
STANDARDEBENE
 62
   250
100
AcDbVertex
100
AcDb2dVertex
 10
5.107012916402407
 20
-200.0559655303958
 30
0.0
  0
VERTEX
  5
30E
330
30B
100
AcDbEntity
  8
STANDARDEBENE
 62
   250
100
AcDbVertex
100
AcDb2dVertex
 10
5.107012916402407
 20
-199.746251241955
 30
0.0
  0
VERTEX
  5
30F
330
30B
100
AcDbEntity
  8
STANDARDEBENE
 62
   250
100
AcDbVertex
100
AcDb2dVertex
 10
5.107012916402407
 20
-199.2305201075881
 30
0.0
  0
VERTEX
  5
310
330
30B
100
AcDbEntity
  8
STANDARDEBENE
 62
   250
100
AcDbVertex
100
AcDb2dVertex
 10
5.107012916402407
 20
-198.5135952641563
 30
0.0
  0
VERTEX
  5
311
330
30B
100
AcDbEntity
  8
STANDARDEBENE
 62
   250
100
AcDbVertex
100
AcDb2dVertex
 10
5.107012916402407
 20
-197.5965102409869
 30
0.0
  0
VERTEX
  5
312
330
30B
100
AcDbEntity
  8
STANDARDEBENE
 62
   250
100
AcDbVertex
100
AcDb2dVertex
 10
5.107012916402407
 20
-196.4851217042685
 30
0.0
  0
VERTEX
  5
313
330
30B
100
AcDbEntity
  8
STANDARDEBENE
 62
   250
100
AcDbVertex
100
AcDb2dVertex
 10
5.107012916402407
 20
-195.1849418104137
 30
0.0
  0
VERTEX
  5
314
330
30B
100
AcDbEntity
  8
STANDARDEBENE
 62
   250
100
AcDbVertex
100
AcDb2dVertex
 10
5.107012916402407
 20
-193.7014827158354
 30
0.0
  0
VERTEX
  5
315
330
30B
100
AcDbEntity
  8
STANDARDEBENE
 62
   250
100
AcDbVertex
100
AcDb2dVertex
 10
5.107012916402407
 20
-192.0419791258253
 30
0.0
  0
VERTEX
  5
316
330
30B
100
AcDbEntity
  8
STANDARDEBENE
 62
   250
100
AcDbVertex
100
AcDb2dVertex
 10
5.107012916402407
 20
-190.2160773141056
 30
0.0
  0
VERTEX
  5
317
330
30B
100
AcDbEntity
  8
STANDARDEBENE
 62
   250
100
AcDbVertex
100
AcDb2dVertex
 10
5.107012916402407
 20
-188.2313564957439
 30
0.0
  0
VERTEX
  5
318
330
30B
100
AcDbEntity
  8
STANDARDEBENE
 62
   250
100
AcDbVertex
100
AcDb2dVertex
 10
5.107012916402407
 20
-186.0978074542382
 30
0.0
  0
VERTEX
  5
319
330
30B
100
AcDbEntity
  8
STANDARDEBENE
 62
   250
100
AcDbVertex
100
AcDb2dVertex
 10
5.107012916402407
 20
-183.8250764633109
 30
0.0
  0
VERTEX
  5
31A
330
30B
100
AcDbEntity
  8
STANDARDEBENE
 62
   250
100
AcDbVertex
100
AcDb2dVertex
 10
5.107012916402407
 20
-181.4252213651147
 30
0.0
  0
VERTEX
  5
31B
330
30B
100
AcDbEntity
  8
STANDARDEBENE
 62
   250
100
AcDbVertex
100
AcDb2dVertex
 10
5.107012916402407
 20
-178.9092664724753
 30
0.0
  0
VERTEX
  5
31C
330
30B
100
AcDbEntity
  8
STANDARDEBENE
 62
   250
100
AcDbVertex
100
AcDb2dVertex
 10
5.107012916402407
 20
-176.2906476666487
 30
0.0
  0
VERTEX
  5
31D
330
30B
100
AcDbEntity
  8
STANDARDEBENE
 62
   250
100
AcDbVertex
100
AcDb2dVertex
 10
5.107012916402407
 20
-173.5800447506844
 30
0.0
  0
VERTEX
  5
31E
330
30B
100
AcDbEntity
  8
STANDARDEBENE
 62
   250
100
AcDbVertex
100
AcDb2dVertex
 10
5.107012916402407
 20
-170.7926161547176
 30
0.0
  0
VERTEX
  5
31F
330
30B
100
AcDbEntity
  8
STANDARDEBENE
 62
   250
100
AcDbVertex
100
AcDb2dVertex
 10
5.107012916402407
 20
-167.9411087404527
 30
0.0
  0
VERTEX
  5
320
330
30B
100
AcDbEntity
  8
STANDARDEBENE
 62
   250
100
AcDbVertex
100
AcDb2dVertex
 10
5.107012916402407
 20
-165.0399919184732
 30
0.0
  0
VERTEX
  5
321
330
30B
100
AcDbEntity
  8
STANDARDEBENE
 62
   250
100
AcDbVertex
100
AcDb2dVertex
 10
5.107012916402407
 20
-162.102701570035
 30
0.0
  0
VERTEX
  5
322
330
30B
100
AcDbEntity
  8
STANDARDEBENE
 62
   250
100
AcDbVertex
100
AcDb2dVertex
 10
5.107012916402407
 20
-159.1430180861701
 30
0.0
  0
VERTEX
  5
323
330
30B
100
AcDbEntity
  8
STANDARDEBENE
 62
   250
100
AcDbVertex
100
AcDb2dVertex
 10
5.107012916402407
 20
-156.1760998970135
 30
0.0
  0
VERTEX
  5
324
330
30B
100
AcDbEntity
  8
STANDARDEBENE
 62
   250
100
AcDbVertex
100
AcDb2dVertex
 10
5.107012916402407
 20
-153.217449942476
 30
0.0
  0
VERTEX
  5
325
330
30B
100
AcDbEntity
  8
STANDARDEBENE
 62
   250
100
AcDbVertex
100
AcDb2dVertex
 10
5.107012916402407
 20
-150.2791260647105
 30
0.0
  0
VERTEX
  5
326
330
30B
100
AcDbEntity
  8
STANDARDEBENE
 62
   250
100
AcDbVertex
100
AcDb2dVertex
 10
5.107012916402407
 20
-147.3776647329552
 30
0.0
  0
VERTEX
  5
327
330
30B
100
AcDbEntity
  8
STANDARDEBENE
 62
   250
100
AcDbVertex
100
AcDb2dVertex
 10
5.107012916402407
 20
-144.5258128089145
 30
0.0
  0
VERTEX
  5
328
330
30B
100
AcDbEntity
  8
STANDARDEBENE
 62
   250
100
AcDbVertex
100
AcDb2dVertex
 10
5.107012916402407
 20
-141.7383842129477
 30
0.0
  0
VERTEX
  5
329
330
30B
100
AcDbEntity
  8
STANDARDEBENE
 62
   250
100
AcDbVertex
100
AcDb2dVertex
 10
5.107012916402407
 20
-139.0288148263108
 30
0.0
  0
VERTEX
  5
32A
330
30B
100
AcDbEntity
  8
STANDARDEBENE
 62
   250
100
AcDbVertex
100
AcDb2dVertex
 10
5.107012916402407
 20
-136.4091624911567
 30
0.0
  0
VERTEX
  5
32B
330
30B
100
AcDbEntity
  8
STANDARDEBENE
 62
   250
100
AcDbVertex
100
AcDb2dVertex
 10
5.107012916402407
 20
-133.8942411278447
 30
0.0
  0
VERTEX
  5
32C
330
30B
100
AcDbEntity
  8
STANDARDEBENE
 62
   250
100
AcDbVertex
100
AcDb2dVertex
 10
5.107012916402407
 20
-131.493697010097
 30
0.0
  0
VERTEX
  5
32D
330
30B
100
AcDbEntity
  8
STANDARDEBENE
 62
   250
100
AcDbVertex
100
AcDb2dVertex
 10
5.107012916402407
 20
-129.2216550387213
 30
0.0
  0
VERTEX
  5
32E
330
30B
100
AcDbEntity
  8
STANDARDEBENE
 62
   250
100
AcDbVertex
100
AcDb2dVertex
 10
5.107012916402407
 20
-127.0877614874398
 30
0.0
  0
VERTEX
  5
32F
330
30B
100
AcDbEntity
  8
STANDARDEBENE
 62
   250
100
AcDbVertex
100
AcDb2dVertex
 10
5.107012916402407
 20
-125.1026961593023
 30
0.0
  0
VERTEX
  5
330
330
30B
100
AcDbEntity
  8
STANDARDEBENE
 62
   250
100
AcDbVertex
100
AcDb2dVertex
 10
5.107012916402407
 20
-123.2757608182552
 30
0.0
  0
VERTEX
  5
331
330
30B
100
AcDbEntity
  8
STANDARDEBENE
 62
   250
100
AcDbVertex
100
AcDb2dVertex
 10
5.107012916402407
 20
-121.6172907575724
 30
0.0
  0
VERTEX
  5
332
330
30B
100
AcDbEntity
  8
STANDARDEBENE
 62
   250
100
AcDbVertex
100
AcDb2dVertex
 10
5.107012916402407
 20
-120.1338316629941
 30
0.0
  0
VERTEX
  5
333
330
30B
100
AcDbEntity
  8
STANDARDEBENE
 62
   250
100
AcDbVertex
100
AcDb2dVertex
 10
5.107012916402407
 20
-118.8336517691394
 30
0.0
  0
VERTEX
  5
334
330
30B
100
AcDbEntity
  8
STANDARDEBENE
 62
   250
100
AcDbVertex
100
AcDb2dVertex
 10
5.107012916402407
 20
-117.722263232421
 30
0.0
  0
VERTEX
  5
335
330
30B
100
AcDbEntity
  8
STANDARDEBENE
 62
   250
100
AcDbVertex
100
AcDb2dVertex
 10
5.107012916402407
 20
-116.8058672288032
 30
0.0
  0
VERTEX
  5
336
330
30B
100
AcDbEntity
  8
STANDARDEBENE
 62
   250
100
AcDbVertex
100
AcDb2dVertex
 10
5.107012916402407
 20
-116.0882533658197
 30
0.0
  0
VERTEX
  5
337
330
30B
100
AcDbEntity
  8
STANDARDEBENE
 62
   250
100
AcDbVertex
100
AcDb2dVertex
 10
5.107012916402407
 20
-115.5725222314529
 30
0.0
  0
VERTEX
  5
338
330
30B
100
AcDbEntity
  8
STANDARDEBENE
 62
   250
100
AcDbVertex
100
AcDb2dVertex
 10
5.107012916402407
 20
-115.2631524527879
 30
0.0
  0
VERTEX
  5
339
330
30B
100
AcDbEntity
  8
STANDARDEBENE
 62
   250
100
AcDbVertex
100
AcDb2dVertex
 10
5.107012916402407
 20
-115.1601440298248
 30
0.0
  0
SEQEND
  5
33A
330
30B
100
AcDbEntity
  8
STANDARDEBENE
  0
POLYLINE
  5
33B
330
1F
100
AcDbEntity
  8
STANDARDEBENE
 62
   250
100
AcDb2dPolyline
 66
     1
 10
0.0
 20
0.0
 30
0.0
  0
VERTEX
  5
33C
330
33B
100
AcDbEntity
  8
STANDARDEBENE
 62
   250
100
AcDbVertex
100
AcDb2dVertex
 10
29.80681354699663
 20
-157.6595589915918
 30
0.0
  0
VERTEX
  5
33D
330
33B
100
AcDbEntity
  8
STANDARDEBENE
 62
   250
100
AcDbVertex
100
AcDb2dVertex
 10
29.80681354699663
 20
-160.1875717263841
 30
0.0
  0
VERTEX
  5
33E
330
33B
100
AcDbEntity
  8
STANDARDEBENE
 62
   250
100
AcDbVertex
100
AcDb2dVertex
 10
29.80681354699663
 20
-162.6956028941802
 30
0.0
  0
VERTEX
  5
33F
330
33B
100
AcDbEntity
  8
STANDARDEBENE
 62
   250
100
AcDbVertex
100
AcDb2dVertex
 10
29.80681354699663
 20
-165.1650489670872
 30
0.0
  0
VERTEX
  5
340
330
33B
100
AcDbEntity
  8
STANDARDEBENE
 62
   250
100
AcDbVertex
100
AcDb2dVertex
 10
29.80681354699663
 20
-167.5779954367635
 30
0.0
  0
VERTEX
  5
341
330
33B
100
AcDbEntity
  8
STANDARDEBENE
 62
   250
100
AcDbVertex
100
AcDb2dVertex
 10
29.80681354699663
 20
-169.914805245989
 30
0.0
  0
VERTEX
  5
342
330
33B
100
AcDbEntity
  8
STANDARDEBENE
 62
   250
100
AcDbVertex
100
AcDb2dVertex
 10
29.80681354699663
 20
-172.1596309450768
 30
0.0
  0
VERTEX
  5
343
330
33B
100
AcDbEntity
  8
STANDARDEBENE
 62
   250
100
AcDbVertex
100
AcDb2dVertex
 10
29.80681354699663
 20
-174.2928354768067
 30
0.0
  0
VERTEX
  5
344
330
33B
100
AcDbEntity
  8
STANDARDEBENE
 62
   250
100
AcDbVertex
100
AcDb2dVertex
 10
29.80681354699663
 20
-176.2999494305951
 30
0.0
  0
VERTEX
  5
345
330
33B
100
AcDbEntity
  8
STANDARDEBENE
 62
   250
100
AcDbVertex
100
AcDb2dVertex
 10
29.80681354699663
 20
-178.1658143763072
 30
0.0
  0
VERTEX
  5
346
330
33B
100
AcDbEntity
  8
STANDARDEBENE
 62
   250
100
AcDbVertex
100
AcDb2dVertex
 10
29.80681354699663
 20
-179.874927374032
 30
0.0
  0
VERTEX
  5
347
330
33B
100
AcDbEntity
  8
STANDARDEBENE
 62
   250
100
AcDbVertex
100
AcDb2dVertex
 10
29.80681354699663
 20
-181.4152305816167
 30
0.0
  0
VERTEX
  5
348
330
33B
100
AcDbEntity
  8
STANDARDEBENE
 62
   250
100
AcDbVertex
100
AcDb2dVertex
 10
29.80681354699663
 20
-182.7743216471326
 30
0.0
  0
VERTEX
  5
349
330
33B
100
AcDbEntity
  8
STANDARDEBENE
 62
   250
100
AcDbVertex
100
AcDb2dVertex
 10
29.80681354699663
 20
-183.9422097870816
 30
0.0
  0
VERTEX
  5
34A
330
33B
100
AcDbEntity
  8
STANDARDEBENE
 62
   250
100
AcDbVertex
100
AcDb2dVertex
 10
29.80681354699663
 20
-184.9106267668446
 30
0.0
  0
VERTEX
  5
34B
330
33B
100
AcDbEntity
  8
STANDARDEBENE
 62
   250
100
AcDbVertex
100
AcDb2dVertex
 10
29.80681354699663
 20
-185.6713043518025
 30
0.0
  0
VERTEX
  5
34C
330
33B
100
AcDbEntity
  8
STANDARDEBENE
 62
   250
100
AcDbVertex
100
AcDb2dVertex
 10
29.80681354699663
 20
-186.2187303855426
 30
0.0
  0
VERTEX
  5
34D
330
33B
100
AcDbEntity
  8
STANDARDEBENE
 62
   250
100
AcDbVertex
100
AcDb2dVertex
 10
29.80681354699663
 20
-186.5491152605312
 30
0.0
  0
VERTEX
  5
34E
330
33B
100
AcDbEntity
  8
STANDARDEBENE
 62
   250
100
AcDbVertex
100
AcDb2dVertex
 10
29.80681354699663
 20
-186.6597028985617
 30
0.0
  0
SEQEND
  5
34F
330
33B
100
AcDbEntity
  8
STANDARDEBENE
  0
POLYLINE
  5
350
330
1F
100
AcDbEntity
  8
STANDARDEBENE
 62
   250
100
AcDb2dPolyline
 66
     1
 10
0.0
 20
0.0
 30
0.0
  0
VERTEX
  5
351
330
350
100
AcDbEntity
  8
STANDARDEBENE
 62
   250
100
AcDbVertex
100
AcDb2dVertex
 10
29.80681354699663
 20
-128.6590705748461
 30
0.0
  0
VERTEX
  5
352
330
350
100
AcDbEntity
  8
STANDARDEBENE
 62
   250
100
AcDbVertex
100
AcDb2dVertex
 10
29.80681354699663
 20
-128.7700027226525
 30
0.0
  0
VERTEX
  5
353
330
350
100
AcDbEntity
  8
STANDARDEBENE
 62
   250
100
AcDbVertex
100
AcDb2dVertex
 10
29.80681354699663
 20
-129.1000430878652
 30
0.0
  0
VERTEX
  5
354
330
350
100
AcDbEntity
  8
STANDARDEBENE
 62
   250
100
AcDbVertex
100
AcDb2dVertex
 10
29.80681354699663
 20
-129.6481581411569
 30
0.0
  0
VERTEX
  5
355
330
350
100
AcDbEntity
  8
STANDARDEBENE
 62
   250
100
AcDbVertex
100
AcDb2dVertex
 10
29.80681354699663
 20
-130.4081467065633
 30
0.0
  0
VERTEX
  5
356
330
350
100
AcDbEntity
  8
STANDARDEBENE
 62
   250
100
AcDbVertex
100
AcDb2dVertex
 10
29.80681354699663
 20
-131.3765636863263
 30
0.0
  0
VERTEX
  5
357
330
350
100
AcDbEntity
  8
STANDARDEBENE
 62
   250
100
AcDbVertex
100
AcDb2dVertex
 10
29.80681354699663
 20
-132.5447963360511
 30
0.0
  0
VERTEX
  5
358
330
350
100
AcDbEntity
  8
STANDARDEBENE
 62
   250
100
AcDbVertex
100
AcDb2dVertex
 10
29.80681354699663
 20
-133.9042319113428
 30
0.0
  0
VERTEX
  5
359
330
350
100
AcDbEntity
  8
STANDARDEBENE
 62
   250
100
AcDbVertex
100
AcDb2dVertex
 10
29.80681354699663
 20
-135.4448796287033
 30
0.0
  0
VERTEX
  5
35A
330
350
100
AcDbEntity
  8
STANDARDEBENE
 62
   250
100
AcDbVertex
100
AcDb2dVertex
 10
29.80681354699663
 20
-137.1533036068765
 30
0.0
  0
VERTEX
  5
35B
330
350
100
AcDbEntity
  8
STANDARDEBENE
 62
   250
100
AcDbVertex
100
AcDb2dVertex
 10
29.80681354699663
 20
-139.0188240428127
 30
0.0
  0
VERTEX
  5
35C
330
350
100
AcDbEntity
  8
STANDARDEBENE
 62
   250
100
AcDbVertex
100
AcDb2dVertex
 10
29.80681354699663
 20
-141.0255934868254
 30
0.0
  0
VERTEX
  5
35D
330
350
100
AcDbEntity
  8
STANDARDEBENE
 62
   250
100
AcDbVertex
100
AcDb2dVertex
 10
29.80681354699663
 20
-143.1598315478827
 30
0.0
  0
VERTEX
  5
35E
330
350
100
AcDbEntity
  8
STANDARDEBENE
 62
   250
100
AcDbVertex
100
AcDb2dVertex
 10
29.80681354699663
 20
-145.4039682274189
 30
0.0
  0
VERTEX
  5
35F
330
350
100
AcDbEntity
  8
STANDARDEBENE
 62
   250
100
AcDbVertex
100
AcDb2dVertex
 10
29.80681354699663
 20
-147.7407780366443
 30
0.0
  0
VERTEX
  5
360
330
350
100
AcDbEntity
  8
STANDARDEBENE
 62
   250
100
AcDbVertex
100
AcDb2dVertex
 10
29.80681354699663
 20
-150.1540690160965
 30
0.0
  0
VERTEX
  5
361
330
350
100
AcDbEntity
  8
STANDARDEBENE
 62
   250
100
AcDbVertex
100
AcDb2dVertex
 10
29.80681354699663
 20
-152.6238595987792
 30
0.0
  0
VERTEX
  5
362
330
350
100
AcDbEntity
  8
STANDARDEBENE
 62
   250
100
AcDbVertex
100
AcDb2dVertex
 10
29.80681354699663
 20
-155.1322352763511
 30
0.0
  0
VERTEX
  5
363
330
350
100
AcDbEntity
  8
STANDARDEBENE
 62
   250
100
AcDbVertex
100
AcDb2dVertex
 10
29.80681354699663
 20
-157.6595589915918
 30
0.0
  0
SEQEND
  5
364
330
350
100
AcDbEntity
  8
STANDARDEBENE
  0
POLYLINE
  5
365
330
1F
100
AcDbEntity
  8
STANDARDEBENE
 62
   250
100
AcDb2dPolyline
 66
     1
 10
0.0
 20
0.0
 30
0.0
  0
VERTEX
  5
366
330
365
100
AcDbEntity
  8
STANDARDEBENE
 62
   250
100
AcDbVertex
100
AcDb2dVertex
 10
0.1071425402726085
 20
-199.1592065839983
 30
0.0
  0
VERTEX
  5
367
330
365
100
AcDbEntity
  8
STANDARDEBENE
 62
   250
100
AcDbVertex
100
AcDb2dVertex
 10
0.1071425402726085
 20
-199.0541311023805
 30
0.0
  0
VERTEX
  5
368
330
365
100
AcDbEntity
  8
STANDARDEBENE
 62
   250
100
AcDbVertex
100
AcDb2dVertex
 10
0.1071425402726085
 20
-198.737182108648
 30
0.0
  0
VERTEX
  5
369
330
365
100
AcDbEntity
  8
STANDARDEBENE
 62
   250
100
AcDbVertex
100
AcDb2dVertex
 10
0.1071425402726085
 20
-198.2114601907831
 30
0.0
  0
VERTEX
  5
36A
330
365
100
AcDbEntity
  8
STANDARDEBENE
 62
   250
100
AcDbVertex
100
AcDb2dVertex
 10
0.1071425402726085
 20
-197.4783433878888
 30
0.0
  0
VERTEX
  5
36B
330
365
100
AcDbEntity
  8
STANDARDEBENE
 62
   250
100
AcDbVertex
100
AcDb2dVertex
 10
0.1071425402726085
 20
-196.5429993466022
 30
0.0
  0
VERTEX
  5
36C
330
365
100
AcDbEntity
  8
STANDARDEBENE
 62
   250
100
AcDbVertex
100
AcDb2dVertex
 10
0.1071425402726085
 20
-195.409217674457
 30
0.0
  0
VERTEX
  5
36D
330
365
100
AcDbEntity
  8
STANDARDEBENE
 62
   250
100
AcDbVertex
100
AcDb2dVertex
 10
0.1071425402726085
 20
-194.0831995474176
 30
0.0
  0
VERTEX
  5
36E
330
365
100
AcDbEntity
  8
STANDARDEBENE
 62
   250
100
AcDbVertex
100
AcDb2dVertex
 10
0.1071425402726085
 20
-192.571490651224
 30
0.0
  0
VERTEX
  5
36F
330
365
100
AcDbEntity
  8
STANDARDEBENE
 62
   250
100
AcDbVertex
100
AcDb2dVertex
 10
0.1071425402726085
 20
-190.8816702009438
 30
0.0
  0
VERTEX
  5
370
330
365
100
AcDbEntity
  8
STANDARDEBENE
 62
   250
100
AcDbVertex
100
AcDb2dVertex
 10
0.1071425402726085
 20
-189.0230399605234
 30
0.0
  0
VERTEX
  5
371
330
365
100
AcDbEntity
  8
STANDARDEBENE
 62
   250
100
AcDbVertex
100
AcDb2dVertex
 10
0.1071425402726085
 20
-187.0049016939095
 30
0.0
  0
VERTEX
  5
372
330
365
100
AcDbEntity
  8
STANDARDEBENE
 62
   250
100
AcDbVertex
100
AcDb2dVertex
 10
0.1071425402726085
 20
-184.8365571650484
 30
0.0
  0
VERTEX
  5
373
330
365
100
AcDbEntity
  8
STANDARDEBENE
 62
   250
100
AcDbVertex
100
AcDb2dVertex
 10
0.1071425402726085
 20
-182.5293751965415
 30
0.0
  0
VERTEX
  5
374
330
365
100
AcDbEntity
  8
STANDARDEBENE
 62
   250
100
AcDbVertex
100
AcDb2dVertex
 10
0.1071425402726085
 20
-180.0964471598689
 30
0.0
  0
VERTEX
  5
375
330
365
100
AcDbEntity
  8
STANDARDEBENE
 62
   250
100
AcDbVertex
100
AcDb2dVertex
 10
0.1071425402726085
 20
-177.5481083483047
 30
0.0
  0
VERTEX
  5
376
330
365
100
AcDbEntity
  8
STANDARDEBENE
 62
   250
100
AcDbVertex
100
AcDb2dVertex
 10
0.1071425402726085
 20
-174.8991726822079
 30
0.0
  0
VERTEX
  5
377
330
365
100
AcDbEntity
  8
STANDARDEBENE
 62
   250
100
AcDbVertex
100
AcDb2dVertex
 10
0.1071425402726085
 20
-172.1623870232831
 30
0.0
  0
VERTEX
  5
378
330
365
100
AcDbEntity
  8
STANDARDEBENE
 62
   250
100
AcDbVertex
100
AcDb2dVertex
 10
0.1071425402726085
 20
-169.3522207821138
 30
0.0
  0
VERTEX
  5
379
330
365
100
AcDbEntity
  8
STANDARDEBENE
 62
   250
100
AcDbVertex
100
AcDb2dVertex
 10
0.1071425402726085
 20
-166.4810763106285
 30
0.0
  0
VERTEX
  5
37A
330
365
100
AcDbEntity
  8
STANDARDEBENE
 62
   250
100
AcDbVertex
100
AcDb2dVertex
 10
0.1071425402726085
 20
-163.5658345878414
 30
0.0
  0
VERTEX
  5
37B
330
365
100
AcDbEntity
  8
STANDARDEBENE
 62
   250
100
AcDbVertex
100
AcDb2dVertex
 10
0.1071425402726085
 20
-160.6195869852325
 30
0.0
  0
VERTEX
  5
37C
330
365
100
AcDbEntity
  8
STANDARDEBENE
 62
   250
100
AcDbVertex
100
AcDb2dVertex
 10
0.1071425402726085
 20
-157.6595589915918
 30
0.0
  0
VERTEX
  5
37D
330
365
100
AcDbEntity
  8
STANDARDEBENE
 62
   250
100
AcDbVertex
100
AcDb2dVertex
 10
0.1071425402726085
 20
-154.6988419783996
 30
0.0
  0
VERTEX
  5
37E
330
365
100
AcDbEntity
  8
STANDARDEBENE
 62
   250
100
AcDbVertex
100
AcDb2dVertex
 10
0.1071425402726085
 20
-151.7536279051181
 30
0.0
  0
VERTEX
  5
37F
330
365
100
AcDbEntity
  8
STANDARDEBENE
 62
   250
100
AcDbVertex
100
AcDb2dVertex
 10
0.1071425402726085
 20
-148.8380416725551
 30
0.0
  0
VERTEX
  5
380
330
365
100
AcDbEntity
  8
STANDARDEBENE
 62
   250
100
AcDbVertex
100
AcDb2dVertex
 10
0.1071425402726085
 20
-145.9679307303973
 30
0.0
  0
VERTEX
  5
381
330
365
100
AcDbEntity
  8
STANDARDEBENE
 62
   250
100
AcDbVertex
100
AcDb2dVertex
 10
0.1071425402726085
 20
-143.1567309599005
 30
0.0
  0
VERTEX
  5
382
330
365
100
AcDbEntity
  8
STANDARDEBENE
 62
   250
100
AcDbVertex
100
AcDb2dVertex
 10
0.1071425402726085
 20
-140.4196007911999
 30
0.0
  0
VERTEX
  5
383
330
365
100
AcDbEntity
  8
STANDARDEBENE
 62
   250
100
AcDbVertex
100
AcDb2dVertex
 10
0.1071425402726085
 20
-137.7706651251032
 30
0.0
  0
VERTEX
  5
384
330
365
100
AcDbEntity
  8
STANDARDEBENE
 62
   250
100
AcDbVertex
100
AcDb2dVertex
 10
0.1071425402726085
 20
-135.2230153330905
 30
0.0
  0
VERTEX
  5
385
330
365
100
AcDbEntity
  8
STANDARDEBENE
 62
   250
100
AcDbVertex
100
AcDb2dVertex
 10
0.1071425402726085
 20
-132.7890537670906
 30
0.0
  0
VERTEX
  5
386
330
365
100
AcDbEntity
  8
STANDARDEBENE
 62
   250
100
AcDbVertex
100
AcDb2dVertex
 10
0.1071425402726085
 20
-130.4825608181353
 30
0.0
  0
VERTEX
  5
387
330
365
100
AcDbEntity
  8
STANDARDEBENE
 62
   250
100
AcDbVertex
100
AcDb2dVertex
 10
0.1071425402726085
 20
-128.3142162892742
 30
0.0
  0
VERTEX
  5
388
330
365
100
AcDbEntity
  8
STANDARDEBENE
 62
   250
100
AcDbVertex
100
AcDb2dVertex
 10
0.1071425402726085
 20
-126.296422532436
 30
0.0
  0
VERTEX
  5
389
330
365
100
AcDbEntity
  8
STANDARDEBENE
 62
   250
100
AcDbVertex
100
AcDb2dVertex
 10
0.1071425402726085
 20
-124.4371032724641
 30
0.0
  0
VERTEX
  5
38A
330
365
100
AcDbEntity
  8
STANDARDEBENE
 62
   250
100
AcDbVertex
100
AcDb2dVertex
 10
0.1071425402726085
 20
-122.7479718417355
 30
0.0
  0
VERTEX
  5
38B
330
365
100
AcDbEntity
  8
STANDARDEBENE
 62
   250
100
AcDbVertex
100
AcDb2dVertex
 10
0.1071425402726085
 20
-121.2359184357661
 30
0.0
  0
VERTEX
  5
38C
330
365
100
AcDbEntity
  8
STANDARDEBENE
 62
   250
100
AcDbVertex
100
AcDb2dVertex
 10
0.1071425402726085
 20
-119.9095557989508
 30
0.0
  0
VERTEX
  5
38D
330
365
100
AcDbEntity
  8
STANDARDEBENE
 62
   250
100
AcDbVertex
100
AcDb2dVertex
 10
0.1071425402726085
 20
-118.7761186365814
 30
0.0
  0
VERTEX
  5
38E
330
365
100
AcDbEntity
  8
STANDARDEBENE
 62
   250
100
AcDbVertex
100
AcDb2dVertex
 10
0.1071425402726085
 20
-117.840430085519
 30
0.0
  0
VERTEX
  5
38F
330
365
100
AcDbEntity
  8
STANDARDEBENE
 62
   250
100
AcDbVertex
100
AcDb2dVertex
 10
0.1071425402726085
 20
-117.1080023021764
 30
0.0
  0
VERTEX
  5
390
330
365
100
AcDbEntity
  8
STANDARDEBENE
 62
   250
100
AcDbVertex
100
AcDb2dVertex
 10
0.1071425402726085
 20
-116.5815913647598
 30
0.0
  0
VERTEX
  5
391
330
365
100
AcDbEntity
  8
STANDARDEBENE
 62
   250
100
AcDbVertex
100
AcDb2dVertex
 10
0.1071425402726085
 20
-116.265331390579
 30
0.0
  0
VERTEX
  5
392
330
365
100
AcDbEntity
  8
STANDARDEBENE
 62
   250
100
AcDbVertex
100
AcDb2dVertex
 10
0.1071425402726085
 20
-116.1599113991853
 30
0.0
  0
SEQEND
  5
393
330
365
100
AcDbEntity
  8
STANDARDEBENE
  0
POLYLINE
  5
394
330
1F
100
AcDbEntity
  8
STANDARDEBENE
 62
   250
100
AcDb2dPolyline
 66
     1
 10
0.0
 20
0.0
 30
0.0
  0
VERTEX
  5
395
330
394
100
AcDbEntity
  8
STANDARDEBENE
 62
   250
100
AcDbVertex
100
AcDb2dVertex
 10
10.02110035835896
 20
-186.6597028985617
 30
0.0
  0
VERTEX
  5
396
330
394
100
AcDbEntity
  8
STANDARDEBENE
 62
   250
100
AcDbVertex
100
AcDb2dVertex
 10
10.02110035835896
 20
-186.5553164364955
 30
0.0
  0
VERTEX
  5
397
330
394
100
AcDbEntity
  8
STANDARDEBENE
 62
   250
100
AcDbVertex
100
AcDb2dVertex
 10
10.02110035835896
 20
-186.2421570502968
 30
0.0
  0
VERTEX
  5
398
330
394
100
AcDbEntity
  8
STANDARDEBENE
 62
   250
100
AcDbVertex
100
AcDb2dVertex
 10
10.02110035835896
 20
-185.7243588572751
 30
0.0
  0
VERTEX
  5
399
330
394
100
AcDbEntity
  8
STANDARDEBENE
 62
   250
100
AcDbVertex
100
AcDb2dVertex
 10
10.02110035835896
 20
-185.0032998965337
 30
0.0
  0
VERTEX
  5
39A
330
394
100
AcDbEntity
  8
STANDARDEBENE
 62
   250
100
AcDbVertex
100
AcDb2dVertex
 10
10.02110035835896
 20
-184.0855258538128
 30
0.0
  0
VERTEX
  5
39B
330
394
100
AcDbEntity
  8
STANDARDEBENE
 62
   250
100
AcDbVertex
100
AcDb2dVertex
 10
10.02110035835896
 20
-182.9772379050765
 30
0.0
  0
VERTEX
  5
39C
330
394
100
AcDbEntity
  8
STANDARDEBENE
 62
   250
100
AcDbVertex
100
AcDb2dVertex
 10
10.02110035835896
 20
-181.686704284944
 30
0.0
  0
VERTEX
  5
39D
330
394
100
AcDbEntity
  8
STANDARDEBENE
 62
   250
100
AcDbVertex
100
AcDb2dVertex
 10
10.02110035835896
 20
-180.2225377378103
 30
0.0
  0
VERTEX
  5
39E
330
394
100
AcDbEntity
  8
STANDARDEBENE
 62
   250
100
AcDbVertex
100
AcDb2dVertex
 10
10.02110035835896
 20
-178.5961070862766
 30
0.0
  0
VERTEX
  5
39F
330
394
100
AcDbEntity
  8
STANDARDEBENE
 62
   250
100
AcDbVertex
100
AcDb2dVertex
 10
10.02110035835896
 20
-176.8187811529442
 30
0.0
  0
VERTEX
  5
3A0
330
394
100
AcDbEntity
  8
STANDARDEBENE
 62
   250
100
AcDbVertex
100
AcDb2dVertex
 10
10.02110035835896
 20
-174.9033067995175
 30
0.0
  0
VERTEX
  5
3A1
330
394
100
AcDbEntity
  8
STANDARDEBENE
 62
   250
100
AcDbVertex
100
AcDb2dVertex
 10
10.02110035835896
 20
-172.8638089268042
 30
0.0
  0
VERTEX
  5
3A2
330
394
100
AcDbEntity
  8
STANDARDEBENE
 62
   250
100
AcDbVertex
100
AcDb2dVertex
 10
10.02110035835896
 20
-170.7154459649392
 30
0.0
  0
VERTEX
  5
3A3
330
394
100
AcDbEntity
  8
STANDARDEBENE
 62
   250
100
AcDbVertex
100
AcDb2dVertex
 10
10.02110035835896
 20
-168.4723428147304
 30
0.0
  0
VERTEX
  5
3A4
330
394
100
AcDbEntity
  8
STANDARDEBENE
 62
   250
100
AcDbVertex
100
AcDb2dVertex
 10
10.02110035835896
 20
-166.1513804551916
 30
0.0
  0
VERTEX
  5
3A5
330
394
100
AcDbEntity
  8
STANDARDEBENE
 62
   250
100
AcDbVertex
100
AcDb2dVertex
 10
10.02110035835896
 20
-163.7694398653369
 30
0.0
  0
VERTEX
  5
3A6
330
394
100
AcDbEntity
  8
STANDARDEBENE
 62
   250
100
AcDbVertex
100
AcDb2dVertex
 10
10.02110035835896
 20
-161.3430575144045
 30
0.0
  0
VERTEX
  5
3A7
330
394
100
AcDbEntity
  8
STANDARDEBENE
 62
   250
100
AcDbVertex
100
AcDb2dVertex
 10
10.02110035835896
 20
-158.8908369302873
 30
0.0
  0
VERTEX
  5
3A8
330
394
100
AcDbEntity
  8
STANDARDEBENE
 62
   250
100
AcDbVertex
100
AcDb2dVertex
 10
10.02110035835896
 20
-156.4286255626721
 30
0.0
  0
VERTEX
  5
3A9
330
394
100
AcDbEntity
  8
STANDARDEBENE
 62
   250
100
AcDbVertex
100
AcDb2dVertex
 10
10.02110035835896
 20
-153.976404978555
 30
0.0
  0
VERTEX
  5
3AA
330
394
100
AcDbEntity
  8
STANDARDEBENE
 62
   250
100
AcDbVertex
100
AcDb2dVertex
 10
10.02110035835896
 20
-151.549333608071
 30
0.0
  0
VERTEX
  5
3AB
330
394
100
AcDbEntity
  8
STANDARDEBENE
 62
   250
100
AcDbVertex
100
AcDb2dVertex
 10
10.02110035835896
 20
-149.1680820377679
 30
0.0
  0
VERTEX
  5
3AC
330
394
100
AcDbEntity
  8
STANDARDEBENE
 62
   250
100
AcDbVertex
100
AcDb2dVertex
 10
10.02110035835896
 20
-146.8467751684533
 30
0.0
  0
VERTEX
  5
3AD
330
394
100
AcDbEntity
  8
STANDARDEBENE
 62
   250
100
AcDbVertex
100
AcDb2dVertex
 10
10.02110035835896
 20
-144.6036720182444
 30
0.0
  0
VERTEX
  5
3AE
330
394
100
AcDbEntity
  8
STANDARDEBENE
 62
   250
100
AcDbVertex
100
AcDb2dVertex
 10
10.02110035835896
 20
-142.4549645466037
 30
0.0
  0
VERTEX
  5
3AF
330
394
100
AcDbEntity
  8
STANDARDEBENE
 62
   250
100
AcDbVertex
100
AcDb2dVertex
 10
10.02110035835896
 20
-140.4154666738904
 30
0.0
  0
VERTEX
  5
3B0
330
394
100
AcDbEntity
  8
STANDARDEBENE
 62
   250
100
AcDbVertex
100
AcDb2dVertex
 10
10.02110035835896
 20
-138.4999923204637
 30
0.0
  0
VERTEX
  5
3B1
330
394
100
AcDbEntity
  8
STANDARDEBENE
 62
   250
100
AcDbVertex
100
AcDb2dVertex
 10
10.02110035835896
 20
-136.7223218773555
 30
0.0
  0
VERTEX
  5
3B2
330
394
100
AcDbEntity
  8
STANDARDEBENE
 62
   250
100
AcDbVertex
100
AcDb2dVertex
 10
10.02110035835896
 20
-135.0965802453733
 30
0.0
  0
VERTEX
  5
3B3
330
394
100
AcDbEntity
  8
STANDARDEBENE
 62
   250
100
AcDbVertex
100
AcDb2dVertex
 10
10.02110035835896
 20
-133.6327582080154
 30
0.0
  0
VERTEX
  5
3B4
330
394
100
AcDbEntity
  8
STANDARDEBENE
 62
   250
100
AcDbVertex
100
AcDb2dVertex
 10
10.02110035835896
 20
-132.342224587883
 30
0.0
  0
VERTEX
  5
3B5
330
394
100
AcDbEntity
  8
STANDARDEBENE
 62
   250
100
AcDbVertex
100
AcDb2dVertex
 10
10.02110035835896
 20
-131.2346256586983
 30
0.0
  0
VERTEX
  5
3B6
330
394
100
AcDbEntity
  8
STANDARDEBENE
 62
   250
100
AcDbVertex
100
AcDb2dVertex
 10
10.02110035835896
 20
-130.3161625964257
 30
0.0
  0
VERTEX
  5
3B7
330
394
100
AcDbEntity
  8
STANDARDEBENE
 62
   250
100
AcDbVertex
100
AcDb2dVertex
 10
10.02110035835896
 20
-129.5957926552359
 30
0.0
  0
VERTEX
  5
3B8
330
394
100
AcDbEntity
  8
STANDARDEBENE
 62
   250
100
AcDbVertex
100
AcDb2dVertex
 10
10.02110035835896
 20
-129.0762719133353
 30
0.0
  0
VERTEX
  5
3B9
330
394
100
AcDbEntity
  8
STANDARDEBENE
 62
   250
100
AcDbVertex
100
AcDb2dVertex
 10
10.02110035835896
 20
-128.764146056464
 30
0.0
  0
VERTEX
  5
3BA
330
394
100
AcDbEntity
  8
STANDARDEBENE
 62
   250
100
AcDbVertex
100
AcDb2dVertex
 10
10.02110035835896
 20
-128.6590705748461
 30
0.0
  0
SEQEND
  5
3BB
330
394
100
AcDbEntity
  8
STANDARDEBENE
  0
POLYLINE
  5
3BD
330
1F
100
AcDbEntity
  8
BEMA_UNG
 62
     7
100
AcDb2dPolyline
 66
     1
 10
0.0
 20
0.0
 30
0.0
  0
VERTEX
  5
3BE
330
3BD
100
AcDbEntity
  8
BEMA_UNG
 62
     7
100
AcDbVertex
100
AcDb2dVertex
 10
57.10697396530033
 20
-55.13689481240994
 30
0.0
  0
VERTEX
  5
3BF
330
3BD
100
AcDbEntity
  8
BEMA_UNG
 62
     7
100
AcDbVertex
100
AcDb2dVertex
 10
74.87230957378138
 20
-55.13689481240994
 30
0.0
  0
SEQEND
  5
3C0
330
3BD
100
AcDbEntity
  8
BEMA_UNG
  0
POLYLINE
  5
3C1
330
1F
100
AcDbEntity
  8
BEMA_UNG
 62
     7
100
AcDb2dPolyline
 66
     1
 10
0.0
 20
0.0
 30
0.0
  0
VERTEX
  5
3C2
330
3C1
100
AcDbEntity
  8
BEMA_UNG
 62
     7
100
AcDbVertex
100
AcDb2dVertex
 10
34.10681231359651
 20
-30.13685391220936
 30
0.0
  0
VERTEX
  5
3C3
330
3C1
100
AcDbEntity
  8
BEMA_UNG
 62
     7
100
AcDbVertex
100
AcDb2dVertex
 10
74.87230957378138
 20
-30.13685391220936
 30
0.0
  0
SEQEND
  5
3C4
330
3C1
100
AcDbEntity
  8
BEMA_UNG
  0
POLYLINE
  5
3C5
330
1F
100
AcDbEntity
  8
BEMA_UNG
 62
     7
100
AcDb2dPolyline
 66
     1
 10
0.0
 20
0.0
 30
0.0
  0
VERTEX
  5
3C6
330
3C5
100
AcDbEntity
  8
BEMA_UNG
 62
     7
100
AcDbVertex
100
AcDb2dVertex
 10
72.87139679595722
 20
-55.13689481240994
 30
0.0
  0
VERTEX
  5
3C7
330
3C5
100
AcDbEntity
  8
BEMA_UNG
 62
     7
100
AcDbVertex
100
AcDb2dVertex
 10
72.87139679595722
 20
-30.13685391220936
 30
0.0
  0
SEQEND
  5
3C8
330
3C5
100
AcDbEntity
  8
BEMA_UNG
  0
POLYLINE
  5
3C9
330
1F
100
AcDbEntity
  8
BEMA_UNG
 62
     7
100
AcDb2dPolyline
 66
     1
 10
0.0
 20
0.0
 30
0.0
  0
VERTEX
  5
3CA
330
3C9
100
AcDbEntity
  8
BEMA_UNG
 62
     7
100
AcDbVertex
100
AcDb2dVertex
 10
72.87139679595722
 20
-55.13689481240994
 30
0.0
  0
VERTEX
  5
3CB
330
3C9
100
AcDbEntity
  8
BEMA_UNG
 62
     7
100
AcDbVertex
100
AcDb2dVertex
 10
73.3328676406362
 20
-51.63667549032087
 30
0.0
  0
VERTEX
  5
3CC
330
3C9
100
AcDbEntity
  8
BEMA_UNG
 62
     7
100
AcDbVertex
100
AcDb2dVertex
 10
72.41113173549354
 20
-51.63667549032087
 30
0.0
  0
VERTEX
  5
3CD
330
3C9
100
AcDbEntity
  8
BEMA_UNG
 62
     7
100
AcDbVertex
100
AcDb2dVertex
 10
72.87139679595722
 20
-55.13689481240994
 30
0.0
  0
SEQEND
  5
3CE
330
3C9
100
AcDbEntity
  8
BEMA_UNG
  0
POLYLINE
  5
3CF
330
1F
100
AcDbEntity
  8
BEMA_UNG
 62
     7
100
AcDb2dPolyline
 66
     1
 10
0.0
 20
0.0
 30
0.0
  0
VERTEX
  5
3D0
330
3CF
100
AcDbEntity
  8
BEMA_UNG
 62
     7
100
AcDbVertex
100
AcDb2dVertex
 10
73.32907803310243
 20
-51.63667549032087
 30
0.0
  0
VERTEX
  5
3D1
330
3CF
100
AcDbEntity
  8
BEMA_UNG
 62
     7
100
AcDbVertex
100
AcDb2dVertex
 10
73.32907803310243
 20
-51.66389176260877
 30
0.0
  0
SEQEND
  5
3D2
330
3CF
100
AcDbEntity
  8
BEMA_UNG
  0
POLYLINE
  5
3D3
330
1F
100
AcDbEntity
  8
BEMA_UNG
 62
     7
100
AcDb2dPolyline
 66
     1
 10
0.0
 20
0.0
 30
0.0
  0
VERTEX
  5
3D4
330
3D3
100
AcDbEntity
  8
BEMA_UNG
 62
     7
100
AcDbVertex
100
AcDb2dVertex
 10
73.32907803310243
 20
-51.63667549032087
 30
0.0
  0
VERTEX
  5
3D5
330
3D3
100
AcDbEntity
  8
BEMA_UNG
 62
     7
100
AcDbVertex
100
AcDb2dVertex
 10
73.32907803310243
 20
-51.66389176260877
 30
0.0
  0
SEQEND
  5
3D6
330
3D3
100
AcDbEntity
  8
BEMA_UNG
  0
POLYLINE
  5
3D7
330
1F
100
AcDbEntity
  8
BEMA_UNG
 62
     7
100
AcDb2dPolyline
 66
     1
 10
0.0
 20
0.0
 30
0.0
  0
VERTEX
  5
3D8
330
3D7
100
AcDbEntity
  8
BEMA_UNG
 62
     7
100
AcDbVertex
100
AcDb2dVertex
 10
73.2784350960604
 20
-51.63667549032087
 30
0.0
  0
VERTEX
  5
3D9
330
3D7
100
AcDbEntity
  8
BEMA_UNG
 62
     7
100
AcDbVertex
100
AcDb2dVertex
 10
73.2784350960604
 20
-52.05008722127627
 30
0.0
  0
SEQEND
  5
3DA
330
3D7
100
AcDbEntity
  8
BEMA_UNG
  0
POLYLINE
  5
3DB
330
1F
100
AcDbEntity
  8
BEMA_UNG
 62
     7
100
AcDb2dPolyline
 66
     1
 10
0.0
 20
0.0
 30
0.0
  0
VERTEX
  5
3DC
330
3DB
100
AcDbEntity
  8
BEMA_UNG
 62
     7
100
AcDbVertex
100
AcDb2dVertex
 10
73.22744764924256
 20
-51.63667549032087
 30
0.0
  0
VERTEX
  5
3DD
330
3DB
100
AcDbEntity
  8
BEMA_UNG
 62
     7
100
AcDbVertex
100
AcDb2dVertex
 10
73.22744764924256
 20
-52.43559366039219
 30
0.0
  0
SEQEND
  5
3DE
330
3DB
100
AcDbEntity
  8
BEMA_UNG
  0
POLYLINE
  5
3DF
330
1F
100
AcDbEntity
  8
BEMA_UNG
 62
     7
100
AcDb2dPolyline
 66
     1
 10
0.0
 20
0.0
 30
0.0
  0
VERTEX
  5
3E0
330
3DF
100
AcDbEntity
  8
BEMA_UNG
 62
     7
100
AcDbVertex
100
AcDb2dVertex
 10
73.17646020242474
 20
-51.63667549032087
 30
0.0
  0
VERTEX
  5
3E1
330
3DF
100
AcDbEntity
  8
BEMA_UNG
 62
     7
100
AcDbVertex
100
AcDb2dVertex
 10
73.17646020242474
 20
-52.82144460928389
 30
0.0
  0
SEQEND
  5
3E2
330
3DF
100
AcDbEntity
  8
BEMA_UNG
  0
POLYLINE
  5
3E3
330
1F
100
AcDbEntity
  8
BEMA_UNG
 62
     7
100
AcDb2dPolyline
 66
     1
 10
0.0
 20
0.0
 30
0.0
  0
VERTEX
  5
3E4
330
3E3
100
AcDbEntity
  8
BEMA_UNG
 62
     7
100
AcDbVertex
100
AcDb2dVertex
 10
73.125300500719
 20
-51.63667549032087
 30
0.0
  0
VERTEX
  5
3E5
330
3E3
100
AcDbEntity
  8
BEMA_UNG
 62
     7
100
AcDbVertex
100
AcDb2dVertex
 10
73.125300500719
 20
-53.2072955581756
 30
0.0
  0
SEQEND
  5
3E6
330
3E3
100
AcDbEntity
  8
BEMA_UNG
  0
POLYLINE
  5
3E7
330
1F
100
AcDbEntity
  8
BEMA_UNG
 62
     7
100
AcDb2dPolyline
 66
     1
 10
0.0
 20
0.0
 30
0.0
  0
VERTEX
  5
3E8
330
3E7
100
AcDbEntity
  8
BEMA_UNG
 62
     7
100
AcDbVertex
100
AcDb2dVertex
 10
73.07500207345277
 20
-51.63667549032087
 30
0.0
  0
VERTEX
  5
3E9
330
3E7
100
AcDbEntity
  8
BEMA_UNG
 62
     7
100
AcDbVertex
100
AcDb2dVertex
 10
73.07500207345277
 20
-53.59349101684311
 30
0.0
  0
SEQEND
  5
3EA
330
3E7
100
AcDbEntity
  8
BEMA_UNG
  0
POLYLINE
  5
3EB
330
1F
100
AcDbEntity
  8
BEMA_UNG
 62
     7
100
AcDb2dPolyline
 66
     1
 10
0.0
 20
0.0
 30
0.0
  0
VERTEX
  5
3EC
330
3EB
100
AcDbEntity
  8
BEMA_UNG
 62
     7
100
AcDbVertex
100
AcDb2dVertex
 10
73.02384237174704
 20
-51.63667549032087
 30
0.0
  0
VERTEX
  5
3ED
330
3EB
100
AcDbEntity
  8
BEMA_UNG
 62
     7
100
AcDbVertex
100
AcDb2dVertex
 10
73.02384237174704
 20
-53.97899745595902
 30
0.0
  0
SEQEND
  5
3EE
330
3EB
100
AcDbEntity
  8
BEMA_UNG
  0
POLYLINE
  5
3EF
330
1F
100
AcDbEntity
  8
BEMA_UNG
 62
     7
100
AcDb2dPolyline
 66
     1
 10
0.0
 20
0.0
 30
0.0
  0
VERTEX
  5
3F0
330
3EF
100
AcDbEntity
  8
BEMA_UNG
 62
     7
100
AcDbVertex
100
AcDb2dVertex
 10
72.973199434705
 20
-51.63667549032087
 30
0.0
  0
VERTEX
  5
3F1
330
3EF
100
AcDbEntity
  8
BEMA_UNG
 62
     7
100
AcDbVertex
100
AcDb2dVertex
 10
72.973199434705
 20
-54.36484840485073
 30
0.0
  0
SEQEND
  5
3F2
330
3EF
100
AcDbEntity
  8
BEMA_UNG
  0
POLYLINE
  5
3F3
330
1F
100
AcDbEntity
  8
BEMA_UNG
 62
     7
100
AcDb2dPolyline
 66
     1
 10
0.0
 20
0.0
 30
0.0
  0
VERTEX
  5
3F4
330
3F3
100
AcDbEntity
  8
BEMA_UNG
 62
     7
100
AcDbVertex
100
AcDb2dVertex
 10
72.92238424277507
 20
-51.63667549032087
 30
0.0
  0
VERTEX
  5
3F5
330
3F3
100
AcDbEntity
  8
BEMA_UNG
 62
     7
100
AcDbVertex
100
AcDb2dVertex
 10
72.92238424277507
 20
-54.75069935374244
 30
0.0
  0
SEQEND
  5
3F6
330
3F3
100
AcDbEntity
  8
BEMA_UNG
  0
POLYLINE
  5
3F7
330
1F
100
AcDbEntity
  8
BEMA_UNG
 62
     7
100
AcDb2dPolyline
 66
     1
 10
0.0
 20
0.0
 30
0.0
  0
VERTEX
  5
3F8
330
3F7
100
AcDbEntity
  8
BEMA_UNG
 62
     7
100
AcDbVertex
100
AcDb2dVertex
 10
72.87139679595722
 20
-51.63667549032087
 30
0.0
  0
VERTEX
  5
3F9
330
3F7
100
AcDbEntity
  8
BEMA_UNG
 62
     7
100
AcDbVertex
100
AcDb2dVertex
 10
72.87139679595722
 20
-55.13689481240994
 30
0.0
  0
SEQEND
  5
3FA
330
3F7
100
AcDbEntity
  8
BEMA_UNG
  0
POLYLINE
  5
3FB
330
1F
100
AcDbEntity
  8
BEMA_UNG
 62
     7
100
AcDb2dPolyline
 66
     1
 10
0.0
 20
0.0
 30
0.0
  0
VERTEX
  5
3FC
330
3FB
100
AcDbEntity
  8
BEMA_UNG
 62
     7
100
AcDbVertex
100
AcDb2dVertex
 10
72.4149213430273
 20
-51.63667549032087
 30
0.0
  0
VERTEX
  5
3FD
330
3FB
100
AcDbEntity
  8
BEMA_UNG
 62
     7
100
AcDbVertex
100
AcDb2dVertex
 10
72.4149213430273
 20
-51.66389176260877
 30
0.0
  0
SEQEND
  5
3FE
330
3FB
100
AcDbEntity
  8
BEMA_UNG
  0
POLYLINE
  5
3FF
330
1F
100
AcDbEntity
  8
BEMA_UNG
 62
     7
100
AcDb2dPolyline
 66
     1
 10
0.0
 20
0.0
 30
0.0
  0
VERTEX
  5
400
330
3FF
100
AcDbEntity
  8
BEMA_UNG
 62
     7
100
AcDbVertex
100
AcDb2dVertex
 10
72.4149213430273
 20
-51.63667549032087
 30
0.0
  0
VERTEX
  5
401
330
3FF
100
AcDbEntity
  8
BEMA_UNG
 62
     7
100
AcDbVertex
100
AcDb2dVertex
 10
72.4149213430273
 20
-51.66389176260877
 30
0.0
  0
SEQEND
  5
402
330
3FF
100
AcDbEntity
  8
BEMA_UNG
  0
POLYLINE
  5
403
330
1F
100
AcDbEntity
  8
BEMA_UNG
 62
     7
100
AcDb2dPolyline
 66
     1
 10
0.0
 20
0.0
 30
0.0
  0
VERTEX
  5
404
330
403
100
AcDbEntity
  8
BEMA_UNG
 62
     7
100
AcDbVertex
100
AcDb2dVertex
 10
72.46573653495724
 20
-51.63667549032087
 30
0.0
  0
VERTEX
  5
405
330
403
100
AcDbEntity
  8
BEMA_UNG
 62
     7
100
AcDbVertex
100
AcDb2dVertex
 10
72.46573653495724
 20
-52.05008722127627
 30
0.0
  0
SEQEND
  5
406
330
403
100
AcDbEntity
  8
BEMA_UNG
  0
POLYLINE
  5
407
330
1F
100
AcDbEntity
  8
BEMA_UNG
 62
     7
100
AcDb2dPolyline
 66
     1
 10
0.0
 20
0.0
 30
0.0
  0
VERTEX
  5
408
330
407
100
AcDbEntity
  8
BEMA_UNG
 62
     7
100
AcDbVertex
100
AcDb2dVertex
 10
72.51655172688717
 20
-51.63667549032087
 30
0.0
  0
VERTEX
  5
409
330
407
100
AcDbEntity
  8
BEMA_UNG
 62
     7
100
AcDbVertex
100
AcDb2dVertex
 10
72.51655172688717
 20
-52.43559366039219
 30
0.0
  0
SEQEND
  5
40A
330
407
100
AcDbEntity
  8
BEMA_UNG
  0
POLYLINE
  5
40B
330
1F
100
AcDbEntity
  8
BEMA_UNG
 62
     7
100
AcDb2dPolyline
 66
     1
 10
0.0
 20
0.0
 30
0.0
  0
VERTEX
  5
40C
330
40B
100
AcDbEntity
  8
BEMA_UNG
 62
     7
100
AcDbVertex
100
AcDb2dVertex
 10
72.56719466392921
 20
-51.63667549032087
 30
0.0
  0
VERTEX
  5
40D
330
40B
100
AcDbEntity
  8
BEMA_UNG
 62
     7
100
AcDbVertex
100
AcDb2dVertex
 10
72.56719466392921
 20
-52.82144460928389
 30
0.0
  0
SEQEND
  5
40E
330
40B
100
AcDbEntity
  8
BEMA_UNG
  0
POLYLINE
  5
40F
330
1F
100
AcDbEntity
  8
BEMA_UNG
 62
     7
100
AcDb2dPolyline
 66
     1
 10
0.0
 20
0.0
 30
0.0
  0
VERTEX
  5
410
330
40F
100
AcDbEntity
  8
BEMA_UNG
 62
     7
100
AcDbVertex
100
AcDb2dVertex
 10
72.61818211074704
 20
-51.63667549032087
 30
0.0
  0
VERTEX
  5
411
330
40F
100
AcDbEntity
  8
BEMA_UNG
 62
     7
100
AcDbVertex
100
AcDb2dVertex
 10
72.61818211074704
 20
-53.2072955581756
 30
0.0
  0
SEQEND
  5
412
330
40F
100
AcDbEntity
  8
BEMA_UNG
  0
POLYLINE
  5
413
330
1F
100
AcDbEntity
  8
BEMA_UNG
 62
     7
100
AcDb2dPolyline
 66
     1
 10
0.0
 20
0.0
 30
0.0
  0
VERTEX
  5
414
330
413
100
AcDbEntity
  8
BEMA_UNG
 62
     7
100
AcDbVertex
100
AcDb2dVertex
 10
72.66865279290118
 20
-51.63667549032087
 30
0.0
  0
VERTEX
  5
415
330
413
100
AcDbEntity
  8
BEMA_UNG
 62
     7
100
AcDbVertex
100
AcDb2dVertex
 10
72.66865279290118
 20
-53.59349101684311
 30
0.0
  0
SEQEND
  5
416
330
413
100
AcDbEntity
  8
BEMA_UNG
  0
POLYLINE
  5
417
330
1F
100
AcDbEntity
  8
BEMA_UNG
 62
     7
100
AcDb2dPolyline
 66
     1
 10
0.0
 20
0.0
 30
0.0
  0
VERTEX
  5
418
330
417
100
AcDbEntity
  8
BEMA_UNG
 62
     7
100
AcDbVertex
100
AcDb2dVertex
 10
72.71929572994321
 20
-51.63667549032087
 30
0.0
  0
VERTEX
  5
419
330
417
100
AcDbEntity
  8
BEMA_UNG
 62
     7
100
AcDbVertex
100
AcDb2dVertex
 10
72.71929572994321
 20
-53.97899745595902
 30
0.0
  0
SEQEND
  5
41A
330
417
100
AcDbEntity
  8
BEMA_UNG
  0
POLYLINE
  5
41B
330
1F
100
AcDbEntity
  8
BEMA_UNG
 62
     7
100
AcDb2dPolyline
 66
     1
 10
0.0
 20
0.0
 30
0.0
  0
VERTEX
  5
41C
330
41B
100
AcDbEntity
  8
BEMA_UNG
 62
     7
100
AcDbVertex
100
AcDb2dVertex
 10
72.76993866698525
 20
-51.63667549032087
 30
0.0
  0
VERTEX
  5
41D
330
41B
100
AcDbEntity
  8
BEMA_UNG
 62
     7
100
AcDbVertex
100
AcDb2dVertex
 10
72.76993866698525
 20
-54.36484840485073
 30
0.0
  0
SEQEND
  5
41E
330
41B
100
AcDbEntity
  8
BEMA_UNG
  0
POLYLINE
  5
41F
330
1F
100
AcDbEntity
  8
BEMA_UNG
 62
     7
100
AcDb2dPolyline
 66
     1
 10
0.0
 20
0.0
 30
0.0
  0
VERTEX
  5
420
330
41F
100
AcDbEntity
  8
BEMA_UNG
 62
     7
100
AcDbVertex
100
AcDb2dVertex
 10
72.8205816040273
 20
-51.63667549032087
 30
0.0
  0
VERTEX
  5
421
330
41F
100
AcDbEntity
  8
BEMA_UNG
 62
     7
100
AcDbVertex
100
AcDb2dVertex
 10
72.8205816040273
 20
-54.75069935374244
 30
0.0
  0
SEQEND
  5
422
330
41F
100
AcDbEntity
  8
BEMA_UNG
  0
POLYLINE
  5
423
330
1F
100
AcDbEntity
  8
BEMA_UNG
 62
     7
100
AcDb2dPolyline
 66
     1
 10
0.0
 20
0.0
 30
0.0
  0
VERTEX
  5
424
330
423
100
AcDbEntity
  8
BEMA_UNG
 62
     7
100
AcDbVertex
100
AcDb2dVertex
 10
72.87139679595722
 20
-51.63667549032087
 30
0.0
  0
VERTEX
  5
425
330
423
100
AcDbEntity
  8
BEMA_UNG
 62
     7
100
AcDbVertex
100
AcDb2dVertex
 10
72.87139679595722
 20
-55.13689481240994
 30
0.0
  0
SEQEND
  5
426
330
423
100
AcDbEntity
  8
BEMA_UNG
  0
POLYLINE
  5
427
330
1F
100
AcDbEntity
  8
BEMA_UNG
 62
     7
100
AcDb2dPolyline
 66
     1
 10
0.0
 20
0.0
 30
0.0
  0
VERTEX
  5
428
330
427
100
AcDbEntity
  8
BEMA_UNG
 62
     7
100
AcDbVertex
100
AcDb2dVertex
 10
72.87139679595722
 20
-30.13685391220936
 30
0.0
  0
VERTEX
  5
429
330
427
100
AcDbEntity
  8
BEMA_UNG
 62
     7
100
AcDbVertex
100
AcDb2dVertex
 10
72.41113173549354
 20
-33.63638421474684
 30
0.0
  0
VERTEX
  5
42A
330
427
100
AcDbEntity
  8
BEMA_UNG
 62
     7
100
AcDbVertex
100
AcDb2dVertex
 10
73.3328676406362
 20
-33.63638421474684
 30
0.0
  0
VERTEX
  5
42B
330
427
100
AcDbEntity
  8
BEMA_UNG
 62
     7
100
AcDbVertex
100
AcDb2dVertex
 10
72.87139679595722
 20
-30.13685391220936
 30
0.0
  0
SEQEND
  5
42C
330
427
100
AcDbEntity
  8
BEMA_UNG
  0
POLYLINE
  5
42D
330
1F
100
AcDbEntity
  8
BEMA_UNG
 62
     7
100
AcDb2dPolyline
 66
     1
 10
0.0
 20
0.0
 30
0.0
  0
VERTEX
  5
42E
330
42D
100
AcDbEntity
  8
BEMA_UNG
 62
     7
100
AcDbVertex
100
AcDb2dVertex
 10
72.4149213430273
 20
-33.63638421474684
 30
0.0
  0
VERTEX
  5
42F
330
42D
100
AcDbEntity
  8
BEMA_UNG
 62
     7
100
AcDbVertex
100
AcDb2dVertex
 10
72.4149213430273
 20
-33.60934019734685
 30
0.0
  0
SEQEND
  5
430
330
42D
100
AcDbEntity
  8
BEMA_UNG
  0
POLYLINE
  5
431
330
1F
100
AcDbEntity
  8
BEMA_UNG
 62
     7
100
AcDb2dPolyline
 66
     1
 10
0.0
 20
0.0
 30
0.0
  0
VERTEX
  5
432
330
431
100
AcDbEntity
  8
BEMA_UNG
 62
     7
100
AcDbVertex
100
AcDb2dVertex
 10
72.4149213430273
 20
-33.63638421474684
 30
0.0
  0
VERTEX
  5
433
330
431
100
AcDbEntity
  8
BEMA_UNG
 62
     7
100
AcDbVertex
100
AcDb2dVertex
 10
72.4149213430273
 20
-33.60934019734685
 30
0.0
  0
SEQEND
  5
434
330
431
100
AcDbEntity
  8
BEMA_UNG
  0
POLYLINE
  5
435
330
1F
100
AcDbEntity
  8
BEMA_UNG
 62
     7
100
AcDb2dPolyline
 66
     1
 10
0.0
 20
0.0
 30
0.0
  0
VERTEX
  5
436
330
435
100
AcDbEntity
  8
BEMA_UNG
 62
     7
100
AcDbVertex
100
AcDb2dVertex
 10
72.46573653495724
 20
-33.63638421474684
 30
0.0
  0
VERTEX
  5
437
330
435
100
AcDbEntity
  8
BEMA_UNG
 62
     7
100
AcDbVertex
100
AcDb2dVertex
 10
72.46573653495724
 20
-33.22366150334303
 30
0.0
  0
SEQEND
  5
438
330
435
100
AcDbEntity
  8
BEMA_UNG
  0
POLYLINE
  5
439
330
1F
100
AcDbEntity
  8
BEMA_UNG
 62
     7
100
AcDb2dPolyline
 66
     1
 10
0.0
 20
0.0
 30
0.0
  0
VERTEX
  5
43A
330
439
100
AcDbEntity
  8
BEMA_UNG
 62
     7
100
AcDbVertex
100
AcDb2dVertex
 10
72.51655172688717
 20
-33.63638421474684
 30
0.0
  0
VERTEX
  5
43B
330
439
100
AcDbEntity
  8
BEMA_UNG
 62
     7
100
AcDbVertex
100
AcDb2dVertex
 10
72.51655172688717
 20
-32.83781055445132
 30
0.0
  0
SEQEND
  5
43C
330
439
100
AcDbEntity
  8
BEMA_UNG
  0
POLYLINE
  5
43D
330
1F
100
AcDbEntity
  8
BEMA_UNG
 62
     7
100
AcDb2dPolyline
 66
     1
 10
0.0
 20
0.0
 30
0.0
  0
VERTEX
  5
43E
330
43D
100
AcDbEntity
  8
BEMA_UNG
 62
     7
100
AcDbVertex
100
AcDb2dVertex
 10
72.56719466392921
 20
-33.63638421474684
 30
0.0
  0
VERTEX
  5
43F
330
43D
100
AcDbEntity
  8
BEMA_UNG
 62
     7
100
AcDbVertex
100
AcDb2dVertex
 10
72.56719466392921
 20
-32.45230411533541
 30
0.0
  0
SEQEND
  5
440
330
43D
100
AcDbEntity
  8
BEMA_UNG
  0
POLYLINE
  5
441
330
1F
100
AcDbEntity
  8
BEMA_UNG
 62
     7
100
AcDb2dPolyline
 66
     1
 10
0.0
 20
0.0
 30
0.0
  0
VERTEX
  5
442
330
441
100
AcDbEntity
  8
BEMA_UNG
 62
     7
100
AcDbVertex
100
AcDb2dVertex
 10
72.61818211074704
 20
-33.63638421474684
 30
0.0
  0
VERTEX
  5
443
330
441
100
AcDbEntity
  8
BEMA_UNG
 62
     7
100
AcDbVertex
100
AcDb2dVertex
 10
72.61818211074704
 20
-32.06593640178001
 30
0.0
  0
SEQEND
  5
444
330
441
100
AcDbEntity
  8
BEMA_UNG
  0
POLYLINE
  5
445
330
1F
100
AcDbEntity
  8
BEMA_UNG
 62
     7
100
AcDb2dPolyline
 66
     1
 10
0.0
 20
0.0
 30
0.0
  0
VERTEX
  5
446
330
445
100
AcDbEntity
  8
BEMA_UNG
 62
     7
100
AcDbVertex
100
AcDb2dVertex
 10
72.66865279290118
 20
-33.63638421474684
 30
0.0
  0
VERTEX
  5
447
330
445
100
AcDbEntity
  8
BEMA_UNG
 62
     7
100
AcDbVertex
100
AcDb2dVertex
 10
72.66865279290118
 20
-31.6802577077762
 30
0.0
  0
SEQEND
  5
448
330
445
100
AcDbEntity
  8
BEMA_UNG
  0
POLYLINE
  5
449
330
1F
100
AcDbEntity
  8
BEMA_UNG
 62
     7
100
AcDb2dPolyline
 66
     1
 10
0.0
 20
0.0
 30
0.0
  0
VERTEX
  5
44A
330
449
100
AcDbEntity
  8
BEMA_UNG
 62
     7
100
AcDbVertex
100
AcDb2dVertex
 10
72.71929572994321
 20
-33.63638421474684
 30
0.0
  0
VERTEX
  5
44B
330
449
100
AcDbEntity
  8
BEMA_UNG
 62
     7
100
AcDbVertex
100
AcDb2dVertex
 10
72.71929572994321
 20
-31.29423450399659
 30
0.0
  0
SEQEND
  5
44C
330
449
100
AcDbEntity
  8
BEMA_UNG
  0
POLYLINE
  5
44D
330
1F
100
AcDbEntity
  8
BEMA_UNG
 62
     7
100
AcDb2dPolyline
 66
     1
 10
0.0
 20
0.0
 30
0.0
  0
VERTEX
  5
44E
330
44D
100
AcDbEntity
  8
BEMA_UNG
 62
     7
100
AcDbVertex
100
AcDb2dVertex
 10
72.76993866698525
 20
-33.63638421474684
 30
0.0
  0
VERTEX
  5
44F
330
44D
100
AcDbEntity
  8
BEMA_UNG
 62
     7
100
AcDbVertex
100
AcDb2dVertex
 10
72.76993866698525
 20
-30.90890031976857
 30
0.0
  0
SEQEND
  5
450
330
44D
100
AcDbEntity
  8
BEMA_UNG
  0
POLYLINE
  5
451
330
1F
100
AcDbEntity
  8
BEMA_UNG
 62
     7
100
AcDb2dPolyline
 66
     1
 10
0.0
 20
0.0
 30
0.0
  0
VERTEX
  5
452
330
451
100
AcDbEntity
  8
BEMA_UNG
 62
     7
100
AcDbVertex
100
AcDb2dVertex
 10
72.8205816040273
 20
-33.63638421474684
 30
0.0
  0
VERTEX
  5
453
330
451
100
AcDbEntity
  8
BEMA_UNG
 62
     7
100
AcDbVertex
100
AcDb2dVertex
 10
72.8205816040273
 20
-30.52253260621317
 30
0.0
  0
SEQEND
  5
454
330
451
100
AcDbEntity
  8
BEMA_UNG
  0
POLYLINE
  5
455
330
1F
100
AcDbEntity
  8
BEMA_UNG
 62
     7
100
AcDb2dPolyline
 66
     1
 10
0.0
 20
0.0
 30
0.0
  0
VERTEX
  5
456
330
455
100
AcDbEntity
  8
BEMA_UNG
 62
     7
100
AcDbVertex
100
AcDb2dVertex
 10
72.87139679595722
 20
-33.63638421474684
 30
0.0
  0
VERTEX
  5
457
330
455
100
AcDbEntity
  8
BEMA_UNG
 62
     7
100
AcDbVertex
100
AcDb2dVertex
 10
72.87139679595722
 20
-30.13685391220936
 30
0.0
  0
SEQEND
  5
458
330
455
100
AcDbEntity
  8
BEMA_UNG
  0
POLYLINE
  5
459
330
1F
100
AcDbEntity
  8
BEMA_UNG
 62
     7
100
AcDb2dPolyline
 66
     1
 10
0.0
 20
0.0
 30
0.0
  0
VERTEX
  5
45A
330
459
100
AcDbEntity
  8
BEMA_UNG
 62
     7
100
AcDbVertex
100
AcDb2dVertex
 10
73.32907803310243
 20
-33.63638421474684
 30
0.0
  0
VERTEX
  5
45B
330
459
100
AcDbEntity
  8
BEMA_UNG
 62
     7
100
AcDbVertex
100
AcDb2dVertex
 10
73.32907803310243
 20
-33.60934019734685
 30
0.0
  0
SEQEND
  5
45C
330
459
100
AcDbEntity
  8
BEMA_UNG
  0
POLYLINE
  5
45D
330
1F
100
AcDbEntity
  8
BEMA_UNG
 62
     7
100
AcDb2dPolyline
 66
     1
 10
0.0
 20
0.0
 30
0.0
  0
VERTEX
  5
45E
330
45D
100
AcDbEntity
  8
BEMA_UNG
 62
     7
100
AcDbVertex
100
AcDb2dVertex
 10
73.32907803310243
 20
-33.63638421474684
 30
0.0
  0
VERTEX
  5
45F
330
45D
100
AcDbEntity
  8
BEMA_UNG
 62
     7
100
AcDbVertex
100
AcDb2dVertex
 10
73.32907803310243
 20
-33.60934019734685
 30
0.0
  0
SEQEND
  5
460
330
45D
100
AcDbEntity
  8
BEMA_UNG
  0
POLYLINE
  5
461
330
1F
100
AcDbEntity
  8
BEMA_UNG
 62
     7
100
AcDb2dPolyline
 66
     1
 10
0.0
 20
0.0
 30
0.0
  0
VERTEX
  5
462
330
461
100
AcDbEntity
  8
BEMA_UNG
 62
     7
100
AcDbVertex
100
AcDb2dVertex
 10
73.2784350960604
 20
-33.63638421474684
 30
0.0
  0
VERTEX
  5
463
330
461
100
AcDbEntity
  8
BEMA_UNG
 62
     7
100
AcDbVertex
100
AcDb2dVertex
 10
73.2784350960604
 20
-33.22366150334303
 30
0.0
  0
SEQEND
  5
464
330
461
100
AcDbEntity
  8
BEMA_UNG
  0
POLYLINE
  5
465
330
1F
100
AcDbEntity
  8
BEMA_UNG
 62
     7
100
AcDb2dPolyline
 66
     1
 10
0.0
 20
0.0
 30
0.0
  0
VERTEX
  5
466
330
465
100
AcDbEntity
  8
BEMA_UNG
 62
     7
100
AcDbVertex
100
AcDb2dVertex
 10
73.22744764924256
 20
-33.63638421474684
 30
0.0
  0
VERTEX
  5
467
330
465
100
AcDbEntity
  8
BEMA_UNG
 62
     7
100
AcDbVertex
100
AcDb2dVertex
 10
73.22744764924256
 20
-32.83781055445132
 30
0.0
  0
SEQEND
  5
468
330
465
100
AcDbEntity
  8
BEMA_UNG
  0
POLYLINE
  5
469
330
1F
100
AcDbEntity
  8
BEMA_UNG
 62
     7
100
AcDb2dPolyline
 66
     1
 10
0.0
 20
0.0
 30
0.0
  0
VERTEX
  5
46A
330
469
100
AcDbEntity
  8
BEMA_UNG
 62
     7
100
AcDbVertex
100
AcDb2dVertex
 10
73.17646020242474
 20
-33.63638421474684
 30
0.0
  0
VERTEX
  5
46B
330
469
100
AcDbEntity
  8
BEMA_UNG
 62
     7
100
AcDbVertex
100
AcDb2dVertex
 10
73.17646020242474
 20
-32.45230411533541
 30
0.0
  0
SEQEND
  5
46C
330
469
100
AcDbEntity
  8
BEMA_UNG
  0
POLYLINE
  5
46D
330
1F
100
AcDbEntity
  8
BEMA_UNG
 62
     7
100
AcDb2dPolyline
 66
     1
 10
0.0
 20
0.0
 30
0.0
  0
VERTEX
  5
46E
330
46D
100
AcDbEntity
  8
BEMA_UNG
 62
     7
100
AcDbVertex
100
AcDb2dVertex
 10
73.125300500719
 20
-33.63638421474684
 30
0.0
  0
VERTEX
  5
46F
330
46D
100
AcDbEntity
  8
BEMA_UNG
 62
     7
100
AcDbVertex
100
AcDb2dVertex
 10
73.125300500719
 20
-32.06593640178001
 30
0.0
  0
SEQEND
  5
470
330
46D
100
AcDbEntity
  8
BEMA_UNG
  0
POLYLINE
  5
471
330
1F
100
AcDbEntity
  8
BEMA_UNG
 62
     7
100
AcDb2dPolyline
 66
     1
 10
0.0
 20
0.0
 30
0.0
  0
VERTEX
  5
472
330
471
100
AcDbEntity
  8
BEMA_UNG
 62
     7
100
AcDbVertex
100
AcDb2dVertex
 10
73.07500207345277
 20
-33.63638421474684
 30
0.0
  0
VERTEX
  5
473
330
471
100
AcDbEntity
  8
BEMA_UNG
 62
     7
100
AcDbVertex
100
AcDb2dVertex
 10
73.07500207345277
 20
-31.6802577077762
 30
0.0
  0
SEQEND
  5
474
330
471
100
AcDbEntity
  8
BEMA_UNG
  0
POLYLINE
  5
475
330
1F
100
AcDbEntity
  8
BEMA_UNG
 62
     7
100
AcDb2dPolyline
 66
     1
 10
0.0
 20
0.0
 30
0.0
  0
VERTEX
  5
476
330
475
100
AcDbEntity
  8
BEMA_UNG
 62
     7
100
AcDbVertex
100
AcDb2dVertex
 10
73.02384237174704
 20
-33.63638421474684
 30
0.0
  0
VERTEX
  5
477
330
475
100
AcDbEntity
  8
BEMA_UNG
 62
     7
100
AcDbVertex
100
AcDb2dVertex
 10
73.02384237174704
 20
-31.29423450399659
 30
0.0
  0
SEQEND
  5
478
330
475
100
AcDbEntity
  8
BEMA_UNG
  0
POLYLINE
  5
479
330
1F
100
AcDbEntity
  8
BEMA_UNG
 62
     7
100
AcDb2dPolyline
 66
     1
 10
0.0
 20
0.0
 30
0.0
  0
VERTEX
  5
47A
330
479
100
AcDbEntity
  8
BEMA_UNG
 62
     7
100
AcDbVertex
100
AcDb2dVertex
 10
72.973199434705
 20
-33.63638421474684
 30
0.0
  0
VERTEX
  5
47B
330
479
100
AcDbEntity
  8
BEMA_UNG
 62
     7
100
AcDbVertex
100
AcDb2dVertex
 10
72.973199434705
 20
-30.90890031976857
 30
0.0
  0
SEQEND
  5
47C
330
479
100
AcDbEntity
  8
BEMA_UNG
  0
POLYLINE
  5
47D
330
1F
100
AcDbEntity
  8
BEMA_UNG
 62
     7
100
AcDb2dPolyline
 66
     1
 10
0.0
 20
0.0
 30
0.0
  0
VERTEX
  5
47E
330
47D
100
AcDbEntity
  8
BEMA_UNG
 62
     7
100
AcDbVertex
100
AcDb2dVertex
 10
72.92238424277507
 20
-33.63638421474684
 30
0.0
  0
VERTEX
  5
47F
330
47D
100
AcDbEntity
  8
BEMA_UNG
 62
     7
100
AcDbVertex
100
AcDb2dVertex
 10
72.92238424277507
 20
-30.52253260621317
 30
0.0
  0
SEQEND
  5
480
330
47D
100
AcDbEntity
  8
BEMA_UNG
  0
POLYLINE
  5
481
330
1F
100
AcDbEntity
  8
BEMA_UNG
 62
     7
100
AcDb2dPolyline
 66
     1
 10
0.0
 20
0.0
 30
0.0
  0
VERTEX
  5
482
330
481
100
AcDbEntity
  8
BEMA_UNG
 62
     7
100
AcDbVertex
100
AcDb2dVertex
 10
72.87139679595722
 20
-33.63638421474684
 30
0.0
  0
VERTEX
  5
483
330
481
100
AcDbEntity
  8
BEMA_UNG
 62
     7
100
AcDbVertex
100
AcDb2dVertex
 10
72.87139679595722
 20
-30.13685391220936
 30
0.0
  0
SEQEND
  5
484
330
481
100
AcDbEntity
  8
BEMA_UNG
  0
POLYLINE
  5
485
330
1F
100
AcDbEntity
  8
BEMA_UNG
 62
     7
100
AcDb2dPolyline
 66
     1
 10
0.0
 20
0.0
 30
0.0
  0
VERTEX
  5
486
330
485
100
AcDbEntity
  8
BEMA_UNG
 62
     7
100
AcDbVertex
100
AcDb2dVertex
 10
5.107012916402407
 20
-85.13697834362823
 30
0.0
  0
VERTEX
  5
487
330
485
100
AcDbEntity
  8
BEMA_UNG
 62
     7
100
AcDbVertex
100
AcDb2dVertex
 10
-12.12054293206081
 20
-85.13697834362823
 30
0.0
  0
SEQEND
  5
488
330
485
100
AcDbEntity
  8
BEMA_UNG
  0
POLYLINE
  5
489
330
1F
100
AcDbEntity
  8
BEMA_UNG
 62
     7
100
AcDb2dPolyline
 66
     1
 10
0.0
 20
0.0
 30
0.0
  0
VERTEX
  5
48A
330
489
100
AcDbEntity
  8
BEMA_UNG
 62
     7
100
AcDbVertex
100
AcDb2dVertex
 10
1.106909909633091
 20
-0.1371148907668752
 30
0.0
  0
VERTEX
  5
48B
330
489
100
AcDbEntity
  8
BEMA_UNG
 62
     7
100
AcDbVertex
100
AcDb2dVertex
 10
-12.12054293206081
 20
-0.1371148907668752
 30
0.0
  0
SEQEND
  5
48C
330
489
100
AcDbEntity
  8
BEMA_UNG
  0
POLYLINE
  5
48D
330
1F
100
AcDbEntity
  8
BEMA_UNG
 62
     7
100
AcDb2dPolyline
 66
     1
 10
0.0
 20
0.0
 30
0.0
  0
VERTEX
  5
48E
330
48D
100
AcDbEntity
  8
BEMA_UNG
 62
     7
100
AcDbVertex
100
AcDb2dVertex
 10
-10.12083593845195
 20
-85.13697834362823
 30
0.0
  0
VERTEX
  5
48F
330
48D
100
AcDbEntity
  8
BEMA_UNG
 62
     7
100
AcDbVertex
100
AcDb2dVertex
 10
-10.12083593845195
 20
-0.1371148907668752
 30
0.0
  0
SEQEND
  5
490
330
48D
100
AcDbEntity
  8
BEMA_UNG
  0
POLYLINE
  5
491
330
1F
100
AcDbEntity
  8
BEMA_UNG
 62
     7
100
AcDb2dPolyline
 66
     1
 10
0.0
 20
0.0
 30
0.0
  0
VERTEX
  5
492
330
491
100
AcDbEntity
  8
BEMA_UNG
 62
     7
100
AcDbVertex
100
AcDb2dVertex
 10
-10.12083593845195
 20
-85.13697834362823
 30
0.0
  0
VERTEX
  5
493
330
491
100
AcDbEntity
  8
BEMA_UNG
 62
     7
100
AcDbVertex
100
AcDb2dVertex
 10
-9.660226368212472
 20
-81.63658676665125
 30
0.0
  0
VERTEX
  5
494
330
491
100
AcDbEntity
  8
BEMA_UNG
 62
     7
100
AcDbVertex
100
AcDb2dVertex
 10
-10.58196227335512
 20
-81.63658676665125
 30
0.0
  0
VERTEX
  5
495
330
491
100
AcDbEntity
  8
BEMA_UNG
 62
     7
100
AcDbVertex
100
AcDb2dVertex
 10
-10.12083593845195
 20
-85.13697834362823
 30
0.0
  0
SEQEND
  5
496
330
491
100
AcDbEntity
  8
BEMA_UNG
  0
POLYLINE
  5
497
330
1F
100
AcDbEntity
  8
BEMA_UNG
 62
     7
100
AcDb2dPolyline
 66
     1
 10
0.0
 20
0.0
 30
0.0
  0
VERTEX
  5
498
330
497
100
AcDbEntity
  8
BEMA_UNG
 62
     7
100
AcDbVertex
100
AcDb2dVertex
 10
-9.664188230634128
 20
-81.63658676665125
 30
0.0
  0
VERTEX
  5
499
330
497
100
AcDbEntity
  8
BEMA_UNG
 62
     7
100
AcDbVertex
100
AcDb2dVertex
 10
-9.664188230634128
 20
-81.66380303893915
 30
0.0
  0
SEQEND
  5
49A
330
497
100
AcDbEntity
  8
BEMA_UNG
  0
POLYLINE
  5
49B
330
1F
100
AcDbEntity
  8
BEMA_UNG
 62
     7
100
AcDb2dPolyline
 66
     1
 10
0.0
 20
0.0
 30
0.0
  0
VERTEX
  5
49C
330
49B
100
AcDbEntity
  8
BEMA_UNG
 62
     7
100
AcDbVertex
100
AcDb2dVertex
 10
-9.664188230634128
 20
-81.63658676665125
 30
0.0
  0
VERTEX
  5
49D
330
49B
100
AcDbEntity
  8
BEMA_UNG
 62
     7
100
AcDbVertex
100
AcDb2dVertex
 10
-9.664188230634128
 20
-81.66380303893915
 30
0.0
  0
SEQEND
  5
49E
330
49B
100
AcDbEntity
  8
BEMA_UNG
  0
POLYLINE
  5
49F
330
1F
100
AcDbEntity
  8
BEMA_UNG
 62
     7
100
AcDb2dPolyline
 66
     1
 10
0.0
 20
0.0
 30
0.0
  0
VERTEX
  5
4A0
330
49F
100
AcDbEntity
  8
BEMA_UNG
 62
     7
100
AcDbVertex
100
AcDb2dVertex
 10
-9.714658912788268
 20
-81.63658676665125
 30
0.0
  0
VERTEX
  5
4A1
330
49F
100
AcDbEntity
  8
BEMA_UNG
 62
     7
100
AcDbVertex
100
AcDb2dVertex
 10
-9.714658912788268
 20
-82.04965398783087
 30
0.0
  0
SEQEND
  5
4A2
330
49F
100
AcDbEntity
  8
BEMA_UNG
  0
POLYLINE
  5
4A3
330
1F
100
AcDbEntity
  8
BEMA_UNG
 62
     7
100
AcDb2dPolyline
 66
     1
 10
0.0
 20
0.0
 30
0.0
  0
VERTEX
  5
4A4
330
4A3
100
AcDbEntity
  8
BEMA_UNG
 62
     7
100
AcDbVertex
100
AcDb2dVertex
 10
-9.765129594942406
 20
-81.63658676665125
 30
0.0
  0
VERTEX
  5
4A5
330
4A3
100
AcDbEntity
  8
BEMA_UNG
 62
     7
100
AcDbVertex
100
AcDb2dVertex
 10
-9.765129594942406
 20
-82.43584944649837
 30
0.0
  0
SEQEND
  5
4A6
330
4A3
100
AcDbEntity
  8
BEMA_UNG
  0
POLYLINE
  5
4A7
330
1F
100
AcDbEntity
  8
BEMA_UNG
 62
     7
100
AcDb2dPolyline
 66
     1
 10
0.0
 20
0.0
 30
0.0
  0
VERTEX
  5
4A8
330
4A7
100
AcDbEntity
  8
BEMA_UNG
 62
     7
100
AcDbVertex
100
AcDb2dVertex
 10
-9.816289296648137
 20
-81.63658676665125
 30
0.0
  0
VERTEX
  5
4A9
330
4A7
100
AcDbEntity
  8
BEMA_UNG
 62
     7
100
AcDbVertex
100
AcDb2dVertex
 10
-9.816289296648137
 20
-82.82135588561428
 30
0.0
  0
SEQEND
  5
4AA
330
4A7
100
AcDbEntity
  8
BEMA_UNG
  0
POLYLINE
  5
4AB
330
1F
100
AcDbEntity
  8
BEMA_UNG
 62
     7
100
AcDb2dPolyline
 66
     1
 10
0.0
 20
0.0
 30
0.0
  0
VERTEX
  5
4AC
330
4AB
100
AcDbEntity
  8
BEMA_UNG
 62
     7
100
AcDbVertex
100
AcDb2dVertex
 10
-9.866759978802277
 20
-81.63658676665125
 30
0.0
  0
VERTEX
  5
4AD
330
4AB
100
AcDbEntity
  8
BEMA_UNG
 62
     7
100
AcDbVertex
100
AcDb2dVertex
 10
-9.866759978802277
 20
-83.20772359916968
 30
0.0
  0
SEQEND
  5
4AE
330
4AB
100
AcDbEntity
  8
BEMA_UNG
  0
POLYLINE
  5
4AF
330
1F
100
AcDbEntity
  8
BEMA_UNG
 62
     7
100
AcDb2dPolyline
 66
     1
 10
0.0
 20
0.0
 30
0.0
  0
VERTEX
  5
4B0
330
4AF
100
AcDbEntity
  8
BEMA_UNG
 62
     7
100
AcDbVertex
100
AcDb2dVertex
 10
-9.917919680508007
 20
-81.63658676665125
 30
0.0
  0
VERTEX
  5
4B1
330
4AF
100
AcDbEntity
  8
BEMA_UNG
 62
     7
100
AcDbVertex
100
AcDb2dVertex
 10
-9.917919680508007
 20
-83.5930577833977
 30
0.0
  0
SEQEND
  5
4B2
330
4AF
100
AcDbEntity
  8
BEMA_UNG
  0
POLYLINE
  5
4B3
330
1F
100
AcDbEntity
  8
BEMA_UNG
 62
     7
100
AcDb2dPolyline
 66
     1
 10
0.0
 20
0.0
 30
0.0
  0
VERTEX
  5
4B4
330
4B3
100
AcDbEntity
  8
BEMA_UNG
 62
     7
100
AcDbVertex
100
AcDb2dVertex
 10
-9.968390362662145
 20
-81.63658676665125
 30
0.0
  0
VERTEX
  5
4B5
330
4B3
100
AcDbEntity
  8
BEMA_UNG
 62
     7
100
AcDbVertex
100
AcDb2dVertex
 10
-9.968390362662145
 20
-83.9789087322894
 30
0.0
  0
SEQEND
  5
4B6
330
4B3
100
AcDbEntity
  8
BEMA_UNG
  0
POLYLINE
  5
4B7
330
1F
100
AcDbEntity
  8
BEMA_UNG
 62
     7
100
AcDb2dPolyline
 66
     1
 10
0.0
 20
0.0
 30
0.0
  0
VERTEX
  5
4B8
330
4B7
100
AcDbEntity
  8
BEMA_UNG
 62
     7
100
AcDbVertex
100
AcDb2dVertex
 10
-10.01955006436788
 20
-81.63658676665125
 30
0.0
  0
VERTEX
  5
4B9
330
4B7
100
AcDbEntity
  8
BEMA_UNG
 62
     7
100
AcDbVertex
100
AcDb2dVertex
 10
-10.01955006436788
 20
-84.36475968118111
 30
0.0
  0
SEQEND
  5
4BA
330
4B7
100
AcDbEntity
  8
BEMA_UNG
  0
POLYLINE
  5
4BB
330
1F
100
AcDbEntity
  8
BEMA_UNG
 62
     7
100
AcDb2dPolyline
 66
     1
 10
0.0
 20
0.0
 30
0.0
  0
VERTEX
  5
4BC
330
4BB
100
AcDbEntity
  8
BEMA_UNG
 62
     7
100
AcDbVertex
100
AcDb2dVertex
 10
-10.07002074652202
 20
-81.63658676665125
 30
0.0
  0
VERTEX
  5
4BD
330
4BB
100
AcDbEntity
  8
BEMA_UNG
 62
     7
100
AcDbVertex
100
AcDb2dVertex
 10
-10.07002074652202
 20
-84.75061063007283
 30
0.0
  0
SEQEND
  5
4BE
330
4BB
100
AcDbEntity
  8
BEMA_UNG
  0
POLYLINE
  5
4BF
330
1F
100
AcDbEntity
  8
BEMA_UNG
 62
     7
100
AcDb2dPolyline
 66
     1
 10
0.0
 20
0.0
 30
0.0
  0
VERTEX
  5
4C0
330
4BF
100
AcDbEntity
  8
BEMA_UNG
 62
     7
100
AcDbVertex
100
AcDb2dVertex
 10
-10.12083593845195
 20
-81.63658676665125
 30
0.0
  0
VERTEX
  5
4C1
330
4BF
100
AcDbEntity
  8
BEMA_UNG
 62
     7
100
AcDbVertex
100
AcDb2dVertex
 10
-10.12083593845195
 20
-85.13697834362823
 30
0.0
  0
SEQEND
  5
4C2
330
4BF
100
AcDbEntity
  8
BEMA_UNG
  0
POLYLINE
  5
4C3
330
1F
100
AcDbEntity
  8
BEMA_UNG
 62
     7
100
AcDb2dPolyline
 66
     1
 10
0.0
 20
0.0
 30
0.0
  0
VERTEX
  5
4C4
330
4C3
100
AcDbEntity
  8
BEMA_UNG
 62
     7
100
AcDbVertex
100
AcDb2dVertex
 10
-10.57851717559716
 20
-81.63658676665125
 30
0.0
  0
VERTEX
  5
4C5
330
4C3
100
AcDbEntity
  8
BEMA_UNG
 62
     7
100
AcDbVertex
100
AcDb2dVertex
 10
-10.57851717559716
 20
-81.66380303893915
 30
0.0
  0
SEQEND
  5
4C6
330
4C3
100
AcDbEntity
  8
BEMA_UNG
  0
POLYLINE
  5
4C7
330
1F
100
AcDbEntity
  8
BEMA_UNG
 62
     7
100
AcDb2dPolyline
 66
     1
 10
0.0
 20
0.0
 30
0.0
  0
VERTEX
  5
4C8
330
4C7
100
AcDbEntity
  8
BEMA_UNG
 62
     7
100
AcDbVertex
100
AcDb2dVertex
 10
-10.57851717559716
 20
-81.63658676665125
 30
0.0
  0
VERTEX
  5
4C9
330
4C7
100
AcDbEntity
  8
BEMA_UNG
 62
     7
100
AcDbVertex
100
AcDb2dVertex
 10
-10.57851717559716
 20
-81.66380303893915
 30
0.0
  0
SEQEND
  5
4CA
330
4C7
100
AcDbEntity
  8
BEMA_UNG
  0
POLYLINE
  5
4CB
330
1F
100
AcDbEntity
  8
BEMA_UNG
 62
     7
100
AcDb2dPolyline
 66
     1
 10
0.0
 20
0.0
 30
0.0
  0
VERTEX
  5
4CC
330
4CB
100
AcDbEntity
  8
BEMA_UNG
 62
     7
100
AcDbVertex
100
AcDb2dVertex
 10
-10.52787423855512
 20
-81.63658676665125
 30
0.0
  0
VERTEX
  5
4CD
330
4CB
100
AcDbEntity
  8
BEMA_UNG
 62
     7
100
AcDbVertex
100
AcDb2dVertex
 10
-10.52787423855512
 20
-82.04965398783087
 30
0.0
  0
SEQEND
  5
4CE
330
4CB
100
AcDbEntity
  8
BEMA_UNG
  0
POLYLINE
  5
4CF
330
1F
100
AcDbEntity
  8
BEMA_UNG
 62
     7
100
AcDb2dPolyline
 66
     1
 10
0.0
 20
0.0
 30
0.0
  0
VERTEX
  5
4D0
330
4CF
100
AcDbEntity
  8
BEMA_UNG
 62
     7
100
AcDbVertex
100
AcDb2dVertex
 10
-10.47671453684939
 20
-81.63658676665125
 30
0.0
  0
VERTEX
  5
4D1
330
4CF
100
AcDbEntity
  8
BEMA_UNG
 62
     7
100
AcDbVertex
100
AcDb2dVertex
 10
-10.47671453684939
 20
-82.43584944649837
 30
0.0
  0
SEQEND
  5
4D2
330
4CF
100
AcDbEntity
  8
BEMA_UNG
  0
POLYLINE
  5
4D3
330
1F
100
AcDbEntity
  8
BEMA_UNG
 62
     7
100
AcDb2dPolyline
 66
     1
 10
0.0
 20
0.0
 30
0.0
  0
VERTEX
  5
4D4
330
4D3
100
AcDbEntity
  8
BEMA_UNG
 62
     7
100
AcDbVertex
100
AcDb2dVertex
 10
-10.42607159980736
 20
-81.63658676665125
 30
0.0
  0
VERTEX
  5
4D5
330
4D3
100
AcDbEntity
  8
BEMA_UNG
 62
     7
100
AcDbVertex
100
AcDb2dVertex
 10
-10.42607159980736
 20
-82.82135588561428
 30
0.0
  0
SEQEND
  5
4D6
330
4D3
100
AcDbEntity
  8
BEMA_UNG
  0
POLYLINE
  5
4D7
330
1F
100
AcDbEntity
  8
BEMA_UNG
 62
     7
100
AcDb2dPolyline
 66
     1
 10
0.0
 20
0.0
 30
0.0
  0
VERTEX
  5
4D8
330
4D7
100
AcDbEntity
  8
BEMA_UNG
 62
     7
100
AcDbVertex
100
AcDb2dVertex
 10
-10.37491189810162
 20
-81.63658676665125
 30
0.0
  0
VERTEX
  5
4D9
330
4D7
100
AcDbEntity
  8
BEMA_UNG
 62
     7
100
AcDbVertex
100
AcDb2dVertex
 10
-10.37491189810162
 20
-83.20772359916968
 30
0.0
  0
SEQEND
  5
4DA
330
4D7
100
AcDbEntity
  8
BEMA_UNG
  0
POLYLINE
  5
4DB
330
1F
100
AcDbEntity
  8
BEMA_UNG
 62
     7
100
AcDb2dPolyline
 66
     1
 10
0.0
 20
0.0
 30
0.0
  0
VERTEX
  5
4DC
330
4DB
100
AcDbEntity
  8
BEMA_UNG
 62
     7
100
AcDbVertex
100
AcDb2dVertex
 10
-10.32461347083538
 20
-81.63658676665125
 30
0.0
  0
VERTEX
  5
4DD
330
4DB
100
AcDbEntity
  8
BEMA_UNG
 62
     7
100
AcDbVertex
100
AcDb2dVertex
 10
-10.32461347083538
 20
-83.5930577833977
 30
0.0
  0
SEQEND
  5
4DE
330
4DB
100
AcDbEntity
  8
BEMA_UNG
  0
POLYLINE
  5
4DF
330
1F
100
AcDbEntity
  8
BEMA_UNG
 62
     7
100
AcDb2dPolyline
 66
     1
 10
0.0
 20
0.0
 30
0.0
  0
VERTEX
  5
4E0
330
4DF
100
AcDbEntity
  8
BEMA_UNG
 62
     7
100
AcDbVertex
100
AcDb2dVertex
 10
-10.27345376912965
 20
-81.63658676665125
 30
0.0
  0
VERTEX
  5
4E1
330
4DF
100
AcDbEntity
  8
BEMA_UNG
 62
     7
100
AcDbVertex
100
AcDb2dVertex
 10
-10.27345376912965
 20
-83.9789087322894
 30
0.0
  0
SEQEND
  5
4E2
330
4DF
100
AcDbEntity
  8
BEMA_UNG
  0
POLYLINE
  5
4E3
330
1F
100
AcDbEntity
  8
BEMA_UNG
 62
     7
100
AcDb2dPolyline
 66
     1
 10
0.0
 20
0.0
 30
0.0
  0
VERTEX
  5
4E4
330
4E3
100
AcDbEntity
  8
BEMA_UNG
 62
     7
100
AcDbVertex
100
AcDb2dVertex
 10
-10.22281083208762
 20
-81.63658676665125
 30
0.0
  0
VERTEX
  5
4E5
330
4E3
100
AcDbEntity
  8
BEMA_UNG
 62
     7
100
AcDbVertex
100
AcDb2dVertex
 10
-10.22281083208762
 20
-84.36475968118111
 30
0.0
  0
SEQEND
  5
4E6
330
4E3
100
AcDbEntity
  8
BEMA_UNG
  0
POLYLINE
  5
4E7
330
1F
100
AcDbEntity
  8
BEMA_UNG
 62
     7
100
AcDb2dPolyline
 66
     1
 10
0.0
 20
0.0
 30
0.0
  0
VERTEX
  5
4E8
330
4E7
100
AcDbEntity
  8
BEMA_UNG
 62
     7
100
AcDbVertex
100
AcDb2dVertex
 10
-10.17147887549399
 20
-81.63658676665125
 30
0.0
  0
VERTEX
  5
4E9
330
4E7
100
AcDbEntity
  8
BEMA_UNG
 62
     7
100
AcDbVertex
100
AcDb2dVertex
 10
-10.17147887549399
 20
-84.75061063007283
 30
0.0
  0
SEQEND
  5
4EA
330
4E7
100
AcDbEntity
  8
BEMA_UNG
  0
POLYLINE
  5
4EB
330
1F
100
AcDbEntity
  8
BEMA_UNG
 62
     7
100
AcDb2dPolyline
 66
     1
 10
0.0
 20
0.0
 30
0.0
  0
VERTEX
  5
4EC
330
4EB
100
AcDbEntity
  8
BEMA_UNG
 62
     7
100
AcDbVertex
100
AcDb2dVertex
 10
-10.12083593845195
 20
-81.63658676665125
 30
0.0
  0
VERTEX
  5
4ED
330
4EB
100
AcDbEntity
  8
BEMA_UNG
 62
     7
100
AcDbVertex
100
AcDb2dVertex
 10
-10.12083593845195
 20
-85.13697834362823
 30
0.0
  0
SEQEND
  5
4EE
330
4EB
100
AcDbEntity
  8
BEMA_UNG
  0
POLYLINE
  5
4EF
330
1F
100
AcDbEntity
  8
BEMA_UNG
 62
     7
100
AcDb2dPolyline
 66
     1
 10
0.0
 20
0.0
 30
0.0
  0
VERTEX
  5
4F0
330
4EF
100
AcDbEntity
  8
BEMA_UNG
 62
     7
100
AcDbVertex
100
AcDb2dVertex
 10
-10.12083593845195
 20
-0.1371148907668752
 30
0.0
  0
VERTEX
  5
4F1
330
4EF
100
AcDbEntity
  8
BEMA_UNG
 62
     7
100
AcDbVertex
100
AcDb2dVertex
 10
-10.58196227335512
 20
-3.636645193304358
 30
0.0
  0
VERTEX
  5
4F2
330
4EF
100
AcDbEntity
  8
BEMA_UNG
 62
     7
100
AcDbVertex
100
AcDb2dVertex
 10
-9.660226368212472
 20
-3.636645193304358
 30
0.0
  0
VERTEX
  5
4F3
330
4EF
100
AcDbEntity
  8
BEMA_UNG
 62
     7
100
AcDbVertex
100
AcDb2dVertex
 10
-10.12083593845195
 20
-0.1371148907668752
 30
0.0
  0
SEQEND
  5
4F4
330
4EF
100
AcDbEntity
  8
BEMA_UNG
  0
POLYLINE
  5
4F5
330
1F
100
AcDbEntity
  8
BEMA_UNG
 62
     7
100
AcDb2dPolyline
 66
     1
 10
0.0
 20
0.0
 30
0.0
  0
VERTEX
  5
4F6
330
4F5
100
AcDbEntity
  8
BEMA_UNG
 62
     7
100
AcDbVertex
100
AcDb2dVertex
 10
-10.57851717559716
 20
-3.636645193304358
 30
0.0
  0
VERTEX
  5
4F7
330
4F5
100
AcDbEntity
  8
BEMA_UNG
 62
     7
100
AcDbVertex
100
AcDb2dVertex
 10
-10.57851717559716
 20
-3.609428921016461
 30
0.0
  0
SEQEND
  5
4F8
330
4F5
100
AcDbEntity
  8
BEMA_UNG
  0
POLYLINE
  5
4F9
330
1F
100
AcDbEntity
  8
BEMA_UNG
 62
     7
100
AcDb2dPolyline
 66
     1
 10
0.0
 20
0.0
 30
0.0
  0
VERTEX
  5
4FA
330
4F9
100
AcDbEntity
  8
BEMA_UNG
 62
     7
100
AcDbVertex
100
AcDb2dVertex
 10
-10.57851717559716
 20
-3.636645193304358
 30
0.0
  0
VERTEX
  5
4FB
330
4F9
100
AcDbEntity
  8
BEMA_UNG
 62
     7
100
AcDbVertex
100
AcDb2dVertex
 10
-10.57851717559716
 20
-3.609428921016461
 30
0.0
  0
SEQEND
  5
4FC
330
4F9
100
AcDbEntity
  8
BEMA_UNG
  0
POLYLINE
  5
4FD
330
1F
100
AcDbEntity
  8
BEMA_UNG
 62
     7
100
AcDb2dPolyline
 66
     1
 10
0.0
 20
0.0
 30
0.0
  0
VERTEX
  5
4FE
330
4FD
100
AcDbEntity
  8
BEMA_UNG
 62
     7
100
AcDbVertex
100
AcDb2dVertex
 10
-10.52787423855512
 20
-3.636645193304358
 30
0.0
  0
VERTEX
  5
4FF
330
4FD
100
AcDbEntity
  8
BEMA_UNG
 62
     7
100
AcDbVertex
100
AcDb2dVertex
 10
-10.52787423855512
 20
-3.22375022701265
 30
0.0
  0
SEQEND
  5
500
330
4FD
100
AcDbEntity
  8
BEMA_UNG
  0
POLYLINE
  5
501
330
1F
100
AcDbEntity
  8
BEMA_UNG
 62
     7
100
AcDb2dPolyline
 66
     1
 10
0.0
 20
0.0
 30
0.0
  0
VERTEX
  5
502
330
501
100
AcDbEntity
  8
BEMA_UNG
 62
     7
100
AcDbVertex
100
AcDb2dVertex
 10
-10.47671453684939
 20
-3.636645193304358
 30
0.0
  0
VERTEX
  5
503
330
501
100
AcDbEntity
  8
BEMA_UNG
 62
     7
100
AcDbVertex
100
AcDb2dVertex
 10
-10.47671453684939
 20
-2.837727023233043
 30
0.0
  0
SEQEND
  5
504
330
501
100
AcDbEntity
  8
BEMA_UNG
  0
POLYLINE
  5
505
330
1F
100
AcDbEntity
  8
BEMA_UNG
 62
     7
100
AcDb2dPolyline
 66
     1
 10
0.0
 20
0.0
 30
0.0
  0
VERTEX
  5
506
330
505
100
AcDbEntity
  8
BEMA_UNG
 62
     7
100
AcDbVertex
100
AcDb2dVertex
 10
-10.42607159980736
 20
-3.636645193304358
 30
0.0
  0
VERTEX
  5
507
330
505
100
AcDbEntity
  8
BEMA_UNG
 62
     7
100
AcDbVertex
100
AcDb2dVertex
 10
-10.42607159980736
 20
-2.452048329229232
 30
0.0
  0
SEQEND
  5
508
330
505
100
AcDbEntity
  8
BEMA_UNG
  0
POLYLINE
  5
509
330
1F
100
AcDbEntity
  8
BEMA_UNG
 62
     7
100
AcDb2dPolyline
 66
     1
 10
0.0
 20
0.0
 30
0.0
  0
VERTEX
  5
50A
330
509
100
AcDbEntity
  8
BEMA_UNG
 62
     7
100
AcDbVertex
100
AcDb2dVertex
 10
-10.37491189810162
 20
-3.636645193304358
 30
0.0
  0
VERTEX
  5
50B
330
509
100
AcDbEntity
  8
BEMA_UNG
 62
     7
100
AcDbVertex
100
AcDb2dVertex
 10
-10.37491189810162
 20
-2.066025125449625
 30
0.0
  0
SEQEND
  5
50C
330
509
100
AcDbEntity
  8
BEMA_UNG
  0
POLYLINE
  5
50D
330
1F
100
AcDbEntity
  8
BEMA_UNG
 62
     7
100
AcDb2dPolyline
 66
     1
 10
0.0
 20
0.0
 30
0.0
  0
VERTEX
  5
50E
330
50D
100
AcDbEntity
  8
BEMA_UNG
 62
     7
100
AcDbVertex
100
AcDb2dVertex
 10
-10.32461347083538
 20
-3.636645193304358
 30
0.0
  0
VERTEX
  5
50F
330
50D
100
AcDbEntity
  8
BEMA_UNG
 62
     7
100
AcDbVertex
100
AcDb2dVertex
 10
-10.32461347083538
 20
-1.680346431445814
 30
0.0
  0
SEQEND
  5
510
330
50D
100
AcDbEntity
  8
BEMA_UNG
  0
POLYLINE
  5
511
330
1F
100
AcDbEntity
  8
BEMA_UNG
 62
     7
100
AcDb2dPolyline
 66
     1
 10
0.0
 20
0.0
 30
0.0
  0
VERTEX
  5
512
330
511
100
AcDbEntity
  8
BEMA_UNG
 62
     7
100
AcDbVertex
100
AcDb2dVertex
 10
-10.27345376912965
 20
-3.636645193304358
 30
0.0
  0
VERTEX
  5
513
330
511
100
AcDbEntity
  8
BEMA_UNG
 62
     7
100
AcDbVertex
100
AcDb2dVertex
 10
-10.27345376912965
 20
-1.294323227666206
 30
0.0
  0
SEQEND
  5
514
330
511
100
AcDbEntity
  8
BEMA_UNG
  0
POLYLINE
  5
515
330
1F
100
AcDbEntity
  8
BEMA_UNG
 62
     7
100
AcDb2dPolyline
 66
     1
 10
0.0
 20
0.0
 30
0.0
  0
VERTEX
  5
516
330
515
100
AcDbEntity
  8
BEMA_UNG
 62
     7
100
AcDbVertex
100
AcDb2dVertex
 10
-10.22281083208762
 20
-3.636645193304358
 30
0.0
  0
VERTEX
  5
517
330
515
100
AcDbEntity
  8
BEMA_UNG
 62
     7
100
AcDbVertex
100
AcDb2dVertex
 10
-10.22281083208762
 20
-0.9086445336623953
 30
0.0
  0
SEQEND
  5
518
330
515
100
AcDbEntity
  8
BEMA_UNG
  0
POLYLINE
  5
519
330
1F
100
AcDbEntity
  8
BEMA_UNG
 62
     7
100
AcDb2dPolyline
 66
     1
 10
0.0
 20
0.0
 30
0.0
  0
VERTEX
  5
51A
330
519
100
AcDbEntity
  8
BEMA_UNG
 62
     7
100
AcDbVertex
100
AcDb2dVertex
 10
-10.17147887549399
 20
-3.636645193304358
 30
0.0
  0
VERTEX
  5
51B
330
519
100
AcDbEntity
  8
BEMA_UNG
 62
     7
100
AcDbVertex
100
AcDb2dVertex
 10
-10.17147887549399
 20
-0.5226213298827881
 30
0.0
  0
SEQEND
  5
51C
330
519
100
AcDbEntity
  8
BEMA_UNG
  0
POLYLINE
  5
51D
330
1F
100
AcDbEntity
  8
BEMA_UNG
 62
     7
100
AcDb2dPolyline
 66
     1
 10
0.0
 20
0.0
 30
0.0
  0
VERTEX
  5
51E
330
51D
100
AcDbEntity
  8
BEMA_UNG
 62
     7
100
AcDbVertex
100
AcDb2dVertex
 10
-10.12083593845195
 20
-3.636645193304358
 30
0.0
  0
VERTEX
  5
51F
330
51D
100
AcDbEntity
  8
BEMA_UNG
 62
     7
100
AcDbVertex
100
AcDb2dVertex
 10
-10.12083593845195
 20
-0.1371148907668752
 30
0.0
  0
SEQEND
  5
520
330
51D
100
AcDbEntity
  8
BEMA_UNG
  0
POLYLINE
  5
521
330
1F
100
AcDbEntity
  8
BEMA_UNG
 62
     7
100
AcDb2dPolyline
 66
     1
 10
0.0
 20
0.0
 30
0.0
  0
VERTEX
  5
522
330
521
100
AcDbEntity
  8
BEMA_UNG
 62
     7
100
AcDbVertex
100
AcDb2dVertex
 10
-9.664188230634128
 20
-3.636645193304358
 30
0.0
  0
VERTEX
  5
523
330
521
100
AcDbEntity
  8
BEMA_UNG
 62
     7
100
AcDbVertex
100
AcDb2dVertex
 10
-9.664188230634128
 20
-3.609428921016461
 30
0.0
  0
SEQEND
  5
524
330
521
100
AcDbEntity
  8
BEMA_UNG
  0
POLYLINE
  5
525
330
1F
100
AcDbEntity
  8
BEMA_UNG
 62
     7
100
AcDb2dPolyline
 66
     1
 10
0.0
 20
0.0
 30
0.0
  0
VERTEX
  5
526
330
525
100
AcDbEntity
  8
BEMA_UNG
 62
     7
100
AcDbVertex
100
AcDb2dVertex
 10
-9.664188230634128
 20
-3.636645193304358
 30
0.0
  0
VERTEX
  5
527
330
525
100
AcDbEntity
  8
BEMA_UNG
 62
     7
100
AcDbVertex
100
AcDb2dVertex
 10
-9.664188230634128
 20
-3.609428921016461
 30
0.0
  0
SEQEND
  5
528
330
525
100
AcDbEntity
  8
BEMA_UNG
  0
POLYLINE
  5
529
330
1F
100
AcDbEntity
  8
BEMA_UNG
 62
     7
100
AcDb2dPolyline
 66
     1
 10
0.0
 20
0.0
 30
0.0
  0
VERTEX
  5
52A
330
529
100
AcDbEntity
  8
BEMA_UNG
 62
     7
100
AcDbVertex
100
AcDb2dVertex
 10
-9.714658912788268
 20
-3.636645193304358
 30
0.0
  0
VERTEX
  5
52B
330
529
100
AcDbEntity
  8
BEMA_UNG
 62
     7
100
AcDbVertex
100
AcDb2dVertex
 10
-9.714658912788268
 20
-3.22375022701265
 30
0.0
  0
SEQEND
  5
52C
330
529
100
AcDbEntity
  8
BEMA_UNG
  0
POLYLINE
  5
52D
330
1F
100
AcDbEntity
  8
BEMA_UNG
 62
     7
100
AcDb2dPolyline
 66
     1
 10
0.0
 20
0.0
 30
0.0
  0
VERTEX
  5
52E
330
52D
100
AcDbEntity
  8
BEMA_UNG
 62
     7
100
AcDbVertex
100
AcDb2dVertex
 10
-9.765129594942406
 20
-3.636645193304358
 30
0.0
  0
VERTEX
  5
52F
330
52D
100
AcDbEntity
  8
BEMA_UNG
 62
     7
100
AcDbVertex
100
AcDb2dVertex
 10
-9.765129594942406
 20
-2.837727023233043
 30
0.0
  0
SEQEND
  5
530
330
52D
100
AcDbEntity
  8
BEMA_UNG
  0
POLYLINE
  5
531
330
1F
100
AcDbEntity
  8
BEMA_UNG
 62
     7
100
AcDb2dPolyline
 66
     1
 10
0.0
 20
0.0
 30
0.0
  0
VERTEX
  5
532
330
531
100
AcDbEntity
  8
BEMA_UNG
 62
     7
100
AcDbVertex
100
AcDb2dVertex
 10
-9.816289296648137
 20
-3.636645193304358
 30
0.0
  0
VERTEX
  5
533
330
531
100
AcDbEntity
  8
BEMA_UNG
 62
     7
100
AcDbVertex
100
AcDb2dVertex
 10
-9.816289296648137
 20
-2.452048329229232
 30
0.0
  0
SEQEND
  5
534
330
531
100
AcDbEntity
  8
BEMA_UNG
  0
POLYLINE
  5
535
330
1F
100
AcDbEntity
  8
BEMA_UNG
 62
     7
100
AcDb2dPolyline
 66
     1
 10
0.0
 20
0.0
 30
0.0
  0
VERTEX
  5
536
330
535
100
AcDbEntity
  8
BEMA_UNG
 62
     7
100
AcDbVertex
100
AcDb2dVertex
 10
-9.866759978802277
 20
-3.636645193304358
 30
0.0
  0
VERTEX
  5
537
330
535
100
AcDbEntity
  8
BEMA_UNG
 62
     7
100
AcDbVertex
100
AcDb2dVertex
 10
-9.866759978802277
 20
-2.066025125449625
 30
0.0
  0
SEQEND
  5
538
330
535
100
AcDbEntity
  8
BEMA_UNG
  0
POLYLINE
  5
539
330
1F
100
AcDbEntity
  8
BEMA_UNG
 62
     7
100
AcDb2dPolyline
 66
     1
 10
0.0
 20
0.0
 30
0.0
  0
VERTEX
  5
53A
330
539
100
AcDbEntity
  8
BEMA_UNG
 62
     7
100
AcDbVertex
100
AcDb2dVertex
 10
-9.917919680508007
 20
-3.636645193304358
 30
0.0
  0
VERTEX
  5
53B
330
539
100
AcDbEntity
  8
BEMA_UNG
 62
     7
100
AcDbVertex
100
AcDb2dVertex
 10
-9.917919680508007
 20
-1.680346431445814
 30
0.0
  0
SEQEND
  5
53C
330
539
100
AcDbEntity
  8
BEMA_UNG
  0
POLYLINE
  5
53D
330
1F
100
AcDbEntity
  8
BEMA_UNG
 62
     7
100
AcDb2dPolyline
 66
     1
 10
0.0
 20
0.0
 30
0.0
  0
VERTEX
  5
53E
330
53D
100
AcDbEntity
  8
BEMA_UNG
 62
     7
100
AcDbVertex
100
AcDb2dVertex
 10
-9.968390362662145
 20
-3.636645193304358
 30
0.0
  0
VERTEX
  5
53F
330
53D
100
AcDbEntity
  8
BEMA_UNG
 62
     7
100
AcDbVertex
100
AcDb2dVertex
 10
-9.968390362662145
 20
-1.294323227666206
 30
0.0
  0
SEQEND
  5
540
330
53D
100
AcDbEntity
  8
BEMA_UNG
  0
POLYLINE
  5
541
330
1F
100
AcDbEntity
  8
BEMA_UNG
 62
     7
100
AcDb2dPolyline
 66
     1
 10
0.0
 20
0.0
 30
0.0
  0
VERTEX
  5
542
330
541
100
AcDbEntity
  8
BEMA_UNG
 62
     7
100
AcDbVertex
100
AcDb2dVertex
 10
-10.01955006436788
 20
-3.636645193304358
 30
0.0
  0
VERTEX
  5
543
330
541
100
AcDbEntity
  8
BEMA_UNG
 62
     7
100
AcDbVertex
100
AcDb2dVertex
 10
-10.01955006436788
 20
-0.9086445336623953
 30
0.0
  0
SEQEND
  5
544
330
541
100
AcDbEntity
  8
BEMA_UNG
  0
POLYLINE
  5
545
330
1F
100
AcDbEntity
  8
BEMA_UNG
 62
     7
100
AcDb2dPolyline
 66
     1
 10
0.0
 20
0.0
 30
0.0
  0
VERTEX
  5
546
330
545
100
AcDbEntity
  8
BEMA_UNG
 62
     7
100
AcDbVertex
100
AcDb2dVertex
 10
-10.07002074652202
 20
-3.636645193304358
 30
0.0
  0
VERTEX
  5
547
330
545
100
AcDbEntity
  8
BEMA_UNG
 62
     7
100
AcDbVertex
100
AcDb2dVertex
 10
-10.07002074652202
 20
-0.5226213298827881
 30
0.0
  0
SEQEND
  5
548
330
545
100
AcDbEntity
  8
BEMA_UNG
  0
POLYLINE
  5
549
330
1F
100
AcDbEntity
  8
BEMA_UNG
 62
     7
100
AcDb2dPolyline
 66
     1
 10
0.0
 20
0.0
 30
0.0
  0
VERTEX
  5
54A
330
549
100
AcDbEntity
  8
BEMA_UNG
 62
     7
100
AcDbVertex
100
AcDb2dVertex
 10
-10.12083593845195
 20
-3.636645193304358
 30
0.0
  0
VERTEX
  5
54B
330
549
100
AcDbEntity
  8
BEMA_UNG
 62
     7
100
AcDbVertex
100
AcDb2dVertex
 10
-10.12083593845195
 20
-0.1371148907668752
 30
0.0
  0
SEQEND
  5
54C
330
549
100
AcDbEntity
  8
BEMA_UNG
  0
POLYLINE
  5
54D
330
1F
100
AcDbEntity
  8
BEMA_UNG
 62
     7
100
AcDb2dPolyline
 66
     1
 10
0.0
 20
0.0
 30
0.0
  0
VERTEX
  5
54E
330
54D
100
AcDbEntity
  8
BEMA_UNG
 62
     7
100
AcDbVertex
100
AcDb2dVertex
 10
0.1071425402726085
 20
-1.136710005239459
 30
0.0
  0
VERTEX
  5
54F
330
54D
100
AcDbEntity
  8
BEMA_UNG
 62
     7
100
AcDbVertex
100
AcDb2dVertex
 10
0.1071425402726085
 20
-107.3160009447219
 30
0.0
  0
SEQEND
  5
550
330
54D
100
AcDbEntity
  8
BEMA_UNG
  0
POLYLINE
  5
551
330
1F
100
AcDbEntity
  8
BEMA_UNG
 62
     7
100
AcDb2dPolyline
 66
     1
 10
0.0
 20
0.0
 30
0.0
  0
VERTEX
  5
552
330
551
100
AcDbEntity
  8
BEMA_UNG
 62
     7
100
AcDbVertex
100
AcDb2dVertex
 10
58.10691358954872
 20
-31.13644902668194
 30
0.0
  0
VERTEX
  5
553
330
551
100
AcDbEntity
  8
BEMA_UNG
 62
     7
100
AcDbVertex
100
AcDb2dVertex
 10
58.10691358954872
 20
-106.8402329443474
 30
0.0
  0
SEQEND
  5
554
330
551
100
AcDbEntity
  8
BEMA_UNG
  0
POLYLINE
  5
555
330
1F
100
AcDbEntity
  8
BEMA_UNG
 62
     7
100
AcDb2dPolyline
 66
     1
 10
0.0
 20
0.0
 30
0.0
  0
VERTEX
  5
556
330
555
100
AcDbEntity
  8
BEMA_UNG
 62
     7
100
AcDbVertex
100
AcDb2dVertex
 10
0.1071425402726085
 20
-104.953008392536
 30
0.0
  0
VERTEX
  5
557
330
555
100
AcDbEntity
  8
BEMA_UNG
 62
     7
100
AcDbVertex
100
AcDb2dVertex
 10
58.10691358954872
 20
-104.953008392536
 30
0.0
  0
SEQEND
  5
558
330
555
100
AcDbEntity
  8
BEMA_UNG
  0
POLYLINE
  5
559
330
1F
100
AcDbEntity
  8
BEMA_UNG
 62
     7
100
AcDb2dPolyline
 66
     1
 10
0.0
 20
0.0
 30
0.0
  0
VERTEX
  5
55A
330
559
100
AcDbEntity
  8
BEMA_UNG
 62
     7
100
AcDbVertex
100
AcDb2dVertex
 10
0.1071425402726085
 20
-104.953008392536
 30
0.0
  0
VERTEX
  5
55B
330
559
100
AcDbEntity
  8
BEMA_UNG
 62
     7
100
AcDbVertex
100
AcDb2dVertex
 10
3.607017352585888
 20
-105.4132734529996
 30
0.0
  0
VERTEX
  5
55C
330
559
100
AcDbEntity
  8
BEMA_UNG
 62
     7
100
AcDbVertex
100
AcDb2dVertex
 10
3.607017352585888
 20
-104.4920543125207
 30
0.0
  0
VERTEX
  5
55D
330
559
100
AcDbEntity
  8
BEMA_UNG
 62
     7
100
AcDbVertex
100
AcDb2dVertex
 10
0.1071425402726085
 20
-104.953008392536
 30
0.0
  0
SEQEND
  5
55E
330
559
100
AcDbEntity
  8
BEMA_UNG
  0
POLYLINE
  5
55F
330
1F
100
AcDbEntity
  8
BEMA_UNG
 62
     7
100
AcDb2dPolyline
 66
     1
 10
0.0
 20
0.0
 30
0.0
  0
VERTEX
  5
560
330
55F
100
AcDbEntity
  8
BEMA_UNG
 62
     7
100
AcDbVertex
100
AcDb2dVertex
 10
3.607017352585888
 20
-105.4098283552417
 30
0.0
  0
VERTEX
  5
561
330
55F
100
AcDbEntity
  8
BEMA_UNG
 62
     7
100
AcDbVertex
100
AcDb2dVertex
 10
3.57980108029799
 20
-105.4098283552417
 30
0.0
  0
SEQEND
  5
562
330
55F
100
AcDbEntity
  8
BEMA_UNG
  0
POLYLINE
  5
563
330
1F
100
AcDbEntity
  8
BEMA_UNG
 62
     7
100
AcDb2dPolyline
 66
     1
 10
0.0
 20
0.0
 30
0.0
  0
VERTEX
  5
564
330
563
100
AcDbEntity
  8
BEMA_UNG
 62
     7
100
AcDbVertex
100
AcDb2dVertex
 10
3.607017352585888
 20
-105.4098283552417
 30
0.0
  0
VERTEX
  5
565
330
563
100
AcDbEntity
  8
BEMA_UNG
 62
     7
100
AcDbVertex
100
AcDb2dVertex
 10
3.57980108029799
 20
-105.4098283552417
 30
0.0
  0
SEQEND
  5
566
330
563
100
AcDbEntity
  8
BEMA_UNG
  0
POLYLINE
  5
567
330
1F
100
AcDbEntity
  8
BEMA_UNG
 62
     7
100
AcDb2dPolyline
 66
     1
 10
0.0
 20
0.0
 30
0.0
  0
VERTEX
  5
568
330
567
100
AcDbEntity
  8
BEMA_UNG
 62
     7
100
AcDbVertex
100
AcDb2dVertex
 10
3.607017352585888
 20
-105.3588409084238
 30
0.0
  0
VERTEX
  5
569
330
567
100
AcDbEntity
  8
BEMA_UNG
 62
     7
100
AcDbVertex
100
AcDb2dVertex
 10
3.193950131406281
 20
-105.3588409084238
 30
0.0
  0
SEQEND
  5
56A
330
567
100
AcDbEntity
  8
BEMA_UNG
  0
POLYLINE
  5
56B
330
1F
100
AcDbEntity
  8
BEMA_UNG
 62
     7
100
AcDb2dPolyline
 66
     1
 10
0.0
 20
0.0
 30
0.0
  0
VERTEX
  5
56C
330
56B
100
AcDbEntity
  8
BEMA_UNG
 62
     7
100
AcDbVertex
100
AcDb2dVertex
 10
3.607017352585888
 20
-105.3081979713818
 30
0.0
  0
VERTEX
  5
56D
330
56B
100
AcDbEntity
  8
BEMA_UNG
 62
     7
100
AcDbVertex
100
AcDb2dVertex
 10
2.80827143740247
 20
-105.3081979713818
 30
0.0
  0
SEQEND
  5
56E
330
56B
100
AcDbEntity
  8
BEMA_UNG
  0
POLYLINE
  5
56F
330
1F
100
AcDbEntity
  8
BEMA_UNG
 62
     7
100
AcDb2dPolyline
 66
     1
 10
0.0
 20
0.0
 30
0.0
  0
VERTEX
  5
570
330
56F
100
AcDbEntity
  8
BEMA_UNG
 62
     7
100
AcDbVertex
100
AcDb2dVertex
 10
3.607017352585888
 20
-105.2575550343398
 30
0.0
  0
VERTEX
  5
571
330
56F
100
AcDbEntity
  8
BEMA_UNG
 62
     7
100
AcDbVertex
100
AcDb2dVertex
 10
2.422420488510761
 20
-105.2575550343398
 30
0.0
  0
SEQEND
  5
572
330
56F
100
AcDbEntity
  8
BEMA_UNG
  0
POLYLINE
  5
573
330
1F
100
AcDbEntity
  8
BEMA_UNG
 62
     7
100
AcDb2dPolyline
 66
     1
 10
0.0
 20
0.0
 30
0.0
  0
VERTEX
  5
574
330
573
100
AcDbEntity
  8
BEMA_UNG
 62
     7
100
AcDbVertex
100
AcDb2dVertex
 10
3.607017352585888
 20
-105.2065675875219
 30
0.0
  0
VERTEX
  5
575
330
573
100
AcDbEntity
  8
BEMA_UNG
 62
     7
100
AcDbVertex
100
AcDb2dVertex
 10
2.036052774955358
 20
-105.2065675875219
 30
0.0
  0
SEQEND
  5
576
330
573
100
AcDbEntity
  8
BEMA_UNG
  0
POLYLINE
  5
577
330
1F
100
AcDbEntity
  8
BEMA_UNG
 62
     7
100
AcDb2dPolyline
 66
     1
 10
0.0
 20
0.0
 30
0.0
  0
VERTEX
  5
578
330
577
100
AcDbEntity
  8
BEMA_UNG
 62
     7
100
AcDbVertex
100
AcDb2dVertex
 10
3.607017352585888
 20
-105.1559246504799
 30
0.0
  0
VERTEX
  5
579
330
577
100
AcDbEntity
  8
BEMA_UNG
 62
     7
100
AcDbVertex
100
AcDb2dVertex
 10
1.650718590727343
 20
-105.1559246504799
 30
0.0
  0
SEQEND
  5
57A
330
577
100
AcDbEntity
  8
BEMA_UNG
  0
POLYLINE
  5
57B
330
1F
100
AcDbEntity
  8
BEMA_UNG
 62
     7
100
AcDb2dPolyline
 66
     1
 10
0.0
 20
0.0
 30
0.0
  0
VERTEX
  5
57C
330
57B
100
AcDbEntity
  8
BEMA_UNG
 62
     7
100
AcDbVertex
100
AcDb2dVertex
 10
3.607017352585888
 20
-105.1049372036621
 30
0.0
  0
VERTEX
  5
57D
330
57B
100
AcDbEntity
  8
BEMA_UNG
 62
     7
100
AcDbVertex
100
AcDb2dVertex
 10
1.26435087717194
 20
-105.1049372036621
 30
0.0
  0
SEQEND
  5
57E
330
57B
100
AcDbEntity
  8
BEMA_UNG
  0
POLYLINE
  5
57F
330
1F
100
AcDbEntity
  8
BEMA_UNG
 62
     7
100
AcDb2dPolyline
 66
     1
 10
0.0
 20
0.0
 30
0.0
  0
VERTEX
  5
580
330
57F
100
AcDbEntity
  8
BEMA_UNG
 62
     7
100
AcDbVertex
100
AcDb2dVertex
 10
3.607017352585888
 20
-105.05429426662
 30
0.0
  0
VERTEX
  5
581
330
57F
100
AcDbEntity
  8
BEMA_UNG
 62
     7
100
AcDbVertex
100
AcDb2dVertex
 10
0.879361202719721
 20
-105.05429426662
 30
0.0
  0
SEQEND
  5
582
330
57F
100
AcDbEntity
  8
BEMA_UNG
  0
POLYLINE
  5
583
330
1F
100
AcDbEntity
  8
BEMA_UNG
 62
     7
100
AcDb2dPolyline
 66
     1
 10
0.0
 20
0.0
 30
0.0
  0
VERTEX
  5
584
330
583
100
AcDbEntity
  8
BEMA_UNG
 62
     7
100
AcDbVertex
100
AcDb2dVertex
 10
3.607017352585888
 20
-105.0033068198022
 30
0.0
  0
VERTEX
  5
585
330
583
100
AcDbEntity
  8
BEMA_UNG
 62
     7
100
AcDbVertex
100
AcDb2dVertex
 10
0.4929934891643176
 20
-105.0033068198022
 30
0.0
  0
SEQEND
  5
586
330
583
100
AcDbEntity
  8
BEMA_UNG
  0
POLYLINE
  5
587
330
1F
100
AcDbEntity
  8
BEMA_UNG
 62
     7
100
AcDb2dPolyline
 66
     1
 10
0.0
 20
0.0
 30
0.0
  0
VERTEX
  5
588
330
587
100
AcDbEntity
  8
BEMA_UNG
 62
     7
100
AcDbVertex
100
AcDb2dVertex
 10
3.607017352585888
 20
-104.953008392536
 30
0.0
  0
VERTEX
  5
589
330
587
100
AcDbEntity
  8
BEMA_UNG
 62
     7
100
AcDbVertex
100
AcDb2dVertex
 10
0.1071425402726085
 20
-104.953008392536
 30
0.0
  0
SEQEND
  5
58A
330
587
100
AcDbEntity
  8
BEMA_UNG
  0
POLYLINE
  5
58B
330
1F
100
AcDbEntity
  8
BEMA_UNG
 62
     7
100
AcDb2dPolyline
 66
     1
 10
0.0
 20
0.0
 30
0.0
  0
VERTEX
  5
58C
330
58B
100
AcDbEntity
  8
BEMA_UNG
 62
     7
100
AcDbVertex
100
AcDb2dVertex
 10
3.607017352585888
 20
-104.4958439200544
 30
0.0
  0
VERTEX
  5
58D
330
58B
100
AcDbEntity
  8
BEMA_UNG
 62
     7
100
AcDbVertex
100
AcDb2dVertex
 10
3.57980108029799
 20
-104.4958439200544
 30
0.0
  0
SEQEND
  5
58E
330
58B
100
AcDbEntity
  8
BEMA_UNG
  0
POLYLINE
  5
58F
330
1F
100
AcDbEntity
  8
BEMA_UNG
 62
     7
100
AcDb2dPolyline
 66
     1
 10
0.0
 20
0.0
 30
0.0
  0
VERTEX
  5
590
330
58F
100
AcDbEntity
  8
BEMA_UNG
 62
     7
100
AcDbVertex
100
AcDb2dVertex
 10
3.607017352585888
 20
-104.4958439200544
 30
0.0
  0
VERTEX
  5
591
330
58F
100
AcDbEntity
  8
BEMA_UNG
 62
     7
100
AcDbVertex
100
AcDb2dVertex
 10
3.57980108029799
 20
-104.4958439200544
 30
0.0
  0
SEQEND
  5
592
330
58F
100
AcDbEntity
  8
BEMA_UNG
  0
POLYLINE
  5
593
330
1F
100
AcDbEntity
  8
BEMA_UNG
 62
     7
100
AcDb2dPolyline
 66
     1
 10
0.0
 20
0.0
 30
0.0
  0
VERTEX
  5
594
330
593
100
AcDbEntity
  8
BEMA_UNG
 62
     7
100
AcDbVertex
100
AcDb2dVertex
 10
3.607017352585888
 20
-104.5468313668723
 30
0.0
  0
VERTEX
  5
595
330
593
100
AcDbEntity
  8
BEMA_UNG
 62
     7
100
AcDbVertex
100
AcDb2dVertex
 10
3.193950131406281
 20
-104.5468313668723
 30
0.0
  0
SEQEND
  5
596
330
593
100
AcDbEntity
  8
BEMA_UNG
  0
POLYLINE
  5
597
330
1F
100
AcDbEntity
  8
BEMA_UNG
 62
     7
100
AcDb2dPolyline
 66
     1
 10
0.0
 20
0.0
 30
0.0
  0
VERTEX
  5
598
330
597
100
AcDbEntity
  8
BEMA_UNG
 62
     7
100
AcDbVertex
100
AcDb2dVertex
 10
3.607017352585888
 20
-104.5974743039143
 30
0.0
  0
VERTEX
  5
599
330
597
100
AcDbEntity
  8
BEMA_UNG
 62
     7
100
AcDbVertex
100
AcDb2dVertex
 10
2.80827143740247
 20
-104.5974743039143
 30
0.0
  0
SEQEND
  5
59A
330
597
100
AcDbEntity
  8
BEMA_UNG
  0
POLYLINE
  5
59B
330
1F
100
AcDbEntity
  8
BEMA_UNG
 62
     7
100
AcDb2dPolyline
 66
     1
 10
0.0
 20
0.0
 30
0.0
  0
VERTEX
  5
59C
330
59B
100
AcDbEntity
  8
BEMA_UNG
 62
     7
100
AcDbVertex
100
AcDb2dVertex
 10
3.607017352585888
 20
-104.6477727311806
 30
0.0
  0
VERTEX
  5
59D
330
59B
100
AcDbEntity
  8
BEMA_UNG
 62
     7
100
AcDbVertex
100
AcDb2dVertex
 10
2.422420488510761
 20
-104.6477727311806
 30
0.0
  0
SEQEND
  5
59E
330
59B
100
AcDbEntity
  8
BEMA_UNG
  0
POLYLINE
  5
59F
330
1F
100
AcDbEntity
  8
BEMA_UNG
 62
     7
100
AcDb2dPolyline
 66
     1
 10
0.0
 20
0.0
 30
0.0
  0
VERTEX
  5
5A0
330
59F
100
AcDbEntity
  8
BEMA_UNG
 62
     7
100
AcDbVertex
100
AcDb2dVertex
 10
3.607017352585888
 20
-104.6991046877742
 30
0.0
  0
VERTEX
  5
5A1
330
59F
100
AcDbEntity
  8
BEMA_UNG
 62
     7
100
AcDbVertex
100
AcDb2dVertex
 10
2.036052774955358
 20
-104.6991046877742
 30
0.0
  0
SEQEND
  5
5A2
330
59F
100
AcDbEntity
  8
BEMA_UNG
  0
POLYLINE
  5
5A3
330
1F
100
AcDbEntity
  8
BEMA_UNG
 62
     7
100
AcDb2dPolyline
 66
     1
 10
0.0
 20
0.0
 30
0.0
  0
VERTEX
  5
5A4
330
5A3
100
AcDbEntity
  8
BEMA_UNG
 62
     7
100
AcDbVertex
100
AcDb2dVertex
 10
3.607017352585888
 20
-104.7497476248162
 30
0.0
  0
VERTEX
  5
5A5
330
5A3
100
AcDbEntity
  8
BEMA_UNG
 62
     7
100
AcDbVertex
100
AcDb2dVertex
 10
1.650718590727343
 20
-104.7497476248162
 30
0.0
  0
SEQEND
  5
5A6
330
5A3
100
AcDbEntity
  8
BEMA_UNG
  0
POLYLINE
  5
5A7
330
1F
100
AcDbEntity
  8
BEMA_UNG
 62
     7
100
AcDb2dPolyline
 66
     1
 10
0.0
 20
0.0
 30
0.0
  0
VERTEX
  5
5A8
330
5A7
100
AcDbEntity
  8
BEMA_UNG
 62
     7
100
AcDbVertex
100
AcDb2dVertex
 10
3.607017352585888
 20
-104.8007350716341
 30
0.0
  0
VERTEX
  5
5A9
330
5A7
100
AcDbEntity
  8
BEMA_UNG
 62
     7
100
AcDbVertex
100
AcDb2dVertex
 10
1.26435087717194
 20
-104.8007350716341
 30
0.0
  0
SEQEND
  5
5AA
330
5A7
100
AcDbEntity
  8
BEMA_UNG
  0
POLYLINE
  5
5AB
330
1F
100
AcDbEntity
  8
BEMA_UNG
 62
     7
100
AcDb2dPolyline
 66
     1
 10
0.0
 20
0.0
 30
0.0
  0
VERTEX
  5
5AC
330
5AB
100
AcDbEntity
  8
BEMA_UNG
 62
     7
100
AcDbVertex
100
AcDb2dVertex
 10
3.607017352585888
 20
-104.8510334989003
 30
0.0
  0
VERTEX
  5
5AD
330
5AB
100
AcDbEntity
  8
BEMA_UNG
 62
     7
100
AcDbVertex
100
AcDb2dVertex
 10
0.879361202719721
 20
-104.8510334989003
 30
0.0
  0
SEQEND
  5
5AE
330
5AB
100
AcDbEntity
  8
BEMA_UNG
  0
POLYLINE
  5
5AF
330
1F
100
AcDbEntity
  8
BEMA_UNG
 62
     7
100
AcDb2dPolyline
 66
     1
 10
0.0
 20
0.0
 30
0.0
  0
VERTEX
  5
5B0
330
5AF
100
AcDbEntity
  8
BEMA_UNG
 62
     7
100
AcDbVertex
100
AcDb2dVertex
 10
3.607017352585888
 20
-104.9020209457181
 30
0.0
  0
VERTEX
  5
5B1
330
5AF
100
AcDbEntity
  8
BEMA_UNG
 62
     7
100
AcDbVertex
100
AcDb2dVertex
 10
0.4929934891643176
 20
-104.9020209457181
 30
0.0
  0
SEQEND
  5
5B2
330
5AF
100
AcDbEntity
  8
BEMA_UNG
  0
POLYLINE
  5
5B3
330
1F
100
AcDbEntity
  8
BEMA_UNG
 62
     7
100
AcDb2dPolyline
 66
     1
 10
0.0
 20
0.0
 30
0.0
  0
VERTEX
  5
5B4
330
5B3
100
AcDbEntity
  8
BEMA_UNG
 62
     7
100
AcDbVertex
100
AcDb2dVertex
 10
3.607017352585888
 20
-104.953008392536
 30
0.0
  0
VERTEX
  5
5B5
330
5B3
100
AcDbEntity
  8
BEMA_UNG
 62
     7
100
AcDbVertex
100
AcDb2dVertex
 10
0.1071425402726085
 20
-104.953008392536
 30
0.0
  0
SEQEND
  5
5B6
330
5B3
100
AcDbEntity
  8
BEMA_UNG
  0
POLYLINE
  5
5B7
330
1F
100
AcDbEntity
  8
BEMA_UNG
 62
     7
100
AcDb2dPolyline
 66
     1
 10
0.0
 20
0.0
 30
0.0
  0
VERTEX
  5
5B8
330
5B7
100
AcDbEntity
  8
BEMA_UNG
 62
     7
100
AcDbVertex
100
AcDb2dVertex
 10
58.10691358954872
 20
-104.953008392536
 30
0.0
  0
VERTEX
  5
5B9
330
5B7
100
AcDbEntity
  8
BEMA_UNG
 62
     7
100
AcDbVertex
100
AcDb2dVertex
 10
54.60669426745964
 20
-104.4920543125207
 30
0.0
  0
VERTEX
  5
5BA
330
5B7
100
AcDbEntity
  8
BEMA_UNG
 62
     7
100
AcDbVertex
100
AcDb2dVertex
 10
54.60669426745964
 20
-105.4132734529996
 30
0.0
  0
VERTEX
  5
5BB
330
5B7
100
AcDbEntity
  8
BEMA_UNG
 62
     7
100
AcDbVertex
100
AcDb2dVertex
 10
58.10691358954872
 20
-104.953008392536
 30
0.0
  0
SEQEND
  5
5BC
330
5B7
100
AcDbEntity
  8
BEMA_UNG
  0
POLYLINE
  5
5BD
330
1F
100
AcDbEntity
  8
BEMA_UNG
 62
     7
100
AcDb2dPolyline
 66
     1
 10
0.0
 20
0.0
 30
0.0
  0
VERTEX
  5
5BE
330
5BD
100
AcDbEntity
  8
BEMA_UNG
 62
     7
100
AcDbVertex
100
AcDb2dVertex
 10
54.60669426745964
 20
-104.4958439200544
 30
0.0
  0
VERTEX
  5
5BF
330
5BD
100
AcDbEntity
  8
BEMA_UNG
 62
     7
100
AcDbVertex
100
AcDb2dVertex
 10
54.63391053974754
 20
-104.4958439200544
 30
0.0
  0
SEQEND
  5
5C0
330
5BD
100
AcDbEntity
  8
BEMA_UNG
  0
POLYLINE
  5
5C1
330
1F
100
AcDbEntity
  8
BEMA_UNG
 62
     7
100
AcDb2dPolyline
 66
     1
 10
0.0
 20
0.0
 30
0.0
  0
VERTEX
  5
5C2
330
5C1
100
AcDbEntity
  8
BEMA_UNG
 62
     7
100
AcDbVertex
100
AcDb2dVertex
 10
54.60669426745964
 20
-104.4958439200544
 30
0.0
  0
VERTEX
  5
5C3
330
5C1
100
AcDbEntity
  8
BEMA_UNG
 62
     7
100
AcDbVertex
100
AcDb2dVertex
 10
54.63391053974754
 20
-104.4958439200544
 30
0.0
  0
SEQEND
  5
5C4
330
5C1
100
AcDbEntity
  8
BEMA_UNG
  0
POLYLINE
  5
5C5
330
1F
100
AcDbEntity
  8
BEMA_UNG
 62
     7
100
AcDb2dPolyline
 66
     1
 10
0.0
 20
0.0
 30
0.0
  0
VERTEX
  5
5C6
330
5C5
100
AcDbEntity
  8
BEMA_UNG
 62
     7
100
AcDbVertex
100
AcDb2dVertex
 10
54.60669426745964
 20
-104.5468313668723
 30
0.0
  0
VERTEX
  5
5C7
330
5C5
100
AcDbEntity
  8
BEMA_UNG
 62
     7
100
AcDbVertex
100
AcDb2dVertex
 10
55.02010599841504
 20
-104.5468313668723
 30
0.0
  0
SEQEND
  5
5C8
330
5C5
100
AcDbEntity
  8
BEMA_UNG
  0
POLYLINE
  5
5C9
330
1F
100
AcDbEntity
  8
BEMA_UNG
 62
     7
100
AcDb2dPolyline
 66
     1
 10
0.0
 20
0.0
 30
0.0
  0
VERTEX
  5
5CA
330
5C9
100
AcDbEntity
  8
BEMA_UNG
 62
     7
100
AcDbVertex
100
AcDb2dVertex
 10
54.60669426745964
 20
-104.5974743039143
 30
0.0
  0
VERTEX
  5
5CB
330
5C9
100
AcDbEntity
  8
BEMA_UNG
 62
     7
100
AcDbVertex
100
AcDb2dVertex
 10
55.40595694730676
 20
-104.5974743039143
 30
0.0
  0
SEQEND
  5
5CC
330
5C9
100
AcDbEntity
  8
BEMA_UNG
  0
POLYLINE
  5
5CD
330
1F
100
AcDbEntity
  8
BEMA_UNG
 62
     7
100
AcDb2dPolyline
 66
     1
 10
0.0
 20
0.0
 30
0.0
  0
VERTEX
  5
5CE
330
5CD
100
AcDbEntity
  8
BEMA_UNG
 62
     7
100
AcDbVertex
100
AcDb2dVertex
 10
54.60669426745964
 20
-104.6477727311806
 30
0.0
  0
VERTEX
  5
5CF
330
5CD
100
AcDbEntity
  8
BEMA_UNG
 62
     7
100
AcDbVertex
100
AcDb2dVertex
 10
55.79198015108636
 20
-104.6477727311806
 30
0.0
  0
SEQEND
  5
5D0
330
5CD
100
AcDbEntity
  8
BEMA_UNG
  0
POLYLINE
  5
5D1
330
1F
100
AcDbEntity
  8
BEMA_UNG
 62
     7
100
AcDb2dPolyline
 66
     1
 10
0.0
 20
0.0
 30
0.0
  0
VERTEX
  5
5D2
330
5D1
100
AcDbEntity
  8
BEMA_UNG
 62
     7
100
AcDbVertex
100
AcDb2dVertex
 10
54.60669426745964
 20
-104.6991046877742
 30
0.0
  0
VERTEX
  5
5D3
330
5D1
100
AcDbEntity
  8
BEMA_UNG
 62
     7
100
AcDbVertex
100
AcDb2dVertex
 10
56.17783109997807
 20
-104.6991046877742
 30
0.0
  0
SEQEND
  5
5D4
330
5D1
100
AcDbEntity
  8
BEMA_UNG
  0
POLYLINE
  5
5D5
330
1F
100
AcDbEntity
  8
BEMA_UNG
 62
     7
100
AcDb2dPolyline
 66
     1
 10
0.0
 20
0.0
 30
0.0
  0
VERTEX
  5
5D6
330
5D5
100
AcDbEntity
  8
BEMA_UNG
 62
     7
100
AcDbVertex
100
AcDb2dVertex
 10
54.60669426745964
 20
-104.7497476248162
 30
0.0
  0
VERTEX
  5
5D7
330
5D5
100
AcDbEntity
  8
BEMA_UNG
 62
     7
100
AcDbVertex
100
AcDb2dVertex
 10
56.56350979398188
 20
-104.7497476248162
 30
0.0
  0
SEQEND
  5
5D8
330
5D5
100
AcDbEntity
  8
BEMA_UNG
  0
POLYLINE
  5
5D9
330
1F
100
AcDbEntity
  8
BEMA_UNG
 62
     7
100
AcDb2dPolyline
 66
     1
 10
0.0
 20
0.0
 30
0.0
  0
VERTEX
  5
5DA
330
5D9
100
AcDbEntity
  8
BEMA_UNG
 62
     7
100
AcDbVertex
100
AcDb2dVertex
 10
54.60669426745964
 20
-104.8007350716341
 30
0.0
  0
VERTEX
  5
5DB
330
5D9
100
AcDbEntity
  8
BEMA_UNG
 62
     7
100
AcDbVertex
100
AcDb2dVertex
 10
56.94901623309779
 20
-104.8007350716341
 30
0.0
  0
SEQEND
  5
5DC
330
5D9
100
AcDbEntity
  8
BEMA_UNG
  0
POLYLINE
  5
5DD
330
1F
100
AcDbEntity
  8
BEMA_UNG
 62
     7
100
AcDb2dPolyline
 66
     1
 10
0.0
 20
0.0
 30
0.0
  0
VERTEX
  5
5DE
330
5DD
100
AcDbEntity
  8
BEMA_UNG
 62
     7
100
AcDbVertex
100
AcDb2dVertex
 10
54.60669426745964
 20
-104.8510334989003
 30
0.0
  0
VERTEX
  5
5DF
330
5DD
100
AcDbEntity
  8
BEMA_UNG
 62
     7
100
AcDbVertex
100
AcDb2dVertex
 10
57.335728456429
 20
-104.8510334989003
 30
0.0
  0
SEQEND
  5
5E0
330
5DD
100
AcDbEntity
  8
BEMA_UNG
  0
POLYLINE
  5
5E1
330
1F
100
AcDbEntity
  8
BEMA_UNG
 62
     7
100
AcDb2dPolyline
 66
     1
 10
0.0
 20
0.0
 30
0.0
  0
VERTEX
  5
5E2
330
5E1
100
AcDbEntity
  8
BEMA_UNG
 62
     7
100
AcDbVertex
100
AcDb2dVertex
 10
54.60669426745964
 20
-104.9020209457181
 30
0.0
  0
VERTEX
  5
5E3
330
5E1
100
AcDbEntity
  8
BEMA_UNG
 62
     7
100
AcDbVertex
100
AcDb2dVertex
 10
57.72106264065701
 20
-104.9020209457181
 30
0.0
  0
SEQEND
  5
5E4
330
5E1
100
AcDbEntity
  8
BEMA_UNG
  0
POLYLINE
  5
5E5
330
1F
100
AcDbEntity
  8
BEMA_UNG
 62
     7
100
AcDb2dPolyline
 66
     1
 10
0.0
 20
0.0
 30
0.0
  0
VERTEX
  5
5E6
330
5E5
100
AcDbEntity
  8
BEMA_UNG
 62
     7
100
AcDbVertex
100
AcDb2dVertex
 10
54.60669426745964
 20
-104.953008392536
 30
0.0
  0
VERTEX
  5
5E7
330
5E5
100
AcDbEntity
  8
BEMA_UNG
 62
     7
100
AcDbVertex
100
AcDb2dVertex
 10
58.10691358954872
 20
-104.953008392536
 30
0.0
  0
SEQEND
  5
5E8
330
5E5
100
AcDbEntity
  8
BEMA_UNG
  0
POLYLINE
  5
5E9
330
1F
100
AcDbEntity
  8
BEMA_UNG
 62
     7
100
AcDb2dPolyline
 66
     1
 10
0.0
 20
0.0
 30
0.0
  0
VERTEX
  5
5EA
330
5E9
100
AcDbEntity
  8
BEMA_UNG
 62
     7
100
AcDbVertex
100
AcDb2dVertex
 10
54.60669426745964
 20
-105.4098283552417
 30
0.0
  0
VERTEX
  5
5EB
330
5E9
100
AcDbEntity
  8
BEMA_UNG
 62
     7
100
AcDbVertex
100
AcDb2dVertex
 10
54.63391053974754
 20
-105.4098283552417
 30
0.0
  0
SEQEND
  5
5EC
330
5E9
100
AcDbEntity
  8
BEMA_UNG
  0
POLYLINE
  5
5ED
330
1F
100
AcDbEntity
  8
BEMA_UNG
 62
     7
100
AcDb2dPolyline
 66
     1
 10
0.0
 20
0.0
 30
0.0
  0
VERTEX
  5
5EE
330
5ED
100
AcDbEntity
  8
BEMA_UNG
 62
     7
100
AcDbVertex
100
AcDb2dVertex
 10
54.60669426745964
 20
-105.4098283552417
 30
0.0
  0
VERTEX
  5
5EF
330
5ED
100
AcDbEntity
  8
BEMA_UNG
 62
     7
100
AcDbVertex
100
AcDb2dVertex
 10
54.63391053974754
 20
-105.4098283552417
 30
0.0
  0
SEQEND
  5
5F0
330
5ED
100
AcDbEntity
  8
BEMA_UNG
  0
POLYLINE
  5
5F1
330
1F
100
AcDbEntity
  8
BEMA_UNG
 62
     7
100
AcDb2dPolyline
 66
     1
 10
0.0
 20
0.0
 30
0.0
  0
VERTEX
  5
5F2
330
5F1
100
AcDbEntity
  8
BEMA_UNG
 62
     7
100
AcDbVertex
100
AcDb2dVertex
 10
54.60669426745964
 20
-105.3588409084238
 30
0.0
  0
VERTEX
  5
5F3
330
5F1
100
AcDbEntity
  8
BEMA_UNG
 62
     7
100
AcDbVertex
100
AcDb2dVertex
 10
55.02010599841504
 20
-105.3588409084238
 30
0.0
  0
SEQEND
  5
5F4
330
5F1
100
AcDbEntity
  8
BEMA_UNG
  0
POLYLINE
  5
5F5
330
1F
100
AcDbEntity
  8
BEMA_UNG
 62
     7
100
AcDb2dPolyline
 66
     1
 10
0.0
 20
0.0
 30
0.0
  0
VERTEX
  5
5F6
330
5F5
100
AcDbEntity
  8
BEMA_UNG
 62
     7
100
AcDbVertex
100
AcDb2dVertex
 10
54.60669426745964
 20
-105.3081979713818
 30
0.0
  0
VERTEX
  5
5F7
330
5F5
100
AcDbEntity
  8
BEMA_UNG
 62
     7
100
AcDbVertex
100
AcDb2dVertex
 10
55.40595694730676
 20
-105.3081979713818
 30
0.0
  0
SEQEND
  5
5F8
330
5F5
100
AcDbEntity
  8
BEMA_UNG
  0
POLYLINE
  5
5F9
330
1F
100
AcDbEntity
  8
BEMA_UNG
 62
     7
100
AcDb2dPolyline
 66
     1
 10
0.0
 20
0.0
 30
0.0
  0
VERTEX
  5
5FA
330
5F9
100
AcDbEntity
  8
BEMA_UNG
 62
     7
100
AcDbVertex
100
AcDb2dVertex
 10
54.60669426745964
 20
-105.2575550343398
 30
0.0
  0
VERTEX
  5
5FB
330
5F9
100
AcDbEntity
  8
BEMA_UNG
 62
     7
100
AcDbVertex
100
AcDb2dVertex
 10
55.79198015108636
 20
-105.2575550343398
 30
0.0
  0
SEQEND
  5
5FC
330
5F9
100
AcDbEntity
  8
BEMA_UNG
  0
POLYLINE
  5
5FD
330
1F
100
AcDbEntity
  8
BEMA_UNG
 62
     7
100
AcDb2dPolyline
 66
     1
 10
0.0
 20
0.0
 30
0.0
  0
VERTEX
  5
5FE
330
5FD
100
AcDbEntity
  8
BEMA_UNG
 62
     7
100
AcDbVertex
100
AcDb2dVertex
 10
54.60669426745964
 20
-105.2065675875219
 30
0.0
  0
VERTEX
  5
5FF
330
5FD
100
AcDbEntity
  8
BEMA_UNG
 62
     7
100
AcDbVertex
100
AcDb2dVertex
 10
56.17783109997807
 20
-105.2065675875219
 30
0.0
  0
SEQEND
  5
600
330
5FD
100
AcDbEntity
  8
BEMA_UNG
  0
POLYLINE
  5
601
330
1F
100
AcDbEntity
  8
BEMA_UNG
 62
     7
100
AcDb2dPolyline
 66
     1
 10
0.0
 20
0.0
 30
0.0
  0
VERTEX
  5
602
330
601
100
AcDbEntity
  8
BEMA_UNG
 62
     7
100
AcDbVertex
100
AcDb2dVertex
 10
54.60669426745964
 20
-105.1559246504799
 30
0.0
  0
VERTEX
  5
603
330
601
100
AcDbEntity
  8
BEMA_UNG
 62
     7
100
AcDbVertex
100
AcDb2dVertex
 10
56.56350979398188
 20
-105.1559246504799
 30
0.0
  0
SEQEND
  5
604
330
601
100
AcDbEntity
  8
BEMA_UNG
  0
POLYLINE
  5
605
330
1F
100
AcDbEntity
  8
BEMA_UNG
 62
     7
100
AcDb2dPolyline
 66
     1
 10
0.0
 20
0.0
 30
0.0
  0
VERTEX
  5
606
330
605
100
AcDbEntity
  8
BEMA_UNG
 62
     7
100
AcDbVertex
100
AcDb2dVertex
 10
54.60669426745964
 20
-105.1049372036621
 30
0.0
  0
VERTEX
  5
607
330
605
100
AcDbEntity
  8
BEMA_UNG
 62
     7
100
AcDbVertex
100
AcDb2dVertex
 10
56.94901623309779
 20
-105.1049372036621
 30
0.0
  0
SEQEND
  5
608
330
605
100
AcDbEntity
  8
BEMA_UNG
  0
POLYLINE
  5
609
330
1F
100
AcDbEntity
  8
BEMA_UNG
 62
     7
100
AcDb2dPolyline
 66
     1
 10
0.0
 20
0.0
 30
0.0
  0
VERTEX
  5
60A
330
609
100
AcDbEntity
  8
BEMA_UNG
 62
     7
100
AcDbVertex
100
AcDb2dVertex
 10
54.60669426745964
 20
-105.05429426662
 30
0.0
  0
VERTEX
  5
60B
330
609
100
AcDbEntity
  8
BEMA_UNG
 62
     7
100
AcDbVertex
100
AcDb2dVertex
 10
57.335728456429
 20
-105.05429426662
 30
0.0
  0
SEQEND
  5
60C
330
609
100
AcDbEntity
  8
BEMA_UNG
  0
POLYLINE
  5
60D
330
1F
100
AcDbEntity
  8
BEMA_UNG
 62
     7
100
AcDb2dPolyline
 66
     1
 10
0.0
 20
0.0
 30
0.0
  0
VERTEX
  5
60E
330
60D
100
AcDbEntity
  8
BEMA_UNG
 62
     7
100
AcDbVertex
100
AcDb2dVertex
 10
54.60669426745964
 20
-105.0033068198022
 30
0.0
  0
VERTEX
  5
60F
330
60D
100
AcDbEntity
  8
BEMA_UNG
 62
     7
100
AcDbVertex
100
AcDb2dVertex
 10
57.72106264065701
 20
-105.0033068198022
 30
0.0
  0
SEQEND
  5
610
330
60D
100
AcDbEntity
  8
BEMA_UNG
  0
POLYLINE
  5
611
330
1F
100
AcDbEntity
  8
BEMA_UNG
 62
     7
100
AcDb2dPolyline
 66
     1
 10
0.0
 20
0.0
 30
0.0
  0
VERTEX
  5
612
330
611
100
AcDbEntity
  8
BEMA_UNG
 62
     7
100
AcDbVertex
100
AcDb2dVertex
 10
54.60669426745964
 20
-104.953008392536
 30
0.0
  0
VERTEX
  5
613
330
611
100
AcDbEntity
  8
BEMA_UNG
 62
     7
100
AcDbVertex
100
AcDb2dVertex
 10
58.10691358954872
 20
-104.953008392536
 30
0.0
  0
SEQEND
  5
614
330
611
100
AcDbEntity
  8
BEMA_UNG
  0
POLYLINE
  5
615
330
1F
100
AcDbEntity
  8
BEMA_UNG
 62
     7
100
AcDb2dPolyline
 66
     1
 10
0.0
 20
0.0
 30
0.0
  0
VERTEX
  5
616
330
615
100
AcDbEntity
  8
BEMA_UNG
 62
     7
100
AcDbVertex
100
AcDb2dVertex
 10
30.10705381660299
 20
-27.63674646925656
 30
0.0
  0
VERTEX
  5
617
330
615
100
AcDbEntity
  8
BEMA_UNG
 62
     7
100
AcDbVertex
100
AcDb2dVertex
 10
30.10705381660299
 20
-97.32814577972725
 30
0.0
  0
SEQEND
  5
618
330
615
100
AcDbEntity
  8
BEMA_UNG
  0
POLYLINE
  5
619
330
1F
100
AcDbEntity
  8
BEMA_UNG
 62
     7
100
AcDb2dPolyline
 66
     1
 10
0.0
 20
0.0
 30
0.0
  0
VERTEX
  5
61A
330
619
100
AcDbEntity
  8
BEMA_UNG
 62
     7
100
AcDbVertex
100
AcDb2dVertex
 10
58.10691358954872
 20
-95.0938276288012
 30
0.0
  0
VERTEX
  5
61B
330
619
100
AcDbEntity
  8
BEMA_UNG
 62
     7
100
AcDbVertex
100
AcDb2dVertex
 10
30.10705381660299
 20
-95.0938276288012
 30
0.0
  0
SEQEND
  5
61C
330
619
100
AcDbEntity
  8
BEMA_UNG
  0
POLYLINE
  5
61D
330
1F
100
AcDbEntity
  8
BEMA_UNG
 62
     7
100
AcDb2dPolyline
 66
     1
 10
0.0
 20
0.0
 30
0.0
  0
VERTEX
  5
61E
330
61D
100
AcDbEntity
  8
BEMA_UNG
 62
     7
100
AcDbVertex
100
AcDb2dVertex
 10
58.10691358954872
 20
-95.0938276288012
 30
0.0
  0
VERTEX
  5
61F
330
61D
100
AcDbEntity
  8
BEMA_UNG
 62
     7
100
AcDbVertex
100
AcDb2dVertex
 10
54.60669426745964
 20
-94.63339031344962
 30
0.0
  0
VERTEX
  5
620
330
61D
100
AcDbEntity
  8
BEMA_UNG
 62
     7
100
AcDbVertex
100
AcDb2dVertex
 10
54.60669426745964
 20
-95.55478170881648
 30
0.0
  0
VERTEX
  5
621
330
61D
100
AcDbEntity
  8
BEMA_UNG
 62
     7
100
AcDbVertex
100
AcDb2dVertex
 10
58.10691358954872
 20
-95.0938276288012
 30
0.0
  0
SEQEND
  5
622
330
61D
100
AcDbEntity
  8
BEMA_UNG
  0
POLYLINE
  5
623
330
1F
100
AcDbEntity
  8
BEMA_UNG
 62
     7
100
AcDb2dPolyline
 66
     1
 10
0.0
 20
0.0
 30
0.0
  0
VERTEX
  5
624
330
623
100
AcDbEntity
  8
BEMA_UNG
 62
     7
100
AcDbVertex
100
AcDb2dVertex
 10
54.60669426745964
 20
-94.63700766609549
 30
0.0
  0
VERTEX
  5
625
330
623
100
AcDbEntity
  8
BEMA_UNG
 62
     7
100
AcDbVertex
100
AcDb2dVertex
 10
54.63391053974754
 20
-94.63700766609549
 30
0.0
  0
SEQEND
  5
626
330
623
100
AcDbEntity
  8
BEMA_UNG
  0
POLYLINE
  5
627
330
1F
100
AcDbEntity
  8
BEMA_UNG
 62
     7
100
AcDb2dPolyline
 66
     1
 10
0.0
 20
0.0
 30
0.0
  0
VERTEX
  5
628
330
627
100
AcDbEntity
  8
BEMA_UNG
 62
     7
100
AcDbVertex
100
AcDb2dVertex
 10
54.60669426745964
 20
-94.63700766609549
 30
0.0
  0
VERTEX
  5
629
330
627
100
AcDbEntity
  8
BEMA_UNG
 62
     7
100
AcDbVertex
100
AcDb2dVertex
 10
54.63391053974754
 20
-94.63700766609549
 30
0.0
  0
SEQEND
  5
62A
330
627
100
AcDbEntity
  8
BEMA_UNG
  0
POLYLINE
  5
62B
330
1F
100
AcDbEntity
  8
BEMA_UNG
 62
     7
100
AcDb2dPolyline
 66
     1
 10
0.0
 20
0.0
 30
0.0
  0
VERTEX
  5
62C
330
62B
100
AcDbEntity
  8
BEMA_UNG
 62
     7
100
AcDbVertex
100
AcDb2dVertex
 10
54.60669426745964
 20
-94.68765060313751
 30
0.0
  0
VERTEX
  5
62D
330
62B
100
AcDbEntity
  8
BEMA_UNG
 62
     7
100
AcDbVertex
100
AcDb2dVertex
 10
55.02010599841504
 20
-94.68765060313751
 30
0.0
  0
SEQEND
  5
62E
330
62B
100
AcDbEntity
  8
BEMA_UNG
  0
POLYLINE
  5
62F
330
1F
100
AcDbEntity
  8
BEMA_UNG
 62
     7
100
AcDb2dPolyline
 66
     1
 10
0.0
 20
0.0
 30
0.0
  0
VERTEX
  5
630
330
62F
100
AcDbEntity
  8
BEMA_UNG
 62
     7
100
AcDbVertex
100
AcDb2dVertex
 10
54.60669426745964
 20
-94.73846579506746
 30
0.0
  0
VERTEX
  5
631
330
62F
100
AcDbEntity
  8
BEMA_UNG
 62
     7
100
AcDbVertex
100
AcDb2dVertex
 10
55.40595694730676
 20
-94.73846579506746
 30
0.0
  0
SEQEND
  5
632
330
62F
100
AcDbEntity
  8
BEMA_UNG
  0
POLYLINE
  5
633
330
1F
100
AcDbEntity
  8
BEMA_UNG
 62
     7
100
AcDb2dPolyline
 66
     1
 10
0.0
 20
0.0
 30
0.0
  0
VERTEX
  5
634
330
633
100
AcDbEntity
  8
BEMA_UNG
 62
     7
100
AcDbVertex
100
AcDb2dVertex
 10
54.60669426745964
 20
-94.78910873210948
 30
0.0
  0
VERTEX
  5
635
330
633
100
AcDbEntity
  8
BEMA_UNG
 62
     7
100
AcDbVertex
100
AcDb2dVertex
 10
55.79198015108636
 20
-94.78910873210948
 30
0.0
  0
SEQEND
  5
636
330
633
100
AcDbEntity
  8
BEMA_UNG
  0
POLYLINE
  5
637
330
1F
100
AcDbEntity
  8
BEMA_UNG
 62
     7
100
AcDb2dPolyline
 66
     1
 10
0.0
 20
0.0
 30
0.0
  0
VERTEX
  5
638
330
637
100
AcDbEntity
  8
BEMA_UNG
 62
     7
100
AcDbVertex
100
AcDb2dVertex
 10
54.60669426745964
 20
-94.84009617892733
 30
0.0
  0
VERTEX
  5
639
330
637
100
AcDbEntity
  8
BEMA_UNG
 62
     7
100
AcDbVertex
100
AcDb2dVertex
 10
56.17783109997807
 20
-94.84009617892733
 30
0.0
  0
SEQEND
  5
63A
330
637
100
AcDbEntity
  8
BEMA_UNG
  0
POLYLINE
  5
63B
330
1F
100
AcDbEntity
  8
BEMA_UNG
 62
     7
100
AcDb2dPolyline
 66
     1
 10
0.0
 20
0.0
 30
0.0
  0
VERTEX
  5
63C
330
63B
100
AcDbEntity
  8
BEMA_UNG
 62
     7
100
AcDbVertex
100
AcDb2dVertex
 10
54.60669426745964
 20
-94.89056686108147
 30
0.0
  0
VERTEX
  5
63D
330
63B
100
AcDbEntity
  8
BEMA_UNG
 62
     7
100
AcDbVertex
100
AcDb2dVertex
 10
56.56350979398188
 20
-94.89056686108147
 30
0.0
  0
SEQEND
  5
63E
330
63B
100
AcDbEntity
  8
BEMA_UNG
  0
POLYLINE
  5
63F
330
1F
100
AcDbEntity
  8
BEMA_UNG
 62
     7
100
AcDb2dPolyline
 66
     1
 10
0.0
 20
0.0
 30
0.0
  0
VERTEX
  5
640
330
63F
100
AcDbEntity
  8
BEMA_UNG
 62
     7
100
AcDbVertex
100
AcDb2dVertex
 10
54.60669426745964
 20
-94.9412097981235
 30
0.0
  0
VERTEX
  5
641
330
63F
100
AcDbEntity
  8
BEMA_UNG
 62
     7
100
AcDbVertex
100
AcDb2dVertex
 10
56.94901623309779
 20
-94.9412097981235
 30
0.0
  0
SEQEND
  5
642
330
63F
100
AcDbEntity
  8
BEMA_UNG
  0
POLYLINE
  5
643
330
1F
100
AcDbEntity
  8
BEMA_UNG
 62
     7
100
AcDb2dPolyline
 66
     1
 10
0.0
 20
0.0
 30
0.0
  0
VERTEX
  5
644
330
643
100
AcDbEntity
  8
BEMA_UNG
 62
     7
100
AcDbVertex
100
AcDb2dVertex
 10
54.60669426745964
 20
-94.99219724494134
 30
0.0
  0
VERTEX
  5
645
330
643
100
AcDbEntity
  8
BEMA_UNG
 62
     7
100
AcDbVertex
100
AcDb2dVertex
 10
57.335728456429
 20
-94.99219724494134
 30
0.0
  0
SEQEND
  5
646
330
643
100
AcDbEntity
  8
BEMA_UNG
  0
POLYLINE
  5
647
330
1F
100
AcDbEntity
  8
BEMA_UNG
 62
     7
100
AcDb2dPolyline
 66
     1
 10
0.0
 20
0.0
 30
0.0
  0
VERTEX
  5
648
330
647
100
AcDbEntity
  8
BEMA_UNG
 62
     7
100
AcDbVertex
100
AcDb2dVertex
 10
54.60669426745964
 20
-95.04266792709547
 30
0.0
  0
VERTEX
  5
649
330
647
100
AcDbEntity
  8
BEMA_UNG
 62
     7
100
AcDbVertex
100
AcDb2dVertex
 10
57.72106264065701
 20
-95.04266792709547
 30
0.0
  0
SEQEND
  5
64A
330
647
100
AcDbEntity
  8
BEMA_UNG
  0
POLYLINE
  5
64B
330
1F
100
AcDbEntity
  8
BEMA_UNG
 62
     7
100
AcDb2dPolyline
 66
     1
 10
0.0
 20
0.0
 30
0.0
  0
VERTEX
  5
64C
330
64B
100
AcDbEntity
  8
BEMA_UNG
 62
     7
100
AcDbVertex
100
AcDb2dVertex
 10
54.60669426745964
 20
-95.0938276288012
 30
0.0
  0
VERTEX
  5
64D
330
64B
100
AcDbEntity
  8
BEMA_UNG
 62
     7
100
AcDbVertex
100
AcDb2dVertex
 10
58.10691358954872
 20
-95.0938276288012
 30
0.0
  0
SEQEND
  5
64E
330
64B
100
AcDbEntity
  8
BEMA_UNG
  0
POLYLINE
  5
64F
330
1F
100
AcDbEntity
  8
BEMA_UNG
 62
     7
100
AcDb2dPolyline
 66
     1
 10
0.0
 20
0.0
 30
0.0
  0
VERTEX
  5
650
330
64F
100
AcDbEntity
  8
BEMA_UNG
 62
     7
100
AcDbVertex
100
AcDb2dVertex
 10
54.60669426745964
 20
-95.55133661105852
 30
0.0
  0
VERTEX
  5
651
330
64F
100
AcDbEntity
  8
BEMA_UNG
 62
     7
100
AcDbVertex
100
AcDb2dVertex
 10
54.63391053974754
 20
-95.55133661105852
 30
0.0
  0
SEQEND
  5
652
330
64F
100
AcDbEntity
  8
BEMA_UNG
  0
POLYLINE
  5
653
330
1F
100
AcDbEntity
  8
BEMA_UNG
 62
     7
100
AcDb2dPolyline
 66
     1
 10
0.0
 20
0.0
 30
0.0
  0
VERTEX
  5
654
330
653
100
AcDbEntity
  8
BEMA_UNG
 62
     7
100
AcDbVertex
100
AcDb2dVertex
 10
54.60669426745964
 20
-95.55133661105852
 30
0.0
  0
VERTEX
  5
655
330
653
100
AcDbEntity
  8
BEMA_UNG
 62
     7
100
AcDbVertex
100
AcDb2dVertex
 10
54.63391053974754
 20
-95.55133661105852
 30
0.0
  0
SEQEND
  5
656
330
653
100
AcDbEntity
  8
BEMA_UNG
  0
POLYLINE
  5
657
330
1F
100
AcDbEntity
  8
BEMA_UNG
 62
     7
100
AcDb2dPolyline
 66
     1
 10
0.0
 20
0.0
 30
0.0
  0
VERTEX
  5
658
330
657
100
AcDbEntity
  8
BEMA_UNG
 62
     7
100
AcDbVertex
100
AcDb2dVertex
 10
54.60669426745964
 20
-95.50034916424067
 30
0.0
  0
VERTEX
  5
659
330
657
100
AcDbEntity
  8
BEMA_UNG
 62
     7
100
AcDbVertex
100
AcDb2dVertex
 10
55.02010599841504
 20
-95.50034916424067
 30
0.0
  0
SEQEND
  5
65A
330
657
100
AcDbEntity
  8
BEMA_UNG
  0
POLYLINE
  5
65B
330
1F
100
AcDbEntity
  8
BEMA_UNG
 62
     7
100
AcDb2dPolyline
 66
     1
 10
0.0
 20
0.0
 30
0.0
  0
VERTEX
  5
65C
330
65B
100
AcDbEntity
  8
BEMA_UNG
 62
     7
100
AcDbVertex
100
AcDb2dVertex
 10
54.60669426745964
 20
-95.44953397231075
 30
0.0
  0
VERTEX
  5
65D
330
65B
100
AcDbEntity
  8
BEMA_UNG
 62
     7
100
AcDbVertex
100
AcDb2dVertex
 10
55.40595694730676
 20
-95.44953397231075
 30
0.0
  0
SEQEND
  5
65E
330
65B
100
AcDbEntity
  8
BEMA_UNG
  0
POLYLINE
  5
65F
330
1F
100
AcDbEntity
  8
BEMA_UNG
 62
     7
100
AcDb2dPolyline
 66
     1
 10
0.0
 20
0.0
 30
0.0
  0
VERTEX
  5
660
330
65F
100
AcDbEntity
  8
BEMA_UNG
 62
     7
100
AcDbVertex
100
AcDb2dVertex
 10
54.60669426745964
 20
-95.39837427060502
 30
0.0
  0
VERTEX
  5
661
330
65F
100
AcDbEntity
  8
BEMA_UNG
 62
     7
100
AcDbVertex
100
AcDb2dVertex
 10
55.79198015108636
 20
-95.39837427060502
 30
0.0
  0
SEQEND
  5
662
330
65F
100
AcDbEntity
  8
BEMA_UNG
  0
POLYLINE
  5
663
330
1F
100
AcDbEntity
  8
BEMA_UNG
 62
     7
100
AcDb2dPolyline
 66
     1
 10
0.0
 20
0.0
 30
0.0
  0
VERTEX
  5
664
330
663
100
AcDbEntity
  8
BEMA_UNG
 62
     7
100
AcDbVertex
100
AcDb2dVertex
 10
54.60669426745964
 20
-95.34773133356298
 30
0.0
  0
VERTEX
  5
665
330
663
100
AcDbEntity
  8
BEMA_UNG
 62
     7
100
AcDbVertex
100
AcDb2dVertex
 10
56.17783109997807
 20
-95.34773133356298
 30
0.0
  0
SEQEND
  5
666
330
663
100
AcDbEntity
  8
BEMA_UNG
  0
POLYLINE
  5
667
330
1F
100
AcDbEntity
  8
BEMA_UNG
 62
     7
100
AcDb2dPolyline
 66
     1
 10
0.0
 20
0.0
 30
0.0
  0
VERTEX
  5
668
330
667
100
AcDbEntity
  8
BEMA_UNG
 62
     7
100
AcDbVertex
100
AcDb2dVertex
 10
54.60669426745964
 20
-95.29708839652093
 30
0.0
  0
VERTEX
  5
669
330
667
100
AcDbEntity
  8
BEMA_UNG
 62
     7
100
AcDbVertex
100
AcDb2dVertex
 10
56.56350979398188
 20
-95.29708839652093
 30
0.0
  0
SEQEND
  5
66A
330
667
100
AcDbEntity
  8
BEMA_UNG
  0
POLYLINE
  5
66B
330
1F
100
AcDbEntity
  8
BEMA_UNG
 62
     7
100
AcDb2dPolyline
 66
     1
 10
0.0
 20
0.0
 30
0.0
  0
VERTEX
  5
66C
330
66B
100
AcDbEntity
  8
BEMA_UNG
 62
     7
100
AcDbVertex
100
AcDb2dVertex
 10
54.60669426745964
 20
-95.2459286948152
 30
0.0
  0
VERTEX
  5
66D
330
66B
100
AcDbEntity
  8
BEMA_UNG
 62
     7
100
AcDbVertex
100
AcDb2dVertex
 10
56.94901623309779
 20
-95.2459286948152
 30
0.0
  0
SEQEND
  5
66E
330
66B
100
AcDbEntity
  8
BEMA_UNG
  0
POLYLINE
  5
66F
330
1F
100
AcDbEntity
  8
BEMA_UNG
 62
     7
100
AcDb2dPolyline
 66
     1
 10
0.0
 20
0.0
 30
0.0
  0
VERTEX
  5
670
330
66F
100
AcDbEntity
  8
BEMA_UNG
 62
     7
100
AcDbVertex
100
AcDb2dVertex
 10
54.60669426745964
 20
-95.19545801266106
 30
0.0
  0
VERTEX
  5
671
330
66F
100
AcDbEntity
  8
BEMA_UNG
 62
     7
100
AcDbVertex
100
AcDb2dVertex
 10
57.335728456429
 20
-95.19545801266106
 30
0.0
  0
SEQEND
  5
672
330
66F
100
AcDbEntity
  8
BEMA_UNG
  0
POLYLINE
  5
673
330
1F
100
AcDbEntity
  8
BEMA_UNG
 62
     7
100
AcDb2dPolyline
 66
     1
 10
0.0
 20
0.0
 30
0.0
  0
VERTEX
  5
674
330
673
100
AcDbEntity
  8
BEMA_UNG
 62
     7
100
AcDbVertex
100
AcDb2dVertex
 10
54.60669426745964
 20
-95.14447056584324
 30
0.0
  0
VERTEX
  5
675
330
673
100
AcDbEntity
  8
BEMA_UNG
 62
     7
100
AcDbVertex
100
AcDb2dVertex
 10
57.72106264065701
 20
-95.14447056584324
 30
0.0
  0
SEQEND
  5
676
330
673
100
AcDbEntity
  8
BEMA_UNG
  0
POLYLINE
  5
677
330
1F
100
AcDbEntity
  8
BEMA_UNG
 62
     7
100
AcDb2dPolyline
 66
     1
 10
0.0
 20
0.0
 30
0.0
  0
VERTEX
  5
678
330
677
100
AcDbEntity
  8
BEMA_UNG
 62
     7
100
AcDbVertex
100
AcDb2dVertex
 10
54.60669426745964
 20
-95.0938276288012
 30
0.0
  0
VERTEX
  5
679
330
677
100
AcDbEntity
  8
BEMA_UNG
 62
     7
100
AcDbVertex
100
AcDb2dVertex
 10
58.10691358954872
 20
-95.0938276288012
 30
0.0
  0
SEQEND
  5
67A
330
677
100
AcDbEntity
  8
BEMA_UNG
  0
POLYLINE
  5
67B
330
1F
100
AcDbEntity
  8
BEMA_UNG
 62
     7
100
AcDb2dPolyline
 66
     1
 10
0.0
 20
0.0
 30
0.0
  0
VERTEX
  5
67C
330
67B
100
AcDbEntity
  8
BEMA_UNG
 62
     7
100
AcDbVertex
100
AcDb2dVertex
 10
30.10705381660299
 20
-95.0938276288012
 30
0.0
  0
VERTEX
  5
67D
330
67B
100
AcDbEntity
  8
BEMA_UNG
 62
     7
100
AcDbVertex
100
AcDb2dVertex
 10
33.60727313869207
 20
-95.55478170881648
 30
0.0
  0
VERTEX
  5
67E
330
67B
100
AcDbEntity
  8
BEMA_UNG
 62
     7
100
AcDbVertex
100
AcDb2dVertex
 10
33.60727313869207
 20
-94.63339031344962
 30
0.0
  0
VERTEX
  5
67F
330
67B
100
AcDbEntity
  8
BEMA_UNG
 62
     7
100
AcDbVertex
100
AcDb2dVertex
 10
30.10705381660299
 20
-95.0938276288012
 30
0.0
  0
SEQEND
  5
680
330
67B
100
AcDbEntity
  8
BEMA_UNG
  0
POLYLINE
  5
681
330
1F
100
AcDbEntity
  8
BEMA_UNG
 62
     7
100
AcDb2dPolyline
 66
     1
 10
0.0
 20
0.0
 30
0.0
  0
VERTEX
  5
682
330
681
100
AcDbEntity
  8
BEMA_UNG
 62
     7
100
AcDbVertex
100
AcDb2dVertex
 10
33.60727313869207
 20
-95.55133661105852
 30
0.0
  0
VERTEX
  5
683
330
681
100
AcDbEntity
  8
BEMA_UNG
 62
     7
100
AcDbVertex
100
AcDb2dVertex
 10
33.57971235662837
 20
-95.55133661105852
 30
0.0
  0
SEQEND
  5
684
330
681
100
AcDbEntity
  8
BEMA_UNG
  0
POLYLINE
  5
685
330
1F
100
AcDbEntity
  8
BEMA_UNG
 62
     7
100
AcDb2dPolyline
 66
     1
 10
0.0
 20
0.0
 30
0.0
  0
VERTEX
  5
686
330
685
100
AcDbEntity
  8
BEMA_UNG
 62
     7
100
AcDbVertex
100
AcDb2dVertex
 10
33.60727313869207
 20
-95.55133661105852
 30
0.0
  0
VERTEX
  5
687
330
685
100
AcDbEntity
  8
BEMA_UNG
 62
     7
100
AcDbVertex
100
AcDb2dVertex
 10
33.57971235662837
 20
-95.55133661105852
 30
0.0
  0
SEQEND
  5
688
330
685
100
AcDbEntity
  8
BEMA_UNG
  0
POLYLINE
  5
689
330
1F
100
AcDbEntity
  8
BEMA_UNG
 62
     7
100
AcDb2dPolyline
 66
     1
 10
0.0
 20
0.0
 30
0.0
  0
VERTEX
  5
68A
330
689
100
AcDbEntity
  8
BEMA_UNG
 62
     7
100
AcDbVertex
100
AcDb2dVertex
 10
33.60727313869207
 20
-95.50034916424067
 30
0.0
  0
VERTEX
  5
68B
330
689
100
AcDbEntity
  8
BEMA_UNG
 62
     7
100
AcDbVertex
100
AcDb2dVertex
 10
33.19386140773666
 20
-95.50034916424067
 30
0.0
  0
SEQEND
  5
68C
330
689
100
AcDbEntity
  8
BEMA_UNG
  0
POLYLINE
  5
68D
330
1F
100
AcDbEntity
  8
BEMA_UNG
 62
     7
100
AcDb2dPolyline
 66
     1
 10
0.0
 20
0.0
 30
0.0
  0
VERTEX
  5
68E
330
68D
100
AcDbEntity
  8
BEMA_UNG
 62
     7
100
AcDbVertex
100
AcDb2dVertex
 10
33.60727313869207
 20
-95.44953397231075
 30
0.0
  0
VERTEX
  5
68F
330
68D
100
AcDbEntity
  8
BEMA_UNG
 62
     7
100
AcDbVertex
100
AcDb2dVertex
 10
32.80818271373285
 20
-95.44953397231075
 30
0.0
  0
SEQEND
  5
690
330
68D
100
AcDbEntity
  8
BEMA_UNG
  0
POLYLINE
  5
691
330
1F
100
AcDbEntity
  8
BEMA_UNG
 62
     7
100
AcDb2dPolyline
 66
     1
 10
0.0
 20
0.0
 30
0.0
  0
VERTEX
  5
692
330
691
100
AcDbEntity
  8
BEMA_UNG
 62
     7
100
AcDbVertex
100
AcDb2dVertex
 10
33.60727313869207
 20
-95.39837427060502
 30
0.0
  0
VERTEX
  5
693
330
691
100
AcDbEntity
  8
BEMA_UNG
 62
     7
100
AcDbVertex
100
AcDb2dVertex
 10
32.42233176484115
 20
-95.39837427060502
 30
0.0
  0
SEQEND
  5
694
330
691
100
AcDbEntity
  8
BEMA_UNG
  0
POLYLINE
  5
695
330
1F
100
AcDbEntity
  8
BEMA_UNG
 62
     7
100
AcDb2dPolyline
 66
     1
 10
0.0
 20
0.0
 30
0.0
  0
VERTEX
  5
696
330
695
100
AcDbEntity
  8
BEMA_UNG
 62
     7
100
AcDbVertex
100
AcDb2dVertex
 10
33.60727313869207
 20
-95.34773133356298
 30
0.0
  0
VERTEX
  5
697
330
695
100
AcDbEntity
  8
BEMA_UNG
 62
     7
100
AcDbVertex
100
AcDb2dVertex
 10
32.03596405128574
 20
-95.34773133356298
 30
0.0
  0
SEQEND
  5
698
330
695
100
AcDbEntity
  8
BEMA_UNG
  0
POLYLINE
  5
699
330
1F
100
AcDbEntity
  8
BEMA_UNG
 62
     7
100
AcDb2dPolyline
 66
     1
 10
0.0
 20
0.0
 30
0.0
  0
VERTEX
  5
69A
330
699
100
AcDbEntity
  8
BEMA_UNG
 62
     7
100
AcDbVertex
100
AcDb2dVertex
 10
33.60727313869207
 20
-95.29708839652093
 30
0.0
  0
VERTEX
  5
69B
330
699
100
AcDbEntity
  8
BEMA_UNG
 62
     7
100
AcDbVertex
100
AcDb2dVertex
 10
31.65062986705773
 20
-95.29708839652093
 30
0.0
  0
SEQEND
  5
69C
330
699
100
AcDbEntity
  8
BEMA_UNG
  0
POLYLINE
  5
69D
330
1F
100
AcDbEntity
  8
BEMA_UNG
 62
     7
100
AcDb2dPolyline
 66
     1
 10
0.0
 20
0.0
 30
0.0
  0
VERTEX
  5
69E
330
69D
100
AcDbEntity
  8
BEMA_UNG
 62
     7
100
AcDbVertex
100
AcDb2dVertex
 10
33.60727313869207
 20
-95.2459286948152
 30
0.0
  0
VERTEX
  5
69F
330
69D
100
AcDbEntity
  8
BEMA_UNG
 62
     7
100
AcDbVertex
100
AcDb2dVertex
 10
31.26460666327812
 20
-95.2459286948152
 30
0.0
  0
SEQEND
  5
6A0
330
69D
100
AcDbEntity
  8
BEMA_UNG
  0
POLYLINE
  5
6A1
330
1F
100
AcDbEntity
  8
BEMA_UNG
 62
     7
100
AcDb2dPolyline
 66
     1
 10
0.0
 20
0.0
 30
0.0
  0
VERTEX
  5
6A2
330
6A1
100
AcDbEntity
  8
BEMA_UNG
 62
     7
100
AcDbVertex
100
AcDb2dVertex
 10
33.60727313869207
 20
-95.19545801266106
 30
0.0
  0
VERTEX
  5
6A3
330
6A1
100
AcDbEntity
  8
BEMA_UNG
 62
     7
100
AcDbVertex
100
AcDb2dVertex
 10
30.8792724790501
 20
-95.19545801266106
 30
0.0
  0
SEQEND
  5
6A4
330
6A1
100
AcDbEntity
  8
BEMA_UNG
  0
POLYLINE
  5
6A5
330
1F
100
AcDbEntity
  8
BEMA_UNG
 62
     7
100
AcDb2dPolyline
 66
     1
 10
0.0
 20
0.0
 30
0.0
  0
VERTEX
  5
6A6
330
6A5
100
AcDbEntity
  8
BEMA_UNG
 62
     7
100
AcDbVertex
100
AcDb2dVertex
 10
33.60727313869207
 20
-95.14447056584324
 30
0.0
  0
VERTEX
  5
6A7
330
6A5
100
AcDbEntity
  8
BEMA_UNG
 62
     7
100
AcDbVertex
100
AcDb2dVertex
 10
30.4929047654947
 20
-95.14447056584324
 30
0.0
  0
SEQEND
  5
6A8
330
6A5
100
AcDbEntity
  8
BEMA_UNG
  0
POLYLINE
  5
6A9
330
1F
100
AcDbEntity
  8
BEMA_UNG
 62
     7
100
AcDb2dPolyline
 66
     1
 10
0.0
 20
0.0
 30
0.0
  0
VERTEX
  5
6AA
330
6A9
100
AcDbEntity
  8
BEMA_UNG
 62
     7
100
AcDbVertex
100
AcDb2dVertex
 10
33.60727313869207
 20
-95.0938276288012
 30
0.0
  0
VERTEX
  5
6AB
330
6A9
100
AcDbEntity
  8
BEMA_UNG
 62
     7
100
AcDbVertex
100
AcDb2dVertex
 10
30.10705381660299
 20
-95.0938276288012
 30
0.0
  0
SEQEND
  5
6AC
330
6A9
100
AcDbEntity
  8
BEMA_UNG
  0
POLYLINE
  5
6AD
330
1F
100
AcDbEntity
  8
BEMA_UNG
 62
     7
100
AcDb2dPolyline
 66
     1
 10
0.0
 20
0.0
 30
0.0
  0
VERTEX
  5
6AE
330
6AD
100
AcDbEntity
  8
BEMA_UNG
 62
     7
100
AcDbVertex
100
AcDb2dVertex
 10
33.60727313869207
 20
-94.63700766609549
 30
0.0
  0
VERTEX
  5
6AF
330
6AD
100
AcDbEntity
  8
BEMA_UNG
 62
     7
100
AcDbVertex
100
AcDb2dVertex
 10
33.57971235662837
 20
-94.63700766609549
 30
0.0
  0
SEQEND
  5
6B0
330
6AD
100
AcDbEntity
  8
BEMA_UNG
  0
POLYLINE
  5
6B1
330
1F
100
AcDbEntity
  8
BEMA_UNG
 62
     7
100
AcDb2dPolyline
 66
     1
 10
0.0
 20
0.0
 30
0.0
  0
VERTEX
  5
6B2
330
6B1
100
AcDbEntity
  8
BEMA_UNG
 62
     7
100
AcDbVertex
100
AcDb2dVertex
 10
33.60727313869207
 20
-94.63700766609549
 30
0.0
  0
VERTEX
  5
6B3
330
6B1
100
AcDbEntity
  8
BEMA_UNG
 62
     7
100
AcDbVertex
100
AcDb2dVertex
 10
33.57971235662837
 20
-94.63700766609549
 30
0.0
  0
SEQEND
  5
6B4
330
6B1
100
AcDbEntity
  8
BEMA_UNG
  0
POLYLINE
  5
6B5
330
1F
100
AcDbEntity
  8
BEMA_UNG
 62
     7
100
AcDb2dPolyline
 66
     1
 10
0.0
 20
0.0
 30
0.0
  0
VERTEX
  5
6B6
330
6B5
100
AcDbEntity
  8
BEMA_UNG
 62
     7
100
AcDbVertex
100
AcDb2dVertex
 10
33.60727313869207
 20
-94.68765060313751
 30
0.0
  0
VERTEX
  5
6B7
330
6B5
100
AcDbEntity
  8
BEMA_UNG
 62
     7
100
AcDbVertex
100
AcDb2dVertex
 10
33.19386140773666
 20
-94.68765060313751
 30
0.0
  0
SEQEND
  5
6B8
330
6B5
100
AcDbEntity
  8
BEMA_UNG
  0
POLYLINE
  5
6B9
330
1F
100
AcDbEntity
  8
BEMA_UNG
 62
     7
100
AcDb2dPolyline
 66
     1
 10
0.0
 20
0.0
 30
0.0
  0
VERTEX
  5
6BA
330
6B9
100
AcDbEntity
  8
BEMA_UNG
 62
     7
100
AcDbVertex
100
AcDb2dVertex
 10
33.60727313869207
 20
-94.73846579506746
 30
0.0
  0
VERTEX
  5
6BB
330
6B9
100
AcDbEntity
  8
BEMA_UNG
 62
     7
100
AcDbVertex
100
AcDb2dVertex
 10
32.80818271373285
 20
-94.73846579506746
 30
0.0
  0
SEQEND
  5
6BC
330
6B9
100
AcDbEntity
  8
BEMA_UNG
  0
POLYLINE
  5
6BD
330
1F
100
AcDbEntity
  8
BEMA_UNG
 62
     7
100
AcDb2dPolyline
 66
     1
 10
0.0
 20
0.0
 30
0.0
  0
VERTEX
  5
6BE
330
6BD
100
AcDbEntity
  8
BEMA_UNG
 62
     7
100
AcDbVertex
100
AcDb2dVertex
 10
33.60727313869207
 20
-94.78910873210948
 30
0.0
  0
VERTEX
  5
6BF
330
6BD
100
AcDbEntity
  8
BEMA_UNG
 62
     7
100
AcDbVertex
100
AcDb2dVertex
 10
32.42233176484115
 20
-94.78910873210948
 30
0.0
  0
SEQEND
  5
6C0
330
6BD
100
AcDbEntity
  8
BEMA_UNG
  0
POLYLINE
  5
6C1
330
1F
100
AcDbEntity
  8
BEMA_UNG
 62
     7
100
AcDb2dPolyline
 66
     1
 10
0.0
 20
0.0
 30
0.0
  0
VERTEX
  5
6C2
330
6C1
100
AcDbEntity
  8
BEMA_UNG
 62
     7
100
AcDbVertex
100
AcDb2dVertex
 10
33.60727313869207
 20
-94.84009617892733
 30
0.0
  0
VERTEX
  5
6C3
330
6C1
100
AcDbEntity
  8
BEMA_UNG
 62
     7
100
AcDbVertex
100
AcDb2dVertex
 10
32.03596405128574
 20
-94.84009617892733
 30
0.0
  0
SEQEND
  5
6C4
330
6C1
100
AcDbEntity
  8
BEMA_UNG
  0
POLYLINE
  5
6C5
330
1F
100
AcDbEntity
  8
BEMA_UNG
 62
     7
100
AcDb2dPolyline
 66
     1
 10
0.0
 20
0.0
 30
0.0
  0
VERTEX
  5
6C6
330
6C5
100
AcDbEntity
  8
BEMA_UNG
 62
     7
100
AcDbVertex
100
AcDb2dVertex
 10
33.60727313869207
 20
-94.89056686108147
 30
0.0
  0
VERTEX
  5
6C7
330
6C5
100
AcDbEntity
  8
BEMA_UNG
 62
     7
100
AcDbVertex
100
AcDb2dVertex
 10
31.65062986705773
 20
-94.89056686108147
 30
0.0
  0
SEQEND
  5
6C8
330
6C5
100
AcDbEntity
  8
BEMA_UNG
  0
POLYLINE
  5
6C9
330
1F
100
AcDbEntity
  8
BEMA_UNG
 62
     7
100
AcDb2dPolyline
 66
     1
 10
0.0
 20
0.0
 30
0.0
  0
VERTEX
  5
6CA
330
6C9
100
AcDbEntity
  8
BEMA_UNG
 62
     7
100
AcDbVertex
100
AcDb2dVertex
 10
33.60727313869207
 20
-94.9412097981235
 30
0.0
  0
VERTEX
  5
6CB
330
6C9
100
AcDbEntity
  8
BEMA_UNG
 62
     7
100
AcDbVertex
100
AcDb2dVertex
 10
31.26460666327812
 20
-94.9412097981235
 30
0.0
  0
SEQEND
  5
6CC
330
6C9
100
AcDbEntity
  8
BEMA_UNG
  0
POLYLINE
  5
6CD
330
1F
100
AcDbEntity
  8
BEMA_UNG
 62
     7
100
AcDb2dPolyline
 66
     1
 10
0.0
 20
0.0
 30
0.0
  0
VERTEX
  5
6CE
330
6CD
100
AcDbEntity
  8
BEMA_UNG
 62
     7
100
AcDbVertex
100
AcDb2dVertex
 10
33.60727313869207
 20
-94.99219724494134
 30
0.0
  0
VERTEX
  5
6CF
330
6CD
100
AcDbEntity
  8
BEMA_UNG
 62
     7
100
AcDbVertex
100
AcDb2dVertex
 10
30.8792724790501
 20
-94.99219724494134
 30
0.0
  0
SEQEND
  5
6D0
330
6CD
100
AcDbEntity
  8
BEMA_UNG
  0
POLYLINE
  5
6D1
330
1F
100
AcDbEntity
  8
BEMA_UNG
 62
     7
100
AcDb2dPolyline
 66
     1
 10
0.0
 20
0.0
 30
0.0
  0
VERTEX
  5
6D2
330
6D1
100
AcDbEntity
  8
BEMA_UNG
 62
     7
100
AcDbVertex
100
AcDb2dVertex
 10
33.60727313869207
 20
-95.04266792709547
 30
0.0
  0
VERTEX
  5
6D3
330
6D1
100
AcDbEntity
  8
BEMA_UNG
 62
     7
100
AcDbVertex
100
AcDb2dVertex
 10
30.4929047654947
 20
-95.04266792709547
 30
0.0
  0
SEQEND
  5
6D4
330
6D1
100
AcDbEntity
  8
BEMA_UNG
  0
POLYLINE
  5
6D5
330
1F
100
AcDbEntity
  8
BEMA_UNG
 62
     7
100
AcDb2dPolyline
 66
     1
 10
0.0
 20
0.0
 30
0.0
  0
VERTEX
  5
6D6
330
6D5
100
AcDbEntity
  8
BEMA_UNG
 62
     7
100
AcDbVertex
100
AcDb2dVertex
 10
33.60727313869207
 20
-95.0938276288012
 30
0.0
  0
VERTEX
  5
6D7
330
6D5
100
AcDbEntity
  8
BEMA_UNG
 62
     7
100
AcDbVertex
100
AcDb2dVertex
 10
30.10705381660299
 20
-95.0938276288012
 30
0.0
  0
SEQEND
  5
6D8
330
6D5
100
AcDbEntity
  8
BEMA_UNG
  0
MTEXT
  5
6DA
330
1F
100
AcDbEntity
  8
TEXT
 62
     7
100
AcDbMText
 10
71.8027274714375
 20
-49.96959268524321
 30
0.0
 40
3.690596729563111
 41
0.0
 71
     7
 72
     1
  1
\fINDEX Univers 45 Light|b0|i0|c0|p34;\W1;\U+00F825h6
 11
-4.371139000186241E-8
 21
0.999999999999999
 31
0.0
  0
MTEXT
  5
6DB
330
1F
100
AcDbEntity
  8
TEXT
 62
     7
100
AcDbMText
 10
-11.17486359750033
 20
-46.04338702538217
 30
0.0
 40
3.690596729563111
 41
0.0
 71
     7
 72
     1
  1
\fINDEX Univers 45 Light|b0|i0|c0|p34;\W1;\U+00F885
 11
-4.371139000186241E-8
 21
0.999999999999999
 31
0.0
  0
MTEXT
  5
6DC
330
1F
100
AcDbEntity
  8
TEXT
 62
     7
100
AcDbMText
 10
26.15070355135979
 20
-103.9925151376162
 30
0.0
 40
3.690596729563111
 41
0.0
 71
     7
 72
     1
  1
\fINDEX Univers 45 Light|b0|i0|c0|p34;\W1;58
  0
MTEXT
  5
6DD
330
1F
100
AcDbEntity
  8
TEXT
 62
     7
100
AcDbMText
 10
40.86574960494155
 20
-93.84842478929805
 30
0.0
 40
3.690596729563111
 41
0.0
 71
     7
 72
     1
  1
\fINDEX Univers 45 Light|b0|i0|c0|p34;\W1;28
  0
ENDSEC
  0
SECTION
  2
OBJECTS
  0
DICTIONARY
  5
C
330
0
100
AcDbDictionary
  3
ACAD_GROUP
350
D
  3
ACAD_LAYOUT
350
1A
  3
ACAD_MLINESTYLE
350
17
  3
ACAD_PLOTSETTINGS
350
19
  3
ACAD_TABLESTYLE
350
6FE
  3
ACAD_VISUALSTYLE
350
2A
  3
ACDBHEADERROUNDTRIPXREC
350
6DE
  0
DICTIONARY
  5
D
102
{ACAD_REACTORS
330
C
102
}
330
C
100
AcDbDictionary
  0
DICTIONARY
  5
1A
102
{ACAD_REACTORS
330
C
102
}
330
C
100
AcDbDictionary
  0
DICTIONARY
  5
17
102
{ACAD_REACTORS
330
C
102
}
330
C
100
AcDbDictionary
  3
STANDARD
350
18
  0
DICTIONARY
  5
19
102
{ACAD_REACTORS
330
C
102
}
330
C
100
AcDbDictionary
  0
DICTIONARY
  5
6FE
102
{ACAD_REACTORS
330
C
102
}
330
C
100
AcDbDictionary
  0
DICTIONARY
  5
2A
102
{ACAD_REACTORS
330
C
102
}
330
C
100
AcDbDictionary
  3
2DWIREFRAME
350
2F
  3
3D_HIDDEN
350
31
  3
3DWIREFRAME
350
30
  3
BASIC
350
32
  3
BRIGHTEN
350
36
  3
COLORCHANGE
350
3A
  3
CONCEPTUAL
350
34
  3
DIM
350
35
  3
FACEPATTERN
350
39
  3
FLAT
350
2B
  3
FLATWITHEDGES
350
2C
  3
GOURAUD
350
2D
  3
GOURAUDWITHEDGES
350
2E
  3
LINEPATTERN
350
38
  3
REALISTIC
350
33
  3
THICKEN
350
37
  0
DICTIONARY
  5
6DE
102
{ACAD_REACTORS
330
C
102
}
330
C
100
AcDbDictionary
  3
CEPSNTYPE
350
6E7
  3
DIMSTYLEDATA
350
6FD
  3
FINGERPRINTGUID
350
6E8
  3
HYPERLINKBASE
350
6E1
  3
INSUNITS
350
6E6
  3
LAYOUTDICT
350
6E3
  3
LWETCUNION
350
6E5
  3
PLOTSETDICT
350
6E4
  3
PSVPSCALE
350
6EA
  3
PUCSBASE
350
6ED
  3
PUCSORGBACK
350
6F3
  3
PUCSORGBOTTOM
350
6EF
  3
PUCSORGFRONT
350
6F2
  3
PUCSORGLEFT
350
6F0
  3
PUCSORGRIGHT
350
6F1
  3
PUCSORGTOP
350
6EE
  3
PUCSORTHOREF
350
6EB
  3
PUCSORTHOVIEW
350
6EC
  3
STYLESHEET
350
6E2
  3
TSTACKALIGN
350
6DF
  3
TSTACKSIZE
350
6E0
  3
UCSBASE
350
6F6
  3
UCSORGBACK
350
6FC
  3
UCSORGBOTTOM
350
6F8
  3
UCSORGFRONT
350
6FB
  3
UCSORGLEFT
350
6F9
  3
UCSORGRIGHT
350
6FA
  3
UCSORGTOP
350
6F7
  3
UCSORTHOREF
350
6F4
  3
UCSORTHOVIEW
350
6F5
  3
VERSIONGUID
350
6E9
  0
MLINESTYLE
  5
18
102
{ACAD_REACTORS
330
17
102
}
330
17
100
AcDbMlineStyle
  2
Standard
 70
     0
  3

 62
   256
 51
90.0
 52
90.0
 71
     2
 49
0.5
 62
   256
  6
BYLAYER
 49
-0.5
 62
   256
  6
BYLAYER
  0
VISUALSTYLE
  5
2F
102
{ACAD_REACTORS
330
2A
102
}
330
2A
100
AcDbVisualStyle
  2
2dWireframe
 70
     4
 71
     0
 72
     2
 73
     0
 90
        0
 40
-0.6
 41
-30.0
 62
     5
 63
     7
 74
     1
 91
        4
 64
     7
 65
   257
 75
     1
175
     1
 42
1.0
 92
        0
 66
   257
 43
1.0
 76
     1
 77
     6
 78
     2
 67
     7
 79
     5
170
     0
171
     0
290
     0
174
     0
 93
        1
 44
0.0
173
     0
291
     0
 45
0.0
1001
ACAD
1000
AcDbSavedByObjectVersion
1070
     0
  0
VISUALSTYLE
  5
31
102
{ACAD_REACTORS
330
2A
102
}
330
2A
100
AcDbVisualStyle
  2
3D Hidden
 70
     6
 71
     1
 72
     2
 73
     2
 90
        0
 40
-0.6
 41
-30.0
 62
     5
 63
     7
 74
     2
 91
        2
 64
     7
 65
   257
 75
     2
175
     1
 42
40.0
 92
        0
 66
   257
 43
1.0
 76
     1
 77
     6
 78
     2
 67
     7
 79
     3
170
     0
171
     0
290
     0
174
     0
 93
        1
 44
0.0
173
     0
291
     0
 45
0.0
1001
ACAD
1000
AcDbSavedByObjectVersion
1070
     0
  0
VISUALSTYLE
  5
30
102
{ACAD_REACTORS
330
2A
102
}
330
2A
100
AcDbVisualStyle
  2
3dWireframe
 70
     5
 71
     0
 72
     2
 73
     0
 90
        0
 40
-0.6
 41
-30.0
 62
     5
 63
     7
 74
     1
 91
        4
 64
     7
 65
   257
 75
     1
175
     1
 42
1.0
 92
        0
 66
   257
 43
1.0
 76
     1
 77
     6
 78
     2
 67
     7
 79
     5
170
     0
171
     0
290
     0
174
     0
 93
        1
 44
0.0
173
     0
291
     0
 45
0.0
1001
ACAD
1000
AcDbSavedByObjectVersion
1070
     0
  0
VISUALSTYLE
  5
32
102
{ACAD_REACTORS
330
2A
102
}
330
2A
100
AcDbVisualStyle
  2
Basic
 70
     7
 71
     1
 72
     0
 73
     1
 90
        0
 40
-0.6
 41
-30.0
 62
     5
 63
     7
 74
     0
 91
        4
 64
     7
 65
   257
 75
     1
175
     1
 42
1.0
 92
        8
 66
     7
 43
1.0
 76
     1
 77
     6
 78
     2
 67
     7
 79
     5
170
     0
171
     0
290
     0
174
     0
 93
        1
 44
0.0
173
     0
291
     1
 45
0.0
1001
ACAD
1000
AcDbSavedByObjectVersion
1070
     0
  0
VISUALSTYLE
  5
36
102
{ACAD_REACTORS
330
2A
102
}
330
2A
100
AcDbVisualStyle
  2
Brighten
 70
    12
 71
     2
 72
     2
 73
     0
 90
        0
 40
-0.6
 41
-30.0
 62
     5
 63
     7
 74
     1
 91
        4
 64
     7
 65
   257
 75
     1
175
     1
 42
1.0
 92
        8
 66
     7
 43
1.0
 76
     1
 77
     6
 78
     2
 67
     7
 79
     5
170
     0
171
     0
290
     0
174
     0
 93
        1
 44
50.0
173
     0
291
     1
 45
0.0
1001
ACAD
1000
AcDbSavedByObjectVersion
1070
     0
  0
VISUALSTYLE
  5
3A
102
{ACAD_REACTORS
330
2A
102
}
330
2A
100
AcDbVisualStyle
  2
ColorChange
 70
    16
 71
     2
 72
     2
 73
     3
 90
        0
 40
-0.6
 41
-30.0
 62
     5
 63
     8
 74
     1
 91
        4
 64
     7
 65
   257
 75
     1
175
     1
 42
1.0
 92
        8
 66
     8
 43
1.0
 76
     1
 77
     6
 78
     2
 67
     7
 79
     5
170
     0
171
     0
290
     0
174
     0
 93
        1
 44
0.0
173
     0
291
     1
 45
0.0
1001
ACAD
1000
AcDbSavedByObjectVersion
1070
     0
  0
VISUALSTYLE
  5
34
102
{ACAD_REACTORS
330
2A
102
}
330
2A
100
AcDbVisualStyle
  2
Conceptual
 70
     9
 71
     3
 72
     2
 73
     0
 90
        0
 40
-0.6
 41
-30.0
 62
     5
 63
     7
 74
     2
 91
        2
 64
     7
 65
   257
 75
     1
175
     1
 42
40.0
 92
        8
 66
     7
 43
1.0
 76
     1
 77
     6
 78
     2
 67
     7
 79
     3
170
     0
171
     0
290
     0
174
     0
 93
        1
 44
0.0
173
     0
291
     0
 45
0.0
1001
ACAD
1000
AcDbSavedByObjectVersion
1070
     0
  0
VISUALSTYLE
  5
35
102
{ACAD_REACTORS
330
2A
102
}
330
2A
100
AcDbVisualStyle
  2
Dim
 70
    11
 71
     2
 72
     2
 73
     0
 90
        0
 40
-0.6
 41
-30.0
 62
     5
 63
     7
 74
     1
 91
        4
 64
     7
 65
   257
 75
     1
175
     1
 42
1.0
 92
        8
 66
     7
 43
1.0
 76
     1
 77
     6
 78
     2
 67
     7
 79
     5
170
     0
171
     0
290
     0
174
     0
 93
        1
 44
-50.0
173
     0
291
     1
 45
0.0
1001
ACAD
1000
AcDbSavedByObjectVersion
1070
     0
  0
VISUALSTYLE
  5
39
102
{ACAD_REACTORS
330
2A
102
}
330
2A
100
AcDbVisualStyle
  2
Facepattern
 70
    15
 71
     2
 72
     2
 73
     0
 90
        0
 40
-0.6
 41
-30.0
 62
     5
 63
     7
 74
     1
 91
        4
 64
     7
 65
   257
 75
     1
175
     1
 42
1.0
 92
        8
 66
     7
 43
1.0
 76
     1
 77
     6
 78
     2
 67
     7
 79
     5
170
     0
171
     0
290
     0
174
     0
 93
        1
 44
0.0
173
     0
291
     1
 45
0.0
1001
ACAD
1000
AcDbSavedByObjectVersion
1070
     0
  0
VISUALSTYLE
  5
2B
102
{ACAD_REACTORS
330
2A
102
}
330
2A
100
AcDbVisualStyle
  2
Flat
 70
     0
 71
     2
 72
     1
 73
     1
 90
        2
 40
-0.6
 41
30.0
 62
     5
 63
     7
 74
     0
 91
        4
 64
     7
 65
   257
 75
     1
175
     1
 42
1.0
 92
        8
 66
     7
 43
1.0
 76
     1
 77
     6
 78
     2
 67
     7
 79
     5
170
     0
171
     0
290
     0
174
     0
 93
       13
 44
0.0
173
     0
291
     1
 45
0.0
1001
ACAD
1000
AcDbSavedByObjectVersion
1070
     0
  0
VISUALSTYLE
  5
2C
102
{ACAD_REACTORS
330
2A
102
}
330
2A
100
AcDbVisualStyle
  2
FlatWithEdges
 70
     1
 71
     2
 72
     1
 73
     1
 90
        2
 40
-0.6
 41
30.0
 62
     5
 63
     7
 74
     1
 91
        4
 64
     7
 65
   257
 75
     1
175
     1
 42
1.0
 92
        0
 66
   257
 43
1.0
 76
     1
 77
     6
 78
     2
 67
     7
 79
     5
170
     0
171
     0
290
     0
174
     0
 93
       13
 44
0.0
173
     0
291
     1
 45
0.0
1001
ACAD
1000
AcDbSavedByObjectVersion
1070
     0
  0
VISUALSTYLE
  5
2D
102
{ACAD_REACTORS
330
2A
102
}
330
2A
100
AcDbVisualStyle
  2
Gouraud
 70
     2
 71
     2
 72
     2
 73
     1
 90
        2
 40
-0.6
 41
30.0
 62
     5
 63
     7
 74
     0
 91
        4
 64
     7
 65
   257
 75
     1
175
     1
 42
1.0
 92
        0
 66
     7
 43
1.0
 76
     1
 77
     6
 78
     2
 67
     7
 79
     5
170
     0
171
     0
290
     0
174
     0
 93
       13
 44
0.0
173
     0
291
     1
 45
0.0
1001
ACAD
1000
AcDbSavedByObjectVersion
1070
     0
  0
VISUALSTYLE
  5
2E
102
{ACAD_REACTORS
330
2A
102
}
330
2A
100
AcDbVisualStyle
  2
GouraudWithEdges
 70
     3
 71
     2
 72
     2
 73
     1
 90
        2
 40
-0.6
 41
30.0
 62
     5
 63
     7
 74
     1
 91
        4
 64
     7
 65
   257
 75
     1
175
     1
 42
1.0
 92
        0
 66
   257
 43
1.0
 76
     1
 77
     6
 78
     2
 67
     7
 79
     5
170
     0
171
     0
290
     0
174
     0
 93
       13
 44
0.0
173
     0
291
     1
 45
0.0
1001
ACAD
1000
AcDbSavedByObjectVersion
1070
     0
  0
VISUALSTYLE
  5
38
102
{ACAD_REACTORS
330
2A
102
}
330
2A
100
AcDbVisualStyle
  2
Linepattern
 70
    14
 71
     2
 72
     2
 73
     0
 90
        0
 40
-0.6
 41
-30.0
 62
     5
 63
     7
 74
     1
 91
        4
 64
     7
 65
   257
 75
     7
175
     7
 42
1.0
 92
        8
 66
     7
 43
1.0
 76
     1
 77
     6
 78
     2
 67
     7
 79
     5
170
     0
171
     0
290
     0
174
     0
 93
        1
 44
0.0
173
     0
291
     1
 45
0.0
1001
ACAD
1000
AcDbSavedByObjectVersion
1070
     0
  0
VISUALSTYLE
  5
33
102
{ACAD_REACTORS
330
2A
102
}
330
2A
100
AcDbVisualStyle
  2
Realistic
 70
     8
 71
     2
 72
     2
 73
     0
 90
        0
 40
-0.6
 41
-30.0
 62
     5
 63
     7
 74
     1
 91
        0
 64
     7
 65
   257
 75
     1
175
     1
 42
1.0
 92
        8
 66
     8
 43
1.0
 76
     1
 77
     6
 78
     2
 67
     7
 79
     5
170
     0
171
     0
290
     0
174
     0
 93
       13
 44
0.0
173
     0
291
     0
 45
0.0
1001
ACAD
1000
AcDbSavedByObjectVersion
1070
     0
  0
VISUALSTYLE
  5
37
102
{ACAD_REACTORS
330
2A
102
}
330
2A
100
AcDbVisualStyle
  2
Thicken
 70
    13
 71
     2
 72
     2
 73
     0
 90
        0
 40
-0.6
 41
-30.0
 62
     5
 63
     7
 74
     1
 91
        4
 64
     7
 65
   257
 75
     1
175
     1
 42
1.0
 92
       12
 66
     7
 43
1.0
 76
     1
 77
     6
 78
     2
 67
     7
 79
     5
170
     0
171
     0
290
     0
174
     0
 93
        1
 44
0.0
173
     0
291
     1
 45
0.0
1001
ACAD
1000
AcDbSavedByObjectVersion
1070
     0
  0
XRECORD
  5
6E7
102
{ACAD_REACTORS
330
6DE
102
}
330
6DE
100
AcDbXrecord
 90
        0
  0
XRECORD
  5
6FD
102
{ACAD_REACTORS
330
6DE
102
}
330
6DE
100
AcDbXrecord
1000
DSTYLE
1002
{
1070
   340
340
11
1002
}
  0
XRECORD
  5
6E8
102
{ACAD_REACTORS
330
6DE
102
}
330
6DE
100
AcDbXrecord
  1
{03D06A48-48DD-404D-8244-60306B5568BD}
  0
XRECORD
  5
6E1
102
{ACAD_REACTORS
330
6DE
102
}
330
6DE
100
AcDbXrecord
  1

  0
XRECORD
  5
6E6
102
{ACAD_REACTORS
330
6DE
102
}
330
6DE
100
AcDbXrecord
 90
        1
  0
XRECORD
  5
6E3
102
{ACAD_REACTORS
330
6DE
102
}
330
6DE
100
AcDbXrecord
340
1A
  0
XRECORD
  5
6E5
102
{ACAD_REACTORS
330
6DE
102
}
330
6DE
100
AcDbXrecord
 90
    10269
  0
XRECORD
  5
6E4
102
{ACAD_REACTORS
330
6DE
102
}
330
6DE
100
AcDbXrecord
340
19
  0
XRECORD
  5
6EA
102
{ACAD_REACTORS
330
6DE
102
}
330
6DE
100
AcDbXrecord
 40
0.0
  0
XRECORD
  5
6ED
102
{ACAD_REACTORS
330
6DE
102
}
330
6DE
100
AcDbXrecord
340
0
  0
XRECORD
  5
6F3
102
{ACAD_REACTORS
330
6DE
102
}
330
6DE
100
AcDbXrecord
 10
0.0
 20
0.0
 30
0.0
  0
XRECORD
  5
6EF
102
{ACAD_REACTORS
330
6DE
102
}
330
6DE
100
AcDbXrecord
 10
0.0
 20
0.0
 30
0.0
  0
XRECORD
  5
6F2
102
{ACAD_REACTORS
330
6DE
102
}
330
6DE
100
AcDbXrecord
 10
0.0
 20
0.0
 30
0.0
  0
XRECORD
  5
6F0
102
{ACAD_REACTORS
330
6DE
102
}
330
6DE
100
AcDbXrecord
 10
0.0
 20
0.0
 30
0.0
  0
XRECORD
  5
6F1
102
{ACAD_REACTORS
330
6DE
102
}
330
6DE
100
AcDbXrecord
 10
0.0
 20
0.0
 30
0.0
  0
XRECORD
  5
6EE
102
{ACAD_REACTORS
330
6DE
102
}
330
6DE
100
AcDbXrecord
 10
0.0
 20
0.0
 30
0.0
  0
XRECORD
  5
6EB
102
{ACAD_REACTORS
330
6DE
102
}
330
6DE
100
AcDbXrecord
340
0
  0
XRECORD
  5
6EC
102
{ACAD_REACTORS
330
6DE
102
}
330
6DE
100
AcDbXrecord
 70
     0
  0
XRECORD
  5
6E2
102
{ACAD_REACTORS
330
6DE
102
}
330
6DE
100
AcDbXrecord
  1

  0
XRECORD
  5
6DF
102
{ACAD_REACTORS
330
6DE
102
}
330
6DE
100
AcDbXrecord
 90
        1
  0
XRECORD
  5
6E0
102
{ACAD_REACTORS
330
6DE
102
}
330
6DE
100
AcDbXrecord
 90
       70
  0
XRECORD
  5
6F6
102
{ACAD_REACTORS
330
6DE
102
}
330
6DE
100
AcDbXrecord
340
0
  0
XRECORD
  5
6FC
102
{ACAD_REACTORS
330
6DE
102
}
330
6DE
100
AcDbXrecord
 10
0.0
 20
0.0
 30
0.0
  0
XRECORD
  5
6F8
102
{ACAD_REACTORS
330
6DE
102
}
330
6DE
100
AcDbXrecord
 10
0.0
 20
0.0
 30
0.0
  0
XRECORD
  5
6FB
102
{ACAD_REACTORS
330
6DE
102
}
330
6DE
100
AcDbXrecord
 10
0.0
 20
0.0
 30
0.0
  0
XRECORD
  5
6F9
102
{ACAD_REACTORS
330
6DE
102
}
330
6DE
100
AcDbXrecord
 10
0.0
 20
0.0
 30
0.0
  0
XRECORD
  5
6FA
102
{ACAD_REACTORS
330
6DE
102
}
330
6DE
100
AcDbXrecord
 10
0.0
 20
0.0
 30
0.0
  0
XRECORD
  5
6F7
102
{ACAD_REACTORS
330
6DE
102
}
330
6DE
100
AcDbXrecord
 10
0.0
 20
0.0
 30
0.0
  0
XRECORD
  5
6F4
102
{ACAD_REACTORS
330
6DE
102
}
330
6DE
100
AcDbXrecord
340
0
  0
XRECORD
  5
6F5
102
{ACAD_REACTORS
330
6DE
102
}
330
6DE
100
AcDbXrecord
 70
     0
  0
XRECORD
  5
6E9
102
{ACAD_REACTORS
330
6DE
102
}
330
6DE
100
AcDbXrecord
  1
{FAEB1C32-E019-11D5-929B-00C0DF256EC4}
  0
ENDSEC
  0
EOF
