ISO-10303-21;
HEADER;
/* Generated by software containing ST-Developer
 * from STEP Tools, Inc. (www.steptools.com) 
 */
/* OPTION: using custom schema-name function */

FILE_DESCRIPTION(
/* description */ (''),
/* implementation_level */ '2;1');

FILE_NAME(
/* name */ '10011178998nxv000_00_214.stp',
/* time_stamp */ '2022-03-07T08:34:17+01:00',
/* author */ (''),
/* organization */ (''),
/* preprocessor_version */ 'ST-DEVELOPER v16.7',
/* originating_system */ 'SIEMENS PLM Software NX 12.0',
/* authorisation */ '');

FILE_SCHEMA (('AUTOMOTIVE_DESIGN { 1 0 10303 214 3 1 1 1 }'));
ENDSEC;

DATA;
#10=SHAPE_REPRESENTATION_RELATIONSHIP('None',
'relationship between 10011178998nxv000_00-None and 10011178998nxv000_
00-None',#22,#11);
#11=ADVANCED_BREP_SHAPE_REPRESENTATION('10011178998nxv000_00-None',(#32),
#447);
#12=SHAPE_DEFINITION_REPRESENTATION(#13,#22);
#13=PRODUCT_DEFINITION_SHAPE('','',#14);
#14=PRODUCT_DEFINITION(' ','',#16,#15);
#15=PRODUCT_DEFINITION_CONTEXT('part definition',#21,'design');
#16=PRODUCT_DEFINITION_FORMATION_WITH_SPECIFIED_SOURCE(' ',' ',#18,
 .NOT_KNOWN.);
#17=PRODUCT_RELATED_PRODUCT_CATEGORY('part','',(#18));
#18=PRODUCT('10011178998nxv000_00','10011178998nxv000_00',' ',(#19));
#19=PRODUCT_CONTEXT(' ',#21,'mechanical');
#20=APPLICATION_PROTOCOL_DEFINITION('international standard',
'automotive_design',2010,#21);
#21=APPLICATION_CONTEXT(
'core data for automotive mechanical design processes');
#22=SHAPE_REPRESENTATION('10011178998nxv000_00-None',(#260),#447);
#23=PRESENTATION_LAYER_ASSIGNMENT('10','Layer 10',(#32));
#24=STYLED_ITEM('',(#25),#32);
#25=PRESENTATION_STYLE_ASSIGNMENT((#26));
#26=SURFACE_STYLE_USAGE(.BOTH.,#27);
#27=SURFACE_SIDE_STYLE('',(#28));
#28=SURFACE_STYLE_FILL_AREA(#29);
#29=FILL_AREA_STYLE('',(#30));
#30=FILL_AREA_STYLE_COLOUR('',#31);
#31=COLOUR_RGB('Orange',1.,0.499992370489052,0.);
#32=MANIFOLD_SOLID_BREP('',#33);
#33=CLOSED_SHELL('',(#60,#61,#62,#63,#64,#65,#66,#67,#68,#69,#70,#71,#72,
#73,#74,#75,#76));
#34=TOROIDAL_SURFACE('',#288,3.56954236670226,0.5);
#35=VERTEX_LOOP('',#209);
#36=PLANE('',#271);
#37=PLANE('',#277);
#38=PLANE('',#281);
#39=PLANE('',#287);
#40=PLANE('',#289);
#41=PLANE('',#290);
#42=PLANE('',#291);
#43=PLANE('',#292);
#44=CONICAL_SURFACE('',#268,5.98999999999999,30.);
#45=CONICAL_SURFACE('',#270,5.98999999999999,30.);
#46=CONICAL_SURFACE('',#273,1.50471980671732,45.0899999999998);
#47=CONICAL_SURFACE('',#279,2.73076951545866,14.9999999999991);
#48=CONICAL_SURFACE('',#284,6.09999999999999,12.);
#49=FACE_OUTER_BOUND('',#118,.T.);
#50=FACE_OUTER_BOUND('',#119,.T.);
#51=FACE_OUTER_BOUND('',#120,.T.);
#52=FACE_OUTER_BOUND('',#138,.T.);
#53=FACE_OUTER_BOUND('',#139,.T.);
#54=FACE_OUTER_BOUND('',#140,.T.);
#55=FACE_OUTER_BOUND('',#141,.T.);
#56=B_SPLINE_CURVE_WITH_KNOTS('',3,(#387,#388,#389,#390),.UNSPECIFIED.,
 .F.,.F.,(4,4),(0.,1.),.UNSPECIFIED.);
#57=B_SPLINE_CURVE_WITH_KNOTS('',3,(#394,#395,#396,#397),.UNSPECIFIED.,
 .F.,.F.,(4,4),(0.,1.),.UNSPECIFIED.);
#58=B_SPLINE_CURVE_WITH_KNOTS('',3,(#402,#403,#404,#405),.UNSPECIFIED.,
 .F.,.F.,(4,4),(0.,1.),.UNSPECIFIED.);
#59=B_SPLINE_CURVE_WITH_KNOTS('',3,(#406,#407,#408,#409),.UNSPECIFIED.,
 .F.,.F.,(4,4),(0.,1.),.UNSPECIFIED.);
#60=ADVANCED_FACE('',(#96,#97),#77,.T.);
#61=ADVANCED_FACE('',(#49),#44,.T.);
#62=ADVANCED_FACE('',(#50),#45,.T.);
#63=ADVANCED_FACE('',(#51),#36,.F.);
#64=ADVANCED_FACE('',(#98,#99),#46,.T.);
#65=ADVANCED_FACE('',(#100,#101),#78,.T.);
#66=ADVANCED_FACE('',(#102,#103),#37,.F.);
#67=ADVANCED_FACE('',(#104,#105),#47,.T.);
#68=ADVANCED_FACE('',(#106,#107),#38,.F.);
#69=ADVANCED_FACE('',(#108,#109),#48,.T.);
#70=ADVANCED_FACE('',(#110,#111),#79,.T.);
#71=ADVANCED_FACE('',(#112,#113),#39,.F.);
#72=ADVANCED_FACE('',(#114,#115),#34,.T.);
#73=ADVANCED_FACE('',(#52),#40,.T.);
#74=ADVANCED_FACE('',(#53),#41,.T.);
#75=ADVANCED_FACE('',(#54),#42,.T.);
#76=ADVANCED_FACE('',(#55),#43,.T.);
#77=CYLINDRICAL_SURFACE('',#266,5.98999999999999);
#78=CYLINDRICAL_SURFACE('',#275,1.50471980671732);
#79=CYLINDRICAL_SURFACE('',#286,6.09999999999999);
#80=LINE('',#370,#88);
#81=LINE('',#375,#89);
#82=LINE('',#379,#90);
#83=LINE('',#383,#91);
#84=LINE('',#411,#92);
#85=LINE('',#412,#93);
#86=LINE('',#440,#94);
#87=LINE('',#443,#95);
#88=VECTOR('',#297,1.);
#89=VECTOR('',#300,1.);
#90=VECTOR('',#303,1.);
#91=VECTOR('',#306,1.);
#92=VECTOR('',#319,1.);
#93=VECTOR('',#320,1.);
#94=VECTOR('',#357,1.);
#95=VECTOR('',#362,1.);
#96=FACE_BOUND('',#116,.T.);
#97=FACE_BOUND('',#117,.T.);
#98=FACE_BOUND('',#35,.T.);
#99=FACE_BOUND('',#121,.T.);
#100=FACE_BOUND('',#122,.T.);
#101=FACE_BOUND('',#123,.T.);
#102=FACE_BOUND('',#124,.T.);
#103=FACE_BOUND('',#125,.T.);
#104=FACE_BOUND('',#126,.T.);
#105=FACE_BOUND('',#127,.T.);
#106=FACE_BOUND('',#128,.T.);
#107=FACE_BOUND('',#129,.T.);
#108=FACE_BOUND('',#130,.T.);
#109=FACE_BOUND('',#131,.T.);
#110=FACE_BOUND('',#132,.T.);
#111=FACE_BOUND('',#133,.T.);
#112=FACE_BOUND('',#134,.T.);
#113=FACE_BOUND('',#135,.T.);
#114=FACE_BOUND('',#136,.T.);
#115=FACE_BOUND('',#137,.T.);
#116=EDGE_LOOP('',(#142));
#117=EDGE_LOOP('',(#143,#144,#145,#146,#147,#148,#149,#150));
#118=EDGE_LOOP('',(#151,#152,#153,#154));
#119=EDGE_LOOP('',(#155,#156,#157,#158));
#120=EDGE_LOOP('',(#159,#160,#161,#162));
#121=EDGE_LOOP('',(#163));
#122=EDGE_LOOP('',(#164));
#123=EDGE_LOOP('',(#165));
#124=EDGE_LOOP('',(#166));
#125=EDGE_LOOP('',(#167));
#126=EDGE_LOOP('',(#168));
#127=EDGE_LOOP('',(#169));
#128=EDGE_LOOP('',(#170));
#129=EDGE_LOOP('',(#171));
#130=EDGE_LOOP('',(#172));
#131=EDGE_LOOP('',(#173));
#132=EDGE_LOOP('',(#174));
#133=EDGE_LOOP('',(#175));
#134=EDGE_LOOP('',(#176));
#135=EDGE_LOOP('',(#177));
#136=EDGE_LOOP('',(#178));
#137=EDGE_LOOP('',(#179));
#138=EDGE_LOOP('',(#180,#181));
#139=EDGE_LOOP('',(#182,#183,#184,#185,#186,#187));
#140=EDGE_LOOP('',(#188,#189));
#141=EDGE_LOOP('',(#190,#191,#192,#193,#194,#195));
#142=ORIENTED_EDGE('',*,*,#218,.F.);
#143=ORIENTED_EDGE('',*,*,#219,.F.);
#144=ORIENTED_EDGE('',*,*,#220,.T.);
#145=ORIENTED_EDGE('',*,*,#221,.F.);
#146=ORIENTED_EDGE('',*,*,#222,.F.);
#147=ORIENTED_EDGE('',*,*,#223,.F.);
#148=ORIENTED_EDGE('',*,*,#224,.T.);
#149=ORIENTED_EDGE('',*,*,#225,.F.);
#150=ORIENTED_EDGE('',*,*,#226,.F.);
#151=ORIENTED_EDGE('',*,*,#220,.F.);
#152=ORIENTED_EDGE('',*,*,#227,.T.);
#153=ORIENTED_EDGE('',*,*,#228,.F.);
#154=ORIENTED_EDGE('',*,*,#229,.T.);
#155=ORIENTED_EDGE('',*,*,#230,.F.);
#156=ORIENTED_EDGE('',*,*,#231,.T.);
#157=ORIENTED_EDGE('',*,*,#224,.F.);
#158=ORIENTED_EDGE('',*,*,#232,.T.);
#159=ORIENTED_EDGE('',*,*,#228,.T.);
#160=ORIENTED_EDGE('',*,*,#233,.T.);
#161=ORIENTED_EDGE('',*,*,#230,.T.);
#162=ORIENTED_EDGE('',*,*,#234,.F.);
#163=ORIENTED_EDGE('',*,*,#235,.T.);
#164=ORIENTED_EDGE('',*,*,#235,.F.);
#165=ORIENTED_EDGE('',*,*,#236,.T.);
#166=ORIENTED_EDGE('',*,*,#236,.F.);
#167=ORIENTED_EDGE('',*,*,#237,.T.);
#168=ORIENTED_EDGE('',*,*,#237,.F.);
#169=ORIENTED_EDGE('',*,*,#238,.T.);
#170=ORIENTED_EDGE('',*,*,#239,.T.);
#171=ORIENTED_EDGE('',*,*,#238,.F.);
#172=ORIENTED_EDGE('',*,*,#240,.T.);
#173=ORIENTED_EDGE('',*,*,#241,.T.);
#174=ORIENTED_EDGE('',*,*,#241,.F.);
#175=ORIENTED_EDGE('',*,*,#242,.T.);
#176=ORIENTED_EDGE('',*,*,#242,.F.);
#177=ORIENTED_EDGE('',*,*,#218,.T.);
#178=ORIENTED_EDGE('',*,*,#240,.F.);
#179=ORIENTED_EDGE('',*,*,#239,.F.);
#180=ORIENTED_EDGE('',*,*,#222,.T.);
#181=ORIENTED_EDGE('',*,*,#243,.F.);
#182=ORIENTED_EDGE('',*,*,#223,.T.);
#183=ORIENTED_EDGE('',*,*,#243,.T.);
#184=ORIENTED_EDGE('',*,*,#221,.T.);
#185=ORIENTED_EDGE('',*,*,#229,.F.);
#186=ORIENTED_EDGE('',*,*,#234,.T.);
#187=ORIENTED_EDGE('',*,*,#232,.F.);
#188=ORIENTED_EDGE('',*,*,#226,.T.);
#189=ORIENTED_EDGE('',*,*,#244,.T.);
#190=ORIENTED_EDGE('',*,*,#219,.T.);
#191=ORIENTED_EDGE('',*,*,#244,.F.);
#192=ORIENTED_EDGE('',*,*,#225,.T.);
#193=ORIENTED_EDGE('',*,*,#231,.F.);
#194=ORIENTED_EDGE('',*,*,#233,.F.);
#195=ORIENTED_EDGE('',*,*,#227,.F.);
#196=VERTEX_POINT('',#369);
#197=VERTEX_POINT('',#371);
#198=VERTEX_POINT('',#372);
#199=VERTEX_POINT('',#374);
#200=VERTEX_POINT('',#376);
#201=VERTEX_POINT('',#378);
#202=VERTEX_POINT('',#380);
#203=VERTEX_POINT('',#382);
#204=VERTEX_POINT('',#384);
#205=VERTEX_POINT('',#391);
#206=VERTEX_POINT('',#393);
#207=VERTEX_POINT('',#400);
#208=VERTEX_POINT('',#401);
#209=VERTEX_POINT('',#414);
#210=VERTEX_POINT('',#416);
#211=VERTEX_POINT('',#419);
#212=VERTEX_POINT('',#422);
#213=VERTEX_POINT('',#425);
#214=VERTEX_POINT('',#428);
#215=VERTEX_POINT('',#431);
#216=VERTEX_POINT('',#433);
#217=VERTEX_POINT('',#436);
#218=EDGE_CURVE('',#196,#196,#245,.T.);
#219=EDGE_CURVE('',#197,#198,#80,.T.);
#220=EDGE_CURVE('',#197,#199,#246,.T.);
#221=EDGE_CURVE('',#200,#199,#81,.T.);
#222=EDGE_CURVE('',#201,#200,#247,.T.);
#223=EDGE_CURVE('',#202,#201,#82,.T.);
#224=EDGE_CURVE('',#202,#203,#248,.T.);
#225=EDGE_CURVE('',#204,#203,#83,.T.);
#226=EDGE_CURVE('',#198,#204,#249,.T.);
#227=EDGE_CURVE('',#197,#205,#56,.T.);
#228=EDGE_CURVE('',#206,#205,#250,.T.);
#229=EDGE_CURVE('',#206,#199,#57,.T.);
#230=EDGE_CURVE('',#207,#208,#251,.T.);
#231=EDGE_CURVE('',#207,#203,#58,.T.);
#232=EDGE_CURVE('',#202,#208,#59,.T.);
#233=EDGE_CURVE('',#205,#207,#84,.T.);
#234=EDGE_CURVE('',#206,#208,#85,.T.);
#235=EDGE_CURVE('',#210,#210,#252,.T.);
#236=EDGE_CURVE('',#211,#211,#253,.T.);
#237=EDGE_CURVE('',#212,#212,#254,.T.);
#238=EDGE_CURVE('',#213,#213,#255,.T.);
#239=EDGE_CURVE('',#214,#214,#256,.T.);
#240=EDGE_CURVE('',#215,#215,#257,.T.);
#241=EDGE_CURVE('',#216,#216,#258,.T.);
#242=EDGE_CURVE('',#217,#217,#259,.T.);
#243=EDGE_CURVE('',#201,#200,#86,.T.);
#244=EDGE_CURVE('',#204,#198,#87,.T.);
#245=CIRCLE('',#261,5.98999999999999);
#246=CIRCLE('',#262,5.98999999999999);
#247=CIRCLE('',#263,5.98999999999999);
#248=CIRCLE('',#264,5.98999999999999);
#249=CIRCLE('',#265,5.98999999999999);
#250=CIRCLE('',#267,5.41264973081037);
#251=CIRCLE('',#269,5.41264973081037);
#252=CIRCLE('',#272,1.50471980671732);
#253=CIRCLE('',#274,1.50471980671732);
#254=CIRCLE('',#276,2.56999999999999);
#255=CIRCLE('',#278,2.73076951545866);
#256=CIRCLE('',#280,3.56954236670226);
#257=CIRCLE('',#282,4.05861616706917);
#258=CIRCLE('',#283,6.09999999999999);
#259=CIRCLE('',#285,6.09999999999999);
#260=AXIS2_PLACEMENT_3D('',#367,#293,#294);
#261=AXIS2_PLACEMENT_3D('',#368,#295,#296);
#262=AXIS2_PLACEMENT_3D('',#373,#298,#299);
#263=AXIS2_PLACEMENT_3D('',#377,#301,#302);
#264=AXIS2_PLACEMENT_3D('',#381,#304,#305);
#265=AXIS2_PLACEMENT_3D('',#385,#307,#308);
#266=AXIS2_PLACEMENT_3D('',#386,#309,#310);
#267=AXIS2_PLACEMENT_3D('',#392,#311,#312);
#268=AXIS2_PLACEMENT_3D('',#398,#313,#314);
#269=AXIS2_PLACEMENT_3D('',#399,#315,#316);
#270=AXIS2_PLACEMENT_3D('',#410,#317,#318);
#271=AXIS2_PLACEMENT_3D('',#413,#321,#322);
#272=AXIS2_PLACEMENT_3D('',#415,#323,#324);
#273=AXIS2_PLACEMENT_3D('',#417,#325,#326);
#274=AXIS2_PLACEMENT_3D('',#418,#327,#328);
#275=AXIS2_PLACEMENT_3D('',#420,#329,#330);
#276=AXIS2_PLACEMENT_3D('',#421,#331,#332);
#277=AXIS2_PLACEMENT_3D('',#423,#333,#334);
#278=AXIS2_PLACEMENT_3D('',#424,#335,#336);
#279=AXIS2_PLACEMENT_3D('',#426,#337,#338);
#280=AXIS2_PLACEMENT_3D('',#427,#339,#340);
#281=AXIS2_PLACEMENT_3D('',#429,#341,#342);
#282=AXIS2_PLACEMENT_3D('',#430,#343,#344);
#283=AXIS2_PLACEMENT_3D('',#432,#345,#346);
#284=AXIS2_PLACEMENT_3D('',#434,#347,#348);
#285=AXIS2_PLACEMENT_3D('',#435,#349,#350);
#286=AXIS2_PLACEMENT_3D('',#437,#351,#352);
#287=AXIS2_PLACEMENT_3D('',#438,#353,#354);
#288=AXIS2_PLACEMENT_3D('',#439,#355,#356);
#289=AXIS2_PLACEMENT_3D('',#441,#358,#359);
#290=AXIS2_PLACEMENT_3D('',#442,#360,#361);
#291=AXIS2_PLACEMENT_3D('',#444,#363,#364);
#292=AXIS2_PLACEMENT_3D('',#445,#365,#366);
#293=DIRECTION('',(0.,0.,1.));
#294=DIRECTION('',(1.,0.,0.));
#295=DIRECTION('',(1.,0.,0.));
#296=DIRECTION('',(0.,0.,-1.));
#297=DIRECTION('',(1.,0.,0.));
#298=DIRECTION('',(1.,0.,0.));
#299=DIRECTION('',(0.,0.,-1.));
#300=DIRECTION('',(-1.,0.,0.));
#301=DIRECTION('',(-1.,0.,0.));
#302=DIRECTION('',(0.,0.,1.));
#303=DIRECTION('',(1.,0.,0.));
#304=DIRECTION('',(1.,0.,0.));
#305=DIRECTION('',(0.,0.,-1.));
#306=DIRECTION('',(-1.,0.,0.));
#307=DIRECTION('',(-1.,0.,0.));
#308=DIRECTION('',(0.,0.,1.));
#309=DIRECTION('',(1.,0.,0.));
#310=DIRECTION('',(0.,0.,-1.));
#311=DIRECTION('',(-1.,0.,0.));
#312=DIRECTION('',(0.,0.,-1.));
#313=DIRECTION('',(1.,0.,0.));
#314=DIRECTION('',(9.51608420731417E-17,0.,-1.));
#315=DIRECTION('',(-1.,0.,0.));
#316=DIRECTION('',(0.,0.,-1.));
#317=DIRECTION('',(1.,0.,0.));
#318=DIRECTION('',(9.51608420731417E-17,0.,-1.));
#319=DIRECTION('',(0.,0.,-1.));
#320=DIRECTION('',(0.,0.,-1.));
#321=DIRECTION('',(1.,0.,0.));
#322=DIRECTION('',(0.,0.,-1.));
#323=DIRECTION('',(1.,0.,0.));
#324=DIRECTION('',(0.,0.,-1.));
#325=DIRECTION('',(-1.,0.,0.));
#326=DIRECTION('',(-5.4174967329263E-17,0.,1.));
#327=DIRECTION('',(1.,0.,0.));
#328=DIRECTION('',(0.,0.,-1.));
#329=DIRECTION('',(1.,0.,0.));
#330=DIRECTION('',(0.,0.,-1.));
#331=DIRECTION('',(1.,0.,0.));
#332=DIRECTION('',(0.,0.,-1.));
#333=DIRECTION('',(-1.,0.,0.));
#334=DIRECTION('',(0.,0.,1.));
#335=DIRECTION('',(1.,0.,0.));
#336=DIRECTION('',(0.,0.,-1.));
#337=DIRECTION('',(-1.,0.,0.));
#338=DIRECTION('',(-3.55686295447756E-16,0.,1.));
#339=DIRECTION('',(1.,0.,0.));
#340=DIRECTION('',(0.,0.,1.));
#341=DIRECTION('',(-1.,0.,0.));
#342=DIRECTION('',(0.,0.,1.));
#343=DIRECTION('',(-1.,0.,0.));
#344=DIRECTION('',(0.,0.,-1.));
#345=DIRECTION('',(1.,0.,0.));
#346=DIRECTION('',(0.,0.,-1.));
#347=DIRECTION('',(-1.,0.,0.));
#348=DIRECTION('',(-5.07747408148037E-16,0.,1.));
#349=DIRECTION('',(1.,0.,0.));
#350=DIRECTION('',(0.,0.,-1.));
#351=DIRECTION('',(1.,0.,0.));
#352=DIRECTION('',(0.,0.,-1.));
#353=DIRECTION('',(1.,0.,0.));
#354=DIRECTION('',(0.,0.,-1.));
#355=DIRECTION('',(-1.,0.,0.));
#356=DIRECTION('',(0.,0.,1.));
#357=DIRECTION('',(0.,0.,1.));
#358=DIRECTION('',(-1.,0.,0.));
#359=DIRECTION('',(0.,0.,1.));
#360=DIRECTION('',(-1.25704599708464E-16,-1.,0.));
#361=DIRECTION('',(1.,-1.25767452008319E-16,0.));
#362=DIRECTION('',(0.,0.,1.));
#363=DIRECTION('',(-1.,0.,0.));
#364=DIRECTION('',(0.,0.,1.));
#365=DIRECTION('',(-1.25704599708464E-16,1.,0.));
#366=DIRECTION('',(1.,1.25767452008319E-16,0.));
#367=CARTESIAN_POINT('',(0.,0.,0.));
#368=CARTESIAN_POINT('',(-23.07,0.,0.));
#369=CARTESIAN_POINT('',(-23.07,0.,-5.98999999999999));
#370=CARTESIAN_POINT('',(-119.716849168907,4.99999999999999,3.29849965893587));
#371=CARTESIAN_POINT('',(-71.37,5.,3.29849965893586));
#372=CARTESIAN_POINT('',(-24.07,5.,3.29849965893587));
#373=CARTESIAN_POINT('',(-71.37,0.,0.));
#374=CARTESIAN_POINT('',(-71.37,-5.,3.29849965893586));
#375=CARTESIAN_POINT('',(-119.716849168907,-4.99999999999999,3.29849965893587));
#376=CARTESIAN_POINT('',(-24.07,-5.,3.29849965893587));
#377=CARTESIAN_POINT('',(-24.07,0.,0.));
#378=CARTESIAN_POINT('',(-24.07,-5.,-3.29849965893587));
#379=CARTESIAN_POINT('',(-119.716849168907,-4.99999999999999,-3.29849965893587));
#380=CARTESIAN_POINT('',(-71.37,-5.,-3.29849965893586));
#381=CARTESIAN_POINT('',(-71.37,0.,0.));
#382=CARTESIAN_POINT('',(-71.37,5.,-3.29849965893586));
#383=CARTESIAN_POINT('',(-119.716849168907,4.99999999999999,-3.29849965893587));
#384=CARTESIAN_POINT('',(-24.07,5.,-3.29849965893587));
#385=CARTESIAN_POINT('',(-24.07,0.,0.));
#386=CARTESIAN_POINT('',(-119.716849168907,0.,0.));
#387=CARTESIAN_POINT('',(-71.37,5.,3.29849965893586));
#388=CARTESIAN_POINT('',(-71.7329116591638,5.,2.91800315355639));
#389=CARTESIAN_POINT('',(-72.0781701632847,5.,2.51282119032343));
#390=CARTESIAN_POINT('',(-72.37,5.,2.0728668815053));
#391=CARTESIAN_POINT('',(-72.37,5.,2.07286688150531));
#392=CARTESIAN_POINT('',(-72.37,0.,0.));
#393=CARTESIAN_POINT('',(-72.37,-5.,2.07286688150531));
#394=CARTESIAN_POINT('',(-72.37,-5.,2.07286688150531));
#395=CARTESIAN_POINT('',(-72.0774324021227,-5.,2.5139334179344));
#396=CARTESIAN_POINT('',(-71.7319505707039,-5.,2.9190108114563));
#397=CARTESIAN_POINT('',(-71.37,-5.,3.29849965893585));
#398=CARTESIAN_POINT('',(-71.37,0.,0.));
#399=CARTESIAN_POINT('',(-72.37,0.,0.));
#400=CARTESIAN_POINT('',(-72.37,5.,-2.07286688150531));
#401=CARTESIAN_POINT('',(-72.37,-5.,-2.07286688150531));
#402=CARTESIAN_POINT('',(-72.37,5.,-2.07286688150531));
#403=CARTESIAN_POINT('',(-72.0774324021227,5.,-2.5139334179344));
#404=CARTESIAN_POINT('',(-71.7319505707039,5.,-2.9190108114563));
#405=CARTESIAN_POINT('',(-71.37,5.,-3.29849965893585));
#406=CARTESIAN_POINT('',(-71.37,-5.,-3.29849965893586));
#407=CARTESIAN_POINT('',(-71.7329116591638,-5.,-2.91800315355639));
#408=CARTESIAN_POINT('',(-72.0781701632847,-5.,-2.51282119032343));
#409=CARTESIAN_POINT('',(-72.37,-5.,-2.0728668815053));
#410=CARTESIAN_POINT('',(-71.37,0.,0.));
#411=CARTESIAN_POINT('',(-72.37,5.,9.));
#412=CARTESIAN_POINT('',(-72.37,-5.,9.));
#413=CARTESIAN_POINT('',(-72.37,0.,0.));
#414=CARTESIAN_POINT('',(-1.10791909500862E-15,0.,0.));
#415=CARTESIAN_POINT('',(-1.5,0.,0.));
#416=CARTESIAN_POINT('',(-1.5,0.,-1.50471980671732));
#417=CARTESIAN_POINT('',(-1.5,0.,0.));
#418=CARTESIAN_POINT('',(-6.76999999999999,0.,0.));
#419=CARTESIAN_POINT('',(-6.76999999999999,0.,-1.50471980671732));
#420=CARTESIAN_POINT('',(-119.716849168907,0.,0.));
#421=CARTESIAN_POINT('',(-6.76999999999999,0.,0.));
#422=CARTESIAN_POINT('',(-6.76999999999999,0.,-2.56999999999999));
#423=CARTESIAN_POINT('',(-6.76999999999999,0.,2.56999999999999));
#424=CARTESIAN_POINT('',(-7.37,0.,0.));
#425=CARTESIAN_POINT('',(-7.37,0.,-2.73076951545866));
#426=CARTESIAN_POINT('',(-7.37,0.,0.));
#427=CARTESIAN_POINT('',(-7.37,0.,0.));
#428=CARTESIAN_POINT('',(-7.37,0.,3.56954236670226));
#429=CARTESIAN_POINT('',(-7.37,0.,3.97443438329977));
#430=CARTESIAN_POINT('',(-7.76604415459112,0.,0.));
#431=CARTESIAN_POINT('',(-7.76604415459112,0.,-4.05861616706917));
#432=CARTESIAN_POINT('',(-17.37,0.,0.));
#433=CARTESIAN_POINT('',(-17.37,0.,-6.09999999999999));
#434=CARTESIAN_POINT('',(-17.37,0.,0.));
#435=CARTESIAN_POINT('',(-23.07,0.,0.));
#436=CARTESIAN_POINT('',(-23.07,0.,-6.09999999999999));
#437=CARTESIAN_POINT('',(-119.716849168907,0.,0.));
#438=CARTESIAN_POINT('',(-23.07,0.,5.98999999999999));
#439=CARTESIAN_POINT('',(-7.87,0.,0.));
#440=CARTESIAN_POINT('',(-24.07,-5.,9.));
#441=CARTESIAN_POINT('',(-24.07,-48.,9.));
#442=CARTESIAN_POINT('',(-24.07,-5.,9.));
#443=CARTESIAN_POINT('',(-24.07,5.,9.));
#444=CARTESIAN_POINT('',(-24.07,48.,9.));
#445=CARTESIAN_POINT('',(-24.07,5.,9.));
#446=MECHANICAL_DESIGN_GEOMETRIC_PRESENTATION_REPRESENTATION('',(#24),#447);
#447=(
GEOMETRIC_REPRESENTATION_CONTEXT(3)
GLOBAL_UNCERTAINTY_ASSIGNED_CONTEXT((#448))
GLOBAL_UNIT_ASSIGNED_CONTEXT((#454,#450,#449))
REPRESENTATION_CONTEXT('10011178998nxv000_00_214',
'TOP_LEVEL_ASSEMBLY_PART')
);
#448=UNCERTAINTY_MEASURE_WITH_UNIT(LENGTH_MEASURE(0.0508),#454,
'DISTANCE_ACCURACY_VALUE','Maximum Tolerance applied to model');
#449=(
NAMED_UNIT(*)
SI_UNIT($,.STERADIAN.)
SOLID_ANGLE_UNIT()
);
#450=(
CONVERSION_BASED_UNIT('DEGREE',#452)
NAMED_UNIT(#451)
PLANE_ANGLE_UNIT()
);
#451=DIMENSIONAL_EXPONENTS(0.,0.,0.,0.,0.,0.,0.);
#452=PLANE_ANGLE_MEASURE_WITH_UNIT(PLANE_ANGLE_MEASURE(0.0174532925),#453);
#453=(
NAMED_UNIT(*)
PLANE_ANGLE_UNIT()
SI_UNIT($,.RADIAN.)
);
#454=(
LENGTH_UNIT()
NAMED_UNIT(*)
SI_UNIT(.MILLI.,.METRE.)
);
ENDSEC;
END-ISO-10303-21;
