  0
SECTION
  2
HEADER
  9
$ACADVER
  1
AC1014
  9
$ACADMAINTVER
 70
     9
  9
$DWGCODEPAGE
  3
ANSI_1252
  9
$INSBASE
 10
0.0
 20
0.0
 30
0.0
  9
$EXTMIN
 10
1.000000000000000E+20
 20
1.000000000000000E+20
 30
1.000000000000000E+20
  9
$EXTMAX
 10
-1.000000000000000E+20
 20
-1.000000000000000E+20
 30
-1.000000000000000E+20
  9
$LIMMIN
 10
0.0
 20
0.0
  9
$LIMMAX
 10
12.0
 20
9.0
  9
$ORTHOMODE
 70
     0
  9
$REGENMODE
 70
     1
  9
$FILLMODE
 70
     1
  9
$QTEXTMODE
 70
     0
  9
$MIRRTEXT
 70
     1
  9
$DRAGMODE
 70
     2
  9
$LTSCALE
 40
1.0
  9
$OSMODE
 70
    37
  9
$ATTMODE
 70
     1
  9
$TEXTSIZE
 40
0.2
  9
$TRACEWID
 40
0.05
  9
$TEXTSTYLE
  7
STANDARD
  9
$CLAYER
  8
0
  9
$CELTYPE
  6
BYLAYER
  9
$CECOLOR
 62
   256
  9
$CELTSCALE
 40
1.0
  9
$DELOBJ
 70
     1
  9
$DISPSILH
 70
     0
  9
$DIMSCALE
 40
1.0
  9
$DIMASZ
 40
0.18
  9
$DIMEXO
 40
0.0625
  9
$DIMDLI
 40
0.38
  9
$DIMRND
 40
0.0
  9
$DIMDLE
 40
0.0
  9
$DIMEXE
 40
0.18
  9
$DIMTP
 40
0.0
  9
$DIMTM
 40
0.0
  9
$DIMTXT
 40
0.18
  9
$DIMCEN
 40
0.09
  9
$DIMTSZ
 40
0.0
  9
$DIMTOL
 70
     0
  9
$DIMLIM
 70
     0
  9
$DIMTIH
 70
     1
  9
$DIMTOH
 70
     1
  9
$DIMSE1
 70
     0
  9
$DIMSE2
 70
     0
  9
$DIMTAD
 70
     0
  9
$DIMZIN
 70
     0
  9
$DIMBLK
  1

  9
$DIMASO
 70
     1
  9
$DIMSHO
 70
     1
  9
$DIMPOST
  1

  9
$DIMAPOST
  1

  9
$DIMALT
 70
     0
  9
$DIMALTD
 70
     2
  9
$DIMALTF
 40
25.4
  9
$DIMLFAC
 40
1.0
  9
$DIMTOFL
 70
     0
  9
$DIMTVP
 40
0.0
  9
$DIMTIX
 70
     0
  9
$DIMSOXD
 70
     0
  9
$DIMSAH
 70
     0
  9
$DIMBLK1
  1

  9
$DIMBLK2
  1

  9
$DIMSTYLE
  2
STANDARD
  9
$DIMCLRD
 70
     0
  9
$DIMCLRE
 70
     0
  9
$DIMCLRT
 70
     0
  9
$DIMTFAC
 40
1.0
  9
$DIMGAP
 40
0.09
  9
$DIMJUST
 70
     0
  9
$DIMSD1
 70
     0
  9
$DIMSD2
 70
     0
  9
$DIMTOLJ
 70
     1
  9
$DIMTZIN
 70
     0
  9
$DIMALTZ
 70
     0
  9
$DIMALTTZ
 70
     0
  9
$DIMFIT
 70
     3
  9
$DIMUPT
 70
     0
  9
$DIMUNIT
 70
     2
  9
$DIMDEC
 70
     4
  9
$DIMTDEC
 70
     4
  9
$DIMALTU
 70
     2
  9
$DIMALTTD
 70
     2
  9
$DIMTXSTY
  7
STANDARD
  9
$DIMAUNIT
 70
     0
  9
$LUNITS
 70
     2
  9
$LUPREC
 70
     4
  9
$SKETCHINC
 40
0.1
  9
$FILLETRAD
 40
0.5
  9
$AUNITS
 70
     0
  9
$AUPREC
 70
     0
  9
$MENU
  1
.
  9
$ELEVATION
 40
0.0
  9
$PELEVATION
 40
0.0
  9
$THICKNESS
 40
0.0
  9
$LIMCHECK
 70
     0
  9
$CHAMFERA
 40
0.5
  9
$CHAMFERB
 40
0.5
  9
$CHAMFERC
 40
1.0
  9
$CHAMFERD
 40
0.0
  9
$SKPOLY
 70
     0
  9
$TDCREATE
 40
2458912.45223809
  9
$TDUPDATE
 40
2458912.452238484
  9
$TDINDWG
 40
0.0000000116
  9
$TDUSRTIMER
 40
0.0000000116
  9
$USRTIMER
 70
     1
  9
$ANGBASE
 50
0.0
  9
$ANGDIR
 70
     0
  9
$PDMODE
 70
     0
  9
$PDSIZE
 40
0.0
  9
$PLINEWID
 40
0.0
  9
$COORDS
 70
     1
  9
$SPLFRAME
 70
     0
  9
$SPLINETYPE
 70
     6
  9
$SPLINESEGS
 70
     8
  9
$ATTDIA
 70
     0
  9
$ATTREQ
 70
     1
  9
$HANDLING
 70
     1
  9
$HANDSEED
  5
715
  9
$SURFTAB1
 70
     6
  9
$SURFTAB2
 70
     6
  9
$SURFTYPE
 70
     6
  9
$SURFU
 70
     6
  9
$SURFV
 70
     6
  9
$UCSNAME
  2

  9
$UCSORG
 10
0.0
 20
0.0
 30
0.0
  9
$UCSXDIR
 10
1.0
 20
0.0
 30
0.0
  9
$UCSYDIR
 10
0.0
 20
1.0
 30
0.0
  9
$PUCSNAME
  2

  9
$PUCSORG
 10
0.0
 20
0.0
 30
0.0
  9
$PUCSXDIR
 10
1.0
 20
0.0
 30
0.0
  9
$PUCSYDIR
 10
0.0
 20
1.0
 30
0.0
  9
$USERI1
 70
     0
  9
$USERI2
 70
     0
  9
$USERI3
 70
     0
  9
$USERI4
 70
     0
  9
$USERI5
 70
     0
  9
$USERR1
 40
0.0
  9
$USERR2
 40
0.0
  9
$USERR3
 40
0.0
  9
$USERR4
 40
0.0
  9
$USERR5
 40
0.0
  9
$WORLDVIEW
 70
     1
  9
$SHADEDGE
 70
     3
  9
$SHADEDIF
 70
    70
  9
$TILEMODE
 70
     1
  9
$MAXACTVP
 70
    64
  9
$PINSBASE
 10
0.0
 20
0.0
 30
0.0
  9
$PLIMCHECK
 70
     0
  9
$PEXTMIN
 10
1.000000000000000E+20
 20
1.000000000000000E+20
 30
1.000000000000000E+20
  9
$PEXTMAX
 10
-1.000000000000000E+20
 20
-1.000000000000000E+20
 30
-1.000000000000000E+20
  9
$PLIMMIN
 10
0.0
 20
0.0
  9
$PLIMMAX
 10
12.0
 20
9.0
  9
$UNITMODE
 70
     0
  9
$VISRETAIN
 70
     1
  9
$PLINEGEN
 70
     0
  9
$PSLTSCALE
 70
     1
  9
$TREEDEPTH
 70
  3020
  9
$PICKSTYLE
 70
     1
  9
$CMLSTYLE
  2
STANDARD
  9
$CMLJUST
 70
     0
  9
$CMLSCALE
 40
1.0
  9
$PROXYGRAPHICS
 70
     1
  9
$MEASUREMENT
 70
     0
  0
ENDSEC
  0
SECTION
  2
CLASSES
  0
CLASS
  1
ACDBDICTIONARYWDFLT
  2
AcDbDictionaryWithDefault
  3
ObjectDBX Classes
 90
        0
280
     0
281
     0
  0
CLASS
  1
VISUALSTYLE
  2
AcDbVisualStyle
  3
ObjectDBX Classes
 90
     4095
280
     0
281
     0
  0
CLASS
  1
MATERIAL
  2
AcDbMaterial
  3
ObjectDBX Classes
 90
     1153
280
     0
281
     0
  0
CLASS
  1
SUN
  2
AcDbSun
  3
SCENEOE
 90
     1024
280
     0
281
     0
  0
CLASS
  1
DICTIONARYVAR
  2
AcDbDictionaryVar
  3
ObjectDBX Classes
 90
        0
280
     0
281
     0
  0
CLASS
  1
XRECORD
  2
AcDbXrecord
  3
AutoCAD 2000
 90
        0
280
     0
281
     0
  0
CLASS
  1
LWPOLYLINE
  2
AcDbPolyline
  3
AutoCAD 2000
 90
        0
280
     0
281
     1
  0
CLASS
  1
HATCH
  2
AcDbHatch
  3
AutoCAD 2000
 90
        0
280
     0
281
     1
  0
CLASS
  1
ACDBPLACEHOLDER
  2
AcDbPlaceHolder
  3
ObjectDBX Classes
 90
        0
280
     0
281
     0
  0
CLASS
  1
LAYOUT
  2
AcDbLayout
  3
ObjectDBX Classes
 90
        0
280
     0
281
     0
  0
ENDSEC
  0
SECTION
  2
TABLES
  0
TABLE
  2
VPORT
  5
8
330
0
100
AcDbSymbolTable
 70
     1
  0
VPORT
  5
29
330
8
100
AcDbSymbolTableRecord
100
AcDbViewportTableRecord
  2
*ACTIVE
 70
     0
 10
0.0
 20
0.0
 11
1.0
 21
1.0
 12
0.0
 22
0.0
 13
0.0
 23
0.0
 14
0.5
 24
0.5
 15
0.5
 25
0.5
 16
0.0
 26
0.0
 36
1.0
 17
68.06263032673675
 27
253.9581021670859
 37
0.0
 40
46.63759745327778
 41
1.608968431416404
 42
50.0
 43
0.0
 44
0.0
 50
0.0
 51
0.0
 71
     0
 72
   100
 73
     1
 74
     3
 75
     0
 76
     0
 77
     0
 78
     0
  0
ENDTAB
  0
TABLE
  2
LTYPE
  5
5
330
0
100
AcDbSymbolTable
 70
     4
  0
LTYPE
  5
14
330
5
100
AcDbSymbolTableRecord
100
AcDbLinetypeTableRecord
  2
BYBLOCK
 70
     0
  3

 72
    65
 73
     0
 40
0.0
  0
LTYPE
  5
15
330
5
100
AcDbSymbolTableRecord
100
AcDbLinetypeTableRecord
  2
BYLAYER
 70
     0
  3

 72
    65
 73
     0
 40
0.0
  0
LTYPE
  5
16
330
5
100
AcDbSymbolTableRecord
100
AcDbLinetypeTableRecord
  2
CONTINUOUS
 70
     0
  3
Solid line
 72
    65
 73
     0
 40
0.0
  0
LTYPE
  5
453
330
5
100
AcDbSymbolTableRecord
100
AcDbLinetypeTableRecord
  2
AI-LINETYPE-1
 70
     0
  3
Adobe Illustrator Linetype No. 1
 72
    65
 73
     4
 40
5.997222220722918
 49
4.233333332275
 74
     0
 49
-0.7055555553791667
 74
     0
 49
0.3527777776895833
 74
     0
 49
-0.7055555553791667
 74
     0
  0
LTYPE
  5
473
330
5
100
AcDbSymbolTableRecord
100
AcDbLinetypeTableRecord
  2
AI-LINETYPE-2
 70
     0
  3
Adobe Illustrator Linetype No. 2
 72
    65
 73
     4
 40
5.997222220722918
 49
4.233333332275
 74
     0
 49
-0.7055555553791667
 74
     0
 49
0.3527777776895833
 74
     0
 49
-0.7055555553791667
 74
     0
  0
LTYPE
  5
485
330
5
100
AcDbSymbolTableRecord
100
AcDbLinetypeTableRecord
  2
AI-LINETYPE-3
 70
     0
  3
Adobe Illustrator Linetype No. 3
 72
    65
 73
     4
 40
5.997222220722918
 49
4.233333332275
 74
     0
 49
-0.7055555553791667
 74
     0
 49
0.3527777776895833
 74
     0
 49
-0.7055555553791667
 74
     0
  0
ENDTAB
  0
TABLE
  2
LAYER
  5
2
330
0
100
AcDbSymbolTable
 70
     5
  0
LAYER
  5
10
330
2
100
AcDbSymbolTableRecord
100
AcDbLayerTableRecord
  2
0
 70
     0
 62
     7
  6
CONTINUOUS
  0
LAYER
  5
40
330
2
100
AcDbSymbolTableRecord
100
AcDbLayerTableRecord
  2
GRAU_10_
 70
     0
 62
     7
  6
CONTINUOUS
  0
LAYER
  5
41
330
2
100
AcDbSymbolTableRecord
100
AcDbLayerTableRecord
  2
STANDARDEBENE
 70
     0
 62
     7
  6
CONTINUOUS
  0
LAYER
  5
4CA
330
2
100
AcDbSymbolTableRecord
100
AcDbLayerTableRecord
  2
BEMA_U_00DFUNG
 70
     1
 62
     7
  6
CONTINUOUS
  0
LAYER
  5
6E5
330
2
100
AcDbSymbolTableRecord
100
AcDbLayerTableRecord
  2
TEXT
 70
     1
 62
     7
  6
CONTINUOUS
  0
ENDTAB
  0
TABLE
  2
STYLE
  5
3
330
0
100
AcDbSymbolTable
 70
     1
  0
STYLE
  5
11
330
3
100
AcDbSymbolTableRecord
100
AcDbTextStyleTableRecord
  2
STANDARD
 70
     0
 40
0.0
 41
1.0
 50
0.0
 71
     0
 42
0.2
  3
txt
  4

  0
ENDTAB
  0
TABLE
  2
VIEW
  5
6
330
0
100
AcDbSymbolTable
 70
     0
  0
ENDTAB
  0
TABLE
  2
UCS
  5
7
330
0
100
AcDbSymbolTable
 70
     0
  0
ENDTAB
  0
TABLE
  2
APPID
  5
9
330
0
100
AcDbSymbolTable
 70
     1
  0
APPID
  5
12
330
9
100
AcDbSymbolTableRecord
100
AcDbRegAppTableRecord
  2
ACAD
 70
     0
  0
ENDTAB
  0
TABLE
  2
DIMSTYLE
  5
A
330
0
100
AcDbSymbolTable
 70
     1
  0
DIMSTYLE
105
27
330
A
100
AcDbSymbolTableRecord
100
AcDbDimStyleTableRecord
  2
STANDARD
 70
     0
  3

  4

  5

  6

  7

 40
1.0
 41
0.18
 42
0.0625
 43
0.38
 44
0.18
 45
0.0
 46
0.0
 47
0.0
 48
0.0
140
0.18
141
0.09
142
0.0
143
25.4
144
1.0
145
0.0
146
1.0
147
0.09
 71
     0
 72
     0
 73
     1
 74
     1
 75
     0
 76
     0
 77
     0
 78
     0
170
     0
171
     2
172
     0
173
     0
174
     0
175
     0
176
     0
177
     0
178
     0
270
     2
271
     4
272
     4
273
     2
274
     2
340
11
275
     0
280
     0
281
     0
282
     0
283
     1
284
     0
285
     0
286
     0
287
     3
288
     0
  0
ENDTAB
  0
TABLE
  2
BLOCK_RECORD
  5
1
330
0
100
AcDbSymbolTable
 70
     4
  0
BLOCK_RECORD
  5
1F
330
1
100
AcDbSymbolTableRecord
100
AcDbBlockTableRecord
  2
*MODEL_SPACE
  0
BLOCK_RECORD
  5
1B
330
1
100
AcDbSymbolTableRecord
100
AcDbBlockTableRecord
  2
*PAPER_SPACE
  0
BLOCK_RECORD
  5
42
330
1
100
AcDbSymbolTableRecord
100
AcDbBlockTableRecord
  2
BLOCK_2
  0
BLOCK_RECORD
  5
46
330
1
100
AcDbSymbolTableRecord
100
AcDbBlockTableRecord
  2
BLOCK_3
  0
BLOCK_RECORD
  5
4A
330
1
100
AcDbSymbolTableRecord
100
AcDbBlockTableRecord
  2
BLOCK_4
  0
ENDTAB
  0
ENDSEC
  0
SECTION
  2
BLOCKS
  0
BLOCK
  5
20
330
1F
100
AcDbEntity
  8
0
100
AcDbBlockBegin
  2
*MODEL_SPACE
 70
     0
 10
0.0
 20
0.0
 30
0.0
  3
*MODEL_SPACE
  1

  0
ENDBLK
  5
21
330
1F
100
AcDbEntity
  8
0
100
AcDbBlockEnd
  0
BLOCK
  5
1C
330
1B
100
AcDbEntity
 67
     1
  8
0
100
AcDbBlockBegin
  2
*PAPER_SPACE
 70
     0
 10
0.0
 20
0.0
 30
0.0
  3
*PAPER_SPACE
  1

  0
ENDBLK
  5
1D
330
1B
100
AcDbEntity
 67
     1
  8
0
100
AcDbBlockEnd
  0
BLOCK
  5
44
330
42
100
AcDbEntity
  8
0
100
AcDbBlockBegin
  2
BLOCK_2
 70
     0
 10
0.0
 20
0.0
 30
0.0
  3
BLOCK_2
  1

  0
INSERT
  5
47
330
42
100
AcDbEntity
  8
STANDARDEBENE
100
AcDbBlockReference
  2
BLOCK_3
 10
0.0
 20
0.0
 30
0.0
  0
INSERT
  5
4B
330
42
100
AcDbEntity
  8
STANDARDEBENE
100
AcDbBlockReference
  2
BLOCK_4
 10
0.0
 20
0.0
 30
0.0
  0
ENDBLK
  5
45
330
42
100
AcDbEntity
  8
0
100
AcDbBlockEnd
  0
BLOCK
  5
48
330
46
100
AcDbEntity
  8
0
100
AcDbBlockBegin
  2
BLOCK_3
 70
     0
 10
0.0
 20
0.0
 30
0.0
  3
BLOCK_3
  1

  0
ENDBLK
  5
49
330
46
100
AcDbEntity
  8
0
100
AcDbBlockEnd
  0
BLOCK
  5
4C
330
4A
100
AcDbEntity
  8
0
100
AcDbBlockBegin
  2
BLOCK_4
 70
     0
 10
0.0
 20
0.0
 30
0.0
  3
BLOCK_4
  1

  0
POLYLINE
  5
4E
330
4A
100
AcDbEntity
  8
STANDARDEBENE
 62
     7
100
AcDb2dPolyline
 66
     1
 10
0.0
 20
0.0
 30
0.0
  0
VERTEX
  5
4F
330
4E
100
AcDbEntity
  8
STANDARDEBENE
 62
     7
100
AcDbVertex
100
AcDb2dVertex
 10
26.66413608099121
 20
264.1024015514703
 30
0.0
  0
VERTEX
  5
50
330
4E
100
AcDbEntity
  8
STANDARDEBENE
 62
     7
100
AcDbVertex
100
AcDb2dVertex
 10
26.24433094534604
 20
264.3493457489085
 30
0.0
  0
VERTEX
  5
51
330
4E
100
AcDbEntity
  8
STANDARDEBENE
 62
     7
100
AcDbVertex
100
AcDb2dVertex
 10
25.93388681142353
 20
264.5786510751012
 30
0.0
  0
SEQEND
  5
52
330
4E
100
AcDbEntity
  8
STANDARDEBENE
 62
     7
  0
POLYLINE
  5
53
330
4A
100
AcDbEntity
  8
STANDARDEBENE
 62
     7
100
AcDb2dPolyline
 66
     1
 10
0.0
 20
0.0
 30
0.0
  0
VERTEX
  5
54
330
53
100
AcDbEntity
  8
STANDARDEBENE
 62
     7
100
AcDbVertex
100
AcDb2dVertex
 10
25.93388681142353
 20
263.2380968604366
 30
0.0
  0
VERTEX
  5
55
330
53
100
AcDbEntity
  8
STANDARDEBENE
 62
     7
100
AcDbVertex
100
AcDb2dVertex
 10
26.32899752732472
 20
263.5238465746151
 30
0.0
  0
VERTEX
  5
56
330
53
100
AcDbEntity
  8
STANDARDEBENE
 62
     7
100
AcDbVertex
100
AcDb2dVertex
 10
26.66413608099121
 20
263.7143463840673
 30
0.0
  0
SEQEND
  5
57
330
53
100
AcDbEntity
  8
STANDARDEBENE
 62
     7
  0
SPLINE
  5
58
330
4A
100
AcDbEntity
  8
STANDARDEBENE
 62
     7
100
AcDbSpline
210
0.0
220
0.0
230
1.0
 70
    24
 71
     3
 72
     8
 73
     4
 74
     0
 42
0.0000000001
 43
0.0000000001
 12
1.0
 22
0.0
 32
0.0
 13
1.0
 23
0.0
 33
0.0
 40
0.0
 40
0.0
 40
0.0
 40
0.0
 40
1.0
 40
1.0
 40
1.0
 40
1.0
 10
41.8829541916865
 20
263.9083739677689
 30
0.0
 10
41.8829541916865
 20
263.9365961617618
 30
0.0
 10
41.8829541916865
 20
263.9648183557547
 30
0.0
 10
41.8829541916865
 20
263.9895127754984
 30
0.0
  0
SPLINE
  5
59
330
4A
100
AcDbEntity
  8
STANDARDEBENE
 62
     7
100
AcDbSpline
210
0.0
220
0.0
230
1.0
 70
     8
 71
     3
 72
     8
 73
     4
 74
     0
 42
0.0000000001
 43
0.0000000001
 12
1.0
 22
0.0
 32
0.0
 13
1.0
 23
0.0
 33
0.0
 40
0.0
 40
0.0
 40
0.0
 40
0.0
 40
1.0
 40
1.0
 40
1.0
 40
1.0
 10
41.75242654446907
 20
265.3053725704194
 30
0.0
 10
41.7418432217217
 20
265.3618169584055
 30
0.0
 10
41.73125989897432
 20
265.4182613463916
 30
0.0
 10
41.72067657622694
 20
265.46412241163
 30
0.0
  0
SPLINE
  5
5A
330
4A
100
AcDbEntity
  8
STANDARDEBENE
 62
     7
100
AcDbSpline
210
0.0
220
0.0
230
1.0
 70
     8
 71
     3
 72
     8
 73
     4
 74
     0
 42
0.0000000001
 43
0.0000000001
 12
1.0
 22
0.0
 32
0.0
 13
1.0
 23
0.0
 33
0.0
 40
0.0
 40
0.0
 40
0.0
 40
0.0
 40
1.0
 40
1.0
 40
1.0
 40
1.0
 10
41.33614918307313
 20
266.7341211413126
 30
0.0
 10
41.31498253757838
 20
266.7835099807999
 30
0.0
 10
41.29381589208363
 20
266.8364265945368
 30
0.0
 10
41.27617702083811
 20
266.8822876597752
 30
0.0
  0
SPLINE
  5
5B
330
4A
100
AcDbEntity
  8
STANDARDEBENE
 62
     7
100
AcDbSpline
210
0.0
220
0.0
230
1.0
 70
     8
 71
     3
 72
     8
 73
     4
 74
     0
 42
0.0000000001
 43
0.0000000001
 12
1.0
 22
0.0
 32
0.0
 13
1.0
 23
0.0
 33
0.0
 40
0.0
 40
0.0
 40
0.0
 40
0.0
 40
1.0
 40
1.0
 40
1.0
 40
1.0
 10
40.65176097874419
 20
268.0499809362336
 30
0.0
 10
40.62001101050206
 20
268.095842001472
 30
0.0
 10
40.58826104225993
 20
268.1452308409596
 30
0.0
 10
40.56003884826703
 20
268.1840363576999
 30
0.0
  0
SPLINE
  5
5C
330
4A
100
AcDbEntity
  8
STANDARDEBENE
 62
     7
100
AcDbSpline
210
0.0
220
0.0
230
1.0
 70
     8
 71
     3
 72
     8
 73
     4
 74
     0
 42
0.0000000001
 43
0.0000000001
 12
1.0
 22
0.0
 32
0.0
 13
1.0
 23
0.0
 33
0.0
 40
0.0
 40
0.0
 40
0.0
 40
0.0
 40
1.0
 40
1.0
 40
1.0
 40
1.0
 10
39.72042857697701
 20
269.207090889944
 30
0.0
 10
39.68162306023673
 20
269.2494241809335
 30
0.0
 10
39.64281754349646
 20
269.2882296976741
 30
0.0
 10
39.6075398010051
 20
269.3199796659162
 30
0.0
  0
SPLINE
  5
5D
330
4A
100
AcDbEntity
  8
STANDARDEBENE
 62
     7
100
AcDbSpline
210
0.0
220
0.0
230
1.0
 70
     8
 71
     3
 72
     8
 73
     4
 74
     0
 42
0.0000000001
 43
0.0000000001
 12
1.0
 22
0.0
 32
0.0
 13
1.0
 23
0.0
 33
0.0
 40
0.0
 40
0.0
 40
0.0
 40
0.0
 40
1.0
 40
1.0
 40
1.0
 40
1.0
 10
38.58448526876108
 20
270.1595899372059
 30
0.0
 10
38.53509642927343
 20
270.1948676796973
 30
0.0
 10
38.48923536403469
 20
270.2230898736901
 30
0.0
 10
38.45042984729442
 20
270.251312067683
 30
0.0
  0
SPLINE
  5
5E
330
4A
100
AcDbEntity
  8
STANDARDEBENE
 62
     7
100
AcDbSpline
210
0.0
220
0.0
230
1.0
 70
     8
 71
     3
 72
     8
 73
     4
 74
     0
 42
0.0000000001
 43
0.0000000001
 12
1.0
 22
0.0
 32
0.0
 13
1.0
 23
0.0
 33
0.0
 40
0.0
 40
0.0
 40
0.0
 40
0.0
 40
1.0
 40
1.0
 40
1.0
 40
1.0
 10
37.27920879658745
 20
270.875728109777
 30
0.0
 10
37.22981995709981
 20
270.8968947552717
 30
0.0
 10
37.17690334336292
 20
270.9180614007665
 30
0.0
 10
37.13104227812451
 20
270.935700272012
 30
0.0
  0
SPLINE
  5
5F
330
4A
100
AcDbEntity
  8
STANDARDEBENE
 62
     7
100
AcDbSpline
210
0.0
220
0.0
230
1.0
 70
     8
 71
     3
 72
     8
 73
     4
 74
     0
 42
0.0000000001
 43
0.0000000001
 12
1.0
 22
0.0
 32
0.0
 13
1.0
 23
0.0
 33
0.0
 40
0.0
 40
0.0
 40
0.0
 40
0.0
 40
1.0
 40
1.0
 40
1.0
 40
1.0
 10
35.86457132269084
 20
271.3202276651658
 30
0.0
 10
35.80812693470504
 20
271.3308109879132
 30
0.0
 10
35.75521032096848
 20
271.3449220849098
 30
0.0
 10
35.70582148148051
 20
271.351977633408
 30
0.0
  0
SPLINE
  5
60
330
4A
100
AcDbEntity
  8
STANDARDEBENE
 62
     7
100
AcDbSpline
210
0.0
220
0.0
230
1.0
 70
    24
 71
     3
 72
    11
 73
     7
 74
     0
 42
0.0000000001
 43
0.0000000001
 12
1.0
 22
0.0
 32
0.0
 13
1.0
 23
0.0
 33
0.0
 40
0.0
 40
0.0
 40
0.0
 40
0.0
 40
1.0
 40
1.0
 40
1.0
 40
2.0
 40
2.0
 40
2.0
 40
2.0
 10
34.38996168655952
 20
271.4825052806253
 30
0.0
 10
34.36173949256662
 20
271.4825052806253
 30
0.0
 10
34.33704507282295
 20
271.4825052806253
 30
0.0
 10
34.30882287883006
 20
271.4825052806253
 30
0.0
 10
34.28060068483684
 20
271.4825052806253
 30
0.0
 10
34.25237849084395
 20
271.4825052806253
 30
0.0
 10
34.22768407110028
 20
271.4825052806253
 30
0.0
  0
SPLINE
  5
61
330
4A
100
AcDbEntity
  8
STANDARDEBENE
 62
     7
100
AcDbSpline
210
0.0
220
0.0
230
1.0
 70
     8
 71
     3
 72
     8
 73
     4
 74
     0
 42
0.0000000001
 43
0.0000000001
 12
1.0
 22
0.0
 32
0.0
 13
1.0
 23
0.0
 33
0.0
 40
0.0
 40
0.0
 40
0.0
 40
0.0
 40
1.0
 40
1.0
 40
1.0
 40
1.0
 10
32.90829650193005
 20
271.351977633408
 30
0.0
 10
32.85185211394425
 20
271.3413943106606
 30
0.0
 10
32.79893550020737
 20
271.3308109879132
 30
0.0
 10
32.74954666071972
 20
271.3202276651658
 30
0.0
  0
SPLINE
  5
62
330
4A
100
AcDbEntity
  8
STANDARDEBENE
 62
     7
100
AcDbSpline
210
0.0
220
0.0
230
1.0
 70
     8
 71
     3
 72
     8
 73
     4
 74
     0
 42
0.0000000001
 43
0.0000000001
 12
1.0
 22
0.0
 32
0.0
 13
1.0
 23
0.0
 33
0.0
 40
0.0
 40
0.0
 40
0.0
 40
0.0
 40
1.0
 40
1.0
 40
1.0
 40
1.0
 10
31.48307570528637
 20
270.935700272012
 30
0.0
 10
31.43015909154949
 20
270.9145336265173
 30
0.0
 10
31.37724247781293
 20
270.8933669810225
 30
0.0
 10
31.33490918682342
 20
270.875728109777
 30
0.0
  0
SPLINE
  5
63
330
4A
100
AcDbEntity
  8
STANDARDEBENE
 62
     7
100
AcDbSpline
210
0.0
220
0.0
230
1.0
 70
     8
 71
     3
 72
     8
 73
     4
 74
     0
 42
0.0000000001
 43
0.0000000001
 12
1.0
 22
0.0
 32
0.0
 13
1.0
 23
0.0
 33
0.0
 40
0.0
 40
0.0
 40
0.0
 40
0.0
 40
1.0
 40
1.0
 40
1.0
 40
1.0
 10
30.16721591036537
 20
270.251312067683
 30
0.0
 10
30.11782707087772
 20
270.2195620994412
 30
0.0
 10
30.07196600563898
 20
270.1878121311991
 30
0.0
 10
30.03316048889871
 20
270.1595899372059
 30
0.0
  0
SPLINE
  5
64
330
4A
100
AcDbEntity
  8
STANDARDEBENE
 62
     7
100
AcDbSpline
210
0.0
220
0.0
230
1.0
 70
    24
 71
     3
 72
     8
 73
     4
 74
     0
 42
0.0000000001
 43
0.0000000001
 12
1.0
 22
0.0
 32
0.0
 13
1.0
 23
0.0
 33
0.0
 40
0.0
 40
0.0
 40
0.0
 40
0.0
 40
1.0
 40
1.0
 40
1.0
 40
1.0
 10
29.00657818240546
 20
269.3199796659162
 30
0.0
 10
28.96777266566519
 20
269.2811741491756
 30
0.0
 10
28.92896714892492
 20
269.2423686324353
 30
0.0
 10
28.89368940643356
 20
269.207090889944
 30
0.0
  0
SPLINE
  5
65
330
4A
100
AcDbEntity
  8
STANDARDEBENE
 62
     7
100
AcDbSpline
210
0.0
220
0.0
230
1.0
 70
     8
 71
     3
 72
     8
 73
     4
 74
     0
 42
0.0000000001
 43
0.0000000001
 12
1.0
 22
0.0
 32
0.0
 13
1.0
 23
0.0
 33
0.0
 40
0.0
 40
0.0
 40
0.0
 40
0.0
 40
1.0
 40
1.0
 40
1.0
 40
1.0
 10
28.05407913514352
 20
268.1840363576999
 30
0.0
 10
28.0223291669014
 20
268.1381752924615
 30
0.0
 10
27.99057919865959
 20
268.0887864529736
 30
0.0
 10
27.9658847789156
 20
268.0499809362336
 30
0.0
  0
SPLINE
  5
66
330
4A
100
AcDbEntity
  8
STANDARDEBENE
 62
     7
100
AcDbSpline
210
0.0
220
0.0
230
1.0
 70
     8
 71
     3
 72
     8
 73
     4
 74
     0
 42
0.0000000001
 43
0.0000000001
 12
1.0
 22
0.0
 32
0.0
 13
1.0
 23
0.0
 33
0.0
 40
0.0
 40
0.0
 40
0.0
 40
0.0
 40
1.0
 40
1.0
 40
1.0
 40
1.0
 10
27.34146873682169
 20
266.8822876597752
 30
0.0
 10
27.32030209132693
 20
266.8293710460387
 30
0.0
 10
27.29560767158327
 20
266.7764544323018
 30
0.0
 10
27.27796880033775
 20
266.7341211413126
 30
0.0
  0
SPLINE
  5
67
330
4A
100
AcDbEntity
  8
STANDARDEBENE
 62
     7
100
AcDbSpline
210
0.0
220
0.0
230
1.0
 70
     8
 71
     3
 72
     8
 73
     4
 74
     0
 42
0.0000000001
 43
0.0000000001
 12
1.0
 22
0.0
 32
0.0
 13
1.0
 23
0.0
 33
0.0
 40
0.0
 40
0.0
 40
0.0
 40
0.0
 40
1.0
 40
1.0
 40
1.0
 40
1.0
 10
26.89344140718362
 20
265.46412241163
 30
0.0
 10
26.88285808443656
 20
265.4076780236442
 30
0.0
 10
26.87227476168918
 20
265.3547614099073
 30
0.0
 10
26.86169143894181
 20
265.3053725704194
 30
0.0
  0
SPLINE
  5
68
330
4A
100
AcDbEntity
  8
STANDARDEBENE
 62
     7
100
AcDbSpline
210
0.0
220
0.0
230
1.0
 70
    24
 71
     3
 72
    11
 73
     7
 74
     0
 42
0.0000000001
 43
0.0000000001
 12
1.0
 22
0.0
 32
0.0
 13
1.0
 23
0.0
 33
0.0
 40
0.0
 40
0.0
 40
0.0
 40
0.0
 40
1.0
 40
1.0
 40
1.0
 40
2.0
 40
2.0
 40
2.0
 40
2.0
 10
26.73116379172438
 20
263.9895127754984
 30
0.0
 10
26.73116379172438
 20
263.9612905815058
 30
0.0
 10
26.73116379172438
 20
263.9365961617618
 30
0.0
 10
26.73116379172438
 20
263.9083739677689
 30
0.0
 10
26.73116379172438
 20
263.8801517737757
 30
0.0
 10
26.73116379172438
 20
263.8519295797831
 30
0.0
 10
26.73116379172438
 20
263.8272351600392
 30
0.0
  0
SPLINE
  5
69
330
4A
100
AcDbEntity
  8
STANDARDEBENE
 62
     7
100
AcDbSpline
210
0.0
220
0.0
230
1.0
 70
     8
 71
     3
 72
     8
 73
     4
 74
     0
 42
0.0000000001
 43
0.0000000001
 12
1.0
 22
0.0
 32
0.0
 13
1.0
 23
0.0
 33
0.0
 40
0.0
 40
0.0
 40
0.0
 40
0.0
 40
1.0
 40
1.0
 40
1.0
 40
1.0
 10
26.86169143894181
 20
262.5113753651181
 30
0.0
 10
26.87227476168918
 20
262.4549309771321
 30
0.0
 10
26.88638585868547
 20
262.3984865891462
 30
0.0
 10
26.89344140718362
 20
262.3526255239078
 30
0.0
  0
SPLINE
  5
6A
330
4A
100
AcDbEntity
  8
STANDARDEBENE
 62
     7
100
AcDbSpline
210
0.0
220
0.0
230
1.0
 70
     8
 71
     3
 72
     8
 73
     4
 74
     0
 42
0.0000000001
 43
0.0000000001
 12
1.0
 22
0.0
 32
0.0
 13
1.0
 23
0.0
 33
0.0
 40
0.0
 40
0.0
 40
0.0
 40
0.0
 40
1.0
 40
1.0
 40
1.0
 40
1.0
 10
27.27796880033775
 20
261.0826267942252
 30
0.0
 10
27.2991354458325
 20
261.0297101804883
 30
0.0
 10
27.32030209132693
 20
260.980321341001
 30
0.0
 10
27.34146873682169
 20
260.9344602757623
 30
0.0
  0
SPLINE
  5
6B
330
4A
100
AcDbEntity
  8
STANDARDEBENE
 62
     7
100
AcDbSpline
210
0.0
220
0.0
230
1.0
 70
     8
 71
     3
 72
     8
 73
     4
 74
     0
 42
0.0000000001
 43
0.0000000001
 12
1.0
 22
0.0
 32
0.0
 13
1.0
 23
0.0
 33
0.0
 40
0.0
 40
0.0
 40
0.0
 40
0.0
 40
1.0
 40
1.0
 40
1.0
 40
1.0
 10
27.9658847789156
 20
259.7667669993043
 30
0.0
 10
27.99763474715773
 20
259.7209059340658
 30
0.0
 10
28.02585694115063
 20
259.6715170945778
 30
0.0
 10
28.05407913514352
 20
259.6327115778379
 30
0.0
  0
SPLINE
  5
6C
330
4A
100
AcDbEntity
  8
STANDARDEBENE
 62
     7
100
AcDbSpline
210
0.0
220
0.0
230
1.0
 70
    24
 71
     3
 72
     8
 73
     4
 74
     0
 42
0.0000000001
 43
0.0000000001
 12
1.0
 22
0.0
 32
0.0
 13
1.0
 23
0.0
 33
0.0
 40
0.0
 40
0.0
 40
0.0
 40
0.0
 40
1.0
 40
1.0
 40
1.0
 40
1.0
 10
28.89368940643356
 20
258.6096570455932
 30
0.0
 10
28.93602269742306
 20
258.5673237546044
 30
0.0
 10
28.97482821416333
 20
258.5285182378638
 30
0.0
 10
29.00657818240546
 20
258.4967682696217
 30
0.0
  0
SPLINE
  5
6D
330
4A
100
AcDbEntity
  8
STANDARDEBENE
 62
     7
100
AcDbSpline
210
0.0
220
0.0
230
1.0
 70
     8
 71
     3
 72
     8
 73
     4
 74
     0
 42
0.0000000001
 43
0.0000000001
 12
1.0
 22
0.0
 32
0.0
 13
1.0
 23
0.0
 33
0.0
 40
0.0
 40
0.0
 40
0.0
 40
0.0
 40
1.0
 40
1.0
 40
1.0
 40
1.0
 10
30.03316048889871
 20
257.6536302240824
 30
0.0
 10
30.07902155413745
 20
257.6218802558403
 30
0.0
 10
30.12488261937587
 20
257.5901302875981
 30
0.0
 10
30.16721591036537
 20
257.5654358678544
 30
0.0
  0
SPLINE
  5
6E
330
4A
100
AcDbEntity
  8
STANDARDEBENE
 62
     7
100
AcDbSpline
210
0.0
220
0.0
230
1.0
 70
     8
 71
     3
 72
     8
 73
     4
 74
     0
 42
0.0000000001
 43
0.0000000001
 12
1.0
 22
0.0
 32
0.0
 13
1.0
 23
0.0
 33
0.0
 40
0.0
 40
0.0
 40
0.0
 40
0.0
 40
1.0
 40
1.0
 40
1.0
 40
1.0
 10
31.33490918682342
 20
256.9410198257605
 30
0.0
 10
31.38782580056031
 20
256.9198531802658
 30
0.0
 10
31.44074241429687
 20
256.8986865347711
 30
0.0
 10
31.48307570528637
 20
256.8775198892763
 30
0.0
  0
SPLINE
  5
6F
330
4A
100
AcDbEntity
  8
STANDARDEBENE
 62
     7
100
AcDbSpline
210
0.0
220
0.0
230
1.0
 70
     8
 71
     3
 72
     8
 73
     4
 74
     0
 42
0.0000000001
 43
0.0000000001
 12
1.0
 22
0.0
 32
0.0
 13
1.0
 23
0.0
 33
0.0
 40
0.0
 40
0.0
 40
0.0
 40
0.0
 40
1.0
 40
1.0
 40
1.0
 40
1.0
 10
32.74954666071972
 20
256.496520270372
 30
0.0
 10
32.80599104870551
 20
256.4824091733751
 30
0.0
 10
32.86243543669163
 20
256.4718258506277
 30
0.0
 10
32.90829650193005
 20
256.4612425278804
 30
0.0
  0
SPLINE
  5
70
330
4A
100
AcDbEntity
  8
STANDARDEBENE
 62
     7
100
AcDbSpline
210
0.0
220
0.0
230
1.0
 70
    24
 71
     3
 72
    11
 73
     7
 74
     0
 42
0.0000000001
 43
0.0000000001
 12
1.0
 22
0.0
 32
0.0
 13
1.0
 23
0.0
 33
0.0
 40
0.0
 40
0.0
 40
0.0
 40
0.0
 40
1.0
 40
1.0
 40
1.0
 40
2.0
 40
2.0
 40
2.0
 40
2.0
 10
34.22768407110028
 20
256.3342426549125
 30
0.0
 10
34.25590626509317
 20
256.3342426549125
 30
0.0
 10
34.28060068483684
 20
256.3342426549125
 30
0.0
 10
34.30882287883006
 20
256.3342426549125
 30
0.0
 10
34.33704507282295
 20
256.3342426549125
 30
0.0
 10
34.36526726681585
 20
256.3342426549125
 30
0.0
 10
34.38996168655952
 20
256.3342426549125
 30
0.0
  0
SPLINE
  5
71
330
4A
100
AcDbEntity
  8
STANDARDEBENE
 62
     7
100
AcDbSpline
210
0.0
220
0.0
230
1.0
 70
     8
 71
     3
 72
     8
 73
     4
 74
     0
 42
0.0000000001
 43
0.0000000001
 12
1.0
 22
0.0
 32
0.0
 13
1.0
 23
0.0
 33
0.0
 40
0.0
 40
0.0
 40
0.0
 40
0.0
 40
1.0
 40
1.0
 40
1.0
 40
1.0
 10
35.70582148148051
 20
256.4612425278804
 30
0.0
 10
35.76226586946662
 20
256.4753536248773
 30
0.0
 10
35.81871025745242
 20
256.4859369476246
 30
0.0
 10
35.86457132269084
 20
256.496520270372
 30
0.0
  0
SPLINE
  5
72
330
4A
100
AcDbEntity
  8
STANDARDEBENE
 62
     7
100
AcDbSpline
210
0.0
220
0.0
230
1.0
 70
     8
 71
     3
 72
     8
 73
     4
 74
     0
 42
0.0000000001
 43
0.0000000001
 12
1.0
 22
0.0
 32
0.0
 13
1.0
 23
0.0
 33
0.0
 40
0.0
 40
0.0
 40
0.0
 40
0.0
 40
1.0
 40
1.0
 40
1.0
 40
1.0
 10
37.13104227812451
 20
256.8775198892763
 30
0.0
 10
37.18395889186107
 20
256.8986865347711
 30
0.0
 10
37.23687550559795
 20
256.9233809545153
 30
0.0
 10
37.27920879658745
 20
256.9410198257605
 30
0.0
  0
SPLINE
  5
73
330
4A
100
AcDbEntity
  8
STANDARDEBENE
 62
     7
100
AcDbSpline
210
0.0
220
0.0
230
1.0
 70
     8
 71
     3
 72
     8
 73
     4
 74
     0
 42
0.0000000001
 43
0.0000000001
 12
1.0
 22
0.0
 32
0.0
 13
1.0
 23
0.0
 33
0.0
 40
0.0
 40
0.0
 40
0.0
 40
0.0
 40
1.0
 40
1.0
 40
1.0
 40
1.0
 10
38.45042984729442
 20
257.5654358678544
 30
0.0
 10
38.49629091253315
 20
257.5971858360966
 30
0.0
 10
38.54215197777157
 20
257.6289358043387
 30
0.0
 10
38.58448526876108
 20
257.6536302240824
 30
0.0
  0
SPLINE
  5
74
330
4A
100
AcDbEntity
  8
STANDARDEBENE
 62
     7
100
AcDbSpline
210
0.0
220
0.0
230
1.0
 70
     8
 71
     3
 72
     8
 73
     4
 74
     0
 42
0.0000000001
 43
0.0000000001
 12
1.0
 22
0.0
 32
0.0
 13
1.0
 23
0.0
 33
0.0
 40
0.0
 40
0.0
 40
0.0
 40
0.0
 40
1.0
 40
1.0
 40
1.0
 40
1.0
 10
39.6075398010051
 20
258.4967682696217
 30
0.0
 10
39.64634531774569
 20
258.5355737863622
 30
0.0
 10
39.68867860873488
 20
258.5743793031022
 30
0.0
 10
39.72042857697701
 20
258.6096570455932
 30
0.0
  0
SPLINE
  5
75
330
4A
100
AcDbEntity
  8
STANDARDEBENE
 62
     7
100
AcDbSpline
210
0.0
220
0.0
230
1.0
 70
     8
 71
     3
 72
     8
 73
     4
 74
     0
 42
0.0000000001
 43
0.0000000001
 12
1.0
 22
0.0
 32
0.0
 13
1.0
 23
0.0
 33
0.0
 40
0.0
 40
0.0
 40
0.0
 40
0.0
 40
1.0
 40
1.0
 40
1.0
 40
1.0
 10
40.56003884826703
 20
259.6327115778379
 30
0.0
 10
40.59178881650917
 20
259.6785726430763
 30
0.0
 10
40.6235387847513
 20
259.727961482564
 30
0.0
 10
40.65176097874419
 20
259.7667669993043
 30
0.0
  0
SPLINE
  5
76
330
4A
100
AcDbEntity
  8
STANDARDEBENE
 62
     7
100
AcDbSpline
210
0.0
220
0.0
230
1.0
 70
     8
 71
     3
 72
     8
 73
     4
 74
     0
 42
0.0000000001
 43
0.0000000001
 12
1.0
 22
0.0
 32
0.0
 13
1.0
 23
0.0
 33
0.0
 40
0.0
 40
0.0
 40
0.0
 40
0.0
 40
1.0
 40
1.0
 40
1.0
 40
1.0
 10
41.27617702083811
 20
260.9344602757623
 30
0.0
 10
41.29734366633286
 20
260.9873768894992
 30
0.0
 10
41.31851031182761
 20
261.0402935032357
 30
0.0
 10
41.33614918307313
 20
261.0826267942252
 30
0.0
  0
SPLINE
  5
77
330
4A
100
AcDbEntity
  8
STANDARDEBENE
 62
     7
100
AcDbSpline
210
0.0
220
0.0
230
1.0
 70
     8
 71
     3
 72
     8
 73
     4
 74
     0
 42
0.0000000001
 43
0.0000000001
 12
1.0
 22
0.0
 32
0.0
 13
1.0
 23
0.0
 33
0.0
 40
0.0
 40
0.0
 40
0.0
 40
0.0
 40
1.0
 40
1.0
 40
1.0
 40
1.0
 10
41.72067657622694
 20
262.3526255239078
 30
0.0
 10
41.73125989897432
 20
262.4055421376447
 30
0.0
 10
41.74537099597093
 20
262.4619865256305
 30
0.0
 10
41.75242654446907
 20
262.5113753651181
 30
0.0
  0
SPLINE
  5
78
330
4A
100
AcDbEntity
  8
STANDARDEBENE
 62
     7
100
AcDbSpline
210
0.0
220
0.0
230
1.0
 70
    24
 71
     3
 72
     8
 73
     4
 74
     0
 42
0.0000000001
 43
0.0000000001
 12
1.0
 22
0.0
 32
0.0
 13
1.0
 23
0.0
 33
0.0
 40
0.0
 40
0.0
 40
0.0
 40
0.0
 40
1.0
 40
1.0
 40
1.0
 40
1.0
 10
41.8829541916865
 20
263.8272351600392
 30
0.0
 10
41.8829541916865
 20
263.855457354032
 30
0.0
 10
41.8829541916865
 20
263.8836795480253
 30
0.0
 10
41.8829541916865
 20
263.9083739677689
 30
0.0
  0
SPLINE
  5
79
330
4A
100
AcDbEntity
  8
STANDARDEBENE
 62
     7
100
AcDbSpline
210
0.0
220
0.0
230
1.0
 70
    11
 71
     3
 72
    17
 73
    13
 74
     0
 42
0.0000000001
 43
0.0000000001
 12
1.0
 22
0.0
 32
0.0
 13
1.0
 23
0.0
 33
0.0
 40
0.0
 40
0.0
 40
0.0
 40
0.0
 40
1.0
 40
1.0
 40
1.0
 40
2.0
 40
2.0
 40
2.0
 40
3.0
 40
3.0
 40
3.0
 40
4.0
 40
4.0
 40
4.0
 40
4.0
 10
44.05606312914306
 20
263.9083739677689
 30
0.0
 10
44.05606312914306
 20
269.2917574719229
 30
0.0
 10
39.69220638298411
 20
273.6591419923311
 30
0.0
 10
34.30882287883006
 20
273.6591419923311
 30
0.0
 10
28.92191160042677
 20
273.6591419923311
 30
0.0
 10
24.55805485426751
 20
269.2917574719229
 30
0.0
 10
24.55805485426751
 20
263.9083739677689
 30
0.0
 10
24.55805485426751
 20
258.5249904636149
 30
0.0
 10
28.92191160042677
 20
254.1576059432064
 30
0.0
 10
34.30882287883006
 20
254.1576059432064
 30
0.0
 10
39.69220638298411
 20
254.1576059432064
 30
0.0
 10
44.05606312914306
 20
258.5249904636149
 30
0.0
 10
44.05606312914306
 20
263.9083739677689
 30
0.0
  0
SPLINE
  5
7A
330
4A
100
AcDbEntity
  8
STANDARDEBENE
 62
     7
100
AcDbSpline
210
0.0
220
0.0
230
1.0
 70
    11
 71
     3
 72
    17
 73
    13
 74
     0
 42
0.0000000001
 43
0.0000000001
 12
1.0
 22
0.0
 32
0.0
 13
1.0
 23
0.0
 33
0.0
 40
0.0
 40
0.0
 40
0.0
 40
0.0
 40
1.0
 40
1.0
 40
1.0
 40
2.0
 40
2.0
 40
2.0
 40
3.0
 40
3.0
 40
3.0
 40
4.0
 40
4.0
 40
4.0
 40
4.0
 10
45.30842298758012
 20
263.9083739677689
 30
0.0
 10
45.30842298758012
 20
269.9832012247501
 30
0.0
 10
40.38365013581119
 20
274.907974076519
 30
0.0
 10
34.30882287883006
 20
274.907974076519
 30
0.0
 10
28.2339956218486
 20
274.907974076519
 30
0.0
 10
23.30922277007967
 20
269.9832012247501
 30
0.0
 10
23.30922277007967
 20
263.9083739677689
 30
0.0
 10
23.30922277007967
 20
257.8335467107878
 30
0.0
 10
28.2339956218486
 20
252.9087738590185
 30
0.0
 10
34.30882287883006
 20
252.9087738590185
 30
0.0
 10
40.38365013581119
 20
252.9087738590185
 30
0.0
 10
45.30842298758012
 20
257.8335467107878
 30
0.0
 10
45.30842298758012
 20
263.9083739677689
 30
0.0
  0
POLYLINE
  5
7B
330
4A
100
AcDbEntity
  8
STANDARDEBENE
 62
     7
100
AcDb2dPolyline
 66
     1
 10
0.0
 20
0.0
 30
0.0
  0
VERTEX
  5
7C
330
7B
100
AcDbEntity
  8
STANDARDEBENE
 62
     7
100
AcDbVertex
100
AcDb2dVertex
 10
42.65200897799413
 20
262.9311805007633
 30
0.0
  0
VERTEX
  5
7D
330
7B
100
AcDbEntity
  8
STANDARDEBENE
 62
     7
100
AcDbVertex
100
AcDb2dVertex
 10
42.20750942260529
 20
262.7300973685635
 30
0.0
  0
VERTEX
  5
7E
330
7B
100
AcDbEntity
  8
STANDARDEBENE
 62
     7
100
AcDbVertex
100
AcDb2dVertex
 10
41.840620900697
 20
262.6066252698442
 30
0.0
  0
SEQEND
  5
7F
330
7B
100
AcDbEntity
  8
STANDARDEBENE
 62
     7
  0
SPLINE
  5
80
330
4A
100
AcDbEntity
  8
STANDARDEBENE
 62
     7
100
AcDbSpline
210
0.0
220
0.0
230
1.0
 70
     8
 71
     3
 72
     8
 73
     4
 74
     0
 42
0.0000000001
 43
0.0000000001
 12
1.0
 22
0.0
 32
0.0
 13
1.0
 23
0.0
 33
0.0
 40
0.0
 40
0.0
 40
0.0
 40
0.0
 40
1.0
 40
1.0
 40
1.0
 40
1.0
 10
42.65200897799413
 20
262.9311805007633
 30
0.0
 10
42.66259230074151
 20
263.040541502486
 30
0.0
 10
42.67317562348888
 20
263.1463747299594
 30
0.0
 10
42.68023117198702
 20
263.2380968604366
 30
0.0
  0
POLYLINE
  5
81
330
4A
100
AcDbEntity
  8
STANDARDEBENE
 62
     7
100
AcDb2dPolyline
 66
     1
 10
0.0
 20
0.0
 30
0.0
  0
VERTEX
  5
82
330
81
100
AcDbEntity
  8
STANDARDEBENE
 62
     7
100
AcDbVertex
100
AcDb2dVertex
 10
41.94998190241967
 20
263.7143463840673
 30
0.0
  0
VERTEX
  5
83
330
81
100
AcDbEntity
  8
STANDARDEBENE
 62
     7
100
AcDbVertex
100
AcDb2dVertex
 10
42.37331481231376
 20
263.4674021866293
 30
0.0
  0
VERTEX
  5
84
330
81
100
AcDbEntity
  8
STANDARDEBENE
 62
     7
100
AcDbVertex
100
AcDb2dVertex
 10
42.68023117198702
 20
263.2380968604366
 30
0.0
  0
SEQEND
  5
85
330
81
100
AcDbEntity
  8
STANDARDEBENE
 62
     7
  0
SPLINE
  5
86
330
4A
100
AcDbEntity
  8
STANDARDEBENE
 62
     7
100
AcDbSpline
210
0.0
220
0.0
230
1.0
 70
     8
 71
     3
 72
     8
 73
     4
 74
     0
 42
0.0000000001
 43
0.0000000001
 12
1.0
 22
0.0
 32
0.0
 13
1.0
 23
0.0
 33
0.0
 40
0.0
 40
0.0
 40
0.0
 40
0.0
 40
1.0
 40
1.0
 40
1.0
 40
1.0
 10
41.8829541916865
 20
263.8272351600392
 30
0.0
 10
41.8829541916865
 20
263.7778463205515
 30
0.0
 10
41.9111763856794
 20
263.735513029562
 30
0.0
 10
41.94998190241967
 20
263.7143463840673
 30
0.0
  0
SPLINE
  5
87
330
4A
100
AcDbEntity
  8
STANDARDEBENE
 62
     7
100
AcDbSpline
210
0.0
220
0.0
230
1.0
 70
     8
 71
     3
 72
     8
 73
     4
 74
     0
 42
0.0000000001
 43
0.0000000001
 12
1.0
 22
0.0
 32
0.0
 13
1.0
 23
0.0
 33
0.0
 40
0.0
 40
0.0
 40
0.0
 40
0.0
 40
1.0
 40
1.0
 40
1.0
 40
1.0
 10
41.840620900697
 20
262.6066252698442
 30
0.0
 10
41.79475983545858
 20
262.5925141728479
 30
0.0
 10
41.76300986721645
 20
262.5537086561073
 30
0.0
 10
41.75242654446907
 20
262.5113753651181
 30
0.0
  0
SPLINE
  5
88
330
4A
100
AcDbEntity
  8
STANDARDEBENE
 62
     7
100
AcDbSpline
210
0.0
220
0.0
230
1.0
 70
     8
 71
     3
 72
     8
 73
     4
 74
     0
 42
0.0000000001
 43
0.0000000001
 12
1.0
 22
0.0
 32
0.0
 13
1.0
 23
0.0
 33
0.0
 40
0.0
 40
0.0
 40
0.0
 40
0.0
 40
1.0
 40
1.0
 40
1.0
 40
1.0
 10
41.94998190241967
 20
264.1024015514703
 30
0.0
 10
41.90764861143017
 20
264.0812349059759
 30
0.0
 10
41.8829541916865
 20
264.0353738407371
 30
0.0
 10
41.8829541916865
 20
263.9895127754984
 30
0.0
  0
POLYLINE
  5
89
330
4A
100
AcDbEntity
  8
STANDARDEBENE
 62
     7
100
AcDb2dPolyline
 66
     1
 10
0.0
 20
0.0
 30
0.0
  0
VERTEX
  5
8A
330
89
100
AcDbEntity
  8
STANDARDEBENE
 62
     7
100
AcDbVertex
100
AcDb2dVertex
 10
42.68023117198702
 20
264.5786510751012
 30
0.0
  0
VERTEX
  5
8B
330
89
100
AcDbEntity
  8
STANDARDEBENE
 62
     7
100
AcDbVertex
100
AcDb2dVertex
 10
42.28512045608583
 20
264.2929013609227
 30
0.0
  0
VERTEX
  5
8C
330
89
100
AcDbEntity
  8
STANDARDEBENE
 62
     7
100
AcDbVertex
100
AcDb2dVertex
 10
41.94998190241967
 20
264.1024015514703
 30
0.0
  0
SEQEND
  5
8D
330
89
100
AcDbEntity
  8
STANDARDEBENE
 62
     7
  0
SPLINE
  5
8E
330
4A
100
AcDbEntity
  8
STANDARDEBENE
 62
     7
100
AcDbSpline
210
0.0
220
0.0
230
1.0
 70
     8
 71
     3
 72
     8
 73
     4
 74
     0
 42
0.0000000001
 43
0.0000000001
 12
1.0
 22
0.0
 32
0.0
 13
1.0
 23
0.0
 33
0.0
 40
0.0
 40
0.0
 40
0.0
 40
0.0
 40
1.0
 40
1.0
 40
1.0
 40
1.0
 10
42.68023117198702
 20
264.5786510751012
 30
0.0
 10
42.67317562348888
 20
264.684484302575
 30
0.0
 10
42.66259230074151
 20
264.7938453042977
 30
0.0
 10
42.65200897799413
 20
264.8855674347745
 30
0.0
  0
POLYLINE
  5
8F
330
4A
100
AcDbEntity
  8
STANDARDEBENE
 62
     7
100
AcDb2dPolyline
 66
     1
 10
0.0
 20
0.0
 30
0.0
  0
VERTEX
  5
90
330
8F
100
AcDbEntity
  8
STANDARDEBENE
 62
     7
100
AcDbVertex
100
AcDb2dVertex
 10
27.17213557286399
 20
261.1602378277058
 30
0.0
  0
VERTEX
  5
91
330
8F
100
AcDbEntity
  8
STANDARDEBENE
 62
     7
100
AcDbVertex
100
AcDb2dVertex
 10
26.68883050073487
 20
261.2307933126881
 30
0.0
  0
VERTEX
  5
92
330
8F
100
AcDbEntity
  8
STANDARDEBENE
 62
     7
100
AcDbVertex
100
AcDb2dVertex
 10
26.31488643032844
 20
261.3225154431653
 30
0.0
  0
SEQEND
  5
93
330
8F
100
AcDbEntity
  8
STANDARDEBENE
 62
     7
  0
POLYLINE
  5
94
330
4A
100
AcDbEntity
  8
STANDARDEBENE
 62
     7
100
AcDb2dPolyline
 66
     1
 10
0.0
 20
0.0
 30
0.0
  0
VERTEX
  5
95
330
94
100
AcDbEntity
  8
STANDARDEBENE
 62
     7
100
AcDbVertex
100
AcDb2dVertex
 10
41.840620900697
 20
265.2101226656936
 30
0.0
  0
VERTEX
  5
96
330
94
100
AcDbEntity
  8
STANDARDEBENE
 62
     7
100
AcDbVertex
100
AcDb2dVertex
 10
42.30275932733136
 20
265.0478450502341
 30
0.0
  0
VERTEX
  5
97
330
94
100
AcDbEntity
  8
STANDARDEBENE
 62
     7
100
AcDbVertex
100
AcDb2dVertex
 10
42.65200897799413
 20
264.8855674347745
 30
0.0
  0
SEQEND
  5
98
330
94
100
AcDbEntity
  8
STANDARDEBENE
 62
     7
  0
SPLINE
  5
99
330
4A
100
AcDbEntity
  8
STANDARDEBENE
 62
     7
100
AcDbSpline
210
0.0
220
0.0
230
1.0
 70
     8
 71
     3
 72
     8
 73
     4
 74
     0
 42
0.0000000001
 43
0.0000000001
 12
1.0
 22
0.0
 32
0.0
 13
1.0
 23
0.0
 33
0.0
 40
0.0
 40
0.0
 40
0.0
 40
0.0
 40
1.0
 40
1.0
 40
1.0
 40
1.0
 10
41.75242654446907
 20
265.3053725704194
 30
0.0
 10
41.76300986721645
 20
265.259511505181
 30
0.0
 10
41.79828760970749
 20
265.220705988441
 30
0.0
 10
41.840620900697
 20
265.2101226656936
 30
0.0
  0
SPLINE
  5
9A
330
4A
100
AcDbEntity
  8
STANDARDEBENE
 62
     7
100
AcDbSpline
210
0.0
220
0.0
230
1.0
 70
     8
 71
     3
 72
     8
 73
     4
 74
     0
 42
0.0000000001
 43
0.0000000001
 12
1.0
 22
0.0
 32
0.0
 13
1.0
 23
0.0
 33
0.0
 40
0.0
 40
0.0
 40
0.0
 40
0.0
 40
1.0
 40
1.0
 40
1.0
 40
1.0
 10
27.27796880033775
 20
261.0826267942252
 30
0.0
 10
27.26032992909191
 20
261.1284878594636
 30
0.0
 10
27.21799663810273
 20
261.1567100534569
 30
0.0
 10
27.17213557286399
 20
261.1602378277058
 30
0.0
  0
SPLINE
  5
9B
330
4A
100
AcDbEntity
  8
STANDARDEBENE
 62
     7
100
AcDbSpline
210
0.0
220
0.0
230
1.0
 70
     8
 71
     3
 72
     8
 73
     4
 74
     0
 42
0.0000000001
 43
0.0000000001
 12
1.0
 22
0.0
 32
0.0
 13
1.0
 23
0.0
 33
0.0
 40
0.0
 40
0.0
 40
0.0
 40
0.0
 40
1.0
 40
1.0
 40
1.0
 40
1.0
 10
26.89696918143285
 20
262.3244033299149
 30
0.0
 10
26.89696918143285
 20
262.334986652662
 30
0.0
 10
26.89696918143285
 20
262.3420422011604
 30
0.0
 10
26.89344140718362
 20
262.3526255239078
 30
0.0
  0
SPLINE
  5
9C
330
4A
100
AcDbEntity
  8
STANDARDEBENE
 62
     7
100
AcDbSpline
210
0.0
220
0.0
230
1.0
 70
     8
 71
     3
 72
     8
 73
     4
 74
     0
 42
0.0000000001
 43
0.0000000001
 12
1.0
 22
0.0
 32
0.0
 13
1.0
 23
0.0
 33
0.0
 40
0.0
 40
0.0
 40
0.0
 40
0.0
 40
1.0
 40
1.0
 40
1.0
 40
1.0
 10
26.8475803419452
 20
262.2256256509393
 30
0.0
 10
26.87933031018733
 20
262.2503200706833
 30
0.0
 10
26.89696918143285
 20
262.2891255874235
 30
0.0
 10
26.89696918143285
 20
262.3244033299149
 30
0.0
  0
POLYLINE
  5
9D
330
4A
100
AcDbEntity
  8
STANDARDEBENE
 62
     7
100
AcDb2dPolyline
 66
     1
 10
0.0
 20
0.0
 30
0.0
  0
VERTEX
  5
9E
330
9D
100
AcDbEntity
  8
STANDARDEBENE
 62
     7
100
AcDbVertex
100
AcDb2dVertex
 10
26.22669207410052
 20
261.6153207058423
 30
0.0
  0
VERTEX
  5
9F
330
9D
100
AcDbEntity
  8
STANDARDEBENE
 62
     7
100
AcDbVertex
100
AcDb2dVertex
 10
26.55830285351745
 20
261.9751536792521
 30
0.0
  0
VERTEX
  5
A0
330
9D
100
AcDbEntity
  8
STANDARDEBENE
 62
     7
100
AcDbVertex
100
AcDb2dVertex
 10
26.8475803419452
 20
262.2256256509393
 30
0.0
  0
SEQEND
  5
A1
330
9D
100
AcDbEntity
  8
STANDARDEBENE
 62
     7
  0
SPLINE
  5
A2
330
4A
100
AcDbEntity
  8
STANDARDEBENE
 62
     7
100
AcDbSpline
210
0.0
220
0.0
230
1.0
 70
     8
 71
     3
 72
     8
 73
     4
 74
     0
 42
0.0000000001
 43
0.0000000001
 12
1.0
 22
0.0
 32
0.0
 13
1.0
 23
0.0
 33
0.0
 40
0.0
 40
0.0
 40
0.0
 40
0.0
 40
1.0
 40
1.0
 40
1.0
 40
1.0
 10
26.22669207410052
 20
261.6153207058423
 30
0.0
 10
26.25491426809341
 20
261.5130152526174
 30
0.0
 10
26.28666423633554
 20
261.4107097993933
 30
0.0
 10
26.31488643032844
 20
261.3225154431653
 30
0.0
  0
SPLINE
  5
A3
330
4A
100
AcDbEntity
  8
STANDARDEBENE
 62
     7
100
AcDbSpline
210
0.0
220
0.0
230
1.0
 70
     8
 71
     3
 72
     8
 73
     4
 74
     0
 42
0.0000000001
 43
0.0000000001
 12
1.0
 22
0.0
 32
0.0
 13
1.0
 23
0.0
 33
0.0
 40
0.0
 40
0.0
 40
0.0
 40
0.0
 40
1.0
 40
1.0
 40
1.0
 40
1.0
 10
27.34852428532015
 20
260.8850714362746
 30
0.0
 10
27.34852428532015
 20
260.9027103075205
 30
0.0
 10
27.34499651107092
 20
260.9203491787657
 30
0.0
 10
27.34146873682169
 20
260.9344602757623
 30
0.0
  0
SPLINE
  5
A4
330
4A
100
AcDbEntity
  8
STANDARDEBENE
 62
     7
100
AcDbSpline
210
0.0
220
0.0
230
1.0
 70
     8
 71
     3
 72
     8
 73
     4
 74
     0
 42
0.0000000001
 43
0.0000000001
 12
1.0
 22
0.0
 32
0.0
 13
1.0
 23
0.0
 33
0.0
 40
0.0
 40
0.0
 40
0.0
 40
0.0
 40
1.0
 40
1.0
 40
1.0
 40
1.0
 10
27.32030209132693
 20
260.8039326285452
 30
0.0
 10
27.34146873682169
 20
260.8286270482889
 30
0.0
 10
27.35205205956906
 20
260.8568492422817
 30
0.0
 10
27.34852428532015
 20
260.8850714362746
 30
0.0
  0
POLYLINE
  5
A5
330
4A
100
AcDbEntity
  8
STANDARDEBENE
 62
     7
100
AcDb2dPolyline
 66
     1
 10
0.0
 20
0.0
 30
0.0
  0
VERTEX
  5
A6
330
A5
100
AcDbEntity
  8
STANDARDEBENE
 62
     7
100
AcDbVertex
100
AcDb2dVertex
 10
26.82994147069968
 20
260.0842666817249
 30
0.0
  0
VERTEX
  5
A7
330
A5
100
AcDbEntity
  8
STANDARDEBENE
 62
     7
100
AcDbVertex
100
AcDb2dVertex
 10
27.08394121663607
 20
260.5005440431208
 30
0.0
  0
VERTEX
  5
A8
330
A5
100
AcDbEntity
  8
STANDARDEBENE
 62
     7
100
AcDbVertex
100
AcDb2dVertex
 10
27.32030209132693
 20
260.8039326285452
 30
0.0
  0
SEQEND
  5
A9
330
A5
100
AcDbEntity
  8
STANDARDEBENE
 62
     7
  0
SPLINE
  5
AA
330
4A
100
AcDbEntity
  8
STANDARDEBENE
 62
     7
100
AcDbSpline
210
0.0
220
0.0
230
1.0
 70
     8
 71
     3
 72
     8
 73
     4
 74
     0
 42
0.0000000001
 43
0.0000000001
 12
1.0
 22
0.0
 32
0.0
 13
1.0
 23
0.0
 33
0.0
 40
0.0
 40
0.0
 40
0.0
 40
0.0
 40
1.0
 40
1.0
 40
1.0
 40
1.0
 10
26.82994147069968
 20
260.0842666817249
 30
0.0
 10
26.87933031018733
 20
259.9890167769985
 30
0.0
 10
26.92871914967498
 20
259.8937668722724
 30
0.0
 10
26.97458021491339
 20
259.8126280645427
 30
0.0
  0
POLYLINE
  5
AB
330
4A
100
AcDbEntity
  8
STANDARDEBENE
 62
     7
100
AcDb2dPolyline
 66
     1
 10
0.0
 20
0.0
 30
0.0
  0
VERTEX
  5
AC
330
AB
100
AcDbEntity
  8
STANDARDEBENE
 62
     7
100
AcDbVertex
100
AcDb2dVertex
 10
27.84594045444555
 20
259.82321138729
 30
0.0
  0
VERTEX
  5
AD
330
AB
100
AcDbEntity
  8
STANDARDEBENE
 62
     7
100
AcDbVertex
100
AcDb2dVertex
 10
27.3555798338183
 20
259.7949891932971
 30
0.0
  0
VERTEX
  5
AE
330
AB
100
AcDbEntity
  8
STANDARDEBENE
 62
     7
100
AcDbVertex
100
AcDb2dVertex
 10
26.97458021491339
 20
259.8126280645427
 30
0.0
  0
SEQEND
  5
AF
330
AB
100
AcDbEntity
  8
STANDARDEBENE
 62
     7
  0
SPLINE
  5
B0
330
4A
100
AcDbEntity
  8
STANDARDEBENE
 62
     7
100
AcDbSpline
210
0.0
220
0.0
230
1.0
 70
     8
 71
     3
 72
     8
 73
     4
 74
     0
 42
0.0000000001
 43
0.0000000001
 12
1.0
 22
0.0
 32
0.0
 13
1.0
 23
0.0
 33
0.0
 40
0.0
 40
0.0
 40
0.0
 40
0.0
 40
1.0
 40
1.0
 40
1.0
 40
1.0
 10
27.9658847789156
 20
259.7667669993043
 30
0.0
 10
27.93766258492271
 20
259.8091002902937
 30
0.0
 10
27.89180151968429
 20
259.8267391615393
 30
0.0
 10
27.84594045444555
 20
259.82321138729
 30
0.0
  0
SPLINE
  5
B1
330
4A
100
AcDbEntity
  8
STANDARDEBENE
 62
     7
100
AcDbSpline
210
0.0
220
0.0
230
1.0
 70
     8
 71
     3
 72
     8
 73
     4
 74
     0
 42
0.0000000001
 43
0.0000000001
 12
1.0
 22
0.0
 32
0.0
 13
1.0
 23
0.0
 33
0.0
 40
0.0
 40
0.0
 40
0.0
 40
0.0
 40
1.0
 40
1.0
 40
1.0
 40
1.0
 10
28.07524578063828
 20
259.5621560928552
 30
0.0
 10
28.07524578063828
 20
259.5868505125991
 30
0.0
 10
28.06819023214013
 20
259.6115449323431
 30
0.0
 10
28.05407913514352
 20
259.6327115778379
 30
0.0
  0
SPLINE
  5
B2
330
4A
100
AcDbEntity
  8
STANDARDEBENE
 62
     7
100
AcDbSpline
210
0.0
220
0.0
230
1.0
 70
     8
 71
     3
 72
     8
 73
     4
 74
     0
 42
0.0000000001
 43
0.0000000001
 12
1.0
 22
0.0
 32
0.0
 13
1.0
 23
0.0
 33
0.0
 40
0.0
 40
0.0
 40
0.0
 40
0.0
 40
1.0
 40
1.0
 40
1.0
 40
1.0
 10
28.06113468364199
 20
259.5021839306204
 30
0.0
 10
28.07171800638904
 20
259.519822801866
 30
0.0
 10
28.07524578063828
 20
259.5409894473607
 30
0.0
 10
28.07524578063828
 20
259.5621560928552
 30
0.0
  0
POLYLINE
  5
B3
330
4A
100
AcDbEntity
  8
STANDARDEBENE
 62
     7
100
AcDb2dPolyline
 66
     1
 10
0.0
 20
0.0
 30
0.0
  0
VERTEX
  5
B4
330
B3
100
AcDbEntity
  8
STANDARDEBENE
 62
     7
100
AcDbVertex
100
AcDb2dVertex
 10
27.71894058147736
 20
258.6978514018218
 30
0.0
  0
VERTEX
  5
B5
330
B3
100
AcDbEntity
  8
STANDARDEBENE
 62
     7
100
AcDbVertex
100
AcDb2dVertex
 10
27.88827374543506
 20
259.1564620542066
 30
0.0
  0
VERTEX
  5
B6
330
B3
100
AcDbEntity
  8
STANDARDEBENE
 62
     7
100
AcDbVertex
100
AcDb2dVertex
 10
28.06113468364199
 20
259.5021839306204
 30
0.0
  0
SEQEND
  5
B7
330
B3
100
AcDbEntity
  8
STANDARDEBENE
 62
     7
  0
SPLINE
  5
B8
330
4A
100
AcDbEntity
  8
STANDARDEBENE
 62
     7
100
AcDbSpline
210
0.0
220
0.0
230
1.0
 70
     8
 71
     3
 72
     8
 73
     4
 74
     0
 42
0.0000000001
 43
0.0000000001
 12
1.0
 22
0.0
 32
0.0
 13
1.0
 23
0.0
 33
0.0
 40
0.0
 40
0.0
 40
0.0
 40
0.0
 40
1.0
 40
1.0
 40
1.0
 40
1.0
 10
27.71894058147736
 20
258.6978514018218
 30
0.0
 10
27.78596829221053
 20
258.6131848198428
 30
0.0
 10
27.85299600294402
 20
258.5320460121127
 30
0.0
 10
27.91296816517904
 20
258.4614905271306
 30
0.0
  0
POLYLINE
  5
B9
330
4A
100
AcDbEntity
  8
STANDARDEBENE
 62
     7
100
AcDb2dPolyline
 66
     1
 10
0.0
 20
0.0
 30
0.0
  0
VERTEX
  5
BA
330
B9
100
AcDbEntity
  8
STANDARDEBENE
 62
     7
100
AcDbVertex
100
AcDb2dVertex
 10
28.76668953346536
 20
258.6414070138354
 30
0.0
  0
VERTEX
  5
BB
330
B9
100
AcDbEntity
  8
STANDARDEBENE
 62
     7
100
AcDbVertex
100
AcDb2dVertex
 10
28.29396778408362
 20
258.5179349151164
 30
0.0
  0
VERTEX
  5
BC
330
B9
100
AcDbEntity
  8
STANDARDEBENE
 62
     7
100
AcDbVertex
100
AcDb2dVertex
 10
27.91296816517904
 20
258.4614905271306
 30
0.0
  0
SEQEND
  5
BD
330
B9
100
AcDbEntity
  8
STANDARDEBENE
 62
     7
  0
SPLINE
  5
BE
330
4A
100
AcDbEntity
  8
STANDARDEBENE
 62
     7
100
AcDbSpline
210
0.0
220
0.0
230
1.0
 70
     8
 71
     3
 72
     8
 73
     4
 74
     0
 42
0.0000000001
 43
0.0000000001
 12
1.0
 22
0.0
 32
0.0
 13
1.0
 23
0.0
 33
0.0
 40
0.0
 40
0.0
 40
0.0
 40
0.0
 40
1.0
 40
1.0
 40
1.0
 40
1.0
 10
28.89368940643356
 20
258.6096570455932
 30
0.0
 10
28.86193943819175
 20
258.6449347880849
 30
0.0
 10
28.80902282445487
 20
258.6555181108323
 30
0.0
 10
28.76668953346536
 20
258.6414070138354
 30
0.0
  0
SPLINE
  5
BF
330
4A
100
AcDbEntity
  8
STANDARDEBENE
 62
     7
100
AcDbSpline
210
0.0
220
0.0
230
1.0
 70
     8
 71
     3
 72
     8
 73
     4
 74
     0
 42
0.0000000001
 43
0.0000000001
 12
1.0
 22
0.0
 32
0.0
 13
1.0
 23
0.0
 33
0.0
 40
0.0
 40
0.0
 40
0.0
 40
0.0
 40
1.0
 40
1.0
 40
1.0
 40
1.0
 10
29.04538369914573
 20
258.4050461391448
 30
0.0
 10
29.04538369914573
 20
258.4403238816358
 30
0.0
 10
29.03127260214945
 20
258.472073849878
 30
0.0
 10
29.00657818240546
 20
258.4967682696217
 30
0.0
  0
SPLINE
  5
C0
330
4A
100
AcDbEntity
  8
STANDARDEBENE
 62
     7
100
AcDbSpline
210
0.0
220
0.0
230
1.0
 70
     8
 71
     3
 72
     8
 73
     4
 74
     0
 42
0.0000000001
 43
0.0000000001
 12
1.0
 22
0.0
 32
0.0
 13
1.0
 23
0.0
 33
0.0
 40
0.0
 40
0.0
 40
0.0
 40
0.0
 40
1.0
 40
1.0
 40
1.0
 40
1.0
 10
29.04185592489682
 20
258.3662406224042
 30
0.0
 10
29.04538369914573
 20
258.3803517194012
 30
0.0
 10
29.04538369914573
 20
258.3944628163974
 30
0.0
 10
29.04538369914573
 20
258.4050461391448
 30
0.0
  0
POLYLINE
  5
C1
330
4A
100
AcDbEntity
  8
STANDARDEBENE
 62
     7
100
AcDb2dPolyline
 66
     1
 10
0.0
 20
0.0
 30
0.0
  0
VERTEX
  5
C2
330
C1
100
AcDbEntity
  8
STANDARDEBENE
 62
     7
100
AcDbVertex
100
AcDb2dVertex
 10
28.86193943819175
 20
257.5125192541176
 30
0.0
  0
VERTEX
  5
C3
330
C1
100
AcDbEntity
  8
STANDARDEBENE
 62
     7
100
AcDbVertex
100
AcDb2dVertex
 10
28.93955047167229
 20
257.9958243262467
 30
0.0
  0
VERTEX
  5
C4
330
C1
100
AcDbEntity
  8
STANDARDEBENE
 62
     7
100
AcDbVertex
100
AcDb2dVertex
 10
29.04185592489682
 20
258.3662406224042
 30
0.0
  0
SEQEND
  5
C5
330
C1
100
AcDbEntity
  8
STANDARDEBENE
 62
     7
  0
SPLINE
  5
C6
330
4A
100
AcDbEntity
  8
STANDARDEBENE
 62
     7
100
AcDbSpline
210
0.0
220
0.0
230
1.0
 70
     8
 71
     3
 72
     8
 73
     4
 74
     0
 42
0.0000000001
 43
0.0000000001
 12
1.0
 22
0.0
 32
0.0
 13
1.0
 23
0.0
 33
0.0
 40
0.0
 40
0.0
 40
0.0
 40
0.0
 40
1.0
 40
1.0
 40
1.0
 40
1.0
 10
28.86193943819175
 20
257.5125192541176
 30
0.0
 10
28.9430782459212
 20
257.4419637691355
 30
0.0
 10
29.02774482790021
 20
257.3749360584023
 30
0.0
 10
29.09830031288261
 20
257.3184916704166
 30
0.0
  0
POLYLINE
  5
C7
330
4A
100
AcDbEntity
  8
STANDARDEBENE
 62
     7
100
AcDb2dPolyline
 66
     1
 10
0.0
 20
0.0
 30
0.0
  0
VERTEX
  5
C8
330
C7
100
AcDbEntity
  8
STANDARDEBENE
 62
     7
100
AcDbVertex
100
AcDb2dVertex
 10
29.89910506743237
 20
257.6606857725808
 30
0.0
  0
VERTEX
  5
C9
330
C7
100
AcDbEntity
  8
STANDARDEBENE
 62
     7
100
AcDbVertex
100
AcDb2dVertex
 10
29.45813328629244
 20
257.4490193176339
 30
0.0
  0
VERTEX
  5
CA
330
C7
100
AcDbEntity
  8
STANDARDEBENE
 62
     7
100
AcDbVertex
100
AcDb2dVertex
 10
29.09830031288261
 20
257.3184916704166
 30
0.0
  0
SEQEND
  5
CB
330
C7
100
AcDbEntity
  8
STANDARDEBENE
 62
     7
  0
SPLINE
  5
CC
330
4A
100
AcDbEntity
  8
STANDARDEBENE
 62
     7
100
AcDbSpline
210
0.0
220
0.0
230
1.0
 70
     8
 71
     3
 72
     8
 73
     4
 74
     0
 42
0.0000000001
 43
0.0000000001
 12
1.0
 22
0.0
 32
0.0
 13
1.0
 23
0.0
 33
0.0
 40
0.0
 40
0.0
 40
0.0
 40
0.0
 40
1.0
 40
1.0
 40
1.0
 40
1.0
 10
30.03316048889871
 20
257.6536302240824
 30
0.0
 10
29.99082719790953
 20
257.6818524180756
 30
0.0
 10
29.94143835842188
 20
257.6818524180756
 30
0.0
 10
29.89910506743237
 20
257.6606857725808
 30
0.0
  0
SPLINE
  5
CD
330
4A
100
AcDbEntity
  8
STANDARDEBENE
 62
     7
100
AcDbSpline
210
0.0
220
0.0
230
1.0
 70
     8
 71
     3
 72
     8
 73
     4
 74
     0
 42
0.0000000001
 43
0.0000000001
 12
1.0
 22
0.0
 32
0.0
 13
1.0
 23
0.0
 33
0.0
 40
0.0
 40
0.0
 40
0.0
 40
0.0
 40
1.0
 40
1.0
 40
1.0
 40
1.0
 10
30.22366029835116
 20
257.4596026403813
 30
0.0
 10
30.22366029835116
 20
257.5054637056198
 30
0.0
 10
30.20249365285641
 20
257.5407414481108
 30
0.0
 10
30.16721591036537
 20
257.5654358678544
 30
0.0
  0
SPLINE
  5
CE
330
4A
100
AcDbEntity
  8
STANDARDEBENE
 62
     7
100
AcDbSpline
210
0.0
220
0.0
230
1.0
 70
    24
 71
     3
 72
     8
 73
     4
 74
     0
 42
0.0000000001
 43
0.0000000001
 12
1.0
 22
0.0
 32
0.0
 13
1.0
 23
0.0
 33
0.0
 40
0.0
 40
0.0
 40
0.0
 40
0.0
 40
1.0
 40
1.0
 40
1.0
 40
1.0
 10
30.22366029835116
 20
257.4454915433844
 30
0.0
 10
30.22366029835116
 20
257.4490193176339
 30
0.0
 10
30.22366029835116
 20
257.4560748661318
 30
0.0
 10
30.22366029835116
 20
257.4596026403813
 30
0.0
  0
POLYLINE
  5
CF
330
4A
100
AcDbEntity
  8
STANDARDEBENE
 62
     7
100
AcDb2dPolyline
 66
     1
 10
0.0
 20
0.0
 30
0.0
  0
VERTEX
  5
D0
330
CF
100
AcDbEntity
  8
STANDARDEBENE
 62
     7
100
AcDbVertex
100
AcDb2dVertex
 10
30.21307697560379
 20
256.5741313038526
 30
0.0
  0
VERTEX
  5
D1
330
CF
100
AcDbEntity
  8
STANDARDEBENE
 62
     7
100
AcDbVertex
100
AcDb2dVertex
 10
30.19543810435827
 20
257.0609641502306
 30
0.0
  0
VERTEX
  5
D2
330
CF
100
AcDbEntity
  8
STANDARDEBENE
 62
     7
100
AcDbVertex
100
AcDb2dVertex
 10
30.22366029835116
 20
257.4454915433844
 30
0.0
  0
SEQEND
  5
D3
330
CF
100
AcDbEntity
  8
STANDARDEBENE
 62
     7
  0
SPLINE
  5
D4
330
4A
100
AcDbEntity
  8
STANDARDEBENE
 62
     7
100
AcDbSpline
210
0.0
220
0.0
230
1.0
 70
     8
 71
     3
 72
     8
 73
     4
 74
     0
 42
0.0000000001
 43
0.0000000001
 12
1.0
 22
0.0
 32
0.0
 13
1.0
 23
0.0
 33
0.0
 40
0.0
 40
0.0
 40
0.0
 40
0.0
 40
1.0
 40
1.0
 40
1.0
 40
1.0
 10
30.21307697560379
 20
256.5741313038526
 30
0.0
 10
30.30832688033017
 20
256.5212146901157
 30
0.0
 10
30.40357678505624
 20
256.4682980763788
 30
0.0
 10
30.48471559278602
 20
256.4294925596388
 30
0.0
  0
POLYLINE
  5
D5
330
4A
100
AcDbEntity
  8
STANDARDEBENE
 62
     7
100
AcDb2dPolyline
 66
     1
 10
0.0
 20
0.0
 30
0.0
  0
VERTEX
  5
D6
330
D5
100
AcDbEntity
  8
STANDARDEBENE
 62
     7
100
AcDbVertex
100
AcDb2dVertex
 10
31.204381539606
 20
256.9198531802658
 30
0.0
  0
VERTEX
  5
D7
330
D5
100
AcDbEntity
  8
STANDARDEBENE
 62
     7
100
AcDbVertex
100
AcDb2dVertex
 10
30.81279859795404
 20
256.6270479175894
 30
0.0
  0
VERTEX
  5
D8
330
D5
100
AcDbEntity
  8
STANDARDEBENE
 62
     7
100
AcDbVertex
100
AcDb2dVertex
 10
30.48471559278602
 20
256.4294925596388
 30
0.0
  0
SEQEND
  5
D9
330
D5
100
AcDbEntity
  8
STANDARDEBENE
 62
     7
  0
SPLINE
  5
DA
330
4A
100
AcDbEntity
  8
STANDARDEBENE
 62
     7
100
AcDbSpline
210
0.0
220
0.0
230
1.0
 70
     8
 71
     3
 72
     8
 73
     4
 74
     0
 42
0.0000000001
 43
0.0000000001
 12
1.0
 22
0.0
 32
0.0
 13
1.0
 23
0.0
 33
0.0
 40
0.0
 40
0.0
 40
0.0
 40
0.0
 40
1.0
 40
1.0
 40
1.0
 40
1.0
 10
31.33490918682342
 20
256.9410198257605
 30
0.0
 10
31.28904812158501
 20
256.9586586970064
 30
0.0
 10
31.23965928209736
 20
256.9516031485079
 30
0.0
 10
31.204381539606
 20
256.9198531802658
 30
0.0
  0
SPLINE
  5
DB
330
4A
100
AcDbEntity
  8
STANDARDEBENE
 62
     7
100
AcDbSpline
210
0.0
220
0.0
230
1.0
 70
     8
 71
     3
 72
     8
 73
     4
 74
     0
 42
0.0000000001
 43
0.0000000001
 12
1.0
 22
0.0
 32
0.0
 13
1.0
 23
0.0
 33
0.0
 40
0.0
 40
0.0
 40
0.0
 40
0.0
 40
1.0
 40
1.0
 40
1.0
 40
1.0
 10
31.56068673876692
 20
256.7716866618032
 30
0.0
 10
31.55715896451769
 20
256.8210755012905
 30
0.0
 10
31.52540899627588
 20
256.86340879228
 30
0.0
 10
31.48307570528637
 20
256.8775198892763
 30
0.0
  0
POLYLINE
  5
DC
330
4A
100
AcDbEntity
  8
STANDARDEBENE
 62
     7
100
AcDb2dPolyline
 66
     1
 10
0.0
 20
0.0
 30
0.0
  0
VERTEX
  5
DD
330
DC
100
AcDbEntity
  8
STANDARDEBENE
 62
     7
100
AcDbVertex
100
AcDb2dVertex
 10
31.72296435422647
 20
255.9144375192676
 30
0.0
  0
VERTEX
  5
DE
330
DC
100
AcDbEntity
  8
STANDARDEBENE
 62
     7
100
AcDbVertex
100
AcDb2dVertex
 10
31.61007557825457
 20
256.3906870428983
 30
0.0
  0
VERTEX
  5
DF
330
DC
100
AcDbEntity
  8
STANDARDEBENE
 62
     7
100
AcDbVertex
100
AcDb2dVertex
 10
31.56068673876692
 20
256.7716866618032
 30
0.0
  0
SEQEND
  5
E0
330
DC
100
AcDbEntity
  8
STANDARDEBENE
 62
     7
  0
SPLINE
  5
E1
330
4A
100
AcDbEntity
  8
STANDARDEBENE
 62
     7
100
AcDbSpline
210
0.0
220
0.0
230
1.0
 70
     8
 71
     3
 72
     8
 73
     4
 74
     0
 42
0.0000000001
 43
0.0000000001
 12
1.0
 22
0.0
 32
0.0
 13
1.0
 23
0.0
 33
0.0
 40
0.0
 40
0.0
 40
0.0
 40
0.0
 40
1.0
 40
1.0
 40
1.0
 40
1.0
 10
31.72296435422647
 20
255.9144375192676
 30
0.0
 10
31.82526980745068
 20
255.8826875510255
 30
0.0
 10
31.92757526067521
 20
255.8509375827834
 30
0.0
 10
32.01576961690314
 20
255.8262431630397
 30
0.0
  0
POLYLINE
  5
E2
330
4A
100
AcDbEntity
  8
STANDARDEBENE
 62
     7
100
AcDb2dPolyline
 66
     1
 10
0.0
 20
0.0
 30
0.0
  0
VERTEX
  5
E3
330
E2
100
AcDbEntity
  8
STANDARDEBENE
 62
     7
100
AcDbVertex
100
AcDb2dVertex
 10
32.62607456200076
 20
256.450659205133
 30
0.0
  0
VERTEX
  5
E4
330
E2
100
AcDbEntity
  8
STANDARDEBENE
 62
     7
100
AcDbVertex
100
AcDb2dVertex
 10
32.30151933108165
 20
256.083770683225
 30
0.0
  0
VERTEX
  5
E5
330
E2
100
AcDbEntity
  8
STANDARDEBENE
 62
     7
100
AcDbVertex
100
AcDb2dVertex
 10
32.01576961690314
 20
255.8262431630397
 30
0.0
  0
SEQEND
  5
E6
330
E2
100
AcDbEntity
  8
STANDARDEBENE
 62
     7
  0
SPLINE
  5
E7
330
4A
100
AcDbEntity
  8
STANDARDEBENE
 62
     7
100
AcDbSpline
210
0.0
220
0.0
230
1.0
 70
     8
 71
     3
 72
     8
 73
     4
 74
     0
 42
0.0000000001
 43
0.0000000001
 12
1.0
 22
0.0
 32
0.0
 13
1.0
 23
0.0
 33
0.0
 40
0.0
 40
0.0
 40
0.0
 40
0.0
 40
1.0
 40
1.0
 40
1.0
 40
1.0
 10
32.74954666071972
 20
256.496520270372
 30
0.0
 10
32.7036855954813
 20
256.5035758188699
 30
0.0
 10
32.65429675599366
 20
256.4859369476246
 30
0.0
 10
32.62607456200076
 20
256.450659205133
 30
0.0
  0
SPLINE
  5
E8
330
4A
100
AcDbEntity
  8
STANDARDEBENE
 62
     7
100
AcDbSpline
210
0.0
220
0.0
230
1.0
 70
     8
 71
     3
 72
     8
 73
     4
 74
     0
 42
0.0000000001
 43
0.0000000001
 12
1.0
 22
0.0
 32
0.0
 13
1.0
 23
0.0
 33
0.0
 40
0.0
 40
0.0
 40
0.0
 40
0.0
 40
1.0
 40
1.0
 40
1.0
 40
1.0
 10
33.00707418090534
 20
256.3730481716524
 30
0.0
 10
32.99296308390873
 20
256.4189092368915
 30
0.0
 10
32.95415756716847
 20
256.4541869793825
 30
0.0
 10
32.90829650193005
 20
256.4612425278804
 30
0.0
  0
POLYLINE
  5
E9
330
4A
100
AcDbEntity
  8
STANDARDEBENE
 62
     7
100
AcDb2dPolyline
 66
     1
 10
0.0
 20
0.0
 30
0.0
  0
VERTEX
  5
EA
330
E9
100
AcDbEntity
  8
STANDARDEBENE
 62
     7
100
AcDbVertex
100
AcDb2dVertex
 10
33.33162941182413
 20
255.5651878686049
 30
0.0
  0
VERTEX
  5
EB
330
E9
100
AcDbEntity
  8
STANDARDEBENE
 62
     7
100
AcDbVertex
100
AcDb2dVertex
 10
33.1270185053754
 20
256.0096874239933
 30
0.0
  0
VERTEX
  5
EC
330
E9
100
AcDbEntity
  8
STANDARDEBENE
 62
     7
100
AcDbVertex
100
AcDb2dVertex
 10
33.00707418090534
 20
256.3730481716524
 30
0.0
  0
SEQEND
  5
ED
330
E9
100
AcDbEntity
  8
STANDARDEBENE
 62
     7
  0
SPLINE
  5
EE
330
4A
100
AcDbEntity
  8
STANDARDEBENE
 62
     7
100
AcDbSpline
210
0.0
220
0.0
230
1.0
 70
     8
 71
     3
 72
     8
 73
     4
 74
     0
 42
0.0000000001
 43
0.0000000001
 12
1.0
 22
0.0
 32
0.0
 13
1.0
 23
0.0
 33
0.0
 40
0.0
 40
0.0
 40
0.0
 40
0.0
 40
1.0
 40
1.0
 40
1.0
 40
1.0
 10
33.33162941182413
 20
255.5651878686049
 30
0.0
 10
33.4374626392979
 20
255.5510767716079
 30
0.0
 10
33.54682364102057
 20
255.5404934488605
 30
0.0
 10
33.63854577149741
 20
255.5334379003627
 30
0.0
  0
POLYLINE
  5
EF
330
4A
100
AcDbEntity
  8
STANDARDEBENE
 62
     7
100
AcDb2dPolyline
 66
     1
 10
0.0
 20
0.0
 30
0.0
  0
VERTEX
  5
F0
330
EF
100
AcDbEntity
  8
STANDARDEBENE
 62
     7
100
AcDbVertex
100
AcDb2dVertex
 10
34.11479529512837
 20
256.2636871699298
 30
0.0
  0
VERTEX
  5
F1
330
EF
100
AcDbEntity
  8
STANDARDEBENE
 62
     7
100
AcDbVertex
100
AcDb2dVertex
 10
33.86785109769013
 20
255.8438820342849
 30
0.0
  0
VERTEX
  5
F2
330
EF
100
AcDbEntity
  8
STANDARDEBENE
 62
     7
100
AcDbVertex
100
AcDb2dVertex
 10
33.63854577149741
 20
255.5334379003627
 30
0.0
  0
SEQEND
  5
F3
330
EF
100
AcDbEntity
  8
STANDARDEBENE
 62
     7
  0
SPLINE
  5
F4
330
4A
100
AcDbEntity
  8
STANDARDEBENE
 62
     7
100
AcDbSpline
210
0.0
220
0.0
230
1.0
 70
     8
 71
     3
 72
     8
 73
     4
 74
     0
 42
0.0000000001
 43
0.0000000001
 12
1.0
 22
0.0
 32
0.0
 13
1.0
 23
0.0
 33
0.0
 40
0.0
 40
0.0
 40
0.0
 40
0.0
 40
1.0
 40
1.0
 40
1.0
 40
1.0
 10
34.22768407110028
 20
256.3342426549125
 30
0.0
 10
34.17829523161263
 20
256.3342426549125
 30
0.0
 10
34.13596194062313
 20
256.3060204609192
 30
0.0
 10
34.11479529512837
 20
256.2636871699298
 30
0.0
  0
SPLINE
  5
F5
330
4A
100
AcDbEntity
  8
STANDARDEBENE
 62
     7
100
AcDbSpline
210
0.0
220
0.0
230
1.0
 70
     8
 71
     3
 72
     8
 73
     4
 74
     0
 42
0.0000000001
 43
0.0000000001
 12
1.0
 22
0.0
 32
0.0
 13
1.0
 23
0.0
 33
0.0
 40
0.0
 40
0.0
 40
0.0
 40
0.0
 40
1.0
 40
1.0
 40
1.0
 40
1.0
 10
34.50285046253142
 20
256.2636871699298
 30
0.0
 10
34.47815604278743
 20
256.3095482351688
 30
0.0
 10
34.43582275179825
 20
256.3342426549125
 30
0.0
 10
34.38996168655952
 20
256.3342426549125
 30
0.0
  0
POLYLINE
  5
F6
330
4A
100
AcDbEntity
  8
STANDARDEBENE
 62
     7
100
AcDb2dPolyline
 66
     1
 10
0.0
 20
0.0
 30
0.0
  0
VERTEX
  5
F7
330
F6
100
AcDbEntity
  8
STANDARDEBENE
 62
     7
100
AcDbVertex
100
AcDb2dVertex
 10
34.97909998616239
 20
255.5334379003627
 30
0.0
  0
VERTEX
  5
F8
330
F6
100
AcDbEntity
  8
STANDARDEBENE
 62
     7
100
AcDbVertex
100
AcDb2dVertex
 10
34.69335027198387
 20
255.9320763905128
 30
0.0
  0
VERTEX
  5
F9
330
F6
100
AcDbEntity
  8
STANDARDEBENE
 62
     7
100
AcDbVertex
100
AcDb2dVertex
 10
34.50285046253142
 20
256.2636871699298
 30
0.0
  0
SEQEND
  5
FA
330
F6
100
AcDbEntity
  8
STANDARDEBENE
 62
     7
  0
SPLINE
  5
FB
330
4A
100
AcDbEntity
  8
STANDARDEBENE
 62
     7
100
AcDbSpline
210
0.0
220
0.0
230
1.0
 70
     8
 71
     3
 72
     8
 73
     4
 74
     0
 42
0.0000000001
 43
0.0000000001
 12
1.0
 22
0.0
 32
0.0
 13
1.0
 23
0.0
 33
0.0
 40
0.0
 40
0.0
 40
0.0
 40
0.0
 40
1.0
 40
1.0
 40
1.0
 40
1.0
 10
34.97909998616239
 20
255.5334379003627
 30
0.0
 10
35.08493321363583
 20
255.5440212231101
 30
0.0
 10
35.1942942153585
 20
255.5546045458575
 30
0.0
 10
35.28248857158643
 20
255.5651878686049
 30
0.0
  0
POLYLINE
  5
FC
330
4A
100
AcDbEntity
  8
STANDARDEBENE
 62
     7
100
AcDb2dPolyline
 66
     1
 10
0.0
 20
0.0
 30
0.0
  0
VERTEX
  5
FD
330
FC
100
AcDbEntity
  8
STANDARDEBENE
 62
     7
100
AcDbVertex
100
AcDb2dVertex
 10
35.61057157675445
 20
256.3730481716524
 30
0.0
  0
VERTEX
  5
FE
330
FC
100
AcDbEntity
  8
STANDARDEBENE
 62
     7
100
AcDbVertex
100
AcDb2dVertex
 10
35.44829396129521
 20
255.9109097450181
 30
0.0
  0
VERTEX
  5
FF
330
FC
100
AcDbEntity
  8
STANDARDEBENE
 62
     7
100
AcDbVertex
100
AcDb2dVertex
 10
35.28248857158643
 20
255.5651878686049
 30
0.0
  0
SEQEND
  5
100
330
FC
100
AcDbEntity
  8
STANDARDEBENE
 62
     7
  0
SPLINE
  5
101
330
4A
100
AcDbEntity
  8
STANDARDEBENE
 62
     7
100
AcDbSpline
210
0.0
220
0.0
230
1.0
 70
     8
 71
     3
 72
     8
 73
     4
 74
     0
 42
0.0000000001
 43
0.0000000001
 12
1.0
 22
0.0
 32
0.0
 13
1.0
 23
0.0
 33
0.0
 40
0.0
 40
0.0
 40
0.0
 40
0.0
 40
1.0
 40
1.0
 40
1.0
 40
1.0
 10
35.70582148148051
 20
256.4612425278804
 30
0.0
 10
35.6599604162421
 20
256.4541869793825
 30
0.0
 10
35.62115489950182
 20
256.4189092368915
 30
0.0
 10
35.61057157675445
 20
256.3730481716524
 30
0.0
  0
SPLINE
  5
102
330
4A
100
AcDbEntity
  8
STANDARDEBENE
 62
     7
100
AcDbSpline
210
0.0
220
0.0
230
1.0
 70
     8
 71
     3
 72
     8
 73
     4
 74
     0
 42
0.0000000001
 43
0.0000000001
 12
1.0
 22
0.0
 32
0.0
 13
1.0
 23
0.0
 33
0.0
 40
0.0
 40
0.0
 40
0.0
 40
0.0
 40
1.0
 40
1.0
 40
1.0
 40
1.0
 10
35.98804342141012
 20
256.450659205133
 30
0.0
 10
35.95982122741722
 20
256.4894647218736
 30
0.0
 10
35.91043238792957
 20
256.5035758188699
 30
0.0
 10
35.86457132269084
 20
256.496520270372
 30
0.0
  0
POLYLINE
  5
103
330
4A
100
AcDbEntity
  8
STANDARDEBENE
 62
     7
100
AcDb2dPolyline
 66
     1
 10
0.0
 20
0.0
 30
0.0
  0
VERTEX
  5
104
330
103
100
AcDbEntity
  8
STANDARDEBENE
 62
     7
100
AcDbVertex
100
AcDb2dVertex
 10
36.59834836650742
 20
255.8262431630397
 30
0.0
  0
VERTEX
  5
105
330
103
100
AcDbEntity
  8
STANDARDEBENE
 62
     7
100
AcDbVertex
100
AcDb2dVertex
 10
36.24204316734651
 20
256.1578539424567
 30
0.0
  0
VERTEX
  5
106
330
103
100
AcDbEntity
  8
STANDARDEBENE
 62
     7
100
AcDbVertex
100
AcDb2dVertex
 10
35.98804342141012
 20
256.450659205133
 30
0.0
  0
SEQEND
  5
107
330
103
100
AcDbEntity
  8
STANDARDEBENE
 62
     7
  0
SPLINE
  5
108
330
4A
100
AcDbEntity
  8
STANDARDEBENE
 62
     7
100
AcDbSpline
210
0.0
220
0.0
230
1.0
 70
     8
 71
     3
 72
     8
 73
     4
 74
     0
 42
0.0000000001
 43
0.0000000001
 12
1.0
 22
0.0
 32
0.0
 13
1.0
 23
0.0
 33
0.0
 40
0.0
 40
0.0
 40
0.0
 40
0.0
 40
1.0
 40
1.0
 40
1.0
 40
1.0
 10
36.59834836650742
 20
255.8262431630397
 30
0.0
 10
36.70418159398119
 20
255.8544653570323
 30
0.0
 10
36.8064870472054
 20
255.8862153252744
 30
0.0
 10
36.89115362918441
 20
255.9144375192676
 30
0.0
  0
POLYLINE
  5
109
330
4A
100
AcDbEntity
  8
STANDARDEBENE
 62
     7
100
AcDb2dPolyline
 66
     1
 10
0.0
 20
0.0
 30
0.0
  0
VERTEX
  5
10A
330
109
100
AcDbEntity
  8
STANDARDEBENE
 62
     7
100
AcDbVertex
100
AcDb2dVertex
 10
37.05343124464364
 20
256.7716866618032
 30
0.0
  0
VERTEX
  5
10B
330
109
100
AcDbEntity
  8
STANDARDEBENE
 62
     7
100
AcDbVertex
100
AcDb2dVertex
 10
36.98640353391048
 20
256.288381589674
 30
0.0
  0
VERTEX
  5
10C
330
109
100
AcDbEntity
  8
STANDARDEBENE
 62
     7
100
AcDbVertex
100
AcDb2dVertex
 10
36.89115362918441
 20
255.9144375192676
 30
0.0
  0
SEQEND
  5
10D
330
109
100
AcDbEntity
  8
STANDARDEBENE
 62
     7
  0
SPLINE
  5
10E
330
4A
100
AcDbEntity
  8
STANDARDEBENE
 62
     7
100
AcDbSpline
210
0.0
220
0.0
230
1.0
 70
     8
 71
     3
 72
     8
 73
     4
 74
     0
 42
0.0000000001
 43
0.0000000001
 12
1.0
 22
0.0
 32
0.0
 13
1.0
 23
0.0
 33
0.0
 40
0.0
 40
0.0
 40
0.0
 40
0.0
 40
1.0
 40
1.0
 40
1.0
 40
1.0
 10
37.13104227812451
 20
256.8775198892763
 30
0.0
 10
37.08518121288577
 20
256.8598810180311
 30
0.0
 10
37.05695901889288
 20
256.8175477270416
 30
0.0
 10
37.05343124464364
 20
256.7716866618032
 30
0.0
  0
SPLINE
  5
10F
330
4A
100
AcDbEntity
  8
STANDARDEBENE
 62
     7
100
AcDbSpline
210
0.0
220
0.0
230
1.0
 70
     8
 71
     3
 72
     8
 73
     4
 74
     0
 42
0.0000000001
 43
0.0000000001
 12
1.0
 22
0.0
 32
0.0
 13
1.0
 23
0.0
 33
0.0
 40
0.0
 40
0.0
 40
0.0
 40
0.0
 40
1.0
 40
1.0
 40
1.0
 40
1.0
 10
37.4132642180538
 20
256.9198531802658
 30
0.0
 10
37.37445870131352
 20
256.9516031485079
 30
0.0
 10
37.32506986182587
 20
256.9586586970064
 30
0.0
 10
37.27920879658745
 20
256.9410198257605
 30
0.0
  0
POLYLINE
  5
110
330
4A
100
AcDbEntity
  8
STANDARDEBENE
 62
     7
100
AcDb2dPolyline
 66
     1
 10
0.0
 20
0.0
 30
0.0
  0
VERTEX
  5
111
330
110
100
AcDbEntity
  8
STANDARDEBENE
 62
     7
100
AcDbVertex
100
AcDb2dVertex
 10
38.13293016487378
 20
256.4294925596388
 30
0.0
  0
VERTEX
  5
112
330
110
100
AcDbEntity
  8
STANDARDEBENE
 62
     7
100
AcDbVertex
100
AcDb2dVertex
 10
37.71665280347783
 20
256.6834923055753
 30
0.0
  0
VERTEX
  5
113
330
110
100
AcDbEntity
  8
STANDARDEBENE
 62
     7
100
AcDbVertex
100
AcDb2dVertex
 10
37.4132642180538
 20
256.9198531802658
 30
0.0
  0
SEQEND
  5
114
330
110
100
AcDbEntity
  8
STANDARDEBENE
 62
     7
  0
SPLINE
  5
115
330
4A
100
AcDbEntity
  8
STANDARDEBENE
 62
     7
100
AcDbSpline
210
0.0
220
0.0
230
1.0
 70
     8
 71
     3
 72
     8
 73
     4
 74
     0
 42
0.0000000001
 43
0.0000000001
 12
1.0
 22
0.0
 32
0.0
 13
1.0
 23
0.0
 33
0.0
 40
0.0
 40
0.0
 40
0.0
 40
0.0
 40
1.0
 40
1.0
 40
1.0
 40
1.0
 10
38.13293016487378
 20
256.4294925596388
 30
0.0
 10
38.22818006960016
 20
256.4788813991262
 30
0.0
 10
38.32342997432622
 20
256.5282702386141
 30
0.0
 10
38.40104100780677
 20
256.5741313038526
 30
0.0
  0
POLYLINE
  5
116
330
4A
100
AcDbEntity
  8
STANDARDEBENE
 62
     7
100
AcDb2dPolyline
 66
     1
 10
0.0
 20
0.0
 30
0.0
  0
VERTEX
  5
117
330
116
100
AcDbEntity
  8
STANDARDEBENE
 62
     7
100
AcDbVertex
100
AcDb2dVertex
 10
38.39398545930863
 20
257.4454915433844
 30
0.0
  0
VERTEX
  5
118
330
116
100
AcDbEntity
  8
STANDARDEBENE
 62
     7
100
AcDbVertex
100
AcDb2dVertex
 10
38.42220765330153
 20
256.9551309227575
 30
0.0
  0
VERTEX
  5
119
330
116
100
AcDbEntity
  8
STANDARDEBENE
 62
     7
100
AcDbVertex
100
AcDb2dVertex
 10
38.40104100780677
 20
256.5741313038526
 30
0.0
  0
SEQEND
  5
11A
330
116
100
AcDbEntity
  8
STANDARDEBENE
 62
     7
  0
SPLINE
  5
11B
330
4A
100
AcDbEntity
  8
STANDARDEBENE
 62
     7
100
AcDbSpline
210
0.0
220
0.0
230
1.0
 70
     8
 71
     3
 72
     8
 73
     4
 74
     0
 42
0.0000000001
 43
0.0000000001
 12
1.0
 22
0.0
 32
0.0
 13
1.0
 23
0.0
 33
0.0
 40
0.0
 40
0.0
 40
0.0
 40
0.0
 40
1.0
 40
1.0
 40
1.0
 40
1.0
 10
38.45042984729442
 20
257.5654358678544
 30
0.0
 10
38.40809655630524
 20
257.5372136738619
 30
0.0
 10
38.38692991081049
 20
257.4913526086228
 30
0.0
 10
38.39398545930863
 20
257.4454915433844
 30
0.0
  0
SPLINE
  5
11C
330
4A
100
AcDbEntity
  8
STANDARDEBENE
 62
     7
100
AcDbSpline
210
0.0
220
0.0
230
1.0
 70
     8
 71
     3
 72
     8
 73
     4
 74
     0
 42
0.0000000001
 43
0.0000000001
 12
1.0
 22
0.0
 32
0.0
 13
1.0
 23
0.0
 33
0.0
 40
0.0
 40
0.0
 40
0.0
 40
0.0
 40
1.0
 40
1.0
 40
1.0
 40
1.0
 10
38.71501291597851
 20
257.6606857725808
 30
0.0
 10
38.672679624989
 20
257.6853801923245
 30
0.0
 10
38.62329078550135
 20
257.6818524180756
 30
0.0
 10
38.58448526876108
 20
257.6536302240824
 30
0.0
  0
POLYLINE
  5
11D
330
4A
100
AcDbEntity
  8
STANDARDEBENE
 62
     7
100
AcDb2dPolyline
 66
     1
 10
0.0
 20
0.0
 30
0.0
  0
VERTEX
  5
11E
330
11D
100
AcDbEntity
  8
STANDARDEBENE
 62
     7
100
AcDbVertex
100
AcDb2dVertex
 10
39.51581767052826
 20
257.3184916704166
 30
0.0
  0
VERTEX
  5
11F
330
11D
100
AcDbEntity
  8
STANDARDEBENE
 62
     7
100
AcDbVertex
100
AcDb2dVertex
 10
39.06073479239205
 20
257.4878248343739
 30
0.0
  0
VERTEX
  5
120
330
11D
100
AcDbEntity
  8
STANDARDEBENE
 62
     7
100
AcDbVertex
100
AcDb2dVertex
 10
38.71501291597851
 20
257.6606857725808
 30
0.0
  0
SEQEND
  5
121
330
11D
100
AcDbEntity
  8
STANDARDEBENE
 62
     7
  0
SPLINE
  5
122
330
4A
100
AcDbEntity
  8
STANDARDEBENE
 62
     7
100
AcDbSpline
210
0.0
220
0.0
230
1.0
 70
     8
 71
     3
 72
     8
 73
     4
 74
     0
 42
0.0000000001
 43
0.0000000001
 12
1.0
 22
0.0
 32
0.0
 13
1.0
 23
0.0
 33
0.0
 40
0.0
 40
0.0
 40
0.0
 40
0.0
 40
1.0
 40
1.0
 40
1.0
 40
1.0
 10
39.51581767052826
 20
257.3184916704166
 30
0.0
 10
39.60048425250695
 20
257.3855193811497
 30
0.0
 10
39.68515083448597
 20
257.4525470918829
 30
0.0
 10
39.75570631946805
 20
257.5125192541176
 30
0.0
  0
POLYLINE
  5
123
330
4A
100
AcDbEntity
  8
STANDARDEBENE
 62
     7
100
AcDb2dPolyline
 66
     1
 10
0.0
 20
0.0
 30
0.0
  0
VERTEX
  5
124
330
123
100
AcDbEntity
  8
STANDARDEBENE
 62
     7
100
AcDbVertex
100
AcDb2dVertex
 10
39.57578983276329
 20
258.3662406224042
 30
0.0
  0
VERTEX
  5
125
330
123
100
AcDbEntity
  8
STANDARDEBENE
 62
     7
100
AcDbVertex
100
AcDb2dVertex
 10
39.69926193148225
 20
257.8935188730225
 30
0.0
  0
VERTEX
  5
126
330
123
100
AcDbEntity
  8
STANDARDEBENE
 62
     7
100
AcDbVertex
100
AcDb2dVertex
 10
39.75570631946805
 20
257.5125192541176
 30
0.0
  0
SEQEND
  5
127
330
123
100
AcDbEntity
  8
STANDARDEBENE
 62
     7
  0
SPLINE
  5
128
330
4A
100
AcDbEntity
  8
STANDARDEBENE
 62
     7
100
AcDbSpline
210
0.0
220
0.0
230
1.0
 70
     8
 71
     3
 72
     8
 73
     4
 74
     0
 42
0.0000000001
 43
0.0000000001
 12
1.0
 22
0.0
 32
0.0
 13
1.0
 23
0.0
 33
0.0
 40
0.0
 40
0.0
 40
0.0
 40
0.0
 40
1.0
 40
1.0
 40
1.0
 40
1.0
 10
39.6075398010051
 20
258.4967682696217
 30
0.0
 10
39.57226205851406
 20
258.4614905271306
 30
0.0
 10
39.56167873576668
 20
258.4121016876426
 30
0.0
 10
39.57578983276329
 20
258.3662406224042
 30
0.0
  0
SPLINE
  5
129
330
4A
100
AcDbEntity
  8
STANDARDEBENE
 62
     7
100
AcDbSpline
210
0.0
220
0.0
230
1.0
 70
     8
 71
     3
 72
     8
 73
     4
 74
     0
 42
0.0000000001
 43
0.0000000001
 12
1.0
 22
0.0
 32
0.0
 13
1.0
 23
0.0
 33
0.0
 40
0.0
 40
0.0
 40
0.0
 40
0.0
 40
1.0
 40
1.0
 40
1.0
 40
1.0
 10
39.85095622419443
 20
258.6414070138354
 30
0.0
 10
39.80156738470678
 20
258.6555181108323
 30
0.0
 10
39.75570631946805
 20
258.6414070138354
 30
0.0
 10
39.72042857697701
 20
258.6096570455932
 30
0.0
  0
POLYLINE
  5
12A
330
4A
100
AcDbEntity
  8
STANDARDEBENE
 62
     7
100
AcDb2dPolyline
 66
     1
 10
0.0
 20
0.0
 30
0.0
  0
VERTEX
  5
12B
330
12A
100
AcDbEntity
  8
STANDARDEBENE
 62
     7
100
AcDbVertex
100
AcDb2dVertex
 10
40.70114981823184
 20
258.4614905271306
 30
0.0
  0
VERTEX
  5
12C
330
12A
100
AcDbEntity
  8
STANDARDEBENE
 62
     7
100
AcDbVertex
100
AcDb2dVertex
 10
40.22137252035164
 20
258.5391015606111
 30
0.0
  0
VERTEX
  5
12D
330
12A
100
AcDbEntity
  8
STANDARDEBENE
 62
     7
100
AcDbVertex
100
AcDb2dVertex
 10
39.85095622419443
 20
258.6414070138354
 30
0.0
  0
SEQEND
  5
12E
330
12A
100
AcDbEntity
  8
STANDARDEBENE
 62
     7
  0
SPLINE
  5
12F
330
4A
100
AcDbEntity
  8
STANDARDEBENE
 62
     7
100
AcDbSpline
210
0.0
220
0.0
230
1.0
 70
     8
 71
     3
 72
     8
 73
     4
 74
     0
 42
0.0000000001
 43
0.0000000001
 12
1.0
 22
0.0
 32
0.0
 13
1.0
 23
0.0
 33
0.0
 40
0.0
 40
0.0
 40
0.0
 40
0.0
 40
1.0
 40
1.0
 40
1.0
 40
1.0
 10
40.70114981823184
 20
258.4614905271306
 30
0.0
 10
40.77170530321424
 20
258.5426293348601
 30
0.0
 10
40.84226078819664
 20
258.627295916839
 30
0.0
 10
40.89870517618243
 20
258.6978514018218
 30
0.0
  0
POLYLINE
  5
130
330
4A
100
AcDbEntity
  8
STANDARDEBENE
 62
     7
100
AcDb2dPolyline
 66
     1
 10
0.0
 20
0.0
 30
0.0
  0
VERTEX
  5
131
330
130
100
AcDbEntity
  8
STANDARDEBENE
 62
     7
100
AcDbVertex
100
AcDb2dVertex
 10
40.55651107401813
 20
259.5021839306204
 30
0.0
  0
VERTEX
  5
132
330
130
100
AcDbEntity
  8
STANDARDEBENE
 62
     7
100
AcDbVertex
100
AcDb2dVertex
 10
40.768177528965
 20
259.0612121494809
 30
0.0
  0
VERTEX
  5
133
330
130
100
AcDbEntity
  8
STANDARDEBENE
 62
     7
100
AcDbVertex
100
AcDb2dVertex
 10
40.89870517618243
 20
258.6978514018218
 30
0.0
  0
SEQEND
  5
134
330
130
100
AcDbEntity
  8
STANDARDEBENE
 62
     7
  0
SPLINE
  5
135
330
4A
100
AcDbEntity
  8
STANDARDEBENE
 62
     7
100
AcDbSpline
210
0.0
220
0.0
230
1.0
 70
     8
 71
     3
 72
     8
 73
     4
 74
     0
 42
0.0000000001
 43
0.0000000001
 12
1.0
 22
0.0
 32
0.0
 13
1.0
 23
0.0
 33
0.0
 40
0.0
 40
0.0
 40
0.0
 40
0.0
 40
1.0
 40
1.0
 40
1.0
 40
1.0
 10
40.56003884826703
 20
259.6327115778379
 30
0.0
 10
40.53181665427414
 20
259.5939060610973
 30
0.0
 10
40.53181665427414
 20
259.5409894473607
 30
0.0
 10
40.55651107401813
 20
259.5021839306204
 30
0.0
  0
SPLINE
  5
136
330
4A
100
AcDbEntity
  8
STANDARDEBENE
 62
     7
100
AcDbSpline
210
0.0
220
0.0
230
1.0
 70
     8
 71
     3
 72
     8
 73
     4
 74
     0
 42
0.0000000001
 43
0.0000000001
 12
1.0
 22
0.0
 32
0.0
 13
1.0
 23
0.0
 33
0.0
 40
0.0
 40
0.0
 40
0.0
 40
0.0
 40
1.0
 40
1.0
 40
1.0
 40
1.0
 10
40.77170530321424
 20
259.82321138729
 30
0.0
 10
40.72231646372659
 20
259.8267391615393
 30
0.0
 10
40.67645539848785
 20
259.8055725160445
 30
0.0
 10
40.65176097874419
 20
259.7667669993043
 30
0.0
  0
POLYLINE
  5
137
330
4A
100
AcDbEntity
  8
STANDARDEBENE
 62
     7
100
AcDb2dPolyline
 66
     1
 10
0.0
 20
0.0
 30
0.0
  0
VERTEX
  5
138
330
137
100
AcDbEntity
  8
STANDARDEBENE
 62
     7
100
AcDbVertex
100
AcDb2dVertex
 10
41.6430655427464
 20
259.8126280645427
 30
0.0
  0
VERTEX
  5
139
330
137
100
AcDbEntity
  8
STANDARDEBENE
 62
     7
100
AcDbVertex
100
AcDb2dVertex
 10
41.15270492211882
 20
259.7949891932971
 30
0.0
  0
VERTEX
  5
13A
330
137
100
AcDbEntity
  8
STANDARDEBENE
 62
     7
100
AcDbVertex
100
AcDb2dVertex
 10
40.77170530321424
 20
259.82321138729
 30
0.0
  0
SEQEND
  5
13B
330
137
100
AcDbEntity
  8
STANDARDEBENE
 62
     7
  0
SPLINE
  5
13C
330
4A
100
AcDbEntity
  8
STANDARDEBENE
 62
     7
100
AcDbSpline
210
0.0
220
0.0
230
1.0
 70
     8
 71
     3
 72
     8
 73
     4
 74
     0
 42
0.0000000001
 43
0.0000000001
 12
1.0
 22
0.0
 32
0.0
 13
1.0
 23
0.0
 33
0.0
 40
0.0
 40
0.0
 40
0.0
 40
0.0
 40
1.0
 40
1.0
 40
1.0
 40
1.0
 10
41.6430655427464
 20
259.8126280645427
 30
0.0
 10
41.69598215648328
 20
259.907877969269
 30
0.0
 10
41.74537099597093
 20
260.0031278739951
 30
0.0
 10
41.78770428696011
 20
260.0842666817249
 30
0.0
  0
POLYLINE
  5
13D
330
4A
100
AcDbEntity
  8
STANDARDEBENE
 62
     7
100
AcDb2dPolyline
 66
     1
 10
0.0
 20
0.0
 30
0.0
  0
VERTEX
  5
13E
330
13D
100
AcDbEntity
  8
STANDARDEBENE
 62
     7
100
AcDbVertex
100
AcDb2dVertex
 10
41.29381589208363
 20
260.8039326285452
 30
0.0
  0
VERTEX
  5
13F
330
13D
100
AcDbEntity
  8
STANDARDEBENE
 62
     7
100
AcDbVertex
100
AcDb2dVertex
 10
41.59014892900952
 20
260.4123496868929
 30
0.0
  0
VERTEX
  5
140
330
13D
100
AcDbEntity
  8
STANDARDEBENE
 62
     7
100
AcDbVertex
100
AcDb2dVertex
 10
41.78770428696011
 20
260.0842666817249
 30
0.0
  0
SEQEND
  5
141
330
13D
100
AcDbEntity
  8
STANDARDEBENE
 62
     7
  0
SPLINE
  5
142
330
4A
100
AcDbEntity
  8
STANDARDEBENE
 62
     7
100
AcDbSpline
210
0.0
220
0.0
230
1.0
 70
     8
 71
     3
 72
     8
 73
     4
 74
     0
 42
0.0000000001
 43
0.0000000001
 12
1.0
 22
0.0
 32
0.0
 13
1.0
 23
0.0
 33
0.0
 40
0.0
 40
0.0
 40
0.0
 40
0.0
 40
1.0
 40
1.0
 40
1.0
 40
1.0
 10
41.27617702083811
 20
260.9344602757623
 30
0.0
 10
41.25501037534335
 20
260.8885992105239
 30
0.0
 10
41.26559369809073
 20
260.8392103710362
 30
0.0
 10
41.29381589208363
 20
260.8039326285452
 30
0.0
  0
SPLINE
  5
143
330
4A
100
AcDbEntity
  8
STANDARDEBENE
 62
     7
100
AcDbSpline
210
0.0
220
0.0
230
1.0
 70
     8
 71
     3
 72
     8
 73
     4
 74
     0
 42
0.0000000001
 43
0.0000000001
 12
1.0
 22
0.0
 32
0.0
 13
1.0
 23
0.0
 33
0.0
 40
0.0
 40
0.0
 40
0.0
 40
0.0
 40
1.0
 40
1.0
 40
1.0
 40
1.0
 10
41.44551018479581
 20
261.1602378277058
 30
0.0
 10
41.39612134530815
 20
261.1567100534569
 30
0.0
 10
41.35378805431865
 20
261.1284878594636
 30
0.0
 10
41.33614918307313
 20
261.0826267942252
 30
0.0
  0
POLYLINE
  5
144
330
4A
100
AcDbEntity
  8
STANDARDEBENE
 62
     7
100
AcDb2dPolyline
 66
     1
 10
0.0
 20
0.0
 30
0.0
  0
VERTEX
  5
145
330
144
100
AcDbEntity
  8
STANDARDEBENE
 62
     7
100
AcDbVertex
100
AcDb2dVertex
 10
42.29923155308244
 20
261.3225154431653
 30
0.0
  0
VERTEX
  5
146
330
144
100
AcDbEntity
  8
STANDARDEBENE
 62
     7
100
AcDbVertex
100
AcDb2dVertex
 10
41.82298202945147
 20
261.2096266671937
 30
0.0
  0
VERTEX
  5
147
330
144
100
AcDbEntity
  8
STANDARDEBENE
 62
     7
100
AcDbVertex
100
AcDb2dVertex
 10
41.44551018479581
 20
261.1602378277058
 30
0.0
  0
SEQEND
  5
148
330
144
100
AcDbEntity
  8
STANDARDEBENE
 62
     7
  0
SPLINE
  5
149
330
4A
100
AcDbEntity
  8
STANDARDEBENE
 62
     7
100
AcDbSpline
210
0.0
220
0.0
230
1.0
 70
     8
 71
     3
 72
     8
 73
     4
 74
     0
 42
0.0000000001
 43
0.0000000001
 12
1.0
 22
0.0
 32
0.0
 13
1.0
 23
0.0
 33
0.0
 40
0.0
 40
0.0
 40
0.0
 40
0.0
 40
1.0
 40
1.0
 40
1.0
 40
1.0
 10
42.29923155308244
 20
261.3225154431653
 30
0.0
 10
42.33450929557348
 20
261.4248208963895
 30
0.0
 10
42.36625926381561
 20
261.5271263496144
 30
0.0
 10
42.38742590931037
 20
261.6153207058423
 30
0.0
  0
POLYLINE
  5
14A
330
4A
100
AcDbEntity
  8
STANDARDEBENE
 62
     7
100
AcDb2dPolyline
 66
     1
 10
0.0
 20
0.0
 30
0.0
  0
VERTEX
  5
14B
330
14A
100
AcDbEntity
  8
STANDARDEBENE
 62
     7
100
AcDbVertex
100
AcDb2dVertex
 10
41.76653764146536
 20
262.2256256509393
 30
0.0
  0
VERTEX
  5
14C
330
14A
100
AcDbEntity
  8
STANDARDEBENE
 62
     7
100
AcDbVertex
100
AcDb2dVertex
 10
42.12989838912475
 20
261.9010704200208
 30
0.0
  0
VERTEX
  5
14D
330
14A
100
AcDbEntity
  8
STANDARDEBENE
 62
     7
100
AcDbVertex
100
AcDb2dVertex
 10
42.38742590931037
 20
261.6153207058423
 30
0.0
  0
SEQEND
  5
14E
330
14A
100
AcDbEntity
  8
STANDARDEBENE
 62
     7
  0
SPLINE
  5
14F
330
4A
100
AcDbEntity
  8
STANDARDEBENE
 62
     7
100
AcDbSpline
210
0.0
220
0.0
230
1.0
 70
     8
 71
     3
 72
     8
 73
     4
 74
     0
 42
0.0000000001
 43
0.0000000001
 12
1.0
 22
0.0
 32
0.0
 13
1.0
 23
0.0
 33
0.0
 40
0.0
 40
0.0
 40
0.0
 40
0.0
 40
1.0
 40
1.0
 40
1.0
 40
1.0
 10
41.72067657622694
 20
262.3526255239078
 30
0.0
 10
41.71009325347957
 20
262.3032366844201
 30
0.0
 10
41.73125989897432
 20
262.2538478449325
 30
0.0
 10
41.76653764146536
 20
262.2256256509393
 30
0.0
  0
SPLINE
  5
150
330
4A
100
AcDbEntity
  8
STANDARDEBENE
 62
     7
100
AcDbSpline
210
0.0
220
0.0
230
1.0
 70
     8
 71
     3
 72
     8
 73
     4
 74
     0
 42
0.0000000001
 43
0.0000000001
 12
1.0
 22
0.0
 32
0.0
 13
1.0
 23
0.0
 33
0.0
 40
0.0
 40
0.0
 40
0.0
 40
0.0
 40
1.0
 40
1.0
 40
1.0
 40
1.0
 10
41.76653764146536
 20
265.5911222845982
 30
0.0
 10
41.72773212472509
 20
265.5593723163561
 30
0.0
 10
41.7136210277288
 20
265.5099834768685
 30
0.0
 10
41.72067657622694
 20
265.46412241163
 30
0.0
  0
POLYLINE
  5
151
330
4A
100
AcDbEntity
  8
STANDARDEBENE
 62
     7
100
AcDb2dPolyline
 66
     1
 10
0.0
 20
0.0
 30
0.0
  0
VERTEX
  5
152
330
151
100
AcDbEntity
  8
STANDARDEBENE
 62
     7
100
AcDbVertex
100
AcDb2dVertex
 10
42.38742590931037
 20
266.1978994554466
 30
0.0
  0
VERTEX
  5
153
330
151
100
AcDbEntity
  8
STANDARDEBENE
 62
     7
100
AcDbVertex
100
AcDb2dVertex
 10
42.05581512989311
 20
265.8415942562854
 30
0.0
  0
VERTEX
  5
154
330
151
100
AcDbEntity
  8
STANDARDEBENE
 62
     7
100
AcDbVertex
100
AcDb2dVertex
 10
41.76653764146536
 20
265.5911222845982
 30
0.0
  0
SEQEND
  5
155
330
151
100
AcDbEntity
  8
STANDARDEBENE
 62
     7
  0
SPLINE
  5
156
330
4A
100
AcDbEntity
  8
STANDARDEBENE
 62
     7
100
AcDbSpline
210
0.0
220
0.0
230
1.0
 70
     8
 71
     3
 72
     8
 73
     4
 74
     0
 42
0.0000000001
 43
0.0000000001
 12
1.0
 22
0.0
 32
0.0
 13
1.0
 23
0.0
 33
0.0
 40
0.0
 40
0.0
 40
0.0
 40
0.0
 40
1.0
 40
1.0
 40
1.0
 40
1.0
 10
42.38742590931037
 20
266.1978994554466
 30
0.0
 10
42.35920371531747
 20
266.30373268292
 30
0.0
 10
42.32745374707534
 20
266.4060381361446
 30
0.0
 10
42.29923155308244
 20
266.4942324923725
 30
0.0
  0
POLYLINE
  5
157
330
4A
100
AcDbEntity
  8
STANDARDEBENE
 62
     7
100
AcDb2dPolyline
 66
     1
 10
0.0
 20
0.0
 30
0.0
  0
VERTEX
  5
158
330
157
100
AcDbEntity
  8
STANDARDEBENE
 62
     7
100
AcDbVertex
100
AcDb2dVertex
 10
41.44551018479581
 20
266.6529823335825
 30
0.0
  0
VERTEX
  5
159
330
157
100
AcDbEntity
  8
STANDARDEBENE
 62
     7
100
AcDbVertex
100
AcDb2dVertex
 10
41.92881525692492
 20
266.5859546228493
 30
0.0
  0
VERTEX
  5
15A
330
157
100
AcDbEntity
  8
STANDARDEBENE
 62
     7
100
AcDbVertex
100
AcDb2dVertex
 10
42.29923155308244
 20
266.4942324923725
 30
0.0
  0
SEQEND
  5
15B
330
157
100
AcDbEntity
  8
STANDARDEBENE
 62
     7
  0
SPLINE
  5
15C
330
4A
100
AcDbEntity
  8
STANDARDEBENE
 62
     7
100
AcDbSpline
210
0.0
220
0.0
230
1.0
 70
     8
 71
     3
 72
     8
 73
     4
 74
     0
 42
0.0000000001
 43
0.0000000001
 12
1.0
 22
0.0
 32
0.0
 13
1.0
 23
0.0
 33
0.0
 40
0.0
 40
0.0
 40
0.0
 40
0.0
 40
1.0
 40
1.0
 40
1.0
 40
1.0
 10
41.33614918307313
 20
266.7341211413126
 30
0.0
 10
41.35378805431865
 20
266.6847323018246
 30
0.0
 10
41.39612134530815
 20
266.656510107832
 30
0.0
 10
41.44551018479581
 20
266.6529823335825
 30
0.0
  0
SPLINE
  5
15D
330
4A
100
AcDbEntity
  8
STANDARDEBENE
 62
     7
100
AcDbSpline
210
0.0
220
0.0
230
1.0
 70
     8
 71
     3
 72
     8
 73
     4
 74
     0
 42
0.0000000001
 43
0.0000000001
 12
1.0
 22
0.0
 32
0.0
 13
1.0
 23
0.0
 33
0.0
 40
0.0
 40
0.0
 40
0.0
 40
0.0
 40
1.0
 40
1.0
 40
1.0
 40
1.0
 10
41.29381589208363
 20
267.0128153069926
 30
0.0
 10
41.2620659238415
 20
266.9740097902524
 30
0.0
 10
41.25501037534335
 20
266.9246209507647
 30
0.0
 10
41.27617702083811
 20
266.8822876597752
 30
0.0
  0
POLYLINE
  5
15E
330
4A
100
AcDbEntity
  8
STANDARDEBENE
 62
     7
100
AcDb2dPolyline
 66
     1
 10
0.0
 20
0.0
 30
0.0
  0
VERTEX
  5
15F
330
15E
100
AcDbEntity
  8
STANDARDEBENE
 62
     7
100
AcDbVertex
100
AcDb2dVertex
 10
41.78770428696011
 20
267.732481253813
 30
0.0
  0
VERTEX
  5
160
330
15E
100
AcDbEntity
  8
STANDARDEBENE
 62
     7
100
AcDbVertex
100
AcDb2dVertex
 10
41.5301767667745
 20
267.316203892417
 30
0.0
  0
VERTEX
  5
161
330
15E
100
AcDbEntity
  8
STANDARDEBENE
 62
     7
100
AcDbVertex
100
AcDb2dVertex
 10
41.29381589208363
 20
267.0128153069926
 30
0.0
  0
SEQEND
  5
162
330
15E
100
AcDbEntity
  8
STANDARDEBENE
 62
     7
  0
SPLINE
  5
163
330
4A
100
AcDbEntity
  8
STANDARDEBENE
 62
     7
100
AcDbSpline
210
0.0
220
0.0
230
1.0
 70
     8
 71
     3
 72
     8
 73
     4
 74
     0
 42
0.0000000001
 43
0.0000000001
 12
1.0
 22
0.0
 32
0.0
 13
1.0
 23
0.0
 33
0.0
 40
0.0
 40
0.0
 40
0.0
 40
0.0
 40
1.0
 40
1.0
 40
1.0
 40
1.0
 10
41.78770428696011
 20
267.732481253813
 30
0.0
 10
41.73831544747247
 20
267.827731158539
 30
0.0
 10
41.6853988337359
 20
267.9229810632651
 30
0.0
 10
41.6430655427464
 20
268.0041198709949
 30
0.0
  0
POLYLINE
  5
164
330
4A
100
AcDbEntity
  8
STANDARDEBENE
 62
     7
100
AcDb2dPolyline
 66
     1
 10
0.0
 20
0.0
 30
0.0
  0
VERTEX
  5
165
330
164
100
AcDbEntity
  8
STANDARDEBENE
 62
     7
100
AcDbVertex
100
AcDb2dVertex
 10
40.77170530321424
 20
267.9935365482475
 30
0.0
  0
VERTEX
  5
166
330
164
100
AcDbEntity
  8
STANDARDEBENE
 62
     7
100
AcDbVertex
100
AcDb2dVertex
 10
41.25853814959259
 20
268.0217587422404
 30
0.0
  0
VERTEX
  5
167
330
164
100
AcDbEntity
  8
STANDARDEBENE
 62
     7
100
AcDbVertex
100
AcDb2dVertex
 10
41.6430655427464
 20
268.0041198709949
 30
0.0
  0
SEQEND
  5
168
330
164
100
AcDbEntity
  8
STANDARDEBENE
 62
     7
  0
SPLINE
  5
169
330
4A
100
AcDbEntity
  8
STANDARDEBENE
 62
     7
100
AcDbSpline
210
0.0
220
0.0
230
1.0
 70
     8
 71
     3
 72
     8
 73
     4
 74
     0
 42
0.0000000001
 43
0.0000000001
 12
1.0
 22
0.0
 32
0.0
 13
1.0
 23
0.0
 33
0.0
 40
0.0
 40
0.0
 40
0.0
 40
0.0
 40
1.0
 40
1.0
 40
1.0
 40
1.0
 10
40.65176097874419
 20
268.0499809362336
 30
0.0
 10
40.67645539848785
 20
268.0076476452441
 30
0.0
 10
40.72584423797582
 20
267.9864809997493
 30
0.0
 10
40.77170530321424
 20
267.9935365482475
 30
0.0
  0
SPLINE
  5
16A
330
4A
100
AcDbEntity
  8
STANDARDEBENE
 62
     7
100
AcDbSpline
210
0.0
220
0.0
230
1.0
 70
     8
 71
     3
 72
     8
 73
     4
 74
     0
 42
0.0000000001
 43
0.0000000001
 12
1.0
 22
0.0
 32
0.0
 13
1.0
 23
0.0
 33
0.0
 40
0.0
 40
0.0
 40
0.0
 40
0.0
 40
1.0
 40
1.0
 40
1.0
 40
1.0
 10
40.55651107401813
 20
268.3145640049174
 30
0.0
 10
40.53181665427414
 20
268.2722307139279
 30
0.0
 10
40.53534442852337
 20
268.2228418744402
 30
0.0
 10
40.56003884826703
 20
268.1840363576999
 30
0.0
  0
POLYLINE
  5
16B
330
4A
100
AcDbEntity
  8
STANDARDEBENE
 62
     7
100
AcDb2dPolyline
 66
     1
 10
0.0
 20
0.0
 30
0.0
  0
VERTEX
  5
16C
330
16B
100
AcDbEntity
  8
STANDARDEBENE
 62
     7
100
AcDbVertex
100
AcDb2dVertex
 10
40.89870517618243
 20
269.1188965337161
 30
0.0
  0
VERTEX
  5
16D
330
16B
100
AcDbEntity
  8
STANDARDEBENE
 62
     7
100
AcDbVertex
100
AcDb2dVertex
 10
40.72584423797582
 20
268.6602858813309
 30
0.0
  0
VERTEX
  5
16E
330
16B
100
AcDbEntity
  8
STANDARDEBENE
 62
     7
100
AcDbVertex
100
AcDb2dVertex
 10
40.55651107401813
 20
268.3145640049174
 30
0.0
  0
SEQEND
  5
16F
330
16B
100
AcDbEntity
  8
STANDARDEBENE
 62
     7
  0
SPLINE
  5
170
330
4A
100
AcDbEntity
  8
STANDARDEBENE
 62
     7
100
AcDbSpline
210
0.0
220
0.0
230
1.0
 70
     8
 71
     3
 72
     8
 73
     4
 74
     0
 42
0.0000000001
 43
0.0000000001
 12
1.0
 22
0.0
 32
0.0
 13
1.0
 23
0.0
 33
0.0
 40
0.0
 40
0.0
 40
0.0
 40
0.0
 40
1.0
 40
1.0
 40
1.0
 40
1.0
 10
40.89870517618243
 20
269.1188965337161
 30
0.0
 10
40.83167746544927
 20
269.203563115695
 30
0.0
 10
40.76112198046686
 20
269.2847019234248
 30
0.0
 10
40.70114981823184
 20
269.3552574084072
 30
0.0
  0
POLYLINE
  5
171
330
4A
100
AcDbEntity
  8
STANDARDEBENE
 62
     7
100
AcDb2dPolyline
 66
     1
 10
0.0
 20
0.0
 30
0.0
  0
VERTEX
  5
172
330
171
100
AcDbEntity
  8
STANDARDEBENE
 62
     7
100
AcDbVertex
100
AcDb2dVertex
 10
39.85095622419443
 20
269.1753409217022
 30
0.0
  0
VERTEX
  5
173
330
171
100
AcDbEntity
  8
STANDARDEBENE
 62
     7
100
AcDbVertex
100
AcDb2dVertex
 10
40.32367797357617
 20
269.2988130204214
 30
0.0
  0
VERTEX
  5
174
330
171
100
AcDbEntity
  8
STANDARDEBENE
 62
     7
100
AcDbVertex
100
AcDb2dVertex
 10
40.70114981823184
 20
269.3552574084072
 30
0.0
  0
SEQEND
  5
175
330
171
100
AcDbEntity
  8
STANDARDEBENE
 62
     7
  0
SPLINE
  5
176
330
4A
100
AcDbEntity
  8
STANDARDEBENE
 62
     7
100
AcDbSpline
210
0.0
220
0.0
230
1.0
 70
     8
 71
     3
 72
     8
 73
     4
 74
     0
 42
0.0000000001
 43
0.0000000001
 12
1.0
 22
0.0
 32
0.0
 13
1.0
 23
0.0
 33
0.0
 40
0.0
 40
0.0
 40
0.0
 40
0.0
 40
1.0
 40
1.0
 40
1.0
 40
1.0
 10
39.72042857697701
 20
269.207090889944
 30
0.0
 10
39.75570631946805
 20
269.1718131474529
 30
0.0
 10
39.80509515895569
 20
269.1612298247055
 30
0.0
 10
39.85095622419443
 20
269.1753409217022
 30
0.0
  0
SPLINE
  5
177
330
4A
100
AcDbEntity
  8
STANDARDEBENE
 62
     7
100
AcDbSpline
210
0.0
220
0.0
230
1.0
 70
     8
 71
     3
 72
     8
 73
     4
 74
     0
 42
0.0000000001
 43
0.0000000001
 12
1.0
 22
0.0
 32
0.0
 13
1.0
 23
0.0
 33
0.0
 40
0.0
 40
0.0
 40
0.0
 40
0.0
 40
1.0
 40
1.0
 40
1.0
 40
1.0
 10
39.57578983276329
 20
269.4505073131333
 30
0.0
 10
39.56167873576668
 20
269.4046462478946
 30
0.0
 10
39.57226205851406
 20
269.3552574084072
 30
0.0
 10
39.6075398010051
 20
269.3199796659162
 30
0.0
  0
POLYLINE
  5
178
330
4A
100
AcDbEntity
  8
STANDARDEBENE
 62
     7
100
AcDb2dPolyline
 66
     1
 10
0.0
 20
0.0
 30
0.0
  0
VERTEX
  5
179
330
178
100
AcDbEntity
  8
STANDARDEBENE
 62
     7
100
AcDbVertex
100
AcDb2dVertex
 10
39.75570631946805
 20
270.3042286814199
 30
0.0
  0
VERTEX
  5
17A
330
178
100
AcDbEntity
  8
STANDARDEBENE
 62
     7
100
AcDbVertex
100
AcDb2dVertex
 10
39.6780952859875
 20
269.8209236092905
 30
0.0
  0
VERTEX
  5
17B
330
178
100
AcDbEntity
  8
STANDARDEBENE
 62
     7
100
AcDbVertex
100
AcDb2dVertex
 10
39.57578983276329
 20
269.4505073131333
 30
0.0
  0
SEQEND
  5
17C
330
178
100
AcDbEntity
  8
STANDARDEBENE
 62
     7
  0
SPLINE
  5
17D
330
4A
100
AcDbEntity
  8
STANDARDEBENE
 62
     7
100
AcDbSpline
210
0.0
220
0.0
230
1.0
 70
     8
 71
     3
 72
     8
 73
     4
 74
     0
 42
0.0000000001
 43
0.0000000001
 12
1.0
 22
0.0
 32
0.0
 13
1.0
 23
0.0
 33
0.0
 40
0.0
 40
0.0
 40
0.0
 40
0.0
 40
1.0
 40
1.0
 40
1.0
 40
1.0
 10
39.75570631946805
 20
270.3042286814199
 30
0.0
 10
39.67103973748936
 20
270.3712563921531
 30
0.0
 10
39.58990092975958
 20
270.4418118771355
 30
0.0
 10
39.51581767052826
 20
270.4982562651213
 30
0.0
  0
POLYLINE
  5
17E
330
4A
100
AcDbEntity
  8
STANDARDEBENE
 62
     7
100
AcDb2dPolyline
 66
     1
 10
0.0
 20
0.0
 30
0.0
  0
VERTEX
  5
17F
330
17E
100
AcDbEntity
  8
STANDARDEBENE
 62
     7
100
AcDbVertex
100
AcDb2dVertex
 10
38.71501291597851
 20
270.156062162957
 30
0.0
  0
VERTEX
  5
180
330
17E
100
AcDbEntity
  8
STANDARDEBENE
 62
     7
100
AcDbVertex
100
AcDb2dVertex
 10
39.15598469711811
 20
270.3677286179039
 30
0.0
  0
VERTEX
  5
181
330
17E
100
AcDbEntity
  8
STANDARDEBENE
 62
     7
100
AcDbVertex
100
AcDb2dVertex
 10
39.51581767052826
 20
270.4982562651213
 30
0.0
  0
SEQEND
  5
182
330
17E
100
AcDbEntity
  8
STANDARDEBENE
 62
     7
  0
SPLINE
  5
183
330
4A
100
AcDbEntity
  8
STANDARDEBENE
 62
     7
100
AcDbSpline
210
0.0
220
0.0
230
1.0
 70
     8
 71
     3
 72
     8
 73
     4
 74
     0
 42
0.0000000001
 43
0.0000000001
 12
1.0
 22
0.0
 32
0.0
 13
1.0
 23
0.0
 33
0.0
 40
0.0
 40
0.0
 40
0.0
 40
0.0
 40
1.0
 40
1.0
 40
1.0
 40
1.0
 10
38.58448526876108
 20
270.1595899372059
 30
0.0
 10
38.62329078550135
 20
270.1348955174622
 30
0.0
 10
38.672679624989
 20
270.1348955174622
 30
0.0
 10
38.71501291597851
 20
270.156062162957
 30
0.0
  0
SPLINE
  5
184
330
4A
100
AcDbEntity
  8
STANDARDEBENE
 62
     7
100
AcDbSpline
210
0.0
220
0.0
230
1.0
 70
     8
 71
     3
 72
     8
 73
     4
 74
     0
 42
0.0000000001
 43
0.0000000001
 12
1.0
 22
0.0
 32
0.0
 13
1.0
 23
0.0
 33
0.0
 40
0.0
 40
0.0
 40
0.0
 40
0.0
 40
1.0
 40
1.0
 40
1.0
 40
1.0
 10
38.39398545930863
 20
270.3712563921531
 30
0.0
 10
38.38692991081049
 20
270.3218675526654
 30
0.0
 10
38.40809655630524
 20
270.276006487427
 30
0.0
 10
38.45042984729442
 20
270.251312067683
 30
0.0
  0
POLYLINE
  5
185
330
4A
100
AcDbEntity
  8
STANDARDEBENE
 62
     7
100
AcDb2dPolyline
 66
     1
 10
0.0
 20
0.0
 30
0.0
  0
VERTEX
  5
186
330
185
100
AcDbEntity
  8
STANDARDEBENE
 62
     7
100
AcDbVertex
100
AcDb2dVertex
 10
38.40104100780677
 20
271.2426166316853
 30
0.0
  0
VERTEX
  5
187
330
185
100
AcDbEntity
  8
STANDARDEBENE
 62
     7
100
AcDbVertex
100
AcDb2dVertex
 10
38.41867987905261
 20
270.7557837853072
 30
0.0
  0
VERTEX
  5
188
330
185
100
AcDbEntity
  8
STANDARDEBENE
 62
     7
100
AcDbVertex
100
AcDb2dVertex
 10
38.39398545930863
 20
270.3712563921531
 30
0.0
  0
SEQEND
  5
189
330
185
100
AcDbEntity
  8
STANDARDEBENE
 62
     7
  0
SPLINE
  5
18A
330
4A
100
AcDbEntity
  8
STANDARDEBENE
 62
     7
100
AcDbSpline
210
0.0
220
0.0
230
1.0
 70
     8
 71
     3
 72
     8
 73
     4
 74
     0
 42
0.0000000001
 43
0.0000000001
 12
1.0
 22
0.0
 32
0.0
 13
1.0
 23
0.0
 33
0.0
 40
0.0
 40
0.0
 40
0.0
 40
0.0
 40
1.0
 40
1.0
 40
1.0
 40
1.0
 10
38.40104100780677
 20
271.2426166316853
 30
0.0
 10
38.30931887732994
 20
271.2955332454221
 30
0.0
 10
38.21406897260356
 20
271.3449220849098
 30
0.0
 10
38.13293016487378
 20
271.387255375899
 30
0.0
  0
POLYLINE
  5
18B
330
4A
100
AcDbEntity
  8
STANDARDEBENE
 62
     7
100
AcDb2dPolyline
 66
     1
 10
0.0
 20
0.0
 30
0.0
  0
VERTEX
  5
18C
330
18B
100
AcDbEntity
  8
STANDARDEBENE
 62
     7
100
AcDbVertex
100
AcDb2dVertex
 10
37.4132642180538
 20
270.8968947552717
 30
0.0
  0
VERTEX
  5
18D
330
18B
100
AcDbEntity
  8
STANDARDEBENE
 62
     7
100
AcDbVertex
100
AcDb2dVertex
 10
37.80131938545684
 20
271.1897000179484
 30
0.0
  0
VERTEX
  5
18E
330
18B
100
AcDbEntity
  8
STANDARDEBENE
 62
     7
100
AcDbVertex
100
AcDb2dVertex
 10
38.13293016487378
 20
271.387255375899
 30
0.0
  0
SEQEND
  5
18F
330
18B
100
AcDbEntity
  8
STANDARDEBENE
 62
     7
  0
SPLINE
  5
190
330
4A
100
AcDbEntity
  8
STANDARDEBENE
 62
     7
100
AcDbSpline
210
0.0
220
0.0
230
1.0
 70
     8
 71
     3
 72
     8
 73
     4
 74
     0
 42
0.0000000001
 43
0.0000000001
 12
1.0
 22
0.0
 32
0.0
 13
1.0
 23
0.0
 33
0.0
 40
0.0
 40
0.0
 40
0.0
 40
0.0
 40
1.0
 40
1.0
 40
1.0
 40
1.0
 10
37.27920879658745
 20
270.875728109777
 30
0.0
 10
37.32506986182587
 20
270.8545614642825
 30
0.0
 10
37.37798647556276
 20
270.8651447870296
 30
0.0
 10
37.4132642180538
 20
270.8968947552717
 30
0.0
  0
SPLINE
  5
191
330
4A
100
AcDbEntity
  8
STANDARDEBENE
 62
     7
100
AcDbSpline
210
0.0
220
0.0
230
1.0
 70
     8
 71
     3
 72
     8
 73
     4
 74
     0
 42
0.0000000001
 43
0.0000000001
 12
1.0
 22
0.0
 32
0.0
 13
1.0
 23
0.0
 33
0.0
 40
0.0
 40
0.0
 40
0.0
 40
0.0
 40
1.0
 40
1.0
 40
1.0
 40
1.0
 10
37.05343124464364
 20
271.0450612737347
 30
0.0
 10
37.05695901889288
 20
270.995672434247
 30
0.0
 10
37.08870898713501
 20
270.9533391432578
 30
0.0
 10
37.13104227812451
 20
270.935700272012
 30
0.0
  0
POLYLINE
  5
192
330
4A
100
AcDbEntity
  8
STANDARDEBENE
 62
     7
100
AcDb2dPolyline
 66
     1
 10
0.0
 20
0.0
 30
0.0
  0
VERTEX
  5
193
330
192
100
AcDbEntity
  8
STANDARDEBENE
 62
     7
100
AcDbVertex
100
AcDb2dVertex
 10
36.89115362918441
 20
271.9023104162702
 30
0.0
  0
VERTEX
  5
194
330
192
100
AcDbEntity
  8
STANDARDEBENE
 62
     7
100
AcDbVertex
100
AcDb2dVertex
 10
37.00404240515599
 20
271.4260608926396
 30
0.0
  0
VERTEX
  5
195
330
192
100
AcDbEntity
  8
STANDARDEBENE
 62
     7
100
AcDbVertex
100
AcDb2dVertex
 10
37.05343124464364
 20
271.0450612737347
 30
0.0
  0
SEQEND
  5
196
330
192
100
AcDbEntity
  8
STANDARDEBENE
 62
     7
  0
SPLINE
  5
197
330
4A
100
AcDbEntity
  8
STANDARDEBENE
 62
     7
100
AcDbSpline
210
0.0
220
0.0
230
1.0
 70
     8
 71
     3
 72
     8
 73
     4
 74
     0
 42
0.0000000001
 43
0.0000000001
 12
1.0
 22
0.0
 32
0.0
 13
1.0
 23
0.0
 33
0.0
 40
0.0
 40
0.0
 40
0.0
 40
0.0
 40
1.0
 40
1.0
 40
1.0
 40
1.0
 10
36.89115362918441
 20
271.9023104162702
 30
0.0
 10
36.78884817595988
 20
271.9340603845123
 30
0.0
 10
36.68654272273535
 20
271.9658103527545
 30
0.0
 10
36.59834836650742
 20
271.9905047724981
 30
0.0
  0
POLYLINE
  5
198
330
4A
100
AcDbEntity
  8
STANDARDEBENE
 62
     7
100
AcDb2dPolyline
 66
     1
 10
0.0
 20
0.0
 30
0.0
  0
VERTEX
  5
199
330
198
100
AcDbEntity
  8
STANDARDEBENE
 62
     7
100
AcDbVertex
100
AcDb2dVertex
 10
35.98804342141012
 20
271.3660887304042
 30
0.0
  0
VERTEX
  5
19A
330
198
100
AcDbEntity
  8
STANDARDEBENE
 62
     7
100
AcDbVertex
100
AcDb2dVertex
 10
36.31612642657814
 20
271.7329772523128
 30
0.0
  0
VERTEX
  5
19B
330
198
100
AcDbEntity
  8
STANDARDEBENE
 62
     7
100
AcDbVertex
100
AcDb2dVertex
 10
36.59834836650742
 20
271.9905047724981
 30
0.0
  0
SEQEND
  5
19C
330
198
100
AcDbEntity
  8
STANDARDEBENE
 62
     7
  0
SPLINE
  5
19D
330
4A
100
AcDbEntity
  8
STANDARDEBENE
 62
     7
100
AcDbSpline
210
0.0
220
0.0
230
1.0
 70
     8
 71
     3
 72
     8
 73
     4
 74
     0
 42
0.0000000001
 43
0.0000000001
 12
1.0
 22
0.0
 32
0.0
 13
1.0
 23
0.0
 33
0.0
 40
0.0
 40
0.0
 40
0.0
 40
0.0
 40
1.0
 40
1.0
 40
1.0
 40
1.0
 10
35.86457132269084
 20
271.3202276651658
 30
0.0
 10
35.91396016217848
 20
271.3131721166677
 30
0.0
 10
35.95982122741722
 20
271.3308109879132
 30
0.0
 10
35.98804342141012
 20
271.3660887304042
 30
0.0
  0
SPLINE
  5
19E
330
4A
100
AcDbEntity
  8
STANDARDEBENE
 62
     7
100
AcDbSpline
210
0.0
220
0.0
230
1.0
 70
     8
 71
     3
 72
     8
 73
     4
 74
     0
 42
0.0000000001
 43
0.0000000001
 12
1.0
 22
0.0
 32
0.0
 13
1.0
 23
0.0
 33
0.0
 40
0.0
 40
0.0
 40
0.0
 40
0.0
 40
1.0
 40
1.0
 40
1.0
 40
1.0
 10
35.61057157675445
 20
271.4436997638851
 30
0.0
 10
35.62115489950182
 20
271.3943109243974
 30
0.0
 10
35.6599604162421
 20
271.3625609561553
 30
0.0
 10
35.70582148148051
 20
271.351977633408
 30
0.0
  0
POLYLINE
  5
19F
330
4A
100
AcDbEntity
  8
STANDARDEBENE
 62
     7
100
AcDb2dPolyline
 66
     1
 10
0.0
 20
0.0
 30
0.0
  0
VERTEX
  5
1A0
330
19F
100
AcDbEntity
  8
STANDARDEBENE
 62
     7
100
AcDbVertex
100
AcDb2dVertex
 10
35.28248857158643
 20
272.251560066933
 30
0.0
  0
VERTEX
  5
1A1
330
19F
100
AcDbEntity
  8
STANDARDEBENE
 62
     7
100
AcDbVertex
100
AcDb2dVertex
 10
35.48709947803549
 20
271.8070605115441
 30
0.0
  0
VERTEX
  5
1A2
330
19F
100
AcDbEntity
  8
STANDARDEBENE
 62
     7
100
AcDbVertex
100
AcDb2dVertex
 10
35.61057157675445
 20
271.4436997638851
 30
0.0
  0
SEQEND
  5
1A3
330
19F
100
AcDbEntity
  8
STANDARDEBENE
 62
     7
  0
SPLINE
  5
1A4
330
4A
100
AcDbEntity
  8
STANDARDEBENE
 62
     7
100
AcDbSpline
210
0.0
220
0.0
230
1.0
 70
     8
 71
     3
 72
     8
 73
     4
 74
     0
 42
0.0000000001
 43
0.0000000001
 12
1.0
 22
0.0
 32
0.0
 13
1.0
 23
0.0
 33
0.0
 40
0.0
 40
0.0
 40
0.0
 40
0.0
 40
1.0
 40
1.0
 40
1.0
 40
1.0
 10
35.28248857158643
 20
272.251560066933
 30
0.0
 10
35.17665534411299
 20
272.2621433896804
 30
0.0
 10
35.07082211663954
 20
272.2727267124278
 30
0.0
 10
34.97909998616239
 20
272.2797822609262
 30
0.0
  0
POLYLINE
  5
1A5
330
4A
100
AcDbEntity
  8
STANDARDEBENE
 62
     7
100
AcDb2dPolyline
 66
     1
 10
0.0
 20
0.0
 30
0.0
  0
VERTEX
  5
1A6
330
1A5
100
AcDbEntity
  8
STANDARDEBENE
 62
     7
100
AcDbVertex
100
AcDb2dVertex
 10
34.50285046253142
 20
271.5530607656074
 30
0.0
  0
VERTEX
  5
1A7
330
1A5
100
AcDbEntity
  8
STANDARDEBENE
 62
     7
100
AcDbVertex
100
AcDb2dVertex
 10
34.74979465996967
 20
271.9728659012529
 30
0.0
  0
VERTEX
  5
1A8
330
1A5
100
AcDbEntity
  8
STANDARDEBENE
 62
     7
100
AcDbVertex
100
AcDb2dVertex
 10
34.97909998616239
 20
272.2797822609262
 30
0.0
  0
SEQEND
  5
1A9
330
1A5
100
AcDbEntity
  8
STANDARDEBENE
 62
     7
  0
SPLINE
  5
1AA
330
4A
100
AcDbEntity
  8
STANDARDEBENE
 62
     7
100
AcDbSpline
210
0.0
220
0.0
230
1.0
 70
     8
 71
     3
 72
     8
 73
     4
 74
     0
 42
0.0000000001
 43
0.0000000001
 12
1.0
 22
0.0
 32
0.0
 13
1.0
 23
0.0
 33
0.0
 40
0.0
 40
0.0
 40
0.0
 40
0.0
 40
1.0
 40
1.0
 40
1.0
 40
1.0
 10
34.38996168655952
 20
271.4825052806253
 30
0.0
 10
34.43935052604716
 20
271.4825052806253
 30
0.0
 10
34.48168381703667
 20
271.5107274746182
 30
0.0
 10
34.50285046253142
 20
271.5530607656074
 30
0.0
  0
SPLINE
  5
1AB
330
4A
100
AcDbEntity
  8
STANDARDEBENE
 62
     7
100
AcDbSpline
210
0.0
220
0.0
230
1.0
 70
     8
 71
     3
 72
     8
 73
     4
 74
     0
 42
0.0000000001
 43
0.0000000001
 12
1.0
 22
0.0
 32
0.0
 13
1.0
 23
0.0
 33
0.0
 40
0.0
 40
0.0
 40
0.0
 40
0.0
 40
1.0
 40
1.0
 40
1.0
 40
1.0
 10
34.11479529512837
 20
271.5530607656074
 30
0.0
 10
34.13596194062313
 20
271.507199700369
 30
0.0
 10
34.17829523161263
 20
271.4825052806253
 30
0.0
 10
34.22768407110028
 20
271.4825052806253
 30
0.0
  0
POLYLINE
  5
1AC
330
4A
100
AcDbEntity
  8
STANDARDEBENE
 62
     7
100
AcDb2dPolyline
 66
     1
 10
0.0
 20
0.0
 30
0.0
  0
VERTEX
  5
1AD
330
1AC
100
AcDbEntity
  8
STANDARDEBENE
 62
     7
100
AcDbVertex
100
AcDb2dVertex
 10
33.63854577149741
 20
272.2797822609262
 30
0.0
  0
VERTEX
  5
1AE
330
1AC
100
AcDbEntity
  8
STANDARDEBENE
 62
     7
100
AcDbVertex
100
AcDb2dVertex
 10
33.92429548567592
 20
271.884671545025
 30
0.0
  0
VERTEX
  5
1AF
330
1AC
100
AcDbEntity
  8
STANDARDEBENE
 62
     7
100
AcDbVertex
100
AcDb2dVertex
 10
34.11479529512837
 20
271.5530607656074
 30
0.0
  0
SEQEND
  5
1B0
330
1AC
100
AcDbEntity
  8
STANDARDEBENE
 62
     7
  0
SPLINE
  5
1B1
330
4A
100
AcDbEntity
  8
STANDARDEBENE
 62
     7
100
AcDbSpline
210
0.0
220
0.0
230
1.0
 70
     8
 71
     3
 72
     8
 73
     4
 74
     0
 42
0.0000000001
 43
0.0000000001
 12
1.0
 22
0.0
 32
0.0
 13
1.0
 23
0.0
 33
0.0
 40
0.0
 40
0.0
 40
0.0
 40
0.0
 40
1.0
 40
1.0
 40
1.0
 40
1.0
 10
33.63854577149741
 20
272.2797822609262
 30
0.0
 10
33.52918476977473
 20
272.2727267124278
 30
0.0
 10
33.42335154230129
 20
272.2621433896804
 30
0.0
 10
33.33162941182413
 20
272.251560066933
 30
0.0
  0
POLYLINE
  5
1B2
330
4A
100
AcDbEntity
  8
STANDARDEBENE
 62
     7
100
AcDb2dPolyline
 66
     1
 10
0.0
 20
0.0
 30
0.0
  0
VERTEX
  5
1B3
330
1B2
100
AcDbEntity
  8
STANDARDEBENE
 62
     7
100
AcDbVertex
100
AcDb2dVertex
 10
33.00707418090534
 20
271.4436997638851
 30
0.0
  0
VERTEX
  5
1B4
330
1B2
100
AcDbEntity
  8
STANDARDEBENE
 62
     7
100
AcDbVertex
100
AcDb2dVertex
 10
33.16582402211566
 20
271.9023104162702
 30
0.0
  0
VERTEX
  5
1B5
330
1B2
100
AcDbEntity
  8
STANDARDEBENE
 62
     7
100
AcDbVertex
100
AcDb2dVertex
 10
33.33162941182413
 20
272.251560066933
 30
0.0
  0
SEQEND
  5
1B6
330
1B2
100
AcDbEntity
  8
STANDARDEBENE
 62
     7
  0
SPLINE
  5
1B7
330
4A
100
AcDbEntity
  8
STANDARDEBENE
 62
     7
100
AcDbSpline
210
0.0
220
0.0
230
1.0
 70
     8
 71
     3
 72
     8
 73
     4
 74
     0
 42
0.0000000001
 43
0.0000000001
 12
1.0
 22
0.0
 32
0.0
 13
1.0
 23
0.0
 33
0.0
 40
0.0
 40
0.0
 40
0.0
 40
0.0
 40
1.0
 40
1.0
 40
1.0
 40
1.0
 10
32.90829650193005
 20
271.351977633408
 30
0.0
 10
32.95768534141769
 20
271.3625609561553
 30
0.0
 10
32.99296308390873
 20
271.3978386986464
 30
0.0
 10
33.00707418090534
 20
271.4436997638851
 30
0.0
  0
SPLINE
  5
1B8
330
4A
100
AcDbEntity
  8
STANDARDEBENE
 62
     7
100
AcDbSpline
210
0.0
220
0.0
230
1.0
 70
     8
 71
     3
 72
     8
 73
     4
 74
     0
 42
0.0000000001
 43
0.0000000001
 12
1.0
 22
0.0
 32
0.0
 13
1.0
 23
0.0
 33
0.0
 40
0.0
 40
0.0
 40
0.0
 40
0.0
 40
1.0
 40
1.0
 40
1.0
 40
1.0
 10
32.62607456200076
 20
271.3660887304042
 30
0.0
 10
32.65782453024257
 20
271.3272832136643
 30
0.0
 10
32.7036855954813
 20
271.3131721166677
 30
0.0
 10
32.74954666071972
 20
271.3202276651658
 30
0.0
  0
POLYLINE
  5
1B9
330
4A
100
AcDbEntity
  8
STANDARDEBENE
 62
     7
100
AcDb2dPolyline
 66
     1
 10
0.0
 20
0.0
 30
0.0
  0
VERTEX
  5
1BA
330
1B9
100
AcDbEntity
  8
STANDARDEBENE
 62
     7
100
AcDbVertex
100
AcDb2dVertex
 10
32.01576961690314
 20
271.9905047724981
 30
0.0
  0
VERTEX
  5
1BB
330
1B9
100
AcDbEntity
  8
STANDARDEBENE
 62
     7
100
AcDbVertex
100
AcDb2dVertex
 10
32.37560259031329
 20
271.6553662188323
 30
0.0
  0
VERTEX
  5
1BC
330
1B9
100
AcDbEntity
  8
STANDARDEBENE
 62
     7
100
AcDbVertex
100
AcDb2dVertex
 10
32.62607456200076
 20
271.3660887304042
 30
0.0
  0
SEQEND
  5
1BD
330
1B9
100
AcDbEntity
  8
STANDARDEBENE
 62
     7
  0
SPLINE
  5
1BE
330
4A
100
AcDbEntity
  8
STANDARDEBENE
 62
     7
100
AcDbSpline
210
0.0
220
0.0
230
1.0
 70
     8
 71
     3
 72
     8
 73
     4
 74
     0
 42
0.0000000001
 43
0.0000000001
 12
1.0
 22
0.0
 32
0.0
 13
1.0
 23
0.0
 33
0.0
 40
0.0
 40
0.0
 40
0.0
 40
0.0
 40
1.0
 40
1.0
 40
1.0
 40
1.0
 10
32.01576961690314
 20
271.9905047724981
 30
0.0
 10
31.9134641636786
 20
271.9587548042563
 30
0.0
 10
31.81115871045439
 20
271.9305326102634
 30
0.0
 10
31.72296435422647
 20
271.9023104162702
 30
0.0
  0
POLYLINE
  5
1BF
330
4A
100
AcDbEntity
  8
STANDARDEBENE
 62
     7
100
AcDb2dPolyline
 66
     1
 10
0.0
 20
0.0
 30
0.0
  0
VERTEX
  5
1C0
330
1BF
100
AcDbEntity
  8
STANDARDEBENE
 62
     7
100
AcDbVertex
100
AcDb2dVertex
 10
31.56068673876692
 20
271.0450612737347
 30
0.0
  0
VERTEX
  5
1C1
330
1BF
100
AcDbEntity
  8
STANDARDEBENE
 62
     7
100
AcDbVertex
100
AcDb2dVertex
 10
31.62771444950009
 20
271.5283663458638
 30
0.0
  0
VERTEX
  5
1C2
330
1BF
100
AcDbEntity
  8
STANDARDEBENE
 62
     7
100
AcDbVertex
100
AcDb2dVertex
 10
31.72296435422647
 20
271.9023104162702
 30
0.0
  0
SEQEND
  5
1C3
330
1BF
100
AcDbEntity
  8
STANDARDEBENE
 62
     7
  0
SPLINE
  5
1C4
330
4A
100
AcDbEntity
  8
STANDARDEBENE
 62
     7
100
AcDbSpline
210
0.0
220
0.0
230
1.0
 70
     8
 71
     3
 72
     8
 73
     4
 74
     0
 42
0.0000000001
 43
0.0000000001
 12
1.0
 22
0.0
 32
0.0
 13
1.0
 23
0.0
 33
0.0
 40
0.0
 40
0.0
 40
0.0
 40
0.0
 40
1.0
 40
1.0
 40
1.0
 40
1.0
 10
31.48307570528637
 20
270.935700272012
 30
0.0
 10
31.52893677052479
 20
270.9568669175067
 30
0.0
 10
31.55715896451769
 20
270.995672434247
 30
0.0
 10
31.56068673876692
 20
271.0450612737347
 30
0.0
  0
SPLINE
  5
1C5
330
4A
100
AcDbEntity
  8
STANDARDEBENE
 62
     7
100
AcDbSpline
210
0.0
220
0.0
230
1.0
 70
     8
 71
     3
 72
     8
 73
     4
 74
     0
 42
0.0000000001
 43
0.0000000001
 12
1.0
 22
0.0
 32
0.0
 13
1.0
 23
0.0
 33
0.0
 40
0.0
 40
0.0
 40
0.0
 40
0.0
 40
1.0
 40
1.0
 40
1.0
 40
1.0
 10
31.204381539606
 20
270.8968947552717
 30
0.0
 10
31.23965928209736
 20
270.8651447870296
 30
0.0
 10
31.29257589583392
 20
270.8580892385314
 30
0.0
 10
31.33490918682342
 20
270.875728109777
 30
0.0
  0
POLYLINE
  5
1C6
330
4A
100
AcDbEntity
  8
STANDARDEBENE
 62
     7
100
AcDb2dPolyline
 66
     1
 10
0.0
 20
0.0
 30
0.0
  0
VERTEX
  5
1C7
330
1C6
100
AcDbEntity
  8
STANDARDEBENE
 62
     7
100
AcDbVertex
100
AcDb2dVertex
 10
30.48471559278602
 20
271.387255375899
 30
0.0
  0
VERTEX
  5
1C8
330
1C6
100
AcDbEntity
  8
STANDARDEBENE
 62
     7
100
AcDbVertex
100
AcDb2dVertex
 10
30.90099295418196
 20
271.1297278557137
 30
0.0
  0
VERTEX
  5
1C9
330
1C6
100
AcDbEntity
  8
STANDARDEBENE
 62
     7
100
AcDbVertex
100
AcDb2dVertex
 10
31.204381539606
 20
270.8968947552717
 30
0.0
  0
SEQEND
  5
1CA
330
1C6
100
AcDbEntity
  8
STANDARDEBENE
 62
     7
  0
SPLINE
  5
1CB
330
4A
100
AcDbEntity
  8
STANDARDEBENE
 62
     7
100
AcDbSpline
210
0.0
220
0.0
230
1.0
 70
     8
 71
     3
 72
     8
 73
     4
 74
     0
 42
0.0000000001
 43
0.0000000001
 12
1.0
 22
0.0
 32
0.0
 13
1.0
 23
0.0
 33
0.0
 40
0.0
 40
0.0
 40
0.0
 40
0.0
 40
1.0
 40
1.0
 40
1.0
 40
1.0
 10
30.48471559278602
 20
271.387255375899
 30
0.0
 10
30.38593791381072
 20
271.3378665364116
 30
0.0
 10
30.29421578333357
 20
271.2884776969237
 30
0.0
 10
30.21307697560379
 20
271.2426166316853
 30
0.0
  0
POLYLINE
  5
1CC
330
4A
100
AcDbEntity
  8
STANDARDEBENE
 62
     7
100
AcDb2dPolyline
 66
     1
 10
0.0
 20
0.0
 30
0.0
  0
VERTEX
  5
1CD
330
1CC
100
AcDbEntity
  8
STANDARDEBENE
 62
     7
100
AcDbVertex
100
AcDb2dVertex
 10
30.22366029835116
 20
270.3712563921531
 30
0.0
  0
VERTEX
  5
1CE
330
1CC
100
AcDbEntity
  8
STANDARDEBENE
 62
     7
100
AcDbVertex
100
AcDb2dVertex
 10
30.19543810435827
 20
270.8580892385314
 30
0.0
  0
VERTEX
  5
1CF
330
1CC
100
AcDbEntity
  8
STANDARDEBENE
 62
     7
100
AcDbVertex
100
AcDb2dVertex
 10
30.21307697560379
 20
271.2426166316853
 30
0.0
  0
SEQEND
  5
1D0
330
1CC
100
AcDbEntity
  8
STANDARDEBENE
 62
     7
  0
SPLINE
  5
1D1
330
4A
100
AcDbEntity
  8
STANDARDEBENE
 62
     7
100
AcDbSpline
210
0.0
220
0.0
230
1.0
 70
    24
 71
     3
 72
     8
 73
     4
 74
     0
 42
0.0000000001
 43
0.0000000001
 12
1.0
 22
0.0
 32
0.0
 13
1.0
 23
0.0
 33
0.0
 40
0.0
 40
0.0
 40
0.0
 40
0.0
 40
1.0
 40
1.0
 40
1.0
 40
1.0
 10
30.22366029835116
 20
270.3571452951565
 30
0.0
 10
30.22366029835116
 20
270.3606730694057
 30
0.0
 10
30.22366029835116
 20
270.3677286179039
 30
0.0
 10
30.22366029835116
 20
270.3712563921531
 30
0.0
  0
SPLINE
  5
1D2
330
4A
100
AcDbEntity
  8
STANDARDEBENE
 62
     7
100
AcDbSpline
210
0.0
220
0.0
230
1.0
 70
     8
 71
     3
 72
     8
 73
     4
 74
     0
 42
0.0000000001
 43
0.0000000001
 12
1.0
 22
0.0
 32
0.0
 13
1.0
 23
0.0
 33
0.0
 40
0.0
 40
0.0
 40
0.0
 40
0.0
 40
1.0
 40
1.0
 40
1.0
 40
1.0
 10
30.16721591036537
 20
270.251312067683
 30
0.0
 10
30.20249365285641
 20
270.276006487427
 30
0.0
 10
30.22366029835116
 20
270.3148120041673
 30
0.0
 10
30.22366029835116
 20
270.3571452951565
 30
0.0
  0
SPLINE
  5
1D3
330
4A
100
AcDbEntity
  8
STANDARDEBENE
 62
     7
100
AcDbSpline
210
0.0
220
0.0
230
1.0
 70
     8
 71
     3
 72
     8
 73
     4
 74
     0
 42
0.0000000001
 43
0.0000000001
 12
1.0
 22
0.0
 32
0.0
 13
1.0
 23
0.0
 33
0.0
 40
0.0
 40
0.0
 40
0.0
 40
0.0
 40
1.0
 40
1.0
 40
1.0
 40
1.0
 10
29.89910506743237
 20
270.156062162957
 30
0.0
 10
29.94143835842188
 20
270.1313677432133
 30
0.0
 10
29.99435497215844
 20
270.1348955174622
 30
0.0
 10
30.03316048889871
 20
270.1595899372059
 30
0.0
  0
POLYLINE
  5
1D4
330
4A
100
AcDbEntity
  8
STANDARDEBENE
 62
     7
100
AcDb2dPolyline
 66
     1
 10
0.0
 20
0.0
 30
0.0
  0
VERTEX
  5
1D5
330
1D4
100
AcDbEntity
  8
STANDARDEBENE
 62
     7
100
AcDbVertex
100
AcDb2dVertex
 10
29.09830031288261
 20
270.4982562651213
 30
0.0
  0
VERTEX
  5
1D6
330
1D4
100
AcDbEntity
  8
STANDARDEBENE
 62
     7
100
AcDbVertex
100
AcDb2dVertex
 10
29.55691096526774
 20
270.3289231011639
 30
0.0
  0
VERTEX
  5
1D7
330
1D4
100
AcDbEntity
  8
STANDARDEBENE
 62
     7
100
AcDbVertex
100
AcDb2dVertex
 10
29.89910506743237
 20
270.156062162957
 30
0.0
  0
SEQEND
  5
1D8
330
1D4
100
AcDbEntity
  8
STANDARDEBENE
 62
     7
  0
SPLINE
  5
1D9
330
4A
100
AcDbEntity
  8
STANDARDEBENE
 62
     7
100
AcDbSpline
210
0.0
220
0.0
230
1.0
 70
     8
 71
     3
 72
     8
 73
     4
 74
     0
 42
0.0000000001
 43
0.0000000001
 12
1.0
 22
0.0
 32
0.0
 13
1.0
 23
0.0
 33
0.0
 40
0.0
 40
0.0
 40
0.0
 40
0.0
 40
1.0
 40
1.0
 40
1.0
 40
1.0
 10
29.09830031288261
 20
270.4982562651213
 30
0.0
 10
29.01363373090361
 20
270.4312285543881
 30
0.0
 10
28.92896714892492
 20
270.3606730694057
 30
0.0
 10
28.86193943819175
 20
270.3042286814199
 30
0.0
  0
POLYLINE
  5
1DA
330
4A
100
AcDbEntity
  8
STANDARDEBENE
 62
     7
100
AcDb2dPolyline
 66
     1
 10
0.0
 20
0.0
 30
0.0
  0
VERTEX
  5
1DB
330
1DA
100
AcDbEntity
  8
STANDARDEBENE
 62
     7
100
AcDbVertex
100
AcDb2dVertex
 10
29.04185592489682
 20
269.4505073131333
 30
0.0
  0
VERTEX
  5
1DC
330
1DA
100
AcDbEntity
  8
STANDARDEBENE
 62
     7
100
AcDbVertex
100
AcDb2dVertex
 10
28.91838382617754
 20
269.9232290625154
 30
0.0
  0
VERTEX
  5
1DD
330
1DA
100
AcDbEntity
  8
STANDARDEBENE
 62
     7
100
AcDbVertex
100
AcDb2dVertex
 10
28.86193943819175
 20
270.3042286814199
 30
0.0
  0
SEQEND
  5
1DE
330
1DA
100
AcDbEntity
  8
STANDARDEBENE
 62
     7
  0
SPLINE
  5
1DF
330
4A
100
AcDbEntity
  8
STANDARDEBENE
 62
     7
100
AcDbSpline
210
0.0
220
0.0
230
1.0
 70
     8
 71
     3
 72
     8
 73
     4
 74
     0
 42
0.0000000001
 43
0.0000000001
 12
1.0
 22
0.0
 32
0.0
 13
1.0
 23
0.0
 33
0.0
 40
0.0
 40
0.0
 40
0.0
 40
0.0
 40
1.0
 40
1.0
 40
1.0
 40
1.0
 10
29.04538369914573
 20
269.411701796393
 30
0.0
 10
29.04538369914573
 20
269.4258128933893
 30
0.0
 10
29.04538369914573
 20
269.4363962161367
 30
0.0
 10
29.04185592489682
 20
269.4505073131333
 30
0.0
  0
SPLINE
  5
1E0
330
4A
100
AcDbEntity
  8
STANDARDEBENE
 62
     7
100
AcDbSpline
210
0.0
220
0.0
230
1.0
 70
     8
 71
     3
 72
     8
 73
     4
 74
     0
 42
0.0000000001
 43
0.0000000001
 12
1.0
 22
0.0
 32
0.0
 13
1.0
 23
0.0
 33
0.0
 40
0.0
 40
0.0
 40
0.0
 40
0.0
 40
1.0
 40
1.0
 40
1.0
 40
1.0
 10
29.00657818240546
 20
269.3199796659162
 30
0.0
 10
29.03480037639836
 20
269.3446740856598
 30
0.0
 10
29.04538369914573
 20
269.3799518281509
 30
0.0
 10
29.04538369914573
 20
269.411701796393
 30
0.0
  0
SPLINE
  5
1E1
330
4A
100
AcDbEntity
  8
STANDARDEBENE
 62
     7
100
AcDbSpline
210
0.0
220
0.0
230
1.0
 70
     8
 71
     3
 72
     8
 73
     4
 74
     0
 42
0.0000000001
 43
0.0000000001
 12
1.0
 22
0.0
 32
0.0
 13
1.0
 23
0.0
 33
0.0
 40
0.0
 40
0.0
 40
0.0
 40
0.0
 40
1.0
 40
1.0
 40
1.0
 40
1.0
 10
28.76668953346536
 20
269.1753409217022
 30
0.0
 10
28.8125505987041
 20
269.1612298247055
 30
0.0
 10
28.86193943819175
 20
269.1718131474529
 30
0.0
 10
28.89368940643356
 20
269.207090889944
 30
0.0
  0
POLYLINE
  5
1E2
330
4A
100
AcDbEntity
  8
STANDARDEBENE
 62
     7
100
AcDb2dPolyline
 66
     1
 10
0.0
 20
0.0
 30
0.0
  0
VERTEX
  5
1E3
330
1E2
100
AcDbEntity
  8
STANDARDEBENE
 62
     7
100
AcDbVertex
100
AcDb2dVertex
 10
27.91296816517904
 20
269.3552574084072
 30
0.0
  0
VERTEX
  5
1E4
330
1E2
100
AcDbEntity
  8
STANDARDEBENE
 62
     7
100
AcDbVertex
100
AcDb2dVertex
 10
28.39627323730815
 20
269.2776463749267
 30
0.0
  0
VERTEX
  5
1E5
330
1E2
100
AcDbEntity
  8
STANDARDEBENE
 62
     7
100
AcDbVertex
100
AcDb2dVertex
 10
28.76668953346536
 20
269.1753409217022
 30
0.0
  0
SEQEND
  5
1E6
330
1E2
100
AcDbEntity
  8
STANDARDEBENE
 62
     7
  0
SPLINE
  5
1E7
330
4A
100
AcDbEntity
  8
STANDARDEBENE
 62
     7
100
AcDbSpline
210
0.0
220
0.0
230
1.0
 70
     8
 71
     3
 72
     8
 73
     4
 74
     0
 42
0.0000000001
 43
0.0000000001
 12
1.0
 22
0.0
 32
0.0
 13
1.0
 23
0.0
 33
0.0
 40
0.0
 40
0.0
 40
0.0
 40
0.0
 40
1.0
 40
1.0
 40
1.0
 40
1.0
 10
27.91296816517904
 20
269.3552574084072
 30
0.0
 10
27.84241268019664
 20
269.2741186006775
 30
0.0
 10
27.77538496946315
 20
269.1894520186988
 30
0.0
 10
27.71894058147736
 20
269.1188965337161
 30
0.0
  0
POLYLINE
  5
1E8
330
4A
100
AcDbEntity
  8
STANDARDEBENE
 62
     7
100
AcDb2dPolyline
 66
     1
 10
0.0
 20
0.0
 30
0.0
  0
VERTEX
  5
1E9
330
1E8
100
AcDbEntity
  8
STANDARDEBENE
 62
     7
100
AcDbVertex
100
AcDb2dVertex
 10
28.06113468364199
 20
268.3145640049174
 30
0.0
  0
VERTEX
  5
1EA
330
1E8
100
AcDbEntity
  8
STANDARDEBENE
 62
     7
100
AcDbVertex
100
AcDb2dVertex
 10
27.84594045444555
 20
268.755535786057
 30
0.0
  0
VERTEX
  5
1EB
330
1E8
100
AcDbEntity
  8
STANDARDEBENE
 62
     7
100
AcDbVertex
100
AcDb2dVertex
 10
27.71894058147736
 20
269.1188965337161
 30
0.0
  0
SEQEND
  5
1EC
330
1E8
100
AcDbEntity
  8
STANDARDEBENE
 62
     7
  0
SPLINE
  5
1ED
330
4A
100
AcDbEntity
  8
STANDARDEBENE
 62
     7
100
AcDbSpline
210
0.0
220
0.0
230
1.0
 70
     8
 71
     3
 72
     8
 73
     4
 74
     0
 42
0.0000000001
 43
0.0000000001
 12
1.0
 22
0.0
 32
0.0
 13
1.0
 23
0.0
 33
0.0
 40
0.0
 40
0.0
 40
0.0
 40
0.0
 40
1.0
 40
1.0
 40
1.0
 40
1.0
 10
28.07524578063828
 20
268.2545918426823
 30
0.0
 10
28.07524578063828
 20
268.2757584881768
 30
0.0
 10
28.07171800638904
 20
268.2969251336716
 30
0.0
 10
28.06113468364199
 20
268.3145640049174
 30
0.0
  0
SPLINE
  5
1EE
330
4A
100
AcDbEntity
  8
STANDARDEBENE
 62
     7
100
AcDbSpline
210
0.0
220
0.0
230
1.0
 70
     8
 71
     3
 72
     8
 73
     4
 74
     0
 42
0.0000000001
 43
0.0000000001
 12
1.0
 22
0.0
 32
0.0
 13
1.0
 23
0.0
 33
0.0
 40
0.0
 40
0.0
 40
0.0
 40
0.0
 40
1.0
 40
1.0
 40
1.0
 40
1.0
 10
28.05407913514352
 20
268.1840363576999
 30
0.0
 10
28.06819023214013
 20
268.2052030031947
 30
0.0
 10
28.07524578063828
 20
268.2298974229383
 30
0.0
 10
28.07524578063828
 20
268.2545918426823
 30
0.0
  0
SPLINE
  5
1EF
330
4A
100
AcDbEntity
  8
STANDARDEBENE
 62
     7
100
AcDbSpline
210
0.0
220
0.0
230
1.0
 70
     8
 71
     3
 72
     8
 73
     4
 74
     0
 42
0.0000000001
 43
0.0000000001
 12
1.0
 22
0.0
 32
0.0
 13
1.0
 23
0.0
 33
0.0
 40
0.0
 40
0.0
 40
0.0
 40
0.0
 40
1.0
 40
1.0
 40
1.0
 40
1.0
 10
27.84594045444555
 20
267.9935365482475
 30
0.0
 10
27.8953292939332
 20
267.9864809997493
 30
0.0
 10
27.93766258492271
 20
268.011175419493
 30
0.0
 10
27.9658847789156
 20
268.0499809362336
 30
0.0
  0
POLYLINE
  5
1F0
330
4A
100
AcDbEntity
  8
STANDARDEBENE
 62
     7
100
AcDb2dPolyline
 66
     1
 10
0.0
 20
0.0
 30
0.0
  0
VERTEX
  5
1F1
330
1F0
100
AcDbEntity
  8
STANDARDEBENE
 62
     7
100
AcDbVertex
100
AcDb2dVertex
 10
26.97458021491339
 20
268.0041198709949
 30
0.0
  0
VERTEX
  5
1F2
330
1F0
100
AcDbEntity
  8
STANDARDEBENE
 62
     7
100
AcDbVertex
100
AcDb2dVertex
 10
27.46141306129174
 20
268.0217587422404
 30
0.0
  0
VERTEX
  5
1F3
330
1F0
100
AcDbEntity
  8
STANDARDEBENE
 62
     7
100
AcDbVertex
100
AcDb2dVertex
 10
27.84594045444555
 20
267.9935365482475
 30
0.0
  0
SEQEND
  5
1F4
330
1F0
100
AcDbEntity
  8
STANDARDEBENE
 62
     7
  0
SPLINE
  5
1F5
330
4A
100
AcDbEntity
  8
STANDARDEBENE
 62
     7
100
AcDbSpline
210
0.0
220
0.0
230
1.0
 70
     8
 71
     3
 72
     8
 73
     4
 74
     0
 42
0.0000000001
 43
0.0000000001
 12
1.0
 22
0.0
 32
0.0
 13
1.0
 23
0.0
 33
0.0
 40
0.0
 40
0.0
 40
0.0
 40
0.0
 40
1.0
 40
1.0
 40
1.0
 40
1.0
 10
26.97458021491339
 20
268.0041198709949
 30
0.0
 10
26.92166360117683
 20
267.9088699662688
 30
0.0
 10
26.86874698743995
 20
267.8136200615424
 30
0.0
 10
26.82994147069968
 20
267.732481253813
 30
0.0
  0
POLYLINE
  5
1F6
330
4A
100
AcDbEntity
  8
STANDARDEBENE
 62
     7
100
AcDb2dPolyline
 66
     1
 10
0.0
 20
0.0
 30
0.0
  0
VERTEX
  5
1F7
330
1F6
100
AcDbEntity
  8
STANDARDEBENE
 62
     7
100
AcDbVertex
100
AcDb2dVertex
 10
27.32030209132693
 20
267.0128153069926
 30
0.0
  0
VERTEX
  5
1F8
330
1F6
100
AcDbEntity
  8
STANDARDEBENE
 62
     7
100
AcDbVertex
100
AcDb2dVertex
 10
27.02749682865027
 20
267.4008704743957
 30
0.0
  0
VERTEX
  5
1F9
330
1F6
100
AcDbEntity
  8
STANDARDEBENE
 62
     7
100
AcDbVertex
100
AcDb2dVertex
 10
26.82994147069968
 20
267.732481253813
 30
0.0
  0
SEQEND
  5
1FA
330
1F6
100
AcDbEntity
  8
STANDARDEBENE
 62
     7
  0
SPLINE
  5
1FB
330
4A
100
AcDbEntity
  8
STANDARDEBENE
 62
     7
100
AcDbSpline
210
0.0
220
0.0
230
1.0
 70
     8
 71
     3
 72
     8
 73
     4
 74
     0
 42
0.0000000001
 43
0.0000000001
 12
1.0
 22
0.0
 32
0.0
 13
1.0
 23
0.0
 33
0.0
 40
0.0
 40
0.0
 40
0.0
 40
0.0
 40
1.0
 40
1.0
 40
1.0
 40
1.0
 10
27.34852428532015
 20
266.9316764992632
 30
0.0
 10
27.34852428532015
 20
266.9598986932558
 30
0.0
 10
27.33794096257278
 20
266.9916486614979
 30
0.0
 10
27.32030209132693
 20
267.0128153069926
 30
0.0
  0
SPLINE
  5
1FC
330
4A
100
AcDbEntity
  8
STANDARDEBENE
 62
     7
100
AcDbSpline
210
0.0
220
0.0
230
1.0
 70
     8
 71
     3
 72
     8
 73
     4
 74
     0
 42
0.0000000001
 43
0.0000000001
 12
1.0
 22
0.0
 32
0.0
 13
1.0
 23
0.0
 33
0.0
 40
0.0
 40
0.0
 40
0.0
 40
0.0
 40
1.0
 40
1.0
 40
1.0
 40
1.0
 10
27.34146873682169
 20
266.8822876597752
 30
0.0
 10
27.34852428532015
 20
266.8963987567718
 30
0.0
 10
27.35205205956906
 20
266.9140376280174
 30
0.0
 10
27.34852428532015
 20
266.9316764992632
 30
0.0
  0
SPLINE
  5
1FD
330
4A
100
AcDbEntity
  8
STANDARDEBENE
 62
     7
100
AcDbSpline
210
0.0
220
0.0
230
1.0
 70
     8
 71
     3
 72
     8
 73
     4
 74
     0
 42
0.0000000001
 43
0.0000000001
 12
1.0
 22
0.0
 32
0.0
 13
1.0
 23
0.0
 33
0.0
 40
0.0
 40
0.0
 40
0.0
 40
0.0
 40
1.0
 40
1.0
 40
1.0
 40
1.0
 10
27.17213557286399
 20
266.6529823335825
 30
0.0
 10
27.22152441235164
 20
266.656510107832
 30
0.0
 10
27.26032992909191
 20
266.6882600760738
 30
0.0
 10
27.27796880033775
 20
266.7341211413126
 30
0.0
  0
POLYLINE
  5
1FE
330
4A
100
AcDbEntity
  8
STANDARDEBENE
 62
     7
100
AcDb2dPolyline
 66
     1
 10
0.0
 20
0.0
 30
0.0
  0
VERTEX
  5
1FF
330
1FE
100
AcDbEntity
  8
STANDARDEBENE
 62
     7
100
AcDbVertex
100
AcDb2dVertex
 10
26.31488643032844
 20
266.4942324923725
 30
0.0
  0
VERTEX
  5
200
330
1FE
100
AcDbEntity
  8
STANDARDEBENE
 62
     7
100
AcDbVertex
100
AcDb2dVertex
 10
26.7911359539594
 20
266.6071212683441
 30
0.0
  0
VERTEX
  5
201
330
1FE
100
AcDbEntity
  8
STANDARDEBENE
 62
     7
100
AcDbVertex
100
AcDb2dVertex
 10
27.17213557286399
 20
266.6529823335825
 30
0.0
  0
SEQEND
  5
202
330
1FE
100
AcDbEntity
  8
STANDARDEBENE
 62
     7
  0
SPLINE
  5
203
330
4A
100
AcDbEntity
  8
STANDARDEBENE
 62
     7
100
AcDbSpline
210
0.0
220
0.0
230
1.0
 70
     8
 71
     3
 72
     8
 73
     4
 74
     0
 42
0.0000000001
 43
0.0000000001
 12
1.0
 22
0.0
 32
0.0
 13
1.0
 23
0.0
 33
0.0
 40
0.0
 40
0.0
 40
0.0
 40
0.0
 40
1.0
 40
1.0
 40
1.0
 40
1.0
 10
26.31488643032844
 20
266.4942324923725
 30
0.0
 10
26.28313646208631
 20
266.3883992648987
 30
0.0
 10
26.25138649384418
 20
266.2860938116745
 30
0.0
 10
26.22669207410052
 20
266.1978994554466
 30
0.0
  0
POLYLINE
  5
204
330
4A
100
AcDbEntity
  8
STANDARDEBENE
 62
     7
100
AcDb2dPolyline
 66
     1
 10
0.0
 20
0.0
 30
0.0
  0
VERTEX
  5
205
330
204
100
AcDbEntity
  8
STANDARDEBENE
 62
     7
100
AcDbVertex
100
AcDb2dVertex
 10
25.96563677966566
 20
264.8855674347745
 30
0.0
  0
VERTEX
  5
206
330
204
100
AcDbEntity
  8
STANDARDEBENE
 62
     7
100
AcDbVertex
100
AcDb2dVertex
 10
26.4101363350545
 20
265.0866505669744
 30
0.0
  0
VERTEX
  5
207
330
204
100
AcDbEntity
  8
STANDARDEBENE
 62
     7
100
AcDbVertex
100
AcDb2dVertex
 10
26.77349708271388
 20
265.2101226656936
 30
0.0
  0
SEQEND
  5
208
330
204
100
AcDbEntity
  8
STANDARDEBENE
 62
     7
  0
SPLINE
  5
209
330
4A
100
AcDbEntity
  8
STANDARDEBENE
 62
     7
100
AcDbSpline
210
0.0
220
0.0
230
1.0
 70
     8
 71
     3
 72
     8
 73
     4
 74
     0
 42
0.0000000001
 43
0.0000000001
 12
1.0
 22
0.0
 32
0.0
 13
1.0
 23
0.0
 33
0.0
 40
0.0
 40
0.0
 40
0.0
 40
0.0
 40
1.0
 40
1.0
 40
1.0
 40
1.0
 10
25.96563677966566
 20
264.8855674347745
 30
0.0
 10
25.95152568266937
 20
264.7762064330519
 30
0.0
 10
25.940942359922
 20
264.6703732055784
 30
0.0
 10
25.93388681142353
 20
264.5786510751012
 30
0.0
  0
SPLINE
  5
20A
330
4A
100
AcDbEntity
  8
STANDARDEBENE
 62
     7
100
AcDbSpline
210
0.0
220
0.0
230
1.0
 70
     8
 71
     3
 72
     8
 73
     4
 74
     0
 42
0.0000000001
 43
0.0000000001
 12
1.0
 22
0.0
 32
0.0
 13
1.0
 23
0.0
 33
0.0
 40
0.0
 40
0.0
 40
0.0
 40
0.0
 40
1.0
 40
1.0
 40
1.0
 40
1.0
 10
26.73116379172438
 20
263.9895127754984
 30
0.0
 10
26.73116379172438
 20
264.0389016149863
 30
0.0
 10
26.70646937198039
 20
264.0812349059759
 30
0.0
 10
26.66413608099121
 20
264.1024015514703
 30
0.0
  0
SPLINE
  5
20B
330
4A
100
AcDbEntity
  8
STANDARDEBENE
 62
     7
100
AcDbSpline
210
0.0
220
0.0
230
1.0
 70
     8
 71
     3
 72
     8
 73
     4
 74
     0
 42
0.0000000001
 43
0.0000000001
 12
1.0
 22
0.0
 32
0.0
 13
1.0
 23
0.0
 33
0.0
 40
0.0
 40
0.0
 40
0.0
 40
0.0
 40
1.0
 40
1.0
 40
1.0
 40
1.0
 10
26.89696918143285
 20
265.4923446056229
 30
0.0
 10
26.89696918143285
 20
265.5311501223632
 30
0.0
 10
26.87933031018733
 20
265.5664278648542
 30
0.0
 10
26.8475803419452
 20
265.5911222845982
 30
0.0
  0
SPLINE
  5
20C
330
4A
100
AcDbEntity
  8
STANDARDEBENE
 62
     7
100
AcDbSpline
210
0.0
220
0.0
230
1.0
 70
     8
 71
     3
 72
     8
 73
     4
 74
     0
 42
0.0000000001
 43
0.0000000001
 12
1.0
 22
0.0
 32
0.0
 13
1.0
 23
0.0
 33
0.0
 40
0.0
 40
0.0
 40
0.0
 40
0.0
 40
1.0
 40
1.0
 40
1.0
 40
1.0
 10
26.89344140718362
 20
265.46412241163
 30
0.0
 10
26.89696918143285
 20
265.4747057343774
 30
0.0
 10
26.89696918143285
 20
265.4817612828755
 30
0.0
 10
26.89696918143285
 20
265.4923446056229
 30
0.0
  0
SPLINE
  5
20D
330
4A
100
AcDbEntity
  8
STANDARDEBENE
 62
     7
100
AcDbSpline
210
0.0
220
0.0
230
1.0
 70
     8
 71
     3
 72
     8
 73
     4
 74
     0
 42
0.0000000001
 43
0.0000000001
 12
1.0
 22
0.0
 32
0.0
 13
1.0
 23
0.0
 33
0.0
 40
0.0
 40
0.0
 40
0.0
 40
0.0
 40
1.0
 40
1.0
 40
1.0
 40
1.0
 10
26.77349708271388
 20
265.2101226656936
 30
0.0
 10
26.8193581479523
 20
265.220705988441
 30
0.0
 10
26.85463589044334
 20
265.259511505181
 30
0.0
 10
26.86169143894181
 20
265.3053725704194
 30
0.0
  0
POLYLINE
  5
20E
330
4A
100
AcDbEntity
  8
STANDARDEBENE
 62
     7
100
AcDb2dPolyline
 66
     1
 10
0.0
 20
0.0
 30
0.0
  0
VERTEX
  5
20F
330
20E
100
AcDbEntity
  8
STANDARDEBENE
 62
     7
100
AcDbVertex
100
AcDb2dVertex
 10
26.77349708271388
 20
262.6066252698442
 30
0.0
  0
VERTEX
  5
210
330
20E
100
AcDbEntity
  8
STANDARDEBENE
 62
     7
100
AcDbVertex
100
AcDb2dVertex
 10
26.3113586560792
 20
262.7689028853038
 30
0.0
  0
VERTEX
  5
211
330
20E
100
AcDbEntity
  8
STANDARDEBENE
 62
     7
100
AcDbVertex
100
AcDb2dVertex
 10
25.96563677966566
 20
262.9311805007633
 30
0.0
  0
SEQEND
  5
212
330
20E
100
AcDbEntity
  8
STANDARDEBENE
 62
     7
  0
POLYLINE
  5
213
330
4A
100
AcDbEntity
  8
STANDARDEBENE
 62
     7
100
AcDb2dPolyline
 66
     1
 10
0.0
 20
0.0
 30
0.0
  0
VERTEX
  5
214
330
213
100
AcDbEntity
  8
STANDARDEBENE
 62
     7
100
AcDbVertex
100
AcDb2dVertex
 10
26.8475803419452
 20
265.5911222845982
 30
0.0
  0
VERTEX
  5
215
330
213
100
AcDbEntity
  8
STANDARDEBENE
 62
     7
100
AcDbVertex
100
AcDb2dVertex
 10
26.48421959428613
 20
265.915677515517
 30
0.0
  0
VERTEX
  5
216
330
213
100
AcDbEntity
  8
STANDARDEBENE
 62
     7
100
AcDbVertex
100
AcDb2dVertex
 10
26.22669207410052
 20
266.1978994554466
 30
0.0
  0
SEQEND
  5
217
330
213
100
AcDbEntity
  8
STANDARDEBENE
 62
     7
  0
SPLINE
  5
218
330
4A
100
AcDbEntity
  8
STANDARDEBENE
 62
     7
100
AcDbSpline
210
0.0
220
0.0
230
1.0
 70
     8
 71
     3
 72
     8
 73
     4
 74
     0
 42
0.0000000001
 43
0.0000000001
 12
1.0
 22
0.0
 32
0.0
 13
1.0
 23
0.0
 33
0.0
 40
0.0
 40
0.0
 40
0.0
 40
0.0
 40
1.0
 40
1.0
 40
1.0
 40
1.0
 10
25.93388681142353
 20
263.2380968604366
 30
0.0
 10
25.94447013417091
 20
263.1287358587139
 30
0.0
 10
25.95505345691829
 20
263.0229026312401
 30
0.0
 10
25.96563677966566
 20
262.9311805007633
 30
0.0
  0
SPLINE
  5
219
330
4A
100
AcDbEntity
  8
STANDARDEBENE
 62
     7
100
AcDbSpline
210
0.0
220
0.0
230
1.0
 70
     8
 71
     3
 72
     8
 73
     4
 74
     0
 42
0.0000000001
 43
0.0000000001
 12
1.0
 22
0.0
 32
0.0
 13
1.0
 23
0.0
 33
0.0
 40
0.0
 40
0.0
 40
0.0
 40
0.0
 40
1.0
 40
1.0
 40
1.0
 40
1.0
 10
26.66413608099121
 20
263.7143463840673
 30
0.0
 10
26.70646937198039
 20
263.735513029562
 30
0.0
 10
26.73116379172438
 20
263.7778463205515
 30
0.0
 10
26.73116379172438
 20
263.8272351600392
 30
0.0
  0
SPLINE
  5
21A
330
4A
100
AcDbEntity
  8
STANDARDEBENE
 62
     7
100
AcDbSpline
210
0.0
220
0.0
230
1.0
 70
     8
 71
     3
 72
     8
 73
     4
 74
     0
 42
0.0000000001
 43
0.0000000001
 12
1.0
 22
0.0
 32
0.0
 13
1.0
 23
0.0
 33
0.0
 40
0.0
 40
0.0
 40
0.0
 40
0.0
 40
1.0
 40
1.0
 40
1.0
 40
1.0
 10
26.86169143894181
 20
262.5113753651181
 30
0.0
 10
26.85463589044334
 20
262.5572364303569
 30
0.0
 10
26.8193581479523
 20
262.5925141728479
 30
0.0
 10
26.77349708271388
 20
262.6066252698442
 30
0.0
  0
SPLINE
  5
21B
330
4A
100
AcDbEntity
  8
STANDARDEBENE
 62
     7
100
AcDbSpline
210
0.0
220
0.0
230
1.0
 70
     8
 71
     3
 72
    17
 73
    13
 74
     0
 42
0.0000000001
 43
0.0000000001
 12
1.0
 22
0.0
 32
0.0
 13
1.0
 23
0.0
 33
0.0
 40
0.0
 40
0.0
 40
0.0
 40
0.0
 40
1.0
 40
1.0
 40
1.0
 40
2.0
 40
2.0
 40
2.0
 40
3.0
 40
3.0
 40
3.0
 40
4.0
 40
4.0
 40
4.0
 40
4.0
 10
4.308630664329852
 20
264.6668454313292
 30
0.0
 10
4.298047341582475
 20
264.4128456853928
 30
0.0
 10
4.294519567333563
 20
264.1623737137053
 30
0.0
 10
4.294519567333563
 20
263.9083739677689
 30
0.0
 10
4.294519567333563
 20
263.6049853823446
 30
0.0
 10
4.298047341582475
 20
263.3051245711698
 30
0.0
 10
4.308630664329852
 20
263.0017359857454
 30
0.0
 10
4.322741761326459
 20
262.4514032028831
 30
0.0
 10
4.354491729568588
 20
261.9045981942697
 30
0.0
 10
4.403880569056238
 20
261.3613209599056
 30
0.0
 10
4.590852604259457
 20
259.1352954087118
 30
0.0
 10
5.028296611150153
 20
256.9621864712553
 30
0.0
 10
5.695045944233253
 20
254.887855212774
 30
0.0
  0
SPLINE
  5
21C
330
4A
100
AcDbEntity
  8
STANDARDEBENE
 62
     7
100
AcDbSpline
210
0.0
220
0.0
230
1.0
 70
     8
 71
     3
 72
    11
 73
     7
 74
     0
 42
0.0000000001
 43
0.0000000001
 12
1.0
 22
0.0
 32
0.0
 13
1.0
 23
0.0
 33
0.0
 40
0.0
 40
0.0
 40
0.0
 40
0.0
 40
1.0
 40
1.0
 40
1.0
 40
2.0
 40
2.0
 40
2.0
 40
2.0
 10
5.695045944233253
 20
272.9288927227638
 30
0.0
 10
5.017713288402777
 20
270.7769504308017
 30
0.0
 10
4.594380378508689
 20
268.607369267594
 30
0.0
 10
4.407408343305149
 20
266.4554269756319
 30
0.0
 10
4.3580195038175
 20
265.8733442245275
 30
0.0
 10
4.322741761326459
 20
265.2912614734231
 30
0.0
 10
4.308630664329852
 20
264.7127064965676
 30
0.0
  0
SPLINE
  5
21D
330
4A
100
AcDbEntity
  8
STANDARDEBENE
 62
     7
100
AcDbSpline
210
0.0
220
0.0
230
1.0
 70
     8
 71
     3
 72
     8
 73
     4
 74
     0
 42
0.0000000001
 43
0.0000000001
 12
1.0
 22
0.0
 32
0.0
 13
1.0
 23
0.0
 33
0.0
 40
0.0
 40
0.0
 40
0.0
 40
0.0
 40
1.0
 40
1.0
 40
1.0
 40
1.0
 10
5.695045944233253
 20
254.887855212774
 30
0.0
 10
6.39001747130957
 20
252.6935796298228
 30
0.0
 10
7.310766550329379
 20
250.6333594683378
 30
0.0
 10
8.326765534075575
 20
248.9082778605186
 30
0.0
  0
POLYLINE
  5
21E
330
4A
100
AcDbEntity
  8
STANDARDEBENE
 62
     7
100
AcDb2dPolyline
 66
     1
 10
0.0
 20
0.0
 30
0.0
  0
VERTEX
  5
21F
330
21E
100
AcDbEntity
  8
STANDARDEBENE
 62
     7
100
AcDbVertex
100
AcDb2dVertex
 10
5.695045944233253
 20
254.887855212774
 30
0.0
  0
VERTEX
  5
220
330
21E
100
AcDbEntity
  8
STANDARDEBENE
 62
     7
100
AcDbVertex
100
AcDb2dVertex
 10
6.644017217246279
 20
255.1841882496999
 30
0.0
  0
VERTEX
  5
221
330
21E
100
AcDbEntity
  8
STANDARDEBENE
 62
     7
100
AcDbVertex
100
AcDb2dVertex
 10
6.651072765744423
 20
255.1877160239488
 30
0.0
  0
SEQEND
  5
222
330
21E
100
AcDbEntity
  8
STANDARDEBENE
 62
     7
  0
SPLINE
  5
223
330
4A
100
AcDbEntity
  8
STANDARDEBENE
 62
     7
100
AcDbSpline
210
0.0
220
0.0
230
1.0
 70
     8
 71
     3
 72
     8
 73
     4
 74
     0
 42
0.0000000001
 43
0.0000000001
 12
1.0
 22
0.0
 32
0.0
 13
1.0
 23
0.0
 33
0.0
 40
0.0
 40
0.0
 40
0.0
 40
0.0
 40
1.0
 40
1.0
 40
1.0
 40
1.0
 10
8.326765534075575
 20
248.9082778605186
 30
0.0
 10
9.476819939287786
 20
246.9150854097668
 30
0.0
 10
10.82090192820201
 20
245.1053372199694
 30
0.0
 10
12.18967833685956
 20
243.6413109065857
 30
0.0
  0
POLYLINE
  5
224
330
4A
100
AcDbEntity
  8
STANDARDEBENE
 62
     7
100
AcDb2dPolyline
 66
     1
 10
0.0
 20
0.0
 30
0.0
  0
VERTEX
  5
225
330
224
100
AcDbEntity
  8
STANDARDEBENE
 62
     7
100
AcDbVertex
100
AcDb2dVertex
 10
8.326765534075575
 20
248.9082778605186
 30
0.0
  0
VERTEX
  5
226
330
224
100
AcDbEntity
  8
STANDARDEBENE
 62
     7
100
AcDbVertex
100
AcDb2dVertex
 10
9.187542450860358
 20
249.4056940296447
 30
0.0
  0
VERTEX
  5
227
330
224
100
AcDbEntity
  8
STANDARDEBENE
 62
     7
100
AcDbVertex
100
AcDb2dVertex
 10
9.194597999358502
 20
249.4092218038936
 30
0.0
  0
SEQEND
  5
228
330
224
100
AcDbEntity
  8
STANDARDEBENE
 62
     7
  0
SPLINE
  5
229
330
4A
100
AcDbEntity
  8
STANDARDEBENE
 62
     7
100
AcDbSpline
210
0.0
220
0.0
230
1.0
 70
     8
 71
     3
 72
     8
 73
     4
 74
     0
 42
0.0000000001
 43
0.0000000001
 12
1.0
 22
0.0
 32
0.0
 13
1.0
 23
0.0
 33
0.0
 40
0.0
 40
0.0
 40
0.0
 40
0.0
 40
1.0
 40
1.0
 40
1.0
 40
1.0
 10
12.18967833685956
 20
243.6413109065857
 30
0.0
 10
13.74542678072067
 20
241.9444514927598
 30
0.0
 10
15.44934174304471
 20
240.4663140823793
 30
0.0
 10
17.1003400916322
 20
239.3338985484126
 30
0.0
  0
POLYLINE
  5
22A
330
4A
100
AcDbEntity
  8
STANDARDEBENE
 62
     7
100
AcDb2dPolyline
 66
     1
 10
0.0
 20
0.0
 30
0.0
  0
VERTEX
  5
22B
330
22A
100
AcDbEntity
  8
STANDARDEBENE
 62
     7
100
AcDbVertex
100
AcDb2dVertex
 10
12.18967833685956
 20
243.6413109065857
 30
0.0
  0
VERTEX
  5
22C
330
22A
100
AcDbEntity
  8
STANDARDEBENE
 62
     7
100
AcDbVertex
100
AcDb2dVertex
 10
12.92698315492539
 20
244.315115788167
 30
0.0
  0
SEQEND
  5
22D
330
22A
100
AcDbEntity
  8
STANDARDEBENE
 62
     7
  0
SPLINE
  5
22E
330
4A
100
AcDbEntity
  8
STANDARDEBENE
 62
     7
100
AcDbSpline
210
0.0
220
0.0
230
1.0
 70
     8
 71
     3
 72
     8
 73
     4
 74
     0
 42
0.0000000001
 43
0.0000000001
 12
1.0
 22
0.0
 32
0.0
 13
1.0
 23
0.0
 33
0.0
 40
0.0
 40
0.0
 40
0.0
 40
0.0
 40
1.0
 40
1.0
 40
1.0
 40
1.0
 10
17.1003400916322
 20
239.3338985484126
 30
0.0
 10
18.984171540661
 20
238.014510979242
 30
0.0
 10
20.97030844291466
 20
236.9420676075107
 30
0.0
 10
22.82591769795056
 20
236.1906516924483
 30
0.0
  0
POLYLINE
  5
22F
330
4A
100
AcDbEntity
  8
STANDARDEBENE
 62
     7
100
AcDb2dPolyline
 66
     1
 10
0.0
 20
0.0
 30
0.0
  0
VERTEX
  5
230
330
22F
100
AcDbEntity
  8
STANDARDEBENE
 62
     7
100
AcDbVertex
100
AcDb2dVertex
 10
17.1003400916322
 20
239.3338985484126
 30
0.0
  0
VERTEX
  5
231
330
22F
100
AcDbEntity
  8
STANDARDEBENE
 62
     7
100
AcDbVertex
100
AcDb2dVertex
 10
17.67536729423815
 20
240.1523421742075
 30
0.0
  0
SEQEND
  5
232
330
22F
100
AcDbEntity
  8
STANDARDEBENE
 62
     7
  0
SPLINE
  5
233
330
4A
100
AcDbEntity
  8
STANDARDEBENE
 62
     7
100
AcDbSpline
210
0.0
220
0.0
230
1.0
 70
     8
 71
     3
 72
    11
 73
     7
 74
     0
 42
0.0000000001
 43
0.0000000001
 12
1.0
 22
0.0
 32
0.0
 13
1.0
 23
0.0
 33
0.0
 40
0.0
 40
0.0
 40
0.0
 40
0.0
 40
1.0
 40
1.0
 40
1.0
 40
2.0
 40
2.0
 40
2.0
 40
2.0
 10
22.82591769795056
 20
236.1906516924483
 30
0.0
 10
26.59358059600881
 20
234.6313754743383
 30
0.0
 10
30.49882668978231
 20
233.8940706562727
 30
0.0
 10
34.30882287883006
 20
233.8940706562727
 30
0.0
 10
36.51720955877797
 20
233.8940706562727
 30
0.0
 10
38.69737404473266
 20
234.1410148537107
 30
0.0
 10
40.79992749720714
 20
234.6172643773413
 30
0.0
  0
POLYLINE
  5
234
330
4A
100
AcDbEntity
  8
STANDARDEBENE
 62
     7
100
AcDb2dPolyline
 66
     1
 10
0.0
 20
0.0
 30
0.0
  0
VERTEX
  5
235
330
234
100
AcDbEntity
  8
STANDARDEBENE
 62
     7
100
AcDbVertex
100
AcDb2dVertex
 10
22.82591769795056
 20
236.1906516924483
 30
0.0
  0
VERTEX
  5
236
330
234
100
AcDbEntity
  8
STANDARDEBENE
 62
     7
100
AcDbVertex
100
AcDb2dVertex
 10
23.20691731685547
 20
237.1078729972191
 30
0.0
  0
VERTEX
  5
237
330
234
100
AcDbEntity
  8
STANDARDEBENE
 62
     7
100
AcDbVertex
100
AcDb2dVertex
 10
23.21044509110438
 20
237.114928545717
 30
0.0
  0
SEQEND
  5
238
330
234
100
AcDbEntity
  8
STANDARDEBENE
 62
     7
  0
SPLINE
  5
239
330
4A
100
AcDbEntity
  8
STANDARDEBENE
 62
     7
100
AcDbSpline
210
0.0
220
0.0
230
1.0
 70
     8
 71
     3
 72
     8
 73
     4
 74
     0
 42
0.0000000001
 43
0.0000000001
 12
1.0
 22
0.0
 32
0.0
 13
1.0
 23
0.0
 33
0.0
 40
0.0
 40
0.0
 40
0.0
 40
0.0
 40
1.0
 40
1.0
 40
1.0
 40
1.0
 10
40.79992749720714
 20
234.6172643773413
 30
0.0
 10
47.08994898338471
 20
236.0142629799924
 30
0.0
 10
52.48038803603691
 20
239.2880374831742
 30
0.0
 10
56.42796742080023
 20
243.6413109065857
 30
0.0
  0
POLYLINE
  5
23A
330
4A
100
AcDbEntity
  8
STANDARDEBENE
 62
     7
100
AcDb2dPolyline
 66
     1
 10
0.0
 20
0.0
 30
0.0
  0
VERTEX
  5
23B
330
23A
100
AcDbEntity
  8
STANDARDEBENE
 62
     7
100
AcDbVertex
100
AcDb2dVertex
 10
40.79992749720714
 20
234.6172643773413
 30
0.0
  0
VERTEX
  5
23C
330
23A
100
AcDbEntity
  8
STANDARDEBENE
 62
     7
100
AcDbVertex
100
AcDb2dVertex
 10
40.58473326801102
 20
235.5874022958491
 30
0.0
  0
VERTEX
  5
23D
330
23A
100
AcDbEntity
  8
STANDARDEBENE
 62
     7
100
AcDbVertex
100
AcDb2dVertex
 10
40.58473326801102
 20
235.5944578443475
 30
0.0
  0
SEQEND
  5
23E
330
23A
100
AcDbEntity
  8
STANDARDEBENE
 62
     7
  0
SPLINE
  5
23F
330
4A
100
AcDbEntity
  8
STANDARDEBENE
 62
     7
100
AcDbSpline
210
0.0
220
0.0
230
1.0
 70
     8
 71
     3
 72
     8
 73
     4
 74
     0
 42
0.0000000001
 43
0.0000000001
 12
1.0
 22
0.0
 32
0.0
 13
1.0
 23
0.0
 33
0.0
 40
0.0
 40
0.0
 40
0.0
 40
0.0
 40
1.0
 40
1.0
 40
1.0
 40
1.0
 10
56.42796742080023
 20
243.6413109065857
 30
0.0
 10
60.77771306996257
 20
248.3896950458985
 30
0.0
 10
63.3141827550785
 20
254.1646614917048
 30
0.0
 10
64.05148757314431
 20
259.992544551248
 30
0.0
  0
POLYLINE
  5
240
330
4A
100
AcDbEntity
  8
STANDARDEBENE
 62
     7
100
AcDb2dPolyline
 66
     1
 10
0.0
 20
0.0
 30
0.0
  0
VERTEX
  5
241
330
240
100
AcDbEntity
  8
STANDARDEBENE
 62
     7
100
AcDbVertex
100
AcDb2dVertex
 10
56.42796742080023
 20
243.6413109065857
 30
0.0
  0
VERTEX
  5
242
330
240
100
AcDbEntity
  8
STANDARDEBENE
 62
     7
100
AcDbVertex
100
AcDb2dVertex
 10
55.69066260273441
 20
244.315115788167
 30
0.0
  0
SEQEND
  5
243
330
240
100
AcDbEntity
  8
STANDARDEBENE
 62
     7
  0
SPLINE
  5
244
330
4A
100
AcDbEntity
  8
STANDARDEBENE
 62
     7
100
AcDbSpline
210
0.0
220
0.0
230
1.0
 70
     8
 71
     3
 72
     8
 73
     4
 74
     0
 42
0.0000000001
 43
0.0000000001
 12
1.0
 22
0.0
 32
0.0
 13
1.0
 23
0.0
 33
0.0
 40
0.0
 40
0.0
 40
0.0
 40
0.0
 40
1.0
 40
1.0
 40
1.0
 40
1.0
 10
64.30901509332995
 20
263.9083739677689
 30
0.0
 10
64.30901509332995
 20
277.2539439521825
 30
0.0
 10
55.59188492375911
 20
288.563988194855
 30
0.0
 10
43.32934163382493
 20
292.5186231281162
 30
0.0
  0
SPLINE
  5
245
330
4A
100
AcDbEntity
  8
STANDARDEBENE
 62
     7
100
AcDbSpline
210
0.0
220
0.0
230
1.0
 70
     8
 71
     3
 72
     8
 73
     4
 74
     0
 42
0.0000000001
 43
0.0000000001
 12
1.0
 22
0.0
 32
0.0
 13
1.0
 23
0.0
 33
0.0
 40
0.0
 40
0.0
 40
0.0
 40
0.0
 40
1.0
 40
1.0
 40
1.0
 40
1.0
 10
64.05148757314431
 20
259.992544551248
 30
0.0
 10
64.2314040598494
 20
261.3613209599056
 30
0.0
 10
64.31607064182809
 20
262.7195140458161
 30
0.0
 10
64.30901509332995
 20
263.9083739677689
 30
0.0
  0
POLYLINE
  5
246
330
4A
100
AcDbEntity
  8
STANDARDEBENE
 62
     7
100
AcDb2dPolyline
 66
     1
 10
0.0
 20
0.0
 30
0.0
  0
VERTEX
  5
247
330
246
100
AcDbEntity
  8
STANDARDEBENE
 62
     7
100
AcDbVertex
100
AcDb2dVertex
 10
64.05148757314431
 20
259.992544551248
 30
0.0
  0
VERTEX
  5
248
330
246
100
AcDbEntity
  8
STANDARDEBENE
 62
     7
100
AcDbVertex
100
AcDb2dVertex
 10
63.06018300914211
 20
260.1230721984651
 30
0.0
  0
SEQEND
  5
249
330
246
100
AcDbEntity
  8
STANDARDEBENE
 62
     7
  0
SPLINE
  5
24A
330
4A
100
AcDbEntity
  8
STANDARDEBENE
 62
     7
100
AcDbSpline
210
0.0
220
0.0
230
1.0
 70
     8
 71
     3
 72
    11
 73
     7
 74
     0
 42
0.0000000001
 43
0.0000000001
 12
1.0
 22
0.0
 32
0.0
 13
1.0
 23
0.0
 33
0.0
 40
0.0
 40
0.0
 40
0.0
 40
0.0
 40
1.0
 40
1.0
 40
1.0
 40
2.0
 40
2.0
 40
2.0
 40
2.0
 10
43.32934163382493
 20
292.5186231281162
 30
0.0
 10
40.3272057478254
 20
293.46406662688
 30
0.0
 10
37.2862643450856
 20
293.9156217307673
 30
0.0
 10
34.30882287883006
 20
293.9191495050162
 30
0.0
 10
31.19379821685862
 20
293.9226772792651
 30
0.0
 10
28.14580126562068
 20
293.4358444328871
 30
0.0
 10
25.28477634958595
 20
292.5186231281162
 30
0.0
  0
POLYLINE
  5
24B
330
4A
100
AcDbEntity
  8
STANDARDEBENE
 62
     7
100
AcDb2dPolyline
 66
     1
 10
0.0
 20
0.0
 30
0.0
  0
VERTEX
  5
24C
330
24B
100
AcDbEntity
  8
STANDARDEBENE
 62
     7
100
AcDbVertex
100
AcDb2dVertex
 10
43.32934163382493
 20
292.5186231281162
 30
0.0
  0
VERTEX
  5
24D
330
24B
100
AcDbEntity
  8
STANDARDEBENE
 62
     7
100
AcDbVertex
100
AcDb2dVertex
 10
43.0294808226498
 20
291.5696518551035
 30
0.0
  0
VERTEX
  5
24E
330
24B
100
AcDbEntity
  8
STANDARDEBENE
 62
     7
100
AcDbVertex
100
AcDb2dVertex
 10
43.0294808226498
 20
291.5661240808543
 30
0.0
  0
SEQEND
  5
24F
330
24B
100
AcDbEntity
  8
STANDARDEBENE
 62
     7
  0
SPLINE
  5
250
330
4A
100
AcDbEntity
  8
STANDARDEBENE
 62
     7
100
AcDbSpline
210
0.0
220
0.0
230
1.0
 70
     8
 71
     3
 72
     8
 73
     4
 74
     0
 42
0.0000000001
 43
0.0000000001
 12
1.0
 22
0.0
 32
0.0
 13
1.0
 23
0.0
 33
0.0
 40
0.0
 40
0.0
 40
0.0
 40
0.0
 40
1.0
 40
1.0
 40
1.0
 40
1.0
 10
24.98491553841083
 20
293.4711221753781
 30
0.0
 10
15.00836996190511
 20
290.3278753194137
 30
0.0
 10
7.741155008721932
 20
282.6020497138455
 30
0.0
 10
4.742546896971636
 20
273.2287535339386
 30
0.0
  0
POLYLINE
  5
251
330
4A
100
AcDbEntity
  8
STANDARDEBENE
 62
     7
100
AcDb2dPolyline
 66
     1
 10
0.0
 20
0.0
 30
0.0
  0
VERTEX
  5
252
330
251
100
AcDbEntity
  8
STANDARDEBENE
 62
     7
100
AcDbVertex
100
AcDb2dVertex
 10
25.06252657189137
 20
293.2347613006872
 30
0.0
  0
VERTEX
  5
253
330
251
100
AcDbEntity
  8
STANDARDEBENE
 62
     7
100
AcDbVertex
100
AcDb2dVertex
 10
25.28477634958595
 20
292.5186231281162
 30
0.0
  0
SEQEND
  5
254
330
251
100
AcDbEntity
  8
STANDARDEBENE
 62
     7
  0
POLYLINE
  5
255
330
4A
100
AcDbEntity
  8
STANDARDEBENE
 62
     7
100
AcDb2dPolyline
 66
     1
 10
0.0
 20
0.0
 30
0.0
  0
VERTEX
  5
256
330
255
100
AcDbEntity
  8
STANDARDEBENE
 62
     7
100
AcDbVertex
100
AcDb2dVertex
 10
4.982435545911415
 20
273.1546702747073
 30
0.0
  0
VERTEX
  5
257
330
255
100
AcDbEntity
  8
STANDARDEBENE
 62
     7
100
AcDbVertex
100
AcDb2dVertex
 10
5.695045944233253
 20
272.9288927227638
 30
0.0
  0
SEQEND
  5
258
330
255
100
AcDbEntity
  8
STANDARDEBENE
 62
     7
  0
SPLINE
  5
259
330
4A
100
AcDbEntity
  8
STANDARDEBENE
 62
     7
100
AcDbSpline
210
0.0
220
0.0
230
1.0
 70
     8
 71
     3
 72
     8
 73
     4
 74
     0
 42
0.0000000001
 43
0.0000000001
 12
1.0
 22
0.0
 32
0.0
 13
1.0
 23
0.0
 33
0.0
 40
0.0
 40
0.0
 40
0.0
 40
0.0
 40
1.0
 40
1.0
 40
1.0
 40
1.0
 10
25.28477634958595
 20
292.5186231281162
 30
0.0
 10
15.62925822974979
 20
289.4741539511274
 30
0.0
 10
8.598404151257483
 20
281.9988003172463
 30
0.0
 10
5.695045944233253
 20
272.9288927227638
 30
0.0
  0
POLYLINE
  5
25A
330
4A
100
AcDbEntity
  8
STANDARDEBENE
 62
     7
100
AcDb2dPolyline
 66
     1
 10
0.0
 20
0.0
 30
0.0
  0
VERTEX
  5
25B
330
25A
100
AcDbEntity
  8
STANDARDEBENE
 62
     7
100
AcDbVertex
100
AcDb2dVertex
 10
25.28477634958595
 20
292.5186231281162
 30
0.0
  0
VERTEX
  5
25C
330
25A
100
AcDbEntity
  8
STANDARDEBENE
 62
     7
100
AcDbVertex
100
AcDb2dVertex
 10
25.58816493500999
 20
291.5696518551035
 30
0.0
  0
VERTEX
  5
25D
330
25A
100
AcDbEntity
  8
STANDARDEBENE
 62
     7
100
AcDbVertex
100
AcDb2dVertex
 10
25.58816493500999
 20
291.5661240808543
 30
0.0
  0
SEQEND
  5
25E
330
25A
100
AcDbEntity
  8
STANDARDEBENE
 62
     7
  0
POLYLINE
  5
25F
330
4A
100
AcDbEntity
  8
STANDARDEBENE
 62
     7
100
AcDb2dPolyline
 66
     1
 10
0.0
 20
0.0
 30
0.0
  0
VERTEX
  5
260
330
25F
100
AcDbEntity
  8
STANDARDEBENE
 62
     7
100
AcDbVertex
100
AcDb2dVertex
 10
5.695045944233253
 20
272.9288927227638
 30
0.0
  0
VERTEX
  5
261
330
25F
100
AcDbEntity
  8
STANDARDEBENE
 62
     7
100
AcDbVertex
100
AcDb2dVertex
 10
6.644017217246279
 20
272.6325596858379
 30
0.0
  0
VERTEX
  5
262
330
25F
100
AcDbEntity
  8
STANDARDEBENE
 62
     7
100
AcDbVertex
100
AcDb2dVertex
 10
6.651072765744423
 20
272.6290319115886
 30
0.0
  0
SEQEND
  5
263
330
25F
100
AcDbEntity
  8
STANDARDEBENE
 62
     7
  0
POLYLINE
  5
264
330
4A
100
AcDbEntity
  8
STANDARDEBENE
 62
     7
100
AcDb2dPolyline
 66
     1
 10
0.0
 20
0.0
 30
0.0
  0
VERTEX
  5
265
330
264
100
AcDbEntity
  8
STANDARDEBENE
 62
     7
100
AcDbVertex
100
AcDb2dVertex
 10
4.982435545911415
 20
273.1546702747073
 30
0.0
  0
VERTEX
  5
266
330
264
100
AcDbEntity
  8
STANDARDEBENE
 62
     7
100
AcDbVertex
100
AcDb2dVertex
 10
4.813102381953716
 20
273.2075868884438
 30
0.0
  0
VERTEX
  5
267
330
264
100
AcDbEntity
  8
STANDARDEBENE
 62
     7
100
AcDbVertex
100
AcDb2dVertex
 10
4.742546896971636
 20
273.2287535339386
 30
0.0
  0
SEQEND
  5
268
330
264
100
AcDbEntity
  8
STANDARDEBENE
 62
     7
  0
POLYLINE
  5
269
330
4A
100
AcDbEntity
  8
STANDARDEBENE
 62
     7
100
AcDb2dPolyline
 66
     1
 10
0.0
 20
0.0
 30
0.0
  0
VERTEX
  5
26A
330
269
100
AcDbEntity
  8
STANDARDEBENE
 62
     7
100
AcDbVertex
100
AcDb2dVertex
 10
24.98491553841083
 20
293.4711221753781
 30
0.0
  0
VERTEX
  5
26B
330
269
100
AcDbEntity
  8
STANDARDEBENE
 62
     7
100
AcDbVertex
100
AcDb2dVertex
 10
25.00608218390558
 20
293.4040944646449
 30
0.0
  0
VERTEX
  5
26C
330
269
100
AcDbEntity
  8
STANDARDEBENE
 62
     7
100
AcDbVertex
100
AcDb2dVertex
 10
25.06252657189137
 20
293.2347613006872
 30
0.0
  0
SEQEND
  5
26D
330
269
100
AcDbEntity
  8
STANDARDEBENE
 62
     7
  0
SPLINE
  5
26E
330
4A
100
AcDbEntity
  8
STANDARDEBENE
 62
     7
100
AcDbSpline
210
0.0
220
0.0
230
1.0
 70
    11
 71
     3
 72
    17
 73
    13
 74
     0
 42
0.0000000001
 43
0.0000000001
 12
1.0
 22
0.0
 32
0.0
 13
1.0
 23
0.0
 33
0.0
 40
0.0
 40
0.0
 40
0.0
 40
0.0
 40
1.0
 40
1.0
 40
1.0
 40
2.0
 40
2.0
 40
2.0
 40
3.0
 40
3.0
 40
3.0
 40
4.0
 40
4.0
 40
4.0
 40
4.0
 10
53.80683115370528
 20
263.9083739677689
 30
0.0
 10
53.80683115370528
 20
274.6786687503263
 30
0.0
 10
45.07558988713816
 20
283.4063822426444
 30
0.0
 10
34.30882287883006
 20
283.4063822426444
 30
0.0
 10
23.5385280962724
 20
283.4063822426444
 30
0.0
 10
14.80728682970528
 20
274.6786687503263
 30
0.0
 10
14.80728682970528
 20
263.9083739677689
 30
0.0
 10
14.80728682970528
 20
253.1380791852113
 30
0.0
 10
23.5385280962724
 20
244.4068379186445
 30
0.0
 10
34.30882287883006
 20
244.4068379186445
 30
0.0
 10
45.07558988713816
 20
244.4068379186445
 30
0.0
 10
53.80683115370528
 20
253.1380791852113
 30
0.0
 10
53.80683115370528
 20
263.9083739677689
 30
0.0
  0
SPLINE
  5
26F
330
4A
100
AcDbEntity
  8
STANDARDEBENE
 62
     7
100
AcDbSpline
210
0.0
220
0.0
230
1.0
 70
    11
 71
     3
 72
    17
 73
    13
 74
     0
 42
0.0000000001
 43
0.0000000001
 12
1.0
 22
0.0
 32
0.0
 13
1.0
 23
0.0
 33
0.0
 40
0.0
 40
0.0
 40
0.0
 40
0.0
 40
1.0
 40
1.0
 40
1.0
 40
2.0
 40
2.0
 40
2.0
 40
3.0
 40
3.0
 40
3.0
 40
4.0
 40
4.0
 40
4.0
 40
4.0
 10
61.30687920733041
 20
263.9083739677689
 30
0.0
 10
61.30687920733041
 20
278.8202757187909
 30
0.0
 10
49.22072462985208
 20
290.9064302962693
 30
0.0
 10
34.30882287883006
 20
290.9064302962693
 30
0.0
 10
19.39692112780804
 20
290.9064302962693
 30
0.0
 10
7.307238776080467
 20
278.8202757187909
 30
0.0
 10
7.307238776080467
 20
263.9083739677689
 30
0.0
 10
7.307238776080467
 20
248.9964722167466
 30
0.0
 10
19.39692112780804
 20
236.906789865019
 30
0.0
 10
34.30882287883006
 20
236.906789865019
 30
0.0
 10
49.22072462985208
 20
236.906789865019
 30
0.0
 10
61.30687920733041
 20
248.9964722167466
 30
0.0
 10
61.30687920733041
 20
263.9083739677689
 30
0.0
  0
SPLINE
  5
270
330
4A
100
AcDbEntity
  8
STANDARDEBENE
 62
     7
100
AcDbSpline
210
0.0
220
0.0
230
1.0
 70
    11
 71
     3
 72
    50
 73
    46
 74
     0
 42
0.0000000001
 43
0.0000000001
 12
1.0
 22
0.0
 32
0.0
 13
1.0
 23
0.0
 33
0.0
 40
0.0
 40
0.0
 40
0.0
 40
0.0
 40
1.0
 40
1.0
 40
1.0
 40
2.0
 40
2.0
 40
2.0
 40
3.0
 40
3.0
 40
3.0
 40
4.0
 40
4.0
 40
4.0
 40
5.0
 40
5.0
 40
5.0
 40
6.0
 40
6.0
 40
6.0
 40
7.0
 40
7.0
 40
7.0
 40
8.0
 40
8.0
 40
8.0
 40
9.0
 40
9.0
 40
9.0
 40
10.0
 40
10.0
 40
10.0
 40
11.0
 40
11.0
 40
11.0
 40
12.0
 40
12.0
 40
12.0
 40
13.0
 40
13.0
 40
13.0
 40
14.0
 40
14.0
 40
14.0
 40
15.0
 40
15.0
 40
15.0
 40
15.0
 10
63.30712720658035
 20
263.9083739677689
 30
0.0
 10
63.30712720658035
 20
276.8835276560253
 30
0.0
 10
54.78402462071121
 20
287.8690166677787
 30
0.0
 10
43.0294808226498
 20
291.5696518551035
 30
0.0
 10
40.27781690833775
 20
292.4374843203867
 30
0.0
 10
37.34976428156953
 20
292.9066782955192
 30
0.0
 10
34.30882287883006
 20
292.9066782955192
 30
0.0
 10
31.26788147609026
 20
292.9066782955192
 30
0.0
 10
28.33982884932204
 20
292.4374843203867
 30
0.0
 10
25.58816493500999
 20
291.5696518551035
 30
0.0
 10
16.58528505126096
 20
288.7368491330616
 30
0.0
 10
9.48034771353702
 20
281.631911795338
 30
0.0
 10
6.644017217246279
 20
272.6325596858379
 30
0.0
 10
5.77618475196303
 20
269.8808957715258
 30
0.0
 10
5.306990776830526
 20
266.9493153705084
 30
0.0
 10
5.306990776830526
 20
263.9083739677689
 30
0.0
 10
5.306990776830526
 20
260.8674325650291
 30
0.0
 10
5.77618475196303
 20
257.935852164012
 30
0.0
 10
6.644017217246279
 20
255.1841882496999
 30
0.0
 10
7.282544356336483
 20
253.1521902822082
 30
0.0
 10
8.139793498872034
 20
251.2154422194422
 30
0.0
 10
9.187542450860358
 20
249.4056940296447
 30
0.0
 10
10.24940249984465
 20
247.5712514201029
 30
0.0
 10
11.50529013253094
 20
245.8673364577792
 30
0.0
 10
12.92698315492539
 20
244.315115788167
 30
0.0
 10
14.35220395156906
 20
242.7593673443059
 30
0.0
 10
15.9432301379212
 20
241.3623687416554
 30
0.0
 10
17.67536729423815
 20
240.1523421742075
 30
0.0
 10
19.38986557930957
 20
238.9458433810092
 30
0.0
 10
21.2454748343458
 20
237.9227888487652
 30
0.0
 10
23.20691731685547
 20
237.1078729972191
 30
0.0
 10
26.62533056425094
 20
235.6897077490733
 30
0.0
 10
30.37535459106334
 20
234.9065418657694
 30
0.0
 10
34.30882287883006
 20
234.9065418657694
 30
0.0
 10
36.46429294504109
 20
234.9065418657694
 30
0.0
 10
38.56331862326633
 20
235.1429027404599
 30
0.0
 10
40.58473326801102
 20
235.5874022958491
 30
0.0
 10
46.50081068378184
 20
236.8926787680227
 30
0.0
 10
51.73602766947326
 20
240.0041756557449
 30
0.0
 10
55.69066260273441
 20
244.315115788167
 30
0.0
 10
59.61707534200298
 20
248.5978337265965
 30
0.0
 10
62.27348935158864
 20
254.0694115869784
 30
0.0
 10
63.06018300914211
 20
260.1230721984651
 30
0.0
 10
63.22246062460167
 20
261.3613209599056
 30
0.0
 10
63.30712720658035
 20
262.6242641410901
 30
0.0
 10
63.30712720658035
 20
263.9083739677689
 30
0.0
  0
SPLINE
  5
271
330
4A
100
AcDbEntity
  8
STANDARDEBENE
 62
     7
100
AcDbSpline
210
0.0
220
0.0
230
1.0
 70
     8
 71
     3
 72
    11
 73
     7
 74
     0
 42
0.0000000001
 43
0.0000000001
 12
1.0
 22
0.0
 32
0.0
 13
1.0
 23
0.0
 33
0.0
 40
0.0
 40
0.0
 40
0.0
 40
0.0
 40
1.0
 40
1.0
 40
1.0
 40
2.0
 40
2.0
 40
2.0
 40
2.0
 10
49.30891898608
 20
263.9083739677689
 30
0.0
 10
49.30891898608
 20
264.4904567188733
 30
0.0
 10
49.27364124358864
 20
265.0584283729814
 30
0.0
 10
49.21719685560284
 20
265.5523167678579
 30
0.0
 10
49.21719685560284
 20
265.5523167678579
 30
0.0
 10
49.21719685560284
 20
265.5558445421069
 30
0.0
 10
49.21719685560284
 20
265.5558445421069
 30
0.0
  0
SPLINE
  5
272
330
4A
100
AcDbEntity
  8
STANDARDEBENE
 62
     7
100
AcDbSpline
210
0.0
220
0.0
230
1.0
 70
     8
 71
     3
 72
    17
 73
    13
 74
     0
 42
0.0000000001
 43
0.0000000001
 12
1.0
 22
0.0
 32
0.0
 13
1.0
 23
0.0
 33
0.0
 40
0.0
 40
0.0
 40
0.0
 40
0.0
 40
1.0
 40
1.0
 40
1.0
 40
2.0
 40
2.0
 40
2.0
 40
3.0
 40
3.0
 40
3.0
 40
4.0
 40
4.0
 40
4.0
 40
4.0
 10
19.40044890205695
 20
265.5558445421069
 30
0.0
 10
19.40044890205695
 20
265.5558445421069
 30
0.0
 10
19.40044890205695
 20
265.5523167678579
 30
0.0
 10
19.40044890205695
 20
265.5523167678579
 30
0.0
 10
19.33694896557301
 20
264.9984562107461
 30
0.0
 10
19.30519899733088
 20
264.4445956536349
 30
0.0
 10
19.30519899733088
 20
263.9083739677689
 30
0.0
 10
19.30519899733088
 20
263.3333467651627
 30
0.0
 10
19.33694896557301
 20
262.7794862080511
 30
0.0
 10
19.40044890205695
 20
262.2609033934307
 30
0.0
 10
19.40044890205695
 20
262.2609033934307
 30
0.0
 10
19.40044890205695
 20
262.2573756191814
 30
0.0
 10
19.40044890205695
 20
262.2573756191814
 30
0.0
  0
SPLINE
  5
273
330
4A
100
AcDbEntity
  8
STANDARDEBENE
 62
     7
100
AcDbSpline
210
0.0
220
0.0
230
1.0
 70
     8
 71
     3
 72
     8
 73
     4
 74
     0
 42
0.0000000001
 43
0.0000000001
 12
1.0
 22
0.0
 32
0.0
 13
1.0
 23
0.0
 33
0.0
 40
0.0
 40
0.0
 40
0.0
 40
0.0
 40
1.0
 40
1.0
 40
1.0
 40
1.0
 10
49.21719685560284
 20
262.2609033934307
 30
0.0
 10
49.28069679208711
 20
262.8359305960369
 30
0.0
 10
49.31244676032891
 20
263.4109577986432
 30
0.0
 10
49.30891898608
 20
263.9083739677689
 30
0.0
  0
SPLINE
  5
274
330
4A
100
AcDbEntity
  8
STANDARDEBENE
 62
     7
100
AcDbSpline
210
0.0
220
0.0
230
1.0
 70
    11
 71
     3
 72
    23
 73
    19
 74
     0
 42
0.0000000001
 43
0.0000000001
 12
1.0
 22
0.0
 32
0.0
 13
1.0
 23
0.0
 33
0.0
 40
0.0
 40
0.0
 40
0.0
 40
0.0
 40
1.0
 40
1.0
 40
1.0
 40
2.0
 40
2.0
 40
2.0
 40
3.0
 40
3.0
 40
3.0
 40
4.0
 40
4.0
 40
4.0
 40
5.0
 40
5.0
 40
5.0
 40
6.0
 40
6.0
 40
6.0
 40
6.0
 10
50.95638956041793
 20
263.9083739677689
 30
0.0
 10
50.95638956041793
 20
264.8185397240413
 30
0.0
 10
50.21908474235243
 20
265.5558445421069
 30
0.0
 10
49.30891898608
 20
265.5558445421069
 30
0.0
 10
49.27716901783787
 20
265.5558445421069
 30
0.0
 10
49.24894682384497
 20
265.5558445421069
 30
0.0
 10
49.21719685560284
 20
265.5523167678579
 30
0.0
 10
48.34583661607068
 20
265.5064557026195
 30
0.0
 10
47.65792063749251
 20
264.7867897557992
 30
0.0
 10
47.65792063749251
 20
263.9083739677689
 30
0.0
 10
47.65792063749251
 20
263.0264304054894
 30
0.0
 10
48.34583661607068
 20
262.3067644586694
 30
0.0
 10
49.21719685560284
 20
262.2609033934307
 30
0.0
 10
49.24894682384497
 20
262.2573756191814
 30
0.0
 10
49.27716901783787
 20
262.2573756191814
 30
0.0
 10
49.30891898608
 20
262.2573756191814
 30
0.0
 10
50.21908474235243
 20
262.2573756191814
 30
0.0
 10
50.95638956041793
 20
262.9946804372473
 30
0.0
 10
50.95638956041793
 20
263.9083739677689
 30
0.0
  0
SPLINE
  5
275
330
4A
100
AcDbEntity
  8
STANDARDEBENE
 62
     7
100
AcDbSpline
210
0.0
220
0.0
230
1.0
 70
    11
 71
     3
 72
    17
 73
    13
 74
     0
 42
0.0000000001
 43
0.0000000001
 12
1.0
 22
0.0
 32
0.0
 13
1.0
 23
0.0
 33
0.0
 40
0.0
 40
0.0
 40
0.0
 40
0.0
 40
1.0
 40
1.0
 40
1.0
 40
2.0
 40
2.0
 40
2.0
 40
3.0
 40
3.0
 40
3.0
 40
4.0
 40
4.0
 40
4.0
 40
4.0
 10
45.80936693095475
 20
263.9083739677689
 30
0.0
 10
45.80936693095475
 20
270.2583676161812
 30
0.0
 10
40.65881652724234
 20
275.4089180198936
 30
0.0
 10
34.30882287883006
 20
275.4089180198936
 30
0.0
 10
27.95530145616823
 20
275.4089180198936
 30
0.0
 10
22.80827882670504
 20
270.2583676161812
 30
0.0
 10
22.80827882670504
 20
263.9083739677689
 30
0.0
 10
22.80827882670504
 20
257.5583803193566
 30
0.0
 10
27.95530145616823
 20
252.4078299156442
 30
0.0
 10
34.30882287883006
 20
252.4078299156442
 30
0.0
 10
40.65881652724234
 20
252.4078299156442
 30
0.0
 10
45.80936693095475
 20
257.5583803193566
 30
0.0
 10
45.80936693095475
 20
263.9083739677689
 30
0.0
  0
SPLINE
  5
276
330
4A
100
AcDbEntity
  8
STANDARDEBENE
 62
     7
100
AcDbSpline
210
0.0
220
0.0
230
1.0
 70
    11
 71
     3
 72
    23
 73
    19
 74
     0
 42
0.0000000001
 43
0.0000000001
 12
1.0
 22
0.0
 32
0.0
 13
1.0
 23
0.0
 33
0.0
 40
0.0
 40
0.0
 40
0.0
 40
0.0
 40
1.0
 40
1.0
 40
1.0
 40
2.0
 40
2.0
 40
2.0
 40
3.0
 40
3.0
 40
3.0
 40
4.0
 40
4.0
 40
4.0
 40
5.0
 40
5.0
 40
5.0
 40
6.0
 40
6.0
 40
6.0
 40
6.0
 10
20.95619734591805
 20
263.9083739677689
 30
0.0
 10
20.95619734591805
 20
264.7867897557992
 30
0.0
 10
20.2682813673402
 20
265.5064557026195
 30
0.0
 10
19.40044890205695
 20
265.5523167678579
 30
0.0
 10
19.36869893381482
 20
265.5558445421069
 30
0.0
 10
19.34047673982192
 20
265.5558445421069
 30
0.0
 10
19.30872677157979
 20
265.5558445421069
 30
0.0
 10
18.39503324105845
 20
265.5558445421069
 30
0.0
 10
17.65772842299263
 20
264.8185397240413
 30
0.0
 10
17.65772842299263
 20
263.9083739677689
 30
0.0
 10
17.65772842299263
 20
262.9946804372473
 30
0.0
 10
18.39503324105845
 20
262.2573756191814
 30
0.0
 10
19.30872677157979
 20
262.2573756191814
 30
0.0
 10
19.34047673982192
 20
262.2573756191814
 30
0.0
 10
19.36869893381482
 20
262.2573756191814
 30
0.0
 10
19.40044890205695
 20
262.2609033934307
 30
0.0
 10
20.2682813673402
 20
262.3067644586694
 30
0.0
 10
20.95619734591805
 20
263.0264304054894
 30
0.0
 10
20.95619734591805
 20
263.9083739677689
 30
0.0
  0
SPLINE
  5
277
330
4A
100
AcDbEntity
  8
STANDARDEBENE
 62
     7
100
AcDbSpline
210
0.0
220
0.0
230
1.0
 70
    11
 71
     3
 72
    17
 73
    13
 74
     0
 42
0.0000000001
 43
0.0000000001
 12
1.0
 22
0.0
 32
0.0
 13
1.0
 23
0.0
 33
0.0
 40
0.0
 40
0.0
 40
0.0
 40
0.0
 40
1.0
 40
1.0
 40
1.0
 40
2.0
 40
2.0
 40
2.0
 40
3.0
 40
3.0
 40
3.0
 40
4.0
 40
4.0
 40
4.0
 40
4.0
 10
53.55635918201813
 20
263.9083739677689
 30
0.0
 10
53.55635918201813
 20
274.5410855546107
 30
0.0
 10
44.93800669142259
 20
283.1594380452059
 30
0.0
 10
34.30882287883006
 20
283.1594380452059
 30
0.0
 10
23.67611129198797
 20
283.1594380452059
 30
0.0
 10
15.05775880139275
 20
274.5410855546107
 30
0.0
 10
15.05775880139275
 20
263.9083739677689
 30
0.0
 10
15.05775880139275
 20
253.2756623809271
 30
0.0
 10
23.67611129198797
 20
244.6573098903319
 30
0.0
 10
34.30882287883006
 20
244.6573098903319
 30
0.0
 10
44.93800669142259
 20
244.6573098903319
 30
0.0
 10
53.55635918201813
 20
253.2756623809271
 30
0.0
 10
53.55635918201813
 20
263.9083739677689
 30
0.0
  0
POLYLINE
  5
278
330
4A
100
AcDbEntity
  8
STANDARDEBENE
 62
     7
100
AcDb2dPolyline
 66
     1
 10
0.0
 20
0.0
 30
0.0
  0
VERTEX
  5
279
330
278
100
AcDbEntity
  8
STANDARDEBENE
 62
     7
100
AcDbVertex
100
AcDb2dVertex
 10
118.266322233591
 20
293.9085661822688
 30
0.0
  0
VERTEX
  5
27A
330
278
100
AcDbEntity
  8
STANDARDEBENE
 62
     7
100
AcDbVertex
100
AcDb2dVertex
 10
118.2627944593415
 20
293.9085661822688
 30
0.0
  0
VERTEX
  5
27B
330
278
100
AcDbEntity
  8
STANDARDEBENE
 62
     7
100
AcDbVertex
100
AcDb2dVertex
 10
115.7968802592079
 20
293.9085661822688
 30
0.0
  0
SEQEND
  5
27C
330
278
100
AcDbEntity
  8
STANDARDEBENE
 62
     7
  0
POLYLINE
  5
27D
330
4A
100
AcDbEntity
  8
STANDARDEBENE
 62
     7
100
AcDb2dPolyline
 66
     1
 10
0.0
 20
0.0
 30
0.0
  0
VERTEX
  5
27E
330
27D
100
AcDbEntity
  8
STANDARDEBENE
 62
     7
100
AcDbVertex
100
AcDb2dVertex
 10
123.7943444819581
 20
293.9085661822688
 30
0.0
  0
VERTEX
  5
27F
330
27D
100
AcDbEntity
  8
STANDARDEBENE
 62
     7
100
AcDbVertex
100
AcDb2dVertex
 10
121.3284302818246
 20
293.9085661822688
 30
0.0
  0
SEQEND
  5
280
330
27D
100
AcDbEntity
  8
STANDARDEBENE
 62
     7
  0
POLYLINE
  5
281
330
4A
100
AcDbEntity
  8
STANDARDEBENE
 62
     7
100
AcDb2dPolyline
 66
     1
 10
0.0
 20
0.0
 30
0.0
  0
VERTEX
  5
282
330
281
100
AcDbEntity
  8
STANDARDEBENE
 62
     7
100
AcDbVertex
100
AcDb2dVertex
 10
127.7948404804587
 20
234.9065418657694
 30
0.0
  0
VERTEX
  5
283
330
281
100
AcDbEntity
  8
STANDARDEBENE
 62
     7
100
AcDbVertex
100
AcDb2dVertex
 10
129.7950884797083
 20
236.906789865019
 30
0.0
  0
SEQEND
  5
284
330
281
100
AcDbEntity
  8
STANDARDEBENE
 62
     7
  0
POLYLINE
  5
285
330
4A
100
AcDbEntity
  8
STANDARDEBENE
 62
     7
100
AcDb2dPolyline
 66
     1
 10
0.0
 20
0.0
 30
0.0
  0
VERTEX
  5
286
330
285
100
AcDbEntity
  8
STANDARDEBENE
 62
     7
100
AcDbVertex
100
AcDb2dVertex
 10
129.7950884797083
 20
290.9064302962693
 30
0.0
  0
VERTEX
  5
287
330
285
100
AcDbEntity
  8
STANDARDEBENE
 62
     7
100
AcDbVertex
100
AcDb2dVertex
 10
127.7948404804587
 20
292.9066782955192
 30
0.0
  0
VERTEX
  5
288
330
285
100
AcDbEntity
  8
STANDARDEBENE
 62
     7
100
AcDbVertex
100
AcDb2dVertex
 10
123.7943444819581
 20
292.9066782955192
 30
0.0
  0
SEQEND
  5
289
330
285
100
AcDbEntity
  8
STANDARDEBENE
 62
     7
  0
POLYLINE
  5
28A
330
4A
100
AcDbEntity
  8
STANDARDEBENE
 62
     7
100
AcDb2dPolyline
 66
     1
 10
0.0
 20
0.0
 30
0.0
  0
VERTEX
  5
28B
330
28A
100
AcDbEntity
  8
STANDARDEBENE
 62
     7
100
AcDbVertex
100
AcDb2dVertex
 10
123.7943444819581
 20
234.9065418657694
 30
0.0
  0
VERTEX
  5
28C
330
28A
100
AcDbEntity
  8
STANDARDEBENE
 62
     7
100
AcDbVertex
100
AcDb2dVertex
 10
127.7948404804587
 20
234.9065418657694
 30
0.0
  0
SEQEND
  5
28D
330
28A
100
AcDbEntity
  8
STANDARDEBENE
 62
     7
  0
POLYLINE
  5
28E
330
4A
100
AcDbEntity
  8
STANDARDEBENE
 62
     7
100
AcDb2dPolyline
 66
     1
 10
0.0
 20
0.0
 30
0.0
  0
VERTEX
  5
28F
330
28E
100
AcDbEntity
  8
STANDARDEBENE
 62
     7
100
AcDbVertex
100
AcDb2dVertex
 10
129.9961716119078
 20
283.1594380452059
 30
0.0
  0
VERTEX
  5
290
330
28E
100
AcDbEntity
  8
STANDARDEBENE
 62
     7
100
AcDbVertex
100
AcDb2dVertex
 10
129.7950884797083
 20
283.1594380452059
 30
0.0
  0
SEQEND
  5
291
330
28E
100
AcDbEntity
  8
STANDARDEBENE
 62
     7
  0
POLYLINE
  5
292
330
4A
100
AcDbEntity
  8
STANDARDEBENE
 62
     7
100
AcDb2dPolyline
 66
     1
 10
0.0
 20
0.0
 30
0.0
  0
VERTEX
  5
293
330
292
100
AcDbEntity
  8
STANDARDEBENE
 62
     7
100
AcDbVertex
100
AcDb2dVertex
 10
129.7950884797083
 20
244.6573098903319
 30
0.0
  0
VERTEX
  5
294
330
292
100
AcDbEntity
  8
STANDARDEBENE
 62
     7
100
AcDbVertex
100
AcDb2dVertex
 10
129.9961716119078
 20
244.6573098903319
 30
0.0
  0
SEQEND
  5
295
330
292
100
AcDbEntity
  8
STANDARDEBENE
 62
     7
  0
POLYLINE
  5
296
330
4A
100
AcDbEntity
  8
STANDARDEBENE
 62
     7
100
AcDb2dPolyline
 66
     1
 10
0.0
 20
0.0
 30
0.0
  0
VERTEX
  5
297
330
296
100
AcDbEntity
  8
STANDARDEBENE
 62
     7
100
AcDbVertex
100
AcDb2dVertex
 10
115.7968802592079
 20
233.908181753269
 30
0.0
  0
VERTEX
  5
298
330
296
100
AcDbEntity
  8
STANDARDEBENE
 62
     7
100
AcDbVertex
100
AcDb2dVertex
 10
123.7943444819581
 20
233.908181753269
 30
0.0
  0
SEQEND
  5
299
330
296
100
AcDbEntity
  8
STANDARDEBENE
 62
     7
  0
POLYLINE
  5
29A
330
4A
100
AcDbEntity
  8
STANDARDEBENE
 62
     7
100
AcDb2dPolyline
 66
     1
 10
0.0
 20
0.0
 30
0.0
  0
VERTEX
  5
29B
330
29A
100
AcDbEntity
  8
STANDARDEBENE
 62
     7
100
AcDbVertex
100
AcDb2dVertex
 10
109.7961362614584
 20
234.9065418657694
 30
0.0
  0
VERTEX
  5
29C
330
29A
100
AcDbEntity
  8
STANDARDEBENE
 62
     7
100
AcDbVertex
100
AcDb2dVertex
 10
115.7968802592079
 20
234.9065418657694
 30
0.0
  0
SEQEND
  5
29D
330
29A
100
AcDbEntity
  8
STANDARDEBENE
 62
     7
  0
POLYLINE
  5
29E
330
4A
100
AcDbEntity
  8
STANDARDEBENE
 62
     7
100
AcDb2dPolyline
 66
     1
 10
0.0
 20
0.0
 30
0.0
  0
VERTEX
  5
29F
330
29E
100
AcDbEntity
  8
STANDARDEBENE
 62
     7
100
AcDbVertex
100
AcDb2dVertex
 10
115.7968802592079
 20
292.9066782955192
 30
0.0
  0
VERTEX
  5
2A0
330
29E
100
AcDbEntity
  8
STANDARDEBENE
 62
     7
100
AcDbVertex
100
AcDb2dVertex
 10
109.7961362614584
 20
292.9066782955192
 30
0.0
  0
SEQEND
  5
2A1
330
29E
100
AcDbEntity
  8
STANDARDEBENE
 62
     7
  0
POLYLINE
  5
2A2
330
4A
100
AcDbEntity
  8
STANDARDEBENE
 62
     7
100
AcDb2dPolyline
 66
     1
 10
0.0
 20
0.0
 30
0.0
  0
VERTEX
  5
2A3
330
2A2
100
AcDbEntity
  8
STANDARDEBENE
 62
     7
100
AcDbVertex
100
AcDb2dVertex
 10
109.7961362614584
 20
263.9083739677689
 30
0.0
  0
VERTEX
  5
2A4
330
2A2
100
AcDbEntity
  8
STANDARDEBENE
 62
     7
100
AcDbVertex
100
AcDb2dVertex
 10
109.7961362614584
 20
261.3789598311511
 30
0.0
  0
VERTEX
  5
2A5
330
2A2
100
AcDbEntity
  8
STANDARDEBENE
 62
     7
100
AcDbVertex
100
AcDb2dVertex
 10
109.7961362614584
 20
258.8707123400281
 30
0.0
  0
VERTEX
  5
2A6
330
2A2
100
AcDbEntity
  8
STANDARDEBENE
 62
     7
100
AcDbVertex
100
AcDb2dVertex
 10
109.7961362614584
 20
256.4012703656456
 30
0.0
  0
VERTEX
  5
2A7
330
2A2
100
AcDbEntity
  8
STANDARDEBENE
 62
     7
100
AcDbVertex
100
AcDb2dVertex
 10
109.7961362614584
 20
253.988272779249
 30
0.0
  0
VERTEX
  5
2A8
330
2A2
100
AcDbEntity
  8
STANDARDEBENE
 62
     7
100
AcDbVertex
100
AcDb2dVertex
 10
109.7961362614584
 20
251.6528862263329
 30
0.0
  0
VERTEX
  5
2A9
330
2A2
100
AcDbEntity
  8
STANDARDEBENE
 62
     7
100
AcDbVertex
100
AcDb2dVertex
 10
109.7961362614584
 20
249.4092218038936
 30
0.0
  0
VERTEX
  5
2AA
330
2A2
100
AcDbEntity
  8
STANDARDEBENE
 62
     7
100
AcDbVertex
100
AcDb2dVertex
 10
109.7961362614584
 20
247.274918383177
 30
0.0
  0
VERTEX
  5
2AB
330
2A2
100
AcDbEntity
  8
STANDARDEBENE
 62
     7
100
AcDbVertex
100
AcDb2dVertex
 10
109.7961362614584
 20
245.2676148354289
 30
0.0
  0
VERTEX
  5
2AC
330
2A2
100
AcDbEntity
  8
STANDARDEBENE
 62
     7
100
AcDbVertex
100
AcDb2dVertex
 10
109.7961362614584
 20
243.4014222576456
 30
0.0
  0
VERTEX
  5
2AD
330
2A2
100
AcDbEntity
  8
STANDARDEBENE
 62
     7
100
AcDbVertex
100
AcDb2dVertex
 10
109.7961362614584
 20
241.6939795210724
 30
0.0
  0
VERTEX
  5
2AE
330
2A2
100
AcDbEntity
  8
STANDARDEBENE
 62
     7
100
AcDbVertex
100
AcDb2dVertex
 10
109.7961362614584
 20
240.1523421742075
 30
0.0
  0
VERTEX
  5
2AF
330
2A2
100
AcDbEntity
  8
STANDARDEBENE
 62
     7
100
AcDbVertex
100
AcDb2dVertex
 10
109.7961362614584
 20
238.7941490882977
 30
0.0
  0
VERTEX
  5
2B0
330
2A2
100
AcDbEntity
  8
STANDARDEBENE
 62
     7
100
AcDbVertex
100
AcDb2dVertex
 10
109.7961362614584
 20
237.6264558118393
 30
0.0
  0
VERTEX
  5
2B1
330
2A2
100
AcDbEntity
  8
STANDARDEBENE
 62
     7
100
AcDbVertex
100
AcDb2dVertex
 10
109.7961362614584
 20
236.6563178933322
 30
0.0
  0
VERTEX
  5
2B2
330
2A2
100
AcDbEntity
  8
STANDARDEBENE
 62
     7
100
AcDbVertex
100
AcDb2dVertex
 10
109.7961362614584
 20
235.8943186555224
 30
0.0
  0
VERTEX
  5
2B3
330
2A2
100
AcDbEntity
  8
STANDARDEBENE
 62
     7
100
AcDbVertex
100
AcDb2dVertex
 10
109.7961362614584
 20
235.347513646909
 30
0.0
  0
VERTEX
  5
2B4
330
2A2
100
AcDbEntity
  8
STANDARDEBENE
 62
     7
100
AcDbVertex
100
AcDb2dVertex
 10
109.7961362614584
 20
235.019430641741
 30
0.0
  0
VERTEX
  5
2B5
330
2A2
100
AcDbEntity
  8
STANDARDEBENE
 62
     7
100
AcDbVertex
100
AcDb2dVertex
 10
109.7961362614584
 20
234.9065418657694
 30
0.0
  0
SEQEND
  5
2B6
330
2A2
100
AcDbEntity
  8
STANDARDEBENE
 62
     7
  0
POLYLINE
  5
2B7
330
4A
100
AcDbEntity
  8
STANDARDEBENE
 62
     7
100
AcDb2dPolyline
 66
     1
 10
0.0
 20
0.0
 30
0.0
  0
VERTEX
  5
2B8
330
2B7
100
AcDbEntity
  8
STANDARDEBENE
 62
     7
100
AcDbVertex
100
AcDb2dVertex
 10
109.7961362614584
 20
292.9066782955192
 30
0.0
  0
VERTEX
  5
2B9
330
2B7
100
AcDbEntity
  8
STANDARDEBENE
 62
     7
100
AcDbVertex
100
AcDb2dVertex
 10
109.7961362614584
 20
292.7973172937965
 30
0.0
  0
VERTEX
  5
2BA
330
2B7
100
AcDbEntity
  8
STANDARDEBENE
 62
     7
100
AcDbVertex
100
AcDb2dVertex
 10
109.7961362614584
 20
292.4657065143793
 30
0.0
  0
VERTEX
  5
2BB
330
2B7
100
AcDbEntity
  8
STANDARDEBENE
 62
     7
100
AcDbVertex
100
AcDb2dVertex
 10
109.7961362614584
 20
291.9189015057663
 30
0.0
  0
VERTEX
  5
2BC
330
2B7
100
AcDbEntity
  8
STANDARDEBENE
 62
     7
100
AcDbVertex
100
AcDb2dVertex
 10
109.7961362614584
 20
291.1604300422056
 30
0.0
  0
VERTEX
  5
2BD
330
2B7
100
AcDbEntity
  8
STANDARDEBENE
 62
     7
100
AcDbVertex
100
AcDb2dVertex
 10
109.7961362614584
 20
290.1902921236985
 30
0.0
  0
VERTEX
  5
2BE
330
2B7
100
AcDbEntity
  8
STANDARDEBENE
 62
     7
100
AcDbVertex
100
AcDb2dVertex
 10
109.7961362614584
 20
289.0225988472401
 30
0.0
  0
VERTEX
  5
2BF
330
2B7
100
AcDbEntity
  8
STANDARDEBENE
 62
     7
100
AcDbVertex
100
AcDb2dVertex
 10
109.7961362614584
 20
287.6644057613296
 30
0.0
  0
VERTEX
  5
2C0
330
2B7
100
AcDbEntity
  8
STANDARDEBENE
 62
     7
100
AcDbVertex
100
AcDb2dVertex
 10
109.7961362614584
 20
286.1227684144655
 30
0.0
  0
VERTEX
  5
2C1
330
2B7
100
AcDbEntity
  8
STANDARDEBENE
 62
     7
100
AcDbVertex
100
AcDb2dVertex
 10
109.7961362614584
 20
284.4153256778922
 30
0.0
  0
VERTEX
  5
2C2
330
2B7
100
AcDbEntity
  8
STANDARDEBENE
 62
     7
100
AcDbVertex
100
AcDb2dVertex
 10
109.7961362614584
 20
282.5491331001086
 30
0.0
  0
VERTEX
  5
2C3
330
2B7
100
AcDbEntity
  8
STANDARDEBENE
 62
     7
100
AcDbVertex
100
AcDb2dVertex
 10
109.7961362614584
 20
280.5418295523605
 30
0.0
  0
VERTEX
  5
2C4
330
2B7
100
AcDbEntity
  8
STANDARDEBENE
 62
     7
100
AcDbVertex
100
AcDb2dVertex
 10
109.7961362614584
 20
278.4075261316442
 30
0.0
  0
VERTEX
  5
2C5
330
2B7
100
AcDbEntity
  8
STANDARDEBENE
 62
     7
100
AcDbVertex
100
AcDb2dVertex
 10
109.7961362614584
 20
276.1638617092049
 30
0.0
  0
VERTEX
  5
2C6
330
2B7
100
AcDbEntity
  8
STANDARDEBENE
 62
     7
100
AcDbVertex
100
AcDb2dVertex
 10
109.7961362614584
 20
273.8249473820399
 30
0.0
  0
VERTEX
  5
2C7
330
2B7
100
AcDbEntity
  8
STANDARDEBENE
 62
     7
100
AcDbVertex
100
AcDb2dVertex
 10
109.7961362614584
 20
271.411949795643
 30
0.0
  0
VERTEX
  5
2C8
330
2B7
100
AcDbEntity
  8
STANDARDEBENE
 62
     7
100
AcDbVertex
100
AcDb2dVertex
 10
109.7961362614584
 20
268.9425078212602
 30
0.0
  0
VERTEX
  5
2C9
330
2B7
100
AcDbEntity
  8
STANDARDEBENE
 62
     7
100
AcDbVertex
100
AcDb2dVertex
 10
109.7961362614584
 20
266.4342603301371
 30
0.0
  0
VERTEX
  5
2CA
330
2B7
100
AcDbEntity
  8
STANDARDEBENE
 62
     7
100
AcDbVertex
100
AcDb2dVertex
 10
109.7961362614584
 20
263.9083739677689
 30
0.0
  0
SEQEND
  5
2CB
330
2B7
100
AcDbEntity
  8
STANDARDEBENE
 62
     7
  0
POLYLINE
  5
2CC
330
4A
100
AcDbEntity
  8
STANDARDEBENE
 62
     7
100
AcDb2dPolyline
 66
     1
 10
0.0
 20
0.0
 30
0.0
  0
VERTEX
  5
2CD
330
2CC
100
AcDbEntity
  8
STANDARDEBENE
 62
     7
100
AcDbVertex
100
AcDb2dVertex
 10
115.7968802592079
 20
272.9288927227638
 30
0.0
  0
VERTEX
  5
2CE
330
2CC
100
AcDbEntity
  8
STANDARDEBENE
 62
     7
100
AcDbVertex
100
AcDb2dVertex
 10
115.7968802592079
 20
270.4030063603952
 30
0.0
  0
VERTEX
  5
2CF
330
2CC
100
AcDbEntity
  8
STANDARDEBENE
 62
     7
100
AcDbVertex
100
AcDb2dVertex
 10
115.7968802592079
 20
267.8242033842898
 30
0.0
  0
VERTEX
  5
2D0
330
2CC
100
AcDbEntity
  8
STANDARDEBENE
 62
     7
100
AcDbVertex
100
AcDb2dVertex
 10
115.7968802592079
 20
265.2171782141914
 30
0.0
  0
VERTEX
  5
2D1
330
2CC
100
AcDbEntity
  8
STANDARDEBENE
 62
     7
100
AcDbVertex
100
AcDb2dVertex
 10
115.7968802592079
 20
263.9083739677689
 30
0.0
  0
VERTEX
  5
2D2
330
2CC
100
AcDbEntity
  8
STANDARDEBENE
 62
     7
100
AcDbVertex
100
AcDb2dVertex
 10
115.7968802592079
 20
262.5995697213461
 30
0.0
  0
VERTEX
  5
2D3
330
2CC
100
AcDbEntity
  8
STANDARDEBENE
 62
     7
100
AcDbVertex
100
AcDb2dVertex
 10
115.7968802592079
 20
259.992544551248
 30
0.0
  0
VERTEX
  5
2D4
330
2CC
100
AcDbEntity
  8
STANDARDEBENE
 62
     7
100
AcDbVertex
100
AcDb2dVertex
 10
115.7968802592079
 20
257.4137415751423
 30
0.0
  0
VERTEX
  5
2D5
330
2CC
100
AcDbEntity
  8
STANDARDEBENE
 62
     7
100
AcDbVertex
100
AcDb2dVertex
 10
115.7968802592079
 20
254.887855212774
 30
0.0
  0
SEQEND
  5
2D6
330
2CC
100
AcDbEntity
  8
STANDARDEBENE
 62
     7
  0
POLYLINE
  5
2D7
330
4A
100
AcDbEntity
  8
STANDARDEBENE
 62
     7
100
AcDb2dPolyline
 66
     1
 10
0.0
 20
0.0
 30
0.0
  0
VERTEX
  5
2D8
330
2D7
100
AcDbEntity
  8
STANDARDEBENE
 62
     7
100
AcDbVertex
100
AcDb2dVertex
 10
123.7943444819581
 20
254.887855212774
 30
0.0
  0
VERTEX
  5
2D9
330
2D7
100
AcDbEntity
  8
STANDARDEBENE
 62
     7
100
AcDbVertex
100
AcDb2dVertex
 10
123.7943444819581
 20
257.4137415751423
 30
0.0
  0
VERTEX
  5
2DA
330
2D7
100
AcDbEntity
  8
STANDARDEBENE
 62
     7
100
AcDbVertex
100
AcDb2dVertex
 10
123.7943444819581
 20
259.992544551248
 30
0.0
  0
VERTEX
  5
2DB
330
2D7
100
AcDbEntity
  8
STANDARDEBENE
 62
     7
100
AcDbVertex
100
AcDb2dVertex
 10
123.7943444819581
 20
262.5995697213461
 30
0.0
  0
VERTEX
  5
2DC
330
2D7
100
AcDbEntity
  8
STANDARDEBENE
 62
     7
100
AcDbVertex
100
AcDb2dVertex
 10
123.7943444819581
 20
263.9083739677689
 30
0.0
  0
VERTEX
  5
2DD
330
2D7
100
AcDbEntity
  8
STANDARDEBENE
 62
     7
100
AcDbVertex
100
AcDb2dVertex
 10
123.7943444819581
 20
265.2171782141914
 30
0.0
  0
VERTEX
  5
2DE
330
2D7
100
AcDbEntity
  8
STANDARDEBENE
 62
     7
100
AcDbVertex
100
AcDb2dVertex
 10
123.7943444819581
 20
267.8242033842898
 30
0.0
  0
VERTEX
  5
2DF
330
2D7
100
AcDbEntity
  8
STANDARDEBENE
 62
     7
100
AcDbVertex
100
AcDb2dVertex
 10
123.7943444819581
 20
270.4030063603952
 30
0.0
  0
VERTEX
  5
2E0
330
2D7
100
AcDbEntity
  8
STANDARDEBENE
 62
     7
100
AcDbVertex
100
AcDb2dVertex
 10
123.7943444819581
 20
272.9288927227638
 30
0.0
  0
SEQEND
  5
2E1
330
2D7
100
AcDbEntity
  8
STANDARDEBENE
 62
     7
  0
POLYLINE
  5
2E2
330
4A
100
AcDbEntity
  8
STANDARDEBENE
 62
     7
100
AcDb2dPolyline
 66
     1
 10
0.0
 20
0.0
 30
0.0
  0
VERTEX
  5
2E3
330
2E2
100
AcDbEntity
  8
STANDARDEBENE
 62
     7
100
AcDbVertex
100
AcDb2dVertex
 10
117.0457123433958
 20
263.9083739677689
 30
0.0
  0
VERTEX
  5
2E4
330
2E2
100
AcDbEntity
  8
STANDARDEBENE
 62
     7
100
AcDbVertex
100
AcDb2dVertex
 10
117.2009344103569
 20
262.9982082114965
 30
0.0
  0
VERTEX
  5
2E5
330
2E2
100
AcDbEntity
  8
STANDARDEBENE
 62
     7
100
AcDbVertex
100
AcDb2dVertex
 10
117.6454339657454
 20
262.1938756826975
 30
0.0
  0
VERTEX
  5
2E6
330
2E2
100
AcDbEntity
  8
STANDARDEBENE
 62
     7
100
AcDbVertex
100
AcDb2dVertex
 10
118.3333499443236
 20
261.5800429633509
 30
0.0
  0
VERTEX
  5
2E7
330
2E2
100
AcDbEntity
  8
STANDARDEBENE
 62
     7
100
AcDbVertex
100
AcDb2dVertex
 10
119.1870713126102
 20
261.2272655384389
 30
0.0
  0
VERTEX
  5
2E8
330
2E2
100
AcDbEntity
  8
STANDARDEBENE
 62
     7
100
AcDbVertex
100
AcDb2dVertex
 10
120.1078203916306
 20
261.1743489247024
 30
0.0
  0
VERTEX
  5
2E9
330
2E2
100
AcDbEntity
  8
STANDARDEBENE
 62
     7
100
AcDbVertex
100
AcDb2dVertex
 10
120.9932917281588
 20
261.431876444888
 30
0.0
  0
VERTEX
  5
2EA
330
2E2
100
AcDbEntity
  8
STANDARDEBENE
 62
     7
100
AcDbVertex
100
AcDb2dVertex
 10
121.7411798689723
 20
261.9645703565048
 30
0.0
  0
VERTEX
  5
2EB
330
2E2
100
AcDbEntity
  8
STANDARDEBENE
 62
     7
100
AcDbVertex
100
AcDb2dVertex
 10
122.2738737805887
 20
262.7195140458161
 30
0.0
  0
VERTEX
  5
2EC
330
2E2
100
AcDbEntity
  8
STANDARDEBENE
 62
     7
100
AcDbVertex
100
AcDb2dVertex
 10
122.5278735265251
 20
263.6085131565938
 30
0.0
  0
VERTEX
  5
2ED
330
2E2
100
AcDbEntity
  8
STANDARDEBENE
 62
     7
100
AcDbVertex
100
AcDb2dVertex
 10
122.5102346552799
 20
263.9083739677689
 30
0.0
  0
VERTEX
  5
2EE
330
2E2
100
AcDbEntity
  8
STANDARDEBENE
 62
     7
100
AcDbVertex
100
AcDb2dVertex
 10
122.4749569127882
 20
264.5292622356136
 30
0.0
  0
VERTEX
  5
2EF
330
2E2
100
AcDbEntity
  8
STANDARDEBENE
 62
     7
100
AcDbVertex
100
AcDb2dVertex
 10
122.1221794878766
 20
265.3759280554021
 30
0.0
  0
VERTEX
  5
2F0
330
2E2
100
AcDbEntity
  8
STANDARDEBENE
 62
     7
100
AcDbVertex
100
AcDb2dVertex
 10
121.5048189942805
 20
266.0603162597307
 30
0.0
  0
VERTEX
  5
2F1
330
2E2
100
AcDbEntity
  8
STANDARDEBENE
 62
     7
100
AcDbVertex
100
AcDb2dVertex
 10
120.6969586912329
 20
266.5083435893688
 30
0.0
  0
VERTEX
  5
2F2
330
2E2
100
AcDbEntity
  8
STANDARDEBENE
 62
     7
100
AcDbVertex
100
AcDb2dVertex
 10
119.7832651607115
 20
266.656510107832
 30
0.0
  0
VERTEX
  5
2F3
330
2E2
100
AcDbEntity
  8
STANDARDEBENE
 62
     7
100
AcDbVertex
100
AcDb2dVertex
 10
118.876627178688
 20
266.5012880408706
 30
0.0
  0
VERTEX
  5
2F4
330
2E2
100
AcDbEntity
  8
STANDARDEBENE
 62
     7
100
AcDbVertex
100
AcDb2dVertex
 10
118.0758224241383
 20
266.0532607112326
 30
0.0
  0
VERTEX
  5
2F5
330
2E2
100
AcDbEntity
  8
STANDARDEBENE
 62
     7
100
AcDbVertex
100
AcDb2dVertex
 10
117.4619897047917
 20
265.3618169584055
 30
0.0
  0
VERTEX
  5
2F6
330
2E2
100
AcDbEntity
  8
STANDARDEBENE
 62
     7
100
AcDbVertex
100
AcDb2dVertex
 10
117.1127400541289
 20
264.5080955901188
 30
0.0
  0
VERTEX
  5
2F7
330
2E2
100
AcDbEntity
  8
STANDARDEBENE
 62
     7
100
AcDbVertex
100
AcDb2dVertex
 10
117.0457123433958
 20
263.9083739677689
 30
0.0
  0
SEQEND
  5
2F8
330
2E2
100
AcDbEntity
  8
STANDARDEBENE
 62
     7
  0
POLYLINE
  5
2F9
330
4A
100
AcDbEntity
  8
STANDARDEBENE
 62
     7
100
AcDb2dPolyline
 66
     1
 10
0.0
 20
0.0
 30
0.0
  0
VERTEX
  5
2FA
330
2F9
100
AcDbEntity
  8
STANDARDEBENE
 62
     7
100
AcDbVertex
100
AcDb2dVertex
 10
116.2942964283333
 20
272.9288927227638
 30
0.0
  0
VERTEX
  5
2FB
330
2F9
100
AcDbEntity
  8
STANDARDEBENE
 62
     7
100
AcDbVertex
100
AcDb2dVertex
 10
123.2969283128327
 20
272.9288927227638
 30
0.0
  0
SEQEND
  5
2FC
330
2F9
100
AcDbEntity
  8
STANDARDEBENE
 62
     7
  0
POLYLINE
  5
2FD
330
4A
100
AcDbEntity
  8
STANDARDEBENE
 62
     7
100
AcDb2dPolyline
 66
     1
 10
0.0
 20
0.0
 30
0.0
  0
VERTEX
  5
2FE
330
2FD
100
AcDbEntity
  8
STANDARDEBENE
 62
     7
100
AcDbVertex
100
AcDb2dVertex
 10
115.7968802592079
 20
254.887855212774
 30
0.0
  0
VERTEX
  5
2FF
330
2FD
100
AcDbEntity
  8
STANDARDEBENE
 62
     7
100
AcDbVertex
100
AcDb2dVertex
 10
123.7943444819581
 20
254.887855212774
 30
0.0
  0
SEQEND
  5
300
330
2FD
100
AcDbEntity
  8
STANDARDEBENE
 62
     7
  0
POLYLINE
  5
301
330
4A
100
AcDbEntity
  8
STANDARDEBENE
 62
     7
100
AcDb2dPolyline
 66
     1
 10
0.0
 20
0.0
 30
0.0
  0
VERTEX
  5
302
330
301
100
AcDbEntity
  8
STANDARDEBENE
 62
     7
100
AcDbVertex
100
AcDb2dVertex
 10
115.7968802592079
 20
254.887855212774
 30
0.0
  0
VERTEX
  5
303
330
301
100
AcDbEntity
  8
STANDARDEBENE
 62
     7
100
AcDbVertex
100
AcDb2dVertex
 10
115.7968802592079
 20
251.8257471645398
 30
0.0
  0
VERTEX
  5
304
330
301
100
AcDbEntity
  8
STANDARDEBENE
 62
     7
100
AcDbVertex
100
AcDb2dVertex
 10
115.7968802592079
 20
248.9082778605186
 30
0.0
  0
SEQEND
  5
305
330
301
100
AcDbEntity
  8
STANDARDEBENE
 62
     7
  0
POLYLINE
  5
306
330
4A
100
AcDbEntity
  8
STANDARDEBENE
 62
     7
100
AcDb2dPolyline
 66
     1
 10
0.0
 20
0.0
 30
0.0
  0
VERTEX
  5
307
330
306
100
AcDbEntity
  8
STANDARDEBENE
 62
     7
100
AcDbVertex
100
AcDb2dVertex
 10
123.7943444819581
 20
254.887855212774
 30
0.0
  0
VERTEX
  5
308
330
306
100
AcDbEntity
  8
STANDARDEBENE
 62
     7
100
AcDbVertex
100
AcDb2dVertex
 10
123.7943444819581
 20
251.8257471645398
 30
0.0
  0
VERTEX
  5
309
330
306
100
AcDbEntity
  8
STANDARDEBENE
 62
     7
100
AcDbVertex
100
AcDb2dVertex
 10
123.7943444819581
 20
248.9082778605186
 30
0.0
  0
SEQEND
  5
30A
330
306
100
AcDbEntity
  8
STANDARDEBENE
 62
     7
  0
POLYLINE
  5
30B
330
4A
100
AcDbEntity
  8
STANDARDEBENE
 62
     7
100
AcDb2dPolyline
 66
     1
 10
0.0
 20
0.0
 30
0.0
  0
VERTEX
  5
30C
330
30B
100
AcDbEntity
  8
STANDARDEBENE
 62
     7
100
AcDbVertex
100
AcDb2dVertex
 10
115.7968802592079
 20
248.9082778605186
 30
0.0
  0
VERTEX
  5
30D
330
30B
100
AcDbEntity
  8
STANDARDEBENE
 62
     7
100
AcDbVertex
100
AcDb2dVertex
 10
115.7968802592079
 20
246.167197268954
 30
0.0
  0
VERTEX
  5
30E
330
30B
100
AcDbEntity
  8
STANDARDEBENE
 62
     7
100
AcDbVertex
100
AcDb2dVertex
 10
115.7968802592079
 20
243.6413109065857
 30
0.0
  0
SEQEND
  5
30F
330
30B
100
AcDbEntity
  8
STANDARDEBENE
 62
     7
  0
POLYLINE
  5
310
330
4A
100
AcDbEntity
  8
STANDARDEBENE
 62
     7
100
AcDb2dPolyline
 66
     1
 10
0.0
 20
0.0
 30
0.0
  0
VERTEX
  5
311
330
310
100
AcDbEntity
  8
STANDARDEBENE
 62
     7
100
AcDbVertex
100
AcDb2dVertex
 10
123.7943444819581
 20
248.9082778605186
 30
0.0
  0
VERTEX
  5
312
330
310
100
AcDbEntity
  8
STANDARDEBENE
 62
     7
100
AcDbVertex
100
AcDb2dVertex
 10
123.7943444819581
 20
246.167197268954
 30
0.0
  0
VERTEX
  5
313
330
310
100
AcDbEntity
  8
STANDARDEBENE
 62
     7
100
AcDbVertex
100
AcDb2dVertex
 10
123.7943444819581
 20
243.6413109065857
 30
0.0
  0
SEQEND
  5
314
330
310
100
AcDbEntity
  8
STANDARDEBENE
 62
     7
  0
POLYLINE
  5
315
330
4A
100
AcDbEntity
  8
STANDARDEBENE
 62
     7
100
AcDb2dPolyline
 66
     1
 10
0.0
 20
0.0
 30
0.0
  0
VERTEX
  5
316
330
315
100
AcDbEntity
  8
STANDARDEBENE
 62
     7
100
AcDbVertex
100
AcDb2dVertex
 10
115.7968802592079
 20
248.9082778605186
 30
0.0
  0
VERTEX
  5
317
330
315
100
AcDbEntity
  8
STANDARDEBENE
 62
     7
100
AcDbVertex
100
AcDb2dVertex
 10
123.7943444819581
 20
248.9082778605186
 30
0.0
  0
SEQEND
  5
318
330
315
100
AcDbEntity
  8
STANDARDEBENE
 62
     7
  0
POLYLINE
  5
319
330
4A
100
AcDbEntity
  8
STANDARDEBENE
 62
     7
100
AcDb2dPolyline
 66
     1
 10
0.0
 20
0.0
 30
0.0
  0
VERTEX
  5
31A
330
319
100
AcDbEntity
  8
STANDARDEBENE
 62
     7
100
AcDbVertex
100
AcDb2dVertex
 10
115.7968802592079
 20
243.6413109065857
 30
0.0
  0
VERTEX
  5
31B
330
319
100
AcDbEntity
  8
STANDARDEBENE
 62
     7
100
AcDbVertex
100
AcDb2dVertex
 10
115.7968802592079
 20
241.351785418908
 30
0.0
  0
VERTEX
  5
31C
330
319
100
AcDbEntity
  8
STANDARDEBENE
 62
     7
100
AcDbVertex
100
AcDb2dVertex
 10
115.7968802592079
 20
239.3338985484126
 30
0.0
  0
SEQEND
  5
31D
330
319
100
AcDbEntity
  8
STANDARDEBENE
 62
     7
  0
POLYLINE
  5
31E
330
4A
100
AcDbEntity
  8
STANDARDEBENE
 62
     7
100
AcDb2dPolyline
 66
     1
 10
0.0
 20
0.0
 30
0.0
  0
VERTEX
  5
31F
330
31E
100
AcDbEntity
  8
STANDARDEBENE
 62
     7
100
AcDbVertex
100
AcDb2dVertex
 10
123.7943444819581
 20
243.6413109065857
 30
0.0
  0
VERTEX
  5
320
330
31E
100
AcDbEntity
  8
STANDARDEBENE
 62
     7
100
AcDbVertex
100
AcDb2dVertex
 10
123.7943444819581
 20
241.351785418908
 30
0.0
  0
VERTEX
  5
321
330
31E
100
AcDbEntity
  8
STANDARDEBENE
 62
     7
100
AcDbVertex
100
AcDb2dVertex
 10
123.7943444819581
 20
239.3338985484126
 30
0.0
  0
SEQEND
  5
322
330
31E
100
AcDbEntity
  8
STANDARDEBENE
 62
     7
  0
POLYLINE
  5
323
330
4A
100
AcDbEntity
  8
STANDARDEBENE
 62
     7
100
AcDb2dPolyline
 66
     1
 10
0.0
 20
0.0
 30
0.0
  0
VERTEX
  5
324
330
323
100
AcDbEntity
  8
STANDARDEBENE
 62
     7
100
AcDbVertex
100
AcDb2dVertex
 10
115.7968802592079
 20
243.6413109065857
 30
0.0
  0
VERTEX
  5
325
330
323
100
AcDbEntity
  8
STANDARDEBENE
 62
     7
100
AcDbVertex
100
AcDb2dVertex
 10
123.7943444819581
 20
243.6413109065857
 30
0.0
  0
SEQEND
  5
326
330
323
100
AcDbEntity
  8
STANDARDEBENE
 62
     7
  0
POLYLINE
  5
327
330
4A
100
AcDbEntity
  8
STANDARDEBENE
 62
     7
100
AcDb2dPolyline
 66
     1
 10
0.0
 20
0.0
 30
0.0
  0
VERTEX
  5
328
330
327
100
AcDbEntity
  8
STANDARDEBENE
 62
     7
100
AcDbVertex
100
AcDb2dVertex
 10
115.7968802592079
 20
239.3338985484126
 30
0.0
  0
VERTEX
  5
329
330
327
100
AcDbEntity
  8
STANDARDEBENE
 62
     7
100
AcDbVertex
100
AcDb2dVertex
 10
115.7968802592079
 20
237.6052891663446
 30
0.0
  0
VERTEX
  5
32A
330
327
100
AcDbEntity
  8
STANDARDEBENE
 62
     7
100
AcDbVertex
100
AcDb2dVertex
 10
115.7968802592079
 20
236.1906516924483
 30
0.0
  0
SEQEND
  5
32B
330
327
100
AcDbEntity
  8
STANDARDEBENE
 62
     7
  0
POLYLINE
  5
32C
330
4A
100
AcDbEntity
  8
STANDARDEBENE
 62
     7
100
AcDb2dPolyline
 66
     1
 10
0.0
 20
0.0
 30
0.0
  0
VERTEX
  5
32D
330
32C
100
AcDbEntity
  8
STANDARDEBENE
 62
     7
100
AcDbVertex
100
AcDb2dVertex
 10
123.7943444819581
 20
239.3338985484126
 30
0.0
  0
VERTEX
  5
32E
330
32C
100
AcDbEntity
  8
STANDARDEBENE
 62
     7
100
AcDbVertex
100
AcDb2dVertex
 10
123.7943444819581
 20
237.6052891663446
 30
0.0
  0
VERTEX
  5
32F
330
32C
100
AcDbEntity
  8
STANDARDEBENE
 62
     7
100
AcDbVertex
100
AcDb2dVertex
 10
123.7943444819581
 20
236.1906516924483
 30
0.0
  0
SEQEND
  5
330
330
32C
100
AcDbEntity
  8
STANDARDEBENE
 62
     7
  0
POLYLINE
  5
331
330
4A
100
AcDbEntity
  8
STANDARDEBENE
 62
     7
100
AcDb2dPolyline
 66
     1
 10
0.0
 20
0.0
 30
0.0
  0
VERTEX
  5
332
330
331
100
AcDbEntity
  8
STANDARDEBENE
 62
     7
100
AcDbVertex
100
AcDb2dVertex
 10
115.7968802592079
 20
239.3338985484126
 30
0.0
  0
VERTEX
  5
333
330
331
100
AcDbEntity
  8
STANDARDEBENE
 62
     7
100
AcDbVertex
100
AcDb2dVertex
 10
123.7943444819581
 20
239.3338985484126
 30
0.0
  0
SEQEND
  5
334
330
331
100
AcDbEntity
  8
STANDARDEBENE
 62
     7
  0
POLYLINE
  5
335
330
4A
100
AcDbEntity
  8
STANDARDEBENE
 62
     7
100
AcDb2dPolyline
 66
     1
 10
0.0
 20
0.0
 30
0.0
  0
VERTEX
  5
336
330
335
100
AcDbEntity
  8
STANDARDEBENE
 62
     7
100
AcDbVertex
100
AcDb2dVertex
 10
115.7968802592079
 20
236.1906516924483
 30
0.0
  0
VERTEX
  5
337
330
335
100
AcDbEntity
  8
STANDARDEBENE
 62
     7
100
AcDbVertex
100
AcDb2dVertex
 10
115.7968802592079
 20
235.1993471284464
 30
0.0
  0
VERTEX
  5
338
330
335
100
AcDbEntity
  8
STANDARDEBENE
 62
     7
100
AcDbVertex
100
AcDb2dVertex
 10
115.7968802592079
 20
234.9065418657694
 30
0.0
  0
VERTEX
  5
339
330
335
100
AcDbEntity
  8
STANDARDEBENE
 62
     7
100
AcDbVertex
100
AcDb2dVertex
 10
115.7968802592079
 20
234.483208955875
 30
0.0
  0
VERTEX
  5
33A
330
335
100
AcDbEntity
  8
STANDARDEBENE
 62
     7
100
AcDbVertex
100
AcDb2dVertex
 10
115.7968802592079
 20
234.0528204974827
 30
0.0
  0
VERTEX
  5
33B
330
335
100
AcDbEntity
  8
STANDARDEBENE
 62
     7
100
AcDbVertex
100
AcDb2dVertex
 10
115.7968802592079
 20
233.908181753269
 30
0.0
  0
SEQEND
  5
33C
330
335
100
AcDbEntity
  8
STANDARDEBENE
 62
     7
  0
POLYLINE
  5
33D
330
4A
100
AcDbEntity
  8
STANDARDEBENE
 62
     7
100
AcDb2dPolyline
 66
     1
 10
0.0
 20
0.0
 30
0.0
  0
VERTEX
  5
33E
330
33D
100
AcDbEntity
  8
STANDARDEBENE
 62
     7
100
AcDbVertex
100
AcDb2dVertex
 10
123.7943444819581
 20
236.1906516924483
 30
0.0
  0
VERTEX
  5
33F
330
33D
100
AcDbEntity
  8
STANDARDEBENE
 62
     7
100
AcDbVertex
100
AcDb2dVertex
 10
123.7943444819581
 20
235.1993471284464
 30
0.0
  0
VERTEX
  5
340
330
33D
100
AcDbEntity
  8
STANDARDEBENE
 62
     7
100
AcDbVertex
100
AcDb2dVertex
 10
123.7943444819581
 20
234.9065418657694
 30
0.0
  0
VERTEX
  5
341
330
33D
100
AcDbEntity
  8
STANDARDEBENE
 62
     7
100
AcDbVertex
100
AcDb2dVertex
 10
123.7943444819581
 20
234.483208955875
 30
0.0
  0
VERTEX
  5
342
330
33D
100
AcDbEntity
  8
STANDARDEBENE
 62
     7
100
AcDbVertex
100
AcDb2dVertex
 10
123.7943444819581
 20
234.0528204974827
 30
0.0
  0
VERTEX
  5
343
330
33D
100
AcDbEntity
  8
STANDARDEBENE
 62
     7
100
AcDbVertex
100
AcDb2dVertex
 10
123.7943444819581
 20
233.908181753269
 30
0.0
  0
SEQEND
  5
344
330
33D
100
AcDbEntity
  8
STANDARDEBENE
 62
     7
  0
POLYLINE
  5
345
330
4A
100
AcDbEntity
  8
STANDARDEBENE
 62
     7
100
AcDb2dPolyline
 66
     1
 10
0.0
 20
0.0
 30
0.0
  0
VERTEX
  5
346
330
345
100
AcDbEntity
  8
STANDARDEBENE
 62
     7
100
AcDbVertex
100
AcDb2dVertex
 10
115.7968802592079
 20
236.1906516924483
 30
0.0
  0
VERTEX
  5
347
330
345
100
AcDbEntity
  8
STANDARDEBENE
 62
     7
100
AcDbVertex
100
AcDb2dVertex
 10
123.7943444819581
 20
236.1906516924483
 30
0.0
  0
SEQEND
  5
348
330
345
100
AcDbEntity
  8
STANDARDEBENE
 62
     7
  0
POLYLINE
  5
349
330
4A
100
AcDbEntity
  8
STANDARDEBENE
 62
     7
100
AcDb2dPolyline
 66
     1
 10
0.0
 20
0.0
 30
0.0
  0
VERTEX
  5
34A
330
349
100
AcDbEntity
  8
STANDARDEBENE
 62
     7
100
AcDbVertex
100
AcDb2dVertex
 10
118.7778494997127
 20
293.8873995367741
 30
0.0
  0
VERTEX
  5
34B
330
349
100
AcDbEntity
  8
STANDARDEBENE
 62
     7
100
AcDbVertex
100
AcDb2dVertex
 10
118.3368777185731
 20
293.9050384080199
 30
0.0
  0
VERTEX
  5
34C
330
349
100
AcDbEntity
  8
STANDARDEBENE
 62
     7
100
AcDbVertex
100
AcDb2dVertex
 10
118.2627944593415
 20
293.9050384080199
 30
0.0
  0
SEQEND
  5
34D
330
349
100
AcDbEntity
  8
STANDARDEBENE
 62
     7
  0
POLYLINE
  5
34E
330
4A
100
AcDbEntity
  8
STANDARDEBENE
 62
     7
100
AcDb2dPolyline
 66
     1
 10
0.0
 20
0.0
 30
0.0
  0
VERTEX
  5
34F
330
34E
100
AcDbEntity
  8
STANDARDEBENE
 62
     7
100
AcDbVertex
100
AcDb2dVertex
 10
121.3319580560742
 20
293.9050384080199
 30
0.0
  0
VERTEX
  5
350
330
34E
100
AcDbEntity
  8
STANDARDEBENE
 62
     7
100
AcDbVertex
100
AcDb2dVertex
 10
121.3284302818246
 20
293.9050384080199
 30
0.0
  0
VERTEX
  5
351
330
34E
100
AcDbEntity
  8
STANDARDEBENE
 62
     7
100
AcDbVertex
100
AcDb2dVertex
 10
121.2966803135825
 20
293.9085661822688
 30
0.0
  0
VERTEX
  5
352
330
34E
100
AcDbEntity
  8
STANDARDEBENE
 62
     7
100
AcDbVertex
100
AcDb2dVertex
 10
120.813375241454
 20
293.8873995367741
 30
0.0
  0
VERTEX
  5
353
330
34E
100
AcDbEntity
  8
STANDARDEBENE
 62
     7
100
AcDbVertex
100
AcDb2dVertex
 10
118.7778494997127
 20
293.8873995367741
 30
0.0
  0
SEQEND
  5
354
330
34E
100
AcDbEntity
  8
STANDARDEBENE
 62
     7
  0
POLYLINE
  5
355
330
4A
100
AcDbEntity
  8
STANDARDEBENE
 62
     7
100
AcDb2dPolyline
 66
     1
 10
0.0
 20
0.0
 30
0.0
  0
VERTEX
  5
356
330
355
100
AcDbEntity
  8
STANDARDEBENE
 62
     7
100
AcDbVertex
100
AcDb2dVertex
 10
115.7968802592079
 20
293.9085661822688
 30
0.0
  0
VERTEX
  5
357
330
355
100
AcDbEntity
  8
STANDARDEBENE
 62
     7
100
AcDbVertex
100
AcDb2dVertex
 10
115.7968802592079
 20
293.7533441153077
 30
0.0
  0
VERTEX
  5
358
330
355
100
AcDbEntity
  8
STANDARDEBENE
 62
     7
100
AcDbVertex
100
AcDb2dVertex
 10
115.7968802592079
 20
293.2876779144238
 30
0.0
  0
VERTEX
  5
359
330
355
100
AcDbEntity
  8
STANDARDEBENE
 62
     7
100
AcDbVertex
100
AcDb2dVertex
 10
115.7968802592079
 20
292.9066782955192
 30
0.0
  0
VERTEX
  5
35A
330
355
100
AcDbEntity
  8
STANDARDEBENE
 62
     7
100
AcDbVertex
100
AcDb2dVertex
 10
115.7968802592079
 20
292.5186231281162
 30
0.0
  0
SEQEND
  5
35B
330
355
100
AcDbEntity
  8
STANDARDEBENE
 62
     7
  0
POLYLINE
  5
35C
330
4A
100
AcDbEntity
  8
STANDARDEBENE
 62
     7
100
AcDb2dPolyline
 66
     1
 10
0.0
 20
0.0
 30
0.0
  0
VERTEX
  5
35D
330
35C
100
AcDbEntity
  8
STANDARDEBENE
 62
     7
100
AcDbVertex
100
AcDb2dVertex
 10
123.7943444819581
 20
293.9085661822688
 30
0.0
  0
VERTEX
  5
35E
330
35C
100
AcDbEntity
  8
STANDARDEBENE
 62
     7
100
AcDbVertex
100
AcDb2dVertex
 10
123.7943444819581
 20
293.7533441153077
 30
0.0
  0
VERTEX
  5
35F
330
35C
100
AcDbEntity
  8
STANDARDEBENE
 62
     7
100
AcDbVertex
100
AcDb2dVertex
 10
123.7943444819581
 20
293.2876779144238
 30
0.0
  0
VERTEX
  5
360
330
35C
100
AcDbEntity
  8
STANDARDEBENE
 62
     7
100
AcDbVertex
100
AcDb2dVertex
 10
123.7943444819581
 20
292.9066782955192
 30
0.0
  0
VERTEX
  5
361
330
35C
100
AcDbEntity
  8
STANDARDEBENE
 62
     7
100
AcDbVertex
100
AcDb2dVertex
 10
123.7943444819581
 20
292.5186231281162
 30
0.0
  0
SEQEND
  5
362
330
35C
100
AcDbEntity
  8
STANDARDEBENE
 62
     7
  0
POLYLINE
  5
363
330
4A
100
AcDbEntity
  8
STANDARDEBENE
 62
     7
100
AcDb2dPolyline
 66
     1
 10
0.0
 20
0.0
 30
0.0
  0
VERTEX
  5
364
330
363
100
AcDbEntity
  8
STANDARDEBENE
 62
     7
100
AcDbVertex
100
AcDb2dVertex
 10
115.7968802592079
 20
292.5186231281162
 30
0.0
  0
VERTEX
  5
365
330
363
100
AcDbEntity
  8
STANDARDEBENE
 62
     7
100
AcDbVertex
100
AcDb2dVertex
 10
115.7968802592079
 20
291.6225684688403
 30
0.0
  0
VERTEX
  5
366
330
363
100
AcDbEntity
  8
STANDARDEBENE
 62
     7
100
AcDbVertex
100
AcDb2dVertex
 10
115.7968802592079
 20
290.5183751288665
 30
0.0
  0
VERTEX
  5
367
330
363
100
AcDbEntity
  8
STANDARDEBENE
 62
     7
100
AcDbVertex
100
AcDb2dVertex
 10
115.7968802592079
 20
289.2095708824434
 30
0.0
  0
VERTEX
  5
368
330
363
100
AcDbEntity
  8
STANDARDEBENE
 62
     7
100
AcDbVertex
100
AcDb2dVertex
 10
115.7968802592079
 20
287.7102668265684
 30
0.0
  0
VERTEX
  5
369
330
363
100
AcDbEntity
  8
STANDARDEBENE
 62
     7
100
AcDbVertex
100
AcDb2dVertex
 10
115.7968802592079
 20
286.0275185097391
 30
0.0
  0
VERTEX
  5
36A
330
363
100
AcDbEntity
  8
STANDARDEBENE
 62
     7
100
AcDbVertex
100
AcDb2dVertex
 10
115.7968802592079
 20
284.1754370289521
 30
0.0
  0
VERTEX
  5
36B
330
363
100
AcDbEntity
  8
STANDARDEBENE
 62
     7
100
AcDbVertex
100
AcDb2dVertex
 10
115.7968802592079
 20
282.1716612554529
 30
0.0
  0
VERTEX
  5
36C
330
363
100
AcDbEntity
  8
STANDARDEBENE
 62
     7
100
AcDbVertex
100
AcDb2dVertex
 10
115.7968802592079
 20
280.0267745119893
 30
0.0
  0
VERTEX
  5
36D
330
363
100
AcDbEntity
  8
STANDARDEBENE
 62
     7
100
AcDbVertex
100
AcDb2dVertex
 10
115.7968802592079
 20
277.7619434440555
 30
0.0
  0
VERTEX
  5
36E
330
363
100
AcDbEntity
  8
STANDARDEBENE
 62
     7
100
AcDbVertex
100
AcDb2dVertex
 10
115.7968802592079
 20
275.3877513743989
 30
0.0
  0
VERTEX
  5
36F
330
363
100
AcDbEntity
  8
STANDARDEBENE
 62
     7
100
AcDbVertex
100
AcDb2dVertex
 10
115.7968802592079
 20
272.9288927227638
 30
0.0
  0
VERTEX
  5
370
330
363
100
AcDbEntity
  8
STANDARDEBENE
 62
     7
100
AcDbVertex
100
AcDb2dVertex
 10
116.2942964283333
 20
272.9288927227638
 30
0.0
  0
VERTEX
  5
371
330
363
100
AcDbEntity
  8
STANDARDEBENE
 62
     7
100
AcDbVertex
100
AcDb2dVertex
 10
116.2942964283333
 20
273.1546702747073
 30
0.0
  0
VERTEX
  5
372
330
363
100
AcDbEntity
  8
STANDARDEBENE
 62
     7
100
AcDbVertex
100
AcDb2dVertex
 10
116.2942964283333
 20
275.6770288628269
 30
0.0
  0
VERTEX
  5
373
330
363
100
AcDbEntity
  8
STANDARDEBENE
 62
     7
100
AcDbVertex
100
AcDb2dVertex
 10
116.2942964283333
 20
278.1076653204691
 30
0.0
  0
VERTEX
  5
374
330
363
100
AcDbEntity
  8
STANDARDEBENE
 62
     7
100
AcDbVertex
100
AcDb2dVertex
 10
116.2942964283333
 20
280.4289407763886
 30
0.0
  0
VERTEX
  5
375
330
363
100
AcDbEntity
  8
STANDARDEBENE
 62
     7
100
AcDbVertex
100
AcDb2dVertex
 10
116.2942964283333
 20
282.6267441335895
 30
0.0
  0
VERTEX
  5
376
330
363
100
AcDbEntity
  8
STANDARDEBENE
 62
     7
100
AcDbVertex
100
AcDb2dVertex
 10
116.2942964283333
 20
284.6834365208248
 30
0.0
  0
VERTEX
  5
377
330
363
100
AcDbEntity
  8
STANDARDEBENE
 62
     7
100
AcDbVertex
100
AcDb2dVertex
 10
116.2942964283333
 20
286.5778512926014
 30
0.0
  0
VERTEX
  5
378
330
363
100
AcDbEntity
  8
STANDARDEBENE
 62
     7
100
AcDbVertex
100
AcDb2dVertex
 10
116.2942964283333
 20
288.3029329004202
 30
0.0
  0
VERTEX
  5
379
330
363
100
AcDbEntity
  8
STANDARDEBENE
 62
     7
100
AcDbVertex
100
AcDb2dVertex
 10
116.2942964283333
 20
289.8410424730358
 30
0.0
  0
VERTEX
  5
37A
330
363
100
AcDbEntity
  8
STANDARDEBENE
 62
     7
100
AcDbVertex
100
AcDb2dVertex
 10
116.2942964283333
 20
291.1851244619497
 30
0.0
  0
VERTEX
  5
37B
330
363
100
AcDbEntity
  8
STANDARDEBENE
 62
     7
100
AcDbVertex
100
AcDb2dVertex
 10
116.2942964283333
 20
292.3175399959167
 30
0.0
  0
VERTEX
  5
37C
330
363
100
AcDbEntity
  8
STANDARDEBENE
 62
     7
100
AcDbVertex
100
AcDb2dVertex
 10
116.2942964283333
 20
292.5186231281162
 30
0.0
  0
VERTEX
  5
37D
330
363
100
AcDbEntity
  8
STANDARDEBENE
 62
     7
100
AcDbVertex
100
AcDb2dVertex
 10
116.2942964283333
 20
293.2347613006872
 30
0.0
  0
SEQEND
  5
37E
330
363
100
AcDbEntity
  8
STANDARDEBENE
 62
     7
  0
POLYLINE
  5
37F
330
4A
100
AcDbEntity
  8
STANDARDEBENE
 62
     7
100
AcDb2dPolyline
 66
     1
 10
0.0
 20
0.0
 30
0.0
  0
VERTEX
  5
380
330
37F
100
AcDbEntity
  8
STANDARDEBENE
 62
     7
100
AcDbVertex
100
AcDb2dVertex
 10
116.5447684000208
 20
293.4711221753781
 30
0.0
  0
VERTEX
  5
381
330
37F
100
AcDbEntity
  8
STANDARDEBENE
 62
     7
100
AcDbVertex
100
AcDb2dVertex
 10
123.0464563411453
 20
293.4711221753781
 30
0.0
  0
SEQEND
  5
382
330
37F
100
AcDbEntity
  8
STANDARDEBENE
 62
     7
  0
POLYLINE
  5
383
330
4A
100
AcDbEntity
  8
STANDARDEBENE
 62
     7
100
AcDb2dPolyline
 66
     1
 10
0.0
 20
0.0
 30
0.0
  0
VERTEX
  5
384
330
383
100
AcDbEntity
  8
STANDARDEBENE
 62
     7
100
AcDbVertex
100
AcDb2dVertex
 10
115.7968802592079
 20
292.5186231281162
 30
0.0
  0
VERTEX
  5
385
330
383
100
AcDbEntity
  8
STANDARDEBENE
 62
     7
100
AcDbVertex
100
AcDb2dVertex
 10
116.2942964283333
 20
292.5186231281162
 30
0.0
  0
SEQEND
  5
386
330
383
100
AcDbEntity
  8
STANDARDEBENE
 62
     7
  0
POLYLINE
  5
387
330
4A
100
AcDbEntity
  8
STANDARDEBENE
 62
     7
100
AcDb2dPolyline
 66
     1
 10
0.0
 20
0.0
 30
0.0
  0
VERTEX
  5
388
330
387
100
AcDbEntity
  8
STANDARDEBENE
 62
     7
100
AcDbVertex
100
AcDb2dVertex
 10
116.5447684000208
 20
273.2287535339386
 30
0.0
  0
VERTEX
  5
389
330
387
100
AcDbEntity
  8
STANDARDEBENE
 62
     7
100
AcDbVertex
100
AcDb2dVertex
 10
123.0464563411453
 20
273.2287535339386
 30
0.0
  0
SEQEND
  5
38A
330
387
100
AcDbEntity
  8
STANDARDEBENE
 62
     7
  0
POLYLINE
  5
38B
330
4A
100
AcDbEntity
  8
STANDARDEBENE
 62
     7
100
AcDb2dPolyline
 66
     1
 10
0.0
 20
0.0
 30
0.0
  0
VERTEX
  5
38C
330
38B
100
AcDbEntity
  8
STANDARDEBENE
 62
     7
100
AcDbVertex
100
AcDb2dVertex
 10
123.2969283128327
 20
293.2347613006872
 30
0.0
  0
VERTEX
  5
38D
330
38B
100
AcDbEntity
  8
STANDARDEBENE
 62
     7
100
AcDbVertex
100
AcDb2dVertex
 10
123.2969283128327
 20
292.5186231281162
 30
0.0
  0
VERTEX
  5
38E
330
38B
100
AcDbEntity
  8
STANDARDEBENE
 62
     7
100
AcDbVertex
100
AcDb2dVertex
 10
123.2969283128327
 20
292.3175399959167
 30
0.0
  0
VERTEX
  5
38F
330
38B
100
AcDbEntity
  8
STANDARDEBENE
 62
     7
100
AcDbVertex
100
AcDb2dVertex
 10
123.2969283128327
 20
291.1851244619497
 30
0.0
  0
VERTEX
  5
390
330
38B
100
AcDbEntity
  8
STANDARDEBENE
 62
     7
100
AcDbVertex
100
AcDb2dVertex
 10
123.2969283128327
 20
289.8410424730358
 30
0.0
  0
VERTEX
  5
391
330
38B
100
AcDbEntity
  8
STANDARDEBENE
 62
     7
100
AcDbVertex
100
AcDb2dVertex
 10
123.2969283128327
 20
288.3029329004202
 30
0.0
  0
VERTEX
  5
392
330
38B
100
AcDbEntity
  8
STANDARDEBENE
 62
     7
100
AcDbVertex
100
AcDb2dVertex
 10
123.2969283128327
 20
286.5778512926014
 30
0.0
  0
VERTEX
  5
393
330
38B
100
AcDbEntity
  8
STANDARDEBENE
 62
     7
100
AcDbVertex
100
AcDb2dVertex
 10
123.2969283128327
 20
284.6834365208248
 30
0.0
  0
VERTEX
  5
394
330
38B
100
AcDbEntity
  8
STANDARDEBENE
 62
     7
100
AcDbVertex
100
AcDb2dVertex
 10
123.2969283128327
 20
282.6267441335895
 30
0.0
  0
VERTEX
  5
395
330
38B
100
AcDbEntity
  8
STANDARDEBENE
 62
     7
100
AcDbVertex
100
AcDb2dVertex
 10
123.2969283128327
 20
280.4289407763886
 30
0.0
  0
VERTEX
  5
396
330
38B
100
AcDbEntity
  8
STANDARDEBENE
 62
     7
100
AcDbVertex
100
AcDb2dVertex
 10
123.2969283128327
 20
278.1076653204691
 30
0.0
  0
VERTEX
  5
397
330
38B
100
AcDbEntity
  8
STANDARDEBENE
 62
     7
100
AcDbVertex
100
AcDb2dVertex
 10
123.2969283128327
 20
275.6770288628269
 30
0.0
  0
VERTEX
  5
398
330
38B
100
AcDbEntity
  8
STANDARDEBENE
 62
     7
100
AcDbVertex
100
AcDb2dVertex
 10
123.2969283128327
 20
273.1546702747073
 30
0.0
  0
VERTEX
  5
399
330
38B
100
AcDbEntity
  8
STANDARDEBENE
 62
     7
100
AcDbVertex
100
AcDb2dVertex
 10
123.2969283128327
 20
272.9288927227638
 30
0.0
  0
SEQEND
  5
39A
330
38B
100
AcDbEntity
  8
STANDARDEBENE
 62
     7
  0
POLYLINE
  5
39B
330
4A
100
AcDbEntity
  8
STANDARDEBENE
 62
     7
100
AcDb2dPolyline
 66
     1
 10
0.0
 20
0.0
 30
0.0
  0
VERTEX
  5
39C
330
39B
100
AcDbEntity
  8
STANDARDEBENE
 62
     7
100
AcDbVertex
100
AcDb2dVertex
 10
123.7943444819581
 20
292.5186231281162
 30
0.0
  0
VERTEX
  5
39D
330
39B
100
AcDbEntity
  8
STANDARDEBENE
 62
     7
100
AcDbVertex
100
AcDb2dVertex
 10
123.7943444819581
 20
291.6225684688403
 30
0.0
  0
VERTEX
  5
39E
330
39B
100
AcDbEntity
  8
STANDARDEBENE
 62
     7
100
AcDbVertex
100
AcDb2dVertex
 10
123.7943444819581
 20
290.5183751288665
 30
0.0
  0
VERTEX
  5
39F
330
39B
100
AcDbEntity
  8
STANDARDEBENE
 62
     7
100
AcDbVertex
100
AcDb2dVertex
 10
123.7943444819581
 20
289.2095708824434
 30
0.0
  0
VERTEX
  5
3A0
330
39B
100
AcDbEntity
  8
STANDARDEBENE
 62
     7
100
AcDbVertex
100
AcDb2dVertex
 10
123.7943444819581
 20
287.7102668265684
 30
0.0
  0
VERTEX
  5
3A1
330
39B
100
AcDbEntity
  8
STANDARDEBENE
 62
     7
100
AcDbVertex
100
AcDb2dVertex
 10
123.7943444819581
 20
286.0275185097391
 30
0.0
  0
VERTEX
  5
3A2
330
39B
100
AcDbEntity
  8
STANDARDEBENE
 62
     7
100
AcDbVertex
100
AcDb2dVertex
 10
123.7943444819581
 20
284.1754370289521
 30
0.0
  0
VERTEX
  5
3A3
330
39B
100
AcDbEntity
  8
STANDARDEBENE
 62
     7
100
AcDbVertex
100
AcDb2dVertex
 10
123.7943444819581
 20
282.1716612554529
 30
0.0
  0
VERTEX
  5
3A4
330
39B
100
AcDbEntity
  8
STANDARDEBENE
 62
     7
100
AcDbVertex
100
AcDb2dVertex
 10
123.7943444819581
 20
280.0267745119893
 30
0.0
  0
VERTEX
  5
3A5
330
39B
100
AcDbEntity
  8
STANDARDEBENE
 62
     7
100
AcDbVertex
100
AcDb2dVertex
 10
123.7943444819581
 20
277.7619434440555
 30
0.0
  0
VERTEX
  5
3A6
330
39B
100
AcDbEntity
  8
STANDARDEBENE
 62
     7
100
AcDbVertex
100
AcDb2dVertex
 10
123.7943444819581
 20
275.3877513743989
 30
0.0
  0
VERTEX
  5
3A7
330
39B
100
AcDbEntity
  8
STANDARDEBENE
 62
     7
100
AcDbVertex
100
AcDb2dVertex
 10
123.7943444819581
 20
272.9288927227638
 30
0.0
  0
SEQEND
  5
3A8
330
39B
100
AcDbEntity
  8
STANDARDEBENE
 62
     7
  0
POLYLINE
  5
3A9
330
4A
100
AcDbEntity
  8
STANDARDEBENE
 62
     7
100
AcDb2dPolyline
 66
     1
 10
0.0
 20
0.0
 30
0.0
  0
VERTEX
  5
3AA
330
3A9
100
AcDbEntity
  8
STANDARDEBENE
 62
     7
100
AcDbVertex
100
AcDb2dVertex
 10
123.2969283128327
 20
292.5186231281162
 30
0.0
  0
VERTEX
  5
3AB
330
3A9
100
AcDbEntity
  8
STANDARDEBENE
 62
     7
100
AcDbVertex
100
AcDb2dVertex
 10
123.7943444819581
 20
292.5186231281162
 30
0.0
  0
SEQEND
  5
3AC
330
3A9
100
AcDbEntity
  8
STANDARDEBENE
 62
     7
  0
POLYLINE
  5
3AD
330
4A
100
AcDbEntity
  8
STANDARDEBENE
 62
     7
100
AcDb2dPolyline
 66
     1
 10
0.0
 20
0.0
 30
0.0
  0
VERTEX
  5
3AE
330
3AD
100
AcDbEntity
  8
STANDARDEBENE
 62
     7
100
AcDbVertex
100
AcDb2dVertex
 10
123.2969283128327
 20
272.9288927227638
 30
0.0
  0
VERTEX
  5
3AF
330
3AD
100
AcDbEntity
  8
STANDARDEBENE
 62
     7
100
AcDbVertex
100
AcDb2dVertex
 10
123.7943444819581
 20
272.9288927227638
 30
0.0
  0
SEQEND
  5
3B0
330
3AD
100
AcDbEntity
  8
STANDARDEBENE
 62
     7
  0
POLYLINE
  5
3B1
330
4A
100
AcDbEntity
  8
STANDARDEBENE
 62
     7
100
AcDb2dPolyline
 66
     1
 10
0.0
 20
0.0
 30
0.0
  0
VERTEX
  5
3B2
330
3B1
100
AcDbEntity
  8
STANDARDEBENE
 62
     7
100
AcDbVertex
100
AcDb2dVertex
 10
116.2942964283333
 20
293.2347613006872
 30
0.0
  0
VERTEX
  5
3B3
330
3B1
100
AcDbEntity
  8
STANDARDEBENE
 62
     7
100
AcDbVertex
100
AcDb2dVertex
 10
116.368379687565
 20
293.4040944646449
 30
0.0
  0
VERTEX
  5
3B4
330
3B1
100
AcDbEntity
  8
STANDARDEBENE
 62
     7
100
AcDbVertex
100
AcDb2dVertex
 10
116.5447684000208
 20
293.4711221753781
 30
0.0
  0
SEQEND
  5
3B5
330
3B1
100
AcDbEntity
  8
STANDARDEBENE
 62
     7
  0
POLYLINE
  5
3B6
330
4A
100
AcDbEntity
  8
STANDARDEBENE
 62
     7
100
AcDb2dPolyline
 66
     1
 10
0.0
 20
0.0
 30
0.0
  0
VERTEX
  5
3B7
330
3B6
100
AcDbEntity
  8
STANDARDEBENE
 62
     7
100
AcDbVertex
100
AcDb2dVertex
 10
123.0464563411453
 20
293.4711221753781
 30
0.0
  0
VERTEX
  5
3B8
330
3B6
100
AcDbEntity
  8
STANDARDEBENE
 62
     7
100
AcDbVertex
100
AcDb2dVertex
 10
123.2228450536011
 20
293.4040944646449
 30
0.0
  0
VERTEX
  5
3B9
330
3B6
100
AcDbEntity
  8
STANDARDEBENE
 62
     7
100
AcDbVertex
100
AcDb2dVertex
 10
123.2969283128327
 20
293.2347613006872
 30
0.0
  0
SEQEND
  5
3BA
330
3B6
100
AcDbEntity
  8
STANDARDEBENE
 62
     7
  0
POLYLINE
  5
3BB
330
4A
100
AcDbEntity
  8
STANDARDEBENE
 62
     7
100
AcDb2dPolyline
 66
     1
 10
0.0
 20
0.0
 30
0.0
  0
VERTEX
  5
3BC
330
3BB
100
AcDbEntity
  8
STANDARDEBENE
 62
     7
100
AcDbVertex
100
AcDb2dVertex
 10
116.5447684000208
 20
273.2287535339386
 30
0.0
  0
VERTEX
  5
3BD
330
3BB
100
AcDbEntity
  8
STANDARDEBENE
 62
     7
100
AcDbVertex
100
AcDb2dVertex
 10
116.368379687565
 20
273.2075868884438
 30
0.0
  0
VERTEX
  5
3BE
330
3BB
100
AcDbEntity
  8
STANDARDEBENE
 62
     7
100
AcDbVertex
100
AcDb2dVertex
 10
116.2942964283333
 20
273.1546702747073
 30
0.0
  0
SEQEND
  5
3BF
330
3BB
100
AcDbEntity
  8
STANDARDEBENE
 62
     7
  0
POLYLINE
  5
3C0
330
4A
100
AcDbEntity
  8
STANDARDEBENE
 62
     7
100
AcDb2dPolyline
 66
     1
 10
0.0
 20
0.0
 30
0.0
  0
VERTEX
  5
3C1
330
3C0
100
AcDbEntity
  8
STANDARDEBENE
 62
     7
100
AcDbVertex
100
AcDb2dVertex
 10
123.2969283128327
 20
273.1546702747073
 30
0.0
  0
VERTEX
  5
3C2
330
3C0
100
AcDbEntity
  8
STANDARDEBENE
 62
     7
100
AcDbVertex
100
AcDb2dVertex
 10
123.2228450536011
 20
273.2075868884438
 30
0.0
  0
VERTEX
  5
3C3
330
3C0
100
AcDbEntity
  8
STANDARDEBENE
 62
     7
100
AcDbVertex
100
AcDb2dVertex
 10
123.0464563411453
 20
273.2287535339386
 30
0.0
  0
SEQEND
  5
3C4
330
3C0
100
AcDbEntity
  8
STANDARDEBENE
 62
     7
  0
POLYLINE
  5
3C5
330
4A
100
AcDbEntity
  8
STANDARDEBENE
 62
     7
100
AcDb2dPolyline
 66
     1
 10
0.0
 20
0.0
 30
0.0
  0
VERTEX
  5
3C6
330
3C5
100
AcDbEntity
  8
STANDARDEBENE
 62
     7
100
AcDbVertex
100
AcDb2dVertex
 10
127.7948404804587
 20
234.9065418657694
 30
0.0
  0
VERTEX
  5
3C7
330
3C5
100
AcDbEntity
  8
STANDARDEBENE
 62
     7
100
AcDbVertex
100
AcDb2dVertex
 10
127.7948404804587
 20
235.0123750932432
 30
0.0
  0
VERTEX
  5
3C8
330
3C5
100
AcDbEntity
  8
STANDARDEBENE
 62
     7
100
AcDbVertex
100
AcDb2dVertex
 10
127.7948404804587
 20
235.3263470014142
 30
0.0
  0
VERTEX
  5
3C9
330
3C5
100
AcDbEntity
  8
STANDARDEBENE
 62
     7
100
AcDbVertex
100
AcDb2dVertex
 10
127.7948404804587
 20
235.8449298160344
 30
0.0
  0
VERTEX
  5
3CA
330
3C5
100
AcDbEntity
  8
STANDARDEBENE
 62
     7
100
AcDbVertex
100
AcDb2dVertex
 10
127.7948404804587
 20
236.5645957628547
 30
0.0
  0
VERTEX
  5
3CB
330
3C5
100
AcDbEntity
  8
STANDARDEBENE
 62
     7
100
AcDbVertex
100
AcDb2dVertex
 10
127.7948404804587
 20
237.4818170676256
 30
0.0
  0
VERTEX
  5
3CC
330
3C5
100
AcDbEntity
  8
STANDARDEBENE
 62
     7
100
AcDbVertex
100
AcDb2dVertex
 10
127.7948404804587
 20
238.5895381818486
 30
0.0
  0
VERTEX
  5
3CD
330
3C5
100
AcDbEntity
  8
STANDARDEBENE
 62
     7
100
AcDbVertex
100
AcDb2dVertex
 10
127.7948404804587
 20
239.880703557026
 30
0.0
  0
VERTEX
  5
3CE
330
3C5
100
AcDbEntity
  8
STANDARDEBENE
 62
     7
100
AcDbVertex
100
AcDb2dVertex
 10
127.7948404804587
 20
241.3447298704096
 30
0.0
  0
VERTEX
  5
3CF
330
3C5
100
AcDbEntity
  8
STANDARDEBENE
 62
     7
100
AcDbVertex
100
AcDb2dVertex
 10
127.7948404804587
 20
242.9710337992534
 30
0.0
  0
VERTEX
  5
3D0
330
3C5
100
AcDbEntity
  8
STANDARDEBENE
 62
     7
100
AcDbVertex
100
AcDb2dVertex
 10
127.7948404804587
 20
244.7490320208088
 30
0.0
  0
VERTEX
  5
3D1
330
3C5
100
AcDbEntity
  8
STANDARDEBENE
 62
     7
100
AcDbVertex
100
AcDb2dVertex
 10
127.7948404804587
 20
246.66461343808
 30
0.0
  0
VERTEX
  5
3D2
330
3C5
100
AcDbEntity
  8
STANDARDEBENE
 62
     7
100
AcDbVertex
100
AcDb2dVertex
 10
127.7948404804587
 20
248.7036669540702
 30
0.0
  0
VERTEX
  5
3D3
330
3C5
100
AcDbEntity
  8
STANDARDEBENE
 62
     7
100
AcDbVertex
100
AcDb2dVertex
 10
127.7948404804587
 20
250.8520814717831
 30
0.0
  0
VERTEX
  5
3D4
330
3C5
100
AcDbEntity
  8
STANDARDEBENE
 62
     7
100
AcDbVertex
100
AcDb2dVertex
 10
127.7948404804587
 20
253.0957458942217
 30
0.0
  0
VERTEX
  5
3D5
330
3C5
100
AcDbEntity
  8
STANDARDEBENE
 62
     7
100
AcDbVertex
100
AcDb2dVertex
 10
127.7948404804587
 20
255.4170213501416
 30
0.0
  0
VERTEX
  5
3D6
330
3C5
100
AcDbEntity
  8
STANDARDEBENE
 62
     7
100
AcDbVertex
100
AcDb2dVertex
 10
127.7948404804587
 20
257.7982689682961
 30
0.0
  0
VERTEX
  5
3D7
330
3C5
100
AcDbEntity
  8
STANDARDEBENE
 62
     7
100
AcDbVertex
100
AcDb2dVertex
 10
127.7948404804587
 20
260.2253776516897
 30
0.0
  0
VERTEX
  5
3D8
330
3C5
100
AcDbEntity
  8
STANDARDEBENE
 62
     7
100
AcDbVertex
100
AcDb2dVertex
 10
127.7948404804587
 20
262.6771807548266
 30
0.0
  0
VERTEX
  5
3D9
330
3C5
100
AcDbEntity
  8
STANDARDEBENE
 62
     7
100
AcDbVertex
100
AcDb2dVertex
 10
127.7948404804587
 20
263.9083739677689
 30
0.0
  0
VERTEX
  5
3DA
330
3C5
100
AcDbEntity
  8
STANDARDEBENE
 62
     7
100
AcDbVertex
100
AcDb2dVertex
 10
127.7948404804587
 20
265.1395671807109
 30
0.0
  0
VERTEX
  5
3DB
330
3C5
100
AcDbEntity
  8
STANDARDEBENE
 62
     7
100
AcDbVertex
100
AcDb2dVertex
 10
127.7948404804587
 20
267.5913702838482
 30
0.0
  0
VERTEX
  5
3DC
330
3C5
100
AcDbEntity
  8
STANDARDEBENE
 62
     7
100
AcDbVertex
100
AcDb2dVertex
 10
127.7948404804587
 20
270.0184789672411
 30
0.0
  0
VERTEX
  5
3DD
330
3C5
100
AcDbEntity
  8
STANDARDEBENE
 62
     7
100
AcDbVertex
100
AcDb2dVertex
 10
127.7948404804587
 20
272.3997265853959
 30
0.0
  0
VERTEX
  5
3DE
330
3C5
100
AcDbEntity
  8
STANDARDEBENE
 62
     7
100
AcDbVertex
100
AcDb2dVertex
 10
127.7948404804587
 20
274.7210020413157
 30
0.0
  0
VERTEX
  5
3DF
330
3C5
100
AcDbEntity
  8
STANDARDEBENE
 62
     7
100
AcDbVertex
100
AcDb2dVertex
 10
127.7948404804587
 20
276.9646664637547
 30
0.0
  0
VERTEX
  5
3E0
330
3C5
100
AcDbEntity
  8
STANDARDEBENE
 62
     7
100
AcDbVertex
100
AcDb2dVertex
 10
127.7948404804587
 20
279.1130809814676
 30
0.0
  0
VERTEX
  5
3E1
330
3C5
100
AcDbEntity
  8
STANDARDEBENE
 62
     7
100
AcDbVertex
100
AcDb2dVertex
 10
127.7948404804587
 20
281.1521344974578
 30
0.0
  0
VERTEX
  5
3E2
330
3C5
100
AcDbEntity
  8
STANDARDEBENE
 62
     7
100
AcDbVertex
100
AcDb2dVertex
 10
127.7948404804587
 20
283.067715914729
 30
0.0
  0
VERTEX
  5
3E3
330
3C5
100
AcDbEntity
  8
STANDARDEBENE
 62
     7
100
AcDbVertex
100
AcDb2dVertex
 10
127.7948404804587
 20
284.8457141362844
 30
0.0
  0
VERTEX
  5
3E4
330
3C5
100
AcDbEntity
  8
STANDARDEBENE
 62
     7
100
AcDbVertex
100
AcDb2dVertex
 10
127.7948404804587
 20
286.4720180651279
 30
0.0
  0
VERTEX
  5
3E5
330
3C5
100
AcDbEntity
  8
STANDARDEBENE
 62
     7
100
AcDbVertex
100
AcDb2dVertex
 10
127.7948404804587
 20
287.9360443785119
 30
0.0
  0
VERTEX
  5
3E6
330
3C5
100
AcDbEntity
  8
STANDARDEBENE
 62
     7
100
AcDbVertex
100
AcDb2dVertex
 10
127.7948404804587
 20
289.2272097536892
 30
0.0
  0
VERTEX
  5
3E7
330
3C5
100
AcDbEntity
  8
STANDARDEBENE
 62
     7
100
AcDbVertex
100
AcDb2dVertex
 10
127.7948404804587
 20
290.3349308679122
 30
0.0
  0
VERTEX
  5
3E8
330
3C5
100
AcDbEntity
  8
STANDARDEBENE
 62
     7
100
AcDbVertex
100
AcDb2dVertex
 10
127.7948404804587
 20
291.2521521726831
 30
0.0
  0
VERTEX
  5
3E9
330
3C5
100
AcDbEntity
  8
STANDARDEBENE
 62
     7
100
AcDbVertex
100
AcDb2dVertex
 10
127.7948404804587
 20
291.9718181195028
 30
0.0
  0
VERTEX
  5
3EA
330
3C5
100
AcDbEntity
  8
STANDARDEBENE
 62
     7
100
AcDbVertex
100
AcDb2dVertex
 10
127.7948404804587
 20
292.4904009341233
 30
0.0
  0
VERTEX
  5
3EB
330
3C5
100
AcDbEntity
  8
STANDARDEBENE
 62
     7
100
AcDbVertex
100
AcDb2dVertex
 10
127.7948404804587
 20
292.8043728422947
 30
0.0
  0
VERTEX
  5
3EC
330
3C5
100
AcDbEntity
  8
STANDARDEBENE
 62
     7
100
AcDbVertex
100
AcDb2dVertex
 10
127.7948404804587
 20
292.9066782955192
 30
0.0
  0
SEQEND
  5
3ED
330
3C5
100
AcDbEntity
  8
STANDARDEBENE
 62
     7
  0
POLYLINE
  5
3EE
330
4A
100
AcDbEntity
  8
STANDARDEBENE
 62
     7
100
AcDb2dPolyline
 66
     1
 10
0.0
 20
0.0
 30
0.0
  0
VERTEX
  5
3EF
330
3EE
100
AcDbEntity
  8
STANDARDEBENE
 62
     7
100
AcDbVertex
100
AcDb2dVertex
 10
129.7950884797083
 20
263.9083739677689
 30
0.0
  0
VERTEX
  5
3F0
330
3EE
100
AcDbEntity
  8
STANDARDEBENE
 62
     7
100
AcDbVertex
100
AcDb2dVertex
 10
129.7950884797083
 20
261.555348543607
 30
0.0
  0
VERTEX
  5
3F1
330
3EE
100
AcDbEntity
  8
STANDARDEBENE
 62
     7
100
AcDbVertex
100
AcDb2dVertex
 10
129.7950884797083
 20
259.2199619906909
 30
0.0
  0
VERTEX
  5
3F2
330
3EE
100
AcDbEntity
  8
STANDARDEBENE
 62
     7
100
AcDbVertex
100
AcDb2dVertex
 10
129.7950884797083
 20
256.9198531802658
 30
0.0
  0
VERTEX
  5
3F3
330
3EE
100
AcDbEntity
  8
STANDARDEBENE
 62
     7
100
AcDbVertex
100
AcDb2dVertex
 10
129.7950884797083
 20
254.6726609835776
 30
0.0
  0
VERTEX
  5
3F4
330
3EE
100
AcDbEntity
  8
STANDARDEBENE
 62
     7
100
AcDbVertex
100
AcDb2dVertex
 10
129.7950884797083
 20
252.4960242718721
 30
0.0
  0
VERTEX
  5
3F5
330
3EE
100
AcDbEntity
  8
STANDARDEBENE
 62
     7
100
AcDbVertex
100
AcDb2dVertex
 10
129.7950884797083
 20
250.407581916394
 30
0.0
  0
VERTEX
  5
3F6
330
3EE
100
AcDbEntity
  8
STANDARDEBENE
 62
     7
100
AcDbVertex
100
AcDb2dVertex
 10
129.7950884797083
 20
248.4214450141406
 30
0.0
  0
VERTEX
  5
3F7
330
3EE
100
AcDbEntity
  8
STANDARDEBENE
 62
     7
100
AcDbVertex
100
AcDb2dVertex
 10
129.7950884797083
 20
246.5517246621078
 30
0.0
  0
VERTEX
  5
3F8
330
3EE
100
AcDbEntity
  8
STANDARDEBENE
 62
     7
100
AcDbVertex
100
AcDb2dVertex
 10
129.7950884797083
 20
244.8160597315419
 30
0.0
  0
VERTEX
  5
3F9
330
3EE
100
AcDbEntity
  8
STANDARDEBENE
 62
     7
100
AcDbVertex
100
AcDb2dVertex
 10
129.7950884797083
 20
244.6573098903319
 30
0.0
  0
VERTEX
  5
3FA
330
3EE
100
AcDbEntity
  8
STANDARDEBENE
 62
     7
100
AcDbVertex
100
AcDb2dVertex
 10
129.7950884797083
 20
243.2250335451898
 30
0.0
  0
VERTEX
  5
3FB
330
3EE
100
AcDbEntity
  8
STANDARDEBENE
 62
     7
100
AcDbVertex
100
AcDb2dVertex
 10
129.7950884797083
 20
241.7892294257987
 30
0.0
  0
VERTEX
  5
3FC
330
3EE
100
AcDbEntity
  8
STANDARDEBENE
 62
     7
100
AcDbVertex
100
AcDb2dVertex
 10
129.7950884797083
 20
240.5262862446146
 30
0.0
  0
VERTEX
  5
3FD
330
3EE
100
AcDbEntity
  8
STANDARDEBENE
 62
     7
100
AcDbVertex
100
AcDb2dVertex
 10
129.7950884797083
 20
239.4397317758857
 30
0.0
  0
VERTEX
  5
3FE
330
3EE
100
AcDbEntity
  8
STANDARDEBENE
 62
     7
100
AcDbVertex
100
AcDb2dVertex
 10
129.7950884797083
 20
238.5366215681117
 30
0.0
  0
VERTEX
  5
3FF
330
3EE
100
AcDbEntity
  8
STANDARDEBENE
 62
     7
100
AcDbVertex
100
AcDb2dVertex
 10
129.7950884797083
 20
237.8275389440388
 30
0.0
  0
VERTEX
  5
400
330
3EE
100
AcDbEntity
  8
STANDARDEBENE
 62
     7
100
AcDbVertex
100
AcDb2dVertex
 10
129.7950884797083
 20
237.319539452166
 30
0.0
  0
VERTEX
  5
401
330
3EE
100
AcDbEntity
  8
STANDARDEBENE
 62
     7
100
AcDbVertex
100
AcDb2dVertex
 10
129.7950884797083
 20
237.0090953182439
 30
0.0
  0
VERTEX
  5
402
330
3EE
100
AcDbEntity
  8
STANDARDEBENE
 62
     7
100
AcDbVertex
100
AcDb2dVertex
 10
129.7950884797083
 20
236.906789865019
 30
0.0
  0
SEQEND
  5
403
330
3EE
100
AcDbEntity
  8
STANDARDEBENE
 62
     7
  0
POLYLINE
  5
404
330
4A
100
AcDbEntity
  8
STANDARDEBENE
 62
     7
100
AcDb2dPolyline
 66
     1
 10
0.0
 20
0.0
 30
0.0
  0
VERTEX
  5
405
330
404
100
AcDbEntity
  8
STANDARDEBENE
 62
     7
100
AcDbVertex
100
AcDb2dVertex
 10
129.7950884797083
 20
290.9064302962693
 30
0.0
  0
VERTEX
  5
406
330
404
100
AcDbEntity
  8
STANDARDEBENE
 62
     7
100
AcDbVertex
100
AcDb2dVertex
 10
129.7950884797083
 20
290.8041248430451
 30
0.0
  0
VERTEX
  5
407
330
404
100
AcDbEntity
  8
STANDARDEBENE
 62
     7
100
AcDbVertex
100
AcDb2dVertex
 10
129.7950884797083
 20
290.4972084833718
 30
0.0
  0
VERTEX
  5
408
330
404
100
AcDbEntity
  8
STANDARDEBENE
 62
     7
100
AcDbVertex
100
AcDb2dVertex
 10
129.7950884797083
 20
289.9892089914987
 30
0.0
  0
VERTEX
  5
409
330
404
100
AcDbEntity
  8
STANDARDEBENE
 62
     7
100
AcDbVertex
100
AcDb2dVertex
 10
129.7950884797083
 20
289.2801263674261
 30
0.0
  0
VERTEX
  5
40A
330
404
100
AcDbEntity
  8
STANDARDEBENE
 62
     7
100
AcDbVertex
100
AcDb2dVertex
 10
129.7950884797083
 20
288.3770161596515
 30
0.0
  0
VERTEX
  5
40B
330
404
100
AcDbEntity
  8
STANDARDEBENE
 62
     7
100
AcDbVertex
100
AcDb2dVertex
 10
129.7950884797083
 20
287.2904616909232
 30
0.0
  0
VERTEX
  5
40C
330
404
100
AcDbEntity
  8
STANDARDEBENE
 62
     7
100
AcDbVertex
100
AcDb2dVertex
 10
129.7950884797083
 20
286.0239907354902
 30
0.0
  0
VERTEX
  5
40D
330
404
100
AcDbEntity
  8
STANDARDEBENE
 62
     7
100
AcDbVertex
100
AcDb2dVertex
 10
129.7950884797083
 20
284.591714390348
 30
0.0
  0
VERTEX
  5
40E
330
404
100
AcDbEntity
  8
STANDARDEBENE
 62
     7
100
AcDbVertex
100
AcDb2dVertex
 10
129.7950884797083
 20
283.1594380452059
 30
0.0
  0
VERTEX
  5
40F
330
404
100
AcDbEntity
  8
STANDARDEBENE
 62
     7
100
AcDbVertex
100
AcDb2dVertex
 10
129.7950884797083
 20
283.0006882039959
 30
0.0
  0
VERTEX
  5
410
330
404
100
AcDbEntity
  8
STANDARDEBENE
 62
     7
100
AcDbVertex
100
AcDb2dVertex
 10
129.7950884797083
 20
281.2614954991805
 30
0.0
  0
VERTEX
  5
411
330
404
100
AcDbEntity
  8
STANDARDEBENE
 62
     7
100
AcDbVertex
100
AcDb2dVertex
 10
129.7950884797083
 20
279.3953029213972
 30
0.0
  0
VERTEX
  5
412
330
404
100
AcDbEntity
  8
STANDARDEBENE
 62
     7
100
AcDbVertex
100
AcDb2dVertex
 10
129.7950884797083
 20
277.4091660191439
 30
0.0
  0
VERTEX
  5
413
330
404
100
AcDbEntity
  8
STANDARDEBENE
 62
     7
100
AcDbVertex
100
AcDb2dVertex
 10
129.7950884797083
 20
275.3171958894168
 30
0.0
  0
VERTEX
  5
414
330
404
100
AcDbEntity
  8
STANDARDEBENE
 62
     7
100
AcDbVertex
100
AcDb2dVertex
 10
129.7950884797083
 20
273.1440869519599
 30
0.0
  0
VERTEX
  5
415
330
404
100
AcDbEntity
  8
STANDARDEBENE
 62
     7
100
AcDbVertex
100
AcDb2dVertex
 10
129.7950884797083
 20
270.8968947552717
 30
0.0
  0
VERTEX
  5
416
330
404
100
AcDbEntity
  8
STANDARDEBENE
 62
     7
100
AcDbVertex
100
AcDb2dVertex
 10
129.7950884797083
 20
268.5967859448469
 30
0.0
  0
VERTEX
  5
417
330
404
100
AcDbEntity
  8
STANDARDEBENE
 62
     7
100
AcDbVertex
100
AcDb2dVertex
 10
129.7950884797083
 20
266.2613993919305
 30
0.0
  0
VERTEX
  5
418
330
404
100
AcDbEntity
  8
STANDARDEBENE
 62
     7
100
AcDbVertex
100
AcDb2dVertex
 10
129.7950884797083
 20
263.9083739677689
 30
0.0
  0
SEQEND
  5
419
330
404
100
AcDbEntity
  8
STANDARDEBENE
 62
     7
  0
POLYLINE
  5
41A
330
4A
100
AcDbEntity
  8
STANDARDEBENE
 62
     7
100
AcDb2dPolyline
 66
     1
 10
0.0
 20
0.0
 30
0.0
  0
VERTEX
  5
41B
330
41A
100
AcDbEntity
  8
STANDARDEBENE
 62
     7
100
AcDbVertex
100
AcDb2dVertex
 10
129.9961716119078
 20
244.6573098903319
 30
0.0
  0
VERTEX
  5
41C
330
41A
100
AcDbEntity
  8
STANDARDEBENE
 62
     7
100
AcDbVertex
100
AcDb2dVertex
 10
129.9961716119078
 20
244.763143117805
 30
0.0
  0
VERTEX
  5
41D
330
41A
100
AcDbEntity
  8
STANDARDEBENE
 62
     7
100
AcDbVertex
100
AcDb2dVertex
 10
129.9961716119078
 20
245.0806428002257
 30
0.0
  0
VERTEX
  5
41E
330
41A
100
AcDbEntity
  8
STANDARDEBENE
 62
     7
100
AcDbVertex
100
AcDb2dVertex
 10
129.9961716119078
 20
245.5992256148459
 30
0.0
  0
VERTEX
  5
41F
330
41A
100
AcDbEntity
  8
STANDARDEBENE
 62
     7
100
AcDbVertex
100
AcDb2dVertex
 10
129.9961716119078
 20
246.3224193359151
 30
0.0
  0
VERTEX
  5
420
330
41A
100
AcDbEntity
  8
STANDARDEBENE
 62
     7
100
AcDbVertex
100
AcDb2dVertex
 10
129.9961716119078
 20
247.2361128664371
 30
0.0
  0
VERTEX
  5
421
330
41A
100
AcDbEntity
  8
STANDARDEBENE
 62
     7
100
AcDbVertex
100
AcDb2dVertex
 10
129.9961716119078
 20
248.3332506579127
 30
0.0
  0
VERTEX
  5
422
330
41A
100
AcDbEntity
  8
STANDARDEBENE
 62
     7
100
AcDbVertex
100
AcDb2dVertex
 10
129.9961716119078
 20
249.6032493875953
 30
0.0
  0
VERTEX
  5
423
330
41A
100
AcDbEntity
  8
STANDARDEBENE
 62
     7
100
AcDbVertex
100
AcDb2dVertex
 10
129.9961716119078
 20
251.028470184239
 30
0.0
  0
VERTEX
  5
424
330
41A
100
AcDbEntity
  8
STANDARDEBENE
 62
     7
100
AcDbVertex
100
AcDb2dVertex
 10
129.9961716119078
 20
252.5912741765979
 30
0.0
  0
VERTEX
  5
425
330
41A
100
AcDbEntity
  8
STANDARDEBENE
 62
     7
100
AcDbVertex
100
AcDb2dVertex
 10
129.9961716119078
 20
254.2846058161749
 30
0.0
  0
VERTEX
  5
426
330
41A
100
AcDbEntity
  8
STANDARDEBENE
 62
     7
100
AcDbVertex
100
AcDb2dVertex
 10
129.9961716119078
 20
256.0767151347266
 30
0.0
  0
VERTEX
  5
427
330
41A
100
AcDbEntity
  8
STANDARDEBENE
 62
     7
100
AcDbVertex
100
AcDb2dVertex
 10
129.9961716119078
 20
257.9605465837557
 30
0.0
  0
VERTEX
  5
428
330
41A
100
AcDbEntity
  8
STANDARDEBENE
 62
     7
100
AcDbVertex
100
AcDb2dVertex
 10
129.9961716119078
 20
259.9043501950198
 30
0.0
  0
VERTEX
  5
429
330
41A
100
AcDbEntity
  8
STANDARDEBENE
 62
     7
100
AcDbVertex
100
AcDb2dVertex
 10
129.9961716119078
 20
261.8940148715224
 30
0.0
  0
VERTEX
  5
42A
330
41A
100
AcDbEntity
  8
STANDARDEBENE
 62
     7
100
AcDbVertex
100
AcDb2dVertex
 10
129.9961716119078
 20
263.9083739677689
 30
0.0
  0
VERTEX
  5
42B
330
41A
100
AcDbEntity
  8
STANDARDEBENE
 62
     7
100
AcDbVertex
100
AcDb2dVertex
 10
129.9961716119078
 20
265.9192052897659
 30
0.0
  0
VERTEX
  5
42C
330
41A
100
AcDbEntity
  8
STANDARDEBENE
 62
     7
100
AcDbVertex
100
AcDb2dVertex
 10
129.9961716119078
 20
267.9088699662688
 30
0.0
  0
VERTEX
  5
42D
330
41A
100
AcDbEntity
  8
STANDARDEBENE
 62
     7
100
AcDbVertex
100
AcDb2dVertex
 10
129.9961716119078
 20
269.8562013517819
 30
0.0
  0
VERTEX
  5
42E
330
41A
100
AcDbEntity
  8
STANDARDEBENE
 62
     7
100
AcDbVertex
100
AcDb2dVertex
 10
129.9961716119078
 20
271.7365050265618
 30
0.0
  0
VERTEX
  5
42F
330
41A
100
AcDbEntity
  8
STANDARDEBENE
 62
     7
100
AcDbVertex
100
AcDb2dVertex
 10
129.9961716119078
 20
273.532142119363
 30
0.0
  0
VERTEX
  5
430
330
41A
100
AcDbEntity
  8
STANDARDEBENE
 62
     7
100
AcDbVertex
100
AcDb2dVertex
 10
129.9961716119078
 20
275.2219459846904
 30
0.0
  0
VERTEX
  5
431
330
41A
100
AcDbEntity
  8
STANDARDEBENE
 62
     7
100
AcDbVertex
100
AcDb2dVertex
 10
129.9961716119078
 20
276.7882777512989
 30
0.0
  0
VERTEX
  5
432
330
41A
100
AcDbEntity
  8
STANDARDEBENE
 62
     7
100
AcDbVertex
100
AcDb2dVertex
 10
129.9961716119078
 20
278.2134985479425
 30
0.0
  0
VERTEX
  5
433
330
41A
100
AcDbEntity
  8
STANDARDEBENE
 62
     7
100
AcDbVertex
100
AcDb2dVertex
 10
129.9961716119078
 20
279.4834972776251
 30
0.0
  0
VERTEX
  5
434
330
41A
100
AcDbEntity
  8
STANDARDEBENE
 62
     7
100
AcDbVertex
100
AcDb2dVertex
 10
129.9961716119078
 20
280.5806350691008
 30
0.0
  0
VERTEX
  5
435
330
41A
100
AcDbEntity
  8
STANDARDEBENE
 62
     7
100
AcDbVertex
100
AcDb2dVertex
 10
129.9961716119078
 20
281.4943285996225
 30
0.0
  0
VERTEX
  5
436
330
41A
100
AcDbEntity
  8
STANDARDEBENE
 62
     7
100
AcDbVertex
100
AcDb2dVertex
 10
129.9961716119078
 20
282.2139945464424
 30
0.0
  0
VERTEX
  5
437
330
41A
100
AcDbEntity
  8
STANDARDEBENE
 62
     7
100
AcDbVertex
100
AcDb2dVertex
 10
129.9961716119078
 20
282.7361051353121
 30
0.0
  0
VERTEX
  5
438
330
41A
100
AcDbEntity
  8
STANDARDEBENE
 62
     7
100
AcDbVertex
100
AcDb2dVertex
 10
129.9961716119078
 20
283.0536048177328
 30
0.0
  0
VERTEX
  5
439
330
41A
100
AcDbEntity
  8
STANDARDEBENE
 62
     7
100
AcDbVertex
100
AcDb2dVertex
 10
129.9961716119078
 20
283.1594380452059
 30
0.0
  0
SEQEND
  5
43A
330
41A
100
AcDbEntity
  8
STANDARDEBENE
 62
     7
  0
POLYLINE
  5
43B
330
4A
100
AcDbEntity
  8
STANDARDEBENE
  6
AI-LINETYPE-1
 62
   250
100
AcDb2dPolyline
 66
     1
 10
0.0
 20
0.0
 30
0.0
  0
VERTEX
  5
43C
330
43B
100
AcDbEntity
  8
STANDARDEBENE
  6
AI-LINETYPE-1
 62
   250
100
AcDbVertex
100
AcDb2dVertex
 10
34.30882287883006
 20
296.2122027669428
 30
0.0
  0
VERTEX
  5
43D
330
43B
100
AcDbEntity
  8
STANDARDEBENE
  6
AI-LINETYPE-1
 62
   250
100
AcDbVertex
100
AcDb2dVertex
 10
34.30882287883006
 20
293.9191495050162
 30
0.0
  0
VERTEX
  5
43E
330
43B
100
AcDbEntity
  8
STANDARDEBENE
  6
AI-LINETYPE-1
 62
   250
100
AcDbVertex
100
AcDb2dVertex
 10
34.30882287883006
 20
292.9066782955192
 30
0.0
  0
VERTEX
  5
43F
330
43B
100
AcDbEntity
  8
STANDARDEBENE
  6
AI-LINETYPE-1
 62
   250
100
AcDbVertex
100
AcDb2dVertex
 10
34.30882287883006
 20
290.9064302962693
 30
0.0
  0
VERTEX
  5
440
330
43B
100
AcDbEntity
  8
STANDARDEBENE
  6
AI-LINETYPE-1
 62
   250
100
AcDbVertex
100
AcDb2dVertex
 10
34.30882287883006
 20
283.4063822426444
 30
0.0
  0
VERTEX
  5
441
330
43B
100
AcDbEntity
  8
STANDARDEBENE
  6
AI-LINETYPE-1
 62
   250
100
AcDbVertex
100
AcDb2dVertex
 10
34.30882287883006
 20
283.1594380452059
 30
0.0
  0
VERTEX
  5
442
330
43B
100
AcDbEntity
  8
STANDARDEBENE
  6
AI-LINETYPE-1
 62
   250
100
AcDbVertex
100
AcDb2dVertex
 10
34.30882287883006
 20
275.9098619632686
 30
0.0
  0
VERTEX
  5
443
330
43B
100
AcDbEntity
  8
STANDARDEBENE
  6
AI-LINETYPE-1
 62
   250
100
AcDbVertex
100
AcDb2dVertex
 10
34.30882287883006
 20
275.4089180198936
 30
0.0
  0
VERTEX
  5
444
330
43B
100
AcDbEntity
  8
STANDARDEBENE
  6
AI-LINETYPE-1
 62
   250
100
AcDbVertex
100
AcDb2dVertex
 10
34.30882287883006
 20
274.907974076519
 30
0.0
  0
VERTEX
  5
445
330
43B
100
AcDbEntity
  8
STANDARDEBENE
  6
AI-LINETYPE-1
 62
   250
100
AcDbVertex
100
AcDb2dVertex
 10
34.30882287883006
 20
273.6591419923311
 30
0.0
  0
VERTEX
  5
446
330
43B
100
AcDbEntity
  8
STANDARDEBENE
  6
AI-LINETYPE-1
 62
   250
100
AcDbVertex
100
AcDb2dVertex
 10
34.30882287883006
 20
271.4825052806253
 30
0.0
  0
VERTEX
  5
447
330
43B
100
AcDbEntity
  8
STANDARDEBENE
  6
AI-LINETYPE-1
 62
   250
100
AcDbVertex
100
AcDb2dVertex
 10
34.30882287883006
 20
263.9083739677689
 30
0.0
  0
VERTEX
  5
448
330
43B
100
AcDbEntity
  8
STANDARDEBENE
  6
AI-LINETYPE-1
 62
   250
100
AcDbVertex
100
AcDb2dVertex
 10
34.30882287883006
 20
256.3342426549125
 30
0.0
  0
VERTEX
  5
449
330
43B
100
AcDbEntity
  8
STANDARDEBENE
  6
AI-LINETYPE-1
 62
   250
100
AcDbVertex
100
AcDb2dVertex
 10
34.30882287883006
 20
254.1576059432064
 30
0.0
  0
VERTEX
  5
44A
330
43B
100
AcDbEntity
  8
STANDARDEBENE
  6
AI-LINETYPE-1
 62
   250
100
AcDbVertex
100
AcDb2dVertex
 10
34.30882287883006
 20
252.9087738590185
 30
0.0
  0
VERTEX
  5
44B
330
43B
100
AcDbEntity
  8
STANDARDEBENE
  6
AI-LINETYPE-1
 62
   250
100
AcDbVertex
100
AcDb2dVertex
 10
34.30882287883006
 20
252.4078299156442
 30
0.0
  0
VERTEX
  5
44C
330
43B
100
AcDbEntity
  8
STANDARDEBENE
  6
AI-LINETYPE-1
 62
   250
100
AcDbVertex
100
AcDb2dVertex
 10
34.30882287883006
 20
251.9068859722693
 30
0.0
  0
VERTEX
  5
44D
330
43B
100
AcDbEntity
  8
STANDARDEBENE
  6
AI-LINETYPE-1
 62
   250
100
AcDbVertex
100
AcDb2dVertex
 10
34.30882287883006
 20
244.6573098903319
 30
0.0
  0
VERTEX
  5
44E
330
43B
100
AcDbEntity
  8
STANDARDEBENE
  6
AI-LINETYPE-1
 62
   250
100
AcDbVertex
100
AcDb2dVertex
 10
34.30882287883006
 20
244.4068379186445
 30
0.0
  0
VERTEX
  5
44F
330
43B
100
AcDbEntity
  8
STANDARDEBENE
  6
AI-LINETYPE-1
 62
   250
100
AcDbVertex
100
AcDb2dVertex
 10
34.30882287883006
 20
236.906789865019
 30
0.0
  0
VERTEX
  5
450
330
43B
100
AcDbEntity
  8
STANDARDEBENE
  6
AI-LINETYPE-1
 62
   250
100
AcDbVertex
100
AcDb2dVertex
 10
34.30882287883006
 20
234.9065418657694
 30
0.0
  0
VERTEX
  5
451
330
43B
100
AcDbEntity
  8
STANDARDEBENE
  6
AI-LINETYPE-1
 62
   250
100
AcDbVertex
100
AcDb2dVertex
 10
34.30882287883006
 20
233.8940706562727
 30
0.0
  0
VERTEX
  5
452
330
43B
100
AcDbEntity
  8
STANDARDEBENE
  6
AI-LINETYPE-1
 62
   250
100
AcDbVertex
100
AcDb2dVertex
 10
34.30882287883006
 20
230.1017133384708
 30
0.0
  0
SEQEND
  5
454
330
43B
100
AcDbEntity
  8
STANDARDEBENE
  6
AI-LINETYPE-1
 62
   250
  0
POLYLINE
  5
455
330
4A
100
AcDbEntity
  8
STANDARDEBENE
  6
AI-LINETYPE-2
 62
   250
100
AcDb2dPolyline
 66
     1
 10
0.0
 20
0.0
 30
0.0
  0
VERTEX
  5
456
330
455
100
AcDbEntity
  8
STANDARDEBENE
  6
AI-LINETYPE-2
 62
   250
100
AcDbVertex
100
AcDb2dVertex
 10
0.3469401825702415
 20
263.9083739677689
 30
0.0
  0
VERTEX
  5
457
330
455
100
AcDbEntity
  8
STANDARDEBENE
  6
AI-LINETYPE-2
 62
   250
100
AcDbVertex
100
AcDb2dVertex
 10
4.294519567333563
 20
263.9083739677689
 30
0.0
  0
VERTEX
  5
458
330
455
100
AcDbEntity
  8
STANDARDEBENE
  6
AI-LINETYPE-2
 62
   250
100
AcDbVertex
100
AcDb2dVertex
 10
4.308630664329852
 20
263.9083739677689
 30
0.0
  0
VERTEX
  5
459
330
455
100
AcDbEntity
  8
STANDARDEBENE
  6
AI-LINETYPE-2
 62
   250
100
AcDbVertex
100
AcDb2dVertex
 10
5.306990776830526
 20
263.9083739677689
 30
0.0
  0
VERTEX
  5
45A
330
455
100
AcDbEntity
  8
STANDARDEBENE
  6
AI-LINETYPE-2
 62
   250
100
AcDbVertex
100
AcDb2dVertex
 10
7.307238776080467
 20
263.9083739677689
 30
0.0
  0
VERTEX
  5
45B
330
455
100
AcDbEntity
  8
STANDARDEBENE
  6
AI-LINETYPE-2
 62
   250
100
AcDbVertex
100
AcDb2dVertex
 10
14.80728682970528
 20
263.9083739677689
 30
0.0
  0
VERTEX
  5
45C
330
455
100
AcDbEntity
  8
STANDARDEBENE
  6
AI-LINETYPE-2
 62
   250
100
AcDbVertex
100
AcDb2dVertex
 10
15.05775880139275
 20
263.9083739677689
 30
0.0
  0
VERTEX
  5
45D
330
455
100
AcDbEntity
  8
STANDARDEBENE
  6
AI-LINETYPE-2
 62
   250
100
AcDbVertex
100
AcDb2dVertex
 10
17.65772842299263
 20
263.9083739677689
 30
0.0
  0
VERTEX
  5
45E
330
455
100
AcDbEntity
  8
STANDARDEBENE
  6
AI-LINETYPE-2
 62
   250
100
AcDbVertex
100
AcDb2dVertex
 10
19.30519899733088
 20
263.9083739677689
 30
0.0
  0
VERTEX
  5
45F
330
455
100
AcDbEntity
  8
STANDARDEBENE
  6
AI-LINETYPE-2
 62
   250
100
AcDbVertex
100
AcDb2dVertex
 10
20.95619734591805
 20
263.9083739677689
 30
0.0
  0
VERTEX
  5
460
330
455
100
AcDbEntity
  8
STANDARDEBENE
  6
AI-LINETYPE-2
 62
   250
100
AcDbVertex
100
AcDb2dVertex
 10
22.30733488333041
 20
263.9083739677689
 30
0.0
  0
VERTEX
  5
461
330
455
100
AcDbEntity
  8
STANDARDEBENE
  6
AI-LINETYPE-2
 62
   250
100
AcDbVertex
100
AcDb2dVertex
 10
22.80827882670504
 20
263.9083739677689
 30
0.0
  0
VERTEX
  5
462
330
455
100
AcDbEntity
  8
STANDARDEBENE
  6
AI-LINETYPE-2
 62
   250
100
AcDbVertex
100
AcDb2dVertex
 10
23.30922277007967
 20
263.9083739677689
 30
0.0
  0
VERTEX
  5
463
330
455
100
AcDbEntity
  8
STANDARDEBENE
  6
AI-LINETYPE-2
 62
   250
100
AcDbVertex
100
AcDb2dVertex
 10
24.55805485426751
 20
263.9083739677689
 30
0.0
  0
VERTEX
  5
464
330
455
100
AcDbEntity
  8
STANDARDEBENE
  6
AI-LINETYPE-2
 62
   250
100
AcDbVertex
100
AcDb2dVertex
 10
26.73116379172438
 20
263.9083739677689
 30
0.0
  0
VERTEX
  5
465
330
455
100
AcDbEntity
  8
STANDARDEBENE
  6
AI-LINETYPE-2
 62
   250
100
AcDbVertex
100
AcDb2dVertex
 10
34.30882287883006
 20
263.9083739677689
 30
0.0
  0
VERTEX
  5
466
330
455
100
AcDbEntity
  8
STANDARDEBENE
  6
AI-LINETYPE-2
 62
   250
100
AcDbVertex
100
AcDb2dVertex
 10
41.8829541916865
 20
263.9083739677689
 30
0.0
  0
VERTEX
  5
467
330
455
100
AcDbEntity
  8
STANDARDEBENE
  6
AI-LINETYPE-2
 62
   250
100
AcDbVertex
100
AcDb2dVertex
 10
44.05606312914306
 20
263.9083739677689
 30
0.0
  0
VERTEX
  5
468
330
455
100
AcDbEntity
  8
STANDARDEBENE
  6
AI-LINETYPE-2
 62
   250
100
AcDbVertex
100
AcDb2dVertex
 10
45.30842298758012
 20
263.9083739677689
 30
0.0
  0
VERTEX
  5
469
330
455
100
AcDbEntity
  8
STANDARDEBENE
  6
AI-LINETYPE-2
 62
   250
100
AcDbVertex
100
AcDb2dVertex
 10
45.80936693095475
 20
263.9083739677689
 30
0.0
  0
VERTEX
  5
46A
330
455
100
AcDbEntity
  8
STANDARDEBENE
  6
AI-LINETYPE-2
 62
   250
100
AcDbVertex
100
AcDb2dVertex
 10
47.65792063749251
 20
263.9083739677689
 30
0.0
  0
VERTEX
  5
46B
330
455
100
AcDbEntity
  8
STANDARDEBENE
  6
AI-LINETYPE-2
 62
   250
100
AcDbVertex
100
AcDb2dVertex
 10
49.30891898608
 20
263.9083739677689
 30
0.0
  0
VERTEX
  5
46C
330
455
100
AcDbEntity
  8
STANDARDEBENE
  6
AI-LINETYPE-2
 62
   250
100
AcDbVertex
100
AcDb2dVertex
 10
50.95638956041793
 20
263.9083739677689
 30
0.0
  0
VERTEX
  5
46D
330
455
100
AcDbEntity
  8
STANDARDEBENE
  6
AI-LINETYPE-2
 62
   250
100
AcDbVertex
100
AcDb2dVertex
 10
53.55635918201813
 20
263.9083739677689
 30
0.0
  0
VERTEX
  5
46E
330
455
100
AcDbEntity
  8
STANDARDEBENE
  6
AI-LINETYPE-2
 62
   250
100
AcDbVertex
100
AcDb2dVertex
 10
53.80683115370528
 20
263.9083739677689
 30
0.0
  0
VERTEX
  5
46F
330
455
100
AcDbEntity
  8
STANDARDEBENE
  6
AI-LINETYPE-2
 62
   250
100
AcDbVertex
100
AcDb2dVertex
 10
61.30687920733041
 20
263.9083739677689
 30
0.0
  0
VERTEX
  5
470
330
455
100
AcDbEntity
  8
STANDARDEBENE
  6
AI-LINETYPE-2
 62
   250
100
AcDbVertex
100
AcDb2dVertex
 10
63.30712720658035
 20
263.9083739677689
 30
0.0
  0
VERTEX
  5
471
330
455
100
AcDbEntity
  8
STANDARDEBENE
  6
AI-LINETYPE-2
 62
   250
100
AcDbVertex
100
AcDb2dVertex
 10
64.30901509332995
 20
263.9083739677689
 30
0.0
  0
VERTEX
  5
472
330
455
100
AcDbEntity
  8
STANDARDEBENE
  6
AI-LINETYPE-2
 62
   250
100
AcDbVertex
100
AcDb2dVertex
 10
66.17873544536245
 20
263.9083739677689
 30
0.0
  0
SEQEND
  5
474
330
455
100
AcDbEntity
  8
STANDARDEBENE
  6
AI-LINETYPE-2
 62
   250
  0
POLYLINE
  5
475
330
4A
100
AcDbEntity
  8
STANDARDEBENE
  6
AI-LINETYPE-3
 62
   250
100
AcDb2dPolyline
 66
     1
 10
0.0
 20
0.0
 30
0.0
  0
VERTEX
  5
476
330
475
100
AcDbEntity
  8
STANDARDEBENE
  6
AI-LINETYPE-3
 62
   250
100
AcDbVertex
100
AcDb2dVertex
 10
108.1733601068642
 20
263.9083739677689
 30
0.0
  0
VERTEX
  5
477
330
475
100
AcDbEntity
  8
STANDARDEBENE
  6
AI-LINETYPE-3
 62
   250
100
AcDbVertex
100
AcDb2dVertex
 10
109.7961362614584
 20
263.9083739677689
 30
0.0
  0
VERTEX
  5
478
330
475
100
AcDbEntity
  8
STANDARDEBENE
  6
AI-LINETYPE-3
 62
   250
100
AcDbVertex
100
AcDb2dVertex
 10
115.7968802592079
 20
263.9083739677689
 30
0.0
  0
VERTEX
  5
479
330
475
100
AcDbEntity
  8
STANDARDEBENE
  6
AI-LINETYPE-3
 62
   250
100
AcDbVertex
100
AcDb2dVertex
 10
117.0457123433958
 20
263.9083739677689
 30
0.0
  0
VERTEX
  5
47A
330
475
100
AcDbEntity
  8
STANDARDEBENE
  6
AI-LINETYPE-3
 62
   250
100
AcDbVertex
100
AcDb2dVertex
 10
117.3455731545706
 20
263.9083739677689
 30
0.0
  0
VERTEX
  5
47B
330
475
100
AcDbEntity
  8
STANDARDEBENE
  6
AI-LINETYPE-3
 62
   250
100
AcDbVertex
100
AcDb2dVertex
 10
118.2945444275836
 20
263.9083739677689
 30
0.0
  0
VERTEX
  5
47C
330
475
100
AcDbEntity
  8
STANDARDEBENE
  6
AI-LINETYPE-3
 62
   250
100
AcDbVertex
100
AcDb2dVertex
 10
118.5450163992711
 20
263.9083739677689
 30
0.0
  0
VERTEX
  5
47D
330
475
100
AcDbEntity
  8
STANDARDEBENE
  6
AI-LINETYPE-3
 62
   250
100
AcDbVertex
100
AcDb2dVertex
 10
121.0462083418956
 20
263.9083739677689
 30
0.0
  0
VERTEX
  5
47E
330
475
100
AcDbEntity
  8
STANDARDEBENE
  6
AI-LINETYPE-3
 62
   250
100
AcDbVertex
100
AcDb2dVertex
 10
122.2456515865955
 20
263.9083739677689
 30
0.0
  0
VERTEX
  5
47F
330
475
100
AcDbEntity
  8
STANDARDEBENE
  6
AI-LINETYPE-3
 62
   250
100
AcDbVertex
100
AcDb2dVertex
 10
122.5102346552799
 20
263.9083739677689
 30
0.0
  0
VERTEX
  5
480
330
475
100
AcDbEntity
  8
STANDARDEBENE
  6
AI-LINETYPE-3
 62
   250
100
AcDbVertex
100
AcDb2dVertex
 10
123.7943444819581
 20
263.9083739677689
 30
0.0
  0
VERTEX
  5
481
330
475
100
AcDbEntity
  8
STANDARDEBENE
  6
AI-LINETYPE-3
 62
   250
100
AcDbVertex
100
AcDb2dVertex
 10
127.7948404804587
 20
263.9083739677689
 30
0.0
  0
VERTEX
  5
482
330
475
100
AcDbEntity
  8
STANDARDEBENE
  6
AI-LINETYPE-3
 62
   250
100
AcDbVertex
100
AcDb2dVertex
 10
129.7950884797083
 20
263.9083739677689
 30
0.0
  0
VERTEX
  5
483
330
475
100
AcDbEntity
  8
STANDARDEBENE
  6
AI-LINETYPE-3
 62
   250
100
AcDbVertex
100
AcDb2dVertex
 10
129.9961716119078
 20
263.9083739677689
 30
0.0
  0
VERTEX
  5
484
330
475
100
AcDbEntity
  8
STANDARDEBENE
  6
AI-LINETYPE-3
 62
   250
100
AcDbVertex
100
AcDb2dVertex
 10
132.899529818932
 20
263.9083739677689
 30
0.0
  0
SEQEND
  5
486
330
475
100
AcDbEntity
  8
STANDARDEBENE
  6
AI-LINETYPE-3
 62
   250
  0
POLYLINE
  5
487
330
4A
100
AcDbEntity
  8
STANDARDEBENE
 62
     7
100
AcDb2dPolyline
 66
     1
 10
0.0
 20
0.0
 30
0.0
  0
VERTEX
  5
488
330
487
100
AcDbEntity
  8
STANDARDEBENE
 62
     7
100
AcDbVertex
100
AcDb2dVertex
 10
4.417991666052525
 20
266.4660102983793
 30
0.0
  0
VERTEX
  5
489
330
487
100
AcDbEntity
  8
STANDARDEBENE
 62
     7
100
AcDbVertex
100
AcDb2dVertex
 10
4.407408343305149
 20
266.4554269756319
 30
0.0
  0
VERTEX
  5
48A
330
487
100
AcDbEntity
  8
STANDARDEBENE
 62
     7
100
AcDbVertex
100
AcDb2dVertex
 10
4.308630664329852
 20
266.3566492966566
 30
0.0
  0
SEQEND
  5
48B
330
487
100
AcDbEntity
  8
STANDARDEBENE
 62
     7
  0
POLYLINE
  5
48C
330
4A
100
AcDbEntity
  8
STANDARDEBENE
 62
     7
100
AcDb2dPolyline
 66
     1
 10
0.0
 20
0.0
 30
0.0
  0
VERTEX
  5
48D
330
48C
100
AcDbEntity
  8
STANDARDEBENE
 62
     7
100
AcDbVertex
100
AcDb2dVertex
 10
4.308630664329852
 20
261.4565708646317
 30
0.0
  0
VERTEX
  5
48E
330
48C
100
AcDbEntity
  8
STANDARDEBENE
 62
     7
100
AcDbVertex
100
AcDb2dVertex
 10
4.403880569056238
 20
261.3613209599056
 30
0.0
  0
VERTEX
  5
48F
330
48C
100
AcDbEntity
  8
STANDARDEBENE
 62
     7
100
AcDbVertex
100
AcDb2dVertex
 10
4.417991666052525
 20
261.347209862909
 30
0.0
  0
SEQEND
  5
490
330
48C
100
AcDbEntity
  8
STANDARDEBENE
 62
     7
  0
SPLINE
  5
491
330
4A
100
AcDbEntity
  8
STANDARDEBENE
 62
     7
100
AcDbSpline
210
0.0
220
0.0
230
1.0
 70
     8
 71
     3
 72
    17
 73
    13
 74
     0
 42
0.0000000001
 43
0.0000000001
 12
1.0
 22
0.0
 32
0.0
 13
1.0
 23
0.0
 33
0.0
 40
0.0
 40
0.0
 40
0.0
 40
0.0
 40
1.0
 40
1.0
 40
1.0
 40
2.0
 40
2.0
 40
2.0
 40
3.0
 40
3.0
 40
3.0
 40
4.0
 40
4.0
 40
4.0
 40
4.0
 10
37.4132642180538
 20
275.5006401503708
 30
0.0
 10
36.34787639482027
 20
275.7828620903001
 30
0.0
 10
35.27543302308828
 20
275.9169175117667
 30
0.0
 10
34.30882287883006
 20
275.9098619632686
 30
0.0
 10
27.68013506473709
 20
275.9098619632686
 30
0.0
 10
22.30733488333041
 20
270.5335340076123
 30
0.0
 10
22.30733488333041
 20
263.9083739677689
 30
0.0
 10
22.30733488333041
 20
257.2796861536759
 30
0.0
 10
27.68013506473709
 20
251.9068859722693
 30
0.0
 10
34.30882287883006
 20
251.9068859722693
 30
0.0
 10
39.82978957869968
 20
251.9068859722693
 30
0.0
 10
44.48292381328638
 20
255.6392711278358
 30
0.0
 10
45.89756128718267
 20
260.8004048542956
 30
0.0
  0
POLYLINE
  5
492
330
4A
100
AcDbEntity
  8
STANDARDEBENE
 62
     7
100
AcDb2dPolyline
 66
     1
 10
0.0
 20
0.0
 30
0.0
  0
VERTEX
  5
493
330
492
100
AcDbEntity
  8
STANDARDEBENE
 62
     7
100
AcDbVertex
100
AcDb2dVertex
 10
4.308630664329852
 20
261.4565708646317
 30
0.0
  0
VERTEX
  5
494
330
492
100
AcDbEntity
  8
STANDARDEBENE
 62
     7
100
AcDbVertex
100
AcDb2dVertex
 10
4.308630664329852
 20
261.5765151891017
 30
0.0
  0
VERTEX
  5
495
330
492
100
AcDbEntity
  8
STANDARDEBENE
 62
     7
100
AcDbVertex
100
AcDb2dVertex
 10
4.308630664329852
 20
261.9257648397645
 30
0.0
  0
VERTEX
  5
496
330
492
100
AcDbEntity
  8
STANDARDEBENE
 62
     7
100
AcDbVertex
100
AcDb2dVertex
 10
4.308630664329852
 20
262.4690420741287
 30
0.0
  0
VERTEX
  5
497
330
492
100
AcDbEntity
  8
STANDARDEBENE
 62
     7
100
AcDbVertex
100
AcDb2dVertex
 10
4.308630664329852
 20
263.0017359857454
 30
0.0
  0
VERTEX
  5
498
330
492
100
AcDbEntity
  8
STANDARDEBENE
 62
     7
100
AcDbVertex
100
AcDb2dVertex
 10
4.308630664329852
 20
263.1499025042087
 30
0.0
  0
VERTEX
  5
499
330
492
100
AcDbEntity
  8
STANDARDEBENE
 62
     7
100
AcDbVertex
100
AcDb2dVertex
 10
4.308630664329852
 20
263.9083739677689
 30
0.0
  0
VERTEX
  5
49A
330
492
100
AcDbEntity
  8
STANDARDEBENE
 62
     7
100
AcDbVertex
100
AcDb2dVertex
 10
4.308630664329852
 20
264.6668454313292
 30
0.0
  0
VERTEX
  5
49B
330
492
100
AcDbEntity
  8
STANDARDEBENE
 62
     7
100
AcDbVertex
100
AcDb2dVertex
 10
4.308630664329852
 20
264.7127064965676
 30
0.0
  0
VERTEX
  5
49C
330
492
100
AcDbEntity
  8
STANDARDEBENE
 62
     7
100
AcDbVertex
100
AcDb2dVertex
 10
4.308630664329852
 20
265.3477058614089
 30
0.0
  0
VERTEX
  5
49D
330
492
100
AcDbEntity
  8
STANDARDEBENE
 62
     7
100
AcDbVertex
100
AcDb2dVertex
 10
4.308630664329852
 20
265.8909830957733
 30
0.0
  0
VERTEX
  5
49E
330
492
100
AcDbEntity
  8
STANDARDEBENE
 62
     7
100
AcDbVertex
100
AcDb2dVertex
 10
4.308630664329852
 20
266.2367049721865
 30
0.0
  0
VERTEX
  5
49F
330
492
100
AcDbEntity
  8
STANDARDEBENE
 62
     7
100
AcDbVertex
100
AcDb2dVertex
 10
4.308630664329852
 20
266.3566492966566
 30
0.0
  0
SEQEND
  5
4A0
330
492
100
AcDbEntity
  8
STANDARDEBENE
 62
     7
  0
SPLINE
  5
4A1
330
4A
100
AcDbEntity
  8
STANDARDEBENE
 62
     7
100
AcDbSpline
210
0.0
220
0.0
230
1.0
 70
     8
 71
     3
 72
    11
 73
     7
 74
     0
 42
0.0000000001
 43
0.0000000001
 12
1.0
 22
0.0
 32
0.0
 13
1.0
 23
0.0
 33
0.0
 40
0.0
 40
0.0
 40
0.0
 40
0.0
 40
1.0
 40
1.0
 40
1.0
 40
2.0
 40
2.0
 40
2.0
 40
2.0
 10
119.0494881168943
 20
265.2101226656936
 30
0.0
 10
118.5697108190147
 20
264.9349562742622
 30
0.0
 10
118.2980722018325
 20
264.4340123308875
 30
0.0
 10
118.2945444275836
 20
263.9083739677689
 30
0.0
 10
118.2945444275836
 20
263.3545134106571
 30
0.0
 10
118.5944052387584
 20
262.871208338528
 30
0.0
 10
119.0494881168943
 20
262.6066252698442
 30
0.0
  0
SPLINE
  5
4A2
330
4A
100
AcDbEntity
  8
STANDARDEBENE
 62
     7
100
AcDbSpline
210
0.0
220
0.0
230
1.0
 70
     8
 71
     3
 72
     8
 73
     4
 74
     0
 42
0.0000000001
 43
0.0000000001
 12
1.0
 22
0.0
 32
0.0
 13
1.0
 23
0.0
 33
0.0
 40
0.0
 40
0.0
 40
0.0
 40
0.0
 40
1.0
 40
1.0
 40
1.0
 40
1.0
 10
120.5417366242718
 20
262.6066252698442
 30
0.0
 10
120.9015695976813
 20
262.8147639505422
 30
0.0
 10
121.1449860208709
 20
263.1463747299594
 30
0.0
 10
121.2437636998462
 20
263.5203188003659
 30
0.0
  0
SPLINE
  5
4A3
330
4A
100
AcDbEntity
  8
STANDARDEBENE
 62
     7
100
AcDbSpline
210
0.0
220
0.0
230
1.0
 70
    11
 71
     3
 72
    17
 73
    13
 74
     0
 42
0.0000000001
 43
0.0000000001
 12
1.0
 22
0.0
 32
0.0
 13
1.0
 23
0.0
 33
0.0
 40
0.0
 40
0.0
 40
0.0
 40
0.0
 40
1.0
 40
1.0
 40
1.0
 40
2.0
 40
2.0
 40
2.0
 40
3.0
 40
3.0
 40
3.0
 40
4.0
 40
4.0
 40
4.0
 40
4.0
 10
122.2456515865955
 20
263.9083739677689
 30
0.0
 10
122.2456515865955
 20
265.259511505181
 30
0.0
 10
121.1485137951199
 20
266.3566492966566
 30
0.0
 10
119.7973762577078
 20
266.3566492966566
 30
0.0
 10
118.4427109460469
 20
266.3566492966566
 30
0.0
 10
117.3455731545706
 20
265.259511505181
 30
0.0
 10
117.3455731545706
 20
263.9083739677689
 30
0.0
 10
117.3455731545706
 20
262.5537086561073
 30
0.0
 10
118.4427109460469
 20
261.4565708646317
 30
0.0
 10
119.7973762577078
 20
261.4565708646317
 30
0.0
 10
121.1485137951199
 20
261.4565708646317
 30
0.0
 10
122.2456515865955
 20
262.5537086561073
 30
0.0
 10
122.2456515865955
 20
263.9083739677689
 30
0.0
  0
POLYLINE
  5
4A4
330
4A
100
AcDbEntity
  8
STANDARDEBENE
 62
     7
100
AcDb2dPolyline
 66
     1
 10
0.0
 20
0.0
 30
0.0
  0
VERTEX
  5
4A5
330
4A4
100
AcDbEntity
  8
STANDARDEBENE
 62
     7
100
AcDbVertex
100
AcDb2dVertex
 10
121.0462083418956
 20
263.1851802466997
 30
0.0
  0
VERTEX
  5
4A6
330
4A4
100
AcDbEntity
  8
STANDARDEBENE
 62
     7
100
AcDbVertex
100
AcDb2dVertex
 10
121.0462083418956
 20
263.9083739677689
 30
0.0
  0
VERTEX
  5
4A7
330
4A4
100
AcDbEntity
  8
STANDARDEBENE
 62
     7
100
AcDbVertex
100
AcDb2dVertex
 10
121.0462083418956
 20
264.6280399145889
 30
0.0
  0
SEQEND
  5
4A8
330
4A4
100
AcDbEntity
  8
STANDARDEBENE
 62
     7
  0
POLYLINE
  5
4A9
330
4A
100
AcDbEntity
  8
STANDARDEBENE
 62
     7
100
AcDb2dPolyline
 66
     1
 10
0.0
 20
0.0
 30
0.0
  0
VERTEX
  5
4AA
330
4A9
100
AcDbEntity
  8
STANDARDEBENE
 62
     7
100
AcDbVertex
100
AcDb2dVertex
 10
120.4253200740506
 20
262.8253472732895
 30
0.0
  0
VERTEX
  5
4AB
330
4A9
100
AcDbEntity
  8
STANDARDEBENE
 62
     7
100
AcDbVertex
100
AcDb2dVertex
 10
121.0462083418956
 20
263.1851802466997
 30
0.0
  0
SEQEND
  5
4AC
330
4A9
100
AcDbEntity
  8
STANDARDEBENE
 62
     7
  0
POLYLINE
  5
4AD
330
4A
100
AcDbEntity
  8
STANDARDEBENE
 62
     7
100
AcDb2dPolyline
 66
     1
 10
0.0
 20
0.0
 30
0.0
  0
VERTEX
  5
4AE
330
4AD
100
AcDbEntity
  8
STANDARDEBENE
 62
     7
100
AcDbVertex
100
AcDb2dVertex
 10
119.7973762577078
 20
262.4655142998794
 30
0.0
  0
VERTEX
  5
4AF
330
4AD
100
AcDbEntity
  8
STANDARDEBENE
 62
     7
100
AcDbVertex
100
AcDb2dVertex
 10
120.3794590088122
 20
262.8006528535459
 30
0.0
  0
SEQEND
  5
4B0
330
4AD
100
AcDbEntity
  8
STANDARDEBENE
 62
     7
  0
POLYLINE
  5
4B1
330
4A
100
AcDbEntity
  8
STANDARDEBENE
 62
     7
100
AcDb2dPolyline
 66
     1
 10
0.0
 20
0.0
 30
0.0
  0
VERTEX
  5
4B2
330
4B1
100
AcDbEntity
  8
STANDARDEBENE
 62
     7
100
AcDbVertex
100
AcDb2dVertex
 10
119.2223490551019
 20
265.0196228562409
 30
0.0
  0
VERTEX
  5
4B3
330
4B1
100
AcDbEntity
  8
STANDARDEBENE
 62
     7
100
AcDbVertex
100
AcDb2dVertex
 10
119.7973762577078
 20
265.3512336356581
 30
0.0
  0
SEQEND
  5
4B4
330
4B1
100
AcDbEntity
  8
STANDARDEBENE
 62
     7
  0
POLYLINE
  5
4B5
330
4A
100
AcDbEntity
  8
STANDARDEBENE
 62
     7
100
AcDb2dPolyline
 66
     1
 10
0.0
 20
0.0
 30
0.0
  0
VERTEX
  5
4B6
330
4B5
100
AcDbEntity
  8
STANDARDEBENE
 62
     7
100
AcDbVertex
100
AcDb2dVertex
 10
119.0953491821334
 20
262.871208338528
 30
0.0
  0
VERTEX
  5
4B7
330
4B5
100
AcDbEntity
  8
STANDARDEBENE
 62
     7
100
AcDbVertex
100
AcDb2dVertex
 10
118.5450163992711
 20
263.1851802466997
 30
0.0
  0
VERTEX
  5
4B8
330
4B5
100
AcDbEntity
  8
STANDARDEBENE
 62
     7
100
AcDbVertex
100
AcDb2dVertex
 10
118.5450163992711
 20
263.9083739677689
 30
0.0
  0
VERTEX
  5
4B9
330
4B5
100
AcDbEntity
  8
STANDARDEBENE
 62
     7
100
AcDbVertex
100
AcDb2dVertex
 10
118.5450163992711
 20
264.6280399145889
 30
0.0
  0
VERTEX
  5
4BA
330
4B5
100
AcDbEntity
  8
STANDARDEBENE
 62
     7
100
AcDbVertex
100
AcDb2dVertex
 10
119.0953491821334
 20
264.9455395970095
 30
0.0
  0
SEQEND
  5
4BB
330
4B5
100
AcDbEntity
  8
STANDARDEBENE
 62
     7
  0
POLYLINE
  5
4BC
330
4A
100
AcDbEntity
  8
STANDARDEBENE
 62
     7
100
AcDb2dPolyline
 66
     1
 10
0.0
 20
0.0
 30
0.0
  0
VERTEX
  5
4BD
330
4BC
100
AcDbEntity
  8
STANDARDEBENE
 62
     7
100
AcDbVertex
100
AcDb2dVertex
 10
119.7973762577078
 20
262.4655142998794
 30
0.0
  0
VERTEX
  5
4BE
330
4BC
100
AcDbEntity
  8
STANDARDEBENE
 62
     7
100
AcDbVertex
100
AcDb2dVertex
 10
119.204710183856
 20
262.8041806277948
 30
0.0
  0
SEQEND
  5
4BF
330
4BC
100
AcDbEntity
  8
STANDARDEBENE
 62
     7
  0
POLYLINE
  5
4C0
330
4A
100
AcDbEntity
  8
STANDARDEBENE
 62
     7
100
AcDb2dPolyline
 66
     1
 10
0.0
 20
0.0
 30
0.0
  0
VERTEX
  5
4C1
330
4C0
100
AcDbEntity
  8
STANDARDEBENE
 62
     7
100
AcDbVertex
100
AcDb2dVertex
 10
120.4676533650401
 20
264.9631784682551
 30
0.0
  0
VERTEX
  5
4C2
330
4C0
100
AcDbEntity
  8
STANDARDEBENE
 62
     7
100
AcDbVertex
100
AcDb2dVertex
 10
120.3618201375664
 20
265.0231506304901
 30
0.0
  0
VERTEX
  5
4C3
330
4C0
100
AcDbEntity
  8
STANDARDEBENE
 62
     7
100
AcDbVertex
100
AcDb2dVertex
 10
119.7973762577078
 20
265.3512336356581
 30
0.0
  0
SEQEND
  5
4C4
330
4C0
100
AcDbEntity
  8
STANDARDEBENE
 62
     7
  0
POLYLINE
  5
4C5
330
4A
100
AcDbEntity
  8
STANDARDEBENE
 62
     7
100
AcDb2dPolyline
 66
     1
 10
0.0
 20
0.0
 30
0.0
  0
VERTEX
  5
4C6
330
4C5
100
AcDbEntity
  8
STANDARDEBENE
 62
     7
100
AcDbVertex
100
AcDb2dVertex
 10
121.0462083418956
 20
264.6280399145889
 30
0.0
  0
VERTEX
  5
4C7
330
4C5
100
AcDbEntity
  8
STANDARDEBENE
 62
     7
100
AcDbVertex
100
AcDb2dVertex
 10
120.4958755590327
 20
264.9455395970095
 30
0.0
  0
SEQEND
  5
4C8
330
4C5
100
AcDbEntity
  8
STANDARDEBENE
 62
     7
  0
SPLINE
  5
4C9
330
4A
100
AcDbEntity
  8
STANDARDEBENE
 62
     7
100
AcDbSpline
210
0.0
220
0.0
230
1.0
 70
    11
 71
     3
 72
    44
 73
    40
 74
     0
 42
0.0000000001
 43
0.0000000001
 12
1.0
 22
0.0
 32
0.0
 13
1.0
 23
0.0
 33
0.0
 40
0.0
 40
0.0
 40
0.0
 40
0.0
 40
1.0
 40
1.0
 40
1.0
 40
2.0
 40
2.0
 40
2.0
 40
3.0
 40
3.0
 40
3.0
 40
4.0
 40
4.0
 40
4.0
 40
5.0
 40
5.0
 40
5.0
 40
6.0
 40
6.0
 40
6.0
 40
7.0
 40
7.0
 40
7.0
 40
8.0
 40
8.0
 40
8.0
 40
9.0
 40
9.0
 40
9.0
 40
10.0
 40
10.0
 40
10.0
 40
11.0
 40
11.0
 40
11.0
 40
12.0
 40
12.0
 40
12.0
 40
13.0
 40
13.0
 40
13.0
 40
13.0
 10
121.0462083418956
 20
263.9083739677689
 30
0.0
 10
121.0462083418956
 20
264.3422902004104
 30
0.0
 10
120.8274863384503
 20
264.719762045066
 30
0.0
 10
120.4958755590327
 20
264.9455395970095
 30
0.0
 10
120.4852922362853
 20
264.9525951455077
 30
0.0
 10
120.4782366877875
 20
264.9596506940061
 30
0.0
 10
120.4676533650401
 20
264.9631784682551
 30
0.0
 10
120.4323756225491
 20
264.9843451137498
 30
0.0
 10
120.3970978800581
 20
265.0055117592445
 30
0.0
 10
120.3618201375664
 20
265.0231506304901
 30
0.0
 10
120.192486973609
 20
265.1078172124688
 30
0.0
 10
120.0019871641569
 20
265.1572060519567
 30
0.0
 10
119.7973762577078
 20
265.1572060519567
 30
0.0
 10
119.5892375770099
 20
265.1572060519567
 30
0.0
 10
119.3916822190592
 20
265.1078172124688
 30
0.0
 10
119.2223490551019
 20
265.0196228562409
 30
0.0
 10
119.1800157641124
 20
264.9949284364972
 30
0.0
 10
119.1376824731229
 20
264.9702340167535
 30
0.0
 10
119.0953491821334
 20
264.9455395970095
 30
0.0
 10
118.7637384027164
 20
264.719762045066
 30
0.0
 10
118.5450163992711
 20
264.3422902004104
 30
0.0
 10
118.5450163992711
 20
263.9083739677689
 30
0.0
 10
118.5450163992711
 20
263.4744577351271
 30
0.0
 10
118.7637384027164
 20
263.0969858904718
 30
0.0
 10
119.0953491821334
 20
262.871208338528
 30
0.0
 10
119.1306269246244
 20
262.8500416930332
 30
0.0
 10
119.1659046671154
 20
262.8288750475388
 30
0.0
 10
119.204710183856
 20
262.8041806277948
 30
0.0
 10
119.3810988963119
 20
262.712458497318
 30
0.0
 10
119.5821820285114
 20
262.6595418835811
 30
0.0
 10
119.7973762577078
 20
262.6595418835811
 30
0.0
 10
120.0090427126547
 20
262.6595418835811
 30
0.0
 10
120.2065980706053
 20
262.7089307230687
 30
0.0
 10
120.3794590088122
 20
262.8006528535459
 30
0.0
 10
120.3935701058085
 20
262.8112361762933
 30
0.0
 10
120.4076812028054
 20
262.8182917247914
 30
0.0
 10
120.4253200740506
 20
262.8253472732895
 30
0.0
 10
120.7957363702082
 20
263.0440692767349
 30
0.0
 10
121.0462083418956
 20
263.4462355411346
 30
0.0
 10
121.0462083418956
 20
263.9083739677689
 30
0.0
  0
ENDBLK
  5
4D
330
4A
100
AcDbEntity
  8
0
100
AcDbBlockEnd
  0
ENDSEC
  0
SECTION
  2
ENTITIES
  0
INSERT
  5
43
330
1F
100
AcDbEntity
  8
STANDARDEBENE
100
AcDbBlockReference
  2
BLOCK_2
 10
0.0
 20
0.0
 30
0.0
  0
POLYLINE
  5
4CB
330
1F
100
AcDbEntity
  8
BEMA_U_00DFUNG
 62
     7
100
AcDb2dPolyline
 66
     1
 10
0.0
 20
0.0
 30
0.0
  0
VERTEX
  5
4CC
330
4CB
100
AcDbEntity
  8
BEMA_U_00DFUNG
 62
     7
100
AcDbVertex
100
AcDb2dVertex
 10
4.307572332056012
 20
263.907668412919
 30
0.0
  0
VERTEX
  5
4CD
330
4CB
100
AcDbEntity
  8
BEMA_U_00DFUNG
 62
     7
100
AcDbVertex
100
AcDb2dVertex
 10
4.307572332056012
 20
221.4901236661695
 30
0.0
  0
SEQEND
  5
4CE
330
4CB
100
AcDbEntity
  8
BEMA_U_00DFUNG
 62
     7
  0
POLYLINE
  5
4CF
330
1F
100
AcDbEntity
  8
BEMA_U_00DFUNG
 62
     7
100
AcDb2dPolyline
 66
     1
 10
0.0
 20
0.0
 30
0.0
  0
VERTEX
  5
4D0
330
4CF
100
AcDbEntity
  8
BEMA_U_00DFUNG
 62
     7
100
AcDbVertex
100
AcDb2dVertex
 10
64.30795676105514
 20
263.907668412919
 30
0.0
  0
VERTEX
  5
4D1
330
4CF
100
AcDbEntity
  8
BEMA_U_00DFUNG
 62
     7
100
AcDbVertex
100
AcDb2dVertex
 10
64.30795676105514
 20
221.4901236661695
 30
0.0
  0
SEQEND
  5
4D2
330
4CF
100
AcDbEntity
  8
BEMA_U_00DFUNG
 62
     7
  0
POLYLINE
  5
4D3
330
1F
100
AcDbEntity
  8
BEMA_U_00DFUNG
 62
     7
100
AcDb2dPolyline
 66
     1
 10
0.0
 20
0.0
 30
0.0
  0
VERTEX
  5
4D4
330
4D3
100
AcDbEntity
  8
BEMA_U_00DFUNG
 62
     7
100
AcDbVertex
100
AcDb2dVertex
 10
4.307572332056012
 20
223.4896661105695
 30
0.0
  0
VERTEX
  5
4D5
330
4D3
100
AcDbEntity
  8
BEMA_U_00DFUNG
 62
     7
100
AcDbVertex
100
AcDb2dVertex
 10
64.30795676105514
 20
223.4896661105695
 30
0.0
  0
SEQEND
  5
4D6
330
4D3
100
AcDbEntity
  8
BEMA_U_00DFUNG
 62
     7
  0
POLYLINE
  5
4D7
330
1F
100
AcDbEntity
  8
BEMA_U_00DFUNG
 62
     7
100
AcDb2dPolyline
 66
     1
 10
0.0
 20
0.0
 30
0.0
  0
VERTEX
  5
4D8
330
4D7
100
AcDbEntity
  8
BEMA_U_00DFUNG
 62
     7
100
AcDbVertex
100
AcDb2dVertex
 10
4.307572332056012
 20
223.4896661105695
 30
0.0
  0
VERTEX
  5
4D9
330
4D7
100
AcDbEntity
  8
BEMA_U_00DFUNG
 62
     7
100
AcDbVertex
100
AcDb2dVertex
 10
6.807353164979995
 20
223.1608775505524
 30
0.0
  0
VERTEX
  5
4DA
330
4D7
100
AcDbEntity
  8
BEMA_U_00DFUNG
 62
     7
100
AcDbVertex
100
AcDb2dVertex
 10
6.807353164979995
 20
223.818807448012
 30
0.0
  0
VERTEX
  5
4DB
330
4D7
100
AcDbEntity
  8
BEMA_U_00DFUNG
 62
     7
100
AcDbVertex
100
AcDb2dVertex
 10
4.307572332056012
 20
223.4896661105695
 30
0.0
  0
SEQEND
  5
4DC
330
4D7
100
AcDbEntity
  8
BEMA_U_00DFUNG
 62
     7
  0
POLYLINE
  5
4DD
330
1F
100
AcDbEntity
  8
BEMA_U_00DFUNG
 62
     7
100
AcDb2dPolyline
 66
     1
 10
0.0
 20
0.0
 30
0.0
  0
VERTEX
  5
4DE
330
4DD
100
AcDbEntity
  8
BEMA_U_00DFUNG
 62
     7
100
AcDbVertex
100
AcDb2dVertex
 10
6.807353164979995
 20
223.1852191928712
 30
0.0
  0
VERTEX
  5
4DF
330
4DD
100
AcDbEntity
  8
BEMA_U_00DFUNG
 62
     7
100
AcDbVertex
100
AcDb2dVertex
 10
6.622850571751847
 20
223.1852191928712
 30
0.0
  0
SEQEND
  5
4E0
330
4DD
100
AcDbEntity
  8
BEMA_U_00DFUNG
 62
     7
  0
POLYLINE
  5
4E1
330
1F
100
AcDbEntity
  8
BEMA_U_00DFUNG
 62
     7
100
AcDb2dPolyline
 66
     1
 10
0.0
 20
0.0
 30
0.0
  0
VERTEX
  5
4E2
330
4E1
100
AcDbEntity
  8
BEMA_U_00DFUNG
 62
     7
100
AcDbVertex
100
AcDb2dVertex
 10
6.807353164979995
 20
223.1852191928712
 30
0.0
  0
VERTEX
  5
4E3
330
4E1
100
AcDbEntity
  8
BEMA_U_00DFUNG
 62
     7
100
AcDbVertex
100
AcDb2dVertex
 10
6.622850571751847
 20
223.1852191928712
 30
0.0
  0
SEQEND
  5
4E4
330
4E1
100
AcDbEntity
  8
BEMA_U_00DFUNG
 62
     7
  0
POLYLINE
  5
4E5
330
1F
100
AcDbEntity
  8
BEMA_U_00DFUNG
 62
     7
100
AcDb2dPolyline
 66
     1
 10
0.0
 20
0.0
 30
0.0
  0
VERTEX
  5
4E6
330
4E5
100
AcDbEntity
  8
BEMA_U_00DFUNG
 62
     7
100
AcDbVertex
100
AcDb2dVertex
 10
6.807353164979995
 20
223.2360191420579
 30
0.0
  0
VERTEX
  5
4E7
330
4E5
100
AcDbEntity
  8
BEMA_U_00DFUNG
 62
     7
100
AcDbVertex
100
AcDb2dVertex
 10
6.23726484632291
 20
223.2360191420579
 30
0.0
  0
SEQEND
  5
4E8
330
4E5
100
AcDbEntity
  8
BEMA_U_00DFUNG
 62
     7
  0
POLYLINE
  5
4E9
330
1F
100
AcDbEntity
  8
BEMA_U_00DFUNG
 62
     7
100
AcDb2dPolyline
 66
     1
 10
0.0
 20
0.0
 30
0.0
  0
VERTEX
  5
4EA
330
4E9
100
AcDbEntity
  8
BEMA_U_00DFUNG
 62
     7
100
AcDbVertex
100
AcDb2dVertex
 10
6.807353164979995
 20
223.286466313821
 30
0.0
  0
VERTEX
  5
4EB
330
4E9
100
AcDbEntity
  8
BEMA_U_00DFUNG
 62
     7
100
AcDbVertex
100
AcDb2dVertex
 10
5.85097356604496
 20
223.286466313821
 30
0.0
  0
SEQEND
  5
4EC
330
4E9
100
AcDbEntity
  8
BEMA_U_00DFUNG
 62
     7
  0
POLYLINE
  5
4ED
330
1F
100
AcDbEntity
  8
BEMA_U_00DFUNG
 62
     7
100
AcDb2dPolyline
 66
     1
 10
0.0
 20
0.0
 30
0.0
  0
VERTEX
  5
4EE
330
4ED
100
AcDbEntity
  8
BEMA_U_00DFUNG
 62
     7
100
AcDbVertex
100
AcDb2dVertex
 10
6.807353164979995
 20
223.3372662630082
 30
0.0
  0
VERTEX
  5
4EF
330
4ED
100
AcDbEntity
  8
BEMA_U_00DFUNG
 62
     7
100
AcDbVertex
100
AcDb2dVertex
 10
5.465387840616022
 20
223.3372662630082
 30
0.0
  0
SEQEND
  5
4F0
330
4ED
100
AcDbEntity
  8
BEMA_U_00DFUNG
 62
     7
  0
POLYLINE
  5
4F1
330
1F
100
AcDbEntity
  8
BEMA_U_00DFUNG
 62
     7
100
AcDb2dPolyline
 66
     1
 10
0.0
 20
0.0
 30
0.0
  0
VERTEX
  5
4F2
330
4F1
100
AcDbEntity
  8
BEMA_U_00DFUNG
 62
     7
100
AcDbVertex
100
AcDb2dVertex
 10
6.807353164979995
 20
223.3880662121955
 30
0.0
  0
VERTEX
  5
4F3
330
4F1
100
AcDbEntity
  8
BEMA_U_00DFUNG
 62
     7
100
AcDbVertex
100
AcDb2dVertex
 10
5.079096560338073
 20
223.3880662121955
 30
0.0
  0
SEQEND
  5
4F4
330
4F1
100
AcDbEntity
  8
BEMA_U_00DFUNG
 62
     7
  0
POLYLINE
  5
4F5
330
1F
100
AcDbEntity
  8
BEMA_U_00DFUNG
 62
     7
100
AcDb2dPolyline
 66
     1
 10
0.0
 20
0.0
 30
0.0
  0
VERTEX
  5
4F6
330
4F5
100
AcDbEntity
  8
BEMA_U_00DFUNG
 62
     7
100
AcDbVertex
100
AcDb2dVertex
 10
6.807353164979995
 20
223.4388661613828
 30
0.0
  0
VERTEX
  5
4F7
330
4F5
100
AcDbEntity
  8
BEMA_U_00DFUNG
 62
     7
100
AcDbVertex
100
AcDb2dVertex
 10
4.693863612333962
 20
223.4388661613828
 30
0.0
  0
SEQEND
  5
4F8
330
4F5
100
AcDbEntity
  8
BEMA_U_00DFUNG
 62
     7
  0
POLYLINE
  5
4F9
330
1F
100
AcDbEntity
  8
BEMA_U_00DFUNG
 62
     7
100
AcDb2dPolyline
 66
     1
 10
0.0
 20
0.0
 30
0.0
  0
VERTEX
  5
4FA
330
4F9
100
AcDbEntity
  8
BEMA_U_00DFUNG
 62
     7
100
AcDbVertex
100
AcDb2dVertex
 10
6.807353164979995
 20
223.4896661105695
 30
0.0
  0
VERTEX
  5
4FB
330
4F9
100
AcDbEntity
  8
BEMA_U_00DFUNG
 62
     7
100
AcDbVertex
100
AcDb2dVertex
 10
4.307572332056012
 20
223.4896661105695
 30
0.0
  0
SEQEND
  5
4FC
330
4F9
100
AcDbEntity
  8
BEMA_U_00DFUNG
 62
     7
  0
POLYLINE
  5
4FD
330
1F
100
AcDbEntity
  8
BEMA_U_00DFUNG
 62
     7
100
AcDb2dPolyline
 66
     1
 10
0.0
 20
0.0
 30
0.0
  0
VERTEX
  5
4FE
330
4FD
100
AcDbEntity
  8
BEMA_U_00DFUNG
 62
     7
100
AcDbVertex
100
AcDb2dVertex
 10
6.807353164979995
 20
223.7944658056938
 30
0.0
  0
VERTEX
  5
4FF
330
4FD
100
AcDbEntity
  8
BEMA_U_00DFUNG
 62
     7
100
AcDbVertex
100
AcDb2dVertex
 10
6.622850571751847
 20
223.7944658056938
 30
0.0
  0
SEQEND
  5
500
330
4FD
100
AcDbEntity
  8
BEMA_U_00DFUNG
 62
     7
  0
POLYLINE
  5
501
330
1F
100
AcDbEntity
  8
BEMA_U_00DFUNG
 62
     7
100
AcDb2dPolyline
 66
     1
 10
0.0
 20
0.0
 30
0.0
  0
VERTEX
  5
502
330
501
100
AcDbEntity
  8
BEMA_U_00DFUNG
 62
     7
100
AcDbVertex
100
AcDb2dVertex
 10
6.807353164979995
 20
223.7944658056938
 30
0.0
  0
VERTEX
  5
503
330
501
100
AcDbEntity
  8
BEMA_U_00DFUNG
 62
     7
100
AcDbVertex
100
AcDb2dVertex
 10
6.622850571751847
 20
223.7944658056938
 30
0.0
  0
SEQEND
  5
504
330
501
100
AcDbEntity
  8
BEMA_U_00DFUNG
 62
     7
  0
POLYLINE
  5
505
330
1F
100
AcDbEntity
  8
BEMA_U_00DFUNG
 62
     7
100
AcDb2dPolyline
 66
     1
 10
0.0
 20
0.0
 30
0.0
  0
VERTEX
  5
506
330
505
100
AcDbEntity
  8
BEMA_U_00DFUNG
 62
     7
100
AcDbVertex
100
AcDb2dVertex
 10
6.807353164979995
 20
223.7440186339313
 30
0.0
  0
VERTEX
  5
507
330
505
100
AcDbEntity
  8
BEMA_U_00DFUNG
 62
     7
100
AcDbVertex
100
AcDb2dVertex
 10
6.23726484632291
 20
223.7440186339313
 30
0.0
  0
SEQEND
  5
508
330
505
100
AcDbEntity
  8
BEMA_U_00DFUNG
 62
     7
  0
POLYLINE
  5
509
330
1F
100
AcDbEntity
  8
BEMA_U_00DFUNG
 62
     7
100
AcDb2dPolyline
 66
     1
 10
0.0
 20
0.0
 30
0.0
  0
VERTEX
  5
50A
330
509
100
AcDbEntity
  8
BEMA_U_00DFUNG
 62
     7
100
AcDbVertex
100
AcDb2dVertex
 10
6.807353164979995
 20
223.693218684744
 30
0.0
  0
VERTEX
  5
50B
330
509
100
AcDbEntity
  8
BEMA_U_00DFUNG
 62
     7
100
AcDbVertex
100
AcDb2dVertex
 10
5.85097356604496
 20
223.693218684744
 30
0.0
  0
SEQEND
  5
50C
330
509
100
AcDbEntity
  8
BEMA_U_00DFUNG
 62
     7
  0
POLYLINE
  5
50D
330
1F
100
AcDbEntity
  8
BEMA_U_00DFUNG
 62
     7
100
AcDb2dPolyline
 66
     1
 10
0.0
 20
0.0
 30
0.0
  0
VERTEX
  5
50E
330
50D
100
AcDbEntity
  8
BEMA_U_00DFUNG
 62
     7
100
AcDbVertex
100
AcDb2dVertex
 10
6.807353164979995
 20
223.6424187355568
 30
0.0
  0
VERTEX
  5
50F
330
50D
100
AcDbEntity
  8
BEMA_U_00DFUNG
 62
     7
100
AcDbVertex
100
AcDb2dVertex
 10
5.465387840616022
 20
223.6424187355568
 30
0.0
  0
SEQEND
  5
510
330
50D
100
AcDbEntity
  8
BEMA_U_00DFUNG
 62
     7
  0
POLYLINE
  5
511
330
1F
100
AcDbEntity
  8
BEMA_U_00DFUNG
 62
     7
100
AcDb2dPolyline
 66
     1
 10
0.0
 20
0.0
 30
0.0
  0
VERTEX
  5
512
330
511
100
AcDbEntity
  8
BEMA_U_00DFUNG
 62
     7
100
AcDbVertex
100
AcDb2dVertex
 10
6.807353164979995
 20
223.5916187863695
 30
0.0
  0
VERTEX
  5
513
330
511
100
AcDbEntity
  8
BEMA_U_00DFUNG
 62
     7
100
AcDbVertex
100
AcDb2dVertex
 10
5.079096560338073
 20
223.5916187863695
 30
0.0
  0
SEQEND
  5
514
330
511
100
AcDbEntity
  8
BEMA_U_00DFUNG
 62
     7
  0
POLYLINE
  5
515
330
1F
100
AcDbEntity
  8
BEMA_U_00DFUNG
 62
     7
100
AcDb2dPolyline
 66
     1
 10
0.0
 20
0.0
 30
0.0
  0
VERTEX
  5
516
330
515
100
AcDbEntity
  8
BEMA_U_00DFUNG
 62
     7
100
AcDbVertex
100
AcDb2dVertex
 10
6.807353164979995
 20
223.5408188371822
 30
0.0
  0
VERTEX
  5
517
330
515
100
AcDbEntity
  8
BEMA_U_00DFUNG
 62
     7
100
AcDbVertex
100
AcDb2dVertex
 10
4.693863612333962
 20
223.5408188371822
 30
0.0
  0
SEQEND
  5
518
330
515
100
AcDbEntity
  8
BEMA_U_00DFUNG
 62
     7
  0
POLYLINE
  5
519
330
1F
100
AcDbEntity
  8
BEMA_U_00DFUNG
 62
     7
100
AcDb2dPolyline
 66
     1
 10
0.0
 20
0.0
 30
0.0
  0
VERTEX
  5
51A
330
519
100
AcDbEntity
  8
BEMA_U_00DFUNG
 62
     7
100
AcDbVertex
100
AcDb2dVertex
 10
6.807353164979995
 20
223.4896661105695
 30
0.0
  0
VERTEX
  5
51B
330
519
100
AcDbEntity
  8
BEMA_U_00DFUNG
 62
     7
100
AcDbVertex
100
AcDb2dVertex
 10
4.307572332056012
 20
223.4896661105695
 30
0.0
  0
SEQEND
  5
51C
330
519
100
AcDbEntity
  8
BEMA_U_00DFUNG
 62
     7
  0
POLYLINE
  5
51D
330
1F
100
AcDbEntity
  8
BEMA_U_00DFUNG
 62
     7
100
AcDb2dPolyline
 66
     1
 10
0.0
 20
0.0
 30
0.0
  0
VERTEX
  5
51E
330
51D
100
AcDbEntity
  8
BEMA_U_00DFUNG
 62
     7
100
AcDbVertex
100
AcDb2dVertex
 10
64.30795676105514
 20
223.4896661105695
 30
0.0
  0
VERTEX
  5
51F
330
51D
100
AcDbEntity
  8
BEMA_U_00DFUNG
 62
     7
100
AcDbVertex
100
AcDb2dVertex
 10
61.80782315070505
 20
223.818807448012
 30
0.0
  0
VERTEX
  5
520
330
51D
100
AcDbEntity
  8
BEMA_U_00DFUNG
 62
     7
100
AcDbVertex
100
AcDb2dVertex
 10
61.80782315070505
 20
223.1608775505524
 30
0.0
  0
VERTEX
  5
521
330
51D
100
AcDbEntity
  8
BEMA_U_00DFUNG
 62
     7
100
AcDbVertex
100
AcDb2dVertex
 10
64.30795676105514
 20
223.4896661105695
 30
0.0
  0
SEQEND
  5
522
330
51D
100
AcDbEntity
  8
BEMA_U_00DFUNG
 62
     7
  0
POLYLINE
  5
523
330
1F
100
AcDbEntity
  8
BEMA_U_00DFUNG
 62
     7
100
AcDb2dPolyline
 66
     1
 10
0.0
 20
0.0
 30
0.0
  0
VERTEX
  5
524
330
523
100
AcDbEntity
  8
BEMA_U_00DFUNG
 62
     7
100
AcDbVertex
100
AcDb2dVertex
 10
61.80782315070505
 20
223.7944658056938
 30
0.0
  0
VERTEX
  5
525
330
523
100
AcDbEntity
  8
BEMA_U_00DFUNG
 62
     7
100
AcDbVertex
100
AcDb2dVertex
 10
61.9926785213593
 20
223.7944658056938
 30
0.0
  0
SEQEND
  5
526
330
523
100
AcDbEntity
  8
BEMA_U_00DFUNG
 62
     7
  0
POLYLINE
  5
527
330
1F
100
AcDbEntity
  8
BEMA_U_00DFUNG
 62
     7
100
AcDb2dPolyline
 66
     1
 10
0.0
 20
0.0
 30
0.0
  0
VERTEX
  5
528
330
527
100
AcDbEntity
  8
BEMA_U_00DFUNG
 62
     7
100
AcDbVertex
100
AcDb2dVertex
 10
61.80782315070505
 20
223.7944658056938
 30
0.0
  0
VERTEX
  5
529
330
527
100
AcDbEntity
  8
BEMA_U_00DFUNG
 62
     7
100
AcDbVertex
100
AcDb2dVertex
 10
61.9926785213593
 20
223.7944658056938
 30
0.0
  0
SEQEND
  5
52A
330
527
100
AcDbEntity
  8
BEMA_U_00DFUNG
 62
     7
  0
POLYLINE
  5
52B
330
1F
100
AcDbEntity
  8
BEMA_U_00DFUNG
 62
     7
100
AcDb2dPolyline
 66
     1
 10
0.0
 20
0.0
 30
0.0
  0
VERTEX
  5
52C
330
52B
100
AcDbEntity
  8
BEMA_U_00DFUNG
 62
     7
100
AcDbVertex
100
AcDb2dVertex
 10
61.80782315070505
 20
223.7440186339313
 30
0.0
  0
VERTEX
  5
52D
330
52B
100
AcDbEntity
  8
BEMA_U_00DFUNG
 62
     7
100
AcDbVertex
100
AcDb2dVertex
 10
62.37826424678888
 20
223.7440186339313
 30
0.0
  0
SEQEND
  5
52E
330
52B
100
AcDbEntity
  8
BEMA_U_00DFUNG
 62
     7
  0
POLYLINE
  5
52F
330
1F
100
AcDbEntity
  8
BEMA_U_00DFUNG
 62
     7
100
AcDb2dPolyline
 66
     1
 10
0.0
 20
0.0
 30
0.0
  0
VERTEX
  5
530
330
52F
100
AcDbEntity
  8
BEMA_U_00DFUNG
 62
     7
100
AcDbVertex
100
AcDb2dVertex
 10
61.80782315070505
 20
223.693218684744
 30
0.0
  0
VERTEX
  5
531
330
52F
100
AcDbEntity
  8
BEMA_U_00DFUNG
 62
     7
100
AcDbVertex
100
AcDb2dVertex
 10
62.76420274964136
 20
223.693218684744
 30
0.0
  0
SEQEND
  5
532
330
52F
100
AcDbEntity
  8
BEMA_U_00DFUNG
 62
     7
  0
POLYLINE
  5
533
330
1F
100
AcDbEntity
  8
BEMA_U_00DFUNG
 62
     7
100
AcDb2dPolyline
 66
     1
 10
0.0
 20
0.0
 30
0.0
  0
VERTEX
  5
534
330
533
100
AcDbEntity
  8
BEMA_U_00DFUNG
 62
     7
100
AcDbVertex
100
AcDb2dVertex
 10
61.80782315070505
 20
223.6424187355568
 30
0.0
  0
VERTEX
  5
535
330
533
100
AcDbEntity
  8
BEMA_U_00DFUNG
 62
     7
100
AcDbVertex
100
AcDb2dVertex
 10
63.1497884750703
 20
223.6424187355568
 30
0.0
  0
SEQEND
  5
536
330
533
100
AcDbEntity
  8
BEMA_U_00DFUNG
 62
     7
  0
POLYLINE
  5
537
330
1F
100
AcDbEntity
  8
BEMA_U_00DFUNG
 62
     7
100
AcDb2dPolyline
 66
     1
 10
0.0
 20
0.0
 30
0.0
  0
VERTEX
  5
538
330
537
100
AcDbEntity
  8
BEMA_U_00DFUNG
 62
     7
100
AcDbVertex
100
AcDb2dVertex
 10
61.80782315070505
 20
223.5916187863695
 30
0.0
  0
VERTEX
  5
539
330
537
100
AcDbEntity
  8
BEMA_U_00DFUNG
 62
     7
100
AcDbVertex
100
AcDb2dVertex
 10
63.53607975534825
 20
223.5916187863695
 30
0.0
  0
SEQEND
  5
53A
330
537
100
AcDbEntity
  8
BEMA_U_00DFUNG
 62
     7
  0
POLYLINE
  5
53B
330
1F
100
AcDbEntity
  8
BEMA_U_00DFUNG
 62
     7
100
AcDb2dPolyline
 66
     1
 10
0.0
 20
0.0
 30
0.0
  0
VERTEX
  5
53C
330
53B
100
AcDbEntity
  8
BEMA_U_00DFUNG
 62
     7
100
AcDbVertex
100
AcDb2dVertex
 10
61.80782315070505
 20
223.5408188371822
 30
0.0
  0
VERTEX
  5
53D
330
53B
100
AcDbEntity
  8
BEMA_U_00DFUNG
 62
     7
100
AcDbVertex
100
AcDb2dVertex
 10
63.92166548077783
 20
223.5408188371822
 30
0.0
  0
SEQEND
  5
53E
330
53B
100
AcDbEntity
  8
BEMA_U_00DFUNG
 62
     7
  0
POLYLINE
  5
53F
330
1F
100
AcDbEntity
  8
BEMA_U_00DFUNG
 62
     7
100
AcDb2dPolyline
 66
     1
 10
0.0
 20
0.0
 30
0.0
  0
VERTEX
  5
540
330
53F
100
AcDbEntity
  8
BEMA_U_00DFUNG
 62
     7
100
AcDbVertex
100
AcDb2dVertex
 10
61.80782315070505
 20
223.4896661105695
 30
0.0
  0
VERTEX
  5
541
330
53F
100
AcDbEntity
  8
BEMA_U_00DFUNG
 62
     7
100
AcDbVertex
100
AcDb2dVertex
 10
64.30795676105514
 20
223.4896661105695
 30
0.0
  0
SEQEND
  5
542
330
53F
100
AcDbEntity
  8
BEMA_U_00DFUNG
 62
     7
  0
POLYLINE
  5
543
330
1F
100
AcDbEntity
  8
BEMA_U_00DFUNG
 62
     7
100
AcDb2dPolyline
 66
     1
 10
0.0
 20
0.0
 30
0.0
  0
VERTEX
  5
544
330
543
100
AcDbEntity
  8
BEMA_U_00DFUNG
 62
     7
100
AcDbVertex
100
AcDb2dVertex
 10
61.80782315070505
 20
223.1852191928712
 30
0.0
  0
VERTEX
  5
545
330
543
100
AcDbEntity
  8
BEMA_U_00DFUNG
 62
     7
100
AcDbVertex
100
AcDb2dVertex
 10
61.9926785213593
 20
223.1852191928712
 30
0.0
  0
SEQEND
  5
546
330
543
100
AcDbEntity
  8
BEMA_U_00DFUNG
 62
     7
  0
POLYLINE
  5
547
330
1F
100
AcDbEntity
  8
BEMA_U_00DFUNG
 62
     7
100
AcDb2dPolyline
 66
     1
 10
0.0
 20
0.0
 30
0.0
  0
VERTEX
  5
548
330
547
100
AcDbEntity
  8
BEMA_U_00DFUNG
 62
     7
100
AcDbVertex
100
AcDb2dVertex
 10
61.80782315070505
 20
223.1852191928712
 30
0.0
  0
VERTEX
  5
549
330
547
100
AcDbEntity
  8
BEMA_U_00DFUNG
 62
     7
100
AcDbVertex
100
AcDb2dVertex
 10
61.9926785213593
 20
223.1852191928712
 30
0.0
  0
SEQEND
  5
54A
330
547
100
AcDbEntity
  8
BEMA_U_00DFUNG
 62
     7
  0
POLYLINE
  5
54B
330
1F
100
AcDbEntity
  8
BEMA_U_00DFUNG
 62
     7
100
AcDb2dPolyline
 66
     1
 10
0.0
 20
0.0
 30
0.0
  0
VERTEX
  5
54C
330
54B
100
AcDbEntity
  8
BEMA_U_00DFUNG
 62
     7
100
AcDbVertex
100
AcDb2dVertex
 10
61.80782315070505
 20
223.2360191420579
 30
0.0
  0
VERTEX
  5
54D
330
54B
100
AcDbEntity
  8
BEMA_U_00DFUNG
 62
     7
100
AcDbVertex
100
AcDb2dVertex
 10
62.37826424678888
 20
223.2360191420579
 30
0.0
  0
SEQEND
  5
54E
330
54B
100
AcDbEntity
  8
BEMA_U_00DFUNG
 62
     7
  0
POLYLINE
  5
54F
330
1F
100
AcDbEntity
  8
BEMA_U_00DFUNG
 62
     7
100
AcDb2dPolyline
 66
     1
 10
0.0
 20
0.0
 30
0.0
  0
VERTEX
  5
550
330
54F
100
AcDbEntity
  8
BEMA_U_00DFUNG
 62
     7
100
AcDbVertex
100
AcDb2dVertex
 10
61.80782315070505
 20
223.286466313821
 30
0.0
  0
VERTEX
  5
551
330
54F
100
AcDbEntity
  8
BEMA_U_00DFUNG
 62
     7
100
AcDbVertex
100
AcDb2dVertex
 10
62.76420274964136
 20
223.286466313821
 30
0.0
  0
SEQEND
  5
552
330
54F
100
AcDbEntity
  8
BEMA_U_00DFUNG
 62
     7
  0
POLYLINE
  5
553
330
1F
100
AcDbEntity
  8
BEMA_U_00DFUNG
 62
     7
100
AcDb2dPolyline
 66
     1
 10
0.0
 20
0.0
 30
0.0
  0
VERTEX
  5
554
330
553
100
AcDbEntity
  8
BEMA_U_00DFUNG
 62
     7
100
AcDbVertex
100
AcDb2dVertex
 10
61.80782315070505
 20
223.3372662630082
 30
0.0
  0
VERTEX
  5
555
330
553
100
AcDbEntity
  8
BEMA_U_00DFUNG
 62
     7
100
AcDbVertex
100
AcDb2dVertex
 10
63.1497884750703
 20
223.3372662630082
 30
0.0
  0
SEQEND
  5
556
330
553
100
AcDbEntity
  8
BEMA_U_00DFUNG
 62
     7
  0
POLYLINE
  5
557
330
1F
100
AcDbEntity
  8
BEMA_U_00DFUNG
 62
     7
100
AcDb2dPolyline
 66
     1
 10
0.0
 20
0.0
 30
0.0
  0
VERTEX
  5
558
330
557
100
AcDbEntity
  8
BEMA_U_00DFUNG
 62
     7
100
AcDbVertex
100
AcDb2dVertex
 10
61.80782315070505
 20
223.3880662121955
 30
0.0
  0
VERTEX
  5
559
330
557
100
AcDbEntity
  8
BEMA_U_00DFUNG
 62
     7
100
AcDbVertex
100
AcDb2dVertex
 10
63.53607975534825
 20
223.3880662121955
 30
0.0
  0
SEQEND
  5
55A
330
557
100
AcDbEntity
  8
BEMA_U_00DFUNG
 62
     7
  0
POLYLINE
  5
55B
330
1F
100
AcDbEntity
  8
BEMA_U_00DFUNG
 62
     7
100
AcDb2dPolyline
 66
     1
 10
0.0
 20
0.0
 30
0.0
  0
VERTEX
  5
55C
330
55B
100
AcDbEntity
  8
BEMA_U_00DFUNG
 62
     7
100
AcDbVertex
100
AcDb2dVertex
 10
61.80782315070505
 20
223.4388661613828
 30
0.0
  0
VERTEX
  5
55D
330
55B
100
AcDbEntity
  8
BEMA_U_00DFUNG
 62
     7
100
AcDbVertex
100
AcDb2dVertex
 10
63.92166548077783
 20
223.4388661613828
 30
0.0
  0
SEQEND
  5
55E
330
55B
100
AcDbEntity
  8
BEMA_U_00DFUNG
 62
     7
  0
POLYLINE
  5
55F
330
1F
100
AcDbEntity
  8
BEMA_U_00DFUNG
 62
     7
100
AcDb2dPolyline
 66
     1
 10
0.0
 20
0.0
 30
0.0
  0
VERTEX
  5
560
330
55F
100
AcDbEntity
  8
BEMA_U_00DFUNG
 62
     7
100
AcDbVertex
100
AcDb2dVertex
 10
61.80782315070505
 20
223.4896661105695
 30
0.0
  0
VERTEX
  5
561
330
55F
100
AcDbEntity
  8
BEMA_U_00DFUNG
 62
     7
100
AcDbVertex
100
AcDb2dVertex
 10
64.30795676105514
 20
223.4896661105695
 30
0.0
  0
SEQEND
  5
562
330
55F
100
AcDbEntity
  8
BEMA_U_00DFUNG
 62
     7
  0
POLYLINE
  5
563
330
1F
100
AcDbEntity
  8
BEMA_U_00DFUNG
 62
     7
100
AcDb2dPolyline
 66
     1
 10
0.0
 20
0.0
 30
0.0
  0
VERTEX
  5
564
330
563
100
AcDbEntity
  8
BEMA_U_00DFUNG
 62
     7
100
AcDbVertex
100
AcDb2dVertex
 10
115.795319031455
 20
233.6259580356236
 30
0.0
  0
VERTEX
  5
565
330
563
100
AcDbEntity
  8
BEMA_U_00DFUNG
 62
     7
100
AcDbVertex
100
AcDb2dVertex
 10
115.795319031455
 20
221.8301615002961
 30
0.0
  0
SEQEND
  5
566
330
563
100
AcDbEntity
  8
BEMA_U_00DFUNG
 62
     7
  0
POLYLINE
  5
567
330
1F
100
AcDbEntity
  8
BEMA_U_00DFUNG
 62
     7
100
AcDb2dPolyline
 66
     1
 10
0.0
 20
0.0
 30
0.0
  0
VERTEX
  5
568
330
567
100
AcDbEntity
  8
BEMA_U_00DFUNG
 62
     7
100
AcDbVertex
100
AcDb2dVertex
 10
123.7956054736051
 20
233.6259580356236
 30
0.0
  0
VERTEX
  5
569
330
567
100
AcDbEntity
  8
BEMA_U_00DFUNG
 62
     7
100
AcDbVertex
100
AcDb2dVertex
 10
123.7956054736051
 20
221.8301615002961
 30
0.0
  0
SEQEND
  5
56A
330
567
100
AcDbEntity
  8
BEMA_U_00DFUNG
 62
     7
  0
POLYLINE
  5
56B
330
1F
100
AcDbEntity
  8
BEMA_U_00DFUNG
 62
     7
100
AcDb2dPolyline
 66
     1
 10
0.0
 20
0.0
 30
0.0
  0
VERTEX
  5
56C
330
56B
100
AcDbEntity
  8
BEMA_U_00DFUNG
 62
     7
100
AcDbVertex
100
AcDb2dVertex
 10
115.795319031455
 20
223.8297039446974
 30
0.0
  0
VERTEX
  5
56D
330
56B
100
AcDbEntity
  8
BEMA_U_00DFUNG
 62
     7
100
AcDbVertex
100
AcDb2dVertex
 10
123.7956054736051
 20
223.8297039446974
 30
0.0
  0
SEQEND
  5
56E
330
56B
100
AcDbEntity
  8
BEMA_U_00DFUNG
 62
     7
  0
POLYLINE
  5
56F
330
1F
100
AcDbEntity
  8
BEMA_U_00DFUNG
 62
     7
100
AcDb2dPolyline
 66
     1
 10
0.0
 20
0.0
 30
0.0
  0
VERTEX
  5
570
330
56F
100
AcDbEntity
  8
BEMA_U_00DFUNG
 62
     7
100
AcDbVertex
100
AcDb2dVertex
 10
115.795319031455
 20
223.8297039446974
 30
0.0
  0
VERTEX
  5
571
330
56F
100
AcDbEntity
  8
BEMA_U_00DFUNG
 62
     7
100
AcDbVertex
100
AcDb2dVertex
 10
118.2954526418051
 20
223.5005626072542
 30
0.0
  0
VERTEX
  5
572
330
56F
100
AcDbEntity
  8
BEMA_U_00DFUNG
 62
     7
100
AcDbVertex
100
AcDb2dVertex
 10
118.2954526418051
 20
224.1588452821399
 30
0.0
  0
VERTEX
  5
573
330
56F
100
AcDbEntity
  8
BEMA_U_00DFUNG
 62
     7
100
AcDbVertex
100
AcDb2dVertex
 10
115.795319031455
 20
223.8297039446974
 30
0.0
  0
SEQEND
  5
574
330
56F
100
AcDbEntity
  8
BEMA_U_00DFUNG
 62
     7
  0
POLYLINE
  5
575
330
1F
100
AcDbEntity
  8
BEMA_U_00DFUNG
 62
     7
100
AcDb2dPolyline
 66
     1
 10
0.0
 20
0.0
 30
0.0
  0
VERTEX
  5
576
330
575
100
AcDbEntity
  8
BEMA_U_00DFUNG
 62
     7
100
AcDbVertex
100
AcDb2dVertex
 10
118.2954526418051
 20
223.5252570269979
 30
0.0
  0
VERTEX
  5
577
330
575
100
AcDbEntity
  8
BEMA_U_00DFUNG
 62
     7
100
AcDbVertex
100
AcDb2dVertex
 10
118.1105972711515
 20
223.5252570269979
 30
0.0
  0
SEQEND
  5
578
330
575
100
AcDbEntity
  8
BEMA_U_00DFUNG
 62
     7
  0
POLYLINE
  5
579
330
1F
100
AcDbEntity
  8
BEMA_U_00DFUNG
 62
     7
100
AcDb2dPolyline
 66
     1
 10
0.0
 20
0.0
 30
0.0
  0
VERTEX
  5
57A
330
579
100
AcDbEntity
  8
BEMA_U_00DFUNG
 62
     7
100
AcDbVertex
100
AcDb2dVertex
 10
118.2954526418051
 20
223.5252570269979
 30
0.0
  0
VERTEX
  5
57B
330
579
100
AcDbEntity
  8
BEMA_U_00DFUNG
 62
     7
100
AcDbVertex
100
AcDb2dVertex
 10
118.1105972711515
 20
223.5252570269979
 30
0.0
  0
SEQEND
  5
57C
330
579
100
AcDbEntity
  8
BEMA_U_00DFUNG
 62
     7
  0
POLYLINE
  5
57D
330
1F
100
AcDbEntity
  8
BEMA_U_00DFUNG
 62
     7
100
AcDb2dPolyline
 66
     1
 10
0.0
 20
0.0
 30
0.0
  0
VERTEX
  5
57E
330
57D
100
AcDbEntity
  8
BEMA_U_00DFUNG
 62
     7
100
AcDbVertex
100
AcDb2dVertex
 10
118.2954526418051
 20
223.5760569761858
 30
0.0
  0
VERTEX
  5
57F
330
57D
100
AcDbEntity
  8
BEMA_U_00DFUNG
 62
     7
100
AcDbVertex
100
AcDb2dVertex
 10
117.7250115457226
 20
223.5760569761858
 30
0.0
  0
SEQEND
  5
580
330
57D
100
AcDbEntity
  8
BEMA_U_00DFUNG
 62
     7
  0
POLYLINE
  5
581
330
1F
100
AcDbEntity
  8
BEMA_U_00DFUNG
 62
     7
100
AcDb2dPolyline
 66
     1
 10
0.0
 20
0.0
 30
0.0
  0
VERTEX
  5
582
330
581
100
AcDbEntity
  8
BEMA_U_00DFUNG
 62
     7
100
AcDbVertex
100
AcDb2dVertex
 10
118.2954526418051
 20
223.6268569253724
 30
0.0
  0
VERTEX
  5
583
330
581
100
AcDbEntity
  8
BEMA_U_00DFUNG
 62
     7
100
AcDbVertex
100
AcDb2dVertex
 10
117.338720265444
 20
223.6268569253724
 30
0.0
  0
SEQEND
  5
584
330
581
100
AcDbEntity
  8
BEMA_U_00DFUNG
 62
     7
  0
POLYLINE
  5
585
330
1F
100
AcDbEntity
  8
BEMA_U_00DFUNG
 62
     7
100
AcDb2dPolyline
 66
     1
 10
0.0
 20
0.0
 30
0.0
  0
VERTEX
  5
586
330
585
100
AcDbEntity
  8
BEMA_U_00DFUNG
 62
     7
100
AcDbVertex
100
AcDb2dVertex
 10
118.2954526418051
 20
223.6776568745597
 30
0.0
  0
VERTEX
  5
587
330
585
100
AcDbEntity
  8
BEMA_U_00DFUNG
 62
     7
100
AcDbVertex
100
AcDb2dVertex
 10
116.9534873174411
 20
223.6776568745597
 30
0.0
  0
SEQEND
  5
588
330
585
100
AcDbEntity
  8
BEMA_U_00DFUNG
 62
     7
  0
POLYLINE
  5
589
330
1F
100
AcDbEntity
  8
BEMA_U_00DFUNG
 62
     7
100
AcDb2dPolyline
 66
     1
 10
0.0
 20
0.0
 30
0.0
  0
VERTEX
  5
58A
330
589
100
AcDbEntity
  8
BEMA_U_00DFUNG
 62
     7
100
AcDbVertex
100
AcDb2dVertex
 10
118.2954526418051
 20
223.7281040463222
 30
0.0
  0
VERTEX
  5
58B
330
589
100
AcDbEntity
  8
BEMA_U_00DFUNG
 62
     7
100
AcDbVertex
100
AcDb2dVertex
 10
116.5671960371625
 20
223.7281040463222
 30
0.0
  0
SEQEND
  5
58C
330
589
100
AcDbEntity
  8
BEMA_U_00DFUNG
 62
     7
  0
POLYLINE
  5
58D
330
1F
100
AcDbEntity
  8
BEMA_U_00DFUNG
 62
     7
100
AcDb2dPolyline
 66
     1
 10
0.0
 20
0.0
 30
0.0
  0
VERTEX
  5
58E
330
58D
100
AcDbEntity
  8
BEMA_U_00DFUNG
 62
     7
100
AcDbVertex
100
AcDb2dVertex
 10
118.2954526418051
 20
223.7789039955094
 30
0.0
  0
VERTEX
  5
58F
330
58D
100
AcDbEntity
  8
BEMA_U_00DFUNG
 62
     7
100
AcDbVertex
100
AcDb2dVertex
 10
116.1816103117336
 20
223.7789039955094
 30
0.0
  0
SEQEND
  5
590
330
58D
100
AcDbEntity
  8
BEMA_U_00DFUNG
 62
     7
  0
POLYLINE
  5
591
330
1F
100
AcDbEntity
  8
BEMA_U_00DFUNG
 62
     7
100
AcDb2dPolyline
 66
     1
 10
0.0
 20
0.0
 30
0.0
  0
VERTEX
  5
592
330
591
100
AcDbEntity
  8
BEMA_U_00DFUNG
 62
     7
100
AcDbVertex
100
AcDb2dVertex
 10
118.2954526418051
 20
223.8297039446974
 30
0.0
  0
VERTEX
  5
593
330
591
100
AcDbEntity
  8
BEMA_U_00DFUNG
 62
     7
100
AcDbVertex
100
AcDb2dVertex
 10
115.795319031455
 20
223.8297039446974
 30
0.0
  0
SEQEND
  5
594
330
591
100
AcDbEntity
  8
BEMA_U_00DFUNG
 62
     7
  0
POLYLINE
  5
595
330
1F
100
AcDbEntity
  8
BEMA_U_00DFUNG
 62
     7
100
AcDb2dPolyline
 66
     1
 10
0.0
 20
0.0
 30
0.0
  0
VERTEX
  5
596
330
595
100
AcDbEntity
  8
BEMA_U_00DFUNG
 62
     7
100
AcDbVertex
100
AcDb2dVertex
 10
118.2954526418051
 20
224.1348564172459
 30
0.0
  0
VERTEX
  5
597
330
595
100
AcDbEntity
  8
BEMA_U_00DFUNG
 62
     7
100
AcDbVertex
100
AcDb2dVertex
 10
118.1105972711515
 20
224.1348564172459
 30
0.0
  0
SEQEND
  5
598
330
595
100
AcDbEntity
  8
BEMA_U_00DFUNG
 62
     7
  0
POLYLINE
  5
599
330
1F
100
AcDbEntity
  8
BEMA_U_00DFUNG
 62
     7
100
AcDb2dPolyline
 66
     1
 10
0.0
 20
0.0
 30
0.0
  0
VERTEX
  5
59A
330
599
100
AcDbEntity
  8
BEMA_U_00DFUNG
 62
     7
100
AcDbVertex
100
AcDb2dVertex
 10
118.2954526418051
 20
224.1348564172459
 30
0.0
  0
VERTEX
  5
59B
330
599
100
AcDbEntity
  8
BEMA_U_00DFUNG
 62
     7
100
AcDbVertex
100
AcDb2dVertex
 10
118.1105972711515
 20
224.1348564172459
 30
0.0
  0
SEQEND
  5
59C
330
599
100
AcDbEntity
  8
BEMA_U_00DFUNG
 62
     7
  0
POLYLINE
  5
59D
330
1F
100
AcDbEntity
  8
BEMA_U_00DFUNG
 62
     7
100
AcDb2dPolyline
 66
     1
 10
0.0
 20
0.0
 30
0.0
  0
VERTEX
  5
59E
330
59D
100
AcDbEntity
  8
BEMA_U_00DFUNG
 62
     7
100
AcDbVertex
100
AcDb2dVertex
 10
118.2954526418051
 20
224.084056468058
 30
0.0
  0
VERTEX
  5
59F
330
59D
100
AcDbEntity
  8
BEMA_U_00DFUNG
 62
     7
100
AcDbVertex
100
AcDb2dVertex
 10
117.7250115457226
 20
224.084056468058
 30
0.0
  0
SEQEND
  5
5A0
330
59D
100
AcDbEntity
  8
BEMA_U_00DFUNG
 62
     7
  0
POLYLINE
  5
5A1
330
1F
100
AcDbEntity
  8
BEMA_U_00DFUNG
 62
     7
100
AcDb2dPolyline
 66
     1
 10
0.0
 20
0.0
 30
0.0
  0
VERTEX
  5
5A2
330
5A1
100
AcDbEntity
  8
BEMA_U_00DFUNG
 62
     7
100
AcDbVertex
100
AcDb2dVertex
 10
118.2954526418051
 20
224.0332565188707
 30
0.0
  0
VERTEX
  5
5A3
330
5A1
100
AcDbEntity
  8
BEMA_U_00DFUNG
 62
     7
100
AcDbVertex
100
AcDb2dVertex
 10
117.338720265444
 20
224.0332565188707
 30
0.0
  0
SEQEND
  5
5A4
330
5A1
100
AcDbEntity
  8
BEMA_U_00DFUNG
 62
     7
  0
POLYLINE
  5
5A5
330
1F
100
AcDbEntity
  8
BEMA_U_00DFUNG
 62
     7
100
AcDb2dPolyline
 66
     1
 10
0.0
 20
0.0
 30
0.0
  0
VERTEX
  5
5A6
330
5A5
100
AcDbEntity
  8
BEMA_U_00DFUNG
 62
     7
100
AcDbVertex
100
AcDb2dVertex
 10
118.2954526418051
 20
223.9824565696834
 30
0.0
  0
VERTEX
  5
5A7
330
5A5
100
AcDbEntity
  8
BEMA_U_00DFUNG
 62
     7
100
AcDbVertex
100
AcDb2dVertex
 10
116.9534873174411
 20
223.9824565696834
 30
0.0
  0
SEQEND
  5
5A8
330
5A5
100
AcDbEntity
  8
BEMA_U_00DFUNG
 62
     7
  0
POLYLINE
  5
5A9
330
1F
100
AcDbEntity
  8
BEMA_U_00DFUNG
 62
     7
100
AcDb2dPolyline
 66
     1
 10
0.0
 20
0.0
 30
0.0
  0
VERTEX
  5
5AA
330
5A9
100
AcDbEntity
  8
BEMA_U_00DFUNG
 62
     7
100
AcDbVertex
100
AcDb2dVertex
 10
118.2954526418051
 20
223.9313038430713
 30
0.0
  0
VERTEX
  5
5AB
330
5A9
100
AcDbEntity
  8
BEMA_U_00DFUNG
 62
     7
100
AcDbVertex
100
AcDb2dVertex
 10
116.5671960371625
 20
223.9313038430713
 30
0.0
  0
SEQEND
  5
5AC
330
5A9
100
AcDbEntity
  8
BEMA_U_00DFUNG
 62
     7
  0
POLYLINE
  5
5AD
330
1F
100
AcDbEntity
  8
BEMA_U_00DFUNG
 62
     7
100
AcDb2dPolyline
 66
     1
 10
0.0
 20
0.0
 30
0.0
  0
VERTEX
  5
5AE
330
5AD
100
AcDbEntity
  8
BEMA_U_00DFUNG
 62
     7
100
AcDbVertex
100
AcDb2dVertex
 10
118.2954526418051
 20
223.880503893884
 30
0.0
  0
VERTEX
  5
5AF
330
5AD
100
AcDbEntity
  8
BEMA_U_00DFUNG
 62
     7
100
AcDbVertex
100
AcDb2dVertex
 10
116.1816103117336
 20
223.880503893884
 30
0.0
  0
SEQEND
  5
5B0
330
5AD
100
AcDbEntity
  8
BEMA_U_00DFUNG
 62
     7
  0
POLYLINE
  5
5B1
330
1F
100
AcDbEntity
  8
BEMA_U_00DFUNG
 62
     7
100
AcDb2dPolyline
 66
     1
 10
0.0
 20
0.0
 30
0.0
  0
VERTEX
  5
5B2
330
5B1
100
AcDbEntity
  8
BEMA_U_00DFUNG
 62
     7
100
AcDbVertex
100
AcDb2dVertex
 10
118.2954526418051
 20
223.8297039446974
 30
0.0
  0
VERTEX
  5
5B3
330
5B1
100
AcDbEntity
  8
BEMA_U_00DFUNG
 62
     7
100
AcDbVertex
100
AcDb2dVertex
 10
115.795319031455
 20
223.8297039446974
 30
0.0
  0
SEQEND
  5
5B4
330
5B1
100
AcDbEntity
  8
BEMA_U_00DFUNG
 62
     7
  0
POLYLINE
  5
5B5
330
1F
100
AcDbEntity
  8
BEMA_U_00DFUNG
 62
     7
100
AcDb2dPolyline
 66
     1
 10
0.0
 20
0.0
 30
0.0
  0
VERTEX
  5
5B6
330
5B5
100
AcDbEntity
  8
BEMA_U_00DFUNG
 62
     7
100
AcDbVertex
100
AcDb2dVertex
 10
123.7956054736051
 20
223.8297039446974
 30
0.0
  0
VERTEX
  5
5B7
330
5B5
100
AcDbEntity
  8
BEMA_U_00DFUNG
 62
     7
100
AcDbVertex
100
AcDb2dVertex
 10
121.2958246406792
 20
224.1588452821399
 30
0.0
  0
VERTEX
  5
5B8
330
5B5
100
AcDbEntity
  8
BEMA_U_00DFUNG
 62
     7
100
AcDbVertex
100
AcDb2dVertex
 10
121.2958246406792
 20
223.5005626072542
 30
0.0
  0
VERTEX
  5
5B9
330
5B5
100
AcDbEntity
  8
BEMA_U_00DFUNG
 62
     7
100
AcDbVertex
100
AcDb2dVertex
 10
123.7956054736051
 20
223.8297039446974
 30
0.0
  0
SEQEND
  5
5BA
330
5B5
100
AcDbEntity
  8
BEMA_U_00DFUNG
 62
     7
  0
POLYLINE
  5
5BB
330
1F
100
AcDbEntity
  8
BEMA_U_00DFUNG
 62
     7
100
AcDb2dPolyline
 66
     1
 10
0.0
 20
0.0
 30
0.0
  0
VERTEX
  5
5BC
330
5BB
100
AcDbEntity
  8
BEMA_U_00DFUNG
 62
     7
100
AcDbVertex
100
AcDb2dVertex
 10
121.2958246406792
 20
224.1348564172459
 30
0.0
  0
VERTEX
  5
5BD
330
5BB
100
AcDbEntity
  8
BEMA_U_00DFUNG
 62
     7
100
AcDbVertex
100
AcDb2dVertex
 10
121.4806800113341
 20
224.1348564172459
 30
0.0
  0
SEQEND
  5
5BE
330
5BB
100
AcDbEntity
  8
BEMA_U_00DFUNG
 62
     7
  0
POLYLINE
  5
5BF
330
1F
100
AcDbEntity
  8
BEMA_U_00DFUNG
 62
     7
100
AcDb2dPolyline
 66
     1
 10
0.0
 20
0.0
 30
0.0
  0
VERTEX
  5
5C0
330
5BF
100
AcDbEntity
  8
BEMA_U_00DFUNG
 62
     7
100
AcDbVertex
100
AcDb2dVertex
 10
121.2958246406792
 20
224.1348564172459
 30
0.0
  0
VERTEX
  5
5C1
330
5BF
100
AcDbEntity
  8
BEMA_U_00DFUNG
 62
     7
100
AcDbVertex
100
AcDb2dVertex
 10
121.4806800113341
 20
224.1348564172459
 30
0.0
  0
SEQEND
  5
5C2
330
5BF
100
AcDbEntity
  8
BEMA_U_00DFUNG
 62
     7
  0
POLYLINE
  5
5C3
330
1F
100
AcDbEntity
  8
BEMA_U_00DFUNG
 62
     7
100
AcDb2dPolyline
 66
     1
 10
0.0
 20
0.0
 30
0.0
  0
VERTEX
  5
5C4
330
5C3
100
AcDbEntity
  8
BEMA_U_00DFUNG
 62
     7
100
AcDbVertex
100
AcDb2dVertex
 10
121.2958246406792
 20
224.084056468058
 30
0.0
  0
VERTEX
  5
5C5
330
5C3
100
AcDbEntity
  8
BEMA_U_00DFUNG
 62
     7
100
AcDbVertex
100
AcDb2dVertex
 10
121.8666185141879
 20
224.084056468058
 30
0.0
  0
SEQEND
  5
5C6
330
5C3
100
AcDbEntity
  8
BEMA_U_00DFUNG
 62
     7
  0
POLYLINE
  5
5C7
330
1F
100
AcDbEntity
  8
BEMA_U_00DFUNG
 62
     7
100
AcDb2dPolyline
 66
     1
 10
0.0
 20
0.0
 30
0.0
  0
VERTEX
  5
5C8
330
5C7
100
AcDbEntity
  8
BEMA_U_00DFUNG
 62
     7
100
AcDbVertex
100
AcDb2dVertex
 10
121.2958246406792
 20
224.0332565188707
 30
0.0
  0
VERTEX
  5
5C9
330
5C7
100
AcDbEntity
  8
BEMA_U_00DFUNG
 62
     7
100
AcDbVertex
100
AcDb2dVertex
 10
122.2522042396155
 20
224.0332565188707
 30
0.0
  0
SEQEND
  5
5CA
330
5C7
100
AcDbEntity
  8
BEMA_U_00DFUNG
 62
     7
  0
POLYLINE
  5
5CB
330
1F
100
AcDbEntity
  8
BEMA_U_00DFUNG
 62
     7
100
AcDb2dPolyline
 66
     1
 10
0.0
 20
0.0
 30
0.0
  0
VERTEX
  5
5CC
330
5CB
100
AcDbEntity
  8
BEMA_U_00DFUNG
 62
     7
100
AcDbVertex
100
AcDb2dVertex
 10
121.2958246406792
 20
223.9824565696834
 30
0.0
  0
VERTEX
  5
5CD
330
5CB
100
AcDbEntity
  8
BEMA_U_00DFUNG
 62
     7
100
AcDbVertex
100
AcDb2dVertex
 10
122.6377899650438
 20
223.9824565696834
 30
0.0
  0
SEQEND
  5
5CE
330
5CB
100
AcDbEntity
  8
BEMA_U_00DFUNG
 62
     7
  0
POLYLINE
  5
5CF
330
1F
100
AcDbEntity
  8
BEMA_U_00DFUNG
 62
     7
100
AcDb2dPolyline
 66
     1
 10
0.0
 20
0.0
 30
0.0
  0
VERTEX
  5
5D0
330
5CF
100
AcDbEntity
  8
BEMA_U_00DFUNG
 62
     7
100
AcDbVertex
100
AcDb2dVertex
 10
121.2958246406792
 20
223.9313038430713
 30
0.0
  0
VERTEX
  5
5D1
330
5CF
100
AcDbEntity
  8
BEMA_U_00DFUNG
 62
     7
100
AcDbVertex
100
AcDb2dVertex
 10
123.0240812453231
 20
223.9313038430713
 30
0.0
  0
SEQEND
  5
5D2
330
5CF
100
AcDbEntity
  8
BEMA_U_00DFUNG
 62
     7
  0
POLYLINE
  5
5D3
330
1F
100
AcDbEntity
  8
BEMA_U_00DFUNG
 62
     7
100
AcDb2dPolyline
 66
     1
 10
0.0
 20
0.0
 30
0.0
  0
VERTEX
  5
5D4
330
5D3
100
AcDbEntity
  8
BEMA_U_00DFUNG
 62
     7
100
AcDbVertex
100
AcDb2dVertex
 10
121.2958246406792
 20
223.880503893884
 30
0.0
  0
VERTEX
  5
5D5
330
5D3
100
AcDbEntity
  8
BEMA_U_00DFUNG
 62
     7
100
AcDbVertex
100
AcDb2dVertex
 10
123.4100197481775
 20
223.880503893884
 30
0.0
  0
SEQEND
  5
5D6
330
5D3
100
AcDbEntity
  8
BEMA_U_00DFUNG
 62
     7
  0
POLYLINE
  5
5D7
330
1F
100
AcDbEntity
  8
BEMA_U_00DFUNG
 62
     7
100
AcDb2dPolyline
 66
     1
 10
0.0
 20
0.0
 30
0.0
  0
VERTEX
  5
5D8
330
5D7
100
AcDbEntity
  8
BEMA_U_00DFUNG
 62
     7
100
AcDbVertex
100
AcDb2dVertex
 10
121.2958246406792
 20
223.8297039446974
 30
0.0
  0
VERTEX
  5
5D9
330
5D7
100
AcDbEntity
  8
BEMA_U_00DFUNG
 62
     7
100
AcDbVertex
100
AcDb2dVertex
 10
123.7956054736051
 20
223.8297039446974
 30
0.0
  0
SEQEND
  5
5DA
330
5D7
100
AcDbEntity
  8
BEMA_U_00DFUNG
 62
     7
  0
POLYLINE
  5
5DB
330
1F
100
AcDbEntity
  8
BEMA_U_00DFUNG
 62
     7
100
AcDb2dPolyline
 66
     1
 10
0.0
 20
0.0
 30
0.0
  0
VERTEX
  5
5DC
330
5DB
100
AcDbEntity
  8
BEMA_U_00DFUNG
 62
     7
100
AcDbVertex
100
AcDb2dVertex
 10
121.2958246406792
 20
223.5252570269979
 30
0.0
  0
VERTEX
  5
5DD
330
5DB
100
AcDbEntity
  8
BEMA_U_00DFUNG
 62
     7
100
AcDbVertex
100
AcDb2dVertex
 10
121.4806800113341
 20
223.5252570269979
 30
0.0
  0
SEQEND
  5
5DE
330
5DB
100
AcDbEntity
  8
BEMA_U_00DFUNG
 62
     7
  0
POLYLINE
  5
5DF
330
1F
100
AcDbEntity
  8
BEMA_U_00DFUNG
 62
     7
100
AcDb2dPolyline
 66
     1
 10
0.0
 20
0.0
 30
0.0
  0
VERTEX
  5
5E0
330
5DF
100
AcDbEntity
  8
BEMA_U_00DFUNG
 62
     7
100
AcDbVertex
100
AcDb2dVertex
 10
121.2958246406792
 20
223.5252570269979
 30
0.0
  0
VERTEX
  5
5E1
330
5DF
100
AcDbEntity
  8
BEMA_U_00DFUNG
 62
     7
100
AcDbVertex
100
AcDb2dVertex
 10
121.4806800113341
 20
223.5252570269979
 30
0.0
  0
SEQEND
  5
5E2
330
5DF
100
AcDbEntity
  8
BEMA_U_00DFUNG
 62
     7
  0
POLYLINE
  5
5E3
330
1F
100
AcDbEntity
  8
BEMA_U_00DFUNG
 62
     7
100
AcDb2dPolyline
 66
     1
 10
0.0
 20
0.0
 30
0.0
  0
VERTEX
  5
5E4
330
5E3
100
AcDbEntity
  8
BEMA_U_00DFUNG
 62
     7
100
AcDbVertex
100
AcDb2dVertex
 10
121.2958246406792
 20
223.5760569761858
 30
0.0
  0
VERTEX
  5
5E5
330
5E3
100
AcDbEntity
  8
BEMA_U_00DFUNG
 62
     7
100
AcDbVertex
100
AcDb2dVertex
 10
121.8666185141879
 20
223.5760569761858
 30
0.0
  0
SEQEND
  5
5E6
330
5E3
100
AcDbEntity
  8
BEMA_U_00DFUNG
 62
     7
  0
POLYLINE
  5
5E7
330
1F
100
AcDbEntity
  8
BEMA_U_00DFUNG
 62
     7
100
AcDb2dPolyline
 66
     1
 10
0.0
 20
0.0
 30
0.0
  0
VERTEX
  5
5E8
330
5E7
100
AcDbEntity
  8
BEMA_U_00DFUNG
 62
     7
100
AcDbVertex
100
AcDb2dVertex
 10
121.2958246406792
 20
223.6268569253724
 30
0.0
  0
VERTEX
  5
5E9
330
5E7
100
AcDbEntity
  8
BEMA_U_00DFUNG
 62
     7
100
AcDbVertex
100
AcDb2dVertex
 10
122.2522042396155
 20
223.6268569253724
 30
0.0
  0
SEQEND
  5
5EA
330
5E7
100
AcDbEntity
  8
BEMA_U_00DFUNG
 62
     7
  0
POLYLINE
  5
5EB
330
1F
100
AcDbEntity
  8
BEMA_U_00DFUNG
 62
     7
100
AcDb2dPolyline
 66
     1
 10
0.0
 20
0.0
 30
0.0
  0
VERTEX
  5
5EC
330
5EB
100
AcDbEntity
  8
BEMA_U_00DFUNG
 62
     7
100
AcDbVertex
100
AcDb2dVertex
 10
121.2958246406792
 20
223.6776568745597
 30
0.0
  0
VERTEX
  5
5ED
330
5EB
100
AcDbEntity
  8
BEMA_U_00DFUNG
 62
     7
100
AcDbVertex
100
AcDb2dVertex
 10
122.6377899650438
 20
223.6776568745597
 30
0.0
  0
SEQEND
  5
5EE
330
5EB
100
AcDbEntity
  8
BEMA_U_00DFUNG
 62
     7
  0
POLYLINE
  5
5EF
330
1F
100
AcDbEntity
  8
BEMA_U_00DFUNG
 62
     7
100
AcDb2dPolyline
 66
     1
 10
0.0
 20
0.0
 30
0.0
  0
VERTEX
  5
5F0
330
5EF
100
AcDbEntity
  8
BEMA_U_00DFUNG
 62
     7
100
AcDbVertex
100
AcDb2dVertex
 10
121.2958246406792
 20
223.7281040463222
 30
0.0
  0
VERTEX
  5
5F1
330
5EF
100
AcDbEntity
  8
BEMA_U_00DFUNG
 62
     7
100
AcDbVertex
100
AcDb2dVertex
 10
123.0240812453231
 20
223.7281040463222
 30
0.0
  0
SEQEND
  5
5F2
330
5EF
100
AcDbEntity
  8
BEMA_U_00DFUNG
 62
     7
  0
POLYLINE
  5
5F3
330
1F
100
AcDbEntity
  8
BEMA_U_00DFUNG
 62
     7
100
AcDb2dPolyline
 66
     1
 10
0.0
 20
0.0
 30
0.0
  0
VERTEX
  5
5F4
330
5F3
100
AcDbEntity
  8
BEMA_U_00DFUNG
 62
     7
100
AcDbVertex
100
AcDb2dVertex
 10
121.2958246406792
 20
223.7789039955094
 30
0.0
  0
VERTEX
  5
5F5
330
5F3
100
AcDbEntity
  8
BEMA_U_00DFUNG
 62
     7
100
AcDbVertex
100
AcDb2dVertex
 10
123.4100197481775
 20
223.7789039955094
 30
0.0
  0
SEQEND
  5
5F6
330
5F3
100
AcDbEntity
  8
BEMA_U_00DFUNG
 62
     7
  0
POLYLINE
  5
5F7
330
1F
100
AcDbEntity
  8
BEMA_U_00DFUNG
 62
     7
100
AcDb2dPolyline
 66
     1
 10
0.0
 20
0.0
 30
0.0
  0
VERTEX
  5
5F8
330
5F7
100
AcDbEntity
  8
BEMA_U_00DFUNG
 62
     7
100
AcDbVertex
100
AcDb2dVertex
 10
121.2958246406792
 20
223.8297039446974
 30
0.0
  0
VERTEX
  5
5F9
330
5F7
100
AcDbEntity
  8
BEMA_U_00DFUNG
 62
     7
100
AcDbVertex
100
AcDb2dVertex
 10
123.7956054736051
 20
223.8297039446974
 30
0.0
  0
SEQEND
  5
5FA
330
5F7
100
AcDbEntity
  8
BEMA_U_00DFUNG
 62
     7
  0
POLYLINE
  5
5FB
330
1F
100
AcDbEntity
  8
BEMA_U_00DFUNG
 62
     7
100
AcDb2dPolyline
 66
     1
 10
0.0
 20
0.0
 30
0.0
  0
VERTEX
  5
5FC
330
5FB
100
AcDbEntity
  8
BEMA_U_00DFUNG
 62
     7
100
AcDbVertex
100
AcDb2dVertex
 10
123.7956054736051
 20
235.9094863070773
 30
0.0
  0
VERTEX
  5
5FD
330
5FB
100
AcDbEntity
  8
BEMA_U_00DFUNG
 62
     7
100
AcDbVertex
100
AcDb2dVertex
 10
123.7956054736051
 20
221.8301615002961
 30
0.0
  0
SEQEND
  5
5FE
330
5FB
100
AcDbEntity
  8
BEMA_U_00DFUNG
 62
     7
  0
POLYLINE
  5
5FF
330
1F
100
AcDbEntity
  8
BEMA_U_00DFUNG
 62
     7
100
AcDb2dPolyline
 66
     1
 10
0.0
 20
0.0
 30
0.0
  0
VERTEX
  5
600
330
5FF
100
AcDbEntity
  8
BEMA_U_00DFUNG
 62
     7
100
AcDbVertex
100
AcDb2dVertex
 10
129.795643916505
 20
236.6256244796487
 30
0.0
  0
VERTEX
  5
601
330
5FF
100
AcDbEntity
  8
BEMA_U_00DFUNG
 62
     7
100
AcDbVertex
100
AcDb2dVertex
 10
129.795643916505
 20
221.8301615002961
 30
0.0
  0
SEQEND
  5
602
330
5FF
100
AcDbEntity
  8
BEMA_U_00DFUNG
 62
     7
  0
POLYLINE
  5
603
330
1F
100
AcDbEntity
  8
BEMA_U_00DFUNG
 62
     7
100
AcDb2dPolyline
 66
     1
 10
0.0
 20
0.0
 30
0.0
  0
VERTEX
  5
604
330
603
100
AcDbEntity
  8
BEMA_U_00DFUNG
 62
     7
100
AcDbVertex
100
AcDb2dVertex
 10
123.7956054736051
 20
223.8297039446974
 30
0.0
  0
VERTEX
  5
605
330
603
100
AcDbEntity
  8
BEMA_U_00DFUNG
 62
     7
100
AcDbVertex
100
AcDb2dVertex
 10
134.9432205117933
 20
223.8297039446974
 30
0.0
  0
SEQEND
  5
606
330
603
100
AcDbEntity
  8
BEMA_U_00DFUNG
 62
     7
  0
POLYLINE
  5
607
330
1F
100
AcDbEntity
  8
BEMA_U_00DFUNG
 62
     7
100
AcDb2dPolyline
 66
     1
 10
0.0
 20
0.0
 30
0.0
  0
VERTEX
  5
608
330
607
100
AcDbEntity
  8
BEMA_U_00DFUNG
 62
     7
100
AcDbVertex
100
AcDb2dVertex
 10
129.8295594662647
 20
223.8297039446974
 30
0.0
  0
VERTEX
  5
609
330
607
100
AcDbEntity
  8
BEMA_U_00DFUNG
 62
     7
100
AcDbVertex
100
AcDb2dVertex
 10
132.3296930766168
 20
223.5005626072542
 30
0.0
  0
VERTEX
  5
60A
330
607
100
AcDbEntity
  8
BEMA_U_00DFUNG
 62
     7
100
AcDbVertex
100
AcDb2dVertex
 10
132.3296930766168
 20
224.1588452821399
 30
0.0
  0
VERTEX
  5
60B
330
607
100
AcDbEntity
  8
BEMA_U_00DFUNG
 62
     7
100
AcDbVertex
100
AcDb2dVertex
 10
129.8295594662647
 20
223.8297039446974
 30
0.0
  0
SEQEND
  5
60C
330
607
100
AcDbEntity
  8
BEMA_U_00DFUNG
 62
     7
  0
POLYLINE
  5
60D
330
1F
100
AcDbEntity
  8
BEMA_U_00DFUNG
 62
     7
100
AcDb2dPolyline
 66
     1
 10
0.0
 20
0.0
 30
0.0
  0
VERTEX
  5
60E
330
60D
100
AcDbEntity
  8
BEMA_U_00DFUNG
 62
     7
100
AcDbVertex
100
AcDb2dVertex
 10
132.3296930766168
 20
223.5252570269979
 30
0.0
  0
VERTEX
  5
60F
330
60D
100
AcDbEntity
  8
BEMA_U_00DFUNG
 62
     7
100
AcDbVertex
100
AcDb2dVertex
 10
132.1448377059625
 20
223.5252570269979
 30
0.0
  0
SEQEND
  5
610
330
60D
100
AcDbEntity
  8
BEMA_U_00DFUNG
 62
     7
  0
POLYLINE
  5
611
330
1F
100
AcDbEntity
  8
BEMA_U_00DFUNG
 62
     7
100
AcDb2dPolyline
 66
     1
 10
0.0
 20
0.0
 30
0.0
  0
VERTEX
  5
612
330
611
100
AcDbEntity
  8
BEMA_U_00DFUNG
 62
     7
100
AcDbVertex
100
AcDb2dVertex
 10
132.3296930766168
 20
223.5252570269979
 30
0.0
  0
VERTEX
  5
613
330
611
100
AcDbEntity
  8
BEMA_U_00DFUNG
 62
     7
100
AcDbVertex
100
AcDb2dVertex
 10
132.1448377059625
 20
223.5252570269979
 30
0.0
  0
SEQEND
  5
614
330
611
100
AcDbEntity
  8
BEMA_U_00DFUNG
 62
     7
  0
POLYLINE
  5
615
330
1F
100
AcDbEntity
  8
BEMA_U_00DFUNG
 62
     7
100
AcDb2dPolyline
 66
     1
 10
0.0
 20
0.0
 30
0.0
  0
VERTEX
  5
616
330
615
100
AcDbEntity
  8
BEMA_U_00DFUNG
 62
     7
100
AcDbVertex
100
AcDb2dVertex
 10
132.3296930766168
 20
223.5760569761858
 30
0.0
  0
VERTEX
  5
617
330
615
100
AcDbEntity
  8
BEMA_U_00DFUNG
 62
     7
100
AcDbVertex
100
AcDb2dVertex
 10
131.7585464256839
 20
223.5760569761858
 30
0.0
  0
SEQEND
  5
618
330
615
100
AcDbEntity
  8
BEMA_U_00DFUNG
 62
     7
  0
POLYLINE
  5
619
330
1F
100
AcDbEntity
  8
BEMA_U_00DFUNG
 62
     7
100
AcDb2dPolyline
 66
     1
 10
0.0
 20
0.0
 30
0.0
  0
VERTEX
  5
61A
330
619
100
AcDbEntity
  8
BEMA_U_00DFUNG
 62
     7
100
AcDbVertex
100
AcDb2dVertex
 10
132.3296930766168
 20
223.6268569253724
 30
0.0
  0
VERTEX
  5
61B
330
619
100
AcDbEntity
  8
BEMA_U_00DFUNG
 62
     7
100
AcDbVertex
100
AcDb2dVertex
 10
131.3729607002543
 20
223.6268569253724
 30
0.0
  0
SEQEND
  5
61C
330
619
100
AcDbEntity
  8
BEMA_U_00DFUNG
 62
     7
  0
POLYLINE
  5
61D
330
1F
100
AcDbEntity
  8
BEMA_U_00DFUNG
 62
     7
100
AcDb2dPolyline
 66
     1
 10
0.0
 20
0.0
 30
0.0
  0
VERTEX
  5
61E
330
61D
100
AcDbEntity
  8
BEMA_U_00DFUNG
 62
     7
100
AcDbVertex
100
AcDb2dVertex
 10
132.3296930766168
 20
223.6776568745597
 30
0.0
  0
VERTEX
  5
61F
330
61D
100
AcDbEntity
  8
BEMA_U_00DFUNG
 62
     7
100
AcDbVertex
100
AcDb2dVertex
 10
130.987374974826
 20
223.6776568745597
 30
0.0
  0
SEQEND
  5
620
330
61D
100
AcDbEntity
  8
BEMA_U_00DFUNG
 62
     7
  0
POLYLINE
  5
621
330
1F
100
AcDbEntity
  8
BEMA_U_00DFUNG
 62
     7
100
AcDb2dPolyline
 66
     1
 10
0.0
 20
0.0
 30
0.0
  0
VERTEX
  5
622
330
621
100
AcDbEntity
  8
BEMA_U_00DFUNG
 62
     7
100
AcDbVertex
100
AcDb2dVertex
 10
132.3296930766168
 20
223.7281040463222
 30
0.0
  0
VERTEX
  5
623
330
621
100
AcDbEntity
  8
BEMA_U_00DFUNG
 62
     7
100
AcDbVertex
100
AcDb2dVertex
 10
130.6014364719736
 20
223.7281040463222
 30
0.0
  0
SEQEND
  5
624
330
621
100
AcDbEntity
  8
BEMA_U_00DFUNG
 62
     7
  0
POLYLINE
  5
625
330
1F
100
AcDbEntity
  8
BEMA_U_00DFUNG
 62
     7
100
AcDb2dPolyline
 66
     1
 10
0.0
 20
0.0
 30
0.0
  0
VERTEX
  5
626
330
625
100
AcDbEntity
  8
BEMA_U_00DFUNG
 62
     7
100
AcDbVertex
100
AcDb2dVertex
 10
132.3296930766168
 20
223.7789039955094
 30
0.0
  0
VERTEX
  5
627
330
625
100
AcDbEntity
  8
BEMA_U_00DFUNG
 62
     7
100
AcDbVertex
100
AcDb2dVertex
 10
130.2151451916949
 20
223.7789039955094
 30
0.0
  0
SEQEND
  5
628
330
625
100
AcDbEntity
  8
BEMA_U_00DFUNG
 62
     7
  0
POLYLINE
  5
629
330
1F
100
AcDbEntity
  8
BEMA_U_00DFUNG
 62
     7
100
AcDb2dPolyline
 66
     1
 10
0.0
 20
0.0
 30
0.0
  0
VERTEX
  5
62A
330
629
100
AcDbEntity
  8
BEMA_U_00DFUNG
 62
     7
100
AcDbVertex
100
AcDb2dVertex
 10
132.3296930766168
 20
223.8297039446974
 30
0.0
  0
VERTEX
  5
62B
330
629
100
AcDbEntity
  8
BEMA_U_00DFUNG
 62
     7
100
AcDbVertex
100
AcDb2dVertex
 10
129.8295594662647
 20
223.8297039446974
 30
0.0
  0
SEQEND
  5
62C
330
629
100
AcDbEntity
  8
BEMA_U_00DFUNG
 62
     7
  0
POLYLINE
  5
62D
330
1F
100
AcDbEntity
  8
BEMA_U_00DFUNG
 62
     7
100
AcDb2dPolyline
 66
     1
 10
0.0
 20
0.0
 30
0.0
  0
VERTEX
  5
62E
330
62D
100
AcDbEntity
  8
BEMA_U_00DFUNG
 62
     7
100
AcDbVertex
100
AcDb2dVertex
 10
132.3296930766168
 20
224.1348564172459
 30
0.0
  0
VERTEX
  5
62F
330
62D
100
AcDbEntity
  8
BEMA_U_00DFUNG
 62
     7
100
AcDbVertex
100
AcDb2dVertex
 10
132.1448377059625
 20
224.1348564172459
 30
0.0
  0
SEQEND
  5
630
330
62D
100
AcDbEntity
  8
BEMA_U_00DFUNG
 62
     7
  0
POLYLINE
  5
631
330
1F
100
AcDbEntity
  8
BEMA_U_00DFUNG
 62
     7
100
AcDb2dPolyline
 66
     1
 10
0.0
 20
0.0
 30
0.0
  0
VERTEX
  5
632
330
631
100
AcDbEntity
  8
BEMA_U_00DFUNG
 62
     7
100
AcDbVertex
100
AcDb2dVertex
 10
132.3296930766168
 20
224.1348564172459
 30
0.0
  0
VERTEX
  5
633
330
631
100
AcDbEntity
  8
BEMA_U_00DFUNG
 62
     7
100
AcDbVertex
100
AcDb2dVertex
 10
132.1448377059625
 20
224.1348564172459
 30
0.0
  0
SEQEND
  5
634
330
631
100
AcDbEntity
  8
BEMA_U_00DFUNG
 62
     7
  0
POLYLINE
  5
635
330
1F
100
AcDbEntity
  8
BEMA_U_00DFUNG
 62
     7
100
AcDb2dPolyline
 66
     1
 10
0.0
 20
0.0
 30
0.0
  0
VERTEX
  5
636
330
635
100
AcDbEntity
  8
BEMA_U_00DFUNG
 62
     7
100
AcDbVertex
100
AcDb2dVertex
 10
132.3296930766168
 20
224.084056468058
 30
0.0
  0
VERTEX
  5
637
330
635
100
AcDbEntity
  8
BEMA_U_00DFUNG
 62
     7
100
AcDbVertex
100
AcDb2dVertex
 10
131.7585464256839
 20
224.084056468058
 30
0.0
  0
SEQEND
  5
638
330
635
100
AcDbEntity
  8
BEMA_U_00DFUNG
 62
     7
  0
POLYLINE
  5
639
330
1F
100
AcDbEntity
  8
BEMA_U_00DFUNG
 62
     7
100
AcDb2dPolyline
 66
     1
 10
0.0
 20
0.0
 30
0.0
  0
VERTEX
  5
63A
330
639
100
AcDbEntity
  8
BEMA_U_00DFUNG
 62
     7
100
AcDbVertex
100
AcDb2dVertex
 10
132.3296930766168
 20
224.0332565188707
 30
0.0
  0
VERTEX
  5
63B
330
639
100
AcDbEntity
  8
BEMA_U_00DFUNG
 62
     7
100
AcDbVertex
100
AcDb2dVertex
 10
131.3729607002543
 20
224.0332565188707
 30
0.0
  0
SEQEND
  5
63C
330
639
100
AcDbEntity
  8
BEMA_U_00DFUNG
 62
     7
  0
POLYLINE
  5
63D
330
1F
100
AcDbEntity
  8
BEMA_U_00DFUNG
 62
     7
100
AcDb2dPolyline
 66
     1
 10
0.0
 20
0.0
 30
0.0
  0
VERTEX
  5
63E
330
63D
100
AcDbEntity
  8
BEMA_U_00DFUNG
 62
     7
100
AcDbVertex
100
AcDb2dVertex
 10
132.3296930766168
 20
223.9824565696834
 30
0.0
  0
VERTEX
  5
63F
330
63D
100
AcDbEntity
  8
BEMA_U_00DFUNG
 62
     7
100
AcDbVertex
100
AcDb2dVertex
 10
130.987374974826
 20
223.9824565696834
 30
0.0
  0
SEQEND
  5
640
330
63D
100
AcDbEntity
  8
BEMA_U_00DFUNG
 62
     7
  0
POLYLINE
  5
641
330
1F
100
AcDbEntity
  8
BEMA_U_00DFUNG
 62
     7
100
AcDb2dPolyline
 66
     1
 10
0.0
 20
0.0
 30
0.0
  0
VERTEX
  5
642
330
641
100
AcDbEntity
  8
BEMA_U_00DFUNG
 62
     7
100
AcDbVertex
100
AcDb2dVertex
 10
132.3296930766168
 20
223.9313038430713
 30
0.0
  0
VERTEX
  5
643
330
641
100
AcDbEntity
  8
BEMA_U_00DFUNG
 62
     7
100
AcDbVertex
100
AcDb2dVertex
 10
130.6014364719736
 20
223.9313038430713
 30
0.0
  0
SEQEND
  5
644
330
641
100
AcDbEntity
  8
BEMA_U_00DFUNG
 62
     7
  0
POLYLINE
  5
645
330
1F
100
AcDbEntity
  8
BEMA_U_00DFUNG
 62
     7
100
AcDb2dPolyline
 66
     1
 10
0.0
 20
0.0
 30
0.0
  0
VERTEX
  5
646
330
645
100
AcDbEntity
  8
BEMA_U_00DFUNG
 62
     7
100
AcDbVertex
100
AcDb2dVertex
 10
132.3296930766168
 20
223.880503893884
 30
0.0
  0
VERTEX
  5
647
330
645
100
AcDbEntity
  8
BEMA_U_00DFUNG
 62
     7
100
AcDbVertex
100
AcDb2dVertex
 10
130.2151451916949
 20
223.880503893884
 30
0.0
  0
SEQEND
  5
648
330
645
100
AcDbEntity
  8
BEMA_U_00DFUNG
 62
     7
  0
POLYLINE
  5
649
330
1F
100
AcDbEntity
  8
BEMA_U_00DFUNG
 62
     7
100
AcDb2dPolyline
 66
     1
 10
0.0
 20
0.0
 30
0.0
  0
VERTEX
  5
64A
330
649
100
AcDbEntity
  8
BEMA_U_00DFUNG
 62
     7
100
AcDbVertex
100
AcDb2dVertex
 10
132.3296930766168
 20
223.8297039446974
 30
0.0
  0
VERTEX
  5
64B
330
649
100
AcDbEntity
  8
BEMA_U_00DFUNG
 62
     7
100
AcDbVertex
100
AcDb2dVertex
 10
129.8295594662647
 20
223.8297039446974
 30
0.0
  0
SEQEND
  5
64C
330
649
100
AcDbEntity
  8
BEMA_U_00DFUNG
 62
     7
  0
POLYLINE
  5
64D
330
1F
100
AcDbEntity
  8
BEMA_U_00DFUNG
 62
     7
100
AcDb2dPolyline
 66
     1
 10
0.0
 20
0.0
 30
0.0
  0
VERTEX
  5
64E
330
64D
100
AcDbEntity
  8
BEMA_U_00DFUNG
 62
     7
100
AcDbVertex
100
AcDb2dVertex
 10
109.7952805885552
 20
234.907952975469
 30
0.0
  0
VERTEX
  5
64F
330
64D
100
AcDbEntity
  8
BEMA_U_00DFUNG
 62
     7
100
AcDbVertex
100
AcDb2dVertex
 10
109.7952805885552
 20
211.6585451183995
 30
0.0
  0
SEQEND
  5
650
330
64D
100
AcDbEntity
  8
BEMA_U_00DFUNG
 62
     7
  0
POLYLINE
  5
651
330
1F
100
AcDbEntity
  8
BEMA_U_00DFUNG
 62
     7
100
AcDb2dPolyline
 66
     1
 10
0.0
 20
0.0
 30
0.0
  0
VERTEX
  5
652
330
651
100
AcDbEntity
  8
BEMA_U_00DFUNG
 62
     7
100
AcDbVertex
100
AcDb2dVertex
 10
129.795643916505
 20
236.9078481972938
 30
0.0
  0
VERTEX
  5
653
330
651
100
AcDbEntity
  8
BEMA_U_00DFUNG
 62
     7
100
AcDbVertex
100
AcDb2dVertex
 10
129.795643916505
 20
211.6585451183995
 30
0.0
  0
SEQEND
  5
654
330
651
100
AcDbEntity
  8
BEMA_U_00DFUNG
 62
     7
  0
POLYLINE
  5
655
330
1F
100
AcDbEntity
  8
BEMA_U_00DFUNG
 62
     7
100
AcDb2dPolyline
 66
     1
 10
0.0
 20
0.0
 30
0.0
  0
VERTEX
  5
656
330
655
100
AcDbEntity
  8
BEMA_U_00DFUNG
 62
     7
100
AcDbVertex
100
AcDb2dVertex
 10
109.7952805885552
 20
213.6584403402249
 30
0.0
  0
VERTEX
  5
657
330
655
100
AcDbEntity
  8
BEMA_U_00DFUNG
 62
     7
100
AcDbVertex
100
AcDb2dVertex
 10
129.795643916505
 20
213.6584403402249
 30
0.0
  0
SEQEND
  5
658
330
655
100
AcDbEntity
  8
BEMA_U_00DFUNG
 62
     7
  0
POLYLINE
  5
659
330
1F
100
AcDbEntity
  8
BEMA_U_00DFUNG
 62
     7
100
AcDb2dPolyline
 66
     1
 10
0.0
 20
0.0
 30
0.0
  0
VERTEX
  5
65A
330
659
100
AcDbEntity
  8
BEMA_U_00DFUNG
 62
     7
100
AcDbVertex
100
AcDb2dVertex
 10
109.7952805885552
 20
213.6584403402249
 30
0.0
  0
VERTEX
  5
65B
330
659
100
AcDbEntity
  8
BEMA_U_00DFUNG
 62
     7
100
AcDbVertex
100
AcDb2dVertex
 10
112.2954141989052
 20
213.3292990027824
 30
0.0
  0
VERTEX
  5
65C
330
659
100
AcDbEntity
  8
BEMA_U_00DFUNG
 62
     7
100
AcDbVertex
100
AcDb2dVertex
 10
112.2954141989052
 20
213.9875816776681
 30
0.0
  0
VERTEX
  5
65D
330
659
100
AcDbEntity
  8
BEMA_U_00DFUNG
 62
     7
100
AcDbVertex
100
AcDb2dVertex
 10
109.7952805885552
 20
213.6584403402249
 30
0.0
  0
SEQEND
  5
65E
330
659
100
AcDbEntity
  8
BEMA_U_00DFUNG
 62
     7
  0
POLYLINE
  5
65F
330
1F
100
AcDbEntity
  8
BEMA_U_00DFUNG
 62
     7
100
AcDb2dPolyline
 66
     1
 10
0.0
 20
0.0
 30
0.0
  0
VERTEX
  5
660
330
65F
100
AcDbEntity
  8
BEMA_U_00DFUNG
 62
     7
100
AcDbVertex
100
AcDb2dVertex
 10
112.2954141989052
 20
213.3539934225254
 30
0.0
  0
VERTEX
  5
661
330
65F
100
AcDbEntity
  8
BEMA_U_00DFUNG
 62
     7
100
AcDbVertex
100
AcDb2dVertex
 10
112.110558828251
 20
213.3539934225254
 30
0.0
  0
SEQEND
  5
662
330
65F
100
AcDbEntity
  8
BEMA_U_00DFUNG
 62
     7
  0
POLYLINE
  5
663
330
1F
100
AcDbEntity
  8
BEMA_U_00DFUNG
 62
     7
100
AcDb2dPolyline
 66
     1
 10
0.0
 20
0.0
 30
0.0
  0
VERTEX
  5
664
330
663
100
AcDbEntity
  8
BEMA_U_00DFUNG
 62
     7
100
AcDbVertex
100
AcDb2dVertex
 10
112.2954141989052
 20
213.3539934225254
 30
0.0
  0
VERTEX
  5
665
330
663
100
AcDbEntity
  8
BEMA_U_00DFUNG
 62
     7
100
AcDbVertex
100
AcDb2dVertex
 10
112.110558828251
 20
213.3539934225254
 30
0.0
  0
SEQEND
  5
666
330
663
100
AcDbEntity
  8
BEMA_U_00DFUNG
 62
     7
  0
POLYLINE
  5
667
330
1F
100
AcDbEntity
  8
BEMA_U_00DFUNG
 62
     7
100
AcDb2dPolyline
 66
     1
 10
0.0
 20
0.0
 30
0.0
  0
VERTEX
  5
668
330
667
100
AcDbEntity
  8
BEMA_U_00DFUNG
 62
     7
100
AcDbVertex
100
AcDb2dVertex
 10
112.2954141989052
 20
213.4047933717133
 30
0.0
  0
VERTEX
  5
669
330
667
100
AcDbEntity
  8
BEMA_U_00DFUNG
 62
     7
100
AcDbVertex
100
AcDb2dVertex
 10
111.7249731028227
 20
213.4047933717133
 30
0.0
  0
SEQEND
  5
66A
330
667
100
AcDbEntity
  8
BEMA_U_00DFUNG
 62
     7
  0
POLYLINE
  5
66B
330
1F
100
AcDbEntity
  8
BEMA_U_00DFUNG
 62
     7
100
AcDb2dPolyline
 66
     1
 10
0.0
 20
0.0
 30
0.0
  0
VERTEX
  5
66C
330
66B
100
AcDbEntity
  8
BEMA_U_00DFUNG
 62
     7
100
AcDbVertex
100
AcDb2dVertex
 10
112.2954141989052
 20
213.4555933209006
 30
0.0
  0
VERTEX
  5
66D
330
66B
100
AcDbEntity
  8
BEMA_U_00DFUNG
 62
     7
100
AcDbVertex
100
AcDb2dVertex
 10
111.3393873773938
 20
213.4555933209006
 30
0.0
  0
SEQEND
  5
66E
330
66B
100
AcDbEntity
  8
BEMA_U_00DFUNG
 62
     7
  0
POLYLINE
  5
66F
330
1F
100
AcDbEntity
  8
BEMA_U_00DFUNG
 62
     7
100
AcDb2dPolyline
 66
     1
 10
0.0
 20
0.0
 30
0.0
  0
VERTEX
  5
670
330
66F
100
AcDbEntity
  8
BEMA_U_00DFUNG
 62
     7
100
AcDbVertex
100
AcDb2dVertex
 10
112.2954141989052
 20
213.5063932700879
 30
0.0
  0
VERTEX
  5
671
330
66F
100
AcDbEntity
  8
BEMA_U_00DFUNG
 62
     7
100
AcDbVertex
100
AcDb2dVertex
 10
110.9530960971158
 20
213.5063932700879
 30
0.0
  0
SEQEND
  5
672
330
66F
100
AcDbEntity
  8
BEMA_U_00DFUNG
 62
     7
  0
POLYLINE
  5
673
330
1F
100
AcDbEntity
  8
BEMA_U_00DFUNG
 62
     7
100
AcDb2dPolyline
 66
     1
 10
0.0
 20
0.0
 30
0.0
  0
VERTEX
  5
674
330
673
100
AcDbEntity
  8
BEMA_U_00DFUNG
 62
     7
100
AcDbVertex
100
AcDb2dVertex
 10
112.2954141989052
 20
213.5571932192752
 30
0.0
  0
VERTEX
  5
675
330
673
100
AcDbEntity
  8
BEMA_U_00DFUNG
 62
     7
100
AcDbVertex
100
AcDb2dVertex
 10
110.5671575942614
 20
213.5571932192752
 30
0.0
  0
SEQEND
  5
676
330
673
100
AcDbEntity
  8
BEMA_U_00DFUNG
 62
     7
  0
POLYLINE
  5
677
330
1F
100
AcDbEntity
  8
BEMA_U_00DFUNG
 62
     7
100
AcDb2dPolyline
 66
     1
 10
0.0
 20
0.0
 30
0.0
  0
VERTEX
  5
678
330
677
100
AcDbEntity
  8
BEMA_U_00DFUNG
 62
     7
100
AcDbVertex
100
AcDb2dVertex
 10
112.2954141989052
 20
213.607640391037
 30
0.0
  0
VERTEX
  5
679
330
677
100
AcDbEntity
  8
BEMA_U_00DFUNG
 62
     7
100
AcDbVertex
100
AcDb2dVertex
 10
110.1815718688331
 20
213.607640391037
 30
0.0
  0
SEQEND
  5
67A
330
677
100
AcDbEntity
  8
BEMA_U_00DFUNG
 62
     7
  0
POLYLINE
  5
67B
330
1F
100
AcDbEntity
  8
BEMA_U_00DFUNG
 62
     7
100
AcDb2dPolyline
 66
     1
 10
0.0
 20
0.0
 30
0.0
  0
VERTEX
  5
67C
330
67B
100
AcDbEntity
  8
BEMA_U_00DFUNG
 62
     7
100
AcDbVertex
100
AcDb2dVertex
 10
112.2954141989052
 20
213.6584403402249
 30
0.0
  0
VERTEX
  5
67D
330
67B
100
AcDbEntity
  8
BEMA_U_00DFUNG
 62
     7
100
AcDbVertex
100
AcDb2dVertex
 10
109.7952805885552
 20
213.6584403402249
 30
0.0
  0
SEQEND
  5
67E
330
67B
100
AcDbEntity
  8
BEMA_U_00DFUNG
 62
     7
  0
POLYLINE
  5
67F
330
1F
100
AcDbEntity
  8
BEMA_U_00DFUNG
 62
     7
100
AcDb2dPolyline
 66
     1
 10
0.0
 20
0.0
 30
0.0
  0
VERTEX
  5
680
330
67F
100
AcDbEntity
  8
BEMA_U_00DFUNG
 62
     7
100
AcDbVertex
100
AcDb2dVertex
 10
112.2954141989052
 20
213.963592812774
 30
0.0
  0
VERTEX
  5
681
330
67F
100
AcDbEntity
  8
BEMA_U_00DFUNG
 62
     7
100
AcDbVertex
100
AcDb2dVertex
 10
112.110558828251
 20
213.963592812774
 30
0.0
  0
SEQEND
  5
682
330
67F
100
AcDbEntity
  8
BEMA_U_00DFUNG
 62
     7
  0
POLYLINE
  5
683
330
1F
100
AcDbEntity
  8
BEMA_U_00DFUNG
 62
     7
100
AcDb2dPolyline
 66
     1
 10
0.0
 20
0.0
 30
0.0
  0
VERTEX
  5
684
330
683
100
AcDbEntity
  8
BEMA_U_00DFUNG
 62
     7
100
AcDbVertex
100
AcDb2dVertex
 10
112.2954141989052
 20
213.963592812774
 30
0.0
  0
VERTEX
  5
685
330
683
100
AcDbEntity
  8
BEMA_U_00DFUNG
 62
     7
100
AcDbVertex
100
AcDb2dVertex
 10
112.110558828251
 20
213.963592812774
 30
0.0
  0
SEQEND
  5
686
330
683
100
AcDbEntity
  8
BEMA_U_00DFUNG
 62
     7
  0
POLYLINE
  5
687
330
1F
100
AcDbEntity
  8
BEMA_U_00DFUNG
 62
     7
100
AcDb2dPolyline
 66
     1
 10
0.0
 20
0.0
 30
0.0
  0
VERTEX
  5
688
330
687
100
AcDbEntity
  8
BEMA_U_00DFUNG
 62
     7
100
AcDbVertex
100
AcDb2dVertex
 10
112.2954141989052
 20
213.9127928635868
 30
0.0
  0
VERTEX
  5
689
330
687
100
AcDbEntity
  8
BEMA_U_00DFUNG
 62
     7
100
AcDbVertex
100
AcDb2dVertex
 10
111.7249731028227
 20
213.9127928635868
 30
0.0
  0
SEQEND
  5
68A
330
687
100
AcDbEntity
  8
BEMA_U_00DFUNG
 62
     7
  0
POLYLINE
  5
68B
330
1F
100
AcDbEntity
  8
BEMA_U_00DFUNG
 62
     7
100
AcDb2dPolyline
 66
     1
 10
0.0
 20
0.0
 30
0.0
  0
VERTEX
  5
68C
330
68B
100
AcDbEntity
  8
BEMA_U_00DFUNG
 62
     7
100
AcDbVertex
100
AcDb2dVertex
 10
112.2954141989052
 20
213.8619929143995
 30
0.0
  0
VERTEX
  5
68D
330
68B
100
AcDbEntity
  8
BEMA_U_00DFUNG
 62
     7
100
AcDbVertex
100
AcDb2dVertex
 10
111.3393873773938
 20
213.8619929143995
 30
0.0
  0
SEQEND
  5
68E
330
68B
100
AcDbEntity
  8
BEMA_U_00DFUNG
 62
     7
  0
POLYLINE
  5
68F
330
1F
100
AcDbEntity
  8
BEMA_U_00DFUNG
 62
     7
100
AcDb2dPolyline
 66
     1
 10
0.0
 20
0.0
 30
0.0
  0
VERTEX
  5
690
330
68F
100
AcDbEntity
  8
BEMA_U_00DFUNG
 62
     7
100
AcDbVertex
100
AcDb2dVertex
 10
112.2954141989052
 20
213.8108401877867
 30
0.0
  0
VERTEX
  5
691
330
68F
100
AcDbEntity
  8
BEMA_U_00DFUNG
 62
     7
100
AcDbVertex
100
AcDb2dVertex
 10
110.9530960971158
 20
213.8108401877867
 30
0.0
  0
SEQEND
  5
692
330
68F
100
AcDbEntity
  8
BEMA_U_00DFUNG
 62
     7
  0
POLYLINE
  5
693
330
1F
100
AcDbEntity
  8
BEMA_U_00DFUNG
 62
     7
100
AcDb2dPolyline
 66
     1
 10
0.0
 20
0.0
 30
0.0
  0
VERTEX
  5
694
330
693
100
AcDbEntity
  8
BEMA_U_00DFUNG
 62
     7
100
AcDbVertex
100
AcDb2dVertex
 10
112.2954141989052
 20
213.7600402385995
 30
0.0
  0
VERTEX
  5
695
330
693
100
AcDbEntity
  8
BEMA_U_00DFUNG
 62
     7
100
AcDbVertex
100
AcDb2dVertex
 10
110.5671575942614
 20
213.7600402385995
 30
0.0
  0
SEQEND
  5
696
330
693
100
AcDbEntity
  8
BEMA_U_00DFUNG
 62
     7
  0
POLYLINE
  5
697
330
1F
100
AcDbEntity
  8
BEMA_U_00DFUNG
 62
     7
100
AcDb2dPolyline
 66
     1
 10
0.0
 20
0.0
 30
0.0
  0
VERTEX
  5
698
330
697
100
AcDbEntity
  8
BEMA_U_00DFUNG
 62
     7
100
AcDbVertex
100
AcDb2dVertex
 10
112.2954141989052
 20
213.7092402894122
 30
0.0
  0
VERTEX
  5
699
330
697
100
AcDbEntity
  8
BEMA_U_00DFUNG
 62
     7
100
AcDbVertex
100
AcDb2dVertex
 10
110.1815718688331
 20
213.7092402894122
 30
0.0
  0
SEQEND
  5
69A
330
697
100
AcDbEntity
  8
BEMA_U_00DFUNG
 62
     7
  0
POLYLINE
  5
69B
330
1F
100
AcDbEntity
  8
BEMA_U_00DFUNG
 62
     7
100
AcDb2dPolyline
 66
     1
 10
0.0
 20
0.0
 30
0.0
  0
VERTEX
  5
69C
330
69B
100
AcDbEntity
  8
BEMA_U_00DFUNG
 62
     7
100
AcDbVertex
100
AcDb2dVertex
 10
112.2954141989052
 20
213.6584403402249
 30
0.0
  0
VERTEX
  5
69D
330
69B
100
AcDbEntity
  8
BEMA_U_00DFUNG
 62
     7
100
AcDbVertex
100
AcDb2dVertex
 10
109.7952805885552
 20
213.6584403402249
 30
0.0
  0
SEQEND
  5
69E
330
69B
100
AcDbEntity
  8
BEMA_U_00DFUNG
 62
     7
  0
POLYLINE
  5
69F
330
1F
100
AcDbEntity
  8
BEMA_U_00DFUNG
 62
     7
100
AcDb2dPolyline
 66
     1
 10
0.0
 20
0.0
 30
0.0
  0
VERTEX
  5
6A0
330
69F
100
AcDbEntity
  8
BEMA_U_00DFUNG
 62
     7
100
AcDbVertex
100
AcDb2dVertex
 10
129.795643916505
 20
213.6584403402249
 30
0.0
  0
VERTEX
  5
6A1
330
69F
100
AcDbEntity
  8
BEMA_U_00DFUNG
 62
     7
100
AcDbVertex
100
AcDb2dVertex
 10
127.295863083581
 20
213.9875816776681
 30
0.0
  0
VERTEX
  5
6A2
330
69F
100
AcDbEntity
  8
BEMA_U_00DFUNG
 62
     7
100
AcDbVertex
100
AcDb2dVertex
 10
127.295863083581
 20
213.3292990027824
 30
0.0
  0
VERTEX
  5
6A3
330
69F
100
AcDbEntity
  8
BEMA_U_00DFUNG
 62
     7
100
AcDbVertex
100
AcDb2dVertex
 10
129.795643916505
 20
213.6584403402249
 30
0.0
  0
SEQEND
  5
6A4
330
69F
100
AcDbEntity
  8
BEMA_U_00DFUNG
 62
     7
  0
POLYLINE
  5
6A5
330
1F
100
AcDbEntity
  8
BEMA_U_00DFUNG
 62
     7
100
AcDb2dPolyline
 66
     1
 10
0.0
 20
0.0
 30
0.0
  0
VERTEX
  5
6A6
330
6A5
100
AcDbEntity
  8
BEMA_U_00DFUNG
 62
     7
100
AcDbVertex
100
AcDb2dVertex
 10
127.295863083581
 20
213.963592812774
 30
0.0
  0
VERTEX
  5
6A7
330
6A5
100
AcDbEntity
  8
BEMA_U_00DFUNG
 62
     7
100
AcDbVertex
100
AcDb2dVertex
 10
127.480718454234
 20
213.963592812774
 30
0.0
  0
SEQEND
  5
6A8
330
6A5
100
AcDbEntity
  8
BEMA_U_00DFUNG
 62
     7
  0
POLYLINE
  5
6A9
330
1F
100
AcDbEntity
  8
BEMA_U_00DFUNG
 62
     7
100
AcDb2dPolyline
 66
     1
 10
0.0
 20
0.0
 30
0.0
  0
VERTEX
  5
6AA
330
6A9
100
AcDbEntity
  8
BEMA_U_00DFUNG
 62
     7
100
AcDbVertex
100
AcDb2dVertex
 10
127.295863083581
 20
213.963592812774
 30
0.0
  0
VERTEX
  5
6AB
330
6A9
100
AcDbEntity
  8
BEMA_U_00DFUNG
 62
     7
100
AcDbVertex
100
AcDb2dVertex
 10
127.480718454234
 20
213.963592812774
 30
0.0
  0
SEQEND
  5
6AC
330
6A9
100
AcDbEntity
  8
BEMA_U_00DFUNG
 62
     7
  0
POLYLINE
  5
6AD
330
1F
100
AcDbEntity
  8
BEMA_U_00DFUNG
 62
     7
100
AcDb2dPolyline
 66
     1
 10
0.0
 20
0.0
 30
0.0
  0
VERTEX
  5
6AE
330
6AD
100
AcDbEntity
  8
BEMA_U_00DFUNG
 62
     7
100
AcDbVertex
100
AcDb2dVertex
 10
127.295863083581
 20
213.9127928635868
 30
0.0
  0
VERTEX
  5
6AF
330
6AD
100
AcDbEntity
  8
BEMA_U_00DFUNG
 62
     7
100
AcDbVertex
100
AcDb2dVertex
 10
127.8663041796616
 20
213.9127928635868
 30
0.0
  0
SEQEND
  5
6B0
330
6AD
100
AcDbEntity
  8
BEMA_U_00DFUNG
 62
     7
  0
POLYLINE
  5
6B1
330
1F
100
AcDbEntity
  8
BEMA_U_00DFUNG
 62
     7
100
AcDb2dPolyline
 66
     1
 10
0.0
 20
0.0
 30
0.0
  0
VERTEX
  5
6B2
330
6B1
100
AcDbEntity
  8
BEMA_U_00DFUNG
 62
     7
100
AcDbVertex
100
AcDb2dVertex
 10
127.295863083581
 20
213.8619929143995
 30
0.0
  0
VERTEX
  5
6B3
330
6B1
100
AcDbEntity
  8
BEMA_U_00DFUNG
 62
     7
100
AcDbVertex
100
AcDb2dVertex
 10
128.252242682516
 20
213.8619929143995
 30
0.0
  0
SEQEND
  5
6B4
330
6B1
100
AcDbEntity
  8
BEMA_U_00DFUNG
 62
     7
  0
POLYLINE
  5
6B5
330
1F
100
AcDbEntity
  8
BEMA_U_00DFUNG
 62
     7
100
AcDb2dPolyline
 66
     1
 10
0.0
 20
0.0
 30
0.0
  0
VERTEX
  5
6B6
330
6B5
100
AcDbEntity
  8
BEMA_U_00DFUNG
 62
     7
100
AcDbVertex
100
AcDb2dVertex
 10
127.295863083581
 20
213.8108401877867
 30
0.0
  0
VERTEX
  5
6B7
330
6B5
100
AcDbEntity
  8
BEMA_U_00DFUNG
 62
     7
100
AcDbVertex
100
AcDb2dVertex
 10
128.637828407945
 20
213.8108401877867
 30
0.0
  0
SEQEND
  5
6B8
330
6B5
100
AcDbEntity
  8
BEMA_U_00DFUNG
 62
     7
  0
POLYLINE
  5
6B9
330
1F
100
AcDbEntity
  8
BEMA_U_00DFUNG
 62
     7
100
AcDb2dPolyline
 66
     1
 10
0.0
 20
0.0
 30
0.0
  0
VERTEX
  5
6BA
330
6B9
100
AcDbEntity
  8
BEMA_U_00DFUNG
 62
     7
100
AcDbVertex
100
AcDb2dVertex
 10
127.295863083581
 20
213.7600402385995
 30
0.0
  0
VERTEX
  5
6BB
330
6B9
100
AcDbEntity
  8
BEMA_U_00DFUNG
 62
     7
100
AcDbVertex
100
AcDb2dVertex
 10
129.0241196882229
 20
213.7600402385995
 30
0.0
  0
SEQEND
  5
6BC
330
6B9
100
AcDbEntity
  8
BEMA_U_00DFUNG
 62
     7
  0
POLYLINE
  5
6BD
330
1F
100
AcDbEntity
  8
BEMA_U_00DFUNG
 62
     7
100
AcDb2dPolyline
 66
     1
 10
0.0
 20
0.0
 30
0.0
  0
VERTEX
  5
6BE
330
6BD
100
AcDbEntity
  8
BEMA_U_00DFUNG
 62
     7
100
AcDbVertex
100
AcDb2dVertex
 10
127.295863083581
 20
213.7092402894122
 30
0.0
  0
VERTEX
  5
6BF
330
6BD
100
AcDbEntity
  8
BEMA_U_00DFUNG
 62
     7
100
AcDbVertex
100
AcDb2dVertex
 10
129.4097054136506
 20
213.7092402894122
 30
0.0
  0
SEQEND
  5
6C0
330
6BD
100
AcDbEntity
  8
BEMA_U_00DFUNG
 62
     7
  0
POLYLINE
  5
6C1
330
1F
100
AcDbEntity
  8
BEMA_U_00DFUNG
 62
     7
100
AcDb2dPolyline
 66
     1
 10
0.0
 20
0.0
 30
0.0
  0
VERTEX
  5
6C2
330
6C1
100
AcDbEntity
  8
BEMA_U_00DFUNG
 62
     7
100
AcDbVertex
100
AcDb2dVertex
 10
127.295863083581
 20
213.6584403402249
 30
0.0
  0
VERTEX
  5
6C3
330
6C1
100
AcDbEntity
  8
BEMA_U_00DFUNG
 62
     7
100
AcDbVertex
100
AcDb2dVertex
 10
129.795643916505
 20
213.6584403402249
 30
0.0
  0
SEQEND
  5
6C4
330
6C1
100
AcDbEntity
  8
BEMA_U_00DFUNG
 62
     7
  0
POLYLINE
  5
6C5
330
1F
100
AcDbEntity
  8
BEMA_U_00DFUNG
 62
     7
100
AcDb2dPolyline
 66
     1
 10
0.0
 20
0.0
 30
0.0
  0
VERTEX
  5
6C6
330
6C5
100
AcDbEntity
  8
BEMA_U_00DFUNG
 62
     7
100
AcDbVertex
100
AcDb2dVertex
 10
127.295863083581
 20
213.3539934225254
 30
0.0
  0
VERTEX
  5
6C7
330
6C5
100
AcDbEntity
  8
BEMA_U_00DFUNG
 62
     7
100
AcDbVertex
100
AcDb2dVertex
 10
127.480718454234
 20
213.3539934225254
 30
0.0
  0
SEQEND
  5
6C8
330
6C5
100
AcDbEntity
  8
BEMA_U_00DFUNG
 62
     7
  0
POLYLINE
  5
6C9
330
1F
100
AcDbEntity
  8
BEMA_U_00DFUNG
 62
     7
100
AcDb2dPolyline
 66
     1
 10
0.0
 20
0.0
 30
0.0
  0
VERTEX
  5
6CA
330
6C9
100
AcDbEntity
  8
BEMA_U_00DFUNG
 62
     7
100
AcDbVertex
100
AcDb2dVertex
 10
127.295863083581
 20
213.3539934225254
 30
0.0
  0
VERTEX
  5
6CB
330
6C9
100
AcDbEntity
  8
BEMA_U_00DFUNG
 62
     7
100
AcDbVertex
100
AcDb2dVertex
 10
127.480718454234
 20
213.3539934225254
 30
0.0
  0
SEQEND
  5
6CC
330
6C9
100
AcDbEntity
  8
BEMA_U_00DFUNG
 62
     7
  0
POLYLINE
  5
6CD
330
1F
100
AcDbEntity
  8
BEMA_U_00DFUNG
 62
     7
100
AcDb2dPolyline
 66
     1
 10
0.0
 20
0.0
 30
0.0
  0
VERTEX
  5
6CE
330
6CD
100
AcDbEntity
  8
BEMA_U_00DFUNG
 62
     7
100
AcDbVertex
100
AcDb2dVertex
 10
127.295863083581
 20
213.4047933717133
 30
0.0
  0
VERTEX
  5
6CF
330
6CD
100
AcDbEntity
  8
BEMA_U_00DFUNG
 62
     7
100
AcDbVertex
100
AcDb2dVertex
 10
127.8663041796616
 20
213.4047933717133
 30
0.0
  0
SEQEND
  5
6D0
330
6CD
100
AcDbEntity
  8
BEMA_U_00DFUNG
 62
     7
  0
POLYLINE
  5
6D1
330
1F
100
AcDbEntity
  8
BEMA_U_00DFUNG
 62
     7
100
AcDb2dPolyline
 66
     1
 10
0.0
 20
0.0
 30
0.0
  0
VERTEX
  5
6D2
330
6D1
100
AcDbEntity
  8
BEMA_U_00DFUNG
 62
     7
100
AcDbVertex
100
AcDb2dVertex
 10
127.295863083581
 20
213.4555933209006
 30
0.0
  0
VERTEX
  5
6D3
330
6D1
100
AcDbEntity
  8
BEMA_U_00DFUNG
 62
     7
100
AcDbVertex
100
AcDb2dVertex
 10
128.252242682516
 20
213.4555933209006
 30
0.0
  0
SEQEND
  5
6D4
330
6D1
100
AcDbEntity
  8
BEMA_U_00DFUNG
 62
     7
  0
POLYLINE
  5
6D5
330
1F
100
AcDbEntity
  8
BEMA_U_00DFUNG
 62
     7
100
AcDb2dPolyline
 66
     1
 10
0.0
 20
0.0
 30
0.0
  0
VERTEX
  5
6D6
330
6D5
100
AcDbEntity
  8
BEMA_U_00DFUNG
 62
     7
100
AcDbVertex
100
AcDb2dVertex
 10
127.295863083581
 20
213.5063932700879
 30
0.0
  0
VERTEX
  5
6D7
330
6D5
100
AcDbEntity
  8
BEMA_U_00DFUNG
 62
     7
100
AcDbVertex
100
AcDb2dVertex
 10
128.637828407945
 20
213.5063932700879
 30
0.0
  0
SEQEND
  5
6D8
330
6D5
100
AcDbEntity
  8
BEMA_U_00DFUNG
 62
     7
  0
POLYLINE
  5
6D9
330
1F
100
AcDbEntity
  8
BEMA_U_00DFUNG
 62
     7
100
AcDb2dPolyline
 66
     1
 10
0.0
 20
0.0
 30
0.0
  0
VERTEX
  5
6DA
330
6D9
100
AcDbEntity
  8
BEMA_U_00DFUNG
 62
     7
100
AcDbVertex
100
AcDb2dVertex
 10
127.295863083581
 20
213.5571932192752
 30
0.0
  0
VERTEX
  5
6DB
330
6D9
100
AcDbEntity
  8
BEMA_U_00DFUNG
 62
     7
100
AcDbVertex
100
AcDb2dVertex
 10
129.0241196882229
 20
213.5571932192752
 30
0.0
  0
SEQEND
  5
6DC
330
6D9
100
AcDbEntity
  8
BEMA_U_00DFUNG
 62
     7
  0
POLYLINE
  5
6DD
330
1F
100
AcDbEntity
  8
BEMA_U_00DFUNG
 62
     7
100
AcDb2dPolyline
 66
     1
 10
0.0
 20
0.0
 30
0.0
  0
VERTEX
  5
6DE
330
6DD
100
AcDbEntity
  8
BEMA_U_00DFUNG
 62
     7
100
AcDbVertex
100
AcDb2dVertex
 10
127.295863083581
 20
213.607640391037
 30
0.0
  0
VERTEX
  5
6DF
330
6DD
100
AcDbEntity
  8
BEMA_U_00DFUNG
 62
     7
100
AcDbVertex
100
AcDb2dVertex
 10
129.4097054136506
 20
213.607640391037
 30
0.0
  0
SEQEND
  5
6E0
330
6DD
100
AcDbEntity
  8
BEMA_U_00DFUNG
 62
     7
  0
POLYLINE
  5
6E1
330
1F
100
AcDbEntity
  8
BEMA_U_00DFUNG
 62
     7
100
AcDb2dPolyline
 66
     1
 10
0.0
 20
0.0
 30
0.0
  0
VERTEX
  5
6E2
330
6E1
100
AcDbEntity
  8
BEMA_U_00DFUNG
 62
     7
100
AcDbVertex
100
AcDb2dVertex
 10
127.295863083581
 20
213.6584403402249
 30
0.0
  0
VERTEX
  5
6E3
330
6E1
100
AcDbEntity
  8
BEMA_U_00DFUNG
 62
     7
100
AcDbVertex
100
AcDb2dVertex
 10
129.795643916505
 20
213.6584403402249
 30
0.0
  0
SEQEND
  5
6E4
330
6E1
100
AcDbEntity
  8
BEMA_U_00DFUNG
 62
     7
  0
MTEXT
  5
6E6
330
1F
100
AcDbEntity
  8
TEXT
 62
     7
100
AcDbMText
 10
27.77591009505255
 20
224.6958454841906
 30
0.0
 40
4.541207312847344
 41
0.0
 71
     7
 72
     1
  1
\fINDEX Univers 45 Light|b0|i0|c0|p34;\W1;ø60
  0
MTEXT
  5
6E7
330
1F
100
AcDbEntity
  8
TEXT
 62
     7
100
AcDbMText
 10
118.7272921795196
 20
225.0841077453783
 30
0.0
 40
4.541207312847344
 41
0.0
 71
     7
 72
     1
  1
\fINDEX Univers 45 Light|b0|i0|c0|p34;\W1;8
  0
MTEXT
  5
6E8
330
1F
100
AcDbEntity
  8
TEXT
 62
     7
100
AcDbMText
 10
133.0544107740281
 20
225.0841077453783
 30
0.0
 40
4.541207312847344
 41
0.0
 71
     7
 72
     1
  1
\fINDEX Univers 45 Light|b0|i0|c0|p34;\W1;6
  0
MTEXT
  5
6E9
330
1F
100
AcDbEntity
  8
TEXT
 62
     7
100
AcDbMText
 10
117.4594970409476
 20
215.1062499462234
 30
0.0
 40
4.541207312847344
 41
0.0
 71
     7
 72
     1
  1
\fINDEX Univers 45 Light|b0|i0|c0|p34;\W1;20
  0
ENDSEC
  0
SECTION
  2
OBJECTS
  0
DICTIONARY
  5
C
330
0
100
AcDbDictionary
  3
ACAD_GROUP
350
D
  3
ACAD_LAYOUT
350
1A
  3
ACAD_MATERIAL
350
3B
  3
ACAD_MLEADERSTYLE
350
70C
  3
ACAD_MLINESTYLE
350
17
  3
ACAD_PLOTSETTINGS
350
19
  3
ACAD_VISUALSTYLE
350
2A
  3
ACDBHEADERROUNDTRIPXREC
350
6EA
  3
ACDBVARIABLEDICTIONARY
350
70A
  0
DICTIONARY
  5
D
102
{ACAD_REACTORS
330
C
102
}
330
C
100
AcDbDictionary
  0
DICTIONARY
  5
1A
102
{ACAD_REACTORS
330
C
102
}
330
C
100
AcDbDictionary
  0
DICTIONARY
  5
3B
102
{ACAD_REACTORS
330
C
102
}
330
C
100
AcDbDictionary
  3
BYBLOCK
350
3D
  3
BYLAYER
350
3C
  3
GLOBAL
350
3E
  0
DICTIONARY
  5
70C
102
{ACAD_REACTORS
330
C
102
}
330
C
100
AcDbDictionary
  0
DICTIONARY
  5
17
102
{ACAD_REACTORS
330
C
102
}
330
C
100
AcDbDictionary
  3
STANDARD
350
18
  0
DICTIONARY
  5
19
102
{ACAD_REACTORS
330
C
102
}
330
C
100
AcDbDictionary
  0
DICTIONARY
  5
2A
102
{ACAD_REACTORS
330
C
102
}
330
C
100
AcDbDictionary
  3
2DWIREFRAME
350
2F
  3
3D_HIDDEN
350
31
  3
3DWIREFRAME
350
30
  3
BASIC
350
32
  3
BRIGHTEN
350
36
  3
COLORCHANGE
350
3A
  3
CONCEPTUAL
350
34
  3
DIM
350
35
  3
FACEPATTERN
350
39
  3
FLAT
350
2B
  3
FLATWITHEDGES
350
2C
  3
GOURAUD
350
2D
  3
GOURAUDWITHEDGES
350
2E
  3
LINEPATTERN
350
38
  3
REALISTIC
350
33
  3
THICKEN
350
37
  0
DICTIONARY
  5
6EA
102
{ACAD_REACTORS
330
C
102
}
330
C
100
AcDbDictionary
  3
CEPSNTYPE
350
6F3
  3
DIMSTYLEDATA
350
709
  3
FINGERPRINTGUID
350
6F4
  3
HYPERLINKBASE
350
6ED
  3
INSUNITS
350
6F2
  3
LAYOUTDICT
350
6EF
  3
LWETCUNION
350
6F1
  3
PLOTSETDICT
350
6F0
  3
PSVPSCALE
350
6F6
  3
PUCSBASE
350
6F9
  3
PUCSORGBACK
350
6FF
  3
PUCSORGBOTTOM
350
6FB
  3
PUCSORGFRONT
350
6FE
  3
PUCSORGLEFT
350
6FC
  3
PUCSORGRIGHT
350
6FD
  3
PUCSORGTOP
350
6FA
  3
PUCSORTHOREF
350
6F7
  3
PUCSORTHOVIEW
350
6F8
  3
STYLESHEET
350
6EE
  3
TSTACKALIGN
350
6EB
  3
TSTACKSIZE
350
6EC
  3
UCSBASE
350
702
  3
UCSORGBACK
350
708
  3
UCSORGBOTTOM
350
704
  3
UCSORGFRONT
350
707
  3
UCSORGLEFT
350
705
  3
UCSORGRIGHT
350
706
  3
UCSORGTOP
350
703
  3
UCSORTHOREF
350
700
  3
UCSORTHOVIEW
350
701
  3
VERSIONGUID
350
6F5
  0
DICTIONARY
  5
70A
102
{ACAD_REACTORS
330
C
102
}
330
C
100
AcDbDictionary
  3
DIMASSOC
350
70D
  3
HIDETEXT
350
70E
  0
MATERIAL
  5
3D
102
{ACAD_REACTORS
330
3B
102
}
102
{ACAD_XDICTIONARY
360
711
102
}
330
3B
100
AcDbMaterial
  1
ByBlock
  0
MATERIAL
  5
3C
102
{ACAD_REACTORS
330
3B
102
}
102
{ACAD_XDICTIONARY
360
70F
102
}
330
3B
100
AcDbMaterial
  1
ByLayer
  0
MATERIAL
  5
3E
102
{ACAD_REACTORS
330
3B
102
}
102
{ACAD_XDICTIONARY
360
713
102
}
330
3B
100
AcDbMaterial
  1
Global
  0
MLINESTYLE
  5
18
102
{ACAD_REACTORS
330
17
102
}
330
17
100
AcDbMlineStyle
  2
Standard
 70
     0
  3

 62
   256
 51
90.0
 52
90.0
 71
     2
 49
0.5
 62
   256
  6
BYLAYER
 49
-0.5
 62
   256
  6
BYLAYER
  0
ACAD_PROXY_OBJECT
  5
2F
102
{ACAD_REACTORS
330
2A
102
}
330
2A
100
AcDbProxyObject
 90
      499
 91
      501
 93
      436
310
42CC9915DA5C99599C985B595049028333333333333E3BF0000000000000FB0107901411070040501600405405064090741402480A0340
1001
ACAD
1000
AcDbSavedByObjectVersion
1070
     0
  0
ACAD_PROXY_OBJECT
  5
31
102
{ACAD_REACTORS
330
2A
102
}
330
2A
100
AcDbProxyObject
 90
      499
 91
      501
 93
      500
310
424CD108121A5919195B90640502408333333333333E3BF0000000000000FB01079024090700405020000000000001110200405405064090740C02480A0340
1001
ACAD
1000
AcDbSavedByObjectVersion
1070
     0
  0
ACAD_PROXY_OBJECT
  5
30
102
{ACAD_REACTORS
330
2A
102
}
330
2A
100
AcDbProxyObject
 90
      499
 91
      501
 93
      436
310
42CCD915DA5C99599C985B595059028333333333333E3BF0000000000000FB0107901411070040501600405405064090741402480A0340
1001
ACAD
1000
AcDbSavedByObjectVersion
1070
     0
  0
ACAD_PROXY_OBJECT
  5
32
102
{ACAD_REACTORS
330
2A
102
}
330
2A
100
AcDbProxyObject
 90
      499
 91
      501
 93
      388
310
4150985CDA58D07406404333333333333E3BF0000000000000FB0107A41107004050150841D405064090741402480A0350
1001
ACAD
1000
AcDbSavedByObjectVersion
1070
     0
  0
ACAD_PROXY_OBJECT
  5
36
102
{ACAD_REACTORS
330
2A
102
}
330
2A
100
AcDbProxyObject
 90
      499
 91
      501
 93
      428
310
42109C9A59DA1D195B90C409028333333333333E3BF0000000000000FB010790141107004050150841D405064090741402480A029950
1001
ACAD
1000
AcDbSavedByObjectVersion
1070
     0
  0
ACAD_PROXY_OBJECT
  5
3A
102
{ACAD_REACTORS
330
2A
102
}
330
2A
100
AcDbProxyObject
 90
      499
 91
      501
 93
      452
310
42D0DBDB1BDC90DA185B99D95104090240C333333333333E3BF0000000000000FB0108901411070040501508421405064090741402480A0350
1001
ACAD
1000
AcDbSavedByObjectVersion
1070
     0
  0
ACAD_PROXY_OBJECT
  5
34
102
{ACAD_REACTORS
330
2A
102
}
330
2A
100
AcDbProxyObject
 90
      499
 91
      501
 93
      500
310
4290DBDB98D95C1D1D585B10940D028333333333333E3BF0000000000000FB0107902409070040501000000000000111010841D405064090740C02480A0340
1001
ACAD
1000
AcDbSavedByObjectVersion
1070
     0
  0
ACAD_PROXY_OBJECT
  5
35
102
{ACAD_REACTORS
330
2A
102
}
330
2A
100
AcDbProxyObject
 90
      499
 91
      501
 93
      412
310
40D11A5B50B409028333333333333E3BF0000000000000FB010790141107004050150841D405064090741402480A02677FFFFFD0
1001
ACAD
1000
AcDbSavedByObjectVersion
1070
     0
  0
ACAD_PROXY_OBJECT
  5
39
102
{ACAD_REACTORS
330
2A
102
}
330
2A
100
AcDbProxyObject
 90
      499
 91
      501
 93
      444
310
42D19858D95C185D1D195C9B90F409028333333333333E3BF0000000000000FB010790141107004050150841D405064090741402480A0350
1001
ACAD
1000
AcDbSavedByObjectVersion
1070
     0
  0
ACAD_PROXY_OBJECT
  5
2B
102
{ACAD_REACTORS
330
2A
102
}
330
2A
100
AcDbProxyObject
 90
      499
 91
      501
 93
      388
310
41119B185D240901404333333333333E3BF0000000000000F9010740A41107004050150841D405064090741402480A1B50
1001
ACAD
1000
AcDbSavedByObjectVersion
1070
     0
  0
ACAD_PROXY_OBJECT
  5
2C
102
{ACAD_REACTORS
330
2A
102
}
330
2A
100
AcDbProxyObject
 90
      499
 91
      501
 93
      476
310
43519B185D15DA5D1A115919D95CD0140901404333333333333E3BF0000000000000F9010740901411070040501600405405064090741402480A1B50
1001
ACAD
1000
AcDbSavedByObjectVersion
1070
     0
  0
ACAD_PROXY_OBJECT
  5
2D
102
{ACAD_REACTORS
330
2A
102
}
330
2A
100
AcDbProxyObject
 90
      499
 91
      501
 93
      412
310
41D1DBDD5C985D5910240902404333333333333E3BF0000000000000F9010740A411070040501641D405064090741402480A1B50
1001
ACAD
1000
AcDbSavedByObjectVersion
1070
     0
  0
ACAD_PROXY_OBJECT
  5
2E
102
{ACAD_REACTORS
330
2A
102
}
330
2A
100
AcDbProxyObject
 90
      499
 91
      501
 93
      500
310
4411DBDD5C985D5915DA5D1A115919D95CD0340902404333333333333E3BF0000000000000F9010740901411070040501600405405064090741402480A1B50
1001
ACAD
1000
AcDbSavedByObjectVersion
1070
     0
  0
ACAD_PROXY_OBJECT
  5
38
102
{ACAD_REACTORS
330
2A
102
}
330
2A
100
AcDbProxyObject
 90
      499
 91
      501
 93
      444
310
42D31A5B995C185D1D195C9B90E409028333333333333E3BF0000000000000FB010790141107004050750841D405064090741402483A0350
1001
ACAD
1000
AcDbSavedByObjectVersion
1070
     0
  0
ACAD_PROXY_OBJECT
  5
33
102
{ACAD_REACTORS
330
2A
102
}
330
2A
100
AcDbProxyObject
 90
      499
 91
      501
 93
      420
310
425499585B1A5CDD1A58D08409028333333333333E3BF0000000000000FB01079019070040501508421405064090741402480A1B40
1001
ACAD
1000
AcDbSavedByObjectVersion
1070
     0
  0
ACAD_PROXY_OBJECT
  5
37
102
{ACAD_REACTORS
330
2A
102
}
330
2A
100
AcDbProxyObject
 90
      499
 91
      501
 93
      412
310
41D51A1A58DAD95B90D409028333333333333E3BF0000000000000FB010790141107004050150C41D405064090741402480A0350
1001
ACAD
1000
AcDbSavedByObjectVersion
1070
     0
  0
XRECORD
  5
6F3
102
{ACAD_REACTORS
330
6EA
102
}
330
6EA
100
AcDbXrecord
 90
        0
  0
XRECORD
  5
709
102
{ACAD_REACTORS
330
6EA
102
}
330
6EA
100
AcDbXrecord
1000
DSTYLE
1002
{
1070
   340
340
11
1002
}
  0
XRECORD
  5
6F4
102
{ACAD_REACTORS
330
6EA
102
}
330
6EA
100
AcDbXrecord
  1
{194F6857-B2E9-4DDC-AAC6-581062658511}
  0
XRECORD
  5
6ED
102
{ACAD_REACTORS
330
6EA
102
}
330
6EA
100
AcDbXrecord
  1

  0
XRECORD
  5
6F2
102
{ACAD_REACTORS
330
6EA
102
}
330
6EA
100
AcDbXrecord
 90
        4
  0
XRECORD
  5
6EF
102
{ACAD_REACTORS
330
6EA
102
}
330
6EA
100
AcDbXrecord
340
1A
  0
XRECORD
  5
6F1
102
{ACAD_REACTORS
330
6EA
102
}
330
6EA
100
AcDbXrecord
 90
    10269
  0
XRECORD
  5
6F0
102
{ACAD_REACTORS
330
6EA
102
}
330
6EA
100
AcDbXrecord
340
19
  0
XRECORD
  5
6F6
102
{ACAD_REACTORS
330
6EA
102
}
330
6EA
100
AcDbXrecord
 40
0.0
  0
XRECORD
  5
6F9
102
{ACAD_REACTORS
330
6EA
102
}
330
6EA
100
AcDbXrecord
340
0
  0
XRECORD
  5
6FF
102
{ACAD_REACTORS
330
6EA
102
}
330
6EA
100
AcDbXrecord
 10
0.0
 20
0.0
 30
0.0
  0
XRECORD
  5
6FB
102
{ACAD_REACTORS
330
6EA
102
}
330
6EA
100
AcDbXrecord
 10
0.0
 20
0.0
 30
0.0
  0
XRECORD
  5
6FE
102
{ACAD_REACTORS
330
6EA
102
}
330
6EA
100
AcDbXrecord
 10
0.0
 20
0.0
 30
0.0
  0
XRECORD
  5
6FC
102
{ACAD_REACTORS
330
6EA
102
}
330
6EA
100
AcDbXrecord
 10
0.0
 20
0.0
 30
0.0
  0
XRECORD
  5
6FD
102
{ACAD_REACTORS
330
6EA
102
}
330
6EA
100
AcDbXrecord
 10
0.0
 20
0.0
 30
0.0
  0
XRECORD
  5
6FA
102
{ACAD_REACTORS
330
6EA
102
}
330
6EA
100
AcDbXrecord
 10
0.0
 20
0.0
 30
0.0
  0
XRECORD
  5
6F7
102
{ACAD_REACTORS
330
6EA
102
}
330
6EA
100
AcDbXrecord
340
0
  0
XRECORD
  5
6F8
102
{ACAD_REACTORS
330
6EA
102
}
330
6EA
100
AcDbXrecord
 70
     0
  0
XRECORD
  5
6EE
102
{ACAD_REACTORS
330
6EA
102
}
330
6EA
100
AcDbXrecord
  1

  0
XRECORD
  5
6EB
102
{ACAD_REACTORS
330
6EA
102
}
330
6EA
100
AcDbXrecord
 90
        1
  0
XRECORD
  5
6EC
102
{ACAD_REACTORS
330
6EA
102
}
330
6EA
100
AcDbXrecord
 90
       70
  0
XRECORD
  5
702
102
{ACAD_REACTORS
330
6EA
102
}
330
6EA
100
AcDbXrecord
340
0
  0
XRECORD
  5
708
102
{ACAD_REACTORS
330
6EA
102
}
330
6EA
100
AcDbXrecord
 10
0.0
 20
0.0
 30
0.0
  0
XRECORD
  5
704
102
{ACAD_REACTORS
330
6EA
102
}
330
6EA
100
AcDbXrecord
 10
0.0
 20
0.0
 30
0.0
  0
XRECORD
  5
707
102
{ACAD_REACTORS
330
6EA
102
}
330
6EA
100
AcDbXrecord
 10
0.0
 20
0.0
 30
0.0
  0
XRECORD
  5
705
102
{ACAD_REACTORS
330
6EA
102
}
330
6EA
100
AcDbXrecord
 10
0.0
 20
0.0
 30
0.0
  0
XRECORD
  5
706
102
{ACAD_REACTORS
330
6EA
102
}
330
6EA
100
AcDbXrecord
 10
0.0
 20
0.0
 30
0.0
  0
XRECORD
  5
703
102
{ACAD_REACTORS
330
6EA
102
}
330
6EA
100
AcDbXrecord
 10
0.0
 20
0.0
 30
0.0
  0
XRECORD
  5
700
102
{ACAD_REACTORS
330
6EA
102
}
330
6EA
100
AcDbXrecord
340
0
  0
XRECORD
  5
701
102
{ACAD_REACTORS
330
6EA
102
}
330
6EA
100
AcDbXrecord
 70
     0
  0
XRECORD
  5
6F5
102
{ACAD_REACTORS
330
6EA
102
}
330
6EA
100
AcDbXrecord
  1
{FAEB1C32-E019-11D5-929B-00C0DF256EC4}
  0
DICTIONARYVAR
  5
70D
102
{ACAD_REACTORS
330
70A
102
}
330
70A
100
DictionaryVariables
280
     0
  1
2
  0
DICTIONARYVAR
  5
70E
102
{ACAD_REACTORS
330
70A
102
}
330
70A
100
DictionaryVariables
280
     0
  1
1
  0
DICTIONARY
  5
711
330
3D
100
AcDbDictionary
280
     1
  3
ACAD_XREC_ROUNDTRIP
360
712
  0
DICTIONARY
  5
70F
330
3C
100
AcDbDictionary
280
     1
  3
ACAD_XREC_ROUNDTRIP
360
710
  0
DICTIONARY
  5
713
330
3E
100
AcDbDictionary
280
     1
  3
ACAD_XREC_ROUNDTRIP
360
714
  0
XRECORD
  5
712
102
{ACAD_REACTORS
330
711
102
}
330
711
100
AcDbXrecord
102
MATERIAL
148
0.0
149
0.0
149
0.0
 93
        0
 94
      127
282
     0
 72
     1
 77
     1
171
     1
175
     1
179
     1
273
     0
  0
XRECORD
  5
710
102
{ACAD_REACTORS
330
70F
102
}
330
70F
100
AcDbXrecord
102
MATERIAL
148
0.0
149
0.0
149
0.0
 93
        0
 94
      127
282
     0
 72
     1
 77
     1
171
     1
175
     1
179
     1
273
     0
  0
XRECORD
  5
714
102
{ACAD_REACTORS
330
713
102
}
330
713
100
AcDbXrecord
102
MATERIAL
148
0.0
149
0.0
149
0.0
 93
        0
 94
      127
282
     0
 72
     1
 77
     1
171
     1
175
     1
179
     1
273
     0
  0
ENDSEC
  0
EOF
