  0
SECTION
  2
HEADER
  9
$ACADVER
  1
AC1014
  9
$ACADMAINTVER
 70
     9
  9
$DWGCODEPAGE
  3
ASCII
  9
$INSBASE
 10
0.0
 20
0.0
 30
0.0
  9
$EXTMIN
 10
1.000000000000000E+20
 20
1.000000000000000E+20
 30
1.000000000000000E+20
  9
$EXTMAX
 10
-1.000000000000000E+20
 20
-1.000000000000000E+20
 30
-1.000000000000000E+20
  9
$LIMMIN
 10
0.0
 20
0.0
  9
$LIMMAX
 10
12.0
 20
9.0
  9
$ORTHOMODE
 70
     0
  9
$REGENMODE
 70
     1
  9
$FILLMODE
 70
     1
  9
$QTEXTMODE
 70
     0
  9
$MIRRTEXT
 70
     1
  9
$DRAGMODE
 70
     2
  9
$LTSCALE
 40
1.0
  9
$OSMODE
 70
    37
  9
$ATTMODE
 70
     1
  9
$TEXTSIZE
 40
0.2
  9
$TRACEWID
 40
0.05
  9
$TEXTSTYLE
  7
STANDARD
  9
$CLAYER
  8
0
  9
$CELTYPE
  6
BYLAYER
  9
$CECOLOR
 62
   256
  9
$CELTSCALE
 40
1.0
  9
$DELOBJ
 70
     1
  9
$DISPSILH
 70
     0
  9
$DIMSCALE
 40
1.0
  9
$DIMASZ
 40
0.18
  9
$DIMEXO
 40
0.0625
  9
$DIMDLI
 40
0.38
  9
$DIMRND
 40
0.0
  9
$DIMDLE
 40
0.0
  9
$DIMEXE
 40
0.18
  9
$DIMTP
 40
0.0
  9
$DIMTM
 40
0.0
  9
$DIMTXT
 40
0.18
  9
$DIMCEN
 40
0.09
  9
$DIMTSZ
 40
0.0
  9
$DIMTOL
 70
     0
  9
$DIMLIM
 70
     0
  9
$DIMTIH
 70
     1
  9
$DIMTOH
 70
     1
  9
$DIMSE1
 70
     0
  9
$DIMSE2
 70
     0
  9
$DIMTAD
 70
     0
  9
$DIMZIN
 70
     0
  9
$DIMBLK
  1

  9
$DIMASO
 70
     1
  9
$DIMSHO
 70
     1
  9
$DIMPOST
  1

  9
$DIMAPOST
  1

  9
$DIMALT
 70
     0
  9
$DIMALTD
 70
     2
  9
$DIMALTF
 40
25.4
  9
$DIMLFAC
 40
1.0
  9
$DIMTOFL
 70
     0
  9
$DIMTVP
 40
0.0
  9
$DIMTIX
 70
     0
  9
$DIMSOXD
 70
     0
  9
$DIMSAH
 70
     0
  9
$DIMBLK1
  1

  9
$DIMBLK2
  1

  9
$DIMSTYLE
  2
STANDARD
  9
$DIMCLRD
 70
     0
  9
$DIMCLRE
 70
     0
  9
$DIMCLRT
 70
     0
  9
$DIMTFAC
 40
1.0
  9
$DIMGAP
 40
0.09
  9
$DIMJUST
 70
     0
  9
$DIMSD1
 70
     0
  9
$DIMSD2
 70
     0
  9
$DIMTOLJ
 70
     1
  9
$DIMTZIN
 70
     0
  9
$DIMALTZ
 70
     0
  9
$DIMALTTZ
 70
     0
  9
$DIMFIT
 70
     3
  9
$DIMUPT
 70
     0
  9
$DIMUNIT
 70
     2
  9
$DIMDEC
 70
     4
  9
$DIMTDEC
 70
     4
  9
$DIMALTU
 70
     2
  9
$DIMALTTD
 70
     2
  9
$DIMTXSTY
  7
STANDARD
  9
$DIMAUNIT
 70
     0
  9
$LUNITS
 70
     2
  9
$LUPREC
 70
     4
  9
$SKETCHINC
 40
0.1
  9
$FILLETRAD
 40
0.5
  9
$AUNITS
 70
     0
  9
$AUPREC
 70
     0
  9
$MENU
  1
.
  9
$ELEVATION
 40
0.0
  9
$PELEVATION
 40
0.0
  9
$THICKNESS
 40
0.0
  9
$LIMCHECK
 70
     0
  9
$CHAMFERA
 40
0.5
  9
$CHAMFERB
 40
0.5
  9
$CHAMFERC
 40
1.0
  9
$CHAMFERD
 40
0.0
  9
$SKPOLY
 70
     0
  9
$TDCREATE
 40
2455000.435283044
  9
$TDUPDATE
 40
2455000.435283056
  9
$TDINDWG
 40
0.0000000116
  9
$TDUSRTIMER
 40
0.0000000116
  9
$USRTIMER
 70
     1
  9
$ANGBASE
 50
0.0
  9
$ANGDIR
 70
     0
  9
$PDMODE
 70
     0
  9
$PDSIZE
 40
0.0
  9
$PLINEWID
 40
0.0
  9
$COORDS
 70
     1
  9
$SPLFRAME
 70
     0
  9
$SPLINETYPE
 70
     6
  9
$SPLINESEGS
 70
     8
  9
$ATTDIA
 70
     0
  9
$ATTREQ
 70
     1
  9
$HANDLING
 70
     1
  9
$HANDSEED
  5
554
  9
$SURFTAB1
 70
     6
  9
$SURFTAB2
 70
     6
  9
$SURFTYPE
 70
     6
  9
$SURFU
 70
     6
  9
$SURFV
 70
     6
  9
$UCSNAME
  2

  9
$UCSORG
 10
0.0
 20
0.0
 30
0.0
  9
$UCSXDIR
 10
1.0
 20
0.0
 30
0.0
  9
$UCSYDIR
 10
0.0
 20
1.0
 30
0.0
  9
$PUCSNAME
  2

  9
$PUCSORG
 10
0.0
 20
0.0
 30
0.0
  9
$PUCSXDIR
 10
1.0
 20
0.0
 30
0.0
  9
$PUCSYDIR
 10
0.0
 20
1.0
 30
0.0
  9
$USERI1
 70
     0
  9
$USERI2
 70
     0
  9
$USERI3
 70
     0
  9
$USERI4
 70
     0
  9
$USERI5
 70
     0
  9
$USERR1
 40
0.0
  9
$USERR2
 40
0.0
  9
$USERR3
 40
0.0
  9
$USERR4
 40
0.0
  9
$USERR5
 40
0.0
  9
$WORLDVIEW
 70
     1
  9
$SHADEDGE
 70
     3
  9
$SHADEDIF
 70
    70
  9
$TILEMODE
 70
     1
  9
$MAXACTVP
 70
    64
  9
$PINSBASE
 10
0.0
 20
0.0
 30
0.0
  9
$PLIMCHECK
 70
     0
  9
$PEXTMIN
 10
1.000000000000000E+20
 20
1.000000000000000E+20
 30
1.000000000000000E+20
  9
$PEXTMAX
 10
-1.000000000000000E+20
 20
-1.000000000000000E+20
 30
-1.000000000000000E+20
  9
$PLIMMIN
 10
0.0
 20
0.0
  9
$PLIMMAX
 10
12.0
 20
9.0
  9
$UNITMODE
 70
     0
  9
$VISRETAIN
 70
     1
  9
$PLINEGEN
 70
     0
  9
$PSLTSCALE
 70
     1
  9
$TREEDEPTH
 70
  3020
  9
$PICKSTYLE
 70
     1
  9
$CMLSTYLE
  2
STANDARD
  9
$CMLJUST
 70
     0
  9
$CMLSCALE
 40
1.0
  9
$PROXYGRAPHICS
 70
     1
  9
$MEASUREMENT
 70
     0
  0
ENDSEC
  0
SECTION
  2
CLASSES
  0
CLASS
  1
ACDBDICTIONARYWDFLT
  2
AcDbDictionaryWithDefault
  3
ObjectDBX Classes
 90
        0
280
     0
281
     0
  0
CLASS
  1
VISUALSTYLE
  2
AcDbVisualStyle
  3
ObjectDBX Classes
 90
     4095
280
     0
281
     0
  0
CLASS
  1
XRECORD
  2
AcDbXrecord
  3
AutoCAD 2000
 90
        0
280
     0
281
     0
  0
CLASS
  1
LWPOLYLINE
  2
AcDbPolyline
  3
AutoCAD 2000
 90
        0
280
     0
281
     1
  0
CLASS
  1
HATCH
  2
AcDbHatch
  3
AutoCAD 2000
 90
        0
280
     0
281
     1
  0
CLASS
  1
ACDBPLACEHOLDER
  2
AcDbPlaceHolder
  3
ObjectDBX Classes
 90
        0
280
     0
281
     0
  0
CLASS
  1
LAYOUT
  2
AcDbLayout
  3
ObjectDBX Classes
 90
        0
280
     0
281
     0
  0
ENDSEC
  0
SECTION
  2
TABLES
  0
TABLE
  2
VPORT
  5
8
330
0
100
AcDbSymbolTable
 70
     1
  0
VPORT
  5
29
330
8
100
AcDbSymbolTableRecord
100
AcDbViewportTableRecord
  2
*ACTIVE
 70
     0
 10
0.0
 20
0.0
 11
1.0
 21
1.0
 12
0.0
 22
0.0
 13
0.0
 23
0.0
 14
0.5
 24
0.5
 15
0.5
 25
0.5
 16
0.0
 26
0.0
 36
1.0
 17
-39.61517911880145
 27
-0.1478808212605038
 37
0.0
 40
120.2569766823525
 41
0.8799509091307556
 42
50.0
 43
0.0
 44
0.0
 50
0.0
 51
0.0
 71
     0
 72
   100
 73
     1
 74
     3
 75
     0
 76
     0
 77
     0
 78
     0
  0
ENDTAB
  0
TABLE
  2
LTYPE
  5
5
330
0
100
AcDbSymbolTable
 70
     2
  0
LTYPE
  5
14
330
5
100
AcDbSymbolTableRecord
100
AcDbLinetypeTableRecord
  2
BYBLOCK
 70
     0
  3

 72
    65
 73
     0
 40
0.0
  0
LTYPE
  5
15
330
5
100
AcDbSymbolTableRecord
100
AcDbLinetypeTableRecord
  2
BYLAYER
 70
     0
  3

 72
    65
 73
     0
 40
0.0
  0
LTYPE
  5
16
330
5
100
AcDbSymbolTableRecord
100
AcDbLinetypeTableRecord
  2
CONTINUOUS
 70
     0
  3
Solid line
 72
    65
 73
     0
 40
0.0
  0
LTYPE
  5
42D
330
5
100
AcDbSymbolTableRecord
100
AcDbLinetypeTableRecord
  2
AI-LINETYPE-1
 70
     0
  3
Adobe Illustrator Linetype No. 1
 72
    65
 73
     4
 40
8.819450260381924
 49
7.055560208305538
 74
     0
 49
-0.7055560208305538
 74
     0
 49
0.3527780104152769
 74
     0
 49
-0.7055560208305538
 74
     0
  0
ENDTAB
  0
TABLE
  2
LAYER
  5
2
330
0
100
AcDbSymbolTable
 70
     5
  0
LAYER
  5
10
330
2
100
AcDbSymbolTableRecord
100
AcDbLayerTableRecord
  2
0
 70
     0
 62
     7
  6
CONTINUOUS
  0
LAYER
  5
3B
330
2
100
AcDbSymbolTableRecord
100
AcDbLayerTableRecord
  2
STANDARDEBENE
 70
     0
 62
     7
  6
CONTINUOUS
  0
LAYER
  5
40
330
2
100
AcDbSymbolTableRecord
100
AcDbLayerTableRecord
  2
BEMA_UNG
 70
     1
 62
     7
  6
CONTINUOUS
  0
LAYER
  5
422
330
2
100
AcDbSymbolTableRecord
100
AcDbLayerTableRecord
  2
TEXT
 70
     1
 62
     7
  6
CONTINUOUS
  0
LAYER
  5
428
330
2
100
AcDbSymbolTableRecord
100
AcDbLayerTableRecord
  2
GRAU_10_
 70
     0
 62
     7
  6
CONTINUOUS
  0
ENDTAB
  0
TABLE
  2
STYLE
  5
3
330
0
100
AcDbSymbolTable
 70
     1
  0
STYLE
  5
11
330
3
100
AcDbSymbolTableRecord
100
AcDbTextStyleTableRecord
  2
STANDARD
 70
     0
 40
0.0
 41
1.0
 50
0.0
 71
     0
 42
0.2
  3
txt
  4

  0
ENDTAB
  0
TABLE
  2
VIEW
  5
6
330
0
100
AcDbSymbolTable
 70
     0
  0
ENDTAB
  0
TABLE
  2
UCS
  5
7
330
0
100
AcDbSymbolTable
 70
     0
  0
ENDTAB
  0
TABLE
  2
APPID
  5
9
330
0
100
AcDbSymbolTable
 70
     1
  0
APPID
  5
12
330
9
100
AcDbSymbolTableRecord
100
AcDbRegAppTableRecord
  2
ACAD
 70
     0
  0
ENDTAB
  0
TABLE
  2
DIMSTYLE
  5
A
330
0
100
AcDbSymbolTable
 70
     1
  0
DIMSTYLE
105
27
330
A
100
AcDbSymbolTableRecord
100
AcDbDimStyleTableRecord
  2
STANDARD
 70
     0
  3

  4

  5

  6

  7

 40
1.0
 41
0.18
 42
0.0625
 43
0.38
 44
0.18
 45
0.0
 46
0.0
 47
0.0
 48
0.0
140
0.18
141
0.09
142
0.0
143
25.4
144
1.0
145
0.0
146
1.0
147
0.09
 71
     0
 72
     0
 73
     1
 74
     1
 75
     0
 76
     0
 77
     0
 78
     0
170
     0
171
     2
172
     0
173
     0
174
     0
175
     0
176
     0
177
     0
178
     0
270
     2
271
     4
272
     4
273
     2
274
     2
340
11
275
     0
280
     0
281
     0
282
     0
283
     1
284
     0
285
     0
286
     0
287
     3
288
     0
  0
ENDTAB
  0
TABLE
  2
BLOCK_RECORD
  5
1
330
0
100
AcDbSymbolTable
 70
     1
  0
BLOCK_RECORD
  5
1F
330
1
100
AcDbSymbolTableRecord
100
AcDbBlockTableRecord
  2
*MODEL_SPACE
  0
BLOCK_RECORD
  5
1B
330
1
100
AcDbSymbolTableRecord
100
AcDbBlockTableRecord
  2
*PAPER_SPACE
  0
ENDTAB
  0
ENDSEC
  0
SECTION
  2
BLOCKS
  0
BLOCK
  5
20
330
1F
100
AcDbEntity
  8
0
100
AcDbBlockBegin
  2
*MODEL_SPACE
 70
     0
 71
     0
 10
0.0
 20
0.0
 30
0.0
  3
*MODEL_SPACE
  1

  0
ENDBLK
  5
21
330
1F
100
AcDbEntity
  8
0
100
AcDbBlockEnd
  0
BLOCK
  5
1C
330
1B
100
AcDbEntity
 67
     1
  8
0
100
AcDbBlockBegin
  2
*PAPER_SPACE
 70
     0
 71
     0
 10
0.0
 20
0.0
 30
0.0
  3
*PAPER_SPACE
  1

  0
ENDBLK
  5
1D
330
1B
100
AcDbEntity
 67
     1
  8
0
100
AcDbBlockEnd
  0
ENDSEC
  0
SECTION
  2
ENTITIES
  0
POLYLINE
  5
3C
330
1F
100
AcDbEntity
  8
STANDARDEBENE
 62
     7
100
AcDb2dPolyline
 66
     1
 10
0.0
 20
0.0
 30
0.0
  0
VERTEX
  5
3D
330
3C
100
AcDbEntity
  8
STANDARDEBENE
 62
     7
100
AcDbVertex
100
AcDb2dVertex
 10
-28.83202313638137
 20
43.96633758710707
 30
0.0
  0
VERTEX
  5
3E
330
3C
100
AcDbEntity
  8
STANDARDEBENE
 62
     7
100
AcDbVertex
100
AcDb2dVertex
 10
-28.83202313638137
 20
44.50583989600387
 30
0.0
  0
SEQEND
  5
3F
330
3C
100
AcDbEntity
  8
STANDARDEBENE
  0
POLYLINE
  5
41
330
1F
100
AcDbEntity
  8
BEMA_UNG
 62
     7
100
AcDb2dPolyline
 66
     1
 10
0.0
 20
0.0
 30
0.0
  0
VERTEX
  5
42
330
41
100
AcDbEntity
  8
BEMA_UNG
 62
     7
100
AcDbVertex
100
AcDb2dVertex
 10
0.1677762608127342
 20
39.96589007056195
 30
0.0
  0
VERTEX
  5
43
330
41
100
AcDbEntity
  8
BEMA_UNG
 62
     7
100
AcDbVertex
100
AcDb2dVertex
 10
12.21338831663788
 20
39.96589007056195
 30
0.0
  0
SEQEND
  5
44
330
41
100
AcDbEntity
  8
BEMA_UNG
  0
POLYLINE
  5
45
330
1F
100
AcDbEntity
  8
BEMA_UNG
 62
     7
100
AcDb2dPolyline
 66
     1
 10
0.0
 20
0.0
 30
0.0
  0
VERTEX
  5
46
330
45
100
AcDbEntity
  8
BEMA_UNG
 62
     7
100
AcDbVertex
100
AcDb2dVertex
 10
0.1677762608127342
 20
-0.0342787226917188
 30
0.0
  0
VERTEX
  5
47
330
45
100
AcDbEntity
  8
BEMA_UNG
 62
     7
100
AcDbVertex
100
AcDb2dVertex
 10
12.21338831663788
 20
-0.0342787226917188
 30
0.0
  0
SEQEND
  5
48
330
45
100
AcDbEntity
  8
BEMA_UNG
  0
POLYLINE
  5
49
330
1F
100
AcDbEntity
  8
BEMA_UNG
 62
     7
100
AcDb2dPolyline
 66
     1
 10
0.0
 20
0.0
 30
0.0
  0
VERTEX
  5
4A
330
49
100
AcDbEntity
  8
BEMA_UNG
 62
     7
100
AcDbVertex
100
AcDb2dVertex
 10
10.21350906814112
 20
39.96589007056195
 30
0.0
  0
VERTEX
  5
4B
330
49
100
AcDbEntity
  8
BEMA_UNG
 62
     7
100
AcDbVertex
100
AcDb2dVertex
 10
10.21350906814112
 20
-0.0342787226917188
 30
0.0
  0
SEQEND
  5
4C
330
49
100
AcDbEntity
  8
BEMA_UNG
  0
POLYLINE
  5
4D
330
1F
100
AcDbEntity
  8
BEMA_UNG
 62
     7
100
AcDb2dPolyline
 66
     1
 10
0.0
 20
0.0
 30
0.0
  0
VERTEX
  5
4E
330
4D
100
AcDbEntity
  8
BEMA_UNG
 62
     7
100
AcDbVertex
100
AcDb2dVertex
 10
10.21350906814112
 20
39.96589007056195
 30
0.0
  0
VERTEX
  5
4F
330
4D
100
AcDbEntity
  8
BEMA_UNG
 62
     7
100
AcDbVertex
100
AcDb2dVertex
 10
9.752727243013744
 20
36.46635976802447
 30
0.0
  0
VERTEX
  5
50
330
4D
100
AcDbEntity
  8
BEMA_UNG
 62
     7
100
AcDbVertex
100
AcDb2dVertex
 10
10.67446314815639
 20
36.46635976802447
 30
0.0
  0
VERTEX
  5
51
330
4D
100
AcDbEntity
  8
BEMA_UNG
 62
     7
100
AcDbVertex
100
AcDb2dVertex
 10
10.21350906814112
 20
39.96589007056195
 30
0.0
  0
SEQEND
  5
52
330
4D
100
AcDbEntity
  8
BEMA_UNG
  0
POLYLINE
  5
53
330
1F
100
AcDbEntity
  8
BEMA_UNG
 62
     7
100
AcDb2dPolyline
 66
     1
 10
0.0
 20
0.0
 30
0.0
  0
VERTEX
  5
54
330
53
100
AcDbEntity
  8
BEMA_UNG
 62
     7
100
AcDbVertex
100
AcDb2dVertex
 10
9.756344595659604
 20
36.46635976802447
 30
0.0
  0
VERTEX
  5
55
330
53
100
AcDbEntity
  8
BEMA_UNG
 62
     7
100
AcDbVertex
100
AcDb2dVertex
 10
9.756344595659604
 20
36.49357604031237
 30
0.0
  0
SEQEND
  5
56
330
53
100
AcDbEntity
  8
BEMA_UNG
  0
POLYLINE
  5
57
330
1F
100
AcDbEntity
  8
BEMA_UNG
 62
     7
100
AcDb2dPolyline
 66
     1
 10
0.0
 20
0.0
 30
0.0
  0
VERTEX
  5
58
330
57
100
AcDbEntity
  8
BEMA_UNG
 62
     7
100
AcDbVertex
100
AcDb2dVertex
 10
9.756344595659604
 20
36.46635976802447
 30
0.0
  0
VERTEX
  5
59
330
57
100
AcDbEntity
  8
BEMA_UNG
 62
     7
100
AcDbVertex
100
AcDb2dVertex
 10
9.756344595659604
 20
36.49357604031237
 30
0.0
  0
SEQEND
  5
5A
330
57
100
AcDbEntity
  8
BEMA_UNG
  0
POLYLINE
  5
5B
330
1F
100
AcDbEntity
  8
BEMA_UNG
 62
     7
100
AcDb2dPolyline
 66
     1
 10
0.0
 20
0.0
 30
0.0
  0
VERTEX
  5
5C
330
5B
100
AcDbEntity
  8
BEMA_UNG
 62
     7
100
AcDbVertex
100
AcDb2dVertex
 10
9.80698753270164
 20
36.46635976802447
 30
0.0
  0
VERTEX
  5
5D
330
5B
100
AcDbEntity
  8
BEMA_UNG
 62
     7
100
AcDbVertex
100
AcDb2dVertex
 10
9.80698753270164
 20
36.87908247942828
 30
0.0
  0
SEQEND
  5
5E
330
5B
100
AcDbEntity
  8
BEMA_UNG
  0
POLYLINE
  5
5F
330
1F
100
AcDbEntity
  8
BEMA_UNG
 62
     7
100
AcDb2dPolyline
 66
     1
 10
0.0
 20
0.0
 30
0.0
  0
VERTEX
  5
60
330
5F
100
AcDbEntity
  8
BEMA_UNG
 62
     7
100
AcDbVertex
100
AcDb2dVertex
 10
9.857974979519474
 20
36.46635976802447
 30
0.0
  0
VERTEX
  5
61
330
5F
100
AcDbEntity
  8
BEMA_UNG
 62
     7
100
AcDbVertex
100
AcDb2dVertex
 10
9.857974979519474
 20
37.26527793809579
 30
0.0
  0
SEQEND
  5
62
330
5F
100
AcDbEntity
  8
BEMA_UNG
  0
POLYLINE
  5
63
330
1F
100
AcDbEntity
  8
BEMA_UNG
 62
     7
100
AcDb2dPolyline
 66
     1
 10
0.0
 20
0.0
 30
0.0
  0
VERTEX
  5
64
330
63
100
AcDbEntity
  8
BEMA_UNG
 62
     7
100
AcDbVertex
100
AcDb2dVertex
 10
9.90861791656151
 20
36.46635976802447
 30
0.0
  0
VERTEX
  5
65
330
63
100
AcDbEntity
  8
BEMA_UNG
 62
     7
100
AcDbVertex
100
AcDb2dVertex
 10
9.90861791656151
 20
37.6506121223238
 30
0.0
  0
SEQEND
  5
66
330
63
100
AcDbEntity
  8
BEMA_UNG
  0
POLYLINE
  5
67
330
1F
100
AcDbEntity
  8
BEMA_UNG
 62
     7
100
AcDb2dPolyline
 66
     1
 10
0.0
 20
0.0
 30
0.0
  0
VERTEX
  5
68
330
67
100
AcDbEntity
  8
BEMA_UNG
 62
     7
100
AcDbVertex
100
AcDb2dVertex
 10
9.959433108491446
 20
36.46635976802447
 30
0.0
  0
VERTEX
  5
69
330
67
100
AcDbEntity
  8
BEMA_UNG
 62
     7
100
AcDbVertex
100
AcDb2dVertex
 10
9.959433108491446
 20
38.03697983587921
 30
0.0
  0
SEQEND
  5
6A
330
67
100
AcDbEntity
  8
BEMA_UNG
  0
POLYLINE
  5
6B
330
1F
100
AcDbEntity
  8
BEMA_UNG
 62
     7
100
AcDb2dPolyline
 66
     1
 10
0.0
 20
0.0
 30
0.0
  0
VERTEX
  5
6C
330
6B
100
AcDbEntity
  8
BEMA_UNG
 62
     7
100
AcDbVertex
100
AcDb2dVertex
 10
10.01024830042138
 20
36.46635976802447
 30
0.0
  0
VERTEX
  5
6D
330
6B
100
AcDbEntity
  8
BEMA_UNG
 62
     7
100
AcDbVertex
100
AcDb2dVertex
 10
10.01024830042138
 20
38.42248627499512
 30
0.0
  0
SEQEND
  5
6E
330
6B
100
AcDbEntity
  8
BEMA_UNG
  0
POLYLINE
  5
6F
330
1F
100
AcDbEntity
  8
BEMA_UNG
 62
     7
100
AcDb2dPolyline
 66
     1
 10
0.0
 20
0.0
 30
0.0
  0
VERTEX
  5
70
330
6F
100
AcDbEntity
  8
BEMA_UNG
 62
     7
100
AcDbVertex
100
AcDb2dVertex
 10
10.06106349235131
 20
36.46635976802447
 30
0.0
  0
VERTEX
  5
71
330
6F
100
AcDbEntity
  8
BEMA_UNG
 62
     7
100
AcDbVertex
100
AcDb2dVertex
 10
10.06106349235131
 20
38.80868173366262
 30
0.0
  0
SEQEND
  5
72
330
6F
100
AcDbEntity
  8
BEMA_UNG
  0
POLYLINE
  5
73
330
1F
100
AcDbEntity
  8
BEMA_UNG
 62
     7
100
AcDb2dPolyline
 66
     1
 10
0.0
 20
0.0
 30
0.0
  0
VERTEX
  5
74
330
73
100
AcDbEntity
  8
BEMA_UNG
 62
     7
100
AcDbVertex
100
AcDb2dVertex
 10
10.11187868428125
 20
36.46635976802447
 30
0.0
  0
VERTEX
  5
75
330
73
100
AcDbEntity
  8
BEMA_UNG
 62
     7
100
AcDbVertex
100
AcDb2dVertex
 10
10.11187868428125
 20
39.19436042766644
 30
0.0
  0
SEQEND
  5
76
330
73
100
AcDbEntity
  8
BEMA_UNG
  0
POLYLINE
  5
77
330
1F
100
AcDbEntity
  8
BEMA_UNG
 62
     7
100
AcDb2dPolyline
 66
     1
 10
0.0
 20
0.0
 30
0.0
  0
VERTEX
  5
78
330
77
100
AcDbEntity
  8
BEMA_UNG
 62
     7
100
AcDbVertex
100
AcDb2dVertex
 10
10.16269387621118
 20
36.46635976802447
 30
0.0
  0
VERTEX
  5
79
330
77
100
AcDbEntity
  8
BEMA_UNG
 62
     7
100
AcDbVertex
100
AcDb2dVertex
 10
10.16269387621118
 20
39.58038363144604
 30
0.0
  0
SEQEND
  5
7A
330
77
100
AcDbEntity
  8
BEMA_UNG
  0
POLYLINE
  5
7B
330
1F
100
AcDbEntity
  8
BEMA_UNG
 62
     7
100
AcDb2dPolyline
 66
     1
 10
0.0
 20
0.0
 30
0.0
  0
VERTEX
  5
7C
330
7B
100
AcDbEntity
  8
BEMA_UNG
 62
     7
100
AcDbVertex
100
AcDb2dVertex
 10
10.21350906814112
 20
36.46635976802447
 30
0.0
  0
VERTEX
  5
7D
330
7B
100
AcDbEntity
  8
BEMA_UNG
 62
     7
100
AcDbVertex
100
AcDb2dVertex
 10
10.21350906814112
 20
39.96589007056195
 30
0.0
  0
SEQEND
  5
7E
330
7B
100
AcDbEntity
  8
BEMA_UNG
  0
POLYLINE
  5
7F
330
1F
100
AcDbEntity
  8
BEMA_UNG
 62
     7
100
AcDb2dPolyline
 66
     1
 10
0.0
 20
0.0
 30
0.0
  0
VERTEX
  5
80
330
7F
100
AcDbEntity
  8
BEMA_UNG
 62
     7
100
AcDbVertex
100
AcDb2dVertex
 10
10.67032903084684
 20
36.46635976802447
 30
0.0
  0
VERTEX
  5
81
330
7F
100
AcDbEntity
  8
BEMA_UNG
 62
     7
100
AcDbVertex
100
AcDb2dVertex
 10
10.67032903084684
 20
36.49357604031237
 30
0.0
  0
SEQEND
  5
82
330
7F
100
AcDbEntity
  8
BEMA_UNG
  0
POLYLINE
  5
83
330
1F
100
AcDbEntity
  8
BEMA_UNG
 62
     7
100
AcDb2dPolyline
 66
     1
 10
0.0
 20
0.0
 30
0.0
  0
VERTEX
  5
84
330
83
100
AcDbEntity
  8
BEMA_UNG
 62
     7
100
AcDbVertex
100
AcDb2dVertex
 10
10.67032903084684
 20
36.46635976802447
 30
0.0
  0
VERTEX
  5
85
330
83
100
AcDbEntity
  8
BEMA_UNG
 62
     7
100
AcDbVertex
100
AcDb2dVertex
 10
10.67032903084684
 20
36.49357604031237
 30
0.0
  0
SEQEND
  5
86
330
83
100
AcDbEntity
  8
BEMA_UNG
  0
POLYLINE
  5
87
330
1F
100
AcDbEntity
  8
BEMA_UNG
 62
     7
100
AcDb2dPolyline
 66
     1
 10
0.0
 20
0.0
 30
0.0
  0
VERTEX
  5
88
330
87
100
AcDbEntity
  8
BEMA_UNG
 62
     7
100
AcDbVertex
100
AcDb2dVertex
 10
10.61951383891691
 20
36.46635976802447
 30
0.0
  0
VERTEX
  5
89
330
87
100
AcDbEntity
  8
BEMA_UNG
 62
     7
100
AcDbVertex
100
AcDb2dVertex
 10
10.61951383891691
 20
36.87908247942828
 30
0.0
  0
SEQEND
  5
8A
330
87
100
AcDbEntity
  8
BEMA_UNG
  0
POLYLINE
  5
8B
330
1F
100
AcDbEntity
  8
BEMA_UNG
 62
     7
100
AcDb2dPolyline
 66
     1
 10
0.0
 20
0.0
 30
0.0
  0
VERTEX
  5
8C
330
8B
100
AcDbEntity
  8
BEMA_UNG
 62
     7
100
AcDbVertex
100
AcDb2dVertex
 10
10.56869864698697
 20
36.46635976802447
 30
0.0
  0
VERTEX
  5
8D
330
8B
100
AcDbEntity
  8
BEMA_UNG
 62
     7
100
AcDbVertex
100
AcDb2dVertex
 10
10.56869864698697
 20
37.26527793809579
 30
0.0
  0
SEQEND
  5
8E
330
8B
100
AcDbEntity
  8
BEMA_UNG
  0
POLYLINE
  5
8F
330
1F
100
AcDbEntity
  8
BEMA_UNG
 62
     7
100
AcDb2dPolyline
 66
     1
 10
0.0
 20
0.0
 30
0.0
  0
VERTEX
  5
90
330
8F
100
AcDbEntity
  8
BEMA_UNG
 62
     7
100
AcDbVertex
100
AcDb2dVertex
 10
10.51788345505704
 20
36.46635976802447
 30
0.0
  0
VERTEX
  5
91
330
8F
100
AcDbEntity
  8
BEMA_UNG
 62
     7
100
AcDbVertex
100
AcDb2dVertex
 10
10.51788345505704
 20
37.6506121223238
 30
0.0
  0
SEQEND
  5
92
330
8F
100
AcDbEntity
  8
BEMA_UNG
  0
POLYLINE
  5
93
330
1F
100
AcDbEntity
  8
BEMA_UNG
 62
     7
100
AcDb2dPolyline
 66
     1
 10
0.0
 20
0.0
 30
0.0
  0
VERTEX
  5
94
330
93
100
AcDbEntity
  8
BEMA_UNG
 62
     7
100
AcDbVertex
100
AcDb2dVertex
 10
10.4674127729029
 20
36.46635976802447
 30
0.0
  0
VERTEX
  5
95
330
93
100
AcDbEntity
  8
BEMA_UNG
 62
     7
100
AcDbVertex
100
AcDb2dVertex
 10
10.4674127729029
 20
38.03697983587921
 30
0.0
  0
SEQEND
  5
96
330
93
100
AcDbEntity
  8
BEMA_UNG
  0
POLYLINE
  5
97
330
1F
100
AcDbEntity
  8
BEMA_UNG
 62
     7
100
AcDb2dPolyline
 66
     1
 10
0.0
 20
0.0
 30
0.0
  0
VERTEX
  5
98
330
97
100
AcDbEntity
  8
BEMA_UNG
 62
     7
100
AcDbVertex
100
AcDb2dVertex
 10
10.41676983586086
 20
36.46635976802447
 30
0.0
  0
VERTEX
  5
99
330
97
100
AcDbEntity
  8
BEMA_UNG
 62
     7
100
AcDbVertex
100
AcDb2dVertex
 10
10.41676983586086
 20
38.42248627499512
 30
0.0
  0
SEQEND
  5
9A
330
97
100
AcDbEntity
  8
BEMA_UNG
  0
POLYLINE
  5
9B
330
1F
100
AcDbEntity
  8
BEMA_UNG
 62
     7
100
AcDb2dPolyline
 66
     1
 10
0.0
 20
0.0
 30
0.0
  0
VERTEX
  5
9C
330
9B
100
AcDbEntity
  8
BEMA_UNG
 62
     7
100
AcDbVertex
100
AcDb2dVertex
 10
10.36578238904303
 20
36.46635976802447
 30
0.0
  0
VERTEX
  5
9D
330
9B
100
AcDbEntity
  8
BEMA_UNG
 62
     7
100
AcDbVertex
100
AcDb2dVertex
 10
10.36578238904303
 20
38.80868173366262
 30
0.0
  0
SEQEND
  5
9E
330
9B
100
AcDbEntity
  8
BEMA_UNG
  0
POLYLINE
  5
9F
330
1F
100
AcDbEntity
  8
BEMA_UNG
 62
     7
100
AcDb2dPolyline
 66
     1
 10
0.0
 20
0.0
 30
0.0
  0
VERTEX
  5
A0
330
9F
100
AcDbEntity
  8
BEMA_UNG
 62
     7
100
AcDbVertex
100
AcDb2dVertex
 10
10.31513945200099
 20
36.46635976802447
 30
0.0
  0
VERTEX
  5
A1
330
9F
100
AcDbEntity
  8
BEMA_UNG
 62
     7
100
AcDbVertex
100
AcDb2dVertex
 10
10.31513945200099
 20
39.19436042766644
 30
0.0
  0
SEQEND
  5
A2
330
9F
100
AcDbEntity
  8
BEMA_UNG
  0
POLYLINE
  5
A3
330
1F
100
AcDbEntity
  8
BEMA_UNG
 62
     7
100
AcDb2dPolyline
 66
     1
 10
0.0
 20
0.0
 30
0.0
  0
VERTEX
  5
A4
330
A3
100
AcDbEntity
  8
BEMA_UNG
 62
     7
100
AcDbVertex
100
AcDb2dVertex
 10
10.26432426007105
 20
36.46635976802447
 30
0.0
  0
VERTEX
  5
A5
330
A3
100
AcDbEntity
  8
BEMA_UNG
 62
     7
100
AcDbVertex
100
AcDb2dVertex
 10
10.26432426007105
 20
39.58038363144604
 30
0.0
  0
SEQEND
  5
A6
330
A3
100
AcDbEntity
  8
BEMA_UNG
  0
POLYLINE
  5
A7
330
1F
100
AcDbEntity
  8
BEMA_UNG
 62
     7
100
AcDb2dPolyline
 66
     1
 10
0.0
 20
0.0
 30
0.0
  0
VERTEX
  5
A8
330
A7
100
AcDbEntity
  8
BEMA_UNG
 62
     7
100
AcDbVertex
100
AcDb2dVertex
 10
10.21350906814112
 20
36.46635976802447
 30
0.0
  0
VERTEX
  5
A9
330
A7
100
AcDbEntity
  8
BEMA_UNG
 62
     7
100
AcDbVertex
100
AcDb2dVertex
 10
10.21350906814112
 20
39.96589007056195
 30
0.0
  0
SEQEND
  5
AA
330
A7
100
AcDbEntity
  8
BEMA_UNG
  0
POLYLINE
  5
AB
330
1F
100
AcDbEntity
  8
BEMA_UNG
 62
     7
100
AcDb2dPolyline
 66
     1
 10
0.0
 20
0.0
 30
0.0
  0
VERTEX
  5
AC
330
AB
100
AcDbEntity
  8
BEMA_UNG
 62
     7
100
AcDbVertex
100
AcDb2dVertex
 10
10.21350906814112
 20
-0.0342787226917188
 30
0.0
  0
VERTEX
  5
AD
330
AB
100
AcDbEntity
  8
BEMA_UNG
 62
     7
100
AcDbVertex
100
AcDb2dVertex
 10
10.67446314815639
 20
3.466457364061051
 30
0.0
  0
VERTEX
  5
AE
330
AB
100
AcDbEntity
  8
BEMA_UNG
 62
     7
100
AcDbVertex
100
AcDb2dVertex
 10
9.752727243013744
 20
3.466457364061051
 30
0.0
  0
VERTEX
  5
AF
330
AB
100
AcDbEntity
  8
BEMA_UNG
 62
     7
100
AcDbVertex
100
AcDb2dVertex
 10
10.21350906814112
 20
-0.0342787226917188
 30
0.0
  0
SEQEND
  5
B0
330
AB
100
AcDbEntity
  8
BEMA_UNG
  0
POLYLINE
  5
B1
330
1F
100
AcDbEntity
  8
BEMA_UNG
 62
     7
100
AcDb2dPolyline
 66
     1
 10
0.0
 20
0.0
 30
0.0
  0
VERTEX
  5
B2
330
B1
100
AcDbEntity
  8
BEMA_UNG
 62
     7
100
AcDbVertex
100
AcDb2dVertex
 10
10.67032903084684
 20
3.466457364061051
 30
0.0
  0
VERTEX
  5
B3
330
B1
100
AcDbEntity
  8
BEMA_UNG
 62
     7
100
AcDbVertex
100
AcDb2dVertex
 10
10.67032903084684
 20
3.438896581997358
 30
0.0
  0
SEQEND
  5
B4
330
B1
100
AcDbEntity
  8
BEMA_UNG
  0
POLYLINE
  5
B5
330
1F
100
AcDbEntity
  8
BEMA_UNG
 62
     7
100
AcDb2dPolyline
 66
     1
 10
0.0
 20
0.0
 30
0.0
  0
VERTEX
  5
B6
330
B5
100
AcDbEntity
  8
BEMA_UNG
 62
     7
100
AcDbVertex
100
AcDb2dVertex
 10
10.67032903084684
 20
3.466457364061051
 30
0.0
  0
VERTEX
  5
B7
330
B5
100
AcDbEntity
  8
BEMA_UNG
 62
     7
100
AcDbVertex
100
AcDb2dVertex
 10
10.67032903084684
 20
3.438896581997358
 30
0.0
  0
SEQEND
  5
B8
330
B5
100
AcDbEntity
  8
BEMA_UNG
  0
POLYLINE
  5
B9
330
1F
100
AcDbEntity
  8
BEMA_UNG
 62
     7
100
AcDb2dPolyline
 66
     1
 10
0.0
 20
0.0
 30
0.0
  0
VERTEX
  5
BA
330
B9
100
AcDbEntity
  8
BEMA_UNG
 62
     7
100
AcDbVertex
100
AcDb2dVertex
 10
10.61951383891691
 20
3.466457364061051
 30
0.0
  0
VERTEX
  5
BB
330
B9
100
AcDbEntity
  8
BEMA_UNG
 62
     7
100
AcDbVertex
100
AcDb2dVertex
 10
10.61951383891691
 20
3.053045633105648
 30
0.0
  0
SEQEND
  5
BC
330
B9
100
AcDbEntity
  8
BEMA_UNG
  0
POLYLINE
  5
BD
330
1F
100
AcDbEntity
  8
BEMA_UNG
 62
     7
100
AcDb2dPolyline
 66
     1
 10
0.0
 20
0.0
 30
0.0
  0
VERTEX
  5
BE
330
BD
100
AcDbEntity
  8
BEMA_UNG
 62
     7
100
AcDbVertex
100
AcDb2dVertex
 10
10.56869864698697
 20
3.466457364061051
 30
0.0
  0
VERTEX
  5
BF
330
BD
100
AcDbEntity
  8
BEMA_UNG
 62
     7
100
AcDbVertex
100
AcDb2dVertex
 10
10.56869864698697
 20
2.667366939101837
 30
0.0
  0
SEQEND
  5
C0
330
BD
100
AcDbEntity
  8
BEMA_UNG
  0
POLYLINE
  5
C1
330
1F
100
AcDbEntity
  8
BEMA_UNG
 62
     7
100
AcDb2dPolyline
 66
     1
 10
0.0
 20
0.0
 30
0.0
  0
VERTEX
  5
C2
330
C1
100
AcDbEntity
  8
BEMA_UNG
 62
     7
100
AcDbVertex
100
AcDb2dVertex
 10
10.51788345505704
 20
3.466457364061051
 30
0.0
  0
VERTEX
  5
C3
330
C1
100
AcDbEntity
  8
BEMA_UNG
 62
     7
100
AcDbVertex
100
AcDb2dVertex
 10
10.51788345505704
 20
2.280999225546434
 30
0.0
  0
SEQEND
  5
C4
330
C1
100
AcDbEntity
  8
BEMA_UNG
  0
POLYLINE
  5
C5
330
1F
100
AcDbEntity
  8
BEMA_UNG
 62
     7
100
AcDb2dPolyline
 66
     1
 10
0.0
 20
0.0
 30
0.0
  0
VERTEX
  5
C6
330
C5
100
AcDbEntity
  8
BEMA_UNG
 62
     7
100
AcDbVertex
100
AcDb2dVertex
 10
10.4674127729029
 20
3.466457364061051
 30
0.0
  0
VERTEX
  5
C7
330
C5
100
AcDbEntity
  8
BEMA_UNG
 62
     7
100
AcDbVertex
100
AcDb2dVertex
 10
10.4674127729029
 20
1.895492786430521
 30
0.0
  0
SEQEND
  5
C8
330
C5
100
AcDbEntity
  8
BEMA_UNG
  0
POLYLINE
  5
C9
330
1F
100
AcDbEntity
  8
BEMA_UNG
 62
     7
100
AcDb2dPolyline
 66
     1
 10
0.0
 20
0.0
 30
0.0
  0
VERTEX
  5
CA
330
C9
100
AcDbEntity
  8
BEMA_UNG
 62
     7
100
AcDbVertex
100
AcDb2dVertex
 10
10.41676983586086
 20
3.466457364061051
 30
0.0
  0
VERTEX
  5
CB
330
C9
100
AcDbEntity
  8
BEMA_UNG
 62
     7
100
AcDbVertex
100
AcDb2dVertex
 10
10.41676983586086
 20
1.509641837538812
 30
0.0
  0
SEQEND
  5
CC
330
C9
100
AcDbEntity
  8
BEMA_UNG
  0
POLYLINE
  5
CD
330
1F
100
AcDbEntity
  8
BEMA_UNG
 62
     7
100
AcDb2dPolyline
 66
     1
 10
0.0
 20
0.0
 30
0.0
  0
VERTEX
  5
CE
330
CD
100
AcDbEntity
  8
BEMA_UNG
 62
     7
100
AcDbVertex
100
AcDb2dVertex
 10
10.36578238904303
 20
3.466457364061051
 30
0.0
  0
VERTEX
  5
CF
330
CD
100
AcDbEntity
  8
BEMA_UNG
 62
     7
100
AcDbVertex
100
AcDb2dVertex
 10
10.36578238904303
 20
1.123963143535001
 30
0.0
  0
SEQEND
  5
D0
330
CD
100
AcDbEntity
  8
BEMA_UNG
  0
POLYLINE
  5
D1
330
1F
100
AcDbEntity
  8
BEMA_UNG
 62
     7
100
AcDb2dPolyline
 66
     1
 10
0.0
 20
0.0
 30
0.0
  0
VERTEX
  5
D2
330
D1
100
AcDbEntity
  8
BEMA_UNG
 62
     7
100
AcDbVertex
100
AcDb2dVertex
 10
10.31513945200099
 20
3.466457364061051
 30
0.0
  0
VERTEX
  5
D3
330
D1
100
AcDbEntity
  8
BEMA_UNG
 62
     7
100
AcDbVertex
100
AcDb2dVertex
 10
10.31513945200099
 20
0.7375954299795975
 30
0.0
  0
SEQEND
  5
D4
330
D1
100
AcDbEntity
  8
BEMA_UNG
  0
POLYLINE
  5
D5
330
1F
100
AcDbEntity
  8
BEMA_UNG
 62
     7
100
AcDb2dPolyline
 66
     1
 10
0.0
 20
0.0
 30
0.0
  0
VERTEX
  5
D6
330
D5
100
AcDbEntity
  8
BEMA_UNG
 62
     7
100
AcDbVertex
100
AcDb2dVertex
 10
10.26432426007105
 20
3.466457364061051
 30
0.0
  0
VERTEX
  5
D7
330
D5
100
AcDbEntity
  8
BEMA_UNG
 62
     7
100
AcDbVertex
100
AcDb2dVertex
 10
10.26432426007105
 20
0.3520889908636846
 30
0.0
  0
SEQEND
  5
D8
330
D5
100
AcDbEntity
  8
BEMA_UNG
  0
POLYLINE
  5
D9
330
1F
100
AcDbEntity
  8
BEMA_UNG
 62
     7
100
AcDb2dPolyline
 66
     1
 10
0.0
 20
0.0
 30
0.0
  0
VERTEX
  5
DA
330
D9
100
AcDbEntity
  8
BEMA_UNG
 62
     7
100
AcDbVertex
100
AcDb2dVertex
 10
10.21350906814112
 20
3.466457364061051
 30
0.0
  0
VERTEX
  5
DB
330
D9
100
AcDbEntity
  8
BEMA_UNG
 62
     7
100
AcDbVertex
100
AcDb2dVertex
 10
10.21350906814112
 20
-0.0342787226917188
 30
0.0
  0
SEQEND
  5
DC
330
D9
100
AcDbEntity
  8
BEMA_UNG
  0
POLYLINE
  5
DD
330
1F
100
AcDbEntity
  8
BEMA_UNG
 62
     7
100
AcDb2dPolyline
 66
     1
 10
0.0
 20
0.0
 30
0.0
  0
VERTEX
  5
DE
330
DD
100
AcDbEntity
  8
BEMA_UNG
 62
     7
100
AcDbVertex
100
AcDb2dVertex
 10
9.756344595659604
 20
3.466457364061051
 30
0.0
  0
VERTEX
  5
DF
330
DD
100
AcDbEntity
  8
BEMA_UNG
 62
     7
100
AcDbVertex
100
AcDb2dVertex
 10
9.756344595659604
 20
3.438896581997358
 30
0.0
  0
SEQEND
  5
E0
330
DD
100
AcDbEntity
  8
BEMA_UNG
  0
POLYLINE
  5
E1
330
1F
100
AcDbEntity
  8
BEMA_UNG
 62
     7
100
AcDb2dPolyline
 66
     1
 10
0.0
 20
0.0
 30
0.0
  0
VERTEX
  5
E2
330
E1
100
AcDbEntity
  8
BEMA_UNG
 62
     7
100
AcDbVertex
100
AcDb2dVertex
 10
9.756344595659604
 20
3.466457364061051
 30
0.0
  0
VERTEX
  5
E3
330
E1
100
AcDbEntity
  8
BEMA_UNG
 62
     7
100
AcDbVertex
100
AcDb2dVertex
 10
9.756344595659604
 20
3.438896581997358
 30
0.0
  0
SEQEND
  5
E4
330
E1
100
AcDbEntity
  8
BEMA_UNG
  0
POLYLINE
  5
E5
330
1F
100
AcDbEntity
  8
BEMA_UNG
 62
     7
100
AcDb2dPolyline
 66
     1
 10
0.0
 20
0.0
 30
0.0
  0
VERTEX
  5
E6
330
E5
100
AcDbEntity
  8
BEMA_UNG
 62
     7
100
AcDbVertex
100
AcDb2dVertex
 10
9.80698753270164
 20
3.466457364061051
 30
0.0
  0
VERTEX
  5
E7
330
E5
100
AcDbEntity
  8
BEMA_UNG
 62
     7
100
AcDbVertex
100
AcDb2dVertex
 10
9.80698753270164
 20
3.053045633105648
 30
0.0
  0
SEQEND
  5
E8
330
E5
100
AcDbEntity
  8
BEMA_UNG
  0
POLYLINE
  5
E9
330
1F
100
AcDbEntity
  8
BEMA_UNG
 62
     7
100
AcDb2dPolyline
 66
     1
 10
0.0
 20
0.0
 30
0.0
  0
VERTEX
  5
EA
330
E9
100
AcDbEntity
  8
BEMA_UNG
 62
     7
100
AcDbVertex
100
AcDb2dVertex
 10
9.857974979519474
 20
3.466457364061051
 30
0.0
  0
VERTEX
  5
EB
330
E9
100
AcDbEntity
  8
BEMA_UNG
 62
     7
100
AcDbVertex
100
AcDb2dVertex
 10
9.857974979519474
 20
2.667366939101837
 30
0.0
  0
SEQEND
  5
EC
330
E9
100
AcDbEntity
  8
BEMA_UNG
  0
POLYLINE
  5
ED
330
1F
100
AcDbEntity
  8
BEMA_UNG
 62
     7
100
AcDb2dPolyline
 66
     1
 10
0.0
 20
0.0
 30
0.0
  0
VERTEX
  5
EE
330
ED
100
AcDbEntity
  8
BEMA_UNG
 62
     7
100
AcDbVertex
100
AcDb2dVertex
 10
9.90861791656151
 20
3.466457364061051
 30
0.0
  0
VERTEX
  5
EF
330
ED
100
AcDbEntity
  8
BEMA_UNG
 62
     7
100
AcDbVertex
100
AcDb2dVertex
 10
9.90861791656151
 20
2.280999225546434
 30
0.0
  0
SEQEND
  5
F0
330
ED
100
AcDbEntity
  8
BEMA_UNG
  0
POLYLINE
  5
F1
330
1F
100
AcDbEntity
  8
BEMA_UNG
 62
     7
100
AcDb2dPolyline
 66
     1
 10
0.0
 20
0.0
 30
0.0
  0
VERTEX
  5
F2
330
F1
100
AcDbEntity
  8
BEMA_UNG
 62
     7
100
AcDbVertex
100
AcDb2dVertex
 10
9.959433108491446
 20
3.466457364061051
 30
0.0
  0
VERTEX
  5
F3
330
F1
100
AcDbEntity
  8
BEMA_UNG
 62
     7
100
AcDbVertex
100
AcDb2dVertex
 10
9.959433108491446
 20
1.895492786430521
 30
0.0
  0
SEQEND
  5
F4
330
F1
100
AcDbEntity
  8
BEMA_UNG
  0
POLYLINE
  5
F5
330
1F
100
AcDbEntity
  8
BEMA_UNG
 62
     7
100
AcDb2dPolyline
 66
     1
 10
0.0
 20
0.0
 30
0.0
  0
VERTEX
  5
F6
330
F5
100
AcDbEntity
  8
BEMA_UNG
 62
     7
100
AcDbVertex
100
AcDb2dVertex
 10
10.01024830042138
 20
3.466457364061051
 30
0.0
  0
VERTEX
  5
F7
330
F5
100
AcDbEntity
  8
BEMA_UNG
 62
     7
100
AcDbVertex
100
AcDb2dVertex
 10
10.01024830042138
 20
1.509641837538812
 30
0.0
  0
SEQEND
  5
F8
330
F5
100
AcDbEntity
  8
BEMA_UNG
  0
POLYLINE
  5
F9
330
1F
100
AcDbEntity
  8
BEMA_UNG
 62
     7
100
AcDb2dPolyline
 66
     1
 10
0.0
 20
0.0
 30
0.0
  0
VERTEX
  5
FA
330
F9
100
AcDbEntity
  8
BEMA_UNG
 62
     7
100
AcDbVertex
100
AcDb2dVertex
 10
10.06106349235131
 20
3.466457364061051
 30
0.0
  0
VERTEX
  5
FB
330
F9
100
AcDbEntity
  8
BEMA_UNG
 62
     7
100
AcDbVertex
100
AcDb2dVertex
 10
10.06106349235131
 20
1.123963143535001
 30
0.0
  0
SEQEND
  5
FC
330
F9
100
AcDbEntity
  8
BEMA_UNG
  0
POLYLINE
  5
FD
330
1F
100
AcDbEntity
  8
BEMA_UNG
 62
     7
100
AcDb2dPolyline
 66
     1
 10
0.0
 20
0.0
 30
0.0
  0
VERTEX
  5
FE
330
FD
100
AcDbEntity
  8
BEMA_UNG
 62
     7
100
AcDbVertex
100
AcDb2dVertex
 10
10.11187868428125
 20
3.466457364061051
 30
0.0
  0
VERTEX
  5
FF
330
FD
100
AcDbEntity
  8
BEMA_UNG
 62
     7
100
AcDbVertex
100
AcDb2dVertex
 10
10.11187868428125
 20
0.7375954299795975
 30
0.0
  0
SEQEND
  5
100
330
FD
100
AcDbEntity
  8
BEMA_UNG
  0
POLYLINE
  5
101
330
1F
100
AcDbEntity
  8
BEMA_UNG
 62
     7
100
AcDb2dPolyline
 66
     1
 10
0.0
 20
0.0
 30
0.0
  0
VERTEX
  5
102
330
101
100
AcDbEntity
  8
BEMA_UNG
 62
     7
100
AcDbVertex
100
AcDb2dVertex
 10
10.16269387621118
 20
3.466457364061051
 30
0.0
  0
VERTEX
  5
103
330
101
100
AcDbEntity
  8
BEMA_UNG
 62
     7
100
AcDbVertex
100
AcDb2dVertex
 10
10.16269387621118
 20
0.3520889908636846
 30
0.0
  0
SEQEND
  5
104
330
101
100
AcDbEntity
  8
BEMA_UNG
  0
POLYLINE
  5
105
330
1F
100
AcDbEntity
  8
BEMA_UNG
 62
     7
100
AcDb2dPolyline
 66
     1
 10
0.0
 20
0.0
 30
0.0
  0
VERTEX
  5
106
330
105
100
AcDbEntity
  8
BEMA_UNG
 62
     7
100
AcDbVertex
100
AcDb2dVertex
 10
10.21350906814112
 20
3.466457364061051
 30
0.0
  0
VERTEX
  5
107
330
105
100
AcDbEntity
  8
BEMA_UNG
 62
     7
100
AcDbVertex
100
AcDb2dVertex
 10
10.21350906814112
 20
-0.0342787226917188
 30
0.0
  0
SEQEND
  5
108
330
105
100
AcDbEntity
  8
BEMA_UNG
  0
POLYLINE
  5
109
330
1F
100
AcDbEntity
  8
BEMA_UNG
 62
     7
100
AcDb2dPolyline
 66
     1
 10
0.0
 20
0.0
 30
0.0
  0
VERTEX
  5
10A
330
109
100
AcDbEntity
  8
BEMA_UNG
 62
     7
100
AcDbVertex
100
AcDb2dVertex
 10
-4.832094115317064
 20
57.96600909124808
 30
0.0
  0
VERTEX
  5
10B
330
109
100
AcDbEntity
  8
BEMA_UNG
 62
     7
100
AcDbVertex
100
AcDb2dVertex
 10
12.21338831663788
 20
57.96600909124808
 30
0.0
  0
SEQEND
  5
10C
330
109
100
AcDbEntity
  8
BEMA_UNG
  0
POLYLINE
  5
10D
330
1F
100
AcDbEntity
  8
BEMA_UNG
 62
     7
100
AcDb2dPolyline
 66
     1
 10
0.0
 20
0.0
 30
0.0
  0
VERTEX
  5
10E
330
10D
100
AcDbEntity
  8
BEMA_UNG
 62
     7
100
AcDbVertex
100
AcDb2dVertex
 10
0.1677762608127342
 20
39.96589007056195
 30
0.0
  0
VERTEX
  5
10F
330
10D
100
AcDbEntity
  8
BEMA_UNG
 62
     7
100
AcDbVertex
100
AcDb2dVertex
 10
12.21338831663788
 20
39.96589007056195
 30
0.0
  0
SEQEND
  5
110
330
10D
100
AcDbEntity
  8
BEMA_UNG
  0
POLYLINE
  5
111
330
1F
100
AcDbEntity
  8
BEMA_UNG
 62
     7
100
AcDb2dPolyline
 66
     1
 10
0.0
 20
0.0
 30
0.0
  0
VERTEX
  5
112
330
111
100
AcDbEntity
  8
BEMA_UNG
 62
     7
100
AcDbVertex
100
AcDb2dVertex
 10
10.21350906814112
 20
57.96600909124808
 30
0.0
  0
VERTEX
  5
113
330
111
100
AcDbEntity
  8
BEMA_UNG
 62
     7
100
AcDbVertex
100
AcDb2dVertex
 10
10.21350906814112
 20
39.96589007056195
 30
0.0
  0
SEQEND
  5
114
330
111
100
AcDbEntity
  8
BEMA_UNG
  0
POLYLINE
  5
115
330
1F
100
AcDbEntity
  8
BEMA_UNG
 62
     7
100
AcDb2dPolyline
 66
     1
 10
0.0
 20
0.0
 30
0.0
  0
VERTEX
  5
116
330
115
100
AcDbEntity
  8
BEMA_UNG
 62
     7
100
AcDbVertex
100
AcDb2dVertex
 10
10.21350906814112
 20
57.96600909124808
 30
0.0
  0
VERTEX
  5
117
330
115
100
AcDbEntity
  8
BEMA_UNG
 62
     7
100
AcDbVertex
100
AcDb2dVertex
 10
9.752727243013744
 20
54.4664787887106
 30
0.0
  0
VERTEX
  5
118
330
115
100
AcDbEntity
  8
BEMA_UNG
 62
     7
100
AcDbVertex
100
AcDb2dVertex
 10
10.67446314815639
 20
54.4664787887106
 30
0.0
  0
VERTEX
  5
119
330
115
100
AcDbEntity
  8
BEMA_UNG
 62
     7
100
AcDbVertex
100
AcDb2dVertex
 10
10.21350906814112
 20
57.96600909124808
 30
0.0
  0
SEQEND
  5
11A
330
115
100
AcDbEntity
  8
BEMA_UNG
  0
POLYLINE
  5
11B
330
1F
100
AcDbEntity
  8
BEMA_UNG
 62
     7
100
AcDb2dPolyline
 66
     1
 10
0.0
 20
0.0
 30
0.0
  0
VERTEX
  5
11C
330
11B
100
AcDbEntity
  8
BEMA_UNG
 62
     7
100
AcDbVertex
100
AcDb2dVertex
 10
9.756344595659604
 20
54.4664787887106
 30
0.0
  0
VERTEX
  5
11D
330
11B
100
AcDbEntity
  8
BEMA_UNG
 62
     7
100
AcDbVertex
100
AcDb2dVertex
 10
9.756344595659604
 20
54.49360893355455
 30
0.0
  0
SEQEND
  5
11E
330
11B
100
AcDbEntity
  8
BEMA_UNG
  0
POLYLINE
  5
11F
330
1F
100
AcDbEntity
  8
BEMA_UNG
 62
     7
100
AcDb2dPolyline
 66
     1
 10
0.0
 20
0.0
 30
0.0
  0
VERTEX
  5
120
330
11F
100
AcDbEntity
  8
BEMA_UNG
 62
     7
100
AcDbVertex
100
AcDb2dVertex
 10
9.756344595659604
 20
54.4664787887106
 30
0.0
  0
VERTEX
  5
121
330
11F
100
AcDbEntity
  8
BEMA_UNG
 62
     7
100
AcDbVertex
100
AcDb2dVertex
 10
9.756344595659604
 20
54.49360893355455
 30
0.0
  0
SEQEND
  5
122
330
11F
100
AcDbEntity
  8
BEMA_UNG
  0
POLYLINE
  5
123
330
1F
100
AcDbEntity
  8
BEMA_UNG
 62
     7
100
AcDb2dPolyline
 66
     1
 10
0.0
 20
0.0
 30
0.0
  0
VERTEX
  5
124
330
123
100
AcDbEntity
  8
BEMA_UNG
 62
     7
100
AcDbVertex
100
AcDb2dVertex
 10
9.80698753270164
 20
54.4664787887106
 30
0.0
  0
VERTEX
  5
125
330
123
100
AcDbEntity
  8
BEMA_UNG
 62
     7
100
AcDbVertex
100
AcDb2dVertex
 10
9.80698753270164
 20
54.87920150011441
 30
0.0
  0
SEQEND
  5
126
330
123
100
AcDbEntity
  8
BEMA_UNG
  0
POLYLINE
  5
127
330
1F
100
AcDbEntity
  8
BEMA_UNG
 62
     7
100
AcDb2dPolyline
 66
     1
 10
0.0
 20
0.0
 30
0.0
  0
VERTEX
  5
128
330
127
100
AcDbEntity
  8
BEMA_UNG
 62
     7
100
AcDbVertex
100
AcDb2dVertex
 10
9.857974979519474
 20
54.4664787887106
 30
0.0
  0
VERTEX
  5
129
330
127
100
AcDbEntity
  8
BEMA_UNG
 62
     7
100
AcDbVertex
100
AcDb2dVertex
 10
9.857974979519474
 20
55.26513857645007
 30
0.0
  0
SEQEND
  5
12A
330
127
100
AcDbEntity
  8
BEMA_UNG
  0
POLYLINE
  5
12B
330
1F
100
AcDbEntity
  8
BEMA_UNG
 62
     7
100
AcDb2dPolyline
 66
     1
 10
0.0
 20
0.0
 30
0.0
  0
VERTEX
  5
12C
330
12B
100
AcDbEntity
  8
BEMA_UNG
 62
     7
100
AcDbVertex
100
AcDb2dVertex
 10
9.90861791656151
 20
54.4664787887106
 30
0.0
  0
VERTEX
  5
12D
330
12B
100
AcDbEntity
  8
BEMA_UNG
 62
     7
100
AcDbVertex
100
AcDb2dVertex
 10
9.90861791656151
 20
55.65073114300993
 30
0.0
  0
SEQEND
  5
12E
330
12B
100
AcDbEntity
  8
BEMA_UNG
  0
POLYLINE
  5
12F
330
1F
100
AcDbEntity
  8
BEMA_UNG
 62
     7
100
AcDb2dPolyline
 66
     1
 10
0.0
 20
0.0
 30
0.0
  0
VERTEX
  5
130
330
12F
100
AcDbEntity
  8
BEMA_UNG
 62
     7
100
AcDbVertex
100
AcDb2dVertex
 10
9.959433108491446
 20
54.4664787887106
 30
0.0
  0
VERTEX
  5
131
330
12F
100
AcDbEntity
  8
BEMA_UNG
 62
     7
100
AcDbVertex
100
AcDb2dVertex
 10
9.959433108491446
 20
56.03701272912139
 30
0.0
  0
SEQEND
  5
132
330
12F
100
AcDbEntity
  8
BEMA_UNG
  0
POLYLINE
  5
133
330
1F
100
AcDbEntity
  8
BEMA_UNG
 62
     7
100
AcDb2dPolyline
 66
     1
 10
0.0
 20
0.0
 30
0.0
  0
VERTEX
  5
134
330
133
100
AcDbEntity
  8
BEMA_UNG
 62
     7
100
AcDbVertex
100
AcDb2dVertex
 10
10.01024830042138
 20
54.4664787887106
 30
0.0
  0
VERTEX
  5
135
330
133
100
AcDbEntity
  8
BEMA_UNG
 62
     7
100
AcDbVertex
100
AcDb2dVertex
 10
10.01024830042138
 20
56.42260529568124
 30
0.0
  0
SEQEND
  5
136
330
133
100
AcDbEntity
  8
BEMA_UNG
  0
POLYLINE
  5
137
330
1F
100
AcDbEntity
  8
BEMA_UNG
 62
     7
100
AcDb2dPolyline
 66
     1
 10
0.0
 20
0.0
 30
0.0
  0
VERTEX
  5
138
330
137
100
AcDbEntity
  8
BEMA_UNG
 62
     7
100
AcDbVertex
100
AcDb2dVertex
 10
10.06106349235131
 20
54.4664787887106
 30
0.0
  0
VERTEX
  5
139
330
137
100
AcDbEntity
  8
BEMA_UNG
 62
     7
100
AcDbVertex
100
AcDb2dVertex
 10
10.06106349235131
 20
56.8085423720169
 30
0.0
  0
SEQEND
  5
13A
330
137
100
AcDbEntity
  8
BEMA_UNG
  0
POLYLINE
  5
13B
330
1F
100
AcDbEntity
  8
BEMA_UNG
 62
     7
100
AcDb2dPolyline
 66
     1
 10
0.0
 20
0.0
 30
0.0
  0
VERTEX
  5
13C
330
13B
100
AcDbEntity
  8
BEMA_UNG
 62
     7
100
AcDbVertex
100
AcDb2dVertex
 10
10.11187868428125
 20
54.4664787887106
 30
0.0
  0
VERTEX
  5
13D
330
13B
100
AcDbEntity
  8
BEMA_UNG
 62
     7
100
AcDbVertex
100
AcDb2dVertex
 10
10.11187868428125
 20
57.19413493857677
 30
0.0
  0
SEQEND
  5
13E
330
13B
100
AcDbEntity
  8
BEMA_UNG
  0
POLYLINE
  5
13F
330
1F
100
AcDbEntity
  8
BEMA_UNG
 62
     7
100
AcDb2dPolyline
 66
     1
 10
0.0
 20
0.0
 30
0.0
  0
VERTEX
  5
140
330
13F
100
AcDbEntity
  8
BEMA_UNG
 62
     7
100
AcDbVertex
100
AcDb2dVertex
 10
10.16269387621118
 20
54.4664787887106
 30
0.0
  0
VERTEX
  5
141
330
13F
100
AcDbEntity
  8
BEMA_UNG
 62
     7
100
AcDbVertex
100
AcDb2dVertex
 10
10.16269387621118
 20
57.58041652468822
 30
0.0
  0
SEQEND
  5
142
330
13F
100
AcDbEntity
  8
BEMA_UNG
  0
POLYLINE
  5
143
330
1F
100
AcDbEntity
  8
BEMA_UNG
 62
     7
100
AcDb2dPolyline
 66
     1
 10
0.0
 20
0.0
 30
0.0
  0
VERTEX
  5
144
330
143
100
AcDbEntity
  8
BEMA_UNG
 62
     7
100
AcDbVertex
100
AcDb2dVertex
 10
10.21350906814112
 20
54.4664787887106
 30
0.0
  0
VERTEX
  5
145
330
143
100
AcDbEntity
  8
BEMA_UNG
 62
     7
100
AcDbVertex
100
AcDb2dVertex
 10
10.21350906814112
 20
57.96600909124808
 30
0.0
  0
SEQEND
  5
146
330
143
100
AcDbEntity
  8
BEMA_UNG
  0
POLYLINE
  5
147
330
1F
100
AcDbEntity
  8
BEMA_UNG
 62
     7
100
AcDb2dPolyline
 66
     1
 10
0.0
 20
0.0
 30
0.0
  0
VERTEX
  5
148
330
147
100
AcDbEntity
  8
BEMA_UNG
 62
     7
100
AcDbVertex
100
AcDb2dVertex
 10
10.67032903084684
 20
54.4664787887106
 30
0.0
  0
VERTEX
  5
149
330
147
100
AcDbEntity
  8
BEMA_UNG
 62
     7
100
AcDbVertex
100
AcDb2dVertex
 10
10.67032903084684
 20
54.49360893355455
 30
0.0
  0
SEQEND
  5
14A
330
147
100
AcDbEntity
  8
BEMA_UNG
  0
POLYLINE
  5
14B
330
1F
100
AcDbEntity
  8
BEMA_UNG
 62
     7
100
AcDb2dPolyline
 66
     1
 10
0.0
 20
0.0
 30
0.0
  0
VERTEX
  5
14C
330
14B
100
AcDbEntity
  8
BEMA_UNG
 62
     7
100
AcDbVertex
100
AcDb2dVertex
 10
10.67032903084684
 20
54.4664787887106
 30
0.0
  0
VERTEX
  5
14D
330
14B
100
AcDbEntity
  8
BEMA_UNG
 62
     7
100
AcDbVertex
100
AcDb2dVertex
 10
10.67032903084684
 20
54.49360893355455
 30
0.0
  0
SEQEND
  5
14E
330
14B
100
AcDbEntity
  8
BEMA_UNG
  0
POLYLINE
  5
14F
330
1F
100
AcDbEntity
  8
BEMA_UNG
 62
     7
100
AcDb2dPolyline
 66
     1
 10
0.0
 20
0.0
 30
0.0
  0
VERTEX
  5
150
330
14F
100
AcDbEntity
  8
BEMA_UNG
 62
     7
100
AcDbVertex
100
AcDb2dVertex
 10
10.61951383891691
 20
54.4664787887106
 30
0.0
  0
VERTEX
  5
151
330
14F
100
AcDbEntity
  8
BEMA_UNG
 62
     7
100
AcDbVertex
100
AcDb2dVertex
 10
10.61951383891691
 20
54.87920150011441
 30
0.0
  0
SEQEND
  5
152
330
14F
100
AcDbEntity
  8
BEMA_UNG
  0
POLYLINE
  5
153
330
1F
100
AcDbEntity
  8
BEMA_UNG
 62
     7
100
AcDb2dPolyline
 66
     1
 10
0.0
 20
0.0
 30
0.0
  0
VERTEX
  5
154
330
153
100
AcDbEntity
  8
BEMA_UNG
 62
     7
100
AcDbVertex
100
AcDb2dVertex
 10
10.56869864698697
 20
54.4664787887106
 30
0.0
  0
VERTEX
  5
155
330
153
100
AcDbEntity
  8
BEMA_UNG
 62
     7
100
AcDbVertex
100
AcDb2dVertex
 10
10.56869864698697
 20
55.26513857645007
 30
0.0
  0
SEQEND
  5
156
330
153
100
AcDbEntity
  8
BEMA_UNG
  0
POLYLINE
  5
157
330
1F
100
AcDbEntity
  8
BEMA_UNG
 62
     7
100
AcDb2dPolyline
 66
     1
 10
0.0
 20
0.0
 30
0.0
  0
VERTEX
  5
158
330
157
100
AcDbEntity
  8
BEMA_UNG
 62
     7
100
AcDbVertex
100
AcDb2dVertex
 10
10.51788345505704
 20
54.4664787887106
 30
0.0
  0
VERTEX
  5
159
330
157
100
AcDbEntity
  8
BEMA_UNG
 62
     7
100
AcDbVertex
100
AcDb2dVertex
 10
10.51788345505704
 20
55.65073114300993
 30
0.0
  0
SEQEND
  5
15A
330
157
100
AcDbEntity
  8
BEMA_UNG
  0
POLYLINE
  5
15B
330
1F
100
AcDbEntity
  8
BEMA_UNG
 62
     7
100
AcDb2dPolyline
 66
     1
 10
0.0
 20
0.0
 30
0.0
  0
VERTEX
  5
15C
330
15B
100
AcDbEntity
  8
BEMA_UNG
 62
     7
100
AcDbVertex
100
AcDb2dVertex
 10
10.4674127729029
 20
54.4664787887106
 30
0.0
  0
VERTEX
  5
15D
330
15B
100
AcDbEntity
  8
BEMA_UNG
 62
     7
100
AcDbVertex
100
AcDb2dVertex
 10
10.4674127729029
 20
56.03701272912139
 30
0.0
  0
SEQEND
  5
15E
330
15B
100
AcDbEntity
  8
BEMA_UNG
  0
POLYLINE
  5
15F
330
1F
100
AcDbEntity
  8
BEMA_UNG
 62
     7
100
AcDb2dPolyline
 66
     1
 10
0.0
 20
0.0
 30
0.0
  0
VERTEX
  5
160
330
15F
100
AcDbEntity
  8
BEMA_UNG
 62
     7
100
AcDbVertex
100
AcDb2dVertex
 10
10.41676983586086
 20
54.4664787887106
 30
0.0
  0
VERTEX
  5
161
330
15F
100
AcDbEntity
  8
BEMA_UNG
 62
     7
100
AcDbVertex
100
AcDb2dVertex
 10
10.41676983586086
 20
56.42260529568124
 30
0.0
  0
SEQEND
  5
162
330
15F
100
AcDbEntity
  8
BEMA_UNG
  0
POLYLINE
  5
163
330
1F
100
AcDbEntity
  8
BEMA_UNG
 62
     7
100
AcDb2dPolyline
 66
     1
 10
0.0
 20
0.0
 30
0.0
  0
VERTEX
  5
164
330
163
100
AcDbEntity
  8
BEMA_UNG
 62
     7
100
AcDbVertex
100
AcDb2dVertex
 10
10.36578238904303
 20
54.4664787887106
 30
0.0
  0
VERTEX
  5
165
330
163
100
AcDbEntity
  8
BEMA_UNG
 62
     7
100
AcDbVertex
100
AcDb2dVertex
 10
10.36578238904303
 20
56.8085423720169
 30
0.0
  0
SEQEND
  5
166
330
163
100
AcDbEntity
  8
BEMA_UNG
  0
POLYLINE
  5
167
330
1F
100
AcDbEntity
  8
BEMA_UNG
 62
     7
100
AcDb2dPolyline
 66
     1
 10
0.0
 20
0.0
 30
0.0
  0
VERTEX
  5
168
330
167
100
AcDbEntity
  8
BEMA_UNG
 62
     7
100
AcDbVertex
100
AcDb2dVertex
 10
10.31513945200099
 20
54.4664787887106
 30
0.0
  0
VERTEX
  5
169
330
167
100
AcDbEntity
  8
BEMA_UNG
 62
     7
100
AcDbVertex
100
AcDb2dVertex
 10
10.31513945200099
 20
57.19413493857677
 30
0.0
  0
SEQEND
  5
16A
330
167
100
AcDbEntity
  8
BEMA_UNG
  0
POLYLINE
  5
16B
330
1F
100
AcDbEntity
  8
BEMA_UNG
 62
     7
100
AcDb2dPolyline
 66
     1
 10
0.0
 20
0.0
 30
0.0
  0
VERTEX
  5
16C
330
16B
100
AcDbEntity
  8
BEMA_UNG
 62
     7
100
AcDbVertex
100
AcDb2dVertex
 10
10.26432426007105
 20
54.4664787887106
 30
0.0
  0
VERTEX
  5
16D
330
16B
100
AcDbEntity
  8
BEMA_UNG
 62
     7
100
AcDbVertex
100
AcDb2dVertex
 10
10.26432426007105
 20
57.58041652468822
 30
0.0
  0
SEQEND
  5
16E
330
16B
100
AcDbEntity
  8
BEMA_UNG
  0
POLYLINE
  5
16F
330
1F
100
AcDbEntity
  8
BEMA_UNG
 62
     7
100
AcDb2dPolyline
 66
     1
 10
0.0
 20
0.0
 30
0.0
  0
VERTEX
  5
170
330
16F
100
AcDbEntity
  8
BEMA_UNG
 62
     7
100
AcDbVertex
100
AcDb2dVertex
 10
10.21350906814112
 20
54.4664787887106
 30
0.0
  0
VERTEX
  5
171
330
16F
100
AcDbEntity
  8
BEMA_UNG
 62
     7
100
AcDbVertex
100
AcDb2dVertex
 10
10.21350906814112
 20
57.96600909124808
 30
0.0
  0
SEQEND
  5
172
330
16F
100
AcDbEntity
  8
BEMA_UNG
  0
POLYLINE
  5
173
330
1F
100
AcDbEntity
  8
BEMA_UNG
 62
     7
100
AcDb2dPolyline
 66
     1
 10
0.0
 20
0.0
 30
0.0
  0
VERTEX
  5
174
330
173
100
AcDbEntity
  8
BEMA_UNG
 62
     7
100
AcDbVertex
100
AcDb2dVertex
 10
10.21350906814112
 20
39.96589007056195
 30
0.0
  0
VERTEX
  5
175
330
173
100
AcDbEntity
  8
BEMA_UNG
 62
     7
100
AcDbVertex
100
AcDb2dVertex
 10
10.67446314815639
 20
43.46610939265103
 30
0.0
  0
VERTEX
  5
176
330
173
100
AcDbEntity
  8
BEMA_UNG
 62
     7
100
AcDbVertex
100
AcDb2dVertex
 10
9.752727243013744
 20
43.46610939265103
 30
0.0
  0
VERTEX
  5
177
330
173
100
AcDbEntity
  8
BEMA_UNG
 62
     7
100
AcDbVertex
100
AcDb2dVertex
 10
10.21350906814112
 20
39.96589007056195
 30
0.0
  0
SEQEND
  5
178
330
173
100
AcDbEntity
  8
BEMA_UNG
  0
POLYLINE
  5
179
330
1F
100
AcDbEntity
  8
BEMA_UNG
 62
     7
100
AcDb2dPolyline
 66
     1
 10
0.0
 20
0.0
 30
0.0
  0
VERTEX
  5
17A
330
179
100
AcDbEntity
  8
BEMA_UNG
 62
     7
100
AcDbVertex
100
AcDb2dVertex
 10
10.67032903084684
 20
43.46610939265103
 30
0.0
  0
VERTEX
  5
17B
330
179
100
AcDbEntity
  8
BEMA_UNG
 62
     7
100
AcDbVertex
100
AcDb2dVertex
 10
10.67032903084684
 20
43.43889312036313
 30
0.0
  0
SEQEND
  5
17C
330
179
100
AcDbEntity
  8
BEMA_UNG
  0
POLYLINE
  5
17D
330
1F
100
AcDbEntity
  8
BEMA_UNG
 62
     7
100
AcDb2dPolyline
 66
     1
 10
0.0
 20
0.0
 30
0.0
  0
VERTEX
  5
17E
330
17D
100
AcDbEntity
  8
BEMA_UNG
 62
     7
100
AcDbVertex
100
AcDb2dVertex
 10
10.67032903084684
 20
43.46610939265103
 30
0.0
  0
VERTEX
  5
17F
330
17D
100
AcDbEntity
  8
BEMA_UNG
 62
     7
100
AcDbVertex
100
AcDb2dVertex
 10
10.67032903084684
 20
43.43889312036313
 30
0.0
  0
SEQEND
  5
180
330
17D
100
AcDbEntity
  8
BEMA_UNG
  0
POLYLINE
  5
181
330
1F
100
AcDbEntity
  8
BEMA_UNG
 62
     7
100
AcDb2dPolyline
 66
     1
 10
0.0
 20
0.0
 30
0.0
  0
VERTEX
  5
182
330
181
100
AcDbEntity
  8
BEMA_UNG
 62
     7
100
AcDbVertex
100
AcDb2dVertex
 10
10.61951383891691
 20
43.46610939265103
 30
0.0
  0
VERTEX
  5
183
330
181
100
AcDbEntity
  8
BEMA_UNG
 62
     7
100
AcDbVertex
100
AcDb2dVertex
 10
10.61951383891691
 20
43.05269766169563
 30
0.0
  0
SEQEND
  5
184
330
181
100
AcDbEntity
  8
BEMA_UNG
  0
POLYLINE
  5
185
330
1F
100
AcDbEntity
  8
BEMA_UNG
 62
     7
100
AcDb2dPolyline
 66
     1
 10
0.0
 20
0.0
 30
0.0
  0
VERTEX
  5
186
330
185
100
AcDbEntity
  8
BEMA_UNG
 62
     7
100
AcDbVertex
100
AcDb2dVertex
 10
10.56869864698697
 20
43.46610939265103
 30
0.0
  0
VERTEX
  5
187
330
185
100
AcDbEntity
  8
BEMA_UNG
 62
     7
100
AcDbVertex
100
AcDb2dVertex
 10
10.56869864698697
 20
42.66753573235551
 30
0.0
  0
SEQEND
  5
188
330
185
100
AcDbEntity
  8
BEMA_UNG
  0
POLYLINE
  5
189
330
1F
100
AcDbEntity
  8
BEMA_UNG
 62
     7
100
AcDb2dPolyline
 66
     1
 10
0.0
 20
0.0
 30
0.0
  0
VERTEX
  5
18A
330
189
100
AcDbEntity
  8
BEMA_UNG
 62
     7
100
AcDbVertex
100
AcDb2dVertex
 10
10.51788345505704
 20
43.46610939265103
 30
0.0
  0
VERTEX
  5
18B
330
189
100
AcDbEntity
  8
BEMA_UNG
 62
     7
100
AcDbVertex
100
AcDb2dVertex
 10
10.51788345505704
 20
42.28116801880011
 30
0.0
  0
SEQEND
  5
18C
330
189
100
AcDbEntity
  8
BEMA_UNG
  0
POLYLINE
  5
18D
330
1F
100
AcDbEntity
  8
BEMA_UNG
 62
     7
100
AcDb2dPolyline
 66
     1
 10
0.0
 20
0.0
 30
0.0
  0
VERTEX
  5
18E
330
18D
100
AcDbEntity
  8
BEMA_UNG
 62
     7
100
AcDbVertex
100
AcDb2dVertex
 10
10.4674127729029
 20
43.46610939265103
 30
0.0
  0
VERTEX
  5
18F
330
18D
100
AcDbEntity
  8
BEMA_UNG
 62
     7
100
AcDbVertex
100
AcDb2dVertex
 10
10.4674127729029
 20
41.89548932479629
 30
0.0
  0
SEQEND
  5
190
330
18D
100
AcDbEntity
  8
BEMA_UNG
  0
POLYLINE
  5
191
330
1F
100
AcDbEntity
  8
BEMA_UNG
 62
     7
100
AcDb2dPolyline
 66
     1
 10
0.0
 20
0.0
 30
0.0
  0
VERTEX
  5
192
330
191
100
AcDbEntity
  8
BEMA_UNG
 62
     7
100
AcDbVertex
100
AcDb2dVertex
 10
10.41676983586086
 20
43.46610939265103
 30
0.0
  0
VERTEX
  5
193
330
191
100
AcDbEntity
  8
BEMA_UNG
 62
     7
100
AcDbVertex
100
AcDb2dVertex
 10
10.41676983586086
 20
41.50929386612879
 30
0.0
  0
SEQEND
  5
194
330
191
100
AcDbEntity
  8
BEMA_UNG
  0
POLYLINE
  5
195
330
1F
100
AcDbEntity
  8
BEMA_UNG
 62
     7
100
AcDb2dPolyline
 66
     1
 10
0.0
 20
0.0
 30
0.0
  0
VERTEX
  5
196
330
195
100
AcDbEntity
  8
BEMA_UNG
 62
     7
100
AcDbVertex
100
AcDb2dVertex
 10
10.36578238904303
 20
43.46610939265103
 30
0.0
  0
VERTEX
  5
197
330
195
100
AcDbEntity
  8
BEMA_UNG
 62
     7
100
AcDbVertex
100
AcDb2dVertex
 10
10.36578238904303
 20
41.12413193678867
 30
0.0
  0
SEQEND
  5
198
330
195
100
AcDbEntity
  8
BEMA_UNG
  0
POLYLINE
  5
199
330
1F
100
AcDbEntity
  8
BEMA_UNG
 62
     7
100
AcDb2dPolyline
 66
     1
 10
0.0
 20
0.0
 30
0.0
  0
VERTEX
  5
19A
330
199
100
AcDbEntity
  8
BEMA_UNG
 62
     7
100
AcDbVertex
100
AcDb2dVertex
 10
10.31513945200099
 20
43.46610939265103
 30
0.0
  0
VERTEX
  5
19B
330
199
100
AcDbEntity
  8
BEMA_UNG
 62
     7
100
AcDbVertex
100
AcDb2dVertex
 10
10.31513945200099
 20
40.73776422323327
 30
0.0
  0
SEQEND
  5
19C
330
199
100
AcDbEntity
  8
BEMA_UNG
  0
POLYLINE
  5
19D
330
1F
100
AcDbEntity
  8
BEMA_UNG
 62
     7
100
AcDb2dPolyline
 66
     1
 10
0.0
 20
0.0
 30
0.0
  0
VERTEX
  5
19E
330
19D
100
AcDbEntity
  8
BEMA_UNG
 62
     7
100
AcDbVertex
100
AcDb2dVertex
 10
10.26432426007105
 20
43.46610939265103
 30
0.0
  0
VERTEX
  5
19F
330
19D
100
AcDbEntity
  8
BEMA_UNG
 62
     7
100
AcDbVertex
100
AcDb2dVertex
 10
10.26432426007105
 20
40.35208552922946
 30
0.0
  0
SEQEND
  5
1A0
330
19D
100
AcDbEntity
  8
BEMA_UNG
  0
POLYLINE
  5
1A1
330
1F
100
AcDbEntity
  8
BEMA_UNG
 62
     7
100
AcDb2dPolyline
 66
     1
 10
0.0
 20
0.0
 30
0.0
  0
VERTEX
  5
1A2
330
1A1
100
AcDbEntity
  8
BEMA_UNG
 62
     7
100
AcDbVertex
100
AcDb2dVertex
 10
10.21350906814112
 20
43.46610939265103
 30
0.0
  0
VERTEX
  5
1A3
330
1A1
100
AcDbEntity
  8
BEMA_UNG
 62
     7
100
AcDbVertex
100
AcDb2dVertex
 10
10.21350906814112
 20
39.96589007056195
 30
0.0
  0
SEQEND
  5
1A4
330
1A1
100
AcDbEntity
  8
BEMA_UNG
  0
POLYLINE
  5
1A5
330
1F
100
AcDbEntity
  8
BEMA_UNG
 62
     7
100
AcDb2dPolyline
 66
     1
 10
0.0
 20
0.0
 30
0.0
  0
VERTEX
  5
1A6
330
1A5
100
AcDbEntity
  8
BEMA_UNG
 62
     7
100
AcDbVertex
100
AcDb2dVertex
 10
9.756344595659604
 20
43.46610939265103
 30
0.0
  0
VERTEX
  5
1A7
330
1A5
100
AcDbEntity
  8
BEMA_UNG
 62
     7
100
AcDbVertex
100
AcDb2dVertex
 10
9.756344595659604
 20
43.43889312036313
 30
0.0
  0
SEQEND
  5
1A8
330
1A5
100
AcDbEntity
  8
BEMA_UNG
  0
POLYLINE
  5
1A9
330
1F
100
AcDbEntity
  8
BEMA_UNG
 62
     7
100
AcDb2dPolyline
 66
     1
 10
0.0
 20
0.0
 30
0.0
  0
VERTEX
  5
1AA
330
1A9
100
AcDbEntity
  8
BEMA_UNG
 62
     7
100
AcDbVertex
100
AcDb2dVertex
 10
9.756344595659604
 20
43.46610939265103
 30
0.0
  0
VERTEX
  5
1AB
330
1A9
100
AcDbEntity
  8
BEMA_UNG
 62
     7
100
AcDbVertex
100
AcDb2dVertex
 10
9.756344595659604
 20
43.43889312036313
 30
0.0
  0
SEQEND
  5
1AC
330
1A9
100
AcDbEntity
  8
BEMA_UNG
  0
POLYLINE
  5
1AD
330
1F
100
AcDbEntity
  8
BEMA_UNG
 62
     7
100
AcDb2dPolyline
 66
     1
 10
0.0
 20
0.0
 30
0.0
  0
VERTEX
  5
1AE
330
1AD
100
AcDbEntity
  8
BEMA_UNG
 62
     7
100
AcDbVertex
100
AcDb2dVertex
 10
9.80698753270164
 20
43.46610939265103
 30
0.0
  0
VERTEX
  5
1AF
330
1AD
100
AcDbEntity
  8
BEMA_UNG
 62
     7
100
AcDbVertex
100
AcDb2dVertex
 10
9.80698753270164
 20
43.05269766169563
 30
0.0
  0
SEQEND
  5
1B0
330
1AD
100
AcDbEntity
  8
BEMA_UNG
  0
POLYLINE
  5
1B1
330
1F
100
AcDbEntity
  8
BEMA_UNG
 62
     7
100
AcDb2dPolyline
 66
     1
 10
0.0
 20
0.0
 30
0.0
  0
VERTEX
  5
1B2
330
1B1
100
AcDbEntity
  8
BEMA_UNG
 62
     7
100
AcDbVertex
100
AcDb2dVertex
 10
9.857974979519474
 20
43.46610939265103
 30
0.0
  0
VERTEX
  5
1B3
330
1B1
100
AcDbEntity
  8
BEMA_UNG
 62
     7
100
AcDbVertex
100
AcDb2dVertex
 10
9.857974979519474
 20
42.66753573235551
 30
0.0
  0
SEQEND
  5
1B4
330
1B1
100
AcDbEntity
  8
BEMA_UNG
  0
POLYLINE
  5
1B5
330
1F
100
AcDbEntity
  8
BEMA_UNG
 62
     7
100
AcDb2dPolyline
 66
     1
 10
0.0
 20
0.0
 30
0.0
  0
VERTEX
  5
1B6
330
1B5
100
AcDbEntity
  8
BEMA_UNG
 62
     7
100
AcDbVertex
100
AcDb2dVertex
 10
9.90861791656151
 20
43.46610939265103
 30
0.0
  0
VERTEX
  5
1B7
330
1B5
100
AcDbEntity
  8
BEMA_UNG
 62
     7
100
AcDbVertex
100
AcDb2dVertex
 10
9.90861791656151
 20
42.28116801880011
 30
0.0
  0
SEQEND
  5
1B8
330
1B5
100
AcDbEntity
  8
BEMA_UNG
  0
POLYLINE
  5
1B9
330
1F
100
AcDbEntity
  8
BEMA_UNG
 62
     7
100
AcDb2dPolyline
 66
     1
 10
0.0
 20
0.0
 30
0.0
  0
VERTEX
  5
1BA
330
1B9
100
AcDbEntity
  8
BEMA_UNG
 62
     7
100
AcDbVertex
100
AcDb2dVertex
 10
9.959433108491446
 20
43.46610939265103
 30
0.0
  0
VERTEX
  5
1BB
330
1B9
100
AcDbEntity
  8
BEMA_UNG
 62
     7
100
AcDbVertex
100
AcDb2dVertex
 10
9.959433108491446
 20
41.89548932479629
 30
0.0
  0
SEQEND
  5
1BC
330
1B9
100
AcDbEntity
  8
BEMA_UNG
  0
POLYLINE
  5
1BD
330
1F
100
AcDbEntity
  8
BEMA_UNG
 62
     7
100
AcDb2dPolyline
 66
     1
 10
0.0
 20
0.0
 30
0.0
  0
VERTEX
  5
1BE
330
1BD
100
AcDbEntity
  8
BEMA_UNG
 62
     7
100
AcDbVertex
100
AcDb2dVertex
 10
10.01024830042138
 20
43.46610939265103
 30
0.0
  0
VERTEX
  5
1BF
330
1BD
100
AcDbEntity
  8
BEMA_UNG
 62
     7
100
AcDbVertex
100
AcDb2dVertex
 10
10.01024830042138
 20
41.50929386612879
 30
0.0
  0
SEQEND
  5
1C0
330
1BD
100
AcDbEntity
  8
BEMA_UNG
  0
POLYLINE
  5
1C1
330
1F
100
AcDbEntity
  8
BEMA_UNG
 62
     7
100
AcDb2dPolyline
 66
     1
 10
0.0
 20
0.0
 30
0.0
  0
VERTEX
  5
1C2
330
1C1
100
AcDbEntity
  8
BEMA_UNG
 62
     7
100
AcDbVertex
100
AcDb2dVertex
 10
10.06106349235131
 20
43.46610939265103
 30
0.0
  0
VERTEX
  5
1C3
330
1C1
100
AcDbEntity
  8
BEMA_UNG
 62
     7
100
AcDbVertex
100
AcDb2dVertex
 10
10.06106349235131
 20
41.12413193678867
 30
0.0
  0
SEQEND
  5
1C4
330
1C1
100
AcDbEntity
  8
BEMA_UNG
  0
POLYLINE
  5
1C5
330
1F
100
AcDbEntity
  8
BEMA_UNG
 62
     7
100
AcDb2dPolyline
 66
     1
 10
0.0
 20
0.0
 30
0.0
  0
VERTEX
  5
1C6
330
1C5
100
AcDbEntity
  8
BEMA_UNG
 62
     7
100
AcDbVertex
100
AcDb2dVertex
 10
10.11187868428125
 20
43.46610939265103
 30
0.0
  0
VERTEX
  5
1C7
330
1C5
100
AcDbEntity
  8
BEMA_UNG
 62
     7
100
AcDbVertex
100
AcDb2dVertex
 10
10.11187868428125
 20
40.73776422323327
 30
0.0
  0
SEQEND
  5
1C8
330
1C5
100
AcDbEntity
  8
BEMA_UNG
  0
POLYLINE
  5
1C9
330
1F
100
AcDbEntity
  8
BEMA_UNG
 62
     7
100
AcDb2dPolyline
 66
     1
 10
0.0
 20
0.0
 30
0.0
  0
VERTEX
  5
1CA
330
1C9
100
AcDbEntity
  8
BEMA_UNG
 62
     7
100
AcDbVertex
100
AcDb2dVertex
 10
10.16269387621118
 20
43.46610939265103
 30
0.0
  0
VERTEX
  5
1CB
330
1C9
100
AcDbEntity
  8
BEMA_UNG
 62
     7
100
AcDbVertex
100
AcDb2dVertex
 10
10.16269387621118
 20
40.35208552922946
 30
0.0
  0
SEQEND
  5
1CC
330
1C9
100
AcDbEntity
  8
BEMA_UNG
  0
POLYLINE
  5
1CD
330
1F
100
AcDbEntity
  8
BEMA_UNG
 62
     7
100
AcDb2dPolyline
 66
     1
 10
0.0
 20
0.0
 30
0.0
  0
VERTEX
  5
1CE
330
1CD
100
AcDbEntity
  8
BEMA_UNG
 62
     7
100
AcDbVertex
100
AcDb2dVertex
 10
10.21350906814112
 20
43.46610939265103
 30
0.0
  0
VERTEX
  5
1CF
330
1CD
100
AcDbEntity
  8
BEMA_UNG
 62
     7
100
AcDbVertex
100
AcDb2dVertex
 10
10.21350906814112
 20
39.96589007056195
 30
0.0
  0
SEQEND
  5
1D0
330
1CD
100
AcDbEntity
  8
BEMA_UNG
  0
POLYLINE
  5
1D1
330
1F
100
AcDbEntity
  8
BEMA_UNG
 62
     7
100
AcDb2dPolyline
 66
     1
 10
0.0
 20
0.0
 30
0.0
  0
VERTEX
  5
1D2
330
1D1
100
AcDbEntity
  8
BEMA_UNG
 62
     7
100
AcDbVertex
100
AcDb2dVertex
 10
-67.14133795002745
 20
19.96571954649117
 30
0.0
  0
VERTEX
  5
1D3
330
1D1
100
AcDbEntity
  8
BEMA_UNG
 62
     7
100
AcDbVertex
100
AcDb2dVertex
 10
-52.19271426845589
 20
19.96571954649117
 30
0.0
  0
SEQEND
  5
1D4
330
1D1
100
AcDbEntity
  8
BEMA_UNG
  0
POLYLINE
  5
1D5
330
1F
100
AcDbEntity
  8
BEMA_UNG
 62
     7
100
AcDb2dPolyline
 66
     1
 10
0.0
 20
0.0
 30
0.0
  0
VERTEX
  5
1D6
330
1D5
100
AcDbEntity
  8
BEMA_UNG
 62
     7
100
AcDbVertex
100
AcDb2dVertex
 10
-69.64161764786815
 20
-0.0342787226917188
 30
0.0
  0
VERTEX
  5
1D7
330
1D5
100
AcDbEntity
  8
BEMA_UNG
 62
     7
100
AcDbVertex
100
AcDb2dVertex
 10
-52.19271426845589
 20
-0.0342787226917188
 30
0.0
  0
SEQEND
  5
1D8
330
1D5
100
AcDbEntity
  8
BEMA_UNG
  0
POLYLINE
  5
1D9
330
1F
100
AcDbEntity
  8
BEMA_UNG
 62
     7
100
AcDb2dPolyline
 66
     1
 10
0.0
 20
0.0
 30
0.0
  0
VERTEX
  5
1DA
330
1D9
100
AcDbEntity
  8
BEMA_UNG
 62
     7
100
AcDbVertex
100
AcDb2dVertex
 10
-54.19242126206475
 20
19.96571954649117
 30
0.0
  0
VERTEX
  5
1DB
330
1D9
100
AcDbEntity
  8
BEMA_UNG
 62
     7
100
AcDbVertex
100
AcDb2dVertex
 10
-54.19242126206475
 20
-0.0342787226917188
 30
0.0
  0
SEQEND
  5
1DC
330
1D9
100
AcDbEntity
  8
BEMA_UNG
  0
POLYLINE
  5
1DD
330
1F
100
AcDbEntity
  8
BEMA_UNG
 62
     7
100
AcDb2dPolyline
 66
     1
 10
0.0
 20
0.0
 30
0.0
  0
VERTEX
  5
1DE
330
1DD
100
AcDbEntity
  8
BEMA_UNG
 62
     7
100
AcDbVertex
100
AcDb2dVertex
 10
-54.19242126206475
 20
19.96571954649117
 30
0.0
  0
VERTEX
  5
1DF
330
1DD
100
AcDbEntity
  8
BEMA_UNG
 62
     7
100
AcDbVertex
100
AcDb2dVertex
 10
-54.65337534208003
 20
16.46618924395369
 30
0.0
  0
VERTEX
  5
1E0
330
1DD
100
AcDbEntity
  8
BEMA_UNG
 62
     7
100
AcDbVertex
100
AcDb2dVertex
 10
-53.73163943693737
 20
16.46618924395369
 30
0.0
  0
VERTEX
  5
1E1
330
1DD
100
AcDbEntity
  8
BEMA_UNG
 62
     7
100
AcDbVertex
100
AcDb2dVertex
 10
-54.19242126206475
 20
19.96571954649117
 30
0.0
  0
SEQEND
  5
1E2
330
1DD
100
AcDbEntity
  8
BEMA_UNG
  0
POLYLINE
  5
1E3
330
1F
100
AcDbEntity
  8
BEMA_UNG
 62
     7
100
AcDb2dPolyline
 66
     1
 10
0.0
 20
0.0
 30
0.0
  0
VERTEX
  5
1E4
330
1E3
100
AcDbEntity
  8
BEMA_UNG
 62
     7
100
AcDbVertex
100
AcDb2dVertex
 10
-54.64993024432206
 20
16.46618924395369
 30
0.0
  0
VERTEX
  5
1E5
330
1E3
100
AcDbEntity
  8
BEMA_UNG
 62
     7
100
AcDbVertex
100
AcDb2dVertex
 10
-54.64993024432206
 20
16.49340551624158
 30
0.0
  0
SEQEND
  5
1E6
330
1E3
100
AcDbEntity
  8
BEMA_UNG
  0
POLYLINE
  5
1E7
330
1F
100
AcDbEntity
  8
BEMA_UNG
 62
     7
100
AcDb2dPolyline
 66
     1
 10
0.0
 20
0.0
 30
0.0
  0
VERTEX
  5
1E8
330
1E7
100
AcDbEntity
  8
BEMA_UNG
 62
     7
100
AcDbVertex
100
AcDb2dVertex
 10
-54.64993024432206
 20
16.46618924395369
 30
0.0
  0
VERTEX
  5
1E9
330
1E7
100
AcDbEntity
  8
BEMA_UNG
 62
     7
100
AcDbVertex
100
AcDb2dVertex
 10
-54.64993024432206
 20
16.49340551624158
 30
0.0
  0
SEQEND
  5
1EA
330
1E7
100
AcDbEntity
  8
BEMA_UNG
  0
POLYLINE
  5
1EB
330
1F
100
AcDbEntity
  8
BEMA_UNG
 62
     7
100
AcDb2dPolyline
 66
     1
 10
0.0
 20
0.0
 30
0.0
  0
VERTEX
  5
1EC
330
1EB
100
AcDbEntity
  8
BEMA_UNG
 62
     7
100
AcDbVertex
100
AcDb2dVertex
 10
-54.59911505239212
 20
16.46618924395369
 30
0.0
  0
VERTEX
  5
1ED
330
1EB
100
AcDbEntity
  8
BEMA_UNG
 62
     7
100
AcDbVertex
100
AcDb2dVertex
 10
-54.59911505239212
 20
16.87891195535749
 30
0.0
  0
SEQEND
  5
1EE
330
1EB
100
AcDbEntity
  8
BEMA_UNG
  0
POLYLINE
  5
1EF
330
1F
100
AcDbEntity
  8
BEMA_UNG
 62
     7
100
AcDb2dPolyline
 66
     1
 10
0.0
 20
0.0
 30
0.0
  0
VERTEX
  5
1F0
330
1EF
100
AcDbEntity
  8
BEMA_UNG
 62
     7
100
AcDbVertex
100
AcDb2dVertex
 10
-54.54829986046219
 20
16.46618924395369
 30
0.0
  0
VERTEX
  5
1F1
330
1EF
100
AcDbEntity
  8
BEMA_UNG
 62
     7
100
AcDbVertex
100
AcDb2dVertex
 10
-54.54829986046219
 20
17.2652796689129
 30
0.0
  0
SEQEND
  5
1F2
330
1EF
100
AcDbEntity
  8
BEMA_UNG
  0
POLYLINE
  5
1F3
330
1F
100
AcDbEntity
  8
BEMA_UNG
 62
     7
100
AcDb2dPolyline
 66
     1
 10
0.0
 20
0.0
 30
0.0
  0
VERTEX
  5
1F4
330
1F3
100
AcDbEntity
  8
BEMA_UNG
 62
     7
100
AcDbVertex
100
AcDb2dVertex
 10
-54.49748466853226
 20
16.46618924395369
 30
0.0
  0
VERTEX
  5
1F5
330
1F3
100
AcDbEntity
  8
BEMA_UNG
 62
     7
100
AcDbVertex
100
AcDb2dVertex
 10
-54.49748466853226
 20
17.65095836291671
 30
0.0
  0
SEQEND
  5
1F6
330
1F3
100
AcDbEntity
  8
BEMA_UNG
  0
POLYLINE
  5
1F7
330
1F
100
AcDbEntity
  8
BEMA_UNG
 62
     7
100
AcDb2dPolyline
 66
     1
 10
0.0
 20
0.0
 30
0.0
  0
VERTEX
  5
1F8
330
1F7
100
AcDbEntity
  8
BEMA_UNG
 62
     7
100
AcDbVertex
100
AcDb2dVertex
 10
-54.44666947660232
 20
16.46618924395369
 30
0.0
  0
VERTEX
  5
1F9
330
1F7
100
AcDbEntity
  8
BEMA_UNG
 62
     7
100
AcDbVertex
100
AcDb2dVertex
 10
-54.44666947660232
 20
18.03680931180842
 30
0.0
  0
SEQEND
  5
1FA
330
1F7
100
AcDbEntity
  8
BEMA_UNG
  0
POLYLINE
  5
1FB
330
1F
100
AcDbEntity
  8
BEMA_UNG
 62
     7
100
AcDb2dPolyline
 66
     1
 10
0.0
 20
0.0
 30
0.0
  0
VERTEX
  5
1FC
330
1FB
100
AcDbEntity
  8
BEMA_UNG
 62
     7
100
AcDbVertex
100
AcDb2dVertex
 10
-54.39585428467239
 20
16.46618924395369
 30
0.0
  0
VERTEX
  5
1FD
330
1FB
100
AcDbEntity
  8
BEMA_UNG
 62
     7
100
AcDbVertex
100
AcDb2dVertex
 10
-54.39585428467239
 20
18.42231575092433
 30
0.0
  0
SEQEND
  5
1FE
330
1FB
100
AcDbEntity
  8
BEMA_UNG
  0
POLYLINE
  5
1FF
330
1F
100
AcDbEntity
  8
BEMA_UNG
 62
     7
100
AcDb2dPolyline
 66
     1
 10
0.0
 20
0.0
 30
0.0
  0
VERTEX
  5
200
330
1FF
100
AcDbEntity
  8
BEMA_UNG
 62
     7
100
AcDbVertex
100
AcDb2dVertex
 10
-54.34503909274245
 20
16.46618924395369
 30
0.0
  0
VERTEX
  5
201
330
1FF
100
AcDbEntity
  8
BEMA_UNG
 62
     7
100
AcDbVertex
100
AcDb2dVertex
 10
-54.34503909274245
 20
18.80868346447973
 30
0.0
  0
SEQEND
  5
202
330
1FF
100
AcDbEntity
  8
BEMA_UNG
  0
POLYLINE
  5
203
330
1F
100
AcDbEntity
  8
BEMA_UNG
 62
     7
100
AcDb2dPolyline
 66
     1
 10
0.0
 20
0.0
 30
0.0
  0
VERTEX
  5
204
330
203
100
AcDbEntity
  8
BEMA_UNG
 62
     7
100
AcDbVertex
100
AcDb2dVertex
 10
-54.29387939103672
 20
16.46618924395369
 30
0.0
  0
VERTEX
  5
205
330
203
100
AcDbEntity
  8
BEMA_UNG
 62
     7
100
AcDbVertex
100
AcDb2dVertex
 10
-54.29387939103672
 20
19.19436215848355
 30
0.0
  0
SEQEND
  5
206
330
203
100
AcDbEntity
  8
BEMA_UNG
  0
POLYLINE
  5
207
330
1F
100
AcDbEntity
  8
BEMA_UNG
 62
     7
100
AcDb2dPolyline
 66
     1
 10
0.0
 20
0.0
 30
0.0
  0
VERTEX
  5
208
330
207
100
AcDbEntity
  8
BEMA_UNG
 62
     7
100
AcDbVertex
100
AcDb2dVertex
 10
-54.24306419910678
 20
16.46618924395369
 30
0.0
  0
VERTEX
  5
209
330
207
100
AcDbEntity
  8
BEMA_UNG
 62
     7
100
AcDbVertex
100
AcDb2dVertex
 10
-54.24306419910678
 20
19.58021310737526
 30
0.0
  0
SEQEND
  5
20A
330
207
100
AcDbEntity
  8
BEMA_UNG
  0
POLYLINE
  5
20B
330
1F
100
AcDbEntity
  8
BEMA_UNG
 62
     7
100
AcDb2dPolyline
 66
     1
 10
0.0
 20
0.0
 30
0.0
  0
VERTEX
  5
20C
330
20B
100
AcDbEntity
  8
BEMA_UNG
 62
     7
100
AcDbVertex
100
AcDb2dVertex
 10
-54.19242126206475
 20
16.46618924395369
 30
0.0
  0
VERTEX
  5
20D
330
20B
100
AcDbEntity
  8
BEMA_UNG
 62
     7
100
AcDbVertex
100
AcDb2dVertex
 10
-54.19242126206475
 20
19.96571954649117
 30
0.0
  0
SEQEND
  5
20E
330
20B
100
AcDbEntity
  8
BEMA_UNG
  0
POLYLINE
  5
20F
330
1F
100
AcDbEntity
  8
BEMA_UNG
 62
     7
100
AcDb2dPolyline
 66
     1
 10
0.0
 20
0.0
 30
0.0
  0
VERTEX
  5
210
330
20F
100
AcDbEntity
  8
BEMA_UNG
 62
     7
100
AcDbVertex
100
AcDb2dVertex
 10
-53.73542904447113
 20
16.46618924395369
 30
0.0
  0
VERTEX
  5
211
330
20F
100
AcDbEntity
  8
BEMA_UNG
 62
     7
100
AcDbVertex
100
AcDb2dVertex
 10
-53.73542904447113
 20
16.49340551624158
 30
0.0
  0
SEQEND
  5
212
330
20F
100
AcDbEntity
  8
BEMA_UNG
  0
POLYLINE
  5
213
330
1F
100
AcDbEntity
  8
BEMA_UNG
 62
     7
100
AcDb2dPolyline
 66
     1
 10
0.0
 20
0.0
 30
0.0
  0
VERTEX
  5
214
330
213
100
AcDbEntity
  8
BEMA_UNG
 62
     7
100
AcDbVertex
100
AcDb2dVertex
 10
-53.73542904447113
 20
16.46618924395369
 30
0.0
  0
VERTEX
  5
215
330
213
100
AcDbEntity
  8
BEMA_UNG
 62
     7
100
AcDbVertex
100
AcDb2dVertex
 10
-53.73542904447113
 20
16.49340551624158
 30
0.0
  0
SEQEND
  5
216
330
213
100
AcDbEntity
  8
BEMA_UNG
  0
POLYLINE
  5
217
330
1F
100
AcDbEntity
  8
BEMA_UNG
 62
     7
100
AcDb2dPolyline
 66
     1
 10
0.0
 20
0.0
 30
0.0
  0
VERTEX
  5
218
330
217
100
AcDbEntity
  8
BEMA_UNG
 62
     7
100
AcDbVertex
100
AcDb2dVertex
 10
-53.78624423640107
 20
16.46618924395369
 30
0.0
  0
VERTEX
  5
219
330
217
100
AcDbEntity
  8
BEMA_UNG
 62
     7
100
AcDbVertex
100
AcDb2dVertex
 10
-53.78624423640107
 20
16.87891195535749
 30
0.0
  0
SEQEND
  5
21A
330
217
100
AcDbEntity
  8
BEMA_UNG
  0
POLYLINE
  5
21B
330
1F
100
AcDbEntity
  8
BEMA_UNG
 62
     7
100
AcDb2dPolyline
 66
     1
 10
0.0
 20
0.0
 30
0.0
  0
VERTEX
  5
21C
330
21B
100
AcDbEntity
  8
BEMA_UNG
 62
     7
100
AcDbVertex
100
AcDb2dVertex
 10
-53.8367149185552
 20
16.46618924395369
 30
0.0
  0
VERTEX
  5
21D
330
21B
100
AcDbEntity
  8
BEMA_UNG
 62
     7
100
AcDbVertex
100
AcDb2dVertex
 10
-53.8367149185552
 20
17.2652796689129
 30
0.0
  0
SEQEND
  5
21E
330
21B
100
AcDbEntity
  8
BEMA_UNG
  0
POLYLINE
  5
21F
330
1F
100
AcDbEntity
  8
BEMA_UNG
 62
     7
100
AcDb2dPolyline
 66
     1
 10
0.0
 20
0.0
 30
0.0
  0
VERTEX
  5
220
330
21F
100
AcDbEntity
  8
BEMA_UNG
 62
     7
100
AcDbVertex
100
AcDb2dVertex
 10
-53.88753011048514
 20
16.46618924395369
 30
0.0
  0
VERTEX
  5
221
330
21F
100
AcDbEntity
  8
BEMA_UNG
 62
     7
100
AcDbVertex
100
AcDb2dVertex
 10
-53.88753011048514
 20
17.65095836291671
 30
0.0
  0
SEQEND
  5
222
330
21F
100
AcDbEntity
  8
BEMA_UNG
  0
POLYLINE
  5
223
330
1F
100
AcDbEntity
  8
BEMA_UNG
 62
     7
100
AcDb2dPolyline
 66
     1
 10
0.0
 20
0.0
 30
0.0
  0
VERTEX
  5
224
330
223
100
AcDbEntity
  8
BEMA_UNG
 62
     7
100
AcDbVertex
100
AcDb2dVertex
 10
-53.93834530241507
 20
16.46618924395369
 30
0.0
  0
VERTEX
  5
225
330
223
100
AcDbEntity
  8
BEMA_UNG
 62
     7
100
AcDbVertex
100
AcDb2dVertex
 10
-53.93834530241507
 20
18.03680931180842
 30
0.0
  0
SEQEND
  5
226
330
223
100
AcDbEntity
  8
BEMA_UNG
  0
POLYLINE
  5
227
330
1F
100
AcDbEntity
  8
BEMA_UNG
 62
     7
100
AcDb2dPolyline
 66
     1
 10
0.0
 20
0.0
 30
0.0
  0
VERTEX
  5
228
330
227
100
AcDbEntity
  8
BEMA_UNG
 62
     7
100
AcDbVertex
100
AcDb2dVertex
 10
-53.98916049434501
 20
16.46618924395369
 30
0.0
  0
VERTEX
  5
229
330
227
100
AcDbEntity
  8
BEMA_UNG
 62
     7
100
AcDbVertex
100
AcDb2dVertex
 10
-53.98916049434501
 20
18.42231575092433
 30
0.0
  0
SEQEND
  5
22A
330
227
100
AcDbEntity
  8
BEMA_UNG
  0
POLYLINE
  5
22B
330
1F
100
AcDbEntity
  8
BEMA_UNG
 62
     7
100
AcDb2dPolyline
 66
     1
 10
0.0
 20
0.0
 30
0.0
  0
VERTEX
  5
22C
330
22B
100
AcDbEntity
  8
BEMA_UNG
 62
     7
100
AcDbVertex
100
AcDb2dVertex
 10
-54.03997568627494
 20
16.46618924395369
 30
0.0
  0
VERTEX
  5
22D
330
22B
100
AcDbEntity
  8
BEMA_UNG
 62
     7
100
AcDbVertex
100
AcDb2dVertex
 10
-54.03997568627494
 20
18.80868346447973
 30
0.0
  0
SEQEND
  5
22E
330
22B
100
AcDbEntity
  8
BEMA_UNG
  0
POLYLINE
  5
22F
330
1F
100
AcDbEntity
  8
BEMA_UNG
 62
     7
100
AcDb2dPolyline
 66
     1
 10
0.0
 20
0.0
 30
0.0
  0
VERTEX
  5
230
330
22F
100
AcDbEntity
  8
BEMA_UNG
 62
     7
100
AcDbVertex
100
AcDb2dVertex
 10
-54.09079087820488
 20
16.46618924395369
 30
0.0
  0
VERTEX
  5
231
330
22F
100
AcDbEntity
  8
BEMA_UNG
 62
     7
100
AcDbVertex
100
AcDb2dVertex
 10
-54.09079087820488
 20
19.19436215848355
 30
0.0
  0
SEQEND
  5
232
330
22F
100
AcDbEntity
  8
BEMA_UNG
  0
POLYLINE
  5
233
330
1F
100
AcDbEntity
  8
BEMA_UNG
 62
     7
100
AcDb2dPolyline
 66
     1
 10
0.0
 20
0.0
 30
0.0
  0
VERTEX
  5
234
330
233
100
AcDbEntity
  8
BEMA_UNG
 62
     7
100
AcDbVertex
100
AcDb2dVertex
 10
-54.14160607013481
 20
16.46618924395369
 30
0.0
  0
VERTEX
  5
235
330
233
100
AcDbEntity
  8
BEMA_UNG
 62
     7
100
AcDbVertex
100
AcDb2dVertex
 10
-54.14160607013481
 20
19.58021310737526
 30
0.0
  0
SEQEND
  5
236
330
233
100
AcDbEntity
  8
BEMA_UNG
  0
POLYLINE
  5
237
330
1F
100
AcDbEntity
  8
BEMA_UNG
 62
     7
100
AcDb2dPolyline
 66
     1
 10
0.0
 20
0.0
 30
0.0
  0
VERTEX
  5
238
330
237
100
AcDbEntity
  8
BEMA_UNG
 62
     7
100
AcDbVertex
100
AcDb2dVertex
 10
-54.19242126206475
 20
16.46618924395369
 30
0.0
  0
VERTEX
  5
239
330
237
100
AcDbEntity
  8
BEMA_UNG
 62
     7
100
AcDbVertex
100
AcDb2dVertex
 10
-54.19242126206475
 20
19.96571954649117
 30
0.0
  0
SEQEND
  5
23A
330
237
100
AcDbEntity
  8
BEMA_UNG
  0
POLYLINE
  5
23B
330
1F
100
AcDbEntity
  8
BEMA_UNG
 62
     7
100
AcDb2dPolyline
 66
     1
 10
0.0
 20
0.0
 30
0.0
  0
VERTEX
  5
23C
330
23B
100
AcDbEntity
  8
BEMA_UNG
 62
     7
100
AcDbVertex
100
AcDb2dVertex
 10
-54.19242126206475
 20
-0.0342787226917188
 30
0.0
  0
VERTEX
  5
23D
330
23B
100
AcDbEntity
  8
BEMA_UNG
 62
     7
100
AcDbVertex
100
AcDb2dVertex
 10
-53.73163943693737
 20
3.466457364061051
 30
0.0
  0
VERTEX
  5
23E
330
23B
100
AcDbEntity
  8
BEMA_UNG
 62
     7
100
AcDbVertex
100
AcDb2dVertex
 10
-54.65337534208003
 20
3.466457364061051
 30
0.0
  0
VERTEX
  5
23F
330
23B
100
AcDbEntity
  8
BEMA_UNG
 62
     7
100
AcDbVertex
100
AcDb2dVertex
 10
-54.19242126206475
 20
-0.0342787226917188
 30
0.0
  0
SEQEND
  5
240
330
23B
100
AcDbEntity
  8
BEMA_UNG
  0
POLYLINE
  5
241
330
1F
100
AcDbEntity
  8
BEMA_UNG
 62
     7
100
AcDb2dPolyline
 66
     1
 10
0.0
 20
0.0
 30
0.0
  0
VERTEX
  5
242
330
241
100
AcDbEntity
  8
BEMA_UNG
 62
     7
100
AcDbVertex
100
AcDb2dVertex
 10
-53.73542904447113
 20
3.466457364061051
 30
0.0
  0
VERTEX
  5
243
330
241
100
AcDbEntity
  8
BEMA_UNG
 62
     7
100
AcDbVertex
100
AcDb2dVertex
 10
-53.73542904447113
 20
3.438896581997358
 30
0.0
  0
SEQEND
  5
244
330
241
100
AcDbEntity
  8
BEMA_UNG
  0
POLYLINE
  5
245
330
1F
100
AcDbEntity
  8
BEMA_UNG
 62
     7
100
AcDb2dPolyline
 66
     1
 10
0.0
 20
0.0
 30
0.0
  0
VERTEX
  5
246
330
245
100
AcDbEntity
  8
BEMA_UNG
 62
     7
100
AcDbVertex
100
AcDb2dVertex
 10
-53.73542904447113
 20
3.466457364061051
 30
0.0
  0
VERTEX
  5
247
330
245
100
AcDbEntity
  8
BEMA_UNG
 62
     7
100
AcDbVertex
100
AcDb2dVertex
 10
-53.73542904447113
 20
3.438896581997358
 30
0.0
  0
SEQEND
  5
248
330
245
100
AcDbEntity
  8
BEMA_UNG
  0
POLYLINE
  5
249
330
1F
100
AcDbEntity
  8
BEMA_UNG
 62
     7
100
AcDb2dPolyline
 66
     1
 10
0.0
 20
0.0
 30
0.0
  0
VERTEX
  5
24A
330
249
100
AcDbEntity
  8
BEMA_UNG
 62
     7
100
AcDbVertex
100
AcDb2dVertex
 10
-53.78624423640107
 20
3.466457364061051
 30
0.0
  0
VERTEX
  5
24B
330
249
100
AcDbEntity
  8
BEMA_UNG
 62
     7
100
AcDbVertex
100
AcDb2dVertex
 10
-53.78624423640107
 20
3.053045633105648
 30
0.0
  0
SEQEND
  5
24C
330
249
100
AcDbEntity
  8
BEMA_UNG
  0
POLYLINE
  5
24D
330
1F
100
AcDbEntity
  8
BEMA_UNG
 62
     7
100
AcDb2dPolyline
 66
     1
 10
0.0
 20
0.0
 30
0.0
  0
VERTEX
  5
24E
330
24D
100
AcDbEntity
  8
BEMA_UNG
 62
     7
100
AcDbVertex
100
AcDb2dVertex
 10
-53.8367149185552
 20
3.466457364061051
 30
0.0
  0
VERTEX
  5
24F
330
24D
100
AcDbEntity
  8
BEMA_UNG
 62
     7
100
AcDbVertex
100
AcDb2dVertex
 10
-53.8367149185552
 20
2.667366939101837
 30
0.0
  0
SEQEND
  5
250
330
24D
100
AcDbEntity
  8
BEMA_UNG
  0
POLYLINE
  5
251
330
1F
100
AcDbEntity
  8
BEMA_UNG
 62
     7
100
AcDb2dPolyline
 66
     1
 10
0.0
 20
0.0
 30
0.0
  0
VERTEX
  5
252
330
251
100
AcDbEntity
  8
BEMA_UNG
 62
     7
100
AcDbVertex
100
AcDb2dVertex
 10
-53.88753011048514
 20
3.466457364061051
 30
0.0
  0
VERTEX
  5
253
330
251
100
AcDbEntity
  8
BEMA_UNG
 62
     7
100
AcDbVertex
100
AcDb2dVertex
 10
-53.88753011048514
 20
2.280999225546434
 30
0.0
  0
SEQEND
  5
254
330
251
100
AcDbEntity
  8
BEMA_UNG
  0
POLYLINE
  5
255
330
1F
100
AcDbEntity
  8
BEMA_UNG
 62
     7
100
AcDb2dPolyline
 66
     1
 10
0.0
 20
0.0
 30
0.0
  0
VERTEX
  5
256
330
255
100
AcDbEntity
  8
BEMA_UNG
 62
     7
100
AcDbVertex
100
AcDb2dVertex
 10
-53.93834530241507
 20
3.466457364061051
 30
0.0
  0
VERTEX
  5
257
330
255
100
AcDbEntity
  8
BEMA_UNG
 62
     7
100
AcDbVertex
100
AcDb2dVertex
 10
-53.93834530241507
 20
1.895492786430521
 30
0.0
  0
SEQEND
  5
258
330
255
100
AcDbEntity
  8
BEMA_UNG
  0
POLYLINE
  5
259
330
1F
100
AcDbEntity
  8
BEMA_UNG
 62
     7
100
AcDb2dPolyline
 66
     1
 10
0.0
 20
0.0
 30
0.0
  0
VERTEX
  5
25A
330
259
100
AcDbEntity
  8
BEMA_UNG
 62
     7
100
AcDbVertex
100
AcDb2dVertex
 10
-53.98916049434501
 20
3.466457364061051
 30
0.0
  0
VERTEX
  5
25B
330
259
100
AcDbEntity
  8
BEMA_UNG
 62
     7
100
AcDbVertex
100
AcDb2dVertex
 10
-53.98916049434501
 20
1.509641837538812
 30
0.0
  0
SEQEND
  5
25C
330
259
100
AcDbEntity
  8
BEMA_UNG
  0
POLYLINE
  5
25D
330
1F
100
AcDbEntity
  8
BEMA_UNG
 62
     7
100
AcDb2dPolyline
 66
     1
 10
0.0
 20
0.0
 30
0.0
  0
VERTEX
  5
25E
330
25D
100
AcDbEntity
  8
BEMA_UNG
 62
     7
100
AcDbVertex
100
AcDb2dVertex
 10
-54.03997568627494
 20
3.466457364061051
 30
0.0
  0
VERTEX
  5
25F
330
25D
100
AcDbEntity
  8
BEMA_UNG
 62
     7
100
AcDbVertex
100
AcDb2dVertex
 10
-54.03997568627494
 20
1.123963143535001
 30
0.0
  0
SEQEND
  5
260
330
25D
100
AcDbEntity
  8
BEMA_UNG
  0
POLYLINE
  5
261
330
1F
100
AcDbEntity
  8
BEMA_UNG
 62
     7
100
AcDb2dPolyline
 66
     1
 10
0.0
 20
0.0
 30
0.0
  0
VERTEX
  5
262
330
261
100
AcDbEntity
  8
BEMA_UNG
 62
     7
100
AcDbVertex
100
AcDb2dVertex
 10
-54.09079087820488
 20
3.466457364061051
 30
0.0
  0
VERTEX
  5
263
330
261
100
AcDbEntity
  8
BEMA_UNG
 62
     7
100
AcDbVertex
100
AcDb2dVertex
 10
-54.09079087820488
 20
0.7375954299795975
 30
0.0
  0
SEQEND
  5
264
330
261
100
AcDbEntity
  8
BEMA_UNG
  0
POLYLINE
  5
265
330
1F
100
AcDbEntity
  8
BEMA_UNG
 62
     7
100
AcDb2dPolyline
 66
     1
 10
0.0
 20
0.0
 30
0.0
  0
VERTEX
  5
266
330
265
100
AcDbEntity
  8
BEMA_UNG
 62
     7
100
AcDbVertex
100
AcDb2dVertex
 10
-54.14160607013481
 20
3.466457364061051
 30
0.0
  0
VERTEX
  5
267
330
265
100
AcDbEntity
  8
BEMA_UNG
 62
     7
100
AcDbVertex
100
AcDb2dVertex
 10
-54.14160607013481
 20
0.3520889908636846
 30
0.0
  0
SEQEND
  5
268
330
265
100
AcDbEntity
  8
BEMA_UNG
  0
POLYLINE
  5
269
330
1F
100
AcDbEntity
  8
BEMA_UNG
 62
     7
100
AcDb2dPolyline
 66
     1
 10
0.0
 20
0.0
 30
0.0
  0
VERTEX
  5
26A
330
269
100
AcDbEntity
  8
BEMA_UNG
 62
     7
100
AcDbVertex
100
AcDb2dVertex
 10
-54.19242126206475
 20
3.466457364061051
 30
0.0
  0
VERTEX
  5
26B
330
269
100
AcDbEntity
  8
BEMA_UNG
 62
     7
100
AcDbVertex
100
AcDb2dVertex
 10
-54.19242126206475
 20
-0.0342787226917188
 30
0.0
  0
SEQEND
  5
26C
330
269
100
AcDbEntity
  8
BEMA_UNG
  0
POLYLINE
  5
26D
330
1F
100
AcDbEntity
  8
BEMA_UNG
 62
     7
100
AcDb2dPolyline
 66
     1
 10
0.0
 20
0.0
 30
0.0
  0
VERTEX
  5
26E
330
26D
100
AcDbEntity
  8
BEMA_UNG
 62
     7
100
AcDbVertex
100
AcDb2dVertex
 10
-54.64993024432206
 20
3.466457364061051
 30
0.0
  0
VERTEX
  5
26F
330
26D
100
AcDbEntity
  8
BEMA_UNG
 62
     7
100
AcDbVertex
100
AcDb2dVertex
 10
-54.64993024432206
 20
3.438896581997358
 30
0.0
  0
SEQEND
  5
270
330
26D
100
AcDbEntity
  8
BEMA_UNG
  0
POLYLINE
  5
271
330
1F
100
AcDbEntity
  8
BEMA_UNG
 62
     7
100
AcDb2dPolyline
 66
     1
 10
0.0
 20
0.0
 30
0.0
  0
VERTEX
  5
272
330
271
100
AcDbEntity
  8
BEMA_UNG
 62
     7
100
AcDbVertex
100
AcDb2dVertex
 10
-54.64993024432206
 20
3.466457364061051
 30
0.0
  0
VERTEX
  5
273
330
271
100
AcDbEntity
  8
BEMA_UNG
 62
     7
100
AcDbVertex
100
AcDb2dVertex
 10
-54.64993024432206
 20
3.438896581997358
 30
0.0
  0
SEQEND
  5
274
330
271
100
AcDbEntity
  8
BEMA_UNG
  0
POLYLINE
  5
275
330
1F
100
AcDbEntity
  8
BEMA_UNG
 62
     7
100
AcDb2dPolyline
 66
     1
 10
0.0
 20
0.0
 30
0.0
  0
VERTEX
  5
276
330
275
100
AcDbEntity
  8
BEMA_UNG
 62
     7
100
AcDbVertex
100
AcDb2dVertex
 10
-54.59911505239212
 20
3.466457364061051
 30
0.0
  0
VERTEX
  5
277
330
275
100
AcDbEntity
  8
BEMA_UNG
 62
     7
100
AcDbVertex
100
AcDb2dVertex
 10
-54.59911505239212
 20
3.053045633105648
 30
0.0
  0
SEQEND
  5
278
330
275
100
AcDbEntity
  8
BEMA_UNG
  0
POLYLINE
  5
279
330
1F
100
AcDbEntity
  8
BEMA_UNG
 62
     7
100
AcDb2dPolyline
 66
     1
 10
0.0
 20
0.0
 30
0.0
  0
VERTEX
  5
27A
330
279
100
AcDbEntity
  8
BEMA_UNG
 62
     7
100
AcDbVertex
100
AcDb2dVertex
 10
-54.54829986046219
 20
3.466457364061051
 30
0.0
  0
VERTEX
  5
27B
330
279
100
AcDbEntity
  8
BEMA_UNG
 62
     7
100
AcDbVertex
100
AcDb2dVertex
 10
-54.54829986046219
 20
2.667366939101837
 30
0.0
  0
SEQEND
  5
27C
330
279
100
AcDbEntity
  8
BEMA_UNG
  0
POLYLINE
  5
27D
330
1F
100
AcDbEntity
  8
BEMA_UNG
 62
     7
100
AcDb2dPolyline
 66
     1
 10
0.0
 20
0.0
 30
0.0
  0
VERTEX
  5
27E
330
27D
100
AcDbEntity
  8
BEMA_UNG
 62
     7
100
AcDbVertex
100
AcDb2dVertex
 10
-54.49748466853226
 20
3.466457364061051
 30
0.0
  0
VERTEX
  5
27F
330
27D
100
AcDbEntity
  8
BEMA_UNG
 62
     7
100
AcDbVertex
100
AcDb2dVertex
 10
-54.49748466853226
 20
2.280999225546434
 30
0.0
  0
SEQEND
  5
280
330
27D
100
AcDbEntity
  8
BEMA_UNG
  0
POLYLINE
  5
281
330
1F
100
AcDbEntity
  8
BEMA_UNG
 62
     7
100
AcDb2dPolyline
 66
     1
 10
0.0
 20
0.0
 30
0.0
  0
VERTEX
  5
282
330
281
100
AcDbEntity
  8
BEMA_UNG
 62
     7
100
AcDbVertex
100
AcDb2dVertex
 10
-54.44666947660232
 20
3.466457364061051
 30
0.0
  0
VERTEX
  5
283
330
281
100
AcDbEntity
  8
BEMA_UNG
 62
     7
100
AcDbVertex
100
AcDb2dVertex
 10
-54.44666947660232
 20
1.895492786430521
 30
0.0
  0
SEQEND
  5
284
330
281
100
AcDbEntity
  8
BEMA_UNG
  0
POLYLINE
  5
285
330
1F
100
AcDbEntity
  8
BEMA_UNG
 62
     7
100
AcDb2dPolyline
 66
     1
 10
0.0
 20
0.0
 30
0.0
  0
VERTEX
  5
286
330
285
100
AcDbEntity
  8
BEMA_UNG
 62
     7
100
AcDbVertex
100
AcDb2dVertex
 10
-54.39585428467239
 20
3.466457364061051
 30
0.0
  0
VERTEX
  5
287
330
285
100
AcDbEntity
  8
BEMA_UNG
 62
     7
100
AcDbVertex
100
AcDb2dVertex
 10
-54.39585428467239
 20
1.509641837538812
 30
0.0
  0
SEQEND
  5
288
330
285
100
AcDbEntity
  8
BEMA_UNG
  0
POLYLINE
  5
289
330
1F
100
AcDbEntity
  8
BEMA_UNG
 62
     7
100
AcDb2dPolyline
 66
     1
 10
0.0
 20
0.0
 30
0.0
  0
VERTEX
  5
28A
330
289
100
AcDbEntity
  8
BEMA_UNG
 62
     7
100
AcDbVertex
100
AcDb2dVertex
 10
-54.34503909274245
 20
3.466457364061051
 30
0.0
  0
VERTEX
  5
28B
330
289
100
AcDbEntity
  8
BEMA_UNG
 62
     7
100
AcDbVertex
100
AcDb2dVertex
 10
-54.34503909274245
 20
1.123963143535001
 30
0.0
  0
SEQEND
  5
28C
330
289
100
AcDbEntity
  8
BEMA_UNG
  0
POLYLINE
  5
28D
330
1F
100
AcDbEntity
  8
BEMA_UNG
 62
     7
100
AcDb2dPolyline
 66
     1
 10
0.0
 20
0.0
 30
0.0
  0
VERTEX
  5
28E
330
28D
100
AcDbEntity
  8
BEMA_UNG
 62
     7
100
AcDbVertex
100
AcDb2dVertex
 10
-54.29387939103672
 20
3.466457364061051
 30
0.0
  0
VERTEX
  5
28F
330
28D
100
AcDbEntity
  8
BEMA_UNG
 62
     7
100
AcDbVertex
100
AcDb2dVertex
 10
-54.29387939103672
 20
0.7375954299795975
 30
0.0
  0
SEQEND
  5
290
330
28D
100
AcDbEntity
  8
BEMA_UNG
  0
POLYLINE
  5
291
330
1F
100
AcDbEntity
  8
BEMA_UNG
 62
     7
100
AcDb2dPolyline
 66
     1
 10
0.0
 20
0.0
 30
0.0
  0
VERTEX
  5
292
330
291
100
AcDbEntity
  8
BEMA_UNG
 62
     7
100
AcDbVertex
100
AcDb2dVertex
 10
-54.24306419910678
 20
3.466457364061051
 30
0.0
  0
VERTEX
  5
293
330
291
100
AcDbEntity
  8
BEMA_UNG
 62
     7
100
AcDbVertex
100
AcDb2dVertex
 10
-54.24306419910678
 20
0.3520889908636846
 30
0.0
  0
SEQEND
  5
294
330
291
100
AcDbEntity
  8
BEMA_UNG
  0
POLYLINE
  5
295
330
1F
100
AcDbEntity
  8
BEMA_UNG
 62
     7
100
AcDb2dPolyline
 66
     1
 10
0.0
 20
0.0
 30
0.0
  0
VERTEX
  5
296
330
295
100
AcDbEntity
  8
BEMA_UNG
 62
     7
100
AcDbVertex
100
AcDb2dVertex
 10
-54.19242126206475
 20
3.466457364061051
 30
0.0
  0
VERTEX
  5
297
330
295
100
AcDbEntity
  8
BEMA_UNG
 62
     7
100
AcDbVertex
100
AcDb2dVertex
 10
-54.19242126206475
 20
-0.0342787226917188
 30
0.0
  0
SEQEND
  5
298
330
295
100
AcDbEntity
  8
BEMA_UNG
  0
SPLINE
  5
299
330
1F
100
AcDbEntity
  8
BEMA_UNG
 62
     7
100
AcDbSpline
210
0.0
220
0.0
230
1.0
 70
     8
 71
     3
 72
    11
 73
     7
 74
     0
 42
0.0000000001
 43
0.0000000001
 40
0.0
 40
0.0
 40
0.0
 40
0.0
 40
1.0
 40
1.0
 40
1.0
 40
2.0
 40
2.0
 40
2.0
 40
2.0
 10
-19.46290752871666
 20
47.09414184156049
 30
0.0
 10
-20.83664025970388
 20
51.20689954501515
 30
0.0
 10
-24.65294730108594
 20
53.81561369478769
 30
0.0
 10
-28.83202313638137
 20
53.84308834940743
 30
0.0
 10
-31.96258346904116
 20
53.84308834940743
 30
0.0
 10
-34.75259588832643
 20
52.38719003689283
 30
0.0
 10
-36.57763642560663
 20
50.09482198874512
 30
0.0
  0
POLYLINE
  5
29A
330
1F
100
AcDbEntity
  8
BEMA_UNG
 62
     7
100
AcDb2dPolyline
 66
     1
 10
0.0
 20
0.0
 30
0.0
  0
VERTEX
  5
29B
330
29A
100
AcDbEntity
  8
BEMA_UNG
 62
     7
100
AcDbVertex
100
AcDb2dVertex
 10
-23.89347550034329
 20
52.51982630057435
 30
0.0
  0
VERTEX
  5
29C
330
29A
100
AcDbEntity
  8
BEMA_UNG
 62
     7
100
AcDbVertex
100
AcDb2dVertex
 10
-21.29173767353062
 20
50.13375159341008
 30
0.0
  0
VERTEX
  5
29D
330
29A
100
AcDbEntity
  8
BEMA_UNG
 62
     7
100
AcDbVertex
100
AcDb2dVertex
 10
-20.76257065790771
 20
50.88857251217949
 30
0.0
  0
VERTEX
  5
29E
330
29A
100
AcDbEntity
  8
BEMA_UNG
 62
     7
100
AcDbVertex
100
AcDb2dVertex
 10
-23.89347550034329
 20
52.51982630057435
 30
0.0
  0
SEQEND
  5
29F
330
29A
100
AcDbEntity
  8
BEMA_UNG
  0
POLYLINE
  5
2A0
330
1F
100
AcDbEntity
  8
BEMA_UNG
 62
     7
100
AcDb2dPolyline
 66
     1
 10
0.0
 20
0.0
 30
0.0
  0
VERTEX
  5
2A1
330
2A0
100
AcDbEntity
  8
BEMA_UNG
 62
     7
100
AcDbVertex
100
AcDb2dVertex
 10
-21.28967061487585
 20
50.13685218139225
 30
0.0
  0
VERTEX
  5
2A2
330
2A0
100
AcDbEntity
  8
BEMA_UNG
 62
     7
100
AcDbVertex
100
AcDb2dVertex
 10
-21.3118914954147
 20
50.15235512130307
 30
0.0
  0
SEQEND
  5
2A3
330
2A0
100
AcDbEntity
  8
BEMA_UNG
  0
POLYLINE
  5
2A4
330
1F
100
AcDbEntity
  8
BEMA_UNG
 62
     7
100
AcDb2dPolyline
 66
     1
 10
0.0
 20
0.0
 30
0.0
  0
VERTEX
  5
2A5
330
2A4
100
AcDbEntity
  8
BEMA_UNG
 62
     7
100
AcDbVertex
100
AcDb2dVertex
 10
-21.28967061487585
 20
50.13685218139225
 30
0.0
  0
VERTEX
  5
2A6
330
2A4
100
AcDbEntity
  8
BEMA_UNG
 62
     7
100
AcDbVertex
100
AcDb2dVertex
 10
-21.3118914954147
 20
50.15235512130307
 30
0.0
  0
SEQEND
  5
2A7
330
2A4
100
AcDbEntity
  8
BEMA_UNG
  0
POLYLINE
  5
2A8
330
1F
100
AcDbEntity
  8
BEMA_UNG
 62
     7
100
AcDb2dPolyline
 66
     1
 10
0.0
 20
0.0
 30
0.0
  0
VERTEX
  5
2A9
330
2A8
100
AcDbEntity
  8
BEMA_UNG
 62
     7
100
AcDbVertex
100
AcDb2dVertex
 10
-21.26073179370897
 20
50.17888237403938
 30
0.0
  0
VERTEX
  5
2AA
330
2A8
100
AcDbEntity
  8
BEMA_UNG
 62
     7
100
AcDbVertex
100
AcDb2dVertex
 10
-21.59869588376501
 20
50.41556059001135
 30
0.0
  0
SEQEND
  5
2AB
330
2A8
100
AcDbEntity
  8
BEMA_UNG
  0
POLYLINE
  5
2AC
330
1F
100
AcDbEntity
  8
BEMA_UNG
 62
     7
100
AcDb2dPolyline
 66
     1
 10
0.0
 20
0.0
 30
0.0
  0
VERTEX
  5
2AD
330
2AC
100
AcDbEntity
  8
BEMA_UNG
 62
     7
100
AcDbVertex
100
AcDb2dVertex
 10
-21.23144846276629
 20
50.22005129224702
 30
0.0
  0
VERTEX
  5
2AE
330
2AC
100
AcDbEntity
  8
BEMA_UNG
 62
     7
100
AcDbVertex
100
AcDb2dVertex
 10
-21.88550027211532
 20
50.67842154894382
 30
0.0
  0
SEQEND
  5
2AF
330
2AC
100
AcDbEntity
  8
BEMA_UNG
  0
POLYLINE
  5
2B0
330
1F
100
AcDbEntity
  8
BEMA_UNG
 62
     7
100
AcDb2dPolyline
 66
     1
 10
0.0
 20
0.0
 30
0.0
  0
VERTEX
  5
2B1
330
2B0
100
AcDbEntity
  8
BEMA_UNG
 62
     7
100
AcDbVertex
100
AcDb2dVertex
 10
-21.20250964159942
 20
50.26208148489415
 30
0.0
  0
VERTEX
  5
2B2
330
2B0
100
AcDbEntity
  8
BEMA_UNG
 62
     7
100
AcDbVertex
100
AcDb2dVertex
 10
-22.17264917024143
 20
50.9419715274279
 30
0.0
  0
SEQEND
  5
2B3
330
2B0
100
AcDbEntity
  8
BEMA_UNG
  0
POLYLINE
  5
2B4
330
1F
100
AcDbEntity
  8
BEMA_UNG
 62
     7
100
AcDb2dPolyline
 66
     1
 10
0.0
 20
0.0
 30
0.0
  0
VERTEX
  5
2B5
330
2B4
100
AcDbEntity
  8
BEMA_UNG
 62
     7
100
AcDbVertex
100
AcDb2dVertex
 10
-21.17288180088094
 20
50.302905893326
 30
0.0
  0
VERTEX
  5
2B6
330
2B4
100
AcDbEntity
  8
BEMA_UNG
 62
     7
100
AcDbVertex
100
AcDb2dVertex
 10
-22.45945355859174
 20
51.20500474124827
 30
0.0
  0
SEQEND
  5
2B7
330
2B4
100
AcDbEntity
  8
BEMA_UNG
  0
POLYLINE
  5
2B8
330
1F
100
AcDbEntity
  8
BEMA_UNG
 62
     7
100
AcDb2dPolyline
 66
     1
 10
0.0
 20
0.0
 30
0.0
  0
VERTEX
  5
2B9
330
2B8
100
AcDbEntity
  8
BEMA_UNG
 62
     7
100
AcDbVertex
100
AcDb2dVertex
 10
-21.14359846993827
 20
50.34493608597313
 30
0.0
  0
VERTEX
  5
2BA
330
2B8
100
AcDbEntity
  8
BEMA_UNG
 62
     7
100
AcDbVertex
100
AcDb2dVertex
 10
-22.74625794694205
 20
51.46786570018075
 30
0.0
  0
SEQEND
  5
2BB
330
2B8
100
AcDbEntity
  8
BEMA_UNG
  0
POLYLINE
  5
2BC
330
1F
100
AcDbEntity
  8
BEMA_UNG
 62
     7
100
AcDb2dPolyline
 66
     1
 10
0.0
 20
0.0
 30
0.0
  0
VERTEX
  5
2BD
330
2BC
100
AcDbEntity
  8
BEMA_UNG
 62
     7
100
AcDbVertex
100
AcDb2dVertex
 10
-21.11500415854719
 20
50.38627725906868
 30
0.0
  0
VERTEX
  5
2BE
330
2BC
100
AcDbEntity
  8
BEMA_UNG
 62
     7
100
AcDbVertex
100
AcDb2dVertex
 10
-23.03306233529236
 20
51.73107116888902
 30
0.0
  0
SEQEND
  5
2BF
330
2BC
100
AcDbEntity
  8
BEMA_UNG
  0
POLYLINE
  5
2C0
330
1F
100
AcDbEntity
  8
BEMA_UNG
 62
     7
100
AcDb2dPolyline
 66
     1
 10
0.0
 20
0.0
 30
0.0
  0
VERTEX
  5
2C1
330
2C0
100
AcDbEntity
  8
BEMA_UNG
 62
     7
100
AcDbVertex
100
AcDb2dVertex
 10
-21.08572082760451
 20
50.42830745171581
 30
0.0
  0
VERTEX
  5
2C2
330
2C0
100
AcDbEntity
  8
BEMA_UNG
 62
     7
100
AcDbVertex
100
AcDb2dVertex
 10
-23.31986672364267
 20
51.9937598729336
 30
0.0
  0
SEQEND
  5
2C3
330
2C0
100
AcDbEntity
  8
BEMA_UNG
  0
POLYLINE
  5
2C4
330
1F
100
AcDbEntity
  8
BEMA_UNG
 62
     7
100
AcDb2dPolyline
 66
     1
 10
0.0
 20
0.0
 30
0.0
  0
VERTEX
  5
2C5
330
2C4
100
AcDbEntity
  8
BEMA_UNG
 62
     7
100
AcDbVertex
100
AcDb2dVertex
 10
-21.05609298688604
 20
50.46947636992345
 30
0.0
  0
VERTEX
  5
2C6
330
2C4
100
AcDbEntity
  8
BEMA_UNG
 62
     7
100
AcDbVertex
100
AcDb2dVertex
 10
-23.60632660221718
 20
52.25662083186607
 30
0.0
  0
SEQEND
  5
2C7
330
2C4
100
AcDbEntity
  8
BEMA_UNG
  0
POLYLINE
  5
2C8
330
1F
100
AcDbEntity
  8
BEMA_UNG
 62
     7
100
AcDb2dPolyline
 66
     1
 10
0.0
 20
0.0
 30
0.0
  0
VERTEX
  5
2C9
330
2C8
100
AcDbEntity
  8
BEMA_UNG
 62
     7
100
AcDbVertex
100
AcDb2dVertex
 10
-21.02715416571916
 20
50.51150656257058
 30
0.0
  0
VERTEX
  5
2CA
330
2C8
100
AcDbEntity
  8
BEMA_UNG
 62
     7
100
AcDbVertex
100
AcDb2dVertex
 10
-23.89347550034329
 20
52.51982630057435
 30
0.0
  0
SEQEND
  5
2CB
330
2C8
100
AcDbEntity
  8
BEMA_UNG
  0
POLYLINE
  5
2CC
330
1F
100
AcDbEntity
  8
BEMA_UNG
 62
     7
100
AcDb2dPolyline
 66
     1
 10
0.0
 20
0.0
 30
0.0
  0
VERTEX
  5
2CD
330
2CC
100
AcDbEntity
  8
BEMA_UNG
 62
     7
100
AcDbVertex
100
AcDb2dVertex
 10
-20.76498222633828
 20
50.88581643397312
 30
0.0
  0
VERTEX
  5
2CE
330
2CC
100
AcDbEntity
  8
BEMA_UNG
 62
     7
100
AcDbVertex
100
AcDb2dVertex
 10
-20.78720310687713
 20
50.90166388365974
 30
0.0
  0
SEQEND
  5
2CF
330
2CC
100
AcDbEntity
  8
BEMA_UNG
  0
POLYLINE
  5
2D0
330
1F
100
AcDbEntity
  8
BEMA_UNG
 62
     7
100
AcDb2dPolyline
 66
     1
 10
0.0
 20
0.0
 30
0.0
  0
VERTEX
  5
2D1
330
2D0
100
AcDbEntity
  8
BEMA_UNG
 62
     7
100
AcDbVertex
100
AcDb2dVertex
 10
-20.76498222633828
 20
50.88581643397312
 30
0.0
  0
VERTEX
  5
2D2
330
2D0
100
AcDbEntity
  8
BEMA_UNG
 62
     7
100
AcDbVertex
100
AcDb2dVertex
 10
-20.78720310687713
 20
50.90166388365974
 30
0.0
  0
SEQEND
  5
2D3
330
2D0
100
AcDbEntity
  8
BEMA_UNG
  0
POLYLINE
  5
2D4
330
1F
100
AcDbEntity
  8
BEMA_UNG
 62
     7
100
AcDb2dPolyline
 66
     1
 10
0.0
 20
0.0
 30
0.0
  0
VERTEX
  5
2D5
330
2D4
100
AcDbEntity
  8
BEMA_UNG
 62
     7
100
AcDbVertex
100
AcDb2dVertex
 10
-20.79426555728095
 20
50.84413075110178
 30
0.0
  0
VERTEX
  5
2D6
330
2D4
100
AcDbEntity
  8
BEMA_UNG
 62
     7
100
AcDbVertex
100
AcDb2dVertex
 10
-21.132229647337
 20
51.08115347684955
 30
0.0
  0
SEQEND
  5
2D7
330
2D4
100
AcDbEntity
  8
BEMA_UNG
  0
POLYLINE
  5
2D8
330
1F
100
AcDbEntity
  8
BEMA_UNG
 62
     7
100
AcDb2dPolyline
 66
     1
 10
0.0
 20
0.0
 30
0.0
  0
VERTEX
  5
2D9
330
2D8
100
AcDbEntity
  8
BEMA_UNG
 62
     7
100
AcDbVertex
100
AcDb2dVertex
 10
-20.82320437844783
 20
50.80278957800624
 30
0.0
  0
VERTEX
  5
2DA
330
2D8
100
AcDbEntity
  8
BEMA_UNG
 62
     7
100
AcDbVertex
100
AcDb2dVertex
 10
-21.47760069757266
 20
51.26115983470304
 30
0.0
  0
SEQEND
  5
2DB
330
2D8
100
AcDbEntity
  8
BEMA_UNG
  0
POLYLINE
  5
2DC
330
1F
100
AcDbEntity
  8
BEMA_UNG
 62
     7
100
AcDb2dPolyline
 66
     1
 10
0.0
 20
0.0
 30
0.0
  0
VERTEX
  5
2DD
330
2DC
100
AcDbEntity
  8
BEMA_UNG
 62
     7
100
AcDbVertex
100
AcDb2dVertex
 10
-20.85214319961471
 20
50.76093164024701
 30
0.0
  0
VERTEX
  5
2DE
330
2DC
100
AcDbEntity
  8
BEMA_UNG
 62
     7
100
AcDbVertex
100
AcDb2dVertex
 10
-21.82228272825672
 20
51.44099393766864
 30
0.0
  0
SEQEND
  5
2DF
330
2DC
100
AcDbEntity
  8
BEMA_UNG
  0
POLYLINE
  5
2E0
330
1F
100
AcDbEntity
  8
BEMA_UNG
 62
     7
100
AcDb2dPolyline
 66
     1
 10
0.0
 20
0.0
 30
0.0
  0
VERTEX
  5
2E1
330
2E0
100
AcDbEntity
  8
BEMA_UNG
 62
     7
100
AcDbVertex
100
AcDb2dVertex
 10
-20.88142653055739
 20
50.71959046715147
 30
0.0
  0
VERTEX
  5
2E2
330
2E0
100
AcDbEntity
  8
BEMA_UNG
 62
     7
100
AcDbVertex
100
AcDb2dVertex
 10
-22.16799828826818
 20
51.62065578574635
 30
0.0
  0
SEQEND
  5
2E3
330
2E0
100
AcDbEntity
  8
BEMA_UNG
  0
POLYLINE
  5
2E4
330
1F
100
AcDbEntity
  8
BEMA_UNG
 62
     7
100
AcDb2dPolyline
 66
     1
 10
0.0
 20
0.0
 30
0.0
  0
VERTEX
  5
2E5
330
2E4
100
AcDbEntity
  8
BEMA_UNG
 62
     7
100
AcDbVertex
100
AcDb2dVertex
 10
-20.91070986150006
 20
50.67773252939223
 30
0.0
  0
VERTEX
  5
2E6
330
2E4
100
AcDbEntity
  8
BEMA_UNG
 62
     7
100
AcDbVertex
100
AcDb2dVertex
 10
-22.51268031895225
 20
51.80048988871195
 30
0.0
  0
SEQEND
  5
2E7
330
2E4
100
AcDbEntity
  8
BEMA_UNG
  0
POLYLINE
  5
2E8
330
1F
100
AcDbEntity
  8
BEMA_UNG
 62
     7
100
AcDb2dPolyline
 66
     1
 10
0.0
 20
0.0
 30
0.0
  0
VERTEX
  5
2E9
330
2E8
100
AcDbEntity
  8
BEMA_UNG
 62
     7
100
AcDbVertex
100
AcDb2dVertex
 10
-20.93999319244273
 20
50.6360468465209
 30
0.0
  0
VERTEX
  5
2EA
330
2E8
100
AcDbEntity
  8
BEMA_UNG
 62
     7
100
AcDbVertex
100
AcDb2dVertex
 10
-22.8580513691879
 20
51.98032399167755
 30
0.0
  0
SEQEND
  5
2EB
330
2E8
100
AcDbEntity
  8
BEMA_UNG
  0
POLYLINE
  5
2EC
330
1F
100
AcDbEntity
  8
BEMA_UNG
 62
     7
100
AcDb2dPolyline
 66
     1
 10
0.0
 20
0.0
 30
0.0
  0
VERTEX
  5
2ED
330
2EC
100
AcDbEntity
  8
BEMA_UNG
 62
     7
100
AcDbVertex
100
AcDb2dVertex
 10
-20.96893201360961
 20
50.59470567342536
 30
0.0
  0
VERTEX
  5
2EE
330
2EC
100
AcDbEntity
  8
BEMA_UNG
 62
     7
100
AcDbVertex
100
AcDb2dVertex
 10
-23.20307790964777
 20
52.15998583975525
 30
0.0
  0
SEQEND
  5
2EF
330
2EC
100
AcDbEntity
  8
BEMA_UNG
  0
POLYLINE
  5
2F0
330
1F
100
AcDbEntity
  8
BEMA_UNG
 62
     7
100
AcDb2dPolyline
 66
     1
 10
0.0
 20
0.0
 30
0.0
  0
VERTEX
  5
2F1
330
2F0
100
AcDbEntity
  8
BEMA_UNG
 62
     7
100
AcDbVertex
100
AcDb2dVertex
 10
-20.99787083477649
 20
50.55267548077823
 30
0.0
  0
VERTEX
  5
2F2
330
2F0
100
AcDbEntity
  8
BEMA_UNG
 62
     7
100
AcDbVertex
100
AcDb2dVertex
 10
-23.54844895988343
 20
52.33999219760875
 30
0.0
  0
SEQEND
  5
2F3
330
2F0
100
AcDbEntity
  8
BEMA_UNG
  0
POLYLINE
  5
2F4
330
1F
100
AcDbEntity
  8
BEMA_UNG
 62
     7
100
AcDb2dPolyline
 66
     1
 10
0.0
 20
0.0
 30
0.0
  0
VERTEX
  5
2F5
330
2F4
100
AcDbEntity
  8
BEMA_UNG
 62
     7
100
AcDbVertex
100
AcDb2dVertex
 10
-21.02715416571916
 20
50.51150656257058
 30
0.0
  0
VERTEX
  5
2F6
330
2F4
100
AcDbEntity
  8
BEMA_UNG
 62
     7
100
AcDbVertex
100
AcDb2dVertex
 10
-23.89347550034329
 20
52.51982630057435
 30
0.0
  0
SEQEND
  5
2F7
330
2F4
100
AcDbEntity
  8
BEMA_UNG
  0
POLYLINE
  5
2F8
330
1F
100
AcDbEntity
  8
BEMA_UNG
 62
     7
100
AcDb2dPolyline
 66
     1
 10
0.0
 20
0.0
 30
0.0
  0
VERTEX
  5
2F9
330
2F8
100
AcDbEntity
  8
BEMA_UNG
 62
     7
100
AcDbVertex
100
AcDb2dVertex
 10
-28.83202313638137
 20
53.84308834940743
 30
0.0
  0
VERTEX
  5
2FA
330
2F8
100
AcDbEntity
  8
BEMA_UNG
 62
     7
100
AcDbVertex
100
AcDb2dVertex
 10
-32.35911422098255
 20
53.99553392519724
 30
0.0
  0
VERTEX
  5
2FB
330
2F8
100
AcDbEntity
  8
BEMA_UNG
 62
     7
100
AcDbVertex
100
AcDb2dVertex
 10
-32.27832667855834
 20
53.07758762758834
 30
0.0
  0
VERTEX
  5
2FC
330
2F8
100
AcDbEntity
  8
BEMA_UNG
 62
     7
100
AcDbVertex
100
AcDb2dVertex
 10
-28.83202313638137
 20
53.84308834940743
 30
0.0
  0
SEQEND
  5
2FD
330
2F8
100
AcDbEntity
  8
BEMA_UNG
  0
POLYLINE
  5
2FE
330
1F
100
AcDbEntity
  8
BEMA_UNG
 62
     7
100
AcDb2dPolyline
 66
     1
 10
0.0
 20
0.0
 30
0.0
  0
VERTEX
  5
2FF
330
2FE
100
AcDbEntity
  8
BEMA_UNG
 62
     7
100
AcDbVertex
100
AcDb2dVertex
 10
-32.35842520143095
 20
53.99200269999533
 30
0.0
  0
VERTEX
  5
300
330
2FE
100
AcDbEntity
  8
BEMA_UNG
 62
     7
100
AcDbVertex
100
AcDb2dVertex
 10
-32.33120892914306
 20
53.99484490564564
 30
0.0
  0
SEQEND
  5
301
330
2FE
100
AcDbEntity
  8
BEMA_UNG
  0
POLYLINE
  5
302
330
1F
100
AcDbEntity
  8
BEMA_UNG
 62
     7
100
AcDb2dPolyline
 66
     1
 10
0.0
 20
0.0
 30
0.0
  0
VERTEX
  5
303
330
302
100
AcDbEntity
  8
BEMA_UNG
 62
     7
100
AcDbVertex
100
AcDb2dVertex
 10
-32.35842520143095
 20
53.99200269999533
 30
0.0
  0
VERTEX
  5
304
330
302
100
AcDbEntity
  8
BEMA_UNG
 62
     7
100
AcDbVertex
100
AcDb2dVertex
 10
-32.33120892914306
 20
53.99484490564564
 30
0.0
  0
SEQEND
  5
305
330
302
100
AcDbEntity
  8
BEMA_UNG
  0
POLYLINE
  5
306
330
1F
100
AcDbEntity
  8
BEMA_UNG
 62
     7
100
AcDb2dPolyline
 66
     1
 10
0.0
 20
0.0
 30
0.0
  0
VERTEX
  5
307
330
306
100
AcDbEntity
  8
BEMA_UNG
 62
     7
100
AcDbVertex
100
AcDb2dVertex
 10
-32.3544633390093
 20
53.94153201784119
 30
0.0
  0
VERTEX
  5
308
330
306
100
AcDbEntity
  8
BEMA_UNG
 62
     7
100
AcDbVertex
100
AcDb2dVertex
 10
-31.94242964715708
 20
53.97787779918768
 30
0.0
  0
SEQEND
  5
309
330
306
100
AcDbEntity
  8
BEMA_UNG
  0
POLYLINE
  5
30A
330
1F
100
AcDbEntity
  8
BEMA_UNG
 62
     7
100
AcDb2dPolyline
 66
     1
 10
0.0
 20
0.0
 30
0.0
  0
VERTEX
  5
30B
330
30A
100
AcDbEntity
  8
BEMA_UNG
 62
     7
100
AcDbVertex
100
AcDb2dVertex
 10
-32.34964020214815
 20
53.89071682591126
 30
0.0
  0
VERTEX
  5
30C
330
30A
100
AcDbEntity
  8
BEMA_UNG
 62
     7
100
AcDbVertex
100
AcDb2dVertex
 10
-31.5539948749469
 20
53.96125520250552
 30
0.0
  0
SEQEND
  5
30D
330
30A
100
AcDbEntity
  8
BEMA_UNG
  0
POLYLINE
  5
30E
330
1F
100
AcDbEntity
  8
BEMA_UNG
 62
     7
100
AcDb2dPolyline
 66
     1
 10
0.0
 20
0.0
 30
0.0
  0
VERTEX
  5
30F
330
30E
100
AcDbEntity
  8
BEMA_UNG
 62
     7
100
AcDbVertex
100
AcDb2dVertex
 10
-32.3456783397265
 20
53.84067678097686
 30
0.0
  0
VERTEX
  5
310
330
30E
100
AcDbEntity
  8
BEMA_UNG
 62
     7
100
AcDbVertex
100
AcDb2dVertex
 10
-31.16521559296092
 20
53.94437422349151
 30
0.0
  0
SEQEND
  5
311
330
30E
100
AcDbEntity
  8
BEMA_UNG
  0
POLYLINE
  5
312
330
1F
100
AcDbEntity
  8
BEMA_UNG
 62
     7
100
AcDb2dPolyline
 66
     1
 10
0.0
 20
0.0
 30
0.0
  0
VERTEX
  5
313
330
312
100
AcDbEntity
  8
BEMA_UNG
 62
     7
100
AcDbVertex
100
AcDb2dVertex
 10
-32.34102745775325
 20
53.78986158904692
 30
0.0
  0
VERTEX
  5
314
330
312
100
AcDbEntity
  8
BEMA_UNG
 62
     7
100
AcDbVertex
100
AcDb2dVertex
 10
-30.77609180119915
 20
53.92740711703355
 30
0.0
  0
SEQEND
  5
315
330
312
100
AcDbEntity
  8
BEMA_UNG
  0
POLYLINE
  5
316
330
1F
100
AcDbEntity
  8
BEMA_UNG
 62
     7
100
AcDb2dPolyline
 66
     1
 10
0.0
 20
0.0
 30
0.0
  0
VERTEX
  5
317
330
316
100
AcDbEntity
  8
BEMA_UNG
 62
     7
100
AcDbVertex
100
AcDb2dVertex
 10
-32.3362043208921
 20
53.73904639711699
 30
0.0
  0
VERTEX
  5
318
330
316
100
AcDbEntity
  8
BEMA_UNG
 62
     7
100
AcDbVertex
100
AcDb2dVertex
 10
-30.38696800943738
 20
53.91044001057558
 30
0.0
  0
SEQEND
  5
319
330
316
100
AcDbEntity
  8
BEMA_UNG
  0
POLYLINE
  5
31A
330
1F
100
AcDbEntity
  8
BEMA_UNG
 62
     7
100
AcDb2dPolyline
 66
     1
 10
0.0
 20
0.0
 30
0.0
  0
VERTEX
  5
31B
330
31A
100
AcDbEntity
  8
BEMA_UNG
 62
     7
100
AcDbVertex
100
AcDb2dVertex
 10
-32.33224245847045
 20
53.68857571496285
 30
0.0
  0
VERTEX
  5
31C
330
31A
100
AcDbEntity
  8
BEMA_UNG
 62
     7
100
AcDbVertex
100
AcDb2dVertex
 10
-29.9987054921151
 20
53.89355903156157
 30
0.0
  0
SEQEND
  5
31D
330
31A
100
AcDbEntity
  8
BEMA_UNG
  0
POLYLINE
  5
31E
330
1F
100
AcDbEntity
  8
BEMA_UNG
 62
     7
100
AcDb2dPolyline
 66
     1
 10
0.0
 20
0.0
 30
0.0
  0
VERTEX
  5
31F
330
31E
100
AcDbEntity
  8
BEMA_UNG
 62
     7
100
AcDbVertex
100
AcDb2dVertex
 10
-32.32724706672141
 20
53.63776052303292
 30
0.0
  0
VERTEX
  5
320
330
31E
100
AcDbEntity
  8
BEMA_UNG
 62
     7
100
AcDbVertex
100
AcDb2dVertex
 10
-29.60992621012912
 20
53.87659192510361
 30
0.0
  0
SEQEND
  5
321
330
31E
100
AcDbEntity
  8
BEMA_UNG
  0
POLYLINE
  5
322
330
1F
100
AcDbEntity
  8
BEMA_UNG
 62
     7
100
AcDb2dPolyline
 66
     1
 10
0.0
 20
0.0
 30
0.0
  0
VERTEX
  5
323
330
322
100
AcDbEntity
  8
BEMA_UNG
 62
     7
100
AcDbVertex
100
AcDb2dVertex
 10
-32.32276843963605
 20
53.58772047809853
 30
0.0
  0
VERTEX
  5
324
330
322
100
AcDbEntity
  8
BEMA_UNG
 62
     7
100
AcDbVertex
100
AcDb2dVertex
 10
-29.22080241836735
 20
53.86005545586539
 30
0.0
  0
SEQEND
  5
325
330
322
100
AcDbEntity
  8
BEMA_UNG
  0
POLYLINE
  5
326
330
1F
100
AcDbEntity
  8
BEMA_UNG
 62
     7
100
AcDb2dPolyline
 66
     1
 10
0.0
 20
0.0
 30
0.0
  0
VERTEX
  5
327
330
326
100
AcDbEntity
  8
BEMA_UNG
 62
     7
100
AcDbVertex
100
AcDb2dVertex
 10
-32.3188065772144
 20
53.53690528616859
 30
0.0
  0
VERTEX
  5
328
330
326
100
AcDbEntity
  8
BEMA_UNG
 62
     7
100
AcDbVertex
100
AcDb2dVertex
 10
-28.83202313638137
 20
53.84308834940743
 30
0.0
  0
SEQEND
  5
329
330
326
100
AcDbEntity
  8
BEMA_UNG
  0
POLYLINE
  5
32A
330
1F
100
AcDbEntity
  8
BEMA_UNG
 62
     7
100
AcDb2dPolyline
 66
     1
 10
0.0
 20
0.0
 30
0.0
  0
VERTEX
  5
32B
330
32A
100
AcDbEntity
  8
BEMA_UNG
 62
     7
100
AcDbVertex
100
AcDb2dVertex
 10
-32.27832667855834
 20
53.0810327253463
 30
0.0
  0
VERTEX
  5
32C
330
32A
100
AcDbEntity
  8
BEMA_UNG
 62
     7
100
AcDbVertex
100
AcDb2dVertex
 10
-32.25145491604624
 20
53.08396105844057
 30
0.0
  0
SEQEND
  5
32D
330
32A
100
AcDbEntity
  8
BEMA_UNG
  0
POLYLINE
  5
32E
330
1F
100
AcDbEntity
  8
BEMA_UNG
 62
     7
100
AcDb2dPolyline
 66
     1
 10
0.0
 20
0.0
 30
0.0
  0
VERTEX
  5
32F
330
32E
100
AcDbEntity
  8
BEMA_UNG
 62
     7
100
AcDbVertex
100
AcDb2dVertex
 10
-32.27832667855834
 20
53.0810327253463
 30
0.0
  0
VERTEX
  5
330
330
32E
100
AcDbEntity
  8
BEMA_UNG
 62
     7
100
AcDbVertex
100
AcDb2dVertex
 10
-32.25145491604624
 20
53.08396105844057
 30
0.0
  0
SEQEND
  5
331
330
32E
100
AcDbEntity
  8
BEMA_UNG
  0
POLYLINE
  5
332
330
1F
100
AcDbEntity
  8
BEMA_UNG
 62
     7
100
AcDb2dPolyline
 66
     1
 10
0.0
 20
0.0
 30
0.0
  0
VERTEX
  5
333
330
332
100
AcDbEntity
  8
BEMA_UNG
 62
     7
100
AcDbVertex
100
AcDb2dVertex
 10
-32.28314981541949
 20
53.13184791727624
 30
0.0
  0
VERTEX
  5
334
330
332
100
AcDbEntity
  8
BEMA_UNG
 62
     7
100
AcDbVertex
100
AcDb2dVertex
 10
-31.87111612356727
 20
53.16784918884694
 30
0.0
  0
SEQEND
  5
335
330
332
100
AcDbEntity
  8
BEMA_UNG
  0
POLYLINE
  5
336
330
1F
100
AcDbEntity
  8
BEMA_UNG
 62
     7
100
AcDb2dPolyline
 66
     1
 10
0.0
 20
0.0
 30
0.0
  0
VERTEX
  5
337
330
336
100
AcDbEntity
  8
BEMA_UNG
 62
     7
100
AcDbVertex
100
AcDb2dVertex
 10
-32.28780069739274
 20
53.18266310920617
 30
0.0
  0
VERTEX
  5
338
330
336
100
AcDbEntity
  8
BEMA_UNG
 62
     7
100
AcDbVertex
100
AcDb2dVertex
 10
-31.49163860552779
 20
53.2525985936928
 30
0.0
  0
SEQEND
  5
339
330
336
100
AcDbEntity
  8
BEMA_UNG
  0
POLYLINE
  5
33A
330
1F
100
AcDbEntity
  8
BEMA_UNG
 62
     7
100
AcDb2dPolyline
 66
     1
 10
0.0
 20
0.0
 30
0.0
  0
VERTEX
  5
33B
330
33A
100
AcDbEntity
  8
BEMA_UNG
 62
     7
100
AcDbVertex
100
AcDb2dVertex
 10
-32.29176255981439
 20
53.23347830113611
 30
0.0
  0
VERTEX
  5
33C
330
33A
100
AcDbEntity
  8
BEMA_UNG
 62
     7
100
AcDbVertex
100
AcDb2dVertex
 10
-31.11164432282462
 20
53.33717574365076
 30
0.0
  0
SEQEND
  5
33D
330
33A
100
AcDbEntity
  8
BEMA_UNG
  0
POLYLINE
  5
33E
330
1F
100
AcDbEntity
  8
BEMA_UNG
 62
     7
100
AcDb2dPolyline
 66
     1
 10
0.0
 20
0.0
 30
0.0
  0
VERTEX
  5
33F
330
33E
100
AcDbEntity
  8
BEMA_UNG
 62
     7
100
AcDbVertex
100
AcDb2dVertex
 10
-32.29658569667554
 20
53.28394898329025
 30
0.0
  0
VERTEX
  5
340
330
33E
100
AcDbEntity
  8
BEMA_UNG
 62
     7
100
AcDbVertex
100
AcDb2dVertex
 10
-30.73182229500934
 20
53.42158063872082
 30
0.0
  0
SEQEND
  5
341
330
33E
100
AcDbEntity
  8
BEMA_UNG
  0
POLYLINE
  5
342
330
1F
100
AcDbEntity
  8
BEMA_UNG
 62
     7
100
AcDb2dPolyline
 66
     1
 10
0.0
 20
0.0
 30
0.0
  0
VERTEX
  5
343
330
342
100
AcDbEntity
  8
BEMA_UNG
 62
     7
100
AcDbVertex
100
AcDb2dVertex
 10
-32.3005475590972
 20
53.33441966544439
 30
0.0
  0
VERTEX
  5
344
330
342
100
AcDbEntity
  8
BEMA_UNG
 62
     7
100
AcDbVertex
100
AcDb2dVertex
 10
-30.35182801230617
 20
53.50546876912719
 30
0.0
  0
SEQEND
  5
345
330
342
100
AcDbEntity
  8
BEMA_UNG
  0
POLYLINE
  5
346
330
1F
100
AcDbEntity
  8
BEMA_UNG
 62
     7
100
AcDb2dPolyline
 66
     1
 10
0.0
 20
0.0
 30
0.0
  0
VERTEX
  5
347
330
346
100
AcDbEntity
  8
BEMA_UNG
 62
     7
100
AcDbVertex
100
AcDb2dVertex
 10
-32.30554295084625
 20
53.38489034759853
 30
0.0
  0
VERTEX
  5
348
330
346
100
AcDbEntity
  8
BEMA_UNG
 62
     7
100
AcDbVertex
100
AcDb2dVertex
 10
-29.971833729603
 20
53.5897875367533
 30
0.0
  0
SEQEND
  5
349
330
346
100
AcDbEntity
  8
BEMA_UNG
  0
POLYLINE
  5
34A
330
1F
100
AcDbEntity
  8
BEMA_UNG
 62
     7
100
AcDb2dPolyline
 66
     1
 10
0.0
 20
0.0
 30
0.0
  0
VERTEX
  5
34B
330
34A
100
AcDbEntity
  8
BEMA_UNG
 62
     7
100
AcDbVertex
100
AcDb2dVertex
 10
-32.31002157793159
 20
53.43561941208451
 30
0.0
  0
VERTEX
  5
34C
330
34A
100
AcDbEntity
  8
BEMA_UNG
 62
     7
100
AcDbVertex
100
AcDb2dVertex
 10
-29.59183944689982
 20
53.67479532393101
 30
0.0
  0
SEQEND
  5
34D
330
34A
100
AcDbEntity
  8
BEMA_UNG
  0
POLYLINE
  5
34E
330
1F
100
AcDbEntity
  8
BEMA_UNG
 62
     7
100
AcDb2dPolyline
 66
     1
 10
0.0
 20
0.0
 30
0.0
  0
VERTEX
  5
34F
330
34E
100
AcDbEntity
  8
BEMA_UNG
 62
     7
100
AcDbVertex
100
AcDb2dVertex
 10
-32.31398344035325
 20
53.48643460401445
 30
0.0
  0
VERTEX
  5
350
330
34E
100
AcDbEntity
  8
BEMA_UNG
 62
     7
100
AcDbVertex
100
AcDb2dVertex
 10
-29.21201741908455
 20
53.75920021900107
 30
0.0
  0
SEQEND
  5
351
330
34E
100
AcDbEntity
  8
BEMA_UNG
  0
POLYLINE
  5
352
330
1F
100
AcDbEntity
  8
BEMA_UNG
 62
     7
100
AcDb2dPolyline
 66
     1
 10
0.0
 20
0.0
 30
0.0
  0
VERTEX
  5
353
330
352
100
AcDbEntity
  8
BEMA_UNG
 62
     7
100
AcDbVertex
100
AcDb2dVertex
 10
-32.3188065772144
 20
53.53690528616859
 30
0.0
  0
VERTEX
  5
354
330
352
100
AcDbEntity
  8
BEMA_UNG
 62
     7
100
AcDbVertex
100
AcDb2dVertex
 10
-28.83202313638137
 20
53.84308834940743
 30
0.0
  0
SEQEND
  5
355
330
352
100
AcDbEntity
  8
BEMA_UNG
  0
POLYLINE
  5
356
330
1F
100
AcDbEntity
  8
BEMA_UNG
 62
     7
100
AcDb2dPolyline
 66
     1
 10
0.0
 20
0.0
 30
0.0
  0
VERTEX
  5
357
330
356
100
AcDbEntity
  8
BEMA_UNG
 62
     7
100
AcDbVertex
100
AcDb2dVertex
 10
-28.83202313638137
 20
-0.0342787226917188
 30
0.0
  0
VERTEX
  5
358
330
356
100
AcDbEntity
  8
BEMA_UNG
 62
     7
100
AcDbVertex
100
AcDb2dVertex
 10
-28.83202313638137
 20
-11.90729138084298
 30
0.0
  0
SEQEND
  5
359
330
356
100
AcDbEntity
  8
BEMA_UNG
  0
POLYLINE
  5
35A
330
1F
100
AcDbEntity
  8
BEMA_UNG
 62
     7
100
AcDb2dPolyline
 66
     1
 10
0.0
 20
0.0
 30
0.0
  0
VERTEX
  5
35B
330
35A
100
AcDbEntity
  8
BEMA_UNG
 62
     7
100
AcDbVertex
100
AcDb2dVertex
 10
0.1677762608127342
 20
-0.0342787226917188
 30
0.0
  0
VERTEX
  5
35C
330
35A
100
AcDbEntity
  8
BEMA_UNG
 62
     7
100
AcDbVertex
100
AcDb2dVertex
 10
0.1677762608127342
 20
-11.90729138084298
 30
0.0
  0
SEQEND
  5
35D
330
35A
100
AcDbEntity
  8
BEMA_UNG
  0
POLYLINE
  5
35E
330
1F
100
AcDbEntity
  8
BEMA_UNG
 62
     7
100
AcDb2dPolyline
 66
     1
 10
0.0
 20
0.0
 30
0.0
  0
VERTEX
  5
35F
330
35E
100
AcDbEntity
  8
BEMA_UNG
 62
     7
100
AcDbVertex
100
AcDb2dVertex
 10
-28.83202313638137
 20
-9.907412132346224
 30
0.0
  0
VERTEX
  5
360
330
35E
100
AcDbEntity
  8
BEMA_UNG
 62
     7
100
AcDbVertex
100
AcDb2dVertex
 10
0.1677762608127342
 20
-9.907412132346224
 30
0.0
  0
SEQEND
  5
361
330
35E
100
AcDbEntity
  8
BEMA_UNG
  0
POLYLINE
  5
362
330
1F
100
AcDbEntity
  8
BEMA_UNG
 62
     7
100
AcDb2dPolyline
 66
     1
 10
0.0
 20
0.0
 30
0.0
  0
VERTEX
  5
363
330
362
100
AcDbEntity
  8
BEMA_UNG
 62
     7
100
AcDbVertex
100
AcDb2dVertex
 10
-28.83202313638137
 20
-9.907412132346224
 30
0.0
  0
VERTEX
  5
364
330
362
100
AcDbEntity
  8
BEMA_UNG
 62
     7
100
AcDbVertex
100
AcDb2dVertex
 10
-25.3318038142923
 20
-10.3681939574736
 30
0.0
  0
VERTEX
  5
365
330
362
100
AcDbEntity
  8
BEMA_UNG
 62
     7
100
AcDbVertex
100
AcDb2dVertex
 10
-25.3318038142923
 20
-9.446285797443052
 30
0.0
  0
VERTEX
  5
366
330
362
100
AcDbEntity
  8
BEMA_UNG
 62
     7
100
AcDbVertex
100
AcDb2dVertex
 10
-28.83202313638137
 20
-9.907412132346224
 30
0.0
  0
SEQEND
  5
367
330
362
100
AcDbEntity
  8
BEMA_UNG
  0
POLYLINE
  5
368
330
1F
100
AcDbEntity
  8
BEMA_UNG
 62
     7
100
AcDb2dPolyline
 66
     1
 10
0.0
 20
0.0
 30
0.0
  0
VERTEX
  5
369
330
368
100
AcDbEntity
  8
BEMA_UNG
 62
     7
100
AcDbVertex
100
AcDb2dVertex
 10
-25.3318038142923
 20
-10.36457660482774
 30
0.0
  0
VERTEX
  5
36A
330
368
100
AcDbEntity
  8
BEMA_UNG
 62
     7
100
AcDbVertex
100
AcDb2dVertex
 10
-25.35953685124389
 20
-10.36457660482774
 30
0.0
  0
SEQEND
  5
36B
330
368
100
AcDbEntity
  8
BEMA_UNG
  0
POLYLINE
  5
36C
330
1F
100
AcDbEntity
  8
BEMA_UNG
 62
     7
100
AcDb2dPolyline
 66
     1
 10
0.0
 20
0.0
 30
0.0
  0
VERTEX
  5
36D
330
36C
100
AcDbEntity
  8
BEMA_UNG
 62
     7
100
AcDbVertex
100
AcDb2dVertex
 10
-25.3318038142923
 20
-10.36457660482774
 30
0.0
  0
VERTEX
  5
36E
330
36C
100
AcDbEntity
  8
BEMA_UNG
 62
     7
100
AcDbVertex
100
AcDb2dVertex
 10
-25.35953685124389
 20
-10.36457660482774
 30
0.0
  0
SEQEND
  5
36F
330
36C
100
AcDbEntity
  8
BEMA_UNG
  0
POLYLINE
  5
370
330
1F
100
AcDbEntity
  8
BEMA_UNG
 62
     7
100
AcDb2dPolyline
 66
     1
 10
0.0
 20
0.0
 30
0.0
  0
VERTEX
  5
371
330
370
100
AcDbEntity
  8
BEMA_UNG
 62
     7
100
AcDbVertex
100
AcDb2dVertex
 10
-25.3318038142923
 20
-10.3137614128978
 30
0.0
  0
VERTEX
  5
372
330
370
100
AcDbEntity
  8
BEMA_UNG
 62
     7
100
AcDbVertex
100
AcDb2dVertex
 10
-25.7452155452477
 20
-10.3137614128978
 30
0.0
  0
SEQEND
  5
373
330
370
100
AcDbEntity
  8
BEMA_UNG
  0
POLYLINE
  5
374
330
1F
100
AcDbEntity
  8
BEMA_UNG
 62
     7
100
AcDb2dPolyline
 66
     1
 10
0.0
 20
0.0
 30
0.0
  0
VERTEX
  5
375
330
374
100
AcDbEntity
  8
BEMA_UNG
 62
     7
100
AcDbVertex
100
AcDb2dVertex
 10
-25.3318038142923
 20
-10.26294622096787
 30
0.0
  0
VERTEX
  5
376
330
374
100
AcDbEntity
  8
BEMA_UNG
 62
     7
100
AcDbVertex
100
AcDb2dVertex
 10
-26.13106649413941
 20
-10.26294622096787
 30
0.0
  0
SEQEND
  5
377
330
374
100
AcDbEntity
  8
BEMA_UNG
  0
POLYLINE
  5
378
330
1F
100
AcDbEntity
  8
BEMA_UNG
 62
     7
100
AcDb2dPolyline
 66
     1
 10
0.0
 20
0.0
 30
0.0
  0
VERTEX
  5
379
330
378
100
AcDbEntity
  8
BEMA_UNG
 62
     7
100
AcDbVertex
100
AcDb2dVertex
 10
-25.3318038142923
 20
-10.21213102903794
 30
0.0
  0
VERTEX
  5
37A
330
378
100
AcDbEntity
  8
BEMA_UNG
 62
     7
100
AcDbVertex
100
AcDb2dVertex
 10
-26.51674518814322
 20
-10.21213102903794
 30
0.0
  0
SEQEND
  5
37B
330
378
100
AcDbEntity
  8
BEMA_UNG
  0
POLYLINE
  5
37C
330
1F
100
AcDbEntity
  8
BEMA_UNG
 62
     7
100
AcDb2dPolyline
 66
     1
 10
0.0
 20
0.0
 30
0.0
  0
VERTEX
  5
37D
330
37C
100
AcDbEntity
  8
BEMA_UNG
 62
     7
100
AcDbVertex
100
AcDb2dVertex
 10
-25.3318038142923
 20
-10.1609713273322
 30
0.0
  0
VERTEX
  5
37E
330
37C
100
AcDbEntity
  8
BEMA_UNG
 62
     7
100
AcDbVertex
100
AcDb2dVertex
 10
-26.90294064681072
 20
-10.1609713273322
 30
0.0
  0
SEQEND
  5
37F
330
37C
100
AcDbEntity
  8
BEMA_UNG
  0
POLYLINE
  5
380
330
1F
100
AcDbEntity
  8
BEMA_UNG
 62
     7
100
AcDb2dPolyline
 66
     1
 10
0.0
 20
0.0
 30
0.0
  0
VERTEX
  5
381
330
380
100
AcDbEntity
  8
BEMA_UNG
 62
     7
100
AcDbVertex
100
AcDb2dVertex
 10
-25.3318038142923
 20
-10.11032839029017
 30
0.0
  0
VERTEX
  5
382
330
380
100
AcDbEntity
  8
BEMA_UNG
 62
     7
100
AcDbVertex
100
AcDb2dVertex
 10
-27.28861934081453
 20
-10.11032839029017
 30
0.0
  0
SEQEND
  5
383
330
380
100
AcDbEntity
  8
BEMA_UNG
  0
POLYLINE
  5
384
330
1F
100
AcDbEntity
  8
BEMA_UNG
 62
     7
100
AcDb2dPolyline
 66
     1
 10
0.0
 20
0.0
 30
0.0
  0
VERTEX
  5
385
330
384
100
AcDbEntity
  8
BEMA_UNG
 62
     7
100
AcDbVertex
100
AcDb2dVertex
 10
-25.3318038142923
 20
-10.05951319836023
 30
0.0
  0
VERTEX
  5
386
330
384
100
AcDbEntity
  8
BEMA_UNG
 62
     7
100
AcDbVertex
100
AcDb2dVertex
 10
-27.67447028970624
 20
-10.05951319836023
 30
0.0
  0
SEQEND
  5
387
330
384
100
AcDbEntity
  8
BEMA_UNG
  0
POLYLINE
  5
388
330
1F
100
AcDbEntity
  8
BEMA_UNG
 62
     7
100
AcDb2dPolyline
 66
     1
 10
0.0
 20
0.0
 30
0.0
  0
VERTEX
  5
389
330
388
100
AcDbEntity
  8
BEMA_UNG
 62
     7
100
AcDbVertex
100
AcDb2dVertex
 10
-25.3318038142923
 20
-10.0086980064303
 30
0.0
  0
VERTEX
  5
38A
330
388
100
AcDbEntity
  8
BEMA_UNG
 62
     7
100
AcDbVertex
100
AcDb2dVertex
 10
-28.06014898371005
 20
-10.0086980064303
 30
0.0
  0
SEQEND
  5
38B
330
388
100
AcDbEntity
  8
BEMA_UNG
  0
POLYLINE
  5
38C
330
1F
100
AcDbEntity
  8
BEMA_UNG
 62
     7
100
AcDb2dPolyline
 66
     1
 10
0.0
 20
0.0
 30
0.0
  0
VERTEX
  5
38D
330
38C
100
AcDbEntity
  8
BEMA_UNG
 62
     7
100
AcDbVertex
100
AcDb2dVertex
 10
-25.3318038142923
 20
-9.957882814500362
 30
0.0
  0
VERTEX
  5
38E
330
38C
100
AcDbEntity
  8
BEMA_UNG
 62
     7
100
AcDbVertex
100
AcDb2dVertex
 10
-28.44634444237756
 20
-9.957882814500362
 30
0.0
  0
SEQEND
  5
38F
330
38C
100
AcDbEntity
  8
BEMA_UNG
  0
POLYLINE
  5
390
330
1F
100
AcDbEntity
  8
BEMA_UNG
 62
     7
100
AcDb2dPolyline
 66
     1
 10
0.0
 20
0.0
 30
0.0
  0
VERTEX
  5
391
330
390
100
AcDbEntity
  8
BEMA_UNG
 62
     7
100
AcDbVertex
100
AcDb2dVertex
 10
-25.3318038142923
 20
-9.907412132346224
 30
0.0
  0
VERTEX
  5
392
330
390
100
AcDbEntity
  8
BEMA_UNG
 62
     7
100
AcDbVertex
100
AcDb2dVertex
 10
-28.83202313638137
 20
-9.907412132346224
 30
0.0
  0
SEQEND
  5
393
330
390
100
AcDbEntity
  8
BEMA_UNG
  0
POLYLINE
  5
394
330
1F
100
AcDbEntity
  8
BEMA_UNG
 62
     7
100
AcDb2dPolyline
 66
     1
 10
0.0
 20
0.0
 30
0.0
  0
VERTEX
  5
395
330
394
100
AcDbEntity
  8
BEMA_UNG
 62
     7
100
AcDbVertex
100
AcDb2dVertex
 10
-25.3318038142923
 20
-9.449903150088911
 30
0.0
  0
VERTEX
  5
396
330
394
100
AcDbEntity
  8
BEMA_UNG
 62
     7
100
AcDbVertex
100
AcDb2dVertex
 10
-25.35953685124389
 20
-9.449903150088911
 30
0.0
  0
SEQEND
  5
397
330
394
100
AcDbEntity
  8
BEMA_UNG
  0
POLYLINE
  5
398
330
1F
100
AcDbEntity
  8
BEMA_UNG
 62
     7
100
AcDb2dPolyline
 66
     1
 10
0.0
 20
0.0
 30
0.0
  0
VERTEX
  5
399
330
398
100
AcDbEntity
  8
BEMA_UNG
 62
     7
100
AcDbVertex
100
AcDb2dVertex
 10
-25.3318038142923
 20
-9.449903150088911
 30
0.0
  0
VERTEX
  5
39A
330
398
100
AcDbEntity
  8
BEMA_UNG
 62
     7
100
AcDbVertex
100
AcDb2dVertex
 10
-25.35953685124389
 20
-9.449903150088911
 30
0.0
  0
SEQEND
  5
39B
330
398
100
AcDbEntity
  8
BEMA_UNG
  0
POLYLINE
  5
39C
330
1F
100
AcDbEntity
  8
BEMA_UNG
 62
     7
100
AcDb2dPolyline
 66
     1
 10
0.0
 20
0.0
 30
0.0
  0
VERTEX
  5
39D
330
39C
100
AcDbEntity
  8
BEMA_UNG
 62
     7
100
AcDbVertex
100
AcDb2dVertex
 10
-25.3318038142923
 20
-9.500718342018846
 30
0.0
  0
VERTEX
  5
39E
330
39C
100
AcDbEntity
  8
BEMA_UNG
 62
     7
100
AcDbVertex
100
AcDb2dVertex
 10
-25.7452155452477
 20
-9.500718342018846
 30
0.0
  0
SEQEND
  5
39F
330
39C
100
AcDbEntity
  8
BEMA_UNG
  0
POLYLINE
  5
3A0
330
1F
100
AcDbEntity
  8
BEMA_UNG
 62
     7
100
AcDb2dPolyline
 66
     1
 10
0.0
 20
0.0
 30
0.0
  0
VERTEX
  5
3A1
330
3A0
100
AcDbEntity
  8
BEMA_UNG
 62
     7
100
AcDbVertex
100
AcDb2dVertex
 10
-25.3318038142923
 20
-9.551533533948781
 30
0.0
  0
VERTEX
  5
3A2
330
3A0
100
AcDbEntity
  8
BEMA_UNG
 62
     7
100
AcDbVertex
100
AcDb2dVertex
 10
-26.13106649413941
 20
-9.551533533948781
 30
0.0
  0
SEQEND
  5
3A3
330
3A0
100
AcDbEntity
  8
BEMA_UNG
  0
POLYLINE
  5
3A4
330
1F
100
AcDbEntity
  8
BEMA_UNG
 62
     7
100
AcDb2dPolyline
 66
     1
 10
0.0
 20
0.0
 30
0.0
  0
VERTEX
  5
3A5
330
3A4
100
AcDbEntity
  8
BEMA_UNG
 62
     7
100
AcDbVertex
100
AcDb2dVertex
 10
-25.3318038142923
 20
-9.602176470990818
 30
0.0
  0
VERTEX
  5
3A6
330
3A4
100
AcDbEntity
  8
BEMA_UNG
 62
     7
100
AcDbVertex
100
AcDb2dVertex
 10
-26.51674518814322
 20
-9.602176470990818
 30
0.0
  0
SEQEND
  5
3A7
330
3A4
100
AcDbEntity
  8
BEMA_UNG
  0
POLYLINE
  5
3A8
330
1F
100
AcDbEntity
  8
BEMA_UNG
 62
     7
100
AcDb2dPolyline
 66
     1
 10
0.0
 20
0.0
 30
0.0
  0
VERTEX
  5
3A9
330
3A8
100
AcDbEntity
  8
BEMA_UNG
 62
     7
100
AcDbVertex
100
AcDb2dVertex
 10
-25.3318038142923
 20
-9.652991662920753
 30
0.0
  0
VERTEX
  5
3AA
330
3A8
100
AcDbEntity
  8
BEMA_UNG
 62
     7
100
AcDbVertex
100
AcDb2dVertex
 10
-26.90294064681072
 20
-9.652991662920753
 30
0.0
  0
SEQEND
  5
3AB
330
3A8
100
AcDbEntity
  8
BEMA_UNG
  0
POLYLINE
  5
3AC
330
1F
100
AcDbEntity
  8
BEMA_UNG
 62
     7
100
AcDb2dPolyline
 66
     1
 10
0.0
 20
0.0
 30
0.0
  0
VERTEX
  5
3AD
330
3AC
100
AcDbEntity
  8
BEMA_UNG
 62
     7
100
AcDbVertex
100
AcDb2dVertex
 10
-25.3318038142923
 20
-9.704151364626483
 30
0.0
  0
VERTEX
  5
3AE
330
3AC
100
AcDbEntity
  8
BEMA_UNG
 62
     7
100
AcDbVertex
100
AcDb2dVertex
 10
-27.28861934081453
 20
-9.704151364626483
 30
0.0
  0
SEQEND
  5
3AF
330
3AC
100
AcDbEntity
  8
BEMA_UNG
  0
POLYLINE
  5
3B0
330
1F
100
AcDbEntity
  8
BEMA_UNG
 62
     7
100
AcDb2dPolyline
 66
     1
 10
0.0
 20
0.0
 30
0.0
  0
VERTEX
  5
3B1
330
3B0
100
AcDbEntity
  8
BEMA_UNG
 62
     7
100
AcDbVertex
100
AcDb2dVertex
 10
-25.3318038142923
 20
-9.754966556556418
 30
0.0
  0
VERTEX
  5
3B2
330
3B0
100
AcDbEntity
  8
BEMA_UNG
 62
     7
100
AcDbVertex
100
AcDb2dVertex
 10
-27.67447028970624
 20
-9.754966556556418
 30
0.0
  0
SEQEND
  5
3B3
330
3B0
100
AcDbEntity
  8
BEMA_UNG
  0
POLYLINE
  5
3B4
330
1F
100
AcDbEntity
  8
BEMA_UNG
 62
     7
100
AcDb2dPolyline
 66
     1
 10
0.0
 20
0.0
 30
0.0
  0
VERTEX
  5
3B5
330
3B4
100
AcDbEntity
  8
BEMA_UNG
 62
     7
100
AcDbVertex
100
AcDb2dVertex
 10
-25.3318038142923
 20
-9.805781748486353
 30
0.0
  0
VERTEX
  5
3B6
330
3B4
100
AcDbEntity
  8
BEMA_UNG
 62
     7
100
AcDbVertex
100
AcDb2dVertex
 10
-28.06014898371005
 20
-9.805781748486353
 30
0.0
  0
SEQEND
  5
3B7
330
3B4
100
AcDbEntity
  8
BEMA_UNG
  0
POLYLINE
  5
3B8
330
1F
100
AcDbEntity
  8
BEMA_UNG
 62
     7
100
AcDb2dPolyline
 66
     1
 10
0.0
 20
0.0
 30
0.0
  0
VERTEX
  5
3B9
330
3B8
100
AcDbEntity
  8
BEMA_UNG
 62
     7
100
AcDbVertex
100
AcDb2dVertex
 10
-25.3318038142923
 20
-9.856596940416289
 30
0.0
  0
VERTEX
  5
3BA
330
3B8
100
AcDbEntity
  8
BEMA_UNG
 62
     7
100
AcDbVertex
100
AcDb2dVertex
 10
-28.44634444237756
 20
-9.856596940416289
 30
0.0
  0
SEQEND
  5
3BB
330
3B8
100
AcDbEntity
  8
BEMA_UNG
  0
POLYLINE
  5
3BC
330
1F
100
AcDbEntity
  8
BEMA_UNG
 62
     7
100
AcDb2dPolyline
 66
     1
 10
0.0
 20
0.0
 30
0.0
  0
VERTEX
  5
3BD
330
3BC
100
AcDbEntity
  8
BEMA_UNG
 62
     7
100
AcDbVertex
100
AcDb2dVertex
 10
-25.3318038142923
 20
-9.907412132346224
 30
0.0
  0
VERTEX
  5
3BE
330
3BC
100
AcDbEntity
  8
BEMA_UNG
 62
     7
100
AcDbVertex
100
AcDb2dVertex
 10
-28.83202313638137
 20
-9.907412132346224
 30
0.0
  0
SEQEND
  5
3BF
330
3BC
100
AcDbEntity
  8
BEMA_UNG
  0
POLYLINE
  5
3C0
330
1F
100
AcDbEntity
  8
BEMA_UNG
 62
     7
100
AcDb2dPolyline
 66
     1
 10
0.0
 20
0.0
 30
0.0
  0
VERTEX
  5
3C1
330
3C0
100
AcDbEntity
  8
BEMA_UNG
 62
     7
100
AcDbVertex
100
AcDb2dVertex
 10
0.1677762608127342
 20
-9.907412132346224
 30
0.0
  0
VERTEX
  5
3C2
330
3C0
100
AcDbEntity
  8
BEMA_UNG
 62
     7
100
AcDbVertex
100
AcDb2dVertex
 10
-3.331754041724749
 20
-9.446285797443052
 30
0.0
  0
VERTEX
  5
3C3
330
3C0
100
AcDbEntity
  8
BEMA_UNG
 62
     7
100
AcDbVertex
100
AcDb2dVertex
 10
-3.331754041724749
 20
-10.3681939574736
 30
0.0
  0
VERTEX
  5
3C4
330
3C0
100
AcDbEntity
  8
BEMA_UNG
 62
     7
100
AcDbVertex
100
AcDb2dVertex
 10
0.1677762608127342
 20
-9.907412132346224
 30
0.0
  0
SEQEND
  5
3C5
330
3C0
100
AcDbEntity
  8
BEMA_UNG
  0
POLYLINE
  5
3C6
330
1F
100
AcDbEntity
  8
BEMA_UNG
 62
     7
100
AcDb2dPolyline
 66
     1
 10
0.0
 20
0.0
 30
0.0
  0
VERTEX
  5
3C7
330
3C6
100
AcDbEntity
  8
BEMA_UNG
 62
     7
100
AcDbVertex
100
AcDb2dVertex
 10
-3.331754041724749
 20
-9.449903150088911
 30
0.0
  0
VERTEX
  5
3C8
330
3C6
100
AcDbEntity
  8
BEMA_UNG
 62
     7
100
AcDbVertex
100
AcDb2dVertex
 10
-3.30471002432475
 20
-9.449903150088911
 30
0.0
  0
SEQEND
  5
3C9
330
3C6
100
AcDbEntity
  8
BEMA_UNG
  0
POLYLINE
  5
3CA
330
1F
100
AcDbEntity
  8
BEMA_UNG
 62
     7
100
AcDb2dPolyline
 66
     1
 10
0.0
 20
0.0
 30
0.0
  0
VERTEX
  5
3CB
330
3CA
100
AcDbEntity
  8
BEMA_UNG
 62
     7
100
AcDbVertex
100
AcDb2dVertex
 10
-3.331754041724749
 20
-9.449903150088911
 30
0.0
  0
VERTEX
  5
3CC
330
3CA
100
AcDbEntity
  8
BEMA_UNG
 62
     7
100
AcDbVertex
100
AcDb2dVertex
 10
-3.30471002432475
 20
-9.449903150088911
 30
0.0
  0
SEQEND
  5
3CD
330
3CA
100
AcDbEntity
  8
BEMA_UNG
  0
POLYLINE
  5
3CE
330
1F
100
AcDbEntity
  8
BEMA_UNG
 62
     7
100
AcDb2dPolyline
 66
     1
 10
0.0
 20
0.0
 30
0.0
  0
VERTEX
  5
3CF
330
3CE
100
AcDbEntity
  8
BEMA_UNG
 62
     7
100
AcDbVertex
100
AcDb2dVertex
 10
-3.331754041724749
 20
-9.500718342018846
 30
0.0
  0
VERTEX
  5
3D0
330
3CE
100
AcDbEntity
  8
BEMA_UNG
 62
     7
100
AcDbVertex
100
AcDb2dVertex
 10
-2.919031330320939
 20
-9.500718342018846
 30
0.0
  0
SEQEND
  5
3D1
330
3CE
100
AcDbEntity
  8
BEMA_UNG
  0
POLYLINE
  5
3D2
330
1F
100
AcDbEntity
  8
BEMA_UNG
 62
     7
100
AcDb2dPolyline
 66
     1
 10
0.0
 20
0.0
 30
0.0
  0
VERTEX
  5
3D3
330
3D2
100
AcDbEntity
  8
BEMA_UNG
 62
     7
100
AcDbVertex
100
AcDb2dVertex
 10
-3.331754041724749
 20
-9.551533533948781
 30
0.0
  0
VERTEX
  5
3D4
330
3D2
100
AcDbEntity
  8
BEMA_UNG
 62
     7
100
AcDbVertex
100
AcDb2dVertex
 10
-2.533008126541331
 20
-9.551533533948781
 30
0.0
  0
SEQEND
  5
3D5
330
3D2
100
AcDbEntity
  8
BEMA_UNG
  0
POLYLINE
  5
3D6
330
1F
100
AcDbEntity
  8
BEMA_UNG
 62
     7
100
AcDb2dPolyline
 66
     1
 10
0.0
 20
0.0
 30
0.0
  0
VERTEX
  5
3D7
330
3D6
100
AcDbEntity
  8
BEMA_UNG
 62
     7
100
AcDbVertex
100
AcDb2dVertex
 10
-3.331754041724749
 20
-9.602176470990818
 30
0.0
  0
VERTEX
  5
3D8
330
3D6
100
AcDbEntity
  8
BEMA_UNG
 62
     7
100
AcDbVertex
100
AcDb2dVertex
 10
-2.147501687425418
 20
-9.602176470990818
 30
0.0
  0
SEQEND
  5
3D9
330
3D6
100
AcDbEntity
  8
BEMA_UNG
  0
POLYLINE
  5
3DA
330
1F
100
AcDbEntity
  8
BEMA_UNG
 62
     7
100
AcDb2dPolyline
 66
     1
 10
0.0
 20
0.0
 30
0.0
  0
VERTEX
  5
3DB
330
3DA
100
AcDbEntity
  8
BEMA_UNG
 62
     7
100
AcDbVertex
100
AcDb2dVertex
 10
-3.331754041724749
 20
-9.652991662920753
 30
0.0
  0
VERTEX
  5
3DC
330
3DA
100
AcDbEntity
  8
BEMA_UNG
 62
     7
100
AcDbVertex
100
AcDb2dVertex
 10
-1.761306228757913
 20
-9.652991662920753
 30
0.0
  0
SEQEND
  5
3DD
330
3DA
100
AcDbEntity
  8
BEMA_UNG
  0
POLYLINE
  5
3DE
330
1F
100
AcDbEntity
  8
BEMA_UNG
 62
     7
100
AcDb2dPolyline
 66
     1
 10
0.0
 20
0.0
 30
0.0
  0
VERTEX
  5
3DF
330
3DE
100
AcDbEntity
  8
BEMA_UNG
 62
     7
100
AcDbVertex
100
AcDb2dVertex
 10
-3.331754041724749
 20
-9.704151364626483
 30
0.0
  0
VERTEX
  5
3E0
330
3DE
100
AcDbEntity
  8
BEMA_UNG
 62
     7
100
AcDbVertex
100
AcDb2dVertex
 10
-1.375627534754102
 20
-9.704151364626483
 30
0.0
  0
SEQEND
  5
3E1
330
3DE
100
AcDbEntity
  8
BEMA_UNG
  0
POLYLINE
  5
3E2
330
1F
100
AcDbEntity
  8
BEMA_UNG
 62
     7
100
AcDb2dPolyline
 66
     1
 10
0.0
 20
0.0
 30
0.0
  0
VERTEX
  5
3E3
330
3E2
100
AcDbEntity
  8
BEMA_UNG
 62
     7
100
AcDbVertex
100
AcDb2dVertex
 10
-3.331754041724749
 20
-9.754966556556418
 30
0.0
  0
VERTEX
  5
3E4
330
3E2
100
AcDbEntity
  8
BEMA_UNG
 62
     7
100
AcDbVertex
100
AcDb2dVertex
 10
-0.989604330974495
 20
-9.754966556556418
 30
0.0
  0
SEQEND
  5
3E5
330
3E2
100
AcDbEntity
  8
BEMA_UNG
  0
POLYLINE
  5
3E6
330
1F
100
AcDbEntity
  8
BEMA_UNG
 62
     7
100
AcDb2dPolyline
 66
     1
 10
0.0
 20
0.0
 30
0.0
  0
VERTEX
  5
3E7
330
3E6
100
AcDbEntity
  8
BEMA_UNG
 62
     7
100
AcDbVertex
100
AcDb2dVertex
 10
-3.331754041724749
 20
-9.805781748486353
 30
0.0
  0
VERTEX
  5
3E8
330
3E6
100
AcDbEntity
  8
BEMA_UNG
 62
     7
100
AcDbVertex
100
AcDb2dVertex
 10
-0.6040978918585821
 20
-9.805781748486353
 30
0.0
  0
SEQEND
  5
3E9
330
3E6
100
AcDbEntity
  8
BEMA_UNG
  0
POLYLINE
  5
3EA
330
1F
100
AcDbEntity
  8
BEMA_UNG
 62
     7
100
AcDb2dPolyline
 66
     1
 10
0.0
 20
0.0
 30
0.0
  0
VERTEX
  5
3EB
330
3EA
100
AcDbEntity
  8
BEMA_UNG
 62
     7
100
AcDbVertex
100
AcDb2dVertex
 10
-3.331754041724749
 20
-9.856596940416289
 30
0.0
  0
VERTEX
  5
3EC
330
3EA
100
AcDbEntity
  8
BEMA_UNG
 62
     7
100
AcDbVertex
100
AcDb2dVertex
 10
-0.2179024331910768
 20
-9.856596940416289
 30
0.0
  0
SEQEND
  5
3ED
330
3EA
100
AcDbEntity
  8
BEMA_UNG
  0
POLYLINE
  5
3EE
330
1F
100
AcDbEntity
  8
BEMA_UNG
 62
     7
100
AcDb2dPolyline
 66
     1
 10
0.0
 20
0.0
 30
0.0
  0
VERTEX
  5
3EF
330
3EE
100
AcDbEntity
  8
BEMA_UNG
 62
     7
100
AcDbVertex
100
AcDb2dVertex
 10
-3.331754041724749
 20
-9.907412132346224
 30
0.0
  0
VERTEX
  5
3F0
330
3EE
100
AcDbEntity
  8
BEMA_UNG
 62
     7
100
AcDbVertex
100
AcDb2dVertex
 10
0.1677762608127342
 20
-9.907412132346224
 30
0.0
  0
SEQEND
  5
3F1
330
3EE
100
AcDbEntity
  8
BEMA_UNG
  0
POLYLINE
  5
3F2
330
1F
100
AcDbEntity
  8
BEMA_UNG
 62
     7
100
AcDb2dPolyline
 66
     1
 10
0.0
 20
0.0
 30
0.0
  0
VERTEX
  5
3F3
330
3F2
100
AcDbEntity
  8
BEMA_UNG
 62
     7
100
AcDbVertex
100
AcDb2dVertex
 10
-3.331754041724749
 20
-10.36457660482774
 30
0.0
  0
VERTEX
  5
3F4
330
3F2
100
AcDbEntity
  8
BEMA_UNG
 62
     7
100
AcDbVertex
100
AcDb2dVertex
 10
-3.30471002432475
 20
-10.36457660482774
 30
0.0
  0
SEQEND
  5
3F5
330
3F2
100
AcDbEntity
  8
BEMA_UNG
  0
POLYLINE
  5
3F6
330
1F
100
AcDbEntity
  8
BEMA_UNG
 62
     7
100
AcDb2dPolyline
 66
     1
 10
0.0
 20
0.0
 30
0.0
  0
VERTEX
  5
3F7
330
3F6
100
AcDbEntity
  8
BEMA_UNG
 62
     7
100
AcDbVertex
100
AcDb2dVertex
 10
-3.331754041724749
 20
-10.36457660482774
 30
0.0
  0
VERTEX
  5
3F8
330
3F6
100
AcDbEntity
  8
BEMA_UNG
 62
     7
100
AcDbVertex
100
AcDb2dVertex
 10
-3.30471002432475
 20
-10.36457660482774
 30
0.0
  0
SEQEND
  5
3F9
330
3F6
100
AcDbEntity
  8
BEMA_UNG
  0
POLYLINE
  5
3FA
330
1F
100
AcDbEntity
  8
BEMA_UNG
 62
     7
100
AcDb2dPolyline
 66
     1
 10
0.0
 20
0.0
 30
0.0
  0
VERTEX
  5
3FB
330
3FA
100
AcDbEntity
  8
BEMA_UNG
 62
     7
100
AcDbVertex
100
AcDb2dVertex
 10
-3.331754041724749
 20
-10.3137614128978
 30
0.0
  0
VERTEX
  5
3FC
330
3FA
100
AcDbEntity
  8
BEMA_UNG
 62
     7
100
AcDbVertex
100
AcDb2dVertex
 10
-2.919031330320939
 20
-10.3137614128978
 30
0.0
  0
SEQEND
  5
3FD
330
3FA
100
AcDbEntity
  8
BEMA_UNG
  0
POLYLINE
  5
3FE
330
1F
100
AcDbEntity
  8
BEMA_UNG
 62
     7
100
AcDb2dPolyline
 66
     1
 10
0.0
 20
0.0
 30
0.0
  0
VERTEX
  5
3FF
330
3FE
100
AcDbEntity
  8
BEMA_UNG
 62
     7
100
AcDbVertex
100
AcDb2dVertex
 10
-3.331754041724749
 20
-10.26294622096787
 30
0.0
  0
VERTEX
  5
400
330
3FE
100
AcDbEntity
  8
BEMA_UNG
 62
     7
100
AcDbVertex
100
AcDb2dVertex
 10
-2.533008126541331
 20
-10.26294622096787
 30
0.0
  0
SEQEND
  5
401
330
3FE
100
AcDbEntity
  8
BEMA_UNG
  0
POLYLINE
  5
402
330
1F
100
AcDbEntity
  8
BEMA_UNG
 62
     7
100
AcDb2dPolyline
 66
     1
 10
0.0
 20
0.0
 30
0.0
  0
VERTEX
  5
403
330
402
100
AcDbEntity
  8
BEMA_UNG
 62
     7
100
AcDbVertex
100
AcDb2dVertex
 10
-3.331754041724749
 20
-10.21213102903794
 30
0.0
  0
VERTEX
  5
404
330
402
100
AcDbEntity
  8
BEMA_UNG
 62
     7
100
AcDbVertex
100
AcDb2dVertex
 10
-2.147501687425418
 20
-10.21213102903794
 30
0.0
  0
SEQEND
  5
405
330
402
100
AcDbEntity
  8
BEMA_UNG
  0
POLYLINE
  5
406
330
1F
100
AcDbEntity
  8
BEMA_UNG
 62
     7
100
AcDb2dPolyline
 66
     1
 10
0.0
 20
0.0
 30
0.0
  0
VERTEX
  5
407
330
406
100
AcDbEntity
  8
BEMA_UNG
 62
     7
100
AcDbVertex
100
AcDb2dVertex
 10
-3.331754041724749
 20
-10.1609713273322
 30
0.0
  0
VERTEX
  5
408
330
406
100
AcDbEntity
  8
BEMA_UNG
 62
     7
100
AcDbVertex
100
AcDb2dVertex
 10
-1.761306228757913
 20
-10.1609713273322
 30
0.0
  0
SEQEND
  5
409
330
406
100
AcDbEntity
  8
BEMA_UNG
  0
POLYLINE
  5
40A
330
1F
100
AcDbEntity
  8
BEMA_UNG
 62
     7
100
AcDb2dPolyline
 66
     1
 10
0.0
 20
0.0
 30
0.0
  0
VERTEX
  5
40B
330
40A
100
AcDbEntity
  8
BEMA_UNG
 62
     7
100
AcDbVertex
100
AcDb2dVertex
 10
-3.331754041724749
 20
-10.11032839029017
 30
0.0
  0
VERTEX
  5
40C
330
40A
100
AcDbEntity
  8
BEMA_UNG
 62
     7
100
AcDbVertex
100
AcDb2dVertex
 10
-1.375627534754102
 20
-10.11032839029017
 30
0.0
  0
SEQEND
  5
40D
330
40A
100
AcDbEntity
  8
BEMA_UNG
  0
POLYLINE
  5
40E
330
1F
100
AcDbEntity
  8
BEMA_UNG
 62
     7
100
AcDb2dPolyline
 66
     1
 10
0.0
 20
0.0
 30
0.0
  0
VERTEX
  5
40F
330
40E
100
AcDbEntity
  8
BEMA_UNG
 62
     7
100
AcDbVertex
100
AcDb2dVertex
 10
-3.331754041724749
 20
-10.05951319836023
 30
0.0
  0
VERTEX
  5
410
330
40E
100
AcDbEntity
  8
BEMA_UNG
 62
     7
100
AcDbVertex
100
AcDb2dVertex
 10
-0.989604330974495
 20
-10.05951319836023
 30
0.0
  0
SEQEND
  5
411
330
40E
100
AcDbEntity
  8
BEMA_UNG
  0
POLYLINE
  5
412
330
1F
100
AcDbEntity
  8
BEMA_UNG
 62
     7
100
AcDb2dPolyline
 66
     1
 10
0.0
 20
0.0
 30
0.0
  0
VERTEX
  5
413
330
412
100
AcDbEntity
  8
BEMA_UNG
 62
     7
100
AcDbVertex
100
AcDb2dVertex
 10
-3.331754041724749
 20
-10.0086980064303
 30
0.0
  0
VERTEX
  5
414
330
412
100
AcDbEntity
  8
BEMA_UNG
 62
     7
100
AcDbVertex
100
AcDb2dVertex
 10
-0.6040978918585821
 20
-10.0086980064303
 30
0.0
  0
SEQEND
  5
415
330
412
100
AcDbEntity
  8
BEMA_UNG
  0
POLYLINE
  5
416
330
1F
100
AcDbEntity
  8
BEMA_UNG
 62
     7
100
AcDb2dPolyline
 66
     1
 10
0.0
 20
0.0
 30
0.0
  0
VERTEX
  5
417
330
416
100
AcDbEntity
  8
BEMA_UNG
 62
     7
100
AcDbVertex
100
AcDb2dVertex
 10
-3.331754041724749
 20
-9.957882814500362
 30
0.0
  0
VERTEX
  5
418
330
416
100
AcDbEntity
  8
BEMA_UNG
 62
     7
100
AcDbVertex
100
AcDb2dVertex
 10
-0.2179024331910768
 20
-9.957882814500362
 30
0.0
  0
SEQEND
  5
419
330
416
100
AcDbEntity
  8
BEMA_UNG
  0
POLYLINE
  5
41A
330
1F
100
AcDbEntity
  8
BEMA_UNG
 62
     7
100
AcDb2dPolyline
 66
     1
 10
0.0
 20
0.0
 30
0.0
  0
VERTEX
  5
41B
330
41A
100
AcDbEntity
  8
BEMA_UNG
 62
     7
100
AcDbVertex
100
AcDb2dVertex
 10
-3.331754041724749
 20
-9.907412132346224
 30
0.0
  0
VERTEX
  5
41C
330
41A
100
AcDbEntity
  8
BEMA_UNG
 62
     7
100
AcDbVertex
100
AcDb2dVertex
 10
0.1677762608127342
 20
-9.907412132346224
 30
0.0
  0
SEQEND
  5
41D
330
41A
100
AcDbEntity
  8
BEMA_UNG
  0
POLYLINE
  5
41E
330
1F
100
AcDbEntity
  8
BEMA_UNG
 62
     7
100
AcDb2dPolyline
 66
     1
 10
0.0
 20
0.0
 30
0.0
  0
VERTEX
  5
41F
330
41E
100
AcDbEntity
  8
BEMA_UNG
 62
     7
100
AcDbVertex
100
AcDb2dVertex
 10
-28.83202313638137
 20
44.02180366101025
 30
0.0
  0
VERTEX
  5
420
330
41E
100
AcDbEntity
  8
BEMA_UNG
 62
     7
100
AcDbVertex
100
AcDb2dVertex
 10
-28.83202313638137
 20
55.26324377268319
 30
0.0
  0
SEQEND
  5
421
330
41E
100
AcDbEntity
  8
BEMA_UNG
  0
MTEXT
  5
423
330
1F
100
AcDbEntity
  8
TEXT
 62
     7
100
AcDbMText
 10
9.333286590981908
 20
17.07235419446705
 30
0.0
 40
3.311188396084465
 41
0.0
 71
     7
 72
     1
  1
\fINDEX Univers 45 Light|b0|i0|c0|p34;\W1;40
 11
-4.371139000186241E-8
 21
0.999999999999999
 31
0.0
  0
MTEXT
  5
424
330
1F
100
AcDbEntity
  8
TEXT
 62
     7
100
AcDbMText
 10
9.333286590981908
 20
45.91057850681275
 30
0.0
 40
3.311188396084465
 41
0.0
 71
     7
 72
     1
  1
\fINDEX Univers 45 Light|b0|i0|c0|p34;\W1;18
 11
-4.371139000186241E-8
 21
0.999999999999999
 31
0.0
  0
MTEXT
  5
425
330
1F
100
AcDbEntity
  8
TEXT
 62
     7
100
AcDbMText
 10
-56.48358352599717
 20
8.292350303413784
 30
0.0
 40
3.311188396084465
 41
0.0
 71
     7
 72
     1
  1
\fINDEX Univers 45 Light|b0|i0|c0|p34;\W1;20
 11
-4.371139000186241E-8
 21
0.999999999999999
 31
0.0
  0
MTEXT
  5
426
330
1F
100
AcDbEntity
  8
TEXT
 62
     7
100
AcDbMText
 10
-37.08854442311235
 20
51.1576346470763
 30
0.0
 40
3.311109648563421
 41
0.0
 71
     7
 72
     1
  1
\fINDEX Univers 45 Light|b0|i0|c0|p34;\W1;30\U+00B0
 11
0.8225070701793126
 21
0.5687548852581781
 31
0.0
  0
MTEXT
  5
427
330
1F
100
AcDbEntity
  8
TEXT
 62
     7
100
AcDbMText
 10
-17.6516473824683
 20
-9.027189655187012
 30
0.0
 40
3.311188396084465
 41
0.0
 71
     7
 72
     1
  1
\fINDEX Univers 45 Light|b0|i0|c0|p34;\W1;29
  0
POLYLINE
  5
429
330
1F
100
AcDbEntity
  8
GRAU_10_
  6
AI-LINETYPE-1
 62
   250
100
AcDb2dPolyline
 66
     1
 10
0.0
 20
0.0
 30
0.0
  0
VERTEX
  5
42A
330
429
100
AcDbEntity
  8
GRAU_10_
  6
AI-LINETYPE-1
 62
   250
100
AcDbVertex
100
AcDb2dVertex
 10
-91.44374655424079
 20
19.96571954649117
 30
0.0
  0
VERTEX
  5
42B
330
429
100
AcDbEntity
  8
GRAU_10_
  6
AI-LINETYPE-1
 62
   250
100
AcDbVertex
100
AcDb2dVertex
 10
-67.10499216868095
 20
19.96571954649117
 30
0.0
  0
SEQEND
  5
42C
330
429
100
AcDbEntity
  8
GRAU_10_
  6
AI-LINETYPE-1
  0
POLYLINE
  5
42E
330
1F
100
AcDbEntity
  8
GRAU_10_
 62
   250
100
AcDb2dPolyline
 66
     1
 10
0.0
 20
0.0
 30
0.0
  0
VERTEX
  5
42F
330
42E
100
AcDbEntity
  8
GRAU_10_
 62
   250
100
AcDbVertex
100
AcDb2dVertex
 10
-69.64161764786815
 20
-0.0342787226917188
 30
0.0
  0
VERTEX
  5
430
330
42E
100
AcDbEntity
  8
GRAU_10_
 62
   250
100
AcDbVertex
100
AcDb2dVertex
 10
-89.64127140727524
 20
-0.0342787226917188
 30
0.0
  0
SEQEND
  5
431
330
42E
100
AcDbEntity
  8
GRAU_10_
  0
POLYLINE
  5
432
330
1F
100
AcDbEntity
  8
GRAU_10_
 62
   250
100
AcDb2dPolyline
 66
     1
 10
0.0
 20
0.0
 30
0.0
  0
VERTEX
  5
433
330
432
100
AcDbEntity
  8
GRAU_10_
 62
   250
100
AcDbVertex
100
AcDb2dVertex
 10
-75.44161197828454
 20
10.71597657613983
 30
0.0
  0
VERTEX
  5
434
330
432
100
AcDbEntity
  8
GRAU_10_
 62
   250
100
AcDbVertex
100
AcDb2dVertex
 10
-75.44161197828454
 20
13.8663462209079
 30
0.0
  0
SEQEND
  5
435
330
432
100
AcDbEntity
  8
GRAU_10_
  0
SPLINE
  5
436
330
1F
100
AcDbEntity
  8
GRAU_10_
 62
   250
100
AcDbSpline
210
0.0
220
0.0
230
1.0
 70
    11
 71
     3
 72
    17
 73
    13
 74
     0
 42
0.0000000001
 43
0.0000000001
 40
0.0
 40
0.0
 40
0.0
 40
0.0
 40
1.0
 40
1.0
 40
1.0
 40
2.0
 40
2.0
 40
2.0
 40
3.0
 40
3.0
 40
3.0
 40
4.0
 40
4.0
 40
4.0
 40
4.0
 10
-72.15378293297381
 20
34.96601969443216
 30
0.0
 10
-72.15378293297381
 20
36.3468148758232
 30
0.0
 10
-73.27309519453556
 20
37.46612713738495
 30
0.0
 10
-74.65389037592661
 20
37.46612713738495
 30
0.0
 10
-76.03434104754186
 20
37.46612713738495
 30
0.0
 10
-77.1536533091036
 20
36.3468148758232
 30
0.0
 10
-77.1536533091036
 20
34.96601969443216
 30
0.0
 10
-77.1536533091036
 20
33.58522451304111
 30
0.0
 10
-76.03434104754186
 20
32.46591225147936
 30
0.0
 10
-74.65389037592661
 20
32.46591225147936
 30
0.0
 10
-73.27309519453556
 20
32.46591225147936
 30
0.0
 10
-72.15378293297381
 20
33.58522451304111
 30
0.0
 10
-72.15378293297381
 20
34.96601969443216
 30
0.0
  0
POLYLINE
  5
437
330
1F
100
AcDbEntity
  8
GRAU_10_
 62
   250
100
AcDb2dPolyline
 66
     1
 10
0.0
 20
0.0
 30
0.0
  0
VERTEX
  5
438
330
437
100
AcDbEntity
  8
GRAU_10_
 62
   250
100
AcDbVertex
100
AcDb2dVertex
 10
-69.64161764786815
 20
13.8663462209079
 30
0.0
  0
VERTEX
  5
439
330
437
100
AcDbEntity
  8
GRAU_10_
 62
   250
100
AcDbVertex
100
AcDb2dVertex
 10
-69.64161764786815
 20
-0.0342787226917188
 30
0.0
  0
SEQEND
  5
43A
330
437
100
AcDbEntity
  8
GRAU_10_
  0
POLYLINE
  5
43B
330
1F
100
AcDbEntity
  8
GRAU_10_
 62
   250
100
AcDb2dPolyline
 66
     1
 10
0.0
 20
0.0
 30
0.0
  0
VERTEX
  5
43C
330
43B
100
AcDbEntity
  8
GRAU_10_
 62
   250
100
AcDbVertex
100
AcDb2dVertex
 10
-81.44124972377483
 20
10.71597657613983
 30
0.0
  0
VERTEX
  5
43D
330
43B
100
AcDbEntity
  8
GRAU_10_
 62
   250
100
AcDbVertex
100
AcDb2dVertex
 10
-75.44161197828454
 20
10.71597657613983
 30
0.0
  0
SEQEND
  5
43E
330
43B
100
AcDbEntity
  8
GRAU_10_
  0
POLYLINE
  5
43F
330
1F
100
AcDbEntity
  8
GRAU_10_
 62
   250
100
AcDb2dPolyline
 66
     1
 10
0.0
 20
0.0
 30
0.0
  0
VERTEX
  5
440
330
43F
100
AcDbEntity
  8
GRAU_10_
 62
   250
100
AcDbVertex
100
AcDb2dVertex
 10
-81.44124972377483
 20
29.2159792815062
 30
0.0
  0
VERTEX
  5
441
330
43F
100
AcDbEntity
  8
GRAU_10_
 62
   250
100
AcDbVertex
100
AcDb2dVertex
 10
-81.44124972377483
 20
10.71597657613983
 30
0.0
  0
SEQEND
  5
442
330
43F
100
AcDbEntity
  8
GRAU_10_
  0
POLYLINE
  5
443
330
1F
100
AcDbEntity
  8
GRAU_10_
 62
   250
100
AcDb2dPolyline
 66
     1
 10
0.0
 20
0.0
 30
0.0
  0
VERTEX
  5
444
330
443
100
AcDbEntity
  8
GRAU_10_
 62
   250
100
AcDbVertex
100
AcDb2dVertex
 10
-75.44161197828454
 20
29.2159792815062
 30
0.0
  0
VERTEX
  5
445
330
443
100
AcDbEntity
  8
GRAU_10_
 62
   250
100
AcDbVertex
100
AcDb2dVertex
 10
-81.44124972377483
 20
29.2159792815062
 30
0.0
  0
SEQEND
  5
446
330
443
100
AcDbEntity
  8
GRAU_10_
  0
POLYLINE
  5
447
330
1F
100
AcDbEntity
  8
GRAU_10_
 62
   250
100
AcDb2dPolyline
 66
     1
 10
0.0
 20
0.0
 30
0.0
  0
VERTEX
  5
448
330
447
100
AcDbEntity
  8
GRAU_10_
 62
   250
100
AcDbVertex
100
AcDb2dVertex
 10
-75.44161197828454
 20
26.06647091117762
 30
0.0
  0
VERTEX
  5
449
330
447
100
AcDbEntity
  8
GRAU_10_
 62
   250
100
AcDbVertex
100
AcDb2dVertex
 10
-75.44161197828454
 20
29.2159792815062
 30
0.0
  0
SEQEND
  5
44A
330
447
100
AcDbEntity
  8
GRAU_10_
  0
POLYLINE
  5
44B
330
1F
100
AcDbEntity
  8
GRAU_10_
 62
   250
100
AcDb2dPolyline
 66
     1
 10
0.0
 20
0.0
 30
0.0
  0
VERTEX
  5
44C
330
44B
100
AcDbEntity
  8
GRAU_10_
 62
   250
100
AcDbVertex
100
AcDb2dVertex
 10
-69.69122705558279
 20
26.06647091117762
 30
0.0
  0
VERTEX
  5
44D
330
44B
100
AcDbEntity
  8
GRAU_10_
 62
   250
100
AcDbVertex
100
AcDb2dVertex
 10
-75.44161197828454
 20
26.06647091117762
 30
0.0
  0
SEQEND
  5
44E
330
44B
100
AcDbEntity
  8
GRAU_10_
  0
POLYLINE
  5
44F
330
1F
100
AcDbEntity
  8
GRAU_10_
 62
   250
100
AcDb2dPolyline
 66
     1
 10
0.0
 20
0.0
 30
0.0
  0
VERTEX
  5
450
330
44F
100
AcDbEntity
  8
GRAU_10_
 62
   250
100
AcDbVertex
100
AcDb2dVertex
 10
-69.69122705558279
 20
39.96589007056195
 30
0.0
  0
VERTEX
  5
451
330
44F
100
AcDbEntity
  8
GRAU_10_
 62
   250
100
AcDbVertex
100
AcDb2dVertex
 10
-69.69122705558279
 20
26.06647091117762
 30
0.0
  0
SEQEND
  5
452
330
44F
100
AcDbEntity
  8
GRAU_10_
  0
POLYLINE
  5
453
330
1F
100
AcDbEntity
  8
GRAU_10_
 62
   250
100
AcDb2dPolyline
 66
     1
 10
0.0
 20
0.0
 30
0.0
  0
VERTEX
  5
454
330
453
100
AcDbEntity
  8
GRAU_10_
 62
   250
100
AcDbVertex
100
AcDb2dVertex
 10
-89.64127140727524
 20
39.96589007056195
 30
0.0
  0
VERTEX
  5
455
330
453
100
AcDbEntity
  8
GRAU_10_
 62
   250
100
AcDbVertex
100
AcDb2dVertex
 10
-69.69122705558279
 20
39.96589007056195
 30
0.0
  0
SEQEND
  5
456
330
453
100
AcDbEntity
  8
GRAU_10_
  0
POLYLINE
  5
457
330
1F
100
AcDbEntity
  8
GRAU_10_
 62
   250
100
AcDb2dPolyline
 66
     1
 10
0.0
 20
0.0
 30
0.0
  0
VERTEX
  5
458
330
457
100
AcDbEntity
  8
GRAU_10_
 62
   250
100
AcDbVertex
100
AcDb2dVertex
 10
-75.44161197828454
 20
13.8663462209079
 30
0.0
  0
VERTEX
  5
459
330
457
100
AcDbEntity
  8
GRAU_10_
 62
   250
100
AcDbVertex
100
AcDb2dVertex
 10
-69.64161764786815
 20
13.8663462209079
 30
0.0
  0
SEQEND
  5
45A
330
457
100
AcDbEntity
  8
GRAU_10_
  0
POLYLINE
  5
45B
330
1F
100
AcDbEntity
  8
GRAU_10_
 62
   250
100
AcDb2dPolyline
 66
     1
 10
0.0
 20
0.0
 30
0.0
  0
VERTEX
  5
45C
330
45B
100
AcDbEntity
  8
GRAU_10_
 62
   250
100
AcDbVertex
100
AcDb2dVertex
 10
-89.64127140727524
 20
-0.0342787226917188
 30
0.0
  0
VERTEX
  5
45D
330
45B
100
AcDbEntity
  8
GRAU_10_
 62
   250
100
AcDbVertex
100
AcDb2dVertex
 10
-89.64127140727524
 20
39.96589007056195
 30
0.0
  0
SEQEND
  5
45E
330
45B
100
AcDbEntity
  8
GRAU_10_
  0
SPLINE
  5
45F
330
1F
100
AcDbEntity
  8
GRAU_10_
 62
   250
100
AcDbSpline
210
0.0
220
0.0
230
1.0
 70
    11
 71
     3
 72
    17
 73
    13
 74
     0
 42
0.0000000001
 43
0.0000000001
 40
0.0
 40
0.0
 40
0.0
 40
0.0
 40
1.0
 40
1.0
 40
1.0
 40
2.0
 40
2.0
 40
2.0
 40
3.0
 40
3.0
 40
3.0
 40
4.0
 40
4.0
 40
4.0
 40
4.0
 10
-71.40361289617765
 20
34.96601969443216
 30
0.0
 10
-71.40361289617765
 20
36.761260136106
 30
0.0
 10
-72.85882218914067
 20
38.21646942906901
 30
0.0
 10
-74.65389037592661
 20
38.21646942906901
 30
0.0
 10
-76.44844179804885
 20
38.21646942906901
 30
0.0
 10
-77.90365109101187
 20
36.761260136106
 30
0.0
 10
-77.90365109101187
 20
34.96601969443216
 30
0.0
 10
-77.90365109101187
 20
33.17112376253412
 30
0.0
 10
-76.44844179804885
 20
31.7159144695711
 30
0.0
 10
-74.65389037592661
 20
31.7159144695711
 30
0.0
 10
-72.85882218914067
 20
31.7159144695711
 30
0.0
 10
-71.40361289617765
 20
33.17112376253412
 30
0.0
 10
-71.40361289617765
 20
34.96601969443216
 30
0.0
  0
POLYLINE
  5
460
330
1F
100
AcDbEntity
  8
GRAU_10_
 62
   250
100
AcDb2dPolyline
 66
     1
 10
0.0
 20
0.0
 30
0.0
  0
VERTEX
  5
461
330
460
100
AcDbEntity
  8
GRAU_10_
 62
   250
100
AcDbVertex
100
AcDb2dVertex
 10
-89.64127140727524
 20
39.96589007056195
 30
0.0
  0
VERTEX
  5
462
330
460
100
AcDbEntity
  8
GRAU_10_
 62
   250
100
AcDbVertex
100
AcDb2dVertex
 10
-89.64127140727524
 20
57.96600909124808
 30
0.0
  0
VERTEX
  5
463
330
460
100
AcDbEntity
  8
GRAU_10_
 62
   250
100
AcDbVertex
100
AcDb2dVertex
 10
-85.14145697071358
 20
57.96600909124808
 30
0.0
  0
VERTEX
  5
464
330
460
100
AcDbEntity
  8
GRAU_10_
 62
   250
100
AcDbVertex
100
AcDb2dVertex
 10
-85.14145697071358
 20
42.31613576104342
 30
0.0
  0
VERTEX
  5
465
330
460
100
AcDbEntity
  8
GRAU_10_
 62
   250
100
AcDbVertex
100
AcDb2dVertex
 10
-77.04134312219405
 20
42.31613576104342
 30
0.0
  0
VERTEX
  5
466
330
460
100
AcDbEntity
  8
GRAU_10_
 62
   250
100
AcDbVertex
100
AcDb2dVertex
 10
-77.04134312219405
 20
57.89090596012452
 30
0.0
  0
VERTEX
  5
467
330
460
100
AcDbEntity
  8
GRAU_10_
 62
   250
100
AcDbVertex
100
AcDb2dVertex
 10
-69.71637626921591
 20
57.89090596012452
 30
0.0
  0
VERTEX
  5
468
330
460
100
AcDbEntity
  8
GRAU_10_
 62
   250
100
AcDbVertex
100
AcDb2dVertex
 10
-69.71637626921591
 20
39.96589007056195
 30
0.0
  0
SEQEND
  5
469
330
460
100
AcDbEntity
  8
GRAU_10_
  0
SPLINE
  5
46A
330
1F
100
AcDbEntity
  8
GRAU_10_
 62
   250
100
AcDbSpline
210
0.0
220
0.0
230
1.0
 70
    11
 71
     3
 72
    17
 73
    13
 74
     0
 42
0.0000000001
 43
0.0000000001
 40
0.0
 40
0.0
 40
0.0
 40
0.0
 40
1.0
 40
1.0
 40
1.0
 40
2.0
 40
2.0
 40
2.0
 40
3.0
 40
3.0
 40
3.0
 40
4.0
 40
4.0
 40
4.0
 40
4.0
 10
-71.59102621421077
 20
50.96608721173363
 30
0.0
 10
-71.59102621421077
 20
51.93278164261768
 30
0.0
 10
-72.37444144437126
 20
52.71636912766606
 30
0.0
 10
-73.3411358752553
 20
52.71636912766606
 30
0.0
 10
-74.30765805125145
 20
52.71636912766606
 30
0.0
 10
-75.09124553629984
 20
51.93278164261768
 30
0.0
 10
-75.09124553629984
 20
50.96608721173363
 30
0.0
 10
-75.09124553629984
 20
49.99956503573748
 30
0.0
 10
-74.30765805125145
 20
49.21597755068909
 30
0.0
 10
-73.3411358752553
 20
49.21597755068909
 30
0.0
 10
-72.37444144437126
 20
49.21597755068909
 30
0.0
 10
-71.59102621421077
 20
49.99956503573748
 30
0.0
 10
-71.59102621421077
 20
50.96608721173363
 30
0.0
  0
POLYLINE
  5
46B
330
1F
100
AcDbEntity
  8
GRAU_10_
 62
   250
100
AcDb2dPolyline
 66
     1
 10
0.0
 20
0.0
 30
0.0
  0
VERTEX
  5
46C
330
46B
100
AcDbEntity
  8
GRAU_10_
 62
   250
100
AcDbVertex
100
AcDb2dVertex
 10
-69.69122705558279
 20
39.96589007056195
 30
0.0
  0
VERTEX
  5
46D
330
46B
100
AcDbEntity
  8
GRAU_10_
 62
   250
100
AcDbVertex
100
AcDb2dVertex
 10
-69.69122705558279
 20
26.06647091117762
 30
0.0
  0
VERTEX
  5
46E
330
46B
100
AcDbEntity
  8
GRAU_10_
 62
   250
100
AcDbVertex
100
AcDb2dVertex
 10
-69.09160779080956
 20
26.06647091117762
 30
0.0
  0
VERTEX
  5
46F
330
46B
100
AcDbEntity
  8
GRAU_10_
 62
   250
100
AcDbVertex
100
AcDb2dVertex
 10
-68.64116125895607
 20
26.51588391370373
 30
0.0
  0
VERTEX
  5
470
330
46B
100
AcDbEntity
  8
GRAU_10_
 62
   250
100
AcDbVertex
100
AcDb2dVertex
 10
-68.64116125895607
 20
26.91620427317888
 30
0.0
  0
VERTEX
  5
471
330
46B
100
AcDbEntity
  8
GRAU_10_
 62
   250
100
AcDbVertex
100
AcDb2dVertex
 10
-69.19099886112676
 20
27.46586962046166
 30
0.0
  0
VERTEX
  5
472
330
46B
100
AcDbEntity
  8
GRAU_10_
 62
   250
100
AcDbVertex
100
AcDb2dVertex
 10
-68.64116125895607
 20
28.01622398729604
 30
0.0
  0
VERTEX
  5
473
330
46B
100
AcDbEntity
  8
GRAU_10_
 62
   250
100
AcDbVertex
100
AcDb2dVertex
 10
-68.64116125895607
 20
28.4158553272196
 30
0.0
  0
VERTEX
  5
474
330
46B
100
AcDbEntity
  8
GRAU_10_
 62
   250
100
AcDbVertex
100
AcDb2dVertex
 10
-69.19099886112676
 20
28.96620969405398
 30
0.0
  0
VERTEX
  5
475
330
46B
100
AcDbEntity
  8
GRAU_10_
 62
   250
100
AcDbVertex
100
AcDb2dVertex
 10
-68.64116125895607
 20
29.51621955111256
 30
0.0
  0
VERTEX
  5
476
330
46B
100
AcDbEntity
  8
GRAU_10_
 62
   250
100
AcDbVertex
100
AcDb2dVertex
 10
-68.64116125895607
 20
29.91619540081192
 30
0.0
  0
VERTEX
  5
477
330
46B
100
AcDbEntity
  8
GRAU_10_
 62
   250
100
AcDbVertex
100
AcDb2dVertex
 10
-69.19099886112676
 20
30.4658607480947
 30
0.0
  0
VERTEX
  5
478
330
46B
100
AcDbEntity
  8
GRAU_10_
 62
   250
100
AcDbVertex
100
AcDb2dVertex
 10
-68.64116125895607
 20
31.01587060515329
 30
0.0
  0
VERTEX
  5
479
330
46B
100
AcDbEntity
  8
GRAU_10_
 62
   250
100
AcDbVertex
100
AcDb2dVertex
 10
-68.64116125895607
 20
31.41584645485264
 30
0.0
  0
VERTEX
  5
47A
330
46B
100
AcDbEntity
  8
GRAU_10_
 62
   250
100
AcDbVertex
100
AcDb2dVertex
 10
-69.19099886112676
 20
31.96637307657491
 30
0.0
  0
VERTEX
  5
47B
330
46B
100
AcDbEntity
  8
GRAU_10_
 62
   250
100
AcDbVertex
100
AcDb2dVertex
 10
-68.64116125895607
 20
32.5162106787456
 30
0.0
  0
VERTEX
  5
47C
330
46B
100
AcDbEntity
  8
GRAU_10_
 62
   250
100
AcDbVertex
100
AcDb2dVertex
 10
-68.64116125895607
 20
32.91635878333285
 30
0.0
  0
VERTEX
  5
47D
330
46B
100
AcDbEntity
  8
GRAU_10_
 62
   250
100
AcDbVertex
100
AcDb2dVertex
 10
-69.19099886112676
 20
33.46636864039144
 30
0.0
  0
VERTEX
  5
47E
330
46B
100
AcDbEntity
  8
GRAU_10_
 62
   250
100
AcDbVertex
100
AcDb2dVertex
 10
-68.64116125895607
 20
34.01586173278633
 30
0.0
  0
VERTEX
  5
47F
330
46B
100
AcDbEntity
  8
GRAU_10_
 62
   250
100
AcDbVertex
100
AcDb2dVertex
 10
-68.64116125895607
 20
34.41600983737357
 30
0.0
  0
VERTEX
  5
480
330
46B
100
AcDbEntity
  8
GRAU_10_
 62
   250
100
AcDbVertex
100
AcDb2dVertex
 10
-69.19099886112676
 20
34.96601969443216
 30
0.0
  0
VERTEX
  5
481
330
46B
100
AcDbEntity
  8
GRAU_10_
 62
   250
100
AcDbVertex
100
AcDb2dVertex
 10
-68.64116125895607
 20
35.51620180637864
 30
0.0
  0
VERTEX
  5
482
330
46B
100
AcDbEntity
  8
GRAU_10_
 62
   250
100
AcDbVertex
100
AcDb2dVertex
 10
-68.64116125895607
 20
35.91600540119009
 30
0.0
  0
VERTEX
  5
483
330
46B
100
AcDbEntity
  8
GRAU_10_
 62
   250
100
AcDbVertex
100
AcDb2dVertex
 10
-69.19099886112676
 20
36.46635976802447
 30
0.0
  0
VERTEX
  5
484
330
46B
100
AcDbEntity
  8
GRAU_10_
 62
   250
100
AcDbVertex
100
AcDb2dVertex
 10
-68.64116125895607
 20
37.01585286041936
 30
0.0
  0
VERTEX
  5
485
330
46B
100
AcDbEntity
  8
GRAU_10_
 62
   250
100
AcDbVertex
100
AcDb2dVertex
 10
-68.64116125895607
 20
37.41634547478241
 30
0.0
  0
VERTEX
  5
486
330
46B
100
AcDbEntity
  8
GRAU_10_
 62
   250
100
AcDbVertex
100
AcDb2dVertex
 10
-69.19099886112676
 20
37.96601082206519
 30
0.0
  0
VERTEX
  5
487
330
46B
100
AcDbEntity
  8
GRAU_10_
 62
   250
100
AcDbVertex
100
AcDb2dVertex
 10
-68.64116125895607
 20
38.51584842423588
 30
0.0
  0
VERTEX
  5
488
330
46B
100
AcDbEntity
  8
GRAU_10_
 62
   250
100
AcDbVertex
100
AcDb2dVertex
 10
-68.64116125895607
 20
38.91599652882313
 30
0.0
  0
VERTEX
  5
489
330
46B
100
AcDbEntity
  8
GRAU_10_
 62
   250
100
AcDbVertex
100
AcDb2dVertex
 10
-69.69122705558279
 20
39.96589007056195
 30
0.0
  0
SEQEND
  5
48A
330
46B
100
AcDbEntity
  8
GRAU_10_
  0
POLYLINE
  5
48B
330
1F
100
AcDbEntity
  8
GRAU_10_
 62
   250
100
AcDb2dPolyline
 66
     1
 10
0.0
 20
0.0
 30
0.0
  0
VERTEX
  5
48C
330
48B
100
AcDbEntity
  8
GRAU_10_
 62
   250
100
AcDbVertex
100
AcDb2dVertex
 10
-69.64161764786815
 20
-0.0342787226917188
 30
0.0
  0
VERTEX
  5
48D
330
48B
100
AcDbEntity
  8
GRAU_10_
 62
   250
100
AcDbVertex
100
AcDb2dVertex
 10
-69.64161764786815
 20
13.8663462209079
 30
0.0
  0
SEQEND
  5
48E
330
48B
100
AcDbEntity
  8
GRAU_10_
  0
POLYLINE
  5
48F
330
1F
100
AcDbEntity
  8
GRAU_10_
 62
   250
100
AcDb2dPolyline
 66
     1
 10
0.0
 20
0.0
 30
0.0
  0
VERTEX
  5
490
330
48F
100
AcDbEntity
  8
GRAU_10_
 62
   250
100
AcDbVertex
100
AcDb2dVertex
 10
-69.09160779080956
 20
13.8663462209079
 30
0.0
  0
VERTEX
  5
491
330
48F
100
AcDbEntity
  8
GRAU_10_
 62
   250
100
AcDbVertex
100
AcDb2dVertex
 10
-68.64116125895607
 20
13.41589968905441
 30
0.0
  0
SEQEND
  5
492
330
48F
100
AcDbEntity
  8
GRAU_10_
  0
POLYLINE
  5
493
330
1F
100
AcDbEntity
  8
GRAU_10_
 62
   250
100
AcDb2dPolyline
 66
     1
 10
0.0
 20
0.0
 30
0.0
  0
VERTEX
  5
494
330
493
100
AcDbEntity
  8
GRAU_10_
 62
   250
100
AcDbVertex
100
AcDb2dVertex
 10
-69.64161764786815
 20
13.8663462209079
 30
0.0
  0
VERTEX
  5
495
330
493
100
AcDbEntity
  8
GRAU_10_
 62
   250
100
AcDbVertex
100
AcDb2dVertex
 10
-69.09160779080956
 20
13.8663462209079
 30
0.0
  0
SEQEND
  5
496
330
493
100
AcDbEntity
  8
GRAU_10_
  0
POLYLINE
  5
497
330
1F
100
AcDbEntity
  8
GRAU_10_
 62
   250
100
AcDb2dPolyline
 66
     1
 10
0.0
 20
0.0
 30
0.0
  0
VERTEX
  5
498
330
497
100
AcDbEntity
  8
GRAU_10_
 62
   250
100
AcDbVertex
100
AcDb2dVertex
 10
-68.64116125895607
 20
13.41589968905441
 30
0.0
  0
VERTEX
  5
499
330
497
100
AcDbEntity
  8
GRAU_10_
 62
   250
100
AcDbVertex
100
AcDb2dVertex
 10
-68.64116125895607
 20
13.01575158446716
 30
0.0
  0
VERTEX
  5
49A
330
497
100
AcDbEntity
  8
GRAU_10_
 62
   250
100
AcDbVertex
100
AcDb2dVertex
 10
-69.19099886112676
 20
12.46574172740857
 30
0.0
  0
VERTEX
  5
49B
330
497
100
AcDbEntity
  8
GRAU_10_
 62
   250
100
AcDbVertex
100
AcDb2dVertex
 10
-68.64116125895607
 20
11.91607638012579
 30
0.0
  0
VERTEX
  5
49C
330
497
100
AcDbEntity
  8
GRAU_10_
 62
   250
100
AcDbVertex
100
AcDb2dVertex
 10
-68.64116125895607
 20
11.51610053042644
 30
0.0
  0
VERTEX
  5
49D
330
497
100
AcDbEntity
  8
GRAU_10_
 62
   250
100
AcDbVertex
100
AcDb2dVertex
 10
-69.19099886112676
 20
10.96609067336785
 30
0.0
  0
VERTEX
  5
49E
330
497
100
AcDbEntity
  8
GRAU_10_
 62
   250
100
AcDbVertex
100
AcDb2dVertex
 10
-68.64116125895607
 20
10.41573630653347
 30
0.0
  0
VERTEX
  5
49F
330
497
100
AcDbEntity
  8
GRAU_10_
 62
   250
100
AcDbVertex
100
AcDb2dVertex
 10
-68.64116125895607
 20
10.01644947638571
 30
0.0
  0
VERTEX
  5
4A0
330
497
100
AcDbEntity
  8
GRAU_10_
 62
   250
100
AcDbVertex
100
AcDb2dVertex
 10
-69.19099886112676
 20
9.465750599775536
 30
0.0
  0
VERTEX
  5
4A1
330
497
100
AcDbEntity
  8
GRAU_10_
 62
   250
100
AcDbVertex
100
AcDb2dVertex
 10
-68.64116125895607
 20
8.916085252492747
 30
0.0
  0
VERTEX
  5
4A2
330
497
100
AcDbEntity
  8
GRAU_10_
 62
   250
100
AcDbVertex
100
AcDb2dVertex
 10
-68.64116125895607
 20
8.516109402793395
 30
0.0
  0
VERTEX
  5
4A3
330
497
100
AcDbEntity
  8
GRAU_10_
 62
   250
100
AcDbVertex
100
AcDb2dVertex
 10
-69.19099886112676
 20
7.966099545734812
 30
0.0
  0
VERTEX
  5
4A4
330
497
100
AcDbEntity
  8
GRAU_10_
 62
   250
100
AcDbVertex
100
AcDb2dVertex
 10
-68.64116125895607
 20
7.416089688676228
 30
0.0
  0
VERTEX
  5
4A5
330
497
100
AcDbEntity
  8
GRAU_10_
 62
   250
100
AcDbVertex
100
AcDb2dVertex
 10
-68.64116125895607
 20
7.016458348752673
 30
0.0
  0
VERTEX
  5
4A6
330
497
100
AcDbEntity
  8
GRAU_10_
 62
   250
100
AcDbVertex
100
AcDb2dVertex
 10
-69.19099886112676
 20
6.46644849169409
 30
0.0
  0
VERTEX
  5
4A7
330
497
100
AcDbEntity
  8
GRAU_10_
 62
   250
100
AcDbVertex
100
AcDb2dVertex
 10
-68.64116125895607
 20
5.915749615083914
 30
0.0
  0
VERTEX
  5
4A8
330
497
100
AcDbEntity
  8
GRAU_10_
 62
   250
100
AcDbVertex
100
AcDb2dVertex
 10
-68.64116125895607
 20
5.516118275160357
 30
0.0
  0
VERTEX
  5
4A9
330
497
100
AcDbEntity
  8
GRAU_10_
 62
   250
100
AcDbVertex
100
AcDb2dVertex
 10
-69.19099886112676
 20
4.966108418101774
 30
0.0
  0
VERTEX
  5
4AA
330
497
100
AcDbEntity
  8
GRAU_10_
 62
   250
100
AcDbVertex
100
AcDb2dVertex
 10
-68.64116125895607
 20
4.41609856104319
 30
0.0
  0
VERTEX
  5
4AB
330
497
100
AcDbEntity
  8
GRAU_10_
 62
   250
100
AcDbVertex
100
AcDb2dVertex
 10
-68.64116125895607
 20
4.01595045645594
 30
0.0
  0
VERTEX
  5
4AC
330
497
100
AcDbEntity
  8
GRAU_10_
 62
   250
100
AcDbVertex
100
AcDb2dVertex
 10
-69.19099886112676
 20
3.466457364061051
 30
0.0
  0
VERTEX
  5
4AD
330
497
100
AcDbEntity
  8
GRAU_10_
 62
   250
100
AcDbVertex
100
AcDb2dVertex
 10
-68.64116125895607
 20
2.916447507002467
 30
0.0
  0
VERTEX
  5
4AE
330
497
100
AcDbEntity
  8
GRAU_10_
 62
   250
100
AcDbVertex
100
AcDb2dVertex
 10
-68.64116125895607
 20
2.516299402415217
 30
0.0
  0
VERTEX
  5
4AF
330
497
100
AcDbEntity
  8
GRAU_10_
 62
   250
100
AcDbVertex
100
AcDb2dVertex
 10
-69.19099886112676
 20
1.966117290468736
 30
0.0
  0
VERTEX
  5
4B0
330
497
100
AcDbEntity
  8
GRAU_10_
 62
   250
100
AcDbVertex
100
AcDb2dVertex
 10
-68.64116125895607
 20
1.416107433410152
 30
0.0
  0
VERTEX
  5
4B1
330
497
100
AcDbEntity
  8
GRAU_10_
 62
   250
100
AcDbVertex
100
AcDb2dVertex
 10
-68.64116125895607
 20
0.9663499211082536
 30
0.0
  0
VERTEX
  5
4B2
330
497
100
AcDbEntity
  8
GRAU_10_
 62
   250
100
AcDbVertex
100
AcDb2dVertex
 10
-69.64161764786815
 20
-0.0342787226917188
 30
0.0
  0
SEQEND
  5
4B3
330
497
100
AcDbEntity
  8
GRAU_10_
  0
POLYLINE
  5
4B4
330
1F
100
AcDbEntity
  8
GRAU_10_
 62
   250
100
AcDb2dPolyline
 66
     1
 10
0.0
 20
0.0
 30
0.0
  0
VERTEX
  5
4B5
330
4B4
100
AcDbEntity
  8
GRAU_10_
 62
   250
100
AcDbVertex
100
AcDb2dVertex
 10
-89.64127140727524
 20
-58.92099018975507
 30
0.0
  0
VERTEX
  5
4B6
330
4B4
100
AcDbEntity
  8
GRAU_10_
 62
   250
100
AcDbVertex
100
AcDb2dVertex
 10
-69.69122705558279
 20
-58.92099018975507
 30
0.0
  0
SEQEND
  5
4B7
330
4B4
100
AcDbEntity
  8
GRAU_10_
  0
POLYLINE
  5
4B8
330
1F
100
AcDbEntity
  8
GRAU_10_
 62
   250
100
AcDb2dPolyline
 66
     1
 10
0.0
 20
0.0
 30
0.0
  0
VERTEX
  5
4B9
330
4B8
100
AcDbEntity
  8
GRAU_10_
 62
   250
100
AcDbVertex
100
AcDb2dVertex
 10
-69.71637626921591
 20
-29.92119079256096
 30
0.0
  0
VERTEX
  5
4BA
330
4B8
100
AcDbEntity
  8
GRAU_10_
 62
   250
100
AcDbVertex
100
AcDb2dVertex
 10
-69.69122705558279
 20
-29.92119079256096
 30
0.0
  0
SEQEND
  5
4BB
330
4B8
100
AcDbEntity
  8
GRAU_10_
  0
POLYLINE
  5
4BC
330
1F
100
AcDbEntity
  8
GRAU_10_
 62
   250
100
AcDb2dPolyline
 66
     1
 10
0.0
 20
0.0
 30
0.0
  0
VERTEX
  5
4BD
330
4BC
100
AcDbEntity
  8
GRAU_10_
 62
   250
100
AcDbVertex
100
AcDb2dVertex
 10
-89.64127140727524
 20
-53.92111981362527
 30
0.0
  0
VERTEX
  5
4BE
330
4BC
100
AcDbEntity
  8
GRAU_10_
 62
   250
100
AcDbVertex
100
AcDb2dVertex
 10
-89.64127140727524
 20
-58.92099018975507
 30
0.0
  0
SEQEND
  5
4BF
330
4BC
100
AcDbEntity
  8
GRAU_10_
  0
POLYLINE
  5
4C0
330
1F
100
AcDbEntity
  8
GRAU_10_
 62
   250
100
AcDb2dPolyline
 66
     1
 10
0.0
 20
0.0
 30
0.0
  0
VERTEX
  5
4C1
330
4C0
100
AcDbEntity
  8
GRAU_10_
 62
   250
100
AcDbVertex
100
AcDb2dVertex
 10
-69.69122705558279
 20
-29.92119079256096
 30
0.0
  0
VERTEX
  5
4C2
330
4C0
100
AcDbEntity
  8
GRAU_10_
 62
   250
100
AcDbVertex
100
AcDb2dVertex
 10
-69.69122705558279
 20
-58.92099018975507
 30
0.0
  0
SEQEND
  5
4C3
330
4C0
100
AcDbEntity
  8
GRAU_10_
  0
POLYLINE
  5
4C4
330
1F
100
AcDbEntity
  8
GRAU_10_
 62
   250
100
AcDb2dPolyline
 66
     1
 10
0.0
 20
0.0
 30
0.0
  0
VERTEX
  5
4C5
330
4C4
100
AcDbEntity
  8
GRAU_10_
 62
   250
100
AcDbVertex
100
AcDb2dVertex
 10
-89.64127140727524
 20
-38.00442366206646
 30
0.0
  0
VERTEX
  5
4C6
330
4C4
100
AcDbEntity
  8
GRAU_10_
 62
   250
100
AcDbVertex
100
AcDb2dVertex
 10
-89.64127140727524
 20
-53.92111981362527
 30
0.0
  0
SEQEND
  5
4C7
330
4C4
100
AcDbEntity
  8
GRAU_10_
  0
POLYLINE
  5
4C8
330
1F
100
AcDbEntity
  8
GRAU_10_
 62
   250
100
AcDb2dPolyline
 66
     1
 10
0.0
 20
0.0
 30
0.0
  0
VERTEX
  5
4C9
330
4C8
100
AcDbEntity
  8
GRAU_10_
 62
   250
100
AcDbVertex
100
AcDb2dVertex
 10
-89.64127140727524
 20
-38.00442366206646
 30
0.0
  0
VERTEX
  5
4CA
330
4C8
100
AcDbEntity
  8
GRAU_10_
 62
   250
100
AcDbVertex
100
AcDb2dVertex
 10
-89.64127140727524
 20
-29.92119079256096
 30
0.0
  0
SEQEND
  5
4CB
330
4C8
100
AcDbEntity
  8
GRAU_10_
  0
POLYLINE
  5
4CC
330
1F
100
AcDbEntity
  8
GRAU_10_
 62
   250
100
AcDb2dPolyline
 66
     1
 10
0.0
 20
0.0
 30
0.0
  0
VERTEX
  5
4CD
330
4CC
100
AcDbEntity
  8
GRAU_10_
 62
   250
100
AcDbVertex
100
AcDb2dVertex
 10
-85.14145697071358
 20
-38.00442366206646
 30
0.0
  0
VERTEX
  5
4CE
330
4CC
100
AcDbEntity
  8
GRAU_10_
 62
   250
100
AcDbVertex
100
AcDb2dVertex
 10
-85.14145697071358
 20
-53.92111981362527
 30
0.0
  0
SEQEND
  5
4CF
330
4CC
100
AcDbEntity
  8
GRAU_10_
  0
POLYLINE
  5
4D0
330
1F
100
AcDbEntity
  8
GRAU_10_
 62
   250
100
AcDb2dPolyline
 66
     1
 10
0.0
 20
0.0
 30
0.0
  0
VERTEX
  5
4D1
330
4D0
100
AcDbEntity
  8
GRAU_10_
 62
   250
100
AcDbVertex
100
AcDb2dVertex
 10
-85.14145697071358
 20
-38.00442366206646
 30
0.0
  0
VERTEX
  5
4D2
330
4D0
100
AcDbEntity
  8
GRAU_10_
 62
   250
100
AcDbVertex
100
AcDb2dVertex
 10
-89.64127140727524
 20
-38.00442366206646
 30
0.0
  0
SEQEND
  5
4D3
330
4D0
100
AcDbEntity
  8
GRAU_10_
  0
POLYLINE
  5
4D4
330
1F
100
AcDbEntity
  8
GRAU_10_
 62
   250
100
AcDb2dPolyline
 66
     1
 10
0.0
 20
0.0
 30
0.0
  0
VERTEX
  5
4D5
330
4D4
100
AcDbEntity
  8
GRAU_10_
 62
   250
100
AcDbVertex
100
AcDb2dVertex
 10
-89.64127140727524
 20
-53.92111981362527
 30
0.0
  0
VERTEX
  5
4D6
330
4D4
100
AcDbEntity
  8
GRAU_10_
 62
   250
100
AcDbVertex
100
AcDb2dVertex
 10
-85.14145697071358
 20
-53.92111981362527
 30
0.0
  0
SEQEND
  5
4D7
330
4D4
100
AcDbEntity
  8
GRAU_10_
  0
POLYLINE
  5
4D8
330
1F
100
AcDbEntity
  8
GRAU_10_
 62
   250
100
AcDb2dPolyline
 66
     1
 10
0.0
 20
0.0
 30
0.0
  0
VERTEX
  5
4D9
330
4D8
100
AcDbEntity
  8
GRAU_10_
 62
   250
100
AcDbVertex
100
AcDb2dVertex
 10
-85.14145697071358
 20
-29.92119079256096
 30
0.0
  0
VERTEX
  5
4DA
330
4D8
100
AcDbEntity
  8
GRAU_10_
 62
   250
100
AcDbVertex
100
AcDb2dVertex
 10
-85.14145697071358
 20
-38.00442366206646
 30
0.0
  0
SEQEND
  5
4DB
330
4D8
100
AcDbEntity
  8
GRAU_10_
  0
POLYLINE
  5
4DC
330
1F
100
AcDbEntity
  8
GRAU_10_
 62
   250
100
AcDb2dPolyline
 66
     1
 10
0.0
 20
0.0
 30
0.0
  0
VERTEX
  5
4DD
330
4DC
100
AcDbEntity
  8
GRAU_10_
 62
   250
100
AcDbVertex
100
AcDb2dVertex
 10
-85.14145697071358
 20
-53.92111981362527
 30
0.0
  0
VERTEX
  5
4DE
330
4DC
100
AcDbEntity
  8
GRAU_10_
 62
   250
100
AcDbVertex
100
AcDb2dVertex
 10
-77.04134312219405
 20
-53.92111981362527
 30
0.0
  0
SEQEND
  5
4DF
330
4DC
100
AcDbEntity
  8
GRAU_10_
  0
POLYLINE
  5
4E0
330
1F
100
AcDbEntity
  8
GRAU_10_
 62
   250
100
AcDb2dPolyline
 66
     1
 10
0.0
 20
0.0
 30
0.0
  0
VERTEX
  5
4E1
330
4E0
100
AcDbEntity
  8
GRAU_10_
 62
   250
100
AcDbVertex
100
AcDb2dVertex
 10
-85.14145697071358
 20
-29.92119079256096
 30
0.0
  0
VERTEX
  5
4E2
330
4E0
100
AcDbEntity
  8
GRAU_10_
 62
   250
100
AcDbVertex
100
AcDb2dVertex
 10
-77.04134312219405
 20
-29.92119079256096
 30
0.0
  0
SEQEND
  5
4E3
330
4E0
100
AcDbEntity
  8
GRAU_10_
  0
POLYLINE
  5
4E4
330
1F
100
AcDbEntity
  8
GRAU_10_
 62
   250
100
AcDb2dPolyline
 66
     1
 10
0.0
 20
0.0
 30
0.0
  0
VERTEX
  5
4E5
330
4E4
100
AcDbEntity
  8
GRAU_10_
 62
   250
100
AcDbVertex
100
AcDb2dVertex
 10
-77.04134312219405
 20
-38.00442366206646
 30
0.0
  0
VERTEX
  5
4E6
330
4E4
100
AcDbEntity
  8
GRAU_10_
 62
   250
100
AcDbVertex
100
AcDb2dVertex
 10
-77.04134312219405
 20
-53.92111981362527
 30
0.0
  0
SEQEND
  5
4E7
330
4E4
100
AcDbEntity
  8
GRAU_10_
  0
POLYLINE
  5
4E8
330
1F
100
AcDbEntity
  8
GRAU_10_
 62
   250
100
AcDb2dPolyline
 66
     1
 10
0.0
 20
0.0
 30
0.0
  0
VERTEX
  5
4E9
330
4E8
100
AcDbEntity
  8
GRAU_10_
 62
   250
100
AcDbVertex
100
AcDb2dVertex
 10
-77.04134312219405
 20
-38.00442366206646
 30
0.0
  0
VERTEX
  5
4EA
330
4E8
100
AcDbEntity
  8
GRAU_10_
 62
   250
100
AcDbVertex
100
AcDb2dVertex
 10
-77.04134312219405
 20
-29.92119079256096
 30
0.0
  0
SEQEND
  5
4EB
330
4E8
100
AcDbEntity
  8
GRAU_10_
  0
POLYLINE
  5
4EC
330
1F
100
AcDbEntity
  8
GRAU_10_
 62
   250
100
AcDb2dPolyline
 66
     1
 10
0.0
 20
0.0
 30
0.0
  0
VERTEX
  5
4ED
330
4EC
100
AcDbEntity
  8
GRAU_10_
 62
   250
100
AcDbVertex
100
AcDb2dVertex
 10
-69.71637626921591
 20
-38.00442366206646
 30
0.0
  0
VERTEX
  5
4EE
330
4EC
100
AcDbEntity
  8
GRAU_10_
 62
   250
100
AcDbVertex
100
AcDb2dVertex
 10
-69.71637626921591
 20
-53.92111981362527
 30
0.0
  0
SEQEND
  5
4EF
330
4EC
100
AcDbEntity
  8
GRAU_10_
  0
POLYLINE
  5
4F0
330
1F
100
AcDbEntity
  8
GRAU_10_
 62
   250
100
AcDb2dPolyline
 66
     1
 10
0.0
 20
0.0
 30
0.0
  0
VERTEX
  5
4F1
330
4F0
100
AcDbEntity
  8
GRAU_10_
 62
   250
100
AcDbVertex
100
AcDb2dVertex
 10
-69.71637626921591
 20
-38.00442366206646
 30
0.0
  0
VERTEX
  5
4F2
330
4F0
100
AcDbEntity
  8
GRAU_10_
 62
   250
100
AcDbVertex
100
AcDb2dVertex
 10
-77.04134312219405
 20
-38.00442366206646
 30
0.0
  0
SEQEND
  5
4F3
330
4F0
100
AcDbEntity
  8
GRAU_10_
  0
POLYLINE
  5
4F4
330
1F
100
AcDbEntity
  8
GRAU_10_
 62
   250
100
AcDb2dPolyline
 66
     1
 10
0.0
 20
0.0
 30
0.0
  0
VERTEX
  5
4F5
330
4F4
100
AcDbEntity
  8
GRAU_10_
 62
   250
100
AcDbVertex
100
AcDb2dVertex
 10
-77.04134312219405
 20
-53.92111981362527
 30
0.0
  0
VERTEX
  5
4F6
330
4F4
100
AcDbEntity
  8
GRAU_10_
 62
   250
100
AcDbVertex
100
AcDb2dVertex
 10
-69.71637626921591
 20
-53.92111981362527
 30
0.0
  0
SEQEND
  5
4F7
330
4F4
100
AcDbEntity
  8
GRAU_10_
  0
POLYLINE
  5
4F8
330
1F
100
AcDbEntity
  8
GRAU_10_
 62
   250
100
AcDb2dPolyline
 66
     1
 10
0.0
 20
0.0
 30
0.0
  0
VERTEX
  5
4F9
330
4F8
100
AcDbEntity
  8
GRAU_10_
 62
   250
100
AcDbVertex
100
AcDb2dVertex
 10
-69.71637626921591
 20
-29.92119079256096
 30
0.0
  0
VERTEX
  5
4FA
330
4F8
100
AcDbEntity
  8
GRAU_10_
 62
   250
100
AcDbVertex
100
AcDb2dVertex
 10
-69.71637626921591
 20
-38.00442366206646
 30
0.0
  0
SEQEND
  5
4FB
330
4F8
100
AcDbEntity
  8
GRAU_10_
  0
POLYLINE
  5
4FC
330
1F
100
AcDbEntity
  8
GRAU_10_
 62
   250
100
AcDb2dPolyline
 66
     1
 10
0.0
 20
0.0
 30
0.0
  0
VERTEX
  5
4FD
330
4FC
100
AcDbEntity
  8
GRAU_10_
 62
   250
100
AcDbVertex
100
AcDb2dVertex
 10
-89.64127140727524
 20
-29.92119079256096
 30
0.0
  0
VERTEX
  5
4FE
330
4FC
100
AcDbEntity
  8
GRAU_10_
 62
   250
100
AcDbVertex
100
AcDb2dVertex
 10
-85.14145697071358
 20
-29.92119079256096
 30
0.0
  0
SEQEND
  5
4FF
330
4FC
100
AcDbEntity
  8
GRAU_10_
  0
POLYLINE
  5
500
330
1F
100
AcDbEntity
  8
GRAU_10_
 62
   250
100
AcDb2dPolyline
 66
     1
 10
0.0
 20
0.0
 30
0.0
  0
VERTEX
  5
501
330
500
100
AcDbEntity
  8
GRAU_10_
 62
   250
100
AcDbVertex
100
AcDb2dVertex
 10
-77.04134312219405
 20
-29.92119079256096
 30
0.0
  0
VERTEX
  5
502
330
500
100
AcDbEntity
  8
GRAU_10_
 62
   250
100
AcDbVertex
100
AcDb2dVertex
 10
-69.71637626921591
 20
-29.92119079256096
 30
0.0
  0
SEQEND
  5
503
330
500
100
AcDbEntity
  8
GRAU_10_
  0
POLYLINE
  5
504
330
1F
100
AcDbEntity
  8
GRAU_10_
 62
   250
100
AcDb2dPolyline
 66
     1
 10
0.0
 20
0.0
 30
0.0
  0
VERTEX
  5
505
330
504
100
AcDbEntity
  8
GRAU_10_
 62
   250
100
AcDbVertex
100
AcDb2dVertex
 10
-69.69122705558279
 20
-29.92119079256096
 30
0.0
  0
VERTEX
  5
506
330
504
100
AcDbEntity
  8
GRAU_10_
 62
   250
100
AcDbVertex
100
AcDb2dVertex
 10
-69.69122705558279
 20
-58.92099018975507
 30
0.0
  0
SEQEND
  5
507
330
504
100
AcDbEntity
  8
GRAU_10_
  0
POLYLINE
  5
508
330
1F
100
AcDbEntity
  8
GRAU_10_
 62
   250
100
AcDb2dPolyline
 66
     1
 10
0.0
 20
0.0
 30
0.0
  0
VERTEX
  5
509
330
508
100
AcDbEntity
  8
GRAU_10_
 62
   250
100
AcDbVertex
100
AcDb2dVertex
 10
-68.64116125895607
 20
-29.92119079256096
 30
0.0
  0
VERTEX
  5
50A
330
508
100
AcDbEntity
  8
GRAU_10_
 62
   250
100
AcDbVertex
100
AcDb2dVertex
 10
-68.64116125895607
 20
-58.92099018975507
 30
0.0
  0
VERTEX
  5
50B
330
508
100
AcDbEntity
  8
GRAU_10_
 62
   250
100
AcDbVertex
100
AcDb2dVertex
 10
-69.69122705558279
 20
-58.92099018975507
 30
0.0
  0
SEQEND
  5
50C
330
508
100
AcDbEntity
  8
GRAU_10_
  0
POLYLINE
  5
50D
330
1F
100
AcDbEntity
  8
GRAU_10_
 62
   250
100
AcDb2dPolyline
 66
     1
 10
0.0
 20
0.0
 30
0.0
  0
VERTEX
  5
50E
330
50D
100
AcDbEntity
  8
GRAU_10_
 62
   250
100
AcDbVertex
100
AcDb2dVertex
 10
-68.64116125895607
 20
-29.92119079256096
 30
0.0
  0
VERTEX
  5
50F
330
50D
100
AcDbEntity
  8
GRAU_10_
 62
   250
100
AcDbVertex
100
AcDb2dVertex
 10
-69.69122705558279
 20
-29.92119079256096
 30
0.0
  0
SEQEND
  5
510
330
50D
100
AcDbEntity
  8
GRAU_10_
  0
POLYLINE
  5
511
330
1F
100
AcDbEntity
  8
GRAU_10_
 62
   250
100
AcDb2dPolyline
 66
     1
 10
0.0
 20
0.0
 30
0.0
  0
VERTEX
  5
512
330
511
100
AcDbEntity
  8
GRAU_10_
 62
   250
100
AcDbVertex
100
AcDb2dVertex
 10
0.1677762608127342
 20
-0.0342787226917188
 30
0.0
  0
VERTEX
  5
513
330
511
100
AcDbEntity
  8
GRAU_10_
 62
   250
100
AcDbVertex
100
AcDb2dVertex
 10
0.1677762608127342
 20
39.96589007056195
 30
0.0
  0
SEQEND
  5
514
330
511
100
AcDbEntity
  8
GRAU_10_
  0
POLYLINE
  5
515
330
1F
100
AcDbEntity
  8
GRAU_10_
 62
   250
100
AcDb2dPolyline
 66
     1
 10
0.0
 20
0.0
 30
0.0
  0
VERTEX
  5
516
330
515
100
AcDbEntity
  8
GRAU_10_
 62
   250
100
AcDbVertex
100
AcDb2dVertex
 10
-28.83202313638137
 20
-0.0342787226917188
 30
0.0
  0
VERTEX
  5
517
330
515
100
AcDbEntity
  8
GRAU_10_
 62
   250
100
AcDbVertex
100
AcDb2dVertex
 10
-28.83202313638137
 20
39.96589007056195
 30
0.0
  0
SEQEND
  5
518
330
515
100
AcDbEntity
  8
GRAU_10_
  0
POLYLINE
  5
519
330
1F
100
AcDbEntity
  8
GRAU_10_
 62
   250
100
AcDb2dPolyline
 66
     1
 10
0.0
 20
0.0
 30
0.0
  0
VERTEX
  5
51A
330
519
100
AcDbEntity
  8
GRAU_10_
 62
   250
100
AcDbVertex
100
AcDb2dVertex
 10
-28.83202313638137
 20
-0.0342787226917188
 30
0.0
  0
VERTEX
  5
51B
330
519
100
AcDbEntity
  8
GRAU_10_
 62
   250
100
AcDbVertex
100
AcDb2dVertex
 10
0.1677762608127342
 20
-0.0342787226917188
 30
0.0
  0
SEQEND
  5
51C
330
519
100
AcDbEntity
  8
GRAU_10_
  0
POLYLINE
  5
51D
330
1F
100
AcDbEntity
  8
GRAU_10_
 62
   250
100
AcDb2dPolyline
 66
     1
 10
0.0
 20
0.0
 30
0.0
  0
VERTEX
  5
51E
330
51D
100
AcDbEntity
  8
GRAU_10_
 62
   250
100
AcDbVertex
100
AcDb2dVertex
 10
-28.83202313638137
 20
39.96589007056195
 30
0.0
  0
VERTEX
  5
51F
330
51D
100
AcDbEntity
  8
GRAU_10_
 62
   250
100
AcDbVertex
100
AcDb2dVertex
 10
0.1677762608127342
 20
39.96589007056195
 30
0.0
  0
SEQEND
  5
520
330
51D
100
AcDbEntity
  8
GRAU_10_
  0
POLYLINE
  5
521
330
1F
100
AcDbEntity
  8
GRAU_10_
 62
   250
100
AcDb2dPolyline
 66
     1
 10
0.0
 20
0.0
 30
0.0
  0
VERTEX
  5
522
330
521
100
AcDbEntity
  8
GRAU_10_
 62
   250
100
AcDbVertex
100
AcDb2dVertex
 10
-20.74913477665166
 20
57.96600909124808
 30
0.0
  0
VERTEX
  5
523
330
521
100
AcDbEntity
  8
GRAU_10_
 62
   250
100
AcDbVertex
100
AcDb2dVertex
 10
-4.832094115317064
 20
57.96600909124808
 30
0.0
  0
SEQEND
  5
524
330
521
100
AcDbEntity
  8
GRAU_10_
  0
SPLINE
  5
525
330
1F
100
AcDbEntity
  8
GRAU_10_
 62
   250
100
AcDbSpline
210
0.0
220
0.0
230
1.0
 70
    11
 71
     3
 72
    17
 73
    13
 74
     0
 42
0.0000000001
 43
0.0000000001
 40
0.0
 40
0.0
 40
0.0
 40
0.0
 40
1.0
 40
1.0
 40
1.0
 40
2.0
 40
2.0
 40
2.0
 40
3.0
 40
3.0
 40
3.0
 40
4.0
 40
4.0
 40
4.0
 40
4.0
 10
-9.681758229199733
 20
50.96608721173363
 30
0.0
 10
-9.681758229199733
 20
52.6231792333132
 30
0.0
 10
-11.02517409991689
 20
53.96625059425456
 30
0.0
 10
-12.68226612149647
 20
53.96625059425456
 30
0.0
 10
-14.33918588818814
 20
53.96625059425456
 30
0.0
 10
-15.6822572491295
 20
52.6231792333132
 30
0.0
 10
-15.6822572491295
 20
50.96608721173363
 30
0.0
 10
-15.6822572491295
 20
49.30916744504195
 30
0.0
 10
-14.33918588818814
 20
47.96575157432479
 30
0.0
 10
-12.68226612149647
 20
47.96575157432479
 30
0.0
 10
-11.02517409991689
 20
47.96575157432479
 30
0.0
 10
-9.681758229199733
 20
49.30916744504195
 30
0.0
 10
-9.681758229199733
 20
50.96608721173363
 30
0.0
  0
POLYLINE
  5
526
330
1F
100
AcDbEntity
  8
GRAU_10_
 62
   250
100
AcDb2dPolyline
 66
     1
 10
0.0
 20
0.0
 30
0.0
  0
VERTEX
  5
527
330
526
100
AcDbEntity
  8
GRAU_10_
 62
   250
100
AcDbVertex
100
AcDb2dVertex
 10
-20.74913477665166
 20
57.96600909124808
 30
0.0
  0
VERTEX
  5
528
330
526
100
AcDbEntity
  8
GRAU_10_
 62
   250
100
AcDbVertex
100
AcDb2dVertex
 10
-28.83202313638137
 20
43.96633758710707
 30
0.0
  0
SEQEND
  5
529
330
526
100
AcDbEntity
  8
GRAU_10_
  0
POLYLINE
  5
52A
330
1F
100
AcDbEntity
  8
GRAU_10_
 62
   250
100
AcDb2dPolyline
 66
     1
 10
0.0
 20
0.0
 30
0.0
  0
VERTEX
  5
52B
330
52A
100
AcDbEntity
  8
GRAU_10_
 62
   250
100
AcDbVertex
100
AcDb2dVertex
 10
-28.83202313638137
 20
39.96589007056195
 30
0.0
  0
VERTEX
  5
52C
330
52A
100
AcDbEntity
  8
GRAU_10_
 62
   250
100
AcDbVertex
100
AcDb2dVertex
 10
-28.83202313638137
 20
43.96633758710707
 30
0.0
  0
SEQEND
  5
52D
330
52A
100
AcDbEntity
  8
GRAU_10_
  0
POLYLINE
  5
52E
330
1F
100
AcDbEntity
  8
GRAU_10_
 62
   250
100
AcDb2dPolyline
 66
     1
 10
0.0
 20
0.0
 30
0.0
  0
VERTEX
  5
52F
330
52E
100
AcDbEntity
  8
GRAU_10_
 62
   250
100
AcDbVertex
100
AcDb2dVertex
 10
-28.83202313638137
 20
39.96589007056195
 30
0.0
  0
VERTEX
  5
530
330
52E
100
AcDbEntity
  8
GRAU_10_
 62
   250
100
AcDbVertex
100
AcDb2dVertex
 10
-4.832094115317064
 20
39.96589007056195
 30
0.0
  0
VERTEX
  5
531
330
52E
100
AcDbEntity
  8
GRAU_10_
 62
   250
100
AcDbVertex
100
AcDb2dVertex
 10
-4.832094115317064
 20
57.96600909124808
 30
0.0
  0
SEQEND
  5
532
330
52E
100
AcDbEntity
  8
GRAU_10_
  0
ENDSEC
  0
SECTION
  2
OBJECTS
  0
DICTIONARY
  5
C
330
0
100
AcDbDictionary
  3
ACAD_GROUP
350
D
  3
ACAD_LAYOUT
350
1A
  3
ACAD_MLINESTYLE
350
17
  3
ACAD_PLOTSETTINGS
350
19
  3
ACAD_TABLESTYLE
350
553
  3
ACAD_VISUALSTYLE
350
2A
  3
ACDBHEADERROUNDTRIPXREC
350
533
  0
DICTIONARY
  5
D
102
{ACAD_REACTORS
330
C
102
}
330
C
100
AcDbDictionary
  0
DICTIONARY
  5
1A
102
{ACAD_REACTORS
330
C
102
}
330
C
100
AcDbDictionary
  0
DICTIONARY
  5
17
102
{ACAD_REACTORS
330
C
102
}
330
C
100
AcDbDictionary
  3
STANDARD
350
18
  0
DICTIONARY
  5
19
102
{ACAD_REACTORS
330
C
102
}
330
C
100
AcDbDictionary
  0
DICTIONARY
  5
553
102
{ACAD_REACTORS
330
C
102
}
330
C
100
AcDbDictionary
  0
DICTIONARY
  5
2A
102
{ACAD_REACTORS
330
C
102
}
330
C
100
AcDbDictionary
  3
2DWIREFRAME
350
2F
  3
3D_HIDDEN
350
31
  3
3DWIREFRAME
350
30
  3
BASIC
350
32
  3
BRIGHTEN
350
36
  3
COLORCHANGE
350
3A
  3
CONCEPTUAL
350
34
  3
DIM
350
35
  3
FACEPATTERN
350
39
  3
FLAT
350
2B
  3
FLATWITHEDGES
350
2C
  3
GOURAUD
350
2D
  3
GOURAUDWITHEDGES
350
2E
  3
LINEPATTERN
350
38
  3
REALISTIC
350
33
  3
THICKEN
350
37
  0
DICTIONARY
  5
533
102
{ACAD_REACTORS
330
C
102
}
330
C
100
AcDbDictionary
  3
CEPSNTYPE
350
53C
  3
DIMSTYLEDATA
350
552
  3
FINGERPRINTGUID
350
53D
  3
HYPERLINKBASE
350
536
  3
INSUNITS
350
53B
  3
LAYOUTDICT
350
538
  3
LWETCUNION
350
53A
  3
PLOTSETDICT
350
539
  3
PSVPSCALE
350
53F
  3
PUCSBASE
350
542
  3
PUCSORGBACK
350
548
  3
PUCSORGBOTTOM
350
544
  3
PUCSORGFRONT
350
547
  3
PUCSORGLEFT
350
545
  3
PUCSORGRIGHT
350
546
  3
PUCSORGTOP
350
543
  3
PUCSORTHOREF
350
540
  3
PUCSORTHOVIEW
350
541
  3
STYLESHEET
350
537
  3
TSTACKALIGN
350
534
  3
TSTACKSIZE
350
535
  3
UCSBASE
350
54B
  3
UCSORGBACK
350
551
  3
UCSORGBOTTOM
350
54D
  3
UCSORGFRONT
350
550
  3
UCSORGLEFT
350
54E
  3
UCSORGRIGHT
350
54F
  3
UCSORGTOP
350
54C
  3
UCSORTHOREF
350
549
  3
UCSORTHOVIEW
350
54A
  3
VERSIONGUID
350
53E
  0
MLINESTYLE
  5
18
102
{ACAD_REACTORS
330
17
102
}
330
17
100
AcDbMlineStyle
  2
Standard
 70
     0
  3

 62
   256
 51
90.0
 52
90.0
 71
     2
 49
0.5
 62
   256
  6
BYLAYER
 49
-0.5
 62
   256
  6
BYLAYER
  0
VISUALSTYLE
  5
2F
102
{ACAD_REACTORS
330
2A
102
}
330
2A
100
AcDbVisualStyle
  2
2dWireframe
 70
     4
 71
     0
 72
     2
 73
     0
 90
        0
 40
-0.6
 41
-30.0
 62
     5
 63
     7
 74
     1
 91
        4
 64
     7
 65
   257
 75
     1
175
     1
 42
1.0
 92
        0
 66
   257
 43
1.0
 76
     1
 77
     6
 78
     2
 67
     7
 79
     5
170
     0
171
     0
290
     0
174
     0
 93
        1
 44
0.0
173
     0
291
     0
 45
0.0
1001
ACAD
1000
AcDbSavedByObjectVersion
1070
     0
  0
VISUALSTYLE
  5
31
102
{ACAD_REACTORS
330
2A
102
}
330
2A
100
AcDbVisualStyle
  2
3D Hidden
 70
     6
 71
     1
 72
     2
 73
     2
 90
        0
 40
-0.6
 41
-30.0
 62
     5
 63
     7
 74
     2
 91
        2
 64
     7
 65
   257
 75
     2
175
     1
 42
40.0
 92
        0
 66
   257
 43
1.0
 76
     1
 77
     6
 78
     2
 67
     7
 79
     3
170
     0
171
     0
290
     0
174
     0
 93
        1
 44
0.0
173
     0
291
     0
 45
0.0
1001
ACAD
1000
AcDbSavedByObjectVersion
1070
     0
  0
VISUALSTYLE
  5
30
102
{ACAD_REACTORS
330
2A
102
}
330
2A
100
AcDbVisualStyle
  2
3dWireframe
 70
     5
 71
     0
 72
     2
 73
     0
 90
        0
 40
-0.6
 41
-30.0
 62
     5
 63
     7
 74
     1
 91
        4
 64
     7
 65
   257
 75
     1
175
     1
 42
1.0
 92
        0
 66
   257
 43
1.0
 76
     1
 77
     6
 78
     2
 67
     7
 79
     5
170
     0
171
     0
290
     0
174
     0
 93
        1
 44
0.0
173
     0
291
     0
 45
0.0
1001
ACAD
1000
AcDbSavedByObjectVersion
1070
     0
  0
VISUALSTYLE
  5
32
102
{ACAD_REACTORS
330
2A
102
}
330
2A
100
AcDbVisualStyle
  2
Basic
 70
     7
 71
     1
 72
     0
 73
     1
 90
        0
 40
-0.6
 41
-30.0
 62
     5
 63
     7
 74
     0
 91
        4
 64
     7
 65
   257
 75
     1
175
     1
 42
1.0
 92
        8
 66
     7
 43
1.0
 76
     1
 77
     6
 78
     2
 67
     7
 79
     5
170
     0
171
     0
290
     0
174
     0
 93
        1
 44
0.0
173
     0
291
     1
 45
0.0
1001
ACAD
1000
AcDbSavedByObjectVersion
1070
     0
  0
VISUALSTYLE
  5
36
102
{ACAD_REACTORS
330
2A
102
}
330
2A
100
AcDbVisualStyle
  2
Brighten
 70
    12
 71
     2
 72
     2
 73
     0
 90
        0
 40
-0.6
 41
-30.0
 62
     5
 63
     7
 74
     1
 91
        4
 64
     7
 65
   257
 75
     1
175
     1
 42
1.0
 92
        8
 66
     7
 43
1.0
 76
     1
 77
     6
 78
     2
 67
     7
 79
     5
170
     0
171
     0
290
     0
174
     0
 93
        1
 44
50.0
173
     0
291
     1
 45
0.0
1001
ACAD
1000
AcDbSavedByObjectVersion
1070
     0
  0
VISUALSTYLE
  5
3A
102
{ACAD_REACTORS
330
2A
102
}
330
2A
100
AcDbVisualStyle
  2
ColorChange
 70
    16
 71
     2
 72
     2
 73
     3
 90
        0
 40
-0.6
 41
-30.0
 62
     5
 63
     8
 74
     1
 91
        4
 64
     7
 65
   257
 75
     1
175
     1
 42
1.0
 92
        8
 66
     8
 43
1.0
 76
     1
 77
     6
 78
     2
 67
     7
 79
     5
170
     0
171
     0
290
     0
174
     0
 93
        1
 44
0.0
173
     0
291
     1
 45
0.0
1001
ACAD
1000
AcDbSavedByObjectVersion
1070
     0
  0
VISUALSTYLE
  5
34
102
{ACAD_REACTORS
330
2A
102
}
330
2A
100
AcDbVisualStyle
  2
Conceptual
 70
     9
 71
     3
 72
     2
 73
     0
 90
        0
 40
-0.6
 41
-30.0
 62
     5
 63
     7
 74
     2
 91
        2
 64
     7
 65
   257
 75
     1
175
     1
 42
40.0
 92
        8
 66
     7
 43
1.0
 76
     1
 77
     6
 78
     2
 67
     7
 79
     3
170
     0
171
     0
290
     0
174
     0
 93
        1
 44
0.0
173
     0
291
     0
 45
0.0
1001
ACAD
1000
AcDbSavedByObjectVersion
1070
     0
  0
VISUALSTYLE
  5
35
102
{ACAD_REACTORS
330
2A
102
}
330
2A
100
AcDbVisualStyle
  2
Dim
 70
    11
 71
     2
 72
     2
 73
     0
 90
        0
 40
-0.6
 41
-30.0
 62
     5
 63
     7
 74
     1
 91
        4
 64
     7
 65
   257
 75
     1
175
     1
 42
1.0
 92
        8
 66
     7
 43
1.0
 76
     1
 77
     6
 78
     2
 67
     7
 79
     5
170
     0
171
     0
290
     0
174
     0
 93
        1
 44
-50.0
173
     0
291
     1
 45
0.0
1001
ACAD
1000
AcDbSavedByObjectVersion
1070
     0
  0
VISUALSTYLE
  5
39
102
{ACAD_REACTORS
330
2A
102
}
330
2A
100
AcDbVisualStyle
  2
Facepattern
 70
    15
 71
     2
 72
     2
 73
     0
 90
        0
 40
-0.6
 41
-30.0
 62
     5
 63
     7
 74
     1
 91
        4
 64
     7
 65
   257
 75
     1
175
     1
 42
1.0
 92
        8
 66
     7
 43
1.0
 76
     1
 77
     6
 78
     2
 67
     7
 79
     5
170
     0
171
     0
290
     0
174
     0
 93
        1
 44
0.0
173
     0
291
     1
 45
0.0
1001
ACAD
1000
AcDbSavedByObjectVersion
1070
     0
  0
VISUALSTYLE
  5
2B
102
{ACAD_REACTORS
330
2A
102
}
330
2A
100
AcDbVisualStyle
  2
Flat
 70
     0
 71
     2
 72
     1
 73
     1
 90
        2
 40
-0.6
 41
30.0
 62
     5
 63
     7
 74
     0
 91
        4
 64
     7
 65
   257
 75
     1
175
     1
 42
1.0
 92
        8
 66
     7
 43
1.0
 76
     1
 77
     6
 78
     2
 67
     7
 79
     5
170
     0
171
     0
290
     0
174
     0
 93
       13
 44
0.0
173
     0
291
     1
 45
0.0
1001
ACAD
1000
AcDbSavedByObjectVersion
1070
     0
  0
VISUALSTYLE
  5
2C
102
{ACAD_REACTORS
330
2A
102
}
330
2A
100
AcDbVisualStyle
  2
FlatWithEdges
 70
     1
 71
     2
 72
     1
 73
     1
 90
        2
 40
-0.6
 41
30.0
 62
     5
 63
     7
 74
     1
 91
        4
 64
     7
 65
   257
 75
     1
175
     1
 42
1.0
 92
        0
 66
   257
 43
1.0
 76
     1
 77
     6
 78
     2
 67
     7
 79
     5
170
     0
171
     0
290
     0
174
     0
 93
       13
 44
0.0
173
     0
291
     1
 45
0.0
1001
ACAD
1000
AcDbSavedByObjectVersion
1070
     0
  0
VISUALSTYLE
  5
2D
102
{ACAD_REACTORS
330
2A
102
}
330
2A
100
AcDbVisualStyle
  2
Gouraud
 70
     2
 71
     2
 72
     2
 73
     1
 90
        2
 40
-0.6
 41
30.0
 62
     5
 63
     7
 74
     0
 91
        4
 64
     7
 65
   257
 75
     1
175
     1
 42
1.0
 92
        0
 66
     7
 43
1.0
 76
     1
 77
     6
 78
     2
 67
     7
 79
     5
170
     0
171
     0
290
     0
174
     0
 93
       13
 44
0.0
173
     0
291
     1
 45
0.0
1001
ACAD
1000
AcDbSavedByObjectVersion
1070
     0
  0
VISUALSTYLE
  5
2E
102
{ACAD_REACTORS
330
2A
102
}
330
2A
100
AcDbVisualStyle
  2
GouraudWithEdges
 70
     3
 71
     2
 72
     2
 73
     1
 90
        2
 40
-0.6
 41
30.0
 62
     5
 63
     7
 74
     1
 91
        4
 64
     7
 65
   257
 75
     1
175
     1
 42
1.0
 92
        0
 66
   257
 43
1.0
 76
     1
 77
     6
 78
     2
 67
     7
 79
     5
170
     0
171
     0
290
     0
174
     0
 93
       13
 44
0.0
173
     0
291
     1
 45
0.0
1001
ACAD
1000
AcDbSavedByObjectVersion
1070
     0
  0
VISUALSTYLE
  5
38
102
{ACAD_REACTORS
330
2A
102
}
330
2A
100
AcDbVisualStyle
  2
Linepattern
 70
    14
 71
     2
 72
     2
 73
     0
 90
        0
 40
-0.6
 41
-30.0
 62
     5
 63
     7
 74
     1
 91
        4
 64
     7
 65
   257
 75
     7
175
     7
 42
1.0
 92
        8
 66
     7
 43
1.0
 76
     1
 77
     6
 78
     2
 67
     7
 79
     5
170
     0
171
     0
290
     0
174
     0
 93
        1
 44
0.0
173
     0
291
     1
 45
0.0
1001
ACAD
1000
AcDbSavedByObjectVersion
1070
     0
  0
VISUALSTYLE
  5
33
102
{ACAD_REACTORS
330
2A
102
}
330
2A
100
AcDbVisualStyle
  2
Realistic
 70
     8
 71
     2
 72
     2
 73
     0
 90
        0
 40
-0.6
 41
-30.0
 62
     5
 63
     7
 74
     1
 91
        0
 64
     7
 65
   257
 75
     1
175
     1
 42
1.0
 92
        8
 66
     8
 43
1.0
 76
     1
 77
     6
 78
     2
 67
     7
 79
     5
170
     0
171
     0
290
     0
174
     0
 93
       13
 44
0.0
173
     0
291
     0
 45
0.0
1001
ACAD
1000
AcDbSavedByObjectVersion
1070
     0
  0
VISUALSTYLE
  5
37
102
{ACAD_REACTORS
330
2A
102
}
330
2A
100
AcDbVisualStyle
  2
Thicken
 70
    13
 71
     2
 72
     2
 73
     0
 90
        0
 40
-0.6
 41
-30.0
 62
     5
 63
     7
 74
     1
 91
        4
 64
     7
 65
   257
 75
     1
175
     1
 42
1.0
 92
       12
 66
     7
 43
1.0
 76
     1
 77
     6
 78
     2
 67
     7
 79
     5
170
     0
171
     0
290
     0
174
     0
 93
        1
 44
0.0
173
     0
291
     1
 45
0.0
1001
ACAD
1000
AcDbSavedByObjectVersion
1070
     0
  0
XRECORD
  5
53C
102
{ACAD_REACTORS
330
533
102
}
330
533
100
AcDbXrecord
 90
        0
  0
XRECORD
  5
552
102
{ACAD_REACTORS
330
533
102
}
330
533
100
AcDbXrecord
1000
DSTYLE
1002
{
1070
   340
340
11
1002
}
  0
XRECORD
  5
53D
102
{ACAD_REACTORS
330
533
102
}
330
533
100
AcDbXrecord
  1
{00648A3C-59AE-4F7C-B592-098D22BA11FE}
  0
XRECORD
  5
536
102
{ACAD_REACTORS
330
533
102
}
330
533
100
AcDbXrecord
  1

  0
XRECORD
  5
53B
102
{ACAD_REACTORS
330
533
102
}
330
533
100
AcDbXrecord
 90
        1
  0
XRECORD
  5
538
102
{ACAD_REACTORS
330
533
102
}
330
533
100
AcDbXrecord
340
1A
  0
XRECORD
  5
53A
102
{ACAD_REACTORS
330
533
102
}
330
533
100
AcDbXrecord
 90
    10269
  0
XRECORD
  5
539
102
{ACAD_REACTORS
330
533
102
}
330
533
100
AcDbXrecord
340
19
  0
XRECORD
  5
53F
102
{ACAD_REACTORS
330
533
102
}
330
533
100
AcDbXrecord
 40
0.0
  0
XRECORD
  5
542
102
{ACAD_REACTORS
330
533
102
}
330
533
100
AcDbXrecord
340
0
  0
XRECORD
  5
548
102
{ACAD_REACTORS
330
533
102
}
330
533
100
AcDbXrecord
 10
0.0
 20
0.0
 30
0.0
  0
XRECORD
  5
544
102
{ACAD_REACTORS
330
533
102
}
330
533
100
AcDbXrecord
 10
0.0
 20
0.0
 30
0.0
  0
XRECORD
  5
547
102
{ACAD_REACTORS
330
533
102
}
330
533
100
AcDbXrecord
 10
0.0
 20
0.0
 30
0.0
  0
XRECORD
  5
545
102
{ACAD_REACTORS
330
533
102
}
330
533
100
AcDbXrecord
 10
0.0
 20
0.0
 30
0.0
  0
XRECORD
  5
546
102
{ACAD_REACTORS
330
533
102
}
330
533
100
AcDbXrecord
 10
0.0
 20
0.0
 30
0.0
  0
XRECORD
  5
543
102
{ACAD_REACTORS
330
533
102
}
330
533
100
AcDbXrecord
 10
0.0
 20
0.0
 30
0.0
  0
XRECORD
  5
540
102
{ACAD_REACTORS
330
533
102
}
330
533
100
AcDbXrecord
340
0
  0
XRECORD
  5
541
102
{ACAD_REACTORS
330
533
102
}
330
533
100
AcDbXrecord
 70
     0
  0
XRECORD
  5
537
102
{ACAD_REACTORS
330
533
102
}
330
533
100
AcDbXrecord
  1

  0
XRECORD
  5
534
102
{ACAD_REACTORS
330
533
102
}
330
533
100
AcDbXrecord
 90
        1
  0
XRECORD
  5
535
102
{ACAD_REACTORS
330
533
102
}
330
533
100
AcDbXrecord
 90
       70
  0
XRECORD
  5
54B
102
{ACAD_REACTORS
330
533
102
}
330
533
100
AcDbXrecord
340
0
  0
XRECORD
  5
551
102
{ACAD_REACTORS
330
533
102
}
330
533
100
AcDbXrecord
 10
0.0
 20
0.0
 30
0.0
  0
XRECORD
  5
54D
102
{ACAD_REACTORS
330
533
102
}
330
533
100
AcDbXrecord
 10
0.0
 20
0.0
 30
0.0
  0
XRECORD
  5
550
102
{ACAD_REACTORS
330
533
102
}
330
533
100
AcDbXrecord
 10
0.0
 20
0.0
 30
0.0
  0
XRECORD
  5
54E
102
{ACAD_REACTORS
330
533
102
}
330
533
100
AcDbXrecord
 10
0.0
 20
0.0
 30
0.0
  0
XRECORD
  5
54F
102
{ACAD_REACTORS
330
533
102
}
330
533
100
AcDbXrecord
 10
0.0
 20
0.0
 30
0.0
  0
XRECORD
  5
54C
102
{ACAD_REACTORS
330
533
102
}
330
533
100
AcDbXrecord
 10
0.0
 20
0.0
 30
0.0
  0
XRECORD
  5
549
102
{ACAD_REACTORS
330
533
102
}
330
533
100
AcDbXrecord
340
0
  0
XRECORD
  5
54A
102
{ACAD_REACTORS
330
533
102
}
330
533
100
AcDbXrecord
 70
     0
  0
XRECORD
  5
53E
102
{ACAD_REACTORS
330
533
102
}
330
533
100
AcDbXrecord
  1
{FAEB1C32-E019-11D5-929B-00C0DF256EC4}
  0
ENDSEC
  0
EOF
