  0
SECTION
  2
HEADER
  9
$ACADVER
  1
AC1032
  9
$ACADMAINTVER
 90
      228
  9
$DWGCODEPAGE
  3
ANSI_1252
  9
$REQUIREDVERSIONS
160
                 0
  9
$INSBASE
 10
0.0
 20
0.0
 30
0.0
  9
$EXTMIN
 10
1.000000000000000E+20
 20
1.000000000000000E+20
 30
1.000000000000000E+20
  9
$EXTMAX
 10
-1.000000000000000E+20
 20
-1.000000000000000E+20
 30
-1.000000000000000E+20
  9
$LIMMIN
 10
0.0
 20
0.0
  9
$LIMMAX
 10
12.0
 20
9.0
  9
$ORTHOMODE
 70
     0
  9
$REGENMODE
 70
     1
  9
$FILLMODE
 70
     1
  9
$QTEXTMODE
 70
     0
  9
$MIRRTEXT
 70
     0
  9
$LTSCALE
 40
1.0
  9
$ATTMODE
 70
     1
  9
$TEXTSIZE
 40
0.2
  9
$TRACEWID
 40
0.05
  9
$TEXTSTYLE
  7
Standard
  9
$CLAYER
  8
0
  9
$CELTYPE
  6
ByLayer
  9
$CECOLOR
 62
   256
  9
$CELTSCALE
 40
1.0
  9
$DISPSILH
 70
     0
  9
$DIMSCALE
 40
1.0
  9
$DIMASZ
 40
0.18
  9
$DIMEXO
 40
0.0625
  9
$DIMDLI
 40
0.38
  9
$DIMRND
 40
0.0
  9
$DIMDLE
 40
0.0
  9
$DIMEXE
 40
0.18
  9
$DIMTP
 40
0.0
  9
$DIMTM
 40
0.0
  9
$DIMTXT
 40
0.18
  9
$DIMCEN
 40
0.09
  9
$DIMTSZ
 40
0.0
  9
$DIMTOL
 70
     0
  9
$DIMLIM
 70
     0
  9
$DIMTIH
 70
     1
  9
$DIMTOH
 70
     1
  9
$DIMSE1
 70
     0
  9
$DIMSE2
 70
     0
  9
$DIMTAD
 70
     0
  9
$DIMZIN
 70
     0
  9
$DIMBLK
  1

  9
$DIMASO
 70
     1
  9
$DIMSHO
 70
     1
  9
$DIMPOST
  1

  9
$DIMAPOST
  1

  9
$DIMALT
 70
     0
  9
$DIMALTD
 70
     2
  9
$DIMALTF
 40
25.4
  9
$DIMLFAC
 40
1.0
  9
$DIMTOFL
 70
     0
  9
$DIMTVP
 40
0.0
  9
$DIMTIX
 70
     0
  9
$DIMSOXD
 70
     0
  9
$DIMSAH
 70
     0
  9
$DIMBLK1
  1

  9
$DIMBLK2
  1

  9
$DIMSTYLE
  2
Standard
  9
$DIMCLRD
 70
     0
  9
$DIMCLRE
 70
     0
  9
$DIMCLRT
 70
     0
  9
$DIMTFAC
 40
1.0
  9
$DIMGAP
 40
0.09
  9
$DIMJUST
 70
     0
  9
$DIMSD1
 70
     0
  9
$DIMSD2
 70
     0
  9
$DIMTOLJ
 70
     1
  9
$DIMTZIN
 70
     0
  9
$DIMALTZ
 70
     0
  9
$DIMALTTZ
 70
     0
  9
$DIMUPT
 70
     0
  9
$DIMDEC
 70
     4
  9
$DIMTDEC
 70
     4
  9
$DIMALTU
 70
     2
  9
$DIMALTTD
 70
     2
  9
$DIMTXSTY
  7
Standard
  9
$DIMAUNIT
 70
     0
  9
$DIMADEC
 70
     0
  9
$DIMALTRND
 40
0.0
  9
$DIMAZIN
 70
     0
  9
$DIMDSEP
 70
    46
  9
$DIMATFIT
 70
     3
  9
$DIMFRAC
 70
     0
  9
$DIMLDRBLK
  1

  9
$DIMLUNIT
 70
     2
  9
$DIMLWD
 70
    -2
  9
$DIMLWE
 70
    -2
  9
$DIMTMOVE
 70
     0
  9
$DIMFXL
 40
1.0
  9
$DIMFXLON
 70
     0
  9
$DIMJOGANG
 40
0.7853981633974483
  9
$DIMTFILL
 70
     0
  9
$DIMTFILLCLR
 70
     0
  9
$DIMARCSYM
 70
     0
  9
$DIMLTYPE
  6

  9
$DIMLTEX1
  6

  9
$DIMLTEX2
  6

  9
$DIMTXTDIRECTION
 70
     0
  9
$LUNITS
 70
     2
  9
$LUPREC
 70
     4
  9
$SKETCHINC
 40
0.1
  9
$FILLETRAD
 40
0.0
  9
$AUNITS
 70
     0
  9
$AUPREC
 70
     0
  9
$MENU
  1
.
  9
$ELEVATION
 40
0.0
  9
$PELEVATION
 40
0.0
  9
$THICKNESS
 40
0.0
  9
$LIMCHECK
 70
     0
  9
$CHAMFERA
 40
0.0
  9
$CHAMFERB
 40
0.0
  9
$CHAMFERC
 40
0.0
  9
$CHAMFERD
 40
0.0
  9
$SKPOLY
 70
     0
  9
$TDCREATE
 40
2460080.537268519
  9
$TDUCREATE
 40
2460080.453935185
  9
$TDUPDATE
 40
2460080.537268519
  9
$TDUUPDATE
 40
2460080.453935185
  9
$TDINDWG
 40
0.0000000000
  9
$TDUSRTIMER
 40
0.0000000000
  9
$USRTIMER
 70
     1
  9
$ANGBASE
 50
0.0
  9
$ANGDIR
 70
     0
  9
$PDMODE
 70
     0
  9
$PDSIZE
 40
0.0
  9
$PLINEWID
 40
0.0
  9
$SPLFRAME
 70
     0
  9
$SPLINETYPE
 70
     6
  9
$SPLINESEGS
 70
     8
  9
$HANDSEED
  5
12C
  9
$SURFTAB1
 70
     6
  9
$SURFTAB2
 70
     6
  9
$SURFTYPE
 70
     6
  9
$SURFU
 70
     6
  9
$SURFV
 70
     6
  9
$UCSBASE
  2

  9
$UCSNAME
  2

  9
$UCSORG
 10
0.0
 20
0.0
 30
0.0
  9
$UCSXDIR
 10
1.0
 20
0.0
 30
0.0
  9
$UCSYDIR
 10
0.0
 20
1.0
 30
0.0
  9
$UCSORTHOREF
  2

  9
$UCSORTHOVIEW
 70
     0
  9
$UCSORGTOP
 10
0.0
 20
0.0
 30
0.0
  9
$UCSORGBOTTOM
 10
0.0
 20
0.0
 30
0.0
  9
$UCSORGLEFT
 10
0.0
 20
0.0
 30
0.0
  9
$UCSORGRIGHT
 10
0.0
 20
0.0
 30
0.0
  9
$UCSORGFRONT
 10
0.0
 20
0.0
 30
0.0
  9
$UCSORGBACK
 10
0.0
 20
0.0
 30
0.0
  9
$PUCSBASE
  2

  9
$PUCSNAME
  2

  9
$PUCSORG
 10
0.0
 20
0.0
 30
0.0
  9
$PUCSXDIR
 10
1.0
 20
0.0
 30
0.0
  9
$PUCSYDIR
 10
0.0
 20
1.0
 30
0.0
  9
$PUCSORTHOREF
  2

  9
$PUCSORTHOVIEW
 70
     0
  9
$PUCSORGTOP
 10
0.0
 20
0.0
 30
0.0
  9
$PUCSORGBOTTOM
 10
0.0
 20
0.0
 30
0.0
  9
$PUCSORGLEFT
 10
0.0
 20
0.0
 30
0.0
  9
$PUCSORGRIGHT
 10
0.0
 20
0.0
 30
0.0
  9
$PUCSORGFRONT
 10
0.0
 20
0.0
 30
0.0
  9
$PUCSORGBACK
 10
0.0
 20
0.0
 30
0.0
  9
$USERI1
 70
     0
  9
$USERI2
 70
     0
  9
$USERI3
 70
     0
  9
$USERI4
 70
     0
  9
$USERI5
 70
     0
  9
$USERR1
 40
0.0
  9
$USERR2
 40
0.0
  9
$USERR3
 40
0.0
  9
$USERR4
 40
0.0
  9
$USERR5
 40
0.0
  9
$WORLDVIEW
 70
     1
  9
$SHADEDGE
 70
     3
  9
$SHADEDIF
 70
    70
  9
$TILEMODE
 70
     1
  9
$MAXACTVP
 70
    64
  9
$PINSBASE
 10
0.0
 20
0.0
 30
0.0
  9
$PLIMCHECK
 70
     0
  9
$PEXTMIN
 10
1.000000000000000E+20
 20
1.000000000000000E+20
 30
1.000000000000000E+20
  9
$PEXTMAX
 10
-1.000000000000000E+20
 20
-1.000000000000000E+20
 30
-1.000000000000000E+20
  9
$PLIMMIN
 10
0.0
 20
0.0
  9
$PLIMMAX
 10
12.0
 20
9.0
  9
$UNITMODE
 70
     0
  9
$VISRETAIN
 70
     1
  9
$PLINEGEN
 70
     0
  9
$PSLTSCALE
 70
     1
  9
$TREEDEPTH
 70
  3020
  9
$CMLSTYLE
  2
Standard
  9
$CMLJUST
 70
     0
  9
$CMLSCALE
 40
1.0
  9
$PROXYGRAPHICS
 70
     1
  9
$MEASUREMENT
 70
     0
  9
$CELWEIGHT
370
    -1
  9
$ENDCAPS
280
     0
  9
$JOINSTYLE
280
     0
  9
$LWDISPLAY
290
     1
  9
$INSUNITS
 70
     4
  9
$HYPERLINKBASE
  1

  9
$STYLESHEET
  1

  9
$XEDIT
290
     1
  9
$CEPSNTYPE
380
     0
  9
$PSTYLEMODE
290
     1
  9
$FINGERPRINTGUID
  2
{51B517E9-F54A-9641-ADDD-0170F8BFCA96}
  9
$VERSIONGUID
  2
{008A2596-050B-264A-AECF-DF8163835DF4}
  9
$EXTNAMES
290
     1
  9
$PSVPSCALE
 40
0.0
  9
$OLESTARTUP
290
     0
  9
$SORTENTS
280
   127
  9
$INDEXCTL
280
     0
  9
$HIDETEXT
280
     1
  9
$XCLIPFRAME
280
     2
  9
$HALOGAP
280
     0
  9
$OBSCOLOR
 70
   257
  9
$OBSLTYPE
280
     0
  9
$INTERSECTIONDISPLAY
280
     0
  9
$INTERSECTIONCOLOR
 70
   257
  9
$DIMASSOC
280
     2
  9
$PROJECTNAME
  1

  9
$CAMERADISPLAY
290
     0
  9
$LENSLENGTH
 40
50.0
  9
$CAMERAHEIGHT
 40
0.0
  9
$STEPSPERSEC
 40
2.0
  9
$STEPSIZE
 40
6.0
  9
$3DDWFPREC
 40
2.0
  9
$PSOLWIDTH
 40
0.25
  9
$PSOLHEIGHT
 40
4.0
  9
$LOFTANG1
 40
1.570796326794896
  9
$LOFTANG2
 40
1.570796326794896
  9
$LOFTMAG1
 40
0.0
  9
$LOFTMAG2
 40
0.0
  9
$LOFTPARAM
 70
     7
  9
$LOFTNORMALS
280
     1
  9
$LATITUDE
 40
37.795
  9
$LONGITUDE
 40
-122.394
  9
$NORTHDIRECTION
 40
0.0
  9
$TIMEZONE
 70
 -8000
  9
$LIGHTGLYPHDISPLAY
280
     1
  9
$TILEMODELIGHTSYNCH
280
     1
  9
$CMATERIAL
347
11
  9
$SOLIDHIST
280
     0
  9
$SHOWHIST
280
     1
  9
$DWFFRAME
280
     2
  9
$DGNFRAME
280
     0
  9
$REALWORLDSCALE
290
     1
  9
$INTERFERECOLOR
 62
     1
  9
$INTERFEREOBJVS
345
33
  9
$INTERFEREVPVS
346
30
  9
$CSHADOW
280
     0
  9
$SHADOWPLANELOCATION
 40
0.0
  0
ENDSEC
  0
SECTION
  2
CLASSES
  0
CLASS
  1
ACDBDICTIONARYWDFLT
  2
AcDbDictionaryWithDefault
  3
ObjectDBX Classes
 90
        0
 91
        1
280
     0
281
     0
  0
CLASS
  1
MATERIAL
  2
AcDbMaterial
  3
ObjectDBX Classes
 90
     1153
 91
        3
280
     0
281
     0
  0
CLASS
  1
VISUALSTYLE
  2
AcDbVisualStyle
  3
ObjectDBX Classes
 90
     4095
 91
       24
280
     0
281
     0
  0
CLASS
  1
SCALE
  2
AcDbScale
  3
ObjectDBX Classes
 90
     1153
 91
       17
280
     0
281
     0
  0
CLASS
  1
TABLESTYLE
  2
AcDbTableStyle
  3
ObjectDBX Classes
 90
     4095
 91
        1
280
     0
281
     0
  0
CLASS
  1
MLEADERSTYLE
  2
AcDbMLeaderStyle
  3
ACDB_MLEADERSTYLE_CLASS
 90
     4095
 91
        1
280
     0
281
     0
  0
CLASS
  1
ACDBSECTIONVIEWSTYLE
  2
AcDbSectionViewStyle
  3
ObjectDBX Classes
 90
     1025
 91
        1
280
     0
281
     0
  0
CLASS
  1
ACDBDETAILVIEWSTYLE
  2
AcDbDetailViewStyle
  3
ObjectDBX Classes
 90
     1025
 91
        1
280
     0
281
     0
  0
CLASS
  1
DICTIONARYVAR
  2
AcDbDictionaryVar
  3
ObjectDBX Classes
 90
        0
 91
        5
280
     0
281
     0
  0
CLASS
  1
CELLSTYLEMAP
  2
AcDbCellStyleMap
  3
ObjectDBX Classes
 90
     1152
 91
        1
280
     0
281
     0
  0
ENDSEC
  0
SECTION
  2
TABLES
  0
TABLE
  2
VPORT
  5
8
330
0
100
AcDbSymbolTable
 70
     1
  0
VPORT
  5
57
330
8
100
AcDbSymbolTableRecord
100
AcDbViewportTableRecord
  2
*Active
 70
     0
 10
0.0
 20
0.0
 11
1.0
 21
1.0
 12
0.0
 22
0.0
 13
0.0
 23
0.0
 14
1.0
 24
1.0
 15
0.0
 25
0.0
 16
0.0
 26
0.0
 36
1.0
 17
96.92410243152398
 27
145.2681461322293
 37
0.0
 40
114.497258317489
 41
0.4022802630532884
 42
50.0
 43
0.0
 44
0.0
 50
0.0
 51
0.0
 71
     0
 72
   100
 73
     1
 74
     1
 75
     0
 76
     0
 77
     0
 78
     0
281
     0
 65
     1
110
0.0
120
0.0
130
0.0
111
1.0
121
0.0
131
0.0
112
0.0
122
1.0
132
0.0
 79
     0
146
0.0
 60
     3
 61
     5
292
     1
282
     1
141
0.0
142
0.0
 63
   250
421
  3355443
  0
ENDTAB
  0
TABLE
  2
LTYPE
  5
5
330
0
100
AcDbSymbolTable
 70
     4
  0
LTYPE
  5
5B
330
5
100
AcDbSymbolTableRecord
100
AcDbLinetypeTableRecord
  2
ByBlock
 70
     0
  3

 72
    65
 73
     0
 40
0.0
  0
LTYPE
  5
5C
330
5
100
AcDbSymbolTableRecord
100
AcDbLinetypeTableRecord
  2
ByLayer
 70
     0
  3

 72
    65
 73
     0
 40
0.0
  0
LTYPE
  5
5D
330
5
100
AcDbSymbolTableRecord
100
AcDbLinetypeTableRecord
  2
Continuous
 70
     0
  3
Solid line
 72
    65
 73
     0
 40
0.0
  0
LTYPE
  5
7A
330
5
100
AcDbSymbolTableRecord
100
AcDbLinetypeTableRecord
  2
AI-Linetype-0
 70
     0
  3
Adobe Illustrator Linetype No. 0
 72
    65
 73
     4
 40
8.819444442239584
 49
7.055555553791666
 74
     0
 49
-0.7055555553791667
 74
     0
 49
0.3527777776895833
 74
     0
 49
-0.7055555553791667
 74
     0
  0
LTYPE
  5
7C
330
5
100
AcDbSymbolTableRecord
100
AcDbLinetypeTableRecord
  2
AI-Linetype-1
 70
     0
  3
Adobe Illustrator Linetype No. 1
 72
    65
 73
     4
 40
8.819444442239584
 49
7.055555553791666
 74
     0
 49
-0.7055555553791667
 74
     0
 49
0.3527777776895833
 74
     0
 49
-0.7055555553791667
 74
     0
  0
LTYPE
  5
7E
330
5
100
AcDbSymbolTableRecord
100
AcDbLinetypeTableRecord
  2
AI-Linetype-2
 70
     0
  3
Adobe Illustrator Linetype No. 2
 72
    65
 73
     4
 40
8.819444442239584
 49
7.055555553791666
 74
     0
 49
-0.7055555553791667
 74
     0
 49
0.3527777776895833
 74
     0
 49
-0.7055555553791667
 74
     0
  0
ENDTAB
  0
TABLE
  2
LAYER
  5
2
330
0
100
AcDbSymbolTable
 70
     5
  0
LAYER
  5
54
330
2
100
AcDbSymbolTableRecord
100
AcDbLayerTableRecord
  2
0
 70
     0
 62
     7
  6
Continuous
370
    -3
390
F
347
21
348
0
  0
LAYER
  5
78
330
2
100
AcDbSymbolTableRecord
100
AcDbLayerTableRecord
  2
grau 10%
 70
     0
 62
     7
  6
Continuous
370
     0
390
F
347
21
348
0
  0
LAYER
  5
B1
330
2
100
AcDbSymbolTableRecord
100
AcDbLayerTableRecord
  2
Standardebene
 70
     0
 62
     7
  6
Continuous
370
     0
390
F
347
21
348
0
  0
LAYER
  5
BD
330
2
100
AcDbSymbolTableRecord
100
AcDbLayerTableRecord
  2
Bemaßung
 70
     1
 62
     7
  6
Continuous
370
     0
390
F
347
21
348
0
  0
LAYER
  5
120
330
2
100
AcDbSymbolTableRecord
100
AcDbLayerTableRecord
  2
Text
 70
     1
 62
     7
  6
Continuous
370
     0
390
F
347
21
348
0
  0
ENDTAB
  0
TABLE
  2
STYLE
  5
3
330
0
100
AcDbSymbolTable
 70
     2
  0
STYLE
  5
55
330
3
100
AcDbSymbolTableRecord
100
AcDbTextStyleTableRecord
  2
Standard
 70
     0
 40
0.0
 41
1.0
 50
0.0
 71
     0
 42
0.2
  3
txt
  4

  0
STYLE
  5
5A
330
3
100
AcDbSymbolTableRecord
100
AcDbTextStyleTableRecord
  2
Annotative
 70
     0
 40
0.0
 41
1.0
 50
0.0
 71
     0
 42
0.2
  3
txt
  4

1001
AcadAnnotative
1000
AnnotativeData
1002
{
1070
     1
1070
     1
1002
}
  0
ENDTAB
  0
TABLE
  2
VIEW
  5
6
330
0
100
AcDbSymbolTable
 70
     0
  0
ENDTAB
  0
TABLE
  2
UCS
  5
7
330
0
100
AcDbSymbolTable
 70
     0
  0
ENDTAB
  0
TABLE
  2
APPID
  5
9
330
0
100
AcDbSymbolTable
 70
     2
  0
APPID
  5
56
330
9
100
AcDbSymbolTableRecord
100
AcDbRegAppTableRecord
  2
ACAD
 70
     0
  0
APPID
  5
5E
330
9
100
AcDbSymbolTableRecord
100
AcDbRegAppTableRecord
  2
AcadAnnotative
 70
     0
  0
ENDTAB
  0
TABLE
  2
DIMSTYLE
  5
A
330
0
100
AcDbSymbolTable
 70
     2
100
AcDbDimStyleTable
 71
     0
  0
DIMSTYLE
105
58
330
A
100
AcDbSymbolTableRecord
100
AcDbDimStyleTableRecord
  2
Standard
 70
     0
340
55
  0
DIMSTYLE
105
59
330
A
100
AcDbSymbolTableRecord
100
AcDbDimStyleTableRecord
  2
Annotative
 70
     0
340
55
1001
AcadAnnotative
1000
AnnotativeData
1002
{
1070
     1
1070
     1
1002
}
  0
ENDTAB
  0
TABLE
  2
BLOCK_RECORD
  5
1
330
0
100
AcDbSymbolTable
 70
     1
  0
BLOCK_RECORD
  5
70
330
1
100
AcDbSymbolTableRecord
100
AcDbBlockTableRecord
  2
*Model_Space
340
73
 70
     0
280
     1
281
     0
  0
BLOCK_RECORD
  5
6C
330
1
100
AcDbSymbolTableRecord
100
AcDbBlockTableRecord
  2
*Paper_Space
340
6F
 70
     0
280
     1
281
     0
  0
BLOCK_RECORD
  5
74
330
1
100
AcDbSymbolTableRecord
100
AcDbBlockTableRecord
  2
*Paper_Space0
340
77
 70
     0
280
     1
281
     0
  0
ENDTAB
  0
ENDSEC
  0
SECTION
  2
BLOCKS
  0
BLOCK
  5
71
330
70
100
AcDbEntity
  8
0
100
AcDbBlockBegin
  2
*Model_Space
 70
     0
 10
0.0
 20
0.0
 30
0.0
  3
*Model_Space
  1

  0
ENDBLK
  5
72
330
70
100
AcDbEntity
  8
0
100
AcDbBlockEnd
  0
BLOCK
  5
6D
330
6C
100
AcDbEntity
 67
     1
  8
0
100
AcDbBlockBegin
  2
*Paper_Space
 70
     0
 10
0.0
 20
0.0
 30
0.0
  3
*Paper_Space
  1

  0
ENDBLK
  5
6E
330
6C
100
AcDbEntity
 67
     1
  8
0
100
AcDbBlockEnd
  0
BLOCK
  5
75
330
74
100
AcDbEntity
 67
     1
  8
0
100
AcDbBlockBegin
  2
*Paper_Space0
 70
     0
 10
0.0
 20
0.0
 30
0.0
  3
*Paper_Space0
  1

  0
ENDBLK
  5
76
330
74
100
AcDbEntity
 67
     1
  8
0
100
AcDbBlockEnd
  0
ENDSEC
  0
SECTION
  2
ENTITIES
  0
LWPOLYLINE
  5
79
330
70
100
AcDbEntity
  8
grau 10%
  6
AI-Linetype-0
 62
     7
370
     9
100
AcDbPolyline
 90
        5
 70
     0
 43
0.0
 10
104.3015246538292
 20
141.4437350419294
 10
104.3015246538292
 20
168.0637305108271
 10
104.3015246538292
 20
168.313849955209
 10
104.3015246538292
 20
168.5636166218131
 10
104.3015246538292
 20
186.2053667203191
  0
LINE
  5
7B
330
70
100
AcDbEntity
  8
grau 10%
  6
AI-Linetype-1
 62
     7
370
     9
100
AcDbLine
 10
104.3015246538292
 20
89.18613633606353
 30
0.0
 11
104.3015246538292
 21
120.669197851486
 31
0.0
  0
LINE
  5
7D
330
70
100
AcDbEntity
  8
grau 10%
  6
AI-Linetype-2
 62
     7
370
     9
100
AcDbLine
 10
89.04622122189733
 20
104.7100465259642
 30
0.0
 11
119.4584303048225
 21
104.7100465259642
 31
0.0
  0
SPLINE
  5
7F
330
70
100
AcDbEntity
  8
grau 10%
 62
     7
370
    35
100
AcDbSpline
210
0.0
220
0.0
230
1.0
 70
     8
 71
     3
 72
     8
 73
     4
 74
     0
 42
0.0000000001
 43
0.0000000001
 40
0.0
 40
0.0
 40
0.0
 40
0.0
 40
1.0
 40
1.0
 40
1.0
 40
1.0
 10
90.50156354616822
 20
178.3637832860299
 30
0.0
 10
90.39079132397359
 20
178.3637832860299
 30
0.0
 10
90.30153854621824
 20
178.2745305082742
 30
0.0
 10
90.30153854621824
 20
178.1641110638574
 30
0.0
  0
SPLINE
  5
80
330
70
100
AcDbEntity
  8
grau 10%
 62
     7
370
    35
100
AcDbSpline
210
0.0
220
0.0
230
1.0
 70
     8
 71
     3
 72
     8
 73
     4
 74
     0
 42
0.0000000001
 43
0.0000000001
 40
0.0
 40
0.0
 40
0.0
 40
0.0
 40
1.0
 40
1.0
 40
1.0
 40
1.0
 10
118.3015107614404
 20
178.1641110638574
 30
0.0
 10
118.3015107614404
 20
178.2745305082742
 30
0.0
 10
118.2119052059073
 20
178.3637832860299
 30
0.0
 10
118.1014857614904
 20
178.3637832860299
 30
0.0
  0
LWPOLYLINE
  5
81
330
70
100
AcDbEntity
  8
grau 10%
 62
     7
370
    35
100
AcDbPolyline
 90
       13
 70
     0
 43
0.0
 10
104.3015246538292
 20
178.3637832860299
 10
106.1028079867121
 20
178.3637832860299
 10
107.8733996529362
 20
178.3637832860299
 10
109.5822552080645
 20
178.3637832860299
 10
111.201152429882
 20
178.3637832860299
 10
112.7022218739512
 20
178.3637832860299
 10
114.0597107625007
 20
178.3637832860299
 10
115.2496302066479
 20
178.3637832860299
 10
116.2529302063967
 20
178.3637832860299
 10
117.0509135395308
 20
178.3637832860299
 10
117.6315857616078
 20
178.3637832860299
 10
117.9836579837421
 20
178.3637832860299
 10
118.1014857614904
 20
178.3637832860299
  0
LWPOLYLINE
  5
82
330
70
100
AcDbEntity
  8
grau 10%
 62
     7
370
    35
100
AcDbPolyline
 90
       13
 70
     0
 43
0.0
 10
90.50156354616822
 20
178.3637832860299
 10
90.61974410169424
 20
178.3637832860299
 10
90.97146354605056
 20
178.3637832860299
 10
91.55178299035007
 20
178.3637832860299
 10
92.35047187903933
 20
178.3637832860299
 10
93.35341910101076
 20
178.3637832860299
 10
94.54333854515757
 20
178.3637832860299
 10
95.90047465592965
 20
178.3637832860299
 10
97.4011913222211
 20
178.3637832860299
 10
99.02079409959378
 20
178.3637832860299
 10
100.7296496547221
 20
178.3637832860299
 10
102.5002413209462
 20
178.3637832860299
 10
104.3015246538292
 20
178.3637832860299
  0
LINE
  5
83
330
70
100
AcDbEntity
  8
grau 10%
 62
     7
370
    35
100
AcDbLine
 10
90.30153854621824
 20
168.5636166218131
 30
0.0
 11
90.80177743498195
 21
168.0637305108271
 31
0.0
  0
LINE
  5
84
330
70
100
AcDbEntity
  8
grau 10%
 62
     7
370
    35
100
AcDbLine
 10
117.8012718726764
 20
168.0637305108271
 30
0.0
 11
118.3015107614404
 21
168.5636166218131
 31
0.0
  0
LWPOLYLINE
  5
85
330
70
100
AcDbEntity
  8
grau 10%
 62
     7
370
    35
100
AcDbPolyline
 90
       26
 70
     0
 43
0.0
 10
117.8012718726764
 20
168.0637305108271
 10
117.695085761592
 20
168.0637305108271
 10
117.3772329838937
 20
168.0637305108271
 10
116.8533579840245
 20
168.0637305108271
 10
116.1315746508718
 20
168.0637305108271
 10
115.2231718733209
 20
168.0637305108271
 10
114.1422607624802
 20
168.0637305108271
 10
112.9064802072334
 20
168.0637305108271
 10
111.5352329853541
 20
168.0637305108271
 10
110.0496857635032
 20
168.0637305108271
 10
108.4731218750084
 20
168.0637305108271
 10
106.8312940976412
 20
168.0637305108271
 10
105.1488968758395
 20
168.0637305108271
 10
103.4534468762635
 20
168.0637305108271
 10
101.7721079877948
 20
168.0637305108271
 10
100.1295746548721
 20
168.0637305108271
 10
98.55371632193291
 20
168.0637305108271
 10
97.06781632230423
 20
168.0637305108271
 10
95.69656910042491
 20
168.0637305108271
 10
94.46043576740065
 20
168.0637305108271
 10
93.37987743433741
 20
168.0637305108271
 10
92.47147465678681
 20
168.0637305108271
 10
91.74933854585606
 20
168.0637305108271
 10
91.22581632376491
 20
168.0637305108271
 10
90.90796354606665
 20
168.0637305108271
 10
90.80177743498195
 20
168.0637305108271
  0
LWPOLYLINE
  5
86
330
70
100
AcDbEntity
  8
grau 10%
 62
     7
370
    35
100
AcDbPolyline
 90
       27
 70
     0
 43
0.0
 10
118.3015107614404
 20
168.5636166218131
 10
118.1992052059104
 20
168.5636166218131
 10
117.8947579837642
 20
168.5636166218131
 10
117.3916968727787
 20
168.5636166218131
 10
116.6981357618412
 20
168.5636166218131
 10
115.8235996509487
 20
168.5636166218131
 10
114.7807885400982
 20
168.5636166218131
 10
113.5848718737307
 20
168.5636166218131
 10
112.2545468740631
 20
168.5636166218131
 10
110.8078052077582
 20
168.5636166218131
 10
109.265813541477
 20
168.5636166218131
 10
107.652207986325
 20
168.5636166218131
 10
105.9892135422963
 20
168.5636166218131
 10
104.3015246538292
 20
168.5636166218131
 10
102.6141885431401
 20
168.5636166218131
 10
100.9511940991111
 20
168.5636166218131
 10
99.33723576618131
 20
168.5636166218131
 10
97.79559687767786
 20
168.5636166218131
 10
96.34885521137301
 20
168.5636166218131
 10
95.0174718783724
 20
168.5636166218131
 10
93.82261354533788
 20
168.5636166218131
 10
92.77944965670966
 20
168.5636166218131
 10
91.90526632359485
 20
168.5636166218131
 10
91.21135243487957
 20
168.5636166218131
 10
90.70793854611665
 20
168.5636166218131
 10
90.40349132397045
 20
168.5636166218131
 10
90.30153854621824
 20
168.5636166218131
  0
LINE
  5
87
330
70
100
AcDbEntity
  8
grau 10%
 62
     7
370
    35
100
AcDbLine
 10
118.3015107614404
 20
168.5636166218131
 30
0.0
 11
118.3015107614404
 21
178.1641110638574
 31
0.0
  0
LINE
  5
88
330
70
100
AcDbEntity
  8
grau 10%
 62
     7
370
    35
100
AcDbLine
 10
90.30153854621824
 20
178.1641110638574
 30
0.0
 11
90.30153854621824
 21
168.5636166218131
 31
0.0
  0
LINE
  5
89
330
70
100
AcDbEntity
  8
grau 10%
 62
     7
370
    35
100
AcDbLine
 10
118.3015107614404
 20
146.564041627313
 30
0.0
 11
117.8012718726764
 21
147.0639277382993
 31
0.0
  0
LINE
  5
8A
330
70
100
AcDbEntity
  8
grau 10%
 62
     7
370
    35
100
AcDbLine
 10
90.80177743498195
 20
147.0639277382993
 30
0.0
 11
90.30153854621824
 21
146.564041627313
 31
0.0
  0
LWPOLYLINE
  5
8B
330
70
100
AcDbEntity
  8
grau 10%
 62
     7
370
    35
100
AcDbPolyline
 90
       27
 70
     0
 43
0.0
 10
118.3015107614404
 20
146.564041627313
 10
118.1992052059104
 20
146.564041627313
 10
117.8947579837642
 20
146.564041627313
 10
117.3916968727787
 20
146.564041627313
 10
116.6981357618412
 20
146.564041627313
 10
115.8235996509487
 20
146.564041627313
 10
114.7807885400982
 20
146.564041627313
 10
113.5848718737307
 20
146.564041627313
 10
112.2545468740631
 20
146.564041627313
 10
110.8078052077582
 20
146.564041627313
 10
109.265813541477
 20
146.564041627313
 10
107.652207986325
 20
146.564041627313
 10
105.9892135422963
 20
146.564041627313
 10
104.3015246538292
 20
146.564041627313
 10
102.6141885431401
 20
146.564041627313
 10
100.9511940991111
 20
146.564041627313
 10
99.33723576618131
 20
146.564041627313
 10
97.79559687767786
 20
146.564041627313
 10
96.34885521137301
 20
146.564041627313
 10
95.0174718783724
 20
146.564041627313
 10
93.82261354533788
 20
146.564041627313
 10
92.77944965670966
 20
146.564041627313
 10
91.90526632359485
 20
146.564041627313
 10
91.21135243487957
 20
146.564041627313
 10
90.70793854611665
 20
146.564041627313
 10
90.40349132397045
 20
146.564041627313
 10
90.30153854621824
 20
146.564041627313
  0
LWPOLYLINE
  5
8C
330
70
100
AcDbEntity
  8
grau 10%
 62
     7
370
    35
100
AcDbPolyline
 90
       26
 70
     0
 43
0.0
 10
117.8012718726764
 20
147.0639277382993
 10
117.695085761592
 20
147.0639277382993
 10
117.3772329838937
 20
147.0639277382993
 10
116.8533579840245
 20
147.0639277382993
 10
116.1315746508718
 20
147.0639277382993
 10
115.2231718733209
 20
147.0639277382993
 10
114.1422607624802
 20
147.0639277382993
 10
112.9064802072334
 20
147.0639277382993
 10
111.5352329853541
 20
147.0639277382993
 10
110.0496857635032
 20
147.0639277382993
 10
108.4731218750084
 20
147.0639277382993
 10
106.8312940976412
 20
147.0639277382993
 10
105.1488968758395
 20
147.0639277382993
 10
103.4534468762635
 20
147.0639277382993
 10
101.7721079877948
 20
147.0639277382993
 10
100.1295746548721
 20
147.0639277382993
 10
98.55371632193291
 20
147.0639277382993
 10
97.06781632230423
 20
147.0639277382993
 10
95.69656910042491
 20
147.0639277382993
 10
94.46043576740065
 20
147.0639277382993
 10
93.37987743433741
 20
147.0639277382993
 10
92.47147465678681
 20
147.0639277382993
 10
91.74933854585606
 20
147.0639277382993
 10
91.22581632376491
 20
147.0639277382993
 10
90.90796354606665
 20
147.0639277382993
 10
90.80177743498195
 20
147.0639277382993
  0
LINE
  5
8D
330
70
100
AcDbEntity
  8
grau 10%
 62
     7
370
    35
100
AcDbLine
 10
90.30153854621824
 20
142.963591628213
 30
0.0
 11
90.70123576834047
 21
142.5635416283131
 31
0.0
  0
LINE
  5
8E
330
70
100
AcDbEntity
  8
grau 10%
 62
     7
370
    35
100
AcDbLine
 10
117.9014607615404
 20
142.5635416283131
 30
0.0
 11
118.3015107614404
 21
142.963591628213
 31
0.0
  0
LWPOLYLINE
  5
8F
330
70
100
AcDbEntity
  8
grau 10%
 62
     7
370
    35
100
AcDbPolyline
 90
       26
 70
     0
 43
0.0
 10
117.9014607615404
 20
142.5635416283131
 10
117.7945690949005
 20
142.5635416283131
 10
117.4738940949805
 20
142.5635416283131
 10
116.9464913173346
 20
142.5635416283131
 10
116.2190635397387
 20
142.5635416283131
 10
115.3039579844119
 20
142.5635416283131
 10
114.2156385402395
 20
142.5635416283131
 10
112.9703329849954
 20
142.5635416283131
 10
111.5888552075629
 20
142.5635416283131
 10
110.0920190968259
 20
142.5635416283131
 10
108.5038135416676
 20
142.5635416283131
 10
106.8499913198587
 20
142.5635416283131
 10
105.1555996536157
 20
142.5635416283131
 10
103.4478024318203
 20
142.5635416283131
 10
101.7534107655773
 20
142.5635416283131
 10
100.0988829882133
 20
142.5635416283131
 10
98.51067743305467
 20
142.5635416283131
 10
97.01454687787316
 20
142.5635416283131
 10
95.63236354488548
 20
142.5635416283131
 10
94.38741076741878
 20
142.5635416283131
 10
93.29873854546896
 20
142.5635416283131
 10
92.38363299014217
 20
142.5635416283131
 10
91.65655799032373
 20
142.5635416283131
 10
91.12844965712262
 20
142.5635416283131
 10
90.80883299053558
 20
142.5635416283131
 10
90.70123576834047
 20
142.5635416283131
  0
LWPOLYLINE
  5
90
330
70
100
AcDbEntity
  8
grau 10%
 62
     7
370
    35
100
AcDbPolyline
 90
       27
 70
     0
 43
0.0
 10
118.3015107614404
 20
142.963591628213
 10
118.1992052059104
 20
142.963591628213
 10
117.8947579837642
 20
142.963591628213
 10
117.3916968727787
 20
142.963591628213
 10
116.6981357618412
 20
142.963591628213
 10
115.8235996509487
 20
142.963591628213
 10
114.7807885400982
 20
142.963591628213
 10
113.5848718737307
 20
142.963591628213
 10
112.2545468740631
 20
142.963591628213
 10
110.8078052077582
 20
142.963591628213
 10
109.265813541477
 20
142.963591628213
 10
107.652207986325
 20
142.963591628213
 10
105.9892135422963
 20
142.963591628213
 10
104.3015246538292
 20
142.963591628213
 10
102.6141885431401
 20
142.963591628213
 10
100.9511940991111
 20
142.963591628213
 10
99.33723576618131
 20
142.963591628213
 10
97.79559687767786
 20
142.963591628213
 10
96.34885521137301
 20
142.963591628213
 10
95.0174718783724
 20
142.963591628213
 10
93.82261354533788
 20
142.963591628213
 10
92.77944965670966
 20
142.963591628213
 10
91.90526632359485
 20
142.963591628213
 10
91.21135243487957
 20
142.963591628213
 10
90.70793854611665
 20
142.963591628213
 10
90.40349132397045
 20
142.963591628213
 10
90.30153854621824
 20
142.963591628213
  0
LINE
  5
91
330
70
100
AcDbEntity
  8
grau 10%
 62
     7
370
    35
100
AcDbLine
 10
118.3015107614404
 20
181.2636166186381
 30
0.0
 11
118.3015107614404
 21
184.1638027290243
 31
0.0
  0
LINE
  5
92
330
70
100
AcDbEntity
  8
grau 10%
 62
     7
370
    35
100
AcDbLine
 10
90.30153854621824
 20
184.1638027290243
 30
0.0
 11
90.30153854621824
 21
181.2636166186381
 31
0.0
  0
LWPOLYLINE
  5
93
330
70
100
AcDbEntity
  8
grau 10%
 62
     7
370
    35
100
AcDbPolyline
 90
       27
 70
     0
 43
0.0
 10
118.3015107614404
 20
184.1638027290243
 10
118.1992052059104
 20
184.1638027290243
 10
117.8947579837642
 20
184.1638027290243
 10
117.3916968727787
 20
184.1638027290243
 10
116.6981357618412
 20
184.1638027290243
 10
115.8235996509487
 20
184.1638027290243
 10
114.7807885400982
 20
184.1638027290243
 10
113.5848718737307
 20
184.1638027290243
 10
112.2545468740631
 20
184.1638027290243
 10
110.8078052077582
 20
184.1638027290243
 10
109.265813541477
 20
184.1638027290243
 10
107.652207986325
 20
184.1638027290243
 10
105.9892135422963
 20
184.1638027290243
 10
104.3015246538292
 20
184.1638027290243
 10
102.6141885431401
 20
184.1638027290243
 10
100.9511940991111
 20
184.1638027290243
 10
99.33723576618131
 20
184.1638027290243
 10
97.79559687767786
 20
184.1638027290243
 10
96.34885521137301
 20
184.1638027290243
 10
95.0174718783724
 20
184.1638027290243
 10
93.82261354533788
 20
184.1638027290243
 10
92.77944965670966
 20
184.1638027290243
 10
91.90526632359485
 20
184.1638027290243
 10
91.21135243487957
 20
184.1638027290243
 10
90.70793854611665
 20
184.1638027290243
 10
90.40349132397045
 20
184.1638027290243
 10
90.30153854621824
 20
184.1638027290243
  0
LINE
  5
94
330
70
100
AcDbEntity
  8
grau 10%
 62
     7
370
    35
100
AcDbLine
 10
118.3015107614404
 20
184.1638027290243
 30
0.0
 11
117.9014607615404
 21
184.5638527289243
 31
0.0
  0
LINE
  5
95
330
70
100
AcDbEntity
  8
grau 10%
 62
     7
370
    35
100
AcDbLine
 10
90.70123576834047
 20
184.5638527289243
 30
0.0
 11
90.30153854621824
 21
184.1638027290243
 31
0.0
  0
LWPOLYLINE
  5
96
330
70
100
AcDbEntity
  8
grau 10%
 62
     7
370
    35
100
AcDbPolyline
 90
       26
 70
     0
 43
0.0
 10
117.9014607615404
 20
184.5638527289243
 10
117.7945690949005
 20
184.5638527289243
 10
117.4738940949805
 20
184.5638527289243
 10
116.9464913173346
 20
184.5638527289243
 10
116.2190635397387
 20
184.5638527289243
 10
115.3039579844119
 20
184.5638527289243
 10
114.2156385402395
 20
184.5638527289243
 10
112.9703329849954
 20
184.5638527289243
 10
111.5888552075629
 20
184.5638527289243
 10
110.0920190968259
 20
184.5638527289243
 10
108.5038135416676
 20
184.5638527289243
 10
106.8499913198587
 20
184.5638527289243
 10
105.1555996536157
 20
184.5638527289243
 10
103.4478024318203
 20
184.5638527289243
 10
101.7534107655773
 20
184.5638527289243
 10
100.0988829882133
 20
184.5638527289243
 10
98.51067743305467
 20
184.5638527289243
 10
97.01454687787316
 20
184.5638527289243
 10
95.63236354488548
 20
184.5638527289243
 10
94.38741076741878
 20
184.5638527289243
 10
93.29873854546896
 20
184.5638527289243
 10
92.38363299014217
 20
184.5638527289243
 10
91.65655799032373
 20
184.5638527289243
 10
91.12844965712262
 20
184.5638527289243
 10
90.80883299053558
 20
184.5638527289243
 10
90.70123576834047
 20
184.5638527289243
  0
LINE
  5
97
330
70
100
AcDbEntity
  8
grau 10%
 62
     7
370
    35
100
AcDbLine
 10
118.3015107614404
 20
142.963591628213
 30
0.0
 11
118.3015107614404
 21
146.564041627313
 31
0.0
  0
LINE
  5
98
330
70
100
AcDbEntity
  8
grau 10%
 62
     7
370
    35
100
AcDbLine
 10
90.30153854621824
 20
146.564041627313
 30
0.0
 11
90.30153854621824
 21
142.963591628213
 31
0.0
  0
SPLINE
  5
99
330
70
100
AcDbEntity
  8
grau 10%
 62
     7
370
    35
100
AcDbSpline
210
0.0
220
0.0
230
1.0
 70
     8
 71
     3
 72
     8
 73
     4
 74
     0
 42
0.0000000001
 43
0.0000000001
 40
0.0
 40
0.0
 40
0.0
 40
0.0
 40
1.0
 40
1.0
 40
1.0
 40
1.0
 10
118.1014857614904
 20
181.0635916186884
 30
0.0
 10
118.2119052059073
 20
181.0635916186884
 30
0.0
 10
118.3015107614404
 20
181.1531971742212
 30
0.0
 10
118.3015107614404
 20
181.2636166186381
 30
0.0
  0
SPLINE
  5
9A
330
70
100
AcDbEntity
  8
grau 10%
 62
     7
370
    35
100
AcDbSpline
210
0.0
220
0.0
230
1.0
 70
     8
 71
     3
 72
     8
 73
     4
 74
     0
 42
0.0000000001
 43
0.0000000001
 40
0.0
 40
0.0
 40
0.0
 40
0.0
 40
1.0
 40
1.0
 40
1.0
 40
1.0
 10
90.30153854621824
 20
181.2636166186381
 30
0.0
 10
90.30153854621824
 20
181.1531971742212
 30
0.0
 10
90.39079132397359
 20
181.0635916186884
 30
0.0
 10
90.50156354616822
 20
181.0635916186884
 30
0.0
  0
LWPOLYLINE
  5
9B
330
70
100
AcDbEntity
  8
grau 10%
 62
     7
370
    35
100
AcDbPolyline
 90
       26
 70
     0
 43
0.0
 10
118.1014857614904
 20
181.0635916186884
 10
117.992830205962
 20
181.0635916186884
 10
117.6679218727098
 20
181.0635916186884
 10
117.1320524283993
 20
181.0635916186884
 10
116.3943940952505
 20
181.0635916186884
 10
115.4658829843714
 20
181.0635916186884
 10
114.3609829846477
 20
181.0635916186884
 10
113.098038540519
 20
181.0635916186884
 10
111.6957468742028
 20
181.0635916186884
 10
110.1773913190268
 20
181.0635916186884
 10
108.5662552083185
 20
181.0635916186884
 10
106.8873857642938
 20
181.0635916186884
 10
105.1682996536126
 20
181.0635916186884
 10
103.4351024318235
 20
181.0635916186884
 10
101.7153107655868
 20
181.0635916186884
 10
100.0367940993398
 20
181.0635916186884
 10
98.42565798863148
 20
181.0635916186884
 10
96.90694965567773
 20
181.0635916186884
 10
95.5050107671396
 20
181.0635916186884
 10
94.24136076745538
 20
181.0635916186884
 10
93.13716632328695
 20
181.0635916186884
 10
92.2086552124081
 20
181.0635916186884
 10
91.47029132370354
 20
181.0635916186884
 10
90.9351274349485
 20
181.0635916186884
 10
90.61021910169662
 20
181.0635916186884
 10
90.50156354616822
 20
181.0635916186884
  0
LINE
  5
9C
330
70
100
AcDbEntity
  8
grau 10%
 62
     7
370
    35
100
AcDbLine
 10
118.3015107614404
 20
154.5639832919799
 30
0.0
 11
118.3015107614404
 21
160.5636749571465
 31
0.0
  0
LINE
  5
9D
330
70
100
AcDbEntity
  8
grau 10%
 62
     7
370
    35
100
AcDbLine
 10
90.30153854621824
 20
160.5636749571465
 30
0.0
 11
90.30153854621824
 21
154.5639832919799
 31
0.0
  0
LWPOLYLINE
  5
9E
330
70
100
AcDbEntity
  8
grau 10%
 62
     7
370
    35
100
AcDbPolyline
 90
       27
 70
     0
 43
0.0
 10
118.3015107614404
 20
154.5639832919799
 10
118.1992052059104
 20
154.5639832919799
 10
117.8947579837642
 20
154.5639832919799
 10
117.3916968727787
 20
154.5639832919799
 10
116.6981357618412
 20
154.5639832919799
 10
115.8235996509487
 20
154.5639832919799
 10
114.7807885400982
 20
154.5639832919799
 10
113.5848718737307
 20
154.5639832919799
 10
112.2545468740631
 20
154.5639832919799
 10
110.8078052077582
 20
154.5639832919799
 10
109.265813541477
 20
154.5639832919799
 10
107.652207986325
 20
154.5639832919799
 10
105.9892135422963
 20
154.5639832919799
 10
104.3015246538292
 20
154.5639832919799
 10
102.6141885431401
 20
154.5639832919799
 10
100.9511940991111
 20
154.5639832919799
 10
99.33723576618131
 20
154.5639832919799
 10
97.79559687767786
 20
154.5639832919799
 10
96.34885521137301
 20
154.5639832919799
 10
95.0174718783724
 20
154.5639832919799
 10
93.82261354533788
 20
154.5639832919799
 10
92.77944965670966
 20
154.5639832919799
 10
91.90526632359485
 20
154.5639832919799
 10
91.21135243487957
 20
154.5639832919799
 10
90.70793854611665
 20
154.5639832919799
 10
90.40349132397045
 20
154.5639832919799
 10
90.30153854621824
 20
154.5639832919799
  0
LWPOLYLINE
  5
9F
330
70
100
AcDbEntity
  8
grau 10%
 62
     7
370
    35
100
AcDbPolyline
 90
       27
 70
     0
 43
0.0
 10
118.3015107614404
 20
160.5636749571465
 10
118.1992052059104
 20
160.5636749571465
 10
117.8947579837642
 20
160.5636749571465
 10
117.3916968727787
 20
160.5636749571465
 10
116.6981357618412
 20
160.5636749571465
 10
115.8235996509487
 20
160.5636749571465
 10
114.7807885400982
 20
160.5636749571465
 10
113.5848718737307
 20
160.5636749571465
 10
112.2545468740631
 20
160.5636749571465
 10
110.8078052077582
 20
160.5636749571465
 10
109.265813541477
 20
160.5636749571465
 10
107.652207986325
 20
160.5636749571465
 10
105.9892135422963
 20
160.5636749571465
 10
104.3015246538292
 20
160.5636749571465
 10
102.6141885431401
 20
160.5636749571465
 10
100.9511940991111
 20
160.5636749571465
 10
99.33723576618131
 20
160.5636749571465
 10
97.79559687767786
 20
160.5636749571465
 10
96.34885521137301
 20
160.5636749571465
 10
95.0174718783724
 20
160.5636749571465
 10
93.82261354533788
 20
160.5636749571465
 10
92.77944965670966
 20
160.5636749571465
 10
91.90526632359485
 20
160.5636749571465
 10
91.21135243487957
 20
160.5636749571465
 10
90.70793854611665
 20
160.5636749571465
 10
90.40349132397045
 20
160.5636749571465
 10
90.30153854621824
 20
160.5636749571465
  0
LINE
  5
A0
330
70
100
AcDbEntity
  8
grau 10%
 62
     7
370
    35
100
AcDbLine
 10
90.30153854621824
 20
154.5639832919799
 30
0.0
 11
90.80177743498195
 21
154.0640971809936
 31
0.0
  0
LINE
  5
A1
330
70
100
AcDbEntity
  8
grau 10%
 62
     7
370
    35
100
AcDbLine
 10
117.8012718726764
 20
154.0640971809936
 30
0.0
 11
118.3015107614404
 21
154.5639832919799
 31
0.0
  0
LWPOLYLINE
  5
A2
330
70
100
AcDbEntity
  8
grau 10%
 62
     7
370
    35
100
AcDbPolyline
 90
       26
 70
     0
 43
0.0
 10
117.8012718726764
 20
154.0640971809936
 10
117.695085761592
 20
154.0640971809936
 10
117.3772329838937
 20
154.0640971809936
 10
116.8533579840245
 20
154.0640971809936
 10
116.1315746508718
 20
154.0640971809936
 10
115.2231718733209
 20
154.0640971809936
 10
114.1422607624802
 20
154.0640971809936
 10
112.9064802072334
 20
154.0640971809936
 10
111.5352329853541
 20
154.0640971809936
 10
110.0496857635032
 20
154.0640971809936
 10
108.4731218750084
 20
154.0640971809936
 10
106.8312940976412
 20
154.0640971809936
 10
105.1488968758395
 20
154.0640971809936
 10
103.4534468762635
 20
154.0640971809936
 10
101.7721079877948
 20
154.0640971809936
 10
100.1295746548721
 20
154.0640971809936
 10
98.55371632193291
 20
154.0640971809936
 10
97.06781632230423
 20
154.0640971809936
 10
95.69656910042491
 20
154.0640971809936
 10
94.46043576740065
 20
154.0640971809936
 10
93.37987743433741
 20
154.0640971809936
 10
92.47147465678681
 20
154.0640971809936
 10
91.74933854585606
 20
154.0640971809936
 10
91.22581632376491
 20
154.0640971809936
 10
90.90796354606665
 20
154.0640971809936
 10
90.80177743498195
 20
154.0640971809936
  0
LINE
  5
A3
330
70
100
AcDbEntity
  8
grau 10%
 62
     7
370
    35
100
AcDbLine
 10
118.3015107614404
 20
160.5636749571465
 30
0.0
 11
117.8012718726764
 21
161.0635610681324
 31
0.0
  0
LINE
  5
A4
330
70
100
AcDbEntity
  8
grau 10%
 62
     7
370
    35
100
AcDbLine
 10
90.80177743498195
 20
161.0635610681324
 30
0.0
 11
90.30153854621824
 21
160.5636749571465
 31
0.0
  0
LWPOLYLINE
  5
A5
330
70
100
AcDbEntity
  8
grau 10%
 62
     7
370
    35
100
AcDbPolyline
 90
       26
 70
     0
 43
0.0
 10
117.8012718726764
 20
161.0635610681324
 10
117.695085761592
 20
161.0635610681324
 10
117.3772329838937
 20
161.0635610681324
 10
116.8533579840245
 20
161.0635610681324
 10
116.1315746508718
 20
161.0635610681324
 10
115.2231718733209
 20
161.0635610681324
 10
114.1422607624802
 20
161.0635610681324
 10
112.9064802072334
 20
161.0635610681324
 10
111.5352329853541
 20
161.0635610681324
 10
110.0496857635032
 20
161.0635610681324
 10
108.4731218750084
 20
161.0635610681324
 10
106.8312940976412
 20
161.0635610681324
 10
105.1488968758395
 20
161.0635610681324
 10
103.4534468762635
 20
161.0635610681324
 10
101.7721079877948
 20
161.0635610681324
 10
100.1295746548721
 20
161.0635610681324
 10
98.55371632193291
 20
161.0635610681324
 10
97.06781632230423
 20
161.0635610681324
 10
95.69656910042491
 20
161.0635610681324
 10
94.46043576740065
 20
161.0635610681324
 10
93.37987743433741
 20
161.0635610681324
 10
92.47147465678681
 20
161.0635610681324
 10
91.74933854585606
 20
161.0635610681324
 10
91.22581632376491
 20
161.0635610681324
 10
90.90796354606665
 20
161.0635610681324
 10
90.80177743498195
 20
161.0635610681324
  0
LINE
  5
A6
330
70
100
AcDbEntity
  8
grau 10%
 62
     7
370
    35
100
AcDbLine
 10
117.8012718726764
 20
147.0639277382993
 30
0.0
 11
117.8012718726764
 21
154.0640971809936
 31
0.0
  0
LINE
  5
A7
330
70
100
AcDbEntity
  8
grau 10%
 62
     7
370
    35
100
AcDbLine
 10
90.80177743498195
 20
154.0640971809936
 30
0.0
 11
90.80177743498195
 21
147.0639277382993
 31
0.0
  0
LINE
  5
A8
330
70
100
AcDbEntity
  8
grau 10%
 62
     7
370
    35
100
AcDbLine
 10
117.8012718726764
 20
161.0635610681324
 30
0.0
 11
117.8012718726764
 21
168.0637305108271
 31
0.0
  0
LINE
  5
A9
330
70
100
AcDbEntity
  8
grau 10%
 62
     7
370
    35
100
AcDbLine
 10
90.80177743498195
 20
168.0637305108271
 30
0.0
 11
90.80177743498195
 21
161.0635610681324
 31
0.0
  0
SPLINE
  5
AA
330
70
100
AcDbEntity
  8
grau 10%
 62
     7
370
     9
100
AcDbSpline
210
0.0
220
0.0
230
1.0
 70
     8
 71
     3
 72
     8
 73
     4
 74
     0
 42
0.0000000001
 43
0.0000000001
 40
0.0
 40
0.0
 40
0.0
 40
0.0
 40
1.0
 40
1.0
 40
1.0
 40
1.0
 10
116.9514302062223
 20
181.0635916186884
 30
0.0
 10
116.7845663173751
 20
181.0635916186884
 30
0.0
 10
116.6413385396332
 20
180.9616388409359
 30
0.0
 10
116.5810135396482
 20
180.813824952084
 30
0.0
  0
SPLINE
  5
AB
330
70
100
AcDbEntity
  8
grau 10%
 62
     7
370
     9
100
AcDbSpline
210
0.0
220
0.0
230
1.0
 70
     8
 71
     3
 72
     8
 73
     4
 74
     0
 42
0.0000000001
 43
0.0000000001
 40
0.0
 40
0.0
 40
0.0
 40
0.0
 40
1.0
 40
1.0
 40
1.0
 40
1.0
 10
92.02238854578792
 20
180.813824952084
 30
0.0
 10
91.95959410135921
 20
180.968341618712
 30
0.0
 10
91.8110746569518
 20
181.0628860631329
 30
0.0
 10
91.65161910143602
 20
181.0635916186884
 30
0.0
  0
SPLINE
  5
AC
330
70
100
AcDbEntity
  8
grau 10%
 62
     7
370
     9
100
AcDbSpline
210
0.0
220
0.0
230
1.0
 70
     8
 71
     3
 72
     8
 73
     4
 74
     0
 42
0.0000000001
 43
0.0000000001
 40
0.0
 40
0.0
 40
0.0
 40
0.0
 40
1.0
 40
1.0
 40
1.0
 40
1.0
 10
91.65161910143602
 20
178.3637832860299
 30
0.0
 10
91.81848299028319
 20
178.3637832860299
 30
0.0
 10
91.96100521246995
 20
178.4660888415599
 30
0.0
 10
92.02238854578792
 20
178.6139027304117
 30
0.0
  0
SPLINE
  5
AD
330
70
100
AcDbEntity
  8
grau 10%
 62
     7
370
     9
100
AcDbSpline
210
0.0
220
0.0
230
1.0
 70
     8
 71
     3
 72
     8
 73
     4
 74
     0
 42
0.0000000001
 43
0.0000000001
 40
0.0
 40
0.0
 40
0.0
 40
0.0
 40
1.0
 40
1.0
 40
1.0
 40
1.0
 10
116.5810135396482
 20
178.6139027304117
 30
0.0
 10
116.6431024285217
 20
178.4593860637837
 30
0.0
 10
116.7912690951513
 20
178.3648416193629
 30
0.0
 10
116.9514302062223
 20
178.3637832860299
 30
0.0
  0
SPLINE
  5
AE
330
70
100
AcDbEntity
  8
grau 10%
 62
     7
370
    35
100
AcDbSpline
210
0.0
220
0.0
230
1.0
 70
     9
 71
     3
 72
    17
 73
    13
 74
     0
 42
0.0000000001
 43
0.0000000001
 40
0.0
 40
0.0
 40
0.0
 40
0.0
 40
1.0
 40
1.0
 40
1.0
 40
2.0
 40
2.0
 40
2.0
 40
3.0
 40
3.0
 40
3.0
 40
4.0
 40
4.0
 40
4.0
 40
4.0
 10
118.3015107614404
 20
104.7100465259642
 30
0.0
 10
118.3015107614404
 20
112.4415243018092
 30
0.0
 10
112.0330024296741
 20
118.7100326335755
 30
0.0
 10
104.3015246538292
 20
118.7100326335755
 30
0.0
 10
96.569341322429
 20
118.7100326335755
 30
0.0
 10
90.30153854621824
 20
112.4415243018092
 30
0.0
 10
90.30153854621824
 20
104.7100465259642
 30
0.0
 10
90.30153854621824
 20
96.97821597234153
 30
0.0
 10
96.569341322429
 20
90.70970764057554
 30
0.0
 10
104.3015246538292
 20
90.70970764057554
 30
0.0
 10
112.0330024296741
 20
90.70970764057554
 30
0.0
 10
118.3015107614404
 20
96.97821597234153
 30
0.0
 10
118.3015107614404
 20
104.7100465259642
 30
0.0
  0
SPLINE
  5
AF
330
70
100
AcDbEntity
  8
grau 10%
 62
     7
370
    35
100
AcDbSpline
210
0.0
220
0.0
230
1.0
 70
     9
 71
     3
 72
    17
 73
    13
 74
     0
 42
0.0000000001
 43
0.0000000001
 40
0.0
 40
0.0
 40
0.0
 40
0.0
 40
1.0
 40
1.0
 40
1.0
 40
2.0
 40
2.0
 40
2.0
 40
3.0
 40
3.0
 40
3.0
 40
4.0
 40
4.0
 40
4.0
 40
4.0
 10
117.9014607615404
 20
104.7100465259642
 30
0.0
 10
117.9014607615404
 20
112.2206854129754
 30
0.0
 10
111.8125163186181
 20
118.3096298558977
 30
0.0
 10
104.3015246538292
 20
118.3096298558977
 30
0.0
 10
96.79053298904019
 20
118.3096298558977
 30
0.0
 10
90.70123576834047
 20
112.2206854129754
 30
0.0
 10
90.70123576834047
 20
104.7100465259642
 30
0.0
 10
90.70123576834047
 20
97.19905486117527
 30
0.0
 10
96.79053298904019
 20
91.11011041825298
 30
0.0
 10
104.3015246538292
 20
91.11011041825298
 30
0.0
 10
111.8125163186181
 20
91.11011041825298
 30
0.0
 10
117.9014607615404
 20
97.19905486117527
 30
0.0
 10
117.9014607615404
 20
104.7100465259642
 30
0.0
  0
SPLINE
  5
B0
330
70
100
AcDbEntity
  8
grau 10%
 62
     7
370
    35
100
AcDbSpline
210
0.0
220
0.0
230
1.0
 70
     9
 71
     3
 72
    17
 73
    13
 74
     0
 42
0.0000000001
 43
0.0000000001
 40
0.0
 40
0.0
 40
0.0
 40
0.0
 40
1.0
 40
1.0
 40
1.0
 40
2.0
 40
2.0
 40
2.0
 40
3.0
 40
3.0
 40
3.0
 40
4.0
 40
4.0
 40
4.0
 40
4.0
 10
106.8016607643154
 20
104.7100465259642
 30
0.0
 10
106.8016607643154
 20
106.0904659700637
 30
0.0
 10
105.6822968757061
 20
107.2098298586727
 30
0.0
 10
104.3015246538292
 20
107.2098298586727
 30
0.0
 10
102.92110520973
 20
107.2098298586727
 30
0.0
 10
101.8017413211207
 20
106.0904659700637
 30
0.0
 10
101.8017413211207
 20
104.7100465259642
 30
0.0
 10
101.8017413211207
 20
103.3292743040873
 30
0.0
 10
102.92110520973
 20
102.2099104154783
 30
0.0
 10
104.3015246538292
 20
102.2099104154783
 30
0.0
 10
105.6822968757061
 20
102.2099104154783
 30
0.0
 10
106.8016607643154
 20
103.3292743040873
 30
0.0
 10
106.8016607643154
 20
104.7100465259642
 30
0.0
  0
SPLINE
  5
B2
330
70
100
AcDbEntity
  8
Standardebene
 62
     7
370
     9
100
AcDbSpline
210
0.0
220
0.0
230
1.0
 70
     8
 71
     3
 72
     8
 73
     4
 74
     0
 42
0.0000000001
 43
0.0000000001
 40
0.0
 40
0.0
 40
0.0
 40
0.0
 40
1.0
 40
1.0
 40
1.0
 40
1.0
 10
90.30153854621824
 20
179.1973971747102
 30
0.0
 10
90.30153854621824
 20
178.8753110636797
 30
0.0
 10
90.5629468794862
 20
178.6139027304117
 30
0.0
 10
90.88503299051664
 20
178.6139027304117
 30
0.0
  0
SPLINE
  5
B3
330
70
100
AcDbEntity
  8
Standardebene
 62
     7
370
     9
100
AcDbSpline
210
0.0
220
0.0
230
1.0
 70
     8
 71
     3
 72
     8
 73
     4
 74
     0
 42
0.0000000001
 43
0.0000000001
 40
0.0
 40
0.0
 40
0.0
 40
0.0
 40
1.0
 40
1.0
 40
1.0
 40
1.0
 10
117.7183690949194
 20
178.6139027304117
 30
0.0
 10
118.0404552059502
 20
178.6139027304117
 30
0.0
 10
118.3015107614404
 20
178.8753110636797
 30
0.0
 10
118.3015107614404
 20
179.1973971747102
 30
0.0
  0
LWPOLYLINE
  5
B4
330
70
100
AcDbEntity
  8
Standardebene
 62
     7
370
     9
100
AcDbPolyline
 90
       13
 70
     0
 43
0.0
 10
104.3015246538292
 20
178.6139027304117
 10
102.5503357653781
 20
178.6139027304117
 10
100.8291329880306
 20
178.6139027304117
 10
99.16684409955751
 20
178.6139027304117
 10
97.59310243328419
 20
178.6139027304117
 10
96.13366076698216
 20
178.6139027304117
 10
94.81462465620095
 20
178.6139027304117
 10
93.65716076760145
 20
178.6139027304117
 10
92.6820829900674
 20
178.6139027304117
 10
91.90597187915038
 20
178.6139027304117
 10
91.34223299040243
 20
178.6139027304117
 10
90.99968576826569
 20
178.6139027304117
 10
90.88503299051664
 20
178.6139027304117
  0
LWPOLYLINE
  5
B5
330
70
100
AcDbEntity
  8
Standardebene
 62
     7
370
     9
100
AcDbPolyline
 90
       13
 70
     0
 43
0.0
 10
117.7183690949194
 20
178.6139027304117
 10
117.6030107616149
 20
178.6139027304117
 10
117.2611690950336
 20
178.6139027304117
 10
116.6970774285079
 20
178.6139027304117
 10
115.9206135398135
 20
178.6139027304117
 10
114.9458885400569
 20
178.6139027304117
 10
113.7884246514574
 20
178.6139027304117
 10
112.4690357628984
 20
178.6139027304117
 10
111.0095940965967
 20
178.6139027304117
 10
109.4354996525456
 20
178.6139027304117
 10
107.7742690974054
 20
178.6139027304117
 10
106.0527135422802
 20
178.6139027304117
 10
104.3015246538292
 20
178.6139027304117
  0
LINE
  5
B6
330
70
100
AcDbEntity
  8
Standardebene
 62
     7
370
     9
100
AcDbLine
 10
118.3015107614404
 20
179.1973971747102
 30
0.0
 11
118.3015107614404
 21
180.230683285563
 31
0.0
  0
LINE
  5
B7
330
70
100
AcDbEntity
  8
Standardebene
 62
     7
370
     9
100
AcDbLine
 10
90.30153854621824
 20
180.230683285563
 30
0.0
 11
90.30153854621824
 21
179.1973971747102
 31
0.0
  0
SPLINE
  5
B8
330
70
100
AcDbEntity
  8
Standardebene
 62
     7
370
     9
100
AcDbSpline
210
0.0
220
0.0
230
1.0
 70
     8
 71
     3
 72
     8
 73
     4
 74
     0
 42
0.0000000001
 43
0.0000000001
 40
0.0
 40
0.0
 40
0.0
 40
0.0
 40
1.0
 40
1.0
 40
1.0
 40
1.0
 10
90.88503299051664
 20
180.813824952084
 30
0.0
 10
90.5629468794862
 20
180.813824952084
 30
0.0
 10
90.30153854621824
 20
180.5527693965937
 30
0.0
 10
90.30153854621824
 20
180.230683285563
 30
0.0
  0
SPLINE
  5
B9
330
70
100
AcDbEntity
  8
Standardebene
 62
     7
370
     9
100
AcDbSpline
210
0.0
220
0.0
230
1.0
 70
     8
 71
     3
 72
     8
 73
     4
 74
     0
 42
0.0000000001
 43
0.0000000001
 40
0.0
 40
0.0
 40
0.0
 40
0.0
 40
1.0
 40
1.0
 40
1.0
 40
1.0
 10
118.3015107614404
 20
180.230683285563
 30
0.0
 10
118.3015107614404
 20
180.5527693965937
 30
0.0
 10
118.0404552059502
 20
180.813824952084
 30
0.0
 10
117.7183690949194
 20
180.813824952084
 30
0.0
  0
LWPOLYLINE
  5
BA
330
70
100
AcDbEntity
  8
Standardebene
 62
     7
370
     9
100
AcDbPolyline
 90
       13
 70
     0
 43
0.0
 10
104.3015246538292
 20
180.813824952084
 10
106.0527135422802
 20
180.813824952084
 10
107.7742690974054
 20
180.813824952084
 10
109.4354996525456
 20
180.813824952084
 10
111.0095940965967
 20
180.813824952084
 10
112.4690357628984
 20
180.813824952084
 10
113.7884246514574
 20
180.813824952084
 10
114.9458885400569
 20
180.813824952084
 10
115.9206135398135
 20
180.813824952084
 10
116.6970774285079
 20
180.813824952084
 10
117.2611690950336
 20
180.813824952084
 10
117.6030107616149
 20
180.813824952084
 10
117.7183690949194
 20
180.813824952084
  0
LWPOLYLINE
  5
BB
330
70
100
AcDbEntity
  8
Standardebene
 62
     7
370
     9
100
AcDbPolyline
 90
       13
 70
     0
 43
0.0
 10
90.88503299051664
 20
180.813824952084
 10
90.99968576826569
 20
180.813824952084
 10
91.34223299040243
 20
180.813824952084
 10
91.90597187915038
 20
180.813824952084
 10
92.6820829900674
 20
180.813824952084
 10
93.65716076760145
 20
180.813824952084
 10
94.81462465620095
 20
180.813824952084
 10
96.13366076698216
 20
180.813824952084
 10
97.59310243328419
 20
180.813824952084
 10
99.16684409955751
 20
180.813824952084
 10
100.8291329880306
 20
180.813824952084
 10
102.5503357653781
 20
180.813824952084
 10
104.3015246538292
 20
180.813824952084
  0
SPLINE
  5
BC
330
70
100
AcDbEntity
  8
Standardebene
 62
     7
370
     9
100
AcDbSpline
210
0.0
220
0.0
230
1.0
 70
     8
 71
     3
 72
    17
 73
    13
 74
     0
 42
0.0000000001
 43
0.0000000001
 40
0.0
 40
0.0
 40
0.0
 40
0.0
 40
1.0
 40
1.0
 40
1.0
 40
2.0
 40
2.0
 40
2.0
 40
3.0
 40
3.0
 40
3.0
 40
4.0
 40
4.0
 40
4.0
 40
4.0
 10
105.0776357647462
 20
107.6074104141287
 30
0.0
 10
104.8112885425908
 20
107.6790243029998
 30
0.0
 10
104.5431774315467
 20
107.7125381918804
 30
0.0
 10
104.3015246538292
 20
107.7100687474364
 30
0.0
 10
102.6445274320211
 20
107.7100687474364
 30
0.0
 10
101.3011496545792
 20
106.3670437477722
 30
0.0
 10
101.3011496545792
 20
104.7100465259642
 30
0.0
 10
101.3011496545792
 20
103.0530493041562
 30
0.0
 10
102.6445274320211
 20
101.7096715267143
 30
0.0
 10
104.3015246538292
 20
101.7096715267143
 30
0.0
 10
105.6822968757061
 20
101.7096715267143
 30
0.0
 10
106.8446996531933
 20
102.6424159709256
 30
0.0
 10
107.1992413197714
 20
103.9332298594917
 30
0.0
  0
LINE
  5
BE
330
70
100
AcDbEntity
  8
Bemaßung
 62
     7
370
     9
100
AcDbLine
 10
90.30153854621824
 20
146.564041627313
 30
0.0
 11
90.30153854621824
 21
196.5635888370356
 31
0.0
  0
LINE
  5
BF
330
70
100
AcDbEntity
  8
Bemaßung
 62
     7
370
     9
100
AcDbLine
 10
118.3015107614404
 20
146.564041627313
 30
0.0
 11
118.3015107614404
 21
196.5635888370356
 31
0.0
  0
LINE
  5
C0
330
70
100
AcDbEntity
  8
Bemaßung
 62
     7
370
     9
100
AcDbLine
 10
90.30153854621824
 20
194.5636916153134
 30
0.0
 11
118.3015107614404
 21
194.5636916153134
 31
0.0
  0
LWPOLYLINE
  5
C1
330
70
100
AcDbEntity
  8
Bemaßung
 62
     7
370
     9
100
AcDbPolyline
 90
        4
 70
     0
 43
0.0
 10
90.30153854621824
 20
194.5636916153134
 10
93.80144687867637
 20
194.1029638376506
 10
93.80144687867637
 20
195.0247721707532
 10
90.30153854621824
 20
194.5636916153134
  0
LINE
  5
C2
330
70
100
AcDbEntity
  8
Bemaßung
 62
     7
370
     9
100
AcDbLine
 10
93.80144687867637
 20
194.1064916154276
 30
0.0
 11
93.77428298979451
 21
194.1064916154276
 31
0.0
  0
LINE
  5
C3
330
70
100
AcDbEntity
  8
Bemaßung
 62
     7
370
     9
100
AcDbLine
 10
93.80144687867637
 20
194.1064916154276
 30
0.0
 11
93.77428298979451
 21
194.1064916154276
 31
0.0
  0
LINE
  5
C4
330
70
100
AcDbEntity
  8
Bemaßung
 62
     7
370
     9
100
AcDbLine
 10
93.80144687867637
 20
194.1572916154149
 30
0.0
 11
93.3883441010021
 21
194.1572916154149
 31
0.0
  0
LINE
  5
C5
330
70
100
AcDbEntity
  8
Bemaßung
 62
     7
370
     9
100
AcDbLine
 10
93.80144687867637
 20
194.208091615402
 30
0.0
 11
93.00240521220967
 21
194.208091615402
 31
0.0
  0
LINE
  5
C6
330
70
100
AcDbEntity
  8
Bemaßung
 62
     7
370
     9
100
AcDbLine
 10
93.80144687867637
 20
194.2588916153894
 30
0.0
 11
92.61681910119468
 21
194.2588916153894
 31
0.0
  0
LINE
  5
C7
330
70
100
AcDbEntity
  8
Bemaßung
 62
     7
370
     9
100
AcDbLine
 10
93.80144687867637
 20
194.3096916153765
 30
0.0
 11
92.23088021240258
 21
194.3096916153765
 31
0.0
  0
LINE
  5
C8
330
70
100
AcDbEntity
  8
Bemaßung
 62
     7
370
     9
100
AcDbLine
 10
93.80144687867637
 20
194.3604916153638
 30
0.0
 11
91.84494132361015
 21
194.3604916153638
 31
0.0
  0
LINE
  5
C9
330
70
100
AcDbEntity
  8
Bemaßung
 62
     7
370
     9
100
AcDbLine
 10
93.80144687867637
 20
194.4112916153512
 30
0.0
 11
91.45900243481774
 21
194.4112916153512
 31
0.0
  0
LINE
  5
CA
330
70
100
AcDbEntity
  8
Bemaßung
 62
     7
370
     9
100
AcDbLine
 10
93.80144687867637
 20
194.4620916153386
 30
0.0
 11
91.07341632380276
 21
194.4620916153386
 31
0.0
  0
LINE
  5
CB
330
70
100
AcDbEntity
  8
Bemaßung
 62
     7
370
     9
100
AcDbLine
 10
93.80144687867637
 20
194.512891615326
 30
0.0
 11
90.68747743501067
 21
194.512891615326
 31
0.0
  0
LINE
  5
CC
330
70
100
AcDbEntity
  8
Bemaßung
 62
     7
370
     9
100
AcDbLine
 10
93.80144687867637
 20
194.5636916153134
 30
0.0
 11
90.30153854621824
 21
194.5636916153134
 31
0.0
  0
LINE
  5
CD
330
70
100
AcDbEntity
  8
Bemaßung
 62
     7
370
     9
100
AcDbLine
 10
93.80144687867637
 20
195.0212443929766
 30
0.0
 11
93.77428298979451
 21
195.0212443929766
 31
0.0
  0
LINE
  5
CE
330
70
100
AcDbEntity
  8
Bemaßung
 62
     7
370
     9
100
AcDbLine
 10
93.80144687867637
 20
195.0212443929766
 30
0.0
 11
93.77428298979451
 21
195.0212443929766
 31
0.0
  0
LINE
  5
CF
330
70
100
AcDbEntity
  8
Bemaßung
 62
     7
370
     9
100
AcDbLine
 10
93.80144687867637
 20
194.9704443929892
 30
0.0
 11
93.3883441010021
 21
194.9704443929892
 31
0.0
  0
LINE
  5
D0
330
70
100
AcDbEntity
  8
Bemaßung
 62
     7
370
     9
100
AcDbLine
 10
93.80144687867637
 20
194.9196443930022
 30
0.0
 11
93.00240521220967
 21
194.9196443930022
 31
0.0
  0
LINE
  5
D1
330
70
100
AcDbEntity
  8
Bemaßung
 62
     7
370
     9
100
AcDbLine
 10
93.80144687867637
 20
194.8688443930148
 30
0.0
 11
92.61681910119468
 21
194.8688443930148
 31
0.0
  0
LINE
  5
D2
330
70
100
AcDbEntity
  8
Bemaßung
 62
     7
370
     9
100
AcDbLine
 10
93.80144687867637
 20
194.8180443930274
 30
0.0
 11
92.23088021240258
 21
194.8180443930274
 31
0.0
  0
LINE
  5
D3
330
70
100
AcDbEntity
  8
Bemaßung
 62
     7
370
     9
100
AcDbLine
 10
93.80144687867637
 20
194.76724439304
 30
0.0
 11
91.84494132361015
 21
194.76724439304
 31
0.0
  0
LINE
  5
D4
330
70
100
AcDbEntity
  8
Bemaßung
 62
     7
370
     9
100
AcDbLine
 10
93.80144687867637
 20
194.7164443930526
 30
0.0
 11
91.45900243481774
 21
194.7164443930526
 31
0.0
  0
LINE
  5
D5
330
70
100
AcDbEntity
  8
Bemaßung
 62
     7
370
     9
100
AcDbLine
 10
93.80144687867637
 20
194.6656443930652
 30
0.0
 11
91.07341632380276
 21
194.6656443930652
 31
0.0
  0
LINE
  5
D6
330
70
100
AcDbEntity
  8
Bemaßung
 62
     7
370
     9
100
AcDbLine
 10
93.80144687867637
 20
194.6148443930782
 30
0.0
 11
90.68747743501067
 21
194.6148443930782
 31
0.0
  0
LINE
  5
D7
330
70
100
AcDbEntity
  8
Bemaßung
 62
     7
370
     9
100
AcDbLine
 10
93.80144687867637
 20
194.5636916153134
 30
0.0
 11
90.30153854621824
 21
194.5636916153134
 31
0.0
  0
LWPOLYLINE
  5
D8
330
70
100
AcDbEntity
  8
Bemaßung
 62
     7
370
     9
100
AcDbPolyline
 90
        4
 70
     0
 43
0.0
 10
118.3015107614404
 20
194.5636916153134
 10
114.801602428982
 20
195.0247721707532
 10
114.801602428982
 20
194.1029638376506
 10
118.3015107614404
 20
194.5636916153134
  0
LINE
  5
D9
330
70
100
AcDbEntity
  8
Bemaßung
 62
     7
370
     9
100
AcDbLine
 10
114.801602428982
 20
195.0212443929766
 30
0.0
 11
114.8287663178641
 21
195.0212443929766
 31
0.0
  0
LINE
  5
DA
330
70
100
AcDbEntity
  8
Bemaßung
 62
     7
370
     9
100
AcDbLine
 10
114.801602428982
 20
195.0212443929766
 30
0.0
 11
114.8287663178641
 21
195.0212443929766
 31
0.0
  0
LINE
  5
DB
330
70
100
AcDbEntity
  8
Bemaßung
 62
     7
370
     9
100
AcDbLine
 10
114.801602428982
 20
194.9704443929892
 30
0.0
 11
115.2147052066565
 21
194.9704443929892
 31
0.0
  0
LINE
  5
DC
330
70
100
AcDbEntity
  8
Bemaßung
 62
     7
370
     9
100
AcDbLine
 10
114.801602428982
 20
194.9196443930022
 30
0.0
 11
115.600644095449
 21
194.9196443930022
 31
0.0
  0
LINE
  5
DD
330
70
100
AcDbEntity
  8
Bemaßung
 62
     7
370
     9
100
AcDbLine
 10
114.801602428982
 20
194.8688443930148
 30
0.0
 11
115.9865829842414
 21
194.8688443930148
 31
0.0
  0
LINE
  5
DE
330
70
100
AcDbEntity
  8
Bemaßung
 62
     7
370
     9
100
AcDbLine
 10
114.801602428982
 20
194.8180443930274
 30
0.0
 11
116.3721690952561
 21
194.8180443930274
 31
0.0
  0
LINE
  5
DF
330
70
100
AcDbEntity
  8
Bemaßung
 62
     7
370
     9
100
AcDbLine
 10
114.801602428982
 20
194.76724439304
 30
0.0
 11
116.7581079840485
 21
194.76724439304
 31
0.0
  0
LINE
  5
E0
330
70
100
AcDbEntity
  8
Bemaßung
 62
     7
370
     9
100
AcDbLine
 10
114.801602428982
 20
194.7164443930526
 30
0.0
 11
117.1440468728409
 21
194.7164443930526
 31
0.0
  0
LINE
  5
E1
330
70
100
AcDbEntity
  8
Bemaßung
 62
     7
370
     9
100
AcDbLine
 10
114.801602428982
 20
194.6656443930652
 30
0.0
 11
117.5299857616333
 21
194.6656443930652
 31
0.0
  0
LINE
  5
E2
330
70
100
AcDbEntity
  8
Bemaßung
 62
     7
370
     9
100
AcDbLine
 10
114.801602428982
 20
194.6148443930782
 30
0.0
 11
117.9159246504257
 21
194.6148443930782
 31
0.0
  0
LINE
  5
E3
330
70
100
AcDbEntity
  8
Bemaßung
 62
     7
370
     9
100
AcDbLine
 10
114.801602428982
 20
194.5636916153134
 30
0.0
 11
118.3015107614404
 21
194.5636916153134
 31
0.0
  0
LINE
  5
E4
330
70
100
AcDbEntity
  8
Bemaßung
 62
     7
370
     9
100
AcDbLine
 10
114.801602428982
 20
194.1064916154276
 30
0.0
 11
114.8287663178641
 21
194.1064916154276
 31
0.0
  0
LINE
  5
E5
330
70
100
AcDbEntity
  8
Bemaßung
 62
     7
370
     9
100
AcDbLine
 10
114.801602428982
 20
194.1064916154276
 30
0.0
 11
114.8287663178641
 21
194.1064916154276
 31
0.0
  0
LINE
  5
E6
330
70
100
AcDbEntity
  8
Bemaßung
 62
     7
370
     9
100
AcDbLine
 10
114.801602428982
 20
194.1572916154149
 30
0.0
 11
115.2147052066565
 21
194.1572916154149
 31
0.0
  0
LINE
  5
E7
330
70
100
AcDbEntity
  8
Bemaßung
 62
     7
370
     9
100
AcDbLine
 10
114.801602428982
 20
194.208091615402
 30
0.0
 11
115.600644095449
 21
194.208091615402
 31
0.0
  0
LINE
  5
E8
330
70
100
AcDbEntity
  8
Bemaßung
 62
     7
370
     9
100
AcDbLine
 10
114.801602428982
 20
194.2588916153894
 30
0.0
 11
115.9865829842414
 21
194.2588916153894
 31
0.0
  0
LINE
  5
E9
330
70
100
AcDbEntity
  8
Bemaßung
 62
     7
370
     9
100
AcDbLine
 10
114.801602428982
 20
194.3096916153765
 30
0.0
 11
116.3721690952561
 21
194.3096916153765
 31
0.0
  0
LINE
  5
EA
330
70
100
AcDbEntity
  8
Bemaßung
 62
     7
370
     9
100
AcDbLine
 10
114.801602428982
 20
194.3604916153638
 30
0.0
 11
116.7581079840485
 21
194.3604916153638
 31
0.0
  0
LINE
  5
EB
330
70
100
AcDbEntity
  8
Bemaßung
 62
     7
370
     9
100
AcDbLine
 10
114.801602428982
 20
194.4112916153512
 30
0.0
 11
117.1440468728409
 21
194.4112916153512
 31
0.0
  0
LINE
  5
EC
330
70
100
AcDbEntity
  8
Bemaßung
 62
     7
370
     9
100
AcDbLine
 10
114.801602428982
 20
194.4620916153386
 30
0.0
 11
117.5299857616333
 21
194.4620916153386
 31
0.0
  0
LINE
  5
ED
330
70
100
AcDbEntity
  8
Bemaßung
 62
     7
370
     9
100
AcDbLine
 10
114.801602428982
 20
194.512891615326
 30
0.0
 11
117.9159246504257
 21
194.512891615326
 31
0.0
  0
LINE
  5
EE
330
70
100
AcDbEntity
  8
Bemaßung
 62
     7
370
     9
100
AcDbLine
 10
114.801602428982
 20
194.5636916153134
 30
0.0
 11
118.3015107614404
 21
194.5636916153134
 31
0.0
  0
LINE
  5
EF
330
70
100
AcDbEntity
  8
Bemaßung
 62
     7
370
     9
100
AcDbLine
 10
104.3015246538292
 20
184.5638527289243
 30
0.0
 11
78.30144966032918
 21
184.5638527289243
 31
0.0
  0
LINE
  5
F0
330
70
100
AcDbEntity
  8
Bemaßung
 62
     7
370
     9
100
AcDbLine
 10
104.3015246538292
 20
142.5635416283131
 30
0.0
 11
78.30144966032918
 21
142.5635416283131
 31
0.0
  0
LINE
  5
F1
330
70
100
AcDbEntity
  8
Bemaßung
 62
     7
370
     9
100
AcDbLine
 10
80.30169965982913
 20
184.5638527289243
 30
0.0
 11
80.30169965982913
 21
142.5635416283131
 31
0.0
  0
LWPOLYLINE
  5
F2
330
70
100
AcDbEntity
  8
Bemaßung
 62
     7
370
     9
100
AcDbPolyline
 90
        4
 70
     0
 43
0.0
 10
80.30169965982913
 20
184.5638527289243
 10
79.84061910438893
 20
181.0635916186884
 10
80.76207465971416
 20
181.0635916186884
 10
80.30169965982913
 20
184.5638527289243
  0
LINE
  5
F3
330
70
100
AcDbEntity
  8
Bemaßung
 62
     7
370
     9
100
AcDbLine
 10
79.84449965994335
 20
181.0635916186884
 30
0.0
 11
79.84449965994335
 21
181.0907555075703
 31
0.0
  0
LINE
  5
F4
330
70
100
AcDbEntity
  8
Bemaßung
 62
     7
370
     9
100
AcDbLine
 10
79.84449965994335
 20
181.0635916186884
 30
0.0
 11
79.84449965994335
 21
181.0907555075703
 31
0.0
  0
LINE
  5
F5
330
70
100
AcDbEntity
  8
Bemaßung
 62
     7
370
     9
100
AcDbLine
 10
79.89529965993073
 20
181.0635916186884
 30
0.0
 11
79.89529965993073
 21
181.4770471741404
 31
0.0
  0
LINE
  5
F6
330
70
100
AcDbEntity
  8
Bemaßung
 62
     7
370
     9
100
AcDbLine
 10
79.94574688214036
 20
181.0635916186884
 30
0.0
 11
79.94574688214036
 21
181.8626332851551
 31
0.0
  0
LINE
  5
F7
330
70
100
AcDbEntity
  8
Bemaßung
 62
     7
370
     9
100
AcDbLine
 10
79.99654688212773
 20
181.0635916186884
 30
0.0
 11
79.99654688212773
 21
182.2489249517253
 31
0.0
  0
LINE
  5
F8
330
70
100
AcDbEntity
  8
Bemaßung
 62
     7
370
     9
100
AcDbLine
 10
80.04734688211511
 20
181.0635916186884
 30
0.0
 11
80.04734688211511
 21
182.6341582849622
 31
0.0
  0
LINE
  5
F9
330
70
100
AcDbEntity
  8
Bemaßung
 62
     7
370
     9
100
AcDbLine
 10
80.09814688210218
 20
181.0635916186884
 30
0.0
 11
80.09814688210218
 21
183.0204499515323
 31
0.0
  0
LINE
  5
FA
330
70
100
AcDbEntity
  8
Bemaßung
 62
     7
370
     9
100
AcDbLine
 10
80.14894688208956
 20
181.0635916186884
 30
0.0
 11
80.14894688208956
 21
183.406036062547
 31
0.0
  0
LINE
  5
FB
330
70
100
AcDbEntity
  8
Bemaßung
 62
     7
370
     9
100
AcDbLine
 10
80.20009965985471
 20
181.0635916186884
 30
0.0
 11
80.20009965985471
 21
183.7923277291172
 31
0.0
  0
LINE
  5
FC
330
70
100
AcDbEntity
  8
Bemaßung
 62
     7
370
     9
100
AcDbLine
 10
80.25089965984177
 20
181.0635916186884
 30
0.0
 11
80.25089965984177
 21
184.1782666179096
 31
0.0
  0
LINE
  5
FD
330
70
100
AcDbEntity
  8
Bemaßung
 62
     7
370
     9
100
AcDbLine
 10
80.30169965982913
 20
181.0635916186884
 30
0.0
 11
80.30169965982913
 21
184.5638527289243
 31
0.0
  0
LINE
  5
FE
330
70
100
AcDbEntity
  8
Bemaßung
 62
     7
370
     9
100
AcDbLine
 10
80.75889965971494
 20
181.0635916186884
 30
0.0
 11
80.75889965971494
 21
181.0907555075703
 31
0.0
  0
LINE
  5
FF
330
70
100
AcDbEntity
  8
Bemaßung
 62
     7
370
     9
100
AcDbLine
 10
80.75889965971494
 20
181.0635916186884
 30
0.0
 11
80.75889965971494
 21
181.0907555075703
 31
0.0
  0
LINE
  5
100
330
70
100
AcDbEntity
  8
Bemaßung
 62
     7
370
     9
100
AcDbLine
 10
80.7077468819498
 20
181.0635916186884
 30
0.0
 11
80.7077468819498
 21
181.4770471741404
 31
0.0
  0
LINE
  5
101
330
70
100
AcDbEntity
  8
Bemaßung
 62
     7
370
     9
100
AcDbLine
 10
80.65694688196273
 20
181.0635916186884
 30
0.0
 11
80.65694688196273
 21
181.8626332851551
 31
0.0
  0
LINE
  5
102
330
70
100
AcDbEntity
  8
Bemaßung
 62
     7
370
     9
100
AcDbLine
 10
80.60614688197535
 20
181.0635916186884
 30
0.0
 11
80.60614688197535
 21
182.2489249517253
 31
0.0
  0
LINE
  5
103
330
70
100
AcDbEntity
  8
Bemaßung
 62
     7
370
     9
100
AcDbLine
 10
80.55534688198797
 20
181.0635916186884
 30
0.0
 11
80.55534688198797
 21
182.6341582849622
 31
0.0
  0
LINE
  5
104
330
70
100
AcDbEntity
  8
Bemaßung
 62
     7
370
     9
100
AcDbLine
 10
80.5045468820006
 20
181.0635916186884
 30
0.0
 11
80.5045468820006
 21
183.0204499515323
 31
0.0
  0
LINE
  5
105
330
70
100
AcDbEntity
  8
Bemaßung
 62
     7
370
     9
100
AcDbLine
 10
80.45409965979096
 20
181.0635916186884
 30
0.0
 11
80.45409965979096
 21
183.406036062547
 31
0.0
  0
LINE
  5
106
330
70
100
AcDbEntity
  8
Bemaßung
 62
     7
370
     9
100
AcDbLine
 10
80.4032996598039
 20
181.0635916186884
 30
0.0
 11
80.4032996598039
 21
183.7923277291172
 31
0.0
  0
LINE
  5
107
330
70
100
AcDbEntity
  8
Bemaßung
 62
     7
370
     9
100
AcDbLine
 10
80.35249965981654
 20
181.0635916186884
 30
0.0
 11
80.35249965981654
 21
184.1782666179096
 31
0.0
  0
LINE
  5
108
330
70
100
AcDbEntity
  8
Bemaßung
 62
     7
370
     9
100
AcDbLine
 10
80.30169965982913
 20
181.0635916186884
 30
0.0
 11
80.30169965982913
 21
184.5638527289243
 31
0.0
  0
LWPOLYLINE
  5
109
330
70
100
AcDbEntity
  8
Bemaßung
 62
     7
370
     9
100
AcDbPolyline
 90
        4
 70
     0
 43
0.0
 10
80.30169965982913
 20
142.5635416283131
 10
80.76207465971416
 20
146.0638027385493
 10
79.84061910438893
 20
146.0638027385493
 10
80.30169965982913
 20
142.5635416283131
  0
LINE
  5
10A
330
70
100
AcDbEntity
  8
Bemaßung
 62
     7
370
     9
100
AcDbLine
 10
80.75889965971494
 20
146.0638027385493
 30
0.0
 11
80.75889965971494
 21
146.0366388496671
 31
0.0
  0
LINE
  5
10B
330
70
100
AcDbEntity
  8
Bemaßung
 62
     7
370
     9
100
AcDbLine
 10
80.75889965971494
 20
146.0638027385493
 30
0.0
 11
80.75889965971494
 21
146.0366388496671
 31
0.0
  0
LINE
  5
10C
330
70
100
AcDbEntity
  8
Bemaßung
 62
     7
370
     9
100
AcDbLine
 10
80.7077468819498
 20
146.0638027385493
 30
0.0
 11
80.7077468819498
 21
145.6503471830969
 31
0.0
  0
LINE
  5
10D
330
70
100
AcDbEntity
  8
Bemaßung
 62
     7
370
     9
100
AcDbLine
 10
80.65694688196273
 20
146.0638027385493
 30
0.0
 11
80.65694688196273
 21
145.2647610720823
 31
0.0
  0
LINE
  5
10E
330
70
100
AcDbEntity
  8
Bemaßung
 62
     7
370
     9
100
AcDbLine
 10
80.60614688197535
 20
146.0638027385493
 30
0.0
 11
80.60614688197535
 21
144.8791749610676
 31
0.0
  0
LINE
  5
10F
330
70
100
AcDbEntity
  8
Bemaßung
 62
     7
370
     9
100
AcDbLine
 10
80.55534688198797
 20
146.0638027385493
 30
0.0
 11
80.55534688198797
 21
144.4932360722752
 31
0.0
  0
LINE
  5
110
330
70
100
AcDbEntity
  8
Bemaßung
 62
     7
370
     9
100
AcDbLine
 10
80.5045468820006
 20
146.0638027385493
 30
0.0
 11
80.5045468820006
 21
144.106944405705
 31
0.0
  0
LINE
  5
111
330
70
100
AcDbEntity
  8
Bemaßung
 62
     7
370
     9
100
AcDbLine
 10
80.45409965979096
 20
146.0638027385493
 30
0.0
 11
80.45409965979096
 21
143.7213582946903
 31
0.0
  0
LINE
  5
112
330
70
100
AcDbEntity
  8
Bemaßung
 62
     7
370
     9
100
AcDbLine
 10
80.4032996598039
 20
146.0638027385493
 30
0.0
 11
80.4032996598039
 21
143.3357721836757
 31
0.0
  0
LINE
  5
113
330
70
100
AcDbEntity
  8
Bemaßung
 62
     7
370
     9
100
AcDbLine
 10
80.35249965981654
 20
146.0638027385493
 30
0.0
 11
80.35249965981654
 21
142.9498332948832
 31
0.0
  0
LINE
  5
114
330
70
100
AcDbEntity
  8
Bemaßung
 62
     7
370
     9
100
AcDbLine
 10
80.30169965982913
 20
146.0638027385493
 30
0.0
 11
80.30169965982913
 21
142.5635416283131
 31
0.0
  0
LINE
  5
115
330
70
100
AcDbEntity
  8
Bemaßung
 62
     7
370
     9
100
AcDbLine
 10
79.84449965994335
 20
146.0638027385493
 30
0.0
 11
79.84449965994335
 21
146.0366388496671
 31
0.0
  0
LINE
  5
116
330
70
100
AcDbEntity
  8
Bemaßung
 62
     7
370
     9
100
AcDbLine
 10
79.84449965994335
 20
146.0638027385493
 30
0.0
 11
79.84449965994335
 21
146.0366388496671
 31
0.0
  0
LINE
  5
117
330
70
100
AcDbEntity
  8
Bemaßung
 62
     7
370
     9
100
AcDbLine
 10
79.89529965993073
 20
146.0638027385493
 30
0.0
 11
79.89529965993073
 21
145.6503471830969
 31
0.0
  0
LINE
  5
118
330
70
100
AcDbEntity
  8
Bemaßung
 62
     7
370
     9
100
AcDbLine
 10
79.94574688214036
 20
146.0638027385493
 30
0.0
 11
79.94574688214036
 21
145.2647610720823
 31
0.0
  0
LINE
  5
119
330
70
100
AcDbEntity
  8
Bemaßung
 62
     7
370
     9
100
AcDbLine
 10
79.99654688212773
 20
146.0638027385493
 30
0.0
 11
79.99654688212773
 21
144.8791749610676
 31
0.0
  0
LINE
  5
11A
330
70
100
AcDbEntity
  8
Bemaßung
 62
     7
370
     9
100
AcDbLine
 10
80.04734688211511
 20
146.0638027385493
 30
0.0
 11
80.04734688211511
 21
144.4932360722752
 31
0.0
  0
LINE
  5
11B
330
70
100
AcDbEntity
  8
Bemaßung
 62
     7
370
     9
100
AcDbLine
 10
80.09814688210218
 20
146.0638027385493
 30
0.0
 11
80.09814688210218
 21
144.106944405705
 31
0.0
  0
LINE
  5
11C
330
70
100
AcDbEntity
  8
Bemaßung
 62
     7
370
     9
100
AcDbLine
 10
80.14894688208956
 20
146.0638027385493
 30
0.0
 11
80.14894688208956
 21
143.7213582946903
 31
0.0
  0
LINE
  5
11D
330
70
100
AcDbEntity
  8
Bemaßung
 62
     7
370
     9
100
AcDbLine
 10
80.20009965985471
 20
146.0638027385493
 30
0.0
 11
80.20009965985471
 21
143.3357721836757
 31
0.0
  0
LINE
  5
11E
330
70
100
AcDbEntity
  8
Bemaßung
 62
     7
370
     9
100
AcDbLine
 10
80.25089965984177
 20
146.0638027385493
 30
0.0
 11
80.25089965984177
 21
142.9498332948832
 31
0.0
  0
LINE
  5
11F
330
70
100
AcDbEntity
  8
Bemaßung
 62
     7
370
     9
100
AcDbLine
 10
80.30169965982913
 20
146.0638027385493
 30
0.0
 11
80.30169965982913
 21
142.5635416283131
 31
0.0
  0
MTEXT
  5
121
330
70
100
AcDbEntity
  8
Text
100
AcDbMText
 10
102.0871122528867
 20
197.1943372445382
 30
0.0
 40
0.2
 41
0.0
 46
0.0
 71
     7
 72
     1
  1
\C7;\FINDEX Univers 45 Light|b0|i0|c1;\H3.447529;\W1.000000;ø28
 73
     1
 44
1.0
  0
MTEXT
  5
122
330
70
100
AcDbEntity
  8
Text
100
AcDbMText
 10
78.54559324208236
 20
161.6912502308445
 30
0.0
 40
0.2
 41
0.0
 46
0.0
 71
     7
 72
     1
  1
\C7;\FINDEX Univers 45 Light|b0|i0|c1;\H3.447529;\W1.000000;42
 11
0.0000000000000001
 21
1.0
 31
0.0
 73
     1
 44
1.0
  0
ENDSEC
  0
SECTION
  2
OBJECTS
  0
DICTIONARY
  5
C
330
0
100
AcDbDictionary
281
     1
  3
ACAD_COLOR
350
63
  3
ACAD_DETAILVIEWSTYLE
350
6A
  3
ACAD_GROUP
350
D
  3
ACAD_LAYOUT
350
62
  3
ACAD_MATERIAL
350
10
  3
ACAD_MLEADERSTYLE
350
66
  3
ACAD_MLINESTYLE
350
5F
  3
ACAD_PLOTSETTINGS
350
61
  3
ACAD_PLOTSTYLENAME
350
E
  3
ACAD_SCALELIST
350
42
  3
ACAD_SECTIONVIEWSTYLE
350
68
  3
ACAD_TABLESTYLE
350
64
  3
ACAD_VISUALSTYLE
350
29
  3
ACDB_RECOMPOSE_DATA
350
12B
  3
AcDbVariableDictionary
350
123
  0
DICTIONARY
  5
63
102
{ACAD_REACTORS
330
C
102
}
330
C
100
AcDbDictionary
281
     1
  0
DICTIONARY
  5
6A
102
{ACAD_REACTORS
330
C
102
}
330
C
100
AcDbDictionary
281
     1
  3
Imperial24
350
6B
  0
DICTIONARY
  5
D
102
{ACAD_REACTORS
330
C
102
}
330
C
100
AcDbDictionary
281
     1
  0
DICTIONARY
  5
62
102
{ACAD_REACTORS
330
C
102
}
330
C
100
AcDbDictionary
281
     1
  3
Layout1
350
6F
  3
Layout2
350
77
  3
Model
350
73
  0
DICTIONARY
  5
10
102
{ACAD_REACTORS
330
C
102
}
330
C
100
AcDbDictionary
281
     1
  3
ByBlock
350
19
  3
ByLayer
350
11
  3
Global
350
21
  0
DICTIONARY
  5
66
102
{ACAD_REACTORS
330
C
102
}
330
C
100
AcDbDictionary
281
     1
  3
Standard
350
67
  0
DICTIONARY
  5
5F
102
{ACAD_REACTORS
330
C
102
}
330
C
100
AcDbDictionary
281
     1
  3
Standard
350
60
  0
DICTIONARY
  5
61
102
{ACAD_REACTORS
330
C
102
}
330
C
100
AcDbDictionary
281
     1
  0
ACDBDICTIONARYWDFLT
  5
E
102
{ACAD_REACTORS
330
C
102
}
330
C
100
AcDbDictionary
281
     1
  3
Normal
350
F
100
AcDbDictionaryWithDefault
340
F
  0
DICTIONARY
  5
42
102
{ACAD_REACTORS
330
C
102
}
330
C
100
AcDbDictionary
281
     1
  3
A0
350
43
  3
A1
350
44
  3
A2
350
45
  3
A3
350
46
  3
A4
350
47
  3
A5
350
48
  3
A6
350
49
  3
A7
350
4A
  3
A8
350
4B
  3
A9
350
4C
  3
B0
350
4D
  3
B1
350
4E
  3
B2
350
4F
  3
B3
350
50
  3
B4
350
51
  3
B5
350
52
  3
B6
350
53
  0
DICTIONARY
  5
68
102
{ACAD_REACTORS
330
C
102
}
330
C
100
AcDbDictionary
281
     1
  3
Imperial24
350
69
  0
DICTIONARY
  5
64
102
{ACAD_REACTORS
330
C
102
}
330
C
100
AcDbDictionary
281
     1
  3
Standard
350
65
  0
DICTIONARY
  5
29
102
{ACAD_REACTORS
330
C
102
}
330
C
100
AcDbDictionary
281
     1
  3
2dWireframe
350
2F
  3
Basic
350
2E
  3
Brighten
350
35
  3
ColorChange
350
39
  3
Conceptual
350
32
  3
Dim
350
34
  3
EdgeColorOff
350
41
  3
Facepattern
350
38
  3
Flat
350
2A
  3
FlatWithEdges
350
2B
  3
Gouraud
350
2C
  3
GouraudWithEdges
350
2D
  3
Hidden
350
31
  3
JitterOff
350
3F
  3
Linepattern
350
37
  3
OverhangOff
350
40
  3
Realistic
350
33
  3
Shaded
350
3E
  3
Shaded with edges
350
3D
  3
Shades of Gray
350
3A
  3
Sketchy
350
3B
  3
Thicken
350
36
  3
Wireframe
350
30
  3
X-Ray
350
3C
  0
XRECORD
  5
12B
102
{ACAD_REACTORS
330
C
102
}
330
C
100
AcDbXrecord
280
     1
 90
        1
330
65
  0
DICTIONARY
  5
123
102
{ACAD_REACTORS
330
C
102
}
330
C
100
AcDbDictionary
281
     1
  3
CANNOSCALE
350
128
  3
CMLEADERSTYLE
350
125
  3
CTABLESTYLE
350
124
  3
CVIEWDETAILSTYLE
350
126
  3
CVIEWSECTIONSTYLE
350
127
  0
ACDBDETAILVIEWSTYLE
  5
6B
102
{ACAD_REACTORS
330
6A
102
}
330
6A
100
AcDbModelDocViewStyle
 70
     0
  3
Imperial24
290
     1
300
Imperial24
 90
        0
100
AcDbDetailViewStyle
 70
     0
 71
     0
 90
        3
 71
     1
340
55
 62
   256
 40
0.24
340
0
 62
   256
 40
0.24
300

 40
0.36
280
     3
 71
     2
340
5D
 90
       25
 62
   256
 71
     3
340
55
 62
   256
 40
0.24
 90
        1
 40
0.75
 90
        1
300
%<\AcVar ViewType \f "%tc1">% %<\AcVar ViewDetailId>%\PSCALE %<\AcVar ViewScale \f "%sn">%
 71
     4
340
5D
 90
       25
 62
   256
340
5D
 90
       25
 62
   256
280
     0
  0
LAYOUT
  5
6F
102
{ACAD_REACTORS
330
62
102
}
330
62
100
AcDbPlotSettings
  1

  2

  4

  6

 40
0.0
 41
0.0
 42
0.0
 43
0.0
 44
0.0
 45
0.0
 46
0.0
 47
0.0
 48
0.0
 49
0.0
140
0.0
141
0.0
142
1.0
143
1.0
 70
   688
 72
     0
 73
     0
 74
     5
  7

 75
    16
147
1.0
 76
     0
 77
     2
 78
   300
148
0.0
149
0.0
100
AcDbLayout
  1
Layout1
 70
     1
 71
     1
 10
0.0
 20
0.0
 11
12.0
 21
9.0
 12
0.0
 22
0.0
 32
0.0
 14
0.0
 24
0.0
 34
0.0
 15
0.0
 25
0.0
 35
0.0
146
0.0
 13
0.0
 23
0.0
 33
0.0
 16
1.0
 26
0.0
 36
0.0
 17
0.0
 27
1.0
 37
0.0
 76
     0
330
6C
  0
LAYOUT
  5
77
102
{ACAD_REACTORS
330
62
102
}
330
62
100
AcDbPlotSettings
  1

  2

  4

  6

 40
0.0
 41
0.0
 42
0.0
 43
0.0
 44
0.0
 45
0.0
 46
0.0
 47
0.0
 48
0.0
 49
0.0
140
0.0
141
0.0
142
1.0
143
1.0
 70
   688
 72
     0
 73
     0
 74
     5
  7

 75
    16
147
1.0
 76
     0
 77
     2
 78
   300
148
0.0
149
0.0
100
AcDbLayout
  1
Layout2
 70
     1
 71
     2
 10
0.0
 20
0.0
 11
12.0
 21
9.0
 12
0.0
 22
0.0
 32
0.0
 14
0.0
 24
0.0
 34
0.0
 15
0.0
 25
0.0
 35
0.0
146
0.0
 13
0.0
 23
0.0
 33
0.0
 16
1.0
 26
0.0
 36
0.0
 17
0.0
 27
1.0
 37
0.0
 76
     0
330
74
  0
LAYOUT
  5
73
102
{ACAD_REACTORS
330
62
102
}
330
62
100
AcDbPlotSettings
  1

  2

  4

  6

 40
0.0
 41
0.0
 42
0.0
 43
0.0
 44
0.0
 45
0.0
 46
0.0
 47
0.0
 48
0.0
 49
0.0
140
0.0
141
0.0
142
1.0
143
1.0
 70
  1712
 72
     0
 73
     0
 74
     0
  7

 75
     0
147
1.0
 76
     0
 77
     2
 78
   300
148
0.0
149
0.0
100
AcDbLayout
  1
Model
 70
     1
 71
     0
 10
0.0
 20
0.0
 11
12.0
 21
9.0
 12
0.0
 22
0.0
 32
0.0
 14
0.0
 24
0.0
 34
0.0
 15
0.0
 25
0.0
 35
0.0
146
0.0
 13
0.0
 23
0.0
 33
0.0
 16
1.0
 26
0.0
 36
0.0
 17
0.0
 27
1.0
 37
0.0
 76
     0
330
70
  0
MATERIAL
  5
19
102
{ACAD_XDICTIONARY
360
1A
102
}
102
{ACAD_REACTORS
330
10
102
}
330
10
100
AcDbMaterial
  1
ByBlock
 72
     0
 43
0.0208333333333333
 43
0.0
 43
0.0
 43
0.0
 43
0.0
 43
0.0208333333333333
 43
0.0
 43
0.0
 43
0.0
 43
0.0
 43
1.0
 43
0.0
 43
0.0
 43
0.0
 43
0.0
 43
1.0
 77
     0
 47
0.0208333333333333
 47
0.0
 47
0.0
 47
0.0
 47
0.0
 47
0.0208333333333333
 47
0.0
 47
0.0
 47
0.0
 47
0.0
 47
1.0
 47
0.0
 47
0.0
 47
0.0
 47
0.0
 47
1.0
171
     0
 49
0.0208333333333333
 49
0.0
 49
0.0
 49
0.0
 49
0.0
 49
0.0208333333333333
 49
0.0
 49
0.0
 49
0.0
 49
0.0
 49
1.0
 49
0.0
 49
0.0
 49
0.0
 49
0.0
 49
1.0
175
     0
142
0.0208333333333333
142
0.0
142
0.0
142
0.0
142
0.0
142
0.0208333333333333
142
0.0
142
0.0
142
0.0
142
0.0
142
1.0
142
0.0
142
0.0
142
0.0
142
0.0
142
1.0
179
     0
144
0.0208333333333333
144
0.0
144
0.0
144
0.0
144
0.0
144
0.0208333333333333
144
0.0
144
0.0
144
0.0
144
0.0
144
1.0
144
0.0
144
0.0
144
0.0
144
0.0
144
1.0
147
0.0208333333333333
147
0.0
147
0.0
147
0.0
147
0.0
147
0.0208333333333333
147
0.0
147
0.0
147
0.0
147
0.0
147
1.0
147
0.0
147
0.0
147
0.0
147
0.0
147
1.0
  0
MATERIAL
  5
11
102
{ACAD_XDICTIONARY
360
12
102
}
102
{ACAD_REACTORS
330
10
102
}
330
10
100
AcDbMaterial
  1
ByLayer
 72
     0
 43
0.0208333333333333
 43
0.0
 43
0.0
 43
0.0
 43
0.0
 43
0.0208333333333333
 43
0.0
 43
0.0
 43
0.0
 43
0.0
 43
1.0
 43
0.0
 43
0.0
 43
0.0
 43
0.0
 43
1.0
 77
     0
 47
0.0208333333333333
 47
0.0
 47
0.0
 47
0.0
 47
0.0
 47
0.0208333333333333
 47
0.0
 47
0.0
 47
0.0
 47
0.0
 47
1.0
 47
0.0
 47
0.0
 47
0.0
 47
0.0
 47
1.0
171
     0
 49
0.0208333333333333
 49
0.0
 49
0.0
 49
0.0
 49
0.0
 49
0.0208333333333333
 49
0.0
 49
0.0
 49
0.0
 49
0.0
 49
1.0
 49
0.0
 49
0.0
 49
0.0
 49
0.0
 49
1.0
175
     0
142
0.0208333333333333
142
0.0
142
0.0
142
0.0
142
0.0
142
0.0208333333333333
142
0.0
142
0.0
142
0.0
142
0.0
142
1.0
142
0.0
142
0.0
142
0.0
142
0.0
142
1.0
179
     0
144
0.0208333333333333
144
0.0
144
0.0
144
0.0
144
0.0
144
0.0208333333333333
144
0.0
144
0.0
144
0.0
144
0.0
144
1.0
144
0.0
144
0.0
144
0.0
144
0.0
144
1.0
147
0.0208333333333333
147
0.0
147
0.0
147
0.0
147
0.0
147
0.0208333333333333
147
0.0
147
0.0
147
0.0
147
0.0
147
1.0
147
0.0
147
0.0
147
0.0
147
0.0
147
1.0
  0
MATERIAL
  5
21
102
{ACAD_XDICTIONARY
360
22
102
}
102
{ACAD_REACTORS
330
10
102
}
330
10
100
AcDbMaterial
  1
Global
 72
     0
 43
0.0208333333333333
 43
0.0
 43
0.0
 43
0.0
 43
0.0
 43
0.0208333333333333
 43
0.0
 43
0.0
 43
0.0
 43
0.0
 43
1.0
 43
0.0
 43
0.0
 43
0.0
 43
0.0
 43
1.0
 77
     0
 47
0.0208333333333333
 47
0.0
 47
0.0
 47
0.0
 47
0.0
 47
0.0208333333333333
 47
0.0
 47
0.0
 47
0.0
 47
0.0
 47
1.0
 47
0.0
 47
0.0
 47
0.0
 47
0.0
 47
1.0
171
     0
 49
0.0208333333333333
 49
0.0
 49
0.0
 49
0.0
 49
0.0
 49
0.0208333333333333
 49
0.0
 49
0.0
 49
0.0
 49
0.0
 49
1.0
 49
0.0
 49
0.0
 49
0.0
 49
0.0
 49
1.0
175
     0
142
0.0208333333333333
142
0.0
142
0.0
142
0.0
142
0.0
142
0.0208333333333333
142
0.0
142
0.0
142
0.0
142
0.0
142
1.0
142
0.0
142
0.0
142
0.0
142
0.0
142
1.0
179
     0
144
0.0208333333333333
144
0.0
144
0.0
144
0.0
144
0.0
144
0.0208333333333333
144
0.0
144
0.0
144
0.0
144
0.0
144
1.0
144
0.0
144
0.0
144
0.0
144
0.0
144
1.0
147
0.0208333333333333
147
0.0
147
0.0
147
0.0
147
0.0
147
0.0208333333333333
147
0.0
147
0.0
147
0.0
147
0.0
147
1.0
147
0.0
147
0.0
147
0.0
147
0.0
147
1.0
  0
MLEADERSTYLE
  5
67
102
{ACAD_REACTORS
330
66
102
}
330
66
100
AcDbMLeaderStyle
179
     2
170
     2
171
     1
172
     0
 90
        2
 40
0.0
 41
0.0
173
     1
 91
-1056964608
340
5B
 92
       -2
290
     1
 42
0.09
291
     1
 43
0.36
  3
Standard
 44
0.18
300

342
55
174
     1
178
     6
175
     1
176
     0
 93
-1056964608
 45
0.18
292
     0
297
     0
 46
0.18
 94
-1056964608
 47
1.0
 49
1.0
140
1.0
293
     1
141
0.0
294
     1
177
     0
142
1.0
295
     1
296
     0
143
0.125
271
     0
272
     9
273
     9
298
     1
  0
MLINESTYLE
  5
60
102
{ACAD_REACTORS
330
5F
102
}
330
5F
100
AcDbMlineStyle
  2
STANDARD
 70
     0
  3

 62
   256
 51
90.0
 52
90.0
 71
     2
 49
0.5
 62
   256
  6
BYLAYER
 49
-0.5
 62
   256
  6
BYLAYER
  0
ACDBPLACEHOLDER
  5
F
102
{ACAD_REACTORS
330
E
102
}
330
E
  0
SCALE
  5
43
102
{ACAD_REACTORS
330
42
102
}
330
42
100
AcDbScale
 70
     0
300
1:1
140
1.0
141
1.0
290
     1
  0
SCALE
  5
44
102
{ACAD_REACTORS
330
42
102
}
330
42
100
AcDbScale
 70
     0
300
1/128" = 1'-0"
140
0.0078125
141
12.0
290
     0
  0
SCALE
  5
45
102
{ACAD_REACTORS
330
42
102
}
330
42
100
AcDbScale
 70
     0
300
1/64" = 1'-0"
140
0.015625
141
12.0
290
     0
  0
SCALE
  5
46
102
{ACAD_REACTORS
330
42
102
}
330
42
100
AcDbScale
 70
     0
300
1/32" = 1'-0"
140
0.03125
141
12.0
290
     0
  0
SCALE
  5
47
102
{ACAD_REACTORS
330
42
102
}
330
42
100
AcDbScale
 70
     0
300
1/16" = 1'-0"
140
0.0625
141
12.0
290
     0
  0
SCALE
  5
48
102
{ACAD_REACTORS
330
42
102
}
330
42
100
AcDbScale
 70
     0
300
3/32" = 1'-0"
140
0.09375
141
12.0
290
     0
  0
SCALE
  5
49
102
{ACAD_REACTORS
330
42
102
}
330
42
100
AcDbScale
 70
     0
300
1/8" = 1'-0"
140
0.125
141
12.0
290
     0
  0
SCALE
  5
4A
102
{ACAD_REACTORS
330
42
102
}
330
42
100
AcDbScale
 70
     0
300
3/16" = 1'-0"
140
0.1875
141
12.0
290
     0
  0
SCALE
  5
4B
102
{ACAD_REACTORS
330
42
102
}
330
42
100
AcDbScale
 70
     0
300
1/4" = 1'-0"
140
0.25
141
12.0
290
     0
  0
SCALE
  5
4C
102
{ACAD_REACTORS
330
42
102
}
330
42
100
AcDbScale
 70
     0
300
3/8" = 1'-0"
140
0.375
141
12.0
290
     0
  0
SCALE
  5
4D
102
{ACAD_REACTORS
330
42
102
}
330
42
100
AcDbScale
 70
     0
300
1/2" = 1'-0"
140
0.5
141
12.0
290
     0
  0
SCALE
  5
4E
102
{ACAD_REACTORS
330
42
102
}
330
42
100
AcDbScale
 70
     0
300
3/4" = 1'-0"
140
0.75
141
12.0
290
     0
  0
SCALE
  5
4F
102
{ACAD_REACTORS
330
42
102
}
330
42
100
AcDbScale
 70
     0
300
1" = 1'-0"
140
1.0
141
12.0
290
     0
  0
SCALE
  5
50
102
{ACAD_REACTORS
330
42
102
}
330
42
100
AcDbScale
 70
     0
300
1-1/2" = 1'-0"
140
1.5
141
12.0
290
     0
  0
SCALE
  5
51
102
{ACAD_REACTORS
330
42
102
}
330
42
100
AcDbScale
 70
     0
300
3" = 1'-0"
140
3.0
141
12.0
290
     0
  0
SCALE
  5
52
102
{ACAD_REACTORS
330
42
102
}
330
42
100
AcDbScale
 70
     0
300
6" = 1'-0"
140
6.0
141
12.0
290
     0
  0
SCALE
  5
53
102
{ACAD_REACTORS
330
42
102
}
330
42
100
AcDbScale
 70
     0
300
1'-0" = 1'-0"
140
12.0
141
12.0
290
     0
  0
ACDBSECTIONVIEWSTYLE
  5
69
102
{ACAD_REACTORS
330
68
102
}
330
68
100
AcDbModelDocViewStyle
 70
     0
  3
Imperial24
290
     1
300
Imperial24
 90
        0
100
AcDbSectionViewStyle
 70
     0
 71
     0
 90
       78
 71
     1
340
55
 62
   256
 40
0.24
340
0
340
0
 62
   256
 40
0.24
300
I, O, Q, S, X, Z
 40
0.48
 90
        3
 40
0.18
 90
        1
 71
     2
340
5D
 90
       25
 62
   256
340
5D
 90
       50
 62
   256
 40
0.24
 40
0.0
 40
0.24
 71
     3
340
55
 62
   256
 40
0.24
 90
        1
 40
0.75
 90
        1
300
%<\AcVar ViewType \f "%tc1">% %<\AcVar ViewSectionStartId>%-%<\AcVar ViewSectionEndId>%\PSCALE %<\AcVar ViewScale \f "%sn">%
 71
     4
 62
   256
 62
   257
300
ANSI31
 40
1.0
 90
        0
290
     0
290
     0
 90
        6
 40
0.0
 40
1.570796326794896
 40
0.2617993877991494
 40
1.308996938995747
 40
-0.2617993877991494
 40
1.832595714594046
  0
TABLESTYLE
  5
65
102
{ACAD_XDICTIONARY
360
129
102
}
102
{ACAD_REACTORS
330
64
102
}
330
64
100
AcDbTableStyle
280
     0
  3
Standard
 70
     0
 71
     0
 40
0.06
 41
0.06
280
     0
281
     0
  7
Standard
140
0.18
170
     2
 62
     0
 63
     7
283
     0
 90
      512
 91
        0
  1

274
    -2
284
     1
 64
     0
275
    -2
285
     1
 65
     0
276
    -2
286
     1
 66
     0
277
    -2
287
     1
 67
     0
278
    -2
288
     1
 68
     0
279
    -2
289
     1
 69
     0
  7
Standard
140
0.25
170
     5
 62
     0
 63
     7
283
     0
 90
      512
 91
        0
  1

274
    -2
284
     1
 64
     0
275
    -2
285
     1
 65
     0
276
    -2
286
     1
 66
     0
277
    -2
287
     1
 67
     0
278
    -2
288
     1
 68
     0
279
    -2
289
     1
 69
     0
  7
Standard
140
0.18
170
     5
 62
     0
 63
     7
283
     0
 90
      512
 91
        0
  1

274
    -2
284
     1
 64
     0
275
    -2
285
     1
 65
     0
276
    -2
286
     1
 66
     0
277
    -2
287
     1
 67
     0
278
    -2
288
     1
 68
     0
279
    -2
289
     1
 69
     0
  0
VISUALSTYLE
  5
2F
102
{ACAD_REACTORS
330
29
102
}
330
29
100
AcDbVisualStyle
  2
2dWireframe
 70
     4
177
     3
291
     0
 70
    58
 90
        0
176
     1
 90
        2
176
     1
 90
        0
176
     1
 90
        0
176
     1
 40
0.6
176
     1
 40
30.0
176
     1
 62
     7
420
 16777215
176
     1
 90
        1
176
     1
 90
        4
176
     1
 62
     7
176
     1
 62
   257
176
     1
 90
        1
176
     1
 90
        1
176
     1
 40
1.0
176
     1
 90
        0
176
     1
 62
   257
176
     1
 40
1.0
176
     1
 90
        1
176
     1
 90
        6
176
     1
 90
        2
176
     1
 62
     7
176
     1
 90
        5
176
     1
 90
        0
176
     1
 90
        0
176
     1
290
     0
176
     1
 90
        1
176
     1
 40
0.0
176
     1
 90
        0
176
     1
290
     1
176
     1
290
     1
176
     1
290
     0
176
     1
290
     0
176
     1
290
     0
176
     1
290
     0
176
     1
290
     0
176
     1
290
     0
176
     1
290
     0
176
     1
 90
       50
176
     1
 40
0.0
176
     1
 40
1.0
176
     1
 90
        0
176
     1
 62
    18
420
        0
176
     1
 90
       50
176
     1
 90
        3
176
     1
 62
     5
420
      255
176
     1
290
     0
176
     1
 90
       50
176
     1
 90
       50
176
     1
 90
       50
176
     1
290
     0
176
     1
 90
       50
176
     1
 62
   256
176
     0
 40
1.0
176
     0
 90
        2
176
     1
  1
strokes_ogs.tif
176
     1
290
     0
176
     1
 40
1.0
176
     1
 40
1.0
176
     1
  0
VISUALSTYLE
  5
2E
102
{ACAD_REACTORS
330
29
102
}
330
29
100
AcDbVisualStyle
  2
Basic
 70
     7
177
     3
291
     1
 70
    58
 90
        1
176
     1
 90
        0
176
     1
 90
        1
176
     1
 90
        0
176
     1
 40
0.6
176
     1
 40
30.0
176
     1
 62
     7
420
 16777215
176
     1
 90
        0
176
     1
 90
        4
176
     1
 62
     7
176
     1
 62
   257
176
     1
 90
        1
176
     1
 90
        1
176
     1
 40
1.0
176
     1
 90
        8
176
     1
 62
     7
176
     1
 40
1.0
176
     1
 90
        1
176
     1
 90
        6
176
     1
 90
        2
176
     1
 62
     7
176
     1
 90
        5
176
     1
 90
        0
176
     1
 90
        0
176
     1
290
     0
176
     1
 90
        1
176
     1
 40
0.0
176
     1
 90
        0
176
     1
290
     0
176
     1
290
     1
176
     1
290
     1
176
     1
290
     0
176
     1
290
     0
176
     1
290
     0
176
     1
290
     0
176
     1
290
     0
176
     1
290
     0
176
     1
 90
       50
176
     1
 40
0.0
176
     1
 40
1.0
176
     1
 90
        0
176
     1
 62
    18
420
        0
176
     1
 90
       50
176
     1
 90
        3
176
     1
 62
     5
420
      255
176
     1
290
     0
176
     1
 90
       50
176
     1
 90
       50
176
     1
 90
       50
176
     1
290
     0
176
     1
 90
       50
176
     1
 62
   256
176
     0
 40
1.0
176
     0
 90
        2
176
     1
  1
strokes_ogs.tif
176
     1
290
     0
176
     1
 40
1.0
176
     1
 40
1.0
176
     1
  0
VISUALSTYLE
  5
35
102
{ACAD_REACTORS
330
29
102
}
330
29
100
AcDbVisualStyle
  2
Brighten
 70
    12
177
     3
291
     1
 70
    58
 90
        2
176
     1
 90
        2
176
     1
 90
        0
176
     1
 90
        0
176
     1
 40
0.6
176
     1
 40
30.0
176
     1
 62
     7
420
 16777215
176
     1
 90
        1
176
     1
 90
        4
176
     1
 62
     7
176
     1
 62
   257
176
     1
 90
        1
176
     1
 90
        1
176
     1
 40
1.0
176
     1
 90
        8
176
     1
 62
     7
176
     1
 40
1.0
176
     1
 90
        1
176
     1
 90
        6
176
     1
 90
        2
176
     1
 62
     7
176
     1
 90
        5
176
     1
 90
        0
176
     1
 90
        0
176
     1
290
     0
176
     1
 90
        1
176
     1
 40
50.0
176
     1
 90
        0
176
     1
290
     0
176
     1
290
     1
176
     1
290
     1
176
     1
290
     0
176
     1
290
     0
176
     1
290
     0
176
     1
290
     0
176
     1
290
     0
176
     1
290
     0
176
     1
 90
       50
176
     1
 40
0.0
176
     1
 40
1.0
176
     1
 90
        0
176
     1
 62
    18
420
        0
176
     1
 90
       50
176
     1
 90
        3
176
     1
 62
     5
420
      255
176
     1
290
     0
176
     1
 90
       50
176
     1
 90
       50
176
     1
 90
       50
176
     1
290
     0
176
     1
 90
       50
176
     1
 62
   256
176
     0
 40
1.0
176
     0
 90
        2
176
     1
  1
strokes_ogs.tif
176
     1
290
     0
176
     1
 40
1.0
176
     1
 40
1.0
176
     1
  0
VISUALSTYLE
  5
39
102
{ACAD_REACTORS
330
29
102
}
330
29
100
AcDbVisualStyle
  2
ColorChange
 70
    16
177
     3
291
     1
 70
    58
 90
        2
176
     1
 90
        2
176
     1
 90
        3
176
     1
 90
        0
176
     1
 40
0.6
176
     1
 40
30.0
176
     1
 62
     8
420
  8421504
176
     1
 90
        1
176
     1
 90
        4
176
     1
 62
     7
176
     1
 62
   257
176
     1
 90
        1
176
     1
 90
        1
176
     1
 40
1.0
176
     1
 90
        8
176
     1
 62
     8
420
  8421504
176
     1
 40
1.0
176
     1
 90
        1
176
     1
 90
        6
176
     1
 90
        2
176
     1
 62
     7
176
     1
 90
        5
176
     1
 90
        0
176
     1
 90
        0
176
     1
290
     0
176
     1
 90
        1
176
     1
 40
0.0
176
     1
 90
        0
176
     1
290
     0
176
     1
290
     1
176
     1
290
     1
176
     1
290
     0
176
     1
290
     0
176
     1
290
     0
176
     1
290
     0
176
     1
290
     0
176
     1
290
     0
176
     1
 90
       50
176
     1
 40
0.0
176
     1
 40
1.0
176
     1
 90
        0
176
     1
 62
    18
420
        0
176
     1
 90
       50
176
     1
 90
        3
176
     1
 62
     5
420
      255
176
     1
290
     0
176
     1
 90
       50
176
     1
 90
       50
176
     1
 90
       50
176
     1
290
     0
176
     1
 90
       50
176
     1
 62
   256
176
     0
 40
1.0
176
     0
 90
        2
176
     1
  1
strokes_ogs.tif
176
     1
290
     0
176
     1
 40
1.0
176
     1
 40
1.0
176
     1
  0
VISUALSTYLE
  5
32
102
{ACAD_REACTORS
330
29
102
}
330
29
100
AcDbVisualStyle
  2
Conceptual
 70
     9
177
     3
291
     0
 70
    58
 90
        3
176
     1
 90
        2
176
     1
 90
        0
176
     1
 90
        0
176
     1
 40
0.6
176
     1
 40
30.0
176
     1
 62
     7
420
 16777215
176
     1
 90
        2
176
     1
 90
        2
176
     1
 62
     7
176
     1
 62
   257
176
     1
 90
        1
176
     1
 90
        1
176
     1
 40
179.0
176
     1
 90
        8
176
     1
 62
     7
176
     1
 40
1.0
176
     1
 90
        1
176
     1
 90
        6
176
     1
 90
        2
176
     1
 62
     7
176
     1
 90
        3
176
     1
 90
        0
176
     1
 90
        0
176
     1
290
     0
176
     1
 90
        1
176
     1
 40
0.0
176
     1
 90
        0
176
     1
290
     0
176
     1
290
     1
176
     1
290
     1
176
     1
290
     0
176
     1
290
     0
176
     1
290
     0
176
     1
290
     0
176
     1
290
     0
176
     1
290
     0
176
     1
 90
       50
176
     1
 40
0.0
176
     1
 40
1.0
176
     1
 90
        0
176
     1
 62
    18
420
        0
176
     1
 90
       50
176
     1
 90
        3
176
     1
 62
     5
420
      255
176
     1
290
     0
176
     1
 90
       50
176
     1
 90
       50
176
     1
 90
       50
176
     1
290
     0
176
     1
 90
       50
176
     1
 62
   256
176
     0
 40
1.0
176
     0
 90
        2
176
     1
  1
strokes_ogs.tif
176
     1
290
     0
176
     1
 40
1.0
176
     1
 40
1.0
176
     1
  0
VISUALSTYLE
  5
34
102
{ACAD_REACTORS
330
29
102
}
330
29
100
AcDbVisualStyle
  2
Dim
 70
    11
177
     3
291
     1
 70
    58
 90
        2
176
     1
 90
        2
176
     1
 90
        0
176
     1
 90
        0
176
     1
 40
0.6
176
     1
 40
30.0
176
     1
 62
     7
420
 16777215
176
     1
 90
        1
176
     1
 90
        4
176
     1
 62
     7
176
     1
 62
   257
176
     1
 90
        1
176
     1
 90
        1
176
     1
 40
1.0
176
     1
 90
        8
176
     1
 62
     7
176
     1
 40
1.0
176
     1
 90
        1
176
     1
 90
        6
176
     1
 90
        2
176
     1
 62
     7
176
     1
 90
        5
176
     1
 90
        0
176
     1
 90
        0
176
     1
290
     0
176
     1
 90
        1
176
     1
 40
-50.0
176
     1
 90
        0
176
     1
290
     0
176
     1
290
     1
176
     1
290
     1
176
     1
290
     0
176
     1
290
     0
176
     1
290
     0
176
     1
290
     0
176
     1
290
     0
176
     1
290
     0
176
     1
 90
       50
176
     1
 40
0.0
176
     1
 40
1.0
176
     1
 90
        0
176
     1
 62
    18
420
        0
176
     1
 90
       50
176
     1
 90
        3
176
     1
 62
     5
420
      255
176
     1
290
     0
176
     1
 90
       50
176
     1
 90
       50
176
     1
 90
       50
176
     1
290
     0
176
     1
 90
       50
176
     1
 62
   256
176
     0
 40
1.0
176
     0
 90
        2
176
     1
  1
strokes_ogs.tif
176
     1
290
     0
176
     1
 40
1.0
176
     1
 40
1.0
176
     1
  0
VISUALSTYLE
  5
41
102
{ACAD_REACTORS
330
29
102
}
330
29
100
AcDbVisualStyle
  2
EdgeColorOff
 70
    22
177
     3
291
     1
 70
    58
 90
        2
176
     0
 90
        2
176
     0
 90
        0
176
     0
 90
        0
176
     0
 40
0.6
176
     0
 40
30.0
176
     0
 62
     7
420
 16777215
176
     0
 90
        1
176
     0
 90
        4
176
     0
 62
     7
176
     0
 62
   257
176
     0
 90
        1
176
     0
 90
        1
176
     0
 40
1.0
176
     0
 90
        8
176
     2
 62
     7
176
     0
 40
1.0
176
     0
 90
        1
176
     0
 90
        6
176
     0
 90
        2
176
     0
 62
     7
176
     0
 90
        5
176
     0
 90
        0
176
     0
 90
        0
176
     0
290
     0
176
     0
 90
        1
176
     0
 40
0.0
176
     0
 90
        0
176
     0
290
     0
176
     0
290
     1
176
     0
290
     1
176
     0
290
     0
176
     0
290
     0
176
     0
290
     0
176
     0
290
     0
176
     0
290
     0
176
     0
290
     0
176
     0
 90
       50
176
     0
 40
0.0
176
     0
 40
1.0
176
     0
 90
        0
176
     0
 62
    18
420
        0
176
     0
 90
       50
176
     0
 90
        3
176
     0
 62
     5
420
      255
176
     0
290
     0
176
     0
 90
       50
176
     0
 90
       50
176
     0
 90
       50
176
     0
290
     0
176
     0
 90
       50
176
     0
 62
   256
176
     0
 40
1.0
176
     0
 90
        2
176
     0
  1
strokes_ogs.tif
176
     0
290
     0
176
     0
 40
1.0
176
     0
 40
1.0
176
     0
  0
VISUALSTYLE
  5
38
102
{ACAD_REACTORS
330
29
102
}
330
29
100
AcDbVisualStyle
  2
Facepattern
 70
    15
177
     3
291
     1
 70
    58
 90
        2
176
     1
 90
        2
176
     1
 90
        0
176
     1
 90
        0
176
     1
 40
0.6
176
     1
 40
30.0
176
     1
 62
     7
420
 16777215
176
     1
 90
        1
176
     1
 90
        4
176
     1
 62
     7
176
     1
 62
   257
176
     1
 90
        1
176
     1
 90
        1
176
     1
 40
1.0
176
     1
 90
        8
176
     1
 62
     7
176
     1
 40
1.0
176
     1
 90
        1
176
     1
 90
        6
176
     1
 90
        2
176
     1
 62
     7
176
     1
 90
        5
176
     1
 90
        0
176
     1
 90
        0
176
     1
290
     0
176
     1
 90
        1
176
     1
 40
0.0
176
     1
 90
        0
176
     1
290
     0
176
     1
290
     1
176
     1
290
     1
176
     1
290
     0
176
     1
290
     0
176
     1
290
     0
176
     1
290
     0
176
     1
290
     0
176
     1
290
     0
176
     1
 90
       50
176
     1
 40
0.0
176
     1
 40
1.0
176
     1
 90
        0
176
     1
 62
    18
420
        0
176
     1
 90
       50
176
     1
 90
        3
176
     1
 62
     5
420
      255
176
     1
290
     0
176
     1
 90
       50
176
     1
 90
       50
176
     1
 90
       50
176
     1
290
     0
176
     1
 90
       50
176
     1
 62
   256
176
     0
 40
1.0
176
     0
 90
        2
176
     1
  1
strokes_ogs.tif
176
     1
290
     0
176
     1
 40
1.0
176
     1
 40
1.0
176
     1
  0
VISUALSTYLE
  5
2A
102
{ACAD_REACTORS
330
29
102
}
330
29
100
AcDbVisualStyle
  2
Flat
 70
     0
177
     3
291
     1
 70
    58
 90
        2
176
     1
 90
        1
176
     1
 90
        1
176
     1
 90
        2
176
     1
 40
0.6
176
     1
 40
30.0
176
     1
 62
     7
420
 16777215
176
     1
 90
        0
176
     1
 90
        0
176
     1
 62
     7
176
     1
 62
   257
176
     1
 90
        1
176
     1
 90
        1
176
     1
 40
1.0
176
     1
 90
        8
176
     1
 62
     7
176
     1
 40
1.0
176
     1
 90
        1
176
     1
 90
        6
176
     1
 90
        2
176
     1
 62
     7
176
     1
 90
        5
176
     1
 90
        0
176
     1
 90
        0
176
     1
290
     0
176
     1
 90
       13
176
     1
 40
0.0
176
     1
 90
        0
176
     1
290
     0
176
     1
290
     1
176
     1
290
     1
176
     1
290
     0
176
     1
290
     0
176
     1
290
     0
176
     1
290
     0
176
     1
290
     0
176
     1
290
     0
176
     1
 90
       50
176
     1
 40
0.0
176
     1
 40
1.0
176
     1
 90
        0
176
     1
 62
    18
420
        0
176
     1
 90
       50
176
     1
 90
        3
176
     1
 62
     5
420
      255
176
     1
290
     0
176
     1
 90
       50
176
     1
 90
       50
176
     1
 90
       50
176
     1
290
     0
176
     1
 90
       50
176
     1
 62
   256
176
     0
 40
1.0
176
     0
 90
        2
176
     1
  1
strokes_ogs.tif
176
     1
290
     0
176
     1
 40
1.0
176
     1
 40
1.0
176
     1
  0
VISUALSTYLE
  5
2B
102
{ACAD_REACTORS
330
29
102
}
330
29
100
AcDbVisualStyle
  2
FlatWithEdges
 70
     1
177
     3
291
     1
 70
    58
 90
        2
176
     1
 90
        1
176
     1
 90
        1
176
     1
 90
        2
176
     1
 40
0.6
176
     1
 40
30.0
176
     1
 62
     7
420
 16777215
176
     1
 90
        1
176
     1
 90
        0
176
     1
 62
     7
176
     1
 62
   257
176
     1
 90
        1
176
     1
 90
        1
176
     1
 40
1.0
176
     1
 90
        0
176
     1
 62
   257
176
     1
 40
1.0
176
     1
 90
        1
176
     1
 90
        6
176
     1
 90
        2
176
     1
 62
     7
176
     1
 90
        5
176
     1
 90
        0
176
     1
 90
        0
176
     1
290
     0
176
     1
 90
       13
176
     1
 40
0.0
176
     1
 90
        0
176
     1
290
     0
176
     1
290
     1
176
     1
290
     1
176
     1
290
     0
176
     1
290
     0
176
     1
290
     0
176
     1
290
     0
176
     1
290
     0
176
     1
290
     0
176
     1
 90
       50
176
     1
 40
0.0
176
     1
 40
1.0
176
     1
 90
        0
176
     1
 62
    18
420
        0
176
     1
 90
       50
176
     1
 90
        3
176
     1
 62
     5
420
      255
176
     1
290
     0
176
     1
 90
       50
176
     1
 90
       50
176
     1
 90
       50
176
     1
290
     0
176
     1
 90
       50
176
     1
 62
   256
176
     0
 40
1.0
176
     0
 90
        2
176
     1
  1
strokes_ogs.tif
176
     1
290
     0
176
     1
 40
1.0
176
     1
 40
1.0
176
     1
  0
VISUALSTYLE
  5
2C
102
{ACAD_REACTORS
330
29
102
}
330
29
100
AcDbVisualStyle
  2
Gouraud
 70
     2
177
     3
291
     1
 70
    58
 90
        2
176
     1
 90
        2
176
     1
 90
        1
176
     1
 90
        2
176
     1
 40
0.6
176
     1
 40
30.0
176
     1
 62
     7
420
 16777215
176
     1
 90
        0
176
     1
 90
        0
176
     1
 62
     7
176
     1
 62
   257
176
     1
 90
        1
176
     1
 90
        1
176
     1
 40
1.0
176
     1
 90
        0
176
     1
 62
     7
176
     1
 40
1.0
176
     1
 90
        1
176
     1
 90
        6
176
     1
 90
        2
176
     1
 62
     7
176
     1
 90
        5
176
     1
 90
        0
176
     1
 90
        0
176
     1
290
     0
176
     1
 90
       13
176
     1
 40
0.0
176
     1
 90
        0
176
     1
290
     0
176
     1
290
     1
176
     1
290
     1
176
     1
290
     0
176
     1
290
     0
176
     1
290
     0
176
     1
290
     0
176
     1
290
     0
176
     1
290
     0
176
     1
 90
       50
176
     1
 40
0.0
176
     1
 40
1.0
176
     1
 90
        0
176
     1
 62
    18
420
        0
176
     1
 90
       50
176
     1
 90
        3
176
     1
 62
     5
420
      255
176
     1
290
     0
176
     1
 90
       50
176
     1
 90
       50
176
     1
 90
       50
176
     1
290
     0
176
     1
 90
       50
176
     1
 62
   256
176
     0
 40
1.0
176
     0
 90
        2
176
     1
  1
strokes_ogs.tif
176
     1
290
     0
176
     1
 40
1.0
176
     1
 40
1.0
176
     1
  0
VISUALSTYLE
  5
2D
102
{ACAD_REACTORS
330
29
102
}
330
29
100
AcDbVisualStyle
  2
GouraudWithEdges
 70
     3
177
     3
291
     1
 70
    58
 90
        2
176
     1
 90
        2
176
     1
 90
        1
176
     1
 90
        2
176
     1
 40
0.6
176
     1
 40
30.0
176
     1
 62
     7
420
 16777215
176
     1
 90
        1
176
     1
 90
        0
176
     1
 62
     7
176
     1
 62
   257
176
     1
 90
        1
176
     1
 90
        1
176
     1
 40
1.0
176
     1
 90
        0
176
     1
 62
   257
176
     1
 40
1.0
176
     1
 90
        1
176
     1
 90
        6
176
     1
 90
        2
176
     1
 62
     7
176
     1
 90
        5
176
     1
 90
        0
176
     1
 90
        0
176
     1
290
     0
176
     1
 90
       13
176
     1
 40
0.0
176
     1
 90
        0
176
     1
290
     0
176
     1
290
     1
176
     1
290
     1
176
     1
290
     0
176
     1
290
     0
176
     1
290
     0
176
     1
290
     0
176
     1
290
     0
176
     1
290
     0
176
     1
 90
       50
176
     1
 40
0.0
176
     1
 40
1.0
176
     1
 90
        0
176
     1
 62
    18
420
        0
176
     1
 90
       50
176
     1
 90
        3
176
     1
 62
     5
420
      255
176
     1
290
     0
176
     1
 90
       50
176
     1
 90
       50
176
     1
 90
       50
176
     1
290
     0
176
     1
 90
       50
176
     1
 62
   256
176
     0
 40
1.0
176
     0
 90
        2
176
     1
  1
strokes_ogs.tif
176
     1
290
     0
176
     1
 40
1.0
176
     1
 40
1.0
176
     1
  0
VISUALSTYLE
  5
31
102
{ACAD_REACTORS
330
29
102
}
330
29
100
AcDbVisualStyle
  2
Hidden
 70
     6
177
     3
291
     0
 70
    58
 90
        1
176
     1
 90
        2
176
     1
 90
        2
176
     1
 90
        0
176
     1
 40
0.6
176
     1
 40
30.0
176
     1
 62
     7
420
 16777215
176
     1
 90
        2
176
     1
 90
        2
176
     1
 62
     7
176
     1
 62
   257
176
     1
 90
        2
176
     1
 90
        1
176
     1
 40
40.0
176
     1
 90
        0
176
     1
 62
   257
176
     1
 40
1.0
176
     1
 90
        1
176
     1
 90
        6
176
     1
 90
        2
176
     1
 62
     7
176
     1
 90
        3
176
     1
 90
        0
176
     1
 90
        0
176
     1
290
     0
176
     1
 90
        1
176
     1
 40
0.0
176
     1
 90
        0
176
     1
290
     0
176
     1
290
     1
176
     1
290
     1
176
     1
290
     0
176
     1
290
     0
176
     1
290
     0
176
     1
290
     0
176
     1
290
     0
176
     1
290
     0
176
     1
 90
       50
176
     1
 40
0.0
176
     1
 40
1.0
176
     1
 90
        0
176
     1
 62
    18
420
        0
176
     1
 90
       50
176
     1
 90
        3
176
     1
 62
     5
420
      255
176
     1
290
     0
176
     1
 90
       50
176
     1
 90
       50
176
     1
 90
       50
176
     1
290
     0
176
     1
 90
       50
176
     1
 62
   256
176
     0
 40
1.0
176
     0
 90
        2
176
     1
  1
strokes_ogs.tif
176
     1
290
     0
176
     1
 40
1.0
176
     1
 40
1.0
176
     1
  0
VISUALSTYLE
  5
3F
102
{ACAD_REACTORS
330
29
102
}
330
29
100
AcDbVisualStyle
  2
JitterOff
 70
    20
177
     3
291
     1
 70
    58
 90
        2
176
     0
 90
        2
176
     0
 90
        0
176
     0
 90
        0
176
     0
 40
0.6
176
     0
 40
30.0
176
     0
 62
     7
420
 16777215
176
     0
 90
        1
176
     0
 90
        4
176
     0
 62
     7
176
     0
 62
   257
176
     0
 90
        1
176
     0
 90
        1
176
     0
 40
1.0
176
     0
 90
       10
176
     2
 62
     7
176
     0
 40
1.0
176
     0
 90
        1
176
     0
 90
        6
176
     0
 90
        2
176
     0
 62
     7
176
     0
 90
        5
176
     0
 90
        0
176
     0
 90
        0
176
     0
290
     0
176
     0
 90
        1
176
     0
 40
0.0
176
     0
 90
        0
176
     0
290
     0
176
     0
290
     1
176
     0
290
     1
176
     0
290
     0
176
     0
290
     0
176
     0
290
     0
176
     0
290
     0
176
     0
290
     0
176
     0
290
     0
176
     0
 90
       50
176
     0
 40
0.0
176
     0
 40
1.0
176
     0
 90
        0
176
     0
 62
    18
420
        0
176
     0
 90
       50
176
     0
 90
        3
176
     0
 62
     5
420
      255
176
     0
290
     0
176
     0
 90
       50
176
     0
 90
       50
176
     0
 90
       50
176
     0
290
     0
176
     0
 90
       50
176
     0
 62
   256
176
     0
 40
1.0
176
     0
 90
        2
176
     0
  1
strokes_ogs.tif
176
     0
290
     0
176
     0
 40
1.0
176
     0
 40
1.0
176
     0
  0
VISUALSTYLE
  5
37
102
{ACAD_REACTORS
330
29
102
}
330
29
100
AcDbVisualStyle
  2
Linepattern
 70
    14
177
     3
291
     1
 70
    58
 90
        2
176
     1
 90
        2
176
     1
 90
        0
176
     1
 90
        0
176
     1
 40
0.6
176
     1
 40
30.0
176
     1
 62
     7
420
 16777215
176
     1
 90
        1
176
     1
 90
        4
176
     1
 62
     7
176
     1
 62
   257
176
     1
 90
        7
176
     1
 90
        7
176
     1
 40
1.0
176
     1
 90
        8
176
     1
 62
     7
176
     1
 40
1.0
176
     1
 90
        1
176
     1
 90
        6
176
     1
 90
        2
176
     1
 62
     7
176
     1
 90
        5
176
     1
 90
        0
176
     1
 90
        0
176
     1
290
     0
176
     1
 90
        1
176
     1
 40
0.0
176
     1
 90
        0
176
     1
290
     0
176
     1
290
     1
176
     1
290
     1
176
     1
290
     0
176
     1
290
     0
176
     1
290
     0
176
     1
290
     0
176
     1
290
     0
176
     1
290
     0
176
     1
 90
       50
176
     1
 40
0.0
176
     1
 40
1.0
176
     1
 90
        0
176
     1
 62
    18
420
        0
176
     1
 90
       50
176
     1
 90
        3
176
     1
 62
     5
420
      255
176
     1
290
     0
176
     1
 90
       50
176
     1
 90
       50
176
     1
 90
       50
176
     1
290
     0
176
     1
 90
       50
176
     1
 62
   256
176
     0
 40
1.0
176
     0
 90
        2
176
     1
  1
strokes_ogs.tif
176
     1
290
     0
176
     1
 40
1.0
176
     1
 40
1.0
176
     1
  0
VISUALSTYLE
  5
40
102
{ACAD_REACTORS
330
29
102
}
330
29
100
AcDbVisualStyle
  2
OverhangOff
 70
    21
177
     3
291
     1
 70
    58
 90
        2
176
     0
 90
        2
176
     0
 90
        0
176
     0
 90
        0
176
     0
 40
0.6
176
     0
 40
30.0
176
     0
 62
     7
420
 16777215
176
     0
 90
        1
176
     0
 90
        4
176
     0
 62
     7
176
     0
 62
   257
176
     0
 90
        1
176
     0
 90
        1
176
     0
 40
1.0
176
     0
 90
        9
176
     2
 62
     7
176
     0
 40
1.0
176
     0
 90
        1
176
     0
 90
        6
176
     0
 90
        2
176
     0
 62
     7
176
     0
 90
        5
176
     0
 90
        0
176
     0
 90
        0
176
     0
290
     0
176
     0
 90
        1
176
     0
 40
0.0
176
     0
 90
        0
176
     0
290
     0
176
     0
290
     1
176
     0
290
     1
176
     0
290
     0
176
     0
290
     0
176
     0
290
     0
176
     0
290
     0
176
     0
290
     0
176
     0
290
     0
176
     0
 90
       50
176
     0
 40
0.0
176
     0
 40
1.0
176
     0
 90
        0
176
     0
 62
    18
420
        0
176
     0
 90
       50
176
     0
 90
        3
176
     0
 62
     5
420
      255
176
     0
290
     0
176
     0
 90
       50
176
     0
 90
       50
176
     0
 90
       50
176
     0
290
     0
176
     0
 90
       50
176
     0
 62
   256
176
     0
 40
1.0
176
     0
 90
        2
176
     0
  1
strokes_ogs.tif
176
     0
290
     0
176
     0
 40
1.0
176
     0
 40
1.0
176
     0
  0
VISUALSTYLE
  5
33
102
{ACAD_REACTORS
330
29
102
}
330
29
100
AcDbVisualStyle
  2
Realistic
 70
     8
177
     3
291
     0
 70
    58
 90
        2
176
     1
 90
        3
176
     1
 90
        0
176
     1
 90
        2
176
     1
 40
0.6
176
     1
 40
30.0
176
     1
 62
     7
420
 16777215
176
     1
 90
        0
176
     1
 90
        0
176
     1
 62
     7
176
     1
 62
   257
176
     1
 90
        1
176
     1
 90
        1
176
     1
 40
1.0
176
     1
 90
        8
176
     1
 62
   257
176
     1
 40
1.0
176
     1
 90
        1
176
     1
 90
        6
176
     1
 90
        2
176
     1
 62
     7
176
     1
 90
        3
176
     1
 90
        0
176
     1
 90
        0
176
     1
290
     0
176
     1
 90
       13
176
     1
 40
0.0
176
     1
 90
        0
176
     1
290
     0
176
     1
290
     1
176
     1
290
     1
176
     1
290
     0
176
     1
290
     0
176
     1
290
     0
176
     1
290
     0
176
     1
290
     0
176
     1
290
     0
176
     1
 90
       50
176
     1
 40
0.0
176
     1
 40
1.0
176
     1
 90
        0
176
     1
 62
    18
420
        0
176
     1
 90
       50
176
     1
 90
        3
176
     1
 62
     5
420
      255
176
     1
290
     0
176
     1
 90
       50
176
     1
 90
       50
176
     1
 90
       50
176
     1
290
     0
176
     1
 90
       50
176
     1
 62
   256
176
     0
 40
1.0
176
     0
 90
        2
176
     1
  1
strokes_ogs.tif
176
     1
290
     0
176
     1
 40
1.0
176
     1
 40
1.0
176
     1
  0
VISUALSTYLE
  5
3E
102
{ACAD_REACTORS
330
29
102
}
330
29
100
AcDbVisualStyle
  2
Shaded
 70
    27
177
     3
291
     0
 70
    58
 90
        2
176
     1
 90
        2
176
     1
 90
        1
176
     1
 90
        2
176
     1
 40
0.6
176
     1
 40
30.0
176
     1
 62
     7
420
 16777215
176
     1
 90
        0
176
     1
 90
        4
176
     1
 62
     7
176
     1
 62
   257
176
     1
 90
        1
176
     1
 90
        1
176
     1
 40
1.0
176
     1
 90
        8
176
     1
 62
   257
176
     1
 40
1.0
176
     1
 90
        1
176
     1
 90
        6
176
     1
 90
        2
176
     1
 62
     8
420
  7895160
176
     1
 90
        3
176
     1
 90
        0
176
     1
 90
        0
176
     1
290
     0
176
     1
 90
        5
176
     1
 40
0.0
176
     1
 90
        0
176
     1
290
     0
176
     1
290
     1
176
     1
290
     1
176
     1
290
     0
176
     1
290
     0
176
     1
290
     0
176
     1
290
     0
176
     1
290
     0
176
     1
290
     0
176
     1
 90
       50
176
     1
 40
0.0
176
     1
 40
1.0
176
     1
 90
        0
176
     1
 62
    18
420
        0
176
     1
 90
       50
176
     1
 90
        3
176
     1
 62
     5
420
      255
176
     1
290
     0
176
     1
 90
       50
176
     1
 90
       50
176
     1
 90
       50
176
     1
290
     0
176
     1
 90
       50
176
     1
 62
   256
176
     0
 40
1.0
176
     0
 90
        2
176
     1
  1
strokes_ogs.tif
176
     1
290
     0
176
     1
 40
1.0
176
     1
 40
1.0
176
     1
  0
VISUALSTYLE
  5
3D
102
{ACAD_REACTORS
330
29
102
}
330
29
100
AcDbVisualStyle
  2
Shaded with edges
 70
    26
177
     3
291
     0
 70
    58
 90
        2
176
     1
 90
        2
176
     1
 90
        1
176
     1
 90
        2
176
     1
 40
0.6
176
     1
 40
30.0
176
     1
 62
     7
420
 16777215
176
     1
 90
        1
176
     1
 90
        2
176
     1
 62
     7
176
     1
 62
   257
176
     1
 90
        2
176
     1
 90
        1
176
     1
 40
1.0
176
     1
 90
        8
176
     1
 62
   257
176
     1
 40
1.0
176
     1
 90
        1
176
     1
 90
        6
176
     1
 90
        2
176
     1
 62
     7
176
     1
 90
        3
176
     1
 90
        0
176
     1
 90
        0
176
     1
290
     0
176
     1
 90
        5
176
     1
 40
0.0
176
     1
 90
        0
176
     1
290
     0
176
     1
290
     1
176
     1
290
     1
176
     1
290
     0
176
     1
290
     0
176
     1
290
     0
176
     1
290
     0
176
     1
290
     0
176
     1
290
     0
176
     1
 90
       50
176
     1
 40
0.0
176
     1
 40
1.0
176
     1
 90
        0
176
     1
 62
    18
420
        0
176
     1
 90
       50
176
     1
 90
        3
176
     1
 62
     5
420
      255
176
     1
290
     0
176
     1
 90
       50
176
     1
 90
       50
176
     1
 90
       50
176
     1
290
     0
176
     1
 90
       50
176
     1
 62
   256
176
     0
 40
1.0
176
     0
 90
        2
176
     1
  1
strokes_ogs.tif
176
     1
290
     0
176
     1
 40
1.0
176
     1
 40
1.0
176
     1
  0
VISUALSTYLE
  5
3A
102
{ACAD_REACTORS
330
29
102
}
330
29
100
AcDbVisualStyle
  2
Shades of Gray
 70
    23
177
     3
291
     0
 70
    58
 90
        2
176
     1
 90
        2
176
     1
 90
        3
176
     1
 90
        0
176
     1
 40
0.6
176
     1
 40
30.0
176
     1
 62
     7
420
 16777215
176
     1
 90
        2
176
     1
 90
        2
176
     1
 62
     7
176
     1
 62
     7
176
     1
 90
        1
176
     1
 90
        1
176
     1
 40
40.0
176
     1
 90
        8
176
     1
 62
     7
176
     1
 40
1.0
176
     1
 90
        1
176
     1
 90
        6
176
     1
 90
        2
176
     1
 62
     7
176
     1
 90
        3
176
     1
 90
        0
176
     1
 90
        0
176
     1
290
     0
176
     1
 90
        1
176
     1
 40
0.0
176
     1
 90
        0
176
     1
290
     0
176
     1
290
     1
176
     1
290
     1
176
     1
290
     0
176
     1
290
     0
176
     1
290
     0
176
     1
290
     0
176
     1
290
     0
176
     1
290
     0
176
     1
 90
       50
176
     1
 40
0.0
176
     1
 40
1.0
176
     1
 90
        0
176
     1
 62
    18
420
        0
176
     1
 90
       50
176
     1
 90
        3
176
     1
 62
     5
420
      255
176
     1
290
     0
176
     1
 90
       50
176
     1
 90
       50
176
     1
 90
       50
176
     1
290
     0
176
     1
 90
       50
176
     1
 62
   256
176
     0
 40
1.0
176
     0
 90
        2
176
     1
  1
strokes_ogs.tif
176
     1
290
     0
176
     1
 40
1.0
176
     1
 40
1.0
176
     1
  0
VISUALSTYLE
  5
3B
102
{ACAD_REACTORS
330
29
102
}
330
29
100
AcDbVisualStyle
  2
Sketchy
 70
    24
177
     3
291
     0
 70
    58
 90
        1
176
     1
 90
        2
176
     1
 90
        2
176
     1
 90
        0
176
     1
 40
0.6
176
     1
 40
30.0
176
     1
 62
     7
420
 16777215
176
     1
 90
        2
176
     1
 90
        2
176
     1
 62
     7
176
     1
 62
     7
176
     1
 90
        1
176
     1
 90
        1
176
     1
 40
40.0
176
     1
 90
       11
176
     1
 62
     7
176
     1
 40
1.0
176
     1
 90
        1
176
     1
 90
        6
176
     1
 90
        2
176
     1
 62
     7
176
     1
 90
        6
176
     1
 90
        0
176
     1
 90
        0
176
     1
290
     0
176
     1
 90
        1
176
     1
 40
0.0
176
     1
 90
        0
176
     1
290
     0
176
     1
290
     1
176
     1
290
     1
176
     1
290
     0
176
     1
290
     0
176
     1
290
     0
176
     1
290
     0
176
     1
290
     0
176
     1
290
     0
176
     1
 90
       50
176
     1
 40
0.0
176
     1
 40
1.0
176
     1
 90
        0
176
     1
 62
    18
420
        0
176
     1
 90
       50
176
     1
 90
        3
176
     1
 62
     5
420
      255
176
     1
290
     0
176
     1
 90
       50
176
     1
 90
       50
176
     1
 90
       50
176
     1
290
     0
176
     1
 90
       50
176
     1
 62
   256
176
     0
 40
1.0
176
     0
 90
        2
176
     1
  1
strokes_ogs.tif
176
     1
290
     0
176
     1
 40
1.0
176
     1
 40
1.0
176
     1
  0
VISUALSTYLE
  5
36
102
{ACAD_REACTORS
330
29
102
}
330
29
100
AcDbVisualStyle
  2
Thicken
 70
    13
177
     3
291
     1
 70
    58
 90
        2
176
     1
 90
        2
176
     1
 90
        0
176
     1
 90
        0
176
     1
 40
0.6
176
     1
 40
30.0
176
     1
 62
     7
420
 16777215
176
     1
 90
        1
176
     1
 90
        4
176
     1
 62
     7
176
     1
 62
   257
176
     1
 90
        1
176
     1
 90
        1
176
     1
 40
1.0
176
     1
 90
       12
176
     1
 62
     7
176
     1
 40
1.0
176
     1
 90
        1
176
     1
 90
        6
176
     1
 90
        2
176
     1
 62
     7
176
     1
 90
        5
176
     1
 90
        0
176
     1
 90
        0
176
     1
290
     0
176
     1
 90
        1
176
     1
 40
0.0
176
     1
 90
        0
176
     1
290
     0
176
     1
290
     1
176
     1
290
     1
176
     1
290
     0
176
     1
290
     0
176
     1
290
     0
176
     1
290
     0
176
     1
290
     0
176
     1
290
     0
176
     1
 90
       50
176
     1
 40
0.0
176
     1
 40
1.0
176
     1
 90
        0
176
     1
 62
    18
420
        0
176
     1
 90
       50
176
     1
 90
        3
176
     1
 62
     5
420
      255
176
     1
290
     0
176
     1
 90
       50
176
     1
 90
       50
176
     1
 90
       50
176
     1
290
     0
176
     1
 90
       50
176
     1
 62
   256
176
     0
 40
1.0
176
     0
 90
        2
176
     1
  1
strokes_ogs.tif
176
     1
290
     0
176
     1
 40
1.0
176
     1
 40
1.0
176
     1
  0
VISUALSTYLE
  5
30
102
{ACAD_REACTORS
330
29
102
}
330
29
100
AcDbVisualStyle
  2
Wireframe
 70
     5
177
     3
291
     0
 70
    58
 90
        0
176
     1
 90
        2
176
     1
 90
        0
176
     1
 90
        0
176
     1
 40
0.6
176
     1
 40
30.0
176
     1
 62
     7
420
 16777215
176
     1
 90
        1
176
     1
 90
        4
176
     1
 62
     7
176
     1
 62
   257
176
     1
 90
        1
176
     1
 90
        1
176
     1
 40
1.0
176
     1
 90
        0
176
     1
 62
   257
176
     1
 40
1.0
176
     1
 90
        1
176
     1
 90
        6
176
     1
 90
        2
176
     1
 62
     7
176
     1
 90
        3
176
     1
 90
        0
176
     1
 90
        0
176
     1
290
     0
176
     1
 90
        1
176
     1
 40
0.0
176
     1
 90
        0
176
     1
290
     0
176
     1
290
     1
176
     1
290
     1
176
     1
290
     0
176
     1
290
     0
176
     1
290
     0
176
     1
290
     0
176
     1
290
     0
176
     1
290
     0
176
     1
 90
       50
176
     1
 40
0.0
176
     1
 40
1.0
176
     1
 90
        0
176
     1
 62
    18
420
        0
176
     1
 90
       50
176
     1
 90
        3
176
     1
 62
     5
420
      255
176
     1
290
     0
176
     1
 90
       50
176
     1
 90
       50
176
     1
 90
       50
176
     1
290
     0
176
     1
 90
       50
176
     1
 62
   256
176
     0
 40
1.0
176
     0
 90
        2
176
     1
  1
strokes_ogs.tif
176
     1
290
     0
176
     1
 40
1.0
176
     1
 40
1.0
176
     1
  0
VISUALSTYLE
  5
3C
102
{ACAD_REACTORS
330
29
102
}
330
29
100
AcDbVisualStyle
  2
X-Ray
 70
    25
177
     3
291
     0
 70
    58
 90
        2
176
     1
 90
        2
176
     1
 90
        1
176
     1
 90
        1
176
     1
 40
0.5
176
     1
 40
30.0
176
     1
 62
     7
420
 16777215
176
     1
 90
        1
176
     1
 90
        0
176
     1
 62
     7
176
     1
 62
   257
176
     1
 90
        1
176
     1
 90
        1
176
     1
 40
1.0
176
     1
 90
        8
176
     1
 62
     7
176
     1
 40
1.0
176
     1
 90
        1
176
     1
 90
        6
176
     1
 90
        2
176
     1
 62
     7
176
     1
 90
        3
176
     1
 90
        0
176
     1
 90
        0
176
     1
290
     0
176
     1
 90
       13
176
     1
 40
0.0
176
     1
 90
        0
176
     1
290
     0
176
     1
290
     1
176
     1
290
     1
176
     1
290
     0
176
     1
290
     0
176
     1
290
     0
176
     1
290
     0
176
     1
290
     0
176
     1
290
     0
176
     1
 90
       50
176
     1
 40
0.0
176
     1
 40
1.0
176
     1
 90
        0
176
     1
 62
    18
420
        0
176
     1
 90
       50
176
     1
 90
        3
176
     1
 62
     5
420
      255
176
     1
290
     0
176
     1
 90
       50
176
     1
 90
       50
176
     1
 90
       50
176
     1
290
     0
176
     1
 90
       50
176
     1
 62
   256
176
     0
 40
1.0
176
     0
 90
        2
176
     1
  1
strokes_ogs.tif
176
     1
290
     0
176
     1
 40
1.0
176
     1
 40
1.0
176
     1
  0
DICTIONARYVAR
  5
128
102
{ACAD_REACTORS
330
123
102
}
330
123
100
DictionaryVariables
280
     0
  1
1:1
  0
DICTIONARYVAR
  5
125
102
{ACAD_REACTORS
330
123
102
}
330
123
100
DictionaryVariables
280
     0
  1
STANDARD
  0
DICTIONARYVAR
  5
124
102
{ACAD_REACTORS
330
123
102
}
330
123
100
DictionaryVariables
280
     0
  1
STANDARD
  0
DICTIONARYVAR
  5
126
102
{ACAD_REACTORS
330
123
102
}
330
123
100
DictionaryVariables
280
     0
  1
Imperial24
  0
DICTIONARYVAR
  5
127
102
{ACAD_REACTORS
330
123
102
}
330
123
100
DictionaryVariables
280
     0
  1
Imperial24
  0
DICTIONARY
  5
1A
330
19
100
AcDbDictionary
280
     1
281
     1
  3
BUMPTILE
360
1C
  3
DIFFUSETILE
360
1B
  3
OPACITYTILE
360
1F
  3
REFLECTIONTILE
360
1E
  3
REFRACTIONTILE
360
20
  3
SPECULARTILE
360
1D
  0
DICTIONARY
  5
12
330
11
100
AcDbDictionary
280
     1
281
     1
  3
BUMPTILE
360
14
  3
DIFFUSETILE
360
13
  3
OPACITYTILE
360
17
  3
REFLECTIONTILE
360
16
  3
REFRACTIONTILE
360
18
  3
SPECULARTILE
360
15
  0
DICTIONARY
  5
22
330
21
100
AcDbDictionary
280
     1
281
     1
  3
BUMPTILE
360
24
  3
DIFFUSETILE
360
23
  3
OPACITYTILE
360
27
  3
REFLECTIONTILE
360
26
  3
REFRACTIONTILE
360
28
  3
SPECULARTILE
360
25
  0
DICTIONARY
  5
129
330
65
100
AcDbDictionary
280
     1
281
     1
  3
ACAD_ROUNDTRIP_2008_TABLESTYLE_CELLSTYLEMAP
360
12A
  0
XRECORD
  5
1C
102
{ACAD_REACTORS
330
1A
102
}
330
1A
100
AcDbXrecord
280
     1
270
     1
271
     1
  0
XRECORD
  5
1B
102
{ACAD_REACTORS
330
1A
102
}
330
1A
100
AcDbXrecord
280
     1
270
     1
271
     1
  0
XRECORD
  5
1F
102
{ACAD_REACTORS
330
1A
102
}
330
1A
100
AcDbXrecord
280
     1
270
     1
271
     1
  0
XRECORD
  5
1E
102
{ACAD_REACTORS
330
1A
102
}
330
1A
100
AcDbXrecord
280
     1
270
     1
271
     1
  0
XRECORD
  5
20
102
{ACAD_REACTORS
330
1A
102
}
330
1A
100
AcDbXrecord
280
     1
270
     1
271
     1
  0
XRECORD
  5
1D
102
{ACAD_REACTORS
330
1A
102
}
330
1A
100
AcDbXrecord
280
     1
270
     1
271
     1
  0
XRECORD
  5
14
102
{ACAD_REACTORS
330
12
102
}
330
12
100
AcDbXrecord
280
     1
270
     1
271
     1
  0
XRECORD
  5
13
102
{ACAD_REACTORS
330
12
102
}
330
12
100
AcDbXrecord
280
     1
270
     1
271
     1
  0
XRECORD
  5
17
102
{ACAD_REACTORS
330
12
102
}
330
12
100
AcDbXrecord
280
     1
270
     1
271
     1
  0
XRECORD
  5
16
102
{ACAD_REACTORS
330
12
102
}
330
12
100
AcDbXrecord
280
     1
270
     1
271
     1
  0
XRECORD
  5
18
102
{ACAD_REACTORS
330
12
102
}
330
12
100
AcDbXrecord
280
     1
270
     1
271
     1
  0
XRECORD
  5
15
102
{ACAD_REACTORS
330
12
102
}
330
12
100
AcDbXrecord
280
     1
270
     1
271
     1
  0
XRECORD
  5
24
102
{ACAD_REACTORS
330
22
102
}
330
22
100
AcDbXrecord
280
     1
270
     1
271
     1
  0
XRECORD
  5
23
102
{ACAD_REACTORS
330
22
102
}
330
22
100
AcDbXrecord
280
     1
270
     1
271
     1
  0
XRECORD
  5
27
102
{ACAD_REACTORS
330
22
102
}
330
22
100
AcDbXrecord
280
     1
270
     1
271
     1
  0
XRECORD
  5
26
102
{ACAD_REACTORS
330
22
102
}
330
22
100
AcDbXrecord
280
     1
270
     1
271
     1
  0
XRECORD
  5
28
102
{ACAD_REACTORS
330
22
102
}
330
22
100
AcDbXrecord
280
     1
270
     1
271
     1
  0
XRECORD
  5
25
102
{ACAD_REACTORS
330
22
102
}
330
22
100
AcDbXrecord
280
     1
270
     1
271
     1
  0
CELLSTYLEMAP
  5
12A
102
{ACAD_REACTORS
330
129
102
}
330
129
100
AcDbCellStyleMap
 90
        3
300
CELLSTYLE
  1
TABLEFORMAT_BEGIN
 90
        5
170
     1
 91
        0
 92
    32768
 62
   257
 93
        1
300
CONTENTFORMAT
  1
CONTENTFORMAT_BEGIN
 90
        0
 91
        0
 92
      512
 93
        0
300

 40
0.0
140
1.0
 94
        5
 62
     0
340
55
144
0.25
309
CONTENTFORMAT_END
171
     0
 94
        0
309
TABLEFORMAT_END
  1
CELLSTYLE_BEGIN
 90
        1
 91
        1
300
_TITLE
309
CELLSTYLE_END
300
CELLSTYLE
  1
TABLEFORMAT_BEGIN
 90
        5
170
     1
 91
        0
 92
        0
 62
   257
 93
        1
300
CONTENTFORMAT
  1
CONTENTFORMAT_BEGIN
 90
        0
 91
        0
 92
      512
 93
        0
300

 40
0.0
140
1.0
 94
        5
 62
     0
340
55
144
0.18
309
CONTENTFORMAT_END
171
     0
 94
        0
309
TABLEFORMAT_END
  1
CELLSTYLE_BEGIN
 90
        2
 91
        1
300
_HEADER
309
CELLSTYLE_END
300
CELLSTYLE
  1
TABLEFORMAT_BEGIN
 90
        5
170
     1
 91
        0
 92
        0
 62
   257
 93
        1
300
CONTENTFORMAT
  1
CONTENTFORMAT_BEGIN
 90
        0
 91
        0
 92
      512
 93
        0
300

 40
0.0
140
1.0
 94
        2
 62
     0
340
55
144
0.18
309
CONTENTFORMAT_END
171
     0
 94
        0
309
TABLEFORMAT_END
  1
CELLSTYLE_BEGIN
 90
        3
 91
        2
300
_DATA
309
CELLSTYLE_END
  0
ENDSEC
  0
EOF
