ISO-10303-21;
HEADER;
/* Generated by software containing ST-Developer
 * from STEP Tools, Inc. (www.steptools.com) 
 */
/* OPTION: using custom schema-name function */

FILE_DESCRIPTION(
/* description */ (''),
/* implementation_level */ '2;1');

FILE_NAME(
/* name */ '10001097912nxv000_00_214.stp',
/* time_stamp */ '2022-09-15T11:55:22+02:00',
/* author */ (''),
/* organization */ (''),
/* preprocessor_version */ 'ST-DEVELOPER v16.7',
/* originating_system */ 'SIEMENS PLM Software NX 12.0',
/* authorisation */ '');

FILE_SCHEMA (('AUTOMOTIVE_DESIGN { 1 0 10303 214 3 1 1 1 }'));
ENDSEC;

DATA;
#10=SHAPE_REPRESENTATION_RELATIONSHIP('None',
'relationship between 10001097912nxv000_00-None and 10001097912nxv000_
00-None',#22,#11);
#11=ADVANCED_BREP_SHAPE_REPRESENTATION('10001097912nxv000_00-None',(#32),
#481);
#12=SHAPE_DEFINITION_REPRESENTATION(#13,#22);
#13=PRODUCT_DEFINITION_SHAPE('','',#14);
#14=PRODUCT_DEFINITION(' ','',#16,#15);
#15=PRODUCT_DEFINITION_CONTEXT('part definition',#21,'design');
#16=PRODUCT_DEFINITION_FORMATION_WITH_SPECIFIED_SOURCE(' ',' ',#18,
 .NOT_KNOWN.);
#17=PRODUCT_RELATED_PRODUCT_CATEGORY('part','',(#18));
#18=PRODUCT('10001097912nxv000_00','10001097912nxv000_00',' ',(#19));
#19=PRODUCT_CONTEXT(' ',#21,'mechanical');
#20=APPLICATION_PROTOCOL_DEFINITION('international standard',
'automotive_design',2010,#21);
#21=APPLICATION_CONTEXT(
'core data for automotive mechanical design processes');
#22=SHAPE_REPRESENTATION('10001097912nxv000_00-None',(#269),#481);
#23=PRESENTATION_LAYER_ASSIGNMENT('10','Layer 10',(#32));
#24=STYLED_ITEM('',(#25),#32);
#25=PRESENTATION_STYLE_ASSIGNMENT((#26));
#26=SURFACE_STYLE_USAGE(.BOTH.,#27);
#27=SURFACE_SIDE_STYLE('',(#28));
#28=SURFACE_STYLE_FILL_AREA(#29);
#29=FILL_AREA_STYLE('',(#30));
#30=FILL_AREA_STYLE_COLOUR('',#31);
#31=COLOUR_RGB('Dark Hard Teal',0.,0.8,0.4);
#32=MANIFOLD_SOLID_BREP('VERRUNDUNG2',#33);
#33=CLOSED_SHELL('',(#76,#77,#78,#79,#80,#81,#82,#83,#84,#85,#86,#87,#88,
#89,#90,#91,#92,#93));
#34=PLANE('',#297);
#35=PLANE('',#298);
#36=PLANE('',#300);
#37=PLANE('',#302);
#38=PLANE('',#303);
#39=LINE('',#452,#45);
#40=LINE('',#453,#46);
#41=LINE('',#455,#47);
#42=LINE('',#459,#48);
#43=LINE('',#466,#49);
#44=LINE('',#467,#50);
#45=VECTOR('',#354,1.);
#46=VECTOR('',#355,1.);
#47=VECTOR('',#358,1.);
#48=VECTOR('',#361,1.);
#49=VECTOR('',#370,1.);
#50=VECTOR('',#371,1.);
#51=FACE_OUTER_BOUND('',#135,.T.);
#52=FACE_OUTER_BOUND('',#136,.T.);
#53=FACE_OUTER_BOUND('',#137,.T.);
#54=FACE_OUTER_BOUND('',#140,.T.);
#55=FACE_OUTER_BOUND('',#143,.T.);
#56=FACE_OUTER_BOUND('',#144,.T.);
#57=FACE_OUTER_BOUND('',#145,.T.);
#58=B_SPLINE_CURVE_WITH_KNOTS('',3,(#411,#412,#413,#414,#415,#416,#417,
#418,#419,#420),.UNSPECIFIED.,.F.,.F.,(4,2,2,2,4),(0.,0.25,0.5,0.75,1.),
 .UNSPECIFIED.);
#59=B_SPLINE_CURVE_WITH_KNOTS('',3,(#424,#425,#426,#427,#428,#429,#430,
#431,#432,#433),.UNSPECIFIED.,.F.,.F.,(4,2,2,2,4),(0.,0.25,0.5,0.75,1.),
 .UNSPECIFIED.);
#60=B_SPLINE_CURVE_WITH_KNOTS('',3,(#440,#441,#442,#443),.UNSPECIFIED.,
 .F.,.F.,(4,4),(0.,1.),.UNSPECIFIED.);
#61=B_SPLINE_CURVE_WITH_KNOTS('',3,(#447,#448,#449,#450),.UNSPECIFIED.,
 .F.,.F.,(4,4),(0.,1.),.UNSPECIFIED.);
#62=B_SPLINE_CURVE_WITH_KNOTS('',3,(#469,#470,#471,#472),.UNSPECIFIED.,
 .F.,.F.,(4,4),(0.,1.),.UNSPECIFIED.);
#63=B_SPLINE_CURVE_WITH_KNOTS('',3,(#473,#474,#475,#476),.UNSPECIFIED.,
 .F.,.F.,(4,4),(0.,1.),.UNSPECIFIED.);
#64=VERTEX_LOOP('',#207);
#65=CYLINDRICAL_SURFACE('',#277,1.5);
#66=CYLINDRICAL_SURFACE('',#283,5.5);
#67=CYLINDRICAL_SURFACE('',#294,14.);
#68=CYLINDRICAL_SURFACE('',#296,14.);
#69=CONICAL_SURFACE('',#275,4.,45.);
#70=CONICAL_SURFACE('',#278,1.5,58.9999999999999);
#71=CONICAL_SURFACE('',#285,5.6,25.);
#72=CONICAL_SURFACE('',#286,3.99996136237712,3.81416666666667);
#73=CONICAL_SURFACE('',#290,14.,29.9999999999997);
#74=CONICAL_SURFACE('',#293,14.,45.0000000000002);
#75=CONICAL_SURFACE('',#301,14.,45.0000000000002);
#76=ADVANCED_FACE('',(#96,#97),#94,.F.);
#77=ADVANCED_FACE('',(#98,#99),#69,.F.);
#78=ADVANCED_FACE('',(#100,#101),#65,.F.);
#79=ADVANCED_FACE('',(#102,#103),#70,.F.);
#80=ADVANCED_FACE('',(#104,#105),#95,.T.);
#81=ADVANCED_FACE('',(#106,#107),#66,.T.);
#82=ADVANCED_FACE('',(#108,#109),#71,.T.);
#83=ADVANCED_FACE('',(#110,#111),#72,.T.);
#84=ADVANCED_FACE('',(#112,#113),#73,.T.);
#85=ADVANCED_FACE('',(#51),#74,.T.);
#86=ADVANCED_FACE('',(#52),#67,.T.);
#87=ADVANCED_FACE('',(#53),#68,.T.);
#88=ADVANCED_FACE('',(#114,#115),#34,.F.);
#89=ADVANCED_FACE('',(#54),#35,.F.);
#90=ADVANCED_FACE('',(#116,#117),#36,.F.);
#91=ADVANCED_FACE('',(#55),#75,.T.);
#92=ADVANCED_FACE('',(#56),#37,.F.);
#93=ADVANCED_FACE('',(#57),#38,.F.);
#94=TOROIDAL_SURFACE('',#272,6.3,0.8);
#95=TOROIDAL_SURFACE('',#281,3.53218556783668,0.5);
#96=FACE_BOUND('',#118,.T.);
#97=FACE_BOUND('',#119,.T.);
#98=FACE_BOUND('',#120,.T.);
#99=FACE_BOUND('',#121,.T.);
#100=FACE_BOUND('',#122,.T.);
#101=FACE_BOUND('',#123,.T.);
#102=FACE_BOUND('',#124,.T.);
#103=FACE_BOUND('',#64,.T.);
#104=FACE_BOUND('',#125,.T.);
#105=FACE_BOUND('',#126,.T.);
#106=FACE_BOUND('',#127,.T.);
#107=FACE_BOUND('',#128,.T.);
#108=FACE_BOUND('',#129,.T.);
#109=FACE_BOUND('',#130,.T.);
#110=FACE_BOUND('',#131,.T.);
#111=FACE_BOUND('',#132,.T.);
#112=FACE_BOUND('',#133,.T.);
#113=FACE_BOUND('',#134,.T.);
#114=FACE_BOUND('',#138,.T.);
#115=FACE_BOUND('',#139,.T.);
#116=FACE_BOUND('',#141,.T.);
#117=FACE_BOUND('',#142,.T.);
#118=EDGE_LOOP('',(#146));
#119=EDGE_LOOP('',(#147));
#120=EDGE_LOOP('',(#148));
#121=EDGE_LOOP('',(#149));
#122=EDGE_LOOP('',(#150));
#123=EDGE_LOOP('',(#151));
#124=EDGE_LOOP('',(#152));
#125=EDGE_LOOP('',(#153));
#126=EDGE_LOOP('',(#154));
#127=EDGE_LOOP('',(#155));
#128=EDGE_LOOP('',(#156));
#129=EDGE_LOOP('',(#157));
#130=EDGE_LOOP('',(#158));
#131=EDGE_LOOP('',(#159));
#132=EDGE_LOOP('',(#160));
#133=EDGE_LOOP('',(#161,#162,#163,#164));
#134=EDGE_LOOP('',(#165));
#135=EDGE_LOOP('',(#166,#167,#168,#169));
#136=EDGE_LOOP('',(#170,#171,#172,#173));
#137=EDGE_LOOP('',(#174,#175,#176,#177));
#138=EDGE_LOOP('',(#178));
#139=EDGE_LOOP('',(#179));
#140=EDGE_LOOP('',(#180));
#141=EDGE_LOOP('',(#181));
#142=EDGE_LOOP('',(#182,#183,#184,#185));
#143=EDGE_LOOP('',(#186,#187,#188,#189));
#144=EDGE_LOOP('',(#190,#191,#192,#193,#194,#195));
#145=EDGE_LOOP('',(#196,#197,#198,#199,#200,#201));
#146=ORIENTED_EDGE('',*,*,#225,.F.);
#147=ORIENTED_EDGE('',*,*,#226,.F.);
#148=ORIENTED_EDGE('',*,*,#227,.T.);
#149=ORIENTED_EDGE('',*,*,#228,.F.);
#150=ORIENTED_EDGE('',*,*,#228,.T.);
#151=ORIENTED_EDGE('',*,*,#229,.F.);
#152=ORIENTED_EDGE('',*,*,#229,.T.);
#153=ORIENTED_EDGE('',*,*,#230,.F.);
#154=ORIENTED_EDGE('',*,*,#231,.F.);
#155=ORIENTED_EDGE('',*,*,#225,.T.);
#156=ORIENTED_EDGE('',*,*,#232,.T.);
#157=ORIENTED_EDGE('',*,*,#233,.T.);
#158=ORIENTED_EDGE('',*,*,#232,.F.);
#159=ORIENTED_EDGE('',*,*,#233,.F.);
#160=ORIENTED_EDGE('',*,*,#230,.T.);
#161=ORIENTED_EDGE('',*,*,#234,.T.);
#162=ORIENTED_EDGE('',*,*,#235,.T.);
#163=ORIENTED_EDGE('',*,*,#236,.T.);
#164=ORIENTED_EDGE('',*,*,#237,.T.);
#165=ORIENTED_EDGE('',*,*,#238,.F.);
#166=ORIENTED_EDGE('',*,*,#239,.F.);
#167=ORIENTED_EDGE('',*,*,#240,.F.);
#168=ORIENTED_EDGE('',*,*,#241,.F.);
#169=ORIENTED_EDGE('',*,*,#242,.F.);
#170=ORIENTED_EDGE('',*,*,#241,.T.);
#171=ORIENTED_EDGE('',*,*,#243,.T.);
#172=ORIENTED_EDGE('',*,*,#236,.F.);
#173=ORIENTED_EDGE('',*,*,#244,.T.);
#174=ORIENTED_EDGE('',*,*,#234,.F.);
#175=ORIENTED_EDGE('',*,*,#245,.T.);
#176=ORIENTED_EDGE('',*,*,#246,.T.);
#177=ORIENTED_EDGE('',*,*,#247,.T.);
#178=ORIENTED_EDGE('',*,*,#227,.F.);
#179=ORIENTED_EDGE('',*,*,#238,.T.);
#180=ORIENTED_EDGE('',*,*,#231,.T.);
#181=ORIENTED_EDGE('',*,*,#226,.T.);
#182=ORIENTED_EDGE('',*,*,#248,.T.);
#183=ORIENTED_EDGE('',*,*,#249,.T.);
#184=ORIENTED_EDGE('',*,*,#239,.T.);
#185=ORIENTED_EDGE('',*,*,#250,.T.);
#186=ORIENTED_EDGE('',*,*,#251,.F.);
#187=ORIENTED_EDGE('',*,*,#248,.F.);
#188=ORIENTED_EDGE('',*,*,#252,.F.);
#189=ORIENTED_EDGE('',*,*,#246,.F.);
#190=ORIENTED_EDGE('',*,*,#252,.T.);
#191=ORIENTED_EDGE('',*,*,#250,.F.);
#192=ORIENTED_EDGE('',*,*,#242,.T.);
#193=ORIENTED_EDGE('',*,*,#244,.F.);
#194=ORIENTED_EDGE('',*,*,#235,.F.);
#195=ORIENTED_EDGE('',*,*,#247,.F.);
#196=ORIENTED_EDGE('',*,*,#240,.T.);
#197=ORIENTED_EDGE('',*,*,#249,.F.);
#198=ORIENTED_EDGE('',*,*,#251,.T.);
#199=ORIENTED_EDGE('',*,*,#245,.F.);
#200=ORIENTED_EDGE('',*,*,#237,.F.);
#201=ORIENTED_EDGE('',*,*,#243,.F.);
#202=VERTEX_POINT('',#382);
#203=VERTEX_POINT('',#384);
#204=VERTEX_POINT('',#387);
#205=VERTEX_POINT('',#389);
#206=VERTEX_POINT('',#392);
#207=VERTEX_POINT('',#394);
#208=VERTEX_POINT('',#397);
#209=VERTEX_POINT('',#399);
#210=VERTEX_POINT('',#402);
#211=VERTEX_POINT('',#405);
#212=VERTEX_POINT('',#409);
#213=VERTEX_POINT('',#410);
#214=VERTEX_POINT('',#421);
#215=VERTEX_POINT('',#423);
#216=VERTEX_POINT('',#435);
#217=VERTEX_POINT('',#438);
#218=VERTEX_POINT('',#439);
#219=VERTEX_POINT('',#444);
#220=VERTEX_POINT('',#446);
#221=VERTEX_POINT('',#456);
#222=VERTEX_POINT('',#458);
#223=VERTEX_POINT('',#464);
#224=VERTEX_POINT('',#465);
#225=EDGE_CURVE('',#202,#202,#253,.T.);
#226=EDGE_CURVE('',#203,#203,#254,.T.);
#227=EDGE_CURVE('',#204,#204,#255,.T.);
#228=EDGE_CURVE('',#205,#205,#256,.T.);
#229=EDGE_CURVE('',#206,#206,#257,.T.);
#230=EDGE_CURVE('',#208,#208,#258,.T.);
#231=EDGE_CURVE('',#209,#209,#259,.T.);
#232=EDGE_CURVE('',#210,#210,#260,.T.);
#233=EDGE_CURVE('',#211,#211,#261,.T.);
#234=EDGE_CURVE('',#212,#213,#262,.T.);
#235=EDGE_CURVE('',#213,#214,#58,.T.);
#236=EDGE_CURVE('',#214,#215,#263,.T.);
#237=EDGE_CURVE('',#215,#212,#59,.T.);
#238=EDGE_CURVE('',#216,#216,#264,.T.);
#239=EDGE_CURVE('',#217,#218,#265,.T.);
#240=EDGE_CURVE('',#219,#217,#60,.T.);
#241=EDGE_CURVE('',#220,#219,#266,.T.);
#242=EDGE_CURVE('',#218,#220,#61,.T.);
#243=EDGE_CURVE('',#219,#215,#39,.T.);
#244=EDGE_CURVE('',#214,#220,#40,.T.);
#245=EDGE_CURVE('',#212,#221,#41,.T.);
#246=EDGE_CURVE('',#221,#222,#267,.T.);
#247=EDGE_CURVE('',#222,#213,#42,.T.);
#248=EDGE_CURVE('',#223,#224,#268,.T.);
#249=EDGE_CURVE('',#224,#217,#43,.T.);
#250=EDGE_CURVE('',#218,#223,#44,.T.);
#251=EDGE_CURVE('',#224,#221,#62,.T.);
#252=EDGE_CURVE('',#222,#223,#63,.T.);
#253=CIRCLE('',#270,5.5);
#254=CIRCLE('',#271,6.3);
#255=CIRCLE('',#273,4.);
#256=CIRCLE('',#274,1.5);
#257=CIRCLE('',#276,1.5);
#258=CIRCLE('',#279,4.03107809345676);
#259=CIRCLE('',#280,3.53218556783668);
#260=CIRCLE('',#282,5.5);
#261=CIRCLE('',#284,5.6);
#262=CIRCLE('',#287,14.);
#263=CIRCLE('',#288,14.);
#264=CIRCLE('',#289,6.);
#265=CIRCLE('',#291,13.);
#266=CIRCLE('',#292,14.);
#267=CIRCLE('',#295,14.);
#268=CIRCLE('',#299,13.);
#269=AXIS2_PLACEMENT_3D('',#380,#304,#305);
#270=AXIS2_PLACEMENT_3D('',#381,#306,#307);
#271=AXIS2_PLACEMENT_3D('',#383,#308,#309);
#272=AXIS2_PLACEMENT_3D('',#385,#310,#311);
#273=AXIS2_PLACEMENT_3D('',#386,#312,#313);
#274=AXIS2_PLACEMENT_3D('',#388,#314,#315);
#275=AXIS2_PLACEMENT_3D('',#390,#316,#317);
#276=AXIS2_PLACEMENT_3D('',#391,#318,#319);
#277=AXIS2_PLACEMENT_3D('',#393,#320,#321);
#278=AXIS2_PLACEMENT_3D('',#395,#322,#323);
#279=AXIS2_PLACEMENT_3D('',#396,#324,#325);
#280=AXIS2_PLACEMENT_3D('',#398,#326,#327);
#281=AXIS2_PLACEMENT_3D('',#400,#328,#329);
#282=AXIS2_PLACEMENT_3D('',#401,#330,#331);
#283=AXIS2_PLACEMENT_3D('',#403,#332,#333);
#284=AXIS2_PLACEMENT_3D('',#404,#334,#335);
#285=AXIS2_PLACEMENT_3D('',#406,#336,#337);
#286=AXIS2_PLACEMENT_3D('',#407,#338,#339);
#287=AXIS2_PLACEMENT_3D('',#408,#340,#341);
#288=AXIS2_PLACEMENT_3D('',#422,#342,#343);
#289=AXIS2_PLACEMENT_3D('',#434,#344,#345);
#290=AXIS2_PLACEMENT_3D('',#436,#346,#347);
#291=AXIS2_PLACEMENT_3D('',#437,#348,#349);
#292=AXIS2_PLACEMENT_3D('',#445,#350,#351);
#293=AXIS2_PLACEMENT_3D('',#451,#352,#353);
#294=AXIS2_PLACEMENT_3D('',#454,#356,#357);
#295=AXIS2_PLACEMENT_3D('',#457,#359,#360);
#296=AXIS2_PLACEMENT_3D('',#460,#362,#363);
#297=AXIS2_PLACEMENT_3D('',#461,#364,#365);
#298=AXIS2_PLACEMENT_3D('',#462,#366,#367);
#299=AXIS2_PLACEMENT_3D('',#463,#368,#369);
#300=AXIS2_PLACEMENT_3D('',#468,#372,#373);
#301=AXIS2_PLACEMENT_3D('',#477,#374,#375);
#302=AXIS2_PLACEMENT_3D('',#478,#376,#377);
#303=AXIS2_PLACEMENT_3D('',#479,#378,#379);
#304=DIRECTION('',(0.,0.,1.));
#305=DIRECTION('',(1.,0.,0.));
#306=DIRECTION('',(1.,0.,0.));
#307=DIRECTION('',(0.,-1.,0.));
#308=DIRECTION('',(-1.,0.,0.));
#309=DIRECTION('',(0.,-1.,0.));
#310=DIRECTION('',(-1.,0.,0.));
#311=DIRECTION('',(0.,1.,0.));
#312=DIRECTION('',(-1.,0.,0.));
#313=DIRECTION('',(0.,-1.,0.));
#314=DIRECTION('',(-1.,0.,0.));
#315=DIRECTION('',(0.,-1.,0.));
#316=DIRECTION('',(-1.,0.,0.));
#317=DIRECTION('',(8.29349868992895E-17,1.,0.));
#318=DIRECTION('',(-1.,0.,0.));
#319=DIRECTION('',(0.,-1.,0.));
#320=DIRECTION('',(-1.,0.,0.));
#321=DIRECTION('',(0.,1.,0.));
#322=DIRECTION('',(-1.,0.,0.));
#323=DIRECTION('',(-8.33110742139296E-18,1.,0.));
#324=DIRECTION('',(-1.,0.,0.));
#325=DIRECTION('',(0.,1.,0.));
#326=DIRECTION('',(1.,0.,0.));
#327=DIRECTION('',(0.,-1.,0.));
#328=DIRECTION('',(-1.,0.,0.));
#329=DIRECTION('',(0.,1.,0.));
#330=DIRECTION('',(-1.,0.,0.));
#331=DIRECTION('',(0.,-1.,0.));
#332=DIRECTION('',(-1.,0.,0.));
#333=DIRECTION('',(0.,1.,0.));
#334=DIRECTION('',(-1.,0.,0.));
#335=DIRECTION('',(0.,-1.,0.));
#336=DIRECTION('',(1.,0.,0.));
#337=DIRECTION('',(0.,-1.,0.));
#338=DIRECTION('',(-1.,0.,0.));
#339=DIRECTION('',(3.92758846529088E-16,1.,0.));
#340=DIRECTION('',(-1.,0.,0.));
#341=DIRECTION('',(0.,-1.,0.));
#342=DIRECTION('',(-1.,0.,0.));
#343=DIRECTION('',(0.,-1.,0.));
#344=DIRECTION('',(-1.,0.,0.));
#345=DIRECTION('',(0.,-1.,0.));
#346=DIRECTION('',(1.,0.,0.));
#347=DIRECTION('',(-4.69359313113444E-17,-1.,0.));
#348=DIRECTION('',(1.,0.,0.));
#349=DIRECTION('',(0.,-1.,0.));
#350=DIRECTION('',(-1.,0.,0.));
#351=DIRECTION('',(0.,-1.,0.));
#352=DIRECTION('',(-1.,0.,0.));
#353=DIRECTION('',(-1.09489450160271E-16,1.,0.));
#354=DIRECTION('',(-1.,0.,0.));
#355=DIRECTION('',(1.,0.,0.));
#356=DIRECTION('',(-1.,0.,0.));
#357=DIRECTION('',(0.,1.,0.));
#358=DIRECTION('',(1.,0.,0.));
#359=DIRECTION('',(-1.,0.,0.));
#360=DIRECTION('',(0.,-1.,0.));
#361=DIRECTION('',(-1.,0.,0.));
#362=DIRECTION('',(-1.,0.,0.));
#363=DIRECTION('',(0.,1.,0.));
#364=DIRECTION('',(1.,0.,0.));
#365=DIRECTION('',(0.,-1.,0.));
#366=DIRECTION('',(-1.,0.,0.));
#367=DIRECTION('',(0.,1.,0.));
#368=DIRECTION('',(1.,0.,0.));
#369=DIRECTION('',(0.,-1.,0.));
#370=DIRECTION('',(0.,-1.,-1.45200989566022E-16));
#371=DIRECTION('',(0.,1.,1.45200989566022E-16));
#372=DIRECTION('',(-1.,0.,0.));
#373=DIRECTION('',(0.,1.,0.));
#374=DIRECTION('',(-1.,0.,0.));
#375=DIRECTION('',(-1.09489450160271E-16,1.,0.));
#376=DIRECTION('',(0.,-1.45200989566022E-16,1.));
#377=DIRECTION('',(0.,1.,1.45716771982052E-16));
#378=DIRECTION('',(0.,1.45200989566022E-16,-1.));
#379=DIRECTION('',(0.,-1.,-1.45716771982052E-16));
#380=CARTESIAN_POINT('',(0.,0.,0.));
#381=CARTESIAN_POINT('',(-1.20000000000001,0.,0.));
#382=CARTESIAN_POINT('',(-1.20000000000001,-5.5,0.));
#383=CARTESIAN_POINT('',(-2.,0.,0.));
#384=CARTESIAN_POINT('',(-2.,-6.3,0.));
#385=CARTESIAN_POINT('',(-1.20000000000001,0.,0.));
#386=CARTESIAN_POINT('',(-21.,0.,0.));
#387=CARTESIAN_POINT('',(-21.,-4.,0.));
#388=CARTESIAN_POINT('',(-18.5,0.,0.));
#389=CARTESIAN_POINT('',(-18.5,-1.5,0.));
#390=CARTESIAN_POINT('',(-21.,0.,0.));
#391=CARTESIAN_POINT('',(-14.,0.,0.));
#392=CARTESIAN_POINT('',(-14.,-1.5,0.));
#393=CARTESIAN_POINT('',(-21.,0.,0.));
#394=CARTESIAN_POINT('',(-13.0987090714587,0.,-1.93525812895403E-15));
#395=CARTESIAN_POINT('',(-14.,0.,0.));
#396=CARTESIAN_POINT('',(23.5332603048756,0.,0.));
#397=CARTESIAN_POINT('',(23.5332603048756,4.03107809345676,0.));
#398=CARTESIAN_POINT('',(24.,0.,0.));
#399=CARTESIAN_POINT('',(24.,-3.53218556783668,0.));
#400=CARTESIAN_POINT('',(23.5,0.,0.));
#401=CARTESIAN_POINT('',(-0.214450692050949,0.,0.));
#402=CARTESIAN_POINT('',(-0.214450692050949,-5.5,0.));
#403=CARTESIAN_POINT('',(-48.7659311681938,0.,0.));
#404=CARTESIAN_POINT('',(0.,0.,0.));
#405=CARTESIAN_POINT('',(0.,-5.6,0.));
#406=CARTESIAN_POINT('',(0.,0.,0.));
#407=CARTESIAN_POINT('',(24.,0.,0.));
#408=CARTESIAN_POINT('',(-7.1435935394488,0.,0.));
#409=CARTESIAN_POINT('',(-7.1435935394488,7.21110255092798,12.));
#410=CARTESIAN_POINT('',(-7.1435935394488,7.21110255092798,-12.));
#411=CARTESIAN_POINT('',(-7.1435935394488,7.21110255092799,-12.));
#412=CARTESIAN_POINT('',(-8.05294709290353,6.19181081123238,-12.));
#413=CARTESIAN_POINT('',(-8.88313688741091,5.11782605440113,-12.));
#414=CARTESIAN_POINT('',(-10.1744411824282,2.71486812625,-12.));
#415=CARTESIAN_POINT('',(-10.6068522356494,1.36270340996873,-12.));
#416=CARTESIAN_POINT('',(-10.6085354142771,-1.35411881858208,-12.));
#417=CARTESIAN_POINT('',(-10.1817780283595,-2.6954378402264,-12.));
#418=CARTESIAN_POINT('',(-8.89795736470085,-5.0959256986226,-12.));
#419=CARTESIAN_POINT('',(-8.05514599441925,-6.18934606895159,-12.));
#420=CARTESIAN_POINT('',(-7.1435935394488,-7.21110255092797,-12.));
#421=CARTESIAN_POINT('',(-7.1435935394488,-7.21110255092797,-12.));
#422=CARTESIAN_POINT('',(-7.1435935394488,0.,0.));
#423=CARTESIAN_POINT('',(-7.1435935394488,-7.21110255092799,12.));
#424=CARTESIAN_POINT('',(-7.1435935394488,-7.21110255092799,12.));
#425=CARTESIAN_POINT('',(-8.05294709290353,-6.19181081123238,12.));
#426=CARTESIAN_POINT('',(-8.88313688741091,-5.11782605440113,12.));
#427=CARTESIAN_POINT('',(-10.1744411824282,-2.71486812625,12.));
#428=CARTESIAN_POINT('',(-10.6068522356494,-1.36270340996874,12.));
#429=CARTESIAN_POINT('',(-10.6085354142771,1.35411881858208,12.));
#430=CARTESIAN_POINT('',(-10.1817780283595,2.6954378402264,12.));
#431=CARTESIAN_POINT('',(-8.89795736470085,5.0959256986226,12.));
#432=CARTESIAN_POINT('',(-8.05514599441925,6.1893460689516,12.));
#433=CARTESIAN_POINT('',(-7.1435935394488,7.21110255092798,12.));
#434=CARTESIAN_POINT('',(-21.,0.,0.));
#435=CARTESIAN_POINT('',(-21.,-6.,0.));
#436=CARTESIAN_POINT('',(-7.1435935394488,0.,0.));
#437=CARTESIAN_POINT('',(-2.,0.,0.));
#438=CARTESIAN_POINT('',(-2.,-4.99999999999998,12.));
#439=CARTESIAN_POINT('',(-2.,-4.99999999999995,-12.));
#440=CARTESIAN_POINT('',(-3.,-7.21110255092799,12.));
#441=CARTESIAN_POINT('',(-2.62959707016687,-6.49198352841505,12.));
#442=CARTESIAN_POINT('',(-2.2903806821894,-5.75498977369241,12.));
#443=CARTESIAN_POINT('',(-2.,-4.99999999999998,12.));
#444=CARTESIAN_POINT('',(-3.,-7.21110255092799,12.));
#445=CARTESIAN_POINT('',(-3.,0.,0.));
#446=CARTESIAN_POINT('',(-3.,-7.21110255092797,-12.));
#447=CARTESIAN_POINT('',(-2.,-4.99999999999995,-12.));
#448=CARTESIAN_POINT('',(-2.2903806821894,-5.75498977369239,-12.));
#449=CARTESIAN_POINT('',(-2.62959707016687,-6.49198352841503,-12.));
#450=CARTESIAN_POINT('',(-3.,-7.21110255092797,-12.));
#451=CARTESIAN_POINT('',(-3.,0.,0.));
#452=CARTESIAN_POINT('',(-48.7659311681938,-7.21110255092799,12.));
#453=CARTESIAN_POINT('',(-48.7659311681938,-7.21110255092797,-12.));
#454=CARTESIAN_POINT('',(-48.7659311681938,0.,0.));
#455=CARTESIAN_POINT('',(-48.7659311681938,7.21110255092798,12.));
#456=CARTESIAN_POINT('',(-3.,7.21110255092798,12.));
#457=CARTESIAN_POINT('',(-3.,0.,0.));
#458=CARTESIAN_POINT('',(-3.,7.21110255092798,-12.));
#459=CARTESIAN_POINT('',(-48.7659311681938,7.21110255092798,-12.));
#460=CARTESIAN_POINT('',(-48.7659311681938,0.,0.));
#461=CARTESIAN_POINT('',(-21.,0.,6.));
#462=CARTESIAN_POINT('',(24.,0.,3.99996136237712));
#463=CARTESIAN_POINT('',(-2.,0.,0.));
#464=CARTESIAN_POINT('',(-2.,4.99999999999996,-12.));
#465=CARTESIAN_POINT('',(-2.,4.99999999999997,12.));
#466=CARTESIAN_POINT('',(-2.,-9.43806432179143E-16,12.));
#467=CARTESIAN_POINT('',(-2.,2.54101731740539E-15,-12.));
#468=CARTESIAN_POINT('',(-2.,0.,5.5));
#469=CARTESIAN_POINT('',(-2.,4.99999999999997,12.));
#470=CARTESIAN_POINT('',(-2.2903806821894,5.75498977369241,12.));
#471=CARTESIAN_POINT('',(-2.62959707016687,6.49198352841505,12.));
#472=CARTESIAN_POINT('',(-3.,7.21110255092798,12.));
#473=CARTESIAN_POINT('',(-3.,7.21110255092798,-12.));
#474=CARTESIAN_POINT('',(-2.62959707016687,6.49198352841504,-12.));
#475=CARTESIAN_POINT('',(-2.2903806821894,5.75498977369239,-12.));
#476=CARTESIAN_POINT('',(-2.,4.99999999999996,-12.));
#477=CARTESIAN_POINT('',(-3.,0.,0.));
#478=CARTESIAN_POINT('',(24.,17.996509573249,-12.));
#479=CARTESIAN_POINT('',(24.,17.996509573249,12.));
#480=MECHANICAL_DESIGN_GEOMETRIC_PRESENTATION_REPRESENTATION('',(#24),#481);
#481=(
GEOMETRIC_REPRESENTATION_CONTEXT(3)
GLOBAL_UNCERTAINTY_ASSIGNED_CONTEXT((#482))
GLOBAL_UNIT_ASSIGNED_CONTEXT((#488,#484,#483))
REPRESENTATION_CONTEXT('10001097912nxv000_00_214',
'TOP_LEVEL_ASSEMBLY_PART')
);
#482=UNCERTAINTY_MEASURE_WITH_UNIT(LENGTH_MEASURE(0.0508),#488,
'DISTANCE_ACCURACY_VALUE','Maximum Tolerance applied to model');
#483=(
NAMED_UNIT(*)
SI_UNIT($,.STERADIAN.)
SOLID_ANGLE_UNIT()
);
#484=(
CONVERSION_BASED_UNIT('DEGREE',#486)
NAMED_UNIT(#485)
PLANE_ANGLE_UNIT()
);
#485=DIMENSIONAL_EXPONENTS(0.,0.,0.,0.,0.,0.,0.);
#486=PLANE_ANGLE_MEASURE_WITH_UNIT(PLANE_ANGLE_MEASURE(0.0174532925),#487);
#487=(
NAMED_UNIT(*)
PLANE_ANGLE_UNIT()
SI_UNIT($,.RADIAN.)
);
#488=(
LENGTH_UNIT()
NAMED_UNIT(*)
SI_UNIT(.MILLI.,.METRE.)
);
ENDSEC;
END-ISO-10303-21;
