  0
SECTION
  2
HEADER
  9
$ACADVER
  1
AC1014
  9
$ACADMAINTVER
 70
     9
  9
$DWGCODEPAGE
  3
ANSI_1252
  9
$INSBASE
 10
0.0
 20
0.0
 30
0.0
  9
$EXTMIN
 10
1.000000000000000E+20
 20
1.000000000000000E+20
 30
1.000000000000000E+20
  9
$EXTMAX
 10
-1.000000000000000E+20
 20
-1.000000000000000E+20
 30
-1.000000000000000E+20
  9
$LIMMIN
 10
0.0
 20
0.0
  9
$LIMMAX
 10
12.0
 20
9.0
  9
$ORTHOMODE
 70
     0
  9
$REGENMODE
 70
     1
  9
$FILLMODE
 70
     1
  9
$QTEXTMODE
 70
     0
  9
$MIRRTEXT
 70
     1
  9
$DRAGMODE
 70
     2
  9
$LTSCALE
 40
1.0
  9
$OSMODE
 70
    37
  9
$ATTMODE
 70
     1
  9
$TEXTSIZE
 40
0.2
  9
$TRACEWID
 40
0.05
  9
$TEXTSTYLE
  7
STANDARD
  9
$CLAYER
  8
0
  9
$CELTYPE
  6
BYLAYER
  9
$CECOLOR
 62
   256
  9
$CELTSCALE
 40
1.0
  9
$DELOBJ
 70
     1
  9
$DISPSILH
 70
     0
  9
$DIMSCALE
 40
1.0
  9
$DIMASZ
 40
0.18
  9
$DIMEXO
 40
0.0625
  9
$DIMDLI
 40
0.38
  9
$DIMRND
 40
0.0
  9
$DIMDLE
 40
0.0
  9
$DIMEXE
 40
0.18
  9
$DIMTP
 40
0.0
  9
$DIMTM
 40
0.0
  9
$DIMTXT
 40
0.18
  9
$DIMCEN
 40
0.09
  9
$DIMTSZ
 40
0.0
  9
$DIMTOL
 70
     0
  9
$DIMLIM
 70
     0
  9
$DIMTIH
 70
     1
  9
$DIMTOH
 70
     1
  9
$DIMSE1
 70
     0
  9
$DIMSE2
 70
     0
  9
$DIMTAD
 70
     0
  9
$DIMZIN
 70
     0
  9
$DIMBLK
  1

  9
$DIMASO
 70
     1
  9
$DIMSHO
 70
     1
  9
$DIMPOST
  1

  9
$DIMAPOST
  1

  9
$DIMALT
 70
     0
  9
$DIMALTD
 70
     2
  9
$DIMALTF
 40
25.4
  9
$DIMLFAC
 40
1.0
  9
$DIMTOFL
 70
     0
  9
$DIMTVP
 40
0.0
  9
$DIMTIX
 70
     0
  9
$DIMSOXD
 70
     0
  9
$DIMSAH
 70
     0
  9
$DIMBLK1
  1

  9
$DIMBLK2
  1

  9
$DIMSTYLE
  2
STANDARD
  9
$DIMCLRD
 70
     0
  9
$DIMCLRE
 70
     0
  9
$DIMCLRT
 70
     0
  9
$DIMTFAC
 40
1.0
  9
$DIMGAP
 40
0.09
  9
$DIMJUST
 70
     0
  9
$DIMSD1
 70
     0
  9
$DIMSD2
 70
     0
  9
$DIMTOLJ
 70
     1
  9
$DIMTZIN
 70
     0
  9
$DIMALTZ
 70
     0
  9
$DIMALTTZ
 70
     0
  9
$DIMFIT
 70
     3
  9
$DIMUPT
 70
     0
  9
$DIMUNIT
 70
     2
  9
$DIMDEC
 70
     4
  9
$DIMTDEC
 70
     4
  9
$DIMALTU
 70
     2
  9
$DIMALTTD
 70
     2
  9
$DIMTXSTY
  7
STANDARD
  9
$DIMAUNIT
 70
     0
  9
$LUNITS
 70
     2
  9
$LUPREC
 70
     4
  9
$SKETCHINC
 40
0.1
  9
$FILLETRAD
 40
0.5
  9
$AUNITS
 70
     0
  9
$AUPREC
 70
     0
  9
$MENU
  1
.
  9
$ELEVATION
 40
0.0
  9
$PELEVATION
 40
0.0
  9
$THICKNESS
 40
0.0
  9
$LIMCHECK
 70
     0
  9
$CHAMFERA
 40
0.5
  9
$CHAMFERB
 40
0.5
  9
$CHAMFERC
 40
1.0
  9
$CHAMFERD
 40
0.0
  9
$SKPOLY
 70
     0
  9
$TDCREATE
 40
2458453.459297975
  9
$TDUPDATE
 40
2458453.459297986
  9
$TDINDWG
 40
0.0000000116
  9
$TDUSRTIMER
 40
0.0000000116
  9
$USRTIMER
 70
     1
  9
$ANGBASE
 50
0.0
  9
$ANGDIR
 70
     0
  9
$PDMODE
 70
     0
  9
$PDSIZE
 40
0.0
  9
$PLINEWID
 40
0.0
  9
$COORDS
 70
     1
  9
$SPLFRAME
 70
     0
  9
$SPLINETYPE
 70
     6
  9
$SPLINESEGS
 70
     8
  9
$ATTDIA
 70
     0
  9
$ATTREQ
 70
     1
  9
$HANDLING
 70
     1
  9
$HANDSEED
  5
632
  9
$SURFTAB1
 70
     6
  9
$SURFTAB2
 70
     6
  9
$SURFTYPE
 70
     6
  9
$SURFU
 70
     6
  9
$SURFV
 70
     6
  9
$UCSNAME
  2

  9
$UCSORG
 10
0.0
 20
0.0
 30
0.0
  9
$UCSXDIR
 10
1.0
 20
0.0
 30
0.0
  9
$UCSYDIR
 10
0.0
 20
1.0
 30
0.0
  9
$PUCSNAME
  2

  9
$PUCSORG
 10
0.0
 20
0.0
 30
0.0
  9
$PUCSXDIR
 10
1.0
 20
0.0
 30
0.0
  9
$PUCSYDIR
 10
0.0
 20
1.0
 30
0.0
  9
$USERI1
 70
     0
  9
$USERI2
 70
     0
  9
$USERI3
 70
     0
  9
$USERI4
 70
     0
  9
$USERI5
 70
     0
  9
$USERR1
 40
0.0
  9
$USERR2
 40
0.0
  9
$USERR3
 40
0.0
  9
$USERR4
 40
0.0
  9
$USERR5
 40
0.0
  9
$WORLDVIEW
 70
     1
  9
$SHADEDGE
 70
     3
  9
$SHADEDIF
 70
    70
  9
$TILEMODE
 70
     1
  9
$MAXACTVP
 70
    64
  9
$PINSBASE
 10
0.0
 20
0.0
 30
0.0
  9
$PLIMCHECK
 70
     0
  9
$PEXTMIN
 10
1.000000000000000E+20
 20
1.000000000000000E+20
 30
1.000000000000000E+20
  9
$PEXTMAX
 10
-1.000000000000000E+20
 20
-1.000000000000000E+20
 30
-1.000000000000000E+20
  9
$PLIMMIN
 10
0.0
 20
0.0
  9
$PLIMMAX
 10
12.0
 20
9.0
  9
$UNITMODE
 70
     0
  9
$VISRETAIN
 70
     1
  9
$PLINEGEN
 70
     0
  9
$PSLTSCALE
 70
     1
  9
$TREEDEPTH
 70
  3020
  9
$PICKSTYLE
 70
     1
  9
$CMLSTYLE
  2
STANDARD
  9
$CMLJUST
 70
     0
  9
$CMLSCALE
 40
1.0
  9
$PROXYGRAPHICS
 70
     1
  9
$MEASUREMENT
 70
     0
  0
ENDSEC
  0
SECTION
  2
CLASSES
  0
CLASS
  1
ACDBDICTIONARYWDFLT
  2
AcDbDictionaryWithDefault
  3
ObjectDBX Classes
 90
        0
280
     0
281
     0
  0
CLASS
  1
VISUALSTYLE
  2
AcDbVisualStyle
  3
ObjectDBX Classes
 90
     4095
280
     0
281
     0
  0
CLASS
  1
XRECORD
  2
AcDbXrecord
  3
AutoCAD 2000
 90
        0
280
     0
281
     0
  0
CLASS
  1
LWPOLYLINE
  2
AcDbPolyline
  3
AutoCAD 2000
 90
        0
280
     0
281
     1
  0
CLASS
  1
HATCH
  2
AcDbHatch
  3
AutoCAD 2000
 90
        0
280
     0
281
     1
  0
CLASS
  1
ACDBPLACEHOLDER
  2
AcDbPlaceHolder
  3
ObjectDBX Classes
 90
        0
280
     0
281
     0
  0
CLASS
  1
LAYOUT
  2
AcDbLayout
  3
ObjectDBX Classes
 90
        0
280
     0
281
     0
  0
ENDSEC
  0
SECTION
  2
TABLES
  0
TABLE
  2
VPORT
  5
8
330
0
100
AcDbSymbolTable
 70
     1
  0
VPORT
  5
29
330
8
100
AcDbSymbolTableRecord
100
AcDbViewportTableRecord
  2
*ACTIVE
 70
     0
 10
0.0
 20
0.0
 11
1.0
 21
1.0
 12
0.0
 22
0.0
 13
0.0
 23
0.0
 14
0.5
 24
0.5
 15
0.5
 25
0.5
 16
0.0
 26
0.0
 36
1.0
 17
-6.036840818803292
 27
-17.01325954435779
 37
0.0
 40
218.0001301538333
 41
1.192659738552176
 42
50.0
 43
0.0
 44
0.0
 50
0.0
 51
0.0
 71
     0
 72
   100
 73
     1
 74
     3
 75
     0
 76
     0
 77
     0
 78
     0
  0
ENDTAB
  0
TABLE
  2
LTYPE
  5
5
330
0
100
AcDbSymbolTable
 70
     2
  0
LTYPE
  5
14
330
5
100
AcDbSymbolTableRecord
100
AcDbLinetypeTableRecord
  2
BYBLOCK
 70
     0
  3

 72
    65
 73
     0
 40
0.0
  0
LTYPE
  5
15
330
5
100
AcDbSymbolTableRecord
100
AcDbLinetypeTableRecord
  2
BYLAYER
 70
     0
  3

 72
    65
 73
     0
 40
0.0
  0
LTYPE
  5
16
330
5
100
AcDbSymbolTableRecord
100
AcDbLinetypeTableRecord
  2
CONTINUOUS
 70
     0
  3
Solid line
 72
    65
 73
     0
 40
0.0
  0
LTYPE
  5
EF
330
5
100
AcDbSymbolTableRecord
100
AcDbLinetypeTableRecord
  2
AI-LINETYPE-1
 70
     0
  3
Adobe Illustrator Linetype No. 1
 72
    65
 73
     4
 40
8.819444442239584
 49
7.055555553791667
 74
     0
 49
-0.7055555553791667
 74
     0
 49
0.3527777776895833
 74
     0
 49
-0.7055555553791667
 74
     0
  0
ENDTAB
  0
TABLE
  2
LAYER
  5
2
330
0
100
AcDbSymbolTable
 70
     5
  0
LAYER
  5
10
330
2
100
AcDbSymbolTableRecord
100
AcDbLayerTableRecord
  2
0
 70
     0
 62
     7
  6
CONTINUOUS
  0
LAYER
  5
3B
330
2
100
AcDbSymbolTableRecord
100
AcDbLayerTableRecord
  2
GRAU_10_
 70
     1
 62
     7
  6
CONTINUOUS
  0
LAYER
  5
4E
330
2
100
AcDbSymbolTableRecord
100
AcDbLayerTableRecord
  2
STANDARDEBENE
 70
     0
 62
     7
  6
CONTINUOUS
  0
LAYER
  5
1E0
330
2
100
AcDbSymbolTableRecord
100
AcDbLayerTableRecord
  2
BEMAßUNG
 70
     1
 62
     7
  6
CONTINUOUS
  0
LAYER
  5
609
330
2
100
AcDbSymbolTableRecord
100
AcDbLayerTableRecord
  2
TEXT
 70
     1
 62
     7
  6
CONTINUOUS
  0
ENDTAB
  0
TABLE
  2
STYLE
  5
3
330
0
100
AcDbSymbolTable
 70
     1
  0
STYLE
  5
11
330
3
100
AcDbSymbolTableRecord
100
AcDbTextStyleTableRecord
  2
STANDARD
 70
     0
 40
0.0
 41
1.0
 50
0.0
 71
     0
 42
0.2
  3
txt
  4

  0
ENDTAB
  0
TABLE
  2
VIEW
  5
6
330
0
100
AcDbSymbolTable
 70
     0
  0
ENDTAB
  0
TABLE
  2
UCS
  5
7
330
0
100
AcDbSymbolTable
 70
     0
  0
ENDTAB
  0
TABLE
  2
APPID
  5
9
330
0
100
AcDbSymbolTable
 70
     1
  0
APPID
  5
12
330
9
100
AcDbSymbolTableRecord
100
AcDbRegAppTableRecord
  2
ACAD
 70
     0
  0
ENDTAB
  0
TABLE
  2
DIMSTYLE
  5
A
330
0
100
AcDbSymbolTable
 70
     1
  0
DIMSTYLE
105
27
330
A
100
AcDbSymbolTableRecord
100
AcDbDimStyleTableRecord
  2
STANDARD
 70
     0
  3

  4

  5

  6

  7

 40
1.0
 41
0.18
 42
0.0625
 43
0.38
 44
0.18
 45
0.0
 46
0.0
 47
0.0
 48
0.0
140
0.18
141
0.09
142
0.0
143
25.4
144
1.0
145
0.0
146
1.0
147
0.09
 71
     0
 72
     0
 73
     1
 74
     1
 75
     0
 76
     0
 77
     0
 78
     0
170
     0
171
     2
172
     0
173
     0
174
     0
175
     0
176
     0
177
     0
178
     0
270
     2
271
     4
272
     4
273
     2
274
     2
340
11
275
     0
280
     0
281
     0
282
     0
283
     1
284
     0
285
     0
286
     0
287
     3
288
     0
  0
ENDTAB
  0
TABLE
  2
BLOCK_RECORD
  5
1
330
0
100
AcDbSymbolTable
 70
     1
  0
BLOCK_RECORD
  5
1F
330
1
100
AcDbSymbolTableRecord
100
AcDbBlockTableRecord
  2
*MODEL_SPACE
  0
BLOCK_RECORD
  5
1B
330
1
100
AcDbSymbolTableRecord
100
AcDbBlockTableRecord
  2
*PAPER_SPACE
  0
ENDTAB
  0
ENDSEC
  0
SECTION
  2
BLOCKS
  0
BLOCK
  5
20
330
1F
100
AcDbEntity
  8
0
100
AcDbBlockBegin
  2
*MODEL_SPACE
 70
     0
 71
     0
 10
0.0
 20
0.0
 30
0.0
  3
*MODEL_SPACE
  1

  0
ENDBLK
  5
21
330
1F
100
AcDbEntity
  8
0
100
AcDbBlockEnd
  0
BLOCK
  5
1C
330
1B
100
AcDbEntity
 67
     1
  8
0
100
AcDbBlockBegin
  2
*PAPER_SPACE
 70
     0
 71
     0
 10
0.0
 20
0.0
 30
0.0
  3
*PAPER_SPACE
  1

  0
ENDBLK
  5
1D
330
1B
100
AcDbEntity
 67
     1
  8
0
100
AcDbBlockEnd
  0
ENDSEC
  0
SECTION
  2
ENTITIES
  0
POLYLINE
  5
3C
330
1F
100
AcDbEntity
  8
GRAU_10_
100
AcDb2dPolyline
 66
     1
 10
0.0
 20
0.0
 30
0.0
  0
VERTEX
  5
3D
330
3C
100
AcDbEntity
  8
GRAU_10_
100
AcDbVertex
100
AcDb2dVertex
 10
-74.32982989678213
 20
36.17918700267396
 30
0.0
  0
VERTEX
  5
3E
330
3C
100
AcDbEntity
  8
GRAU_10_
100
AcDbVertex
100
AcDb2dVertex
 10
-70.32318384743657
 20
36.2405097023114
 30
0.0
  0
VERTEX
  5
3F
330
3C
100
AcDbEntity
  8
GRAU_10_
100
AcDbVertex
100
AcDb2dVertex
 10
-70.32318384743657
 20
31.74052597947806
 30
0.0
  0
VERTEX
  5
40
330
3C
100
AcDbEntity
  8
GRAU_10_
100
AcDbVertex
100
AcDb2dVertex
 10
-69.6451890559394
 20
31.67920327984062
 30
0.0
  0
VERTEX
  5
41
330
3C
100
AcDbEntity
  8
GRAU_10_
100
AcDbVertex
100
AcDb2dVertex
 10
-67.30321314506656
 20
32.23455267206289
 30
0.0
  0
VERTEX
  5
42
330
3C
100
AcDbEntity
  8
GRAU_10_
100
AcDbVertex
100
AcDb2dVertex
 10
-3.38308376651534
 20
32.04920653495645
 30
0.0
  0
VERTEX
  5
43
330
3C
100
AcDbEntity
  8
GRAU_10_
100
AcDbVertex
100
AcDb2dVertex
 10
-2.274452039361943
 20
31.00120848834345
 30
0.0
  0
VERTEX
  5
44
330
3C
100
AcDbEntity
  8
GRAU_10_
100
AcDbVertex
100
AcDb2dVertex
 10
-2.274452039361943
 20
1.229382323911405
 30
0.0
  0
VERTEX
  5
45
330
3C
100
AcDbEntity
  8
GRAU_10_
100
AcDbVertex
100
AcDb2dVertex
 10
-3.567051865427682
 20
0.1200615776609568
 30
0.0
  0
VERTEX
  5
46
330
3C
100
AcDbEntity
  8
GRAU_10_
100
AcDbVertex
100
AcDb2dVertex
 10
-67.48787026307595
 20
0.4280531140422923
 30
0.0
  0
VERTEX
  5
47
330
3C
100
AcDbEntity
  8
GRAU_10_
100
AcDbVertex
100
AcDb2dVertex
 10
-69.52254365666451
 20
0.7360446504236278
 30
0.0
  0
VERTEX
  5
48
330
3C
100
AcDbEntity
  8
GRAU_10_
100
AcDbVertex
100
AcDb2dVertex
 10
-70.19984942906463
 20
0.7360446504236278
 30
0.0
  0
VERTEX
  5
49
330
3C
100
AcDbEntity
  8
GRAU_10_
100
AcDbVertex
100
AcDb2dVertex
 10
-70.38450654707401
 20
-3.886584471684604
 30
0.0
  0
VERTEX
  5
4A
330
3C
100
AcDbEntity
  8
GRAU_10_
100
AcDbVertex
100
AcDb2dVertex
 10
-74.45316431515407
 20
-3.825261772047157
 30
0.0
  0
VERTEX
  5
4B
330
3C
100
AcDbEntity
  8
GRAU_10_
100
AcDbVertex
100
AcDb2dVertex
 10
-74.32982989678213
 20
36.17918700267396
 30
0.0
  0
SEQEND
  5
4C
330
3C
100
AcDbEntity
  8
GRAU_10_
  0
HATCH
  5
4D
330
1F
100
AcDbEntity
  8
GRAU_10_
 62
   255
100
AcDbHatch
 10
0.0
 20
0.0
 30
0.0
210
0.0
220
0.0
230
1.0
  2
SOLID
 70
     1
 71
     0
 91
        1
 92
        1
 93
       14
 72
     1
 10
-74.32982989678213
 20
36.17918700267396
 11
-70.32318384743657
 21
36.2405097023114
 72
     1
 10
-70.32318384743657
 20
36.2405097023114
 11
-70.32318384743657
 21
31.74052597947806
 72
     1
 10
-70.32318384743657
 20
31.74052597947806
 11
-69.6451890559394
 21
31.67920327984062
 72
     1
 10
-69.6451890559394
 20
31.67920327984062
 11
-67.30321314506656
 21
32.23455267206289
 72
     1
 10
-67.30321314506656
 20
32.23455267206289
 11
-3.383083766515341
 21
32.04920653495645
 72
     1
 10
-3.38308376651534
 20
32.04920653495645
 11
-2.274452039361943
 21
31.00120848834345
 72
     1
 10
-2.274452039361943
 20
31.00120848834345
 11
-2.274452039361943
 21
1.229382323911405
 72
     1
 10
-2.274452039361943
 20
1.229382323911405
 11
-3.567051865427682
 21
0.1200615776609568
 72
     1
 10
-3.567051865427682
 20
0.1200615776609568
 11
-67.48787026307595
 21
0.4280531140422923
 72
     1
 10
-67.48787026307595
 20
0.4280531140422923
 11
-69.52254365666451
 21
0.7360446504236278
 72
     1
 10
-69.52254365666451
 20
0.7360446504236278
 11
-70.19984942906463
 21
0.7360446504236278
 72
     1
 10
-70.19984942906463
 20
0.7360446504236278
 11
-70.38450654707401
 21
-3.886584471684604
 72
     1
 10
-70.38450654707401
 20
-3.886584471684604
 11
-74.45316431515407
 21
-3.825261772047157
 72
     1
 10
-74.45316431515407
 20
-3.825261772047157
 11
-74.32982989678213
 21
36.17918700267396
 97
        0
 75
     0
 76
     1
 98
        0
  0
POLYLINE
  5
4F
330
1F
100
AcDbEntity
  8
STANDARDEBENE
 62
     7
100
AcDb2dPolyline
 66
     1
 10
0.0
 20
0.0
 30
0.0
  0
VERTEX
  5
50
330
4F
100
AcDbEntity
  8
STANDARDEBENE
 62
     7
100
AcDbVertex
100
AcDb2dVertex
 10
-56.62703449105157
 20
20.22391628183638
 30
0.0
  0
VERTEX
  5
51
330
4F
100
AcDbEntity
  8
STANDARDEBENE
 62
     7
100
AcDbVertex
100
AcDb2dVertex
 10
-56.12749564569035
 20
20.22391628183638
 30
0.0
  0
SEQEND
  5
52
330
4F
100
AcDbEntity
  8
STANDARDEBENE
  0
POLYLINE
  5
53
330
1F
100
AcDbEntity
  8
STANDARDEBENE
 62
     7
100
AcDb2dPolyline
 66
     1
 10
0.0
 20
0.0
 30
0.0
  0
VERTEX
  5
54
330
53
100
AcDbEntity
  8
STANDARDEBENE
 62
     7
100
AcDbVertex
100
AcDb2dVertex
 10
-55.12738442632232
 20
20.22391628183638
 30
0.0
  0
VERTEX
  5
55
330
53
100
AcDbEntity
  8
STANDARDEBENE
 62
     7
100
AcDbVertex
100
AcDb2dVertex
 10
-54.12761771650282
 20
20.22391628183638
 30
0.0
  0
SEQEND
  5
56
330
53
100
AcDbEntity
  8
STANDARDEBENE
  0
POLYLINE
  5
57
330
1F
100
AcDbEntity
  8
STANDARDEBENE
 62
     7
100
AcDb2dPolyline
 66
     1
 10
0.0
 20
0.0
 30
0.0
  0
VERTEX
  5
58
330
57
100
AcDbEntity
  8
STANDARDEBENE
 62
     7
100
AcDbVertex
100
AcDb2dVertex
 10
-53.12716198758627
 20
20.22391628183638
 30
0.0
  0
VERTEX
  5
59
330
57
100
AcDbEntity
  8
STANDARDEBENE
 62
     7
100
AcDbVertex
100
AcDb2dVertex
 10
-52.12739527776677
 20
20.22391628183638
 30
0.0
  0
SEQEND
  5
5A
330
57
100
AcDbEntity
  8
STANDARDEBENE
  0
POLYLINE
  5
5B
330
1F
100
AcDbEntity
  8
STANDARDEBENE
 62
     7
100
AcDb2dPolyline
 66
     1
 10
0.0
 20
0.0
 30
0.0
  0
VERTEX
  5
5C
330
5B
100
AcDbEntity
  8
STANDARDEBENE
 62
     7
100
AcDbVertex
100
AcDb2dVertex
 10
-51.12762856794726
 20
20.22391628183638
 30
0.0
  0
VERTEX
  5
5D
330
5B
100
AcDbEntity
  8
STANDARDEBENE
 62
     7
100
AcDbVertex
100
AcDb2dVertex
 10
-50.12717283903071
 20
20.22391628183638
 30
0.0
  0
SEQEND
  5
5E
330
5B
100
AcDbEntity
  8
STANDARDEBENE
  0
POLYLINE
  5
5F
330
1F
100
AcDbEntity
  8
STANDARDEBENE
 62
     7
100
AcDb2dPolyline
 66
     1
 10
0.0
 20
0.0
 30
0.0
  0
VERTEX
  5
60
330
5F
100
AcDbEntity
  8
STANDARDEBENE
 62
     7
100
AcDbVertex
100
AcDb2dVertex
 10
-49.12775063875973
 20
20.22391628183638
 30
0.0
  0
VERTEX
  5
61
330
5F
100
AcDbEntity
  8
STANDARDEBENE
 62
     7
100
AcDbVertex
100
AcDb2dVertex
 10
-48.12695040029465
 20
20.22391628183638
 30
0.0
  0
SEQEND
  5
62
330
5F
100
AcDbEntity
  8
STANDARDEBENE
  0
POLYLINE
  5
63
330
1F
100
AcDbEntity
  8
STANDARDEBENE
 62
     7
100
AcDb2dPolyline
 66
     1
 10
0.0
 20
0.0
 30
0.0
  0
VERTEX
  5
64
330
63
100
AcDbEntity
  8
STANDARDEBENE
 62
     7
100
AcDbVertex
100
AcDb2dVertex
 10
-47.12718369047515
 20
20.22391628183638
 30
0.0
  0
VERTEX
  5
65
330
63
100
AcDbEntity
  8
STANDARDEBENE
 62
     7
100
AcDbVertex
100
AcDb2dVertex
 10
-46.12741698065565
 20
20.22391628183638
 30
0.0
  0
SEQEND
  5
66
330
63
100
AcDbEntity
  8
STANDARDEBENE
  0
POLYLINE
  5
67
330
1F
100
AcDbEntity
  8
STANDARDEBENE
 62
     7
100
AcDb2dPolyline
 66
     1
 10
0.0
 20
0.0
 30
0.0
  0
VERTEX
  5
68
330
67
100
AcDbEntity
  8
STANDARDEBENE
 62
     7
100
AcDbVertex
100
AcDb2dVertex
 10
-45.12730576128762
 20
20.22391628183638
 30
0.0
  0
VERTEX
  5
69
330
67
100
AcDbEntity
  8
STANDARDEBENE
 62
     7
100
AcDbVertex
100
AcDb2dVertex
 10
-44.12719454191959
 20
20.22391628183638
 30
0.0
  0
SEQEND
  5
6A
330
67
100
AcDbEntity
  8
STANDARDEBENE
  0
POLYLINE
  5
6B
330
1F
100
AcDbEntity
  8
STANDARDEBENE
 62
     7
100
AcDb2dPolyline
 66
     1
 10
0.0
 20
0.0
 30
0.0
  0
VERTEX
  5
6C
330
6B
100
AcDbEntity
  8
STANDARDEBENE
 62
     7
100
AcDbVertex
100
AcDb2dVertex
 10
-43.12742783210009
 20
20.22391628183638
 30
0.0
  0
VERTEX
  5
6D
330
6B
100
AcDbEntity
  8
STANDARDEBENE
 62
     7
100
AcDbVertex
100
AcDb2dVertex
 10
-42.12731661273206
 20
20.22391628183638
 30
0.0
  0
SEQEND
  5
6E
330
6B
100
AcDbEntity
  8
STANDARDEBENE
  0
POLYLINE
  5
6F
330
1F
100
AcDbEntity
  8
STANDARDEBENE
 62
     7
100
AcDb2dPolyline
 66
     1
 10
0.0
 20
0.0
 30
0.0
  0
VERTEX
  5
70
330
6F
100
AcDbEntity
  8
STANDARDEBENE
 62
     7
100
AcDbVertex
100
AcDb2dVertex
 10
-41.12754990291256
 20
20.22391628183638
 30
0.0
  0
VERTEX
  5
71
330
6F
100
AcDbEntity
  8
STANDARDEBENE
 62
     7
100
AcDbVertex
100
AcDb2dVertex
 10
-40.12743868354453
 20
20.22391628183638
 30
0.0
  0
SEQEND
  5
72
330
6F
100
AcDbEntity
  8
STANDARDEBENE
  0
POLYLINE
  5
73
330
1F
100
AcDbEntity
  8
STANDARDEBENE
 62
     7
100
AcDb2dPolyline
 66
     1
 10
0.0
 20
0.0
 30
0.0
  0
VERTEX
  5
74
330
73
100
AcDbEntity
  8
STANDARDEBENE
 62
     7
100
AcDbVertex
100
AcDb2dVertex
 10
-39.12767197372503
 20
20.22391628183638
 30
0.0
  0
VERTEX
  5
75
330
73
100
AcDbEntity
  8
STANDARDEBENE
 62
     7
100
AcDbVertex
100
AcDb2dVertex
 10
-38.127560754357
 20
20.22391628183638
 30
0.0
  0
SEQEND
  5
76
330
73
100
AcDbEntity
  8
STANDARDEBENE
  0
POLYLINE
  5
77
330
1F
100
AcDbEntity
  8
STANDARDEBENE
 62
     7
100
AcDb2dPolyline
 66
     1
 10
0.0
 20
0.0
 30
0.0
  0
VERTEX
  5
78
330
77
100
AcDbEntity
  8
STANDARDEBENE
 62
     7
100
AcDbVertex
100
AcDb2dVertex
 10
-37.12744953498898
 20
20.22391628183638
 30
0.0
  0
VERTEX
  5
79
330
77
100
AcDbEntity
  8
STANDARDEBENE
 62
     7
100
AcDbVertex
100
AcDb2dVertex
 10
-36.12768282516947
 20
20.22391628183638
 30
0.0
  0
SEQEND
  5
7A
330
77
100
AcDbEntity
  8
STANDARDEBENE
  0
POLYLINE
  5
7B
330
1F
100
AcDbEntity
  8
STANDARDEBENE
 62
     7
100
AcDb2dPolyline
 66
     1
 10
0.0
 20
0.0
 30
0.0
  0
VERTEX
  5
7C
330
7B
100
AcDbEntity
  8
STANDARDEBENE
 62
     7
100
AcDbVertex
100
AcDb2dVertex
 10
-35.12722709625292
 20
20.22391628183638
 30
0.0
  0
VERTEX
  5
7D
330
7B
100
AcDbEntity
  8
STANDARDEBENE
 62
     7
100
AcDbVertex
100
AcDb2dVertex
 10
-34.12780489598194
 20
20.22391628183638
 30
0.0
  0
SEQEND
  5
7E
330
7B
100
AcDbEntity
  8
STANDARDEBENE
  0
POLYLINE
  5
7F
330
1F
100
AcDbEntity
  8
STANDARDEBENE
 62
     7
100
AcDb2dPolyline
 66
     1
 10
0.0
 20
0.0
 30
0.0
  0
VERTEX
  5
80
330
7F
100
AcDbEntity
  8
STANDARDEBENE
 62
     7
100
AcDbVertex
100
AcDb2dVertex
 10
-33.12769367661391
 20
20.22391628183638
 30
0.0
  0
VERTEX
  5
81
330
7F
100
AcDbEntity
  8
STANDARDEBENE
 62
     7
100
AcDbVertex
100
AcDb2dVertex
 10
-32.12723794769736
 20
20.22391628183638
 30
0.0
  0
SEQEND
  5
82
330
7F
100
AcDbEntity
  8
STANDARDEBENE
  0
POLYLINE
  5
83
330
1F
100
AcDbEntity
  8
STANDARDEBENE
 62
     7
100
AcDb2dPolyline
 66
     1
 10
0.0
 20
0.0
 30
0.0
  0
VERTEX
  5
84
330
83
100
AcDbEntity
  8
STANDARDEBENE
 62
     7
100
AcDbVertex
100
AcDb2dVertex
 10
-31.12781574742638
 20
20.22391628183638
 30
0.0
  0
VERTEX
  5
85
330
83
100
AcDbEntity
  8
STANDARDEBENE
 62
     7
100
AcDbVertex
100
AcDb2dVertex
 10
-30.1270155089613
 20
20.22391628183638
 30
0.0
  0
SEQEND
  5
86
330
83
100
AcDbEntity
  8
STANDARDEBENE
  0
POLYLINE
  5
87
330
1F
100
AcDbEntity
  8
STANDARDEBENE
 62
     7
100
AcDb2dPolyline
 66
     1
 10
0.0
 20
0.0
 30
0.0
  0
VERTEX
  5
88
330
87
100
AcDbEntity
  8
STANDARDEBENE
 62
     7
100
AcDbVertex
100
AcDb2dVertex
 10
-29.12759330869033
 20
20.22391628183638
 30
0.0
  0
VERTEX
  5
89
330
87
100
AcDbEntity
  8
STANDARDEBENE
 62
     7
100
AcDbVertex
100
AcDb2dVertex
 10
-28.12782659887082
 20
20.22391628183638
 30
0.0
  0
SEQEND
  5
8A
330
87
100
AcDbEntity
  8
STANDARDEBENE
  0
POLYLINE
  5
8B
330
1F
100
AcDbEntity
  8
STANDARDEBENE
 62
     7
100
AcDb2dPolyline
 66
     1
 10
0.0
 20
0.0
 30
0.0
  0
VERTEX
  5
8C
330
8B
100
AcDbEntity
  8
STANDARDEBENE
 62
     7
100
AcDbVertex
100
AcDb2dVertex
 10
-27.12702636040574
 20
20.22391628183638
 30
0.0
  0
VERTEX
  5
8D
330
8B
100
AcDbEntity
  8
STANDARDEBENE
 62
     7
100
AcDbVertex
100
AcDb2dVertex
 10
-26.12760416013477
 20
20.22391628183638
 30
0.0
  0
SEQEND
  5
8E
330
8B
100
AcDbEntity
  8
STANDARDEBENE
  0
POLYLINE
  5
8F
330
1F
100
AcDbEntity
  8
STANDARDEBENE
 62
     7
100
AcDb2dPolyline
 66
     1
 10
0.0
 20
0.0
 30
0.0
  0
VERTEX
  5
90
330
8F
100
AcDbEntity
  8
STANDARDEBENE
 62
     7
100
AcDbVertex
100
AcDb2dVertex
 10
-25.12749294076674
 20
20.22391628183638
 30
0.0
  0
VERTEX
  5
91
330
8F
100
AcDbEntity
  8
STANDARDEBENE
 62
     7
100
AcDbVertex
100
AcDb2dVertex
 10
-24.12738172139871
 20
20.22391628183638
 30
0.0
  0
SEQEND
  5
92
330
8F
100
AcDbEntity
  8
STANDARDEBENE
  0
POLYLINE
  5
93
330
1F
100
AcDbEntity
  8
STANDARDEBENE
 62
     7
100
AcDb2dPolyline
 66
     1
 10
0.0
 20
0.0
 30
0.0
  0
VERTEX
  5
94
330
93
100
AcDbEntity
  8
STANDARDEBENE
 62
     7
100
AcDbVertex
100
AcDb2dVertex
 10
-23.12761501157921
 20
20.22391628183638
 30
0.0
  0
VERTEX
  5
95
330
93
100
AcDbEntity
  8
STANDARDEBENE
 62
     7
100
AcDbVertex
100
AcDb2dVertex
 10
-22.12715928266266
 20
20.22391628183638
 30
0.0
  0
SEQEND
  5
96
330
93
100
AcDbEntity
  8
STANDARDEBENE
  0
POLYLINE
  5
97
330
1F
100
AcDbEntity
  8
STANDARDEBENE
 62
     7
100
AcDb2dPolyline
 66
     1
 10
0.0
 20
0.0
 30
0.0
  0
VERTEX
  5
98
330
97
100
AcDbEntity
  8
STANDARDEBENE
 62
     7
100
AcDbVertex
100
AcDb2dVertex
 10
-21.1280815919402
 20
20.22391628183638
 30
0.0
  0
VERTEX
  5
99
330
97
100
AcDbEntity
  8
STANDARDEBENE
 62
     7
100
AcDbVertex
100
AcDb2dVertex
 10
-20.62819823703045
 20
20.22391628183638
 30
0.0
  0
SEQEND
  5
9A
330
97
100
AcDbEntity
  8
STANDARDEBENE
  0
POLYLINE
  5
9B
330
1F
100
AcDbEntity
  8
STANDARDEBENE
 62
     7
100
AcDb2dPolyline
 66
     1
 10
0.0
 20
0.0
 30
0.0
  0
VERTEX
  5
9C
330
9B
100
AcDbEntity
  8
STANDARDEBENE
 62
     7
100
AcDbVertex
100
AcDb2dVertex
 10
-20.62819823703045
 20
12.22406005553774
 30
0.0
  0
VERTEX
  5
9D
330
9B
100
AcDbEntity
  8
STANDARDEBENE
 62
     7
100
AcDbVertex
100
AcDb2dVertex
 10
-21.1280815919402
 20
12.22406005553774
 30
0.0
  0
SEQEND
  5
9E
330
9B
100
AcDbEntity
  8
STANDARDEBENE
  0
POLYLINE
  5
9F
330
1F
100
AcDbEntity
  8
STANDARDEBENE
 62
     7
100
AcDb2dPolyline
 66
     1
 10
0.0
 20
0.0
 30
0.0
  0
VERTEX
  5
A0
330
9F
100
AcDbEntity
  8
STANDARDEBENE
 62
     7
100
AcDbVertex
100
AcDb2dVertex
 10
-22.12715928266266
 20
12.22406005553774
 30
0.0
  0
VERTEX
  5
A1
330
9F
100
AcDbEntity
  8
STANDARDEBENE
 62
     7
100
AcDbVertex
100
AcDb2dVertex
 10
-23.12761501157921
 20
12.22406005553774
 30
0.0
  0
SEQEND
  5
A2
330
9F
100
AcDbEntity
  8
STANDARDEBENE
  0
POLYLINE
  5
A3
330
1F
100
AcDbEntity
  8
STANDARDEBENE
 62
     7
100
AcDb2dPolyline
 66
     1
 10
0.0
 20
0.0
 30
0.0
  0
VERTEX
  5
A4
330
A3
100
AcDbEntity
  8
STANDARDEBENE
 62
     7
100
AcDbVertex
100
AcDb2dVertex
 10
-24.12738172139871
 20
12.22406005553774
 30
0.0
  0
VERTEX
  5
A5
330
A3
100
AcDbEntity
  8
STANDARDEBENE
 62
     7
100
AcDbVertex
100
AcDb2dVertex
 10
-25.12749294076674
 20
12.22406005553774
 30
0.0
  0
SEQEND
  5
A6
330
A3
100
AcDbEntity
  8
STANDARDEBENE
  0
POLYLINE
  5
A7
330
1F
100
AcDbEntity
  8
STANDARDEBENE
 62
     7
100
AcDb2dPolyline
 66
     1
 10
0.0
 20
0.0
 30
0.0
  0
VERTEX
  5
A8
330
A7
100
AcDbEntity
  8
STANDARDEBENE
 62
     7
100
AcDbVertex
100
AcDb2dVertex
 10
-26.12760416013477
 20
12.22406005553774
 30
0.0
  0
VERTEX
  5
A9
330
A7
100
AcDbEntity
  8
STANDARDEBENE
 62
     7
100
AcDbVertex
100
AcDb2dVertex
 10
-27.12702636040574
 20
12.22406005553774
 30
0.0
  0
SEQEND
  5
AA
330
A7
100
AcDbEntity
  8
STANDARDEBENE
  0
POLYLINE
  5
AB
330
1F
100
AcDbEntity
  8
STANDARDEBENE
 62
     7
100
AcDb2dPolyline
 66
     1
 10
0.0
 20
0.0
 30
0.0
  0
VERTEX
  5
AC
330
AB
100
AcDbEntity
  8
STANDARDEBENE
 62
     7
100
AcDbVertex
100
AcDb2dVertex
 10
-28.12782659887082
 20
12.22406005553774
 30
0.0
  0
VERTEX
  5
AD
330
AB
100
AcDbEntity
  8
STANDARDEBENE
 62
     7
100
AcDbVertex
100
AcDb2dVertex
 10
-29.12759330869033
 20
12.22406005553774
 30
0.0
  0
SEQEND
  5
AE
330
AB
100
AcDbEntity
  8
STANDARDEBENE
  0
POLYLINE
  5
AF
330
1F
100
AcDbEntity
  8
STANDARDEBENE
 62
     7
100
AcDb2dPolyline
 66
     1
 10
0.0
 20
0.0
 30
0.0
  0
VERTEX
  5
B0
330
AF
100
AcDbEntity
  8
STANDARDEBENE
 62
     7
100
AcDbVertex
100
AcDb2dVertex
 10
-30.1270155089613
 20
12.22406005553774
 30
0.0
  0
VERTEX
  5
B1
330
AF
100
AcDbEntity
  8
STANDARDEBENE
 62
     7
100
AcDbVertex
100
AcDb2dVertex
 10
-31.12781574742638
 20
12.22406005553774
 30
0.0
  0
SEQEND
  5
B2
330
AF
100
AcDbEntity
  8
STANDARDEBENE
  0
POLYLINE
  5
B3
330
1F
100
AcDbEntity
  8
STANDARDEBENE
 62
     7
100
AcDb2dPolyline
 66
     1
 10
0.0
 20
0.0
 30
0.0
  0
VERTEX
  5
B4
330
B3
100
AcDbEntity
  8
STANDARDEBENE
 62
     7
100
AcDbVertex
100
AcDb2dVertex
 10
-32.12723794769736
 20
12.22406005553774
 30
0.0
  0
VERTEX
  5
B5
330
B3
100
AcDbEntity
  8
STANDARDEBENE
 62
     7
100
AcDbVertex
100
AcDb2dVertex
 10
-33.12769367661391
 20
12.22406005553774
 30
0.0
  0
SEQEND
  5
B6
330
B3
100
AcDbEntity
  8
STANDARDEBENE
  0
POLYLINE
  5
B7
330
1F
100
AcDbEntity
  8
STANDARDEBENE
 62
     7
100
AcDb2dPolyline
 66
     1
 10
0.0
 20
0.0
 30
0.0
  0
VERTEX
  5
B8
330
B7
100
AcDbEntity
  8
STANDARDEBENE
 62
     7
100
AcDbVertex
100
AcDb2dVertex
 10
-34.12780489598194
 20
12.22406005553774
 30
0.0
  0
VERTEX
  5
B9
330
B7
100
AcDbEntity
  8
STANDARDEBENE
 62
     7
100
AcDbVertex
100
AcDb2dVertex
 10
-35.12722709625292
 20
12.22406005553774
 30
0.0
  0
SEQEND
  5
BA
330
B7
100
AcDbEntity
  8
STANDARDEBENE
  0
POLYLINE
  5
BB
330
1F
100
AcDbEntity
  8
STANDARDEBENE
 62
     7
100
AcDb2dPolyline
 66
     1
 10
0.0
 20
0.0
 30
0.0
  0
VERTEX
  5
BC
330
BB
100
AcDbEntity
  8
STANDARDEBENE
 62
     7
100
AcDbVertex
100
AcDb2dVertex
 10
-36.12768282516947
 20
12.22406005553774
 30
0.0
  0
VERTEX
  5
BD
330
BB
100
AcDbEntity
  8
STANDARDEBENE
 62
     7
100
AcDbVertex
100
AcDb2dVertex
 10
-37.12744953498898
 20
12.22406005553774
 30
0.0
  0
SEQEND
  5
BE
330
BB
100
AcDbEntity
  8
STANDARDEBENE
  0
POLYLINE
  5
BF
330
1F
100
AcDbEntity
  8
STANDARDEBENE
 62
     7
100
AcDb2dPolyline
 66
     1
 10
0.0
 20
0.0
 30
0.0
  0
VERTEX
  5
C0
330
BF
100
AcDbEntity
  8
STANDARDEBENE
 62
     7
100
AcDbVertex
100
AcDb2dVertex
 10
-38.127560754357
 20
12.22406005553774
 30
0.0
  0
VERTEX
  5
C1
330
BF
100
AcDbEntity
  8
STANDARDEBENE
 62
     7
100
AcDbVertex
100
AcDb2dVertex
 10
-39.12767197372503
 20
12.22406005553774
 30
0.0
  0
SEQEND
  5
C2
330
BF
100
AcDbEntity
  8
STANDARDEBENE
  0
POLYLINE
  5
C3
330
1F
100
AcDbEntity
  8
STANDARDEBENE
 62
     7
100
AcDb2dPolyline
 66
     1
 10
0.0
 20
0.0
 30
0.0
  0
VERTEX
  5
C4
330
C3
100
AcDbEntity
  8
STANDARDEBENE
 62
     7
100
AcDbVertex
100
AcDb2dVertex
 10
-40.12743868354453
 20
12.22406005553774
 30
0.0
  0
VERTEX
  5
C5
330
C3
100
AcDbEntity
  8
STANDARDEBENE
 62
     7
100
AcDbVertex
100
AcDb2dVertex
 10
-41.12754990291256
 20
12.22406005553774
 30
0.0
  0
SEQEND
  5
C6
330
C3
100
AcDbEntity
  8
STANDARDEBENE
  0
POLYLINE
  5
C7
330
1F
100
AcDbEntity
  8
STANDARDEBENE
 62
     7
100
AcDb2dPolyline
 66
     1
 10
0.0
 20
0.0
 30
0.0
  0
VERTEX
  5
C8
330
C7
100
AcDbEntity
  8
STANDARDEBENE
 62
     7
100
AcDbVertex
100
AcDb2dVertex
 10
-42.12731661273206
 20
12.22406005553774
 30
0.0
  0
VERTEX
  5
C9
330
C7
100
AcDbEntity
  8
STANDARDEBENE
 62
     7
100
AcDbVertex
100
AcDb2dVertex
 10
-43.12742783210009
 20
12.22406005553774
 30
0.0
  0
SEQEND
  5
CA
330
C7
100
AcDbEntity
  8
STANDARDEBENE
  0
POLYLINE
  5
CB
330
1F
100
AcDbEntity
  8
STANDARDEBENE
 62
     7
100
AcDb2dPolyline
 66
     1
 10
0.0
 20
0.0
 30
0.0
  0
VERTEX
  5
CC
330
CB
100
AcDbEntity
  8
STANDARDEBENE
 62
     7
100
AcDbVertex
100
AcDb2dVertex
 10
-44.12719454191959
 20
12.22406005553774
 30
0.0
  0
VERTEX
  5
CD
330
CB
100
AcDbEntity
  8
STANDARDEBENE
 62
     7
100
AcDbVertex
100
AcDb2dVertex
 10
-45.12730576128762
 20
12.22406005553774
 30
0.0
  0
SEQEND
  5
CE
330
CB
100
AcDbEntity
  8
STANDARDEBENE
  0
POLYLINE
  5
CF
330
1F
100
AcDbEntity
  8
STANDARDEBENE
 62
     7
100
AcDb2dPolyline
 66
     1
 10
0.0
 20
0.0
 30
0.0
  0
VERTEX
  5
D0
330
CF
100
AcDbEntity
  8
STANDARDEBENE
 62
     7
100
AcDbVertex
100
AcDb2dVertex
 10
-46.12741698065565
 20
12.22406005553774
 30
0.0
  0
VERTEX
  5
D1
330
CF
100
AcDbEntity
  8
STANDARDEBENE
 62
     7
100
AcDbVertex
100
AcDb2dVertex
 10
-47.12718369047515
 20
12.22406005553774
 30
0.0
  0
SEQEND
  5
D2
330
CF
100
AcDbEntity
  8
STANDARDEBENE
  0
POLYLINE
  5
D3
330
1F
100
AcDbEntity
  8
STANDARDEBENE
 62
     7
100
AcDb2dPolyline
 66
     1
 10
0.0
 20
0.0
 30
0.0
  0
VERTEX
  5
D4
330
D3
100
AcDbEntity
  8
STANDARDEBENE
 62
     7
100
AcDbVertex
100
AcDb2dVertex
 10
-48.12695040029465
 20
12.22406005553774
 30
0.0
  0
VERTEX
  5
D5
330
D3
100
AcDbEntity
  8
STANDARDEBENE
 62
     7
100
AcDbVertex
100
AcDb2dVertex
 10
-49.12775063875973
 20
12.22406005553774
 30
0.0
  0
SEQEND
  5
D6
330
D3
100
AcDbEntity
  8
STANDARDEBENE
  0
POLYLINE
  5
D7
330
1F
100
AcDbEntity
  8
STANDARDEBENE
 62
     7
100
AcDb2dPolyline
 66
     1
 10
0.0
 20
0.0
 30
0.0
  0
VERTEX
  5
D8
330
D7
100
AcDbEntity
  8
STANDARDEBENE
 62
     7
100
AcDbVertex
100
AcDb2dVertex
 10
-50.12717283903071
 20
12.22406005553774
 30
0.0
  0
VERTEX
  5
D9
330
D7
100
AcDbEntity
  8
STANDARDEBENE
 62
     7
100
AcDbVertex
100
AcDb2dVertex
 10
-51.12762856794726
 20
12.22406005553774
 30
0.0
  0
SEQEND
  5
DA
330
D7
100
AcDbEntity
  8
STANDARDEBENE
  0
POLYLINE
  5
DB
330
1F
100
AcDbEntity
  8
STANDARDEBENE
 62
     7
100
AcDb2dPolyline
 66
     1
 10
0.0
 20
0.0
 30
0.0
  0
VERTEX
  5
DC
330
DB
100
AcDbEntity
  8
STANDARDEBENE
 62
     7
100
AcDbVertex
100
AcDb2dVertex
 10
-52.12739527776677
 20
12.22406005553774
 30
0.0
  0
VERTEX
  5
DD
330
DB
100
AcDbEntity
  8
STANDARDEBENE
 62
     7
100
AcDbVertex
100
AcDb2dVertex
 10
-53.12716198758627
 20
12.22406005553774
 30
0.0
  0
SEQEND
  5
DE
330
DB
100
AcDbEntity
  8
STANDARDEBENE
  0
POLYLINE
  5
DF
330
1F
100
AcDbEntity
  8
STANDARDEBENE
 62
     7
100
AcDb2dPolyline
 66
     1
 10
0.0
 20
0.0
 30
0.0
  0
VERTEX
  5
E0
330
DF
100
AcDbEntity
  8
STANDARDEBENE
 62
     7
100
AcDbVertex
100
AcDb2dVertex
 10
-54.12761771650282
 20
12.22406005553774
 30
0.0
  0
VERTEX
  5
E1
330
DF
100
AcDbEntity
  8
STANDARDEBENE
 62
     7
100
AcDbVertex
100
AcDb2dVertex
 10
-55.12738442632232
 20
12.22406005553774
 30
0.0
  0
SEQEND
  5
E2
330
DF
100
AcDbEntity
  8
STANDARDEBENE
  0
POLYLINE
  5
E3
330
1F
100
AcDbEntity
  8
STANDARDEBENE
 62
     7
100
AcDb2dPolyline
 66
     1
 10
0.0
 20
0.0
 30
0.0
  0
VERTEX
  5
E4
330
E3
100
AcDbEntity
  8
STANDARDEBENE
 62
     7
100
AcDbVertex
100
AcDb2dVertex
 10
-56.12749564569035
 20
12.22406005553774
 30
0.0
  0
VERTEX
  5
E5
330
E3
100
AcDbEntity
  8
STANDARDEBENE
 62
     7
100
AcDbVertex
100
AcDb2dVertex
 10
-56.62703449105157
 20
12.22406005553774
 30
0.0
  0
SEQEND
  5
E6
330
E3
100
AcDbEntity
  8
STANDARDEBENE
  0
POLYLINE
  5
E7
330
1F
100
AcDbEntity
  8
STANDARDEBENE
 62
     7
100
AcDb2dPolyline
 66
     1
 10
0.0
 20
0.0
 30
0.0
  0
VERTEX
  5
E8
330
E7
100
AcDbEntity
  8
STANDARDEBENE
 62
     7
100
AcDbVertex
100
AcDb2dVertex
 10
-54.24681802029247
 20
20.92774928947292
 30
0.0
  0
VERTEX
  5
E9
330
E7
100
AcDbEntity
  8
STANDARDEBENE
 62
     7
100
AcDbVertex
100
AcDb2dVertex
 10
-54.24681802029247
 20
11.52057155744972
 30
0.0
  0
SEQEND
  5
EA
330
E7
100
AcDbEntity
  8
STANDARDEBENE
  0
POLYLINE
  5
EB
330
1F
100
AcDbEntity
  8
STANDARDEBENE
  6
AI-LINETYPE-1
 62
     7
100
AcDb2dPolyline
 66
     1
 10
0.0
 20
0.0
 30
0.0
  0
VERTEX
  5
EC
330
EB
100
AcDbEntity
  8
STANDARDEBENE
  6
AI-LINETYPE-1
 62
     7
100
AcDbVertex
100
AcDb2dVertex
 10
-58.76023761551828
 20
16.22416042346132
 30
0.0
  0
VERTEX
  5
ED
330
EB
100
AcDbEntity
  8
STANDARDEBENE
  6
AI-LINETYPE-1
 62
     7
100
AcDbVertex
100
AcDb2dVertex
 10
-18.95560437894165
 20
16.22416042346132
 30
0.0
  0
SEQEND
  5
EE
330
EB
100
AcDbEntity
  8
STANDARDEBENE
  6
AI-LINETYPE-1
  0
POLYLINE
  5
F0
330
1F
100
AcDbEntity
  8
STANDARDEBENE
 62
     7
100
AcDb2dPolyline
 66
     1
 10
0.0
 20
0.0
 30
0.0
  0
VERTEX
  5
F1
330
F0
100
AcDbEntity
  8
STANDARDEBENE
 62
     7
100
AcDbVertex
100
AcDb2dVertex
 10
-56.62703449105157
 20
6.224426267975144
 30
0.0
  0
VERTEX
  5
F2
330
F0
100
AcDbEntity
  8
STANDARDEBENE
 62
     7
100
AcDbVertex
100
AcDb2dVertex
 10
-54.62784558096109
 20
6.224426267975144
 30
0.0
  0
SEQEND
  5
F3
330
F0
100
AcDbEntity
  8
STANDARDEBENE
  0
POLYLINE
  5
F4
330
1F
100
AcDbEntity
  8
STANDARDEBENE
 62
     7
100
AcDb2dPolyline
 66
     1
 10
0.0
 20
0.0
 30
0.0
  0
VERTEX
  5
F5
330
F4
100
AcDbEntity
  8
STANDARDEBENE
 62
     7
100
AcDbVertex
100
AcDb2dVertex
 10
-54.62784558096109
 20
26.22458359804455
 30
0.0
  0
VERTEX
  5
F6
330
F4
100
AcDbEntity
  8
STANDARDEBENE
 62
     7
100
AcDbVertex
100
AcDb2dVertex
 10
-56.62703449105157
 20
26.22458359804455
 30
0.0
  0
SEQEND
  5
F7
330
F4
100
AcDbEntity
  8
STANDARDEBENE
  0
POLYLINE
  5
F8
330
1F
100
AcDbEntity
  8
STANDARDEBENE
 62
     7
100
AcDb2dPolyline
 66
     1
 10
0.0
 20
0.0
 30
0.0
  0
VERTEX
  5
F9
330
F8
100
AcDbEntity
  8
STANDARDEBENE
 62
     7
100
AcDbVertex
100
AcDb2dVertex
 10
-53.12716198758627
 20
8.224304197162674
 30
0.0
  0
VERTEX
  5
FA
330
F8
100
AcDbEntity
  8
STANDARDEBENE
 62
     7
100
AcDbVertex
100
AcDb2dVertex
 10
-21.1280815919402
 20
8.224304197162674
 30
0.0
  0
SEQEND
  5
FB
330
F8
100
AcDbEntity
  8
STANDARDEBENE
  0
POLYLINE
  5
FC
330
1F
100
AcDbEntity
  8
STANDARDEBENE
 62
     7
100
AcDb2dPolyline
 66
     1
 10
0.0
 20
0.0
 30
0.0
  0
VERTEX
  5
FD
330
FC
100
AcDbEntity
  8
STANDARDEBENE
 62
     7
100
AcDbVertex
100
AcDb2dVertex
 10
-21.1280815919402
 20
24.22401664975997
 30
0.0
  0
VERTEX
  5
FE
330
FC
100
AcDbEntity
  8
STANDARDEBENE
 62
     7
100
AcDbVertex
100
AcDb2dVertex
 10
-53.12716198758627
 20
24.22401664975997
 30
0.0
  0
VERTEX
  5
FF
330
FC
100
AcDbEntity
  8
STANDARDEBENE
 62
     7
100
AcDbVertex
100
AcDb2dVertex
 10
-54.19617511665929
 20
23.93807372448423
 30
0.0
  0
SEQEND
  5
100
330
FC
100
AcDbEntity
  8
STANDARDEBENE
  0
POLYLINE
  5
101
330
1F
100
AcDbEntity
  8
STANDARDEBENE
 62
     7
100
AcDb2dPolyline
 66
     1
 10
0.0
 20
0.0
 30
0.0
  0
VERTEX
  5
102
330
101
100
AcDbEntity
  8
STANDARDEBENE
 62
     7
100
AcDbVertex
100
AcDb2dVertex
 10
-54.19617511665929
 20
8.510936141535462
 30
0.0
  0
VERTEX
  5
103
330
101
100
AcDbEntity
  8
STANDARDEBENE
 62
     7
100
AcDbVertex
100
AcDb2dVertex
 10
-53.12716198758627
 20
8.224304197162674
 30
0.0
  0
SEQEND
  5
104
330
101
100
AcDbEntity
  8
STANDARDEBENE
  0
POLYLINE
  5
105
330
1F
100
AcDbEntity
  8
STANDARDEBENE
 62
     7
100
AcDb2dPolyline
 66
     1
 10
0.0
 20
0.0
 30
0.0
  0
VERTEX
  5
106
330
105
100
AcDbEntity
  8
STANDARDEBENE
 62
     7
100
AcDbVertex
100
AcDb2dVertex
 10
-21.1280815919402
 20
8.224304197162674
 30
0.0
  0
VERTEX
  5
107
330
105
100
AcDbEntity
  8
STANDARDEBENE
 62
     7
100
AcDbVertex
100
AcDb2dVertex
 10
-20.62819823703045
 20
8.723843042523901
 30
0.0
  0
SEQEND
  5
108
330
105
100
AcDbEntity
  8
STANDARDEBENE
  0
POLYLINE
  5
109
330
1F
100
AcDbEntity
  8
STANDARDEBENE
 62
     7
100
AcDb2dPolyline
 66
     1
 10
0.0
 20
0.0
 30
0.0
  0
VERTEX
  5
10A
330
109
100
AcDbEntity
  8
STANDARDEBENE
 62
     7
100
AcDbVertex
100
AcDb2dVertex
 10
-20.62819823703045
 20
23.72447780439874
 30
0.0
  0
VERTEX
  5
10B
330
109
100
AcDbEntity
  8
STANDARDEBENE
 62
     7
100
AcDbVertex
100
AcDb2dVertex
 10
-21.1280815919402
 20
24.22401664975997
 30
0.0
  0
SEQEND
  5
10C
330
109
100
AcDbEntity
  8
STANDARDEBENE
  0
POLYLINE
  5
10D
330
1F
100
AcDbEntity
  8
STANDARDEBENE
 62
     7
100
AcDb2dPolyline
 66
     1
 10
0.0
 20
0.0
 30
0.0
  0
VERTEX
  5
10E
330
10D
100
AcDbEntity
  8
STANDARDEBENE
 62
     7
100
AcDbVertex
100
AcDb2dVertex
 10
-54.55963269035315
 20
8.52402750437941
 30
0.0
  0
VERTEX
  5
10F
330
10D
100
AcDbEntity
  8
STANDARDEBENE
 62
     7
100
AcDbVertex
100
AcDb2dVertex
 10
-54.29952798121678
 20
8.52402750437941
 30
0.0
  0
SEQEND
  5
110
330
10D
100
AcDbEntity
  8
STANDARDEBENE
  0
POLYLINE
  5
111
330
1F
100
AcDbEntity
  8
STANDARDEBENE
 62
     7
100
AcDb2dPolyline
 66
     1
 10
0.0
 20
0.0
 30
0.0
  0
VERTEX
  5
112
330
111
100
AcDbEntity
  8
STANDARDEBENE
 62
     7
100
AcDbVertex
100
AcDb2dVertex
 10
-54.29952798121678
 20
23.92429334254323
 30
0.0
  0
VERTEX
  5
113
330
111
100
AcDbEntity
  8
STANDARDEBENE
 62
     7
100
AcDbVertex
100
AcDb2dVertex
 10
-54.55963269035315
 20
23.92429334254323
 30
0.0
  0
SEQEND
  5
114
330
111
100
AcDbEntity
  8
STANDARDEBENE
  0
SPLINE
  5
115
330
1F
100
AcDbEntity
  8
STANDARDEBENE
 62
     7
100
AcDbSpline
210
0.0
220
0.0
230
1.0
 70
     8
 71
     3
 72
     8
 73
     4
 74
     0
 42
0.0000000001
 43
0.0000000001
 40
0.0
 40
0.0
 40
0.0
 40
0.0
 40
1.0
 40
1.0
 40
1.0
 40
1.0
 10
-54.62784558096109
 20
23.93015000486816
 30
0.0
 10
-54.60372991256435
 20
23.92636039983438
 30
0.0
 10
-54.5796142441676
 20
23.92360432344618
 30
0.0
 10
-54.55963269035315
 20
23.92429334254323
 30
0.0
  0
SPLINE
  5
116
330
1F
100
AcDbEntity
  8
STANDARDEBENE
 62
     7
100
AcDbSpline
210
0.0
220
0.0
230
1.0
 70
     8
 71
     3
 72
     8
 73
     4
 74
     0
 42
0.0000000001
 43
0.0000000001
 40
0.0
 40
0.0
 40
0.0
 40
0.0
 40
1.0
 40
1.0
 40
1.0
 40
1.0
 10
-54.55963269035315
 20
8.52402750437941
 30
0.0
 10
-54.58340384920137
 20
8.52402750437941
 30
0.0
 10
-54.60717500804959
 20
8.521615937539735
 30
0.0
 10
-54.62784558096109
 20
8.518170842054486
 30
0.0
  0
SPLINE
  5
117
330
1F
100
AcDbEntity
  8
STANDARDEBENE
 62
     7
100
AcDbSpline
210
0.0
220
0.0
230
1.0
 70
     8
 71
     3
 72
     8
 73
     4
 74
     0
 42
0.0000000001
 43
0.0000000001
 40
0.0
 40
0.0
 40
0.0
 40
0.0
 40
1.0
 40
1.0
 40
1.0
 40
1.0
 10
-54.29952798121678
 20
23.92429334254323
 30
0.0
 10
-54.26266545952461
 20
23.92429334254323
 30
0.0
 10
-54.22718097602654
 20
23.92877196667406
 30
0.0
 10
-54.19617511665929
 20
23.93807372448423
 30
0.0
  0
SPLINE
  5
118
330
1F
100
AcDbEntity
  8
STANDARDEBENE
 62
     7
100
AcDbSpline
210
0.0
220
0.0
230
1.0
 70
     8
 71
     3
 72
     8
 73
     4
 74
     0
 42
0.0000000001
 43
0.0000000001
 40
0.0
 40
0.0
 40
0.0
 40
0.0
 40
1.0
 40
1.0
 40
1.0
 40
1.0
 10
-54.19617511665929
 20
8.510936141535462
 30
0.0
 10
-54.23165960015736
 20
8.520237899345636
 30
0.0
 10
-54.26783310275249
 20
8.52471652347646
 30
0.0
 10
-54.29952798121678
 20
8.52402750437941
 30
0.0
  0
POLYLINE
  5
119
330
1F
100
AcDbEntity
  8
STANDARDEBENE
 62
     7
100
AcDb2dPolyline
 66
     1
 10
0.0
 20
0.0
 30
0.0
  0
VERTEX
  5
11A
330
119
100
AcDbEntity
  8
STANDARDEBENE
 62
     7
100
AcDbVertex
100
AcDb2dVertex
 10
-46.12741698065565
 20
10.72475450035701
 30
0.0
  0
VERTEX
  5
11B
330
119
100
AcDbEntity
  8
STANDARDEBENE
 62
     7
100
AcDbVertex
100
AcDb2dVertex
 10
-31.12781574742638
 20
10.72475450035701
 30
0.0
  0
VERTEX
  5
11C
330
119
100
AcDbEntity
  8
STANDARDEBENE
 62
     7
100
AcDbVertex
100
AcDb2dVertex
 10
-30.34543456272614
 20
10.78056504721805
 30
0.0
  0
VERTEX
  5
11D
330
119
100
AcDbEntity
  8
STANDARDEBENE
 62
     7
100
AcDbVertex
100
AcDb2dVertex
 10
-29.76217989707335
 20
10.89666476507097
 30
0.0
  0
VERTEX
  5
11E
330
119
100
AcDbEntity
  8
STANDARDEBENE
 62
     7
100
AcDbVertex
100
AcDb2dVertex
 10
-29.57063258809345
 20
10.94903021644677
 30
0.0
  0
VERTEX
  5
11F
330
119
100
AcDbEntity
  8
STANDARDEBENE
 62
     7
100
AcDbVertex
100
AcDb2dVertex
 10
-28.86542154226281
 20
11.21120198287428
 30
0.0
  0
VERTEX
  5
120
330
119
100
AcDbEntity
  8
STANDARDEBENE
 62
     7
100
AcDbVertex
100
AcDb2dVertex
 10
-28.20568575683747
 20
11.56432427011239
 30
0.0
  0
VERTEX
  5
121
330
119
100
AcDbEntity
  8
STANDARDEBENE
 62
     7
100
AcDbVertex
100
AcDb2dVertex
 10
-28.02757432025005
 20
11.68076849751384
 30
0.0
  0
VERTEX
  5
122
330
119
100
AcDbEntity
  8
STANDARDEBENE
 62
     7
100
AcDbVertex
100
AcDb2dVertex
 10
-27.68685437675884
 20
11.9339830156797
 30
0.0
  0
VERTEX
  5
123
330
119
100
AcDbEntity
  8
STANDARDEBENE
 62
     7
100
AcDbVertex
100
AcDb2dVertex
 10
-27.36301540114536
 20
12.21510280727609
 30
0.0
  0
VERTEX
  5
124
330
119
100
AcDbEntity
  8
STANDARDEBENE
 62
     7
100
AcDbVertex
100
AcDb2dVertex
 10
-27.05812445070075
 20
12.52378336275447
 30
0.0
  0
VERTEX
  5
125
330
119
100
AcDbEntity
  8
STANDARDEBENE
 62
     7
100
AcDbVertex
100
AcDb2dVertex
 10
-26.91446396896583
 20
12.68880343649794
 30
0.0
  0
VERTEX
  5
126
330
119
100
AcDbEntity
  8
STANDARDEBENE
 62
     7
100
AcDbVertex
100
AcDb2dVertex
 10
-26.76081271032369
 20
12.8800062359293
 30
0.0
  0
VERTEX
  5
127
330
119
100
AcDbEntity
  8
STANDARDEBENE
 62
     7
100
AcDbVertex
100
AcDb2dVertex
 10
-26.41148002811935
 20
13.39504801097416
 30
0.0
  0
VERTEX
  5
128
330
119
100
AcDbEntity
  8
STANDARDEBENE
 62
     7
100
AcDbVertex
100
AcDb2dVertex
 10
-26.11313475909672
 20
13.96452229468595
 30
0.0
  0
VERTEX
  5
129
330
119
100
AcDbEntity
  8
STANDARDEBENE
 62
     7
100
AcDbVertex
100
AcDb2dVertex
 10
-25.91814235463158
 20
14.45923800636783
 30
0.0
  0
VERTEX
  5
12A
330
119
100
AcDbEntity
  8
STANDARDEBENE
 62
     7
100
AcDbVertex
100
AcDb2dVertex
 10
-25.72314995016644
 20
15.20200059298769
 30
0.0
  0
VERTEX
  5
12B
330
119
100
AcDbEntity
  8
STANDARDEBENE
 62
     7
100
AcDbVertex
100
AcDb2dVertex
 10
-25.64460177310274
 20
15.78973388277132
 30
0.0
  0
VERTEX
  5
12C
330
119
100
AcDbEntity
  8
STANDARDEBENE
 62
     7
100
AcDbVertex
100
AcDb2dVertex
 10
-25.63254393890437
 20
15.99023844001286
 30
0.0
  0
VERTEX
  5
12D
330
119
100
AcDbEntity
  8
STANDARDEBENE
 62
     7
100
AcDbVertex
100
AcDb2dVertex
 10
-25.65493705955849
 20
16.76917452922785
 30
0.0
  0
VERTEX
  5
12E
330
119
100
AcDbEntity
  8
STANDARDEBENE
 62
     7
100
AcDbVertex
100
AcDb2dVertex
 10
-25.74450954217498
 20
17.35656330946294
 30
0.0
  0
VERTEX
  5
12F
330
119
100
AcDbEntity
  8
STANDARDEBENE
 62
     7
100
AcDbVertex
100
AcDb2dVertex
 10
-25.78929578348323
 20
17.55086669483103
 30
0.0
  0
VERTEX
  5
130
330
119
100
AcDbEntity
  8
STANDARDEBENE
 62
     7
100
AcDbVertex
100
AcDb2dVertex
 10
-26.01977267144645
 20
18.26503498892333
 30
0.0
  0
VERTEX
  5
131
330
119
100
AcDbEntity
  8
STANDARDEBENE
 62
     7
100
AcDbVertex
100
AcDb2dVertex
 10
-26.34533419480256
 20
18.94199625177492
 30
0.0
  0
VERTEX
  5
132
330
119
100
AcDbEntity
  8
STANDARDEBENE
 62
     7
100
AcDbVertex
100
AcDb2dVertex
 10
-26.44834254981153
 20
19.11528455468299
 30
0.0
  0
VERTEX
  5
133
330
119
100
AcDbEntity
  8
STANDARDEBENE
 62
     7
100
AcDbVertex
100
AcDb2dVertex
 10
-26.79526366517619
 20
19.61275634275306
 30
0.0
  0
VERTEX
  5
134
330
119
100
AcDbEntity
  8
STANDARDEBENE
 62
     7
100
AcDbVertex
100
AcDb2dVertex
 10
-27.19489474146517
 20
20.06957600409719
 30
0.0
  0
VERTEX
  5
135
330
119
100
AcDbEntity
  8
STANDARDEBENE
 62
     7
100
AcDbVertex
100
AcDb2dVertex
 10
-27.33958875184566
 20
20.21220295718653
 30
0.0
  0
VERTEX
  5
136
330
119
100
AcDbEntity
  8
STANDARDEBENE
 62
     7
100
AcDbVertex
100
AcDb2dVertex
 10
-27.51012097836553
 20
20.3675767635713
 30
0.0
  0
VERTEX
  5
137
330
119
100
AcDbEntity
  8
STANDARDEBENE
 62
     7
100
AcDbVertex
100
AcDb2dVertex
 10
-27.87185600431676
 20
20.65765380342934
 30
0.0
  0
VERTEX
  5
138
330
119
100
AcDbEntity
  8
STANDARDEBENE
 62
     7
100
AcDbVertex
100
AcDb2dVertex
 10
-28.26356336098966
 20
20.91948106030832
 30
0.0
  0
VERTEX
  5
139
330
119
100
AcDbEntity
  8
STANDARDEBENE
 62
     7
100
AcDbVertex
100
AcDb2dVertex
 10
-28.68558755793277
 20
21.15202500556269
 30
0.0
  0
VERTEX
  5
13A
330
119
100
AcDbEntity
  8
STANDARDEBENE
 62
     7
100
AcDbVertex
100
AcDb2dVertex
 10
-28.90641817853729
 20
21.25537787012018
 30
0.0
  0
VERTEX
  5
13B
330
119
100
AcDbEntity
  8
STANDARDEBENE
 62
     7
100
AcDbVertex
100
AcDb2dVertex
 10
-29.5864800273256
 20
21.50342474505817
 30
0.0
  0
VERTEX
  5
13C
330
119
100
AcDbEntity
  8
STANDARDEBENE
 62
     7
100
AcDbVertex
100
AcDb2dVertex
 10
-30.32304144207202
 20
21.66465521376787
 30
0.0
  0
VERTEX
  5
13D
330
119
100
AcDbEntity
  8
STANDARDEBENE
 62
     7
100
AcDbVertex
100
AcDb2dVertex
 10
-30.92421060424812
 20
21.72012125108039
 30
0.0
  0
VERTEX
  5
13E
330
119
100
AcDbEntity
  8
STANDARDEBENE
 62
     7
100
AcDbVertex
100
AcDb2dVertex
 10
-31.12781574742638
 20
21.72391085611416
 30
0.0
  0
VERTEX
  5
13F
330
119
100
AcDbEntity
  8
STANDARDEBENE
 62
     7
100
AcDbVertex
100
AcDb2dVertex
 10
-46.12741698065565
 20
21.72391085611416
 30
0.0
  0
VERTEX
  5
140
330
119
100
AcDbEntity
  8
STANDARDEBENE
 62
     7
100
AcDbVertex
100
AcDb2dVertex
 10
-46.90945365580736
 20
21.66810030925312
 30
0.0
  0
VERTEX
  5
141
330
119
100
AcDbEntity
  8
STANDARDEBENE
 62
     7
100
AcDbVertex
100
AcDb2dVertex
 10
-47.49305283100868
 20
21.55200059140019
 30
0.0
  0
VERTEX
  5
142
330
119
100
AcDbEntity
  8
STANDARDEBENE
 62
     7
100
AcDbVertex
100
AcDb2dVertex
 10
-47.6849446495371
 20
21.49929063047587
 30
0.0
  0
VERTEX
  5
143
330
119
100
AcDbEntity
  8
STANDARDEBENE
 62
     7
100
AcDbVertex
100
AcDb2dVertex
 10
-48.38877765717364
 20
21.23711886404836
 30
0.0
  0
VERTEX
  5
144
330
119
100
AcDbEntity
  8
STANDARDEBENE
 62
     7
100
AcDbVertex
100
AcDb2dVertex
 10
-49.04954697124456
 20
20.88399657681025
 30
0.0
  0
VERTEX
  5
145
330
119
100
AcDbEntity
  8
STANDARDEBENE
 62
     7
100
AcDbVertex
100
AcDb2dVertex
 10
-49.22696938873493
 20
20.76755234940881
 30
0.0
  0
VERTEX
  5
146
330
119
100
AcDbEntity
  8
STANDARDEBENE
 62
     7
100
AcDbVertex
100
AcDb2dVertex
 10
-49.56872286087171
 20
20.51433783124294
 30
0.0
  0
VERTEX
  5
147
330
119
100
AcDbEntity
  8
STANDARDEBENE
 62
     7
100
AcDbVertex
100
AcDb2dVertex
 10
-49.89187281738815
 20
20.23390705874361
 30
0.0
  0
VERTEX
  5
148
330
119
100
AcDbEntity
  8
STANDARDEBENE
 62
     7
100
AcDbVertex
100
AcDb2dVertex
 10
-50.19676376783276
 20
19.92419297461965
 30
0.0
  0
VERTEX
  5
149
330
119
100
AcDbEntity
  8
STANDARDEBENE
 62
     7
100
AcDbVertex
100
AcDb2dVertex
 10
-50.3407687591162
 20
19.75951741042471
 30
0.0
  0
VERTEX
  5
14A
330
119
100
AcDbEntity
  8
STANDARDEBENE
 62
     7
100
AcDbVertex
100
AcDb2dVertex
 10
-50.49338648911277
 20
19.56865912054186
 30
0.0
  0
VERTEX
  5
14B
330
119
100
AcDbEntity
  8
STANDARDEBENE
 62
     7
100
AcDbVertex
100
AcDb2dVertex
 10
-50.8440972095112
 20
19.05361734549701
 30
0.0
  0
VERTEX
  5
14C
330
119
100
AcDbEntity
  8
STANDARDEBENE
 62
     7
100
AcDbVertex
100
AcDb2dVertex
 10
-51.14175345943679
 20
18.48379855223669
 30
0.0
  0
VERTEX
  5
14D
330
119
100
AcDbEntity
  8
STANDARDEBENE
 62
     7
100
AcDbVertex
100
AcDb2dVertex
 10
-51.3364013543534
 20
17.98908284055481
 30
0.0
  0
VERTEX
  5
14E
330
119
100
AcDbEntity
  8
STANDARDEBENE
 62
     7
100
AcDbVertex
100
AcDb2dVertex
 10
-51.53139375881855
 20
17.24666476348347
 30
0.0
  0
VERTEX
  5
14F
330
119
100
AcDbEntity
  8
STANDARDEBENE
 62
     7
100
AcDbVertex
100
AcDb2dVertex
 10
-51.60994193588224
 20
16.65858696415133
 30
0.0
  0
VERTEX
  5
150
330
119
100
AcDbEntity
  8
STANDARDEBENE
 62
     7
100
AcDbVertex
100
AcDb2dVertex
 10
-51.62268878917767
 20
16.45842691645831
 30
0.0
  0
VERTEX
  5
151
330
119
100
AcDbEntity
  8
STANDARDEBENE
 62
     7
100
AcDbVertex
100
AcDb2dVertex
 10
-51.60029566852354
 20
15.6791463176948
 30
0.0
  0
VERTEX
  5
152
330
119
100
AcDbEntity
  8
STANDARDEBENE
 62
     7
100
AcDbVertex
100
AcDb2dVertex
 10
-51.50968965726147
 20
15.0917575374597
 30
0.0
  0
VERTEX
  5
153
330
119
100
AcDbEntity
  8
STANDARDEBENE
 62
     7
100
AcDbVertex
100
AcDb2dVertex
 10
-51.46524792550174
 20
14.89814317118866
 30
0.0
  0
VERTEX
  5
154
330
119
100
AcDbEntity
  8
STANDARDEBENE
 62
     7
100
AcDbVertex
100
AcDb2dVertex
 10
-51.23442652799001
 20
14.18328585799932
 30
0.0
  0
VERTEX
  5
155
330
119
100
AcDbEntity
  8
STANDARDEBENE
 62
     7
100
AcDbVertex
100
AcDb2dVertex
 10
-50.9088650046339
 20
13.50632459514772
 30
0.0
  0
VERTEX
  5
156
330
119
100
AcDbEntity
  8
STANDARDEBENE
 62
     7
100
AcDbVertex
100
AcDb2dVertex
 10
-50.80585664962493
 20
13.33303629223966
 30
0.0
  0
VERTEX
  5
157
330
119
100
AcDbEntity
  8
STANDARDEBENE
 62
     7
100
AcDbVertex
100
AcDb2dVertex
 10
-50.4592800438088
 20
12.83590901371811
 30
0.0
  0
VERTEX
  5
158
330
119
100
AcDbEntity
  8
STANDARDEBENE
 62
     7
100
AcDbVertex
100
AcDb2dVertex
 10
-50.05964896751981
 20
12.37874484282545
 30
0.0
  0
VERTEX
  5
159
330
119
100
AcDbEntity
  8
STANDARDEBENE
 62
     7
100
AcDbVertex
100
AcDb2dVertex
 10
-49.91495495713932
 20
12.23611788973611
 30
0.0
  0
VERTEX
  5
15A
330
119
100
AcDbEntity
  8
STANDARDEBENE
 62
     7
100
AcDbVertex
100
AcDb2dVertex
 10
-49.74442273061945
 20
12.08074408335134
 30
0.0
  0
VERTEX
  5
15B
330
119
100
AcDbEntity
  8
STANDARDEBENE
 62
     7
100
AcDbVertex
100
AcDb2dVertex
 10
-49.3823431951197
 20
11.79135606259036
 30
0.0
  0
VERTEX
  5
15C
330
119
100
AcDbEntity
  8
STANDARDEBENE
 62
     7
100
AcDbVertex
100
AcDb2dVertex
 10
-48.99132485754384
 20
11.52849527706579
 30
0.0
  0
VERTEX
  5
15D
330
119
100
AcDbEntity
  8
STANDARDEBENE
 62
     7
100
AcDbVertex
100
AcDb2dVertex
 10
-48.56998967969778
 20
11.29664035090848
 30
0.0
  0
VERTEX
  5
15E
330
119
100
AcDbEntity
  8
STANDARDEBENE
 62
     7
100
AcDbVertex
100
AcDb2dVertex
 10
-48.34915905909327
 20
11.19294297680246
 30
0.0
  0
VERTEX
  5
15F
330
119
100
AcDbEntity
  8
STANDARDEBENE
 62
     7
100
AcDbVertex
100
AcDb2dVertex
 10
-47.6684081912079
 20
10.94489610186447
 30
0.0
  0
VERTEX
  5
160
330
119
100
AcDbEntity
  8
STANDARDEBENE
 62
     7
100
AcDbVertex
100
AcDb2dVertex
 10
-46.93150226691296
 20
10.78366563315478
 30
0.0
  0
VERTEX
  5
161
330
119
100
AcDbEntity
  8
STANDARDEBENE
 62
     7
100
AcDbVertex
100
AcDb2dVertex
 10
-46.33136663338244
 20
10.72819959584226
 30
0.0
  0
VERTEX
  5
162
330
119
100
AcDbEntity
  8
STANDARDEBENE
 62
     7
100
AcDbVertex
100
AcDb2dVertex
 10
-46.12741698065565
 20
10.72475450035701
 30
0.0
  0
SEQEND
  5
163
330
119
100
AcDbEntity
  8
STANDARDEBENE
  0
POLYLINE
  5
164
330
1F
100
AcDbEntity
  8
STANDARDEBENE
 62
     7
100
AcDb2dPolyline
 66
     1
 10
0.0
 20
0.0
 30
0.0
  0
VERTEX
  5
165
330
164
100
AcDbEntity
  8
STANDARDEBENE
 62
     7
100
AcDbVertex
100
AcDb2dVertex
 10
-21.1280815919402
 20
8.224304197162674
 30
0.0
  0
VERTEX
  5
166
330
164
100
AcDbEntity
  8
STANDARDEBENE
 62
     7
100
AcDbVertex
100
AcDb2dVertex
 10
-21.1280815919402
 20
8.333513724045094
 30
0.0
  0
VERTEX
  5
167
330
164
100
AcDbEntity
  8
STANDARDEBENE
 62
     7
100
AcDbVertex
100
AcDb2dVertex
 10
-21.1280815919402
 20
8.657697209207104
 30
0.0
  0
VERTEX
  5
168
330
164
100
AcDbEntity
  8
STANDARDEBENE
 62
     7
100
AcDbVertex
100
AcDb2dVertex
 10
-21.1280815919402
 20
9.18824191393558
 30
0.0
  0
VERTEX
  5
169
330
164
100
AcDbEntity
  8
STANDARDEBENE
 62
     7
100
AcDbVertex
100
AcDb2dVertex
 10
-21.1280815919402
 20
9.91136745628952
 30
0.0
  0
VERTEX
  5
16A
330
164
100
AcDbEntity
  8
STANDARDEBENE
 62
     7
100
AcDbVertex
100
AcDb2dVertex
 10
-21.1280815919402
 20
10.8060587538089
 30
0.0
  0
VERTEX
  5
16B
330
164
100
AcDbEntity
  8
STANDARDEBENE
 62
     7
100
AcDbVertex
100
AcDb2dVertex
 10
-21.1280815919402
 20
11.8485446476455
 30
0.0
  0
VERTEX
  5
16C
330
164
100
AcDbEntity
  8
STANDARDEBENE
 62
     7
100
AcDbVertex
100
AcDb2dVertex
 10
-21.1280815919402
 20
13.0109198643688
 30
0.0
  0
VERTEX
  5
16D
330
164
100
AcDbEntity
  8
STANDARDEBENE
 62
     7
100
AcDbVertex
100
AcDb2dVertex
 10
-21.1280815919402
 20
14.26011148732039
 30
0.0
  0
VERTEX
  5
16E
330
164
100
AcDbEntity
  8
STANDARDEBENE
 62
     7
100
AcDbVertex
100
AcDb2dVertex
 10
-21.1280815919402
 20
15.5633911093904
 30
0.0
  0
VERTEX
  5
16F
330
164
100
AcDbEntity
  8
STANDARDEBENE
 62
     7
100
AcDbVertex
100
AcDb2dVertex
 10
-21.1280815919402
 20
16.88492973753224
 30
0.0
  0
VERTEX
  5
170
330
164
100
AcDbEntity
  8
STANDARDEBENE
 62
     7
100
AcDbVertex
100
AcDb2dVertex
 10
-21.1280815919402
 20
18.18786485005373
 30
0.0
  0
VERTEX
  5
171
330
164
100
AcDbEntity
  8
STANDARDEBENE
 62
     7
100
AcDbVertex
100
AcDb2dVertex
 10
-21.1280815919402
 20
19.43774549210237
 30
0.0
  0
VERTEX
  5
172
330
164
100
AcDbEntity
  8
STANDARDEBENE
 62
     7
100
AcDbVertex
100
AcDb2dVertex
 10
-21.1280815919402
 20
20.59943168972861
 30
0.0
  0
VERTEX
  5
173
330
164
100
AcDbEntity
  8
STANDARDEBENE
 62
     7
100
AcDbVertex
100
AcDb2dVertex
 10
-21.1280815919402
 20
21.64260660266227
 30
0.0
  0
VERTEX
  5
174
330
164
100
AcDbEntity
  8
STANDARDEBENE
 62
     7
100
AcDbVertex
100
AcDb2dVertex
 10
-21.1280815919402
 20
22.5379869192787
 30
0.0
  0
VERTEX
  5
175
330
164
100
AcDbEntity
  8
STANDARDEBENE
 62
     7
100
AcDbVertex
100
AcDb2dVertex
 10
-21.1280815919402
 20
23.26007893298706
 30
0.0
  0
VERTEX
  5
176
330
164
100
AcDbEntity
  8
STANDARDEBENE
 62
     7
100
AcDbVertex
100
AcDb2dVertex
 10
-21.1280815919402
 20
23.79096814726406
 30
0.0
  0
VERTEX
  5
177
330
164
100
AcDbEntity
  8
STANDARDEBENE
 62
     7
100
AcDbVertex
100
AcDb2dVertex
 10
-21.1280815919402
 20
24.11480712287755
 30
0.0
  0
VERTEX
  5
178
330
164
100
AcDbEntity
  8
STANDARDEBENE
 62
     7
100
AcDbVertex
100
AcDb2dVertex
 10
-21.1280815919402
 20
24.22401664975997
 30
0.0
  0
SEQEND
  5
179
330
164
100
AcDbEntity
  8
STANDARDEBENE
  0
POLYLINE
  5
17A
330
1F
100
AcDbEntity
  8
STANDARDEBENE
 62
     7
100
AcDb2dPolyline
 66
     1
 10
0.0
 20
0.0
 30
0.0
  0
VERTEX
  5
17B
330
17A
100
AcDbEntity
  8
STANDARDEBENE
 62
     7
100
AcDbVertex
100
AcDb2dVertex
 10
-53.12716198758627
 20
8.224304197162674
 30
0.0
  0
VERTEX
  5
17C
330
17A
100
AcDbEntity
  8
STANDARDEBENE
 62
     7
100
AcDbVertex
100
AcDb2dVertex
 10
-53.12716198758627
 20
8.333513724045094
 30
0.0
  0
VERTEX
  5
17D
330
17A
100
AcDbEntity
  8
STANDARDEBENE
 62
     7
100
AcDbVertex
100
AcDb2dVertex
 10
-53.12716198758627
 20
8.657697209207104
 30
0.0
  0
VERTEX
  5
17E
330
17A
100
AcDbEntity
  8
STANDARDEBENE
 62
     7
100
AcDbVertex
100
AcDb2dVertex
 10
-53.12716198758627
 20
9.18824191393558
 30
0.0
  0
VERTEX
  5
17F
330
17A
100
AcDbEntity
  8
STANDARDEBENE
 62
     7
100
AcDbVertex
100
AcDb2dVertex
 10
-53.12716198758627
 20
9.91136745628952
 30
0.0
  0
VERTEX
  5
180
330
17A
100
AcDbEntity
  8
STANDARDEBENE
 62
     7
100
AcDbVertex
100
AcDb2dVertex
 10
-53.12716198758627
 20
10.8060587538089
 30
0.0
  0
VERTEX
  5
181
330
17A
100
AcDbEntity
  8
STANDARDEBENE
 62
     7
100
AcDbVertex
100
AcDb2dVertex
 10
-53.12716198758627
 20
11.8485446476455
 30
0.0
  0
VERTEX
  5
182
330
17A
100
AcDbEntity
  8
STANDARDEBENE
 62
     7
100
AcDbVertex
100
AcDb2dVertex
 10
-53.12716198758627
 20
13.0109198643688
 30
0.0
  0
VERTEX
  5
183
330
17A
100
AcDbEntity
  8
STANDARDEBENE
 62
     7
100
AcDbVertex
100
AcDb2dVertex
 10
-53.12716198758627
 20
14.26011148732039
 30
0.0
  0
VERTEX
  5
184
330
17A
100
AcDbEntity
  8
STANDARDEBENE
 62
     7
100
AcDbVertex
100
AcDb2dVertex
 10
-53.12716198758627
 20
15.5633911093904
 30
0.0
  0
VERTEX
  5
185
330
17A
100
AcDbEntity
  8
STANDARDEBENE
 62
     7
100
AcDbVertex
100
AcDb2dVertex
 10
-53.12716198758627
 20
16.88492973753224
 30
0.0
  0
VERTEX
  5
186
330
17A
100
AcDbEntity
  8
STANDARDEBENE
 62
     7
100
AcDbVertex
100
AcDb2dVertex
 10
-53.12716198758627
 20
18.18786485005373
 30
0.0
  0
VERTEX
  5
187
330
17A
100
AcDbEntity
  8
STANDARDEBENE
 62
     7
100
AcDbVertex
100
AcDb2dVertex
 10
-53.12716198758627
 20
19.43774549210237
 30
0.0
  0
VERTEX
  5
188
330
17A
100
AcDbEntity
  8
STANDARDEBENE
 62
     7
100
AcDbVertex
100
AcDb2dVertex
 10
-53.12716198758627
 20
20.59943168972861
 30
0.0
  0
VERTEX
  5
189
330
17A
100
AcDbEntity
  8
STANDARDEBENE
 62
     7
100
AcDbVertex
100
AcDb2dVertex
 10
-53.12716198758627
 20
21.64260660266227
 30
0.0
  0
VERTEX
  5
18A
330
17A
100
AcDbEntity
  8
STANDARDEBENE
 62
     7
100
AcDbVertex
100
AcDb2dVertex
 10
-53.12716198758627
 20
22.5379869192787
 30
0.0
  0
VERTEX
  5
18B
330
17A
100
AcDbEntity
  8
STANDARDEBENE
 62
     7
100
AcDbVertex
100
AcDb2dVertex
 10
-53.12716198758627
 20
23.26007893298706
 30
0.0
  0
VERTEX
  5
18C
330
17A
100
AcDbEntity
  8
STANDARDEBENE
 62
     7
100
AcDbVertex
100
AcDb2dVertex
 10
-53.12716198758627
 20
23.79096814726406
 30
0.0
  0
VERTEX
  5
18D
330
17A
100
AcDbEntity
  8
STANDARDEBENE
 62
     7
100
AcDbVertex
100
AcDb2dVertex
 10
-53.12716198758627
 20
24.11480712287755
 30
0.0
  0
VERTEX
  5
18E
330
17A
100
AcDbEntity
  8
STANDARDEBENE
 62
     7
100
AcDbVertex
100
AcDb2dVertex
 10
-53.12716198758627
 20
24.22401664975997
 30
0.0
  0
SEQEND
  5
18F
330
17A
100
AcDbEntity
  8
STANDARDEBENE
  0
POLYLINE
  5
190
330
1F
100
AcDbEntity
  8
STANDARDEBENE
 62
     7
100
AcDb2dPolyline
 66
     1
 10
0.0
 20
0.0
 30
0.0
  0
VERTEX
  5
191
330
190
100
AcDbEntity
  8
STANDARDEBENE
 62
     7
100
AcDbVertex
100
AcDb2dVertex
 10
-54.62784558096109
 20
6.224426267975144
 30
0.0
  0
VERTEX
  5
192
330
190
100
AcDbEntity
  8
STANDARDEBENE
 62
     7
100
AcDbVertex
100
AcDb2dVertex
 10
-54.62784558096109
 20
6.325712075241489
 30
0.0
  0
VERTEX
  5
193
330
190
100
AcDbEntity
  8
STANDARDEBENE
 62
     7
100
AcDbVertex
100
AcDb2dVertex
 10
-54.62784558096109
 20
6.629224987492
 30
0.0
  0
VERTEX
  5
194
330
190
100
AcDbEntity
  8
STANDARDEBENE
 62
     7
100
AcDbVertex
100
AcDb2dVertex
 10
-54.62784558096109
 20
7.127730304207651
 30
0.0
  0
VERTEX
  5
195
330
190
100
AcDbEntity
  8
STANDARDEBENE
 62
     7
100
AcDbVertex
100
AcDb2dVertex
 10
-54.62784558096109
 20
7.811926267578269
 30
0.0
  0
VERTEX
  5
196
330
190
100
AcDbEntity
  8
STANDARDEBENE
 62
     7
100
AcDbVertex
100
AcDb2dVertex
 10
-54.62784558096109
 20
8.666654457468754
 30
0.0
  0
VERTEX
  5
197
330
190
100
AcDbEntity
  8
STANDARDEBENE
 62
     7
100
AcDbVertex
100
AcDb2dVertex
 10
-54.62784558096109
 20
9.675378415549906
 30
0.0
  0
VERTEX
  5
198
330
190
100
AcDbEntity
  8
STANDARDEBENE
 62
     7
100
AcDbVertex
100
AcDb2dVertex
 10
-54.62784558096109
 20
10.81811658800728
 30
0.0
  0
VERTEX
  5
199
330
190
100
AcDbEntity
  8
STANDARDEBENE
 62
     7
100
AcDbVertex
100
AcDb2dVertex
 10
-54.62784558096109
 20
12.07006428734707
 30
0.0
  0
VERTEX
  5
19A
330
190
100
AcDbEntity
  8
STANDARDEBENE
 62
     7
100
AcDbVertex
100
AcDb2dVertex
 10
-54.62784558096109
 20
13.406761335624
 30
0.0
  0
VERTEX
  5
19B
330
190
100
AcDbEntity
  8
STANDARDEBENE
 62
     7
100
AcDbVertex
100
AcDb2dVertex
 10
-54.62784558096109
 20
14.80099147850461
 30
0.0
  0
VERTEX
  5
19C
330
190
100
AcDbEntity
  8
STANDARDEBENE
 62
     7
100
AcDbVertex
100
AcDb2dVertex
 10
-54.62784558096109
 20
16.22416042346132
 30
0.0
  0
VERTEX
  5
19D
330
190
100
AcDbEntity
  8
STANDARDEBENE
 62
     7
100
AcDbVertex
100
AcDb2dVertex
 10
-54.62784558096109
 20
17.64732936841803
 30
0.0
  0
VERTEX
  5
19E
330
190
100
AcDbEntity
  8
STANDARDEBENE
 62
     7
100
AcDbVertex
100
AcDb2dVertex
 10
-54.62784558096109
 20
19.04190402084716
 30
0.0
  0
VERTEX
  5
19F
330
190
100
AcDbEntity
  8
STANDARDEBENE
 62
     7
100
AcDbVertex
100
AcDb2dVertex
 10
-54.62784558096109
 20
20.3786010691241
 30
0.0
  0
VERTEX
  5
1A0
330
190
100
AcDbEntity
  8
STANDARDEBENE
 62
     7
100
AcDbVertex
100
AcDb2dVertex
 10
-54.62784558096109
 20
21.63020425891537
 30
0.0
  0
VERTEX
  5
1A1
330
190
100
AcDbEntity
  8
STANDARDEBENE
 62
     7
100
AcDbVertex
100
AcDb2dVertex
 10
-54.62784558096109
 20
22.77294243137274
 30
0.0
  0
VERTEX
  5
1A2
330
190
100
AcDbEntity
  8
STANDARDEBENE
 62
     7
100
AcDbVertex
100
AcDb2dVertex
 10
-54.62784558096109
 20
23.78166638945389
 30
0.0
  0
VERTEX
  5
1A3
330
190
100
AcDbEntity
  8
STANDARDEBENE
 62
     7
100
AcDbVertex
100
AcDb2dVertex
 10
-54.62784558096109
 20
24.6367390888929
 30
0.0
  0
VERTEX
  5
1A4
330
190
100
AcDbEntity
  8
STANDARDEBENE
 62
     7
100
AcDbVertex
100
AcDb2dVertex
 10
-54.62784558096109
 20
25.32059054271499
 30
0.0
  0
VERTEX
  5
1A5
330
190
100
AcDbEntity
  8
STANDARDEBENE
 62
     7
100
AcDbVertex
100
AcDb2dVertex
 10
-54.62784558096109
 20
25.81909585943064
 30
0.0
  0
VERTEX
  5
1A6
330
190
100
AcDbEntity
  8
STANDARDEBENE
 62
     7
100
AcDbVertex
100
AcDb2dVertex
 10
-54.62784558096109
 20
26.12260877168115
 30
0.0
  0
VERTEX
  5
1A7
330
190
100
AcDbEntity
  8
STANDARDEBENE
 62
     7
100
AcDbVertex
100
AcDb2dVertex
 10
-54.62784558096109
 20
26.22458359804455
 30
0.0
  0
SEQEND
  5
1A8
330
190
100
AcDbEntity
  8
STANDARDEBENE
  0
POLYLINE
  5
1A9
330
1F
100
AcDbEntity
  8
STANDARDEBENE
 62
     7
100
AcDb2dPolyline
 66
     1
 10
0.0
 20
0.0
 30
0.0
  0
VERTEX
  5
1AA
330
1A9
100
AcDbEntity
  8
STANDARDEBENE
 62
     7
100
AcDbVertex
100
AcDb2dVertex
 10
-20.62819823703045
 20
23.72447780439874
 30
0.0
  0
VERTEX
  5
1AB
330
1A9
100
AcDbEntity
  8
STANDARDEBENE
 62
     7
100
AcDbVertex
100
AcDb2dVertex
 10
-20.62819823703045
 20
23.6218139589383
 30
0.0
  0
VERTEX
  5
1AC
330
1A9
100
AcDbEntity
  8
STANDARDEBENE
 62
     7
100
AcDbVertex
100
AcDb2dVertex
 10
-20.62819823703045
 20
23.31795653713926
 30
0.0
  0
VERTEX
  5
1AD
330
1A9
100
AcDbEntity
  8
STANDARDEBENE
 62
     7
100
AcDbVertex
100
AcDb2dVertex
 10
-20.62819823703045
 20
22.82082925861771
 30
0.0
  0
VERTEX
  5
1AE
330
1A9
100
AcDbEntity
  8
STANDARDEBENE
 62
     7
100
AcDbVertex
100
AcDb2dVertex
 10
-20.62819823703045
 20
22.14248995757202
 30
0.0
  0
VERTEX
  5
1AF
330
1A9
100
AcDbEntity
  8
STANDARDEBENE
 62
     7
100
AcDbVertex
100
AcDb2dVertex
 10
-20.62819823703045
 20
21.30429822601073
 30
0.0
  0
VERTEX
  5
1B0
330
1A9
100
AcDbEntity
  8
STANDARDEBENE
 62
     7
100
AcDbVertex
100
AcDb2dVertex
 10
-20.62819823703045
 20
20.3262356177483
 30
0.0
  0
VERTEX
  5
1B1
330
1A9
100
AcDbEntity
  8
STANDARDEBENE
 62
     7
100
AcDbVertex
100
AcDb2dVertex
 10
-20.62819823703045
 20
19.23724093486083
 30
0.0
  0
VERTEX
  5
1B2
330
1A9
100
AcDbEntity
  8
STANDARDEBENE
 62
     7
100
AcDbVertex
100
AcDb2dVertex
 10
-20.62819823703045
 20
18.06521945077883
 30
0.0
  0
VERTEX
  5
1B3
330
1A9
100
AcDbEntity
  8
STANDARDEBENE
 62
     7
100
AcDbVertex
100
AcDb2dVertex
 10
-20.62819823703045
 20
16.84393310125777
 30
0.0
  0
VERTEX
  5
1B4
330
1A9
100
AcDbEntity
  8
STANDARDEBENE
 62
     7
100
AcDbVertex
100
AcDb2dVertex
 10
-20.62819823703045
 20
15.6047322552134
 30
0.0
  0
VERTEX
  5
1B5
330
1A9
100
AcDbEntity
  8
STANDARDEBENE
 62
     7
100
AcDbVertex
100
AcDb2dVertex
 10
-20.62819823703045
 20
14.38344590569233
 30
0.0
  0
VERTEX
  5
1B6
330
1A9
100
AcDbEntity
  8
STANDARDEBENE
 62
     7
100
AcDbVertex
100
AcDb2dVertex
 10
-20.62819823703045
 20
13.21107991206181
 30
0.0
  0
VERTEX
  5
1B7
330
1A9
100
AcDbEntity
  8
STANDARDEBENE
 62
     7
100
AcDbVertex
100
AcDb2dVertex
 10
-20.62819823703045
 20
12.12208522917434
 30
0.0
  0
VERTEX
  5
1B8
330
1A9
100
AcDbEntity
  8
STANDARDEBENE
 62
     7
100
AcDbVertex
100
AcDb2dVertex
 10
-20.62819823703045
 20
11.14471164000896
 30
0.0
  0
VERTEX
  5
1B9
330
1A9
100
AcDbEntity
  8
STANDARDEBENE
 62
     7
100
AcDbVertex
100
AcDb2dVertex
 10
-20.62819823703045
 20
10.30583088935063
 30
0.0
  0
VERTEX
  5
1BA
330
1A9
100
AcDbEntity
  8
STANDARDEBENE
 62
     7
100
AcDbVertex
100
AcDb2dVertex
 10
-20.62819823703045
 20
9.628525116950508
 30
0.0
  0
VERTEX
  5
1BB
330
1A9
100
AcDbEntity
  8
STANDARDEBENE
 62
     7
100
AcDbVertex
100
AcDb2dVertex
 10
-20.62819823703045
 20
9.130364309783381
 30
0.0
  0
VERTEX
  5
1BC
330
1A9
100
AcDbEntity
  8
STANDARDEBENE
 62
     7
100
AcDbVertex
100
AcDb2dVertex
 10
-20.62819823703045
 20
8.82685139753287
 30
0.0
  0
VERTEX
  5
1BD
330
1A9
100
AcDbEntity
  8
STANDARDEBENE
 62
     7
100
AcDbVertex
100
AcDb2dVertex
 10
-20.62819823703045
 20
8.723843042523901
 30
0.0
  0
SEQEND
  5
1BE
330
1A9
100
AcDbEntity
  8
STANDARDEBENE
  0
POLYLINE
  5
1BF
330
1F
100
AcDbEntity
  8
STANDARDEBENE
 62
     7
100
AcDb2dPolyline
 66
     1
 10
0.0
 20
0.0
 30
0.0
  0
VERTEX
  5
1C0
330
1BF
100
AcDbEntity
  8
STANDARDEBENE
 62
     7
100
AcDbVertex
100
AcDb2dVertex
 10
-56.62703449105157
 20
6.224426267975144
 30
0.0
  0
VERTEX
  5
1C1
330
1BF
100
AcDbEntity
  8
STANDARDEBENE
 62
     7
100
AcDbVertex
100
AcDb2dVertex
 10
-56.62703449105157
 20
6.325712075241489
 30
0.0
  0
VERTEX
  5
1C2
330
1BF
100
AcDbEntity
  8
STANDARDEBENE
 62
     7
100
AcDbVertex
100
AcDb2dVertex
 10
-56.62703449105157
 20
6.629224987492
 30
0.0
  0
VERTEX
  5
1C3
330
1BF
100
AcDbEntity
  8
STANDARDEBENE
 62
     7
100
AcDbVertex
100
AcDb2dVertex
 10
-56.62703449105157
 20
7.127730304207651
 30
0.0
  0
VERTEX
  5
1C4
330
1BF
100
AcDbEntity
  8
STANDARDEBENE
 62
     7
100
AcDbVertex
100
AcDb2dVertex
 10
-56.62703449105157
 20
7.811926267578269
 30
0.0
  0
VERTEX
  5
1C5
330
1BF
100
AcDbEntity
  8
STANDARDEBENE
 62
     7
100
AcDbVertex
100
AcDb2dVertex
 10
-56.62703449105157
 20
8.666654457468754
 30
0.0
  0
VERTEX
  5
1C6
330
1BF
100
AcDbEntity
  8
STANDARDEBENE
 62
     7
100
AcDbVertex
100
AcDb2dVertex
 10
-56.62703449105157
 20
9.675378415549906
 30
0.0
  0
VERTEX
  5
1C7
330
1BF
100
AcDbEntity
  8
STANDARDEBENE
 62
     7
100
AcDbVertex
100
AcDb2dVertex
 10
-56.62703449105157
 20
10.81811658800728
 30
0.0
  0
VERTEX
  5
1C8
330
1BF
100
AcDbEntity
  8
STANDARDEBENE
 62
     7
100
AcDbVertex
100
AcDb2dVertex
 10
-56.62703449105157
 20
12.07006428734707
 30
0.0
  0
VERTEX
  5
1C9
330
1BF
100
AcDbEntity
  8
STANDARDEBENE
 62
     7
100
AcDbVertex
100
AcDb2dVertex
 10
-56.62703449105157
 20
13.406761335624
 30
0.0
  0
VERTEX
  5
1CA
330
1BF
100
AcDbEntity
  8
STANDARDEBENE
 62
     7
100
AcDbVertex
100
AcDb2dVertex
 10
-56.62703449105157
 20
14.80099147850461
 30
0.0
  0
VERTEX
  5
1CB
330
1BF
100
AcDbEntity
  8
STANDARDEBENE
 62
     7
100
AcDbVertex
100
AcDb2dVertex
 10
-56.62703449105157
 20
16.22416042346132
 30
0.0
  0
VERTEX
  5
1CC
330
1BF
100
AcDbEntity
  8
STANDARDEBENE
 62
     7
100
AcDbVertex
100
AcDb2dVertex
 10
-56.62703449105157
 20
17.64732936841803
 30
0.0
  0
VERTEX
  5
1CD
330
1BF
100
AcDbEntity
  8
STANDARDEBENE
 62
     7
100
AcDbVertex
100
AcDb2dVertex
 10
-56.62703449105157
 20
19.04190402084716
 30
0.0
  0
VERTEX
  5
1CE
330
1BF
100
AcDbEntity
  8
STANDARDEBENE
 62
     7
100
AcDbVertex
100
AcDb2dVertex
 10
-56.62703449105157
 20
20.3786010691241
 30
0.0
  0
VERTEX
  5
1CF
330
1BF
100
AcDbEntity
  8
STANDARDEBENE
 62
     7
100
AcDbVertex
100
AcDb2dVertex
 10
-56.62703449105157
 20
21.63020425891537
 30
0.0
  0
VERTEX
  5
1D0
330
1BF
100
AcDbEntity
  8
STANDARDEBENE
 62
     7
100
AcDbVertex
100
AcDb2dVertex
 10
-56.62703449105157
 20
22.77294243137274
 30
0.0
  0
VERTEX
  5
1D1
330
1BF
100
AcDbEntity
  8
STANDARDEBENE
 62
     7
100
AcDbVertex
100
AcDb2dVertex
 10
-56.62703449105157
 20
23.78166638945389
 30
0.0
  0
VERTEX
  5
1D2
330
1BF
100
AcDbEntity
  8
STANDARDEBENE
 62
     7
100
AcDbVertex
100
AcDb2dVertex
 10
-56.62703449105157
 20
24.6367390888929
 30
0.0
  0
VERTEX
  5
1D3
330
1BF
100
AcDbEntity
  8
STANDARDEBENE
 62
     7
100
AcDbVertex
100
AcDb2dVertex
 10
-56.62703449105157
 20
25.32059054271499
 30
0.0
  0
VERTEX
  5
1D4
330
1BF
100
AcDbEntity
  8
STANDARDEBENE
 62
     7
100
AcDbVertex
100
AcDb2dVertex
 10
-56.62703449105157
 20
25.81909585943064
 30
0.0
  0
VERTEX
  5
1D5
330
1BF
100
AcDbEntity
  8
STANDARDEBENE
 62
     7
100
AcDbVertex
100
AcDb2dVertex
 10
-56.62703449105157
 20
26.12260877168115
 30
0.0
  0
VERTEX
  5
1D6
330
1BF
100
AcDbEntity
  8
STANDARDEBENE
 62
     7
100
AcDbVertex
100
AcDb2dVertex
 10
-56.62703449105157
 20
26.22458359804455
 30
0.0
  0
SEQEND
  5
1D7
330
1BF
100
AcDbEntity
  8
STANDARDEBENE
  0
POLYLINE
  5
1D8
330
1F
100
AcDbEntity
  8
STANDARDEBENE
 62
     7
100
AcDb2dPolyline
 66
     1
 10
0.0
 20
0.0
 30
0.0
  0
VERTEX
  5
1D9
330
1D8
100
AcDbEntity
  8
STANDARDEBENE
 62
     7
100
AcDbVertex
100
AcDb2dVertex
 10
-50.03208820363781
 20
12.35118407894345
 30
0.0
  0
VERTEX
  5
1DA
330
1D8
100
AcDbEntity
  8
STANDARDEBENE
 62
     7
100
AcDbVertex
100
AcDb2dVertex
 10
-27.22211099579864
 20
12.35118407894345
 30
0.0
  0
SEQEND
  5
1DB
330
1D8
100
AcDbEntity
  8
STANDARDEBENE
  0
POLYLINE
  5
1DC
330
1F
100
AcDbEntity
  8
STANDARDEBENE
 62
     7
100
AcDb2dPolyline
 66
     1
 10
0.0
 20
0.0
 30
0.0
  0
VERTEX
  5
1DD
330
1DC
100
AcDbEntity
  8
STANDARDEBENE
 62
     7
100
AcDbVertex
100
AcDb2dVertex
 10
-27.22211099579864
 20
20.09713676797919
 30
0.0
  0
VERTEX
  5
1DE
330
1DC
100
AcDbEntity
  8
STANDARDEBENE
 62
     7
100
AcDbVertex
100
AcDb2dVertex
 10
-50.03208820363781
 20
20.09713676797919
 30
0.0
  0
SEQEND
  5
1DF
330
1DC
100
AcDbEntity
  8
STANDARDEBENE
  0
POLYLINE
  5
1E1
330
1F
100
AcDbEntity
  8
BEMAßUNG
 62
     7
100
AcDb2dPolyline
 66
     1
 10
0.0
 20
0.0
 30
0.0
  0
VERTEX
  5
1E2
330
1E1
100
AcDbEntity
  8
BEMAßUNG
 62
     7
100
AcDbVertex
100
AcDb2dVertex
 10
45.45458983238635
 20
32.2235283665101
 30
0.0
  0
VERTEX
  5
1E3
330
1E1
100
AcDbEntity
  8
BEMAßUNG
 62
     7
100
AcDbVertex
100
AcDb2dVertex
 10
51.86522351133925
 20
32.2235283665101
 30
0.0
  0
SEQEND
  5
1E4
330
1E1
100
AcDbEntity
  8
BEMAßUNG
  0
POLYLINE
  5
1E5
330
1F
100
AcDbEntity
  8
BEMAßUNG
 62
     7
100
AcDb2dPolyline
 66
     1
 10
0.0
 20
0.0
 30
0.0
  0
VERTEX
  5
1E6
330
1E5
100
AcDbEntity
  8
BEMAßUNG
 62
     7
100
AcDbVertex
100
AcDb2dVertex
 10
-3.39824218665044
 20
32.2235283665101
 30
0.0
  0
VERTEX
  5
1E7
330
1E5
100
AcDbEntity
  8
BEMAßUNG
 62
     7
100
AcDbVertex
100
AcDb2dVertex
 10
35.63400064213317
 20
32.2235283665101
 30
0.0
  0
SEQEND
  5
1E8
330
1E5
100
AcDbEntity
  8
BEMAßUNG
  0
POLYLINE
  5
1E9
330
1F
100
AcDbEntity
  8
BEMAßUNG
 62
     7
100
AcDb2dPolyline
 66
     1
 10
0.0
 20
0.0
 30
0.0
  0
VERTEX
  5
1EA
330
1E9
100
AcDbEntity
  8
BEMAßUNG
 62
     7
100
AcDbVertex
100
AcDb2dVertex
 10
-3.39824218665044
 20
0.2241034613155019
 30
0.0
  0
VERTEX
  5
1EB
330
1E9
100
AcDbEntity
  8
BEMAßUNG
 62
     7
100
AcDbVertex
100
AcDb2dVertex
 10
51.86522351133925
 20
0.2241034613155019
 30
0.0
  0
SEQEND
  5
1EC
330
1E9
100
AcDbEntity
  8
BEMAßUNG
  0
POLYLINE
  5
1ED
330
1F
100
AcDbEntity
  8
BEMAßUNG
 62
     7
100
AcDb2dPolyline
 66
     1
 10
0.0
 20
0.0
 30
0.0
  0
VERTEX
  5
1EE
330
1ED
100
AcDbEntity
  8
BEMAßUNG
 62
     7
100
AcDbVertex
100
AcDb2dVertex
 10
47.86615667206124
 20
39.3762356129858
 30
0.0
  0
VERTEX
  5
1EF
330
1ED
100
AcDbEntity
  8
BEMAßUNG
 62
     7
100
AcDbVertex
100
AcDb2dVertex
 10
47.86615667206124
 20
0.0800984700320587
 30
0.0
  0
SEQEND
  5
1F0
330
1ED
100
AcDbEntity
  8
BEMAßUNG
  0
POLYLINE
  5
1F1
330
1F
100
AcDbEntity
  8
BEMAßUNG
 62
     7
100
AcDb2dPolyline
 66
     1
 10
0.0
 20
0.0
 30
0.0
  0
VERTEX
  5
1F2
330
1F1
100
AcDbEntity
  8
BEMAßUNG
 62
     7
100
AcDbVertex
100
AcDb2dVertex
 10
47.86615667206124
 20
32.2235283665101
 30
0.0
  0
VERTEX
  5
1F3
330
1F1
100
AcDbEntity
  8
BEMAßUNG
 62
     7
100
AcDbVertex
100
AcDb2dVertex
 10
47.20883245347557
 20
27.22331677921848
 30
0.0
  0
VERTEX
  5
1F4
330
1F1
100
AcDbEntity
  8
BEMAßUNG
 62
     7
100
AcDbVertex
100
AcDb2dVertex
 10
48.52554794793806
 20
27.22331677921848
 30
0.0
  0
VERTEX
  5
1F5
330
1F1
100
AcDbEntity
  8
BEMAßUNG
 62
     7
100
AcDbVertex
100
AcDb2dVertex
 10
47.86615667206124
 20
32.2235283665101
 30
0.0
  0
SEQEND
  5
1F6
330
1F1
100
AcDbEntity
  8
BEMAßUNG
  0
POLYLINE
  5
1F7
330
1F
100
AcDbEntity
  8
BEMAßUNG
 62
     7
100
AcDb2dPolyline
 66
     1
 10
0.0
 20
0.0
 30
0.0
  0
VERTEX
  5
1F8
330
1F7
100
AcDbEntity
  8
BEMAßUNG
 62
     7
100
AcDbVertex
100
AcDb2dVertex
 10
47.25637477117202
 20
27.22331677921848
 30
0.0
  0
VERTEX
  5
1F9
330
1F7
100
AcDbEntity
  8
BEMAßUNG
 62
     7
100
AcDbVertex
100
AcDb2dVertex
 10
47.25637477117202
 20
27.59332003433431
 30
0.0
  0
SEQEND
  5
1FA
330
1F7
100
AcDbEntity
  8
BEMAßUNG
  0
POLYLINE
  5
1FB
330
1F
100
AcDbEntity
  8
BEMAßUNG
 62
     7
100
AcDb2dPolyline
 66
     1
 10
0.0
 20
0.0
 30
0.0
  0
VERTEX
  5
1FC
330
1FB
100
AcDbEntity
  8
BEMAßUNG
 62
     7
100
AcDbVertex
100
AcDb2dVertex
 10
47.25637477117202
 20
27.22331677921848
 30
0.0
  0
VERTEX
  5
1FD
330
1FB
100
AcDbEntity
  8
BEMAßUNG
 62
     7
100
AcDbVertex
100
AcDb2dVertex
 10
47.25637477117202
 20
27.59332003433431
 30
0.0
  0
SEQEND
  5
1FE
330
1FB
100
AcDbEntity
  8
BEMAßUNG
  0
POLYLINE
  5
1FF
330
1F
100
AcDbEntity
  8
BEMAßUNG
 62
     7
100
AcDb2dPolyline
 66
     1
 10
0.0
 20
0.0
 30
0.0
  0
VERTEX
  5
200
330
1FF
100
AcDbEntity
  8
BEMAßUNG
 62
     7
100
AcDbVertex
100
AcDb2dVertex
 10
47.35766057843836
 20
27.22331677921848
 30
0.0
  0
VERTEX
  5
201
330
1FF
100
AcDbEntity
  8
BEMAßUNG
 62
     7
100
AcDbVertex
100
AcDb2dVertex
 10
47.35766057843836
 20
28.36502142303027
 30
0.0
  0
SEQEND
  5
202
330
1FF
100
AcDbEntity
  8
BEMAßUNG
  0
POLYLINE
  5
203
330
1F
100
AcDbEntity
  8
BEMAßUNG
 62
     7
100
AcDb2dPolyline
 66
     1
 10
0.0
 20
0.0
 30
0.0
  0
VERTEX
  5
204
330
203
100
AcDbEntity
  8
BEMAßUNG
 62
     7
100
AcDbVertex
100
AcDb2dVertex
 10
47.45894638570471
 20
27.22331677921848
 30
0.0
  0
VERTEX
  5
205
330
203
100
AcDbEntity
  8
BEMAßUNG
 62
     7
100
AcDbVertex
100
AcDb2dVertex
 10
47.45894638570471
 20
29.13672281172624
 30
0.0
  0
SEQEND
  5
206
330
203
100
AcDbEntity
  8
BEMAßUNG
  0
POLYLINE
  5
207
330
1F
100
AcDbEntity
  8
BEMAßUNG
 62
     7
100
AcDb2dPolyline
 66
     1
 10
0.0
 20
0.0
 30
0.0
  0
VERTEX
  5
208
330
207
100
AcDbEntity
  8
BEMAßUNG
 62
     7
100
AcDbVertex
100
AcDb2dVertex
 10
47.5609212120681
 20
27.22331677921848
 30
0.0
  0
VERTEX
  5
209
330
207
100
AcDbEntity
  8
BEMAßUNG
 62
     7
100
AcDbVertex
100
AcDb2dVertex
 10
47.5609212120681
 20
29.90911321951925
 30
0.0
  0
SEQEND
  5
20A
330
207
100
AcDbEntity
  8
BEMAßUNG
  0
POLYLINE
  5
20B
330
1F
100
AcDbEntity
  8
BEMAßUNG
 62
     7
100
AcDb2dPolyline
 66
     1
 10
0.0
 20
0.0
 30
0.0
  0
VERTEX
  5
20C
330
20B
100
AcDbEntity
  8
BEMAßUNG
 62
     7
100
AcDbVertex
100
AcDb2dVertex
 10
47.66220701933445
 20
27.22331677921848
 30
0.0
  0
VERTEX
  5
20D
330
20B
100
AcDbEntity
  8
BEMAßUNG
 62
     7
100
AcDbVertex
100
AcDb2dVertex
 10
47.66220701933445
 20
30.68012558911817
 30
0.0
  0
SEQEND
  5
20E
330
20B
100
AcDbEntity
  8
BEMAßUNG
  0
POLYLINE
  5
20F
330
1F
100
AcDbEntity
  8
BEMAßUNG
 62
     7
100
AcDb2dPolyline
 66
     1
 10
0.0
 20
0.0
 30
0.0
  0
VERTEX
  5
210
330
20F
100
AcDbEntity
  8
BEMAßUNG
 62
     7
100
AcDbVertex
100
AcDb2dVertex
 10
47.76487086479489
 20
27.22331677921848
 30
0.0
  0
VERTEX
  5
211
330
20F
100
AcDbEntity
  8
BEMAßUNG
 62
     7
100
AcDbVertex
100
AcDb2dVertex
 10
47.76487086479489
 20
31.45182697781413
 30
0.0
  0
SEQEND
  5
212
330
20F
100
AcDbEntity
  8
BEMAßUNG
  0
POLYLINE
  5
213
330
1F
100
AcDbEntity
  8
BEMAßUNG
 62
     7
100
AcDb2dPolyline
 66
     1
 10
0.0
 20
0.0
 30
0.0
  0
VERTEX
  5
214
330
213
100
AcDbEntity
  8
BEMAßUNG
 62
     7
100
AcDbVertex
100
AcDb2dVertex
 10
47.86615667206124
 20
27.22331677921848
 30
0.0
  0
VERTEX
  5
215
330
213
100
AcDbEntity
  8
BEMAßUNG
 62
     7
100
AcDbVertex
100
AcDb2dVertex
 10
47.86615667206124
 20
32.2235283665101
 30
0.0
  0
SEQEND
  5
216
330
213
100
AcDbEntity
  8
BEMAßUNG
  0
POLYLINE
  5
217
330
1F
100
AcDbEntity
  8
BEMAßUNG
 62
     7
100
AcDb2dPolyline
 66
     1
 10
0.0
 20
0.0
 30
0.0
  0
VERTEX
  5
218
330
217
100
AcDbEntity
  8
BEMAßUNG
 62
     7
100
AcDbVertex
100
AcDb2dVertex
 10
48.47662759204751
 20
27.22331677921848
 30
0.0
  0
VERTEX
  5
219
330
217
100
AcDbEntity
  8
BEMAßUNG
 62
     7
100
AcDbVertex
100
AcDb2dVertex
 10
48.47662759204751
 20
27.59332003433431
 30
0.0
  0
SEQEND
  5
21A
330
217
100
AcDbEntity
  8
BEMAßUNG
  0
POLYLINE
  5
21B
330
1F
100
AcDbEntity
  8
BEMAßUNG
 62
     7
100
AcDb2dPolyline
 66
     1
 10
0.0
 20
0.0
 30
0.0
  0
VERTEX
  5
21C
330
21B
100
AcDbEntity
  8
BEMAßUNG
 62
     7
100
AcDbVertex
100
AcDb2dVertex
 10
48.47662759204751
 20
27.22331677921848
 30
0.0
  0
VERTEX
  5
21D
330
21B
100
AcDbEntity
  8
BEMAßUNG
 62
     7
100
AcDbVertex
100
AcDb2dVertex
 10
48.47662759204751
 20
27.59332003433431
 30
0.0
  0
SEQEND
  5
21E
330
21B
100
AcDbEntity
  8
BEMAßUNG
  0
POLYLINE
  5
21F
330
1F
100
AcDbEntity
  8
BEMAßUNG
 62
     7
100
AcDb2dPolyline
 66
     1
 10
0.0
 20
0.0
 30
0.0
  0
VERTEX
  5
220
330
21F
100
AcDbEntity
  8
BEMAßUNG
 62
     7
100
AcDbVertex
100
AcDb2dVertex
 10
48.37465276568412
 20
27.22331677921848
 30
0.0
  0
VERTEX
  5
221
330
21F
100
AcDbEntity
  8
BEMAßUNG
 62
     7
100
AcDbVertex
100
AcDb2dVertex
 10
48.37465276568412
 20
28.36502142303027
 30
0.0
  0
SEQEND
  5
222
330
21F
100
AcDbEntity
  8
BEMAßUNG
  0
POLYLINE
  5
223
330
1F
100
AcDbEntity
  8
BEMAßUNG
 62
     7
100
AcDb2dPolyline
 66
     1
 10
0.0
 20
0.0
 30
0.0
  0
VERTEX
  5
224
330
223
100
AcDbEntity
  8
BEMAßUNG
 62
     7
100
AcDbVertex
100
AcDb2dVertex
 10
48.27198892022367
 20
27.22331677921848
 30
0.0
  0
VERTEX
  5
225
330
223
100
AcDbEntity
  8
BEMAßUNG
 62
     7
100
AcDbVertex
100
AcDb2dVertex
 10
48.27198892022367
 20
29.13672281172624
 30
0.0
  0
SEQEND
  5
226
330
223
100
AcDbEntity
  8
BEMAßUNG
  0
POLYLINE
  5
227
330
1F
100
AcDbEntity
  8
BEMAßUNG
 62
     7
100
AcDb2dPolyline
 66
     1
 10
0.0
 20
0.0
 30
0.0
  0
VERTEX
  5
228
330
227
100
AcDbEntity
  8
BEMAßUNG
 62
     7
100
AcDbVertex
100
AcDb2dVertex
 10
48.17208115115142
 20
27.22331677921848
 30
0.0
  0
VERTEX
  5
229
330
227
100
AcDbEntity
  8
BEMAßUNG
 62
     7
100
AcDbVertex
100
AcDb2dVertex
 10
48.17208115115142
 20
29.90911321951925
 30
0.0
  0
SEQEND
  5
22A
330
227
100
AcDbEntity
  8
BEMAßUNG
  0
POLYLINE
  5
22B
330
1F
100
AcDbEntity
  8
BEMAßUNG
 62
     7
100
AcDb2dPolyline
 66
     1
 10
0.0
 20
0.0
 30
0.0
  0
VERTEX
  5
22C
330
22B
100
AcDbEntity
  8
BEMAßUNG
 62
     7
100
AcDbVertex
100
AcDb2dVertex
 10
48.06941730569098
 20
27.22331677921848
 30
0.0
  0
VERTEX
  5
22D
330
22B
100
AcDbEntity
  8
BEMAßUNG
 62
     7
100
AcDbVertex
100
AcDb2dVertex
 10
48.06941730569098
 20
30.68012558911817
 30
0.0
  0
SEQEND
  5
22E
330
22B
100
AcDbEntity
  8
BEMAßUNG
  0
POLYLINE
  5
22F
330
1F
100
AcDbEntity
  8
BEMAßUNG
 62
     7
100
AcDb2dPolyline
 66
     1
 10
0.0
 20
0.0
 30
0.0
  0
VERTEX
  5
230
330
22F
100
AcDbEntity
  8
BEMAßUNG
 62
     7
100
AcDbVertex
100
AcDb2dVertex
 10
47.96744247932759
 20
27.22331677921848
 30
0.0
  0
VERTEX
  5
231
330
22F
100
AcDbEntity
  8
BEMAßUNG
 62
     7
100
AcDbVertex
100
AcDb2dVertex
 10
47.96744247932759
 20
31.45182697781413
 30
0.0
  0
SEQEND
  5
232
330
22F
100
AcDbEntity
  8
BEMAßUNG
  0
POLYLINE
  5
233
330
1F
100
AcDbEntity
  8
BEMAßUNG
 62
     7
100
AcDb2dPolyline
 66
     1
 10
0.0
 20
0.0
 30
0.0
  0
VERTEX
  5
234
330
233
100
AcDbEntity
  8
BEMAßUNG
 62
     7
100
AcDbVertex
100
AcDb2dVertex
 10
47.86615667206124
 20
27.22331677921848
 30
0.0
  0
VERTEX
  5
235
330
233
100
AcDbEntity
  8
BEMAßUNG
 62
     7
100
AcDbVertex
100
AcDb2dVertex
 10
47.86615667206124
 20
32.2235283665101
 30
0.0
  0
SEQEND
  5
236
330
233
100
AcDbEntity
  8
BEMAßUNG
  0
POLYLINE
  5
237
330
1F
100
AcDbEntity
  8
BEMAßUNG
 62
     7
100
AcDb2dPolyline
 66
     1
 10
0.0
 20
0.0
 30
0.0
  0
VERTEX
  5
238
330
237
100
AcDbEntity
  8
BEMAßUNG
 62
     7
100
AcDbVertex
100
AcDb2dVertex
 10
47.86615667206124
 20
0.2241034613155019
 30
0.0
  0
VERTEX
  5
239
330
237
100
AcDbEntity
  8
BEMAßUNG
 62
     7
100
AcDbVertex
100
AcDb2dVertex
 10
48.52554794793806
 20
5.225004067704166
 30
0.0
  0
VERTEX
  5
23A
330
237
100
AcDbEntity
  8
BEMAßUNG
 62
     7
100
AcDbVertex
100
AcDb2dVertex
 10
47.20883245347557
 20
5.225004067704166
 30
0.0
  0
VERTEX
  5
23B
330
237
100
AcDbEntity
  8
BEMAßUNG
 62
     7
100
AcDbVertex
100
AcDb2dVertex
 10
47.86615667206124
 20
0.2241034613155019
 30
0.0
  0
SEQEND
  5
23C
330
237
100
AcDbEntity
  8
BEMAßUNG
  0
POLYLINE
  5
23D
330
1F
100
AcDbEntity
  8
BEMAßUNG
 62
     7
100
AcDb2dPolyline
 66
     1
 10
0.0
 20
0.0
 30
0.0
  0
VERTEX
  5
23E
330
23D
100
AcDbEntity
  8
BEMAßUNG
 62
     7
100
AcDbVertex
100
AcDb2dVertex
 10
48.47662759204751
 20
5.225004067704166
 30
0.0
  0
VERTEX
  5
23F
330
23D
100
AcDbEntity
  8
BEMAßUNG
 62
     7
100
AcDbVertex
100
AcDb2dVertex
 10
48.47662759204751
 20
4.854311793491283
 30
0.0
  0
SEQEND
  5
240
330
23D
100
AcDbEntity
  8
BEMAßUNG
  0
POLYLINE
  5
241
330
1F
100
AcDbEntity
  8
BEMAßUNG
 62
     7
100
AcDb2dPolyline
 66
     1
 10
0.0
 20
0.0
 30
0.0
  0
VERTEX
  5
242
330
241
100
AcDbEntity
  8
BEMAßUNG
 62
     7
100
AcDbVertex
100
AcDb2dVertex
 10
48.47662759204751
 20
5.225004067704166
 30
0.0
  0
VERTEX
  5
243
330
241
100
AcDbEntity
  8
BEMAßUNG
 62
     7
100
AcDbVertex
100
AcDb2dVertex
 10
48.47662759204751
 20
4.854311793491283
 30
0.0
  0
SEQEND
  5
244
330
241
100
AcDbEntity
  8
BEMAßUNG
  0
POLYLINE
  5
245
330
1F
100
AcDbEntity
  8
BEMAßUNG
 62
     7
100
AcDb2dPolyline
 66
     1
 10
0.0
 20
0.0
 30
0.0
  0
VERTEX
  5
246
330
245
100
AcDbEntity
  8
BEMAßUNG
 62
     7
100
AcDbVertex
100
AcDb2dVertex
 10
48.37465276568412
 20
5.225004067704166
 30
0.0
  0
VERTEX
  5
247
330
245
100
AcDbEntity
  8
BEMAßUNG
 62
     7
100
AcDbVertex
100
AcDb2dVertex
 10
48.37465276568412
 20
4.08261040479532
 30
0.0
  0
SEQEND
  5
248
330
245
100
AcDbEntity
  8
BEMAßUNG
  0
POLYLINE
  5
249
330
1F
100
AcDbEntity
  8
BEMAßUNG
 62
     7
100
AcDb2dPolyline
 66
     1
 10
0.0
 20
0.0
 30
0.0
  0
VERTEX
  5
24A
330
249
100
AcDbEntity
  8
BEMAßUNG
 62
     7
100
AcDbVertex
100
AcDb2dVertex
 10
48.27198892022367
 20
5.225004067704166
 30
0.0
  0
VERTEX
  5
24B
330
249
100
AcDbEntity
  8
BEMAßUNG
 62
     7
100
AcDbVertex
100
AcDb2dVertex
 10
48.27198892022367
 20
3.310909016099356
 30
0.0
  0
SEQEND
  5
24C
330
249
100
AcDbEntity
  8
BEMAßUNG
  0
POLYLINE
  5
24D
330
1F
100
AcDbEntity
  8
BEMAßUNG
 62
     7
100
AcDb2dPolyline
 66
     1
 10
0.0
 20
0.0
 30
0.0
  0
VERTEX
  5
24E
330
24D
100
AcDbEntity
  8
BEMAßUNG
 62
     7
100
AcDbVertex
100
AcDb2dVertex
 10
48.17208115115142
 20
5.225004067704166
 30
0.0
  0
VERTEX
  5
24F
330
24D
100
AcDbEntity
  8
BEMAßUNG
 62
     7
100
AcDbVertex
100
AcDb2dVertex
 10
48.17208115115142
 20
2.538518608306343
 30
0.0
  0
SEQEND
  5
250
330
24D
100
AcDbEntity
  8
BEMAßUNG
  0
POLYLINE
  5
251
330
1F
100
AcDbEntity
  8
BEMAßUNG
 62
     7
100
AcDb2dPolyline
 66
     1
 10
0.0
 20
0.0
 30
0.0
  0
VERTEX
  5
252
330
251
100
AcDbEntity
  8
BEMAßUNG
 62
     7
100
AcDbVertex
100
AcDb2dVertex
 10
48.06941730569098
 20
5.225004067704166
 30
0.0
  0
VERTEX
  5
253
330
251
100
AcDbEntity
  8
BEMAßUNG
 62
     7
100
AcDbVertex
100
AcDb2dVertex
 10
48.06941730569098
 20
1.767506238707429
 30
0.0
  0
SEQEND
  5
254
330
251
100
AcDbEntity
  8
BEMAßUNG
  0
POLYLINE
  5
255
330
1F
100
AcDbEntity
  8
BEMAßUNG
 62
     7
100
AcDb2dPolyline
 66
     1
 10
0.0
 20
0.0
 30
0.0
  0
VERTEX
  5
256
330
255
100
AcDbEntity
  8
BEMAßUNG
 62
     7
100
AcDbVertex
100
AcDb2dVertex
 10
47.96744247932759
 20
5.225004067704166
 30
0.0
  0
VERTEX
  5
257
330
255
100
AcDbEntity
  8
BEMAßUNG
 62
     7
100
AcDbVertex
100
AcDb2dVertex
 10
47.96744247932759
 20
0.9958048500114655
 30
0.0
  0
SEQEND
  5
258
330
255
100
AcDbEntity
  8
BEMAßUNG
  0
POLYLINE
  5
259
330
1F
100
AcDbEntity
  8
BEMAßUNG
 62
     7
100
AcDb2dPolyline
 66
     1
 10
0.0
 20
0.0
 30
0.0
  0
VERTEX
  5
25A
330
259
100
AcDbEntity
  8
BEMAßUNG
 62
     7
100
AcDbVertex
100
AcDb2dVertex
 10
47.86615667206124
 20
5.225004067704166
 30
0.0
  0
VERTEX
  5
25B
330
259
100
AcDbEntity
  8
BEMAßUNG
 62
     7
100
AcDbVertex
100
AcDb2dVertex
 10
47.86615667206124
 20
0.2241034613155019
 30
0.0
  0
SEQEND
  5
25C
330
259
100
AcDbEntity
  8
BEMAßUNG
  0
POLYLINE
  5
25D
330
1F
100
AcDbEntity
  8
BEMAßUNG
 62
     7
100
AcDb2dPolyline
 66
     1
 10
0.0
 20
0.0
 30
0.0
  0
VERTEX
  5
25E
330
25D
100
AcDbEntity
  8
BEMAßUNG
 62
     7
100
AcDbVertex
100
AcDb2dVertex
 10
47.25637477117202
 20
5.225004067704166
 30
0.0
  0
VERTEX
  5
25F
330
25D
100
AcDbEntity
  8
BEMAßUNG
 62
     7
100
AcDbVertex
100
AcDb2dVertex
 10
47.25637477117202
 20
4.854311793491283
 30
0.0
  0
SEQEND
  5
260
330
25D
100
AcDbEntity
  8
BEMAßUNG
  0
POLYLINE
  5
261
330
1F
100
AcDbEntity
  8
BEMAßUNG
 62
     7
100
AcDb2dPolyline
 66
     1
 10
0.0
 20
0.0
 30
0.0
  0
VERTEX
  5
262
330
261
100
AcDbEntity
  8
BEMAßUNG
 62
     7
100
AcDbVertex
100
AcDb2dVertex
 10
47.25637477117202
 20
5.225004067704166
 30
0.0
  0
VERTEX
  5
263
330
261
100
AcDbEntity
  8
BEMAßUNG
 62
     7
100
AcDbVertex
100
AcDb2dVertex
 10
47.25637477117202
 20
4.854311793491283
 30
0.0
  0
SEQEND
  5
264
330
261
100
AcDbEntity
  8
BEMAßUNG
  0
POLYLINE
  5
265
330
1F
100
AcDbEntity
  8
BEMAßUNG
 62
     7
100
AcDb2dPolyline
 66
     1
 10
0.0
 20
0.0
 30
0.0
  0
VERTEX
  5
266
330
265
100
AcDbEntity
  8
BEMAßUNG
 62
     7
100
AcDbVertex
100
AcDb2dVertex
 10
47.35766057843836
 20
5.225004067704166
 30
0.0
  0
VERTEX
  5
267
330
265
100
AcDbEntity
  8
BEMAßUNG
 62
     7
100
AcDbVertex
100
AcDb2dVertex
 10
47.35766057843836
 20
4.08261040479532
 30
0.0
  0
SEQEND
  5
268
330
265
100
AcDbEntity
  8
BEMAßUNG
  0
POLYLINE
  5
269
330
1F
100
AcDbEntity
  8
BEMAßUNG
 62
     7
100
AcDb2dPolyline
 66
     1
 10
0.0
 20
0.0
 30
0.0
  0
VERTEX
  5
26A
330
269
100
AcDbEntity
  8
BEMAßUNG
 62
     7
100
AcDbVertex
100
AcDb2dVertex
 10
47.45894638570471
 20
5.225004067704166
 30
0.0
  0
VERTEX
  5
26B
330
269
100
AcDbEntity
  8
BEMAßUNG
 62
     7
100
AcDbVertex
100
AcDb2dVertex
 10
47.45894638570471
 20
3.310909016099356
 30
0.0
  0
SEQEND
  5
26C
330
269
100
AcDbEntity
  8
BEMAßUNG
  0
POLYLINE
  5
26D
330
1F
100
AcDbEntity
  8
BEMAßUNG
 62
     7
100
AcDb2dPolyline
 66
     1
 10
0.0
 20
0.0
 30
0.0
  0
VERTEX
  5
26E
330
26D
100
AcDbEntity
  8
BEMAßUNG
 62
     7
100
AcDbVertex
100
AcDb2dVertex
 10
47.5609212120681
 20
5.225004067704166
 30
0.0
  0
VERTEX
  5
26F
330
26D
100
AcDbEntity
  8
BEMAßUNG
 62
     7
100
AcDbVertex
100
AcDb2dVertex
 10
47.5609212120681
 20
2.538518608306343
 30
0.0
  0
SEQEND
  5
270
330
26D
100
AcDbEntity
  8
BEMAßUNG
  0
POLYLINE
  5
271
330
1F
100
AcDbEntity
  8
BEMAßUNG
 62
     7
100
AcDb2dPolyline
 66
     1
 10
0.0
 20
0.0
 30
0.0
  0
VERTEX
  5
272
330
271
100
AcDbEntity
  8
BEMAßUNG
 62
     7
100
AcDbVertex
100
AcDb2dVertex
 10
47.66220701933445
 20
5.225004067704166
 30
0.0
  0
VERTEX
  5
273
330
271
100
AcDbEntity
  8
BEMAßUNG
 62
     7
100
AcDbVertex
100
AcDb2dVertex
 10
47.66220701933445
 20
1.767506238707429
 30
0.0
  0
SEQEND
  5
274
330
271
100
AcDbEntity
  8
BEMAßUNG
  0
POLYLINE
  5
275
330
1F
100
AcDbEntity
  8
BEMAßUNG
 62
     7
100
AcDb2dPolyline
 66
     1
 10
0.0
 20
0.0
 30
0.0
  0
VERTEX
  5
276
330
275
100
AcDbEntity
  8
BEMAßUNG
 62
     7
100
AcDbVertex
100
AcDb2dVertex
 10
47.76487086479489
 20
5.225004067704166
 30
0.0
  0
VERTEX
  5
277
330
275
100
AcDbEntity
  8
BEMAßUNG
 62
     7
100
AcDbVertex
100
AcDb2dVertex
 10
47.76487086479489
 20
0.9958048500114655
 30
0.0
  0
SEQEND
  5
278
330
275
100
AcDbEntity
  8
BEMAßUNG
  0
POLYLINE
  5
279
330
1F
100
AcDbEntity
  8
BEMAßUNG
 62
     7
100
AcDb2dPolyline
 66
     1
 10
0.0
 20
0.0
 30
0.0
  0
VERTEX
  5
27A
330
279
100
AcDbEntity
  8
BEMAßUNG
 62
     7
100
AcDbVertex
100
AcDb2dVertex
 10
47.86615667206124
 20
5.225004067704166
 30
0.0
  0
VERTEX
  5
27B
330
279
100
AcDbEntity
  8
BEMAßUNG
 62
     7
100
AcDbVertex
100
AcDb2dVertex
 10
47.86615667206124
 20
0.2241034613155019
 30
0.0
  0
SEQEND
  5
27C
330
279
100
AcDbEntity
  8
BEMAßUNG
  0
POLYLINE
  5
27D
330
1F
100
AcDbEntity
  8
BEMAßUNG
 62
     7
100
AcDb2dPolyline
 66
     1
 10
0.0
 20
0.0
 30
0.0
  0
VERTEX
  5
27E
330
27D
100
AcDbEntity
  8
BEMAßUNG
 62
     7
100
AcDbVertex
100
AcDb2dVertex
 10
-74.39597573009893
 20
24.22332763066292
 30
0.0
  0
VERTEX
  5
27F
330
27D
100
AcDbEntity
  8
BEMAßUNG
 62
     7
100
AcDbVertex
100
AcDb2dVertex
 10
-99.07870684371991
 20
24.22332763066292
 30
0.0
  0
SEQEND
  5
280
330
27D
100
AcDbEntity
  8
BEMAßUNG
  0
POLYLINE
  5
281
330
1F
100
AcDbEntity
  8
BEMAßUNG
 62
     7
100
AcDb2dPolyline
 66
     1
 10
0.0
 20
0.0
 30
0.0
  0
VERTEX
  5
282
330
281
100
AcDbEntity
  8
BEMAßUNG
 62
     7
100
AcDbVertex
100
AcDb2dVertex
 10
-74.39597573009893
 20
8.223615178065625
 30
0.0
  0
VERTEX
  5
283
330
281
100
AcDbEntity
  8
BEMAßUNG
 62
     7
100
AcDbVertex
100
AcDb2dVertex
 10
-99.07870684371991
 20
8.223615178065625
 30
0.0
  0
SEQEND
  5
284
330
281
100
AcDbEntity
  8
BEMAßUNG
  0
POLYLINE
  5
285
330
1F
100
AcDbEntity
  8
BEMAßUNG
 62
     7
100
AcDb2dPolyline
 66
     1
 10
0.0
 20
0.0
 30
0.0
  0
VERTEX
  5
286
330
285
100
AcDbEntity
  8
BEMAßUNG
 62
     7
100
AcDbVertex
100
AcDb2dVertex
 10
-95.0796400044419
 20
24.22332763066292
 30
0.0
  0
VERTEX
  5
287
330
285
100
AcDbEntity
  8
BEMAßUNG
 62
     7
100
AcDbVertex
100
AcDb2dVertex
 10
-95.0796400044419
 20
8.223615178065625
 30
0.0
  0
SEQEND
  5
288
330
285
100
AcDbEntity
  8
BEMAßUNG
  0
POLYLINE
  5
289
330
1F
100
AcDbEntity
  8
BEMAßUNG
 62
     7
100
AcDb2dPolyline
 66
     1
 10
0.0
 20
0.0
 30
0.0
  0
VERTEX
  5
28A
330
289
100
AcDbEntity
  8
BEMAßUNG
 62
     7
100
AcDbVertex
100
AcDb2dVertex
 10
-95.0796400044419
 20
24.22332763066292
 30
0.0
  0
VERTEX
  5
28B
330
289
100
AcDbEntity
  8
BEMAßUNG
 62
     7
100
AcDbVertex
100
AcDb2dVertex
 10
-95.73834226122167
 20
19.22380506246835
 30
0.0
  0
VERTEX
  5
28C
330
289
100
AcDbEntity
  8
BEMAßUNG
 62
     7
100
AcDbVertex
100
AcDb2dVertex
 10
-94.42093774766214
 20
19.22380506246835
 30
0.0
  0
VERTEX
  5
28D
330
289
100
AcDbEntity
  8
BEMAßUNG
 62
     7
100
AcDbVertex
100
AcDb2dVertex
 10
-95.0796400044419
 20
24.22332763066292
 30
0.0
  0
SEQEND
  5
28E
330
289
100
AcDbEntity
  8
BEMAßUNG
  0
POLYLINE
  5
28F
330
1F
100
AcDbEntity
  8
BEMAßUNG
 62
     7
100
AcDb2dPolyline
 66
     1
 10
0.0
 20
0.0
 30
0.0
  0
VERTEX
  5
290
330
28F
100
AcDbEntity
  8
BEMAßUNG
 62
     7
100
AcDbVertex
100
AcDb2dVertex
 10
-95.68873288623408
 20
19.22380506246835
 30
0.0
  0
VERTEX
  5
291
330
28F
100
AcDbEntity
  8
BEMAßUNG
 62
     7
100
AcDbVertex
100
AcDb2dVertex
 10
-95.68873288623408
 20
19.59380831758419
 30
0.0
  0
SEQEND
  5
292
330
28F
100
AcDbEntity
  8
BEMAßUNG
  0
POLYLINE
  5
293
330
1F
100
AcDbEntity
  8
BEMAßUNG
 62
     7
100
AcDb2dPolyline
 66
     1
 10
0.0
 20
0.0
 30
0.0
  0
VERTEX
  5
294
330
293
100
AcDbEntity
  8
BEMAßUNG
 62
     7
100
AcDbVertex
100
AcDb2dVertex
 10
-95.68873288623408
 20
19.22380506246835
 30
0.0
  0
VERTEX
  5
295
330
293
100
AcDbEntity
  8
BEMAßUNG
 62
     7
100
AcDbVertex
100
AcDb2dVertex
 10
-95.68873288623408
 20
19.59380831758419
 30
0.0
  0
SEQEND
  5
296
330
293
100
AcDbEntity
  8
BEMAßUNG
  0
POLYLINE
  5
297
330
1F
100
AcDbEntity
  8
BEMAßUNG
 62
     7
100
AcDb2dPolyline
 66
     1
 10
0.0
 20
0.0
 30
0.0
  0
VERTEX
  5
298
330
297
100
AcDbEntity
  8
BEMAßUNG
 62
     7
100
AcDbVertex
100
AcDb2dVertex
 10
-95.58744707896773
 20
19.22380506246835
 30
0.0
  0
VERTEX
  5
299
330
297
100
AcDbEntity
  8
BEMAßUNG
 62
     7
100
AcDbVertex
100
AcDb2dVertex
 10
-95.58744707896773
 20
20.3648206871831
 30
0.0
  0
SEQEND
  5
29A
330
297
100
AcDbEntity
  8
BEMAßUNG
  0
POLYLINE
  5
29B
330
1F
100
AcDbEntity
  8
BEMAßUNG
 62
     7
100
AcDb2dPolyline
 66
     1
 10
0.0
 20
0.0
 30
0.0
  0
VERTEX
  5
29C
330
29B
100
AcDbEntity
  8
BEMAßUNG
 62
     7
100
AcDbVertex
100
AcDb2dVertex
 10
-95.48478323350729
 20
19.22380506246835
 30
0.0
  0
VERTEX
  5
29D
330
29B
100
AcDbEntity
  8
BEMAßUNG
 62
     7
100
AcDbVertex
100
AcDb2dVertex
 10
-95.48478323350729
 20
21.13652207587906
 30
0.0
  0
SEQEND
  5
29E
330
29B
100
AcDbEntity
  8
BEMAßUNG
  0
POLYLINE
  5
29F
330
1F
100
AcDbEntity
  8
BEMAßUNG
 62
     7
100
AcDb2dPolyline
 66
     1
 10
0.0
 20
0.0
 30
0.0
  0
VERTEX
  5
2A0
330
29F
100
AcDbEntity
  8
BEMAßUNG
 62
     7
100
AcDbVertex
100
AcDb2dVertex
 10
-95.38349742624094
 20
19.22380506246835
 30
0.0
  0
VERTEX
  5
2A1
330
29F
100
AcDbEntity
  8
BEMAßUNG
 62
     7
100
AcDbVertex
100
AcDb2dVertex
 10
-95.38349742624094
 20
21.90753444547798
 30
0.0
  0
SEQEND
  5
2A2
330
29F
100
AcDbEntity
  8
BEMAßUNG
  0
POLYLINE
  5
2A3
330
1F
100
AcDbEntity
  8
BEMAßUNG
 62
     7
100
AcDb2dPolyline
 66
     1
 10
0.0
 20
0.0
 30
0.0
  0
VERTEX
  5
2A4
330
2A3
100
AcDbEntity
  8
BEMAßUNG
 62
     7
100
AcDbVertex
100
AcDb2dVertex
 10
-95.28290063807164
 20
19.22380506246835
 30
0.0
  0
VERTEX
  5
2A5
330
2A3
100
AcDbEntity
  8
BEMAßUNG
 62
     7
100
AcDbVertex
100
AcDb2dVertex
 10
-95.28290063807164
 20
22.68061387236804
 30
0.0
  0
SEQEND
  5
2A6
330
2A3
100
AcDbEntity
  8
BEMAßUNG
  0
POLYLINE
  5
2A7
330
1F
100
AcDbEntity
  8
BEMAßUNG
 62
     7
100
AcDb2dPolyline
 66
     1
 10
0.0
 20
0.0
 30
0.0
  0
VERTEX
  5
2A8
330
2A7
100
AcDbEntity
  8
BEMAßUNG
 62
     7
100
AcDbVertex
100
AcDb2dVertex
 10
-95.1816148308053
 20
19.22380506246835
 30
0.0
  0
VERTEX
  5
2A9
330
2A7
100
AcDbEntity
  8
BEMAßUNG
 62
     7
100
AcDbVertex
100
AcDb2dVertex
 10
-95.1816148308053
 20
23.45162624196696
 30
0.0
  0
SEQEND
  5
2AA
330
2A7
100
AcDbEntity
  8
BEMAßUNG
  0
POLYLINE
  5
2AB
330
1F
100
AcDbEntity
  8
BEMAßUNG
 62
     7
100
AcDb2dPolyline
 66
     1
 10
0.0
 20
0.0
 30
0.0
  0
VERTEX
  5
2AC
330
2AB
100
AcDbEntity
  8
BEMAßUNG
 62
     7
100
AcDbVertex
100
AcDb2dVertex
 10
-95.0796400044419
 20
19.22380506246835
 30
0.0
  0
VERTEX
  5
2AD
330
2AB
100
AcDbEntity
  8
BEMAßUNG
 62
     7
100
AcDbVertex
100
AcDb2dVertex
 10
-95.0796400044419
 20
24.22332763066292
 30
0.0
  0
SEQEND
  5
2AE
330
2AB
100
AcDbEntity
  8
BEMAßUNG
  0
POLYLINE
  5
2AF
330
1F
100
AcDbEntity
  8
BEMAßUNG
 62
     7
100
AcDb2dPolyline
 66
     1
 10
0.0
 20
0.0
 30
0.0
  0
VERTEX
  5
2B0
330
2AF
100
AcDbEntity
  8
BEMAßUNG
 62
     7
100
AcDbVertex
100
AcDb2dVertex
 10
-94.46916908445563
 20
19.22380506246835
 30
0.0
  0
VERTEX
  5
2B1
330
2AF
100
AcDbEntity
  8
BEMAßUNG
 62
     7
100
AcDbVertex
100
AcDb2dVertex
 10
-94.46916908445563
 20
19.59380831758419
 30
0.0
  0
SEQEND
  5
2B2
330
2AF
100
AcDbEntity
  8
BEMAßUNG
  0
POLYLINE
  5
2B3
330
1F
100
AcDbEntity
  8
BEMAßUNG
 62
     7
100
AcDb2dPolyline
 66
     1
 10
0.0
 20
0.0
 30
0.0
  0
VERTEX
  5
2B4
330
2B3
100
AcDbEntity
  8
BEMAßUNG
 62
     7
100
AcDbVertex
100
AcDb2dVertex
 10
-94.46916908445563
 20
19.22380506246835
 30
0.0
  0
VERTEX
  5
2B5
330
2B3
100
AcDbEntity
  8
BEMAßUNG
 62
     7
100
AcDbVertex
100
AcDb2dVertex
 10
-94.46916908445563
 20
19.59380831758419
 30
0.0
  0
SEQEND
  5
2B6
330
2B3
100
AcDbEntity
  8
BEMAßUNG
  0
POLYLINE
  5
2B7
330
1F
100
AcDbEntity
  8
BEMAßUNG
 62
     7
100
AcDb2dPolyline
 66
     1
 10
0.0
 20
0.0
 30
0.0
  0
VERTEX
  5
2B8
330
2B7
100
AcDbEntity
  8
BEMAßUNG
 62
     7
100
AcDbVertex
100
AcDb2dVertex
 10
-94.57114391081902
 20
19.22380506246835
 30
0.0
  0
VERTEX
  5
2B9
330
2B7
100
AcDbEntity
  8
BEMAßUNG
 62
     7
100
AcDbVertex
100
AcDb2dVertex
 10
-94.57114391081902
 20
20.3648206871831
 30
0.0
  0
SEQEND
  5
2BA
330
2B7
100
AcDbEntity
  8
BEMAßUNG
  0
POLYLINE
  5
2BB
330
1F
100
AcDbEntity
  8
BEMAßUNG
 62
     7
100
AcDb2dPolyline
 66
     1
 10
0.0
 20
0.0
 30
0.0
  0
VERTEX
  5
2BC
330
2BB
100
AcDbEntity
  8
BEMAßUNG
 62
     7
100
AcDbVertex
100
AcDb2dVertex
 10
-94.67174069898832
 20
19.22380506246835
 30
0.0
  0
VERTEX
  5
2BD
330
2BB
100
AcDbEntity
  8
BEMAßUNG
 62
     7
100
AcDbVertex
100
AcDb2dVertex
 10
-94.67174069898832
 20
21.13652207587906
 30
0.0
  0
SEQEND
  5
2BE
330
2BB
100
AcDbEntity
  8
BEMAßUNG
  0
POLYLINE
  5
2BF
330
1F
100
AcDbEntity
  8
BEMAßUNG
 62
     7
100
AcDb2dPolyline
 66
     1
 10
0.0
 20
0.0
 30
0.0
  0
VERTEX
  5
2C0
330
2BF
100
AcDbEntity
  8
BEMAßUNG
 62
     7
100
AcDbVertex
100
AcDb2dVertex
 10
-94.77440454444877
 20
19.22380506246835
 30
0.0
  0
VERTEX
  5
2C1
330
2BF
100
AcDbEntity
  8
BEMAßUNG
 62
     7
100
AcDbVertex
100
AcDb2dVertex
 10
-94.77440454444877
 20
21.90753444547798
 30
0.0
  0
SEQEND
  5
2C2
330
2BF
100
AcDbEntity
  8
BEMAßUNG
  0
POLYLINE
  5
2C3
330
1F
100
AcDbEntity
  8
BEMAßUNG
 62
     7
100
AcDb2dPolyline
 66
     1
 10
0.0
 20
0.0
 30
0.0
  0
VERTEX
  5
2C4
330
2C3
100
AcDbEntity
  8
BEMAßUNG
 62
     7
100
AcDbVertex
100
AcDb2dVertex
 10
-94.87637937081216
 20
19.22380506246835
 30
0.0
  0
VERTEX
  5
2C5
330
2C3
100
AcDbEntity
  8
BEMAßUNG
 62
     7
100
AcDbVertex
100
AcDb2dVertex
 10
-94.87637937081216
 20
22.68061387236804
 30
0.0
  0
SEQEND
  5
2C6
330
2C3
100
AcDbEntity
  8
BEMAßUNG
  0
POLYLINE
  5
2C7
330
1F
100
AcDbEntity
  8
BEMAßUNG
 62
     7
100
AcDb2dPolyline
 66
     1
 10
0.0
 20
0.0
 30
0.0
  0
VERTEX
  5
2C8
330
2C7
100
AcDbEntity
  8
BEMAßUNG
 62
     7
100
AcDbVertex
100
AcDb2dVertex
 10
-94.97766517807851
 20
19.22380506246835
 30
0.0
  0
VERTEX
  5
2C9
330
2C7
100
AcDbEntity
  8
BEMAßUNG
 62
     7
100
AcDbVertex
100
AcDb2dVertex
 10
-94.97766517807851
 20
23.45162624196696
 30
0.0
  0
SEQEND
  5
2CA
330
2C7
100
AcDbEntity
  8
BEMAßUNG
  0
POLYLINE
  5
2CB
330
1F
100
AcDbEntity
  8
BEMAßUNG
 62
     7
100
AcDb2dPolyline
 66
     1
 10
0.0
 20
0.0
 30
0.0
  0
VERTEX
  5
2CC
330
2CB
100
AcDbEntity
  8
BEMAßUNG
 62
     7
100
AcDbVertex
100
AcDb2dVertex
 10
-95.0796400044419
 20
19.22380506246835
 30
0.0
  0
VERTEX
  5
2CD
330
2CB
100
AcDbEntity
  8
BEMAßUNG
 62
     7
100
AcDbVertex
100
AcDb2dVertex
 10
-95.0796400044419
 20
24.22332763066292
 30
0.0
  0
SEQEND
  5
2CE
330
2CB
100
AcDbEntity
  8
BEMAßUNG
  0
POLYLINE
  5
2CF
330
1F
100
AcDbEntity
  8
BEMAßUNG
 62
     7
100
AcDb2dPolyline
 66
     1
 10
0.0
 20
0.0
 30
0.0
  0
VERTEX
  5
2D0
330
2CF
100
AcDbEntity
  8
BEMAßUNG
 62
     7
100
AcDbVertex
100
AcDb2dVertex
 10
-95.0796400044419
 20
8.223615178065625
 30
0.0
  0
VERTEX
  5
2D1
330
2CF
100
AcDbEntity
  8
BEMAßUNG
 62
     7
100
AcDbVertex
100
AcDb2dVertex
 10
-94.42093774766214
 20
13.22382676535724
 30
0.0
  0
VERTEX
  5
2D2
330
2CF
100
AcDbEntity
  8
BEMAßUNG
 62
     7
100
AcDbVertex
100
AcDb2dVertex
 10
-95.73834226122167
 20
13.22382676535724
 30
0.0
  0
VERTEX
  5
2D3
330
2CF
100
AcDbEntity
  8
BEMAßUNG
 62
     7
100
AcDbVertex
100
AcDb2dVertex
 10
-95.0796400044419
 20
8.223615178065625
 30
0.0
  0
SEQEND
  5
2D4
330
2CF
100
AcDbEntity
  8
BEMAßUNG
  0
POLYLINE
  5
2D5
330
1F
100
AcDbEntity
  8
BEMAßUNG
 62
     7
100
AcDb2dPolyline
 66
     1
 10
0.0
 20
0.0
 30
0.0
  0
VERTEX
  5
2D6
330
2D5
100
AcDbEntity
  8
BEMAßUNG
 62
     7
100
AcDbVertex
100
AcDb2dVertex
 10
-94.46916908445563
 20
13.22382676535724
 30
0.0
  0
VERTEX
  5
2D7
330
2D5
100
AcDbEntity
  8
BEMAßUNG
 62
     7
100
AcDbVertex
100
AcDb2dVertex
 10
-94.46916908445563
 20
12.85382351024141
 30
0.0
  0
SEQEND
  5
2D8
330
2D5
100
AcDbEntity
  8
BEMAßUNG
  0
POLYLINE
  5
2D9
330
1F
100
AcDbEntity
  8
BEMAßUNG
 62
     7
100
AcDb2dPolyline
 66
     1
 10
0.0
 20
0.0
 30
0.0
  0
VERTEX
  5
2DA
330
2D9
100
AcDbEntity
  8
BEMAßUNG
 62
     7
100
AcDbVertex
100
AcDb2dVertex
 10
-94.46916908445563
 20
13.22382676535724
 30
0.0
  0
VERTEX
  5
2DB
330
2D9
100
AcDbEntity
  8
BEMAßUNG
 62
     7
100
AcDbVertex
100
AcDb2dVertex
 10
-94.46916908445563
 20
12.85382351024141
 30
0.0
  0
SEQEND
  5
2DC
330
2D9
100
AcDbEntity
  8
BEMAßUNG
  0
POLYLINE
  5
2DD
330
1F
100
AcDbEntity
  8
BEMAßUNG
 62
     7
100
AcDb2dPolyline
 66
     1
 10
0.0
 20
0.0
 30
0.0
  0
VERTEX
  5
2DE
330
2DD
100
AcDbEntity
  8
BEMAßUNG
 62
     7
100
AcDbVertex
100
AcDb2dVertex
 10
-94.57114391081902
 20
13.22382676535724
 30
0.0
  0
VERTEX
  5
2DF
330
2DD
100
AcDbEntity
  8
BEMAßUNG
 62
     7
100
AcDbVertex
100
AcDb2dVertex
 10
-94.57114391081902
 20
12.08212212154544
 30
0.0
  0
SEQEND
  5
2E0
330
2DD
100
AcDbEntity
  8
BEMAßUNG
  0
POLYLINE
  5
2E1
330
1F
100
AcDbEntity
  8
BEMAßUNG
 62
     7
100
AcDb2dPolyline
 66
     1
 10
0.0
 20
0.0
 30
0.0
  0
VERTEX
  5
2E2
330
2E1
100
AcDbEntity
  8
BEMAßUNG
 62
     7
100
AcDbVertex
100
AcDb2dVertex
 10
-94.67174069898832
 20
13.22382676535724
 30
0.0
  0
VERTEX
  5
2E3
330
2E1
100
AcDbEntity
  8
BEMAßUNG
 62
     7
100
AcDbVertex
100
AcDb2dVertex
 10
-94.67174069898832
 20
11.31042073284948
 30
0.0
  0
SEQEND
  5
2E4
330
2E1
100
AcDbEntity
  8
BEMAßUNG
  0
POLYLINE
  5
2E5
330
1F
100
AcDbEntity
  8
BEMAßUNG
 62
     7
100
AcDb2dPolyline
 66
     1
 10
0.0
 20
0.0
 30
0.0
  0
VERTEX
  5
2E6
330
2E5
100
AcDbEntity
  8
BEMAßUNG
 62
     7
100
AcDbVertex
100
AcDb2dVertex
 10
-94.77440454444877
 20
13.22382676535724
 30
0.0
  0
VERTEX
  5
2E7
330
2E5
100
AcDbEntity
  8
BEMAßUNG
 62
     7
100
AcDbVertex
100
AcDb2dVertex
 10
-94.77440454444877
 20
10.53940836325057
 30
0.0
  0
SEQEND
  5
2E8
330
2E5
100
AcDbEntity
  8
BEMAßUNG
  0
POLYLINE
  5
2E9
330
1F
100
AcDbEntity
  8
BEMAßUNG
 62
     7
100
AcDb2dPolyline
 66
     1
 10
0.0
 20
0.0
 30
0.0
  0
VERTEX
  5
2EA
330
2E9
100
AcDbEntity
  8
BEMAßUNG
 62
     7
100
AcDbVertex
100
AcDb2dVertex
 10
-94.87637937081216
 20
13.22382676535724
 30
0.0
  0
VERTEX
  5
2EB
330
2E9
100
AcDbEntity
  8
BEMAßUNG
 62
     7
100
AcDbVertex
100
AcDb2dVertex
 10
-94.87637937081216
 20
9.767017955457552
 30
0.0
  0
SEQEND
  5
2EC
330
2E9
100
AcDbEntity
  8
BEMAßUNG
  0
POLYLINE
  5
2ED
330
1F
100
AcDbEntity
  8
BEMAßUNG
 62
     7
100
AcDb2dPolyline
 66
     1
 10
0.0
 20
0.0
 30
0.0
  0
VERTEX
  5
2EE
330
2ED
100
AcDbEntity
  8
BEMAßUNG
 62
     7
100
AcDbVertex
100
AcDb2dVertex
 10
-94.97766517807851
 20
13.22382676535724
 30
0.0
  0
VERTEX
  5
2EF
330
2ED
100
AcDbEntity
  8
BEMAßUNG
 62
     7
100
AcDbVertex
100
AcDb2dVertex
 10
-94.97766517807851
 20
8.995316566761588
 30
0.0
  0
SEQEND
  5
2F0
330
2ED
100
AcDbEntity
  8
BEMAßUNG
  0
POLYLINE
  5
2F1
330
1F
100
AcDbEntity
  8
BEMAßUNG
 62
     7
100
AcDb2dPolyline
 66
     1
 10
0.0
 20
0.0
 30
0.0
  0
VERTEX
  5
2F2
330
2F1
100
AcDbEntity
  8
BEMAßUNG
 62
     7
100
AcDbVertex
100
AcDb2dVertex
 10
-95.0796400044419
 20
13.22382676535724
 30
0.0
  0
VERTEX
  5
2F3
330
2F1
100
AcDbEntity
  8
BEMAßUNG
 62
     7
100
AcDbVertex
100
AcDb2dVertex
 10
-95.0796400044419
 20
8.223615178065625
 30
0.0
  0
SEQEND
  5
2F4
330
2F1
100
AcDbEntity
  8
BEMAßUNG
  0
POLYLINE
  5
2F5
330
1F
100
AcDbEntity
  8
BEMAßUNG
 62
     7
100
AcDb2dPolyline
 66
     1
 10
0.0
 20
0.0
 30
0.0
  0
VERTEX
  5
2F6
330
2F5
100
AcDbEntity
  8
BEMAßUNG
 62
     7
100
AcDbVertex
100
AcDb2dVertex
 10
-95.68873288623408
 20
13.22382676535724
 30
0.0
  0
VERTEX
  5
2F7
330
2F5
100
AcDbEntity
  8
BEMAßUNG
 62
     7
100
AcDbVertex
100
AcDb2dVertex
 10
-95.68873288623408
 20
12.85382351024141
 30
0.0
  0
SEQEND
  5
2F8
330
2F5
100
AcDbEntity
  8
BEMAßUNG
  0
POLYLINE
  5
2F9
330
1F
100
AcDbEntity
  8
BEMAßUNG
 62
     7
100
AcDb2dPolyline
 66
     1
 10
0.0
 20
0.0
 30
0.0
  0
VERTEX
  5
2FA
330
2F9
100
AcDbEntity
  8
BEMAßUNG
 62
     7
100
AcDbVertex
100
AcDb2dVertex
 10
-95.68873288623408
 20
13.22382676535724
 30
0.0
  0
VERTEX
  5
2FB
330
2F9
100
AcDbEntity
  8
BEMAßUNG
 62
     7
100
AcDbVertex
100
AcDb2dVertex
 10
-95.68873288623408
 20
12.85382351024141
 30
0.0
  0
SEQEND
  5
2FC
330
2F9
100
AcDbEntity
  8
BEMAßUNG
  0
POLYLINE
  5
2FD
330
1F
100
AcDbEntity
  8
BEMAßUNG
 62
     7
100
AcDb2dPolyline
 66
     1
 10
0.0
 20
0.0
 30
0.0
  0
VERTEX
  5
2FE
330
2FD
100
AcDbEntity
  8
BEMAßUNG
 62
     7
100
AcDbVertex
100
AcDb2dVertex
 10
-95.58744707896773
 20
13.22382676535724
 30
0.0
  0
VERTEX
  5
2FF
330
2FD
100
AcDbEntity
  8
BEMAßUNG
 62
     7
100
AcDbVertex
100
AcDb2dVertex
 10
-95.58744707896773
 20
12.08212212154544
 30
0.0
  0
SEQEND
  5
300
330
2FD
100
AcDbEntity
  8
BEMAßUNG
  0
POLYLINE
  5
301
330
1F
100
AcDbEntity
  8
BEMAßUNG
 62
     7
100
AcDb2dPolyline
 66
     1
 10
0.0
 20
0.0
 30
0.0
  0
VERTEX
  5
302
330
301
100
AcDbEntity
  8
BEMAßUNG
 62
     7
100
AcDbVertex
100
AcDb2dVertex
 10
-95.48478323350729
 20
13.22382676535724
 30
0.0
  0
VERTEX
  5
303
330
301
100
AcDbEntity
  8
BEMAßUNG
 62
     7
100
AcDbVertex
100
AcDb2dVertex
 10
-95.48478323350729
 20
11.31042073284948
 30
0.0
  0
SEQEND
  5
304
330
301
100
AcDbEntity
  8
BEMAßUNG
  0
POLYLINE
  5
305
330
1F
100
AcDbEntity
  8
BEMAßUNG
 62
     7
100
AcDb2dPolyline
 66
     1
 10
0.0
 20
0.0
 30
0.0
  0
VERTEX
  5
306
330
305
100
AcDbEntity
  8
BEMAßUNG
 62
     7
100
AcDbVertex
100
AcDb2dVertex
 10
-95.38349742624094
 20
13.22382676535724
 30
0.0
  0
VERTEX
  5
307
330
305
100
AcDbEntity
  8
BEMAßUNG
 62
     7
100
AcDbVertex
100
AcDb2dVertex
 10
-95.38349742624094
 20
10.53940836325057
 30
0.0
  0
SEQEND
  5
308
330
305
100
AcDbEntity
  8
BEMAßUNG
  0
POLYLINE
  5
309
330
1F
100
AcDbEntity
  8
BEMAßUNG
 62
     7
100
AcDb2dPolyline
 66
     1
 10
0.0
 20
0.0
 30
0.0
  0
VERTEX
  5
30A
330
309
100
AcDbEntity
  8
BEMAßUNG
 62
     7
100
AcDbVertex
100
AcDb2dVertex
 10
-95.28290063807164
 20
13.22382676535724
 30
0.0
  0
VERTEX
  5
30B
330
309
100
AcDbEntity
  8
BEMAßUNG
 62
     7
100
AcDbVertex
100
AcDb2dVertex
 10
-95.28290063807164
 20
9.767017955457552
 30
0.0
  0
SEQEND
  5
30C
330
309
100
AcDbEntity
  8
BEMAßUNG
  0
POLYLINE
  5
30D
330
1F
100
AcDbEntity
  8
BEMAßUNG
 62
     7
100
AcDb2dPolyline
 66
     1
 10
0.0
 20
0.0
 30
0.0
  0
VERTEX
  5
30E
330
30D
100
AcDbEntity
  8
BEMAßUNG
 62
     7
100
AcDbVertex
100
AcDb2dVertex
 10
-95.1816148308053
 20
13.22382676535724
 30
0.0
  0
VERTEX
  5
30F
330
30D
100
AcDbEntity
  8
BEMAßUNG
 62
     7
100
AcDbVertex
100
AcDb2dVertex
 10
-95.1816148308053
 20
8.995316566761588
 30
0.0
  0
SEQEND
  5
310
330
30D
100
AcDbEntity
  8
BEMAßUNG
  0
POLYLINE
  5
311
330
1F
100
AcDbEntity
  8
BEMAßUNG
 62
     7
100
AcDb2dPolyline
 66
     1
 10
0.0
 20
0.0
 30
0.0
  0
VERTEX
  5
312
330
311
100
AcDbEntity
  8
BEMAßUNG
 62
     7
100
AcDbVertex
100
AcDb2dVertex
 10
-95.0796400044419
 20
13.22382676535724
 30
0.0
  0
VERTEX
  5
313
330
311
100
AcDbEntity
  8
BEMAßUNG
 62
     7
100
AcDbVertex
100
AcDb2dVertex
 10
-95.0796400044419
 20
8.223615178065625
 30
0.0
  0
SEQEND
  5
314
330
311
100
AcDbEntity
  8
BEMAßUNG
  0
POLYLINE
  5
315
330
1F
100
AcDbEntity
  8
BEMAßUNG
 62
     7
100
AcDb2dPolyline
 66
     1
 10
0.0
 20
0.0
 30
0.0
  0
VERTEX
  5
316
330
315
100
AcDbEntity
  8
BEMAßUNG
 62
     7
100
AcDbVertex
100
AcDb2dVertex
 10
-74.39597573009893
 20
-3.775652397059559
 30
0.0
  0
VERTEX
  5
317
330
315
100
AcDbEntity
  8
BEMAßUNG
 62
     7
100
AcDbVertex
100
AcDb2dVertex
 10
-74.39597573009893
 20
-47.98311766378547
 30
0.0
  0
SEQEND
  5
318
330
315
100
AcDbEntity
  8
BEMAßUNG
  0
POLYLINE
  5
319
330
1F
100
AcDbEntity
  8
BEMAßUNG
 62
     7
100
AcDb2dPolyline
 66
     1
 10
0.0
 20
0.0
 30
0.0
  0
VERTEX
  5
31A
330
319
100
AcDbEntity
  8
BEMAßUNG
 62
     7
100
AcDbVertex
100
AcDb2dVertex
 10
-2.398475476830937
 20
1.223181152037955
 30
0.0
  0
VERTEX
  5
31B
330
319
100
AcDbEntity
  8
BEMAßUNG
 62
     7
100
AcDbVertex
100
AcDb2dVertex
 10
-2.398475476830937
 20
-47.98311766378547
 30
0.0
  0
SEQEND
  5
31C
330
319
100
AcDbEntity
  8
BEMAßUNG
  0
POLYLINE
  5
31D
330
1F
100
AcDbEntity
  8
BEMAßUNG
 62
     7
100
AcDb2dPolyline
 66
     1
 10
0.0
 20
0.0
 30
0.0
  0
VERTEX
  5
31E
330
31D
100
AcDbEntity
  8
BEMAßUNG
 62
     7
100
AcDbVertex
100
AcDb2dVertex
 10
-74.39597573009893
 20
-43.98267278631336
 30
0.0
  0
VERTEX
  5
31F
330
31D
100
AcDbEntity
  8
BEMAßUNG
 62
     7
100
AcDbVertex
100
AcDb2dVertex
 10
-2.398475476830937
 20
-43.98267278631336
 30
0.0
  0
SEQEND
  5
320
330
31D
100
AcDbEntity
  8
BEMAßUNG
  0
POLYLINE
  5
321
330
1F
100
AcDbEntity
  8
BEMAßUNG
 62
     7
100
AcDb2dPolyline
 66
     1
 10
0.0
 20
0.0
 30
0.0
  0
VERTEX
  5
322
330
321
100
AcDbEntity
  8
BEMAßUNG
 62
     7
100
AcDbVertex
100
AcDb2dVertex
 10
-74.39597573009893
 20
-43.98267278631336
 30
0.0
  0
VERTEX
  5
323
330
321
100
AcDbEntity
  8
BEMAßUNG
 62
     7
100
AcDbVertex
100
AcDb2dVertex
 10
-69.39714218100141
 20
-44.64137504309313
 30
0.0
  0
VERTEX
  5
324
330
321
100
AcDbEntity
  8
BEMAßUNG
 62
     7
100
AcDbVertex
100
AcDb2dVertex
 10
-69.39714218100141
 20
-43.32397052953359
 30
0.0
  0
VERTEX
  5
325
330
321
100
AcDbEntity
  8
BEMAßUNG
 62
     7
100
AcDbVertex
100
AcDb2dVertex
 10
-74.39597573009893
 20
-43.98267278631336
 30
0.0
  0
SEQEND
  5
326
330
321
100
AcDbEntity
  8
BEMAßUNG
  0
POLYLINE
  5
327
330
1F
100
AcDbEntity
  8
BEMAßUNG
 62
     7
100
AcDb2dPolyline
 66
     1
 10
0.0
 20
0.0
 30
0.0
  0
VERTEX
  5
328
330
327
100
AcDbEntity
  8
BEMAßUNG
 62
     7
100
AcDbVertex
100
AcDb2dVertex
 10
-69.39714218100141
 20
-44.59176566810553
 30
0.0
  0
VERTEX
  5
329
330
327
100
AcDbEntity
  8
BEMAßUNG
 62
     7
100
AcDbVertex
100
AcDb2dVertex
 10
-69.7664564170202
 20
-44.59176566810553
 30
0.0
  0
SEQEND
  5
32A
330
327
100
AcDbEntity
  8
BEMAßUNG
  0
POLYLINE
  5
32B
330
1F
100
AcDbEntity
  8
BEMAßUNG
 62
     7
100
AcDb2dPolyline
 66
     1
 10
0.0
 20
0.0
 30
0.0
  0
VERTEX
  5
32C
330
32B
100
AcDbEntity
  8
BEMAßUNG
 62
     7
100
AcDbVertex
100
AcDb2dVertex
 10
-69.39714218100141
 20
-44.59176566810553
 30
0.0
  0
VERTEX
  5
32D
330
32B
100
AcDbEntity
  8
BEMAßUNG
 62
     7
100
AcDbVertex
100
AcDb2dVertex
 10
-69.7664564170202
 20
-44.59176566810553
 30
0.0
  0
SEQEND
  5
32E
330
32B
100
AcDbEntity
  8
BEMAßUNG
  0
POLYLINE
  5
32F
330
1F
100
AcDbEntity
  8
BEMAßUNG
 62
     7
100
AcDb2dPolyline
 66
     1
 10
0.0
 20
0.0
 30
0.0
  0
VERTEX
  5
330
330
32F
100
AcDbEntity
  8
BEMAßUNG
 62
     7
100
AcDbVertex
100
AcDb2dVertex
 10
-69.39714218100141
 20
-44.49047986083919
 30
0.0
  0
VERTEX
  5
331
330
32F
100
AcDbEntity
  8
BEMAßUNG
 62
     7
100
AcDbVertex
100
AcDb2dVertex
 10
-70.53746878661912
 20
-44.49047986083919
 30
0.0
  0
SEQEND
  5
332
330
32F
100
AcDbEntity
  8
BEMAßUNG
  0
POLYLINE
  5
333
330
1F
100
AcDbEntity
  8
BEMAßUNG
 62
     7
100
AcDb2dPolyline
 66
     1
 10
0.0
 20
0.0
 30
0.0
  0
VERTEX
  5
334
330
333
100
AcDbEntity
  8
BEMAßUNG
 62
     7
100
AcDbVertex
100
AcDb2dVertex
 10
-69.39714218100141
 20
-44.38850503447579
 30
0.0
  0
VERTEX
  5
335
330
333
100
AcDbEntity
  8
BEMAßUNG
 62
     7
100
AcDbVertex
100
AcDb2dVertex
 10
-71.30917017531507
 20
-44.38850503447579
 30
0.0
  0
SEQEND
  5
336
330
333
100
AcDbEntity
  8
BEMAßUNG
  0
POLYLINE
  5
337
330
1F
100
AcDbEntity
  8
BEMAßUNG
 62
     7
100
AcDb2dPolyline
 66
     1
 10
0.0
 20
0.0
 30
0.0
  0
VERTEX
  5
338
330
337
100
AcDbEntity
  8
BEMAßUNG
 62
     7
100
AcDbVertex
100
AcDb2dVertex
 10
-69.39714218100141
 20
-44.2865302081124
 30
0.0
  0
VERTEX
  5
339
330
337
100
AcDbEntity
  8
BEMAßUNG
 62
     7
100
AcDbVertex
100
AcDb2dVertex
 10
-72.08156058310809
 20
-44.2865302081124
 30
0.0
  0
SEQEND
  5
33A
330
337
100
AcDbEntity
  8
BEMAßUNG
  0
POLYLINE
  5
33B
330
1F
100
AcDbEntity
  8
BEMAßUNG
 62
     7
100
AcDb2dPolyline
 66
     1
 10
0.0
 20
0.0
 30
0.0
  0
VERTEX
  5
33C
330
33B
100
AcDbEntity
  8
BEMAßUNG
 62
     7
100
AcDbVertex
100
AcDb2dVertex
 10
-69.39714218100141
 20
-44.18524440084605
 30
0.0
  0
VERTEX
  5
33D
330
33B
100
AcDbEntity
  8
BEMAßUNG
 62
     7
100
AcDbVertex
100
AcDb2dVertex
 10
-72.85326197180405
 20
-44.18524440084605
 30
0.0
  0
SEQEND
  5
33E
330
33B
100
AcDbEntity
  8
BEMAßUNG
  0
POLYLINE
  5
33F
330
1F
100
AcDbEntity
  8
BEMAßUNG
 62
     7
100
AcDb2dPolyline
 66
     1
 10
0.0
 20
0.0
 30
0.0
  0
VERTEX
  5
340
330
33F
100
AcDbEntity
  8
BEMAßUNG
 62
     7
100
AcDbVertex
100
AcDb2dVertex
 10
-69.39714218100141
 20
-44.08395859357971
 30
0.0
  0
VERTEX
  5
341
330
33F
100
AcDbEntity
  8
BEMAßUNG
 62
     7
100
AcDbVertex
100
AcDb2dVertex
 10
-73.62427434140297
 20
-44.08395859357971
 30
0.0
  0
SEQEND
  5
342
330
33F
100
AcDbEntity
  8
BEMAßUNG
  0
POLYLINE
  5
343
330
1F
100
AcDbEntity
  8
BEMAßUNG
 62
     7
100
AcDb2dPolyline
 66
     1
 10
0.0
 20
0.0
 30
0.0
  0
VERTEX
  5
344
330
343
100
AcDbEntity
  8
BEMAßUNG
 62
     7
100
AcDbVertex
100
AcDb2dVertex
 10
-69.39714218100141
 20
-43.98267278631336
 30
0.0
  0
VERTEX
  5
345
330
343
100
AcDbEntity
  8
BEMAßUNG
 62
     7
100
AcDbVertex
100
AcDb2dVertex
 10
-74.39597573009893
 20
-43.98267278631336
 30
0.0
  0
SEQEND
  5
346
330
343
100
AcDbEntity
  8
BEMAßUNG
  0
POLYLINE
  5
347
330
1F
100
AcDbEntity
  8
BEMAßUNG
 62
     7
100
AcDb2dPolyline
 66
     1
 10
0.0
 20
0.0
 30
0.0
  0
VERTEX
  5
348
330
347
100
AcDbEntity
  8
BEMAßUNG
 62
     7
100
AcDbVertex
100
AcDb2dVertex
 10
-69.39714218100141
 20
-43.37357990452119
 30
0.0
  0
VERTEX
  5
349
330
347
100
AcDbEntity
  8
BEMAßUNG
 62
     7
100
AcDbVertex
100
AcDb2dVertex
 10
-69.7664564170202
 20
-43.37357990452119
 30
0.0
  0
SEQEND
  5
34A
330
347
100
AcDbEntity
  8
BEMAßUNG
  0
POLYLINE
  5
34B
330
1F
100
AcDbEntity
  8
BEMAßUNG
 62
     7
100
AcDb2dPolyline
 66
     1
 10
0.0
 20
0.0
 30
0.0
  0
VERTEX
  5
34C
330
34B
100
AcDbEntity
  8
BEMAßUNG
 62
     7
100
AcDbVertex
100
AcDb2dVertex
 10
-69.39714218100141
 20
-43.37357990452119
 30
0.0
  0
VERTEX
  5
34D
330
34B
100
AcDbEntity
  8
BEMAßUNG
 62
     7
100
AcDbVertex
100
AcDb2dVertex
 10
-69.7664564170202
 20
-43.37357990452119
 30
0.0
  0
SEQEND
  5
34E
330
34B
100
AcDbEntity
  8
BEMAßUNG
  0
POLYLINE
  5
34F
330
1F
100
AcDbEntity
  8
BEMAßUNG
 62
     7
100
AcDb2dPolyline
 66
     1
 10
0.0
 20
0.0
 30
0.0
  0
VERTEX
  5
350
330
34F
100
AcDbEntity
  8
BEMAßUNG
 62
     7
100
AcDbVertex
100
AcDb2dVertex
 10
-69.39714218100141
 20
-43.47486571178754
 30
0.0
  0
VERTEX
  5
351
330
34F
100
AcDbEntity
  8
BEMAßUNG
 62
     7
100
AcDbVertex
100
AcDb2dVertex
 10
-70.53746878661912
 20
-43.47486571178754
 30
0.0
  0
SEQEND
  5
352
330
34F
100
AcDbEntity
  8
BEMAßUNG
  0
POLYLINE
  5
353
330
1F
100
AcDbEntity
  8
BEMAßUNG
 62
     7
100
AcDb2dPolyline
 66
     1
 10
0.0
 20
0.0
 30
0.0
  0
VERTEX
  5
354
330
353
100
AcDbEntity
  8
BEMAßUNG
 62
     7
100
AcDbVertex
100
AcDb2dVertex
 10
-69.39714218100141
 20
-43.57615151905388
 30
0.0
  0
VERTEX
  5
355
330
353
100
AcDbEntity
  8
BEMAßUNG
 62
     7
100
AcDbVertex
100
AcDb2dVertex
 10
-71.30917017531507
 20
-43.57615151905388
 30
0.0
  0
SEQEND
  5
356
330
353
100
AcDbEntity
  8
BEMAßUNG
  0
POLYLINE
  5
357
330
1F
100
AcDbEntity
  8
BEMAßUNG
 62
     7
100
AcDb2dPolyline
 66
     1
 10
0.0
 20
0.0
 30
0.0
  0
VERTEX
  5
358
330
357
100
AcDbEntity
  8
BEMAßUNG
 62
     7
100
AcDbVertex
100
AcDb2dVertex
 10
-69.39714218100141
 20
-43.67812634541728
 30
0.0
  0
VERTEX
  5
359
330
357
100
AcDbEntity
  8
BEMAßUNG
 62
     7
100
AcDbVertex
100
AcDb2dVertex
 10
-72.08156058310809
 20
-43.67812634541728
 30
0.0
  0
SEQEND
  5
35A
330
357
100
AcDbEntity
  8
BEMAßUNG
  0
POLYLINE
  5
35B
330
1F
100
AcDbEntity
  8
BEMAßUNG
 62
     7
100
AcDb2dPolyline
 66
     1
 10
0.0
 20
0.0
 30
0.0
  0
VERTEX
  5
35C
330
35B
100
AcDbEntity
  8
BEMAßUNG
 62
     7
100
AcDbVertex
100
AcDb2dVertex
 10
-69.39714218100141
 20
-43.78010117178067
 30
0.0
  0
VERTEX
  5
35D
330
35B
100
AcDbEntity
  8
BEMAßUNG
 62
     7
100
AcDbVertex
100
AcDb2dVertex
 10
-72.85326197180405
 20
-43.78010117178067
 30
0.0
  0
SEQEND
  5
35E
330
35B
100
AcDbEntity
  8
BEMAßUNG
  0
POLYLINE
  5
35F
330
1F
100
AcDbEntity
  8
BEMAßUNG
 62
     7
100
AcDb2dPolyline
 66
     1
 10
0.0
 20
0.0
 30
0.0
  0
VERTEX
  5
360
330
35F
100
AcDbEntity
  8
BEMAßUNG
 62
     7
100
AcDbVertex
100
AcDb2dVertex
 10
-69.39714218100141
 20
-43.88138697904702
 30
0.0
  0
VERTEX
  5
361
330
35F
100
AcDbEntity
  8
BEMAßUNG
 62
     7
100
AcDbVertex
100
AcDb2dVertex
 10
-73.62427434140297
 20
-43.88138697904702
 30
0.0
  0
SEQEND
  5
362
330
35F
100
AcDbEntity
  8
BEMAßUNG
  0
POLYLINE
  5
363
330
1F
100
AcDbEntity
  8
BEMAßUNG
 62
     7
100
AcDb2dPolyline
 66
     1
 10
0.0
 20
0.0
 30
0.0
  0
VERTEX
  5
364
330
363
100
AcDbEntity
  8
BEMAßUNG
 62
     7
100
AcDbVertex
100
AcDb2dVertex
 10
-69.39714218100141
 20
-43.98267278631336
 30
0.0
  0
VERTEX
  5
365
330
363
100
AcDbEntity
  8
BEMAßUNG
 62
     7
100
AcDbVertex
100
AcDb2dVertex
 10
-74.39597573009893
 20
-43.98267278631336
 30
0.0
  0
SEQEND
  5
366
330
363
100
AcDbEntity
  8
BEMAßUNG
  0
POLYLINE
  5
367
330
1F
100
AcDbEntity
  8
BEMAßUNG
 62
     7
100
AcDb2dPolyline
 66
     1
 10
0.0
 20
0.0
 30
0.0
  0
VERTEX
  5
368
330
367
100
AcDbEntity
  8
BEMAßUNG
 62
     7
100
AcDbVertex
100
AcDb2dVertex
 10
-2.398475476830937
 20
-43.98267278631336
 30
0.0
  0
VERTEX
  5
369
330
367
100
AcDbEntity
  8
BEMAßUNG
 62
     7
100
AcDbVertex
100
AcDb2dVertex
 10
-7.397136771154188
 20
-43.32397052953359
 30
0.0
  0
VERTEX
  5
36A
330
367
100
AcDbEntity
  8
BEMAßUNG
 62
     7
100
AcDbVertex
100
AcDb2dVertex
 10
-7.397136771154188
 20
-44.64137504309313
 30
0.0
  0
VERTEX
  5
36B
330
367
100
AcDbEntity
  8
BEMAßUNG
 62
     7
100
AcDbVertex
100
AcDb2dVertex
 10
-2.398475476830937
 20
-43.98267278631336
 30
0.0
  0
SEQEND
  5
36C
330
367
100
AcDbEntity
  8
BEMAßUNG
  0
POLYLINE
  5
36D
330
1F
100
AcDbEntity
  8
BEMAßUNG
 62
     7
100
AcDb2dPolyline
 66
     1
 10
0.0
 20
0.0
 30
0.0
  0
VERTEX
  5
36E
330
36D
100
AcDbEntity
  8
BEMAßUNG
 62
     7
100
AcDbVertex
100
AcDb2dVertex
 10
-7.397136771154188
 20
-43.37357990452119
 30
0.0
  0
VERTEX
  5
36F
330
36D
100
AcDbEntity
  8
BEMAßUNG
 62
     7
100
AcDbVertex
100
AcDb2dVertex
 10
-7.027822535135406
 20
-43.37357990452119
 30
0.0
  0
SEQEND
  5
370
330
36D
100
AcDbEntity
  8
BEMAßUNG
  0
POLYLINE
  5
371
330
1F
100
AcDbEntity
  8
BEMAßUNG
 62
     7
100
AcDb2dPolyline
 66
     1
 10
0.0
 20
0.0
 30
0.0
  0
VERTEX
  5
372
330
371
100
AcDbEntity
  8
BEMAßUNG
 62
     7
100
AcDbVertex
100
AcDb2dVertex
 10
-7.397136771154188
 20
-43.37357990452119
 30
0.0
  0
VERTEX
  5
373
330
371
100
AcDbEntity
  8
BEMAßUNG
 62
     7
100
AcDbVertex
100
AcDb2dVertex
 10
-7.027822535135406
 20
-43.37357990452119
 30
0.0
  0
SEQEND
  5
374
330
371
100
AcDbEntity
  8
BEMAßUNG
  0
POLYLINE
  5
375
330
1F
100
AcDbEntity
  8
BEMAßUNG
 62
     7
100
AcDb2dPolyline
 66
     1
 10
0.0
 20
0.0
 30
0.0
  0
VERTEX
  5
376
330
375
100
AcDbEntity
  8
BEMAßUNG
 62
     7
100
AcDbVertex
100
AcDb2dVertex
 10
-7.397136771154188
 20
-43.47486571178754
 30
0.0
  0
VERTEX
  5
377
330
375
100
AcDbEntity
  8
BEMAßUNG
 62
     7
100
AcDbVertex
100
AcDb2dVertex
 10
-6.254743108245342
 20
-43.47486571178754
 30
0.0
  0
SEQEND
  5
378
330
375
100
AcDbEntity
  8
BEMAßUNG
  0
POLYLINE
  5
379
330
1F
100
AcDbEntity
  8
BEMAßUNG
 62
     7
100
AcDb2dPolyline
 66
     1
 10
0.0
 20
0.0
 30
0.0
  0
VERTEX
  5
37A
330
379
100
AcDbEntity
  8
BEMAßUNG
 62
     7
100
AcDbVertex
100
AcDb2dVertex
 10
-7.397136771154188
 20
-43.57615151905388
 30
0.0
  0
VERTEX
  5
37B
330
379
100
AcDbEntity
  8
BEMAßUNG
 62
     7
100
AcDbVertex
100
AcDb2dVertex
 10
-5.484592012517741
 20
-43.57615151905388
 30
0.0
  0
SEQEND
  5
37C
330
379
100
AcDbEntity
  8
BEMAßUNG
  0
POLYLINE
  5
37D
330
1F
100
AcDbEntity
  8
BEMAßUNG
 62
     7
100
AcDb2dPolyline
 66
     1
 10
0.0
 20
0.0
 30
0.0
  0
VERTEX
  5
37E
330
37D
100
AcDbEntity
  8
BEMAßUNG
 62
     7
100
AcDbVertex
100
AcDb2dVertex
 10
-7.397136771154188
 20
-43.67812634541728
 30
0.0
  0
VERTEX
  5
37F
330
37D
100
AcDbEntity
  8
BEMAßUNG
 62
     7
100
AcDbVertex
100
AcDb2dVertex
 10
-4.710823566530627
 20
-43.67812634541728
 30
0.0
  0
SEQEND
  5
380
330
37D
100
AcDbEntity
  8
BEMAßUNG
  0
POLYLINE
  5
381
330
1F
100
AcDbEntity
  8
BEMAßUNG
 62
     7
100
AcDb2dPolyline
 66
     1
 10
0.0
 20
0.0
 30
0.0
  0
VERTEX
  5
382
330
381
100
AcDbEntity
  8
BEMAßUNG
 62
     7
100
AcDbVertex
100
AcDb2dVertex
 10
-7.397136771154188
 20
-43.78010117178067
 30
0.0
  0
VERTEX
  5
383
330
381
100
AcDbEntity
  8
BEMAßUNG
 62
     7
100
AcDbVertex
100
AcDb2dVertex
 10
-3.941878254222864
 20
-43.78010117178067
 30
0.0
  0
SEQEND
  5
384
330
381
100
AcDbEntity
  8
BEMAßUNG
  0
POLYLINE
  5
385
330
1F
100
AcDbEntity
  8
BEMAßUNG
 62
     7
100
AcDb2dPolyline
 66
     1
 10
0.0
 20
0.0
 30
0.0
  0
VERTEX
  5
386
330
385
100
AcDbEntity
  8
BEMAßUNG
 62
     7
100
AcDbVertex
100
AcDb2dVertex
 10
-7.397136771154188
 20
-43.88138697904702
 30
0.0
  0
VERTEX
  5
387
330
385
100
AcDbEntity
  8
BEMAßUNG
 62
     7
100
AcDbVertex
100
AcDb2dVertex
 10
-3.167420789138701
 20
-43.88138697904702
 30
0.0
  0
SEQEND
  5
388
330
385
100
AcDbEntity
  8
BEMAßUNG
  0
POLYLINE
  5
389
330
1F
100
AcDbEntity
  8
BEMAßUNG
 62
     7
100
AcDb2dPolyline
 66
     1
 10
0.0
 20
0.0
 30
0.0
  0
VERTEX
  5
38A
330
389
100
AcDbEntity
  8
BEMAßUNG
 62
     7
100
AcDbVertex
100
AcDb2dVertex
 10
-7.397136771154188
 20
-43.98267278631336
 30
0.0
  0
VERTEX
  5
38B
330
389
100
AcDbEntity
  8
BEMAßUNG
 62
     7
100
AcDbVertex
100
AcDb2dVertex
 10
-2.398475476830937
 20
-43.98267278631336
 30
0.0
  0
SEQEND
  5
38C
330
389
100
AcDbEntity
  8
BEMAßUNG
  0
POLYLINE
  5
38D
330
1F
100
AcDbEntity
  8
BEMAßUNG
 62
     7
100
AcDb2dPolyline
 66
     1
 10
0.0
 20
0.0
 30
0.0
  0
VERTEX
  5
38E
330
38D
100
AcDbEntity
  8
BEMAßUNG
 62
     7
100
AcDbVertex
100
AcDb2dVertex
 10
-7.397136771154188
 20
-44.59176566810553
 30
0.0
  0
VERTEX
  5
38F
330
38D
100
AcDbEntity
  8
BEMAßUNG
 62
     7
100
AcDbVertex
100
AcDb2dVertex
 10
-7.027822535135406
 20
-44.59176566810553
 30
0.0
  0
SEQEND
  5
390
330
38D
100
AcDbEntity
  8
BEMAßUNG
  0
POLYLINE
  5
391
330
1F
100
AcDbEntity
  8
BEMAßUNG
 62
     7
100
AcDb2dPolyline
 66
     1
 10
0.0
 20
0.0
 30
0.0
  0
VERTEX
  5
392
330
391
100
AcDbEntity
  8
BEMAßUNG
 62
     7
100
AcDbVertex
100
AcDb2dVertex
 10
-7.397136771154188
 20
-44.59176566810553
 30
0.0
  0
VERTEX
  5
393
330
391
100
AcDbEntity
  8
BEMAßUNG
 62
     7
100
AcDbVertex
100
AcDb2dVertex
 10
-7.027822535135406
 20
-44.59176566810553
 30
0.0
  0
SEQEND
  5
394
330
391
100
AcDbEntity
  8
BEMAßUNG
  0
POLYLINE
  5
395
330
1F
100
AcDbEntity
  8
BEMAßUNG
 62
     7
100
AcDb2dPolyline
 66
     1
 10
0.0
 20
0.0
 30
0.0
  0
VERTEX
  5
396
330
395
100
AcDbEntity
  8
BEMAßUNG
 62
     7
100
AcDbVertex
100
AcDb2dVertex
 10
-7.397136771154188
 20
-44.49047986083919
 30
0.0
  0
VERTEX
  5
397
330
395
100
AcDbEntity
  8
BEMAßUNG
 62
     7
100
AcDbVertex
100
AcDb2dVertex
 10
-6.254743108245342
 20
-44.49047986083919
 30
0.0
  0
SEQEND
  5
398
330
395
100
AcDbEntity
  8
BEMAßUNG
  0
POLYLINE
  5
399
330
1F
100
AcDbEntity
  8
BEMAßUNG
 62
     7
100
AcDb2dPolyline
 66
     1
 10
0.0
 20
0.0
 30
0.0
  0
VERTEX
  5
39A
330
399
100
AcDbEntity
  8
BEMAßUNG
 62
     7
100
AcDbVertex
100
AcDb2dVertex
 10
-7.397136771154188
 20
-44.38850503447579
 30
0.0
  0
VERTEX
  5
39B
330
399
100
AcDbEntity
  8
BEMAßUNG
 62
     7
100
AcDbVertex
100
AcDb2dVertex
 10
-5.484592012517741
 20
-44.38850503447579
 30
0.0
  0
SEQEND
  5
39C
330
399
100
AcDbEntity
  8
BEMAßUNG
  0
POLYLINE
  5
39D
330
1F
100
AcDbEntity
  8
BEMAßUNG
 62
     7
100
AcDb2dPolyline
 66
     1
 10
0.0
 20
0.0
 30
0.0
  0
VERTEX
  5
39E
330
39D
100
AcDbEntity
  8
BEMAßUNG
 62
     7
100
AcDbVertex
100
AcDb2dVertex
 10
-7.397136771154188
 20
-44.2865302081124
 30
0.0
  0
VERTEX
  5
39F
330
39D
100
AcDbEntity
  8
BEMAßUNG
 62
     7
100
AcDbVertex
100
AcDb2dVertex
 10
-4.710823566530627
 20
-44.2865302081124
 30
0.0
  0
SEQEND
  5
3A0
330
39D
100
AcDbEntity
  8
BEMAßUNG
  0
POLYLINE
  5
3A1
330
1F
100
AcDbEntity
  8
BEMAßUNG
 62
     7
100
AcDb2dPolyline
 66
     1
 10
0.0
 20
0.0
 30
0.0
  0
VERTEX
  5
3A2
330
3A1
100
AcDbEntity
  8
BEMAßUNG
 62
     7
100
AcDbVertex
100
AcDb2dVertex
 10
-7.397136771154188
 20
-44.18524440084605
 30
0.0
  0
VERTEX
  5
3A3
330
3A1
100
AcDbEntity
  8
BEMAßUNG
 62
     7
100
AcDbVertex
100
AcDb2dVertex
 10
-3.941878254222864
 20
-44.18524440084605
 30
0.0
  0
SEQEND
  5
3A4
330
3A1
100
AcDbEntity
  8
BEMAßUNG
  0
POLYLINE
  5
3A5
330
1F
100
AcDbEntity
  8
BEMAßUNG
 62
     7
100
AcDb2dPolyline
 66
     1
 10
0.0
 20
0.0
 30
0.0
  0
VERTEX
  5
3A6
330
3A5
100
AcDbEntity
  8
BEMAßUNG
 62
     7
100
AcDbVertex
100
AcDb2dVertex
 10
-7.397136771154188
 20
-44.08395859357971
 30
0.0
  0
VERTEX
  5
3A7
330
3A5
100
AcDbEntity
  8
BEMAßUNG
 62
     7
100
AcDbVertex
100
AcDb2dVertex
 10
-3.167420789138701
 20
-44.08395859357971
 30
0.0
  0
SEQEND
  5
3A8
330
3A5
100
AcDbEntity
  8
BEMAßUNG
  0
POLYLINE
  5
3A9
330
1F
100
AcDbEntity
  8
BEMAßUNG
 62
     7
100
AcDb2dPolyline
 66
     1
 10
0.0
 20
0.0
 30
0.0
  0
VERTEX
  5
3AA
330
3A9
100
AcDbEntity
  8
BEMAßUNG
 62
     7
100
AcDbVertex
100
AcDb2dVertex
 10
-7.397136771154188
 20
-43.98267278631336
 30
0.0
  0
VERTEX
  5
3AB
330
3A9
100
AcDbEntity
  8
BEMAßUNG
 62
     7
100
AcDbVertex
100
AcDb2dVertex
 10
-2.398475476830937
 20
-43.98267278631336
 30
0.0
  0
SEQEND
  5
3AC
330
3A9
100
AcDbEntity
  8
BEMAßUNG
  0
POLYLINE
  5
3AD
330
1F
100
AcDbEntity
  8
BEMAßUNG
 62
     7
100
AcDb2dPolyline
 66
     1
 10
0.0
 20
0.0
 30
0.0
  0
VERTEX
  5
3AE
330
3AD
100
AcDbEntity
  8
BEMAßUNG
 62
     7
100
AcDbVertex
100
AcDb2dVertex
 10
-70.39759790991796
 20
-3.775652397059559
 30
0.0
  0
VERTEX
  5
3AF
330
3AD
100
AcDbEntity
  8
BEMAßUNG
 62
     7
100
AcDbVertex
100
AcDb2dVertex
 10
-70.39759790991796
 20
-27.83551024694737
 30
0.0
  0
SEQEND
  5
3B0
330
3AD
100
AcDbEntity
  8
BEMAßUNG
  0
POLYLINE
  5
3B1
330
1F
100
AcDbEntity
  8
BEMAßUNG
 62
     7
100
AcDb2dPolyline
 66
     1
 10
0.0
 20
0.0
 30
0.0
  0
VERTEX
  5
3B2
330
3B1
100
AcDbEntity
  8
BEMAßUNG
 62
     7
100
AcDbVertex
100
AcDb2dVertex
 10
-70.39759790991796
 20
-23.83575438857231
 30
0.0
  0
VERTEX
  5
3B3
330
3B1
100
AcDbEntity
  8
BEMAßUNG
 62
     7
100
AcDbVertex
100
AcDb2dVertex
 10
-2.398475476830937
 20
-23.83575438857231
 30
0.0
  0
SEQEND
  5
3B4
330
3B1
100
AcDbEntity
  8
BEMAßUNG
  0
POLYLINE
  5
3B5
330
1F
100
AcDbEntity
  8
BEMAßUNG
 62
     7
100
AcDb2dPolyline
 66
     1
 10
0.0
 20
0.0
 30
0.0
  0
VERTEX
  5
3B6
330
3B5
100
AcDbEntity
  8
BEMAßUNG
 62
     7
100
AcDbVertex
100
AcDb2dVertex
 10
-70.39759790991796
 20
-23.83575438857231
 30
0.0
  0
VERTEX
  5
3B7
330
3B5
100
AcDbEntity
  8
BEMAßUNG
 62
     7
100
AcDbVertex
100
AcDb2dVertex
 10
-65.39669730352931
 20
-24.49445664535208
 30
0.0
  0
VERTEX
  5
3B8
330
3B5
100
AcDbEntity
  8
BEMAßUNG
 62
     7
100
AcDbVertex
100
AcDb2dVertex
 10
-65.39669730352931
 20
-23.17705213179254
 30
0.0
  0
VERTEX
  5
3B9
330
3B5
100
AcDbEntity
  8
BEMAßUNG
 62
     7
100
AcDbVertex
100
AcDb2dVertex
 10
-70.39759790991796
 20
-23.83575438857231
 30
0.0
  0
SEQEND
  5
3BA
330
3B5
100
AcDbEntity
  8
BEMAßUNG
  0
POLYLINE
  5
3BB
330
1F
100
AcDbEntity
  8
BEMAßUNG
 62
     7
100
AcDb2dPolyline
 66
     1
 10
0.0
 20
0.0
 30
0.0
  0
VERTEX
  5
3BC
330
3BB
100
AcDbEntity
  8
BEMAßUNG
 62
     7
100
AcDbVertex
100
AcDb2dVertex
 10
-65.39669730352931
 20
-24.44484727036448
 30
0.0
  0
VERTEX
  5
3BD
330
3BB
100
AcDbEntity
  8
BEMAßUNG
 62
     7
100
AcDbVertex
100
AcDb2dVertex
 10
-65.76670055864513
 20
-24.44484727036448
 30
0.0
  0
SEQEND
  5
3BE
330
3BB
100
AcDbEntity
  8
BEMAßUNG
  0
POLYLINE
  5
3BF
330
1F
100
AcDbEntity
  8
BEMAßUNG
 62
     7
100
AcDb2dPolyline
 66
     1
 10
0.0
 20
0.0
 30
0.0
  0
VERTEX
  5
3C0
330
3BF
100
AcDbEntity
  8
BEMAßUNG
 62
     7
100
AcDbVertex
100
AcDb2dVertex
 10
-65.39669730352931
 20
-24.44484727036448
 30
0.0
  0
VERTEX
  5
3C1
330
3BF
100
AcDbEntity
  8
BEMAßUNG
 62
     7
100
AcDbVertex
100
AcDb2dVertex
 10
-65.76670055864513
 20
-24.44484727036448
 30
0.0
  0
SEQEND
  5
3C2
330
3BF
100
AcDbEntity
  8
BEMAßUNG
  0
POLYLINE
  5
3C3
330
1F
100
AcDbEntity
  8
BEMAßUNG
 62
     7
100
AcDb2dPolyline
 66
     1
 10
0.0
 20
0.0
 30
0.0
  0
VERTEX
  5
3C4
330
3C3
100
AcDbEntity
  8
BEMAßUNG
 62
     7
100
AcDbVertex
100
AcDb2dVertex
 10
-65.39669730352931
 20
-24.34425048219519
 30
0.0
  0
VERTEX
  5
3C5
330
3C3
100
AcDbEntity
  8
BEMAßUNG
 62
     7
100
AcDbVertex
100
AcDb2dVertex
 10
-66.5384019473411
 20
-24.34425048219519
 30
0.0
  0
SEQEND
  5
3C6
330
3C3
100
AcDbEntity
  8
BEMAßUNG
  0
POLYLINE
  5
3C7
330
1F
100
AcDbEntity
  8
BEMAßUNG
 62
     7
100
AcDb2dPolyline
 66
     1
 10
0.0
 20
0.0
 30
0.0
  0
VERTEX
  5
3C8
330
3C7
100
AcDbEntity
  8
BEMAßUNG
 62
     7
100
AcDbVertex
100
AcDb2dVertex
 10
-65.39669730352931
 20
-24.24227565583179
 30
0.0
  0
VERTEX
  5
3C9
330
3C7
100
AcDbEntity
  8
BEMAßUNG
 62
     7
100
AcDbVertex
100
AcDb2dVertex
 10
-67.31079235513411
 20
-24.24227565583179
 30
0.0
  0
SEQEND
  5
3CA
330
3C7
100
AcDbEntity
  8
BEMAßUNG
  0
POLYLINE
  5
3CB
330
1F
100
AcDbEntity
  8
BEMAßUNG
 62
     7
100
AcDb2dPolyline
 66
     1
 10
0.0
 20
0.0
 30
0.0
  0
VERTEX
  5
3CC
330
3CB
100
AcDbEntity
  8
BEMAßUNG
 62
     7
100
AcDbVertex
100
AcDb2dVertex
 10
-65.39669730352931
 20
-24.1403008294684
 30
0.0
  0
VERTEX
  5
3CD
330
3CB
100
AcDbEntity
  8
BEMAßUNG
 62
     7
100
AcDbVertex
100
AcDb2dVertex
 10
-68.08249374383007
 20
-24.1403008294684
 30
0.0
  0
SEQEND
  5
3CE
330
3CB
100
AcDbEntity
  8
BEMAßUNG
  0
POLYLINE
  5
3CF
330
1F
100
AcDbEntity
  8
BEMAßUNG
 62
     7
100
AcDb2dPolyline
 66
     1
 10
0.0
 20
0.0
 30
0.0
  0
VERTEX
  5
3D0
330
3CF
100
AcDbEntity
  8
BEMAßUNG
 62
     7
100
AcDbVertex
100
AcDb2dVertex
 10
-65.39669730352931
 20
-24.03901502220205
 30
0.0
  0
VERTEX
  5
3D1
330
3CF
100
AcDbEntity
  8
BEMAßUNG
 62
     7
100
AcDbVertex
100
AcDb2dVertex
 10
-68.85350611342899
 20
-24.03901502220205
 30
0.0
  0
SEQEND
  5
3D2
330
3CF
100
AcDbEntity
  8
BEMAßUNG
  0
POLYLINE
  5
3D3
330
1F
100
AcDbEntity
  8
BEMAßUNG
 62
     7
100
AcDb2dPolyline
 66
     1
 10
0.0
 20
0.0
 30
0.0
  0
VERTEX
  5
3D4
330
3D3
100
AcDbEntity
  8
BEMAßUNG
 62
     7
100
AcDbVertex
100
AcDb2dVertex
 10
-65.39669730352931
 20
-23.93772921493571
 30
0.0
  0
VERTEX
  5
3D5
330
3D3
100
AcDbEntity
  8
BEMAßUNG
 62
     7
100
AcDbVertex
100
AcDb2dVertex
 10
-69.62520750212495
 20
-23.93772921493571
 30
0.0
  0
SEQEND
  5
3D6
330
3D3
100
AcDbEntity
  8
BEMAßUNG
  0
POLYLINE
  5
3D7
330
1F
100
AcDbEntity
  8
BEMAßUNG
 62
     7
100
AcDb2dPolyline
 66
     1
 10
0.0
 20
0.0
 30
0.0
  0
VERTEX
  5
3D8
330
3D7
100
AcDbEntity
  8
BEMAßUNG
 62
     7
100
AcDbVertex
100
AcDb2dVertex
 10
-65.39669730352931
 20
-23.83575438857231
 30
0.0
  0
VERTEX
  5
3D9
330
3D7
100
AcDbEntity
  8
BEMAßUNG
 62
     7
100
AcDbVertex
100
AcDb2dVertex
 10
-70.39759790991796
 20
-23.83575438857231
 30
0.0
  0
SEQEND
  5
3DA
330
3D7
100
AcDbEntity
  8
BEMAßUNG
  0
POLYLINE
  5
3DB
330
1F
100
AcDbEntity
  8
BEMAßUNG
 62
     7
100
AcDb2dPolyline
 66
     1
 10
0.0
 20
0.0
 30
0.0
  0
VERTEX
  5
3DC
330
3DB
100
AcDbEntity
  8
BEMAßUNG
 62
     7
100
AcDbVertex
100
AcDb2dVertex
 10
-65.39669730352931
 20
-23.22735052587719
 30
0.0
  0
VERTEX
  5
3DD
330
3DB
100
AcDbEntity
  8
BEMAßUNG
 62
     7
100
AcDbVertex
100
AcDb2dVertex
 10
-65.76670055864513
 20
-23.22735052587719
 30
0.0
  0
SEQEND
  5
3DE
330
3DB
100
AcDbEntity
  8
BEMAßUNG
  0
POLYLINE
  5
3DF
330
1F
100
AcDbEntity
  8
BEMAßUNG
 62
     7
100
AcDb2dPolyline
 66
     1
 10
0.0
 20
0.0
 30
0.0
  0
VERTEX
  5
3E0
330
3DF
100
AcDbEntity
  8
BEMAßUNG
 62
     7
100
AcDbVertex
100
AcDb2dVertex
 10
-65.39669730352931
 20
-23.22735052587719
 30
0.0
  0
VERTEX
  5
3E1
330
3DF
100
AcDbEntity
  8
BEMAßUNG
 62
     7
100
AcDbVertex
100
AcDb2dVertex
 10
-65.76670055864513
 20
-23.22735052587719
 30
0.0
  0
SEQEND
  5
3E2
330
3DF
100
AcDbEntity
  8
BEMAßUNG
  0
POLYLINE
  5
3E3
330
1F
100
AcDbEntity
  8
BEMAßUNG
 62
     7
100
AcDb2dPolyline
 66
     1
 10
0.0
 20
0.0
 30
0.0
  0
VERTEX
  5
3E4
330
3E3
100
AcDbEntity
  8
BEMAßUNG
 62
     7
100
AcDbVertex
100
AcDb2dVertex
 10
-65.39669730352931
 20
-23.32863633314354
 30
0.0
  0
VERTEX
  5
3E5
330
3E3
100
AcDbEntity
  8
BEMAßUNG
 62
     7
100
AcDbVertex
100
AcDb2dVertex
 10
-66.5384019473411
 20
-23.32863633314354
 30
0.0
  0
SEQEND
  5
3E6
330
3E3
100
AcDbEntity
  8
BEMAßUNG
  0
POLYLINE
  5
3E7
330
1F
100
AcDbEntity
  8
BEMAßUNG
 62
     7
100
AcDb2dPolyline
 66
     1
 10
0.0
 20
0.0
 30
0.0
  0
VERTEX
  5
3E8
330
3E7
100
AcDbEntity
  8
BEMAßUNG
 62
     7
100
AcDbVertex
100
AcDb2dVertex
 10
-65.39669730352931
 20
-23.42992214040988
 30
0.0
  0
VERTEX
  5
3E9
330
3E7
100
AcDbEntity
  8
BEMAßUNG
 62
     7
100
AcDbVertex
100
AcDb2dVertex
 10
-67.31079235513411
 20
-23.42992214040988
 30
0.0
  0
SEQEND
  5
3EA
330
3E7
100
AcDbEntity
  8
BEMAßUNG
  0
POLYLINE
  5
3EB
330
1F
100
AcDbEntity
  8
BEMAßUNG
 62
     7
100
AcDb2dPolyline
 66
     1
 10
0.0
 20
0.0
 30
0.0
  0
VERTEX
  5
3EC
330
3EB
100
AcDbEntity
  8
BEMAßUNG
 62
     7
100
AcDbVertex
100
AcDb2dVertex
 10
-65.39669730352931
 20
-23.53120794767623
 30
0.0
  0
VERTEX
  5
3ED
330
3EB
100
AcDbEntity
  8
BEMAßUNG
 62
     7
100
AcDbVertex
100
AcDb2dVertex
 10
-68.08249374383007
 20
-23.53120794767623
 30
0.0
  0
SEQEND
  5
3EE
330
3EB
100
AcDbEntity
  8
BEMAßUNG
  0
POLYLINE
  5
3EF
330
1F
100
AcDbEntity
  8
BEMAßUNG
 62
     7
100
AcDb2dPolyline
 66
     1
 10
0.0
 20
0.0
 30
0.0
  0
VERTEX
  5
3F0
330
3EF
100
AcDbEntity
  8
BEMAßUNG
 62
     7
100
AcDbVertex
100
AcDb2dVertex
 10
-65.39669730352931
 20
-23.63249375494257
 30
0.0
  0
VERTEX
  5
3F1
330
3EF
100
AcDbEntity
  8
BEMAßUNG
 62
     7
100
AcDbVertex
100
AcDb2dVertex
 10
-68.85350611342899
 20
-23.63249375494257
 30
0.0
  0
SEQEND
  5
3F2
330
3EF
100
AcDbEntity
  8
BEMAßUNG
  0
POLYLINE
  5
3F3
330
1F
100
AcDbEntity
  8
BEMAßUNG
 62
     7
100
AcDb2dPolyline
 66
     1
 10
0.0
 20
0.0
 30
0.0
  0
VERTEX
  5
3F4
330
3F3
100
AcDbEntity
  8
BEMAßUNG
 62
     7
100
AcDbVertex
100
AcDb2dVertex
 10
-65.39669730352931
 20
-23.73377956220892
 30
0.0
  0
VERTEX
  5
3F5
330
3F3
100
AcDbEntity
  8
BEMAßUNG
 62
     7
100
AcDbVertex
100
AcDb2dVertex
 10
-69.62520750212495
 20
-23.73377956220892
 30
0.0
  0
SEQEND
  5
3F6
330
3F3
100
AcDbEntity
  8
BEMAßUNG
  0
POLYLINE
  5
3F7
330
1F
100
AcDbEntity
  8
BEMAßUNG
 62
     7
100
AcDb2dPolyline
 66
     1
 10
0.0
 20
0.0
 30
0.0
  0
VERTEX
  5
3F8
330
3F7
100
AcDbEntity
  8
BEMAßUNG
 62
     7
100
AcDbVertex
100
AcDb2dVertex
 10
-65.39669730352931
 20
-23.83575438857231
 30
0.0
  0
VERTEX
  5
3F9
330
3F7
100
AcDbEntity
  8
BEMAßUNG
 62
     7
100
AcDbVertex
100
AcDb2dVertex
 10
-70.39759790991796
 20
-23.83575438857231
 30
0.0
  0
SEQEND
  5
3FA
330
3F7
100
AcDbEntity
  8
BEMAßUNG
  0
POLYLINE
  5
3FB
330
1F
100
AcDbEntity
  8
BEMAßUNG
 62
     7
100
AcDb2dPolyline
 66
     1
 10
0.0
 20
0.0
 30
0.0
  0
VERTEX
  5
3FC
330
3FB
100
AcDbEntity
  8
BEMAßUNG
 62
     7
100
AcDbVertex
100
AcDb2dVertex
 10
-2.398475476830937
 20
-23.83575438857231
 30
0.0
  0
VERTEX
  5
3FD
330
3FB
100
AcDbEntity
  8
BEMAßUNG
 62
     7
100
AcDbVertex
100
AcDb2dVertex
 10
-7.397136771154188
 20
-23.17705213179254
 30
0.0
  0
VERTEX
  5
3FE
330
3FB
100
AcDbEntity
  8
BEMAßUNG
 62
     7
100
AcDbVertex
100
AcDb2dVertex
 10
-7.397136771154188
 20
-24.49445664535208
 30
0.0
  0
VERTEX
  5
3FF
330
3FB
100
AcDbEntity
  8
BEMAßUNG
 62
     7
100
AcDbVertex
100
AcDb2dVertex
 10
-2.398475476830937
 20
-23.83575438857231
 30
0.0
  0
SEQEND
  5
400
330
3FB
100
AcDbEntity
  8
BEMAßUNG
  0
POLYLINE
  5
401
330
1F
100
AcDbEntity
  8
BEMAßUNG
 62
     7
100
AcDb2dPolyline
 66
     1
 10
0.0
 20
0.0
 30
0.0
  0
VERTEX
  5
402
330
401
100
AcDbEntity
  8
BEMAßUNG
 62
     7
100
AcDbVertex
100
AcDb2dVertex
 10
-7.397136771154188
 20
-23.22735052587719
 30
0.0
  0
VERTEX
  5
403
330
401
100
AcDbEntity
  8
BEMAßUNG
 62
     7
100
AcDbVertex
100
AcDb2dVertex
 10
-7.027822535135406
 20
-23.22735052587719
 30
0.0
  0
SEQEND
  5
404
330
401
100
AcDbEntity
  8
BEMAßUNG
  0
POLYLINE
  5
405
330
1F
100
AcDbEntity
  8
BEMAßUNG
 62
     7
100
AcDb2dPolyline
 66
     1
 10
0.0
 20
0.0
 30
0.0
  0
VERTEX
  5
406
330
405
100
AcDbEntity
  8
BEMAßUNG
 62
     7
100
AcDbVertex
100
AcDb2dVertex
 10
-7.397136771154188
 20
-23.22735052587719
 30
0.0
  0
VERTEX
  5
407
330
405
100
AcDbEntity
  8
BEMAßUNG
 62
     7
100
AcDbVertex
100
AcDb2dVertex
 10
-7.027822535135406
 20
-23.22735052587719
 30
0.0
  0
SEQEND
  5
408
330
405
100
AcDbEntity
  8
BEMAßUNG
  0
POLYLINE
  5
409
330
1F
100
AcDbEntity
  8
BEMAßUNG
 62
     7
100
AcDb2dPolyline
 66
     1
 10
0.0
 20
0.0
 30
0.0
  0
VERTEX
  5
40A
330
409
100
AcDbEntity
  8
BEMAßUNG
 62
     7
100
AcDbVertex
100
AcDb2dVertex
 10
-7.397136771154188
 20
-23.32863633314354
 30
0.0
  0
VERTEX
  5
40B
330
409
100
AcDbEntity
  8
BEMAßUNG
 62
     7
100
AcDbVertex
100
AcDb2dVertex
 10
-6.254743108245342
 20
-23.32863633314354
 30
0.0
  0
SEQEND
  5
40C
330
409
100
AcDbEntity
  8
BEMAßUNG
  0
POLYLINE
  5
40D
330
1F
100
AcDbEntity
  8
BEMAßUNG
 62
     7
100
AcDb2dPolyline
 66
     1
 10
0.0
 20
0.0
 30
0.0
  0
VERTEX
  5
40E
330
40D
100
AcDbEntity
  8
BEMAßUNG
 62
     7
100
AcDbVertex
100
AcDb2dVertex
 10
-7.397136771154188
 20
-23.42992214040988
 30
0.0
  0
VERTEX
  5
40F
330
40D
100
AcDbEntity
  8
BEMAßUNG
 62
     7
100
AcDbVertex
100
AcDb2dVertex
 10
-5.484592012517741
 20
-23.42992214040988
 30
0.0
  0
SEQEND
  5
410
330
40D
100
AcDbEntity
  8
BEMAßUNG
  0
POLYLINE
  5
411
330
1F
100
AcDbEntity
  8
BEMAßUNG
 62
     7
100
AcDb2dPolyline
 66
     1
 10
0.0
 20
0.0
 30
0.0
  0
VERTEX
  5
412
330
411
100
AcDbEntity
  8
BEMAßUNG
 62
     7
100
AcDbVertex
100
AcDb2dVertex
 10
-7.397136771154188
 20
-23.53120794767623
 30
0.0
  0
VERTEX
  5
413
330
411
100
AcDbEntity
  8
BEMAßUNG
 62
     7
100
AcDbVertex
100
AcDb2dVertex
 10
-4.710823566530627
 20
-23.53120794767623
 30
0.0
  0
SEQEND
  5
414
330
411
100
AcDbEntity
  8
BEMAßUNG
  0
POLYLINE
  5
415
330
1F
100
AcDbEntity
  8
BEMAßUNG
 62
     7
100
AcDb2dPolyline
 66
     1
 10
0.0
 20
0.0
 30
0.0
  0
VERTEX
  5
416
330
415
100
AcDbEntity
  8
BEMAßUNG
 62
     7
100
AcDbVertex
100
AcDb2dVertex
 10
-7.397136771154188
 20
-23.63249375494257
 30
0.0
  0
VERTEX
  5
417
330
415
100
AcDbEntity
  8
BEMAßUNG
 62
     7
100
AcDbVertex
100
AcDb2dVertex
 10
-3.941878254222864
 20
-23.63249375494257
 30
0.0
  0
SEQEND
  5
418
330
415
100
AcDbEntity
  8
BEMAßUNG
  0
POLYLINE
  5
419
330
1F
100
AcDbEntity
  8
BEMAßUNG
 62
     7
100
AcDb2dPolyline
 66
     1
 10
0.0
 20
0.0
 30
0.0
  0
VERTEX
  5
41A
330
419
100
AcDbEntity
  8
BEMAßUNG
 62
     7
100
AcDbVertex
100
AcDb2dVertex
 10
-7.397136771154188
 20
-23.73377956220892
 30
0.0
  0
VERTEX
  5
41B
330
419
100
AcDbEntity
  8
BEMAßUNG
 62
     7
100
AcDbVertex
100
AcDb2dVertex
 10
-3.167420789138701
 20
-23.73377956220892
 30
0.0
  0
SEQEND
  5
41C
330
419
100
AcDbEntity
  8
BEMAßUNG
  0
POLYLINE
  5
41D
330
1F
100
AcDbEntity
  8
BEMAßUNG
 62
     7
100
AcDb2dPolyline
 66
     1
 10
0.0
 20
0.0
 30
0.0
  0
VERTEX
  5
41E
330
41D
100
AcDbEntity
  8
BEMAßUNG
 62
     7
100
AcDbVertex
100
AcDb2dVertex
 10
-7.397136771154188
 20
-23.83575438857231
 30
0.0
  0
VERTEX
  5
41F
330
41D
100
AcDbEntity
  8
BEMAßUNG
 62
     7
100
AcDbVertex
100
AcDb2dVertex
 10
-2.398475476830937
 20
-23.83575438857231
 30
0.0
  0
SEQEND
  5
420
330
41D
100
AcDbEntity
  8
BEMAßUNG
  0
POLYLINE
  5
421
330
1F
100
AcDbEntity
  8
BEMAßUNG
 62
     7
100
AcDb2dPolyline
 66
     1
 10
0.0
 20
0.0
 30
0.0
  0
VERTEX
  5
422
330
421
100
AcDbEntity
  8
BEMAßUNG
 62
     7
100
AcDbVertex
100
AcDb2dVertex
 10
-7.397136771154188
 20
-24.44484727036448
 30
0.0
  0
VERTEX
  5
423
330
421
100
AcDbEntity
  8
BEMAßUNG
 62
     7
100
AcDbVertex
100
AcDb2dVertex
 10
-7.027822535135406
 20
-24.44484727036448
 30
0.0
  0
SEQEND
  5
424
330
421
100
AcDbEntity
  8
BEMAßUNG
  0
POLYLINE
  5
425
330
1F
100
AcDbEntity
  8
BEMAßUNG
 62
     7
100
AcDb2dPolyline
 66
     1
 10
0.0
 20
0.0
 30
0.0
  0
VERTEX
  5
426
330
425
100
AcDbEntity
  8
BEMAßUNG
 62
     7
100
AcDbVertex
100
AcDb2dVertex
 10
-7.397136771154188
 20
-24.44484727036448
 30
0.0
  0
VERTEX
  5
427
330
425
100
AcDbEntity
  8
BEMAßUNG
 62
     7
100
AcDbVertex
100
AcDb2dVertex
 10
-7.027822535135406
 20
-24.44484727036448
 30
0.0
  0
SEQEND
  5
428
330
425
100
AcDbEntity
  8
BEMAßUNG
  0
POLYLINE
  5
429
330
1F
100
AcDbEntity
  8
BEMAßUNG
 62
     7
100
AcDb2dPolyline
 66
     1
 10
0.0
 20
0.0
 30
0.0
  0
VERTEX
  5
42A
330
429
100
AcDbEntity
  8
BEMAßUNG
 62
     7
100
AcDbVertex
100
AcDb2dVertex
 10
-7.397136771154188
 20
-24.34425048219519
 30
0.0
  0
VERTEX
  5
42B
330
429
100
AcDbEntity
  8
BEMAßUNG
 62
     7
100
AcDbVertex
100
AcDb2dVertex
 10
-6.254743108245342
 20
-24.34425048219519
 30
0.0
  0
SEQEND
  5
42C
330
429
100
AcDbEntity
  8
BEMAßUNG
  0
POLYLINE
  5
42D
330
1F
100
AcDbEntity
  8
BEMAßUNG
 62
     7
100
AcDb2dPolyline
 66
     1
 10
0.0
 20
0.0
 30
0.0
  0
VERTEX
  5
42E
330
42D
100
AcDbEntity
  8
BEMAßUNG
 62
     7
100
AcDbVertex
100
AcDb2dVertex
 10
-7.397136771154188
 20
-24.24227565583179
 30
0.0
  0
VERTEX
  5
42F
330
42D
100
AcDbEntity
  8
BEMAßUNG
 62
     7
100
AcDbVertex
100
AcDb2dVertex
 10
-5.484592012517741
 20
-24.24227565583179
 30
0.0
  0
SEQEND
  5
430
330
42D
100
AcDbEntity
  8
BEMAßUNG
  0
POLYLINE
  5
431
330
1F
100
AcDbEntity
  8
BEMAßUNG
 62
     7
100
AcDb2dPolyline
 66
     1
 10
0.0
 20
0.0
 30
0.0
  0
VERTEX
  5
432
330
431
100
AcDbEntity
  8
BEMAßUNG
 62
     7
100
AcDbVertex
100
AcDb2dVertex
 10
-7.397136771154188
 20
-24.1403008294684
 30
0.0
  0
VERTEX
  5
433
330
431
100
AcDbEntity
  8
BEMAßUNG
 62
     7
100
AcDbVertex
100
AcDb2dVertex
 10
-4.710823566530627
 20
-24.1403008294684
 30
0.0
  0
SEQEND
  5
434
330
431
100
AcDbEntity
  8
BEMAßUNG
  0
POLYLINE
  5
435
330
1F
100
AcDbEntity
  8
BEMAßUNG
 62
     7
100
AcDb2dPolyline
 66
     1
 10
0.0
 20
0.0
 30
0.0
  0
VERTEX
  5
436
330
435
100
AcDbEntity
  8
BEMAßUNG
 62
     7
100
AcDbVertex
100
AcDb2dVertex
 10
-7.397136771154188
 20
-24.03901502220205
 30
0.0
  0
VERTEX
  5
437
330
435
100
AcDbEntity
  8
BEMAßUNG
 62
     7
100
AcDbVertex
100
AcDb2dVertex
 10
-3.941878254222864
 20
-24.03901502220205
 30
0.0
  0
SEQEND
  5
438
330
435
100
AcDbEntity
  8
BEMAßUNG
  0
POLYLINE
  5
439
330
1F
100
AcDbEntity
  8
BEMAßUNG
 62
     7
100
AcDb2dPolyline
 66
     1
 10
0.0
 20
0.0
 30
0.0
  0
VERTEX
  5
43A
330
439
100
AcDbEntity
  8
BEMAßUNG
 62
     7
100
AcDbVertex
100
AcDb2dVertex
 10
-7.397136771154188
 20
-23.93772921493571
 30
0.0
  0
VERTEX
  5
43B
330
439
100
AcDbEntity
  8
BEMAßUNG
 62
     7
100
AcDbVertex
100
AcDb2dVertex
 10
-3.167420789138701
 20
-23.93772921493571
 30
0.0
  0
SEQEND
  5
43C
330
439
100
AcDbEntity
  8
BEMAßUNG
  0
POLYLINE
  5
43D
330
1F
100
AcDbEntity
  8
BEMAßUNG
 62
     7
100
AcDb2dPolyline
 66
     1
 10
0.0
 20
0.0
 30
0.0
  0
VERTEX
  5
43E
330
43D
100
AcDbEntity
  8
BEMAßUNG
 62
     7
100
AcDbVertex
100
AcDb2dVertex
 10
-7.397136771154188
 20
-23.83575438857231
 30
0.0
  0
VERTEX
  5
43F
330
43D
100
AcDbEntity
  8
BEMAßUNG
 62
     7
100
AcDbVertex
100
AcDb2dVertex
 10
-2.398475476830937
 20
-23.83575438857231
 30
0.0
  0
SEQEND
  5
440
330
43D
100
AcDbEntity
  8
BEMAßUNG
  0
POLYLINE
  5
441
330
1F
100
AcDbEntity
  8
BEMAßUNG
 62
     7
100
AcDb2dPolyline
 66
     1
 10
0.0
 20
0.0
 30
0.0
  0
VERTEX
  5
442
330
441
100
AcDbEntity
  8
BEMAßUNG
 62
     7
100
AcDbVertex
100
AcDb2dVertex
 10
-64.3969305937098
 20
16.2238159139128
 30
0.0
  0
VERTEX
  5
443
330
441
100
AcDbEntity
  8
BEMAßUNG
 62
     7
100
AcDbVertex
100
AcDb2dVertex
 10
-64.3969305937098
 20
55.42831351695889
 30
0.0
  0
SEQEND
  5
444
330
441
100
AcDbEntity
  8
BEMAßUNG
  0
POLYLINE
  5
445
330
1F
100
AcDbEntity
  8
BEMAßUNG
 62
     7
100
AcDb2dPolyline
 66
     1
 10
0.0
 20
0.0
 30
0.0
  0
VERTEX
  5
446
330
445
100
AcDbEntity
  8
BEMAßUNG
 62
     7
100
AcDbVertex
100
AcDb2dVertex
 10
-70.39759790991796
 20
-3.775652397059559
 30
0.0
  0
VERTEX
  5
447
330
445
100
AcDbEntity
  8
BEMAßUNG
 62
     7
100
AcDbVertex
100
AcDb2dVertex
 10
-70.39759790991796
 20
55.42831351695889
 30
0.0
  0
SEQEND
  5
448
330
445
100
AcDbEntity
  8
BEMAßUNG
  0
POLYLINE
  5
449
330
1F
100
AcDbEntity
  8
BEMAßUNG
 62
     7
100
AcDb2dPolyline
 66
     1
 10
0.0
 20
0.0
 30
0.0
  0
VERTEX
  5
44A
330
449
100
AcDbEntity
  8
BEMAßUNG
 62
     7
100
AcDbVertex
100
AcDb2dVertex
 10
-61.31012503892595
 20
51.42855765858383
 30
0.0
  0
VERTEX
  5
44B
330
449
100
AcDbEntity
  8
BEMAßUNG
 62
     7
100
AcDbVertex
100
AcDb2dVertex
 10
-87.89730493679303
 20
51.42855765858383
 30
0.0
  0
SEQEND
  5
44C
330
449
100
AcDbEntity
  8
BEMAßUNG
  0
POLYLINE
  5
44D
330
1F
100
AcDbEntity
  8
BEMAßUNG
 62
     7
100
AcDb2dPolyline
 66
     1
 10
0.0
 20
0.0
 30
0.0
  0
VERTEX
  5
44E
330
44D
100
AcDbEntity
  8
BEMAßUNG
 62
     7
100
AcDbVertex
100
AcDb2dVertex
 10
-64.3969305937098
 20
51.42855765858383
 30
0.0
  0
VERTEX
  5
44F
330
44D
100
AcDbEntity
  8
BEMAßUNG
 62
     7
100
AcDbVertex
100
AcDb2dVertex
 10
-59.39740802551523
 20
50.77054442090112
 30
0.0
  0
VERTEX
  5
450
330
44D
100
AcDbEntity
  8
BEMAßUNG
 62
     7
100
AcDbVertex
100
AcDb2dVertex
 10
-59.39740802551523
 20
52.08657089626655
 30
0.0
  0
VERTEX
  5
451
330
44D
100
AcDbEntity
  8
BEMAßUNG
 62
     7
100
AcDbVertex
100
AcDb2dVertex
 10
-64.3969305937098
 20
51.42855765858383
 30
0.0
  0
SEQEND
  5
452
330
44D
100
AcDbEntity
  8
BEMAßUNG
  0
POLYLINE
  5
453
330
1F
100
AcDbEntity
  8
BEMAßUNG
 62
     7
100
AcDb2dPolyline
 66
     1
 10
0.0
 20
0.0
 30
0.0
  0
VERTEX
  5
454
330
453
100
AcDbEntity
  8
BEMAßUNG
 62
     7
100
AcDbVertex
100
AcDb2dVertex
 10
-59.39740802551523
 20
50.81877575769462
 30
0.0
  0
VERTEX
  5
455
330
453
100
AcDbEntity
  8
BEMAßUNG
 62
     7
100
AcDbVertex
100
AcDb2dVertex
 10
-59.76603324243697
 20
50.81877575769462
 30
0.0
  0
SEQEND
  5
456
330
453
100
AcDbEntity
  8
BEMAßUNG
  0
POLYLINE
  5
457
330
1F
100
AcDbEntity
  8
BEMAßUNG
 62
     7
100
AcDb2dPolyline
 66
     1
 10
0.0
 20
0.0
 30
0.0
  0
VERTEX
  5
458
330
457
100
AcDbEntity
  8
BEMAßUNG
 62
     7
100
AcDbVertex
100
AcDb2dVertex
 10
-59.39740802551523
 20
50.81877575769462
 30
0.0
  0
VERTEX
  5
459
330
457
100
AcDbEntity
  8
BEMAßUNG
 62
     7
100
AcDbVertex
100
AcDb2dVertex
 10
-59.76603324243697
 20
50.81877575769462
 30
0.0
  0
SEQEND
  5
45A
330
457
100
AcDbEntity
  8
BEMAßUNG
  0
POLYLINE
  5
45B
330
1F
100
AcDbEntity
  8
BEMAßUNG
 62
     7
100
AcDb2dPolyline
 66
     1
 10
0.0
 20
0.0
 30
0.0
  0
VERTEX
  5
45C
330
45B
100
AcDbEntity
  8
BEMAßUNG
 62
     7
100
AcDbVertex
100
AcDb2dVertex
 10
-59.39740802551523
 20
50.92075058405801
 30
0.0
  0
VERTEX
  5
45D
330
45B
100
AcDbEntity
  8
BEMAßUNG
 62
     7
100
AcDbVertex
100
AcDb2dVertex
 10
-60.53773463113293
 20
50.92075058405801
 30
0.0
  0
SEQEND
  5
45E
330
45B
100
AcDbEntity
  8
BEMAßUNG
  0
POLYLINE
  5
45F
330
1F
100
AcDbEntity
  8
BEMAßUNG
 62
     7
100
AcDb2dPolyline
 66
     1
 10
0.0
 20
0.0
 30
0.0
  0
VERTEX
  5
460
330
45F
100
AcDbEntity
  8
BEMAßUNG
 62
     7
100
AcDbVertex
100
AcDb2dVertex
 10
-59.39740802551523
 20
51.0227254104214
 30
0.0
  0
VERTEX
  5
461
330
45F
100
AcDbEntity
  8
BEMAßUNG
 62
     7
100
AcDbVertex
100
AcDb2dVertex
 10
-61.31012503892595
 20
51.0227254104214
 30
0.0
  0
SEQEND
  5
462
330
45F
100
AcDbEntity
  8
BEMAßUNG
  0
POLYLINE
  5
463
330
1F
100
AcDbEntity
  8
BEMAßUNG
 62
     7
100
AcDb2dPolyline
 66
     1
 10
0.0
 20
0.0
 30
0.0
  0
VERTEX
  5
464
330
463
100
AcDbEntity
  8
BEMAßUNG
 62
     7
100
AcDbVertex
100
AcDb2dVertex
 10
-59.39740802551523
 20
51.12401121768775
 30
0.0
  0
VERTEX
  5
465
330
463
100
AcDbEntity
  8
BEMAßUNG
 62
     7
100
AcDbVertex
100
AcDb2dVertex
 10
-62.08113740852486
 20
51.12401121768775
 30
0.0
  0
SEQEND
  5
466
330
463
100
AcDbEntity
  8
BEMAßUNG
  0
POLYLINE
  5
467
330
1F
100
AcDbEntity
  8
BEMAßUNG
 62
     7
100
AcDb2dPolyline
 66
     1
 10
0.0
 20
0.0
 30
0.0
  0
VERTEX
  5
468
330
467
100
AcDbEntity
  8
BEMAßUNG
 62
     7
100
AcDbVertex
100
AcDb2dVertex
 10
-59.39740802551523
 20
51.2252970249541
 30
0.0
  0
VERTEX
  5
469
330
467
100
AcDbEntity
  8
BEMAßUNG
 62
     7
100
AcDbVertex
100
AcDb2dVertex
 10
-62.85283879722082
 20
51.2252970249541
 30
0.0
  0
SEQEND
  5
46A
330
467
100
AcDbEntity
  8
BEMAßUNG
  0
POLYLINE
  5
46B
330
1F
100
AcDbEntity
  8
BEMAßUNG
 62
     7
100
AcDb2dPolyline
 66
     1
 10
0.0
 20
0.0
 30
0.0
  0
VERTEX
  5
46C
330
46B
100
AcDbEntity
  8
BEMAßUNG
 62
     7
100
AcDbVertex
100
AcDb2dVertex
 10
-59.39740802551523
 20
51.32727185131749
 30
0.0
  0
VERTEX
  5
46D
330
46B
100
AcDbEntity
  8
BEMAßUNG
 62
     7
100
AcDbVertex
100
AcDb2dVertex
 10
-63.62454018591679
 20
51.32727185131749
 30
0.0
  0
SEQEND
  5
46E
330
46B
100
AcDbEntity
  8
BEMAßUNG
  0
POLYLINE
  5
46F
330
1F
100
AcDbEntity
  8
BEMAßUNG
 62
     7
100
AcDb2dPolyline
 66
     1
 10
0.0
 20
0.0
 30
0.0
  0
VERTEX
  5
470
330
46F
100
AcDbEntity
  8
BEMAßUNG
 62
     7
100
AcDbVertex
100
AcDb2dVertex
 10
-59.39740802551523
 20
51.42855765858383
 30
0.0
  0
VERTEX
  5
471
330
46F
100
AcDbEntity
  8
BEMAßUNG
 62
     7
100
AcDbVertex
100
AcDb2dVertex
 10
-64.3969305937098
 20
51.42855765858383
 30
0.0
  0
SEQEND
  5
472
330
46F
100
AcDbEntity
  8
BEMAßUNG
  0
POLYLINE
  5
473
330
1F
100
AcDbEntity
  8
BEMAßUNG
 62
     7
100
AcDb2dPolyline
 66
     1
 10
0.0
 20
0.0
 30
0.0
  0
VERTEX
  5
474
330
473
100
AcDbEntity
  8
BEMAßUNG
 62
     7
100
AcDbVertex
100
AcDb2dVertex
 10
-59.39740802551523
 20
52.03765054037601
 30
0.0
  0
VERTEX
  5
475
330
473
100
AcDbEntity
  8
BEMAßUNG
 62
     7
100
AcDbVertex
100
AcDb2dVertex
 10
-59.76603324243697
 20
52.03765054037601
 30
0.0
  0
SEQEND
  5
476
330
473
100
AcDbEntity
  8
BEMAßUNG
  0
POLYLINE
  5
477
330
1F
100
AcDbEntity
  8
BEMAßUNG
 62
     7
100
AcDb2dPolyline
 66
     1
 10
0.0
 20
0.0
 30
0.0
  0
VERTEX
  5
478
330
477
100
AcDbEntity
  8
BEMAßUNG
 62
     7
100
AcDbVertex
100
AcDb2dVertex
 10
-59.39740802551523
 20
52.03765054037601
 30
0.0
  0
VERTEX
  5
479
330
477
100
AcDbEntity
  8
BEMAßUNG
 62
     7
100
AcDbVertex
100
AcDb2dVertex
 10
-59.76603324243697
 20
52.03765054037601
 30
0.0
  0
SEQEND
  5
47A
330
477
100
AcDbEntity
  8
BEMAßUNG
  0
POLYLINE
  5
47B
330
1F
100
AcDbEntity
  8
BEMAßUNG
 62
     7
100
AcDb2dPolyline
 66
     1
 10
0.0
 20
0.0
 30
0.0
  0
VERTEX
  5
47C
330
47B
100
AcDbEntity
  8
BEMAßUNG
 62
     7
100
AcDbVertex
100
AcDb2dVertex
 10
-59.39740802551523
 20
51.93567571401261
 30
0.0
  0
VERTEX
  5
47D
330
47B
100
AcDbEntity
  8
BEMAßUNG
 62
     7
100
AcDbVertex
100
AcDb2dVertex
 10
-60.53773463113293
 20
51.93567571401261
 30
0.0
  0
SEQEND
  5
47E
330
47B
100
AcDbEntity
  8
BEMAßUNG
  0
POLYLINE
  5
47F
330
1F
100
AcDbEntity
  8
BEMAßUNG
 62
     7
100
AcDb2dPolyline
 66
     1
 10
0.0
 20
0.0
 30
0.0
  0
VERTEX
  5
480
330
47F
100
AcDbEntity
  8
BEMAßUNG
 62
     7
100
AcDbVertex
100
AcDb2dVertex
 10
-59.39740802551523
 20
51.83438990674627
 30
0.0
  0
VERTEX
  5
481
330
47F
100
AcDbEntity
  8
BEMAßUNG
 62
     7
100
AcDbVertex
100
AcDb2dVertex
 10
-61.31012503892595
 20
51.83438990674627
 30
0.0
  0
SEQEND
  5
482
330
47F
100
AcDbEntity
  8
BEMAßUNG
  0
POLYLINE
  5
483
330
1F
100
AcDbEntity
  8
BEMAßUNG
 62
     7
100
AcDb2dPolyline
 66
     1
 10
0.0
 20
0.0
 30
0.0
  0
VERTEX
  5
484
330
483
100
AcDbEntity
  8
BEMAßUNG
 62
     7
100
AcDbVertex
100
AcDb2dVertex
 10
-59.39740802551523
 20
51.73379311857697
 30
0.0
  0
VERTEX
  5
485
330
483
100
AcDbEntity
  8
BEMAßUNG
 62
     7
100
AcDbVertex
100
AcDb2dVertex
 10
-62.08113740852486
 20
51.73379311857697
 30
0.0
  0
SEQEND
  5
486
330
483
100
AcDbEntity
  8
BEMAßUNG
  0
POLYLINE
  5
487
330
1F
100
AcDbEntity
  8
BEMAßUNG
 62
     7
100
AcDb2dPolyline
 66
     1
 10
0.0
 20
0.0
 30
0.0
  0
VERTEX
  5
488
330
487
100
AcDbEntity
  8
BEMAßUNG
 62
     7
100
AcDbVertex
100
AcDb2dVertex
 10
-59.39740802551523
 20
51.63181829221357
 30
0.0
  0
VERTEX
  5
489
330
487
100
AcDbEntity
  8
BEMAßUNG
 62
     7
100
AcDbVertex
100
AcDb2dVertex
 10
-62.85283879722082
 20
51.63181829221357
 30
0.0
  0
SEQEND
  5
48A
330
487
100
AcDbEntity
  8
BEMAßUNG
  0
POLYLINE
  5
48B
330
1F
100
AcDbEntity
  8
BEMAßUNG
 62
     7
100
AcDb2dPolyline
 66
     1
 10
0.0
 20
0.0
 30
0.0
  0
VERTEX
  5
48C
330
48B
100
AcDbEntity
  8
BEMAßUNG
 62
     7
100
AcDbVertex
100
AcDb2dVertex
 10
-59.39740802551523
 20
51.53053248494723
 30
0.0
  0
VERTEX
  5
48D
330
48B
100
AcDbEntity
  8
BEMAßUNG
 62
     7
100
AcDbVertex
100
AcDb2dVertex
 10
-63.62454018591679
 20
51.53053248494723
 30
0.0
  0
SEQEND
  5
48E
330
48B
100
AcDbEntity
  8
BEMAßUNG
  0
POLYLINE
  5
48F
330
1F
100
AcDbEntity
  8
BEMAßUNG
 62
     7
100
AcDb2dPolyline
 66
     1
 10
0.0
 20
0.0
 30
0.0
  0
VERTEX
  5
490
330
48F
100
AcDbEntity
  8
BEMAßUNG
 62
     7
100
AcDbVertex
100
AcDb2dVertex
 10
-59.39740802551523
 20
51.42855765858383
 30
0.0
  0
VERTEX
  5
491
330
48F
100
AcDbEntity
  8
BEMAßUNG
 62
     7
100
AcDbVertex
100
AcDb2dVertex
 10
-64.3969305937098
 20
51.42855765858383
 30
0.0
  0
SEQEND
  5
492
330
48F
100
AcDbEntity
  8
BEMAßUNG
  0
POLYLINE
  5
493
330
1F
100
AcDbEntity
  8
BEMAßUNG
 62
     7
100
AcDb2dPolyline
 66
     1
 10
0.0
 20
0.0
 30
0.0
  0
VERTEX
  5
494
330
493
100
AcDbEntity
  8
BEMAßUNG
 62
     7
100
AcDbVertex
100
AcDb2dVertex
 10
-70.39759790991796
 20
51.42855765858383
 30
0.0
  0
VERTEX
  5
495
330
493
100
AcDbEntity
  8
BEMAßUNG
 62
     7
100
AcDbVertex
100
AcDb2dVertex
 10
-75.39643145901547
 20
52.08657089626655
 30
0.0
  0
VERTEX
  5
496
330
493
100
AcDbEntity
  8
BEMAßUNG
 62
     7
100
AcDbVertex
100
AcDb2dVertex
 10
-75.39643145901547
 20
50.77054442090112
 30
0.0
  0
VERTEX
  5
497
330
493
100
AcDbEntity
  8
BEMAßUNG
 62
     7
100
AcDbVertex
100
AcDb2dVertex
 10
-70.39759790991796
 20
51.42855765858383
 30
0.0
  0
SEQEND
  5
498
330
493
100
AcDbEntity
  8
BEMAßUNG
  0
POLYLINE
  5
499
330
1F
100
AcDbEntity
  8
BEMAßUNG
 62
     7
100
AcDb2dPolyline
 66
     1
 10
0.0
 20
0.0
 30
0.0
  0
VERTEX
  5
49A
330
499
100
AcDbEntity
  8
BEMAßUNG
 62
     7
100
AcDbVertex
100
AcDb2dVertex
 10
-75.39643145901547
 20
52.03765054037601
 30
0.0
  0
VERTEX
  5
49B
330
499
100
AcDbEntity
  8
BEMAßUNG
 62
     7
100
AcDbVertex
100
AcDb2dVertex
 10
-75.0271172229967
 20
52.03765054037601
 30
0.0
  0
SEQEND
  5
49C
330
499
100
AcDbEntity
  8
BEMAßUNG
  0
POLYLINE
  5
49D
330
1F
100
AcDbEntity
  8
BEMAßUNG
 62
     7
100
AcDb2dPolyline
 66
     1
 10
0.0
 20
0.0
 30
0.0
  0
VERTEX
  5
49E
330
49D
100
AcDbEntity
  8
BEMAßUNG
 62
     7
100
AcDbVertex
100
AcDb2dVertex
 10
-75.39643145901547
 20
52.03765054037601
 30
0.0
  0
VERTEX
  5
49F
330
49D
100
AcDbEntity
  8
BEMAßUNG
 62
     7
100
AcDbVertex
100
AcDb2dVertex
 10
-75.0271172229967
 20
52.03765054037601
 30
0.0
  0
SEQEND
  5
4A0
330
49D
100
AcDbEntity
  8
BEMAßUNG
  0
POLYLINE
  5
4A1
330
1F
100
AcDbEntity
  8
BEMAßUNG
 62
     7
100
AcDb2dPolyline
 66
     1
 10
0.0
 20
0.0
 30
0.0
  0
VERTEX
  5
4A2
330
4A1
100
AcDbEntity
  8
BEMAßUNG
 62
     7
100
AcDbVertex
100
AcDb2dVertex
 10
-75.39643145901547
 20
51.93567571401261
 30
0.0
  0
VERTEX
  5
4A3
330
4A1
100
AcDbEntity
  8
BEMAßUNG
 62
     7
100
AcDbVertex
100
AcDb2dVertex
 10
-74.25610485339779
 20
51.93567571401261
 30
0.0
  0
SEQEND
  5
4A4
330
4A1
100
AcDbEntity
  8
BEMAßUNG
  0
POLYLINE
  5
4A5
330
1F
100
AcDbEntity
  8
BEMAßUNG
 62
     7
100
AcDb2dPolyline
 66
     1
 10
0.0
 20
0.0
 30
0.0
  0
VERTEX
  5
4A6
330
4A5
100
AcDbEntity
  8
BEMAßUNG
 62
     7
100
AcDbVertex
100
AcDb2dVertex
 10
-75.39643145901547
 20
51.83438990674627
 30
0.0
  0
VERTEX
  5
4A7
330
4A5
100
AcDbEntity
  8
BEMAßUNG
 62
     7
100
AcDbVertex
100
AcDb2dVertex
 10
-73.48440346470181
 20
51.83438990674627
 30
0.0
  0
SEQEND
  5
4A8
330
4A5
100
AcDbEntity
  8
BEMAßUNG
  0
POLYLINE
  5
4A9
330
1F
100
AcDbEntity
  8
BEMAßUNG
 62
     7
100
AcDb2dPolyline
 66
     1
 10
0.0
 20
0.0
 30
0.0
  0
VERTEX
  5
4AA
330
4A9
100
AcDbEntity
  8
BEMAßUNG
 62
     7
100
AcDbVertex
100
AcDb2dVertex
 10
-75.39643145901547
 20
51.73379311857697
 30
0.0
  0
VERTEX
  5
4AB
330
4A9
100
AcDbEntity
  8
BEMAßUNG
 62
     7
100
AcDbVertex
100
AcDb2dVertex
 10
-72.7120130569088
 20
51.73379311857697
 30
0.0
  0
SEQEND
  5
4AC
330
4A9
100
AcDbEntity
  8
BEMAßUNG
  0
POLYLINE
  5
4AD
330
1F
100
AcDbEntity
  8
BEMAßUNG
 62
     7
100
AcDb2dPolyline
 66
     1
 10
0.0
 20
0.0
 30
0.0
  0
VERTEX
  5
4AE
330
4AD
100
AcDbEntity
  8
BEMAßUNG
 62
     7
100
AcDbVertex
100
AcDb2dVertex
 10
-75.39643145901547
 20
51.63181829221357
 30
0.0
  0
VERTEX
  5
4AF
330
4AD
100
AcDbEntity
  8
BEMAßUNG
 62
     7
100
AcDbVertex
100
AcDb2dVertex
 10
-71.94031166821284
 20
51.63181829221357
 30
0.0
  0
SEQEND
  5
4B0
330
4AD
100
AcDbEntity
  8
BEMAßUNG
  0
POLYLINE
  5
4B1
330
1F
100
AcDbEntity
  8
BEMAßUNG
 62
     7
100
AcDb2dPolyline
 66
     1
 10
0.0
 20
0.0
 30
0.0
  0
VERTEX
  5
4B2
330
4B1
100
AcDbEntity
  8
BEMAßUNG
 62
     7
100
AcDbVertex
100
AcDb2dVertex
 10
-75.39643145901547
 20
51.53053248494723
 30
0.0
  0
VERTEX
  5
4B3
330
4B1
100
AcDbEntity
  8
BEMAßUNG
 62
     7
100
AcDbVertex
100
AcDb2dVertex
 10
-71.16929929861392
 20
51.53053248494723
 30
0.0
  0
SEQEND
  5
4B4
330
4B1
100
AcDbEntity
  8
BEMAßUNG
  0
POLYLINE
  5
4B5
330
1F
100
AcDbEntity
  8
BEMAßUNG
 62
     7
100
AcDb2dPolyline
 66
     1
 10
0.0
 20
0.0
 30
0.0
  0
VERTEX
  5
4B6
330
4B5
100
AcDbEntity
  8
BEMAßUNG
 62
     7
100
AcDbVertex
100
AcDb2dVertex
 10
-75.39643145901547
 20
51.42855765858383
 30
0.0
  0
VERTEX
  5
4B7
330
4B5
100
AcDbEntity
  8
BEMAßUNG
 62
     7
100
AcDbVertex
100
AcDb2dVertex
 10
-70.39759790991796
 20
51.42855765858383
 30
0.0
  0
SEQEND
  5
4B8
330
4B5
100
AcDbEntity
  8
BEMAßUNG
  0
POLYLINE
  5
4B9
330
1F
100
AcDbEntity
  8
BEMAßUNG
 62
     7
100
AcDb2dPolyline
 66
     1
 10
0.0
 20
0.0
 30
0.0
  0
VERTEX
  5
4BA
330
4B9
100
AcDbEntity
  8
BEMAßUNG
 62
     7
100
AcDbVertex
100
AcDb2dVertex
 10
-75.39643145901547
 20
50.81877575769462
 30
0.0
  0
VERTEX
  5
4BB
330
4B9
100
AcDbEntity
  8
BEMAßUNG
 62
     7
100
AcDbVertex
100
AcDb2dVertex
 10
-75.0271172229967
 20
50.81877575769462
 30
0.0
  0
SEQEND
  5
4BC
330
4B9
100
AcDbEntity
  8
BEMAßUNG
  0
POLYLINE
  5
4BD
330
1F
100
AcDbEntity
  8
BEMAßUNG
 62
     7
100
AcDb2dPolyline
 66
     1
 10
0.0
 20
0.0
 30
0.0
  0
VERTEX
  5
4BE
330
4BD
100
AcDbEntity
  8
BEMAßUNG
 62
     7
100
AcDbVertex
100
AcDb2dVertex
 10
-75.39643145901547
 20
50.81877575769462
 30
0.0
  0
VERTEX
  5
4BF
330
4BD
100
AcDbEntity
  8
BEMAßUNG
 62
     7
100
AcDbVertex
100
AcDb2dVertex
 10
-75.0271172229967
 20
50.81877575769462
 30
0.0
  0
SEQEND
  5
4C0
330
4BD
100
AcDbEntity
  8
BEMAßUNG
  0
POLYLINE
  5
4C1
330
1F
100
AcDbEntity
  8
BEMAßUNG
 62
     7
100
AcDb2dPolyline
 66
     1
 10
0.0
 20
0.0
 30
0.0
  0
VERTEX
  5
4C2
330
4C1
100
AcDbEntity
  8
BEMAßUNG
 62
     7
100
AcDbVertex
100
AcDb2dVertex
 10
-75.39643145901547
 20
50.92075058405801
 30
0.0
  0
VERTEX
  5
4C3
330
4C1
100
AcDbEntity
  8
BEMAßUNG
 62
     7
100
AcDbVertex
100
AcDb2dVertex
 10
-74.25610485339779
 20
50.92075058405801
 30
0.0
  0
SEQEND
  5
4C4
330
4C1
100
AcDbEntity
  8
BEMAßUNG
  0
POLYLINE
  5
4C5
330
1F
100
AcDbEntity
  8
BEMAßUNG
 62
     7
100
AcDb2dPolyline
 66
     1
 10
0.0
 20
0.0
 30
0.0
  0
VERTEX
  5
4C6
330
4C5
100
AcDbEntity
  8
BEMAßUNG
 62
     7
100
AcDbVertex
100
AcDb2dVertex
 10
-75.39643145901547
 20
51.0227254104214
 30
0.0
  0
VERTEX
  5
4C7
330
4C5
100
AcDbEntity
  8
BEMAßUNG
 62
     7
100
AcDbVertex
100
AcDb2dVertex
 10
-73.48440346470181
 20
51.0227254104214
 30
0.0
  0
SEQEND
  5
4C8
330
4C5
100
AcDbEntity
  8
BEMAßUNG
  0
POLYLINE
  5
4C9
330
1F
100
AcDbEntity
  8
BEMAßUNG
 62
     7
100
AcDb2dPolyline
 66
     1
 10
0.0
 20
0.0
 30
0.0
  0
VERTEX
  5
4CA
330
4C9
100
AcDbEntity
  8
BEMAßUNG
 62
     7
100
AcDbVertex
100
AcDb2dVertex
 10
-75.39643145901547
 20
51.12401121768775
 30
0.0
  0
VERTEX
  5
4CB
330
4C9
100
AcDbEntity
  8
BEMAßUNG
 62
     7
100
AcDbVertex
100
AcDb2dVertex
 10
-72.7120130569088
 20
51.12401121768775
 30
0.0
  0
SEQEND
  5
4CC
330
4C9
100
AcDbEntity
  8
BEMAßUNG
  0
POLYLINE
  5
4CD
330
1F
100
AcDbEntity
  8
BEMAßUNG
 62
     7
100
AcDb2dPolyline
 66
     1
 10
0.0
 20
0.0
 30
0.0
  0
VERTEX
  5
4CE
330
4CD
100
AcDbEntity
  8
BEMAßUNG
 62
     7
100
AcDbVertex
100
AcDb2dVertex
 10
-75.39643145901547
 20
51.2252970249541
 30
0.0
  0
VERTEX
  5
4CF
330
4CD
100
AcDbEntity
  8
BEMAßUNG
 62
     7
100
AcDbVertex
100
AcDb2dVertex
 10
-71.94031166821284
 20
51.2252970249541
 30
0.0
  0
SEQEND
  5
4D0
330
4CD
100
AcDbEntity
  8
BEMAßUNG
  0
POLYLINE
  5
4D1
330
1F
100
AcDbEntity
  8
BEMAßUNG
 62
     7
100
AcDb2dPolyline
 66
     1
 10
0.0
 20
0.0
 30
0.0
  0
VERTEX
  5
4D2
330
4D1
100
AcDbEntity
  8
BEMAßUNG
 62
     7
100
AcDbVertex
100
AcDb2dVertex
 10
-75.39643145901547
 20
51.32727185131749
 30
0.0
  0
VERTEX
  5
4D3
330
4D1
100
AcDbEntity
  8
BEMAßUNG
 62
     7
100
AcDbVertex
100
AcDb2dVertex
 10
-71.16929929861392
 20
51.32727185131749
 30
0.0
  0
SEQEND
  5
4D4
330
4D1
100
AcDbEntity
  8
BEMAßUNG
  0
POLYLINE
  5
4D5
330
1F
100
AcDbEntity
  8
BEMAßUNG
 62
     7
100
AcDb2dPolyline
 66
     1
 10
0.0
 20
0.0
 30
0.0
  0
VERTEX
  5
4D6
330
4D5
100
AcDbEntity
  8
BEMAßUNG
 62
     7
100
AcDbVertex
100
AcDb2dVertex
 10
-75.39643145901547
 20
51.42855765858383
 30
0.0
  0
VERTEX
  5
4D7
330
4D5
100
AcDbEntity
  8
BEMAßUNG
 62
     7
100
AcDbVertex
100
AcDb2dVertex
 10
-70.39759790991796
 20
51.42855765858383
 30
0.0
  0
SEQEND
  5
4D8
330
4D5
100
AcDbEntity
  8
BEMAßUNG
  0
POLYLINE
  5
4D9
330
1F
100
AcDbEntity
  8
BEMAßUNG
 62
     7
100
AcDb2dPolyline
 66
     1
 10
0.0
 20
0.0
 30
0.0
  0
VERTEX
  5
4DA
330
4D9
100
AcDbEntity
  8
BEMAßUNG
 62
     7
100
AcDbVertex
100
AcDb2dVertex
 10
-12.39665933934875
 20
16.2238159139128
 30
0.0
  0
VERTEX
  5
4DB
330
4D9
100
AcDbEntity
  8
BEMAßUNG
 62
     7
100
AcDbVertex
100
AcDb2dVertex
 10
-12.39665933934875
 20
55.42831351695889
 30
0.0
  0
SEQEND
  5
4DC
330
4D9
100
AcDbEntity
  8
BEMAßUNG
  0
POLYLINE
  5
4DD
330
1F
100
AcDbEntity
  8
BEMAßUNG
 62
     7
100
AcDb2dPolyline
 66
     1
 10
0.0
 20
0.0
 30
0.0
  0
VERTEX
  5
4DE
330
4DD
100
AcDbEntity
  8
BEMAßUNG
 62
     7
100
AcDbVertex
100
AcDb2dVertex
 10
-64.3969305937098
 20
16.2238159139128
 30
0.0
  0
VERTEX
  5
4DF
330
4DD
100
AcDbEntity
  8
BEMAßUNG
 62
     7
100
AcDbVertex
100
AcDb2dVertex
 10
-64.3969305937098
 20
55.42831351695889
 30
0.0
  0
SEQEND
  5
4E0
330
4DD
100
AcDbEntity
  8
BEMAßUNG
  0
POLYLINE
  5
4E1
330
1F
100
AcDbEntity
  8
BEMAßUNG
 62
     7
100
AcDb2dPolyline
 66
     1
 10
0.0
 20
0.0
 30
0.0
  0
VERTEX
  5
4E2
330
4E1
100
AcDbEntity
  8
BEMAßUNG
 62
     7
100
AcDbVertex
100
AcDb2dVertex
 10
-12.39665933934875
 20
51.42855765858383
 30
0.0
  0
VERTEX
  5
4E3
330
4E1
100
AcDbEntity
  8
BEMAßUNG
 62
     7
100
AcDbVertex
100
AcDb2dVertex
 10
-64.3969305937098
 20
51.42855765858383
 30
0.0
  0
SEQEND
  5
4E4
330
4E1
100
AcDbEntity
  8
BEMAßUNG
  0
POLYLINE
  5
4E5
330
1F
100
AcDbEntity
  8
BEMAßUNG
 62
     7
100
AcDb2dPolyline
 66
     1
 10
0.0
 20
0.0
 30
0.0
  0
VERTEX
  5
4E6
330
4E5
100
AcDbEntity
  8
BEMAßUNG
 62
     7
100
AcDbVertex
100
AcDb2dVertex
 10
-12.39665933934875
 20
51.42855765858383
 30
0.0
  0
VERTEX
  5
4E7
330
4E5
100
AcDbEntity
  8
BEMAßUNG
 62
     7
100
AcDbVertex
100
AcDb2dVertex
 10
-17.39755994573742
 20
52.08657089626655
 30
0.0
  0
VERTEX
  5
4E8
330
4E5
100
AcDbEntity
  8
BEMAßUNG
 62
     7
100
AcDbVertex
100
AcDb2dVertex
 10
-17.39755994573742
 20
50.77054442090112
 30
0.0
  0
VERTEX
  5
4E9
330
4E5
100
AcDbEntity
  8
BEMAßUNG
 62
     7
100
AcDbVertex
100
AcDb2dVertex
 10
-12.39665933934875
 20
51.42855765858383
 30
0.0
  0
SEQEND
  5
4EA
330
4E5
100
AcDbEntity
  8
BEMAßUNG
  0
POLYLINE
  5
4EB
330
1F
100
AcDbEntity
  8
BEMAßUNG
 62
     7
100
AcDb2dPolyline
 66
     1
 10
0.0
 20
0.0
 30
0.0
  0
VERTEX
  5
4EC
330
4EB
100
AcDbEntity
  8
BEMAßUNG
 62
     7
100
AcDbVertex
100
AcDb2dVertex
 10
-17.39755994573742
 20
52.03765054037601
 30
0.0
  0
VERTEX
  5
4ED
330
4EB
100
AcDbEntity
  8
BEMAßUNG
 62
     7
100
AcDbVertex
100
AcDb2dVertex
 10
-17.02755669062158
 20
52.03765054037601
 30
0.0
  0
SEQEND
  5
4EE
330
4EB
100
AcDbEntity
  8
BEMAßUNG
  0
POLYLINE
  5
4EF
330
1F
100
AcDbEntity
  8
BEMAßUNG
 62
     7
100
AcDb2dPolyline
 66
     1
 10
0.0
 20
0.0
 30
0.0
  0
VERTEX
  5
4F0
330
4EF
100
AcDbEntity
  8
BEMAßUNG
 62
     7
100
AcDbVertex
100
AcDb2dVertex
 10
-17.39755994573742
 20
52.03765054037601
 30
0.0
  0
VERTEX
  5
4F1
330
4EF
100
AcDbEntity
  8
BEMAßUNG
 62
     7
100
AcDbVertex
100
AcDb2dVertex
 10
-17.02755669062158
 20
52.03765054037601
 30
0.0
  0
SEQEND
  5
4F2
330
4EF
100
AcDbEntity
  8
BEMAßUNG
  0
POLYLINE
  5
4F3
330
1F
100
AcDbEntity
  8
BEMAßUNG
 62
     7
100
AcDb2dPolyline
 66
     1
 10
0.0
 20
0.0
 30
0.0
  0
VERTEX
  5
4F4
330
4F3
100
AcDbEntity
  8
BEMAßUNG
 62
     7
100
AcDbVertex
100
AcDb2dVertex
 10
-17.39755994573742
 20
51.93567571401261
 30
0.0
  0
VERTEX
  5
4F5
330
4F3
100
AcDbEntity
  8
BEMAßUNG
 62
     7
100
AcDbVertex
100
AcDb2dVertex
 10
-16.25516628282857
 20
51.93567571401261
 30
0.0
  0
SEQEND
  5
4F6
330
4F3
100
AcDbEntity
  8
BEMAßUNG
  0
POLYLINE
  5
4F7
330
1F
100
AcDbEntity
  8
BEMAßUNG
 62
     7
100
AcDb2dPolyline
 66
     1
 10
0.0
 20
0.0
 30
0.0
  0
VERTEX
  5
4F8
330
4F7
100
AcDbEntity
  8
BEMAßUNG
 62
     7
100
AcDbVertex
100
AcDb2dVertex
 10
-17.39755994573742
 20
51.83438990674627
 30
0.0
  0
VERTEX
  5
4F9
330
4F7
100
AcDbEntity
  8
BEMAßUNG
 62
     7
100
AcDbVertex
100
AcDb2dVertex
 10
-15.48346489413261
 20
51.83438990674627
 30
0.0
  0
SEQEND
  5
4FA
330
4F7
100
AcDbEntity
  8
BEMAßUNG
  0
POLYLINE
  5
4FB
330
1F
100
AcDbEntity
  8
BEMAßUNG
 62
     7
100
AcDb2dPolyline
 66
     1
 10
0.0
 20
0.0
 30
0.0
  0
VERTEX
  5
4FC
330
4FB
100
AcDbEntity
  8
BEMAßUNG
 62
     7
100
AcDbVertex
100
AcDb2dVertex
 10
-17.39755994573742
 20
51.73379311857697
 30
0.0
  0
VERTEX
  5
4FD
330
4FB
100
AcDbEntity
  8
BEMAßUNG
 62
     7
100
AcDbVertex
100
AcDb2dVertex
 10
-14.71176350543664
 20
51.73379311857697
 30
0.0
  0
SEQEND
  5
4FE
330
4FB
100
AcDbEntity
  8
BEMAßUNG
  0
POLYLINE
  5
4FF
330
1F
100
AcDbEntity
  8
BEMAßUNG
 62
     7
100
AcDb2dPolyline
 66
     1
 10
0.0
 20
0.0
 30
0.0
  0
VERTEX
  5
500
330
4FF
100
AcDbEntity
  8
BEMAßUNG
 62
     7
100
AcDbVertex
100
AcDb2dVertex
 10
-17.39755994573742
 20
51.63181829221357
 30
0.0
  0
VERTEX
  5
501
330
4FF
100
AcDbEntity
  8
BEMAßUNG
 62
     7
100
AcDbVertex
100
AcDb2dVertex
 10
-13.94075113583773
 20
51.63181829221357
 30
0.0
  0
SEQEND
  5
502
330
4FF
100
AcDbEntity
  8
BEMAßUNG
  0
POLYLINE
  5
503
330
1F
100
AcDbEntity
  8
BEMAßUNG
 62
     7
100
AcDb2dPolyline
 66
     1
 10
0.0
 20
0.0
 30
0.0
  0
VERTEX
  5
504
330
503
100
AcDbEntity
  8
BEMAßUNG
 62
     7
100
AcDbVertex
100
AcDb2dVertex
 10
-17.39755994573742
 20
51.53053248494723
 30
0.0
  0
VERTEX
  5
505
330
503
100
AcDbEntity
  8
BEMAßUNG
 62
     7
100
AcDbVertex
100
AcDb2dVertex
 10
-13.16836072804472
 20
51.53053248494723
 30
0.0
  0
SEQEND
  5
506
330
503
100
AcDbEntity
  8
BEMAßUNG
  0
POLYLINE
  5
507
330
1F
100
AcDbEntity
  8
BEMAßUNG
 62
     7
100
AcDb2dPolyline
 66
     1
 10
0.0
 20
0.0
 30
0.0
  0
VERTEX
  5
508
330
507
100
AcDbEntity
  8
BEMAßUNG
 62
     7
100
AcDbVertex
100
AcDb2dVertex
 10
-17.39755994573742
 20
51.42855765858383
 30
0.0
  0
VERTEX
  5
509
330
507
100
AcDbEntity
  8
BEMAßUNG
 62
     7
100
AcDbVertex
100
AcDb2dVertex
 10
-12.39665933934875
 20
51.42855765858383
 30
0.0
  0
SEQEND
  5
50A
330
507
100
AcDbEntity
  8
BEMAßUNG
  0
POLYLINE
  5
50B
330
1F
100
AcDbEntity
  8
BEMAßUNG
 62
     7
100
AcDb2dPolyline
 66
     1
 10
0.0
 20
0.0
 30
0.0
  0
VERTEX
  5
50C
330
50B
100
AcDbEntity
  8
BEMAßUNG
 62
     7
100
AcDbVertex
100
AcDb2dVertex
 10
-17.39755994573742
 20
50.81877575769462
 30
0.0
  0
VERTEX
  5
50D
330
50B
100
AcDbEntity
  8
BEMAßUNG
 62
     7
100
AcDbVertex
100
AcDb2dVertex
 10
-17.02755669062158
 20
50.81877575769462
 30
0.0
  0
SEQEND
  5
50E
330
50B
100
AcDbEntity
  8
BEMAßUNG
  0
POLYLINE
  5
50F
330
1F
100
AcDbEntity
  8
BEMAßUNG
 62
     7
100
AcDb2dPolyline
 66
     1
 10
0.0
 20
0.0
 30
0.0
  0
VERTEX
  5
510
330
50F
100
AcDbEntity
  8
BEMAßUNG
 62
     7
100
AcDbVertex
100
AcDb2dVertex
 10
-17.39755994573742
 20
50.81877575769462
 30
0.0
  0
VERTEX
  5
511
330
50F
100
AcDbEntity
  8
BEMAßUNG
 62
     7
100
AcDbVertex
100
AcDb2dVertex
 10
-17.02755669062158
 20
50.81877575769462
 30
0.0
  0
SEQEND
  5
512
330
50F
100
AcDbEntity
  8
BEMAßUNG
  0
POLYLINE
  5
513
330
1F
100
AcDbEntity
  8
BEMAßUNG
 62
     7
100
AcDb2dPolyline
 66
     1
 10
0.0
 20
0.0
 30
0.0
  0
VERTEX
  5
514
330
513
100
AcDbEntity
  8
BEMAßUNG
 62
     7
100
AcDbVertex
100
AcDb2dVertex
 10
-17.39755994573742
 20
50.92075058405801
 30
0.0
  0
VERTEX
  5
515
330
513
100
AcDbEntity
  8
BEMAßUNG
 62
     7
100
AcDbVertex
100
AcDb2dVertex
 10
-16.25516628282857
 20
50.92075058405801
 30
0.0
  0
SEQEND
  5
516
330
513
100
AcDbEntity
  8
BEMAßUNG
  0
POLYLINE
  5
517
330
1F
100
AcDbEntity
  8
BEMAßUNG
 62
     7
100
AcDb2dPolyline
 66
     1
 10
0.0
 20
0.0
 30
0.0
  0
VERTEX
  5
518
330
517
100
AcDbEntity
  8
BEMAßUNG
 62
     7
100
AcDbVertex
100
AcDb2dVertex
 10
-17.39755994573742
 20
51.0227254104214
 30
0.0
  0
VERTEX
  5
519
330
517
100
AcDbEntity
  8
BEMAßUNG
 62
     7
100
AcDbVertex
100
AcDb2dVertex
 10
-15.48346489413261
 20
51.0227254104214
 30
0.0
  0
SEQEND
  5
51A
330
517
100
AcDbEntity
  8
BEMAßUNG
  0
POLYLINE
  5
51B
330
1F
100
AcDbEntity
  8
BEMAßUNG
 62
     7
100
AcDb2dPolyline
 66
     1
 10
0.0
 20
0.0
 30
0.0
  0
VERTEX
  5
51C
330
51B
100
AcDbEntity
  8
BEMAßUNG
 62
     7
100
AcDbVertex
100
AcDb2dVertex
 10
-17.39755994573742
 20
51.12401121768775
 30
0.0
  0
VERTEX
  5
51D
330
51B
100
AcDbEntity
  8
BEMAßUNG
 62
     7
100
AcDbVertex
100
AcDb2dVertex
 10
-14.71176350543664
 20
51.12401121768775
 30
0.0
  0
SEQEND
  5
51E
330
51B
100
AcDbEntity
  8
BEMAßUNG
  0
POLYLINE
  5
51F
330
1F
100
AcDbEntity
  8
BEMAßUNG
 62
     7
100
AcDb2dPolyline
 66
     1
 10
0.0
 20
0.0
 30
0.0
  0
VERTEX
  5
520
330
51F
100
AcDbEntity
  8
BEMAßUNG
 62
     7
100
AcDbVertex
100
AcDb2dVertex
 10
-17.39755994573742
 20
51.2252970249541
 30
0.0
  0
VERTEX
  5
521
330
51F
100
AcDbEntity
  8
BEMAßUNG
 62
     7
100
AcDbVertex
100
AcDb2dVertex
 10
-13.94075113583773
 20
51.2252970249541
 30
0.0
  0
SEQEND
  5
522
330
51F
100
AcDbEntity
  8
BEMAßUNG
  0
POLYLINE
  5
523
330
1F
100
AcDbEntity
  8
BEMAßUNG
 62
     7
100
AcDb2dPolyline
 66
     1
 10
0.0
 20
0.0
 30
0.0
  0
VERTEX
  5
524
330
523
100
AcDbEntity
  8
BEMAßUNG
 62
     7
100
AcDbVertex
100
AcDb2dVertex
 10
-17.39755994573742
 20
51.32727185131749
 30
0.0
  0
VERTEX
  5
525
330
523
100
AcDbEntity
  8
BEMAßUNG
 62
     7
100
AcDbVertex
100
AcDb2dVertex
 10
-13.16836072804472
 20
51.32727185131749
 30
0.0
  0
SEQEND
  5
526
330
523
100
AcDbEntity
  8
BEMAßUNG
  0
POLYLINE
  5
527
330
1F
100
AcDbEntity
  8
BEMAßUNG
 62
     7
100
AcDb2dPolyline
 66
     1
 10
0.0
 20
0.0
 30
0.0
  0
VERTEX
  5
528
330
527
100
AcDbEntity
  8
BEMAßUNG
 62
     7
100
AcDbVertex
100
AcDb2dVertex
 10
-17.39755994573742
 20
51.42855765858383
 30
0.0
  0
VERTEX
  5
529
330
527
100
AcDbEntity
  8
BEMAßUNG
 62
     7
100
AcDbVertex
100
AcDb2dVertex
 10
-12.39665933934875
 20
51.42855765858383
 30
0.0
  0
SEQEND
  5
52A
330
527
100
AcDbEntity
  8
BEMAßUNG
  0
POLYLINE
  5
52B
330
1F
100
AcDbEntity
  8
BEMAßUNG
 62
     7
100
AcDb2dPolyline
 66
     1
 10
0.0
 20
0.0
 30
0.0
  0
VERTEX
  5
52C
330
52B
100
AcDbEntity
  8
BEMAßUNG
 62
     7
100
AcDbVertex
100
AcDb2dVertex
 10
-64.3969305937098
 20
51.42855765858383
 30
0.0
  0
VERTEX
  5
52D
330
52B
100
AcDbEntity
  8
BEMAßUNG
 62
     7
100
AcDbVertex
100
AcDb2dVertex
 10
-59.39740802551523
 20
50.77054442090112
 30
0.0
  0
VERTEX
  5
52E
330
52B
100
AcDbEntity
  8
BEMAßUNG
 62
     7
100
AcDbVertex
100
AcDb2dVertex
 10
-59.39740802551523
 20
52.08657089626655
 30
0.0
  0
VERTEX
  5
52F
330
52B
100
AcDbEntity
  8
BEMAßUNG
 62
     7
100
AcDbVertex
100
AcDb2dVertex
 10
-64.3969305937098
 20
51.42855765858383
 30
0.0
  0
SEQEND
  5
530
330
52B
100
AcDbEntity
  8
BEMAßUNG
  0
POLYLINE
  5
531
330
1F
100
AcDbEntity
  8
BEMAßUNG
 62
     7
100
AcDb2dPolyline
 66
     1
 10
0.0
 20
0.0
 30
0.0
  0
VERTEX
  5
532
330
531
100
AcDbEntity
  8
BEMAßUNG
 62
     7
100
AcDbVertex
100
AcDb2dVertex
 10
-59.39740802551523
 20
50.81877575769462
 30
0.0
  0
VERTEX
  5
533
330
531
100
AcDbEntity
  8
BEMAßUNG
 62
     7
100
AcDbVertex
100
AcDb2dVertex
 10
-59.76603324243697
 20
50.81877575769462
 30
0.0
  0
SEQEND
  5
534
330
531
100
AcDbEntity
  8
BEMAßUNG
  0
POLYLINE
  5
535
330
1F
100
AcDbEntity
  8
BEMAßUNG
 62
     7
100
AcDb2dPolyline
 66
     1
 10
0.0
 20
0.0
 30
0.0
  0
VERTEX
  5
536
330
535
100
AcDbEntity
  8
BEMAßUNG
 62
     7
100
AcDbVertex
100
AcDb2dVertex
 10
-59.39740802551523
 20
50.81877575769462
 30
0.0
  0
VERTEX
  5
537
330
535
100
AcDbEntity
  8
BEMAßUNG
 62
     7
100
AcDbVertex
100
AcDb2dVertex
 10
-59.76603324243697
 20
50.81877575769462
 30
0.0
  0
SEQEND
  5
538
330
535
100
AcDbEntity
  8
BEMAßUNG
  0
POLYLINE
  5
539
330
1F
100
AcDbEntity
  8
BEMAßUNG
 62
     7
100
AcDb2dPolyline
 66
     1
 10
0.0
 20
0.0
 30
0.0
  0
VERTEX
  5
53A
330
539
100
AcDbEntity
  8
BEMAßUNG
 62
     7
100
AcDbVertex
100
AcDb2dVertex
 10
-59.39740802551523
 20
50.92075058405801
 30
0.0
  0
VERTEX
  5
53B
330
539
100
AcDbEntity
  8
BEMAßUNG
 62
     7
100
AcDbVertex
100
AcDb2dVertex
 10
-60.53773463113293
 20
50.92075058405801
 30
0.0
  0
SEQEND
  5
53C
330
539
100
AcDbEntity
  8
BEMAßUNG
  0
POLYLINE
  5
53D
330
1F
100
AcDbEntity
  8
BEMAßUNG
 62
     7
100
AcDb2dPolyline
 66
     1
 10
0.0
 20
0.0
 30
0.0
  0
VERTEX
  5
53E
330
53D
100
AcDbEntity
  8
BEMAßUNG
 62
     7
100
AcDbVertex
100
AcDb2dVertex
 10
-59.39740802551523
 20
51.0227254104214
 30
0.0
  0
VERTEX
  5
53F
330
53D
100
AcDbEntity
  8
BEMAßUNG
 62
     7
100
AcDbVertex
100
AcDb2dVertex
 10
-61.31012503892595
 20
51.0227254104214
 30
0.0
  0
SEQEND
  5
540
330
53D
100
AcDbEntity
  8
BEMAßUNG
  0
POLYLINE
  5
541
330
1F
100
AcDbEntity
  8
BEMAßUNG
 62
     7
100
AcDb2dPolyline
 66
     1
 10
0.0
 20
0.0
 30
0.0
  0
VERTEX
  5
542
330
541
100
AcDbEntity
  8
BEMAßUNG
 62
     7
100
AcDbVertex
100
AcDb2dVertex
 10
-59.39740802551523
 20
51.12401121768775
 30
0.0
  0
VERTEX
  5
543
330
541
100
AcDbEntity
  8
BEMAßUNG
 62
     7
100
AcDbVertex
100
AcDb2dVertex
 10
-62.08113740852486
 20
51.12401121768775
 30
0.0
  0
SEQEND
  5
544
330
541
100
AcDbEntity
  8
BEMAßUNG
  0
POLYLINE
  5
545
330
1F
100
AcDbEntity
  8
BEMAßUNG
 62
     7
100
AcDb2dPolyline
 66
     1
 10
0.0
 20
0.0
 30
0.0
  0
VERTEX
  5
546
330
545
100
AcDbEntity
  8
BEMAßUNG
 62
     7
100
AcDbVertex
100
AcDb2dVertex
 10
-59.39740802551523
 20
51.2252970249541
 30
0.0
  0
VERTEX
  5
547
330
545
100
AcDbEntity
  8
BEMAßUNG
 62
     7
100
AcDbVertex
100
AcDb2dVertex
 10
-62.85283879722082
 20
51.2252970249541
 30
0.0
  0
SEQEND
  5
548
330
545
100
AcDbEntity
  8
BEMAßUNG
  0
POLYLINE
  5
549
330
1F
100
AcDbEntity
  8
BEMAßUNG
 62
     7
100
AcDb2dPolyline
 66
     1
 10
0.0
 20
0.0
 30
0.0
  0
VERTEX
  5
54A
330
549
100
AcDbEntity
  8
BEMAßUNG
 62
     7
100
AcDbVertex
100
AcDb2dVertex
 10
-59.39740802551523
 20
51.32727185131749
 30
0.0
  0
VERTEX
  5
54B
330
549
100
AcDbEntity
  8
BEMAßUNG
 62
     7
100
AcDbVertex
100
AcDb2dVertex
 10
-63.62454018591679
 20
51.32727185131749
 30
0.0
  0
SEQEND
  5
54C
330
549
100
AcDbEntity
  8
BEMAßUNG
  0
POLYLINE
  5
54D
330
1F
100
AcDbEntity
  8
BEMAßUNG
 62
     7
100
AcDb2dPolyline
 66
     1
 10
0.0
 20
0.0
 30
0.0
  0
VERTEX
  5
54E
330
54D
100
AcDbEntity
  8
BEMAßUNG
 62
     7
100
AcDbVertex
100
AcDb2dVertex
 10
-59.39740802551523
 20
51.42855765858383
 30
0.0
  0
VERTEX
  5
54F
330
54D
100
AcDbEntity
  8
BEMAßUNG
 62
     7
100
AcDbVertex
100
AcDb2dVertex
 10
-64.3969305937098
 20
51.42855765858383
 30
0.0
  0
SEQEND
  5
550
330
54D
100
AcDbEntity
  8
BEMAßUNG
  0
POLYLINE
  5
551
330
1F
100
AcDbEntity
  8
BEMAßUNG
 62
     7
100
AcDb2dPolyline
 66
     1
 10
0.0
 20
0.0
 30
0.0
  0
VERTEX
  5
552
330
551
100
AcDbEntity
  8
BEMAßUNG
 62
     7
100
AcDbVertex
100
AcDb2dVertex
 10
-59.39740802551523
 20
52.03765054037601
 30
0.0
  0
VERTEX
  5
553
330
551
100
AcDbEntity
  8
BEMAßUNG
 62
     7
100
AcDbVertex
100
AcDb2dVertex
 10
-59.76603324243697
 20
52.03765054037601
 30
0.0
  0
SEQEND
  5
554
330
551
100
AcDbEntity
  8
BEMAßUNG
  0
POLYLINE
  5
555
330
1F
100
AcDbEntity
  8
BEMAßUNG
 62
     7
100
AcDb2dPolyline
 66
     1
 10
0.0
 20
0.0
 30
0.0
  0
VERTEX
  5
556
330
555
100
AcDbEntity
  8
BEMAßUNG
 62
     7
100
AcDbVertex
100
AcDb2dVertex
 10
-59.39740802551523
 20
52.03765054037601
 30
0.0
  0
VERTEX
  5
557
330
555
100
AcDbEntity
  8
BEMAßUNG
 62
     7
100
AcDbVertex
100
AcDb2dVertex
 10
-59.76603324243697
 20
52.03765054037601
 30
0.0
  0
SEQEND
  5
558
330
555
100
AcDbEntity
  8
BEMAßUNG
  0
POLYLINE
  5
559
330
1F
100
AcDbEntity
  8
BEMAßUNG
 62
     7
100
AcDb2dPolyline
 66
     1
 10
0.0
 20
0.0
 30
0.0
  0
VERTEX
  5
55A
330
559
100
AcDbEntity
  8
BEMAßUNG
 62
     7
100
AcDbVertex
100
AcDb2dVertex
 10
-59.39740802551523
 20
51.93567571401261
 30
0.0
  0
VERTEX
  5
55B
330
559
100
AcDbEntity
  8
BEMAßUNG
 62
     7
100
AcDbVertex
100
AcDb2dVertex
 10
-60.53773463113293
 20
51.93567571401261
 30
0.0
  0
SEQEND
  5
55C
330
559
100
AcDbEntity
  8
BEMAßUNG
  0
POLYLINE
  5
55D
330
1F
100
AcDbEntity
  8
BEMAßUNG
 62
     7
100
AcDb2dPolyline
 66
     1
 10
0.0
 20
0.0
 30
0.0
  0
VERTEX
  5
55E
330
55D
100
AcDbEntity
  8
BEMAßUNG
 62
     7
100
AcDbVertex
100
AcDb2dVertex
 10
-59.39740802551523
 20
51.83438990674627
 30
0.0
  0
VERTEX
  5
55F
330
55D
100
AcDbEntity
  8
BEMAßUNG
 62
     7
100
AcDbVertex
100
AcDb2dVertex
 10
-61.31012503892595
 20
51.83438990674627
 30
0.0
  0
SEQEND
  5
560
330
55D
100
AcDbEntity
  8
BEMAßUNG
  0
POLYLINE
  5
561
330
1F
100
AcDbEntity
  8
BEMAßUNG
 62
     7
100
AcDb2dPolyline
 66
     1
 10
0.0
 20
0.0
 30
0.0
  0
VERTEX
  5
562
330
561
100
AcDbEntity
  8
BEMAßUNG
 62
     7
100
AcDbVertex
100
AcDb2dVertex
 10
-59.39740802551523
 20
51.73379311857697
 30
0.0
  0
VERTEX
  5
563
330
561
100
AcDbEntity
  8
BEMAßUNG
 62
     7
100
AcDbVertex
100
AcDb2dVertex
 10
-62.08113740852486
 20
51.73379311857697
 30
0.0
  0
SEQEND
  5
564
330
561
100
AcDbEntity
  8
BEMAßUNG
  0
POLYLINE
  5
565
330
1F
100
AcDbEntity
  8
BEMAßUNG
 62
     7
100
AcDb2dPolyline
 66
     1
 10
0.0
 20
0.0
 30
0.0
  0
VERTEX
  5
566
330
565
100
AcDbEntity
  8
BEMAßUNG
 62
     7
100
AcDbVertex
100
AcDb2dVertex
 10
-59.39740802551523
 20
51.63181829221357
 30
0.0
  0
VERTEX
  5
567
330
565
100
AcDbEntity
  8
BEMAßUNG
 62
     7
100
AcDbVertex
100
AcDb2dVertex
 10
-62.85283879722082
 20
51.63181829221357
 30
0.0
  0
SEQEND
  5
568
330
565
100
AcDbEntity
  8
BEMAßUNG
  0
POLYLINE
  5
569
330
1F
100
AcDbEntity
  8
BEMAßUNG
 62
     7
100
AcDb2dPolyline
 66
     1
 10
0.0
 20
0.0
 30
0.0
  0
VERTEX
  5
56A
330
569
100
AcDbEntity
  8
BEMAßUNG
 62
     7
100
AcDbVertex
100
AcDb2dVertex
 10
-59.39740802551523
 20
51.53053248494723
 30
0.0
  0
VERTEX
  5
56B
330
569
100
AcDbEntity
  8
BEMAßUNG
 62
     7
100
AcDbVertex
100
AcDb2dVertex
 10
-63.62454018591679
 20
51.53053248494723
 30
0.0
  0
SEQEND
  5
56C
330
569
100
AcDbEntity
  8
BEMAßUNG
  0
POLYLINE
  5
56D
330
1F
100
AcDbEntity
  8
BEMAßUNG
 62
     7
100
AcDb2dPolyline
 66
     1
 10
0.0
 20
0.0
 30
0.0
  0
VERTEX
  5
56E
330
56D
100
AcDbEntity
  8
BEMAßUNG
 62
     7
100
AcDbVertex
100
AcDb2dVertex
 10
-59.39740802551523
 20
51.42855765858383
 30
0.0
  0
VERTEX
  5
56F
330
56D
100
AcDbEntity
  8
BEMAßUNG
 62
     7
100
AcDbVertex
100
AcDb2dVertex
 10
-64.3969305937098
 20
51.42855765858383
 30
0.0
  0
SEQEND
  5
570
330
56D
100
AcDbEntity
  8
BEMAßUNG
  0
POLYLINE
  5
571
330
1F
100
AcDbEntity
  8
BEMAßUNG
 62
     7
100
AcDb2dPolyline
 66
     1
 10
0.0
 20
0.0
 30
0.0
  0
VERTEX
  5
572
330
571
100
AcDbEntity
  8
BEMAßUNG
 62
     7
100
AcDbVertex
100
AcDb2dVertex
 10
-23.39753824284853
 20
27.22331677921848
 30
0.0
  0
VERTEX
  5
573
330
571
100
AcDbEntity
  8
BEMAßUNG
 62
     7
100
AcDbVertex
100
AcDb2dVertex
 10
31.55431856850031
 20
27.22331677921848
 30
0.0
  0
SEQEND
  5
574
330
571
100
AcDbEntity
  8
BEMAßUNG
  0
POLYLINE
  5
575
330
1F
100
AcDbEntity
  8
BEMAßUNG
 62
     7
100
AcDb2dPolyline
 66
     1
 10
0.0
 20
0.0
 30
0.0
  0
VERTEX
  5
576
330
575
100
AcDbEntity
  8
BEMAßUNG
 62
     7
100
AcDbVertex
100
AcDb2dVertex
 10
-23.39753824284853
 20
5.225004067704166
 30
0.0
  0
VERTEX
  5
577
330
575
100
AcDbEntity
  8
BEMAßUNG
 62
     7
100
AcDbVertex
100
AcDb2dVertex
 10
31.55431856850031
 20
5.225004067704166
 30
0.0
  0
SEQEND
  5
578
330
575
100
AcDbEntity
  8
BEMAßUNG
  0
POLYLINE
  5
579
330
1F
100
AcDbEntity
  8
BEMAßUNG
 62
     7
100
AcDb2dPolyline
 66
     1
 10
0.0
 20
0.0
 30
0.0
  0
VERTEX
  5
57A
330
579
100
AcDbEntity
  8
BEMAßUNG
 62
     7
100
AcDbVertex
100
AcDb2dVertex
 10
27.5538736910282
 20
27.22331677921848
 30
0.0
  0
VERTEX
  5
57B
330
579
100
AcDbEntity
  8
BEMAßUNG
 62
     7
100
AcDbVertex
100
AcDb2dVertex
 10
27.5538736910282
 20
5.225004067704166
 30
0.0
  0
SEQEND
  5
57C
330
579
100
AcDbEntity
  8
BEMAßUNG
  0
POLYLINE
  5
57D
330
1F
100
AcDbEntity
  8
BEMAßUNG
 62
     7
100
AcDb2dPolyline
 66
     1
 10
0.0
 20
0.0
 30
0.0
  0
VERTEX
  5
57E
330
57D
100
AcDbEntity
  8
BEMAßUNG
 62
     7
100
AcDbVertex
100
AcDb2dVertex
 10
27.5538736910282
 20
27.22331677921848
 30
0.0
  0
VERTEX
  5
57F
330
57D
100
AcDbEntity
  8
BEMAßUNG
 62
     7
100
AcDbVertex
100
AcDb2dVertex
 10
26.89654947244253
 20
22.22379421102391
 30
0.0
  0
VERTEX
  5
580
330
57D
100
AcDbEntity
  8
BEMAßUNG
 62
     7
100
AcDbVertex
100
AcDb2dVertex
 10
28.21326496690502
 20
22.22379421102391
 30
0.0
  0
VERTEX
  5
581
330
57D
100
AcDbEntity
  8
BEMAßUNG
 62
     7
100
AcDbVertex
100
AcDb2dVertex
 10
27.5538736910282
 20
27.22331677921848
 30
0.0
  0
SEQEND
  5
582
330
57D
100
AcDbEntity
  8
BEMAßUNG
  0
POLYLINE
  5
583
330
1F
100
AcDbEntity
  8
BEMAßUNG
 62
     7
100
AcDb2dPolyline
 66
     1
 10
0.0
 20
0.0
 30
0.0
  0
VERTEX
  5
584
330
583
100
AcDbEntity
  8
BEMAßUNG
 62
     7
100
AcDbVertex
100
AcDb2dVertex
 10
26.94409179013898
 20
22.22379421102391
 30
0.0
  0
VERTEX
  5
585
330
583
100
AcDbEntity
  8
BEMAßUNG
 62
     7
100
AcDbVertex
100
AcDb2dVertex
 10
26.94409179013898
 20
22.5931084470427
 30
0.0
  0
SEQEND
  5
586
330
583
100
AcDbEntity
  8
BEMAßUNG
  0
POLYLINE
  5
587
330
1F
100
AcDbEntity
  8
BEMAßUNG
 62
     7
100
AcDb2dPolyline
 66
     1
 10
0.0
 20
0.0
 30
0.0
  0
VERTEX
  5
588
330
587
100
AcDbEntity
  8
BEMAßUNG
 62
     7
100
AcDbVertex
100
AcDb2dVertex
 10
26.94409179013898
 20
22.22379421102391
 30
0.0
  0
VERTEX
  5
589
330
587
100
AcDbEntity
  8
BEMAßUNG
 62
     7
100
AcDbVertex
100
AcDb2dVertex
 10
26.94409179013898
 20
22.5931084470427
 30
0.0
  0
SEQEND
  5
58A
330
587
100
AcDbEntity
  8
BEMAßUNG
  0
POLYLINE
  5
58B
330
1F
100
AcDbEntity
  8
BEMAßUNG
 62
     7
100
AcDb2dPolyline
 66
     1
 10
0.0
 20
0.0
 30
0.0
  0
VERTEX
  5
58C
330
58B
100
AcDbEntity
  8
BEMAßUNG
 62
     7
100
AcDbVertex
100
AcDb2dVertex
 10
27.04675563559942
 20
22.22379421102391
 30
0.0
  0
VERTEX
  5
58D
330
58B
100
AcDbEntity
  8
BEMAßUNG
 62
     7
100
AcDbVertex
100
AcDb2dVertex
 10
27.04675563559942
 20
23.36618787393276
 30
0.0
  0
SEQEND
  5
58E
330
58B
100
AcDbEntity
  8
BEMAßUNG
  0
POLYLINE
  5
58F
330
1F
100
AcDbEntity
  8
BEMAßUNG
 62
     7
100
AcDb2dPolyline
 66
     1
 10
0.0
 20
0.0
 30
0.0
  0
VERTEX
  5
590
330
58F
100
AcDbEntity
  8
BEMAßUNG
 62
     7
100
AcDbVertex
100
AcDb2dVertex
 10
27.14666340467167
 20
22.22379421102391
 30
0.0
  0
VERTEX
  5
591
330
58F
100
AcDbEntity
  8
BEMAßUNG
 62
     7
100
AcDbVertex
100
AcDb2dVertex
 10
27.14666340467167
 20
24.13651122443462
 30
0.0
  0
SEQEND
  5
592
330
58F
100
AcDbEntity
  8
BEMAßUNG
  0
POLYLINE
  5
593
330
1F
100
AcDbEntity
  8
BEMAßUNG
 62
     7
100
AcDb2dPolyline
 66
     1
 10
0.0
 20
0.0
 30
0.0
  0
VERTEX
  5
594
330
593
100
AcDbEntity
  8
BEMAßUNG
 62
     7
100
AcDbVertex
100
AcDb2dVertex
 10
27.24932725013212
 20
22.22379421102391
 30
0.0
  0
VERTEX
  5
595
330
593
100
AcDbEntity
  8
BEMAßUNG
 62
     7
100
AcDbVertex
100
AcDb2dVertex
 10
27.24932725013212
 20
24.90890163222764
 30
0.0
  0
SEQEND
  5
596
330
593
100
AcDbEntity
  8
BEMAßUNG
  0
POLYLINE
  5
597
330
1F
100
AcDbEntity
  8
BEMAßUNG
 62
     7
100
AcDb2dPolyline
 66
     1
 10
0.0
 20
0.0
 30
0.0
  0
VERTEX
  5
598
330
597
100
AcDbEntity
  8
BEMAßUNG
 62
     7
100
AcDbVertex
100
AcDb2dVertex
 10
27.35130207649551
 20
22.22379421102391
 30
0.0
  0
VERTEX
  5
599
330
597
100
AcDbEntity
  8
BEMAßUNG
 62
     7
100
AcDbVertex
100
AcDb2dVertex
 10
27.35130207649551
 20
25.67991400182655
 30
0.0
  0
SEQEND
  5
59A
330
597
100
AcDbEntity
  8
BEMAßUNG
  0
POLYLINE
  5
59B
330
1F
100
AcDbEntity
  8
BEMAßUNG
 62
     7
100
AcDb2dPolyline
 66
     1
 10
0.0
 20
0.0
 30
0.0
  0
VERTEX
  5
59C
330
59B
100
AcDbEntity
  8
BEMAßUNG
 62
     7
100
AcDbVertex
100
AcDb2dVertex
 10
27.45258788376185
 20
22.22379421102391
 30
0.0
  0
VERTEX
  5
59D
330
59B
100
AcDbEntity
  8
BEMAßUNG
 62
     7
100
AcDbVertex
100
AcDb2dVertex
 10
27.45258788376185
 20
26.45299342871661
 30
0.0
  0
SEQEND
  5
59E
330
59B
100
AcDbEntity
  8
BEMAßUNG
  0
POLYLINE
  5
59F
330
1F
100
AcDbEntity
  8
BEMAßUNG
 62
     7
100
AcDb2dPolyline
 66
     1
 10
0.0
 20
0.0
 30
0.0
  0
VERTEX
  5
5A0
330
59F
100
AcDbEntity
  8
BEMAßUNG
 62
     7
100
AcDbVertex
100
AcDb2dVertex
 10
27.5538736910282
 20
22.22379421102391
 30
0.0
  0
VERTEX
  5
5A1
330
59F
100
AcDbEntity
  8
BEMAßUNG
 62
     7
100
AcDbVertex
100
AcDb2dVertex
 10
27.5538736910282
 20
27.22331677921848
 30
0.0
  0
SEQEND
  5
5A2
330
59F
100
AcDbEntity
  8
BEMAßUNG
  0
POLYLINE
  5
5A3
330
1F
100
AcDbEntity
  8
BEMAßUNG
 62
     7
100
AcDb2dPolyline
 66
     1
 10
0.0
 20
0.0
 30
0.0
  0
VERTEX
  5
5A4
330
5A3
100
AcDbEntity
  8
BEMAßUNG
 62
     7
100
AcDbVertex
100
AcDb2dVertex
 10
28.16434461101447
 20
22.22379421102391
 30
0.0
  0
VERTEX
  5
5A5
330
5A3
100
AcDbEntity
  8
BEMAßUNG
 62
     7
100
AcDbVertex
100
AcDb2dVertex
 10
28.16434461101447
 20
22.5931084470427
 30
0.0
  0
SEQEND
  5
5A6
330
5A3
100
AcDbEntity
  8
BEMAßUNG
  0
POLYLINE
  5
5A7
330
1F
100
AcDbEntity
  8
BEMAßUNG
 62
     7
100
AcDb2dPolyline
 66
     1
 10
0.0
 20
0.0
 30
0.0
  0
VERTEX
  5
5A8
330
5A7
100
AcDbEntity
  8
BEMAßUNG
 62
     7
100
AcDbVertex
100
AcDb2dVertex
 10
28.16434461101447
 20
22.22379421102391
 30
0.0
  0
VERTEX
  5
5A9
330
5A7
100
AcDbEntity
  8
BEMAßUNG
 62
     7
100
AcDbVertex
100
AcDb2dVertex
 10
28.16434461101447
 20
22.5931084470427
 30
0.0
  0
SEQEND
  5
5AA
330
5A7
100
AcDbEntity
  8
BEMAßUNG
  0
POLYLINE
  5
5AB
330
1F
100
AcDbEntity
  8
BEMAßUNG
 62
     7
100
AcDb2dPolyline
 66
     1
 10
0.0
 20
0.0
 30
0.0
  0
VERTEX
  5
5AC
330
5AB
100
AcDbEntity
  8
BEMAßUNG
 62
     7
100
AcDbVertex
100
AcDb2dVertex
 10
28.06236978465108
 20
22.22379421102391
 30
0.0
  0
VERTEX
  5
5AD
330
5AB
100
AcDbEntity
  8
BEMAßUNG
 62
     7
100
AcDbVertex
100
AcDb2dVertex
 10
28.06236978465108
 20
23.36618787393276
 30
0.0
  0
SEQEND
  5
5AE
330
5AB
100
AcDbEntity
  8
BEMAßUNG
  0
POLYLINE
  5
5AF
330
1F
100
AcDbEntity
  8
BEMAßUNG
 62
     7
100
AcDb2dPolyline
 66
     1
 10
0.0
 20
0.0
 30
0.0
  0
VERTEX
  5
5B0
330
5AF
100
AcDbEntity
  8
BEMAßUNG
 62
     7
100
AcDbVertex
100
AcDb2dVertex
 10
27.96108397738473
 20
22.22379421102391
 30
0.0
  0
VERTEX
  5
5B1
330
5AF
100
AcDbEntity
  8
BEMAßUNG
 62
     7
100
AcDbVertex
100
AcDb2dVertex
 10
27.96108397738473
 20
24.13651122443462
 30
0.0
  0
SEQEND
  5
5B2
330
5AF
100
AcDbEntity
  8
BEMAßUNG
  0
POLYLINE
  5
5B3
330
1F
100
AcDbEntity
  8
BEMAßUNG
 62
     7
100
AcDb2dPolyline
 66
     1
 10
0.0
 20
0.0
 30
0.0
  0
VERTEX
  5
5B4
330
5B3
100
AcDbEntity
  8
BEMAßUNG
 62
     7
100
AcDbVertex
100
AcDb2dVertex
 10
27.85979817011838
 20
22.22379421102391
 30
0.0
  0
VERTEX
  5
5B5
330
5B3
100
AcDbEntity
  8
BEMAßUNG
 62
     7
100
AcDbVertex
100
AcDb2dVertex
 10
27.85979817011838
 20
24.90890163222764
 30
0.0
  0
SEQEND
  5
5B6
330
5B3
100
AcDbEntity
  8
BEMAßUNG
  0
POLYLINE
  5
5B7
330
1F
100
AcDbEntity
  8
BEMAßUNG
 62
     7
100
AcDb2dPolyline
 66
     1
 10
0.0
 20
0.0
 30
0.0
  0
VERTEX
  5
5B8
330
5B7
100
AcDbEntity
  8
BEMAßUNG
 62
     7
100
AcDbVertex
100
AcDb2dVertex
 10
27.75851236285204
 20
22.22379421102391
 30
0.0
  0
VERTEX
  5
5B9
330
5B7
100
AcDbEntity
  8
BEMAßUNG
 62
     7
100
AcDbVertex
100
AcDb2dVertex
 10
27.75851236285204
 20
25.67991400182655
 30
0.0
  0
SEQEND
  5
5BA
330
5B7
100
AcDbEntity
  8
BEMAßUNG
  0
POLYLINE
  5
5BB
330
1F
100
AcDbEntity
  8
BEMAßUNG
 62
     7
100
AcDb2dPolyline
 66
     1
 10
0.0
 20
0.0
 30
0.0
  0
VERTEX
  5
5BC
330
5BB
100
AcDbEntity
  8
BEMAßUNG
 62
     7
100
AcDbVertex
100
AcDb2dVertex
 10
27.65653753648865
 20
22.22379421102391
 30
0.0
  0
VERTEX
  5
5BD
330
5BB
100
AcDbEntity
  8
BEMAßUNG
 62
     7
100
AcDbVertex
100
AcDb2dVertex
 10
27.65653753648865
 20
26.45299342871661
 30
0.0
  0
SEQEND
  5
5BE
330
5BB
100
AcDbEntity
  8
BEMAßUNG
  0
POLYLINE
  5
5BF
330
1F
100
AcDbEntity
  8
BEMAßUNG
 62
     7
100
AcDb2dPolyline
 66
     1
 10
0.0
 20
0.0
 30
0.0
  0
VERTEX
  5
5C0
330
5BF
100
AcDbEntity
  8
BEMAßUNG
 62
     7
100
AcDbVertex
100
AcDb2dVertex
 10
27.5538736910282
 20
22.22379421102391
 30
0.0
  0
VERTEX
  5
5C1
330
5BF
100
AcDbEntity
  8
BEMAßUNG
 62
     7
100
AcDbVertex
100
AcDb2dVertex
 10
27.5538736910282
 20
27.22331677921848
 30
0.0
  0
SEQEND
  5
5C2
330
5BF
100
AcDbEntity
  8
BEMAßUNG
  0
POLYLINE
  5
5C3
330
1F
100
AcDbEntity
  8
BEMAßUNG
 62
     7
100
AcDb2dPolyline
 66
     1
 10
0.0
 20
0.0
 30
0.0
  0
VERTEX
  5
5C4
330
5C3
100
AcDbEntity
  8
BEMAßUNG
 62
     7
100
AcDbVertex
100
AcDb2dVertex
 10
27.5538736910282
 20
5.225004067704166
 30
0.0
  0
VERTEX
  5
5C5
330
5C3
100
AcDbEntity
  8
BEMAßUNG
 62
     7
100
AcDbVertex
100
AcDb2dVertex
 10
28.21326496690502
 20
10.22383761680168
 30
0.0
  0
VERTEX
  5
5C6
330
5C3
100
AcDbEntity
  8
BEMAßUNG
 62
     7
100
AcDbVertex
100
AcDb2dVertex
 10
26.89654947244253
 20
10.22383761680168
 30
0.0
  0
VERTEX
  5
5C7
330
5C3
100
AcDbEntity
  8
BEMAßUNG
 62
     7
100
AcDbVertex
100
AcDb2dVertex
 10
27.5538736910282
 20
5.225004067704166
 30
0.0
  0
SEQEND
  5
5C8
330
5C3
100
AcDbEntity
  8
BEMAßUNG
  0
POLYLINE
  5
5C9
330
1F
100
AcDbEntity
  8
BEMAßUNG
 62
     7
100
AcDb2dPolyline
 66
     1
 10
0.0
 20
0.0
 30
0.0
  0
VERTEX
  5
5CA
330
5C9
100
AcDbEntity
  8
BEMAßUNG
 62
     7
100
AcDbVertex
100
AcDb2dVertex
 10
28.16434461101447
 20
10.22383761680168
 30
0.0
  0
VERTEX
  5
5CB
330
5C9
100
AcDbEntity
  8
BEMAßUNG
 62
     7
100
AcDbVertex
100
AcDb2dVertex
 10
28.16434461101447
 20
9.854523380782897
 30
0.0
  0
SEQEND
  5
5CC
330
5C9
100
AcDbEntity
  8
BEMAßUNG
  0
POLYLINE
  5
5CD
330
1F
100
AcDbEntity
  8
BEMAßUNG
 62
     7
100
AcDb2dPolyline
 66
     1
 10
0.0
 20
0.0
 30
0.0
  0
VERTEX
  5
5CE
330
5CD
100
AcDbEntity
  8
BEMAßUNG
 62
     7
100
AcDbVertex
100
AcDb2dVertex
 10
28.16434461101447
 20
10.22383761680168
 30
0.0
  0
VERTEX
  5
5CF
330
5CD
100
AcDbEntity
  8
BEMAßUNG
 62
     7
100
AcDbVertex
100
AcDb2dVertex
 10
28.16434461101447
 20
9.854523380782897
 30
0.0
  0
SEQEND
  5
5D0
330
5CD
100
AcDbEntity
  8
BEMAßUNG
  0
POLYLINE
  5
5D1
330
1F
100
AcDbEntity
  8
BEMAßUNG
 62
     7
100
AcDb2dPolyline
 66
     1
 10
0.0
 20
0.0
 30
0.0
  0
VERTEX
  5
5D2
330
5D1
100
AcDbEntity
  8
BEMAßUNG
 62
     7
100
AcDbVertex
100
AcDb2dVertex
 10
28.06236978465108
 20
10.22383761680168
 30
0.0
  0
VERTEX
  5
5D3
330
5D1
100
AcDbEntity
  8
BEMAßUNG
 62
     7
100
AcDbVertex
100
AcDb2dVertex
 10
28.06236978465108
 20
9.081443953892833
 30
0.0
  0
SEQEND
  5
5D4
330
5D1
100
AcDbEntity
  8
BEMAßUNG
  0
POLYLINE
  5
5D5
330
1F
100
AcDbEntity
  8
BEMAßUNG
 62
     7
100
AcDb2dPolyline
 66
     1
 10
0.0
 20
0.0
 30
0.0
  0
VERTEX
  5
5D6
330
5D5
100
AcDbEntity
  8
BEMAßUNG
 62
     7
100
AcDbVertex
100
AcDb2dVertex
 10
27.96108397738473
 20
10.22383761680168
 30
0.0
  0
VERTEX
  5
5D7
330
5D5
100
AcDbEntity
  8
BEMAßUNG
 62
     7
100
AcDbVertex
100
AcDb2dVertex
 10
27.96108397738473
 20
8.31180962248802
 30
0.0
  0
SEQEND
  5
5D8
330
5D5
100
AcDbEntity
  8
BEMAßUNG
  0
POLYLINE
  5
5D9
330
1F
100
AcDbEntity
  8
BEMAßUNG
 62
     7
100
AcDb2dPolyline
 66
     1
 10
0.0
 20
0.0
 30
0.0
  0
VERTEX
  5
5DA
330
5D9
100
AcDbEntity
  8
BEMAßUNG
 62
     7
100
AcDbVertex
100
AcDb2dVertex
 10
27.85979817011838
 20
10.22383761680168
 30
0.0
  0
VERTEX
  5
5DB
330
5D9
100
AcDbEntity
  8
BEMAßUNG
 62
     7
100
AcDbVertex
100
AcDb2dVertex
 10
27.85979817011838
 20
7.539419214695006
 30
0.0
  0
SEQEND
  5
5DC
330
5D9
100
AcDbEntity
  8
BEMAßUNG
  0
POLYLINE
  5
5DD
330
1F
100
AcDbEntity
  8
BEMAßUNG
 62
     7
100
AcDb2dPolyline
 66
     1
 10
0.0
 20
0.0
 30
0.0
  0
VERTEX
  5
5DE
330
5DD
100
AcDbEntity
  8
BEMAßUNG
 62
     7
100
AcDbVertex
100
AcDb2dVertex
 10
27.75851236285204
 20
10.22383761680168
 30
0.0
  0
VERTEX
  5
5DF
330
5DD
100
AcDbEntity
  8
BEMAßUNG
 62
     7
100
AcDbVertex
100
AcDb2dVertex
 10
27.75851236285204
 20
6.767717825999043
 30
0.0
  0
SEQEND
  5
5E0
330
5DD
100
AcDbEntity
  8
BEMAßUNG
  0
POLYLINE
  5
5E1
330
1F
100
AcDbEntity
  8
BEMAßUNG
 62
     7
100
AcDb2dPolyline
 66
     1
 10
0.0
 20
0.0
 30
0.0
  0
VERTEX
  5
5E2
330
5E1
100
AcDbEntity
  8
BEMAßUNG
 62
     7
100
AcDbVertex
100
AcDb2dVertex
 10
27.65653753648865
 20
10.22383761680168
 30
0.0
  0
VERTEX
  5
5E3
330
5E1
100
AcDbEntity
  8
BEMAßUNG
 62
     7
100
AcDbVertex
100
AcDb2dVertex
 10
27.65653753648865
 20
5.99463839910898
 30
0.0
  0
SEQEND
  5
5E4
330
5E1
100
AcDbEntity
  8
BEMAßUNG
  0
POLYLINE
  5
5E5
330
1F
100
AcDbEntity
  8
BEMAßUNG
 62
     7
100
AcDb2dPolyline
 66
     1
 10
0.0
 20
0.0
 30
0.0
  0
VERTEX
  5
5E6
330
5E5
100
AcDbEntity
  8
BEMAßUNG
 62
     7
100
AcDbVertex
100
AcDb2dVertex
 10
27.5538736910282
 20
10.22383761680168
 30
0.0
  0
VERTEX
  5
5E7
330
5E5
100
AcDbEntity
  8
BEMAßUNG
 62
     7
100
AcDbVertex
100
AcDb2dVertex
 10
27.5538736910282
 20
5.225004067704166
 30
0.0
  0
SEQEND
  5
5E8
330
5E5
100
AcDbEntity
  8
BEMAßUNG
  0
POLYLINE
  5
5E9
330
1F
100
AcDbEntity
  8
BEMAßUNG
 62
     7
100
AcDb2dPolyline
 66
     1
 10
0.0
 20
0.0
 30
0.0
  0
VERTEX
  5
5EA
330
5E9
100
AcDbEntity
  8
BEMAßUNG
 62
     7
100
AcDbVertex
100
AcDb2dVertex
 10
26.94409179013898
 20
10.22383761680168
 30
0.0
  0
VERTEX
  5
5EB
330
5E9
100
AcDbEntity
  8
BEMAßUNG
 62
     7
100
AcDbVertex
100
AcDb2dVertex
 10
26.94409179013898
 20
9.854523380782897
 30
0.0
  0
SEQEND
  5
5EC
330
5E9
100
AcDbEntity
  8
BEMAßUNG
  0
POLYLINE
  5
5ED
330
1F
100
AcDbEntity
  8
BEMAßUNG
 62
     7
100
AcDb2dPolyline
 66
     1
 10
0.0
 20
0.0
 30
0.0
  0
VERTEX
  5
5EE
330
5ED
100
AcDbEntity
  8
BEMAßUNG
 62
     7
100
AcDbVertex
100
AcDb2dVertex
 10
26.94409179013898
 20
10.22383761680168
 30
0.0
  0
VERTEX
  5
5EF
330
5ED
100
AcDbEntity
  8
BEMAßUNG
 62
     7
100
AcDbVertex
100
AcDb2dVertex
 10
26.94409179013898
 20
9.854523380782897
 30
0.0
  0
SEQEND
  5
5F0
330
5ED
100
AcDbEntity
  8
BEMAßUNG
  0
POLYLINE
  5
5F1
330
1F
100
AcDbEntity
  8
BEMAßUNG
 62
     7
100
AcDb2dPolyline
 66
     1
 10
0.0
 20
0.0
 30
0.0
  0
VERTEX
  5
5F2
330
5F1
100
AcDbEntity
  8
BEMAßUNG
 62
     7
100
AcDbVertex
100
AcDb2dVertex
 10
27.04675563559942
 20
10.22383761680168
 30
0.0
  0
VERTEX
  5
5F3
330
5F1
100
AcDbEntity
  8
BEMAßUNG
 62
     7
100
AcDbVertex
100
AcDb2dVertex
 10
27.04675563559942
 20
9.081443953892833
 30
0.0
  0
SEQEND
  5
5F4
330
5F1
100
AcDbEntity
  8
BEMAßUNG
  0
POLYLINE
  5
5F5
330
1F
100
AcDbEntity
  8
BEMAßUNG
 62
     7
100
AcDb2dPolyline
 66
     1
 10
0.0
 20
0.0
 30
0.0
  0
VERTEX
  5
5F6
330
5F5
100
AcDbEntity
  8
BEMAßUNG
 62
     7
100
AcDbVertex
100
AcDb2dVertex
 10
27.14666340467167
 20
10.22383761680168
 30
0.0
  0
VERTEX
  5
5F7
330
5F5
100
AcDbEntity
  8
BEMAßUNG
 62
     7
100
AcDbVertex
100
AcDb2dVertex
 10
27.14666340467167
 20
8.31180962248802
 30
0.0
  0
SEQEND
  5
5F8
330
5F5
100
AcDbEntity
  8
BEMAßUNG
  0
POLYLINE
  5
5F9
330
1F
100
AcDbEntity
  8
BEMAßUNG
 62
     7
100
AcDb2dPolyline
 66
     1
 10
0.0
 20
0.0
 30
0.0
  0
VERTEX
  5
5FA
330
5F9
100
AcDbEntity
  8
BEMAßUNG
 62
     7
100
AcDbVertex
100
AcDb2dVertex
 10
27.24932725013212
 20
10.22383761680168
 30
0.0
  0
VERTEX
  5
5FB
330
5F9
100
AcDbEntity
  8
BEMAßUNG
 62
     7
100
AcDbVertex
100
AcDb2dVertex
 10
27.24932725013212
 20
7.539419214695006
 30
0.0
  0
SEQEND
  5
5FC
330
5F9
100
AcDbEntity
  8
BEMAßUNG
  0
POLYLINE
  5
5FD
330
1F
100
AcDbEntity
  8
BEMAßUNG
 62
     7
100
AcDb2dPolyline
 66
     1
 10
0.0
 20
0.0
 30
0.0
  0
VERTEX
  5
5FE
330
5FD
100
AcDbEntity
  8
BEMAßUNG
 62
     7
100
AcDbVertex
100
AcDb2dVertex
 10
27.35130207649551
 20
10.22383761680168
 30
0.0
  0
VERTEX
  5
5FF
330
5FD
100
AcDbEntity
  8
BEMAßUNG
 62
     7
100
AcDbVertex
100
AcDb2dVertex
 10
27.35130207649551
 20
6.767717825999043
 30
0.0
  0
SEQEND
  5
600
330
5FD
100
AcDbEntity
  8
BEMAßUNG
  0
POLYLINE
  5
601
330
1F
100
AcDbEntity
  8
BEMAßUNG
 62
     7
100
AcDb2dPolyline
 66
     1
 10
0.0
 20
0.0
 30
0.0
  0
VERTEX
  5
602
330
601
100
AcDbEntity
  8
BEMAßUNG
 62
     7
100
AcDbVertex
100
AcDb2dVertex
 10
27.45258788376185
 20
10.22383761680168
 30
0.0
  0
VERTEX
  5
603
330
601
100
AcDbEntity
  8
BEMAßUNG
 62
     7
100
AcDbVertex
100
AcDb2dVertex
 10
27.45258788376185
 20
5.99463839910898
 30
0.0
  0
SEQEND
  5
604
330
601
100
AcDbEntity
  8
BEMAßUNG
  0
POLYLINE
  5
605
330
1F
100
AcDbEntity
  8
BEMAßUNG
 62
     7
100
AcDb2dPolyline
 66
     1
 10
0.0
 20
0.0
 30
0.0
  0
VERTEX
  5
606
330
605
100
AcDbEntity
  8
BEMAßUNG
 62
     7
100
AcDbVertex
100
AcDb2dVertex
 10
27.5538736910282
 20
10.22383761680168
 30
0.0
  0
VERTEX
  5
607
330
605
100
AcDbEntity
  8
BEMAßUNG
 62
     7
100
AcDbVertex
100
AcDb2dVertex
 10
27.5538736910282
 20
5.225004067704166
 30
0.0
  0
SEQEND
  5
608
330
605
100
AcDbEntity
  8
BEMAßUNG
  0
MTEXT
  5
60A
330
1F
100
AcDbEntity
  8
TEXT
 62
     7
100
AcDbMText
 10
45.29956053555011
 20
3.676261392310102
 30
0.0
 40
5.997222220722918
 41
0.0
 71
     7
 72
     1
  1
\fINDEX Univers 45 Light|b0|i0|c0|p34;\W1;ø16h6
 11
-4.371139000186241E-8
 21
0.999999999999999
 31
0.0
  0
MTEXT
  5
60B
330
1F
100
AcDbEntity
  8
TEXT
 62
     7
100
AcDbMText
 10
-98.04776201975889
 20
12.11054415929875
 30
0.0
 40
5.997222220722918
 41
0.0
 71
     7
 72
     1
  1
\fINDEX Univers 45 Light|b0|i0|c0|p34;\W1;D
 11
-4.371139000186241E-8
 21
0.999999999999999
 31
0.0
  0
MTEXT
  5
60C
330
1F
100
AcDbEntity
  8
TEXT
 62
     7
100
AcDbMText
 10
-45.88574353236537
 20
-41.38369275224088
 30
0.0
 40
5.997222220722918
 41
0.0
 71
     7
 72
     1
  1
\fINDEX Univers 45 Light|b0|i0|c0|p34;\W1;36
  0
MTEXT
  5
60D
330
1F
100
AcDbEntity
  8
TEXT
 62
     7
100
AcDbMText
 10
-45.36174450905887
 20
-21.23608533540278
 30
0.0
 40
5.997222220722918
 41
0.0
 71
     7
 72
     1
  1
\fINDEX Univers 45 Light|b0|i0|c0|p34;\W1;34
  0
MTEXT
  5
60E
330
1F
100
AcDbEntity
  8
TEXT
 62
     7
100
AcDbMText
 10
-84.95657143058378
 20
54.21219481066571
 30
0.0
 40
5.997222220722918
 41
0.0
 71
     7
 72
     1
  1
\fINDEX Univers 45 Light|b0|i0|c0|p34;\W1;3
  0
MTEXT
  5
60F
330
1F
100
AcDbEntity
  8
TEXT
 62
     7
100
AcDbMText
 10
-46.08900416599511
 20
54.21150579156865
 30
0.0
 40
5.997222220722918
 41
0.0
 71
     7
 72
     1
  1
\fINDEX Univers 45 Light|b0|i0|c0|p34;\W1;26
  0
MTEXT
  5
610
330
1F
100
AcDbEntity
  8
TEXT
 62
     7
100
AcDbMText
 10
24.21833224220931
 20
9.671761065290394
 30
0.0
 40
5.997222220722918
 41
0.0
 71
     7
 72
     1
  1
\fINDEX Univers 45 Light|b0|i0|c0|p34;\W1;11
 11
-4.371139000186241E-8
 21
0.999999999999999
 31
0.0
  0
ENDSEC
  0
SECTION
  2
OBJECTS
  0
DICTIONARY
  5
C
330
0
100
AcDbDictionary
  3
ACAD_GROUP
350
D
  3
ACAD_LAYOUT
350
1A
  3
ACAD_MLINESTYLE
350
17
  3
ACAD_PLOTSETTINGS
350
19
  3
ACAD_TABLESTYLE
350
631
  3
ACAD_VISUALSTYLE
350
2A
  3
ACDBHEADERROUNDTRIPXREC
350
611
  0
DICTIONARY
  5
D
102
{ACAD_REACTORS
330
C
102
}
330
C
100
AcDbDictionary
  0
DICTIONARY
  5
1A
102
{ACAD_REACTORS
330
C
102
}
330
C
100
AcDbDictionary
  0
DICTIONARY
  5
17
102
{ACAD_REACTORS
330
C
102
}
330
C
100
AcDbDictionary
  3
STANDARD
350
18
  0
DICTIONARY
  5
19
102
{ACAD_REACTORS
330
C
102
}
330
C
100
AcDbDictionary
  0
DICTIONARY
  5
631
102
{ACAD_REACTORS
330
C
102
}
330
C
100
AcDbDictionary
  0
DICTIONARY
  5
2A
102
{ACAD_REACTORS
330
C
102
}
330
C
100
AcDbDictionary
  3
2DWIREFRAME
350
2F
  3
3D_HIDDEN
350
31
  3
3DWIREFRAME
350
30
  3
BASIC
350
32
  3
BRIGHTEN
350
36
  3
COLORCHANGE
350
3A
  3
CONCEPTUAL
350
34
  3
DIM
350
35
  3
FACEPATTERN
350
39
  3
FLAT
350
2B
  3
FLATWITHEDGES
350
2C
  3
GOURAUD
350
2D
  3
GOURAUDWITHEDGES
350
2E
  3
LINEPATTERN
350
38
  3
REALISTIC
350
33
  3
THICKEN
350
37
  0
DICTIONARY
  5
611
102
{ACAD_REACTORS
330
C
102
}
330
C
100
AcDbDictionary
  3
CEPSNTYPE
350
61A
  3
DIMSTYLEDATA
350
630
  3
FINGERPRINTGUID
350
61B
  3
HYPERLINKBASE
350
614
  3
INSUNITS
350
619
  3
LAYOUTDICT
350
616
  3
LWETCUNION
350
618
  3
PLOTSETDICT
350
617
  3
PSVPSCALE
350
61D
  3
PUCSBASE
350
620
  3
PUCSORGBACK
350
626
  3
PUCSORGBOTTOM
350
622
  3
PUCSORGFRONT
350
625
  3
PUCSORGLEFT
350
623
  3
PUCSORGRIGHT
350
624
  3
PUCSORGTOP
350
621
  3
PUCSORTHOREF
350
61E
  3
PUCSORTHOVIEW
350
61F
  3
STYLESHEET
350
615
  3
TSTACKALIGN
350
612
  3
TSTACKSIZE
350
613
  3
UCSBASE
350
629
  3
UCSORGBACK
350
62F
  3
UCSORGBOTTOM
350
62B
  3
UCSORGFRONT
350
62E
  3
UCSORGLEFT
350
62C
  3
UCSORGRIGHT
350
62D
  3
UCSORGTOP
350
62A
  3
UCSORTHOREF
350
627
  3
UCSORTHOVIEW
350
628
  3
VERSIONGUID
350
61C
  0
MLINESTYLE
  5
18
102
{ACAD_REACTORS
330
17
102
}
330
17
100
AcDbMlineStyle
  2
Standard
 70
     0
  3

 62
   256
 51
90.0
 52
90.0
 71
     2
 49
0.5
 62
   256
  6
BYLAYER
 49
-0.5
 62
   256
  6
BYLAYER
  0
VISUALSTYLE
  5
2F
102
{ACAD_REACTORS
330
2A
102
}
330
2A
100
AcDbVisualStyle
  2
2dWireframe
 70
     4
 71
     0
 72
     2
 73
     0
 90
        0
 40
-0.6
 41
-30.0
 62
     5
 63
     7
 74
     1
 91
        4
 64
     7
 65
   257
 75
     1
175
     1
 42
1.0
 92
        0
 66
   257
 43
1.0
 76
     1
 77
     6
 78
     2
 67
     7
 79
     5
170
     0
171
     0
290
     0
174
     0
 93
        1
 44
0.0
173
     0
291
     0
 45
0.0
1001
ACAD
1000
AcDbSavedByObjectVersion
1070
     0
  0
VISUALSTYLE
  5
31
102
{ACAD_REACTORS
330
2A
102
}
330
2A
100
AcDbVisualStyle
  2
3D Hidden
 70
     6
 71
     1
 72
     2
 73
     2
 90
        0
 40
-0.6
 41
-30.0
 62
     5
 63
     7
 74
     2
 91
        2
 64
     7
 65
   257
 75
     2
175
     1
 42
40.0
 92
        0
 66
   257
 43
1.0
 76
     1
 77
     6
 78
     2
 67
     7
 79
     3
170
     0
171
     0
290
     0
174
     0
 93
        1
 44
0.0
173
     0
291
     0
 45
0.0
1001
ACAD
1000
AcDbSavedByObjectVersion
1070
     0
  0
VISUALSTYLE
  5
30
102
{ACAD_REACTORS
330
2A
102
}
330
2A
100
AcDbVisualStyle
  2
3dWireframe
 70
     5
 71
     0
 72
     2
 73
     0
 90
        0
 40
-0.6
 41
-30.0
 62
     5
 63
     7
 74
     1
 91
        4
 64
     7
 65
   257
 75
     1
175
     1
 42
1.0
 92
        0
 66
   257
 43
1.0
 76
     1
 77
     6
 78
     2
 67
     7
 79
     5
170
     0
171
     0
290
     0
174
     0
 93
        1
 44
0.0
173
     0
291
     0
 45
0.0
1001
ACAD
1000
AcDbSavedByObjectVersion
1070
     0
  0
VISUALSTYLE
  5
32
102
{ACAD_REACTORS
330
2A
102
}
330
2A
100
AcDbVisualStyle
  2
Basic
 70
     7
 71
     1
 72
     0
 73
     1
 90
        0
 40
-0.6
 41
-30.0
 62
     5
 63
     7
 74
     0
 91
        4
 64
     7
 65
   257
 75
     1
175
     1
 42
1.0
 92
        8
 66
     7
 43
1.0
 76
     1
 77
     6
 78
     2
 67
     7
 79
     5
170
     0
171
     0
290
     0
174
     0
 93
        1
 44
0.0
173
     0
291
     1
 45
0.0
1001
ACAD
1000
AcDbSavedByObjectVersion
1070
     0
  0
VISUALSTYLE
  5
36
102
{ACAD_REACTORS
330
2A
102
}
330
2A
100
AcDbVisualStyle
  2
Brighten
 70
    12
 71
     2
 72
     2
 73
     0
 90
        0
 40
-0.6
 41
-30.0
 62
     5
 63
     7
 74
     1
 91
        4
 64
     7
 65
   257
 75
     1
175
     1
 42
1.0
 92
        8
 66
     7
 43
1.0
 76
     1
 77
     6
 78
     2
 67
     7
 79
     5
170
     0
171
     0
290
     0
174
     0
 93
        1
 44
50.0
173
     0
291
     1
 45
0.0
1001
ACAD
1000
AcDbSavedByObjectVersion
1070
     0
  0
VISUALSTYLE
  5
3A
102
{ACAD_REACTORS
330
2A
102
}
330
2A
100
AcDbVisualStyle
  2
ColorChange
 70
    16
 71
     2
 72
     2
 73
     3
 90
        0
 40
-0.6
 41
-30.0
 62
     5
 63
     8
 74
     1
 91
        4
 64
     7
 65
   257
 75
     1
175
     1
 42
1.0
 92
        8
 66
     8
 43
1.0
 76
     1
 77
     6
 78
     2
 67
     7
 79
     5
170
     0
171
     0
290
     0
174
     0
 93
        1
 44
0.0
173
     0
291
     1
 45
0.0
1001
ACAD
1000
AcDbSavedByObjectVersion
1070
     0
  0
VISUALSTYLE
  5
34
102
{ACAD_REACTORS
330
2A
102
}
330
2A
100
AcDbVisualStyle
  2
Conceptual
 70
     9
 71
     3
 72
     2
 73
     0
 90
        0
 40
-0.6
 41
-30.0
 62
     5
 63
     7
 74
     2
 91
        2
 64
     7
 65
   257
 75
     1
175
     1
 42
40.0
 92
        8
 66
     7
 43
1.0
 76
     1
 77
     6
 78
     2
 67
     7
 79
     3
170
     0
171
     0
290
     0
174
     0
 93
        1
 44
0.0
173
     0
291
     0
 45
0.0
1001
ACAD
1000
AcDbSavedByObjectVersion
1070
     0
  0
VISUALSTYLE
  5
35
102
{ACAD_REACTORS
330
2A
102
}
330
2A
100
AcDbVisualStyle
  2
Dim
 70
    11
 71
     2
 72
     2
 73
     0
 90
        0
 40
-0.6
 41
-30.0
 62
     5
 63
     7
 74
     1
 91
        4
 64
     7
 65
   257
 75
     1
175
     1
 42
1.0
 92
        8
 66
     7
 43
1.0
 76
     1
 77
     6
 78
     2
 67
     7
 79
     5
170
     0
171
     0
290
     0
174
     0
 93
        1
 44
-50.0
173
     0
291
     1
 45
0.0
1001
ACAD
1000
AcDbSavedByObjectVersion
1070
     0
  0
VISUALSTYLE
  5
39
102
{ACAD_REACTORS
330
2A
102
}
330
2A
100
AcDbVisualStyle
  2
Facepattern
 70
    15
 71
     2
 72
     2
 73
     0
 90
        0
 40
-0.6
 41
-30.0
 62
     5
 63
     7
 74
     1
 91
        4
 64
     7
 65
   257
 75
     1
175
     1
 42
1.0
 92
        8
 66
     7
 43
1.0
 76
     1
 77
     6
 78
     2
 67
     7
 79
     5
170
     0
171
     0
290
     0
174
     0
 93
        1
 44
0.0
173
     0
291
     1
 45
0.0
1001
ACAD
1000
AcDbSavedByObjectVersion
1070
     0
  0
VISUALSTYLE
  5
2B
102
{ACAD_REACTORS
330
2A
102
}
330
2A
100
AcDbVisualStyle
  2
Flat
 70
     0
 71
     2
 72
     1
 73
     1
 90
        2
 40
-0.6
 41
30.0
 62
     5
 63
     7
 74
     0
 91
        4
 64
     7
 65
   257
 75
     1
175
     1
 42
1.0
 92
        8
 66
     7
 43
1.0
 76
     1
 77
     6
 78
     2
 67
     7
 79
     5
170
     0
171
     0
290
     0
174
     0
 93
       13
 44
0.0
173
     0
291
     1
 45
0.0
1001
ACAD
1000
AcDbSavedByObjectVersion
1070
     0
  0
VISUALSTYLE
  5
2C
102
{ACAD_REACTORS
330
2A
102
}
330
2A
100
AcDbVisualStyle
  2
FlatWithEdges
 70
     1
 71
     2
 72
     1
 73
     1
 90
        2
 40
-0.6
 41
30.0
 62
     5
 63
     7
 74
     1
 91
        4
 64
     7
 65
   257
 75
     1
175
     1
 42
1.0
 92
        0
 66
   257
 43
1.0
 76
     1
 77
     6
 78
     2
 67
     7
 79
     5
170
     0
171
     0
290
     0
174
     0
 93
       13
 44
0.0
173
     0
291
     1
 45
0.0
1001
ACAD
1000
AcDbSavedByObjectVersion
1070
     0
  0
VISUALSTYLE
  5
2D
102
{ACAD_REACTORS
330
2A
102
}
330
2A
100
AcDbVisualStyle
  2
Gouraud
 70
     2
 71
     2
 72
     2
 73
     1
 90
        2
 40
-0.6
 41
30.0
 62
     5
 63
     7
 74
     0
 91
        4
 64
     7
 65
   257
 75
     1
175
     1
 42
1.0
 92
        0
 66
     7
 43
1.0
 76
     1
 77
     6
 78
     2
 67
     7
 79
     5
170
     0
171
     0
290
     0
174
     0
 93
       13
 44
0.0
173
     0
291
     1
 45
0.0
1001
ACAD
1000
AcDbSavedByObjectVersion
1070
     0
  0
VISUALSTYLE
  5
2E
102
{ACAD_REACTORS
330
2A
102
}
330
2A
100
AcDbVisualStyle
  2
GouraudWithEdges
 70
     3
 71
     2
 72
     2
 73
     1
 90
        2
 40
-0.6
 41
30.0
 62
     5
 63
     7
 74
     1
 91
        4
 64
     7
 65
   257
 75
     1
175
     1
 42
1.0
 92
        0
 66
   257
 43
1.0
 76
     1
 77
     6
 78
     2
 67
     7
 79
     5
170
     0
171
     0
290
     0
174
     0
 93
       13
 44
0.0
173
     0
291
     1
 45
0.0
1001
ACAD
1000
AcDbSavedByObjectVersion
1070
     0
  0
VISUALSTYLE
  5
38
102
{ACAD_REACTORS
330
2A
102
}
330
2A
100
AcDbVisualStyle
  2
Linepattern
 70
    14
 71
     2
 72
     2
 73
     0
 90
        0
 40
-0.6
 41
-30.0
 62
     5
 63
     7
 74
     1
 91
        4
 64
     7
 65
   257
 75
     7
175
     7
 42
1.0
 92
        8
 66
     7
 43
1.0
 76
     1
 77
     6
 78
     2
 67
     7
 79
     5
170
     0
171
     0
290
     0
174
     0
 93
        1
 44
0.0
173
     0
291
     1
 45
0.0
1001
ACAD
1000
AcDbSavedByObjectVersion
1070
     0
  0
VISUALSTYLE
  5
33
102
{ACAD_REACTORS
330
2A
102
}
330
2A
100
AcDbVisualStyle
  2
Realistic
 70
     8
 71
     2
 72
     2
 73
     0
 90
        0
 40
-0.6
 41
-30.0
 62
     5
 63
     7
 74
     1
 91
        0
 64
     7
 65
   257
 75
     1
175
     1
 42
1.0
 92
        8
 66
     8
 43
1.0
 76
     1
 77
     6
 78
     2
 67
     7
 79
     5
170
     0
171
     0
290
     0
174
     0
 93
       13
 44
0.0
173
     0
291
     0
 45
0.0
1001
ACAD
1000
AcDbSavedByObjectVersion
1070
     0
  0
VISUALSTYLE
  5
37
102
{ACAD_REACTORS
330
2A
102
}
330
2A
100
AcDbVisualStyle
  2
Thicken
 70
    13
 71
     2
 72
     2
 73
     0
 90
        0
 40
-0.6
 41
-30.0
 62
     5
 63
     7
 74
     1
 91
        4
 64
     7
 65
   257
 75
     1
175
     1
 42
1.0
 92
       12
 66
     7
 43
1.0
 76
     1
 77
     6
 78
     2
 67
     7
 79
     5
170
     0
171
     0
290
     0
174
     0
 93
        1
 44
0.0
173
     0
291
     1
 45
0.0
1001
ACAD
1000
AcDbSavedByObjectVersion
1070
     0
  0
XRECORD
  5
61A
102
{ACAD_REACTORS
330
611
102
}
330
611
100
AcDbXrecord
 90
        0
  0
XRECORD
  5
630
102
{ACAD_REACTORS
330
611
102
}
330
611
100
AcDbXrecord
1000
DSTYLE
1002
{
1070
   340
340
11
1002
}
  0
XRECORD
  5
61B
102
{ACAD_REACTORS
330
611
102
}
330
611
100
AcDbXrecord
  1
{6A707675-6DDE-4236-97B6-F99AEDABE61C}
  0
XRECORD
  5
614
102
{ACAD_REACTORS
330
611
102
}
330
611
100
AcDbXrecord
  1

  0
XRECORD
  5
619
102
{ACAD_REACTORS
330
611
102
}
330
611
100
AcDbXrecord
 90
        1
  0
XRECORD
  5
616
102
{ACAD_REACTORS
330
611
102
}
330
611
100
AcDbXrecord
340
1A
  0
XRECORD
  5
618
102
{ACAD_REACTORS
330
611
102
}
330
611
100
AcDbXrecord
 90
    10269
  0
XRECORD
  5
617
102
{ACAD_REACTORS
330
611
102
}
330
611
100
AcDbXrecord
340
19
  0
XRECORD
  5
61D
102
{ACAD_REACTORS
330
611
102
}
330
611
100
AcDbXrecord
 40
0.0
  0
XRECORD
  5
620
102
{ACAD_REACTORS
330
611
102
}
330
611
100
AcDbXrecord
340
0
  0
XRECORD
  5
626
102
{ACAD_REACTORS
330
611
102
}
330
611
100
AcDbXrecord
 10
0.0
 20
0.0
 30
0.0
  0
XRECORD
  5
622
102
{ACAD_REACTORS
330
611
102
}
330
611
100
AcDbXrecord
 10
0.0
 20
0.0
 30
0.0
  0
XRECORD
  5
625
102
{ACAD_REACTORS
330
611
102
}
330
611
100
AcDbXrecord
 10
0.0
 20
0.0
 30
0.0
  0
XRECORD
  5
623
102
{ACAD_REACTORS
330
611
102
}
330
611
100
AcDbXrecord
 10
0.0
 20
0.0
 30
0.0
  0
XRECORD
  5
624
102
{ACAD_REACTORS
330
611
102
}
330
611
100
AcDbXrecord
 10
0.0
 20
0.0
 30
0.0
  0
XRECORD
  5
621
102
{ACAD_REACTORS
330
611
102
}
330
611
100
AcDbXrecord
 10
0.0
 20
0.0
 30
0.0
  0
XRECORD
  5
61E
102
{ACAD_REACTORS
330
611
102
}
330
611
100
AcDbXrecord
340
0
  0
XRECORD
  5
61F
102
{ACAD_REACTORS
330
611
102
}
330
611
100
AcDbXrecord
 70
     0
  0
XRECORD
  5
615
102
{ACAD_REACTORS
330
611
102
}
330
611
100
AcDbXrecord
  1

  0
XRECORD
  5
612
102
{ACAD_REACTORS
330
611
102
}
330
611
100
AcDbXrecord
 90
        1
  0
XRECORD
  5
613
102
{ACAD_REACTORS
330
611
102
}
330
611
100
AcDbXrecord
 90
       70
  0
XRECORD
  5
629
102
{ACAD_REACTORS
330
611
102
}
330
611
100
AcDbXrecord
340
0
  0
XRECORD
  5
62F
102
{ACAD_REACTORS
330
611
102
}
330
611
100
AcDbXrecord
 10
0.0
 20
0.0
 30
0.0
  0
XRECORD
  5
62B
102
{ACAD_REACTORS
330
611
102
}
330
611
100
AcDbXrecord
 10
0.0
 20
0.0
 30
0.0
  0
XRECORD
  5
62E
102
{ACAD_REACTORS
330
611
102
}
330
611
100
AcDbXrecord
 10
0.0
 20
0.0
 30
0.0
  0
XRECORD
  5
62C
102
{ACAD_REACTORS
330
611
102
}
330
611
100
AcDbXrecord
 10
0.0
 20
0.0
 30
0.0
  0
XRECORD
  5
62D
102
{ACAD_REACTORS
330
611
102
}
330
611
100
AcDbXrecord
 10
0.0
 20
0.0
 30
0.0
  0
XRECORD
  5
62A
102
{ACAD_REACTORS
330
611
102
}
330
611
100
AcDbXrecord
 10
0.0
 20
0.0
 30
0.0
  0
XRECORD
  5
627
102
{ACAD_REACTORS
330
611
102
}
330
611
100
AcDbXrecord
340
0
  0
XRECORD
  5
628
102
{ACAD_REACTORS
330
611
102
}
330
611
100
AcDbXrecord
 70
     0
  0
XRECORD
  5
61C
102
{ACAD_REACTORS
330
611
102
}
330
611
100
AcDbXrecord
  1
{FAEB1C32-E019-11D5-929B-00C0DF256EC4}
  0
ENDSEC
  0
EOF
