ISO-10303-21;
HEADER;
/* Generated by software containing ST-Developer
 * from STEP Tools, Inc. (www.steptools.com) 
 */
/* OPTION: using custom schema-name function */

FILE_DESCRIPTION(
/* description */ (''),
/* implementation_level */ '2;1');

FILE_NAME(
/* name */ 'W9990828_stp.stp',
/* time_stamp */ '2017-05-29T11:39:30+02:00',
/* author */ (''),
/* organization */ (''),
/* preprocessor_version */ 'ST-DEVELOPER v15',
/* originating_system */ 'SIEMENS PLM Software NX 9.0',
/* authorisation */ '');

FILE_SCHEMA (('AUTOMOTIVE_DESIGN { 1 0 10303 214 3 1 1 1 }'));
ENDSEC;

DATA;
#10=PROPERTY_DEFINITION_REPRESENTATION(#14,#12);
#11=PROPERTY_DEFINITION_REPRESENTATION(#15,#13);
#12=REPRESENTATION('',(#16),#515);
#13=REPRESENTATION('',(#17),#515);
#14=PROPERTY_DEFINITION('pmi validation property','',#21);
#15=PROPERTY_DEFINITION('pmi validation property','',#21);
#16=VALUE_REPRESENTATION_ITEM('number of annotations',COUNT_MEASURE(0.));
#17=VALUE_REPRESENTATION_ITEM('number of views',COUNT_MEASURE(0.));
#18=SHAPE_REPRESENTATION_RELATIONSHIP('None',
'relationship between reic1C24C78Ap7gg-None and reic1C24C78Ap7gg-None',
#30,#19);
#19=ADVANCED_BREP_SHAPE_REPRESENTATION('reic1C24C78Ap7gg-None',(#40),#515);
#20=SHAPE_DEFINITION_REPRESENTATION(#21,#30);
#21=PRODUCT_DEFINITION_SHAPE('','',#22);
#22=PRODUCT_DEFINITION(' ','',#24,#23);
#23=PRODUCT_DEFINITION_CONTEXT('part definition',#29,'design');
#24=PRODUCT_DEFINITION_FORMATION_WITH_SPECIFIED_SOURCE(' ',' ',#26,
 .NOT_KNOWN.);
#25=PRODUCT_RELATED_PRODUCT_CATEGORY('part','',(#26));
#26=PRODUCT('reic1C24C78Ap7gg','reic1C24C78Ap7gg',' ',(#27));
#27=PRODUCT_CONTEXT(' ',#29,'mechanical');
#28=APPLICATION_PROTOCOL_DEFINITION('international standard',
'automotive_design',2010,#29);
#29=APPLICATION_CONTEXT(
'core data for automotive mechanical design processes');
#30=SHAPE_REPRESENTATION('reic1C24C78Ap7gg-None',(#270),#515);
#31=PRESENTATION_LAYER_ASSIGNMENT('210','Layer 210',(#40));
#32=STYLED_ITEM('',(#33),#40);
#33=PRESENTATION_STYLE_ASSIGNMENT((#34));
#34=SURFACE_STYLE_USAGE(.BOTH.,#35);
#35=SURFACE_SIDE_STYLE('',(#36));
#36=SURFACE_STYLE_FILL_AREA(#37);
#37=FILL_AREA_STYLE('',(#38));
#38=FILL_AREA_STYLE_COLOUR('',#39);
#39=COLOUR_RGB('RAL 9007',0.6,0.6,0.6);
#40=MANIFOLD_SOLID_BREP('',#41);
#41=CLOSED_SHELL('',(#70,#71,#72,#73,#74,#75,#76,#77,#78,#79,#80,#81,#82,
#83,#84,#85,#86,#87,#88));
#42=FACE_OUTER_BOUND('',#143,.T.);
#43=FACE_OUTER_BOUND('',#144,.T.);
#44=FACE_OUTER_BOUND('',#145,.T.);
#45=FACE_OUTER_BOUND('',#146,.T.);
#46=FACE_OUTER_BOUND('',#155,.T.);
#47=CYLINDRICAL_SURFACE('',#285,7.);
#48=CYLINDRICAL_SURFACE('',#290,25.);
#49=CYLINDRICAL_SURFACE('',#299,8.);
#50=CYLINDRICAL_SURFACE('',#304,16.);
#51=CYLINDRICAL_SURFACE('',#307,1.99999999999999);
#52=TOROIDAL_SURFACE('',#279,10.,3.);
#53=TOROIDAL_SURFACE('',#281,3.36292973919251,1.);
#54=CONICAL_SURFACE('',#276,2.5,45.0000000000001);
#55=CONICAL_SURFACE('',#283,9.22354286469248,75.0000000000004);
#56=CONICAL_SURFACE('',#286,4.26923752622916,25.);
#57=CONICAL_SURFACE('',#292,1.61,60.0000000000001);
#58=CONICAL_SURFACE('',#294,1.61,60.0000000000001);
#59=CONICAL_SURFACE('',#301,10.0723145172501,8.00000000000004);
#60=B_SPLINE_CURVE_WITH_KNOTS('',3,(#401,#402,#403,#404,#405,#406,#407,
#408,#409,#410,#411,#412,#413,#414,#415,#416,#417,#418,#419,#420,#421,#422,
#423,#424,#425,#426,#427,#428,#429,#430,#431),.UNSPECIFIED.,.F.,.F.,(4,
3,3,3,3,3,3,3,3,3,4),(0.,0.124905920658711,0.249839909402055,0.370723532808554,
0.45731271172179,0.544255142449331,0.626042863426332,0.712644751281723,
0.811964406371013,0.926102654006559,1.),.UNSPECIFIED.);
#61=B_SPLINE_CURVE_WITH_KNOTS('',3,(#435,#436,#437,#438,#439,#440,#441,
#442,#443,#444,#445,#446,#447,#448,#449,#450,#451,#452,#453,#454,#455,#456,
#457,#458,#459,#460,#461,#462,#463,#464,#465),.UNSPECIFIED.,.F.,.F.,(4,
3,3,3,3,3,3,3,3,3,4),(0.,0.124905920658711,0.249839909402055,0.370723532808554,
0.45731271172179,0.544255142449331,0.626042863426332,0.712644751281723,
0.811964406371013,0.926102654006559,1.),.UNSPECIFIED.);
#62=LINE('',#398,#66);
#63=LINE('',#433,#67);
#64=LINE('',#488,#68);
#65=LINE('',#492,#69);
#66=VECTOR('',#320,1.);
#67=VECTOR('',#321,1.);
#68=VECTOR('',#352,1.);
#69=VECTOR('',#355,1.);
#70=ADVANCED_FACE('',(#95,#96),#89,.F.);
#71=ADVANCED_FACE('',(#97,#98),#54,.F.);
#72=ADVANCED_FACE('',(#99,#100),#52,.F.);
#73=ADVANCED_FACE('',(#101,#102),#53,.T.);
#74=ADVANCED_FACE('',(#103,#104),#55,.T.);
#75=ADVANCED_FACE('',(#105,#106,#107),#47,.T.);
#76=ADVANCED_FACE('',(#108,#109),#56,.T.);
#77=ADVANCED_FACE('',(#110,#111),#90,.F.);
#78=ADVANCED_FACE('',(#112,#113),#48,.T.);
#79=ADVANCED_FACE('',(#42),#57,.T.);
#80=ADVANCED_FACE('',(#43),#58,.T.);
#81=ADVANCED_FACE('',(#44),#91,.T.);
#82=ADVANCED_FACE('',(#45),#92,.F.);
#83=ADVANCED_FACE('',(#114,#115),#49,.T.);
#84=ADVANCED_FACE('',(#116,#117),#59,.T.);
#85=ADVANCED_FACE('',(#118,#119),#93,.F.);
#86=ADVANCED_FACE('',(#120,#121),#50,.T.);
#87=ADVANCED_FACE('',(#46),#94,.T.);
#88=ADVANCED_FACE('',(#122,#123),#51,.F.);
#89=PLANE('',#273);
#90=PLANE('',#289);
#91=PLANE('',#295);
#92=PLANE('',#297);
#93=PLANE('',#303);
#94=PLANE('',#306);
#95=FACE_BOUND('',#124,.T.);
#96=FACE_BOUND('',#125,.T.);
#97=FACE_BOUND('',#126,.T.);
#98=FACE_BOUND('',#127,.T.);
#99=FACE_BOUND('',#128,.T.);
#100=FACE_BOUND('',#129,.T.);
#101=FACE_BOUND('',#130,.T.);
#102=FACE_BOUND('',#131,.T.);
#103=FACE_BOUND('',#132,.T.);
#104=FACE_BOUND('',#133,.T.);
#105=FACE_BOUND('',#134,.T.);
#106=FACE_BOUND('',#135,.T.);
#107=FACE_BOUND('',#136,.T.);
#108=FACE_BOUND('',#137,.T.);
#109=FACE_BOUND('',#138,.T.);
#110=FACE_BOUND('',#139,.T.);
#111=FACE_BOUND('',#140,.T.);
#112=FACE_BOUND('',#141,.T.);
#113=FACE_BOUND('',#142,.T.);
#114=FACE_BOUND('',#147,.T.);
#115=FACE_BOUND('',#148,.T.);
#116=FACE_BOUND('',#149,.T.);
#117=FACE_BOUND('',#150,.T.);
#118=FACE_BOUND('',#151,.T.);
#119=FACE_BOUND('',#152,.T.);
#120=FACE_BOUND('',#153,.T.);
#121=FACE_BOUND('',#154,.T.);
#122=FACE_BOUND('',#156,.T.);
#123=FACE_BOUND('',#157,.T.);
#124=EDGE_LOOP('',(#158));
#125=EDGE_LOOP('',(#159));
#126=EDGE_LOOP('',(#160,#161));
#127=EDGE_LOOP('',(#162,#163,#164,#165,#166,#167));
#128=EDGE_LOOP('',(#168));
#129=EDGE_LOOP('',(#169));
#130=EDGE_LOOP('',(#170));
#131=EDGE_LOOP('',(#171));
#132=EDGE_LOOP('',(#172));
#133=EDGE_LOOP('',(#173));
#134=EDGE_LOOP('',(#174));
#135=EDGE_LOOP('',(#175,#176));
#136=EDGE_LOOP('',(#177));
#137=EDGE_LOOP('',(#178));
#138=EDGE_LOOP('',(#179));
#139=EDGE_LOOP('',(#180));
#140=EDGE_LOOP('',(#181));
#141=EDGE_LOOP('',(#182));
#142=EDGE_LOOP('',(#183));
#143=EDGE_LOOP('',(#184,#185,#186,#187));
#144=EDGE_LOOP('',(#188,#189,#190,#191));
#145=EDGE_LOOP('',(#192,#193));
#146=EDGE_LOOP('',(#194));
#147=EDGE_LOOP('',(#195));
#148=EDGE_LOOP('',(#196));
#149=EDGE_LOOP('',(#197));
#150=EDGE_LOOP('',(#198));
#151=EDGE_LOOP('',(#199));
#152=EDGE_LOOP('',(#200));
#153=EDGE_LOOP('',(#201));
#154=EDGE_LOOP('',(#202));
#155=EDGE_LOOP('',(#203));
#156=EDGE_LOOP('',(#204));
#157=EDGE_LOOP('',(#205));
#158=ORIENTED_EDGE('',*,*,#228,.F.);
#159=ORIENTED_EDGE('',*,*,#229,.T.);
#160=ORIENTED_EDGE('',*,*,#230,.T.);
#161=ORIENTED_EDGE('',*,*,#231,.T.);
#162=ORIENTED_EDGE('',*,*,#232,.F.);
#163=ORIENTED_EDGE('',*,*,#232,.T.);
#164=ORIENTED_EDGE('',*,*,#233,.F.);
#165=ORIENTED_EDGE('',*,*,#234,.F.);
#166=ORIENTED_EDGE('',*,*,#234,.T.);
#167=ORIENTED_EDGE('',*,*,#235,.F.);
#168=ORIENTED_EDGE('',*,*,#236,.F.);
#169=ORIENTED_EDGE('',*,*,#237,.T.);
#170=ORIENTED_EDGE('',*,*,#238,.F.);
#171=ORIENTED_EDGE('',*,*,#228,.T.);
#172=ORIENTED_EDGE('',*,*,#236,.T.);
#173=ORIENTED_EDGE('',*,*,#239,.F.);
#174=ORIENTED_EDGE('',*,*,#240,.T.);
#175=ORIENTED_EDGE('',*,*,#235,.T.);
#176=ORIENTED_EDGE('',*,*,#233,.T.);
#177=ORIENTED_EDGE('',*,*,#237,.F.);
#178=ORIENTED_EDGE('',*,*,#240,.F.);
#179=ORIENTED_EDGE('',*,*,#238,.T.);
#180=ORIENTED_EDGE('',*,*,#241,.T.);
#181=ORIENTED_EDGE('',*,*,#242,.T.);
#182=ORIENTED_EDGE('',*,*,#242,.F.);
#183=ORIENTED_EDGE('',*,*,#239,.T.);
#184=ORIENTED_EDGE('',*,*,#231,.F.);
#185=ORIENTED_EDGE('',*,*,#243,.T.);
#186=ORIENTED_EDGE('',*,*,#244,.F.);
#187=ORIENTED_EDGE('',*,*,#245,.F.);
#188=ORIENTED_EDGE('',*,*,#230,.F.);
#189=ORIENTED_EDGE('',*,*,#245,.T.);
#190=ORIENTED_EDGE('',*,*,#246,.F.);
#191=ORIENTED_EDGE('',*,*,#243,.F.);
#192=ORIENTED_EDGE('',*,*,#246,.T.);
#193=ORIENTED_EDGE('',*,*,#244,.T.);
#194=ORIENTED_EDGE('',*,*,#247,.F.);
#195=ORIENTED_EDGE('',*,*,#248,.T.);
#196=ORIENTED_EDGE('',*,*,#247,.T.);
#197=ORIENTED_EDGE('',*,*,#248,.F.);
#198=ORIENTED_EDGE('',*,*,#249,.F.);
#199=ORIENTED_EDGE('',*,*,#250,.F.);
#200=ORIENTED_EDGE('',*,*,#249,.T.);
#201=ORIENTED_EDGE('',*,*,#250,.T.);
#202=ORIENTED_EDGE('',*,*,#241,.F.);
#203=ORIENTED_EDGE('',*,*,#251,.T.);
#204=ORIENTED_EDGE('',*,*,#251,.F.);
#205=ORIENTED_EDGE('',*,*,#229,.F.);
#206=VERTEX_POINT('',#390);
#207=VERTEX_POINT('',#392);
#208=VERTEX_POINT('',#395);
#209=VERTEX_POINT('',#396);
#210=VERTEX_POINT('',#399);
#211=VERTEX_POINT('',#400);
#212=VERTEX_POINT('',#432);
#213=VERTEX_POINT('',#434);
#214=VERTEX_POINT('',#468);
#215=VERTEX_POINT('',#470);
#216=VERTEX_POINT('',#473);
#217=VERTEX_POINT('',#476);
#218=VERTEX_POINT('',#479);
#219=VERTEX_POINT('',#483);
#220=VERTEX_POINT('',#485);
#221=VERTEX_POINT('',#489);
#222=VERTEX_POINT('',#491);
#223=VERTEX_POINT('',#498);
#224=VERTEX_POINT('',#501);
#225=VERTEX_POINT('',#504);
#226=VERTEX_POINT('',#507);
#227=VERTEX_POINT('',#511);
#228=EDGE_CURVE('',#206,#206,#252,.T.);
#229=EDGE_CURVE('',#207,#207,#253,.T.);
#230=EDGE_CURVE('',#208,#209,#254,.T.);
#231=EDGE_CURVE('',#209,#208,#255,.T.);
#232=EDGE_CURVE('',#210,#211,#62,.T.);
#233=EDGE_CURVE('',#212,#211,#60,.T.);
#234=EDGE_CURVE('',#213,#212,#63,.T.);
#235=EDGE_CURVE('',#211,#212,#61,.T.);
#236=EDGE_CURVE('',#214,#214,#256,.T.);
#237=EDGE_CURVE('',#215,#215,#257,.T.);
#238=EDGE_CURVE('',#216,#216,#258,.T.);
#239=EDGE_CURVE('',#217,#217,#259,.T.);
#240=EDGE_CURVE('',#218,#218,#260,.T.);
#241=EDGE_CURVE('',#219,#219,#261,.T.);
#242=EDGE_CURVE('',#220,#220,#262,.T.);
#243=EDGE_CURVE('',#209,#221,#64,.T.);
#244=EDGE_CURVE('',#222,#221,#263,.T.);
#245=EDGE_CURVE('',#208,#222,#65,.T.);
#246=EDGE_CURVE('',#221,#222,#264,.T.);
#247=EDGE_CURVE('',#223,#223,#265,.T.);
#248=EDGE_CURVE('',#224,#224,#266,.T.);
#249=EDGE_CURVE('',#225,#225,#267,.T.);
#250=EDGE_CURVE('',#226,#226,#268,.T.);
#251=EDGE_CURVE('',#227,#227,#269,.T.);
#252=CIRCLE('',#271,3.3629297391925);
#253=CIRCLE('',#272,1.99999999999999);
#254=CIRCLE('',#274,1.63535898384862);
#255=CIRCLE('',#275,1.63535898384862);
#256=CIRCLE('',#277,9.22354286469248);
#257=CIRCLE('',#278,7.);
#258=CIRCLE('',#280,4.26923752622916);
#259=CIRCLE('',#282,25.);
#260=CIRCLE('',#284,7.);
#261=CIRCLE('',#287,16.);
#262=CIRCLE('',#288,25.);
#263=CIRCLE('',#291,1.61);
#264=CIRCLE('',#293,1.61);
#265=CIRCLE('',#296,8.);
#266=CIRCLE('',#298,8.);
#267=CIRCLE('',#300,10.0723145172501);
#268=CIRCLE('',#302,16.);
#269=CIRCLE('',#305,1.99999999999999);
#270=AXIS2_PLACEMENT_3D('',#388,#308,#309);
#271=AXIS2_PLACEMENT_3D('',#389,#310,#311);
#272=AXIS2_PLACEMENT_3D('',#391,#312,#313);
#273=AXIS2_PLACEMENT_3D('',#393,#314,#315);
#274=AXIS2_PLACEMENT_3D('',#394,#316,#317);
#275=AXIS2_PLACEMENT_3D('',#397,#318,#319);
#276=AXIS2_PLACEMENT_3D('',#466,#322,#323);
#277=AXIS2_PLACEMENT_3D('',#467,#324,#325);
#278=AXIS2_PLACEMENT_3D('',#469,#326,#327);
#279=AXIS2_PLACEMENT_3D('',#471,#328,#329);
#280=AXIS2_PLACEMENT_3D('',#472,#330,#331);
#281=AXIS2_PLACEMENT_3D('',#474,#332,#333);
#282=AXIS2_PLACEMENT_3D('',#475,#334,#335);
#283=AXIS2_PLACEMENT_3D('',#477,#336,#337);
#284=AXIS2_PLACEMENT_3D('',#478,#338,#339);
#285=AXIS2_PLACEMENT_3D('',#480,#340,#341);
#286=AXIS2_PLACEMENT_3D('',#481,#342,#343);
#287=AXIS2_PLACEMENT_3D('',#482,#344,#345);
#288=AXIS2_PLACEMENT_3D('',#484,#346,#347);
#289=AXIS2_PLACEMENT_3D('',#486,#348,#349);
#290=AXIS2_PLACEMENT_3D('',#487,#350,#351);
#291=AXIS2_PLACEMENT_3D('',#490,#353,#354);
#292=AXIS2_PLACEMENT_3D('',#493,#356,#357);
#293=AXIS2_PLACEMENT_3D('',#494,#358,#359);
#294=AXIS2_PLACEMENT_3D('',#495,#360,#361);
#295=AXIS2_PLACEMENT_3D('',#496,#362,#363);
#296=AXIS2_PLACEMENT_3D('',#497,#364,#365);
#297=AXIS2_PLACEMENT_3D('',#499,#366,#367);
#298=AXIS2_PLACEMENT_3D('',#500,#368,#369);
#299=AXIS2_PLACEMENT_3D('',#502,#370,#371);
#300=AXIS2_PLACEMENT_3D('',#503,#372,#373);
#301=AXIS2_PLACEMENT_3D('',#505,#374,#375);
#302=AXIS2_PLACEMENT_3D('',#506,#376,#377);
#303=AXIS2_PLACEMENT_3D('',#508,#378,#379);
#304=AXIS2_PLACEMENT_3D('',#509,#380,#381);
#305=AXIS2_PLACEMENT_3D('',#510,#382,#383);
#306=AXIS2_PLACEMENT_3D('',#512,#384,#385);
#307=AXIS2_PLACEMENT_3D('',#513,#386,#387);
#308=DIRECTION('',(0.,0.,1.));
#309=DIRECTION('',(1.,0.,0.));
#310=DIRECTION('',(0.,0.,-1.));
#311=DIRECTION('',(0.,-1.,0.));
#312=DIRECTION('',(0.,0.,-1.));
#313=DIRECTION('',(-1.,0.,0.));
#314=DIRECTION('',(0.,0.,-1.));
#315=DIRECTION('',(0.,1.,0.));
#316=DIRECTION('',(1.,0.,0.));
#317=DIRECTION('',(0.,0.,-1.));
#318=DIRECTION('',(1.,0.,0.));
#319=DIRECTION('',(0.,0.,-1.));
#320=DIRECTION('',(-0.707106781186547,-0.707106781186548,0.));
#321=DIRECTION('',(-0.707106781186547,0.707106781186548,8.65956056235494E-017));
#322=DIRECTION('',(-1.,-6.12303176911189E-017,0.));
#323=DIRECTION('',(1.08149842641945E-016,1.,0.));
#324=DIRECTION('',(0.,0.,-1.));
#325=DIRECTION('',(0.,-1.,0.));
#326=DIRECTION('',(0.,0.,-1.));
#327=DIRECTION('',(0.,-1.,0.));
#328=DIRECTION('',(0.,0.,-1.));
#329=DIRECTION('',(0.,1.,0.));
#330=DIRECTION('',(0.,0.,-1.));
#331=DIRECTION('',(0.,-1.,0.));
#332=DIRECTION('',(0.,0.,-1.));
#333=DIRECTION('',(0.,1.,0.));
#334=DIRECTION('',(0.,0.,-1.));
#335=DIRECTION('',(0.,-1.,0.));
#336=DIRECTION('',(0.,0.,-1.));
#337=DIRECTION('',(0.,1.,-7.4187490720673E-018));
#338=DIRECTION('',(0.,0.,-1.));
#339=DIRECTION('',(0.,-1.,0.));
#340=DIRECTION('',(0.,0.,-1.));
#341=DIRECTION('',(0.,1.,0.));
#342=DIRECTION('',(0.,0.,-1.));
#343=DIRECTION('',(0.,1.,5.89820194539061E-017));
#344=DIRECTION('',(0.,0.,1.));
#345=DIRECTION('',(1.,0.,0.));
#346=DIRECTION('',(0.,0.,-1.));
#347=DIRECTION('',(0.,-1.,0.));
#348=DIRECTION('',(0.,0.,1.));
#349=DIRECTION('',(0.,-1.,0.));
#350=DIRECTION('',(0.,0.,-1.));
#351=DIRECTION('',(0.,1.,0.));
#352=DIRECTION('',(-0.499999999999998,-0.866025403784439,0.));
#353=DIRECTION('',(-1.,0.,0.));
#354=DIRECTION('',(0.,-1.,0.));
#355=DIRECTION('',(-0.499999999999998,0.866025403784439,-1.06057523872491E-016));
#356=DIRECTION('',(1.,0.,0.));
#357=DIRECTION('',(9.00551665910053E-018,-1.,0.));
#358=DIRECTION('',(-1.,0.,0.));
#359=DIRECTION('',(0.,-1.,0.));
#360=DIRECTION('',(1.,0.,0.));
#361=DIRECTION('',(9.00551665910053E-018,-1.,0.));
#362=DIRECTION('',(-1.,0.,0.));
#363=DIRECTION('',(0.,1.,0.));
#364=DIRECTION('',(0.,0.,1.));
#365=DIRECTION('',(1.,0.,0.));
#366=DIRECTION('',(0.,0.,1.));
#367=DIRECTION('',(-1.,0.,0.));
#368=DIRECTION('',(0.,0.,-1.));
#369=DIRECTION('',(1.,0.,0.));
#370=DIRECTION('',(0.,0.,-1.));
#371=DIRECTION('',(1.,0.,0.));
#372=DIRECTION('',(0.,0.,1.));
#373=DIRECTION('',(1.,0.,0.));
#374=DIRECTION('',(0.,0.,1.));
#375=DIRECTION('',(-1.,0.,2.53390335898458E-016));
#376=DIRECTION('',(0.,0.,1.));
#377=DIRECTION('',(1.,0.,0.));
#378=DIRECTION('',(0.,0.,1.));
#379=DIRECTION('',(-1.,0.,0.));
#380=DIRECTION('',(0.,0.,-1.));
#381=DIRECTION('',(1.,0.,0.));
#382=DIRECTION('',(0.,0.,1.));
#383=DIRECTION('',(1.,0.,0.));
#384=DIRECTION('',(0.,0.,1.));
#385=DIRECTION('',(0.,-1.,0.));
#386=DIRECTION('',(0.,0.,1.));
#387=DIRECTION('',(0.,-1.,0.));
#388=CARTESIAN_POINT('',(0.,0.,0.));
#389=CARTESIAN_POINT('',(-8.67361737988404E-016,0.,28.));
#390=CARTESIAN_POINT('',(-8.67361737988404E-016,-3.3629297391925,28.));
#391=CARTESIAN_POINT('',(-8.67361737988404E-016,0.,28.));
#392=CARTESIAN_POINT('',(-1.99999999999999,0.,28.));
#393=CARTESIAN_POINT('',(-3.3629297391925,0.,28.));
#394=CARTESIAN_POINT('',(-6.13535898384863,5.29422441077206E-017,18.));
#395=CARTESIAN_POINT('',(-6.13535898384863,-1.63535898384862,18.));
#396=CARTESIAN_POINT('',(-6.13535898384863,1.63535898384862,18.));
#397=CARTESIAN_POINT('',(-6.13535898384863,5.29422441077206E-017,18.));
#398=CARTESIAN_POINT('',(-7.,-2.5,18.));
#399=CARTESIAN_POINT('',(-6.15,-1.65,18.));
#400=CARTESIAN_POINT('',(-6.6587980221371,-2.1587980221371,18.));
#401=CARTESIAN_POINT('',(-6.6587980221371,2.1587980221371,18.));
#402=CARTESIAN_POINT('',(-6.6587980221371,2.1587980221371,18.3041971409));
#403=CARTESIAN_POINT('',(-6.67547276797028,2.10908165868061,18.6126273300864));
#404=CARTESIAN_POINT('',(-6.70445531582474,2.01253047631817,18.8996356603418));
#405=CARTESIAN_POINT('',(-6.7334245243262,1.91602373208831,19.1865118936728));
#406=CARTESIAN_POINT('',(-6.77531061517802,1.76985754476723,19.4605789288254));
#407=CARTESIAN_POINT('',(-6.81891451074334,1.58189914190955,19.6955705862517));
#408=CARTESIAN_POINT('',(-6.86101274414585,1.40043102740096,19.9224478758544));
#409=CARTESIAN_POINT('',(-6.90584393304712,1.17295981881465,20.1204108602571));
#410=CARTESIAN_POINT('',(-6.93963978860916,0.917278367973874,20.2606288270772));
#411=CARTESIAN_POINT('',(-6.96402311195738,0.732807124789999,20.361794486811));
#412=CARTESIAN_POINT('',(-6.98311426590517,0.528801841475322,20.4353442045252));
#413=CARTESIAN_POINT('',(-6.99266288383133,0.32041503255572,20.4719835070936));
#414=CARTESIAN_POINT('',(-7.00223637585601,0.111485377115918,20.5087182548488));
#415=CARTESIAN_POINT('',(-7.00229899049824,-0.107626254939596,20.5089500569707));
#416=CARTESIAN_POINT('',(-6.99283503023898,-0.316635815824196,20.4726439792505));
#417=CARTESIAN_POINT('',(-6.98390583951453,-0.51383510462576,20.438389408908));
#418=CARTESIAN_POINT('',(-6.96646038841186,-0.707126335487238,20.3711881468182));
#419=CARTESIAN_POINT('',(-6.94402569213171,-0.883463178075222,20.2787615927923));
#420=CARTESIAN_POINT('',(-6.92025059549438,-1.0703355752273,20.1808128518608));
#421=CARTESIAN_POINT('',(-6.89050014836493,-1.24274054680868,20.0526361858336));
#422=CARTESIAN_POINT('',(-6.86006920075699,-1.39264157658222,19.9053808206068));
#423=CARTESIAN_POINT('',(-6.82520240161665,-1.56439334597765,19.7366603683933));
#424=CARTESIAN_POINT('',(-6.78878360686503,-1.71076381721747,19.5391726907973));
#425=CARTESIAN_POINT('',(-6.7575911107691,-1.8261879365647,19.3273112836744));
#426=CARTESIAN_POINT('',(-6.72181822544213,-1.95856124111454,19.0843395830797));
#427=CARTESIAN_POINT('',(-6.69225662194439,-2.05348651299121,18.8163683854258));
#428=CARTESIAN_POINT('',(-6.67548558930759,-2.10663051979854,18.5429966872259));
#429=CARTESIAN_POINT('',(-6.66455007738897,-2.14128294296359,18.3647453219927));
#430=CARTESIAN_POINT('',(-6.6587980221371,-2.1587980221371,18.1819173577744));
#431=CARTESIAN_POINT('',(-6.6587980221371,-2.1587980221371,18.));
#432=CARTESIAN_POINT('',(-6.6587980221371,2.1587980221371,18.));
#433=CARTESIAN_POINT('',(-7.,2.5,18.));
#434=CARTESIAN_POINT('',(-6.15,1.65,18.));
#435=CARTESIAN_POINT('',(-6.6587980221371,-2.1587980221371,18.));
#436=CARTESIAN_POINT('',(-6.6587980221371,-2.1587980221371,17.6958028591001));
#437=CARTESIAN_POINT('',(-6.67547276797028,-2.10908165868061,17.3873726699137));
#438=CARTESIAN_POINT('',(-6.70445531582474,-2.01253047631817,17.1003643396583));
#439=CARTESIAN_POINT('',(-6.7334245243262,-1.91602373208831,16.8134881063272));
#440=CARTESIAN_POINT('',(-6.77531061517802,-1.76985754476723,16.5394210711746));
#441=CARTESIAN_POINT('',(-6.81891451074334,-1.58189914190955,16.3044294137483));
#442=CARTESIAN_POINT('',(-6.86101274414585,-1.40043102740096,16.0775521241456));
#443=CARTESIAN_POINT('',(-6.90584393304712,-1.17295981881465,15.879589139743));
#444=CARTESIAN_POINT('',(-6.93963978860916,-0.917278367973874,15.7393711729229));
#445=CARTESIAN_POINT('',(-6.96402311195738,-0.732807124789999,15.638205513189));
#446=CARTESIAN_POINT('',(-6.98311426590517,-0.528801841475322,15.5646557954749));
#447=CARTESIAN_POINT('',(-6.99266288383133,-0.32041503255572,15.5280164929064));
#448=CARTESIAN_POINT('',(-7.00223637585601,-0.111485377115918,15.4912817451512));
#449=CARTESIAN_POINT('',(-7.00229899049824,0.107626254939596,15.4910499430294));
#450=CARTESIAN_POINT('',(-6.99283503023898,0.316635815824196,15.5273560207495));
#451=CARTESIAN_POINT('',(-6.98390583951453,0.51383510462576,15.561610591092));
#452=CARTESIAN_POINT('',(-6.96646038841186,0.707126335487238,15.6288118531818));
#453=CARTESIAN_POINT('',(-6.94402569213171,0.883463178075222,15.7212384072078));
#454=CARTESIAN_POINT('',(-6.92025059549438,1.0703355752273,15.8191871481393));
#455=CARTESIAN_POINT('',(-6.89050014836493,1.24274054680868,15.9473638141665));
#456=CARTESIAN_POINT('',(-6.86006920075699,1.39264157658222,16.0946191793932));
#457=CARTESIAN_POINT('',(-6.82520240161665,1.56439334597765,16.2633396316067));
#458=CARTESIAN_POINT('',(-6.78878360686503,1.71076381721747,16.4608273092028));
#459=CARTESIAN_POINT('',(-6.7575911107691,1.8261879365647,16.6726887163257));
#460=CARTESIAN_POINT('',(-6.72181822544213,1.95856124111454,16.9156604169204));
#461=CARTESIAN_POINT('',(-6.69225662194439,2.05348651299121,17.1836316145742));
#462=CARTESIAN_POINT('',(-6.67548558930759,2.10663051979854,17.4570033127741));
#463=CARTESIAN_POINT('',(-6.66455007738897,2.14128294296359,17.6352546780073));
#464=CARTESIAN_POINT('',(-6.6587980221371,2.1587980221371,17.8180826422256));
#465=CARTESIAN_POINT('',(-6.6587980221371,2.1587980221371,18.));
#466=CARTESIAN_POINT('',(-7.,0.,18.));
#467=CARTESIAN_POINT('',(-8.67361737988404E-016,0.,9.22728894882976));
#468=CARTESIAN_POINT('',(-8.67361737988404E-016,-9.22354286469248,9.22728894882976));
#469=CARTESIAN_POINT('',(-8.67361737988404E-016,0.,12.125066427697));
#470=CARTESIAN_POINT('',(-8.67361737988404E-016,-7.,12.125066427697));
#471=CARTESIAN_POINT('',(-8.67361737988404E-016,0.,12.125066427697));
#472=CARTESIAN_POINT('',(-8.67361737988404E-016,0.,27.4226182617407));
#473=CARTESIAN_POINT('',(-8.67361737988404E-016,-4.26923752622916,27.4226182617407));
#474=CARTESIAN_POINT('',(-8.67361737988404E-016,0.,27.));
#475=CARTESIAN_POINT('',(-8.67361737988404E-016,0.,4.99999999999999));
#476=CARTESIAN_POINT('',(-8.67361737988404E-016,-25.,4.99999999999999));
#477=CARTESIAN_POINT('',(-8.67361737988404E-016,0.,9.22728894882976));
#478=CARTESIAN_POINT('',(-8.67361737988404E-016,0.,21.5664792384713));
#479=CARTESIAN_POINT('',(-8.67361737988404E-016,-7.,21.5664792384713));
#480=CARTESIAN_POINT('',(-8.67361737988404E-016,0.,-41.));
#481=CARTESIAN_POINT('',(-8.67361737988404E-016,0.,27.4226182617407));
#482=CARTESIAN_POINT('',(0.,0.,0.));
#483=CARTESIAN_POINT('',(16.,0.,0.));
#484=CARTESIAN_POINT('',(-8.67361737988404E-016,0.,0.));
#485=CARTESIAN_POINT('',(-8.67361737988404E-016,-25.,0.));
#486=CARTESIAN_POINT('',(-25.,0.,0.));
#487=CARTESIAN_POINT('',(-8.67361737988404E-016,0.,-41.));
#488=CARTESIAN_POINT('',(-6.15,1.61,18.));
#489=CARTESIAN_POINT('',(-6.15,1.61,18.));
#490=CARTESIAN_POINT('',(-6.15,0.,18.));
#491=CARTESIAN_POINT('',(-6.15,-1.61,18.));
#492=CARTESIAN_POINT('',(-6.15,-1.61,18.));
#493=CARTESIAN_POINT('',(-6.15,0.,18.));
#494=CARTESIAN_POINT('',(-6.15,0.,18.));
#495=CARTESIAN_POINT('',(-6.15,0.,18.));
#496=CARTESIAN_POINT('',(-6.15,0.,18.));
#497=CARTESIAN_POINT('',(0.,0.,-41.));
#498=CARTESIAN_POINT('',(8.,0.,-41.));
#499=CARTESIAN_POINT('',(0.,0.,-41.));
#500=CARTESIAN_POINT('',(0.,0.,-33.2452839712988));
#501=CARTESIAN_POINT('',(8.,0.,-33.2452839712988));
#502=CARTESIAN_POINT('',(0.,0.,-41.));
#503=CARTESIAN_POINT('',(0.,0.,-18.5));
#504=CARTESIAN_POINT('',(10.0723145172501,0.,-18.5));
#505=CARTESIAN_POINT('',(0.,0.,-18.5));
#506=CARTESIAN_POINT('',(0.,0.,-18.5));
#507=CARTESIAN_POINT('',(16.,0.,-18.5));
#508=CARTESIAN_POINT('',(0.,16.,-18.5));
#509=CARTESIAN_POINT('',(0.,0.,-41.));
#510=CARTESIAN_POINT('',(-8.67361737988404E-016,0.,8.00000000000001));
#511=CARTESIAN_POINT('',(1.99999999999999,0.,8.00000000000001));
#512=CARTESIAN_POINT('',(-8.67361737988404E-016,0.,8.00000000000001));
#513=CARTESIAN_POINT('',(-8.67361737988404E-016,0.,28.));
#514=MECHANICAL_DESIGN_GEOMETRIC_PRESENTATION_REPRESENTATION('',(#32),#515);
#515=(
GEOMETRIC_REPRESENTATION_CONTEXT(3)
GLOBAL_UNCERTAINTY_ASSIGNED_CONTEXT((#516))
GLOBAL_UNIT_ASSIGNED_CONTEXT((#522,#518,#517))
REPRESENTATION_CONTEXT('W9990828_stp','TOP_LEVEL_ASSEMBLY_PART')
);
#516=UNCERTAINTY_MEASURE_WITH_UNIT(LENGTH_MEASURE(0.0508),#522,
'DISTANCE_ACCURACY_VALUE','Maximum Tolerance applied to model');
#517=(
NAMED_UNIT(*)
SI_UNIT($,.STERADIAN.)
SOLID_ANGLE_UNIT()
);
#518=(
CONVERSION_BASED_UNIT('DEGREE',#520)
NAMED_UNIT(#519)
PLANE_ANGLE_UNIT()
);
#519=DIMENSIONAL_EXPONENTS(0.,0.,0.,0.,0.,0.,0.);
#520=PLANE_ANGLE_MEASURE_WITH_UNIT(PLANE_ANGLE_MEASURE(0.0174532925),#521);
#521=(
NAMED_UNIT(*)
PLANE_ANGLE_UNIT()
SI_UNIT($,.RADIAN.)
);
#522=(
LENGTH_UNIT()
NAMED_UNIT(*)
SI_UNIT(.MILLI.,.METRE.)
);
ENDSEC;
END-ISO-10303-21;
