ISO-10303-21;
HEADER;
/* Generated by software containing ST-Developer
 * from STEP Tools, Inc. (www.steptools.com) 
 */
/* OPTION: using custom schema-name function */

FILE_DESCRIPTION(
/* description */ (''),
/* implementation_level */ '2;1');

FILE_NAME(
/* name */ 'W9990110_stp.stp',
/* time_stamp */ '2017-05-08T08:36:35+02:00',
/* author */ (''),
/* organization */ (''),
/* preprocessor_version */ 'ST-DEVELOPER v15',
/* originating_system */ 'SIEMENS PLM Software NX 9.0',
/* authorisation */ '');

FILE_SCHEMA (('AUTOMOTIVE_DESIGN { 1 0 10303 214 3 1 1 1 }'));
ENDSEC;

DATA;
#10=PROPERTY_DEFINITION_REPRESENTATION(#14,#12);
#11=PROPERTY_DEFINITION_REPRESENTATION(#15,#13);
#12=REPRESENTATION('',(#16),#433);
#13=REPRESENTATION('',(#17),#433);
#14=PROPERTY_DEFINITION('pmi validation property','',#21);
#15=PROPERTY_DEFINITION('pmi validation property','',#21);
#16=VALUE_REPRESENTATION_ITEM('number of annotations',COUNT_MEASURE(0.));
#17=VALUE_REPRESENTATION_ITEM('number of views',COUNT_MEASURE(0.));
#18=SHAPE_REPRESENTATION_RELATIONSHIP('None',
'relationship between reic18D0476Dmbji-None and reic18D0476Dmbji-None',
#30,#19);
#19=ADVANCED_BREP_SHAPE_REPRESENTATION('reic18D0476Dmbji-None',(#40),#433);
#20=SHAPE_DEFINITION_REPRESENTATION(#21,#30);
#21=PRODUCT_DEFINITION_SHAPE('','',#22);
#22=PRODUCT_DEFINITION(' ','',#24,#23);
#23=PRODUCT_DEFINITION_CONTEXT('part definition',#29,'design');
#24=PRODUCT_DEFINITION_FORMATION_WITH_SPECIFIED_SOURCE(' ',' ',#26,
 .NOT_KNOWN.);
#25=PRODUCT_RELATED_PRODUCT_CATEGORY('part','',(#26));
#26=PRODUCT('reic18D0476Dmbji','reic18D0476Dmbji',' ',(#27));
#27=PRODUCT_CONTEXT(' ',#29,'mechanical');
#28=APPLICATION_PROTOCOL_DEFINITION('international standard',
'automotive_design',2010,#29);
#29=APPLICATION_CONTEXT(
'core data for automotive mechanical design processes');
#30=SHAPE_REPRESENTATION('reic18D0476Dmbji-None',(#253),#433);
#31=PRESENTATION_LAYER_ASSIGNMENT('210','Layer 210',(#40));
#32=STYLED_ITEM('',(#33),#40);
#33=PRESENTATION_STYLE_ASSIGNMENT((#34));
#34=SURFACE_STYLE_USAGE(.BOTH.,#35);
#35=SURFACE_SIDE_STYLE('',(#36));
#36=SURFACE_STYLE_FILL_AREA(#37);
#37=FILL_AREA_STYLE('',(#38));
#38=FILL_AREA_STYLE_COLOUR('',#39);
#39=COLOUR_RGB('Orange',1.,0.499992370489052,0.);
#40=MANIFOLD_SOLID_BREP('',#41);
#41=CLOSED_SHELL('',(#56,#57,#58,#59,#60,#61,#62,#63,#64,#65,#66,#67,#68,
#69,#70,#71,#72,#73,#74,#75));
#42=FACE_OUTER_BOUND('',#136,.T.);
#43=FACE_OUTER_BOUND('',#155,.T.);
#44=TOROIDAL_SURFACE('',#266,8.91249999997115,0.100000000000023);
#45=TOROIDAL_SURFACE('',#268,5.19999999997071,0.300000000000011);
#46=CYLINDRICAL_SURFACE('',#263,5.49999999997081);
#47=CYLINDRICAL_SURFACE('',#274,4.00000000000001);
#48=CYLINDRICAL_SURFACE('',#282,10.0000000000001);
#49=CYLINDRICAL_SURFACE('',#286,15.75);
#50=CYLINDRICAL_SURFACE('',#289,12.025);
#51=CYLINDRICAL_SURFACE('',#292,3.);
#52=CONICAL_SURFACE('',#258,9.89499999997122,30.0000000002436);
#53=CONICAL_SURFACE('',#260,11.0999999999712,7.50000000002201);
#54=CONICAL_SURFACE('',#278,4.3135099835713,8.00000000000004);
#55=CONICAL_SURFACE('',#288,12.5513838853395,70.000000000844);
#56=ADVANCED_FACE('',(#84,#85),#76,.T.);
#57=ADVANCED_FACE('',(#86,#87),#52,.T.);
#58=ADVANCED_FACE('',(#88,#89),#53,.T.);
#59=ADVANCED_FACE('',(#90,#91),#46,.T.);
#60=ADVANCED_FACE('',(#92,#93),#77,.T.);
#61=ADVANCED_FACE('',(#94,#95),#44,.T.);
#62=ADVANCED_FACE('',(#96,#97),#45,.T.);
#63=ADVANCED_FACE('',(#98,#99),#78,.T.);
#64=ADVANCED_FACE('',(#42),#79,.T.);
#65=ADVANCED_FACE('',(#100,#101),#47,.T.);
#66=ADVANCED_FACE('',(#102,#103),#80,.T.);
#67=ADVANCED_FACE('',(#104,#105),#54,.T.);
#68=ADVANCED_FACE('',(#106,#107),#81,.T.);
#69=ADVANCED_FACE('',(#108,#109),#48,.T.);
#70=ADVANCED_FACE('',(#110,#111),#82,.T.);
#71=ADVANCED_FACE('',(#112,#113),#49,.T.);
#72=ADVANCED_FACE('',(#114,#115),#55,.T.);
#73=ADVANCED_FACE('',(#116,#117),#50,.T.);
#74=ADVANCED_FACE('',(#43),#83,.F.);
#75=ADVANCED_FACE('',(#118,#119),#51,.F.);
#76=PLANE('',#256);
#77=PLANE('',#265);
#78=PLANE('',#270);
#79=PLANE('',#272);
#80=PLANE('',#276);
#81=PLANE('',#280);
#82=PLANE('',#284);
#83=PLANE('',#291);
#84=FACE_BOUND('',#120,.T.);
#85=FACE_BOUND('',#121,.T.);
#86=FACE_BOUND('',#122,.T.);
#87=FACE_BOUND('',#123,.T.);
#88=FACE_BOUND('',#124,.T.);
#89=FACE_BOUND('',#125,.T.);
#90=FACE_BOUND('',#126,.T.);
#91=FACE_BOUND('',#127,.T.);
#92=FACE_BOUND('',#128,.T.);
#93=FACE_BOUND('',#129,.T.);
#94=FACE_BOUND('',#130,.T.);
#95=FACE_BOUND('',#131,.T.);
#96=FACE_BOUND('',#132,.T.);
#97=FACE_BOUND('',#133,.T.);
#98=FACE_BOUND('',#134,.T.);
#99=FACE_BOUND('',#135,.T.);
#100=FACE_BOUND('',#137,.T.);
#101=FACE_BOUND('',#138,.T.);
#102=FACE_BOUND('',#139,.T.);
#103=FACE_BOUND('',#140,.T.);
#104=FACE_BOUND('',#141,.T.);
#105=FACE_BOUND('',#142,.T.);
#106=FACE_BOUND('',#143,.T.);
#107=FACE_BOUND('',#144,.T.);
#108=FACE_BOUND('',#145,.T.);
#109=FACE_BOUND('',#146,.T.);
#110=FACE_BOUND('',#147,.T.);
#111=FACE_BOUND('',#148,.T.);
#112=FACE_BOUND('',#149,.T.);
#113=FACE_BOUND('',#150,.T.);
#114=FACE_BOUND('',#151,.T.);
#115=FACE_BOUND('',#152,.T.);
#116=FACE_BOUND('',#153,.T.);
#117=FACE_BOUND('',#154,.T.);
#118=FACE_BOUND('',#156,.T.);
#119=FACE_BOUND('',#157,.T.);
#120=EDGE_LOOP('',(#158));
#121=EDGE_LOOP('',(#159));
#122=EDGE_LOOP('',(#160));
#123=EDGE_LOOP('',(#161));
#124=EDGE_LOOP('',(#162));
#125=EDGE_LOOP('',(#163));
#126=EDGE_LOOP('',(#164));
#127=EDGE_LOOP('',(#165));
#128=EDGE_LOOP('',(#166));
#129=EDGE_LOOP('',(#167));
#130=EDGE_LOOP('',(#168));
#131=EDGE_LOOP('',(#169));
#132=EDGE_LOOP('',(#170));
#133=EDGE_LOOP('',(#171));
#134=EDGE_LOOP('',(#172));
#135=EDGE_LOOP('',(#173));
#136=EDGE_LOOP('',(#174));
#137=EDGE_LOOP('',(#175));
#138=EDGE_LOOP('',(#176));
#139=EDGE_LOOP('',(#177));
#140=EDGE_LOOP('',(#178));
#141=EDGE_LOOP('',(#179));
#142=EDGE_LOOP('',(#180));
#143=EDGE_LOOP('',(#181));
#144=EDGE_LOOP('',(#182));
#145=EDGE_LOOP('',(#183));
#146=EDGE_LOOP('',(#184));
#147=EDGE_LOOP('',(#185));
#148=EDGE_LOOP('',(#186));
#149=EDGE_LOOP('',(#187));
#150=EDGE_LOOP('',(#188));
#151=EDGE_LOOP('',(#189));
#152=EDGE_LOOP('',(#190));
#153=EDGE_LOOP('',(#191));
#154=EDGE_LOOP('',(#192));
#155=EDGE_LOOP('',(#193));
#156=EDGE_LOOP('',(#194));
#157=EDGE_LOOP('',(#195));
#158=ORIENTED_EDGE('',*,*,#215,.T.);
#159=ORIENTED_EDGE('',*,*,#216,.T.);
#160=ORIENTED_EDGE('',*,*,#217,.T.);
#161=ORIENTED_EDGE('',*,*,#215,.F.);
#162=ORIENTED_EDGE('',*,*,#218,.T.);
#163=ORIENTED_EDGE('',*,*,#217,.F.);
#164=ORIENTED_EDGE('',*,*,#219,.T.);
#165=ORIENTED_EDGE('',*,*,#220,.F.);
#166=ORIENTED_EDGE('',*,*,#221,.T.);
#167=ORIENTED_EDGE('',*,*,#219,.F.);
#168=ORIENTED_EDGE('',*,*,#216,.F.);
#169=ORIENTED_EDGE('',*,*,#221,.F.);
#170=ORIENTED_EDGE('',*,*,#220,.T.);
#171=ORIENTED_EDGE('',*,*,#222,.F.);
#172=ORIENTED_EDGE('',*,*,#223,.T.);
#173=ORIENTED_EDGE('',*,*,#222,.T.);
#174=ORIENTED_EDGE('',*,*,#224,.T.);
#175=ORIENTED_EDGE('',*,*,#225,.T.);
#176=ORIENTED_EDGE('',*,*,#224,.F.);
#177=ORIENTED_EDGE('',*,*,#225,.F.);
#178=ORIENTED_EDGE('',*,*,#226,.F.);
#179=ORIENTED_EDGE('',*,*,#227,.T.);
#180=ORIENTED_EDGE('',*,*,#226,.T.);
#181=ORIENTED_EDGE('',*,*,#227,.F.);
#182=ORIENTED_EDGE('',*,*,#228,.F.);
#183=ORIENTED_EDGE('',*,*,#228,.T.);
#184=ORIENTED_EDGE('',*,*,#229,.T.);
#185=ORIENTED_EDGE('',*,*,#229,.F.);
#186=ORIENTED_EDGE('',*,*,#230,.F.);
#187=ORIENTED_EDGE('',*,*,#231,.F.);
#188=ORIENTED_EDGE('',*,*,#230,.T.);
#189=ORIENTED_EDGE('',*,*,#231,.T.);
#190=ORIENTED_EDGE('',*,*,#232,.F.);
#191=ORIENTED_EDGE('',*,*,#232,.T.);
#192=ORIENTED_EDGE('',*,*,#218,.F.);
#193=ORIENTED_EDGE('',*,*,#233,.T.);
#194=ORIENTED_EDGE('',*,*,#233,.F.);
#195=ORIENTED_EDGE('',*,*,#223,.F.);
#196=VERTEX_POINT('',#375);
#197=VERTEX_POINT('',#377);
#198=VERTEX_POINT('',#380);
#199=VERTEX_POINT('',#383);
#200=VERTEX_POINT('',#386);
#201=VERTEX_POINT('',#388);
#202=VERTEX_POINT('',#391);
#203=VERTEX_POINT('',#395);
#204=VERTEX_POINT('',#398);
#205=VERTEX_POINT('',#401);
#206=VERTEX_POINT('',#404);
#207=VERTEX_POINT('',#407);
#208=VERTEX_POINT('',#410);
#209=VERTEX_POINT('',#413);
#210=VERTEX_POINT('',#416);
#211=VERTEX_POINT('',#419);
#212=VERTEX_POINT('',#422);
#213=VERTEX_POINT('',#425);
#214=VERTEX_POINT('',#429);
#215=EDGE_CURVE('',#196,#196,#234,.T.);
#216=EDGE_CURVE('',#197,#197,#235,.T.);
#217=EDGE_CURVE('',#198,#198,#236,.T.);
#218=EDGE_CURVE('',#199,#199,#237,.T.);
#219=EDGE_CURVE('',#200,#200,#238,.T.);
#220=EDGE_CURVE('',#201,#201,#239,.T.);
#221=EDGE_CURVE('',#202,#202,#240,.T.);
#222=EDGE_CURVE('',#203,#203,#241,.T.);
#223=EDGE_CURVE('',#204,#204,#242,.T.);
#224=EDGE_CURVE('',#205,#205,#243,.T.);
#225=EDGE_CURVE('',#206,#206,#244,.T.);
#226=EDGE_CURVE('',#207,#207,#245,.T.);
#227=EDGE_CURVE('',#208,#208,#246,.T.);
#228=EDGE_CURVE('',#209,#209,#247,.T.);
#229=EDGE_CURVE('',#210,#210,#248,.T.);
#230=EDGE_CURVE('',#211,#211,#249,.T.);
#231=EDGE_CURVE('',#212,#212,#250,.T.);
#232=EDGE_CURVE('',#213,#213,#251,.T.);
#233=EDGE_CURVE('',#214,#214,#252,.T.);
#234=CIRCLE('',#254,9.89499999997122);
#235=CIRCLE('',#255,9.01249999997117);
#236=CIRCLE('',#257,11.0999999999712);
#237=CIRCLE('',#259,12.0249999999712);
#238=CIRCLE('',#261,5.4999999999709);
#239=CIRCLE('',#262,5.49999999997073);
#240=CIRCLE('',#264,8.91249999997115);
#241=CIRCLE('',#267,5.19999999997071);
#242=CIRCLE('',#269,3.);
#243=CIRCLE('',#271,4.);
#244=CIRCLE('',#273,4.);
#245=CIRCLE('',#275,4.3135099835713);
#246=CIRCLE('',#277,5.9926314776765);
#247=CIRCLE('',#279,10.0000000000002);
#248=CIRCLE('',#281,10.);
#249=CIRCLE('',#283,15.75);
#250=CIRCLE('',#285,15.75);
#251=CIRCLE('',#287,12.025);
#252=CIRCLE('',#290,3.);
#253=AXIS2_PLACEMENT_3D('',#373,#293,#294);
#254=AXIS2_PLACEMENT_3D('',#374,#295,#296);
#255=AXIS2_PLACEMENT_3D('',#376,#297,#298);
#256=AXIS2_PLACEMENT_3D('',#378,#299,#300);
#257=AXIS2_PLACEMENT_3D('',#379,#301,#302);
#258=AXIS2_PLACEMENT_3D('',#381,#303,#304);
#259=AXIS2_PLACEMENT_3D('',#382,#305,#306);
#260=AXIS2_PLACEMENT_3D('',#384,#307,#308);
#261=AXIS2_PLACEMENT_3D('',#385,#309,#310);
#262=AXIS2_PLACEMENT_3D('',#387,#311,#312);
#263=AXIS2_PLACEMENT_3D('',#389,#313,#314);
#264=AXIS2_PLACEMENT_3D('',#390,#315,#316);
#265=AXIS2_PLACEMENT_3D('',#392,#317,#318);
#266=AXIS2_PLACEMENT_3D('',#393,#319,#320);
#267=AXIS2_PLACEMENT_3D('',#394,#321,#322);
#268=AXIS2_PLACEMENT_3D('',#396,#323,#324);
#269=AXIS2_PLACEMENT_3D('',#397,#325,#326);
#270=AXIS2_PLACEMENT_3D('',#399,#327,#328);
#271=AXIS2_PLACEMENT_3D('',#400,#329,#330);
#272=AXIS2_PLACEMENT_3D('',#402,#331,#332);
#273=AXIS2_PLACEMENT_3D('',#403,#333,#334);
#274=AXIS2_PLACEMENT_3D('',#405,#335,#336);
#275=AXIS2_PLACEMENT_3D('',#406,#337,#338);
#276=AXIS2_PLACEMENT_3D('',#408,#339,#340);
#277=AXIS2_PLACEMENT_3D('',#409,#341,#342);
#278=AXIS2_PLACEMENT_3D('',#411,#343,#344);
#279=AXIS2_PLACEMENT_3D('',#412,#345,#346);
#280=AXIS2_PLACEMENT_3D('',#414,#347,#348);
#281=AXIS2_PLACEMENT_3D('',#415,#349,#350);
#282=AXIS2_PLACEMENT_3D('',#417,#351,#352);
#283=AXIS2_PLACEMENT_3D('',#418,#353,#354);
#284=AXIS2_PLACEMENT_3D('',#420,#355,#356);
#285=AXIS2_PLACEMENT_3D('',#421,#357,#358);
#286=AXIS2_PLACEMENT_3D('',#423,#359,#360);
#287=AXIS2_PLACEMENT_3D('',#424,#361,#362);
#288=AXIS2_PLACEMENT_3D('',#426,#363,#364);
#289=AXIS2_PLACEMENT_3D('',#427,#365,#366);
#290=AXIS2_PLACEMENT_3D('',#428,#367,#368);
#291=AXIS2_PLACEMENT_3D('',#430,#369,#370);
#292=AXIS2_PLACEMENT_3D('',#431,#371,#372);
#293=DIRECTION('',(0.,0.,1.));
#294=DIRECTION('',(1.,0.,0.));
#295=DIRECTION('',(0.,0.,1.));
#296=DIRECTION('',(1.,0.,0.));
#297=DIRECTION('',(0.,0.,-1.));
#298=DIRECTION('',(1.,0.,0.));
#299=DIRECTION('',(0.,0.,1.));
#300=DIRECTION('',(1.,0.,0.));
#301=DIRECTION('',(0.,0.,1.));
#302=DIRECTION('',(1.,0.,0.));
#303=DIRECTION('',(0.,0.,-1.));
#304=DIRECTION('',(-1.,0.,9.45280518093025E-017));
#305=DIRECTION('',(0.,0.,1.));
#306=DIRECTION('',(1.,0.,0.));
#307=DIRECTION('',(0.,0.,-1.));
#308=DIRECTION('',(-1.,0.,-1.94431453632298E-016));
#309=DIRECTION('',(0.,0.,1.));
#310=DIRECTION('',(1.,0.,0.));
#311=DIRECTION('',(0.,0.,1.));
#312=DIRECTION('',(1.,0.,0.));
#313=DIRECTION('',(0.,0.,1.));
#314=DIRECTION('',(1.,0.,0.));
#315=DIRECTION('',(0.,0.,1.));
#316=DIRECTION('',(1.,0.,0.));
#317=DIRECTION('',(0.,0.,1.));
#318=DIRECTION('',(1.,0.,0.));
#319=DIRECTION('',(0.,0.,1.));
#320=DIRECTION('',(1.,0.,0.));
#321=DIRECTION('',(0.,0.,1.));
#322=DIRECTION('',(1.,0.,0.));
#323=DIRECTION('',(0.,0.,1.));
#324=DIRECTION('',(1.,0.,0.));
#325=DIRECTION('',(0.,0.,-1.));
#326=DIRECTION('',(-1.,0.,0.));
#327=DIRECTION('',(0.,0.,1.));
#328=DIRECTION('',(1.,0.,0.));
#329=DIRECTION('',(0.,0.,-1.));
#330=DIRECTION('',(-1.,0.,0.));
#331=DIRECTION('',(0.,0.,-1.));
#332=DIRECTION('',(-1.,0.,0.));
#333=DIRECTION('',(0.,0.,-1.));
#334=DIRECTION('',(-1.,0.,0.));
#335=DIRECTION('',(0.,0.,1.));
#336=DIRECTION('',(1.,0.,0.));
#337=DIRECTION('',(0.,0.,1.));
#338=DIRECTION('',(0.,1.,0.));
#339=DIRECTION('',(0.,0.,-1.));
#340=DIRECTION('',(0.,1.,0.));
#341=DIRECTION('',(0.,0.,-1.));
#342=DIRECTION('',(-1.,0.,0.));
#343=DIRECTION('',(0.,0.,1.));
#344=DIRECTION('',(0.,-1.,-1.43707679302621E-016));
#345=DIRECTION('',(0.,0.,1.));
#346=DIRECTION('',(1.,0.,0.));
#347=DIRECTION('',(0.,0.,-1.));
#348=DIRECTION('',(-1.,0.,0.));
#349=DIRECTION('',(0.,0.,-1.));
#350=DIRECTION('',(1.,0.,0.));
#351=DIRECTION('',(0.,0.,1.));
#352=DIRECTION('',(1.,0.,0.));
#353=DIRECTION('',(0.,0.,1.));
#354=DIRECTION('',(-1.,0.,0.));
#355=DIRECTION('',(0.,0.,-1.));
#356=DIRECTION('',(-1.,0.,0.));
#357=DIRECTION('',(0.,0.,1.));
#358=DIRECTION('',(-1.,0.,0.));
#359=DIRECTION('',(0.,0.,1.));
#360=DIRECTION('',(1.,0.,0.));
#361=DIRECTION('',(0.,0.,1.));
#362=DIRECTION('',(-1.,0.,0.));
#363=DIRECTION('',(0.,0.,-1.));
#364=DIRECTION('',(-1.,0.,1.38273616650542E-017));
#365=DIRECTION('',(0.,0.,1.));
#366=DIRECTION('',(1.,0.,0.));
#367=DIRECTION('',(0.,0.,1.));
#368=DIRECTION('',(-1.,0.,0.));
#369=DIRECTION('',(0.,0.,-1.));
#370=DIRECTION('',(-1.,0.,0.));
#371=DIRECTION('',(0.,0.,-1.));
#372=DIRECTION('',(-1.,0.,0.));
#373=CARTESIAN_POINT('',(0.,0.,0.));
#374=CARTESIAN_POINT('',(0.,0.,38.4999999999855));
#375=CARTESIAN_POINT('',(9.89499999997122,0.,38.4999999999855));
#376=CARTESIAN_POINT('',(0.,0.,38.4999999999855));
#377=CARTESIAN_POINT('',(9.01249999997117,0.,38.4999999999855));
#378=CARTESIAN_POINT('',(0.,9.31249999997118,38.4999999999855));
#379=CARTESIAN_POINT('',(0.,0.,36.4128787768855));
#380=CARTESIAN_POINT('',(11.0999999999712,0.,36.4128787768855));
#381=CARTESIAN_POINT('',(0.,0.,38.4999999999855));
#382=CARTESIAN_POINT('',(0.,0.,29.3868062226355));
#383=CARTESIAN_POINT('',(12.0249999999712,0.,29.3868062226355));
#384=CARTESIAN_POINT('',(0.,0.,36.4128787768855));
#385=CARTESIAN_POINT('',(0.,0.,38.5999999999855));
#386=CARTESIAN_POINT('',(5.4999999999709,0.,38.5999999999855));
#387=CARTESIAN_POINT('',(0.,0.,38.7000000001059));
#388=CARTESIAN_POINT('',(5.49999999997073,0.,38.7000000001059));
#389=CARTESIAN_POINT('',(0.,0.,-21.));
#390=CARTESIAN_POINT('',(0.,0.,38.5999999999855));
#391=CARTESIAN_POINT('',(8.91249999997115,0.,38.5999999999855));
#392=CARTESIAN_POINT('',(0.,5.4999999999709,38.5999999999855));
#393=CARTESIAN_POINT('',(0.,0.,38.4999999999855));
#394=CARTESIAN_POINT('',(0.,0.,39.0000000001059));
#395=CARTESIAN_POINT('',(5.19999999997071,0.,39.0000000001059));
#396=CARTESIAN_POINT('',(0.,0.,38.7000000001059));
#397=CARTESIAN_POINT('',(0.,0.,39.0000000001059));
#398=CARTESIAN_POINT('',(-3.,0.,39.0000000001059));
#399=CARTESIAN_POINT('',(0.,3.30000000000001,39.000000000053));
#400=CARTESIAN_POINT('',(0.,0.,-28.));
#401=CARTESIAN_POINT('',(-4.,0.,-28.));
#402=CARTESIAN_POINT('',(0.,3.15156800435,-28.));
#403=CARTESIAN_POINT('',(0.,0.,-23.));
#404=CARTESIAN_POINT('',(-4.,0.,-23.));
#405=CARTESIAN_POINT('',(0.,0.,-21.));
#406=CARTESIAN_POINT('',(0.,0.,-23.));
#407=CARTESIAN_POINT('',(0.,4.3135099835713,-23.));
#408=CARTESIAN_POINT('',(-3.5,0.,-23.));
#409=CARTESIAN_POINT('',(0.,0.,-11.0524297606394));
#410=CARTESIAN_POINT('',(-5.9926314776765,0.,-11.0524297606394));
#411=CARTESIAN_POINT('',(0.,0.,-23.));
#412=CARTESIAN_POINT('',(0.,0.,-11.0524297606394));
#413=CARTESIAN_POINT('',(10.0000000000002,0.,-11.0524297606394));
#414=CARTESIAN_POINT('',(0.,10.0000000000002,-11.0524297606394));
#415=CARTESIAN_POINT('',(-9.34807244633295E-015,-6.73533494602307E-016,
0.));
#416=CARTESIAN_POINT('',(9.99999999999999,-6.73533494602307E-016,0.));
#417=CARTESIAN_POINT('',(0.,0.,-21.));
#418=CARTESIAN_POINT('',(0.,0.,0.));
#419=CARTESIAN_POINT('',(-15.75,0.,0.));
#420=CARTESIAN_POINT('',(0.,15.25,0.));
#421=CARTESIAN_POINT('',(0.,0.,12.584044846844));
#422=CARTESIAN_POINT('',(-15.75,0.,12.584044846844));
#423=CARTESIAN_POINT('',(0.,0.,-21.));
#424=CARTESIAN_POINT('',(0.,0.,13.9398339694235));
#425=CARTESIAN_POINT('',(-12.025,0.,13.9398339694235));
#426=CARTESIAN_POINT('',(0.,0.,13.7482459033713));
#427=CARTESIAN_POINT('',(0.,0.,-21.));
#428=CARTESIAN_POINT('',(0.,0.,3.0000000001059));
#429=CARTESIAN_POINT('',(-3.,0.,3.0000000001059));
#430=CARTESIAN_POINT('',(0.,0.,3.0000000001059));
#431=CARTESIAN_POINT('',(0.,0.,39.0000000001059));
#432=MECHANICAL_DESIGN_GEOMETRIC_PRESENTATION_REPRESENTATION('',(#32),#433);
#433=(
GEOMETRIC_REPRESENTATION_CONTEXT(3)
GLOBAL_UNCERTAINTY_ASSIGNED_CONTEXT((#434))
GLOBAL_UNIT_ASSIGNED_CONTEXT((#440,#436,#435))
REPRESENTATION_CONTEXT('W9990110_stp','TOP_LEVEL_ASSEMBLY_PART')
);
#434=UNCERTAINTY_MEASURE_WITH_UNIT(LENGTH_MEASURE(2.E-005),#440,
'DISTANCE_ACCURACY_VALUE','Maximum Tolerance applied to model');
#435=(
NAMED_UNIT(*)
SI_UNIT($,.STERADIAN.)
SOLID_ANGLE_UNIT()
);
#436=(
CONVERSION_BASED_UNIT('DEGREE',#438)
NAMED_UNIT(#437)
PLANE_ANGLE_UNIT()
);
#437=DIMENSIONAL_EXPONENTS(0.,0.,0.,0.,0.,0.,0.);
#438=PLANE_ANGLE_MEASURE_WITH_UNIT(PLANE_ANGLE_MEASURE(0.0174532925),#439);
#439=(
NAMED_UNIT(*)
PLANE_ANGLE_UNIT()
SI_UNIT($,.RADIAN.)
);
#440=(
LENGTH_UNIT()
NAMED_UNIT(*)
SI_UNIT(.MILLI.,.METRE.)
);
ENDSEC;
END-ISO-10303-21;
