  0
SECTION
  2
HEADER
  9
$ACADVER
  1
AC1014
  9
$ACADMAINTVER
 70
     9
  9
$DWGCODEPAGE
  3
ANSI_1252
  9
$INSBASE
 10
0.0
 20
0.0
 30
0.0
  9
$EXTMIN
 10
1.000000000000000E+20
 20
1.000000000000000E+20
 30
1.000000000000000E+20
  9
$EXTMAX
 10
-1.000000000000000E+20
 20
-1.000000000000000E+20
 30
-1.000000000000000E+20
  9
$LIMMIN
 10
0.0
 20
0.0
  9
$LIMMAX
 10
12.0
 20
9.0
  9
$ORTHOMODE
 70
     0
  9
$REGENMODE
 70
     1
  9
$FILLMODE
 70
     1
  9
$QTEXTMODE
 70
     0
  9
$MIRRTEXT
 70
     1
  9
$DRAGMODE
 70
     2
  9
$LTSCALE
 40
1.0
  9
$OSMODE
 70
    37
  9
$ATTMODE
 70
     1
  9
$TEXTSIZE
 40
0.2
  9
$TRACEWID
 40
0.05
  9
$TEXTSTYLE
  7
STANDARD
  9
$CLAYER
  8
0
  9
$CELTYPE
  6
BYLAYER
  9
$CECOLOR
 62
   256
  9
$CELTSCALE
 40
1.0
  9
$DELOBJ
 70
     1
  9
$DISPSILH
 70
     0
  9
$DIMSCALE
 40
1.0
  9
$DIMASZ
 40
0.18
  9
$DIMEXO
 40
0.0625
  9
$DIMDLI
 40
0.38
  9
$DIMRND
 40
0.0
  9
$DIMDLE
 40
0.0
  9
$DIMEXE
 40
0.18
  9
$DIMTP
 40
0.0
  9
$DIMTM
 40
0.0
  9
$DIMTXT
 40
0.18
  9
$DIMCEN
 40
0.09
  9
$DIMTSZ
 40
0.0
  9
$DIMTOL
 70
     0
  9
$DIMLIM
 70
     0
  9
$DIMTIH
 70
     1
  9
$DIMTOH
 70
     1
  9
$DIMSE1
 70
     0
  9
$DIMSE2
 70
     0
  9
$DIMTAD
 70
     0
  9
$DIMZIN
 70
     0
  9
$DIMBLK
  1

  9
$DIMASO
 70
     1
  9
$DIMSHO
 70
     1
  9
$DIMPOST
  1

  9
$DIMAPOST
  1

  9
$DIMALT
 70
     0
  9
$DIMALTD
 70
     2
  9
$DIMALTF
 40
25.4
  9
$DIMLFAC
 40
1.0
  9
$DIMTOFL
 70
     0
  9
$DIMTVP
 40
0.0
  9
$DIMTIX
 70
     0
  9
$DIMSOXD
 70
     0
  9
$DIMSAH
 70
     0
  9
$DIMBLK1
  1

  9
$DIMBLK2
  1

  9
$DIMSTYLE
  2
STANDARD
  9
$DIMCLRD
 70
     0
  9
$DIMCLRE
 70
     0
  9
$DIMCLRT
 70
     0
  9
$DIMTFAC
 40
1.0
  9
$DIMGAP
 40
0.09
  9
$DIMJUST
 70
     0
  9
$DIMSD1
 70
     0
  9
$DIMSD2
 70
     0
  9
$DIMTOLJ
 70
     1
  9
$DIMTZIN
 70
     0
  9
$DIMALTZ
 70
     0
  9
$DIMALTTZ
 70
     0
  9
$DIMFIT
 70
     3
  9
$DIMUPT
 70
     0
  9
$DIMUNIT
 70
     2
  9
$DIMDEC
 70
     4
  9
$DIMTDEC
 70
     4
  9
$DIMALTU
 70
     2
  9
$DIMALTTD
 70
     2
  9
$DIMTXSTY
  7
STANDARD
  9
$DIMAUNIT
 70
     0
  9
$LUNITS
 70
     2
  9
$LUPREC
 70
     4
  9
$SKETCHINC
 40
0.1
  9
$FILLETRAD
 40
0.5
  9
$AUNITS
 70
     0
  9
$AUPREC
 70
     0
  9
$MENU
  1
.
  9
$ELEVATION
 40
0.0
  9
$PELEVATION
 40
0.0
  9
$THICKNESS
 40
0.0
  9
$LIMCHECK
 70
     0
  9
$CHAMFERA
 40
0.5
  9
$CHAMFERB
 40
0.5
  9
$CHAMFERC
 40
1.0
  9
$CHAMFERD
 40
0.0
  9
$SKPOLY
 70
     0
  9
$TDCREATE
 40
2458284.360350972
  9
$TDUPDATE
 40
2458284.360350984
  9
$TDINDWG
 40
0.0000000116
  9
$TDUSRTIMER
 40
0.0000000116
  9
$USRTIMER
 70
     1
  9
$ANGBASE
 50
0.0
  9
$ANGDIR
 70
     0
  9
$PDMODE
 70
     0
  9
$PDSIZE
 40
0.0
  9
$PLINEWID
 40
0.0
  9
$COORDS
 70
     1
  9
$SPLFRAME
 70
     0
  9
$SPLINETYPE
 70
     6
  9
$SPLINESEGS
 70
     8
  9
$ATTDIA
 70
     0
  9
$ATTREQ
 70
     1
  9
$HANDLING
 70
     1
  9
$HANDSEED
  5
393
  9
$SURFTAB1
 70
     6
  9
$SURFTAB2
 70
     6
  9
$SURFTYPE
 70
     6
  9
$SURFU
 70
     6
  9
$SURFV
 70
     6
  9
$UCSNAME
  2

  9
$UCSORG
 10
0.0
 20
0.0
 30
0.0
  9
$UCSXDIR
 10
1.0
 20
0.0
 30
0.0
  9
$UCSYDIR
 10
0.0
 20
1.0
 30
0.0
  9
$PUCSNAME
  2

  9
$PUCSORG
 10
0.0
 20
0.0
 30
0.0
  9
$PUCSXDIR
 10
1.0
 20
0.0
 30
0.0
  9
$PUCSYDIR
 10
0.0
 20
1.0
 30
0.0
  9
$USERI1
 70
     0
  9
$USERI2
 70
     0
  9
$USERI3
 70
     0
  9
$USERI4
 70
     0
  9
$USERI5
 70
     0
  9
$USERR1
 40
0.0
  9
$USERR2
 40
0.0
  9
$USERR3
 40
0.0
  9
$USERR4
 40
0.0
  9
$USERR5
 40
0.0
  9
$WORLDVIEW
 70
     1
  9
$SHADEDGE
 70
     3
  9
$SHADEDIF
 70
    70
  9
$TILEMODE
 70
     1
  9
$MAXACTVP
 70
    64
  9
$PINSBASE
 10
0.0
 20
0.0
 30
0.0
  9
$PLIMCHECK
 70
     0
  9
$PEXTMIN
 10
1.000000000000000E+20
 20
1.000000000000000E+20
 30
1.000000000000000E+20
  9
$PEXTMAX
 10
-1.000000000000000E+20
 20
-1.000000000000000E+20
 30
-1.000000000000000E+20
  9
$PLIMMIN
 10
0.0
 20
0.0
  9
$PLIMMAX
 10
12.0
 20
9.0
  9
$UNITMODE
 70
     0
  9
$VISRETAIN
 70
     1
  9
$PLINEGEN
 70
     0
  9
$PSLTSCALE
 70
     1
  9
$TREEDEPTH
 70
  3020
  9
$PICKSTYLE
 70
     1
  9
$CMLSTYLE
  2
STANDARD
  9
$CMLJUST
 70
     0
  9
$CMLSCALE
 40
1.0
  9
$PROXYGRAPHICS
 70
     1
  9
$MEASUREMENT
 70
     0
  0
ENDSEC
  0
SECTION
  2
CLASSES
  0
CLASS
  1
ACDBDICTIONARYWDFLT
  2
AcDbDictionaryWithDefault
  3
ObjectDBX Classes
 90
        0
280
     0
281
     0
  0
CLASS
  1
VISUALSTYLE
  2
AcDbVisualStyle
  3
ObjectDBX Classes
 90
     4095
280
     0
281
     0
  0
CLASS
  1
XRECORD
  2
AcDbXrecord
  3
AutoCAD 2000
 90
        0
280
     0
281
     0
  0
CLASS
  1
LWPOLYLINE
  2
AcDbPolyline
  3
AutoCAD 2000
 90
        0
280
     0
281
     1
  0
CLASS
  1
HATCH
  2
AcDbHatch
  3
AutoCAD 2000
 90
        0
280
     0
281
     1
  0
CLASS
  1
ACDBPLACEHOLDER
  2
AcDbPlaceHolder
  3
ObjectDBX Classes
 90
        0
280
     0
281
     0
  0
CLASS
  1
LAYOUT
  2
AcDbLayout
  3
ObjectDBX Classes
 90
        0
280
     0
281
     0
  0
ENDSEC
  0
SECTION
  2
TABLES
  0
TABLE
  2
VPORT
  5
8
330
0
100
AcDbSymbolTable
 70
     1
  0
VPORT
  5
29
330
8
100
AcDbSymbolTableRecord
100
AcDbViewportTableRecord
  2
*ACTIVE
 70
     0
 10
0.0
 20
0.0
 11
1.0
 21
1.0
 12
0.0
 22
0.0
 13
0.0
 23
0.0
 14
0.5
 24
0.5
 15
0.5
 25
0.5
 16
0.0
 26
0.0
 36
1.0
 17
-2.73828125
 27
-151.6982421875
 37
0.0
 40
620.0
 41
1.188709677419355
 42
50.0
 43
0.0
 44
0.0
 50
0.0
 51
0.0
 71
     0
 72
   100
 73
     1
 74
     3
 75
     0
 76
     0
 77
     0
 78
     0
  0
ENDTAB
  0
TABLE
  2
LTYPE
  5
5
330
0
100
AcDbSymbolTable
 70
     2
  0
LTYPE
  5
14
330
5
100
AcDbSymbolTableRecord
100
AcDbLinetypeTableRecord
  2
BYBLOCK
 70
     0
  3

 72
    65
 73
     0
 40
0.0
  0
LTYPE
  5
15
330
5
100
AcDbSymbolTableRecord
100
AcDbLinetypeTableRecord
  2
BYLAYER
 70
     0
  3

 72
    65
 73
     0
 40
0.0
  0
LTYPE
  5
16
330
5
100
AcDbSymbolTableRecord
100
AcDbLinetypeTableRecord
  2
CONTINUOUS
 70
     0
  3
Solid line
 72
    65
 73
     0
 40
0.0
  0
LTYPE
  5
106
330
5
100
AcDbSymbolTableRecord
100
AcDbLinetypeTableRecord
  2
AI-LINETYPE-1
 70
     0
  3
Adobe Illustrator Linetype No. 1
 72
    65
 73
     4
 40
25.0
 49
20.0
 74
     0
 49
-2.0
 74
     0
 49
1.0
 74
     0
 49
-2.0
 74
     0
  0
ENDTAB
  0
TABLE
  2
LAYER
  5
2
330
0
100
AcDbSymbolTable
 70
     5
  0
LAYER
  5
10
330
2
100
AcDbSymbolTableRecord
100
AcDbLayerTableRecord
  2
0
 70
     0
 62
     7
  6
CONTINUOUS
  0
LAYER
  5
3B
330
2
100
AcDbSymbolTableRecord
100
AcDbLayerTableRecord
  2
GRAU_10_
 70
     1
 62
     7
  6
CONTINUOUS
  0
LAYER
  5
51
330
2
100
AcDbSymbolTableRecord
100
AcDbLayerTableRecord
  2
STANDARDEBENE
 70
     0
 62
     7
  6
CONTINUOUS
  0
LAYER
  5
2D7
330
2
100
AcDbSymbolTableRecord
100
AcDbLayerTableRecord
  2
BEMAßUNG
 70
     1
 62
     7
  6
CONTINUOUS
  0
LAYER
  5
370
330
2
100
AcDbSymbolTableRecord
100
AcDbLayerTableRecord
  2
TEXT
 70
     1
 62
     7
  6
CONTINUOUS
  0
ENDTAB
  0
TABLE
  2
STYLE
  5
3
330
0
100
AcDbSymbolTable
 70
     1
  0
STYLE
  5
11
330
3
100
AcDbSymbolTableRecord
100
AcDbTextStyleTableRecord
  2
STANDARD
 70
     0
 40
0.0
 41
1.0
 50
0.0
 71
     0
 42
0.2
  3
txt
  4

  0
ENDTAB
  0
TABLE
  2
VIEW
  5
6
330
0
100
AcDbSymbolTable
 70
     0
  0
ENDTAB
  0
TABLE
  2
UCS
  5
7
330
0
100
AcDbSymbolTable
 70
     0
  0
ENDTAB
  0
TABLE
  2
APPID
  5
9
330
0
100
AcDbSymbolTable
 70
     1
  0
APPID
  5
12
330
9
100
AcDbSymbolTableRecord
100
AcDbRegAppTableRecord
  2
ACAD
 70
     0
  0
ENDTAB
  0
TABLE
  2
DIMSTYLE
  5
A
330
0
100
AcDbSymbolTable
 70
     1
  0
DIMSTYLE
105
27
330
A
100
AcDbSymbolTableRecord
100
AcDbDimStyleTableRecord
  2
STANDARD
 70
     0
  3

  4

  5

  6

  7

 40
1.0
 41
0.18
 42
0.0625
 43
0.38
 44
0.18
 45
0.0
 46
0.0
 47
0.0
 48
0.0
140
0.18
141
0.09
142
0.0
143
25.4
144
1.0
145
0.0
146
1.0
147
0.09
 71
     0
 72
     0
 73
     1
 74
     1
 75
     0
 76
     0
 77
     0
 78
     0
170
     0
171
     2
172
     0
173
     0
174
     0
175
     0
176
     0
177
     0
178
     0
270
     2
271
     4
272
     4
273
     2
274
     2
340
11
275
     0
280
     0
281
     0
282
     0
283
     1
284
     0
285
     0
286
     0
287
     3
288
     0
  0
ENDTAB
  0
TABLE
  2
BLOCK_RECORD
  5
1
330
0
100
AcDbSymbolTable
 70
     1
  0
BLOCK_RECORD
  5
1F
330
1
100
AcDbSymbolTableRecord
100
AcDbBlockTableRecord
  2
*MODEL_SPACE
  0
BLOCK_RECORD
  5
1B
330
1
100
AcDbSymbolTableRecord
100
AcDbBlockTableRecord
  2
*PAPER_SPACE
  0
ENDTAB
  0
ENDSEC
  0
SECTION
  2
BLOCKS
  0
BLOCK
  5
20
330
1F
100
AcDbEntity
  8
0
100
AcDbBlockBegin
  2
*MODEL_SPACE
 70
     0
 71
     0
 10
0.0
 20
0.0
 30
0.0
  3
*MODEL_SPACE
  1

  0
ENDBLK
  5
21
330
1F
100
AcDbEntity
  8
0
100
AcDbBlockEnd
  0
BLOCK
  5
1C
330
1B
100
AcDbEntity
 67
     1
  8
0
100
AcDbBlockBegin
  2
*PAPER_SPACE
 70
     0
 71
     0
 10
0.0
 20
0.0
 30
0.0
  3
*PAPER_SPACE
  1

  0
ENDBLK
  5
1D
330
1B
100
AcDbEntity
 67
     1
  8
0
100
AcDbBlockEnd
  0
ENDSEC
  0
SECTION
  2
ENTITIES
  0
POLYLINE
  5
3C
330
1F
100
AcDbEntity
  8
GRAU_10_
100
AcDb2dPolyline
 66
     1
 10
0.0
 20
0.0
 30
0.0
  0
VERTEX
  5
3D
330
3C
100
AcDbEntity
  8
GRAU_10_
100
AcDbVertex
100
AcDb2dVertex
 10
-235.78759765625
 20
18.0439453125
 30
0.0
  0
VERTEX
  5
3E
330
3C
100
AcDbEntity
  8
GRAU_10_
100
AcDbVertex
100
AcDb2dVertex
 10
-236.09130859375
 20
54.4423828125
 30
0.0
  0
VERTEX
  5
3F
330
3C
100
AcDbEntity
  8
GRAU_10_
100
AcDbVertex
100
AcDb2dVertex
 10
-220.47802734375
 20
62.8564453125
 30
0.0
  0
VERTEX
  5
40
330
3C
100
AcDbEntity
  8
GRAU_10_
100
AcDbVertex
100
AcDb2dVertex
 10
-220.07275390625
 20
57.6865234375
 30
0.0
  0
VERTEX
  5
41
330
3C
100
AcDbEntity
  8
GRAU_10_
100
AcDbVertex
100
AcDb2dVertex
 10
-210.03564453125
 20
57.6865234375
 30
0.0
  0
VERTEX
  5
42
330
3C
100
AcDbEntity
  8
GRAU_10_
100
AcDbVertex
100
AcDb2dVertex
 10
-209.93408203125
 20
62.9580078125
 30
0.0
  0
VERTEX
  5
43
330
3C
100
AcDbEntity
  8
GRAU_10_
100
AcDbVertex
100
AcDb2dVertex
 10
-122.43798828125
 20
50.6904296875
 30
0.0
  0
VERTEX
  5
44
330
3C
100
AcDbEntity
  8
GRAU_10_
100
AcDbVertex
100
AcDb2dVertex
 10
-122.43798828125
 20
-18.2509765625
 30
0.0
  0
VERTEX
  5
45
330
3C
100
AcDbEntity
  8
GRAU_10_
100
AcDbVertex
100
AcDb2dVertex
 10
-209.93310546875
 20
-30.7216796875
 30
0.0
  0
VERTEX
  5
46
330
3C
100
AcDbEntity
  8
GRAU_10_
100
AcDbVertex
100
AcDb2dVertex
 10
-210.13623046875
 20
-25.2470703125
 30
0.0
  0
VERTEX
  5
47
330
3C
100
AcDbEntity
  8
GRAU_10_
100
AcDbVertex
100
AcDb2dVertex
 10
-220.27490234375
 20
-25.2470703125
 30
0.0
  0
VERTEX
  5
48
330
3C
100
AcDbEntity
  8
GRAU_10_
100
AcDbVertex
100
AcDb2dVertex
 10
-220.27490234375
 20
-30.5185546875
 30
0.0
  0
VERTEX
  5
49
330
3C
100
AcDbEntity
  8
GRAU_10_
100
AcDbVertex
100
AcDb2dVertex
 10
-221.18701171875
 20
-30.5185546875
 30
0.0
  0
VERTEX
  5
4A
330
3C
100
AcDbEntity
  8
GRAU_10_
100
AcDbVertex
100
AcDb2dVertex
 10
-236.09130859375
 20
-22.2060546875
 30
0.0
  0
VERTEX
  5
4B
330
3C
100
AcDbEntity
  8
GRAU_10_
100
AcDbVertex
100
AcDb2dVertex
 10
-235.88818359375
 20
14.6982421875
 30
0.0
  0
VERTEX
  5
4C
330
3C
100
AcDbEntity
  8
GRAU_10_
100
AcDbVertex
100
AcDb2dVertex
 10
-138.05029296875
 20
14.59765625
 30
0.0
  0
VERTEX
  5
4D
330
3C
100
AcDbEntity
  8
GRAU_10_
100
AcDbVertex
100
AcDb2dVertex
 10
-137.44287109375
 20
17.841796875
 30
0.0
  0
VERTEX
  5
4E
330
3C
100
AcDbEntity
  8
GRAU_10_
100
AcDbVertex
100
AcDb2dVertex
 10
-235.78759765625
 20
18.0439453125
 30
0.0
  0
SEQEND
  5
4F
330
3C
100
AcDbEntity
  8
GRAU_10_
  0
HATCH
  5
50
330
1F
100
AcDbEntity
  8
GRAU_10_
 62
   255
100
AcDbHatch
 10
0.0
 20
0.0
 30
0.0
210
0.0
220
0.0
230
1.0
  2
SOLID
 70
     1
 71
     0
 91
        1
 92
        1
 93
       17
 72
     1
 10
-235.78759765625
 20
18.0439453125
 11
-236.09130859375
 21
54.4423828125
 72
     1
 10
-236.09130859375
 20
54.4423828125
 11
-220.47802734375
 21
62.8564453125
 72
     1
 10
-220.47802734375
 20
62.8564453125
 11
-220.07275390625
 21
57.6865234375
 72
     1
 10
-220.07275390625
 20
57.6865234375
 11
-210.03564453125
 21
57.6865234375
 72
     1
 10
-210.03564453125
 20
57.6865234375
 11
-209.93408203125
 21
62.9580078125
 72
     1
 10
-209.93408203125
 20
62.9580078125
 11
-122.43798828125
 21
50.6904296875
 72
     1
 10
-122.43798828125
 20
50.6904296875
 11
-122.43798828125
 21
-18.2509765625
 72
     1
 10
-122.43798828125
 20
-18.2509765625
 11
-209.93310546875
 21
-30.7216796875
 72
     1
 10
-209.93310546875
 20
-30.7216796875
 11
-210.13623046875
 21
-25.2470703125
 72
     1
 10
-210.13623046875
 20
-25.2470703125
 11
-220.27490234375
 21
-25.2470703125
 72
     1
 10
-220.27490234375
 20
-25.2470703125
 11
-220.27490234375
 21
-30.5185546875
 72
     1
 10
-220.27490234375
 20
-30.5185546875
 11
-221.18701171875
 21
-30.5185546875
 72
     1
 10
-221.18701171875
 20
-30.5185546875
 11
-236.09130859375
 21
-22.2060546875
 72
     1
 10
-236.09130859375
 20
-22.2060546875
 11
-235.88818359375
 21
14.6982421875
 72
     1
 10
-235.88818359375
 20
14.6982421875
 11
-138.05029296875
 21
14.59765625
 72
     1
 10
-138.05029296875
 20
14.59765625
 11
-137.44287109375
 21
17.841796875
 72
     1
 10
-137.44287109375
 20
17.841796875
 11
-235.78759765625
 21
18.0439453125
 97
        0
 75
     0
 76
     1
 98
        0
  0
POLYLINE
  5
52
330
1F
100
AcDbEntity
  8
STANDARDEBENE
 62
     7
100
AcDb2dPolyline
 66
     1
 10
0.0
 20
0.0
 30
0.0
  0
VERTEX
  5
53
330
52
100
AcDbEntity
  8
STANDARDEBENE
 62
     7
100
AcDbVertex
100
AcDb2dVertex
 10
-122.48583984375
 20
44.6025390625
 30
0.0
  0
VERTEX
  5
54
330
52
100
AcDbEntity
  8
STANDARDEBENE
 62
     7
100
AcDbVertex
100
AcDb2dVertex
 10
-123.90478515625
 20
44.6025390625
 30
0.0
  0
SEQEND
  5
55
330
52
100
AcDbEntity
  8
STANDARDEBENE
  0
POLYLINE
  5
56
330
1F
100
AcDbEntity
  8
STANDARDEBENE
 62
     7
100
AcDb2dPolyline
 66
     1
 10
0.0
 20
0.0
 30
0.0
  0
VERTEX
  5
57
330
56
100
AcDbEntity
  8
STANDARDEBENE
 62
     7
100
AcDbVertex
100
AcDb2dVertex
 10
-126.73779296875
 20
44.6025390625
 30
0.0
  0
VERTEX
  5
58
330
56
100
AcDbEntity
  8
STANDARDEBENE
 62
     7
100
AcDbVertex
100
AcDb2dVertex
 10
-129.57275390625
 20
44.6025390625
 30
0.0
  0
SEQEND
  5
59
330
56
100
AcDbEntity
  8
STANDARDEBENE
  0
POLYLINE
  5
5A
330
1F
100
AcDbEntity
  8
STANDARDEBENE
 62
     7
100
AcDb2dPolyline
 66
     1
 10
0.0
 20
0.0
 30
0.0
  0
VERTEX
  5
5B
330
5A
100
AcDbEntity
  8
STANDARDEBENE
 62
     7
100
AcDbVertex
100
AcDb2dVertex
 10
-132.40771484375
 20
44.6025390625
 30
0.0
  0
VERTEX
  5
5C
330
5A
100
AcDbEntity
  8
STANDARDEBENE
 62
     7
100
AcDbVertex
100
AcDb2dVertex
 10
-135.24267578125
 20
44.6025390625
 30
0.0
  0
SEQEND
  5
5D
330
5A
100
AcDbEntity
  8
STANDARDEBENE
  0
POLYLINE
  5
5E
330
1F
100
AcDbEntity
  8
STANDARDEBENE
 62
     7
100
AcDb2dPolyline
 66
     1
 10
0.0
 20
0.0
 30
0.0
  0
VERTEX
  5
5F
330
5E
100
AcDbEntity
  8
STANDARDEBENE
 62
     7
100
AcDbVertex
100
AcDb2dVertex
 10
-138.07666015625
 20
44.6025390625
 30
0.0
  0
VERTEX
  5
60
330
5E
100
AcDbEntity
  8
STANDARDEBENE
 62
     7
100
AcDbVertex
100
AcDb2dVertex
 10
-140.91259765625
 20
44.6025390625
 30
0.0
  0
SEQEND
  5
61
330
5E
100
AcDbEntity
  8
STANDARDEBENE
  0
POLYLINE
  5
62
330
1F
100
AcDbEntity
  8
STANDARDEBENE
 62
     7
100
AcDb2dPolyline
 66
     1
 10
0.0
 20
0.0
 30
0.0
  0
VERTEX
  5
63
330
62
100
AcDbEntity
  8
STANDARDEBENE
 62
     7
100
AcDbVertex
100
AcDb2dVertex
 10
-143.74658203125
 20
44.6025390625
 30
0.0
  0
VERTEX
  5
64
330
62
100
AcDbEntity
  8
STANDARDEBENE
 62
     7
100
AcDbVertex
100
AcDb2dVertex
 10
-146.57958984375
 20
44.6025390625
 30
0.0
  0
SEQEND
  5
65
330
62
100
AcDbEntity
  8
STANDARDEBENE
  0
POLYLINE
  5
66
330
1F
100
AcDbEntity
  8
STANDARDEBENE
 62
     7
100
AcDb2dPolyline
 66
     1
 10
0.0
 20
0.0
 30
0.0
  0
VERTEX
  5
67
330
66
100
AcDbEntity
  8
STANDARDEBENE
 62
     7
100
AcDbVertex
100
AcDb2dVertex
 10
-149.41552734375
 20
44.6025390625
 30
0.0
  0
VERTEX
  5
68
330
66
100
AcDbEntity
  8
STANDARDEBENE
 62
     7
100
AcDbVertex
100
AcDb2dVertex
 10
-152.25146484375
 20
44.6025390625
 30
0.0
  0
SEQEND
  5
69
330
66
100
AcDbEntity
  8
STANDARDEBENE
  0
POLYLINE
  5
6A
330
1F
100
AcDbEntity
  8
STANDARDEBENE
 62
     7
100
AcDb2dPolyline
 66
     1
 10
0.0
 20
0.0
 30
0.0
  0
VERTEX
  5
6B
330
6A
100
AcDbEntity
  8
STANDARDEBENE
 62
     7
100
AcDbVertex
100
AcDb2dVertex
 10
-155.08544921875
 20
44.6025390625
 30
0.0
  0
VERTEX
  5
6C
330
6A
100
AcDbEntity
  8
STANDARDEBENE
 62
     7
100
AcDbVertex
100
AcDb2dVertex
 10
-157.91943359375
 20
44.6025390625
 30
0.0
  0
SEQEND
  5
6D
330
6A
100
AcDbEntity
  8
STANDARDEBENE
  0
POLYLINE
  5
6E
330
1F
100
AcDbEntity
  8
STANDARDEBENE
 62
     7
100
AcDb2dPolyline
 66
     1
 10
0.0
 20
0.0
 30
0.0
  0
VERTEX
  5
6F
330
6E
100
AcDbEntity
  8
STANDARDEBENE
 62
     7
100
AcDbVertex
100
AcDb2dVertex
 10
-160.75341796875
 20
44.6025390625
 30
0.0
  0
VERTEX
  5
70
330
6E
100
AcDbEntity
  8
STANDARDEBENE
 62
     7
100
AcDbVertex
100
AcDb2dVertex
 10
-163.58935546875
 20
44.6025390625
 30
0.0
  0
SEQEND
  5
71
330
6E
100
AcDbEntity
  8
STANDARDEBENE
  0
POLYLINE
  5
72
330
1F
100
AcDbEntity
  8
STANDARDEBENE
 62
     7
100
AcDb2dPolyline
 66
     1
 10
0.0
 20
0.0
 30
0.0
  0
VERTEX
  5
73
330
72
100
AcDbEntity
  8
STANDARDEBENE
 62
     7
100
AcDbVertex
100
AcDb2dVertex
 10
-166.42431640625
 20
44.6025390625
 30
0.0
  0
VERTEX
  5
74
330
72
100
AcDbEntity
  8
STANDARDEBENE
 62
     7
100
AcDbVertex
100
AcDb2dVertex
 10
-169.25830078125
 20
44.6025390625
 30
0.0
  0
SEQEND
  5
75
330
72
100
AcDbEntity
  8
STANDARDEBENE
  0
POLYLINE
  5
76
330
1F
100
AcDbEntity
  8
STANDARDEBENE
 62
     7
100
AcDb2dPolyline
 66
     1
 10
0.0
 20
0.0
 30
0.0
  0
VERTEX
  5
77
330
76
100
AcDbEntity
  8
STANDARDEBENE
 62
     7
100
AcDbVertex
100
AcDb2dVertex
 10
-172.09228515625
 20
44.6025390625
 30
0.0
  0
VERTEX
  5
78
330
76
100
AcDbEntity
  8
STANDARDEBENE
 62
     7
100
AcDbVertex
100
AcDb2dVertex
 10
-174.92822265625
 20
44.6025390625
 30
0.0
  0
SEQEND
  5
79
330
76
100
AcDbEntity
  8
STANDARDEBENE
  0
POLYLINE
  5
7A
330
1F
100
AcDbEntity
  8
STANDARDEBENE
 62
     7
100
AcDb2dPolyline
 66
     1
 10
0.0
 20
0.0
 30
0.0
  0
VERTEX
  5
7B
330
7A
100
AcDbEntity
  8
STANDARDEBENE
 62
     7
100
AcDbVertex
100
AcDb2dVertex
 10
-177.76220703125
 20
44.6025390625
 30
0.0
  0
VERTEX
  5
7C
330
7A
100
AcDbEntity
  8
STANDARDEBENE
 62
     7
100
AcDbVertex
100
AcDb2dVertex
 10
-180.59716796875
 20
44.6025390625
 30
0.0
  0
SEQEND
  5
7D
330
7A
100
AcDbEntity
  8
STANDARDEBENE
  0
POLYLINE
  5
7E
330
1F
100
AcDbEntity
  8
STANDARDEBENE
 62
     7
100
AcDb2dPolyline
 66
     1
 10
0.0
 20
0.0
 30
0.0
  0
VERTEX
  5
7F
330
7E
100
AcDbEntity
  8
STANDARDEBENE
 62
     7
100
AcDbVertex
100
AcDb2dVertex
 10
-183.43115234375
 20
44.6025390625
 30
0.0
  0
VERTEX
  5
80
330
7E
100
AcDbEntity
  8
STANDARDEBENE
 62
     7
100
AcDbVertex
100
AcDb2dVertex
 10
-186.26513671875
 20
44.6025390625
 30
0.0
  0
SEQEND
  5
81
330
7E
100
AcDbEntity
  8
STANDARDEBENE
  0
POLYLINE
  5
82
330
1F
100
AcDbEntity
  8
STANDARDEBENE
 62
     7
100
AcDb2dPolyline
 66
     1
 10
0.0
 20
0.0
 30
0.0
  0
VERTEX
  5
83
330
82
100
AcDbEntity
  8
STANDARDEBENE
 62
     7
100
AcDbVertex
100
AcDb2dVertex
 10
-189.10107421875
 20
44.6025390625
 30
0.0
  0
VERTEX
  5
84
330
82
100
AcDbEntity
  8
STANDARDEBENE
 62
     7
100
AcDbVertex
100
AcDb2dVertex
 10
-191.93603515625
 20
44.6025390625
 30
0.0
  0
SEQEND
  5
85
330
82
100
AcDbEntity
  8
STANDARDEBENE
  0
POLYLINE
  5
86
330
1F
100
AcDbEntity
  8
STANDARDEBENE
 62
     7
100
AcDb2dPolyline
 66
     1
 10
0.0
 20
0.0
 30
0.0
  0
VERTEX
  5
87
330
86
100
AcDbEntity
  8
STANDARDEBENE
 62
     7
100
AcDbVertex
100
AcDb2dVertex
 10
-194.77099609375
 20
44.6025390625
 30
0.0
  0
VERTEX
  5
88
330
86
100
AcDbEntity
  8
STANDARDEBENE
 62
     7
100
AcDbVertex
100
AcDb2dVertex
 10
-197.60498046875
 20
44.6025390625
 30
0.0
  0
SEQEND
  5
89
330
86
100
AcDbEntity
  8
STANDARDEBENE
  0
POLYLINE
  5
8A
330
1F
100
AcDbEntity
  8
STANDARDEBENE
 62
     7
100
AcDb2dPolyline
 66
     1
 10
0.0
 20
0.0
 30
0.0
  0
VERTEX
  5
8B
330
8A
100
AcDbEntity
  8
STANDARDEBENE
 62
     7
100
AcDbVertex
100
AcDb2dVertex
 10
-200.43896484375
 20
44.6025390625
 30
0.0
  0
VERTEX
  5
8C
330
8A
100
AcDbEntity
  8
STANDARDEBENE
 62
     7
100
AcDbVertex
100
AcDb2dVertex
 10
-203.27294921875
 20
44.6025390625
 30
0.0
  0
SEQEND
  5
8D
330
8A
100
AcDbEntity
  8
STANDARDEBENE
  0
POLYLINE
  5
8E
330
1F
100
AcDbEntity
  8
STANDARDEBENE
 62
     7
100
AcDb2dPolyline
 66
     1
 10
0.0
 20
0.0
 30
0.0
  0
VERTEX
  5
8F
330
8E
100
AcDbEntity
  8
STANDARDEBENE
 62
     7
100
AcDbVertex
100
AcDb2dVertex
 10
-206.10888671875
 20
44.6025390625
 30
0.0
  0
VERTEX
  5
90
330
8E
100
AcDbEntity
  8
STANDARDEBENE
 62
     7
100
AcDbVertex
100
AcDb2dVertex
 10
-208.94287109375
 20
44.6025390625
 30
0.0
  0
SEQEND
  5
91
330
8E
100
AcDbEntity
  8
STANDARDEBENE
  0
POLYLINE
  5
92
330
1F
100
AcDbEntity
  8
STANDARDEBENE
 62
     7
100
AcDb2dPolyline
 66
     1
 10
0.0
 20
0.0
 30
0.0
  0
VERTEX
  5
93
330
92
100
AcDbEntity
  8
STANDARDEBENE
 62
     7
100
AcDbVertex
100
AcDb2dVertex
 10
-211.77685546875
 20
44.6025390625
 30
0.0
  0
VERTEX
  5
94
330
92
100
AcDbEntity
  8
STANDARDEBENE
 62
     7
100
AcDbVertex
100
AcDb2dVertex
 10
-214.61279296875
 20
44.6025390625
 30
0.0
  0
SEQEND
  5
95
330
92
100
AcDbEntity
  8
STANDARDEBENE
  0
POLYLINE
  5
96
330
1F
100
AcDbEntity
  8
STANDARDEBENE
 62
     7
100
AcDb2dPolyline
 66
     1
 10
0.0
 20
0.0
 30
0.0
  0
VERTEX
  5
97
330
96
100
AcDbEntity
  8
STANDARDEBENE
 62
     7
100
AcDbVertex
100
AcDb2dVertex
 10
-217.44677734375
 20
44.6025390625
 30
0.0
  0
VERTEX
  5
98
330
96
100
AcDbEntity
  8
STANDARDEBENE
 62
     7
100
AcDbVertex
100
AcDb2dVertex
 10
-220.28271484375
 20
44.6025390625
 30
0.0
  0
SEQEND
  5
99
330
96
100
AcDbEntity
  8
STANDARDEBENE
  0
POLYLINE
  5
9A
330
1F
100
AcDbEntity
  8
STANDARDEBENE
 62
     7
100
AcDb2dPolyline
 66
     1
 10
0.0
 20
0.0
 30
0.0
  0
VERTEX
  5
9B
330
9A
100
AcDbEntity
  8
STANDARDEBENE
 62
     7
100
AcDbVertex
100
AcDb2dVertex
 10
-223.11669921875
 20
44.6025390625
 30
0.0
  0
VERTEX
  5
9C
330
9A
100
AcDbEntity
  8
STANDARDEBENE
 62
     7
100
AcDbVertex
100
AcDb2dVertex
 10
-225.95068359375
 20
44.6025390625
 30
0.0
  0
SEQEND
  5
9D
330
9A
100
AcDbEntity
  8
STANDARDEBENE
  0
POLYLINE
  5
9E
330
1F
100
AcDbEntity
  8
STANDARDEBENE
 62
     7
100
AcDb2dPolyline
 66
     1
 10
0.0
 20
0.0
 30
0.0
  0
VERTEX
  5
9F
330
9E
100
AcDbEntity
  8
STANDARDEBENE
 62
     7
100
AcDbVertex
100
AcDb2dVertex
 10
-228.78466796875
 20
44.6025390625
 30
0.0
  0
VERTEX
  5
A0
330
9E
100
AcDbEntity
  8
STANDARDEBENE
 62
     7
100
AcDbVertex
100
AcDb2dVertex
 10
-231.62060546875
 20
44.6025390625
 30
0.0
  0
SEQEND
  5
A1
330
9E
100
AcDbEntity
  8
STANDARDEBENE
  0
POLYLINE
  5
A2
330
1F
100
AcDbEntity
  8
STANDARDEBENE
 62
     7
100
AcDb2dPolyline
 66
     1
 10
0.0
 20
0.0
 30
0.0
  0
VERTEX
  5
A3
330
A2
100
AcDbEntity
  8
STANDARDEBENE
 62
     7
100
AcDbVertex
100
AcDb2dVertex
 10
-234.45458984375
 20
44.6025390625
 30
0.0
  0
VERTEX
  5
A4
330
A2
100
AcDbEntity
  8
STANDARDEBENE
 62
     7
100
AcDbVertex
100
AcDb2dVertex
 10
-235.87255859375
 20
44.6025390625
 30
0.0
  0
SEQEND
  5
A5
330
A2
100
AcDbEntity
  8
STANDARDEBENE
  0
POLYLINE
  5
A6
330
1F
100
AcDbEntity
  8
STANDARDEBENE
 62
     7
100
AcDb2dPolyline
 66
     1
 10
0.0
 20
0.0
 30
0.0
  0
VERTEX
  5
A7
330
A6
100
AcDbEntity
  8
STANDARDEBENE
 62
     7
100
AcDbVertex
100
AcDb2dVertex
 10
-122.48583984375
 20
-12.0908203125
 30
0.0
  0
VERTEX
  5
A8
330
A6
100
AcDbEntity
  8
STANDARDEBENE
 62
     7
100
AcDbVertex
100
AcDb2dVertex
 10
-123.90478515625
 20
-12.0908203125
 30
0.0
  0
SEQEND
  5
A9
330
A6
100
AcDbEntity
  8
STANDARDEBENE
  0
POLYLINE
  5
AA
330
1F
100
AcDbEntity
  8
STANDARDEBENE
 62
     7
100
AcDb2dPolyline
 66
     1
 10
0.0
 20
0.0
 30
0.0
  0
VERTEX
  5
AB
330
AA
100
AcDbEntity
  8
STANDARDEBENE
 62
     7
100
AcDbVertex
100
AcDb2dVertex
 10
-126.73779296875
 20
-12.0908203125
 30
0.0
  0
VERTEX
  5
AC
330
AA
100
AcDbEntity
  8
STANDARDEBENE
 62
     7
100
AcDbVertex
100
AcDb2dVertex
 10
-129.57275390625
 20
-12.0908203125
 30
0.0
  0
SEQEND
  5
AD
330
AA
100
AcDbEntity
  8
STANDARDEBENE
  0
POLYLINE
  5
AE
330
1F
100
AcDbEntity
  8
STANDARDEBENE
 62
     7
100
AcDb2dPolyline
 66
     1
 10
0.0
 20
0.0
 30
0.0
  0
VERTEX
  5
AF
330
AE
100
AcDbEntity
  8
STANDARDEBENE
 62
     7
100
AcDbVertex
100
AcDb2dVertex
 10
-132.40771484375
 20
-12.0908203125
 30
0.0
  0
VERTEX
  5
B0
330
AE
100
AcDbEntity
  8
STANDARDEBENE
 62
     7
100
AcDbVertex
100
AcDb2dVertex
 10
-135.24267578125
 20
-12.0908203125
 30
0.0
  0
SEQEND
  5
B1
330
AE
100
AcDbEntity
  8
STANDARDEBENE
  0
POLYLINE
  5
B2
330
1F
100
AcDbEntity
  8
STANDARDEBENE
 62
     7
100
AcDb2dPolyline
 66
     1
 10
0.0
 20
0.0
 30
0.0
  0
VERTEX
  5
B3
330
B2
100
AcDbEntity
  8
STANDARDEBENE
 62
     7
100
AcDbVertex
100
AcDb2dVertex
 10
-138.07666015625
 20
-12.0908203125
 30
0.0
  0
VERTEX
  5
B4
330
B2
100
AcDbEntity
  8
STANDARDEBENE
 62
     7
100
AcDbVertex
100
AcDb2dVertex
 10
-140.91259765625
 20
-12.0908203125
 30
0.0
  0
SEQEND
  5
B5
330
B2
100
AcDbEntity
  8
STANDARDEBENE
  0
POLYLINE
  5
B6
330
1F
100
AcDbEntity
  8
STANDARDEBENE
 62
     7
100
AcDb2dPolyline
 66
     1
 10
0.0
 20
0.0
 30
0.0
  0
VERTEX
  5
B7
330
B6
100
AcDbEntity
  8
STANDARDEBENE
 62
     7
100
AcDbVertex
100
AcDb2dVertex
 10
-143.74658203125
 20
-12.0908203125
 30
0.0
  0
VERTEX
  5
B8
330
B6
100
AcDbEntity
  8
STANDARDEBENE
 62
     7
100
AcDbVertex
100
AcDb2dVertex
 10
-146.57958984375
 20
-12.0908203125
 30
0.0
  0
SEQEND
  5
B9
330
B6
100
AcDbEntity
  8
STANDARDEBENE
  0
POLYLINE
  5
BA
330
1F
100
AcDbEntity
  8
STANDARDEBENE
 62
     7
100
AcDb2dPolyline
 66
     1
 10
0.0
 20
0.0
 30
0.0
  0
VERTEX
  5
BB
330
BA
100
AcDbEntity
  8
STANDARDEBENE
 62
     7
100
AcDbVertex
100
AcDb2dVertex
 10
-149.41552734375
 20
-12.0908203125
 30
0.0
  0
VERTEX
  5
BC
330
BA
100
AcDbEntity
  8
STANDARDEBENE
 62
     7
100
AcDbVertex
100
AcDb2dVertex
 10
-152.25146484375
 20
-12.0908203125
 30
0.0
  0
SEQEND
  5
BD
330
BA
100
AcDbEntity
  8
STANDARDEBENE
  0
POLYLINE
  5
BE
330
1F
100
AcDbEntity
  8
STANDARDEBENE
 62
     7
100
AcDb2dPolyline
 66
     1
 10
0.0
 20
0.0
 30
0.0
  0
VERTEX
  5
BF
330
BE
100
AcDbEntity
  8
STANDARDEBENE
 62
     7
100
AcDbVertex
100
AcDb2dVertex
 10
-155.08544921875
 20
-12.0908203125
 30
0.0
  0
VERTEX
  5
C0
330
BE
100
AcDbEntity
  8
STANDARDEBENE
 62
     7
100
AcDbVertex
100
AcDb2dVertex
 10
-157.91943359375
 20
-12.0908203125
 30
0.0
  0
SEQEND
  5
C1
330
BE
100
AcDbEntity
  8
STANDARDEBENE
  0
POLYLINE
  5
C2
330
1F
100
AcDbEntity
  8
STANDARDEBENE
 62
     7
100
AcDb2dPolyline
 66
     1
 10
0.0
 20
0.0
 30
0.0
  0
VERTEX
  5
C3
330
C2
100
AcDbEntity
  8
STANDARDEBENE
 62
     7
100
AcDbVertex
100
AcDb2dVertex
 10
-160.75341796875
 20
-12.0908203125
 30
0.0
  0
VERTEX
  5
C4
330
C2
100
AcDbEntity
  8
STANDARDEBENE
 62
     7
100
AcDbVertex
100
AcDb2dVertex
 10
-163.58935546875
 20
-12.0908203125
 30
0.0
  0
SEQEND
  5
C5
330
C2
100
AcDbEntity
  8
STANDARDEBENE
  0
POLYLINE
  5
C6
330
1F
100
AcDbEntity
  8
STANDARDEBENE
 62
     7
100
AcDb2dPolyline
 66
     1
 10
0.0
 20
0.0
 30
0.0
  0
VERTEX
  5
C7
330
C6
100
AcDbEntity
  8
STANDARDEBENE
 62
     7
100
AcDbVertex
100
AcDb2dVertex
 10
-166.42431640625
 20
-12.0908203125
 30
0.0
  0
VERTEX
  5
C8
330
C6
100
AcDbEntity
  8
STANDARDEBENE
 62
     7
100
AcDbVertex
100
AcDb2dVertex
 10
-169.25830078125
 20
-12.0908203125
 30
0.0
  0
SEQEND
  5
C9
330
C6
100
AcDbEntity
  8
STANDARDEBENE
  0
POLYLINE
  5
CA
330
1F
100
AcDbEntity
  8
STANDARDEBENE
 62
     7
100
AcDb2dPolyline
 66
     1
 10
0.0
 20
0.0
 30
0.0
  0
VERTEX
  5
CB
330
CA
100
AcDbEntity
  8
STANDARDEBENE
 62
     7
100
AcDbVertex
100
AcDb2dVertex
 10
-172.09228515625
 20
-12.0908203125
 30
0.0
  0
VERTEX
  5
CC
330
CA
100
AcDbEntity
  8
STANDARDEBENE
 62
     7
100
AcDbVertex
100
AcDb2dVertex
 10
-174.92822265625
 20
-12.0908203125
 30
0.0
  0
SEQEND
  5
CD
330
CA
100
AcDbEntity
  8
STANDARDEBENE
  0
POLYLINE
  5
CE
330
1F
100
AcDbEntity
  8
STANDARDEBENE
 62
     7
100
AcDb2dPolyline
 66
     1
 10
0.0
 20
0.0
 30
0.0
  0
VERTEX
  5
CF
330
CE
100
AcDbEntity
  8
STANDARDEBENE
 62
     7
100
AcDbVertex
100
AcDb2dVertex
 10
-177.76220703125
 20
-12.0908203125
 30
0.0
  0
VERTEX
  5
D0
330
CE
100
AcDbEntity
  8
STANDARDEBENE
 62
     7
100
AcDbVertex
100
AcDb2dVertex
 10
-180.59716796875
 20
-12.0908203125
 30
0.0
  0
SEQEND
  5
D1
330
CE
100
AcDbEntity
  8
STANDARDEBENE
  0
POLYLINE
  5
D2
330
1F
100
AcDbEntity
  8
STANDARDEBENE
 62
     7
100
AcDb2dPolyline
 66
     1
 10
0.0
 20
0.0
 30
0.0
  0
VERTEX
  5
D3
330
D2
100
AcDbEntity
  8
STANDARDEBENE
 62
     7
100
AcDbVertex
100
AcDb2dVertex
 10
-183.43115234375
 20
-12.0908203125
 30
0.0
  0
VERTEX
  5
D4
330
D2
100
AcDbEntity
  8
STANDARDEBENE
 62
     7
100
AcDbVertex
100
AcDb2dVertex
 10
-186.26513671875
 20
-12.0908203125
 30
0.0
  0
SEQEND
  5
D5
330
D2
100
AcDbEntity
  8
STANDARDEBENE
  0
POLYLINE
  5
D6
330
1F
100
AcDbEntity
  8
STANDARDEBENE
 62
     7
100
AcDb2dPolyline
 66
     1
 10
0.0
 20
0.0
 30
0.0
  0
VERTEX
  5
D7
330
D6
100
AcDbEntity
  8
STANDARDEBENE
 62
     7
100
AcDbVertex
100
AcDb2dVertex
 10
-189.10107421875
 20
-12.0908203125
 30
0.0
  0
VERTEX
  5
D8
330
D6
100
AcDbEntity
  8
STANDARDEBENE
 62
     7
100
AcDbVertex
100
AcDb2dVertex
 10
-191.93603515625
 20
-12.0908203125
 30
0.0
  0
SEQEND
  5
D9
330
D6
100
AcDbEntity
  8
STANDARDEBENE
  0
POLYLINE
  5
DA
330
1F
100
AcDbEntity
  8
STANDARDEBENE
 62
     7
100
AcDb2dPolyline
 66
     1
 10
0.0
 20
0.0
 30
0.0
  0
VERTEX
  5
DB
330
DA
100
AcDbEntity
  8
STANDARDEBENE
 62
     7
100
AcDbVertex
100
AcDb2dVertex
 10
-194.77099609375
 20
-12.0908203125
 30
0.0
  0
VERTEX
  5
DC
330
DA
100
AcDbEntity
  8
STANDARDEBENE
 62
     7
100
AcDbVertex
100
AcDb2dVertex
 10
-197.60498046875
 20
-12.0908203125
 30
0.0
  0
SEQEND
  5
DD
330
DA
100
AcDbEntity
  8
STANDARDEBENE
  0
POLYLINE
  5
DE
330
1F
100
AcDbEntity
  8
STANDARDEBENE
 62
     7
100
AcDb2dPolyline
 66
     1
 10
0.0
 20
0.0
 30
0.0
  0
VERTEX
  5
DF
330
DE
100
AcDbEntity
  8
STANDARDEBENE
 62
     7
100
AcDbVertex
100
AcDb2dVertex
 10
-200.43896484375
 20
-12.0908203125
 30
0.0
  0
VERTEX
  5
E0
330
DE
100
AcDbEntity
  8
STANDARDEBENE
 62
     7
100
AcDbVertex
100
AcDb2dVertex
 10
-203.27294921875
 20
-12.0908203125
 30
0.0
  0
SEQEND
  5
E1
330
DE
100
AcDbEntity
  8
STANDARDEBENE
  0
POLYLINE
  5
E2
330
1F
100
AcDbEntity
  8
STANDARDEBENE
 62
     7
100
AcDb2dPolyline
 66
     1
 10
0.0
 20
0.0
 30
0.0
  0
VERTEX
  5
E3
330
E2
100
AcDbEntity
  8
STANDARDEBENE
 62
     7
100
AcDbVertex
100
AcDb2dVertex
 10
-206.10888671875
 20
-12.0908203125
 30
0.0
  0
VERTEX
  5
E4
330
E2
100
AcDbEntity
  8
STANDARDEBENE
 62
     7
100
AcDbVertex
100
AcDb2dVertex
 10
-208.94287109375
 20
-12.0908203125
 30
0.0
  0
SEQEND
  5
E5
330
E2
100
AcDbEntity
  8
STANDARDEBENE
  0
POLYLINE
  5
E6
330
1F
100
AcDbEntity
  8
STANDARDEBENE
 62
     7
100
AcDb2dPolyline
 66
     1
 10
0.0
 20
0.0
 30
0.0
  0
VERTEX
  5
E7
330
E6
100
AcDbEntity
  8
STANDARDEBENE
 62
     7
100
AcDbVertex
100
AcDb2dVertex
 10
-211.77685546875
 20
-12.0908203125
 30
0.0
  0
VERTEX
  5
E8
330
E6
100
AcDbEntity
  8
STANDARDEBENE
 62
     7
100
AcDbVertex
100
AcDb2dVertex
 10
-214.61279296875
 20
-12.0908203125
 30
0.0
  0
SEQEND
  5
E9
330
E6
100
AcDbEntity
  8
STANDARDEBENE
  0
POLYLINE
  5
EA
330
1F
100
AcDbEntity
  8
STANDARDEBENE
 62
     7
100
AcDb2dPolyline
 66
     1
 10
0.0
 20
0.0
 30
0.0
  0
VERTEX
  5
EB
330
EA
100
AcDbEntity
  8
STANDARDEBENE
 62
     7
100
AcDbVertex
100
AcDb2dVertex
 10
-217.44677734375
 20
-12.0908203125
 30
0.0
  0
VERTEX
  5
EC
330
EA
100
AcDbEntity
  8
STANDARDEBENE
 62
     7
100
AcDbVertex
100
AcDb2dVertex
 10
-220.28271484375
 20
-12.0908203125
 30
0.0
  0
SEQEND
  5
ED
330
EA
100
AcDbEntity
  8
STANDARDEBENE
  0
POLYLINE
  5
EE
330
1F
100
AcDbEntity
  8
STANDARDEBENE
 62
     7
100
AcDb2dPolyline
 66
     1
 10
0.0
 20
0.0
 30
0.0
  0
VERTEX
  5
EF
330
EE
100
AcDbEntity
  8
STANDARDEBENE
 62
     7
100
AcDbVertex
100
AcDb2dVertex
 10
-223.11669921875
 20
-12.0908203125
 30
0.0
  0
VERTEX
  5
F0
330
EE
100
AcDbEntity
  8
STANDARDEBENE
 62
     7
100
AcDbVertex
100
AcDb2dVertex
 10
-225.95068359375
 20
-12.0908203125
 30
0.0
  0
SEQEND
  5
F1
330
EE
100
AcDbEntity
  8
STANDARDEBENE
  0
POLYLINE
  5
F2
330
1F
100
AcDbEntity
  8
STANDARDEBENE
 62
     7
100
AcDb2dPolyline
 66
     1
 10
0.0
 20
0.0
 30
0.0
  0
VERTEX
  5
F3
330
F2
100
AcDbEntity
  8
STANDARDEBENE
 62
     7
100
AcDbVertex
100
AcDb2dVertex
 10
-228.78466796875
 20
-12.0908203125
 30
0.0
  0
VERTEX
  5
F4
330
F2
100
AcDbEntity
  8
STANDARDEBENE
 62
     7
100
AcDbVertex
100
AcDb2dVertex
 10
-231.62060546875
 20
-12.0908203125
 30
0.0
  0
SEQEND
  5
F5
330
F2
100
AcDbEntity
  8
STANDARDEBENE
  0
POLYLINE
  5
F6
330
1F
100
AcDbEntity
  8
STANDARDEBENE
 62
     7
100
AcDb2dPolyline
 66
     1
 10
0.0
 20
0.0
 30
0.0
  0
VERTEX
  5
F7
330
F6
100
AcDbEntity
  8
STANDARDEBENE
 62
     7
100
AcDbVertex
100
AcDb2dVertex
 10
-234.45458984375
 20
-12.0908203125
 30
0.0
  0
VERTEX
  5
F8
330
F6
100
AcDbEntity
  8
STANDARDEBENE
 62
     7
100
AcDbVertex
100
AcDb2dVertex
 10
-235.87255859375
 20
-12.0908203125
 30
0.0
  0
SEQEND
  5
F9
330
F6
100
AcDbEntity
  8
STANDARDEBENE
  0
POLYLINE
  5
FA
330
1F
100
AcDbEntity
  8
STANDARDEBENE
 62
     7
100
AcDb2dPolyline
 66
     1
 10
0.0
 20
0.0
 30
0.0
  0
VERTEX
  5
FB
330
FA
100
AcDbEntity
  8
STANDARDEBENE
 62
     7
100
AcDbVertex
100
AcDb2dVertex
 10
-122.48583984375
 20
50.6748046875
 30
0.0
  0
VERTEX
  5
FC
330
FA
100
AcDbEntity
  8
STANDARDEBENE
 62
     7
100
AcDbVertex
100
AcDb2dVertex
 10
-210.07568359375
 20
62.9970703125
 30
0.0
  0
SEQEND
  5
FD
330
FA
100
AcDbEntity
  8
STANDARDEBENE
  0
POLYLINE
  5
FE
330
1F
100
AcDbEntity
  8
STANDARDEBENE
 62
     7
100
AcDb2dPolyline
 66
     1
 10
0.0
 20
0.0
 30
0.0
  0
VERTEX
  5
FF
330
FE
100
AcDbEntity
  8
STANDARDEBENE
 62
     7
100
AcDbVertex
100
AcDb2dVertex
 10
-122.48583984375
 20
-18.1630859375
 30
0.0
  0
VERTEX
  5
100
330
FE
100
AcDbEntity
  8
STANDARDEBENE
 62
     7
100
AcDbVertex
100
AcDb2dVertex
 10
-210.07568359375
 20
-30.484375
 30
0.0
  0
SEQEND
  5
101
330
FE
100
AcDbEntity
  8
STANDARDEBENE
  0
POLYLINE
  5
102
330
1F
100
AcDbEntity
  8
STANDARDEBENE
  6
AI-LINETYPE-1
 62
     7
100
AcDb2dPolyline
 66
     1
 10
0.0
 20
0.0
 30
0.0
  0
VERTEX
  5
103
330
102
100
AcDbEntity
  8
STANDARDEBENE
  6
AI-LINETYPE-1
 62
     7
100
AcDbVertex
100
AcDb2dVertex
 10
-117.36474609375
 20
16.255859375
 30
0.0
  0
VERTEX
  5
104
330
102
100
AcDbEntity
  8
STANDARDEBENE
  6
AI-LINETYPE-1
 62
     7
100
AcDbVertex
100
AcDb2dVertex
 10
-241.27490234375
 20
16.255859375
 30
0.0
  0
SEQEND
  5
105
330
102
100
AcDbEntity
  8
STANDARDEBENE
  6
AI-LINETYPE-1
  0
POLYLINE
  5
107
330
1F
100
AcDbEntity
  8
STANDARDEBENE
 62
     7
100
AcDb2dPolyline
 66
     1
 10
0.0
 20
0.0
 30
0.0
  0
VERTEX
  5
108
330
107
100
AcDbEntity
  8
STANDARDEBENE
 62
     7
100
AcDbVertex
100
AcDb2dVertex
 10
-210.07568359375
 20
62.9970703125
 30
0.0
  0
VERTEX
  5
109
330
107
100
AcDbEntity
  8
STANDARDEBENE
 62
     7
100
AcDbVertex
100
AcDb2dVertex
 10
-196.56982421875
 20
61.09765625
 30
0.0
  0
VERTEX
  5
10A
330
107
100
AcDbEntity
  8
STANDARDEBENE
 62
     7
100
AcDbVertex
100
AcDb2dVertex
 10
-133.87255859375
 20
52.2763671875
 30
0.0
  0
VERTEX
  5
10B
330
107
100
AcDbEntity
  8
STANDARDEBENE
 62
     7
100
AcDbVertex
100
AcDb2dVertex
 10
-122.48583984375
 20
50.6748046875
 30
0.0
  0
SEQEND
  5
10C
330
107
100
AcDbEntity
  8
STANDARDEBENE
  0
POLYLINE
  5
10D
330
1F
100
AcDbEntity
  8
STANDARDEBENE
 62
     7
100
AcDb2dPolyline
 66
     1
 10
0.0
 20
0.0
 30
0.0
  0
VERTEX
  5
10E
330
10D
100
AcDbEntity
  8
STANDARDEBENE
 62
     7
100
AcDbVertex
100
AcDb2dVertex
 10
-210.07568359375
 20
62.9970703125
 30
0.0
  0
VERTEX
  5
10F
330
10D
100
AcDbEntity
  8
STANDARDEBENE
 62
     7
100
AcDbVertex
100
AcDb2dVertex
 10
-210.07568359375
 20
62.5078125
 30
0.0
  0
VERTEX
  5
110
330
10D
100
AcDbEntity
  8
STANDARDEBENE
 62
     7
100
AcDbVertex
100
AcDb2dVertex
 10
-210.07568359375
 20
61.43359375
 30
0.0
  0
VERTEX
  5
111
330
10D
100
AcDbEntity
  8
STANDARDEBENE
 62
     7
100
AcDbVertex
100
AcDb2dVertex
 10
-210.07568359375
 20
59.7861328125
 30
0.0
  0
VERTEX
  5
112
330
10D
100
AcDbEntity
  8
STANDARDEBENE
 62
     7
100
AcDbVertex
100
AcDb2dVertex
 10
-210.07568359375
 20
57.5849609375
 30
0.0
  0
SEQEND
  5
113
330
10D
100
AcDbEntity
  8
STANDARDEBENE
  0
POLYLINE
  5
114
330
1F
100
AcDbEntity
  8
STANDARDEBENE
 62
     7
100
AcDb2dPolyline
 66
     1
 10
0.0
 20
0.0
 30
0.0
  0
VERTEX
  5
115
330
114
100
AcDbEntity
  8
STANDARDEBENE
 62
     7
100
AcDbVertex
100
AcDb2dVertex
 10
-137.79541015625
 20
48.7802734375
 30
0.0
  0
VERTEX
  5
116
330
114
100
AcDbEntity
  8
STANDARDEBENE
 62
     7
100
AcDbVertex
100
AcDb2dVertex
 10
-201.44482421875
 20
56.5341796875
 30
0.0
  0
VERTEX
  5
117
330
114
100
AcDbEntity
  8
STANDARDEBENE
 62
     7
100
AcDbVertex
100
AcDb2dVertex
 10
-210.07568359375
 20
57.5849609375
 30
0.0
  0
SEQEND
  5
118
330
114
100
AcDbEntity
  8
STANDARDEBENE
  0
POLYLINE
  5
119
330
1F
100
AcDbEntity
  8
STANDARDEBENE
 62
     7
100
AcDb2dPolyline
 66
     1
 10
0.0
 20
0.0
 30
0.0
  0
VERTEX
  5
11A
330
119
100
AcDbEntity
  8
STANDARDEBENE
 62
     7
100
AcDbVertex
100
AcDb2dVertex
 10
-137.79541015625
 20
47.0791015625
 30
0.0
  0
VERTEX
  5
11B
330
119
100
AcDbEntity
  8
STANDARDEBENE
 62
     7
100
AcDbVertex
100
AcDb2dVertex
 10
-137.79541015625
 20
47.9638671875
 30
0.0
  0
VERTEX
  5
11C
330
119
100
AcDbEntity
  8
STANDARDEBENE
 62
     7
100
AcDbVertex
100
AcDb2dVertex
 10
-137.79541015625
 20
48.7802734375
 30
0.0
  0
SEQEND
  5
11D
330
119
100
AcDbEntity
  8
STANDARDEBENE
  0
POLYLINE
  5
11E
330
1F
100
AcDbEntity
  8
STANDARDEBENE
 62
     7
100
AcDb2dPolyline
 66
     1
 10
0.0
 20
0.0
 30
0.0
  0
VERTEX
  5
11F
330
11E
100
AcDbEntity
  8
STANDARDEBENE
 62
     7
100
AcDbVertex
100
AcDb2dVertex
 10
-210.07568359375
 20
55.884765625
 30
0.0
  0
VERTEX
  5
120
330
11E
100
AcDbEntity
  8
STANDARDEBENE
 62
     7
100
AcDbVertex
100
AcDb2dVertex
 10
-137.79541015625
 20
47.0791015625
 30
0.0
  0
SEQEND
  5
121
330
11E
100
AcDbEntity
  8
STANDARDEBENE
  0
POLYLINE
  5
122
330
1F
100
AcDbEntity
  8
STANDARDEBENE
 62
     7
100
AcDb2dPolyline
 66
     1
 10
0.0
 20
0.0
 30
0.0
  0
VERTEX
  5
123
330
122
100
AcDbEntity
  8
STANDARDEBENE
 62
     7
100
AcDbVertex
100
AcDb2dVertex
 10
-210.07568359375
 20
55.884765625
 30
0.0
  0
VERTEX
  5
124
330
122
100
AcDbEntity
  8
STANDARDEBENE
 62
     7
100
AcDbVertex
100
AcDb2dVertex
 10
-210.07568359375
 20
52.8388671875
 30
0.0
  0
VERTEX
  5
125
330
122
100
AcDbEntity
  8
STANDARDEBENE
 62
     7
100
AcDbVertex
100
AcDb2dVertex
 10
-210.07568359375
 20
49.3291015625
 30
0.0
  0
VERTEX
  5
126
330
122
100
AcDbEntity
  8
STANDARDEBENE
 62
     7
100
AcDbVertex
100
AcDb2dVertex
 10
-210.07568359375
 20
45.3974609375
 30
0.0
  0
VERTEX
  5
127
330
122
100
AcDbEntity
  8
STANDARDEBENE
 62
     7
100
AcDbVertex
100
AcDb2dVertex
 10
-210.07568359375
 20
41.0986328125
 30
0.0
  0
SEQEND
  5
128
330
122
100
AcDbEntity
  8
STANDARDEBENE
  0
POLYLINE
  5
129
330
1F
100
AcDbEntity
  8
STANDARDEBENE
 62
     7
100
AcDb2dPolyline
 66
     1
 10
0.0
 20
0.0
 30
0.0
  0
VERTEX
  5
12A
330
129
100
AcDbEntity
  8
STANDARDEBENE
 62
     7
100
AcDbVertex
100
AcDb2dVertex
 10
-122.48583984375
 20
34.9384765625
 30
0.0
  0
VERTEX
  5
12B
330
129
100
AcDbEntity
  8
STANDARDEBENE
 62
     7
100
AcDbVertex
100
AcDb2dVertex
 10
-182.39990234375
 20
39.1513671875
 30
0.0
  0
VERTEX
  5
12C
330
129
100
AcDbEntity
  8
STANDARDEBENE
 62
     7
100
AcDbVertex
100
AcDb2dVertex
 10
-210.07568359375
 20
41.0986328125
 30
0.0
  0
SEQEND
  5
12D
330
129
100
AcDbEntity
  8
STANDARDEBENE
  0
POLYLINE
  5
12E
330
1F
100
AcDbEntity
  8
STANDARDEBENE
 62
     7
100
AcDb2dPolyline
 66
     1
 10
0.0
 20
0.0
 30
0.0
  0
VERTEX
  5
12F
330
12E
100
AcDbEntity
  8
STANDARDEBENE
 62
     7
100
AcDbVertex
100
AcDb2dVertex
 10
-122.48583984375
 20
34.9384765625
 30
0.0
  0
VERTEX
  5
130
330
12E
100
AcDbEntity
  8
STANDARDEBENE
 62
     7
100
AcDbVertex
100
AcDb2dVertex
 10
-122.48583984375
 20
38.6796875
 30
0.0
  0
VERTEX
  5
131
330
12E
100
AcDbEntity
  8
STANDARDEBENE
 62
     7
100
AcDbVertex
100
AcDb2dVertex
 10
-122.48583984375
 20
42.0078125
 30
0.0
  0
VERTEX
  5
132
330
12E
100
AcDbEntity
  8
STANDARDEBENE
 62
     7
100
AcDbVertex
100
AcDb2dVertex
 10
-122.48583984375
 20
44.8662109375
 30
0.0
  0
VERTEX
  5
133
330
12E
100
AcDbEntity
  8
STANDARDEBENE
 62
     7
100
AcDbVertex
100
AcDb2dVertex
 10
-122.48583984375
 20
47.1982421875
 30
0.0
  0
VERTEX
  5
134
330
12E
100
AcDbEntity
  8
STANDARDEBENE
 62
     7
100
AcDbVertex
100
AcDb2dVertex
 10
-122.48583984375
 20
48.9638671875
 30
0.0
  0
VERTEX
  5
135
330
12E
100
AcDbEntity
  8
STANDARDEBENE
 62
     7
100
AcDbVertex
100
AcDb2dVertex
 10
-122.48583984375
 20
50.130859375
 30
0.0
  0
VERTEX
  5
136
330
12E
100
AcDbEntity
  8
STANDARDEBENE
 62
     7
100
AcDbVertex
100
AcDb2dVertex
 10
-122.48583984375
 20
50.6748046875
 30
0.0
  0
SEQEND
  5
137
330
12E
100
AcDbEntity
  8
STANDARDEBENE
  0
POLYLINE
  5
138
330
1F
100
AcDbEntity
  8
STANDARDEBENE
 62
     7
100
AcDb2dPolyline
 66
     1
 10
0.0
 20
0.0
 30
0.0
  0
VERTEX
  5
139
330
138
100
AcDbEntity
  8
STANDARDEBENE
 62
     7
100
AcDbVertex
100
AcDb2dVertex
 10
-220.28271484375
 20
38.4052734375
 30
0.0
  0
VERTEX
  5
13A
330
138
100
AcDbEntity
  8
STANDARDEBENE
 62
     7
100
AcDbVertex
100
AcDb2dVertex
 10
-220.28271484375
 20
41.0986328125
 30
0.0
  0
VERTEX
  5
13B
330
138
100
AcDbEntity
  8
STANDARDEBENE
 62
     7
100
AcDbVertex
100
AcDb2dVertex
 10
-220.28271484375
 20
45.3974609375
 30
0.0
  0
VERTEX
  5
13C
330
138
100
AcDbEntity
  8
STANDARDEBENE
 62
     7
100
AcDbVertex
100
AcDb2dVertex
 10
-220.28271484375
 20
49.3291015625
 30
0.0
  0
VERTEX
  5
13D
330
138
100
AcDbEntity
  8
STANDARDEBENE
 62
     7
100
AcDbVertex
100
AcDb2dVertex
 10
-220.28271484375
 20
52.8388671875
 30
0.0
  0
VERTEX
  5
13E
330
138
100
AcDbEntity
  8
STANDARDEBENE
 62
     7
100
AcDbVertex
100
AcDb2dVertex
 10
-220.28271484375
 20
55.884765625
 30
0.0
  0
SEQEND
  5
13F
330
138
100
AcDbEntity
  8
STANDARDEBENE
  0
POLYLINE
  5
140
330
1F
100
AcDbEntity
  8
STANDARDEBENE
 62
     7
100
AcDb2dPolyline
 66
     1
 10
0.0
 20
0.0
 30
0.0
  0
VERTEX
  5
141
330
140
100
AcDbEntity
  8
STANDARDEBENE
 62
     7
100
AcDbVertex
100
AcDb2dVertex
 10
-210.07568359375
 20
41.0986328125
 30
0.0
  0
VERTEX
  5
142
330
140
100
AcDbEntity
  8
STANDARDEBENE
 62
     7
100
AcDbVertex
100
AcDb2dVertex
 10
-210.07568359375
 20
38.4052734375
 30
0.0
  0
VERTEX
  5
143
330
140
100
AcDbEntity
  8
STANDARDEBENE
 62
     7
100
AcDbVertex
100
AcDb2dVertex
 10
-220.28271484375
 20
38.4052734375
 30
0.0
  0
SEQEND
  5
144
330
140
100
AcDbEntity
  8
STANDARDEBENE
  0
POLYLINE
  5
145
330
1F
100
AcDbEntity
  8
STANDARDEBENE
 62
     7
100
AcDb2dPolyline
 66
     1
 10
0.0
 20
0.0
 30
0.0
  0
VERTEX
  5
146
330
145
100
AcDbEntity
  8
STANDARDEBENE
 62
     7
100
AcDbVertex
100
AcDb2dVertex
 10
-220.28271484375
 20
51.216796875
 30
0.0
  0
VERTEX
  5
147
330
145
100
AcDbEntity
  8
STANDARDEBENE
 62
     7
100
AcDbVertex
100
AcDb2dVertex
 10
-210.07568359375
 20
51.216796875
 30
0.0
  0
SEQEND
  5
148
330
145
100
AcDbEntity
  8
STANDARDEBENE
  0
POLYLINE
  5
149
330
1F
100
AcDbEntity
  8
STANDARDEBENE
 62
     7
100
AcDb2dPolyline
 66
     1
 10
0.0
 20
0.0
 30
0.0
  0
VERTEX
  5
14A
330
149
100
AcDbEntity
  8
STANDARDEBENE
 62
     7
100
AcDbVertex
100
AcDb2dVertex
 10
-220.28271484375
 20
41.0986328125
 30
0.0
  0
VERTEX
  5
14B
330
149
100
AcDbEntity
  8
STANDARDEBENE
 62
     7
100
AcDbVertex
100
AcDb2dVertex
 10
-221.14013671875
 20
41.0986328125
 30
0.0
  0
SEQEND
  5
14C
330
149
100
AcDbEntity
  8
STANDARDEBENE
  0
POLYLINE
  5
14D
330
1F
100
AcDbEntity
  8
STANDARDEBENE
 62
     7
100
AcDb2dPolyline
 66
     1
 10
0.0
 20
0.0
 30
0.0
  0
VERTEX
  5
14E
330
14D
100
AcDbEntity
  8
STANDARDEBENE
 62
     7
100
AcDbVertex
100
AcDb2dVertex
 10
-221.14013671875
 20
55.884765625
 30
0.0
  0
VERTEX
  5
14F
330
14D
100
AcDbEntity
  8
STANDARDEBENE
 62
     7
100
AcDbVertex
100
AcDb2dVertex
 10
-220.28271484375
 20
55.884765625
 30
0.0
  0
SEQEND
  5
150
330
14D
100
AcDbEntity
  8
STANDARDEBENE
  0
POLYLINE
  5
151
330
1F
100
AcDbEntity
  8
STANDARDEBENE
 62
     7
100
AcDb2dPolyline
 66
     1
 10
0.0
 20
0.0
 30
0.0
  0
VERTEX
  5
152
330
151
100
AcDbEntity
  8
STANDARDEBENE
 62
     7
100
AcDbVertex
100
AcDb2dVertex
 10
-221.14013671875
 20
41.0986328125
 30
0.0
  0
VERTEX
  5
153
330
151
100
AcDbEntity
  8
STANDARDEBENE
 62
     7
100
AcDbVertex
100
AcDb2dVertex
 10
-221.14013671875
 20
45.3974609375
 30
0.0
  0
VERTEX
  5
154
330
151
100
AcDbEntity
  8
STANDARDEBENE
 62
     7
100
AcDbVertex
100
AcDb2dVertex
 10
-221.14013671875
 20
49.3291015625
 30
0.0
  0
VERTEX
  5
155
330
151
100
AcDbEntity
  8
STANDARDEBENE
 62
     7
100
AcDbVertex
100
AcDb2dVertex
 10
-221.14013671875
 20
52.8388671875
 30
0.0
  0
VERTEX
  5
156
330
151
100
AcDbEntity
  8
STANDARDEBENE
 62
     7
100
AcDbVertex
100
AcDb2dVertex
 10
-221.14013671875
 20
55.884765625
 30
0.0
  0
SEQEND
  5
157
330
151
100
AcDbEntity
  8
STANDARDEBENE
  0
POLYLINE
  5
158
330
1F
100
AcDbEntity
  8
STANDARDEBENE
 62
     7
100
AcDb2dPolyline
 66
     1
 10
0.0
 20
0.0
 30
0.0
  0
VERTEX
  5
159
330
158
100
AcDbEntity
  8
STANDARDEBENE
 62
     7
100
AcDbVertex
100
AcDb2dVertex
 10
-221.14013671875
 20
41.0986328125
 30
0.0
  0
VERTEX
  5
15A
330
158
100
AcDbEntity
  8
STANDARDEBENE
 62
     7
100
AcDbVertex
100
AcDb2dVertex
 10
-235.87255859375
 20
36.84375
 30
0.0
  0
SEQEND
  5
15B
330
158
100
AcDbEntity
  8
STANDARDEBENE
  0
POLYLINE
  5
15C
330
1F
100
AcDbEntity
  8
STANDARDEBENE
 62
     7
100
AcDb2dPolyline
 66
     1
 10
0.0
 20
0.0
 30
0.0
  0
VERTEX
  5
15D
330
15C
100
AcDbEntity
  8
STANDARDEBENE
 62
     7
100
AcDbVertex
100
AcDb2dVertex
 10
-235.87255859375
 20
48.51171875
 30
0.0
  0
VERTEX
  5
15E
330
15C
100
AcDbEntity
  8
STANDARDEBENE
 62
     7
100
AcDbVertex
100
AcDb2dVertex
 10
-221.14013671875
 20
55.884765625
 30
0.0
  0
SEQEND
  5
15F
330
15C
100
AcDbEntity
  8
STANDARDEBENE
  0
POLYLINE
  5
160
330
1F
100
AcDbEntity
  8
STANDARDEBENE
 62
     7
100
AcDb2dPolyline
 66
     1
 10
0.0
 20
0.0
 30
0.0
  0
VERTEX
  5
161
330
160
100
AcDbEntity
  8
STANDARDEBENE
 62
     7
100
AcDbVertex
100
AcDb2dVertex
 10
-235.87255859375
 20
36.84375
 30
0.0
  0
VERTEX
  5
162
330
160
100
AcDbEntity
  8
STANDARDEBENE
 62
     7
100
AcDbVertex
100
AcDb2dVertex
 10
-235.87255859375
 20
41.2841796875
 30
0.0
  0
VERTEX
  5
163
330
160
100
AcDbEntity
  8
STANDARDEBENE
 62
     7
100
AcDbVertex
100
AcDb2dVertex
 10
-235.87255859375
 20
45.2021484375
 30
0.0
  0
VERTEX
  5
164
330
160
100
AcDbEntity
  8
STANDARDEBENE
 62
     7
100
AcDbVertex
100
AcDb2dVertex
 10
-235.87255859375
 20
48.51171875
 30
0.0
  0
SEQEND
  5
165
330
160
100
AcDbEntity
  8
STANDARDEBENE
  0
POLYLINE
  5
166
330
1F
100
AcDbEntity
  8
STANDARDEBENE
 62
     7
100
AcDb2dPolyline
 66
     1
 10
0.0
 20
0.0
 30
0.0
  0
VERTEX
  5
167
330
166
100
AcDbEntity
  8
STANDARDEBENE
 62
     7
100
AcDbVertex
100
AcDb2dVertex
 10
-210.07568359375
 20
38.1533203125
 30
0.0
  0
VERTEX
  5
168
330
166
100
AcDbEntity
  8
STANDARDEBENE
 62
     7
100
AcDbVertex
100
AcDb2dVertex
 10
-122.48583984375
 20
31.9931640625
 30
0.0
  0
SEQEND
  5
169
330
166
100
AcDbEntity
  8
STANDARDEBENE
  0
POLYLINE
  5
16A
330
1F
100
AcDbEntity
  8
STANDARDEBENE
 62
     7
100
AcDb2dPolyline
 66
     1
 10
0.0
 20
0.0
 30
0.0
  0
VERTEX
  5
16B
330
16A
100
AcDbEntity
  8
STANDARDEBENE
 62
     7
100
AcDbVertex
100
AcDb2dVertex
 10
-210.07568359375
 20
38.1533203125
 30
0.0
  0
VERTEX
  5
16C
330
16A
100
AcDbEntity
  8
STANDARDEBENE
 62
     7
100
AcDbVertex
100
AcDb2dVertex
 10
-210.07568359375
 20
33.3662109375
 30
0.0
  0
VERTEX
  5
16D
330
16A
100
AcDbEntity
  8
STANDARDEBENE
 62
     7
100
AcDbVertex
100
AcDb2dVertex
 10
-210.07568359375
 20
28.3623046875
 30
0.0
  0
VERTEX
  5
16E
330
16A
100
AcDbEntity
  8
STANDARDEBENE
 62
     7
100
AcDbVertex
100
AcDb2dVertex
 10
-210.07568359375
 20
23.2041015625
 30
0.0
  0
VERTEX
  5
16F
330
16A
100
AcDbEntity
  8
STANDARDEBENE
 62
     7
100
AcDbVertex
100
AcDb2dVertex
 10
-210.07568359375
 20
17.95703125
 30
0.0
  0
SEQEND
  5
170
330
16A
100
AcDbEntity
  8
STANDARDEBENE
  0
POLYLINE
  5
171
330
1F
100
AcDbEntity
  8
STANDARDEBENE
 62
     7
100
AcDb2dPolyline
 66
     1
 10
0.0
 20
0.0
 30
0.0
  0
VERTEX
  5
172
330
171
100
AcDbEntity
  8
STANDARDEBENE
 62
     7
100
AcDbVertex
100
AcDb2dVertex
 10
-137.79541015625
 20
17.95703125
 30
0.0
  0
VERTEX
  5
173
330
171
100
AcDbEntity
  8
STANDARDEBENE
 62
     7
100
AcDbVertex
100
AcDb2dVertex
 10
-146.44775390625
 20
17.95703125
 30
0.0
  0
VERTEX
  5
174
330
171
100
AcDbEntity
  8
STANDARDEBENE
 62
     7
100
AcDbVertex
100
AcDb2dVertex
 10
-210.07568359375
 20
17.95703125
 30
0.0
  0
SEQEND
  5
175
330
171
100
AcDbEntity
  8
STANDARDEBENE
  0
POLYLINE
  5
176
330
1F
100
AcDbEntity
  8
STANDARDEBENE
 62
     7
100
AcDb2dPolyline
 66
     1
 10
0.0
 20
0.0
 30
0.0
  0
VERTEX
  5
177
330
176
100
AcDbEntity
  8
STANDARDEBENE
 62
     7
100
AcDbVertex
100
AcDb2dVertex
 10
-137.79541015625
 20
14.5546875
 30
0.0
  0
VERTEX
  5
178
330
176
100
AcDbEntity
  8
STANDARDEBENE
 62
     7
100
AcDbVertex
100
AcDb2dVertex
 10
-137.79541015625
 20
16.255859375
 30
0.0
  0
VERTEX
  5
179
330
176
100
AcDbEntity
  8
STANDARDEBENE
 62
     7
100
AcDbVertex
100
AcDb2dVertex
 10
-137.79541015625
 20
17.95703125
 30
0.0
  0
SEQEND
  5
17A
330
176
100
AcDbEntity
  8
STANDARDEBENE
  0
POLYLINE
  5
17B
330
1F
100
AcDbEntity
  8
STANDARDEBENE
 62
     7
100
AcDb2dPolyline
 66
     1
 10
0.0
 20
0.0
 30
0.0
  0
VERTEX
  5
17C
330
17B
100
AcDbEntity
  8
STANDARDEBENE
 62
     7
100
AcDbVertex
100
AcDb2dVertex
 10
-210.07568359375
 20
14.5546875
 30
0.0
  0
VERTEX
  5
17D
330
17B
100
AcDbEntity
  8
STANDARDEBENE
 62
     7
100
AcDbVertex
100
AcDb2dVertex
 10
-146.44775390625
 20
14.5546875
 30
0.0
  0
VERTEX
  5
17E
330
17B
100
AcDbEntity
  8
STANDARDEBENE
 62
     7
100
AcDbVertex
100
AcDb2dVertex
 10
-137.79541015625
 20
14.5546875
 30
0.0
  0
SEQEND
  5
17F
330
17B
100
AcDbEntity
  8
STANDARDEBENE
  0
POLYLINE
  5
180
330
1F
100
AcDbEntity
  8
STANDARDEBENE
 62
     7
100
AcDb2dPolyline
 66
     1
 10
0.0
 20
0.0
 30
0.0
  0
VERTEX
  5
181
330
180
100
AcDbEntity
  8
STANDARDEBENE
 62
     7
100
AcDbVertex
100
AcDb2dVertex
 10
-210.07568359375
 20
14.5546875
 30
0.0
  0
VERTEX
  5
182
330
180
100
AcDbEntity
  8
STANDARDEBENE
 62
     7
100
AcDbVertex
100
AcDb2dVertex
 10
-210.07568359375
 20
9.30859375
 30
0.0
  0
VERTEX
  5
183
330
180
100
AcDbEntity
  8
STANDARDEBENE
 62
     7
100
AcDbVertex
100
AcDb2dVertex
 10
-210.07568359375
 20
4.1513671875
 30
0.0
  0
VERTEX
  5
184
330
180
100
AcDbEntity
  8
STANDARDEBENE
 62
     7
100
AcDbVertex
100
AcDb2dVertex
 10
-210.07568359375
 20
-0.8544921875
 30
0.0
  0
VERTEX
  5
185
330
180
100
AcDbEntity
  8
STANDARDEBENE
 62
     7
100
AcDbVertex
100
AcDb2dVertex
 10
-210.07568359375
 20
-5.6416015625
 30
0.0
  0
SEQEND
  5
186
330
180
100
AcDbEntity
  8
STANDARDEBENE
  0
POLYLINE
  5
187
330
1F
100
AcDbEntity
  8
STANDARDEBENE
 62
     7
100
AcDb2dPolyline
 66
     1
 10
0.0
 20
0.0
 30
0.0
  0
VERTEX
  5
188
330
187
100
AcDbEntity
  8
STANDARDEBENE
 62
     7
100
AcDbVertex
100
AcDb2dVertex
 10
-122.48583984375
 20
0.51953125
 30
0.0
  0
VERTEX
  5
189
330
187
100
AcDbEntity
  8
STANDARDEBENE
 62
     7
100
AcDbVertex
100
AcDb2dVertex
 10
-182.39990234375
 20
-3.6953125
 30
0.0
  0
VERTEX
  5
18A
330
187
100
AcDbEntity
  8
STANDARDEBENE
 62
     7
100
AcDbVertex
100
AcDb2dVertex
 10
-210.07568359375
 20
-5.6416015625
 30
0.0
  0
SEQEND
  5
18B
330
187
100
AcDbEntity
  8
STANDARDEBENE
  0
POLYLINE
  5
18C
330
1F
100
AcDbEntity
  8
STANDARDEBENE
 62
     7
100
AcDb2dPolyline
 66
     1
 10
0.0
 20
0.0
 30
0.0
  0
VERTEX
  5
18D
330
18C
100
AcDbEntity
  8
STANDARDEBENE
 62
     7
100
AcDbVertex
100
AcDb2dVertex
 10
-122.48583984375
 20
0.51953125
 30
0.0
  0
VERTEX
  5
18E
330
18C
100
AcDbEntity
  8
STANDARDEBENE
 62
     7
100
AcDbVertex
100
AcDb2dVertex
 10
-122.48583984375
 20
4.8046875
 30
0.0
  0
VERTEX
  5
18F
330
18C
100
AcDbEntity
  8
STANDARDEBENE
 62
     7
100
AcDbVertex
100
AcDb2dVertex
 10
-122.48583984375
 20
9.2998046875
 30
0.0
  0
VERTEX
  5
190
330
18C
100
AcDbEntity
  8
STANDARDEBENE
 62
     7
100
AcDbVertex
100
AcDb2dVertex
 10
-122.48583984375
 20
13.923828125
 30
0.0
  0
VERTEX
  5
191
330
18C
100
AcDbEntity
  8
STANDARDEBENE
 62
     7
100
AcDbVertex
100
AcDb2dVertex
 10
-122.48583984375
 20
18.5888671875
 30
0.0
  0
VERTEX
  5
192
330
18C
100
AcDbEntity
  8
STANDARDEBENE
 62
     7
100
AcDbVertex
100
AcDb2dVertex
 10
-122.48583984375
 20
23.2119140625
 30
0.0
  0
VERTEX
  5
193
330
18C
100
AcDbEntity
  8
STANDARDEBENE
 62
     7
100
AcDbVertex
100
AcDb2dVertex
 10
-122.48583984375
 20
27.7080078125
 30
0.0
  0
VERTEX
  5
194
330
18C
100
AcDbEntity
  8
STANDARDEBENE
 62
     7
100
AcDbVertex
100
AcDb2dVertex
 10
-122.48583984375
 20
31.9931640625
 30
0.0
  0
SEQEND
  5
195
330
18C
100
AcDbEntity
  8
STANDARDEBENE
  0
POLYLINE
  5
196
330
1F
100
AcDbEntity
  8
STANDARDEBENE
 62
     7
100
AcDb2dPolyline
 66
     1
 10
0.0
 20
0.0
 30
0.0
  0
VERTEX
  5
197
330
196
100
AcDbEntity
  8
STANDARDEBENE
 62
     7
100
AcDbVertex
100
AcDb2dVertex
 10
-220.28271484375
 20
-5.6416015625
 30
0.0
  0
VERTEX
  5
198
330
196
100
AcDbEntity
  8
STANDARDEBENE
 62
     7
100
AcDbVertex
100
AcDb2dVertex
 10
-220.28271484375
 20
-0.8544921875
 30
0.0
  0
VERTEX
  5
199
330
196
100
AcDbEntity
  8
STANDARDEBENE
 62
     7
100
AcDbVertex
100
AcDb2dVertex
 10
-220.28271484375
 20
4.1513671875
 30
0.0
  0
VERTEX
  5
19A
330
196
100
AcDbEntity
  8
STANDARDEBENE
 62
     7
100
AcDbVertex
100
AcDb2dVertex
 10
-220.28271484375
 20
9.30859375
 30
0.0
  0
VERTEX
  5
19B
330
196
100
AcDbEntity
  8
STANDARDEBENE
 62
     7
100
AcDbVertex
100
AcDb2dVertex
 10
-220.28271484375
 20
14.5546875
 30
0.0
  0
SEQEND
  5
19C
330
196
100
AcDbEntity
  8
STANDARDEBENE
  0
POLYLINE
  5
19D
330
1F
100
AcDbEntity
  8
STANDARDEBENE
 62
     7
100
AcDb2dPolyline
 66
     1
 10
0.0
 20
0.0
 30
0.0
  0
VERTEX
  5
19E
330
19D
100
AcDbEntity
  8
STANDARDEBENE
 62
     7
100
AcDbVertex
100
AcDb2dVertex
 10
-210.07568359375
 20
-2.9462890625
 30
0.0
  0
VERTEX
  5
19F
330
19D
100
AcDbEntity
  8
STANDARDEBENE
 62
     7
100
AcDbVertex
100
AcDb2dVertex
 10
-220.28271484375
 20
-2.9462890625
 30
0.0
  0
SEQEND
  5
1A0
330
19D
100
AcDbEntity
  8
STANDARDEBENE
  0
POLYLINE
  5
1A1
330
1F
100
AcDbEntity
  8
STANDARDEBENE
 62
     7
100
AcDb2dPolyline
 66
     1
 10
0.0
 20
0.0
 30
0.0
  0
VERTEX
  5
1A2
330
1A1
100
AcDbEntity
  8
STANDARDEBENE
 62
     7
100
AcDbVertex
100
AcDb2dVertex
 10
-220.28271484375
 20
14.5546875
 30
0.0
  0
VERTEX
  5
1A3
330
1A1
100
AcDbEntity
  8
STANDARDEBENE
 62
     7
100
AcDbVertex
100
AcDb2dVertex
 10
-210.07568359375
 20
14.5546875
 30
0.0
  0
SEQEND
  5
1A4
330
1A1
100
AcDbEntity
  8
STANDARDEBENE
  0
POLYLINE
  5
1A5
330
1F
100
AcDbEntity
  8
STANDARDEBENE
 62
     7
100
AcDb2dPolyline
 66
     1
 10
0.0
 20
0.0
 30
0.0
  0
VERTEX
  5
1A6
330
1A5
100
AcDbEntity
  8
STANDARDEBENE
 62
     7
100
AcDbVertex
100
AcDb2dVertex
 10
-220.28271484375
 20
-5.6416015625
 30
0.0
  0
VERTEX
  5
1A7
330
1A5
100
AcDbEntity
  8
STANDARDEBENE
 62
     7
100
AcDbVertex
100
AcDb2dVertex
 10
-221.14013671875
 20
-5.6416015625
 30
0.0
  0
SEQEND
  5
1A8
330
1A5
100
AcDbEntity
  8
STANDARDEBENE
  0
POLYLINE
  5
1A9
330
1F
100
AcDbEntity
  8
STANDARDEBENE
 62
     7
100
AcDb2dPolyline
 66
     1
 10
0.0
 20
0.0
 30
0.0
  0
VERTEX
  5
1AA
330
1A9
100
AcDbEntity
  8
STANDARDEBENE
 62
     7
100
AcDbVertex
100
AcDb2dVertex
 10
-221.14013671875
 20
14.5546875
 30
0.0
  0
VERTEX
  5
1AB
330
1A9
100
AcDbEntity
  8
STANDARDEBENE
 62
     7
100
AcDbVertex
100
AcDb2dVertex
 10
-220.28271484375
 20
14.5546875
 30
0.0
  0
SEQEND
  5
1AC
330
1A9
100
AcDbEntity
  8
STANDARDEBENE
  0
POLYLINE
  5
1AD
330
1F
100
AcDbEntity
  8
STANDARDEBENE
 62
     7
100
AcDb2dPolyline
 66
     1
 10
0.0
 20
0.0
 30
0.0
  0
VERTEX
  5
1AE
330
1AD
100
AcDbEntity
  8
STANDARDEBENE
 62
     7
100
AcDbVertex
100
AcDb2dVertex
 10
-221.14013671875
 20
-5.6416015625
 30
0.0
  0
VERTEX
  5
1AF
330
1AD
100
AcDbEntity
  8
STANDARDEBENE
 62
     7
100
AcDbVertex
100
AcDb2dVertex
 10
-221.14013671875
 20
-0.8544921875
 30
0.0
  0
VERTEX
  5
1B0
330
1AD
100
AcDbEntity
  8
STANDARDEBENE
 62
     7
100
AcDbVertex
100
AcDb2dVertex
 10
-221.14013671875
 20
4.1513671875
 30
0.0
  0
VERTEX
  5
1B1
330
1AD
100
AcDbEntity
  8
STANDARDEBENE
 62
     7
100
AcDbVertex
100
AcDb2dVertex
 10
-221.14013671875
 20
9.30859375
 30
0.0
  0
VERTEX
  5
1B2
330
1AD
100
AcDbEntity
  8
STANDARDEBENE
 62
     7
100
AcDbVertex
100
AcDb2dVertex
 10
-221.14013671875
 20
14.5546875
 30
0.0
  0
SEQEND
  5
1B3
330
1AD
100
AcDbEntity
  8
STANDARDEBENE
  0
POLYLINE
  5
1B4
330
1F
100
AcDbEntity
  8
STANDARDEBENE
 62
     7
100
AcDb2dPolyline
 66
     1
 10
0.0
 20
0.0
 30
0.0
  0
VERTEX
  5
1B5
330
1B4
100
AcDbEntity
  8
STANDARDEBENE
 62
     7
100
AcDbVertex
100
AcDb2dVertex
 10
-221.14013671875
 20
-5.6416015625
 30
0.0
  0
VERTEX
  5
1B6
330
1B4
100
AcDbEntity
  8
STANDARDEBENE
 62
     7
100
AcDbVertex
100
AcDb2dVertex
 10
-235.87255859375
 20
-1.3857421875
 30
0.0
  0
SEQEND
  5
1B7
330
1B4
100
AcDbEntity
  8
STANDARDEBENE
  0
POLYLINE
  5
1B8
330
1F
100
AcDbEntity
  8
STANDARDEBENE
 62
     7
100
AcDb2dPolyline
 66
     1
 10
0.0
 20
0.0
 30
0.0
  0
VERTEX
  5
1B9
330
1B8
100
AcDbEntity
  8
STANDARDEBENE
 62
     7
100
AcDbVertex
100
AcDb2dVertex
 10
-235.87255859375
 20
14.5546875
 30
0.0
  0
VERTEX
  5
1BA
330
1B8
100
AcDbEntity
  8
STANDARDEBENE
 62
     7
100
AcDbVertex
100
AcDb2dVertex
 10
-229.18212890625
 20
14.5546875
 30
0.0
  0
VERTEX
  5
1BB
330
1B8
100
AcDbEntity
  8
STANDARDEBENE
 62
     7
100
AcDbVertex
100
AcDb2dVertex
 10
-221.14013671875
 20
14.5546875
 30
0.0
  0
SEQEND
  5
1BC
330
1B8
100
AcDbEntity
  8
STANDARDEBENE
  0
POLYLINE
  5
1BD
330
1F
100
AcDbEntity
  8
STANDARDEBENE
 62
     7
100
AcDb2dPolyline
 66
     1
 10
0.0
 20
0.0
 30
0.0
  0
VERTEX
  5
1BE
330
1BD
100
AcDbEntity
  8
STANDARDEBENE
 62
     7
100
AcDbVertex
100
AcDb2dVertex
 10
-235.87255859375
 20
-1.3857421875
 30
0.0
  0
VERTEX
  5
1BF
330
1BD
100
AcDbEntity
  8
STANDARDEBENE
 62
     7
100
AcDbVertex
100
AcDb2dVertex
 10
-235.87255859375
 20
3.7021484375
 30
0.0
  0
VERTEX
  5
1C0
330
1BD
100
AcDbEntity
  8
STANDARDEBENE
 62
     7
100
AcDbVertex
100
AcDb2dVertex
 10
-235.87255859375
 20
9.0537109375
 30
0.0
  0
VERTEX
  5
1C1
330
1BD
100
AcDbEntity
  8
STANDARDEBENE
 62
     7
100
AcDbVertex
100
AcDb2dVertex
 10
-235.87255859375
 20
14.5546875
 30
0.0
  0
SEQEND
  5
1C2
330
1BD
100
AcDbEntity
  8
STANDARDEBENE
  0
POLYLINE
  5
1C3
330
1F
100
AcDbEntity
  8
STANDARDEBENE
 62
     7
100
AcDb2dPolyline
 66
     1
 10
0.0
 20
0.0
 30
0.0
  0
VERTEX
  5
1C4
330
1C3
100
AcDbEntity
  8
STANDARDEBENE
 62
     7
100
AcDbVertex
100
AcDb2dVertex
 10
-210.07568359375
 20
-8.587890625
 30
0.0
  0
VERTEX
  5
1C5
330
1C3
100
AcDbEntity
  8
STANDARDEBENE
 62
     7
100
AcDbVertex
100
AcDb2dVertex
 10
-122.48583984375
 20
-2.4267578125
 30
0.0
  0
SEQEND
  5
1C6
330
1C3
100
AcDbEntity
  8
STANDARDEBENE
  0
POLYLINE
  5
1C7
330
1F
100
AcDbEntity
  8
STANDARDEBENE
 62
     7
100
AcDb2dPolyline
 66
     1
 10
0.0
 20
0.0
 30
0.0
  0
VERTEX
  5
1C8
330
1C7
100
AcDbEntity
  8
STANDARDEBENE
 62
     7
100
AcDbVertex
100
AcDb2dVertex
 10
-210.07568359375
 20
-8.587890625
 30
0.0
  0
VERTEX
  5
1C9
330
1C7
100
AcDbEntity
  8
STANDARDEBENE
 62
     7
100
AcDbVertex
100
AcDb2dVertex
 10
-210.07568359375
 20
-12.8876953125
 30
0.0
  0
VERTEX
  5
1CA
330
1C7
100
AcDbEntity
  8
STANDARDEBENE
 62
     7
100
AcDbVertex
100
AcDb2dVertex
 10
-210.07568359375
 20
-16.81640625
 30
0.0
  0
VERTEX
  5
1CB
330
1C7
100
AcDbEntity
  8
STANDARDEBENE
 62
     7
100
AcDbVertex
100
AcDb2dVertex
 10
-210.07568359375
 20
-20.326171875
 30
0.0
  0
VERTEX
  5
1CC
330
1C7
100
AcDbEntity
  8
STANDARDEBENE
 62
     7
100
AcDbVertex
100
AcDb2dVertex
 10
-210.07568359375
 20
-23.373046875
 30
0.0
  0
SEQEND
  5
1CD
330
1C7
100
AcDbEntity
  8
STANDARDEBENE
  0
POLYLINE
  5
1CE
330
1F
100
AcDbEntity
  8
STANDARDEBENE
 62
     7
100
AcDb2dPolyline
 66
     1
 10
0.0
 20
0.0
 30
0.0
  0
VERTEX
  5
1CF
330
1CE
100
AcDbEntity
  8
STANDARDEBENE
 62
     7
100
AcDbVertex
100
AcDb2dVertex
 10
-137.79541015625
 20
-14.5673828125
 30
0.0
  0
VERTEX
  5
1D0
330
1CE
100
AcDbEntity
  8
STANDARDEBENE
 62
     7
100
AcDbVertex
100
AcDb2dVertex
 10
-201.44482421875
 20
-22.3212890625
 30
0.0
  0
VERTEX
  5
1D1
330
1CE
100
AcDbEntity
  8
STANDARDEBENE
 62
     7
100
AcDbVertex
100
AcDb2dVertex
 10
-210.07568359375
 20
-23.373046875
 30
0.0
  0
SEQEND
  5
1D2
330
1CE
100
AcDbEntity
  8
STANDARDEBENE
  0
POLYLINE
  5
1D3
330
1F
100
AcDbEntity
  8
STANDARDEBENE
 62
     7
100
AcDb2dPolyline
 66
     1
 10
0.0
 20
0.0
 30
0.0
  0
VERTEX
  5
1D4
330
1D3
100
AcDbEntity
  8
STANDARDEBENE
 62
     7
100
AcDbVertex
100
AcDb2dVertex
 10
-137.79541015625
 20
-16.2666015625
 30
0.0
  0
VERTEX
  5
1D5
330
1D3
100
AcDbEntity
  8
STANDARDEBENE
 62
     7
100
AcDbVertex
100
AcDb2dVertex
 10
-137.79541015625
 20
-15.451171875
 30
0.0
  0
VERTEX
  5
1D6
330
1D3
100
AcDbEntity
  8
STANDARDEBENE
 62
     7
100
AcDbVertex
100
AcDb2dVertex
 10
-137.79541015625
 20
-14.5673828125
 30
0.0
  0
SEQEND
  5
1D7
330
1D3
100
AcDbEntity
  8
STANDARDEBENE
  0
POLYLINE
  5
1D8
330
1F
100
AcDbEntity
  8
STANDARDEBENE
 62
     7
100
AcDb2dPolyline
 66
     1
 10
0.0
 20
0.0
 30
0.0
  0
VERTEX
  5
1D9
330
1D8
100
AcDbEntity
  8
STANDARDEBENE
 62
     7
100
AcDbVertex
100
AcDb2dVertex
 10
-210.07568359375
 20
-25.07421875
 30
0.0
  0
VERTEX
  5
1DA
330
1D8
100
AcDbEntity
  8
STANDARDEBENE
 62
     7
100
AcDbVertex
100
AcDb2dVertex
 10
-137.79541015625
 20
-16.2666015625
 30
0.0
  0
SEQEND
  5
1DB
330
1D8
100
AcDbEntity
  8
STANDARDEBENE
  0
POLYLINE
  5
1DC
330
1F
100
AcDbEntity
  8
STANDARDEBENE
 62
     7
100
AcDb2dPolyline
 66
     1
 10
0.0
 20
0.0
 30
0.0
  0
VERTEX
  5
1DD
330
1DC
100
AcDbEntity
  8
STANDARDEBENE
 62
     7
100
AcDbVertex
100
AcDb2dVertex
 10
-210.07568359375
 20
-25.07421875
 30
0.0
  0
VERTEX
  5
1DE
330
1DC
100
AcDbEntity
  8
STANDARDEBENE
 62
     7
100
AcDbVertex
100
AcDb2dVertex
 10
-210.07568359375
 20
-27.2734375
 30
0.0
  0
VERTEX
  5
1DF
330
1DC
100
AcDbEntity
  8
STANDARDEBENE
 62
     7
100
AcDbVertex
100
AcDb2dVertex
 10
-210.07568359375
 20
-28.9208984375
 30
0.0
  0
VERTEX
  5
1E0
330
1DC
100
AcDbEntity
  8
STANDARDEBENE
 62
     7
100
AcDbVertex
100
AcDb2dVertex
 10
-210.07568359375
 20
-29.9970703125
 30
0.0
  0
VERTEX
  5
1E1
330
1DC
100
AcDbEntity
  8
STANDARDEBENE
 62
     7
100
AcDbVertex
100
AcDb2dVertex
 10
-210.07568359375
 20
-30.484375
 30
0.0
  0
SEQEND
  5
1E2
330
1DC
100
AcDbEntity
  8
STANDARDEBENE
  0
POLYLINE
  5
1E3
330
1F
100
AcDbEntity
  8
STANDARDEBENE
 62
     7
100
AcDb2dPolyline
 66
     1
 10
0.0
 20
0.0
 30
0.0
  0
VERTEX
  5
1E4
330
1E3
100
AcDbEntity
  8
STANDARDEBENE
 62
     7
100
AcDbVertex
100
AcDb2dVertex
 10
-122.48583984375
 20
-18.1630859375
 30
0.0
  0
VERTEX
  5
1E5
330
1E3
100
AcDbEntity
  8
STANDARDEBENE
 62
     7
100
AcDbVertex
100
AcDb2dVertex
 10
-133.87255859375
 20
-19.7666015625
 30
0.0
  0
VERTEX
  5
1E6
330
1E3
100
AcDbEntity
  8
STANDARDEBENE
 62
     7
100
AcDbVertex
100
AcDb2dVertex
 10
-196.56982421875
 20
-28.5849609375
 30
0.0
  0
VERTEX
  5
1E7
330
1E3
100
AcDbEntity
  8
STANDARDEBENE
 62
     7
100
AcDbVertex
100
AcDb2dVertex
 10
-210.07568359375
 20
-30.484375
 30
0.0
  0
SEQEND
  5
1E8
330
1E3
100
AcDbEntity
  8
STANDARDEBENE
  0
POLYLINE
  5
1E9
330
1F
100
AcDbEntity
  8
STANDARDEBENE
 62
     7
100
AcDb2dPolyline
 66
     1
 10
0.0
 20
0.0
 30
0.0
  0
VERTEX
  5
1EA
330
1E9
100
AcDbEntity
  8
STANDARDEBENE
 62
     7
100
AcDbVertex
100
AcDb2dVertex
 10
-122.48583984375
 20
-18.1630859375
 30
0.0
  0
VERTEX
  5
1EB
330
1E9
100
AcDbEntity
  8
STANDARDEBENE
 62
     7
100
AcDbVertex
100
AcDb2dVertex
 10
-122.48583984375
 20
-17.6181640625
 30
0.0
  0
VERTEX
  5
1EC
330
1E9
100
AcDbEntity
  8
STANDARDEBENE
 62
     7
100
AcDbVertex
100
AcDb2dVertex
 10
-122.48583984375
 20
-16.453125
 30
0.0
  0
VERTEX
  5
1ED
330
1E9
100
AcDbEntity
  8
STANDARDEBENE
 62
     7
100
AcDbVertex
100
AcDb2dVertex
 10
-122.48583984375
 20
-14.6865234375
 30
0.0
  0
VERTEX
  5
1EE
330
1E9
100
AcDbEntity
  8
STANDARDEBENE
 62
     7
100
AcDbVertex
100
AcDb2dVertex
 10
-122.48583984375
 20
-12.3544921875
 30
0.0
  0
VERTEX
  5
1EF
330
1E9
100
AcDbEntity
  8
STANDARDEBENE
 62
     7
100
AcDbVertex
100
AcDb2dVertex
 10
-122.48583984375
 20
-9.4970703125
 30
0.0
  0
VERTEX
  5
1F0
330
1E9
100
AcDbEntity
  8
STANDARDEBENE
 62
     7
100
AcDbVertex
100
AcDb2dVertex
 10
-122.48583984375
 20
-6.1669921875
 30
0.0
  0
VERTEX
  5
1F1
330
1E9
100
AcDbEntity
  8
STANDARDEBENE
 62
     7
100
AcDbVertex
100
AcDb2dVertex
 10
-122.48583984375
 20
-2.4267578125
 30
0.0
  0
SEQEND
  5
1F2
330
1E9
100
AcDbEntity
  8
STANDARDEBENE
  0
POLYLINE
  5
1F3
330
1F
100
AcDbEntity
  8
STANDARDEBENE
 62
     7
100
AcDb2dPolyline
 66
     1
 10
0.0
 20
0.0
 30
0.0
  0
VERTEX
  5
1F4
330
1F3
100
AcDbEntity
  8
STANDARDEBENE
 62
     7
100
AcDbVertex
100
AcDb2dVertex
 10
-220.28271484375
 20
-25.07421875
 30
0.0
  0
VERTEX
  5
1F5
330
1F3
100
AcDbEntity
  8
STANDARDEBENE
 62
     7
100
AcDbVertex
100
AcDb2dVertex
 10
-220.28271484375
 20
-23.373046875
 30
0.0
  0
SEQEND
  5
1F6
330
1F3
100
AcDbEntity
  8
STANDARDEBENE
  0
POLYLINE
  5
1F7
330
1F
100
AcDbEntity
  8
STANDARDEBENE
 62
     7
100
AcDb2dPolyline
 66
     1
 10
0.0
 20
0.0
 30
0.0
  0
VERTEX
  5
1F8
330
1F7
100
AcDbEntity
  8
STANDARDEBENE
 62
     7
100
AcDbVertex
100
AcDb2dVertex
 10
-220.28271484375
 20
-30.484375
 30
0.0
  0
VERTEX
  5
1F9
330
1F7
100
AcDbEntity
  8
STANDARDEBENE
 62
     7
100
AcDbVertex
100
AcDb2dVertex
 10
-220.28271484375
 20
-29.9970703125
 30
0.0
  0
VERTEX
  5
1FA
330
1F7
100
AcDbEntity
  8
STANDARDEBENE
 62
     7
100
AcDbVertex
100
AcDb2dVertex
 10
-220.28271484375
 20
-28.9208984375
 30
0.0
  0
VERTEX
  5
1FB
330
1F7
100
AcDbEntity
  8
STANDARDEBENE
 62
     7
100
AcDbVertex
100
AcDb2dVertex
 10
-220.28271484375
 20
-27.2734375
 30
0.0
  0
VERTEX
  5
1FC
330
1F7
100
AcDbEntity
  8
STANDARDEBENE
 62
     7
100
AcDbVertex
100
AcDb2dVertex
 10
-220.28271484375
 20
-25.07421875
 30
0.0
  0
SEQEND
  5
1FD
330
1F7
100
AcDbEntity
  8
STANDARDEBENE
  0
POLYLINE
  5
1FE
330
1F
100
AcDbEntity
  8
STANDARDEBENE
 62
     7
100
AcDb2dPolyline
 66
     1
 10
0.0
 20
0.0
 30
0.0
  0
VERTEX
  5
1FF
330
1FE
100
AcDbEntity
  8
STANDARDEBENE
 62
     7
100
AcDbVertex
100
AcDb2dVertex
 10
-210.07568359375
 20
-23.373046875
 30
0.0
  0
VERTEX
  5
200
330
1FE
100
AcDbEntity
  8
STANDARDEBENE
 62
     7
100
AcDbVertex
100
AcDb2dVertex
 10
-210.07568359375
 20
-25.07421875
 30
0.0
  0
VERTEX
  5
201
330
1FE
100
AcDbEntity
  8
STANDARDEBENE
 62
     7
100
AcDbVertex
100
AcDb2dVertex
 10
-220.28271484375
 20
-25.0947265625
 30
0.0
  0
SEQEND
  5
202
330
1FE
100
AcDbEntity
  8
STANDARDEBENE
  0
POLYLINE
  5
203
330
1F
100
AcDbEntity
  8
STANDARDEBENE
 62
     7
100
AcDb2dPolyline
 66
     1
 10
0.0
 20
0.0
 30
0.0
  0
VERTEX
  5
204
330
203
100
AcDbEntity
  8
STANDARDEBENE
 62
     7
100
AcDbVertex
100
AcDb2dVertex
 10
-220.28271484375
 20
-20.40625
 30
0.0
  0
VERTEX
  5
205
330
203
100
AcDbEntity
  8
STANDARDEBENE
 62
     7
100
AcDbVertex
100
AcDb2dVertex
 10
-210.07568359375
 20
-20.40625
 30
0.0
  0
SEQEND
  5
206
330
203
100
AcDbEntity
  8
STANDARDEBENE
  0
POLYLINE
  5
207
330
1F
100
AcDbEntity
  8
STANDARDEBENE
 62
     7
100
AcDb2dPolyline
 66
     1
 10
0.0
 20
0.0
 30
0.0
  0
VERTEX
  5
208
330
207
100
AcDbEntity
  8
STANDARDEBENE
 62
     7
100
AcDbVertex
100
AcDb2dVertex
 10
-220.28271484375
 20
-30.484375
 30
0.0
  0
VERTEX
  5
209
330
207
100
AcDbEntity
  8
STANDARDEBENE
 62
     7
100
AcDbVertex
100
AcDb2dVertex
 10
-221.14013671875
 20
-30.484375
 30
0.0
  0
SEQEND
  5
20A
330
207
100
AcDbEntity
  8
STANDARDEBENE
  0
POLYLINE
  5
20B
330
1F
100
AcDbEntity
  8
STANDARDEBENE
 62
     7
100
AcDb2dPolyline
 66
     1
 10
0.0
 20
0.0
 30
0.0
  0
VERTEX
  5
20C
330
20B
100
AcDbEntity
  8
STANDARDEBENE
 62
     7
100
AcDbVertex
100
AcDb2dVertex
 10
-221.14013671875
 20
-25.07421875
 30
0.0
  0
VERTEX
  5
20D
330
20B
100
AcDbEntity
  8
STANDARDEBENE
 62
     7
100
AcDbVertex
100
AcDb2dVertex
 10
-220.28271484375
 20
-25.07421875
 30
0.0
  0
SEQEND
  5
20E
330
20B
100
AcDbEntity
  8
STANDARDEBENE
  0
POLYLINE
  5
20F
330
1F
100
AcDbEntity
  8
STANDARDEBENE
 62
     7
100
AcDb2dPolyline
 66
     1
 10
0.0
 20
0.0
 30
0.0
  0
VERTEX
  5
210
330
20F
100
AcDbEntity
  8
STANDARDEBENE
 62
     7
100
AcDbVertex
100
AcDb2dVertex
 10
-221.14013671875
 20
-30.484375
 30
0.0
  0
VERTEX
  5
211
330
20F
100
AcDbEntity
  8
STANDARDEBENE
 62
     7
100
AcDbVertex
100
AcDb2dVertex
 10
-221.14013671875
 20
-29.9970703125
 30
0.0
  0
VERTEX
  5
212
330
20F
100
AcDbEntity
  8
STANDARDEBENE
 62
     7
100
AcDbVertex
100
AcDb2dVertex
 10
-221.14013671875
 20
-28.9208984375
 30
0.0
  0
VERTEX
  5
213
330
20F
100
AcDbEntity
  8
STANDARDEBENE
 62
     7
100
AcDbVertex
100
AcDb2dVertex
 10
-221.14013671875
 20
-27.2734375
 30
0.0
  0
VERTEX
  5
214
330
20F
100
AcDbEntity
  8
STANDARDEBENE
 62
     7
100
AcDbVertex
100
AcDb2dVertex
 10
-221.14013671875
 20
-25.07421875
 30
0.0
  0
SEQEND
  5
215
330
20F
100
AcDbEntity
  8
STANDARDEBENE
  0
POLYLINE
  5
216
330
1F
100
AcDbEntity
  8
STANDARDEBENE
 62
     7
100
AcDb2dPolyline
 66
     1
 10
0.0
 20
0.0
 30
0.0
  0
VERTEX
  5
217
330
216
100
AcDbEntity
  8
STANDARDEBENE
 62
     7
100
AcDbVertex
100
AcDb2dVertex
 10
-221.14013671875
 20
-30.484375
 30
0.0
  0
VERTEX
  5
218
330
216
100
AcDbEntity
  8
STANDARDEBENE
 62
     7
100
AcDbVertex
100
AcDb2dVertex
 10
-223.20068359375
 20
-29.29296875
 30
0.0
  0
VERTEX
  5
219
330
216
100
AcDbEntity
  8
STANDARDEBENE
 62
     7
100
AcDbVertex
100
AcDb2dVertex
 10
-235.87255859375
 20
-21.9736328125
 30
0.0
  0
SEQEND
  5
21A
330
216
100
AcDbEntity
  8
STANDARDEBENE
  0
POLYLINE
  5
21B
330
1F
100
AcDbEntity
  8
STANDARDEBENE
 62
     7
100
AcDb2dPolyline
 66
     1
 10
0.0
 20
0.0
 30
0.0
  0
VERTEX
  5
21C
330
21B
100
AcDbEntity
  8
STANDARDEBENE
 62
     7
100
AcDbVertex
100
AcDb2dVertex
 10
-235.87255859375
 20
-17.701171875
 30
0.0
  0
VERTEX
  5
21D
330
21B
100
AcDbEntity
  8
STANDARDEBENE
 62
     7
100
AcDbVertex
100
AcDb2dVertex
 10
-221.14013671875
 20
-25.07421875
 30
0.0
  0
SEQEND
  5
21E
330
21B
100
AcDbEntity
  8
STANDARDEBENE
  0
POLYLINE
  5
21F
330
1F
100
AcDbEntity
  8
STANDARDEBENE
 62
     7
100
AcDb2dPolyline
 66
     1
 10
0.0
 20
0.0
 30
0.0
  0
VERTEX
  5
220
330
21F
100
AcDbEntity
  8
STANDARDEBENE
 62
     7
100
AcDbVertex
100
AcDb2dVertex
 10
-235.87255859375
 20
-21.9736328125
 30
0.0
  0
VERTEX
  5
221
330
21F
100
AcDbEntity
  8
STANDARDEBENE
 62
     7
100
AcDbVertex
100
AcDb2dVertex
 10
-235.87255859375
 20
-21.326171875
 30
0.0
  0
VERTEX
  5
222
330
21F
100
AcDbEntity
  8
STANDARDEBENE
 62
     7
100
AcDbVertex
100
AcDb2dVertex
 10
-235.87255859375
 20
-19.8916015625
 30
0.0
  0
VERTEX
  5
223
330
21F
100
AcDbEntity
  8
STANDARDEBENE
 62
     7
100
AcDbVertex
100
AcDb2dVertex
 10
-235.87255859375
 20
-17.701171875
 30
0.0
  0
SEQEND
  5
224
330
21F
100
AcDbEntity
  8
STANDARDEBENE
  0
POLYLINE
  5
225
330
1F
100
AcDbEntity
  8
STANDARDEBENE
 62
     7
100
AcDb2dPolyline
 66
     1
 10
0.0
 20
0.0
 30
0.0
  0
VERTEX
  5
226
330
225
100
AcDbEntity
  8
STANDARDEBENE
 62
     7
100
AcDbVertex
100
AcDb2dVertex
 10
-235.87255859375
 20
-16.0009765625
 30
0.0
  0
VERTEX
  5
227
330
225
100
AcDbEntity
  8
STANDARDEBENE
 62
     7
100
AcDbVertex
100
AcDb2dVertex
 10
-235.87255859375
 20
-17.701171875
 30
0.0
  0
SEQEND
  5
228
330
225
100
AcDbEntity
  8
STANDARDEBENE
  0
POLYLINE
  5
229
330
1F
100
AcDbEntity
  8
STANDARDEBENE
 62
     7
100
AcDb2dPolyline
 66
     1
 10
0.0
 20
0.0
 30
0.0
  0
VERTEX
  5
22A
330
229
100
AcDbEntity
  8
STANDARDEBENE
 62
     7
100
AcDbVertex
100
AcDb2dVertex
 10
-220.28271484375
 20
57.5849609375
 30
0.0
  0
VERTEX
  5
22B
330
229
100
AcDbEntity
  8
STANDARDEBENE
 62
     7
100
AcDbVertex
100
AcDb2dVertex
 10
-220.28271484375
 20
59.7861328125
 30
0.0
  0
VERTEX
  5
22C
330
229
100
AcDbEntity
  8
STANDARDEBENE
 62
     7
100
AcDbVertex
100
AcDb2dVertex
 10
-220.28271484375
 20
61.43359375
 30
0.0
  0
VERTEX
  5
22D
330
229
100
AcDbEntity
  8
STANDARDEBENE
 62
     7
100
AcDbVertex
100
AcDb2dVertex
 10
-220.28271484375
 20
62.5078125
 30
0.0
  0
VERTEX
  5
22E
330
229
100
AcDbEntity
  8
STANDARDEBENE
 62
     7
100
AcDbVertex
100
AcDb2dVertex
 10
-220.28271484375
 20
62.9970703125
 30
0.0
  0
SEQEND
  5
22F
330
229
100
AcDbEntity
  8
STANDARDEBENE
  0
POLYLINE
  5
230
330
1F
100
AcDbEntity
  8
STANDARDEBENE
 62
     7
100
AcDb2dPolyline
 66
     1
 10
0.0
 20
0.0
 30
0.0
  0
VERTEX
  5
231
330
230
100
AcDbEntity
  8
STANDARDEBENE
 62
     7
100
AcDbVertex
100
AcDb2dVertex
 10
-220.28271484375
 20
55.884765625
 30
0.0
  0
VERTEX
  5
232
330
230
100
AcDbEntity
  8
STANDARDEBENE
 62
     7
100
AcDbVertex
100
AcDb2dVertex
 10
-220.28271484375
 20
57.5849609375
 30
0.0
  0
SEQEND
  5
233
330
230
100
AcDbEntity
  8
STANDARDEBENE
  0
POLYLINE
  5
234
330
1F
100
AcDbEntity
  8
STANDARDEBENE
 62
     7
100
AcDb2dPolyline
 66
     1
 10
0.0
 20
0.0
 30
0.0
  0
VERTEX
  5
235
330
234
100
AcDbEntity
  8
STANDARDEBENE
 62
     7
100
AcDbVertex
100
AcDb2dVertex
 10
-210.07568359375
 20
57.5849609375
 30
0.0
  0
VERTEX
  5
236
330
234
100
AcDbEntity
  8
STANDARDEBENE
 62
     7
100
AcDbVertex
100
AcDb2dVertex
 10
-210.07568359375
 20
55.884765625
 30
0.0
  0
SEQEND
  5
237
330
234
100
AcDbEntity
  8
STANDARDEBENE
  0
POLYLINE
  5
238
330
1F
100
AcDbEntity
  8
STANDARDEBENE
 62
     7
100
AcDb2dPolyline
 66
     1
 10
0.0
 20
0.0
 30
0.0
  0
VERTEX
  5
239
330
238
100
AcDbEntity
  8
STANDARDEBENE
 62
     7
100
AcDbVertex
100
AcDb2dVertex
 10
-220.28271484375
 20
57.6064453125
 30
0.0
  0
VERTEX
  5
23A
330
238
100
AcDbEntity
  8
STANDARDEBENE
 62
     7
100
AcDbVertex
100
AcDb2dVertex
 10
-210.07568359375
 20
57.6064453125
 30
0.0
  0
SEQEND
  5
23B
330
238
100
AcDbEntity
  8
STANDARDEBENE
  0
POLYLINE
  5
23C
330
1F
100
AcDbEntity
  8
STANDARDEBENE
 62
     7
100
AcDb2dPolyline
 66
     1
 10
0.0
 20
0.0
 30
0.0
  0
VERTEX
  5
23D
330
23C
100
AcDbEntity
  8
STANDARDEBENE
 62
     7
100
AcDbVertex
100
AcDb2dVertex
 10
-210.07568359375
 20
52.9169921875
 30
0.0
  0
VERTEX
  5
23E
330
23C
100
AcDbEntity
  8
STANDARDEBENE
 62
     7
100
AcDbVertex
100
AcDb2dVertex
 10
-220.28271484375
 20
52.9169921875
 30
0.0
  0
SEQEND
  5
23F
330
23C
100
AcDbEntity
  8
STANDARDEBENE
  0
POLYLINE
  5
240
330
1F
100
AcDbEntity
  8
STANDARDEBENE
 62
     7
100
AcDb2dPolyline
 66
     1
 10
0.0
 20
0.0
 30
0.0
  0
VERTEX
  5
241
330
240
100
AcDbEntity
  8
STANDARDEBENE
 62
     7
100
AcDbVertex
100
AcDb2dVertex
 10
-221.14013671875
 20
62.9970703125
 30
0.0
  0
VERTEX
  5
242
330
240
100
AcDbEntity
  8
STANDARDEBENE
 62
     7
100
AcDbVertex
100
AcDb2dVertex
 10
-220.28271484375
 20
62.9970703125
 30
0.0
  0
SEQEND
  5
243
330
240
100
AcDbEntity
  8
STANDARDEBENE
  0
POLYLINE
  5
244
330
1F
100
AcDbEntity
  8
STANDARDEBENE
 62
     7
100
AcDb2dPolyline
 66
     1
 10
0.0
 20
0.0
 30
0.0
  0
VERTEX
  5
245
330
244
100
AcDbEntity
  8
STANDARDEBENE
 62
     7
100
AcDbVertex
100
AcDb2dVertex
 10
-221.14013671875
 20
57.5849609375
 30
0.0
  0
VERTEX
  5
246
330
244
100
AcDbEntity
  8
STANDARDEBENE
 62
     7
100
AcDbVertex
100
AcDb2dVertex
 10
-221.14013671875
 20
59.7861328125
 30
0.0
  0
VERTEX
  5
247
330
244
100
AcDbEntity
  8
STANDARDEBENE
 62
     7
100
AcDbVertex
100
AcDb2dVertex
 10
-221.14013671875
 20
61.43359375
 30
0.0
  0
VERTEX
  5
248
330
244
100
AcDbEntity
  8
STANDARDEBENE
 62
     7
100
AcDbVertex
100
AcDb2dVertex
 10
-221.14013671875
 20
62.5078125
 30
0.0
  0
VERTEX
  5
249
330
244
100
AcDbEntity
  8
STANDARDEBENE
 62
     7
100
AcDbVertex
100
AcDb2dVertex
 10
-221.14013671875
 20
62.9970703125
 30
0.0
  0
SEQEND
  5
24A
330
244
100
AcDbEntity
  8
STANDARDEBENE
  0
POLYLINE
  5
24B
330
1F
100
AcDbEntity
  8
STANDARDEBENE
 62
     7
100
AcDb2dPolyline
 66
     1
 10
0.0
 20
0.0
 30
0.0
  0
VERTEX
  5
24C
330
24B
100
AcDbEntity
  8
STANDARDEBENE
 62
     7
100
AcDbVertex
100
AcDb2dVertex
 10
-220.28271484375
 20
57.5849609375
 30
0.0
  0
VERTEX
  5
24D
330
24B
100
AcDbEntity
  8
STANDARDEBENE
 62
     7
100
AcDbVertex
100
AcDb2dVertex
 10
-221.14013671875
 20
57.5849609375
 30
0.0
  0
SEQEND
  5
24E
330
24B
100
AcDbEntity
  8
STANDARDEBENE
  0
POLYLINE
  5
24F
330
1F
100
AcDbEntity
  8
STANDARDEBENE
 62
     7
100
AcDb2dPolyline
 66
     1
 10
0.0
 20
0.0
 30
0.0
  0
VERTEX
  5
250
330
24F
100
AcDbEntity
  8
STANDARDEBENE
 62
     7
100
AcDbVertex
100
AcDb2dVertex
 10
-235.87255859375
 20
48.51171875
 30
0.0
  0
VERTEX
  5
251
330
24F
100
AcDbEntity
  8
STANDARDEBENE
 62
     7
100
AcDbVertex
100
AcDb2dVertex
 10
-235.87255859375
 20
50.2138671875
 30
0.0
  0
VERTEX
  5
252
330
24F
100
AcDbEntity
  8
STANDARDEBENE
 62
     7
100
AcDbVertex
100
AcDb2dVertex
 10
-235.87255859375
 20
52.4052734375
 30
0.0
  0
VERTEX
  5
253
330
24F
100
AcDbEntity
  8
STANDARDEBENE
 62
     7
100
AcDbVertex
100
AcDb2dVertex
 10
-235.87255859375
 20
53.8388671875
 30
0.0
  0
VERTEX
  5
254
330
24F
100
AcDbEntity
  8
STANDARDEBENE
 62
     7
100
AcDbVertex
100
AcDb2dVertex
 10
-235.87255859375
 20
54.4833984375
 30
0.0
  0
VERTEX
  5
255
330
24F
100
AcDbEntity
  8
STANDARDEBENE
 62
     7
100
AcDbVertex
100
AcDb2dVertex
 10
-223.20068359375
 20
61.8046875
 30
0.0
  0
VERTEX
  5
256
330
24F
100
AcDbEntity
  8
STANDARDEBENE
 62
     7
100
AcDbVertex
100
AcDb2dVertex
 10
-221.14013671875
 20
62.9970703125
 30
0.0
  0
SEQEND
  5
257
330
24F
100
AcDbEntity
  8
STANDARDEBENE
  0
POLYLINE
  5
258
330
1F
100
AcDbEntity
  8
STANDARDEBENE
 62
     7
100
AcDb2dPolyline
 66
     1
 10
0.0
 20
0.0
 30
0.0
  0
VERTEX
  5
259
330
258
100
AcDbEntity
  8
STANDARDEBENE
 62
     7
100
AcDbVertex
100
AcDb2dVertex
 10
-221.14013671875
 20
57.5849609375
 30
0.0
  0
VERTEX
  5
25A
330
258
100
AcDbEntity
  8
STANDARDEBENE
 62
     7
100
AcDbVertex
100
AcDb2dVertex
 10
-235.87255859375
 20
50.2138671875
 30
0.0
  0
SEQEND
  5
25B
330
258
100
AcDbEntity
  8
STANDARDEBENE
  0
POLYLINE
  5
25C
330
1F
100
AcDbEntity
  8
STANDARDEBENE
 62
     7
100
AcDb2dPolyline
 66
     1
 10
0.0
 20
0.0
 30
0.0
  0
VERTEX
  5
25D
330
25C
100
AcDbEntity
  8
STANDARDEBENE
 62
     7
100
AcDbVertex
100
AcDb2dVertex
 10
-220.28271484375
 20
17.95703125
 30
0.0
  0
VERTEX
  5
25E
330
25C
100
AcDbEntity
  8
STANDARDEBENE
 62
     7
100
AcDbVertex
100
AcDb2dVertex
 10
-220.28271484375
 20
23.2041015625
 30
0.0
  0
VERTEX
  5
25F
330
25C
100
AcDbEntity
  8
STANDARDEBENE
 62
     7
100
AcDbVertex
100
AcDb2dVertex
 10
-220.28271484375
 20
28.3623046875
 30
0.0
  0
VERTEX
  5
260
330
25C
100
AcDbEntity
  8
STANDARDEBENE
 62
     7
100
AcDbVertex
100
AcDb2dVertex
 10
-220.28271484375
 20
33.3662109375
 30
0.0
  0
VERTEX
  5
261
330
25C
100
AcDbEntity
  8
STANDARDEBENE
 62
     7
100
AcDbVertex
100
AcDb2dVertex
 10
-220.28271484375
 20
38.1533203125
 30
0.0
  0
SEQEND
  5
262
330
25C
100
AcDbEntity
  8
STANDARDEBENE
  0
POLYLINE
  5
263
330
1F
100
AcDbEntity
  8
STANDARDEBENE
 62
     7
100
AcDb2dPolyline
 66
     1
 10
0.0
 20
0.0
 30
0.0
  0
VERTEX
  5
264
330
263
100
AcDbEntity
  8
STANDARDEBENE
 62
     7
100
AcDbVertex
100
AcDb2dVertex
 10
-220.28271484375
 20
35.458984375
 30
0.0
  0
VERTEX
  5
265
330
263
100
AcDbEntity
  8
STANDARDEBENE
 62
     7
100
AcDbVertex
100
AcDb2dVertex
 10
-210.07568359375
 20
35.458984375
 30
0.0
  0
SEQEND
  5
266
330
263
100
AcDbEntity
  8
STANDARDEBENE
  0
POLYLINE
  5
267
330
1F
100
AcDbEntity
  8
STANDARDEBENE
 62
     7
100
AcDb2dPolyline
 66
     1
 10
0.0
 20
0.0
 30
0.0
  0
VERTEX
  5
268
330
267
100
AcDbEntity
  8
STANDARDEBENE
 62
     7
100
AcDbVertex
100
AcDb2dVertex
 10
-210.07568359375
 20
17.95703125
 30
0.0
  0
VERTEX
  5
269
330
267
100
AcDbEntity
  8
STANDARDEBENE
 62
     7
100
AcDbVertex
100
AcDb2dVertex
 10
-220.28271484375
 20
17.95703125
 30
0.0
  0
SEQEND
  5
26A
330
267
100
AcDbEntity
  8
STANDARDEBENE
  0
POLYLINE
  5
26B
330
1F
100
AcDbEntity
  8
STANDARDEBENE
 62
     7
100
AcDb2dPolyline
 66
     1
 10
0.0
 20
0.0
 30
0.0
  0
VERTEX
  5
26C
330
26B
100
AcDbEntity
  8
STANDARDEBENE
 62
     7
100
AcDbVertex
100
AcDb2dVertex
 10
-221.14013671875
 20
38.1533203125
 30
0.0
  0
VERTEX
  5
26D
330
26B
100
AcDbEntity
  8
STANDARDEBENE
 62
     7
100
AcDbVertex
100
AcDb2dVertex
 10
-220.28271484375
 20
38.1533203125
 30
0.0
  0
SEQEND
  5
26E
330
26B
100
AcDbEntity
  8
STANDARDEBENE
  0
POLYLINE
  5
26F
330
1F
100
AcDbEntity
  8
STANDARDEBENE
 62
     7
100
AcDb2dPolyline
 66
     1
 10
0.0
 20
0.0
 30
0.0
  0
VERTEX
  5
270
330
26F
100
AcDbEntity
  8
STANDARDEBENE
 62
     7
100
AcDbVertex
100
AcDb2dVertex
 10
-221.14013671875
 20
17.95703125
 30
0.0
  0
VERTEX
  5
271
330
26F
100
AcDbEntity
  8
STANDARDEBENE
 62
     7
100
AcDbVertex
100
AcDb2dVertex
 10
-221.14013671875
 20
23.2041015625
 30
0.0
  0
VERTEX
  5
272
330
26F
100
AcDbEntity
  8
STANDARDEBENE
 62
     7
100
AcDbVertex
100
AcDb2dVertex
 10
-221.14013671875
 20
28.3623046875
 30
0.0
  0
VERTEX
  5
273
330
26F
100
AcDbEntity
  8
STANDARDEBENE
 62
     7
100
AcDbVertex
100
AcDb2dVertex
 10
-221.14013671875
 20
33.3662109375
 30
0.0
  0
VERTEX
  5
274
330
26F
100
AcDbEntity
  8
STANDARDEBENE
 62
     7
100
AcDbVertex
100
AcDb2dVertex
 10
-221.14013671875
 20
38.1533203125
 30
0.0
  0
SEQEND
  5
275
330
26F
100
AcDbEntity
  8
STANDARDEBENE
  0
POLYLINE
  5
276
330
1F
100
AcDbEntity
  8
STANDARDEBENE
 62
     7
100
AcDb2dPolyline
 66
     1
 10
0.0
 20
0.0
 30
0.0
  0
VERTEX
  5
277
330
276
100
AcDbEntity
  8
STANDARDEBENE
 62
     7
100
AcDbVertex
100
AcDb2dVertex
 10
-220.28271484375
 20
17.95703125
 30
0.0
  0
VERTEX
  5
278
330
276
100
AcDbEntity
  8
STANDARDEBENE
 62
     7
100
AcDbVertex
100
AcDb2dVertex
 10
-221.14013671875
 20
17.95703125
 30
0.0
  0
SEQEND
  5
279
330
276
100
AcDbEntity
  8
STANDARDEBENE
  0
POLYLINE
  5
27A
330
1F
100
AcDbEntity
  8
STANDARDEBENE
 62
     7
100
AcDb2dPolyline
 66
     1
 10
0.0
 20
0.0
 30
0.0
  0
VERTEX
  5
27B
330
27A
100
AcDbEntity
  8
STANDARDEBENE
 62
     7
100
AcDbVertex
100
AcDb2dVertex
 10
-235.87255859375
 20
36.84375
 30
0.0
  0
VERTEX
  5
27C
330
27A
100
AcDbEntity
  8
STANDARDEBENE
 62
     7
100
AcDbVertex
100
AcDb2dVertex
 10
-235.87255859375
 20
33.896484375
 30
0.0
  0
SEQEND
  5
27D
330
27A
100
AcDbEntity
  8
STANDARDEBENE
  0
POLYLINE
  5
27E
330
1F
100
AcDbEntity
  8
STANDARDEBENE
 62
     7
100
AcDb2dPolyline
 66
     1
 10
0.0
 20
0.0
 30
0.0
  0
VERTEX
  5
27F
330
27E
100
AcDbEntity
  8
STANDARDEBENE
 62
     7
100
AcDbVertex
100
AcDb2dVertex
 10
-235.87255859375
 20
17.95703125
 30
0.0
  0
VERTEX
  5
280
330
27E
100
AcDbEntity
  8
STANDARDEBENE
 62
     7
100
AcDbVertex
100
AcDb2dVertex
 10
-235.87255859375
 20
23.458984375
 30
0.0
  0
VERTEX
  5
281
330
27E
100
AcDbEntity
  8
STANDARDEBENE
 62
     7
100
AcDbVertex
100
AcDb2dVertex
 10
-235.87255859375
 20
28.8095703125
 30
0.0
  0
VERTEX
  5
282
330
27E
100
AcDbEntity
  8
STANDARDEBENE
 62
     7
100
AcDbVertex
100
AcDb2dVertex
 10
-235.87255859375
 20
33.896484375
 30
0.0
  0
VERTEX
  5
283
330
27E
100
AcDbEntity
  8
STANDARDEBENE
 62
     7
100
AcDbVertex
100
AcDb2dVertex
 10
-221.14013671875
 20
38.1533203125
 30
0.0
  0
SEQEND
  5
284
330
27E
100
AcDbEntity
  8
STANDARDEBENE
  0
POLYLINE
  5
285
330
1F
100
AcDbEntity
  8
STANDARDEBENE
 62
     7
100
AcDb2dPolyline
 66
     1
 10
0.0
 20
0.0
 30
0.0
  0
VERTEX
  5
286
330
285
100
AcDbEntity
  8
STANDARDEBENE
 62
     7
100
AcDbVertex
100
AcDb2dVertex
 10
-221.14013671875
 20
17.95703125
 30
0.0
  0
VERTEX
  5
287
330
285
100
AcDbEntity
  8
STANDARDEBENE
 62
     7
100
AcDbVertex
100
AcDb2dVertex
 10
-229.18212890625
 20
17.95703125
 30
0.0
  0
VERTEX
  5
288
330
285
100
AcDbEntity
  8
STANDARDEBENE
 62
     7
100
AcDbVertex
100
AcDb2dVertex
 10
-235.87255859375
 20
17.95703125
 30
0.0
  0
SEQEND
  5
289
330
285
100
AcDbEntity
  8
STANDARDEBENE
  0
POLYLINE
  5
28A
330
1F
100
AcDbEntity
  8
STANDARDEBENE
 62
     7
100
AcDb2dPolyline
 66
     1
 10
0.0
 20
0.0
 30
0.0
  0
VERTEX
  5
28B
330
28A
100
AcDbEntity
  8
STANDARDEBENE
 62
     7
100
AcDbVertex
100
AcDb2dVertex
 10
-220.28271484375
 20
-8.587890625
 30
0.0
  0
VERTEX
  5
28C
330
28A
100
AcDbEntity
  8
STANDARDEBENE
 62
     7
100
AcDbVertex
100
AcDb2dVertex
 10
-220.28271484375
 20
-5.8916015625
 30
0.0
  0
SEQEND
  5
28D
330
28A
100
AcDbEntity
  8
STANDARDEBENE
  0
POLYLINE
  5
28E
330
1F
100
AcDbEntity
  8
STANDARDEBENE
 62
     7
100
AcDb2dPolyline
 66
     1
 10
0.0
 20
0.0
 30
0.0
  0
VERTEX
  5
28F
330
28E
100
AcDbEntity
  8
STANDARDEBENE
 62
     7
100
AcDbVertex
100
AcDb2dVertex
 10
-220.28271484375
 20
-23.373046875
 30
0.0
  0
VERTEX
  5
290
330
28E
100
AcDbEntity
  8
STANDARDEBENE
 62
     7
100
AcDbVertex
100
AcDb2dVertex
 10
-220.28271484375
 20
-20.326171875
 30
0.0
  0
VERTEX
  5
291
330
28E
100
AcDbEntity
  8
STANDARDEBENE
 62
     7
100
AcDbVertex
100
AcDb2dVertex
 10
-220.28271484375
 20
-16.81640625
 30
0.0
  0
VERTEX
  5
292
330
28E
100
AcDbEntity
  8
STANDARDEBENE
 62
     7
100
AcDbVertex
100
AcDb2dVertex
 10
-220.28271484375
 20
-12.8876953125
 30
0.0
  0
VERTEX
  5
293
330
28E
100
AcDbEntity
  8
STANDARDEBENE
 62
     7
100
AcDbVertex
100
AcDb2dVertex
 10
-220.28271484375
 20
-8.587890625
 30
0.0
  0
SEQEND
  5
294
330
28E
100
AcDbEntity
  8
STANDARDEBENE
  0
POLYLINE
  5
295
330
1F
100
AcDbEntity
  8
STANDARDEBENE
 62
     7
100
AcDb2dPolyline
 66
     1
 10
0.0
 20
0.0
 30
0.0
  0
VERTEX
  5
296
330
295
100
AcDbEntity
  8
STANDARDEBENE
 62
     7
100
AcDbVertex
100
AcDb2dVertex
 10
-210.07568359375
 20
-5.8916015625
 30
0.0
  0
VERTEX
  5
297
330
295
100
AcDbEntity
  8
STANDARDEBENE
 62
     7
100
AcDbVertex
100
AcDb2dVertex
 10
-210.07568359375
 20
-8.587890625
 30
0.0
  0
SEQEND
  5
298
330
295
100
AcDbEntity
  8
STANDARDEBENE
  0
POLYLINE
  5
299
330
1F
100
AcDbEntity
  8
STANDARDEBENE
 62
     7
100
AcDb2dPolyline
 66
     1
 10
0.0
 20
0.0
 30
0.0
  0
VERTEX
  5
29A
330
299
100
AcDbEntity
  8
STANDARDEBENE
 62
     7
100
AcDbVertex
100
AcDb2dVertex
 10
-122.48583984375
 20
34.9384765625
 30
0.0
  0
VERTEX
  5
29B
330
299
100
AcDbEntity
  8
STANDARDEBENE
 62
     7
100
AcDbVertex
100
AcDb2dVertex
 10
-122.48583984375
 20
33.4833984375
 30
0.0
  0
SEQEND
  5
29C
330
299
100
AcDbEntity
  8
STANDARDEBENE
  0
POLYLINE
  5
29D
330
1F
100
AcDbEntity
  8
STANDARDEBENE
 62
     7
100
AcDb2dPolyline
 66
     1
 10
0.0
 20
0.0
 30
0.0
  0
VERTEX
  5
29E
330
29D
100
AcDbEntity
  8
STANDARDEBENE
 62
     7
100
AcDbVertex
100
AcDb2dVertex
 10
-122.48583984375
 20
31.9931640625
 30
0.0
  0
VERTEX
  5
29F
330
29D
100
AcDbEntity
  8
STANDARDEBENE
 62
     7
100
AcDbVertex
100
AcDb2dVertex
 10
-122.48583984375
 20
33.4833984375
 30
0.0
  0
SEQEND
  5
2A0
330
29D
100
AcDbEntity
  8
STANDARDEBENE
  0
POLYLINE
  5
2A1
330
1F
100
AcDbEntity
  8
STANDARDEBENE
 62
     7
100
AcDb2dPolyline
 66
     1
 10
0.0
 20
0.0
 30
0.0
  0
VERTEX
  5
2A2
330
2A1
100
AcDbEntity
  8
STANDARDEBENE
 62
     7
100
AcDbVertex
100
AcDb2dVertex
 10
-122.48583984375
 20
-0.9736328125
 30
0.0
  0
VERTEX
  5
2A3
330
2A1
100
AcDbEntity
  8
STANDARDEBENE
 62
     7
100
AcDbVertex
100
AcDb2dVertex
 10
-122.48583984375
 20
0.51953125
 30
0.0
  0
SEQEND
  5
2A4
330
2A1
100
AcDbEntity
  8
STANDARDEBENE
  0
POLYLINE
  5
2A5
330
1F
100
AcDbEntity
  8
STANDARDEBENE
 62
     7
100
AcDb2dPolyline
 66
     1
 10
0.0
 20
0.0
 30
0.0
  0
VERTEX
  5
2A6
330
2A5
100
AcDbEntity
  8
STANDARDEBENE
 62
     7
100
AcDbVertex
100
AcDb2dVertex
 10
-122.48583984375
 20
-2.4267578125
 30
0.0
  0
VERTEX
  5
2A7
330
2A5
100
AcDbEntity
  8
STANDARDEBENE
 62
     7
100
AcDbVertex
100
AcDb2dVertex
 10
-122.48583984375
 20
-0.9736328125
 30
0.0
  0
SEQEND
  5
2A8
330
2A5
100
AcDbEntity
  8
STANDARDEBENE
  0
POLYLINE
  5
2A9
330
1F
100
AcDbEntity
  8
STANDARDEBENE
 62
     7
100
AcDb2dPolyline
 66
     1
 10
0.0
 20
0.0
 30
0.0
  0
VERTEX
  5
2AA
330
2A9
100
AcDbEntity
  8
STANDARDEBENE
 62
     7
100
AcDbVertex
100
AcDb2dVertex
 10
-220.28271484375
 20
-5.8916015625
 30
0.0
  0
VERTEX
  5
2AB
330
2A9
100
AcDbEntity
  8
STANDARDEBENE
 62
     7
100
AcDbVertex
100
AcDb2dVertex
 10
-210.07568359375
 20
-5.8916015625
 30
0.0
  0
SEQEND
  5
2AC
330
2A9
100
AcDbEntity
  8
STANDARDEBENE
  0
POLYLINE
  5
2AD
330
1F
100
AcDbEntity
  8
STANDARDEBENE
 62
     7
100
AcDb2dPolyline
 66
     1
 10
0.0
 20
0.0
 30
0.0
  0
VERTEX
  5
2AE
330
2AD
100
AcDbEntity
  8
STANDARDEBENE
 62
     7
100
AcDbVertex
100
AcDb2dVertex
 10
-210.07568359375
 20
-18.705078125
 30
0.0
  0
VERTEX
  5
2AF
330
2AD
100
AcDbEntity
  8
STANDARDEBENE
 62
     7
100
AcDbVertex
100
AcDb2dVertex
 10
-220.28271484375
 20
-18.705078125
 30
0.0
  0
SEQEND
  5
2B0
330
2AD
100
AcDbEntity
  8
STANDARDEBENE
  0
POLYLINE
  5
2B1
330
1F
100
AcDbEntity
  8
STANDARDEBENE
 62
     7
100
AcDb2dPolyline
 66
     1
 10
0.0
 20
0.0
 30
0.0
  0
VERTEX
  5
2B2
330
2B1
100
AcDbEntity
  8
STANDARDEBENE
 62
     7
100
AcDbVertex
100
AcDb2dVertex
 10
-221.14013671875
 20
-8.587890625
 30
0.0
  0
VERTEX
  5
2B3
330
2B1
100
AcDbEntity
  8
STANDARDEBENE
 62
     7
100
AcDbVertex
100
AcDb2dVertex
 10
-220.28271484375
 20
-8.587890625
 30
0.0
  0
SEQEND
  5
2B4
330
2B1
100
AcDbEntity
  8
STANDARDEBENE
  0
POLYLINE
  5
2B5
330
1F
100
AcDbEntity
  8
STANDARDEBENE
 62
     7
100
AcDb2dPolyline
 66
     1
 10
0.0
 20
0.0
 30
0.0
  0
VERTEX
  5
2B6
330
2B5
100
AcDbEntity
  8
STANDARDEBENE
 62
     7
100
AcDbVertex
100
AcDb2dVertex
 10
-221.14013671875
 20
-23.373046875
 30
0.0
  0
VERTEX
  5
2B7
330
2B5
100
AcDbEntity
  8
STANDARDEBENE
 62
     7
100
AcDbVertex
100
AcDb2dVertex
 10
-221.14013671875
 20
-20.326171875
 30
0.0
  0
VERTEX
  5
2B8
330
2B5
100
AcDbEntity
  8
STANDARDEBENE
 62
     7
100
AcDbVertex
100
AcDb2dVertex
 10
-221.14013671875
 20
-16.81640625
 30
0.0
  0
VERTEX
  5
2B9
330
2B5
100
AcDbEntity
  8
STANDARDEBENE
 62
     7
100
AcDbVertex
100
AcDb2dVertex
 10
-221.14013671875
 20
-12.8876953125
 30
0.0
  0
VERTEX
  5
2BA
330
2B5
100
AcDbEntity
  8
STANDARDEBENE
 62
     7
100
AcDbVertex
100
AcDb2dVertex
 10
-221.14013671875
 20
-8.587890625
 30
0.0
  0
SEQEND
  5
2BB
330
2B5
100
AcDbEntity
  8
STANDARDEBENE
  0
POLYLINE
  5
2BC
330
1F
100
AcDbEntity
  8
STANDARDEBENE
 62
     7
100
AcDb2dPolyline
 66
     1
 10
0.0
 20
0.0
 30
0.0
  0
VERTEX
  5
2BD
330
2BC
100
AcDbEntity
  8
STANDARDEBENE
 62
     7
100
AcDbVertex
100
AcDb2dVertex
 10
-220.28271484375
 20
-23.373046875
 30
0.0
  0
VERTEX
  5
2BE
330
2BC
100
AcDbEntity
  8
STANDARDEBENE
 62
     7
100
AcDbVertex
100
AcDb2dVertex
 10
-221.14013671875
 20
-23.373046875
 30
0.0
  0
SEQEND
  5
2BF
330
2BC
100
AcDbEntity
  8
STANDARDEBENE
  0
POLYLINE
  5
2C0
330
1F
100
AcDbEntity
  8
STANDARDEBENE
 62
     7
100
AcDb2dPolyline
 66
     1
 10
0.0
 20
0.0
 30
0.0
  0
VERTEX
  5
2C1
330
2C0
100
AcDbEntity
  8
STANDARDEBENE
 62
     7
100
AcDbVertex
100
AcDb2dVertex
 10
-235.87255859375
 20
-16.0009765625
 30
0.0
  0
VERTEX
  5
2C2
330
2C0
100
AcDbEntity
  8
STANDARDEBENE
 62
     7
100
AcDbVertex
100
AcDb2dVertex
 10
-235.87255859375
 20
-12.6904296875
 30
0.0
  0
VERTEX
  5
2C3
330
2C0
100
AcDbEntity
  8
STANDARDEBENE
 62
     7
100
AcDbVertex
100
AcDb2dVertex
 10
-235.87255859375
 20
-8.7724609375
 30
0.0
  0
VERTEX
  5
2C4
330
2C0
100
AcDbEntity
  8
STANDARDEBENE
 62
     7
100
AcDbVertex
100
AcDb2dVertex
 10
-235.87255859375
 20
-4.3310546875
 30
0.0
  0
VERTEX
  5
2C5
330
2C0
100
AcDbEntity
  8
STANDARDEBENE
 62
     7
100
AcDbVertex
100
AcDb2dVertex
 10
-235.87255859375
 20
-1.3857421875
 30
0.0
  0
SEQEND
  5
2C6
330
2C0
100
AcDbEntity
  8
STANDARDEBENE
  0
POLYLINE
  5
2C7
330
1F
100
AcDbEntity
  8
STANDARDEBENE
 62
     7
100
AcDb2dPolyline
 66
     1
 10
0.0
 20
0.0
 30
0.0
  0
VERTEX
  5
2C8
330
2C7
100
AcDbEntity
  8
STANDARDEBENE
 62
     7
100
AcDbVertex
100
AcDb2dVertex
 10
-235.87255859375
 20
-4.3310546875
 30
0.0
  0
VERTEX
  5
2C9
330
2C7
100
AcDbEntity
  8
STANDARDEBENE
 62
     7
100
AcDbVertex
100
AcDb2dVertex
 10
-221.14013671875
 20
-8.587890625
 30
0.0
  0
SEQEND
  5
2CA
330
2C7
100
AcDbEntity
  8
STANDARDEBENE
  0
POLYLINE
  5
2CB
330
1F
100
AcDbEntity
  8
STANDARDEBENE
 62
     7
100
AcDb2dPolyline
 66
     1
 10
0.0
 20
0.0
 30
0.0
  0
VERTEX
  5
2CC
330
2CB
100
AcDbEntity
  8
STANDARDEBENE
 62
     7
100
AcDbVertex
100
AcDb2dVertex
 10
-221.14013671875
 20
-23.373046875
 30
0.0
  0
VERTEX
  5
2CD
330
2CB
100
AcDbEntity
  8
STANDARDEBENE
 62
     7
100
AcDbVertex
100
AcDb2dVertex
 10
-235.87255859375
 20
-16.0009765625
 30
0.0
  0
SEQEND
  5
2CE
330
2CB
100
AcDbEntity
  8
STANDARDEBENE
  0
POLYLINE
  5
2CF
330
1F
100
AcDbEntity
  8
STANDARDEBENE
 62
     7
100
AcDb2dPolyline
 66
     1
 10
0.0
 20
0.0
 30
0.0
  0
VERTEX
  5
2D0
330
2CF
100
AcDbEntity
  8
STANDARDEBENE
 62
     7
100
AcDbVertex
100
AcDb2dVertex
 10
-143.69775390625
 20
-0.9736328125
 30
0.0
  0
VERTEX
  5
2D1
330
2CF
100
AcDbEntity
  8
STANDARDEBENE
 62
     7
100
AcDbVertex
100
AcDb2dVertex
 10
-122.48583984375
 20
-0.9736328125
 30
0.0
  0
SEQEND
  5
2D2
330
2CF
100
AcDbEntity
  8
STANDARDEBENE
  0
POLYLINE
  5
2D3
330
1F
100
AcDbEntity
  8
STANDARDEBENE
 62
     7
100
AcDb2dPolyline
 66
     1
 10
0.0
 20
0.0
 30
0.0
  0
VERTEX
  5
2D4
330
2D3
100
AcDbEntity
  8
STANDARDEBENE
 62
     7
100
AcDbVertex
100
AcDb2dVertex
 10
-143.70068359375
 20
33.4833984375
 30
0.0
  0
VERTEX
  5
2D5
330
2D3
100
AcDbEntity
  8
STANDARDEBENE
 62
     7
100
AcDbVertex
100
AcDb2dVertex
 10
-122.48583984375
 20
33.4833984375
 30
0.0
  0
SEQEND
  5
2D6
330
2D3
100
AcDbEntity
  8
STANDARDEBENE
  0
POLYLINE
  5
2D8
330
1F
100
AcDbEntity
  8
BEMAßUNG
 62
     7
100
AcDb2dPolyline
 66
     1
 10
0.0
 20
0.0
 30
0.0
  0
VERTEX
  5
2D9
330
2D8
100
AcDbEntity
  8
BEMAßUNG
 62
     7
100
AcDbVertex
100
AcDb2dVertex
 10
-235.87255859375
 20
44.6025390625
 30
0.0
  0
VERTEX
  5
2DA
330
2D8
100
AcDbEntity
  8
BEMAßUNG
 62
     7
100
AcDbVertex
100
AcDb2dVertex
 10
-270.63818359375
 20
44.6025390625
 30
0.0
  0
SEQEND
  5
2DB
330
2D8
100
AcDbEntity
  8
BEMAßUNG
  0
POLYLINE
  5
2DC
330
1F
100
AcDbEntity
  8
BEMAßUNG
 62
     7
100
AcDb2dPolyline
 66
     1
 10
0.0
 20
0.0
 30
0.0
  0
VERTEX
  5
2DD
330
2DC
100
AcDbEntity
  8
BEMAßUNG
 62
     7
100
AcDbVertex
100
AcDb2dVertex
 10
-235.87255859375
 20
-12.0908203125
 30
0.0
  0
VERTEX
  5
2DE
330
2DC
100
AcDbEntity
  8
BEMAßUNG
 62
     7
100
AcDbVertex
100
AcDb2dVertex
 10
-270.63818359375
 20
-12.0908203125
 30
0.0
  0
SEQEND
  5
2DF
330
2DC
100
AcDbEntity
  8
BEMAßUNG
  0
POLYLINE
  5
2E0
330
1F
100
AcDbEntity
  8
BEMAßUNG
 62
     7
100
AcDb2dPolyline
 66
     1
 10
0.0
 20
0.0
 30
0.0
  0
VERTEX
  5
2E1
330
2E0
100
AcDbEntity
  8
BEMAßUNG
 62
     7
100
AcDbVertex
100
AcDb2dVertex
 10
-264.96923828125
 20
44.6025390625
 30
0.0
  0
VERTEX
  5
2E2
330
2E0
100
AcDbEntity
  8
BEMAßUNG
 62
     7
100
AcDbVertex
100
AcDb2dVertex
 10
-264.96923828125
 20
-12.0908203125
 30
0.0
  0
SEQEND
  5
2E3
330
2E0
100
AcDbEntity
  8
BEMAßUNG
  0
POLYLINE
  5
2E4
330
1F
100
AcDbEntity
  8
BEMAßUNG
 62
     7
100
AcDb2dPolyline
 66
     1
 10
0.0
 20
0.0
 30
0.0
  0
VERTEX
  5
2E5
330
2E4
100
AcDbEntity
  8
BEMAßUNG
 62
     7
100
AcDbVertex
100
AcDb2dVertex
 10
-264.96923828125
 20
44.6025390625
 30
0.0
  0
VERTEX
  5
2E6
330
2E4
100
AcDbEntity
  8
BEMAßUNG
 62
     7
100
AcDbVertex
100
AcDb2dVertex
 10
-265.90185546875
 20
37.515625
 30
0.0
  0
VERTEX
  5
2E7
330
2E4
100
AcDbEntity
  8
BEMAßUNG
 62
     7
100
AcDbVertex
100
AcDb2dVertex
 10
-264.03466796875
 20
37.515625
 30
0.0
  0
VERTEX
  5
2E8
330
2E4
100
AcDbEntity
  8
BEMAßUNG
 62
     7
100
AcDbVertex
100
AcDb2dVertex
 10
-264.96923828125
 20
44.6025390625
 30
0.0
  0
SEQEND
  5
2E9
330
2E4
100
AcDbEntity
  8
BEMAßUNG
  0
POLYLINE
  5
2EA
330
1F
100
AcDbEntity
  8
BEMAßUNG
 62
     7
100
AcDb2dPolyline
 66
     1
 10
0.0
 20
0.0
 30
0.0
  0
VERTEX
  5
2EB
330
2EA
100
AcDbEntity
  8
BEMAßUNG
 62
     7
100
AcDbVertex
100
AcDb2dVertex
 10
-265.83154296875
 20
37.515625
 30
0.0
  0
VERTEX
  5
2EC
330
2EA
100
AcDbEntity
  8
BEMAßUNG
 62
     7
100
AcDbVertex
100
AcDb2dVertex
 10
-265.83154296875
 20
38.0400390625
 30
0.0
  0
SEQEND
  5
2ED
330
2EA
100
AcDbEntity
  8
BEMAßUNG
  0
POLYLINE
  5
2EE
330
1F
100
AcDbEntity
  8
BEMAßUNG
 62
     7
100
AcDb2dPolyline
 66
     1
 10
0.0
 20
0.0
 30
0.0
  0
VERTEX
  5
2EF
330
2EE
100
AcDbEntity
  8
BEMAßUNG
 62
     7
100
AcDbVertex
100
AcDb2dVertex
 10
-265.83154296875
 20
37.515625
 30
0.0
  0
VERTEX
  5
2F0
330
2EE
100
AcDbEntity
  8
BEMAßUNG
 62
     7
100
AcDbVertex
100
AcDb2dVertex
 10
-265.83154296875
 20
38.0400390625
 30
0.0
  0
SEQEND
  5
2F1
330
2EE
100
AcDbEntity
  8
BEMAßUNG
  0
POLYLINE
  5
2F2
330
1F
100
AcDbEntity
  8
BEMAßUNG
 62
     7
100
AcDb2dPolyline
 66
     1
 10
0.0
 20
0.0
 30
0.0
  0
VERTEX
  5
2F3
330
2F2
100
AcDbEntity
  8
BEMAßUNG
 62
     7
100
AcDbVertex
100
AcDb2dVertex
 10
-265.68896484375
 20
37.515625
 30
0.0
  0
VERTEX
  5
2F4
330
2F2
100
AcDbEntity
  8
BEMAßUNG
 62
     7
100
AcDbVertex
100
AcDb2dVertex
 10
-265.68896484375
 20
39.1328125
 30
0.0
  0
SEQEND
  5
2F5
330
2F2
100
AcDbEntity
  8
BEMAßUNG
  0
POLYLINE
  5
2F6
330
1F
100
AcDbEntity
  8
BEMAßUNG
 62
     7
100
AcDb2dPolyline
 66
     1
 10
0.0
 20
0.0
 30
0.0
  0
VERTEX
  5
2F7
330
2F6
100
AcDbEntity
  8
BEMAßUNG
 62
     7
100
AcDbVertex
100
AcDb2dVertex
 10
-265.54541015625
 20
37.515625
 30
0.0
  0
VERTEX
  5
2F8
330
2F6
100
AcDbEntity
  8
BEMAßUNG
 62
     7
100
AcDbVertex
100
AcDb2dVertex
 10
-265.54541015625
 20
40.2275390625
 30
0.0
  0
SEQEND
  5
2F9
330
2F6
100
AcDbEntity
  8
BEMAßUNG
  0
POLYLINE
  5
2FA
330
1F
100
AcDbEntity
  8
BEMAßUNG
 62
     7
100
AcDb2dPolyline
 66
     1
 10
0.0
 20
0.0
 30
0.0
  0
VERTEX
  5
2FB
330
2FA
100
AcDbEntity
  8
BEMAßUNG
 62
     7
100
AcDbVertex
100
AcDb2dVertex
 10
-265.39990234375
 20
37.515625
 30
0.0
  0
VERTEX
  5
2FC
330
2FA
100
AcDbEntity
  8
BEMAßUNG
 62
     7
100
AcDbVertex
100
AcDb2dVertex
 10
-265.39990234375
 20
41.3212890625
 30
0.0
  0
SEQEND
  5
2FD
330
2FA
100
AcDbEntity
  8
BEMAßUNG
  0
POLYLINE
  5
2FE
330
1F
100
AcDbEntity
  8
BEMAßUNG
 62
     7
100
AcDb2dPolyline
 66
     1
 10
0.0
 20
0.0
 30
0.0
  0
VERTEX
  5
2FF
330
2FE
100
AcDbEntity
  8
BEMAßUNG
 62
     7
100
AcDbVertex
100
AcDb2dVertex
 10
-265.25634765625
 20
37.515625
 30
0.0
  0
VERTEX
  5
300
330
2FE
100
AcDbEntity
  8
BEMAßUNG
 62
     7
100
AcDbVertex
100
AcDb2dVertex
 10
-265.25634765625
 20
42.4150390625
 30
0.0
  0
SEQEND
  5
301
330
2FE
100
AcDbEntity
  8
BEMAßUNG
  0
POLYLINE
  5
302
330
1F
100
AcDbEntity
  8
BEMAßUNG
 62
     7
100
AcDb2dPolyline
 66
     1
 10
0.0
 20
0.0
 30
0.0
  0
VERTEX
  5
303
330
302
100
AcDbEntity
  8
BEMAßUNG
 62
     7
100
AcDbVertex
100
AcDb2dVertex
 10
-265.11279296875
 20
37.515625
 30
0.0
  0
VERTEX
  5
304
330
302
100
AcDbEntity
  8
BEMAßUNG
 62
     7
100
AcDbVertex
100
AcDb2dVertex
 10
-265.11279296875
 20
43.5078125
 30
0.0
  0
SEQEND
  5
305
330
302
100
AcDbEntity
  8
BEMAßUNG
  0
POLYLINE
  5
306
330
1F
100
AcDbEntity
  8
BEMAßUNG
 62
     7
100
AcDb2dPolyline
 66
     1
 10
0.0
 20
0.0
 30
0.0
  0
VERTEX
  5
307
330
306
100
AcDbEntity
  8
BEMAßUNG
 62
     7
100
AcDbVertex
100
AcDb2dVertex
 10
-264.96923828125
 20
37.515625
 30
0.0
  0
VERTEX
  5
308
330
306
100
AcDbEntity
  8
BEMAßUNG
 62
     7
100
AcDbVertex
100
AcDb2dVertex
 10
-264.96923828125
 20
44.6025390625
 30
0.0
  0
SEQEND
  5
309
330
306
100
AcDbEntity
  8
BEMAßUNG
  0
POLYLINE
  5
30A
330
1F
100
AcDbEntity
  8
BEMAßUNG
 62
     7
100
AcDb2dPolyline
 66
     1
 10
0.0
 20
0.0
 30
0.0
  0
VERTEX
  5
30B
330
30A
100
AcDbEntity
  8
BEMAßUNG
 62
     7
100
AcDbVertex
100
AcDb2dVertex
 10
-264.10498046875
 20
37.515625
 30
0.0
  0
VERTEX
  5
30C
330
30A
100
AcDbEntity
  8
BEMAßUNG
 62
     7
100
AcDbVertex
100
AcDb2dVertex
 10
-264.10498046875
 20
38.0400390625
 30
0.0
  0
SEQEND
  5
30D
330
30A
100
AcDbEntity
  8
BEMAßUNG
  0
POLYLINE
  5
30E
330
1F
100
AcDbEntity
  8
BEMAßUNG
 62
     7
100
AcDb2dPolyline
 66
     1
 10
0.0
 20
0.0
 30
0.0
  0
VERTEX
  5
30F
330
30E
100
AcDbEntity
  8
BEMAßUNG
 62
     7
100
AcDbVertex
100
AcDb2dVertex
 10
-264.10498046875
 20
37.515625
 30
0.0
  0
VERTEX
  5
310
330
30E
100
AcDbEntity
  8
BEMAßUNG
 62
     7
100
AcDbVertex
100
AcDb2dVertex
 10
-264.10498046875
 20
38.0400390625
 30
0.0
  0
SEQEND
  5
311
330
30E
100
AcDbEntity
  8
BEMAßUNG
  0
POLYLINE
  5
312
330
1F
100
AcDbEntity
  8
BEMAßUNG
 62
     7
100
AcDb2dPolyline
 66
     1
 10
0.0
 20
0.0
 30
0.0
  0
VERTEX
  5
313
330
312
100
AcDbEntity
  8
BEMAßUNG
 62
     7
100
AcDbVertex
100
AcDb2dVertex
 10
-264.24951171875
 20
37.515625
 30
0.0
  0
VERTEX
  5
314
330
312
100
AcDbEntity
  8
BEMAßUNG
 62
     7
100
AcDbVertex
100
AcDb2dVertex
 10
-264.24951171875
 20
39.1328125
 30
0.0
  0
SEQEND
  5
315
330
312
100
AcDbEntity
  8
BEMAßUNG
  0
POLYLINE
  5
316
330
1F
100
AcDbEntity
  8
BEMAßUNG
 62
     7
100
AcDb2dPolyline
 66
     1
 10
0.0
 20
0.0
 30
0.0
  0
VERTEX
  5
317
330
316
100
AcDbEntity
  8
BEMAßUNG
 62
     7
100
AcDbVertex
100
AcDb2dVertex
 10
-264.39208984375
 20
37.515625
 30
0.0
  0
VERTEX
  5
318
330
316
100
AcDbEntity
  8
BEMAßUNG
 62
     7
100
AcDbVertex
100
AcDb2dVertex
 10
-264.39208984375
 20
40.2275390625
 30
0.0
  0
SEQEND
  5
319
330
316
100
AcDbEntity
  8
BEMAßUNG
  0
POLYLINE
  5
31A
330
1F
100
AcDbEntity
  8
BEMAßUNG
 62
     7
100
AcDb2dPolyline
 66
     1
 10
0.0
 20
0.0
 30
0.0
  0
VERTEX
  5
31B
330
31A
100
AcDbEntity
  8
BEMAßUNG
 62
     7
100
AcDbVertex
100
AcDb2dVertex
 10
-264.53662109375
 20
37.515625
 30
0.0
  0
VERTEX
  5
31C
330
31A
100
AcDbEntity
  8
BEMAßUNG
 62
     7
100
AcDbVertex
100
AcDb2dVertex
 10
-264.53662109375
 20
41.3212890625
 30
0.0
  0
SEQEND
  5
31D
330
31A
100
AcDbEntity
  8
BEMAßUNG
  0
POLYLINE
  5
31E
330
1F
100
AcDbEntity
  8
BEMAßUNG
 62
     7
100
AcDb2dPolyline
 66
     1
 10
0.0
 20
0.0
 30
0.0
  0
VERTEX
  5
31F
330
31E
100
AcDbEntity
  8
BEMAßUNG
 62
     7
100
AcDbVertex
100
AcDb2dVertex
 10
-264.68115234375
 20
37.515625
 30
0.0
  0
VERTEX
  5
320
330
31E
100
AcDbEntity
  8
BEMAßUNG
 62
     7
100
AcDbVertex
100
AcDb2dVertex
 10
-264.68115234375
 20
42.4150390625
 30
0.0
  0
SEQEND
  5
321
330
31E
100
AcDbEntity
  8
BEMAßUNG
  0
POLYLINE
  5
322
330
1F
100
AcDbEntity
  8
BEMAßUNG
 62
     7
100
AcDb2dPolyline
 66
     1
 10
0.0
 20
0.0
 30
0.0
  0
VERTEX
  5
323
330
322
100
AcDbEntity
  8
BEMAßUNG
 62
     7
100
AcDbVertex
100
AcDb2dVertex
 10
-264.82568359375
 20
37.515625
 30
0.0
  0
VERTEX
  5
324
330
322
100
AcDbEntity
  8
BEMAßUNG
 62
     7
100
AcDbVertex
100
AcDb2dVertex
 10
-264.82568359375
 20
43.5078125
 30
0.0
  0
SEQEND
  5
325
330
322
100
AcDbEntity
  8
BEMAßUNG
  0
POLYLINE
  5
326
330
1F
100
AcDbEntity
  8
BEMAßUNG
 62
     7
100
AcDb2dPolyline
 66
     1
 10
0.0
 20
0.0
 30
0.0
  0
VERTEX
  5
327
330
326
100
AcDbEntity
  8
BEMAßUNG
 62
     7
100
AcDbVertex
100
AcDb2dVertex
 10
-264.96923828125
 20
37.515625
 30
0.0
  0
VERTEX
  5
328
330
326
100
AcDbEntity
  8
BEMAßUNG
 62
     7
100
AcDbVertex
100
AcDb2dVertex
 10
-264.96923828125
 20
44.6025390625
 30
0.0
  0
SEQEND
  5
329
330
326
100
AcDbEntity
  8
BEMAßUNG
  0
POLYLINE
  5
32A
330
1F
100
AcDbEntity
  8
BEMAßUNG
 62
     7
100
AcDb2dPolyline
 66
     1
 10
0.0
 20
0.0
 30
0.0
  0
VERTEX
  5
32B
330
32A
100
AcDbEntity
  8
BEMAßUNG
 62
     7
100
AcDbVertex
100
AcDb2dVertex
 10
-264.96923828125
 20
-12.0908203125
 30
0.0
  0
VERTEX
  5
32C
330
32A
100
AcDbEntity
  8
BEMAßUNG
 62
     7
100
AcDbVertex
100
AcDb2dVertex
 10
-264.03466796875
 20
-5.0029296875
 30
0.0
  0
VERTEX
  5
32D
330
32A
100
AcDbEntity
  8
BEMAßUNG
 62
     7
100
AcDbVertex
100
AcDb2dVertex
 10
-265.90185546875
 20
-5.0029296875
 30
0.0
  0
VERTEX
  5
32E
330
32A
100
AcDbEntity
  8
BEMAßUNG
 62
     7
100
AcDbVertex
100
AcDb2dVertex
 10
-264.96923828125
 20
-12.0908203125
 30
0.0
  0
SEQEND
  5
32F
330
32A
100
AcDbEntity
  8
BEMAßUNG
  0
POLYLINE
  5
330
330
1F
100
AcDbEntity
  8
BEMAßUNG
 62
     7
100
AcDb2dPolyline
 66
     1
 10
0.0
 20
0.0
 30
0.0
  0
VERTEX
  5
331
330
330
100
AcDbEntity
  8
BEMAßUNG
 62
     7
100
AcDbVertex
100
AcDb2dVertex
 10
-264.10498046875
 20
-5.0029296875
 30
0.0
  0
VERTEX
  5
332
330
330
100
AcDbEntity
  8
BEMAßUNG
 62
     7
100
AcDbVertex
100
AcDb2dVertex
 10
-264.10498046875
 20
-5.52734375
 30
0.0
  0
SEQEND
  5
333
330
330
100
AcDbEntity
  8
BEMAßUNG
  0
POLYLINE
  5
334
330
1F
100
AcDbEntity
  8
BEMAßUNG
 62
     7
100
AcDb2dPolyline
 66
     1
 10
0.0
 20
0.0
 30
0.0
  0
VERTEX
  5
335
330
334
100
AcDbEntity
  8
BEMAßUNG
 62
     7
100
AcDbVertex
100
AcDb2dVertex
 10
-264.10498046875
 20
-5.0029296875
 30
0.0
  0
VERTEX
  5
336
330
334
100
AcDbEntity
  8
BEMAßUNG
 62
     7
100
AcDbVertex
100
AcDb2dVertex
 10
-264.10498046875
 20
-5.52734375
 30
0.0
  0
SEQEND
  5
337
330
334
100
AcDbEntity
  8
BEMAßUNG
  0
POLYLINE
  5
338
330
1F
100
AcDbEntity
  8
BEMAßUNG
 62
     7
100
AcDb2dPolyline
 66
     1
 10
0.0
 20
0.0
 30
0.0
  0
VERTEX
  5
339
330
338
100
AcDbEntity
  8
BEMAßUNG
 62
     7
100
AcDbVertex
100
AcDb2dVertex
 10
-264.24951171875
 20
-5.0029296875
 30
0.0
  0
VERTEX
  5
33A
330
338
100
AcDbEntity
  8
BEMAßUNG
 62
     7
100
AcDbVertex
100
AcDb2dVertex
 10
-264.24951171875
 20
-6.6220703125
 30
0.0
  0
SEQEND
  5
33B
330
338
100
AcDbEntity
  8
BEMAßUNG
  0
POLYLINE
  5
33C
330
1F
100
AcDbEntity
  8
BEMAßUNG
 62
     7
100
AcDb2dPolyline
 66
     1
 10
0.0
 20
0.0
 30
0.0
  0
VERTEX
  5
33D
330
33C
100
AcDbEntity
  8
BEMAßUNG
 62
     7
100
AcDbVertex
100
AcDb2dVertex
 10
-264.39208984375
 20
-5.0029296875
 30
0.0
  0
VERTEX
  5
33E
330
33C
100
AcDbEntity
  8
BEMAßUNG
 62
     7
100
AcDbVertex
100
AcDb2dVertex
 10
-264.39208984375
 20
-7.7158203125
 30
0.0
  0
SEQEND
  5
33F
330
33C
100
AcDbEntity
  8
BEMAßUNG
  0
POLYLINE
  5
340
330
1F
100
AcDbEntity
  8
BEMAßUNG
 62
     7
100
AcDb2dPolyline
 66
     1
 10
0.0
 20
0.0
 30
0.0
  0
VERTEX
  5
341
330
340
100
AcDbEntity
  8
BEMAßUNG
 62
     7
100
AcDbVertex
100
AcDb2dVertex
 10
-264.53662109375
 20
-5.0029296875
 30
0.0
  0
VERTEX
  5
342
330
340
100
AcDbEntity
  8
BEMAßUNG
 62
     7
100
AcDbVertex
100
AcDb2dVertex
 10
-264.53662109375
 20
-8.810546875
 30
0.0
  0
SEQEND
  5
343
330
340
100
AcDbEntity
  8
BEMAßUNG
  0
POLYLINE
  5
344
330
1F
100
AcDbEntity
  8
BEMAßUNG
 62
     7
100
AcDb2dPolyline
 66
     1
 10
0.0
 20
0.0
 30
0.0
  0
VERTEX
  5
345
330
344
100
AcDbEntity
  8
BEMAßUNG
 62
     7
100
AcDbVertex
100
AcDb2dVertex
 10
-264.68115234375
 20
-5.0029296875
 30
0.0
  0
VERTEX
  5
346
330
344
100
AcDbEntity
  8
BEMAßUNG
 62
     7
100
AcDbVertex
100
AcDb2dVertex
 10
-264.68115234375
 20
-9.90234375
 30
0.0
  0
SEQEND
  5
347
330
344
100
AcDbEntity
  8
BEMAßUNG
  0
POLYLINE
  5
348
330
1F
100
AcDbEntity
  8
BEMAßUNG
 62
     7
100
AcDb2dPolyline
 66
     1
 10
0.0
 20
0.0
 30
0.0
  0
VERTEX
  5
349
330
348
100
AcDbEntity
  8
BEMAßUNG
 62
     7
100
AcDbVertex
100
AcDb2dVertex
 10
-264.82568359375
 20
-5.0029296875
 30
0.0
  0
VERTEX
  5
34A
330
348
100
AcDbEntity
  8
BEMAßUNG
 62
     7
100
AcDbVertex
100
AcDb2dVertex
 10
-264.82568359375
 20
-10.9970703125
 30
0.0
  0
SEQEND
  5
34B
330
348
100
AcDbEntity
  8
BEMAßUNG
  0
POLYLINE
  5
34C
330
1F
100
AcDbEntity
  8
BEMAßUNG
 62
     7
100
AcDb2dPolyline
 66
     1
 10
0.0
 20
0.0
 30
0.0
  0
VERTEX
  5
34D
330
34C
100
AcDbEntity
  8
BEMAßUNG
 62
     7
100
AcDbVertex
100
AcDb2dVertex
 10
-264.96923828125
 20
-5.0029296875
 30
0.0
  0
VERTEX
  5
34E
330
34C
100
AcDbEntity
  8
BEMAßUNG
 62
     7
100
AcDbVertex
100
AcDb2dVertex
 10
-264.96923828125
 20
-12.0908203125
 30
0.0
  0
SEQEND
  5
34F
330
34C
100
AcDbEntity
  8
BEMAßUNG
  0
POLYLINE
  5
350
330
1F
100
AcDbEntity
  8
BEMAßUNG
 62
     7
100
AcDb2dPolyline
 66
     1
 10
0.0
 20
0.0
 30
0.0
  0
VERTEX
  5
351
330
350
100
AcDbEntity
  8
BEMAßUNG
 62
     7
100
AcDbVertex
100
AcDb2dVertex
 10
-265.83154296875
 20
-5.0029296875
 30
0.0
  0
VERTEX
  5
352
330
350
100
AcDbEntity
  8
BEMAßUNG
 62
     7
100
AcDbVertex
100
AcDb2dVertex
 10
-265.83154296875
 20
-5.52734375
 30
0.0
  0
SEQEND
  5
353
330
350
100
AcDbEntity
  8
BEMAßUNG
  0
POLYLINE
  5
354
330
1F
100
AcDbEntity
  8
BEMAßUNG
 62
     7
100
AcDb2dPolyline
 66
     1
 10
0.0
 20
0.0
 30
0.0
  0
VERTEX
  5
355
330
354
100
AcDbEntity
  8
BEMAßUNG
 62
     7
100
AcDbVertex
100
AcDb2dVertex
 10
-265.83154296875
 20
-5.0029296875
 30
0.0
  0
VERTEX
  5
356
330
354
100
AcDbEntity
  8
BEMAßUNG
 62
     7
100
AcDbVertex
100
AcDb2dVertex
 10
-265.83154296875
 20
-5.52734375
 30
0.0
  0
SEQEND
  5
357
330
354
100
AcDbEntity
  8
BEMAßUNG
  0
POLYLINE
  5
358
330
1F
100
AcDbEntity
  8
BEMAßUNG
 62
     7
100
AcDb2dPolyline
 66
     1
 10
0.0
 20
0.0
 30
0.0
  0
VERTEX
  5
359
330
358
100
AcDbEntity
  8
BEMAßUNG
 62
     7
100
AcDbVertex
100
AcDb2dVertex
 10
-265.68896484375
 20
-5.0029296875
 30
0.0
  0
VERTEX
  5
35A
330
358
100
AcDbEntity
  8
BEMAßUNG
 62
     7
100
AcDbVertex
100
AcDb2dVertex
 10
-265.68896484375
 20
-6.6220703125
 30
0.0
  0
SEQEND
  5
35B
330
358
100
AcDbEntity
  8
BEMAßUNG
  0
POLYLINE
  5
35C
330
1F
100
AcDbEntity
  8
BEMAßUNG
 62
     7
100
AcDb2dPolyline
 66
     1
 10
0.0
 20
0.0
 30
0.0
  0
VERTEX
  5
35D
330
35C
100
AcDbEntity
  8
BEMAßUNG
 62
     7
100
AcDbVertex
100
AcDb2dVertex
 10
-265.54541015625
 20
-5.0029296875
 30
0.0
  0
VERTEX
  5
35E
330
35C
100
AcDbEntity
  8
BEMAßUNG
 62
     7
100
AcDbVertex
100
AcDb2dVertex
 10
-265.54541015625
 20
-7.7158203125
 30
0.0
  0
SEQEND
  5
35F
330
35C
100
AcDbEntity
  8
BEMAßUNG
  0
POLYLINE
  5
360
330
1F
100
AcDbEntity
  8
BEMAßUNG
 62
     7
100
AcDb2dPolyline
 66
     1
 10
0.0
 20
0.0
 30
0.0
  0
VERTEX
  5
361
330
360
100
AcDbEntity
  8
BEMAßUNG
 62
     7
100
AcDbVertex
100
AcDb2dVertex
 10
-265.39990234375
 20
-5.0029296875
 30
0.0
  0
VERTEX
  5
362
330
360
100
AcDbEntity
  8
BEMAßUNG
 62
     7
100
AcDbVertex
100
AcDb2dVertex
 10
-265.39990234375
 20
-8.810546875
 30
0.0
  0
SEQEND
  5
363
330
360
100
AcDbEntity
  8
BEMAßUNG
  0
POLYLINE
  5
364
330
1F
100
AcDbEntity
  8
BEMAßUNG
 62
     7
100
AcDb2dPolyline
 66
     1
 10
0.0
 20
0.0
 30
0.0
  0
VERTEX
  5
365
330
364
100
AcDbEntity
  8
BEMAßUNG
 62
     7
100
AcDbVertex
100
AcDb2dVertex
 10
-265.25634765625
 20
-5.0029296875
 30
0.0
  0
VERTEX
  5
366
330
364
100
AcDbEntity
  8
BEMAßUNG
 62
     7
100
AcDbVertex
100
AcDb2dVertex
 10
-265.25634765625
 20
-9.90234375
 30
0.0
  0
SEQEND
  5
367
330
364
100
AcDbEntity
  8
BEMAßUNG
  0
POLYLINE
  5
368
330
1F
100
AcDbEntity
  8
BEMAßUNG
 62
     7
100
AcDb2dPolyline
 66
     1
 10
0.0
 20
0.0
 30
0.0
  0
VERTEX
  5
369
330
368
100
AcDbEntity
  8
BEMAßUNG
 62
     7
100
AcDbVertex
100
AcDb2dVertex
 10
-265.11279296875
 20
-5.0029296875
 30
0.0
  0
VERTEX
  5
36A
330
368
100
AcDbEntity
  8
BEMAßUNG
 62
     7
100
AcDbVertex
100
AcDb2dVertex
 10
-265.11279296875
 20
-10.9970703125
 30
0.0
  0
SEQEND
  5
36B
330
368
100
AcDbEntity
  8
BEMAßUNG
  0
POLYLINE
  5
36C
330
1F
100
AcDbEntity
  8
BEMAßUNG
 62
     7
100
AcDb2dPolyline
 66
     1
 10
0.0
 20
0.0
 30
0.0
  0
VERTEX
  5
36D
330
36C
100
AcDbEntity
  8
BEMAßUNG
 62
     7
100
AcDbVertex
100
AcDb2dVertex
 10
-264.96923828125
 20
-5.0029296875
 30
0.0
  0
VERTEX
  5
36E
330
36C
100
AcDbEntity
  8
BEMAßUNG
 62
     7
100
AcDbVertex
100
AcDb2dVertex
 10
-264.96923828125
 20
-12.0908203125
 30
0.0
  0
SEQEND
  5
36F
330
36C
100
AcDbEntity
  8
BEMAßUNG
  0
MTEXT
  5
371
330
1F
100
AcDbEntity
  8
TEXT
 62
     7
100
AcDbMText
 10
-267.18701171875
 20
9.498046875
 30
0.0
 40
17.0
 41
0.0
 71
     7
 72
     1
  1
\fINDEX Univers 45 Light|b0|i0|c0|p34;\W1;D
 11
-4.371139000186241E-8
 21
0.999999999999999
 31
0.0
  0
ENDSEC
  0
SECTION
  2
OBJECTS
  0
DICTIONARY
  5
C
330
0
100
AcDbDictionary
  3
ACAD_GROUP
350
D
  3
ACAD_LAYOUT
350
1A
  3
ACAD_MLINESTYLE
350
17
  3
ACAD_PLOTSETTINGS
350
19
  3
ACAD_TABLESTYLE
350
392
  3
ACAD_VISUALSTYLE
350
2A
  3
ACDBHEADERROUNDTRIPXREC
350
372
  0
DICTIONARY
  5
D
102
{ACAD_REACTORS
330
C
102
}
330
C
100
AcDbDictionary
  0
DICTIONARY
  5
1A
102
{ACAD_REACTORS
330
C
102
}
330
C
100
AcDbDictionary
  0
DICTIONARY
  5
17
102
{ACAD_REACTORS
330
C
102
}
330
C
100
AcDbDictionary
  3
STANDARD
350
18
  0
DICTIONARY
  5
19
102
{ACAD_REACTORS
330
C
102
}
330
C
100
AcDbDictionary
  0
DICTIONARY
  5
392
102
{ACAD_REACTORS
330
C
102
}
330
C
100
AcDbDictionary
  0
DICTIONARY
  5
2A
102
{ACAD_REACTORS
330
C
102
}
330
C
100
AcDbDictionary
  3
2DWIREFRAME
350
2F
  3
3D_HIDDEN
350
31
  3
3DWIREFRAME
350
30
  3
BASIC
350
32
  3
BRIGHTEN
350
36
  3
COLORCHANGE
350
3A
  3
CONCEPTUAL
350
34
  3
DIM
350
35
  3
FACEPATTERN
350
39
  3
FLAT
350
2B
  3
FLATWITHEDGES
350
2C
  3
GOURAUD
350
2D
  3
GOURAUDWITHEDGES
350
2E
  3
LINEPATTERN
350
38
  3
REALISTIC
350
33
  3
THICKEN
350
37
  0
DICTIONARY
  5
372
102
{ACAD_REACTORS
330
C
102
}
330
C
100
AcDbDictionary
  3
CEPSNTYPE
350
37B
  3
DIMSTYLEDATA
350
391
  3
FINGERPRINTGUID
350
37C
  3
HYPERLINKBASE
350
375
  3
INSUNITS
350
37A
  3
LAYOUTDICT
350
377
  3
LWETCUNION
350
379
  3
PLOTSETDICT
350
378
  3
PSVPSCALE
350
37E
  3
PUCSBASE
350
381
  3
PUCSORGBACK
350
387
  3
PUCSORGBOTTOM
350
383
  3
PUCSORGFRONT
350
386
  3
PUCSORGLEFT
350
384
  3
PUCSORGRIGHT
350
385
  3
PUCSORGTOP
350
382
  3
PUCSORTHOREF
350
37F
  3
PUCSORTHOVIEW
350
380
  3
STYLESHEET
350
376
  3
TSTACKALIGN
350
373
  3
TSTACKSIZE
350
374
  3
UCSBASE
350
38A
  3
UCSORGBACK
350
390
  3
UCSORGBOTTOM
350
38C
  3
UCSORGFRONT
350
38F
  3
UCSORGLEFT
350
38D
  3
UCSORGRIGHT
350
38E
  3
UCSORGTOP
350
38B
  3
UCSORTHOREF
350
388
  3
UCSORTHOVIEW
350
389
  3
VERSIONGUID
350
37D
  0
MLINESTYLE
  5
18
102
{ACAD_REACTORS
330
17
102
}
330
17
100
AcDbMlineStyle
  2
Standard
 70
     0
  3

 62
   256
 51
90.0
 52
90.0
 71
     2
 49
0.5
 62
   256
  6
BYLAYER
 49
-0.5
 62
   256
  6
BYLAYER
  0
VISUALSTYLE
  5
2F
102
{ACAD_REACTORS
330
2A
102
}
330
2A
100
AcDbVisualStyle
  2
2dWireframe
 70
     4
 71
     0
 72
     2
 73
     0
 90
        0
 40
-0.6
 41
-30.0
 62
     5
 63
     7
 74
     1
 91
        4
 64
     7
 65
   257
 75
     1
175
     1
 42
1.0
 92
        0
 66
   257
 43
1.0
 76
     1
 77
     6
 78
     2
 67
     7
 79
     5
170
     0
171
     0
290
     0
174
     0
 93
        1
 44
0.0
173
     0
291
     0
 45
0.0
1001
ACAD
1000
AcDbSavedByObjectVersion
1070
     0
  0
VISUALSTYLE
  5
31
102
{ACAD_REACTORS
330
2A
102
}
330
2A
100
AcDbVisualStyle
  2
3D Hidden
 70
     6
 71
     1
 72
     2
 73
     2
 90
        0
 40
-0.6
 41
-30.0
 62
     5
 63
     7
 74
     2
 91
        2
 64
     7
 65
   257
 75
     2
175
     1
 42
40.0
 92
        0
 66
   257
 43
1.0
 76
     1
 77
     6
 78
     2
 67
     7
 79
     3
170
     0
171
     0
290
     0
174
     0
 93
        1
 44
0.0
173
     0
291
     0
 45
0.0
1001
ACAD
1000
AcDbSavedByObjectVersion
1070
     0
  0
VISUALSTYLE
  5
30
102
{ACAD_REACTORS
330
2A
102
}
330
2A
100
AcDbVisualStyle
  2
3dWireframe
 70
     5
 71
     0
 72
     2
 73
     0
 90
        0
 40
-0.6
 41
-30.0
 62
     5
 63
     7
 74
     1
 91
        4
 64
     7
 65
   257
 75
     1
175
     1
 42
1.0
 92
        0
 66
   257
 43
1.0
 76
     1
 77
     6
 78
     2
 67
     7
 79
     5
170
     0
171
     0
290
     0
174
     0
 93
        1
 44
0.0
173
     0
291
     0
 45
0.0
1001
ACAD
1000
AcDbSavedByObjectVersion
1070
     0
  0
VISUALSTYLE
  5
32
102
{ACAD_REACTORS
330
2A
102
}
330
2A
100
AcDbVisualStyle
  2
Basic
 70
     7
 71
     1
 72
     0
 73
     1
 90
        0
 40
-0.6
 41
-30.0
 62
     5
 63
     7
 74
     0
 91
        4
 64
     7
 65
   257
 75
     1
175
     1
 42
1.0
 92
        8
 66
     7
 43
1.0
 76
     1
 77
     6
 78
     2
 67
     7
 79
     5
170
     0
171
     0
290
     0
174
     0
 93
        1
 44
0.0
173
     0
291
     1
 45
0.0
1001
ACAD
1000
AcDbSavedByObjectVersion
1070
     0
  0
VISUALSTYLE
  5
36
102
{ACAD_REACTORS
330
2A
102
}
330
2A
100
AcDbVisualStyle
  2
Brighten
 70
    12
 71
     2
 72
     2
 73
     0
 90
        0
 40
-0.6
 41
-30.0
 62
     5
 63
     7
 74
     1
 91
        4
 64
     7
 65
   257
 75
     1
175
     1
 42
1.0
 92
        8
 66
     7
 43
1.0
 76
     1
 77
     6
 78
     2
 67
     7
 79
     5
170
     0
171
     0
290
     0
174
     0
 93
        1
 44
50.0
173
     0
291
     1
 45
0.0
1001
ACAD
1000
AcDbSavedByObjectVersion
1070
     0
  0
VISUALSTYLE
  5
3A
102
{ACAD_REACTORS
330
2A
102
}
330
2A
100
AcDbVisualStyle
  2
ColorChange
 70
    16
 71
     2
 72
     2
 73
     3
 90
        0
 40
-0.6
 41
-30.0
 62
     5
 63
     8
 74
     1
 91
        4
 64
     7
 65
   257
 75
     1
175
     1
 42
1.0
 92
        8
 66
     8
 43
1.0
 76
     1
 77
     6
 78
     2
 67
     7
 79
     5
170
     0
171
     0
290
     0
174
     0
 93
        1
 44
0.0
173
     0
291
     1
 45
0.0
1001
ACAD
1000
AcDbSavedByObjectVersion
1070
     0
  0
VISUALSTYLE
  5
34
102
{ACAD_REACTORS
330
2A
102
}
330
2A
100
AcDbVisualStyle
  2
Conceptual
 70
     9
 71
     3
 72
     2
 73
     0
 90
        0
 40
-0.6
 41
-30.0
 62
     5
 63
     7
 74
     2
 91
        2
 64
     7
 65
   257
 75
     1
175
     1
 42
40.0
 92
        8
 66
     7
 43
1.0
 76
     1
 77
     6
 78
     2
 67
     7
 79
     3
170
     0
171
     0
290
     0
174
     0
 93
        1
 44
0.0
173
     0
291
     0
 45
0.0
1001
ACAD
1000
AcDbSavedByObjectVersion
1070
     0
  0
VISUALSTYLE
  5
35
102
{ACAD_REACTORS
330
2A
102
}
330
2A
100
AcDbVisualStyle
  2
Dim
 70
    11
 71
     2
 72
     2
 73
     0
 90
        0
 40
-0.6
 41
-30.0
 62
     5
 63
     7
 74
     1
 91
        4
 64
     7
 65
   257
 75
     1
175
     1
 42
1.0
 92
        8
 66
     7
 43
1.0
 76
     1
 77
     6
 78
     2
 67
     7
 79
     5
170
     0
171
     0
290
     0
174
     0
 93
        1
 44
-50.0
173
     0
291
     1
 45
0.0
1001
ACAD
1000
AcDbSavedByObjectVersion
1070
     0
  0
VISUALSTYLE
  5
39
102
{ACAD_REACTORS
330
2A
102
}
330
2A
100
AcDbVisualStyle
  2
Facepattern
 70
    15
 71
     2
 72
     2
 73
     0
 90
        0
 40
-0.6
 41
-30.0
 62
     5
 63
     7
 74
     1
 91
        4
 64
     7
 65
   257
 75
     1
175
     1
 42
1.0
 92
        8
 66
     7
 43
1.0
 76
     1
 77
     6
 78
     2
 67
     7
 79
     5
170
     0
171
     0
290
     0
174
     0
 93
        1
 44
0.0
173
     0
291
     1
 45
0.0
1001
ACAD
1000
AcDbSavedByObjectVersion
1070
     0
  0
VISUALSTYLE
  5
2B
102
{ACAD_REACTORS
330
2A
102
}
330
2A
100
AcDbVisualStyle
  2
Flat
 70
     0
 71
     2
 72
     1
 73
     1
 90
        2
 40
-0.6
 41
30.0
 62
     5
 63
     7
 74
     0
 91
        4
 64
     7
 65
   257
 75
     1
175
     1
 42
1.0
 92
        8
 66
     7
 43
1.0
 76
     1
 77
     6
 78
     2
 67
     7
 79
     5
170
     0
171
     0
290
     0
174
     0
 93
       13
 44
0.0
173
     0
291
     1
 45
0.0
1001
ACAD
1000
AcDbSavedByObjectVersion
1070
     0
  0
VISUALSTYLE
  5
2C
102
{ACAD_REACTORS
330
2A
102
}
330
2A
100
AcDbVisualStyle
  2
FlatWithEdges
 70
     1
 71
     2
 72
     1
 73
     1
 90
        2
 40
-0.6
 41
30.0
 62
     5
 63
     7
 74
     1
 91
        4
 64
     7
 65
   257
 75
     1
175
     1
 42
1.0
 92
        0
 66
   257
 43
1.0
 76
     1
 77
     6
 78
     2
 67
     7
 79
     5
170
     0
171
     0
290
     0
174
     0
 93
       13
 44
0.0
173
     0
291
     1
 45
0.0
1001
ACAD
1000
AcDbSavedByObjectVersion
1070
     0
  0
VISUALSTYLE
  5
2D
102
{ACAD_REACTORS
330
2A
102
}
330
2A
100
AcDbVisualStyle
  2
Gouraud
 70
     2
 71
     2
 72
     2
 73
     1
 90
        2
 40
-0.6
 41
30.0
 62
     5
 63
     7
 74
     0
 91
        4
 64
     7
 65
   257
 75
     1
175
     1
 42
1.0
 92
        0
 66
     7
 43
1.0
 76
     1
 77
     6
 78
     2
 67
     7
 79
     5
170
     0
171
     0
290
     0
174
     0
 93
       13
 44
0.0
173
     0
291
     1
 45
0.0
1001
ACAD
1000
AcDbSavedByObjectVersion
1070
     0
  0
VISUALSTYLE
  5
2E
102
{ACAD_REACTORS
330
2A
102
}
330
2A
100
AcDbVisualStyle
  2
GouraudWithEdges
 70
     3
 71
     2
 72
     2
 73
     1
 90
        2
 40
-0.6
 41
30.0
 62
     5
 63
     7
 74
     1
 91
        4
 64
     7
 65
   257
 75
     1
175
     1
 42
1.0
 92
        0
 66
   257
 43
1.0
 76
     1
 77
     6
 78
     2
 67
     7
 79
     5
170
     0
171
     0
290
     0
174
     0
 93
       13
 44
0.0
173
     0
291
     1
 45
0.0
1001
ACAD
1000
AcDbSavedByObjectVersion
1070
     0
  0
VISUALSTYLE
  5
38
102
{ACAD_REACTORS
330
2A
102
}
330
2A
100
AcDbVisualStyle
  2
Linepattern
 70
    14
 71
     2
 72
     2
 73
     0
 90
        0
 40
-0.6
 41
-30.0
 62
     5
 63
     7
 74
     1
 91
        4
 64
     7
 65
   257
 75
     7
175
     7
 42
1.0
 92
        8
 66
     7
 43
1.0
 76
     1
 77
     6
 78
     2
 67
     7
 79
     5
170
     0
171
     0
290
     0
174
     0
 93
        1
 44
0.0
173
     0
291
     1
 45
0.0
1001
ACAD
1000
AcDbSavedByObjectVersion
1070
     0
  0
VISUALSTYLE
  5
33
102
{ACAD_REACTORS
330
2A
102
}
330
2A
100
AcDbVisualStyle
  2
Realistic
 70
     8
 71
     2
 72
     2
 73
     0
 90
        0
 40
-0.6
 41
-30.0
 62
     5
 63
     7
 74
     1
 91
        0
 64
     7
 65
   257
 75
     1
175
     1
 42
1.0
 92
        8
 66
     8
 43
1.0
 76
     1
 77
     6
 78
     2
 67
     7
 79
     5
170
     0
171
     0
290
     0
174
     0
 93
       13
 44
0.0
173
     0
291
     0
 45
0.0
1001
ACAD
1000
AcDbSavedByObjectVersion
1070
     0
  0
VISUALSTYLE
  5
37
102
{ACAD_REACTORS
330
2A
102
}
330
2A
100
AcDbVisualStyle
  2
Thicken
 70
    13
 71
     2
 72
     2
 73
     0
 90
        0
 40
-0.6
 41
-30.0
 62
     5
 63
     7
 74
     1
 91
        4
 64
     7
 65
   257
 75
     1
175
     1
 42
1.0
 92
       12
 66
     7
 43
1.0
 76
     1
 77
     6
 78
     2
 67
     7
 79
     5
170
     0
171
     0
290
     0
174
     0
 93
        1
 44
0.0
173
     0
291
     1
 45
0.0
1001
ACAD
1000
AcDbSavedByObjectVersion
1070
     0
  0
XRECORD
  5
37B
102
{ACAD_REACTORS
330
372
102
}
330
372
100
AcDbXrecord
 90
        0
  0
XRECORD
  5
391
102
{ACAD_REACTORS
330
372
102
}
330
372
100
AcDbXrecord
1000
DSTYLE
1002
{
1070
   340
340
11
1002
}
  0
XRECORD
  5
37C
102
{ACAD_REACTORS
330
372
102
}
330
372
100
AcDbXrecord
  1
{8A064AAB-3A48-416C-93FD-D4450C075F60}
  0
XRECORD
  5
375
102
{ACAD_REACTORS
330
372
102
}
330
372
100
AcDbXrecord
  1

  0
XRECORD
  5
37A
102
{ACAD_REACTORS
330
372
102
}
330
372
100
AcDbXrecord
 90
        1
  0
XRECORD
  5
377
102
{ACAD_REACTORS
330
372
102
}
330
372
100
AcDbXrecord
340
1A
  0
XRECORD
  5
379
102
{ACAD_REACTORS
330
372
102
}
330
372
100
AcDbXrecord
 90
    10269
  0
XRECORD
  5
378
102
{ACAD_REACTORS
330
372
102
}
330
372
100
AcDbXrecord
340
19
  0
XRECORD
  5
37E
102
{ACAD_REACTORS
330
372
102
}
330
372
100
AcDbXrecord
 40
0.0
  0
XRECORD
  5
381
102
{ACAD_REACTORS
330
372
102
}
330
372
100
AcDbXrecord
340
0
  0
XRECORD
  5
387
102
{ACAD_REACTORS
330
372
102
}
330
372
100
AcDbXrecord
 10
0.0
 20
0.0
 30
0.0
  0
XRECORD
  5
383
102
{ACAD_REACTORS
330
372
102
}
330
372
100
AcDbXrecord
 10
0.0
 20
0.0
 30
0.0
  0
XRECORD
  5
386
102
{ACAD_REACTORS
330
372
102
}
330
372
100
AcDbXrecord
 10
0.0
 20
0.0
 30
0.0
  0
XRECORD
  5
384
102
{ACAD_REACTORS
330
372
102
}
330
372
100
AcDbXrecord
 10
0.0
 20
0.0
 30
0.0
  0
XRECORD
  5
385
102
{ACAD_REACTORS
330
372
102
}
330
372
100
AcDbXrecord
 10
0.0
 20
0.0
 30
0.0
  0
XRECORD
  5
382
102
{ACAD_REACTORS
330
372
102
}
330
372
100
AcDbXrecord
 10
0.0
 20
0.0
 30
0.0
  0
XRECORD
  5
37F
102
{ACAD_REACTORS
330
372
102
}
330
372
100
AcDbXrecord
340
0
  0
XRECORD
  5
380
102
{ACAD_REACTORS
330
372
102
}
330
372
100
AcDbXrecord
 70
     0
  0
XRECORD
  5
376
102
{ACAD_REACTORS
330
372
102
}
330
372
100
AcDbXrecord
  1

  0
XRECORD
  5
373
102
{ACAD_REACTORS
330
372
102
}
330
372
100
AcDbXrecord
 90
        1
  0
XRECORD
  5
374
102
{ACAD_REACTORS
330
372
102
}
330
372
100
AcDbXrecord
 90
       70
  0
XRECORD
  5
38A
102
{ACAD_REACTORS
330
372
102
}
330
372
100
AcDbXrecord
340
0
  0
XRECORD
  5
390
102
{ACAD_REACTORS
330
372
102
}
330
372
100
AcDbXrecord
 10
0.0
 20
0.0
 30
0.0
  0
XRECORD
  5
38C
102
{ACAD_REACTORS
330
372
102
}
330
372
100
AcDbXrecord
 10
0.0
 20
0.0
 30
0.0
  0
XRECORD
  5
38F
102
{ACAD_REACTORS
330
372
102
}
330
372
100
AcDbXrecord
 10
0.0
 20
0.0
 30
0.0
  0
XRECORD
  5
38D
102
{ACAD_REACTORS
330
372
102
}
330
372
100
AcDbXrecord
 10
0.0
 20
0.0
 30
0.0
  0
XRECORD
  5
38E
102
{ACAD_REACTORS
330
372
102
}
330
372
100
AcDbXrecord
 10
0.0
 20
0.0
 30
0.0
  0
XRECORD
  5
38B
102
{ACAD_REACTORS
330
372
102
}
330
372
100
AcDbXrecord
 10
0.0
 20
0.0
 30
0.0
  0
XRECORD
  5
388
102
{ACAD_REACTORS
330
372
102
}
330
372
100
AcDbXrecord
340
0
  0
XRECORD
  5
389
102
{ACAD_REACTORS
330
372
102
}
330
372
100
AcDbXrecord
 70
     0
  0
XRECORD
  5
37D
102
{ACAD_REACTORS
330
372
102
}
330
372
100
AcDbXrecord
  1
{FAEB1C32-E019-11D5-929B-00C0DF256EC4}
  0
ENDSEC
  0
EOF
